  0
SECTION
  2
HEADER
  9
$ACADVER
  1
AC1009
  9
$INSBASE
 10
0.0
 20
0.0
 30
0.0
  9
$EXTMIN
 10
15835.855045779939
 20
-1130.9924261243591
 30
0.0
  9
$EXTMAX
 10
16134.38773062329
 20
-865.72757662836273
 30
0.0
  9
$LIMMIN
 10
0.0
 20
0.0
  9
$LIMMAX
 10
420.0
 20
297.0
  9
$ORTHOMODE
 70
     0
  9
$REGENMODE
 70
     1
  9
$FILLMODE
 70
     1
  9
$QTEXTMODE
 70
     0
  9
$MIRRTEXT
 70
     0
  9
$DRAGMODE
 70
     2
  9
$LTSCALE
 40
0.5
  9
$OSMODE
 70
  2173
  9
$ATTMODE
 70
     1
  9
$TEXTSIZE
 40
4.0
  9
$TRACEWID
 40
1.0
  9
$TEXTSTYLE
  7
STANDARD
  9
$CLAYER
  8
1TEXT
  9
$CELTYPE
  6
BYLAYER
  9
$CECOLOR
 62
   256
  9
$DIMSCALE
 40
1.0
  9
$DIMASZ
 40
2.0
  9
$DIMEXO
 40
0.0
  9
$DIMDLI
 40
7.0
  9
$DIMRND
 40
0.0
  9
$DIMDLE
 40
0.0
  9
$DIMEXE
 40
1.0
  9
$DIMTP
 40
0.0
  9
$DIMTM
 40
0.0
  9
$DIMTXT
 40
3.5
  9
$DIMCEN
 40
0.0
  9
$DIMTSZ
 40
0.0
  9
$DIMTOL
 70
     0
  9
$DIMLIM
 70
     0
  9
$DIMTIH
 70
     0
  9
$DIMTOH
 70
     0
  9
$DIMSE1
 70
     0
  9
$DIMSE2
 70
     0
  9
$DIMTAD
 70
     1
  9
$DIMZIN
 70
     8
  9
$DIMBLK
  1

  9
$DIMASO
 70
     1
  9
$DIMSHO
 70
     1
  9
$DIMPOST
  1
 
  9
$DIMAPOST
  1

  9
$DIMALT
 70
     0
  9
$DIMALTD
 70
     2
  9
$DIMALTF
 40
25.399999999999999
  9
$DIMLFAC
 40
1.0
  9
$DIMTOFL
 70
     1
  9
$DIMTVP
 40
0.0
  9
$DIMTIX
 70
     0
  9
$DIMSOXD
 70
     0
  9
$DIMSAH
 70
     1
  9
$DIMBLK1
  1
OPEN30
  9
$DIMBLK2
  1
OPEN30
  9
$DIMSTYLE
  2
NEWX10
  9
$DIMCLRD
 70
   256
  9
$DIMCLRE
 70
   256
  9
$DIMCLRT
 70
   201
  9
$DIMTFAC
 40
0.7
  9
$DIMGAP
 40
0.7
  9
$LUNITS
 70
     2
  9
$LUPREC
 70
     4
  9
$SKETCHINC
 40
1.0
  9
$FILLETRAD
 40
0.0
  9
$AUNITS
 70
     0
  9
$AUPREC
 70
     2
  9
$MENU
  1
acad
  9
$ELEVATION
 40
0.0
  9
$PELEVATION
 40
0.0
  9
$THICKNESS
 40
0.0
  9
$LIMCHECK
 70
     0
  9
$BLIPMODE
 70
     0
  9
$CHAMFERA
 40
1.25
  9
$CHAMFERB
 40
1.25
  9
$SKPOLY
 70
     0
  9
$TDCREATE
 40
2451318.621352917
  9
$TDUPDATE
 40
2454575.4103982178
  9
$TDINDWG
 40
1.7236100462999999
  9
$TDUSRTIMER
 40
1.7236100462999999
  9
$USRTIMER
 70
     1
  9
$ANGBASE
 50
0.0
  9
$ANGDIR
 70
     0
  9
$PDMODE
 70
     0
  9
$PDSIZE
 40
0.0
  9
$PLINEWID
 40
0.0
  9
$COORDS
 70
     2
  9
$SPLFRAME
 70
     0
  9
$SPLINETYPE
 70
     6
  9
$SPLINESEGS
 70
     8
  9
$ATTDIA
 70
     0
  9
$ATTREQ
 70
     1
  9
$HANDLING
 70
     1
  9
$HANDSEED
  5
15CFD
  9
$SURFTAB1
 70
     6
  9
$SURFTAB2
 70
     6
  9
$SURFTYPE
 70
     6
  9
$SURFU
 70
     6
  9
$SURFV
 70
     6
  9
$UCSNAME
  2

  9
$UCSORG
 10
0.0
 20
0.0
 30
0.0
  9
$UCSXDIR
 10
1.0
 20
0.0
 30
0.0
  9
$UCSYDIR
 10
0.0
 20
1.0
 30
0.0
  9
$PUCSNAME
  2

  9
$PUCSORG
 10
0.0
 20
0.0
 30
0.0
  9
$PUCSXDIR
 10
1.0
 20
0.0
 30
0.0
  9
$PUCSYDIR
 10
0.0
 20
1.0
 30
0.0
  9
$USERI1
 70
     0
  9
$USERI2
 70
     0
  9
$USERI3
 70
     0
  9
$USERI4
 70
     0
  9
$USERI5
 70
     0
  9
$USERR1
 40
0.0
  9
$USERR2
 40
0.0
  9
$USERR3
 40
0.0
  9
$USERR4
 40
0.0
  9
$USERR5
 40
0.0
  9
$WORLDVIEW
 70
     1
  9
$SHADEDGE
 70
     3
  9
$SHADEDIF
 70
    70
  9
$TILEMODE
 70
     1
  9
$MAXACTVP
 70
    48
  9
$PLIMCHECK
 70
     0
  9
$PEXTMIN
 10
1.0000000000000000E+020
 20
1.0000000000000000E+020
 30
1.0000000000000000E+020
  9
$PEXTMAX
 10
-1.0000000000000000E+020
 20
-1.0000000000000000E+020
 30
-1.0000000000000000E+020
  9
$PLIMMIN
 10
0.0
 20
0.0
  9
$PLIMMAX
 10
420.0
 20
297.0
  9
$UNITMODE
 70
     0
  9
$VISRETAIN
 70
     1
  9
$PLINEGEN
 70
     0
  9
$PSLTSCALE
 70
     1
  0
ENDSEC
  0
SECTION
  2
TABLES
  0
TABLE
  2
VPORT
 70
     4
  0
VPORT
  2
*ACTIVE
 70
     0
 10
0.0
 20
0.0
 11
1.0
 21
1.0
 12
15985.31899428181
 22
-998.33834189909965
 13
0.0
 23
0.0
 14
10.0
 24
10.0
 15
10.0
 25
10.0
 16
0.0
 26
0.0
 36
1.0
 17
0.0
 27
0.0
 37
0.0
 40
281.61945786903118
 41
1.508086253369272
 42
50.0
 43
0.0
 44
0.0
 50
0.0
 51
0.0
 71
     0
 72
   100
 73
     1
 74
     1
 75
     0
 76
     0
 77
     0
 78
     0
  0
ENDTAB
  0
TABLE
  2
LTYPE
 70
    18
  0
LTYPE
  2
CONTINUOUS
 70
     0
  3
Solid line
 72
    65
 73
     0
 40
0.0
  0
LTYPE
  2
XREF1|CENTER2
 70
    48
  3
Center (.5x) ___ _ ___ _ ___ _ ___ _ ___ _ ___
 72
    65
 73
     4
 40
28.574999999999999
 49
19.050000000000001
 49
-3.174999999999998
 49
3.174999999999998
 49
-3.174999999999998
  0
LTYPE
  2
CENTER2
 70
     0
  3
Center (.5x) ___ _ ___ _ ___ _ ___ _ ___ _ ___
 72
    65
 73
     4
 40
28.574999999999999
 49
19.050000000000001
 49
-3.1749999999999989
 49
3.1749999999999989
 49
-3.1749999999999989
  0
LTYPE
  2
A3WAKUDAKE|CENTER2
 70
    48
  3
Center (.5x) ___ _ ___ _ ___ _ ___ _ ___ _ ___
 72
    65
 73
     4
 40
28.574999999999999
 49
19.050000000000001
 49
-3.174999999999998
 49
3.174999999999998
 49
-3.174999999999998
  0
ENDTAB
  0
TABLE
  2
LAYER
 70
    82
  0
LAYER
  2
0
 70
     0
 62
     7
  6
CONTINUOUS
  0
LAYER
  2
1CENTER
 70
     0
 62
     7
  6
CENTER2
  0
LAYER
  2
1TEXT
 70
     0
 62
     7
  6
CONTINUOUS
  0
LAYER
  2
1DIM
 70
     0
 62
     7
  6
CONTINUOUS
  0
LAYER
  2
1HATCH
 70
     0
 62
     7
  6
CONTINUOUS
  0
LAYER
  2
01
 70
     0
 62
     1
  6
CONTINUOUS
  0
LAYER
  2
XREF1|1CENTER
 70
    48
 62
     7
  6
XREF1|CENTER2
  0
LAYER
  2
A3WAKUDAKE|THICK
 70
    48
 62
     7
  6
CONTINUOUS
  0
LAYER
  2
A3WAKUDAKE|POINT
 70
    48
 62
     7
  6
CONTINUOUS
  0
LAYER
  2
A3WAKUDAKE|1CENTER
 70
    48
 62
     7
  6
A3WAKUDAKE|CENTER2
  0
LAYER
  2
A3WAKUDAKE|0-6
 70
    48
 62
     7
  6
CONTINUOUS
  0
LAYER
  2
A3WAKUDAKE|1DIM
 70
    48
 62
     7
  6
CONTINUOUS
  0
ENDTAB
  0
TABLE
  2
STYLE
 70
    23
  0
STYLE
  2
STANDARD
 70
     0
 40
0.0
 41
1.0
 50
0.0
 71
     0
 42
4.0
  3
txt.shx
  4
extfont.shx
  0
ENDTAB
  0
TABLE
  2
VIEW
 70
     1
  0
VIEW
  2
OLE1
 70
     0
 40
307.44384118935511
 10
197.83231463994591
 20
72.5339709327408
 41
490.95683166672183
 11
0.0
 21
0.0
 31
1.0
 12
0.0
 22
0.0
 32
0.0
 42
50.0
 43
0.0
 44
0.0
 50
0.0
 71
     0
  0
ENDTAB
  0
TABLE
  2
UCS
 70
     4
  0
UCS
  2
U
 70
     0
 10
0.0
 20
0.0
 30
0.0
 11
1.0
 21
0.0
 31
0.0
 12
0.0
 22
-0.0000000000000002
 32
1.0
  0
UCS
  2
L
 70
     0
 10
0.0
 20
0.0
 30
0.0
 11
0.0000000000000001
 21
-1.0
 31
-0.0000000000000002
 12
0.0
 22
-0.0000000000000002
 32
1.0
  0
UCS
  2
ISOME
 70
     0
 10
0.0
 20
0.0
 30
0.0
 11
0.7071450863198269
 21
-0.7070684729403534
 31
-0.0000383082461943
 12
0.4082704059428731
 22
0.4082704077401155
 32
0.8164744636514738
  0
UCS
  2
PERSPECTIVE
 70
     0
 10
0.0
 20
0.0
 30
0.0
 11
0.8191477691768966
 21
-0.5735823260466401
 31
-0.0004974931557765
 12
0.1584844715982971
 22
0.225502028986108
 32
0.9612655757829658
  0
ENDTAB
  0
TABLE
  2
APPID
 70
    14
  0
APPID
  2
ACAD
 70
     0
  0
APPID
  2
DRAWINGVARIABLESXDATA
 70
     0
  0
APPID
  2
CONTENTTABDATA
 70
     0
  0
APPID
  2
CONTENTCURRENTTAB
 70
     0
  0
APPID
  2
CONTENTBLOCKDESCRIPTION
 70
     0
  0
APPID
  2
CONTENTBLOCKICON
 70
     0
  0
APPID
  2
CONTENTLONGBLOCKNAME
 70
     0
  0
APPID
  2
GRPNAME
 70
     0
  0
APPID
  2
LAYTOOL
 70
     0
  0
APPID
  2
ITM1
 70
     0
  0
APPID
  2
ITM2
 70
     0
  0
APPID
  2
ITM3
 70
     0
  0
APPID
  2
ITM4
 70
     0
  0
APPID
  2
ACAD_PSEXT
 70
     0
  0
ENDTAB
  0
TABLE
  2
DIMSTYLE
 70
     9
  0
DIMSTYLE
  2
NEWX10
 70
     0
  3
 
  4

  5

  6
OPEN30
  7
OPEN30
 40
1.0
 41
2.0
 42
0.0
 43
7.0
 44
1.0
 45
0.0
 46
0.0
 47
0.0
 48
0.0
140
3.5
141
0.0
142
0.0
143
25.399999999999999
144
1.0
145
0.0
146
0.7
147
0.7
 71
     0
 72
     0
 73
     0
 74
     0
 75
     0
 76
     0
 77
     1
 78
     8
170
     0
171
     2
172
     1
173
     1
174
     0
175
     0
176
   256
177
   256
178
   201
  0
ENDTAB
  0
ENDSEC
  0
SECTION
  2
BLOCKS
  0
BLOCK
  8
0
  2
$MODEL_SPACE
 70
     0
 10
0.0
 20
0.0
 30
0.0
  3
$MODEL_SPACE
  1

  0
ENDBLK
  5
1A
  8
0
  0
BLOCK
 67
     1
  8
0
  2
$PAPER_SPACE
 70
     0
 10
0.0
 20
0.0
 30
0.0
  3
$PAPER_SPACE
  1

  0
ENDBLK
  5
17
 67
     1
  8
0
  0
BLOCK
  8
0
  2
_OPEN30
 70
     0
 10
0.0
 20
0.0
 30
0.0
  3
_OPEN30
  1

  0
LINE
  5
44
  8
0
  6
BYBLOCK
 62
     0
 10
-1.0
 20
0.26794919
 30
0.0
 11
0.0
 21
0.0
 31
0.0
  0
LINE
  5
45
  8
0
  6
BYBLOCK
 62
     0
 10
0.0
 20
0.0
 30
0.0
 11
-1.0
 21
-0.26794919
 31
0.0
  0
LINE
  5
46
  8
0
  6
BYBLOCK
 62
     0
 10
0.0
 20
0.0
 30
0.0
 11
-1.0
 21
0.0
 31
0.0
  0
ENDBLK
  5
47
  8
0
  0
BLOCK
  8
0
  2
XREF1
 70
    36
 10
0.0
 20
0.0
 30
0.0
  3
XREF1
  1
D:\ACLT\FORMAT\KAWAJUN(9)図面用.dwg
  0
ENDBLK
  5
5D
  8
0
  0
BLOCK
  8
0
  2
A3WAKUDAKE
 70
    36
 10
0.0
 20
0.0
 30
0.0
  3
A3WAKUDAKE
  1
D:\ACLT\FORMAT\A3WAKUdake.dwg
  0
ENDBLK
  5
D88C
  8
0
  0
BLOCK
  8
0
  2
*U97
 70
     1
 10
0.0
 20
0.0
 30
0.0
  3
*U97
  1

  0
TEXT
  5
15552
  8
1DIM
 62
   201
 10
15640.06464002233
 20
-1122.573800611764
 30
0.0
 40
3.5
  1
71 
  0
ENDBLK
  5
15554
  8
0
  0
BLOCK
  8
0
  2
*U98
 70
     1
 10
0.0
 20
0.0
 30
0.0
  3
*U98
  1

  0
TEXT
  5
15556
  8
1DIM
 62
   201
 10
15574.43130668899
 20
-1122.573800611764
 30
0.0
 40
3.5
  1
34リフト3mm
  0
ENDBLK
  5
15558
  8
0
  0
BLOCK
  8
0
  2
*U99
 70
     1
 10
0.0
 20
0.0
 30
0.0
  3
*U99
  1

  0
TEXT
  5
1555A
  8
1DIM
 62
   201
 10
15631.164640022331
 20
-882.63265457822831
 30
0.0
 40
3.5
  1
φ12.7
  0
ENDBLK
  5
1555C
  8
0
  0
BLOCK
  8
0
  2
*U100
 70
     1
 10
0.0
 20
0.0
 30
0.0
  3
*U100
  1

  0
TEXT
  5
15561
  8
1DIM
 62
   201
 10
15553.629861728919
 20
-984.19035852398952
 30
0.0
 40
3.5
  1
227
 50
90.0
  0
ENDBLK
  5
15563
  8
0
  0
BLOCK
  8
0
  2
*U101
 70
     1
 10
0.0
 20
0.0
 30
0.0
  3
*U101
  1

  0
TEXT
  5
15565
  8
1DIM
 62
   201
 10
2014.6667898092419
 20
454.70134606021492
 30
0.0
 40
3.5
  1
2 
 50
90.0
  0
ENDBLK
  5
15567
  8
0
  0
BLOCK
  8
0
  2
*U102
 70
     1
 10
0.0
 20
0.0
 30
0.0
  3
*U102
  1

  0
TEXT
  5
15569
  8
1DIM
 62
   201
 10
2014.6667898092419
 20
493.33565943021262
 30
0.0
 40
3.5
  1
300
 50
90.0
  0
ENDBLK
  5
1556B
  8
0
  0
BLOCK
  8
0
  2
*U103
 70
     1
 10
0.0
 20
0.0
 30
0.0
  3
*U103
  1

  0
TEXT
  5
1556D
  8
1DIM
 62
   201
 10
2014.6667898092419
 20
430.37634606021498
 30
0.0
 40
3.5
  1
30 
 50
90.0
  0
ENDBLK
  5
1556F
  8
0
  0
BLOCK
  8
0
  2
*U104
 70
     1
 10
0.0
 20
0.0
 30
0.0
  3
*U104
  1

  0
TEXT
  5
15571
  8
1DIM
 62
   201
 10
2013.7501231425761
 20
351.00184606021509
 30
0.0
 40
3.5
  1
(447)
 50
90.0
  0
ENDBLK
  5
15573
  8
0
  0
BLOCK
  8
0
  2
*U105
 70
     1
 10
0.0
 20
0.0
 30
0.0
  3
*U105
  1

  0
TEXT
  5
15575
  8
1DIM
 62
   201
 10
2023.6709618771281
 20
340.20684606021501
 30
0.0
 40
3.5
  1
420
 50
90.0
  0
ENDBLK
  5
15577
  8
0
  0
BLOCK
  8
0
  2
*U106
 70
     1
 10
0.0
 20
0.0
 30
0.0
  3
*U106
  1

  0
TEXT
  5
15579
  8
1DIM
 62
   201
 10
2095.6250013120398
 20
497.97774709578408
 30
0.0
 40
3.5
  1
43 （リフト3mm）
  0
ENDBLK
  5
1557B
  8
0
  0
BLOCK
  8
0
  2
*U107
 70
     1
 10
0.0
 20
0.0
 30
0.0
  3
*U107
  1

  0
TEXT
  5
1557D
  8
1DIM
 62
   201
 10
2013.7501231425761
 20
535.15330294778437
 30
0.0
 40
3.5
  1
(7.7)
 50
90.0
  0
ENDBLK
  5
1557F
  8
0
  0
BLOCK
  8
0
  2
*U108
 70
     1
 10
0.0
 20
0.0
 30
0.0
  3
*U108
  1

  0
TEXT
  5
15581
  8
1DIM
 62
   201
 10
15908.031680117319
 20
-927.20030404568138
 30
0.0
 40
3.5
  1
300
 50
90.0
  0
ENDBLK
  5
15583
  8
0
  0
BLOCK
  8
0
  2
*U109
 70
     1
 10
0.0
 20
0.0
 30
0.0
  3
*U109
  1

  0
TEXT
  5
15585
  8
1DIM
 62
   201
 10
15908.031680117319
 20
-965.83461741567885
 30
0.0
 40
3.5
  1
2 
 50
90.0
  0
ENDBLK
  5
15587
  8
0
  0
BLOCK
  8
0
  2
*U110
 70
     1
 10
0.0
 20
0.0
 30
0.0
  3
*U110
  1

  0
TEXT
  5
15589
  8
1DIM
 62
   201
 10
15917.03585218521
 20
-1080.329117415678
 30
0.0
 40
3.5
  1
420
 50
90.0
  0
ENDBLK
  5
1558B
  8
0
  0
BLOCK
  8
0
  2
*U111
 70
     1
 10
0.0
 20
0.0
 30
0.0
  3
*U111
  1

  0
TEXT
  5
1558D
  8
1DIM
 62
   201
 10
15988.98989162012
 20
-922.55821638011184
 30
0.0
 40
3.5
  1
43 （リフト3mm）
  0
ENDBLK
  5
1558F
  8
0
  0
BLOCK
  8
0
  2
*U112
 70
     1
 10
0.0
 20
0.0
 30
0.0
  3
*U112
  1

  0
TEXT
  5
15591
  8
1DIM
 62
   201
 10
15907.115013450661
 20
-885.38266052810945
 30
0.0
 40
3.5
  1
(7.7)
 50
90.0
  0
ENDBLK
  5
15593
  8
0
  0
BLOCK
  8
0
  2
*U113
 70
     1
 10
0.0
 20
0.0
 30
0.0
  3
*U113
  1

  0
TEXT
  5
15595
  8
1DIM
 62
   201
 10
15708.765454841639
 20
-1000.167155473825
 30
0.0
 40
3.5
  1
43 （リフト３ｍｍ）
  0
ENDBLK
  5
15597
  8
0
  0
BLOCK
  8
0
  2
*U114
 70
     1
 10
0.0
 20
0.0
 30
0.0
  3
*U114
  1

  0
TEXT
  5
15599
  8
1DIM
 62
   201
 10
15657.082618726419
 20
-1014.629327332856
 30
0.0
 40
3.5
  1
332
 50
90.0
  0
ENDBLK
  5
1559B
  8
0
  0
BLOCK
  8
0
  2
*U115
 70
     1
 10
0.0
 20
0.0
 30
0.0
  3
*U115
  1

  0
TEXT
  5
1559D
  8
1DIM
 62
   201
 10
15656.16595205975
 20
-1129.1546606661891
 30
0.0
 40
3.5
  1
(527)
 50
90.0
  0
ENDBLK
  5
1559F
  8
0
  0
BLOCK
  8
0
  2
*U116
 70
     1
 10
0.0
 20
0.0
 30
0.0
  3
*U116
  1

  0
TEXT
  5
155A1
  8
1DIM
 62
   201
 10
15803.03317019247
 20
-1081.221827332856
 30
0.0
 40
3.5
  1
φ9.5
 50
90.0
  0
ENDBLK
  5
155A3
  8
0
  0
BLOCK
  8
0
  2
*U117
 70
     1
 10
0.0
 20
0.0
 30
0.0
  3
*U117
  1

  0
TEXT
  5
155A5
  8
1DIM
 62
   201
 10
16169.691099344789
 20
-940.13359959604543
 30
0.0
 40
3.5
  1
43 （リフト３ｍｍ）
  0
ENDBLK
  5
155A7
  8
0
  0
BLOCK
  8
0
  2
*U118
 70
     1
 10
0.0
 20
0.0
 30
0.0
  3
*U118
  1

  0
TEXT
  5
155A9
  8
1DIM
 62
   201
 10
16118.00826322958
 20
-954.59577145507626
 30
0.0
 40
3.5
  1
332
 50
90.0
  0
ENDBLK
  5
155AB
  8
0
  0
BLOCK
  8
0
  2
*U119
 70
     1
 10
0.0
 20
0.0
 30
0.0
  3
*U119
  1

  0
TEXT
  5
155AD
  8
1DIM
 62
   201
 10
16117.09159656291
 20
-1069.121104788409
 30
0.0
 40
3.5
  1
(527)
 50
90.0
  0
ENDBLK
  5
155AF
  8
0
  0
BLOCK
  8
0
  2
*U120
 70
     1
 10
0.0
 20
0.0
 30
0.0
  3
*U120
  1

  0
TEXT
  5
155B1
  8
1DIM
 62
   201
 10
15907.115013450661
 20
-1069.5341174156781
 30
0.0
 40
3.5
  1
(447)
 50
90.0
  0
ENDBLK
  5
155B3
  8
0
  0
BLOCK
  8
0
  2
*U121
 70
     1
 10
0.0
 20
0.0
 30
0.0
  3
*U121
  1

  0
TEXT
  5
155B5
  8
1DIM
 62
   201
 10
15985.80791933494
 20
-940.54661222331458
 30
0.0
 40
3.5
  1
43 （リフト３ｍｍ）
  0
ENDBLK
  5
155B7
  8
0
  0
BLOCK
  8
0
  2
*U122
 70
     1
 10
0.0
 20
0.0
 30
0.0
  3
*U122
  1

  0
TEXT
  5
155B9
  8
1DIM
 62
   201
 10
15656.16595205975
 20
-1129.1546606661891
 30
0.0
 40
3.5
  1
(527)
 50
90.0
  0
ENDBLK
  5
155BB
  8
0
  0
BLOCK
  8
0
  2
*U123
 70
     1
 10
0.0
 20
0.0
 30
0.0
  3
*U123
  1

  0
TEXT
  5
155BD
  8
1DIM
 62
   201
 10
16044.105043319811
 20
-1066.5479860782791
 30
0.0
 40
3.5
  1
(527)
 50
90.0
  0
ENDBLK
  5
155BF
  8
0
  0
BLOCK
  8
0
  2
*U124
 70
     1
 10
0.0
 20
0.0
 30
0.0
  3
*U124
  1

  0
TEXT
  5
155C1
  8
1DIM
 62
   201
 10
16091.858386757531
 20
-1021.601284082345
 30
0.0
 40
3.5
  1
φ9.5
 50
90.0
  0
ENDBLK
  5
155C3
  8
0
  0
BLOCK
  8
0
  2
*U125
 70
     1
 10
0.0
 20
0.0
 30
0.0
  3
*U125
  1

  0
TEXT
  5
155C5
  8
1DIM
 62
   201
 10
15908.031680117319
 20
-943.49188669066325
 30
0.0
 40
3.5
  1
340
 50
90.0
  0
ENDBLK
  5
155C7
  8
0
  0
BLOCK
  8
0
  2
*U126
 70
     1
 10
0.0
 20
0.0
 30
0.0
  3
*U126
  1

  0
TEXT
  5
155C9
  8
1DIM
 62
   201
 10
15656.16595205975
 20
-1129.1546606661891
 30
0.0
 40
3.5
  1
(527)
 50
90.0
  0
ENDBLK
  5
155CB
  8
0
  0
BLOCK
  8
0
  2
*U127
 70
     1
 10
0.0
 20
0.0
 30
0.0
  3
*U127
  1

  0
INSERT
  5
155CD
  8
1DIM
  2
_OPEN30
 10
59.793614024301853
 20
15.07107187405199
 30
0.0
 41
2.0
 42
2.0
 43
2.0
 50
149.8220664456708
  0
POLYLINE
  5
155CE
  8
1DIM
 66
     1
 10
0.0
 20
0.0
 30
0.0
  0
VERTEX
  5
155CF
  8
1DIM
 10
61.522550958292747
 20
14.065697775379171
 30
0.0
  0
VERTEX
  5
155D0
  8
1DIM
 10
84.507476179007568
 20
0.7000000321436346
 30
0.0
  0
VERTEX
  5
155D1
  8
1DIM
 10
98.874142845674228
 20
0.7000000321436346
 30
0.0
  0
SEQEND
  5
155D2
  8
1DIM
  0
ENDBLK
  5
155D4
  8
0
  0
BLOCK
  8
0
  2
*U128
 70
     1
 10
0.0
 20
0.0
 30
0.0
  3
*U128
  1

  0
TEXT
  5
155D6
  8
0
 62
   201
 10
86.597476179007572
 20
0.7000000321436346
 30
0.0
 40
3.5
  1
R1/2
  0
ENDBLK
  5
155D8
  8
0
  0
BLOCK
  8
0
  2
*U129
 70
     1
 10
0.0
 20
0.0
 30
0.0
  3
*U129
  1

  0
TEXT
  5
155DA
  8
1DIM
 62
   201
 10
15710.004656110839
 20
-944.57819335989007
 30
0.0
 40
3.5
  1
φ12.7
  0
ENDBLK
  5
155DC
  8
0
  0
BLOCK
  8
0
  2
*U130
 70
     1
 10
0.0
 20
0.0
 30
0.0
  3
*U130
  1

  0
TEXT
  5
155DE
  8
1DIM
 62
   201
 10
15987.04712060414
 20
-869.22757662836273
 30
0.0
 40
3.5
  1
φ12.7
  0
ENDBLK
  5
155E0
  8
0
  0
BLOCK
  8
0
  2
*U131
 70
     1
 10
0.0
 20
0.0
 30
0.0
  3
*U131
  1

  0
TEXT
  5
155E2
  8
1DIM
 62
   201
 10
15972.70545393748
 20
-1129.2924261243591
 30
0.0
 40
3.5
  1
φ60
  0
ENDBLK
  5
155E4
  8
0
  0
ENDSEC
  0
SECTION
  2
ENTITIES
  0
LINE
  5
14A71
  8
01
 10
15966.280453937479
 20
-1018.245617415681
 30
0.0
 11
15966.280453937479
 21
-1014.249617415681
 31
0.0
  0
ARC
  5
14A72
  8
01
 10
15951.280453937479
 20
-1018.245617415681
 30
0.0
 40
15.0
 50
321.73699999983171
 51
0.0
  0
ARC
  5
14A73
  8
01
 10
15953.280453937479
 20
-1014.249617415681
 30
0.0
 40
13.0
 50
0.0
 51
14.592999999977421
  0
LINE
  5
14A86
  8
01
 10
15963.058453937479
 20
-1027.5346174156809
 30
0.0
 11
15963.058453937479
 21
-1036.395617415681
 31
0.0
  0
LINE
  5
14A88
  8
01
 10
15992.502453937481
 20
-1027.5346174156809
 30
0.0
 11
15992.502453937481
 21
-1036.395617415681
 31
0.0
  0
ARC
  5
14A89
  8
01
 10
16001.27945393747
 20
-1019.350617415681
 30
0.0
 40
12.0
 50
181.50700000001149
 51
223.00100000009101
  0
ARC
  5
14A8B
  8
01
 10
15994.280453937479
 20
-1019.5346174156811
 30
0.0
 40
5.0
 50
90.000999999892258
 51
180.0009999999964
  0
LINE
  5
14A8C
  8
01
 10
15992.502453937481
 20
-1036.395617415681
 30
0.0
 11
15990.530453937479
 21
-1037.5346174156809
 31
0.0
  0
LINE
  5
14A8D
  8
01
 10
15963.058453937479
 20
-1036.395617415681
 30
0.0
 11
15965.030453937479
 21
-1037.5346174156809
 31
0.0
  0
ARC
  5
14A90
  8
01
 10
15991.25745393748
 20
-987.53461741568128
 30
0.0
 40
3.0
 50
180.0009999999964
 51
270.0
  0
LINE
  5
14A9C
  8
1CENTER
 10
16026.46845393747
 20
-1002.5346174156811
 30
0.0
 11
15960.859453937481
 21
-1002.5346174156811
 31
0.0
  0
LINE
  5
14A9D
  8
1CENTER
 10
15977.780453937479
 20
-871.85549465356974
 30
0.0
 11
15977.780453937479
 21
-1125.3623003598091
 31
0.0
  0
LINE
  5
14AA0
  8
01
 10
16003.752453937481
 20
-991.34761741568138
 30
0.0
 11
16003.752453937481
 21
-990.0346174156814
 31
0.0
  0
LINE
  5
14AA1
  8
01
 10
16003.752453937481
 20
-1013.721617415681
 30
0.0
 11
16003.752453937481
 21
-1015.0346174156811
 31
0.0
  0
ARC
  5
14AA5
  8
01
 10
16030.065453937479
 20
-1020.149617415681
 30
0.0
 40
18.0
 50
137.6970000000947
 51
161.51100000000531
  0
ARC
  5
14AA6
  8
01
 10
16008.252453937481
 20
-1012.855617415681
 30
0.0
 40
5.0
 50
316.69499999995622
 51
341.51100000000531
  0
ARC
  5
14AA7
  8
01
 10
16008.252453937481
 20
-1012.855617415681
 30
0.0
 40
5.0
 50
205.84299999982059
 51
223.30700000005649
  0
LINE
  5
14AA8
  8
01
 10
16004.61345393748
 20
-1016.2846174156811
 30
0.0
 11
16011.89045393748
 21
-1016.2846174156811
 31
0.0
  0
LINE
  5
14AA9
  8
01
 10
16004.61345393748
 20
-988.7846174156814
 30
0.0
 11
16011.89045393748
 21
-988.7846174156814
 31
0.0
  0
ARC
  5
14AAA
  8
01
 10
16008.252453937481
 20
-992.21361741568148
 30
0.0
 40
5.0
 50
136.6949999999562
 51
154.15999999990549
  0
ARC
  5
14AAB
  8
01
 10
16008.252453937481
 20
-992.21361741568148
 30
0.0
 40
5.0
 50
18.492000000049568
 51
43.307000000056533
  0
ARC
  5
14AAC
  8
01
 10
16030.065453937479
 20
-984.9196174156807
 30
0.0
 40
18.0
 50
198.49100000004719
 51
222.30400000014879
  0
LINE
  5
14AB2
  8
01
 10
16016.752453937481
 20
-1007.2846174156811
 30
0.0
 11
16016.752453937481
 21
-1008.0346174156811
 31
0.0
  0
LINE
  5
14AB4
  8
01
 10
16016.752453937481
 20
-997.7846174156814
 30
0.0
 11
16016.752453937481
 21
-997.0346174156814
 31
0.0
  0
LINE
  5
14AE2
  8
01
 10
16018.780453937479
 20
-1003.434617415681
 30
0.0
 11
16020.780453937479
 21
-1003.434617415681
 31
0.0
  0
LINE
  5
14AE7
  8
01
 10
16020.780453937479
 20
-1006.2846174156811
 30
0.0
 11
16020.780453937479
 21
-1003.434617415681
 31
0.0
  0
ARC
  5
14AEF
  8
01
 10
16019.780453937479
 20
-1006.2846174156811
 30
0.0
 40
1.0
 50
270.0
 51
0.0009999999964737
  0
LINE
  5
14AF1
  8
01
 10
16018.780453937479
 20
-1002.5346174156811
 30
0.0
 11
16018.780453937479
 21
-1003.434617415681
 31
0.0
  0
LINE
  5
14AF2
  8
01
 10
16018.780453937479
 20
-1002.5346174156811
 30
0.0
 11
16018.780453937479
 21
-1001.634617415681
 31
0.0
  0
ARC
  5
14AF4
  8
01
 10
16019.780453937479
 20
-998.7846174156814
 30
0.0
 40
1.0
 50
0.0
 51
90.000999999892258
  0
LINE
  5
14AFC
  8
01
 10
16020.780453937479
 20
-998.7846174156814
 30
0.0
 11
16020.780453937479
 21
-1001.634617415681
 31
0.0
  0
LINE
  5
14B01
  8
01
 10
16018.780453937479
 20
-1001.634617415681
 30
0.0
 11
16020.780453937479
 21
-1001.634617415681
 31
0.0
  0
LINE
  5
14B3E
  8
01
 10
15988.039453937479
 20
-1121.3716174156809
 30
0.0
 11
15986.840453937481
 21
-1122.533617415681
 31
0.0
  0
LINE
  5
14B3F
  8
01
 10
15986.840453937481
 20
-1122.533617415681
 30
0.0
 11
15968.720453937471
 21
-1122.533617415681
 31
0.0
  0
LINE
  5
14B40
  8
01
 10
15968.720453937471
 20
-1122.533617415681
 30
0.0
 11
15967.52145393747
 21
-1121.3716174156809
 31
0.0
  0
LINE
  5
14B43
  8
01
 10
15988.377453937481
 20
-1110.5346174156809
 30
0.0
 11
15988.039453937479
 21
-1121.3716174156809
 31
0.0
  0
LINE
  5
14B44
  8
01
 10
15967.183453937479
 20
-1110.5346174156809
 30
0.0
 11
15967.52145393747
 21
-1121.3716174156809
 31
0.0
  0
LINE
  5
14B49
  8
01
 10
15988.180453937481
 20
-1104.328617415681
 30
0.0
 11
15988.180453937481
 21
-1110.5346174156809
 31
0.0
  0
LINE
  5
14B4B
  8
01
 10
15967.38045393748
 20
-1104.328617415681
 30
0.0
 11
15967.38045393748
 21
-1110.5346174156809
 31
0.0
  0
LINE
  5
14B4D
  8
01
 10
15967.38045393748
 20
-1064.6416174156809
 30
0.0
 11
15967.38045393748
 21
-1041.3746174156811
 31
0.0
  0
LINE
  5
14B4E
  8
01
 10
15988.180453937481
 20
-1064.6416174156809
 30
0.0
 11
15988.180453937481
 21
-1041.3746174156811
 31
0.0
  0
LINE
  5
14B4F
  8
01
 10
15967.38045393748
 20
-1088.328617415681
 30
0.0
 11
15967.38045393748
 21
-1067.637617415681
 31
0.0
  0
LINE
  5
14B50
  8
01
 10
15988.180453937481
 20
-1088.328617415681
 30
0.0
 11
15988.180453937481
 21
-1067.637617415681
 31
0.0
  0
ARC
  5
14B55
  8
01
 10
15989.984453937481
 20
-1113.328617415681
 30
0.0
 40
25.0
 50
66.444000000147582
 51
90.000999999892258
  0
ARC
  5
14B56
  8
01
 10
15994.780453937479
 20
-1102.328617415681
 30
0.0
 40
13.0
 50
0.0
 51
66.444000000147582
  0
LINE
  5
14B57
  8
01
 10
16007.780453937479
 20
-1102.328617415681
 30
0.0
 11
16007.780453937479
 21
-1104.328617415681
 31
0.0
  0
LINE
  5
14B5E
  8
01
 10
15988.180453937481
 20
-1088.328617415681
 30
0.0
 11
15989.984453937481
 21
-1088.328617415681
 31
0.0
  0
LINE
  5
14B65
  8
01
 10
15988.180453937481
 20
-1088.328617415681
 30
0.0
 11
15965.57645393747
 21
-1088.328617415681
 31
0.0
  0
LINE
  5
14B66
  8
01
 10
16007.780453937479
 20
-1104.328617415681
 30
0.0
 11
15947.780453937479
 21
-1104.328617415681
 31
0.0
  0
LINE
  5
14B6C
  8
01
 10
15947.780453937479
 20
-1102.328617415681
 30
0.0
 11
15947.780453937479
 21
-1104.328617415681
 31
0.0
  0
ARC
  5
14B6D
  8
01
 10
15960.780453937479
 20
-1102.328617415681
 30
0.0
 40
13.0
 50
113.55799999991071
 51
180.0009999999964
  0
ARC
  5
14B6E
  8
01
 10
15965.57645393747
 20
-1113.328617415681
 30
0.0
 40
25.0
 50
90.000999999892258
 51
113.55799999991071
  0
POLYLINE
  8
01
  5
155E5
  66
     1
 10
0.000000
 20
0.000000
 30
0.000000
  70
     8
  0
VERTEX
  8
01
  5
155E6
 10
15967.4
 20
-1064.64
 30
0.000000
  70
    32
  0
VERTEX
  8
01
  5
155E7
 10
15967.5
 20
-1064.59
 30
0.000000
  70
    32
  0
VERTEX
  8
01
  5
155E8
 10
15967.6
 20
-1064.53
 30
0.000000
  70
    32
  0
VERTEX
  8
01
  5
155E9
 10
15967.7
 20
-1064.48
 30
0.000000
  70
    32
  0
VERTEX
  8
01
  5
155EA
 10
15967.8
 20
-1064.43
 30
0.000000
  70
    32
  0
VERTEX
  8
01
  5
155EB
 10
15968.0
 20
-1064.37
 30
0.000000
  70
    32
  0
VERTEX
  8
01
  5
155EC
 10
15968.1
 20
-1064.32
 30
0.000000
  70
    32
  0
VERTEX
  8
01
  5
155ED
 10
15968.2
 20
-1064.27
 30
0.000000
  70
    32
  0
VERTEX
  8
01
  5
155EE
 10
15968.3
 20
-1064.21
 30
0.000000
  70
    32
  0
VERTEX
  8
01
  5
155EF
 10
15968.4
 20
-1064.16
 30
0.000000
  70
    32
  0
VERTEX
  8
01
  5
155F0
 10
15968.5
 20
-1064.11
 30
0.000000
  70
    32
  0
VERTEX
  8
01
  5
155F1
 10
15968.6
 20
-1064.06
 30
0.000000
  70
    32
  0
VERTEX
  8
01
  5
155F2
 10
15968.8
 20
-1064.01
 30
0.000000
  70
    32
  0
VERTEX
  8
01
  5
155F3
 10
15968.9
 20
-1063.96
 30
0.000000
  70
    32
  0
VERTEX
  8
01
  5
155F4
 10
15969.0
 20
-1063.91
 30
0.000000
  70
    32
  0
VERTEX
  8
01
  5
155F5
 10
15969.1
 20
-1063.86
 30
0.000000
  70
    32
  0
VERTEX
  8
01
  5
155F6
 10
15969.2
 20
-1063.81
 30
0.000000
  70
    32
  0
VERTEX
  8
01
  5
155F7
 10
15969.3
 20
-1063.76
 30
0.000000
  70
    32
  0
VERTEX
  8
01
  5
155F8
 10
15969.4
 20
-1063.72
 30
0.000000
  70
    32
  0
VERTEX
  8
01
  5
155F9
 10
15969.6
 20
-1063.67
 30
0.000000
  70
    32
  0
VERTEX
  8
01
  5
155FA
 10
15969.7
 20
-1063.63
 30
0.000000
  70
    32
  0
VERTEX
  8
01
  5
155FB
 10
15969.8
 20
-1063.58
 30
0.000000
  70
    32
  0
VERTEX
  8
01
  5
155FC
 10
15969.9
 20
-1063.54
 30
0.000000
  70
    32
  0
VERTEX
  8
01
  5
155FD
 10
15970.0
 20
-1063.50
 30
0.000000
  70
    32
  0
VERTEX
  8
01
  5
155FE
 10
15970.1
 20
-1063.46
 30
0.000000
  70
    32
  0
VERTEX
  8
01
  5
155FF
 10
15970.3
 20
-1063.42
 30
0.000000
  70
    32
  0
VERTEX
  8
01
  5
15600
 10
15970.4
 20
-1063.38
 30
0.000000
  70
    32
  0
VERTEX
  8
01
  5
15601
 10
15970.5
 20
-1063.35
 30
0.000000
  70
    32
  0
VERTEX
  8
01
  5
15602
 10
15970.6
 20
-1063.31
 30
0.000000
  70
    32
  0
VERTEX
  8
01
  5
15603
 10
15970.7
 20
-1063.28
 30
0.000000
  70
    32
  0
VERTEX
  8
01
  5
15604
 10
15970.8
 20
-1063.24
 30
0.000000
  70
    32
  0
VERTEX
  8
01
  5
15605
 10
15970.9
 20
-1063.21
 30
0.000000
  70
    32
  0
VERTEX
  8
01
  5
15606
 10
15971.0
 20
-1063.18
 30
0.000000
  70
    32
  0
VERTEX
  8
01
  5
15607
 10
15971.2
 20
-1063.15
 30
0.000000
  70
    32
  0
VERTEX
  8
01
  5
15608
 10
15971.3
 20
-1063.13
 30
0.000000
  70
    32
  0
VERTEX
  8
01
  5
15609
 10
15971.4
 20
-1063.10
 30
0.000000
  70
    32
  0
VERTEX
  8
01
  5
1560A
 10
15971.5
 20
-1063.08
 30
0.000000
  70
    32
  0
VERTEX
  8
01
  5
1560B
 10
15971.6
 20
-1063.06
 30
0.000000
  70
    32
  0
VERTEX
  8
01
  5
1560C
 10
15971.7
 20
-1063.04
 30
0.000000
  70
    32
  0
VERTEX
  8
01
  5
1560D
 10
15971.8
 20
-1063.02
 30
0.000000
  70
    32
  0
VERTEX
  8
01
  5
1560E
 10
15972.0
 20
-1063.01
 30
0.000000
  70
    32
  0
VERTEX
  8
01
  5
1560F
 10
15972.1
 20
-1062.99
 30
0.000000
  70
    32
  0
VERTEX
  8
01
  5
15610
 10
15972.2
 20
-1062.98
 30
0.000000
  70
    32
  0
VERTEX
  8
01
  5
15611
 10
15972.3
 20
-1062.97
 30
0.000000
  70
    32
  0
VERTEX
  8
01
  5
15612
 10
15972.4
 20
-1062.96
 30
0.000000
  70
    32
  0
VERTEX
  8
01
  5
15613
 10
15972.5
 20
-1062.96
 30
0.000000
  70
    32
  0
VERTEX
  8
01
  5
15614
 10
15972.6
 20
-1062.95
 30
0.000000
  70
    32
  0
VERTEX
  8
01
  5
15615
 10
15972.7
 20
-1062.95
 30
0.000000
  70
    32
  0
VERTEX
  8
01
  5
15616
 10
15972.8
 20
-1062.95
 30
0.000000
  70
    32
  0
VERTEX
  8
01
  5
15617
 10
15973.0
 20
-1062.96
 30
0.000000
  70
    32
  0
VERTEX
  8
01
  5
15618
 10
15973.1
 20
-1062.96
 30
0.000000
  70
    32
  0
VERTEX
  8
01
  5
15619
 10
15973.2
 20
-1062.97
 30
0.000000
  70
    32
  0
VERTEX
  8
01
  5
1561A
 10
15973.3
 20
-1062.98
 30
0.000000
  70
    32
  0
VERTEX
  8
01
  5
1561B
 10
15973.4
 20
-1063.00
 30
0.000000
  70
    32
  0
VERTEX
  8
01
  5
1561C
 10
15973.5
 20
-1063.01
 30
0.000000
  70
    32
  0
VERTEX
  8
01
  5
1561D
 10
15973.6
 20
-1063.03
 30
0.000000
  70
    32
  0
VERTEX
  8
01
  5
1561E
 10
15973.7
 20
-1063.05
 30
0.000000
  70
    32
  0
VERTEX
  8
01
  5
1561F
 10
15973.8
 20
-1063.08
 30
0.000000
  70
    32
  0
VERTEX
  8
01
  5
15620
 10
15974.0
 20
-1063.10
 30
0.000000
  70
    32
  0
VERTEX
  8
01
  5
15621
 10
15974.1
 20
-1063.13
 30
0.000000
  70
    32
  0
VERTEX
  8
01
  5
15622
 10
15974.2
 20
-1063.16
 30
0.000000
  70
    32
  0
VERTEX
  8
01
  5
15623
 10
15974.3
 20
-1063.20
 30
0.000000
  70
    32
  0
VERTEX
  8
01
  5
15624
 10
15974.4
 20
-1063.23
 30
0.000000
  70
    32
  0
VERTEX
  8
01
  5
15625
 10
15974.5
 20
-1063.27
 30
0.000000
  70
    32
  0
VERTEX
  8
01
  5
15626
 10
15974.6
 20
-1063.31
 30
0.000000
  70
    32
  0
VERTEX
  8
01
  5
15627
 10
15974.7
 20
-1063.35
 30
0.000000
  70
    32
  0
VERTEX
  8
01
  5
15628
 10
15974.8
 20
-1063.39
 30
0.000000
  70
    32
  0
VERTEX
  8
01
  5
15629
 10
15974.9
 20
-1063.44
 30
0.000000
  70
    32
  0
VERTEX
  8
01
  5
1562A
 10
15975.0
 20
-1063.48
 30
0.000000
  70
    32
  0
VERTEX
  8
01
  5
1562B
 10
15975.2
 20
-1063.53
 30
0.000000
  70
    32
  0
VERTEX
  8
01
  5
1562C
 10
15975.3
 20
-1063.58
 30
0.000000
  70
    32
  0
VERTEX
  8
01
  5
1562D
 10
15975.4
 20
-1063.63
 30
0.000000
  70
    32
  0
VERTEX
  8
01
  5
1562E
 10
15975.5
 20
-1063.69
 30
0.000000
  70
    32
  0
VERTEX
  8
01
  5
1562F
 10
15975.6
 20
-1063.74
 30
0.000000
  70
    32
  0
VERTEX
  8
01
  5
15630
 10
15975.7
 20
-1063.80
 30
0.000000
  70
    32
  0
VERTEX
  8
01
  5
15631
 10
15975.8
 20
-1063.85
 30
0.000000
  70
    32
  0
VERTEX
  8
01
  5
15632
 10
15975.9
 20
-1063.91
 30
0.000000
  70
    32
  0
VERTEX
  8
01
  5
15633
 10
15976.0
 20
-1063.97
 30
0.000000
  70
    32
  0
VERTEX
  8
01
  5
15634
 10
15976.1
 20
-1064.03
 30
0.000000
  70
    32
  0
VERTEX
  8
01
  5
15635
 10
15976.2
 20
-1064.09
 30
0.000000
  70
    32
  0
VERTEX
  8
01
  5
15636
 10
15976.3
 20
-1064.16
 30
0.000000
  70
    32
  0
VERTEX
  8
01
  5
15637
 10
15976.4
 20
-1064.22
 30
0.000000
  70
    32
  0
VERTEX
  8
01
  5
15638
 10
15976.6
 20
-1064.28
 30
0.000000
  70
    32
  0
VERTEX
  8
01
  5
15639
 10
15976.7
 20
-1064.35
 30
0.000000
  70
    32
  0
VERTEX
  8
01
  5
1563A
 10
15976.8
 20
-1064.41
 30
0.000000
  70
    32
  0
VERTEX
  8
01
  5
1563B
 10
15976.9
 20
-1064.48
 30
0.000000
  70
    32
  0
VERTEX
  8
01
  5
1563C
 10
15977.0
 20
-1064.55
 30
0.000000
  70
    32
  0
VERTEX
  8
01
  5
1563D
 10
15977.1
 20
-1064.61
 30
0.000000
  70
    32
  0
VERTEX
  8
01
  5
1563E
 10
15977.2
 20
-1064.68
 30
0.000000
  70
    32
  0
VERTEX
  8
01
  5
1563F
 10
15977.3
 20
-1064.75
 30
0.000000
  70
    32
  0
VERTEX
  8
01
  5
15640
 10
15977.4
 20
-1064.82
 30
0.000000
  70
    32
  0
VERTEX
  8
01
  5
15641
 10
15977.5
 20
-1064.89
 30
0.000000
  70
    32
  0
VERTEX
  8
01
  5
15642
 10
15977.6
 20
-1064.96
 30
0.000000
  70
    32
  0
VERTEX
  8
01
  5
15643
 10
15977.7
 20
-1065.02
 30
0.000000
  70
    32
  0
VERTEX
  8
01
  5
15644
 10
15977.8
 20
-1065.09
 30
0.000000
  70
    32
  0
VERTEX
  8
01
  5
15645
 10
15977.9
 20
-1065.16
 30
0.000000
  70
    32
  0
VERTEX
  8
01
  5
15646
 10
15978.0
 20
-1065.23
 30
0.000000
  70
    32
  0
VERTEX
  8
01
  5
15647
 10
15978.1
 20
-1065.30
 30
0.000000
  70
    32
  0
VERTEX
  8
01
  5
15648
 10
15978.3
 20
-1065.37
 30
0.000000
  70
    32
  0
VERTEX
  8
01
  5
15649
 10
15978.4
 20
-1065.44
 30
0.000000
  70
    32
  0
VERTEX
  8
01
  5
1564A
 10
15978.5
 20
-1065.50
 30
0.000000
  70
    32
  0
VERTEX
  8
01
  5
1564B
 10
15978.6
 20
-1065.57
 30
0.000000
  70
    32
  0
VERTEX
  8
01
  5
1564C
 10
15978.7
 20
-1065.64
 30
0.000000
  70
    32
  0
VERTEX
  8
01
  5
1564D
 10
15978.8
 20
-1065.71
 30
0.000000
  70
    32
  0
VERTEX
  8
01
  5
1564E
 10
15978.9
 20
-1065.77
 30
0.000000
  70
    32
  0
VERTEX
  8
01
  5
1564F
 10
15979.0
 20
-1065.84
 30
0.000000
  70
    32
  0
VERTEX
  8
01
  5
15650
 10
15979.1
 20
-1065.90
 30
0.000000
  70
    32
  0
VERTEX
  8
01
  5
15651
 10
15979.2
 20
-1065.96
 30
0.000000
  70
    32
  0
VERTEX
  8
01
  5
15652
 10
15979.3
 20
-1066.03
 30
0.000000
  70
    32
  0
VERTEX
  8
01
  5
15653
 10
15979.4
 20
-1066.09
 30
0.000000
  70
    32
  0
VERTEX
  8
01
  5
15654
 10
15979.5
 20
-1066.15
 30
0.000000
  70
    32
  0
VERTEX
  8
01
  5
15655
 10
15979.6
 20
-1066.21
 30
0.000000
  70
    32
  0
VERTEX
  8
01
  5
15656
 10
15979.7
 20
-1066.27
 30
0.000000
  70
    32
  0
VERTEX
  8
01
  5
15657
 10
15979.8
 20
-1066.32
 30
0.000000
  70
    32
  0
VERTEX
  8
01
  5
15658
 10
15979.9
 20
-1066.38
 30
0.000000
  70
    32
  0
VERTEX
  8
01
  5
15659
 10
15980.0
 20
-1066.43
 30
0.000000
  70
    32
  0
VERTEX
  8
01
  5
1565A
 10
15980.1
 20
-1066.49
 30
0.000000
  70
    32
  0
VERTEX
  8
01
  5
1565B
 10
15980.3
 20
-1066.54
 30
0.000000
  70
    32
  0
VERTEX
  8
01
  5
1565C
 10
15980.4
 20
-1066.59
 30
0.000000
  70
    32
  0
VERTEX
  8
01
  5
1565D
 10
15980.5
 20
-1066.64
 30
0.000000
  70
    32
  0
VERTEX
  8
01
  5
1565E
 10
15980.6
 20
-1066.68
 30
0.000000
  70
    32
  0
VERTEX
  8
01
  5
1565F
 10
15980.7
 20
-1066.73
 30
0.000000
  70
    32
  0
VERTEX
  8
01
  5
15660
 10
15980.8
 20
-1066.77
 30
0.000000
  70
    32
  0
VERTEX
  8
01
  5
15661
 10
15980.9
 20
-1066.81
 30
0.000000
  70
    32
  0
VERTEX
  8
01
  5
15662
 10
15981.0
 20
-1066.85
 30
0.000000
  70
    32
  0
VERTEX
  8
01
  5
15663
 10
15981.1
 20
-1066.89
 30
0.000000
  70
    32
  0
VERTEX
  8
01
  5
15664
 10
15981.2
 20
-1066.93
 30
0.000000
  70
    32
  0
VERTEX
  8
01
  5
15665
 10
15981.3
 20
-1066.96
 30
0.000000
  70
    32
  0
VERTEX
  8
01
  5
15666
 10
15981.4
 20
-1066.99
 30
0.000000
  70
    32
  0
VERTEX
  8
01
  5
15667
 10
15981.5
 20
-1067.02
 30
0.000000
  70
    32
  0
VERTEX
  8
01
  5
15668
 10
15981.6
 20
-1067.04
 30
0.000000
  70
    32
  0
VERTEX
  8
01
  5
15669
 10
15981.7
 20
-1067.07
 30
0.000000
  70
    32
  0
VERTEX
  8
01
  5
1566A
 10
15981.8
 20
-1067.09
 30
0.000000
  70
    32
  0
VERTEX
  8
01
  5
1566B
 10
15981.9
 20
-1067.11
 30
0.000000
  70
    32
  0
VERTEX
  8
01
  5
1566C
 10
15982.1
 20
-1067.13
 30
0.000000
  70
    32
  0
VERTEX
  8
01
  5
1566D
 10
15982.2
 20
-1067.14
 30
0.000000
  70
    32
  0
VERTEX
  8
01
  5
1566E
 10
15982.3
 20
-1067.15
 30
0.000000
  70
    32
  0
VERTEX
  8
01
  5
1566F
 10
15982.4
 20
-1067.16
 30
0.000000
  70
    32
  0
VERTEX
  8
01
  5
15670
 10
15982.5
 20
-1067.16
 30
0.000000
  70
    32
  0
VERTEX
  8
01
  5
15671
 10
15982.6
 20
-1067.17
 30
0.000000
  70
    32
  0
VERTEX
  8
01
  5
15672
 10
15982.7
 20
-1067.17
 30
0.000000
  70
    32
  0
VERTEX
  8
01
  5
15673
 10
15982.8
 20
-1067.16
 30
0.000000
  70
    32
  0
VERTEX
  8
01
  5
15674
 10
15982.9
 20
-1067.16
 30
0.000000
  70
    32
  0
VERTEX
  8
01
  5
15675
 10
15983.0
 20
-1067.15
 30
0.000000
  70
    32
  0
VERTEX
  8
01
  5
15676
 10
15983.1
 20
-1067.14
 30
0.000000
  70
    32
  0
VERTEX
  8
01
  5
15677
 10
15983.2
 20
-1067.12
 30
0.000000
  70
    32
  0
VERTEX
  8
01
  5
15678
 10
15983.3
 20
-1067.11
 30
0.000000
  70
    32
  0
VERTEX
  8
01
  5
15679
 10
15983.4
 20
-1067.09
 30
0.000000
  70
    32
  0
VERTEX
  8
01
  5
1567A
 10
15983.5
 20
-1067.07
 30
0.000000
  70
    32
  0
VERTEX
  8
01
  5
1567B
 10
15983.7
 20
-1067.04
 30
0.000000
  70
    32
  0
VERTEX
  8
01
  5
1567C
 10
15983.8
 20
-1067.02
 30
0.000000
  70
    32
  0
VERTEX
  8
01
  5
1567D
 10
15983.9
 20
-1066.99
 30
0.000000
  70
    32
  0
VERTEX
  8
01
  5
1567E
 10
15984.0
 20
-1066.96
 30
0.000000
  70
    32
  0
VERTEX
  8
01
  5
1567F
 10
15984.1
 20
-1066.92
 30
0.000000
  70
    32
  0
VERTEX
  8
01
  5
15680
 10
15984.2
 20
-1066.89
 30
0.000000
  70
    32
  0
VERTEX
  8
01
  5
15681
 10
15984.3
 20
-1066.85
 30
0.000000
  70
    32
  0
VERTEX
  8
01
  5
15682
 10
15984.4
 20
-1066.81
 30
0.000000
  70
    32
  0
VERTEX
  8
01
  5
15683
 10
15984.5
 20
-1066.77
 30
0.000000
  70
    32
  0
VERTEX
  8
01
  5
15684
 10
15984.6
 20
-1066.73
 30
0.000000
  70
    32
  0
VERTEX
  8
01
  5
15685
 10
15984.7
 20
-1066.69
 30
0.000000
  70
    32
  0
VERTEX
  8
01
  5
15686
 10
15984.8
 20
-1066.64
 30
0.000000
  70
    32
  0
VERTEX
  8
01
  5
15687
 10
15984.9
 20
-1066.59
 30
0.000000
  70
    32
  0
VERTEX
  8
01
  5
15688
 10
15985.0
 20
-1066.54
 30
0.000000
  70
    32
  0
VERTEX
  8
01
  5
15689
 10
15985.2
 20
-1066.49
 30
0.000000
  70
    32
  0
VERTEX
  8
01
  5
1568A
 10
15985.3
 20
-1066.44
 30
0.000000
  70
    32
  0
VERTEX
  8
01
  5
1568B
 10
15985.4
 20
-1066.39
 30
0.000000
  70
    32
  0
VERTEX
  8
01
  5
1568C
 10
15985.5
 20
-1066.33
 30
0.000000
  70
    32
  0
VERTEX
  8
01
  5
1568D
 10
15985.6
 20
-1066.27
 30
0.000000
  70
    32
  0
VERTEX
  8
01
  5
1568E
 10
15985.7
 20
-1066.22
 30
0.000000
  70
    32
  0
VERTEX
  8
01
  5
1568F
 10
15985.8
 20
-1066.16
 30
0.000000
  70
    32
  0
VERTEX
  8
01
  5
15690
 10
15985.9
 20
-1066.10
 30
0.000000
  70
    32
  0
VERTEX
  8
01
  5
15691
 10
15986.0
 20
-1066.03
 30
0.000000
  70
    32
  0
VERTEX
  8
01
  5
15692
 10
15986.1
 20
-1065.97
 30
0.000000
  70
    32
  0
VERTEX
  8
01
  5
15693
 10
15986.2
 20
-1065.91
 30
0.000000
  70
    32
  0
VERTEX
  8
01
  5
15694
 10
15986.3
 20
-1065.84
 30
0.000000
  70
    32
  0
VERTEX
  8
01
  5
15695
 10
15986.4
 20
-1065.78
 30
0.000000
  70
    32
  0
VERTEX
  8
01
  5
15696
 10
15986.6
 20
-1065.71
 30
0.000000
  70
    32
  0
VERTEX
  8
01
  5
15697
 10
15986.7
 20
-1065.64
 30
0.000000
  70
    32
  0
VERTEX
  8
01
  5
15698
 10
15986.8
 20
-1065.57
 30
0.000000
  70
    32
  0
VERTEX
  8
01
  5
15699
 10
15986.9
 20
-1065.51
 30
0.000000
  70
    32
  0
VERTEX
  8
01
  5
1569A
 10
15987.0
 20
-1065.44
 30
0.000000
  70
    32
  0
VERTEX
  8
01
  5
1569B
 10
15987.1
 20
-1065.37
 30
0.000000
  70
    32
  0
VERTEX
  8
01
  5
1569C
 10
15987.2
 20
-1065.29
 30
0.000000
  70
    32
  0
VERTEX
  8
01
  5
1569D
 10
15987.3
 20
-1065.22
 30
0.000000
  70
    32
  0
VERTEX
  8
01
  5
1569E
 10
15987.4
 20
-1065.15
 30
0.000000
  70
    32
  0
VERTEX
  8
01
  5
1569F
 10
15987.5
 20
-1065.08
 30
0.000000
  70
    32
  0
VERTEX
  8
01
  5
156A0
 10
15987.6
 20
-1065.01
 30
0.000000
  70
    32
  0
VERTEX
  8
01
  5
156A1
 10
15987.7
 20
-1064.93
 30
0.000000
  70
    32
  0
VERTEX
  8
01
  5
156A2
 10
15987.9
 20
-1064.86
 30
0.000000
  70
    32
  0
VERTEX
  8
01
  5
156A3
 10
15988.0
 20
-1064.79
 30
0.000000
  70
    32
  0
VERTEX
  8
01
  5
156A4
 10
15988.1
 20
-1064.71
 30
0.000000
  70
    32
  0
VERTEX
  8
01
  5
156A5
 10
15988.2
 20
-1064.64
 30
0.000000
  70
    32
  0
SEQEND
  8
01
  5
156A6
  0
POLYLINE
  8
01
  5
156A7
  66
     1
 10
0.000000
 20
0.000000
 30
0.000000
  70
     8
  0
VERTEX
  8
01
  5
156A8
 10
15967.4
 20
-1067.64
 30
0.000000
  70
    32
  0
VERTEX
  8
01
  5
156A9
 10
15967.5
 20
-1067.58
 30
0.000000
  70
    32
  0
VERTEX
  8
01
  5
156AA
 10
15967.6
 20
-1067.53
 30
0.000000
  70
    32
  0
VERTEX
  8
01
  5
156AB
 10
15967.7
 20
-1067.48
 30
0.000000
  70
    32
  0
VERTEX
  8
01
  5
156AC
 10
15967.8
 20
-1067.42
 30
0.000000
  70
    32
  0
VERTEX
  8
01
  5
156AD
 10
15968.0
 20
-1067.37
 30
0.000000
  70
    32
  0
VERTEX
  8
01
  5
156AE
 10
15968.1
 20
-1067.32
 30
0.000000
  70
    32
  0
VERTEX
  8
01
  5
156AF
 10
15968.2
 20
-1067.26
 30
0.000000
  70
    32
  0
VERTEX
  8
01
  5
156B0
 10
15968.3
 20
-1067.21
 30
0.000000
  70
    32
  0
VERTEX
  8
01
  5
156B1
 10
15968.4
 20
-1067.16
 30
0.000000
  70
    32
  0
VERTEX
  8
01
  5
156B2
 10
15968.5
 20
-1067.11
 30
0.000000
  70
    32
  0
VERTEX
  8
01
  5
156B3
 10
15968.6
 20
-1067.06
 30
0.000000
  70
    32
  0
VERTEX
  8
01
  5
156B4
 10
15968.8
 20
-1067.00
 30
0.000000
  70
    32
  0
VERTEX
  8
01
  5
156B5
 10
15968.9
 20
-1066.95
 30
0.000000
  70
    32
  0
VERTEX
  8
01
  5
156B6
 10
15969.0
 20
-1066.90
 30
0.000000
  70
    32
  0
VERTEX
  8
01
  5
156B7
 10
15969.1
 20
-1066.86
 30
0.000000
  70
    32
  0
VERTEX
  8
01
  5
156B8
 10
15969.2
 20
-1066.81
 30
0.000000
  70
    32
  0
VERTEX
  8
01
  5
156B9
 10
15969.3
 20
-1066.76
 30
0.000000
  70
    32
  0
VERTEX
  8
01
  5
156BA
 10
15969.4
 20
-1066.71
 30
0.000000
  70
    32
  0
VERTEX
  8
01
  5
156BB
 10
15969.6
 20
-1066.67
 30
0.000000
  70
    32
  0
VERTEX
  8
01
  5
156BC
 10
15969.7
 20
-1066.62
 30
0.000000
  70
    32
  0
VERTEX
  8
01
  5
156BD
 10
15969.8
 20
-1066.58
 30
0.000000
  70
    32
  0
VERTEX
  8
01
  5
156BE
 10
15969.9
 20
-1066.54
 30
0.000000
  70
    32
  0
VERTEX
  8
01
  5
156BF
 10
15970.0
 20
-1066.50
 30
0.000000
  70
    32
  0
VERTEX
  8
01
  5
156C0
 10
15970.1
 20
-1066.46
 30
0.000000
  70
    32
  0
VERTEX
  8
01
  5
156C1
 10
15970.3
 20
-1066.42
 30
0.000000
  70
    32
  0
VERTEX
  8
01
  5
156C2
 10
15970.4
 20
-1066.38
 30
0.000000
  70
    32
  0
VERTEX
  8
01
  5
156C3
 10
15970.5
 20
-1066.34
 30
0.000000
  70
    32
  0
VERTEX
  8
01
  5
156C4
 10
15970.6
 20
-1066.31
 30
0.000000
  70
    32
  0
VERTEX
  8
01
  5
156C5
 10
15970.7
 20
-1066.27
 30
0.000000
  70
    32
  0
VERTEX
  8
01
  5
156C6
 10
15970.8
 20
-1066.24
 30
0.000000
  70
    32
  0
VERTEX
  8
01
  5
156C7
 10
15970.9
 20
-1066.21
 30
0.000000
  70
    32
  0
VERTEX
  8
01
  5
156C8
 10
15971.0
 20
-1066.18
 30
0.000000
  70
    32
  0
VERTEX
  8
01
  5
156C9
 10
15971.2
 20
-1066.15
 30
0.000000
  70
    32
  0
VERTEX
  8
01
  5
156CA
 10
15971.3
 20
-1066.12
 30
0.000000
  70
    32
  0
VERTEX
  8
01
  5
156CB
 10
15971.4
 20
-1066.10
 30
0.000000
  70
    32
  0
VERTEX
  8
01
  5
156CC
 10
15971.5
 20
-1066.08
 30
0.000000
  70
    32
  0
VERTEX
  8
01
  5
156CD
 10
15971.6
 20
-1066.05
 30
0.000000
  70
    32
  0
VERTEX
  8
01
  5
156CE
 10
15971.7
 20
-1066.04
 30
0.000000
  70
    32
  0
VERTEX
  8
01
  5
156CF
 10
15971.8
 20
-1066.02
 30
0.000000
  70
    32
  0
VERTEX
  8
01
  5
156D0
 10
15972.0
 20
-1066.00
 30
0.000000
  70
    32
  0
VERTEX
  8
01
  5
156D1
 10
15972.1
 20
-1065.99
 30
0.000000
  70
    32
  0
VERTEX
  8
01
  5
156D2
 10
15972.2
 20
-1065.98
 30
0.000000
  70
    32
  0
VERTEX
  8
01
  5
156D3
 10
15972.3
 20
-1065.97
 30
0.000000
  70
    32
  0
VERTEX
  8
01
  5
156D4
 10
15972.4
 20
-1065.96
 30
0.000000
  70
    32
  0
VERTEX
  8
01
  5
156D5
 10
15972.5
 20
-1065.95
 30
0.000000
  70
    32
  0
VERTEX
  8
01
  5
156D6
 10
15972.6
 20
-1065.95
 30
0.000000
  70
    32
  0
VERTEX
  8
01
  5
156D7
 10
15972.7
 20
-1065.95
 30
0.000000
  70
    32
  0
VERTEX
  8
01
  5
156D8
 10
15972.8
 20
-1065.95
 30
0.000000
  70
    32
  0
VERTEX
  8
01
  5
156D9
 10
15973.0
 20
-1065.95
 30
0.000000
  70
    32
  0
VERTEX
  8
01
  5
156DA
 10
15973.1
 20
-1065.96
 30
0.000000
  70
    32
  0
VERTEX
  8
01
  5
156DB
 10
15973.2
 20
-1065.97
 30
0.000000
  70
    32
  0
VERTEX
  8
01
  5
156DC
 10
15973.3
 20
-1065.98
 30
0.000000
  70
    32
  0
VERTEX
  8
01
  5
156DD
 10
15973.4
 20
-1065.99
 30
0.000000
  70
    32
  0
VERTEX
  8
01
  5
156DE
 10
15973.5
 20
-1066.01
 30
0.000000
  70
    32
  0
VERTEX
  8
01
  5
156DF
 10
15973.6
 20
-1066.03
 30
0.000000
  70
    32
  0
VERTEX
  8
01
  5
156E0
 10
15973.7
 20
-1066.05
 30
0.000000
  70
    32
  0
VERTEX
  8
01
  5
156E1
 10
15973.8
 20
-1066.07
 30
0.000000
  70
    32
  0
VERTEX
  8
01
  5
156E2
 10
15974.0
 20
-1066.10
 30
0.000000
  70
    32
  0
VERTEX
  8
01
  5
156E3
 10
15974.1
 20
-1066.13
 30
0.000000
  70
    32
  0
VERTEX
  8
01
  5
156E4
 10
15974.2
 20
-1066.16
 30
0.000000
  70
    32
  0
VERTEX
  8
01
  5
156E5
 10
15974.3
 20
-1066.19
 30
0.000000
  70
    32
  0
VERTEX
  8
01
  5
156E6
 10
15974.4
 20
-1066.23
 30
0.000000
  70
    32
  0
VERTEX
  8
01
  5
156E7
 10
15974.5
 20
-1066.26
 30
0.000000
  70
    32
  0
VERTEX
  8
01
  5
156E8
 10
15974.6
 20
-1066.30
 30
0.000000
  70
    32
  0
VERTEX
  8
01
  5
156E9
 10
15974.7
 20
-1066.34
 30
0.000000
  70
    32
  0
VERTEX
  8
01
  5
156EA
 10
15974.8
 20
-1066.39
 30
0.000000
  70
    32
  0
VERTEX
  8
01
  5
156EB
 10
15974.9
 20
-1066.43
 30
0.000000
  70
    32
  0
VERTEX
  8
01
  5
156EC
 10
15975.0
 20
-1066.48
 30
0.000000
  70
    32
  0
VERTEX
  8
01
  5
156ED
 10
15975.2
 20
-1066.53
 30
0.000000
  70
    32
  0
VERTEX
  8
01
  5
156EE
 10
15975.3
 20
-1066.58
 30
0.000000
  70
    32
  0
VERTEX
  8
01
  5
156EF
 10
15975.4
 20
-1066.63
 30
0.000000
  70
    32
  0
VERTEX
  8
01
  5
156F0
 10
15975.5
 20
-1066.68
 30
0.000000
  70
    32
  0
VERTEX
  8
01
  5
156F1
 10
15975.6
 20
-1066.74
 30
0.000000
  70
    32
  0
VERTEX
  8
01
  5
156F2
 10
15975.7
 20
-1066.79
 30
0.000000
  70
    32
  0
VERTEX
  8
01
  5
156F3
 10
15975.8
 20
-1066.85
 30
0.000000
  70
    32
  0
VERTEX
  8
01
  5
156F4
 10
15975.9
 20
-1066.91
 30
0.000000
  70
    32
  0
VERTEX
  8
01
  5
156F5
 10
15976.0
 20
-1066.97
 30
0.000000
  70
    32
  0
VERTEX
  8
01
  5
156F6
 10
15976.1
 20
-1067.03
 30
0.000000
  70
    32
  0
VERTEX
  8
01
  5
156F7
 10
15976.2
 20
-1067.09
 30
0.000000
  70
    32
  0
VERTEX
  8
01
  5
156F8
 10
15976.3
 20
-1067.15
 30
0.000000
  70
    32
  0
VERTEX
  8
01
  5
156F9
 10
15976.4
 20
-1067.21
 30
0.000000
  70
    32
  0
VERTEX
  8
01
  5
156FA
 10
15976.6
 20
-1067.28
 30
0.000000
  70
    32
  0
VERTEX
  8
01
  5
156FB
 10
15976.7
 20
-1067.34
 30
0.000000
  70
    32
  0
VERTEX
  8
01
  5
156FC
 10
15976.8
 20
-1067.41
 30
0.000000
  70
    32
  0
VERTEX
  8
01
  5
156FD
 10
15976.9
 20
-1067.48
 30
0.000000
  70
    32
  0
VERTEX
  8
01
  5
156FE
 10
15977.0
 20
-1067.54
 30
0.000000
  70
    32
  0
VERTEX
  8
01
  5
156FF
 10
15977.1
 20
-1067.61
 30
0.000000
  70
    32
  0
VERTEX
  8
01
  5
15700
 10
15977.2
 20
-1067.68
 30
0.000000
  70
    32
  0
VERTEX
  8
01
  5
15701
 10
15977.3
 20
-1067.75
 30
0.000000
  70
    32
  0
VERTEX
  8
01
  5
15702
 10
15977.4
 20
-1067.81
 30
0.000000
  70
    32
  0
VERTEX
  8
01
  5
15703
 10
15977.5
 20
-1067.88
 30
0.000000
  70
    32
  0
VERTEX
  8
01
  5
15704
 10
15977.6
 20
-1067.95
 30
0.000000
  70
    32
  0
VERTEX
  8
01
  5
15705
 10
15977.7
 20
-1068.02
 30
0.000000
  70
    32
  0
VERTEX
  8
01
  5
15706
 10
15977.8
 20
-1068.09
 30
0.000000
  70
    32
  0
VERTEX
  8
01
  5
15707
 10
15977.9
 20
-1068.16
 30
0.000000
  70
    32
  0
VERTEX
  8
01
  5
15708
 10
15978.0
 20
-1068.23
 30
0.000000
  70
    32
  0
VERTEX
  8
01
  5
15709
 10
15978.1
 20
-1068.30
 30
0.000000
  70
    32
  0
VERTEX
  8
01
  5
1570A
 10
15978.3
 20
-1068.36
 30
0.000000
  70
    32
  0
VERTEX
  8
01
  5
1570B
 10
15978.4
 20
-1068.43
 30
0.000000
  70
    32
  0
VERTEX
  8
01
  5
1570C
 10
15978.5
 20
-1068.50
 30
0.000000
  70
    32
  0
VERTEX
  8
01
  5
1570D
 10
15978.6
 20
-1068.57
 30
0.000000
  70
    32
  0
VERTEX
  8
01
  5
1570E
 10
15978.7
 20
-1068.63
 30
0.000000
  70
    32
  0
VERTEX
  8
01
  5
1570F
 10
15978.8
 20
-1068.70
 30
0.000000
  70
    32
  0
VERTEX
  8
01
  5
15710
 10
15978.9
 20
-1068.77
 30
0.000000
  70
    32
  0
VERTEX
  8
01
  5
15711
 10
15979.0
 20
-1068.83
 30
0.000000
  70
    32
  0
VERTEX
  8
01
  5
15712
 10
15979.1
 20
-1068.90
 30
0.000000
  70
    32
  0
VERTEX
  8
01
  5
15713
 10
15979.2
 20
-1068.96
 30
0.000000
  70
    32
  0
VERTEX
  8
01
  5
15714
 10
15979.3
 20
-1069.02
 30
0.000000
  70
    32
  0
VERTEX
  8
01
  5
15715
 10
15979.4
 20
-1069.08
 30
0.000000
  70
    32
  0
VERTEX
  8
01
  5
15716
 10
15979.5
 20
-1069.14
 30
0.000000
  70
    32
  0
VERTEX
  8
01
  5
15717
 10
15979.6
 20
-1069.20
 30
0.000000
  70
    32
  0
VERTEX
  8
01
  5
15718
 10
15979.7
 20
-1069.26
 30
0.000000
  70
    32
  0
VERTEX
  8
01
  5
15719
 10
15979.8
 20
-1069.32
 30
0.000000
  70
    32
  0
VERTEX
  8
01
  5
1571A
 10
15979.9
 20
-1069.38
 30
0.000000
  70
    32
  0
VERTEX
  8
01
  5
1571B
 10
15980.0
 20
-1069.43
 30
0.000000
  70
    32
  0
VERTEX
  8
01
  5
1571C
 10
15980.1
 20
-1069.48
 30
0.000000
  70
    32
  0
VERTEX
  8
01
  5
1571D
 10
15980.3
 20
-1069.53
 30
0.000000
  70
    32
  0
VERTEX
  8
01
  5
1571E
 10
15980.4
 20
-1069.58
 30
0.000000
  70
    32
  0
VERTEX
  8
01
  5
1571F
 10
15980.5
 20
-1069.63
 30
0.000000
  70
    32
  0
VERTEX
  8
01
  5
15720
 10
15980.6
 20
-1069.68
 30
0.000000
  70
    32
  0
VERTEX
  8
01
  5
15721
 10
15980.7
 20
-1069.72
 30
0.000000
  70
    32
  0
VERTEX
  8
01
  5
15722
 10
15980.8
 20
-1069.77
 30
0.000000
  70
    32
  0
VERTEX
  8
01
  5
15723
 10
15980.9
 20
-1069.81
 30
0.000000
  70
    32
  0
VERTEX
  8
01
  5
15724
 10
15981.0
 20
-1069.85
 30
0.000000
  70
    32
  0
VERTEX
  8
01
  5
15725
 10
15981.1
 20
-1069.89
 30
0.000000
  70
    32
  0
VERTEX
  8
01
  5
15726
 10
15981.2
 20
-1069.92
 30
0.000000
  70
    32
  0
VERTEX
  8
01
  5
15727
 10
15981.3
 20
-1069.95
 30
0.000000
  70
    32
  0
VERTEX
  8
01
  5
15728
 10
15981.4
 20
-1069.99
 30
0.000000
  70
    32
  0
VERTEX
  8
01
  5
15729
 10
15981.5
 20
-1070.01
 30
0.000000
  70
    32
  0
VERTEX
  8
01
  5
1572A
 10
15981.6
 20
-1070.04
 30
0.000000
  70
    32
  0
VERTEX
  8
01
  5
1572B
 10
15981.7
 20
-1070.06
 30
0.000000
  70
    32
  0
VERTEX
  8
01
  5
1572C
 10
15981.8
 20
-1070.09
 30
0.000000
  70
    32
  0
VERTEX
  8
01
  5
1572D
 10
15981.9
 20
-1070.11
 30
0.000000
  70
    32
  0
VERTEX
  8
01
  5
1572E
 10
15982.1
 20
-1070.12
 30
0.000000
  70
    32
  0
VERTEX
  8
01
  5
1572F
 10
15982.2
 20
-1070.14
 30
0.000000
  70
    32
  0
VERTEX
  8
01
  5
15730
 10
15982.3
 20
-1070.15
 30
0.000000
  70
    32
  0
VERTEX
  8
01
  5
15731
 10
15982.4
 20
-1070.15
 30
0.000000
  70
    32
  0
VERTEX
  8
01
  5
15732
 10
15982.5
 20
-1070.16
 30
0.000000
  70
    32
  0
VERTEX
  8
01
  5
15733
 10
15982.6
 20
-1070.16
 30
0.000000
  70
    32
  0
VERTEX
  8
01
  5
15734
 10
15982.7
 20
-1070.16
 30
0.000000
  70
    32
  0
VERTEX
  8
01
  5
15735
 10
15982.8
 20
-1070.16
 30
0.000000
  70
    32
  0
VERTEX
  8
01
  5
15736
 10
15982.9
 20
-1070.15
 30
0.000000
  70
    32
  0
VERTEX
  8
01
  5
15737
 10
15983.0
 20
-1070.14
 30
0.000000
  70
    32
  0
VERTEX
  8
01
  5
15738
 10
15983.1
 20
-1070.13
 30
0.000000
  70
    32
  0
VERTEX
  8
01
  5
15739
 10
15983.2
 20
-1070.12
 30
0.000000
  70
    32
  0
VERTEX
  8
01
  5
1573A
 10
15983.3
 20
-1070.10
 30
0.000000
  70
    32
  0
VERTEX
  8
01
  5
1573B
 10
15983.4
 20
-1070.08
 30
0.000000
  70
    32
  0
VERTEX
  8
01
  5
1573C
 10
15983.5
 20
-1070.06
 30
0.000000
  70
    32
  0
VERTEX
  8
01
  5
1573D
 10
15983.7
 20
-1070.04
 30
0.000000
  70
    32
  0
VERTEX
  8
01
  5
1573E
 10
15983.8
 20
-1070.01
 30
0.000000
  70
    32
  0
VERTEX
  8
01
  5
1573F
 10
15983.9
 20
-1069.98
 30
0.000000
  70
    32
  0
VERTEX
  8
01
  5
15740
 10
15984.0
 20
-1069.95
 30
0.000000
  70
    32
  0
VERTEX
  8
01
  5
15741
 10
15984.1
 20
-1069.92
 30
0.000000
  70
    32
  0
VERTEX
  8
01
  5
15742
 10
15984.2
 20
-1069.89
 30
0.000000
  70
    32
  0
VERTEX
  8
01
  5
15743
 10
15984.3
 20
-1069.85
 30
0.000000
  70
    32
  0
VERTEX
  8
01
  5
15744
 10
15984.4
 20
-1069.81
 30
0.000000
  70
    32
  0
VERTEX
  8
01
  5
15745
 10
15984.5
 20
-1069.77
 30
0.000000
  70
    32
  0
VERTEX
  8
01
  5
15746
 10
15984.6
 20
-1069.73
 30
0.000000
  70
    32
  0
VERTEX
  8
01
  5
15747
 10
15984.7
 20
-1069.68
 30
0.000000
  70
    32
  0
VERTEX
  8
01
  5
15748
 10
15984.8
 20
-1069.64
 30
0.000000
  70
    32
  0
VERTEX
  8
01
  5
15749
 10
15984.9
 20
-1069.59
 30
0.000000
  70
    32
  0
VERTEX
  8
01
  5
1574A
 10
15985.0
 20
-1069.54
 30
0.000000
  70
    32
  0
VERTEX
  8
01
  5
1574B
 10
15985.2
 20
-1069.49
 30
0.000000
  70
    32
  0
VERTEX
  8
01
  5
1574C
 10
15985.3
 20
-1069.44
 30
0.000000
  70
    32
  0
VERTEX
  8
01
  5
1574D
 10
15985.4
 20
-1069.38
 30
0.000000
  70
    32
  0
VERTEX
  8
01
  5
1574E
 10
15985.5
 20
-1069.33
 30
0.000000
  70
    32
  0
VERTEX
  8
01
  5
1574F
 10
15985.6
 20
-1069.27
 30
0.000000
  70
    32
  0
VERTEX
  8
01
  5
15750
 10
15985.7
 20
-1069.21
 30
0.000000
  70
    32
  0
VERTEX
  8
01
  5
15751
 10
15985.8
 20
-1069.15
 30
0.000000
  70
    32
  0
VERTEX
  8
01
  5
15752
 10
15985.9
 20
-1069.09
 30
0.000000
  70
    32
  0
VERTEX
  8
01
  5
15753
 10
15986.0
 20
-1069.03
 30
0.000000
  70
    32
  0
VERTEX
  8
01
  5
15754
 10
15986.1
 20
-1068.97
 30
0.000000
  70
    32
  0
VERTEX
  8
01
  5
15755
 10
15986.2
 20
-1068.90
 30
0.000000
  70
    32
  0
VERTEX
  8
01
  5
15756
 10
15986.3
 20
-1068.84
 30
0.000000
  70
    32
  0
VERTEX
  8
01
  5
15757
 10
15986.4
 20
-1068.77
 30
0.000000
  70
    32
  0
VERTEX
  8
01
  5
15758
 10
15986.6
 20
-1068.71
 30
0.000000
  70
    32
  0
VERTEX
  8
01
  5
15759
 10
15986.7
 20
-1068.64
 30
0.000000
  70
    32
  0
VERTEX
  8
01
  5
1575A
 10
15986.8
 20
-1068.57
 30
0.000000
  70
    32
  0
VERTEX
  8
01
  5
1575B
 10
15986.9
 20
-1068.50
 30
0.000000
  70
    32
  0
VERTEX
  8
01
  5
1575C
 10
15987.0
 20
-1068.43
 30
0.000000
  70
    32
  0
VERTEX
  8
01
  5
1575D
 10
15987.1
 20
-1068.36
 30
0.000000
  70
    32
  0
VERTEX
  8
01
  5
1575E
 10
15987.2
 20
-1068.29
 30
0.000000
  70
    32
  0
VERTEX
  8
01
  5
1575F
 10
15987.3
 20
-1068.22
 30
0.000000
  70
    32
  0
VERTEX
  8
01
  5
15760
 10
15987.4
 20
-1068.15
 30
0.000000
  70
    32
  0
VERTEX
  8
01
  5
15761
 10
15987.5
 20
-1068.08
 30
0.000000
  70
    32
  0
VERTEX
  8
01
  5
15762
 10
15987.6
 20
-1068.00
 30
0.000000
  70
    32
  0
VERTEX
  8
01
  5
15763
 10
15987.7
 20
-1067.93
 30
0.000000
  70
    32
  0
VERTEX
  8
01
  5
15764
 10
15987.9
 20
-1067.86
 30
0.000000
  70
    32
  0
VERTEX
  8
01
  5
15765
 10
15988.0
 20
-1067.78
 30
0.000000
  70
    32
  0
VERTEX
  8
01
  5
15766
 10
15988.1
 20
-1067.71
 30
0.000000
  70
    32
  0
VERTEX
  8
01
  5
15767
 10
15988.2
 20
-1067.64
 30
0.000000
  70
    32
  0
SEQEND
  8
01
  5
15768
  0
ARC
  5
14BC0
  8
01
 10
15971.280453937479
 20
-962.10128408234823
 30
0.0
 40
1.5
 50
118.0724869358346
 51
241.92751306416551
  0
ARC
  5
14BC6
  8
01
 10
15969.947120604151
 20
-959.60128408234812
 30
0.0
 40
1.333333333333333
 50
298.0724869358346
 51
61.927513064165439
  0
ARC
  5
14BCB
  8
01
 10
15971.280453937479
 20
-952.10128408234823
 30
0.0
 40
1.5
 50
118.0724869358346
 51
241.92751306416551
  0
ARC
  5
14BCC
  8
01
 10
15971.280453937479
 20
-957.10128408234834
 30
0.0
 40
1.5
 50
118.0724869358346
 51
241.92751306416551
  0
ARC
  5
14BCD
  8
01
 10
15969.947120604151
 20
-954.60128408234834
 30
0.0
 40
1.333333333333333
 50
298.0724869358346
 51
61.927513064165439
  0
ARC
  5
14BCE
  8
01
 10
15969.947120604151
 20
-949.60128408234823
 30
0.0
 40
1.333333333333333
 50
298.0724869358346
 51
61.927513064165439
  0
ARC
  5
14BCF
  8
01
 10
15971.280453937479
 20
-942.10128408234812
 30
0.0
 40
1.5
 50
206.015537628602
 51
241.92751306416551
  0
ARC
  5
14BD0
  8
01
 10
15971.280453937479
 20
-947.10128408234812
 30
0.0
 40
1.5
 50
118.0724869358346
 51
241.92751306416551
  0
ARC
  5
14BD1
  8
01
 10
15969.947120604151
 20
-944.60128408234812
 30
0.0
 40
1.333333333333333
 50
298.0724869358346
 51
61.927513064165439
  0
ARC
  5
14BD3
  8
01
 10
15984.280453937479
 20
-962.10128408234823
 30
0.0
 40
1.5
 50
298.0724869358346
 51
61.927513064165439
  0
ARC
  5
14BD9
  8
01
 10
15985.61378727081
 20
-959.60128408234812
 30
0.0
 40
1.333333333333333
 50
118.0724869358346
 51
241.92751306416551
  0
ARC
  5
14BDE
  8
01
 10
15984.280453937479
 20
-952.10128408234823
 30
0.0
 40
1.5
 50
298.0724869358346
 51
61.927513064165439
  0
ARC
  5
14BDF
  8
01
 10
15984.280453937479
 20
-957.10128408234834
 30
0.0
 40
1.5
 50
298.0724869358346
 51
61.927513064165439
  0
ARC
  5
14BE0
  8
01
 10
15985.61378727081
 20
-954.60128408234834
 30
0.0
 40
1.333333333333333
 50
118.0724869358346
 51
241.92751306416551
  0
ARC
  5
14BE1
  8
01
 10
15985.61378727081
 20
-949.60128408234823
 30
0.0
 40
1.333333333333333
 50
118.0724869358346
 51
241.92751306416551
  0
ARC
  5
14BE2
  8
01
 10
15984.280453937479
 20
-942.10128408234812
 30
0.0
 40
1.5
 50
298.0724869358346
 51
41.835596414787972
  0
ARC
  5
14BE3
  8
01
 10
15984.280453937479
 20
-947.10128408234812
 30
0.0
 40
1.5
 50
298.0724869358346
 51
61.927513064165439
  0
ARC
  5
14BE4
  8
01
 10
15985.61378727081
 20
-944.60128408234812
 30
0.0
 40
1.333333333333333
 50
118.0724869358346
 51
241.92751306416551
  0
POLYLINE
  8
01
  5
15769
  66
     1
 10
0.000000
 20
0.000000
 30
0.000000
  70
     8
  0
VERTEX
  8
01
  5
1576A
 10
15969.9
 20
-942.759
 30
0.000000
  70
    32
  0
VERTEX
  8
01
  5
1576B
 10
15970.0
 20
-942.695
 30
0.000000
  70
    32
  0
VERTEX
  8
01
  5
1576C
 10
15970.1
 20
-942.630
 30
0.000000
  70
    32
  0
VERTEX
  8
01
  5
1576D
 10
15970.2
 20
-942.566
 30
0.000000
  70
    32
  0
VERTEX
  8
01
  5
1576E
 10
15970.2
 20
-942.502
 30
0.000000
  70
    32
  0
VERTEX
  8
01
  5
1576F
 10
15970.3
 20
-942.439
 30
0.000000
  70
    32
  0
VERTEX
  8
01
  5
15770
 10
15970.4
 20
-942.375
 30
0.000000
  70
    32
  0
VERTEX
  8
01
  5
15771
 10
15970.5
 20
-942.312
 30
0.000000
  70
    32
  0
VERTEX
  8
01
  5
15772
 10
15970.5
 20
-942.249
 30
0.000000
  70
    32
  0
VERTEX
  8
01
  5
15773
 10
15970.6
 20
-942.187
 30
0.000000
  70
    32
  0
VERTEX
  8
01
  5
15774
 10
15970.7
 20
-942.124
 30
0.000000
  70
    32
  0
VERTEX
  8
01
  5
15775
 10
15970.8
 20
-942.062
 30
0.000000
  70
    32
  0
VERTEX
  8
01
  5
15776
 10
15970.8
 20
-942.001
 30
0.000000
  70
    32
  0
VERTEX
  8
01
  5
15777
 10
15970.9
 20
-941.939
 30
0.000000
  70
    32
  0
VERTEX
  8
01
  5
15778
 10
15971.0
 20
-941.879
 30
0.000000
  70
    32
  0
VERTEX
  8
01
  5
15779
 10
15971.1
 20
-941.818
 30
0.000000
  70
    32
  0
VERTEX
  8
01
  5
1577A
 10
15971.1
 20
-941.758
 30
0.000000
  70
    32
  0
VERTEX
  8
01
  5
1577B
 10
15971.2
 20
-941.698
 30
0.000000
  70
    32
  0
VERTEX
  8
01
  5
1577C
 10
15971.3
 20
-941.639
 30
0.000000
  70
    32
  0
VERTEX
  8
01
  5
1577D
 10
15971.4
 20
-941.581
 30
0.000000
  70
    32
  0
VERTEX
  8
01
  5
1577E
 10
15971.5
 20
-941.522
 30
0.000000
  70
    32
  0
VERTEX
  8
01
  5
1577F
 10
15971.5
 20
-941.465
 30
0.000000
  70
    32
  0
VERTEX
  8
01
  5
15780
 10
15971.6
 20
-941.408
 30
0.000000
  70
    32
  0
VERTEX
  8
01
  5
15781
 10
15971.7
 20
-941.351
 30
0.000000
  70
    32
  0
VERTEX
  8
01
  5
15782
 10
15971.8
 20
-941.295
 30
0.000000
  70
    32
  0
VERTEX
  8
01
  5
15783
 10
15971.8
 20
-941.240
 30
0.000000
  70
    32
  0
VERTEX
  8
01
  5
15784
 10
15971.9
 20
-941.185
 30
0.000000
  70
    32
  0
VERTEX
  8
01
  5
15785
 10
15972.0
 20
-941.131
 30
0.000000
  70
    32
  0
VERTEX
  8
01
  5
15786
 10
15972.1
 20
-941.077
 30
0.000000
  70
    32
  0
VERTEX
  8
01
  5
15787
 10
15972.1
 20
-941.024
 30
0.000000
  70
    32
  0
VERTEX
  8
01
  5
15788
 10
15972.2
 20
-940.972
 30
0.000000
  70
    32
  0
VERTEX
  8
01
  5
15789
 10
15972.3
 20
-940.920
 30
0.000000
  70
    32
  0
VERTEX
  8
01
  5
1578A
 10
15972.4
 20
-940.870
 30
0.000000
  70
    32
  0
VERTEX
  8
01
  5
1578B
 10
15972.4
 20
-940.820
 30
0.000000
  70
    32
  0
VERTEX
  8
01
  5
1578C
 10
15972.5
 20
-940.770
 30
0.000000
  70
    32
  0
VERTEX
  8
01
  5
1578D
 10
15972.6
 20
-940.722
 30
0.000000
  70
    32
  0
VERTEX
  8
01
  5
1578E
 10
15972.7
 20
-940.674
 30
0.000000
  70
    32
  0
VERTEX
  8
01
  5
1578F
 10
15972.8
 20
-940.627
 30
0.000000
  70
    32
  0
VERTEX
  8
01
  5
15790
 10
15972.8
 20
-940.581
 30
0.000000
  70
    32
  0
VERTEX
  8
01
  5
15791
 10
15972.9
 20
-940.536
 30
0.000000
  70
    32
  0
VERTEX
  8
01
  5
15792
 10
15973.0
 20
-940.491
 30
0.000000
  70
    32
  0
VERTEX
  8
01
  5
15793
 10
15973.1
 20
-940.448
 30
0.000000
  70
    32
  0
VERTEX
  8
01
  5
15794
 10
15973.1
 20
-940.405
 30
0.000000
  70
    32
  0
VERTEX
  8
01
  5
15795
 10
15973.2
 20
-940.363
 30
0.000000
  70
    32
  0
VERTEX
  8
01
  5
15796
 10
15973.3
 20
-940.323
 30
0.000000
  70
    32
  0
VERTEX
  8
01
  5
15797
 10
15973.4
 20
-940.283
 30
0.000000
  70
    32
  0
VERTEX
  8
01
  5
15798
 10
15973.4
 20
-940.244
 30
0.000000
  70
    32
  0
VERTEX
  8
01
  5
15799
 10
15973.5
 20
-940.206
 30
0.000000
  70
    32
  0
VERTEX
  8
01
  5
1579A
 10
15973.6
 20
-940.169
 30
0.000000
  70
    32
  0
VERTEX
  8
01
  5
1579B
 10
15973.7
 20
-940.134
 30
0.000000
  70
    32
  0
VERTEX
  8
01
  5
1579C
 10
15973.8
 20
-940.099
 30
0.000000
  70
    32
  0
VERTEX
  8
01
  5
1579D
 10
15973.8
 20
-940.065
 30
0.000000
  70
    32
  0
VERTEX
  8
01
  5
1579E
 10
15973.9
 20
-940.033
 30
0.000000
  70
    32
  0
VERTEX
  8
01
  5
1579F
 10
15974.0
 20
-940.001
 30
0.000000
  70
    32
  0
VERTEX
  8
01
  5
157A0
 10
15974.1
 20
-939.971
 30
0.000000
  70
    32
  0
VERTEX
  8
01
  5
157A1
 10
15974.1
 20
-939.942
 30
0.000000
  70
    32
  0
VERTEX
  8
01
  5
157A2
 10
15974.2
 20
-939.914
 30
0.000000
  70
    32
  0
VERTEX
  8
01
  5
157A3
 10
15974.3
 20
-939.887
 30
0.000000
  70
    32
  0
VERTEX
  8
01
  5
157A4
 10
15974.4
 20
-939.861
 30
0.000000
  70
    32
  0
VERTEX
  8
01
  5
157A5
 10
15974.5
 20
-939.837
 30
0.000000
  70
    32
  0
VERTEX
  8
01
  5
157A6
 10
15974.5
 20
-939.813
 30
0.000000
  70
    32
  0
VERTEX
  8
01
  5
157A7
 10
15974.6
 20
-939.791
 30
0.000000
  70
    32
  0
VERTEX
  8
01
  5
157A8
 10
15974.7
 20
-939.771
 30
0.000000
  70
    32
  0
VERTEX
  8
01
  5
157A9
 10
15974.8
 20
-939.751
 30
0.000000
  70
    32
  0
VERTEX
  8
01
  5
157AA
 10
15974.9
 20
-939.733
 30
0.000000
  70
    32
  0
VERTEX
  8
01
  5
157AB
 10
15974.9
 20
-939.716
 30
0.000000
  70
    32
  0
VERTEX
  8
01
  5
157AC
 10
15975.0
 20
-939.701
 30
0.000000
  70
    32
  0
VERTEX
  8
01
  5
157AD
 10
15975.1
 20
-939.687
 30
0.000000
  70
    32
  0
VERTEX
  8
01
  5
157AE
 10
15975.2
 20
-939.674
 30
0.000000
  70
    32
  0
VERTEX
  8
01
  5
157AF
 10
15975.2
 20
-939.663
 30
0.000000
  70
    32
  0
VERTEX
  8
01
  5
157B0
 10
15975.3
 20
-939.653
 30
0.000000
  70
    32
  0
VERTEX
  8
01
  5
157B1
 10
15975.4
 20
-939.644
 30
0.000000
  70
    32
  0
VERTEX
  8
01
  5
157B2
 10
15975.5
 20
-939.638
 30
0.000000
  70
    32
  0
VERTEX
  8
01
  5
157B3
 10
15975.6
 20
-939.632
 30
0.000000
  70
    32
  0
VERTEX
  8
01
  5
157B4
 10
15975.6
 20
-939.628
 30
0.000000
  70
    32
  0
VERTEX
  8
01
  5
157B5
 10
15975.7
 20
-939.625
 30
0.000000
  70
    32
  0
VERTEX
  8
01
  5
157B6
 10
15975.8
 20
-939.624
 30
0.000000
  70
    32
  0
VERTEX
  8
01
  5
157B7
 10
15975.9
 20
-939.625
 30
0.000000
  70
    32
  0
VERTEX
  8
01
  5
157B8
 10
15976.0
 20
-939.627
 30
0.000000
  70
    32
  0
VERTEX
  8
01
  5
157B9
 10
15976.0
 20
-939.631
 30
0.000000
  70
    32
  0
VERTEX
  8
01
  5
157BA
 10
15976.1
 20
-939.636
 30
0.000000
  70
    32
  0
VERTEX
  8
01
  5
157BB
 10
15976.2
 20
-939.643
 30
0.000000
  70
    32
  0
VERTEX
  8
01
  5
157BC
 10
15976.3
 20
-939.652
 30
0.000000
  70
    32
  0
VERTEX
  8
01
  5
157BD
 10
15976.4
 20
-939.662
 30
0.000000
  70
    32
  0
VERTEX
  8
01
  5
157BE
 10
15976.5
 20
-939.673
 30
0.000000
  70
    32
  0
VERTEX
  8
01
  5
157BF
 10
15976.5
 20
-939.686
 30
0.000000
  70
    32
  0
VERTEX
  8
01
  5
157C0
 10
15976.6
 20
-939.701
 30
0.000000
  70
    32
  0
VERTEX
  8
01
  5
157C1
 10
15976.7
 20
-939.717
 30
0.000000
  70
    32
  0
VERTEX
  8
01
  5
157C2
 10
15976.8
 20
-939.734
 30
0.000000
  70
    32
  0
VERTEX
  8
01
  5
157C3
 10
15976.9
 20
-939.753
 30
0.000000
  70
    32
  0
VERTEX
  8
01
  5
157C4
 10
15976.9
 20
-939.773
 30
0.000000
  70
    32
  0
VERTEX
  8
01
  5
157C5
 10
15977.0
 20
-939.794
 30
0.000000
  70
    32
  0
VERTEX
  8
01
  5
157C6
 10
15977.1
 20
-939.816
 30
0.000000
  70
    32
  0
VERTEX
  8
01
  5
157C7
 10
15977.2
 20
-939.839
 30
0.000000
  70
    32
  0
VERTEX
  8
01
  5
157C8
 10
15977.3
 20
-939.864
 30
0.000000
  70
    32
  0
VERTEX
  8
01
  5
157C9
 10
15977.3
 20
-939.889
 30
0.000000
  70
    32
  0
VERTEX
  8
01
  5
157CA
 10
15977.4
 20
-939.916
 30
0.000000
  70
    32
  0
VERTEX
  8
01
  5
157CB
 10
15977.5
 20
-939.943
 30
0.000000
  70
    32
  0
VERTEX
  8
01
  5
157CC
 10
15977.6
 20
-939.971
 30
0.000000
  70
    32
  0
VERTEX
  8
01
  5
157CD
 10
15977.7
 20
-940.000
 30
0.000000
  70
    32
  0
VERTEX
  8
01
  5
157CE
 10
15977.8
 20
-940.030
 30
0.000000
  70
    32
  0
VERTEX
  8
01
  5
157CF
 10
15977.8
 20
-940.061
 30
0.000000
  70
    32
  0
VERTEX
  8
01
  5
157D0
 10
15977.9
 20
-940.092
 30
0.000000
  70
    32
  0
VERTEX
  8
01
  5
157D1
 10
15978.0
 20
-940.124
 30
0.000000
  70
    32
  0
VERTEX
  8
01
  5
157D2
 10
15978.1
 20
-940.157
 30
0.000000
  70
    32
  0
VERTEX
  8
01
  5
157D3
 10
15978.2
 20
-940.190
 30
0.000000
  70
    32
  0
VERTEX
  8
01
  5
157D4
 10
15978.2
 20
-940.224
 30
0.000000
  70
    32
  0
VERTEX
  8
01
  5
157D5
 10
15978.3
 20
-940.259
 30
0.000000
  70
    32
  0
VERTEX
  8
01
  5
157D6
 10
15978.4
 20
-940.293
 30
0.000000
  70
    32
  0
VERTEX
  8
01
  5
157D7
 10
15978.5
 20
-940.329
 30
0.000000
  70
    32
  0
VERTEX
  8
01
  5
157D8
 10
15978.6
 20
-940.364
 30
0.000000
  70
    32
  0
VERTEX
  8
01
  5
157D9
 10
15978.7
 20
-940.400
 30
0.000000
  70
    32
  0
VERTEX
  8
01
  5
157DA
 10
15978.7
 20
-940.436
 30
0.000000
  70
    32
  0
VERTEX
  8
01
  5
157DB
 10
15978.8
 20
-940.473
 30
0.000000
  70
    32
  0
VERTEX
  8
01
  5
157DC
 10
15978.9
 20
-940.509
 30
0.000000
  70
    32
  0
VERTEX
  8
01
  5
157DD
 10
15979.0
 20
-940.546
 30
0.000000
  70
    32
  0
VERTEX
  8
01
  5
157DE
 10
15979.1
 20
-940.583
 30
0.000000
  70
    32
  0
VERTEX
  8
01
  5
157DF
 10
15979.2
 20
-940.620
 30
0.000000
  70
    32
  0
VERTEX
  8
01
  5
157E0
 10
15979.2
 20
-940.656
 30
0.000000
  70
    32
  0
VERTEX
  8
01
  5
157E1
 10
15979.3
 20
-940.693
 30
0.000000
  70
    32
  0
VERTEX
  8
01
  5
157E2
 10
15979.4
 20
-940.730
 30
0.000000
  70
    32
  0
VERTEX
  8
01
  5
157E3
 10
15979.5
 20
-940.766
 30
0.000000
  70
    32
  0
VERTEX
  8
01
  5
157E4
 10
15979.6
 20
-940.803
 30
0.000000
  70
    32
  0
VERTEX
  8
01
  5
157E5
 10
15979.7
 20
-940.839
 30
0.000000
  70
    32
  0
VERTEX
  8
01
  5
157E6
 10
15979.7
 20
-940.875
 30
0.000000
  70
    32
  0
VERTEX
  8
01
  5
157E7
 10
15979.8
 20
-940.911
 30
0.000000
  70
    32
  0
VERTEX
  8
01
  5
157E8
 10
15979.9
 20
-940.946
 30
0.000000
  70
    32
  0
VERTEX
  8
01
  5
157E9
 10
15980.0
 20
-940.981
 30
0.000000
  70
    32
  0
VERTEX
  8
01
  5
157EA
 10
15980.1
 20
-941.015
 30
0.000000
  70
    32
  0
VERTEX
  8
01
  5
157EB
 10
15980.2
 20
-941.049
 30
0.000000
  70
    32
  0
VERTEX
  8
01
  5
157EC
 10
15980.3
 20
-941.083
 30
0.000000
  70
    32
  0
VERTEX
  8
01
  5
157ED
 10
15980.3
 20
-941.115
 30
0.000000
  70
    32
  0
VERTEX
  8
01
  5
157EE
 10
15980.4
 20
-941.148
 30
0.000000
  70
    32
  0
VERTEX
  8
01
  5
157EF
 10
15980.5
 20
-941.179
 30
0.000000
  70
    32
  0
VERTEX
  8
01
  5
157F0
 10
15980.6
 20
-941.210
 30
0.000000
  70
    32
  0
VERTEX
  8
01
  5
157F1
 10
15980.7
 20
-941.240
 30
0.000000
  70
    32
  0
VERTEX
  8
01
  5
157F2
 10
15980.8
 20
-941.269
 30
0.000000
  70
    32
  0
VERTEX
  8
01
  5
157F3
 10
15980.8
 20
-941.298
 30
0.000000
  70
    32
  0
VERTEX
  8
01
  5
157F4
 10
15980.9
 20
-941.325
 30
0.000000
  70
    32
  0
VERTEX
  8
01
  5
157F5
 10
15981.0
 20
-941.352
 30
0.000000
  70
    32
  0
VERTEX
  8
01
  5
157F6
 10
15981.1
 20
-941.377
 30
0.000000
  70
    32
  0
VERTEX
  8
01
  5
157F7
 10
15981.2
 20
-941.402
 30
0.000000
  70
    32
  0
VERTEX
  8
01
  5
157F8
 10
15981.3
 20
-941.426
 30
0.000000
  70
    32
  0
VERTEX
  8
01
  5
157F9
 10
15981.3
 20
-941.448
 30
0.000000
  70
    32
  0
VERTEX
  8
01
  5
157FA
 10
15981.4
 20
-941.469
 30
0.000000
  70
    32
  0
VERTEX
  8
01
  5
157FB
 10
15981.5
 20
-941.489
 30
0.000000
  70
    32
  0
VERTEX
  8
01
  5
157FC
 10
15981.6
 20
-941.508
 30
0.000000
  70
    32
  0
VERTEX
  8
01
  5
157FD
 10
15981.7
 20
-941.526
 30
0.000000
  70
    32
  0
VERTEX
  8
01
  5
157FE
 10
15981.8
 20
-941.542
 30
0.000000
  70
    32
  0
VERTEX
  8
01
  5
157FF
 10
15981.8
 20
-941.557
 30
0.000000
  70
    32
  0
VERTEX
  8
01
  5
15800
 10
15981.9
 20
-941.570
 30
0.000000
  70
    32
  0
VERTEX
  8
01
  5
15801
 10
15982.0
 20
-941.582
 30
0.000000
  70
    32
  0
VERTEX
  8
01
  5
15802
 10
15982.1
 20
-941.592
 30
0.000000
  70
    32
  0
VERTEX
  8
01
  5
15803
 10
15982.2
 20
-941.601
 30
0.000000
  70
    32
  0
VERTEX
  8
01
  5
15804
 10
15982.3
 20
-941.609
 30
0.000000
  70
    32
  0
VERTEX
  8
01
  5
15805
 10
15982.4
 20
-941.616
 30
0.000000
  70
    32
  0
VERTEX
  8
01
  5
15806
 10
15982.4
 20
-941.621
 30
0.000000
  70
    32
  0
VERTEX
  8
01
  5
15807
 10
15982.5
 20
-941.624
 30
0.000000
  70
    32
  0
VERTEX
  8
01
  5
15808
 10
15982.6
 20
-941.627
 30
0.000000
  70
    32
  0
VERTEX
  8
01
  5
15809
 10
15982.7
 20
-941.628
 30
0.000000
  70
    32
  0
VERTEX
  8
01
  5
1580A
 10
15982.8
 20
-941.628
 30
0.000000
  70
    32
  0
VERTEX
  8
01
  5
1580B
 10
15982.9
 20
-941.626
 30
0.000000
  70
    32
  0
VERTEX
  8
01
  5
1580C
 10
15982.9
 20
-941.624
 30
0.000000
  70
    32
  0
VERTEX
  8
01
  5
1580D
 10
15983.0
 20
-941.620
 30
0.000000
  70
    32
  0
VERTEX
  8
01
  5
1580E
 10
15983.1
 20
-941.615
 30
0.000000
  70
    32
  0
VERTEX
  8
01
  5
1580F
 10
15983.2
 20
-941.608
 30
0.000000
  70
    32
  0
VERTEX
  8
01
  5
15810
 10
15983.3
 20
-941.601
 30
0.000000
  70
    32
  0
VERTEX
  8
01
  5
15811
 10
15983.4
 20
-941.593
 30
0.000000
  70
    32
  0
VERTEX
  8
01
  5
15812
 10
15983.5
 20
-941.583
 30
0.000000
  70
    32
  0
VERTEX
  8
01
  5
15813
 10
15983.5
 20
-941.572
 30
0.000000
  70
    32
  0
VERTEX
  8
01
  5
15814
 10
15983.6
 20
-941.561
 30
0.000000
  70
    32
  0
VERTEX
  8
01
  5
15815
 10
15983.7
 20
-941.548
 30
0.000000
  70
    32
  0
VERTEX
  8
01
  5
15816
 10
15983.8
 20
-941.534
 30
0.000000
  70
    32
  0
VERTEX
  8
01
  5
15817
 10
15983.9
 20
-941.519
 30
0.000000
  70
    32
  0
VERTEX
  8
01
  5
15818
 10
15984.0
 20
-941.503
 30
0.000000
  70
    32
  0
VERTEX
  8
01
  5
15819
 10
15984.0
 20
-941.486
 30
0.000000
  70
    32
  0
VERTEX
  8
01
  5
1581A
 10
15984.1
 20
-941.469
 30
0.000000
  70
    32
  0
VERTEX
  8
01
  5
1581B
 10
15984.2
 20
-941.450
 30
0.000000
  70
    32
  0
VERTEX
  8
01
  5
1581C
 10
15984.3
 20
-941.430
 30
0.000000
  70
    32
  0
VERTEX
  8
01
  5
1581D
 10
15984.4
 20
-941.410
 30
0.000000
  70
    32
  0
VERTEX
  8
01
  5
1581E
 10
15984.5
 20
-941.388
 30
0.000000
  70
    32
  0
VERTEX
  8
01
  5
1581F
 10
15984.6
 20
-941.366
 30
0.000000
  70
    32
  0
VERTEX
  8
01
  5
15820
 10
15984.6
 20
-941.343
 30
0.000000
  70
    32
  0
VERTEX
  8
01
  5
15821
 10
15984.7
 20
-941.319
 30
0.000000
  70
    32
  0
VERTEX
  8
01
  5
15822
 10
15984.8
 20
-941.294
 30
0.000000
  70
    32
  0
VERTEX
  8
01
  5
15823
 10
15984.9
 20
-941.269
 30
0.000000
  70
    32
  0
VERTEX
  8
01
  5
15824
 10
15985.0
 20
-941.243
 30
0.000000
  70
    32
  0
VERTEX
  8
01
  5
15825
 10
15985.1
 20
-941.216
 30
0.000000
  70
    32
  0
VERTEX
  8
01
  5
15826
 10
15985.1
 20
-941.188
 30
0.000000
  70
    32
  0
VERTEX
  8
01
  5
15827
 10
15985.2
 20
-941.160
 30
0.000000
  70
    32
  0
VERTEX
  8
01
  5
15828
 10
15985.3
 20
-941.131
 30
0.000000
  70
    32
  0
VERTEX
  8
01
  5
15829
 10
15985.4
 20
-941.101
 30
0.000000
  70
    32
  0
SEQEND
  8
01
  5
1582A
  0
LINE
  5
14C03
  8
01
 10
15972.79591312632
 20
-940.601284082348
 30
0.0
 11
15979.121366757359
 21
-940.60128408234823
 31
0.0
  0
ARC
  5
14C06
  8
01
 10
15978.88045393748
 20
-881.69915596565045
 30
0.0
 40
11.5
 50
328.55099999999999
 51
31.449000000000002
  0
ARC
  5
14C07
  8
01
 10
15976.680453937481
 20
-881.69915596565045
 30
0.0
 40
11.5
 50
148.5520000000441
 51
211.45000000004021
  0
LINE
  5
14C08
  8
01
 10
15977.780453937479
 20
-875.69915596565045
 30
0.0
 11
15966.870453937479
 21
-875.69915596565045
 31
0.0
  0
LINE
  5
14C09
  8
01
 10
15977.780453937479
 20
-875.69915596565045
 30
0.0
 11
15988.691453937479
 21
-875.69915596565045
 31
0.0
  0
LINE
  5
14C0A
  8
01
 10
15977.780453937479
 20
-887.69915596565045
 30
0.0
 11
15966.870453937479
 21
-887.69915596565045
 31
0.0
  0
LINE
  5
14C0B
  8
01
 10
15977.780453937479
 20
-887.69915596565045
 30
0.0
 11
15988.691453937479
 21
-887.69915596565045
 31
0.0
  0
LINE
  5
14C0C
  8
01
 10
15987.73945393748
 20
-876.79115596565055
 30
0.0
 11
15988.22345393748
 21
-876.8791559656504
 31
0.0
  0
LINE
  5
14C0D
  8
01
 10
15988.22345393748
 20
-876.8791559656504
 30
0.0
 11
15988.66745393748
 21
-877.12115596565047
 31
0.0
  0
LINE
  5
14C0E
  8
01
 10
15988.66745393748
 20
-877.12115596565047
 30
0.0
 11
15989.047453937481
 21
-877.47215596565047
 31
0.0
  0
LINE
  5
14C0F
  8
01
 10
15989.047453937481
 20
-877.47215596565047
 30
0.0
 11
15989.35545393748
 21
-877.87815596565065
 31
0.0
  0
LINE
  5
14C10
  8
01
 10
15989.35545393748
 20
-877.87815596565065
 30
0.0
 11
15989.59645393748
 21
-878.30015596565056
 31
0.0
  0
LINE
  5
14C11
  8
01
 10
15989.59645393748
 20
-878.30015596565056
 30
0.0
 11
15989.78245393748
 21
-878.71315596565057
 31
0.0
  0
LINE
  5
14C12
  8
01
 10
15989.78245393748
 20
-878.71315596565057
 30
0.0
 11
15989.924453937479
 21
-879.10515596565028
 31
0.0
  0
LINE
  5
14C13
  8
01
 10
15989.924453937479
 20
-879.10515596565028
 30
0.0
 11
15990.03345393748
 21
-879.47215596565059
 31
0.0
  0
LINE
  5
14C14
  8
01
 10
15990.03345393748
 20
-879.47215596565059
 30
0.0
 11
15990.11645393748
 21
-879.81315596565048
 31
0.0
  0
LINE
  5
14C15
  8
01
 10
15990.11645393748
 20
-879.81315596565048
 30
0.0
 11
15990.179453937481
 21
-880.1331559656503
 31
0.0
  0
LINE
  5
14C16
  8
01
 10
15990.179453937481
 20
-880.1331559656503
 30
0.0
 11
15990.226453937479
 21
-880.43315596565026
 31
0.0
  0
LINE
  5
14C17
  8
01
 10
15990.226453937479
 20
-880.43315596565026
 30
0.0
 11
15990.262453937479
 21
-880.71915596565032
 31
0.0
  0
LINE
  5
14C18
  8
01
 10
15990.262453937479
 20
-880.71915596565032
 30
0.0
 11
15990.287453937481
 21
-880.99215596565045
 31
0.0
  0
LINE
  5
14C19
  8
01
 10
15990.287453937481
 20
-880.99215596565045
 30
0.0
 11
15990.30345393748
 21
-881.25715596565044
 31
0.0
  0
LINE
  5
14C1A
  8
01
 10
15990.30345393748
 20
-881.25715596565044
 30
0.0
 11
15990.31245393748
 21
-881.51715596565032
 31
0.0
  0
LINE
  5
14C1B
  8
01
 10
15990.31245393748
 20
-881.51715596565032
 30
0.0
 11
15990.313453937481
 21
-881.77415596565049
 31
0.0
  0
LINE
  5
14C1C
  8
01
 10
15990.313453937481
 20
-881.77415596565049
 30
0.0
 11
15990.307453937479
 21
-882.03315596565051
 31
0.0
  0
LINE
  5
14C1D
  8
01
 10
15990.307453937479
 20
-882.03315596565051
 30
0.0
 11
15990.29445393748
 21
-882.29515596565045
 31
0.0
  0
LINE
  5
14C1E
  8
01
 10
15990.29445393748
 20
-882.29515596565045
 30
0.0
 11
15990.27345393748
 21
-882.56515596565043
 31
0.0
  0
LINE
  5
14C1F
  8
01
 10
15990.27345393748
 20
-882.56515596565043
 30
0.0
 11
15990.242453937481
 21
-882.84515596565029
 31
0.0
  0
LINE
  5
14C20
  8
01
 10
15990.242453937481
 20
-882.84515596565029
 30
0.0
 11
15990.200453937479
 21
-883.13815596565041
 31
0.0
  0
LINE
  5
14C21
  8
01
 10
15990.200453937479
 20
-883.13815596565041
 30
0.0
 11
15990.144453937481
 21
-883.45015596565031
 31
0.0
  0
LINE
  5
14C22
  8
01
 10
15990.144453937481
 20
-883.45015596565031
 30
0.0
 11
15990.07045393748
 21
-883.78215596565053
 31
0.0
  0
LINE
  5
14C23
  8
01
 10
15990.07045393748
 20
-883.78215596565053
 30
0.0
 11
15989.97345393748
 21
-884.13815596565064
 31
0.0
  0
LINE
  5
14C24
  8
01
 10
15989.97345393748
 20
-884.13815596565064
 30
0.0
 11
15989.84645393748
 21
-884.51915596565038
 31
0.0
  0
LINE
  5
14C25
  8
01
 10
15989.84645393748
 20
-884.51915596565038
 30
0.0
 11
15989.680453937481
 21
-884.92415596565024
 31
0.0
  0
LINE
  5
14C26
  8
01
 10
15989.680453937481
 20
-884.92415596565024
 30
0.0
 11
15989.46345393748
 21
-885.34515596565029
 31
0.0
  0
LINE
  5
14C27
  8
01
 10
15989.46345393748
 20
-885.34515596565029
 30
0.0
 11
15989.18445393748
 21
-885.76215596565055
 31
0.0
  0
LINE
  5
14C28
  8
01
 10
15989.18445393748
 20
-885.76215596565055
 30
0.0
 11
15988.834453937479
 21
-886.14115596565046
 31
0.0
  0
LINE
  5
14C29
  8
01
 10
15988.834453937479
 20
-886.14115596565046
 30
0.0
 11
15988.415453937479
 21
-886.43515596565055
 31
0.0
  0
LINE
  5
14C2A
  8
01
 10
15988.415453937479
 20
-886.43515596565055
 30
0.0
 11
15987.94345393748
 21
-886.59215596565036
 31
0.0
  0
LINE
  5
14C2B
  8
01
 10
15987.94345393748
 20
-886.59215596565036
 30
0.0
 11
15987.73945393748
 21
-886.60715596565035
 31
0.0
  0
LINE
  5
14C2C
  8
01
 10
15987.73945393748
 20
-886.60715596565035
 30
0.0
 11
15987.45445393748
 21
-886.5771559656506
 31
0.0
  0
LINE
  5
14C2D
  8
01
 10
15987.45445393748
 20
-886.5771559656506
 30
0.0
 11
15986.98945393748
 21
-886.39415596565061
 31
0.0
  0
LINE
  5
14C2E
  8
01
 10
15986.98945393748
 20
-886.39415596565061
 30
0.0
 11
15986.581453937481
 21
-886.08215596565049
 31
0.0
  0
LINE
  5
14C2F
  8
01
 10
15986.581453937481
 20
-886.08215596565049
 30
0.0
 11
15986.243453937481
 21
-885.69315596565048
 31
0.0
  0
LINE
  5
14C30
  8
01
 10
15986.243453937481
 20
-885.69315596565048
 30
0.0
 11
15985.976453937479
 21
-885.27415596565049
 31
0.0
  0
LINE
  5
14C31
  8
01
 10
15985.976453937479
 20
-885.27415596565049
 30
0.0
 11
15985.76845393748
 21
-884.8551559656504
 31
0.0
  0
LINE
  5
14C32
  8
01
 10
15985.76845393748
 20
-884.8551559656504
 30
0.0
 11
15985.609453937481
 21
-884.45315596565035
 31
0.0
  0
LINE
  5
14C33
  8
01
 10
15985.609453937481
 20
-884.45315596565035
 30
0.0
 11
15985.48745393748
 21
-884.0761559656504
 31
0.0
  0
LINE
  5
14C34
  8
01
 10
15985.48745393748
 20
-884.0761559656504
 30
0.0
 11
15985.395453937481
 21
-883.72415596565043
 31
0.0
  0
LINE
  5
14C35
  8
01
 10
15985.395453937481
 20
-883.72415596565043
 30
0.0
 11
15985.324453937479
 21
-883.39615596565022
 31
0.0
  0
LINE
  5
14C36
  8
01
 10
15985.324453937479
 20
-883.39615596565022
 30
0.0
 11
15985.271453937479
 21
-883.08815596565046
 31
0.0
  0
LINE
  5
14C37
  8
01
 10
15985.271453937479
 20
-883.08815596565046
 30
0.0
 11
15985.23145393748
 21
-882.7971559656504
 31
0.0
  0
LINE
  5
14C38
  8
01
 10
15985.23145393748
 20
-882.7971559656504
 30
0.0
 11
15985.20245393748
 21
-882.51915596565061
 31
0.0
  0
LINE
  5
14C39
  8
01
 10
15985.20245393748
 20
-882.51915596565061
 30
0.0
 11
15985.182453937479
 21
-882.25115596565024
 31
0.0
  0
LINE
  5
14C3A
  8
01
 10
15985.182453937479
 20
-882.25115596565024
 30
0.0
 11
15985.17045393748
 21
-881.98915596565041
 31
0.0
  0
LINE
  5
14C3B
  8
01
 10
15985.17045393748
 20
-881.98915596565041
 30
0.0
 11
15985.165453937479
 21
-881.73115596565037
 31
0.0
  0
LINE
  5
14C3C
  8
01
 10
15985.165453937479
 20
-881.73115596565037
 30
0.0
 11
15985.16845393748
 21
-881.47315596565056
 31
0.0
  0
LINE
  5
14C3D
  8
01
 10
15985.16845393748
 20
-881.47315596565056
 30
0.0
 11
15985.17845393748
 21
-881.21315596565046
 31
0.0
  0
LINE
  5
14C3E
  8
01
 10
15985.17845393748
 20
-881.21315596565046
 30
0.0
 11
15985.19645393748
 21
-880.94715596565038
 31
0.0
  0
LINE
  5
14C3F
  8
01
 10
15985.19645393748
 20
-880.94715596565038
 30
0.0
 11
15985.22245393748
 21
-880.67215596565029
 31
0.0
  0
LINE
  5
14C40
  8
01
 10
15985.22245393748
 20
-880.67215596565029
 30
0.0
 11
15985.260453937481
 21
-880.38415596565039
 31
0.0
  0
LINE
  5
14C41
  8
01
 10
15985.260453937481
 20
-880.38415596565039
 30
0.0
 11
15985.30945393748
 21
-880.08115596565051
 31
0.0
  0
LINE
  5
14C42
  8
01
 10
15985.30945393748
 20
-880.08115596565051
 30
0.0
 11
15985.37545393748
 21
-879.75815596565053
 31
0.0
  0
LINE
  5
14C43
  8
01
 10
15985.37545393748
 20
-879.75815596565053
 30
0.0
 11
15985.46245393748
 21
-879.41215596565041
 31
0.0
  0
LINE
  5
14C44
  8
01
 10
15985.46245393748
 20
-879.41215596565041
 30
0.0
 11
15985.57645393748
 21
-879.04115596565043
 31
0.0
  0
LINE
  5
14C45
  8
01
 10
15985.57645393748
 20
-879.04115596565043
 30
0.0
 11
15985.724453937481
 21
-878.64515596565025
 31
0.0
  0
LINE
  5
14C46
  8
01
 10
15985.724453937481
 20
-878.64515596565025
 30
0.0
 11
15985.91945393748
 21
-878.22915596565042
 31
0.0
  0
LINE
  5
14C47
  8
01
 10
15985.91945393748
 20
-878.22915596565042
 30
0.0
 11
15986.171453937481
 21
-877.80815596565037
 31
0.0
  0
LINE
  5
14C48
  8
01
 10
15986.171453937481
 20
-877.80815596565037
 30
0.0
 11
15986.49145393748
 21
-877.40815596565039
 31
0.0
  0
LINE
  5
14C49
  8
01
 10
15986.49145393748
 20
-877.40815596565039
 30
0.0
 11
15986.88245393748
 21
-877.07115596565041
 31
0.0
  0
LINE
  5
14C4A
  8
01
 10
15986.88245393748
 20
-877.07115596565041
 30
0.0
 11
15987.33545393748
 21
-876.85215596565035
 31
0.0
  0
LINE
  5
14C4B
  8
01
 10
15987.33545393748
 20
-876.85215596565035
 30
0.0
 11
15987.73945393748
 21
-876.79115596565055
 31
0.0
  0
LINE
  5
14C4C
  8
01
 10
15977.780453937479
 20
-876.79115596565055
 30
0.0
 11
15978.270453937481
 21
-876.81315596565037
 31
0.0
  0
LINE
  5
14C4D
  8
01
 10
15978.270453937481
 20
-876.81315596565037
 30
0.0
 11
15978.75745393748
 21
-876.88015596565049
 31
0.0
  0
LINE
  5
14C4E
  8
01
 10
15978.75745393748
 20
-876.88015596565049
 30
0.0
 11
15979.236453937479
 21
-876.99215596565057
 31
0.0
  0
LINE
  5
14C4F
  8
01
 10
15979.236453937479
 20
-876.99215596565057
 30
0.0
 11
15979.70545393748
 21
-877.14715596565065
 31
0.0
  0
LINE
  5
14C50
  8
01
 10
15979.70545393748
 20
-877.14715596565065
 30
0.0
 11
15980.15845393748
 21
-877.34615596565072
 31
0.0
  0
LINE
  5
14C51
  8
01
 10
15980.15845393748
 20
-877.34615596565072
 30
0.0
 11
15980.593453937479
 21
-877.58815596565057
 31
0.0
  0
LINE
  5
14C52
  8
01
 10
15980.593453937479
 20
-877.58815596565057
 30
0.0
 11
15981.004453937479
 21
-877.87215596565045
 31
0.0
  0
LINE
  5
14C53
  8
01
 10
15981.004453937479
 20
-877.87215596565045
 30
0.0
 11
15981.387453937479
 21
-878.19615596565052
 31
0.0
  0
LINE
  5
14C54
  8
01
 10
15981.387453937479
 20
-878.19615596565052
 30
0.0
 11
15981.73745393748
 21
-878.55915596565058
 31
0.0
  0
LINE
  5
14C55
  8
01
 10
15981.73745393748
 20
-878.55915596565058
 30
0.0
 11
15982.05045393748
 21
-878.95715596565037
 31
0.0
  0
LINE
  5
14C56
  8
01
 10
15982.05045393748
 20
-878.95715596565037
 30
0.0
 11
15982.322453937481
 21
-879.38715596565055
 31
0.0
  0
LINE
  5
14C57
  8
01
 10
15982.322453937481
 20
-879.38715596565055
 30
0.0
 11
15982.548453937479
 21
-879.84615596565027
 31
0.0
  0
LINE
  5
14C58
  8
01
 10
15982.548453937479
 20
-879.84615596565027
 30
0.0
 11
15982.724453937481
 21
-880.3271559656506
 31
0.0
  0
LINE
  5
14C59
  8
01
 10
15982.724453937481
 20
-880.3271559656506
 30
0.0
 11
15982.84745393748
 21
-880.82515596565042
 31
0.0
  0
LINE
  5
14C5A
  8
01
 10
15982.84745393748
 20
-880.82515596565042
 30
0.0
 11
15982.915453937479
 21
-881.33515596565053
 31
0.0
  0
LINE
  5
14C5B
  8
01
 10
15982.915453937479
 20
-881.33515596565053
 30
0.0
 11
15982.929453937481
 21
-881.69915596565045
 31
0.0
  0
LINE
  5
14C5C
  8
01
 10
15982.929453937481
 20
-881.69915596565045
 30
0.0
 11
15982.92745393748
 21
-881.84915596565054
 31
0.0
  0
LINE
  5
14C5D
  8
01
 10
15982.92745393748
 20
-881.84915596565054
 30
0.0
 11
15982.88245393748
 21
-882.36215596565046
 31
0.0
  0
LINE
  5
14C5E
  8
01
 10
15982.88245393748
 20
-882.36215596565046
 30
0.0
 11
15982.781453937479
 21
-882.86615596565036
 31
0.0
  0
LINE
  5
14C5F
  8
01
 10
15982.781453937479
 20
-882.86615596565036
 30
0.0
 11
15982.627453937481
 21
-883.3551559656504
 31
0.0
  0
LINE
  5
14C60
  8
01
 10
15982.627453937481
 20
-883.3551559656504
 30
0.0
 11
15982.422453937481
 21
-883.82315596565036
 31
0.0
  0
LINE
  5
14C61
  8
01
 10
15982.422453937481
 20
-883.82315596565036
 30
0.0
 11
15982.16945393748
 21
-884.26615596565034
 31
0.0
  0
LINE
  5
14C62
  8
01
 10
15982.16945393748
 20
-884.26615596565034
 30
0.0
 11
15981.87245393748
 21
-884.67815596565038
 31
0.0
  0
LINE
  5
14C63
  8
01
 10
15981.87245393748
 20
-884.67815596565038
 30
0.0
 11
15981.537453937481
 21
-885.05615596565053
 31
0.0
  0
LINE
  5
14C64
  8
01
 10
15981.537453937481
 20
-885.05615596565053
 30
0.0
 11
15981.16745393748
 21
-885.39615596565045
 31
0.0
  0
LINE
  5
14C65
  8
01
 10
15981.16745393748
 20
-885.39615596565045
 30
0.0
 11
15980.76745393748
 21
-885.6971559656505
 31
0.0
  0
LINE
  5
14C66
  8
01
 10
15980.76745393748
 20
-885.6971559656505
 30
0.0
 11
15980.341453937481
 21
-885.95715596565049
 31
0.0
  0
LINE
  5
14C67
  8
01
 10
15980.341453937481
 20
-885.95715596565049
 30
0.0
 11
15979.895453937481
 21
-886.17415596565036
 31
0.0
  0
LINE
  5
14C68
  8
01
 10
15979.895453937481
 20
-886.17415596565036
 30
0.0
 11
15979.433453937479
 21
-886.34715596565059
 31
0.0
  0
LINE
  5
14C69
  8
01
 10
15979.433453937479
 20
-886.34715596565059
 30
0.0
 11
15978.957453937481
 21
-886.47715596565047
 31
0.0
  0
LINE
  5
14C6A
  8
01
 10
15978.957453937481
 20
-886.47715596565047
 30
0.0
 11
15978.47345393748
 21
-886.5621559656505
 31
0.0
  0
LINE
  5
14C6B
  8
01
 10
15978.47345393748
 20
-886.5621559656505
 30
0.0
 11
15977.984453937481
 21
-886.60315596565033
 31
0.0
  0
LINE
  5
14C6C
  8
01
 10
15977.984453937481
 20
-886.60315596565033
 30
0.0
 11
15977.780453937479
 21
-886.60715596565035
 31
0.0
  0
LINE
  5
14C6D
  8
01
 10
15967.82145393748
 20
-876.79115596565055
 30
0.0
 11
15967.33745393748
 21
-876.8791559656504
 31
0.0
  0
LINE
  5
14C6E
  8
01
 10
15967.33745393748
 20
-876.8791559656504
 30
0.0
 11
15966.89345393748
 21
-877.12115596565047
 31
0.0
  0
LINE
  5
14C6F
  8
01
 10
15966.89345393748
 20
-877.12115596565047
 30
0.0
 11
15966.513453937479
 21
-877.47215596565047
 31
0.0
  0
LINE
  5
14C70
  8
01
 10
15966.513453937479
 20
-877.47215596565047
 30
0.0
 11
15966.20545393748
 21
-877.87815596565065
 31
0.0
  0
LINE
  5
14C71
  8
01
 10
15966.20545393748
 20
-877.87815596565065
 30
0.0
 11
15965.96445393748
 21
-878.30015596565056
 31
0.0
  0
LINE
  5
14C72
  8
01
 10
15965.96445393748
 20
-878.30015596565056
 30
0.0
 11
15965.778453937481
 21
-878.71315596565057
 31
0.0
  0
LINE
  5
14C73
  8
01
 10
15965.778453937481
 20
-878.71315596565057
 30
0.0
 11
15965.636453937481
 21
-879.10515596565028
 31
0.0
  0
LINE
  5
14C74
  8
01
 10
15965.636453937481
 20
-879.10515596565028
 30
0.0
 11
15965.52745393748
 21
-879.47215596565059
 31
0.0
  0
LINE
  5
14C75
  8
01
 10
15965.52745393748
 20
-879.47215596565059
 30
0.0
 11
15965.44445393748
 21
-879.81315596565048
 31
0.0
  0
LINE
  5
14C76
  8
01
 10
15965.44445393748
 20
-879.81315596565048
 30
0.0
 11
15965.38145393748
 21
-880.1331559656503
 31
0.0
  0
LINE
  5
14C77
  8
01
 10
15965.38145393748
 20
-880.1331559656503
 30
0.0
 11
15965.334453937479
 21
-880.43315596565026
 31
0.0
  0
LINE
  5
14C78
  8
01
 10
15965.334453937479
 20
-880.43315596565026
 30
0.0
 11
15965.298453937479
 21
-880.71915596565032
 31
0.0
  0
LINE
  5
14C79
  8
01
 10
15965.298453937479
 20
-880.71915596565032
 30
0.0
 11
15965.27345393748
 21
-880.99215596565045
 31
0.0
  0
LINE
  5
14C7A
  8
01
 10
15965.27345393748
 20
-880.99215596565045
 30
0.0
 11
15965.25745393748
 21
-881.25715596565044
 31
0.0
  0
LINE
  5
14C7B
  8
01
 10
15965.25745393748
 20
-881.25715596565044
 30
0.0
 11
15965.24845393748
 21
-881.51715596565032
 31
0.0
  0
LINE
  5
14C7C
  8
01
 10
15965.24845393748
 20
-881.51715596565032
 30
0.0
 11
15965.24745393748
 21
-881.77415596565049
 31
0.0
  0
LINE
  5
14C7D
  8
01
 10
15965.24745393748
 20
-881.77415596565049
 30
0.0
 11
15965.253453937479
 21
-882.03315596565051
 31
0.0
  0
LINE
  5
14C7E
  8
01
 10
15965.253453937479
 20
-882.03315596565051
 30
0.0
 11
15965.26645393748
 21
-882.29515596565045
 31
0.0
  0
LINE
  5
14C7F
  8
01
 10
15965.26645393748
 20
-882.29515596565045
 30
0.0
 11
15965.287453937481
 21
-882.56515596565043
 31
0.0
  0
LINE
  5
14C80
  8
01
 10
15965.287453937481
 20
-882.56515596565043
 30
0.0
 11
15965.31845393748
 21
-882.84515596565029
 31
0.0
  0
LINE
  5
14C81
  8
01
 10
15965.31845393748
 20
-882.84515596565029
 30
0.0
 11
15965.360453937479
 21
-883.13815596565041
 31
0.0
  0
LINE
  5
14C82
  8
01
 10
15965.360453937479
 20
-883.13815596565041
 30
0.0
 11
15965.41645393748
 21
-883.45015596565031
 31
0.0
  0
LINE
  5
14C83
  8
01
 10
15965.41645393748
 20
-883.45015596565031
 30
0.0
 11
15965.49045393748
 21
-883.78215596565053
 31
0.0
  0
LINE
  5
14C84
  8
01
 10
15965.49045393748
 20
-883.78215596565053
 30
0.0
 11
15965.58745393748
 21
-884.13815596565064
 31
0.0
  0
LINE
  5
14C85
  8
01
 10
15965.58745393748
 20
-884.13815596565064
 30
0.0
 11
15965.71445393748
 21
-884.51915596565038
 31
0.0
  0
LINE
  5
14C86
  8
01
 10
15965.71445393748
 20
-884.51915596565038
 30
0.0
 11
15965.88045393748
 21
-884.92415596565024
 31
0.0
  0
LINE
  5
14C87
  8
01
 10
15965.88045393748
 20
-884.92415596565024
 30
0.0
 11
15966.09745393748
 21
-885.34515596565029
 31
0.0
  0
LINE
  5
14C88
  8
01
 10
15966.09745393748
 20
-885.34515596565029
 30
0.0
 11
15966.376453937481
 21
-885.76215596565055
 31
0.0
  0
LINE
  5
14C89
  8
01
 10
15966.376453937481
 20
-885.76215596565055
 30
0.0
 11
15966.726453937479
 21
-886.14115596565046
 31
0.0
  0
LINE
  5
14C8A
  8
01
 10
15966.726453937479
 20
-886.14115596565046
 30
0.0
 11
15967.145453937481
 21
-886.43515596565055
 31
0.0
  0
LINE
  5
14C8B
  8
01
 10
15967.145453937481
 20
-886.43515596565055
 30
0.0
 11
15967.617453937481
 21
-886.59215596565036
 31
0.0
  0
LINE
  5
14C8C
  8
01
 10
15967.617453937481
 20
-886.59215596565036
 30
0.0
 11
15967.82145393748
 21
-886.60715596565035
 31
0.0
  0
LINE
  5
14C8D
  8
01
 10
15967.82145393748
 20
-886.60715596565035
 30
0.0
 11
15968.10645393748
 21
-886.5771559656506
 31
0.0
  0
LINE
  5
14C8E
  8
01
 10
15968.10645393748
 20
-886.5771559656506
 30
0.0
 11
15968.57145393748
 21
-886.39415596565061
 31
0.0
  0
LINE
  5
14C8F
  8
01
 10
15968.57145393748
 20
-886.39415596565061
 30
0.0
 11
15968.97945393748
 21
-886.08215596565049
 31
0.0
  0
LINE
  5
14C90
  8
01
 10
15968.97945393748
 20
-886.08215596565049
 30
0.0
 11
15969.31745393748
 21
-885.69315596565048
 31
0.0
  0
LINE
  5
14C91
  8
01
 10
15969.31745393748
 20
-885.69315596565048
 30
0.0
 11
15969.584453937479
 21
-885.27415596565049
 31
0.0
  0
LINE
  5
14C92
  8
01
 10
15969.584453937479
 20
-885.27415596565049
 30
0.0
 11
15969.79245393748
 21
-884.8551559656504
 31
0.0
  0
LINE
  5
14C93
  8
01
 10
15969.79245393748
 20
-884.8551559656504
 30
0.0
 11
15969.95145393748
 21
-884.45315596565035
 31
0.0
  0
LINE
  5
14C94
  8
01
 10
15969.95145393748
 20
-884.45315596565035
 30
0.0
 11
15970.073453937481
 21
-884.0761559656504
 31
0.0
  0
LINE
  5
14C95
  8
01
 10
15970.073453937481
 20
-884.0761559656504
 30
0.0
 11
15970.165453937479
 21
-883.72415596565043
 31
0.0
  0
LINE
  5
14C96
  8
01
 10
15970.165453937479
 20
-883.72415596565043
 30
0.0
 11
15970.236453937479
 21
-883.39615596565022
 31
0.0
  0
LINE
  5
14C97
  8
01
 10
15970.236453937479
 20
-883.39615596565022
 30
0.0
 11
15970.289453937479
 21
-883.08815596565046
 31
0.0
  0
LINE
  5
14C98
  8
01
 10
15970.289453937479
 20
-883.08815596565046
 30
0.0
 11
15970.32945393748
 21
-882.7971559656504
 31
0.0
  0
LINE
  5
14C99
  8
01
 10
15970.32945393748
 20
-882.7971559656504
 30
0.0
 11
15970.358453937481
 21
-882.51915596565061
 31
0.0
  0
LINE
  5
14C9A
  8
01
 10
15970.358453937481
 20
-882.51915596565061
 30
0.0
 11
15970.378453937479
 21
-882.25115596565024
 31
0.0
  0
LINE
  5
14C9B
  8
01
 10
15970.378453937479
 20
-882.25115596565024
 30
0.0
 11
15970.39045393748
 21
-881.98915596565041
 31
0.0
  0
LINE
  5
14C9C
  8
01
 10
15970.39045393748
 20
-881.98915596565041
 30
0.0
 11
15970.395453937481
 21
-881.73115596565037
 31
0.0
  0
LINE
  5
14C9D
  8
01
 10
15970.395453937481
 20
-881.73115596565037
 30
0.0
 11
15970.39245393748
 21
-881.47315596565056
 31
0.0
  0
LINE
  5
14C9E
  8
01
 10
15970.39245393748
 20
-881.47315596565056
 30
0.0
 11
15970.38245393748
 21
-881.21315596565046
 31
0.0
  0
LINE
  5
14C9F
  8
01
 10
15970.38245393748
 20
-881.21315596565046
 30
0.0
 11
15970.36445393748
 21
-880.94715596565038
 31
0.0
  0
LINE
  5
14CA0
  8
01
 10
15970.36445393748
 20
-880.94715596565038
 30
0.0
 11
15970.33845393748
 21
-880.67215596565029
 31
0.0
  0
LINE
  5
14CA1
  8
01
 10
15970.33845393748
 20
-880.67215596565029
 30
0.0
 11
15970.30045393748
 21
-880.38415596565039
 31
0.0
  0
LINE
  5
14CA2
  8
01
 10
15970.30045393748
 20
-880.38415596565039
 30
0.0
 11
15970.251453937481
 21
-880.08115596565051
 31
0.0
  0
LINE
  5
14CA3
  8
01
 10
15970.251453937481
 20
-880.08115596565051
 30
0.0
 11
15970.18545393748
 21
-879.75815596565053
 31
0.0
  0
LINE
  5
14CA4
  8
01
 10
15970.18545393748
 20
-879.75815596565053
 30
0.0
 11
15970.09845393748
 21
-879.41215596565041
 31
0.0
  0
LINE
  5
14CA5
  8
01
 10
15970.09845393748
 20
-879.41215596565041
 30
0.0
 11
15969.984453937481
 21
-879.04115596565043
 31
0.0
  0
LINE
  5
14CA6
  8
01
 10
15969.984453937481
 20
-879.04115596565043
 30
0.0
 11
15969.83645393748
 21
-878.64515596565025
 31
0.0
  0
LINE
  5
14CA7
  8
01
 10
15969.83645393748
 20
-878.64515596565025
 30
0.0
 11
15969.64145393748
 21
-878.22915596565042
 31
0.0
  0
LINE
  5
14CA8
  8
01
 10
15969.64145393748
 20
-878.22915596565042
 30
0.0
 11
15969.38945393748
 21
-877.80815596565037
 31
0.0
  0
LINE
  5
14CA9
  8
01
 10
15969.38945393748
 20
-877.80815596565037
 30
0.0
 11
15969.06945393748
 21
-877.40815596565039
 31
0.0
  0
LINE
  5
14CAA
  8
01
 10
15969.06945393748
 20
-877.40815596565039
 30
0.0
 11
15968.67845393748
 21
-877.07115596565041
 31
0.0
  0
LINE
  5
14CAB
  8
01
 10
15968.67845393748
 20
-877.07115596565041
 30
0.0
 11
15968.225453937481
 21
-876.85215596565035
 31
0.0
  0
LINE
  5
14CAC
  8
01
 10
15968.225453937481
 20
-876.85215596565035
 30
0.0
 11
15967.82145393748
 21
-876.79115596565055
 31
0.0
  0
LINE
  5
14CAD
  8
01
 10
15977.780453937479
 20
-876.79115596565055
 30
0.0
 11
15977.290453937479
 21
-876.81315596565037
 31
0.0
  0
LINE
  5
14CAE
  8
01
 10
15977.290453937479
 20
-876.81315596565037
 30
0.0
 11
15976.80345393748
 21
-876.88015596565049
 31
0.0
  0
LINE
  5
14CAF
  8
01
 10
15976.80345393748
 20
-876.88015596565049
 30
0.0
 11
15976.324453937479
 21
-876.99215596565057
 31
0.0
  0
LINE
  5
14CB0
  8
01
 10
15976.324453937479
 20
-876.99215596565057
 30
0.0
 11
15975.85545393748
 21
-877.14715596565065
 31
0.0
  0
LINE
  5
14CB1
  8
01
 10
15975.85545393748
 20
-877.14715596565065
 30
0.0
 11
15975.40245393748
 21
-877.34615596565072
 31
0.0
  0
LINE
  5
14CB2
  8
01
 10
15975.40245393748
 20
-877.34615596565072
 30
0.0
 11
15974.967453937479
 21
-877.58815596565057
 31
0.0
  0
LINE
  5
14CB3
  8
01
 10
15974.967453937479
 20
-877.58815596565057
 30
0.0
 11
15974.556453937479
 21
-877.87215596565045
 31
0.0
  0
LINE
  5
14CB4
  8
01
 10
15974.556453937479
 20
-877.87215596565045
 30
0.0
 11
15974.173453937479
 21
-878.19615596565052
 31
0.0
  0
LINE
  5
14CB5
  8
01
 10
15974.173453937479
 20
-878.19615596565052
 30
0.0
 11
15973.823453937481
 21
-878.55915596565058
 31
0.0
  0
LINE
  5
14CB6
  8
01
 10
15973.823453937481
 20
-878.55915596565058
 30
0.0
 11
15973.510453937481
 21
-878.95715596565037
 31
0.0
  0
LINE
  5
14CB7
  8
01
 10
15973.510453937481
 20
-878.95715596565037
 30
0.0
 11
15973.23845393748
 21
-879.38715596565055
 31
0.0
  0
LINE
  5
14CB8
  8
01
 10
15973.23845393748
 20
-879.38715596565055
 30
0.0
 11
15973.012453937479
 21
-879.84615596565027
 31
0.0
  0
LINE
  5
14CB9
  8
01
 10
15973.012453937479
 20
-879.84615596565027
 30
0.0
 11
15972.83645393748
 21
-880.3271559656506
 31
0.0
  0
LINE
  5
14CBA
  8
01
 10
15972.83645393748
 20
-880.3271559656506
 30
0.0
 11
15972.71345393748
 21
-880.82515596565042
 31
0.0
  0
LINE
  5
14CBB
  8
01
 10
15972.71345393748
 20
-880.82515596565042
 30
0.0
 11
15972.645453937481
 21
-881.33515596565053
 31
0.0
  0
LINE
  5
14CBC
  8
01
 10
15972.645453937481
 20
-881.33515596565053
 30
0.0
 11
15972.63145393748
 21
-881.69915596565045
 31
0.0
  0
LINE
  5
14CBD
  8
01
 10
15972.63145393748
 20
-881.69915596565045
 30
0.0
 11
15972.63345393748
 21
-881.84915596565054
 31
0.0
  0
LINE
  5
14CBE
  8
01
 10
15972.63345393748
 20
-881.84915596565054
 30
0.0
 11
15972.67845393748
 21
-882.36215596565046
 31
0.0
  0
LINE
  5
14CBF
  8
01
 10
15972.67845393748
 20
-882.36215596565046
 30
0.0
 11
15972.779453937481
 21
-882.86615596565036
 31
0.0
  0
LINE
  5
14CC0
  8
01
 10
15972.779453937481
 20
-882.86615596565036
 30
0.0
 11
15972.933453937479
 21
-883.3551559656504
 31
0.0
  0
LINE
  5
14CC1
  8
01
 10
15972.933453937479
 20
-883.3551559656504
 30
0.0
 11
15973.138453937479
 21
-883.82315596565036
 31
0.0
  0
LINE
  5
14CC2
  8
01
 10
15973.138453937479
 20
-883.82315596565036
 30
0.0
 11
15973.39145393748
 21
-884.26615596565034
 31
0.0
  0
LINE
  5
14CC3
  8
01
 10
15973.39145393748
 20
-884.26615596565034
 30
0.0
 11
15973.688453937481
 21
-884.67815596565038
 31
0.0
  0
LINE
  5
14CC4
  8
01
 10
15973.688453937481
 20
-884.67815596565038
 30
0.0
 11
15974.02345393748
 21
-885.05615596565053
 31
0.0
  0
LINE
  5
14CC5
  8
01
 10
15974.02345393748
 20
-885.05615596565053
 30
0.0
 11
15974.39345393748
 21
-885.39615596565045
 31
0.0
  0
LINE
  5
14CC6
  8
01
 10
15974.39345393748
 20
-885.39615596565045
 30
0.0
 11
15974.79345393748
 21
-885.6971559656505
 31
0.0
  0
LINE
  5
14CC7
  8
01
 10
15974.79345393748
 20
-885.6971559656505
 30
0.0
 11
15975.21945393748
 21
-885.95715596565049
 31
0.0
  0
LINE
  5
14CC8
  8
01
 10
15975.21945393748
 20
-885.95715596565049
 30
0.0
 11
15975.665453937479
 21
-886.17415596565036
 31
0.0
  0
LINE
  5
14CC9
  8
01
 10
15975.665453937479
 20
-886.17415596565036
 30
0.0
 11
15976.127453937481
 21
-886.34715596565059
 31
0.0
  0
LINE
  5
14CCA
  8
01
 10
15976.127453937481
 20
-886.34715596565059
 30
0.0
 11
15976.60345393748
 21
-886.47715596565047
 31
0.0
  0
LINE
  5
14CCB
  8
01
 10
15976.60345393748
 20
-886.47715596565047
 30
0.0
 11
15977.08745393748
 21
-886.5621559656505
 31
0.0
  0
LINE
  5
14CCC
  8
01
 10
15977.08745393748
 20
-886.5621559656505
 30
0.0
 11
15977.57645393748
 21
-886.60315596565033
 31
0.0
  0
LINE
  5
14CCD
  8
01
 10
15977.57645393748
 20
-886.60315596565033
 30
0.0
 11
15977.780453937479
 21
-886.60715596565035
 31
0.0
  0
ARC
  5
14CCE
  8
01
 10
15971.280453937479
 20
-938.65082263231704
 30
0.0
 40
1.5
 50
118.0724869358346
 51
206.01553762861371
  0
ARC
  5
14CCF
  8
01
 10
15969.947120604151
 20
-936.15082263231704
 30
0.0
 40
1.333333333333333
 50
298.0724869358346
 51
61.927513064165439
  0
ARC
  5
14CD0
  8
01
 10
15971.280453937479
 20
-928.65082263231704
 30
0.0
 40
1.5
 50
118.0724869358346
 51
241.92751306416551
  0
ARC
  5
14CD1
  8
01
 10
15971.280453937479
 20
-933.65082263231704
 30
0.0
 40
1.5
 50
118.0724869358346
 51
241.92751306416551
  0
ARC
  5
14CD2
  8
01
 10
15969.947120604151
 20
-931.15082263231693
 30
0.0
 40
1.333333333333333
 50
298.0724869358346
 51
61.927513064165439
  0
ARC
  5
14CD3
  8
01
 10
15969.947120604151
 20
-926.15082263231704
 30
0.0
 40
1.333333333333333
 50
298.0724869358346
 51
61.927513064165439
  0
ARC
  5
14CD4
  8
01
 10
15971.280453937479
 20
-918.65082263231693
 30
0.0
 40
1.5
 50
118.0724869358346
 51
241.92751306416551
  0
ARC
  5
14CD5
  8
01
 10
15971.280453937479
 20
-923.65082263231704
 30
0.0
 40
1.5
 50
118.0724869358346
 51
241.92751306416551
  0
ARC
  5
14CD6
  8
01
 10
15969.947120604151
 20
-921.15082263231704
 30
0.0
 40
1.333333333333333
 50
298.0724869358346
 51
61.927513064165439
  0
ARC
  5
14CD7
  8
01
 10
15969.947120604151
 20
-916.15082263231704
 30
0.0
 40
1.333333333333333
 50
298.0724869358346
 51
61.927513064165439
  0
ARC
  5
14CD8
  8
01
 10
15971.280453937479
 20
-908.65082263231704
 30
0.0
 40
1.5
 50
118.0724869358346
 51
241.92751306416551
  0
ARC
  5
14CD9
  8
01
 10
15971.280453937479
 20
-913.65082263231704
 30
0.0
 40
1.5
 50
118.0724869358346
 51
241.92751306416551
  0
ARC
  5
14CDA
  8
01
 10
15969.947120604151
 20
-911.15082263231704
 30
0.0
 40
1.333333333333333
 50
298.0724869358346
 51
61.927513064165439
  0
ARC
  5
14CDB
  8
01
 10
15969.947120604151
 20
-906.15082263231693
 30
0.0
 40
1.333333333333333
 50
298.0724869358346
 51
61.927513064165439
  0
ARC
  5
14CDC
  8
01
 10
15971.280453937479
 20
-898.65082263231704
 30
0.0
 40
1.5
 50
118.0724869358346
 51
241.92751306416551
  0
ARC
  5
14CDD
  8
01
 10
15971.280453937479
 20
-903.65082263231704
 30
0.0
 40
1.5
 50
118.0724869358346
 51
241.92751306416551
  0
ARC
  5
14CDE
  8
01
 10
15969.947120604151
 20
-901.15082263231704
 30
0.0
 40
1.333333333333333
 50
298.0724869358346
 51
61.927513064165439
  0
ARC
  5
14CDF
  8
01
 10
15969.947120604151
 20
-896.15082263231704
 30
0.0
 40
1.333333333333333
 50
298.0724869358346
 51
61.927513064165439
  0
ARC
  5
14CE2
  8
01
 10
15971.280453937479
 20
-888.65082263231704
 30
0.0
 40
1.5
 50
140.62120788083129
 51
241.92751306416551
  0
ARC
  5
14CE3
  8
01
 10
15971.280453937479
 20
-893.65082263231693
 30
0.0
 40
1.5
 50
118.0724869358346
 51
241.92751306416551
  0
ARC
  5
14CE4
  8
01
 10
15969.947120604151
 20
-891.15082263231704
 30
0.0
 40
1.333333333333333
 50
298.0724869358346
 51
61.927513064165439
  0
ARC
  5
14CE5
  8
01
 10
15985.61378727081
 20
-936.15082263231704
 30
0.0
 40
1.333333333333333
 50
118.0724869358346
 51
241.92751306416551
  0
ARC
  5
14CE6
  8
01
 10
15984.280453937479
 20
-928.65082263231704
 30
0.0
 40
1.5
 50
298.0724869358346
 51
61.927513064165439
  0
ARC
  5
14CE7
  8
01
 10
15984.280453937479
 20
-933.65082263231704
 30
0.0
 40
1.5
 50
298.0724869358346
 51
61.927513064165439
  0
ARC
  5
14CE8
  8
01
 10
15985.61378727081
 20
-931.15082263231693
 30
0.0
 40
1.333333333333333
 50
118.0724869358346
 51
241.92751306416551
  0
ARC
  5
14CE9
  8
01
 10
15985.61378727081
 20
-926.15082263231704
 30
0.0
 40
1.333333333333333
 50
118.0724869358346
 51
241.92751306416551
  0
ARC
  5
14CEA
  8
01
 10
15984.280453937479
 20
-918.65082263231693
 30
0.0
 40
1.5
 50
298.0724869358346
 51
61.927513064165439
  0
ARC
  5
14CEB
  8
01
 10
15984.280453937479
 20
-923.65082263231704
 30
0.0
 40
1.5
 50
298.0724869358346
 51
61.927513064165439
  0
ARC
  5
14CEC
  8
01
 10
15985.61378727081
 20
-921.15082263231704
 30
0.0
 40
1.333333333333333
 50
118.0724869358346
 51
241.92751306416551
  0
ARC
  5
14CED
  8
01
 10
15985.61378727081
 20
-916.15082263231704
 30
0.0
 40
1.333333333333333
 50
118.0724869358346
 51
241.92751306416551
  0
ARC
  5
14CEE
  8
01
 10
15984.280453937479
 20
-908.65082263231704
 30
0.0
 40
1.5
 50
298.0724869358346
 51
61.927513064165439
  0
ARC
  5
14CEF
  8
01
 10
15984.280453937479
 20
-913.65082263231704
 30
0.0
 40
1.5
 50
298.0724869358346
 51
61.927513064165439
  0
ARC
  5
14CF0
  8
01
 10
15985.61378727081
 20
-911.15082263231704
 30
0.0
 40
1.333333333333333
 50
118.0724869358346
 51
241.92751306416551
  0
ARC
  5
14CF1
  8
01
 10
15985.61378727081
 20
-906.15082263231693
 30
0.0
 40
1.333333333333333
 50
118.0724869358346
 51
241.92751306416551
  0
ARC
  5
14CF2
  8
01
 10
15984.280453937479
 20
-898.65082263231704
 30
0.0
 40
1.5
 50
298.0724869358346
 51
61.927513064165439
  0
ARC
  5
14CF3
  8
01
 10
15984.280453937479
 20
-903.65082263231704
 30
0.0
 40
1.5
 50
298.0724869358346
 51
61.927513064165439
  0
ARC
  5
14CF4
  8
01
 10
15985.61378727081
 20
-901.15082263231704
 30
0.0
 40
1.333333333333333
 50
118.0724869358346
 51
241.92751306416551
  0
ARC
  5
14CF5
  8
01
 10
15985.61378727081
 20
-896.15082263231704
 30
0.0
 40
1.333333333333333
 50
118.0724869358346
 51
241.92751306416551
  0
ARC
  5
14CF6
  8
01
 10
15984.280453937479
 20
-888.65082263231704
 30
0.0
 40
1.5
 50
298.0724869358346
 51
39.378792119168722
  0
ARC
  5
14CF7
  8
01
 10
15984.280453937479
 20
-893.65082263231693
 30
0.0
 40
1.5
 50
298.0724869358346
 51
61.927513064165439
  0
ARC
  5
14CF8
  8
01
 10
15985.61378727081
 20
-891.15082263231704
 30
0.0
 40
1.333333333333333
 50
118.0724869358346
 51
241.92751306416551
  0
LINE
  5
14CF9
  8
01
 10
15970.82903770783
 20
-937.15082263231704
 30
0.0
 11
15984.731870167119
 21
-937.15082263231704
 31
0.0
  0
LINE
  5
14CFA
  8
01
 10
15970.82903770783
 20
-935.15082263231704
 30
0.0
 11
15984.731870167119
 21
-935.15082263231704
 31
0.0
  0
LINE
  5
14CFB
  8
01
 10
15970.82903770783
 20
-932.15082263231704
 30
0.0
 11
15984.731870167119
 21
-932.15082263231704
 31
0.0
  0
LINE
  5
14CFC
  8
01
 10
15970.82903770783
 20
-930.15082263231704
 30
0.0
 11
15984.731870167119
 21
-930.15082263231704
 31
0.0
  0
LINE
  5
14CFD
  8
01
 10
15970.82903770783
 20
-927.15082263231704
 30
0.0
 11
15984.731870167119
 21
-927.15082263231704
 31
0.0
  0
LINE
  5
14CFE
  8
01
 10
15970.82903770783
 20
-925.15082263231704
 30
0.0
 11
15984.731870167119
 21
-925.15082263231704
 31
0.0
  0
LINE
  5
14CFF
  8
01
 10
15970.82903770783
 20
-922.15082263231704
 30
0.0
 11
15984.731870167119
 21
-922.15082263231704
 31
0.0
  0
LINE
  5
14D00
  8
01
 10
15970.82903770783
 20
-920.15082263231704
 30
0.0
 11
15984.731870167119
 21
-920.15082263231704
 31
0.0
  0
LINE
  5
14D01
  8
01
 10
15970.82903770783
 20
-917.15082263231704
 30
0.0
 11
15984.731870167119
 21
-917.15082263231704
 31
0.0
  0
LINE
  5
14D02
  8
01
 10
15970.82903770783
 20
-915.15082263231704
 30
0.0
 11
15984.731870167119
 21
-915.15082263231704
 31
0.0
  0
LINE
  5
14D03
  8
01
 10
15970.82903770783
 20
-912.15082263231704
 30
0.0
 11
15984.731870167119
 21
-912.15082263231704
 31
0.0
  0
LINE
  5
14D04
  8
01
 10
15970.82903770783
 20
-910.15082263231704
 30
0.0
 11
15984.731870167119
 21
-910.15082263231704
 31
0.0
  0
LINE
  5
14D05
  8
01
 10
15970.82903770783
 20
-907.15082263231704
 30
0.0
 11
15984.731870167119
 21
-907.15082263231704
 31
0.0
  0
LINE
  5
14D06
  8
01
 10
15970.82903770783
 20
-905.15082263231704
 30
0.0
 11
15984.731870167119
 21
-905.15082263231704
 31
0.0
  0
LINE
  5
14D07
  8
01
 10
15970.82903770783
 20
-902.15082263231704
 30
0.0
 11
15984.731870167119
 21
-902.15082263231704
 31
0.0
  0
LINE
  5
14D08
  8
01
 10
15970.82903770783
 20
-900.15082263231704
 30
0.0
 11
15984.731870167119
 21
-900.15082263231704
 31
0.0
  0
LINE
  5
14D09
  8
01
 10
15970.82903770783
 20
-897.15082263231704
 30
0.0
 11
15984.731870167119
 21
-897.15082263231704
 31
0.0
  0
LINE
  5
14D0A
  8
01
 10
15970.82903770783
 20
-895.15082263231704
 30
0.0
 11
15984.731870167119
 21
-895.15082263231704
 31
0.0
  0
LINE
  5
14D0B
  8
01
 10
15970.82903770783
 20
-892.15082263231704
 30
0.0
 11
15984.731870167119
 21
-892.15082263231704
 31
0.0
  0
LINE
  5
14D0C
  8
01
 10
15970.82903770783
 20
-890.15082263231704
 30
0.0
 11
15984.731870167119
 21
-890.15082263231704
 31
0.0
  0
POLYLINE
  8
01
  5
1582B
  66
     1
 10
0.000000
 20
0.000000
 30
0.000000
  70
     8
  0
VERTEX
  8
01
  5
1582C
 10
15969.9
 20
-939.309
 30
0.000000
  70
    32
  0
VERTEX
  8
01
  5
1582D
 10
15970.0
 20
-939.244
 30
0.000000
  70
    32
  0
VERTEX
  8
01
  5
1582E
 10
15970.1
 20
-939.180
 30
0.000000
  70
    32
  0
VERTEX
  8
01
  5
1582F
 10
15970.2
 20
-939.116
 30
0.000000
  70
    32
  0
VERTEX
  8
01
  5
15830
 10
15970.2
 20
-939.052
 30
0.000000
  70
    32
  0
VERTEX
  8
01
  5
15831
 10
15970.3
 20
-938.988
 30
0.000000
  70
    32
  0
VERTEX
  8
01
  5
15832
 10
15970.4
 20
-938.925
 30
0.000000
  70
    32
  0
VERTEX
  8
01
  5
15833
 10
15970.5
 20
-938.862
 30
0.000000
  70
    32
  0
VERTEX
  8
01
  5
15834
 10
15970.5
 20
-938.799
 30
0.000000
  70
    32
  0
VERTEX
  8
01
  5
15835
 10
15970.6
 20
-938.736
 30
0.000000
  70
    32
  0
VERTEX
  8
01
  5
15836
 10
15970.7
 20
-938.674
 30
0.000000
  70
    32
  0
VERTEX
  8
01
  5
15837
 10
15970.8
 20
-938.612
 30
0.000000
  70
    32
  0
VERTEX
  8
01
  5
15838
 10
15970.8
 20
-938.550
 30
0.000000
  70
    32
  0
VERTEX
  8
01
  5
15839
 10
15970.9
 20
-938.489
 30
0.000000
  70
    32
  0
VERTEX
  8
01
  5
1583A
 10
15971.0
 20
-938.428
 30
0.000000
  70
    32
  0
VERTEX
  8
01
  5
1583B
 10
15971.1
 20
-938.368
 30
0.000000
  70
    32
  0
VERTEX
  8
01
  5
1583C
 10
15971.1
 20
-938.308
 30
0.000000
  70
    32
  0
VERTEX
  8
01
  5
1583D
 10
15971.2
 20
-938.248
 30
0.000000
  70
    32
  0
VERTEX
  8
01
  5
1583E
 10
15971.3
 20
-938.189
 30
0.000000
  70
    32
  0
VERTEX
  8
01
  5
1583F
 10
15971.4
 20
-938.130
 30
0.000000
  70
    32
  0
VERTEX
  8
01
  5
15840
 10
15971.5
 20
-938.072
 30
0.000000
  70
    32
  0
VERTEX
  8
01
  5
15841
 10
15971.5
 20
-938.014
 30
0.000000
  70
    32
  0
VERTEX
  8
01
  5
15842
 10
15971.6
 20
-937.957
 30
0.000000
  70
    32
  0
VERTEX
  8
01
  5
15843
 10
15971.7
 20
-937.901
 30
0.000000
  70
    32
  0
VERTEX
  8
01
  5
15844
 10
15971.8
 20
-937.845
 30
0.000000
  70
    32
  0
VERTEX
  8
01
  5
15845
 10
15971.8
 20
-937.789
 30
0.000000
  70
    32
  0
VERTEX
  8
01
  5
15846
 10
15971.9
 20
-937.734
 30
0.000000
  70
    32
  0
VERTEX
  8
01
  5
15847
 10
15972.0
 20
-937.680
 30
0.000000
  70
    32
  0
VERTEX
  8
01
  5
15848
 10
15972.1
 20
-937.627
 30
0.000000
  70
    32
  0
VERTEX
  8
01
  5
15849
 10
15972.1
 20
-937.574
 30
0.000000
  70
    32
  0
VERTEX
  8
01
  5
1584A
 10
15972.2
 20
-937.521
 30
0.000000
  70
    32
  0
VERTEX
  8
01
  5
1584B
 10
15972.3
 20
-937.470
 30
0.000000
  70
    32
  0
VERTEX
  8
01
  5
1584C
 10
15972.4
 20
-937.419
 30
0.000000
  70
    32
  0
VERTEX
  8
01
  5
1584D
 10
15972.4
 20
-937.369
 30
0.000000
  70
    32
  0
VERTEX
  8
01
  5
1584E
 10
15972.5
 20
-937.320
 30
0.000000
  70
    32
  0
VERTEX
  8
01
  5
1584F
 10
15972.6
 20
-937.271
 30
0.000000
  70
    32
  0
VERTEX
  8
01
  5
15850
 10
15972.7
 20
-937.223
 30
0.000000
  70
    32
  0
VERTEX
  8
01
  5
15851
 10
15972.8
 20
-937.177
 30
0.000000
  70
    32
  0
VERTEX
  8
01
  5
15852
 10
15972.8
 20
-937.130
 30
0.000000
  70
    32
  0
VERTEX
  8
01
  5
15853
 10
15972.9
 20
-937.085
 30
0.000000
  70
    32
  0
VERTEX
  8
01
  5
15854
 10
15973.0
 20
-937.041
 30
0.000000
  70
    32
  0
VERTEX
  8
01
  5
15855
 10
15973.1
 20
-936.997
 30
0.000000
  70
    32
  0
VERTEX
  8
01
  5
15856
 10
15973.1
 20
-936.955
 30
0.000000
  70
    32
  0
VERTEX
  8
01
  5
15857
 10
15973.2
 20
-936.913
 30
0.000000
  70
    32
  0
VERTEX
  8
01
  5
15858
 10
15973.3
 20
-936.872
 30
0.000000
  70
    32
  0
VERTEX
  8
01
  5
15859
 10
15973.4
 20
-936.832
 30
0.000000
  70
    32
  0
VERTEX
  8
01
  5
1585A
 10
15973.4
 20
-936.794
 30
0.000000
  70
    32
  0
VERTEX
  8
01
  5
1585B
 10
15973.5
 20
-936.756
 30
0.000000
  70
    32
  0
VERTEX
  8
01
  5
1585C
 10
15973.6
 20
-936.719
 30
0.000000
  70
    32
  0
VERTEX
  8
01
  5
1585D
 10
15973.7
 20
-936.683
 30
0.000000
  70
    32
  0
VERTEX
  8
01
  5
1585E
 10
15973.8
 20
-936.648
 30
0.000000
  70
    32
  0
VERTEX
  8
01
  5
1585F
 10
15973.8
 20
-936.615
 30
0.000000
  70
    32
  0
VERTEX
  8
01
  5
15860
 10
15973.9
 20
-936.582
 30
0.000000
  70
    32
  0
VERTEX
  8
01
  5
15861
 10
15974.0
 20
-936.551
 30
0.000000
  70
    32
  0
VERTEX
  8
01
  5
15862
 10
15974.1
 20
-936.520
 30
0.000000
  70
    32
  0
VERTEX
  8
01
  5
15863
 10
15974.1
 20
-936.491
 30
0.000000
  70
    32
  0
VERTEX
  8
01
  5
15864
 10
15974.2
 20
-936.463
 30
0.000000
  70
    32
  0
VERTEX
  8
01
  5
15865
 10
15974.3
 20
-936.436
 30
0.000000
  70
    32
  0
VERTEX
  8
01
  5
15866
 10
15974.4
 20
-936.411
 30
0.000000
  70
    32
  0
VERTEX
  8
01
  5
15867
 10
15974.5
 20
-936.386
 30
0.000000
  70
    32
  0
VERTEX
  8
01
  5
15868
 10
15974.5
 20
-936.363
 30
0.000000
  70
    32
  0
VERTEX
  8
01
  5
15869
 10
15974.6
 20
-936.341
 30
0.000000
  70
    32
  0
VERTEX
  8
01
  5
1586A
 10
15974.7
 20
-936.320
 30
0.000000
  70
    32
  0
VERTEX
  8
01
  5
1586B
 10
15974.8
 20
-936.301
 30
0.000000
  70
    32
  0
VERTEX
  8
01
  5
1586C
 10
15974.9
 20
-936.283
 30
0.000000
  70
    32
  0
VERTEX
  8
01
  5
1586D
 10
15974.9
 20
-936.266
 30
0.000000
  70
    32
  0
VERTEX
  8
01
  5
1586E
 10
15975.0
 20
-936.250
 30
0.000000
  70
    32
  0
VERTEX
  8
01
  5
1586F
 10
15975.1
 20
-936.236
 30
0.000000
  70
    32
  0
VERTEX
  8
01
  5
15870
 10
15975.2
 20
-936.224
 30
0.000000
  70
    32
  0
VERTEX
  8
01
  5
15871
 10
15975.2
 20
-936.212
 30
0.000000
  70
    32
  0
VERTEX
  8
01
  5
15872
 10
15975.3
 20
-936.202
 30
0.000000
  70
    32
  0
VERTEX
  8
01
  5
15873
 10
15975.4
 20
-936.194
 30
0.000000
  70
    32
  0
VERTEX
  8
01
  5
15874
 10
15975.5
 20
-936.187
 30
0.000000
  70
    32
  0
VERTEX
  8
01
  5
15875
 10
15975.6
 20
-936.182
 30
0.000000
  70
    32
  0
VERTEX
  8
01
  5
15876
 10
15975.6
 20
-936.177
 30
0.000000
  70
    32
  0
VERTEX
  8
01
  5
15877
 10
15975.7
 20
-936.175
 30
0.000000
  70
    32
  0
VERTEX
  8
01
  5
15878
 10
15975.8
 20
-936.174
 30
0.000000
  70
    32
  0
VERTEX
  8
01
  5
15879
 10
15975.9
 20
-936.175
 30
0.000000
  70
    32
  0
VERTEX
  8
01
  5
1587A
 10
15976.0
 20
-936.177
 30
0.000000
  70
    32
  0
VERTEX
  8
01
  5
1587B
 10
15976.0
 20
-936.180
 30
0.000000
  70
    32
  0
VERTEX
  8
01
  5
1587C
 10
15976.1
 20
-936.186
 30
0.000000
  70
    32
  0
VERTEX
  8
01
  5
1587D
 10
15976.2
 20
-936.193
 30
0.000000
  70
    32
  0
VERTEX
  8
01
  5
1587E
 10
15976.3
 20
-936.201
 30
0.000000
  70
    32
  0
VERTEX
  8
01
  5
1587F
 10
15976.4
 20
-936.211
 30
0.000000
  70
    32
  0
VERTEX
  8
01
  5
15880
 10
15976.5
 20
-936.223
 30
0.000000
  70
    32
  0
VERTEX
  8
01
  5
15881
 10
15976.5
 20
-936.236
 30
0.000000
  70
    32
  0
VERTEX
  8
01
  5
15882
 10
15976.6
 20
-936.251
 30
0.000000
  70
    32
  0
VERTEX
  8
01
  5
15883
 10
15976.7
 20
-936.266
 30
0.000000
  70
    32
  0
VERTEX
  8
01
  5
15884
 10
15976.8
 20
-936.284
 30
0.000000
  70
    32
  0
VERTEX
  8
01
  5
15885
 10
15976.9
 20
-936.302
 30
0.000000
  70
    32
  0
VERTEX
  8
01
  5
15886
 10
15976.9
 20
-936.322
 30
0.000000
  70
    32
  0
VERTEX
  8
01
  5
15887
 10
15977.0
 20
-936.343
 30
0.000000
  70
    32
  0
VERTEX
  8
01
  5
15888
 10
15977.1
 20
-936.365
 30
0.000000
  70
    32
  0
VERTEX
  8
01
  5
15889
 10
15977.2
 20
-936.389
 30
0.000000
  70
    32
  0
VERTEX
  8
01
  5
1588A
 10
15977.3
 20
-936.413
 30
0.000000
  70
    32
  0
VERTEX
  8
01
  5
1588B
 10
15977.3
 20
-936.439
 30
0.000000
  70
    32
  0
VERTEX
  8
01
  5
1588C
 10
15977.4
 20
-936.465
 30
0.000000
  70
    32
  0
VERTEX
  8
01
  5
1588D
 10
15977.5
 20
-936.492
 30
0.000000
  70
    32
  0
VERTEX
  8
01
  5
1588E
 10
15977.6
 20
-936.521
 30
0.000000
  70
    32
  0
VERTEX
  8
01
  5
1588F
 10
15977.7
 20
-936.550
 30
0.000000
  70
    32
  0
VERTEX
  8
01
  5
15890
 10
15977.8
 20
-936.580
 30
0.000000
  70
    32
  0
VERTEX
  8
01
  5
15891
 10
15977.8
 20
-936.610
 30
0.000000
  70
    32
  0
VERTEX
  8
01
  5
15892
 10
15977.9
 20
-936.642
 30
0.000000
  70
    32
  0
VERTEX
  8
01
  5
15893
 10
15978.0
 20
-936.674
 30
0.000000
  70
    32
  0
VERTEX
  8
01
  5
15894
 10
15978.1
 20
-936.707
 30
0.000000
  70
    32
  0
VERTEX
  8
01
  5
15895
 10
15978.2
 20
-936.740
 30
0.000000
  70
    32
  0
VERTEX
  8
01
  5
15896
 10
15978.2
 20
-936.774
 30
0.000000
  70
    32
  0
VERTEX
  8
01
  5
15897
 10
15978.3
 20
-936.808
 30
0.000000
  70
    32
  0
VERTEX
  8
01
  5
15898
 10
15978.4
 20
-936.843
 30
0.000000
  70
    32
  0
VERTEX
  8
01
  5
15899
 10
15978.5
 20
-936.878
 30
0.000000
  70
    32
  0
VERTEX
  8
01
  5
1589A
 10
15978.6
 20
-936.914
 30
0.000000
  70
    32
  0
VERTEX
  8
01
  5
1589B
 10
15978.7
 20
-936.950
 30
0.000000
  70
    32
  0
VERTEX
  8
01
  5
1589C
 10
15978.7
 20
-936.986
 30
0.000000
  70
    32
  0
VERTEX
  8
01
  5
1589D
 10
15978.8
 20
-937.022
 30
0.000000
  70
    32
  0
VERTEX
  8
01
  5
1589E
 10
15978.9
 20
-937.059
 30
0.000000
  70
    32
  0
VERTEX
  8
01
  5
1589F
 10
15979.0
 20
-937.095
 30
0.000000
  70
    32
  0
VERTEX
  8
01
  5
158A0
 10
15979.1
 20
-937.132
 30
0.000000
  70
    32
  0
VERTEX
  8
01
  5
158A1
 10
15979.2
 20
-937.169
 30
0.000000
  70
    32
  0
VERTEX
  8
01
  5
158A2
 10
15979.2
 20
-937.206
 30
0.000000
  70
    32
  0
VERTEX
  8
01
  5
158A3
 10
15979.3
 20
-937.243
 30
0.000000
  70
    32
  0
VERTEX
  8
01
  5
158A4
 10
15979.4
 20
-937.279
 30
0.000000
  70
    32
  0
VERTEX
  8
01
  5
158A5
 10
15979.5
 20
-937.316
 30
0.000000
  70
    32
  0
VERTEX
  8
01
  5
158A6
 10
15979.6
 20
-937.352
 30
0.000000
  70
    32
  0
VERTEX
  8
01
  5
158A7
 10
15979.7
 20
-937.389
 30
0.000000
  70
    32
  0
VERTEX
  8
01
  5
158A8
 10
15979.7
 20
-937.425
 30
0.000000
  70
    32
  0
VERTEX
  8
01
  5
158A9
 10
15979.8
 20
-937.460
 30
0.000000
  70
    32
  0
VERTEX
  8
01
  5
158AA
 10
15979.9
 20
-937.495
 30
0.000000
  70
    32
  0
VERTEX
  8
01
  5
158AB
 10
15980.0
 20
-937.530
 30
0.000000
  70
    32
  0
VERTEX
  8
01
  5
158AC
 10
15980.1
 20
-937.565
 30
0.000000
  70
    32
  0
VERTEX
  8
01
  5
158AD
 10
15980.2
 20
-937.599
 30
0.000000
  70
    32
  0
VERTEX
  8
01
  5
158AE
 10
15980.3
 20
-937.632
 30
0.000000
  70
    32
  0
VERTEX
  8
01
  5
158AF
 10
15980.3
 20
-937.665
 30
0.000000
  70
    32
  0
VERTEX
  8
01
  5
158B0
 10
15980.4
 20
-937.697
 30
0.000000
  70
    32
  0
VERTEX
  8
01
  5
158B1
 10
15980.5
 20
-937.729
 30
0.000000
  70
    32
  0
VERTEX
  8
01
  5
158B2
 10
15980.6
 20
-937.760
 30
0.000000
  70
    32
  0
VERTEX
  8
01
  5
158B3
 10
15980.7
 20
-937.790
 30
0.000000
  70
    32
  0
VERTEX
  8
01
  5
158B4
 10
15980.8
 20
-937.819
 30
0.000000
  70
    32
  0
VERTEX
  8
01
  5
158B5
 10
15980.8
 20
-937.847
 30
0.000000
  70
    32
  0
VERTEX
  8
01
  5
158B6
 10
15980.9
 20
-937.875
 30
0.000000
  70
    32
  0
VERTEX
  8
01
  5
158B7
 10
15981.0
 20
-937.901
 30
0.000000
  70
    32
  0
VERTEX
  8
01
  5
158B8
 10
15981.1
 20
-937.927
 30
0.000000
  70
    32
  0
VERTEX
  8
01
  5
158B9
 10
15981.2
 20
-937.952
 30
0.000000
  70
    32
  0
VERTEX
  8
01
  5
158BA
 10
15981.3
 20
-937.975
 30
0.000000
  70
    32
  0
VERTEX
  8
01
  5
158BB
 10
15981.3
 20
-937.998
 30
0.000000
  70
    32
  0
VERTEX
  8
01
  5
158BC
 10
15981.4
 20
-938.019
 30
0.000000
  70
    32
  0
VERTEX
  8
01
  5
158BD
 10
15981.5
 20
-938.039
 30
0.000000
  70
    32
  0
VERTEX
  8
01
  5
158BE
 10
15981.6
 20
-938.058
 30
0.000000
  70
    32
  0
VERTEX
  8
01
  5
158BF
 10
15981.7
 20
-938.075
 30
0.000000
  70
    32
  0
VERTEX
  8
01
  5
158C0
 10
15981.8
 20
-938.091
 30
0.000000
  70
    32
  0
VERTEX
  8
01
  5
158C1
 10
15981.8
 20
-938.106
 30
0.000000
  70
    32
  0
VERTEX
  8
01
  5
158C2
 10
15981.9
 20
-938.119
 30
0.000000
  70
    32
  0
VERTEX
  8
01
  5
158C3
 10
15982.0
 20
-938.131
 30
0.000000
  70
    32
  0
VERTEX
  8
01
  5
158C4
 10
15982.1
 20
-938.142
 30
0.000000
  70
    32
  0
VERTEX
  8
01
  5
158C5
 10
15982.2
 20
-938.151
 30
0.000000
  70
    32
  0
VERTEX
  8
01
  5
158C6
 10
15982.3
 20
-938.159
 30
0.000000
  70
    32
  0
VERTEX
  8
01
  5
158C7
 10
15982.4
 20
-938.165
 30
0.000000
  70
    32
  0
VERTEX
  8
01
  5
158C8
 10
15982.4
 20
-938.170
 30
0.000000
  70
    32
  0
VERTEX
  8
01
  5
158C9
 10
15982.5
 20
-938.174
 30
0.000000
  70
    32
  0
VERTEX
  8
01
  5
158CA
 10
15982.6
 20
-938.176
 30
0.000000
  70
    32
  0
VERTEX
  8
01
  5
158CB
 10
15982.7
 20
-938.177
 30
0.000000
  70
    32
  0
VERTEX
  8
01
  5
158CC
 10
15982.8
 20
-938.177
 30
0.000000
  70
    32
  0
VERTEX
  8
01
  5
158CD
 10
15982.9
 20
-938.176
 30
0.000000
  70
    32
  0
VERTEX
  8
01
  5
158CE
 10
15982.9
 20
-938.173
 30
0.000000
  70
    32
  0
VERTEX
  8
01
  5
158CF
 10
15983.0
 20
-938.169
 30
0.000000
  70
    32
  0
VERTEX
  8
01
  5
158D0
 10
15983.1
 20
-938.164
 30
0.000000
  70
    32
  0
VERTEX
  8
01
  5
158D1
 10
15983.2
 20
-938.158
 30
0.000000
  70
    32
  0
VERTEX
  8
01
  5
158D2
 10
15983.3
 20
-938.151
 30
0.000000
  70
    32
  0
VERTEX
  8
01
  5
158D3
 10
15983.4
 20
-938.142
 30
0.000000
  70
    32
  0
VERTEX
  8
01
  5
158D4
 10
15983.5
 20
-938.133
 30
0.000000
  70
    32
  0
VERTEX
  8
01
  5
158D5
 10
15983.5
 20
-938.122
 30
0.000000
  70
    32
  0
VERTEX
  8
01
  5
158D6
 10
15983.6
 20
-938.110
 30
0.000000
  70
    32
  0
VERTEX
  8
01
  5
158D7
 10
15983.7
 20
-938.097
 30
0.000000
  70
    32
  0
VERTEX
  8
01
  5
158D8
 10
15983.8
 20
-938.083
 30
0.000000
  70
    32
  0
VERTEX
  8
01
  5
158D9
 10
15983.9
 20
-938.069
 30
0.000000
  70
    32
  0
VERTEX
  8
01
  5
158DA
 10
15984.0
 20
-938.053
 30
0.000000
  70
    32
  0
VERTEX
  8
01
  5
158DB
 10
15984.0
 20
-938.036
 30
0.000000
  70
    32
  0
VERTEX
  8
01
  5
158DC
 10
15984.1
 20
-938.018
 30
0.000000
  70
    32
  0
VERTEX
  8
01
  5
158DD
 10
15984.2
 20
-937.999
 30
0.000000
  70
    32
  0
VERTEX
  8
01
  5
158DE
 10
15984.3
 20
-937.980
 30
0.000000
  70
    32
  0
VERTEX
  8
01
  5
158DF
 10
15984.4
 20
-937.959
 30
0.000000
  70
    32
  0
VERTEX
  8
01
  5
158E0
 10
15984.5
 20
-937.938
 30
0.000000
  70
    32
  0
VERTEX
  8
01
  5
158E1
 10
15984.6
 20
-937.916
 30
0.000000
  70
    32
  0
VERTEX
  8
01
  5
158E2
 10
15984.6
 20
-937.893
 30
0.000000
  70
    32
  0
VERTEX
  8
01
  5
158E3
 10
15984.7
 20
-937.869
 30
0.000000
  70
    32
  0
VERTEX
  8
01
  5
158E4
 10
15984.8
 20
-937.844
 30
0.000000
  70
    32
  0
VERTEX
  8
01
  5
158E5
 10
15984.9
 20
-937.818
 30
0.000000
  70
    32
  0
VERTEX
  8
01
  5
158E6
 10
15985.0
 20
-937.792
 30
0.000000
  70
    32
  0
VERTEX
  8
01
  5
158E7
 10
15985.1
 20
-937.765
 30
0.000000
  70
    32
  0
VERTEX
  8
01
  5
158E8
 10
15985.1
 20
-937.738
 30
0.000000
  70
    32
  0
VERTEX
  8
01
  5
158E9
 10
15985.2
 20
-937.709
 30
0.000000
  70
    32
  0
VERTEX
  8
01
  5
158EA
 10
15985.3
 20
-937.680
 30
0.000000
  70
    32
  0
VERTEX
  8
01
  5
158EB
 10
15985.4
 20
-937.650
 30
0.000000
  70
    32
  0
SEQEND
  8
01
  5
158EC
  0
ARC
  5
14D34
  8
01
 10
15984.280453937479
 20
-938.65082263231693
 30
0.0
 40
1.5
 50
41.83559641476856
 51
61.927513064165439
  0
TEXT
  5
14DAA
  8
1TEXT
 10
15835.855045779939
 20
-879.26489070002799
 30
0.0
 40
8.0
  1
HN05
  0
LINE
  5
14DAB
  8
1HATCH
 10
15837.41762203132
 20
-889.02939171358014
 30
0.0
 11
15837.41762203132
 21
-910.02939171358003
 31
0.0
  0
LINE
  5
14DAC
  8
1HATCH
 10
15863.66762203132
 20
-894.27939171358014
 30
0.0
 11
15863.66762203132
 21
-910.02939171358003
 31
0.0
  0
LINE
  5
14DAD
  8
1HATCH
 10
15889.91762203132
 20
-889.02939171358014
 30
0.0
 11
15889.91762203132
 21
-910.02939171358003
 31
0.0
  0
TEXT
  5
14DAE
  8
1TEXT
 10
15870.009083120511
 20
-903.8151594513173
 30
0.0
 40
3.0
  1
HL009
 72
     1
 11
15876.509083120511
 21
-903.8151594513173
 31
0.0
  0
TEXT
  5
14DAF
  8
1TEXT
 10
15864.717622031319
 20
-898.40439171358014
 30
0.0
 40
3.0
  1
対応洗面ボール
 72
     1
 11
15876.71762203131
 21
-898.40439171358014
 31
0.0
  0
LINE
  5
14DB0
  8
1HATCH
 10
15837.41762203132
 20
-899.52939171358025
 30
0.0
 11
15889.91762203132
 21
-899.52939171358025
 31
0.0
  0
LINE
  5
14DB1
  8
1HATCH
 10
15837.41762203132
 20
-904.77939171358025
 30
0.0
 11
15889.91762203132
 21
-904.77939171358025
 31
0.0
  0
TEXT
  5
14DB2
  8
1TEXT
 10
15840.967622031319
 20
-903.63781297856849
 30
0.0
 40
3.0
  1
HA008XC
 72
     1
 11
15850.467622031319
 21
-903.63781297856849
 31
0.0
  0
TEXT
  5
14DB3
  8
1TEXT
 10
15843.76762203131
 20
-898.40439171358014
 30
0.0
 40
3.0
  1
対応蛇口
 72
     1
 11
15850.467622031319
 21
-898.40439171358014
 31
0.0
  0
LINE
  5
14DB4
  8
1HATCH
 10
15837.41762203132
 20
-894.27939171358014
 30
0.0
 11
15889.91762203132
 21
-894.27939171358014
 31
0.0
  0
TEXT
  5
14DB5
  8
1TEXT
 10
15840.967622031319
 20
-908.88781297856849
 30
0.0
 40
3.0
  1
HA009XC
 72
     1
 11
15850.467622031319
 21
-908.88781297856849
 31
0.0
  0
TEXT
  5
14DB6
  8
1TEXT
 10
15870.509083120511
 20
-909.06515945131741
 30
0.0
 40
3.0
  1
HL010
 72
     1
 11
15876.509083120511
 21
-909.06515945131741
 31
0.0
  0
LINE
  5
14DB7
  8
1HATCH
 10
15837.41762203132
 20
-910.02939171358003
 30
0.0
 11
15889.91762203132
 21
-910.02939171358003
 31
0.0
  0
LINE
  5
14DB8
  8
1HATCH
 10
15837.41762203132
 20
-889.02939171358014
 30
0.0
 11
15889.91762203132
 21
-889.02939171358014
 31
0.0
  0
TEXT
  5
14DB9
  8
1TEXT
 10
15847.27254260199
 20
-893.22487853404459
 30
0.0
 40
3.0
  1
HN05止水栓対応表
 72
     1
 11
15863.422542601989
 21
-893.22487853404459
 31
0.0
  0
TEXT
  5
14DBA
  8
1TEXT
 10
15837.632518083021
 20
-887.31909985374614
 30
0.0
 40
3.0
  1
材質：真鍮クロームメッキ
 72
     1
 11
15858.632518083021
 21
-887.31909985374614
 31
0.0
  0
LINE
  5
1513C
  8
1CENTER
 10
16116.066409426719
 20
-951.80099677733006
 30
0.0
 11
16116.066409426719
 21
-1055.800983930322
 31
0.0
  0
ARC
  5
1513D
  8
01
 10
16117.16640942672
 20
-973.83461741568135
 30
0.0
 40
11.5
 50
328.55099999999987
 51
31.449000000000041
  0
ARC
  5
1513E
  8
01
 10
16114.966409426719
 20
-973.83461741568135
 30
0.0
 40
11.5
 50
148.5520000000439
 51
211.45000000004001
  0
LINE
  5
1513F
  8
01
 10
16116.066409426719
 20
-967.83461741568124
 30
0.0
 11
16105.15640942672
 21
-967.83461741568124
 31
0.0
  0
LINE
  5
15140
  8
01
 10
16116.066409426719
 20
-967.83461741568124
 30
0.0
 11
16126.97740942672
 21
-967.83461741568124
 31
0.0
  0
LINE
  5
15141
  8
01
 10
16116.066409426719
 20
-979.83461741568135
 30
0.0
 11
16105.15640942672
 21
-979.83461741568135
 31
0.0
  0
LINE
  5
15142
  8
01
 10
16116.066409426719
 20
-979.83461741568135
 30
0.0
 11
16126.97740942672
 21
-979.83461741568135
 31
0.0
  0
CIRCLE
  5
15143
  8
01
 10
16116.066409426719
 20
-1002.5346174156811
 30
0.0
 40
4.75
  0
CIRCLE
  5
15144
  8
01
 10
16116.066409426719
 20
-1002.5346174156811
 30
0.0
 40
4.9000000000000004
  0
CIRCLE
  5
15145
  8
01
 10
16116.066409426719
 20
-1002.5346174156811
 30
0.0
 40
5.5
  0
LINE
  5
15146
  8
01
 10
16129.066409426719
 20
-1007.013617415681
 30
0.0
 11
16129.066409426719
 21
-998.05561741568135
 31
0.0
  0
ARC
  5
15147
  8
01
 10
16116.066409426719
 20
-1002.5346174156811
 30
0.0
 40
13.75
 50
19.010999999996301
 51
40.988999999951112
  0
ARC
  5
15148
  8
01
 10
16116.066409426719
 20
-1002.5346174156811
 30
0.0
 40
13.75
 50
79.011000000028332
 51
100.9889999999716
  0
ARC
  5
15149
  8
01
 10
16116.066409426719
 20
-1002.5346174156811
 30
0.0
 40
13.75
 50
139.01200000005099
 51
160.9890000000037
  0
ARC
  5
1514A
  8
01
 10
16116.066409426719
 20
-1002.5346174156811
 30
0.0
 40
13.75
 50
199.0119999999705
 51
220.98899999995109
  0
ARC
  5
1514B
  8
01
 10
16116.066409426719
 20
-1002.5346174156811
 30
0.0
 40
13.75
 50
259.01100000002828
 51
280.98899999997172
  0
ARC
  5
1514C
  8
01
 10
16116.066409426719
 20
-1002.5346174156811
 30
0.0
 40
13.75
 50
319.01100000004891
 51
340.98900000000373
  0
LINE
  5
1514D
  8
01
 10
16126.44540942672
 20
-993.51561741568139
 30
0.0
 11
16118.68740942672
 21
-989.03661741568146
 31
0.0
  0
LINE
  5
1514E
  8
01
 10
16113.44540942672
 20
-989.03661741568146
 30
0.0
 11
16105.68740942672
 21
-993.51561741568139
 31
0.0
  0
LINE
  5
1514F
  8
01
 10
16103.066409426719
 20
-998.05561741568135
 30
0.0
 11
16103.066409426719
 21
-1007.013617415681
 31
0.0
  0
LINE
  5
15150
  8
01
 10
16105.68740942672
 20
-1011.5536174156809
 30
0.0
 11
16113.44540942672
 21
-1016.032617415681
 31
0.0
  0
LINE
  5
15151
  8
01
 10
16118.68740942672
 20
-1016.032617415681
 30
0.0
 11
16126.44540942672
 21
-1011.5536174156809
 31
0.0
  0
LINE
  5
15152
  8
01
 10
16120.730366973699
 20
-1001.634617415681
 30
0.0
 11
16111.40245187974
 21
-1001.634617415681
 31
0.0
  0
LINE
  5
15153
  8
01
 10
16120.730366973699
 20
-1003.434617415681
 30
0.0
 11
16111.40245187974
 21
-1003.434617415681
 31
0.0
  0
ARC
  5
15154
  8
01
 10
16065.589409426721
 20
-986.37861741568145
 30
0.0
 40
40.0
 50
347.82975806504282
 51
0.0
  0
LINE
  5
15155
  8
01
 10
16105.589409426721
 20
-986.37861741568145
 30
0.0
 11
16105.589409426721
 21
-979.83461741568135
 31
0.0
  0
ARC
  5
15156
  8
01
 10
16166.54440942672
 20
-986.37861741568145
 30
0.0
 40
40.0
 50
180.0009999999964
 51
192.17340624155369
  0
LINE
  5
15157
  8
01
 10
16126.54440942672
 20
-986.37861741568145
 30
0.0
 11
16126.54440942672
 21
-979.83461741568135
 31
0.0
  0
LINE
  5
15158
  8
01
 10
16116.066409426719
 20
-982.5346174156814
 30
0.0
 11
16126.54440942672
 21
-982.5346174156814
 31
0.0
  0
LINE
  5
15159
  8
01
 10
16106.751409426721
 20
-979.83461741568135
 30
0.0
 11
16106.751409426721
 21
-982.5346174156814
 31
0.0
  0
LINE
  5
1515A
  8
01
 10
16106.751409426721
 20
-982.5346174156814
 30
0.0
 11
16105.589409426721
 21
-984.54761741568143
 31
0.0
  0
LINE
  5
1515B
  8
01
 10
16125.38240942672
 20
-979.83461741568135
 30
0.0
 11
16125.38240942672
 21
-982.5346174156814
 31
0.0
  0
LINE
  5
1515C
  8
01
 10
16125.38240942672
 20
-982.5346174156814
 30
0.0
 11
16126.54440942672
 21
-984.54761741568143
 31
0.0
  0
LINE
  5
1515D
  8
01
 10
16116.066409426719
 20
-982.5346174156814
 30
0.0
 11
16105.589409426721
 21
-982.5346174156814
 31
0.0
  0
LINE
  5
1515E
  8
1CENTER
 10
16098.900429511559
 20
-1002.5346174156811
 30
0.0
 11
16134.38773062329
 21
-1002.5346174156811
 31
0.0
  0
LINE
  5
1515F
  8
01
 10
16103.316409426719
 20
-1027.5346174156809
 30
0.0
 11
16103.316409426719
 21
-1037.5346174156809
 31
0.0
  0
ARC
  5
15160
  8
01
 10
16109.691409426719
 20
-1019.121617415681
 30
0.0
 40
18.413
 50
249.74399999999579
 51
290.25600000000429
  0
ARC
  5
15161
  8
01
 10
16109.691409426719
 20
-1044.8086174156811
 30
0.0
 40
18.413
 50
69.743999999995722
 51
110.25699999999961
  0
LINE
  5
15162
  8
01
 10
16128.816409426719
 20
-1027.5346174156809
 30
0.0
 11
16128.816409426719
 21
-1037.5346174156809
 31
0.0
  0
LINE
  5
15163
  8
01
 10
16103.316409426719
 20
-1037.5346174156809
 30
0.0
 11
16128.816409426719
 21
-1037.5346174156809
 31
0.0
  0
ARC
  5
15164
  8
01
 10
16122.441409426719
 20
-1044.8086174156811
 30
0.0
 40
18.413
 50
69.743999999995722
 51
110.25699999999961
  0
ARC
  5
15165
  8
01
 10
16122.441409426719
 20
-1019.121617415681
 30
0.0
 40
18.413
 50
249.74399999999579
 51
290.25600000000429
  0
LINE
  5
15166
  8
01
 10
16127.566409426719
 20
-1022.201617415681
 30
0.0
 11
16127.566409426719
 21
-1018.242617415681
 31
0.0
  0
ARC
  5
15167
  8
01
 10
16139.566409426719
 20
-1022.201617415681
 30
0.0
 40
12.0
 50
180.0
 51
206.38399999999851
  0
LINE
  5
15168
  8
01
 10
16104.566409426719
 20
-1022.201617415681
 30
0.0
 11
16104.566409426719
 21
-1018.242617415681
 31
0.0
  0
ARC
  5
15169
  8
01
 10
16092.566409426719
 20
-1022.201617415681
 30
0.0
 40
12.0
 50
333.61600000000152
 51
0.0
  0
ARC
  5
1516A
  8
01
 10
16197.566409426719
 20
-1018.242617415681
 30
0.0
 40
70.0
 50
172.45827524461541
 51
180.0
  0
ARC
  5
1516B
  8
01
 10
16034.566409426719
 20
-1018.242617415681
 30
0.0
 40
70.0
 50
0.0
 51
7.5417247553845801
  0
LINE
  5
1516C
  8
01
 10
16116.066245573051
 20
-1027.534479091616
 30
0.0
 11
16116.066271788821
 21
-1036.3958670047141
 31
0.0
  0
LINE
  5
15171
  8
01
 10
16106.107409426721
 20
-968.92661741568145
 30
0.0
 11
16105.62340942672
 21
-969.0146174156813
 31
0.0
  0
LINE
  5
15172
  8
01
 10
16105.62340942672
 20
-969.0146174156813
 30
0.0
 11
16105.179409426721
 21
-969.25661741568138
 31
0.0
  0
LINE
  5
15173
  8
01
 10
16105.179409426721
 20
-969.25661741568138
 30
0.0
 11
16104.79940942672
 21
-969.60761741568137
 31
0.0
  0
LINE
  5
15174
  8
01
 10
16104.79940942672
 20
-969.60761741568137
 30
0.0
 11
16104.491409426721
 21
-970.01361741568132
 31
0.0
  0
LINE
  5
15175
  8
01
 10
16104.491409426721
 20
-970.01361741568132
 30
0.0
 11
16104.250409426721
 21
-970.43561741568135
 31
0.0
  0
LINE
  5
15176
  8
01
 10
16104.250409426721
 20
-970.43561741568135
 30
0.0
 11
16104.064409426721
 21
-970.84861741568147
 31
0.0
  0
LINE
  5
15177
  8
01
 10
16104.064409426721
 20
-970.84861741568147
 30
0.0
 11
16103.922409426719
 21
-971.2406174156813
 31
0.0
  0
LINE
  5
15178
  8
01
 10
16103.922409426719
 20
-971.2406174156813
 30
0.0
 11
16103.813409426721
 21
-971.60761741568137
 31
0.0
  0
LINE
  5
15179
  8
01
 10
16103.813409426721
 20
-971.60761741568137
 30
0.0
 11
16103.73040942672
 21
-971.94861741568127
 31
0.0
  0
LINE
  5
1517A
  8
01
 10
16103.73040942672
 20
-971.94861741568127
 30
0.0
 11
16103.66740942672
 21
-972.26861741568121
 31
0.0
  0
LINE
  5
1517B
  8
01
 10
16103.66740942672
 20
-972.26861741568121
 30
0.0
 11
16103.62040942672
 21
-972.56861741568139
 31
0.0
  0
LINE
  5
1517C
  8
01
 10
16103.62040942672
 20
-972.56861741568139
 30
0.0
 11
16103.58440942672
 21
-972.85461741568133
 31
0.0
  0
LINE
  5
1517D
  8
01
 10
16103.58440942672
 20
-972.85461741568133
 30
0.0
 11
16103.55940942672
 21
-973.12761741568136
 31
0.0
  0
LINE
  5
1517E
  8
01
 10
16103.55940942672
 20
-973.12761741568136
 30
0.0
 11
16103.54340942672
 21
-973.39261741568134
 31
0.0
  0
LINE
  5
1517F
  8
01
 10
16103.54340942672
 20
-973.39261741568134
 30
0.0
 11
16103.53440942672
 21
-973.65261741568122
 31
0.0
  0
LINE
  5
15180
  8
01
 10
16103.53440942672
 20
-973.65261741568122
 30
0.0
 11
16103.53340942672
 21
-973.90961741568128
 31
0.0
  0
LINE
  5
15181
  8
01
 10
16103.53340942672
 20
-973.90961741568128
 30
0.0
 11
16103.539409426719
 21
-974.16861741568141
 31
0.0
  0
LINE
  5
15182
  8
01
 10
16103.539409426719
 20
-974.16861741568141
 30
0.0
 11
16103.55240942672
 21
-974.43061741568135
 31
0.0
  0
LINE
  5
15183
  8
01
 10
16103.55240942672
 20
-974.43061741568135
 30
0.0
 11
16103.573409426721
 21
-974.70061741568145
 31
0.0
  0
LINE
  5
15184
  8
01
 10
16103.573409426721
 20
-974.70061741568145
 30
0.0
 11
16103.60440942672
 21
-974.98061741568119
 31
0.0
  0
LINE
  5
15185
  8
01
 10
16103.60440942672
 20
-974.98061741568119
 30
0.0
 11
16103.646409426719
 21
-975.27361741568131
 31
0.0
  0
LINE
  5
15186
  8
01
 10
16103.646409426719
 20
-975.27361741568131
 30
0.0
 11
16103.70240942672
 21
-975.58561741568133
 31
0.0
  0
LINE
  5
15187
  8
01
 10
16103.70240942672
 20
-975.58561741568133
 30
0.0
 11
16103.77640942672
 21
-975.91761741568155
 31
0.0
  0
LINE
  5
15188
  8
01
 10
16103.77640942672
 20
-975.91761741568155
 30
0.0
 11
16103.87340942672
 21
-976.27361741568131
 31
0.0
  0
LINE
  5
15189
  8
01
 10
16103.87340942672
 20
-976.27361741568131
 30
0.0
 11
16104.000409426721
 21
-976.65461741568151
 31
0.0
  0
LINE
  5
1518A
  8
01
 10
16104.000409426721
 20
-976.65461741568151
 30
0.0
 11
16104.16640942672
 21
-977.05961741568137
 31
0.0
  0
LINE
  5
1518B
  8
01
 10
16104.16640942672
 20
-977.05961741568137
 30
0.0
 11
16104.38340942672
 21
-977.48061741568131
 31
0.0
  0
LINE
  5
1518C
  8
01
 10
16104.38340942672
 20
-977.48061741568131
 30
0.0
 11
16104.662409426721
 21
-977.89761741568145
 31
0.0
  0
LINE
  5
1518D
  8
01
 10
16104.662409426721
 20
-977.89761741568145
 30
0.0
 11
16105.012409426719
 21
-978.27661741568124
 31
0.0
  0
LINE
  5
1518E
  8
01
 10
16105.012409426719
 20
-978.27661741568124
 30
0.0
 11
16105.431409426719
 21
-978.57061741568145
 31
0.0
  0
LINE
  5
1518F
  8
01
 10
16105.431409426719
 20
-978.57061741568145
 30
0.0
 11
16105.903409426721
 21
-978.72761741568127
 31
0.0
  0
LINE
  5
15190
  8
01
 10
16105.903409426721
 20
-978.72761741568127
 30
0.0
 11
16106.107409426721
 21
-978.74261741568148
 31
0.0
  0
LINE
  5
15191
  8
01
 10
16106.107409426721
 20
-978.74261741568148
 30
0.0
 11
16106.39240942672
 21
-978.71261741568151
 31
0.0
  0
LINE
  5
15192
  8
01
 10
16106.39240942672
 20
-978.71261741568151
 30
0.0
 11
16106.857409426721
 21
-978.52961741568151
 31
0.0
  0
LINE
  5
15193
  8
01
 10
16106.857409426721
 20
-978.52961741568151
 30
0.0
 11
16107.26540942672
 21
-978.21761741568139
 31
0.0
  0
LINE
  5
15194
  8
01
 10
16107.26540942672
 20
-978.21761741568139
 30
0.0
 11
16107.60340942672
 21
-977.82861741568138
 31
0.0
  0
LINE
  5
15195
  8
01
 10
16107.60340942672
 20
-977.82861741568138
 30
0.0
 11
16107.87040942672
 21
-977.40961741568128
 31
0.0
  0
LINE
  5
15196
  8
01
 10
16107.87040942672
 20
-977.40961741568128
 30
0.0
 11
16108.07840942672
 21
-976.99061741568141
 31
0.0
  0
LINE
  5
15197
  8
01
 10
16108.07840942672
 20
-976.99061741568141
 30
0.0
 11
16108.23740942672
 21
-976.58861741568148
 31
0.0
  0
LINE
  5
15198
  8
01
 10
16108.23740942672
 20
-976.58861741568148
 30
0.0
 11
16108.359409426719
 21
-976.21161741568142
 31
0.0
  0
LINE
  5
15199
  8
01
 10
16108.359409426719
 20
-976.21161741568142
 30
0.0
 11
16108.45140942672
 21
-975.85961741568144
 31
0.0
  0
LINE
  5
1519A
  8
01
 10
16108.45140942672
 20
-975.85961741568144
 30
0.0
 11
16108.52240942672
 21
-975.53161741568147
 31
0.0
  0
LINE
  5
1519B
  8
01
 10
16108.52240942672
 20
-975.53161741568147
 30
0.0
 11
16108.575409426719
 21
-975.22361741568147
 31
0.0
  0
LINE
  5
1519C
  8
01
 10
16108.575409426719
 20
-975.22361741568147
 30
0.0
 11
16108.61540942672
 21
-974.93261741568131
 31
0.0
  0
LINE
  5
1519D
  8
01
 10
16108.61540942672
 20
-974.93261741568131
 30
0.0
 11
16108.644409426721
 21
-974.65461741568151
 31
0.0
  0
LINE
  5
1519E
  8
01
 10
16108.644409426721
 20
-974.65461741568151
 30
0.0
 11
16108.664409426719
 21
-974.38661741568148
 31
0.0
  0
LINE
  5
1519F
  8
01
 10
16108.664409426719
 20
-974.38661741568148
 30
0.0
 11
16108.67640942672
 21
-974.12461741568131
 31
0.0
  0
LINE
  5
151A0
  8
01
 10
16108.67640942672
 20
-974.12461741568131
 30
0.0
 11
16108.681409426719
 21
-973.8666174156815
 31
0.0
  0
LINE
  5
151A1
  8
01
 10
16108.681409426719
 20
-973.8666174156815
 30
0.0
 11
16108.67840942672
 21
-973.60861741568146
 31
0.0
  0
LINE
  5
151A2
  8
01
 10
16108.67840942672
 20
-973.60861741568146
 30
0.0
 11
16108.66840942672
 21
-973.34861741568136
 31
0.0
  0
LINE
  5
151A3
  8
01
 10
16108.66840942672
 20
-973.34861741568136
 30
0.0
 11
16108.65040942672
 21
-973.08261741568128
 31
0.0
  0
LINE
  5
151A4
  8
01
 10
16108.65040942672
 20
-973.08261741568128
 30
0.0
 11
16108.62440942672
 21
-972.80761741568131
 31
0.0
  0
LINE
  5
151A5
  8
01
 10
16108.62440942672
 20
-972.80761741568131
 30
0.0
 11
16108.58640942672
 21
-972.5196174156813
 31
0.0
  0
LINE
  5
151A6
  8
01
 10
16108.58640942672
 20
-972.5196174156813
 30
0.0
 11
16108.537409426721
 21
-972.21661741568141
 31
0.0
  0
LINE
  5
151A7
  8
01
 10
16108.537409426721
 20
-972.21661741568141
 30
0.0
 11
16108.47140942672
 21
-971.89361741568121
 31
0.0
  0
LINE
  5
151A8
  8
01
 10
16108.47140942672
 20
-971.89361741568121
 30
0.0
 11
16108.384409426721
 21
-971.54761741568143
 31
0.0
  0
LINE
  5
151A9
  8
01
 10
16108.384409426721
 20
-971.54761741568143
 30
0.0
 11
16108.270409426719
 21
-971.17661741568145
 31
0.0
  0
LINE
  5
151AA
  8
01
 10
16108.270409426719
 20
-971.17661741568145
 30
0.0
 11
16108.12240942672
 21
-970.78061741568138
 31
0.0
  0
LINE
  5
151AB
  8
01
 10
16108.12240942672
 20
-970.78061741568138
 30
0.0
 11
16107.92740942672
 21
-970.36461741568144
 31
0.0
  0
LINE
  5
151AC
  8
01
 10
16107.92740942672
 20
-970.36461741568144
 30
0.0
 11
16107.67540942672
 21
-969.9436174156815
 31
0.0
  0
LINE
  5
151AD
  8
01
 10
16107.67540942672
 20
-969.9436174156815
 30
0.0
 11
16107.35540942672
 21
-969.54361741568141
 31
0.0
  0
LINE
  5
151AE
  8
01
 10
16107.35540942672
 20
-969.54361741568141
 30
0.0
 11
16106.964409426721
 21
-969.20661741568131
 31
0.0
  0
LINE
  5
151AF
  8
01
 10
16106.964409426721
 20
-969.20661741568131
 30
0.0
 11
16106.511409426719
 21
-968.98761741568126
 31
0.0
  0
LINE
  5
151B0
  8
01
 10
16106.511409426719
 20
-968.98761741568126
 30
0.0
 11
16106.107409426721
 21
-968.92661741568145
 31
0.0
  0
LINE
  5
151B1
  8
01
 10
16116.066409426719
 20
-968.92661741568145
 30
0.0
 11
16115.57640942672
 21
-968.94861741568127
 31
0.0
  0
LINE
  5
151B2
  8
01
 10
16115.57640942672
 20
-968.94861741568127
 30
0.0
 11
16115.089409426721
 21
-969.01561741568128
 31
0.0
  0
LINE
  5
151B3
  8
01
 10
16115.089409426721
 20
-969.01561741568128
 30
0.0
 11
16114.610409426719
 21
-969.12761741568147
 31
0.0
  0
LINE
  5
151B4
  8
01
 10
16114.610409426719
 20
-969.12761741568147
 30
0.0
 11
16114.14140942672
 21
-969.28261741568144
 31
0.0
  0
LINE
  5
151B5
  8
01
 10
16114.14140942672
 20
-969.28261741568144
 30
0.0
 11
16113.688409426721
 21
-969.4816174156814
 31
0.0
  0
LINE
  5
151B6
  8
01
 10
16113.688409426721
 20
-969.4816174156814
 30
0.0
 11
16113.253409426719
 21
-969.72361741568147
 31
0.0
  0
LINE
  5
151B7
  8
01
 10
16113.253409426719
 20
-969.72361741568147
 30
0.0
 11
16112.842409426719
 21
-970.00761741568135
 31
0.0
  0
LINE
  5
151B8
  8
01
 10
16112.842409426719
 20
-970.00761741568135
 30
0.0
 11
16112.45940942672
 21
-970.33161741568142
 31
0.0
  0
LINE
  5
151B9
  8
01
 10
16112.45940942672
 20
-970.33161741568142
 30
0.0
 11
16112.109409426719
 21
-970.69461741568148
 31
0.0
  0
LINE
  5
151BA
  8
01
 10
16112.109409426719
 20
-970.69461741568148
 30
0.0
 11
16111.796409426721
 21
-971.09261741568139
 31
0.0
  0
LINE
  5
151BB
  8
01
 10
16111.796409426721
 20
-971.09261741568139
 30
0.0
 11
16111.52440942672
 21
-971.52261741568145
 31
0.0
  0
LINE
  5
151BC
  8
01
 10
16111.52440942672
 20
-971.52261741568145
 30
0.0
 11
16111.298409426719
 21
-971.9816174156814
 31
0.0
  0
LINE
  5
151BD
  8
01
 10
16111.298409426719
 20
-971.9816174156814
 30
0.0
 11
16111.12240942672
 21
-972.46261741568151
 31
0.0
  0
LINE
  5
151BE
  8
01
 10
16111.12240942672
 20
-972.46261741568151
 30
0.0
 11
16110.99940942672
 21
-972.96061741568133
 31
0.0
  0
LINE
  5
151BF
  8
01
 10
16110.99940942672
 20
-972.96061741568133
 30
0.0
 11
16110.931409426719
 21
-973.4706174156812
 31
0.0
  0
LINE
  5
151C0
  8
01
 10
16110.931409426719
 20
-973.4706174156812
 30
0.0
 11
16110.91740942672
 21
-973.83461741568135
 31
0.0
  0
LINE
  5
151C1
  8
01
 10
16110.91740942672
 20
-973.83461741568135
 30
0.0
 11
16110.91940942672
 21
-973.98461741568156
 31
0.0
  0
LINE
  5
151C2
  8
01
 10
16110.91940942672
 20
-973.98461741568156
 30
0.0
 11
16110.964409426721
 21
-974.49761741568136
 31
0.0
  0
LINE
  5
151C3
  8
01
 10
16110.964409426721
 20
-974.49761741568136
 30
0.0
 11
16111.065409426719
 21
-975.00161741568149
 31
0.0
  0
LINE
  5
151C4
  8
01
 10
16111.065409426719
 20
-975.00161741568149
 30
0.0
 11
16111.21940942672
 21
-975.4906174156813
 31
0.0
  0
LINE
  5
151C5
  8
01
 10
16111.21940942672
 20
-975.4906174156813
 30
0.0
 11
16111.42440942672
 21
-975.95861741568126
 31
0.0
  0
LINE
  5
151C6
  8
01
 10
16111.42440942672
 20
-975.95861741568126
 30
0.0
 11
16111.67740942672
 21
-976.40161741568124
 31
0.0
  0
LINE
  5
151C7
  8
01
 10
16111.67740942672
 20
-976.40161741568124
 30
0.0
 11
16111.974409426721
 21
-976.81361741568128
 31
0.0
  0
LINE
  5
151C8
  8
01
 10
16111.974409426721
 20
-976.81361741568128
 30
0.0
 11
16112.30940942672
 21
-977.19161741568121
 31
0.0
  0
LINE
  5
151C9
  8
01
 10
16112.30940942672
 20
-977.19161741568121
 30
0.0
 11
16112.679409426721
 21
-977.53161741568147
 31
0.0
  0
LINE
  5
151CA
  8
01
 10
16112.679409426721
 20
-977.53161741568147
 30
0.0
 11
16113.07940942672
 21
-977.83261741568151
 31
0.0
  0
LINE
  5
151CB
  8
01
 10
16113.07940942672
 20
-977.83261741568151
 30
0.0
 11
16113.50540942672
 21
-978.09261741568139
 31
0.0
  0
LINE
  5
151CC
  8
01
 10
16113.50540942672
 20
-978.09261741568139
 30
0.0
 11
16113.95140942672
 21
-978.30961741568149
 31
0.0
  0
LINE
  5
151CD
  8
01
 10
16113.95140942672
 20
-978.30961741568149
 30
0.0
 11
16114.413409426719
 21
-978.48261741568149
 31
0.0
  0
LINE
  5
151CE
  8
01
 10
16114.413409426719
 20
-978.48261741568149
 30
0.0
 11
16114.88940942672
 21
-978.61261741568137
 31
0.0
  0
LINE
  5
151CF
  8
01
 10
16114.88940942672
 20
-978.61261741568137
 30
0.0
 11
16115.37340942672
 21
-978.69761741568141
 31
0.0
  0
LINE
  5
151D0
  8
01
 10
16115.37340942672
 20
-978.69761741568141
 30
0.0
 11
16115.86240942672
 21
-978.73861741568135
 31
0.0
  0
LINE
  5
151D1
  8
01
 10
16115.86240942672
 20
-978.73861741568135
 30
0.0
 11
16116.066409426719
 21
-978.74261741568148
 31
0.0
  0
LINE
  5
151D2
  8
01
 10
16126.02540942672
 20
-968.92661741568145
 30
0.0
 11
16126.509409426721
 21
-969.0146174156813
 31
0.0
  0
LINE
  5
151D3
  8
01
 10
16126.509409426721
 20
-969.0146174156813
 30
0.0
 11
16126.95340942672
 21
-969.25661741568138
 31
0.0
  0
LINE
  5
151D4
  8
01
 10
16126.95340942672
 20
-969.25661741568138
 30
0.0
 11
16127.333409426719
 21
-969.60761741568137
 31
0.0
  0
LINE
  5
151D5
  8
01
 10
16127.333409426719
 20
-969.60761741568137
 30
0.0
 11
16127.64140942672
 21
-970.01361741568132
 31
0.0
  0
LINE
  5
151D6
  8
01
 10
16127.64140942672
 20
-970.01361741568132
 30
0.0
 11
16127.88240942672
 21
-970.43561741568135
 31
0.0
  0
LINE
  5
151D7
  8
01
 10
16127.88240942672
 20
-970.43561741568135
 30
0.0
 11
16128.06840942672
 21
-970.84861741568147
 31
0.0
  0
LINE
  5
151D8
  8
01
 10
16128.06840942672
 20
-970.84861741568147
 30
0.0
 11
16128.21040942672
 21
-971.2406174156813
 31
0.0
  0
LINE
  5
151D9
  8
01
 10
16128.21040942672
 20
-971.2406174156813
 30
0.0
 11
16128.31940942672
 21
-971.60761741568137
 31
0.0
  0
LINE
  5
151DA
  8
01
 10
16128.31940942672
 20
-971.60761741568137
 30
0.0
 11
16128.402409426721
 21
-971.94861741568127
 31
0.0
  0
LINE
  5
151DB
  8
01
 10
16128.402409426721
 20
-971.94861741568127
 30
0.0
 11
16128.465409426721
 21
-972.26861741568121
 31
0.0
  0
LINE
  5
151DC
  8
01
 10
16128.465409426721
 20
-972.26861741568121
 30
0.0
 11
16128.512409426719
 21
-972.56861741568139
 31
0.0
  0
LINE
  5
151DD
  8
01
 10
16128.512409426719
 20
-972.56861741568139
 30
0.0
 11
16128.548409426719
 21
-972.85461741568133
 31
0.0
  0
LINE
  5
151DE
  8
01
 10
16128.548409426719
 20
-972.85461741568133
 30
0.0
 11
16128.573409426721
 21
-973.12761741568136
 31
0.0
  0
LINE
  5
151DF
  8
01
 10
16128.573409426721
 20
-973.12761741568136
 30
0.0
 11
16128.589409426721
 21
-973.39261741568134
 31
0.0
  0
LINE
  5
151E0
  8
01
 10
16128.589409426721
 20
-973.39261741568134
 30
0.0
 11
16128.598409426721
 21
-973.65261741568122
 31
0.0
  0
LINE
  5
151E1
  8
01
 10
16128.598409426721
 20
-973.65261741568122
 30
0.0
 11
16128.599409426721
 21
-973.90961741568128
 31
0.0
  0
LINE
  5
151E2
  8
01
 10
16128.599409426721
 20
-973.90961741568128
 30
0.0
 11
16128.59340942672
 21
-974.16861741568141
 31
0.0
  0
LINE
  5
151E3
  8
01
 10
16128.59340942672
 20
-974.16861741568141
 30
0.0
 11
16128.580409426721
 21
-974.43061741568135
 31
0.0
  0
LINE
  5
151E4
  8
01
 10
16128.580409426721
 20
-974.43061741568135
 30
0.0
 11
16128.55940942672
 21
-974.70061741568145
 31
0.0
  0
LINE
  5
151E5
  8
01
 10
16128.55940942672
 20
-974.70061741568145
 30
0.0
 11
16128.528409426721
 21
-974.98061741568119
 31
0.0
  0
LINE
  5
151E6
  8
01
 10
16128.528409426721
 20
-974.98061741568119
 30
0.0
 11
16128.48640942672
 21
-975.27361741568131
 31
0.0
  0
LINE
  5
151E7
  8
01
 10
16128.48640942672
 20
-975.27361741568131
 30
0.0
 11
16128.430409426721
 21
-975.58561741568133
 31
0.0
  0
LINE
  5
151E8
  8
01
 10
16128.430409426721
 20
-975.58561741568133
 30
0.0
 11
16128.35640942672
 21
-975.91761741568155
 31
0.0
  0
LINE
  5
151E9
  8
01
 10
16128.35640942672
 20
-975.91761741568155
 30
0.0
 11
16128.259409426721
 21
-976.27361741568131
 31
0.0
  0
LINE
  5
151EA
  8
01
 10
16128.259409426721
 20
-976.27361741568131
 30
0.0
 11
16128.13240942672
 21
-976.65461741568151
 31
0.0
  0
LINE
  5
151EB
  8
01
 10
16128.13240942672
 20
-976.65461741568151
 30
0.0
 11
16127.966409426719
 21
-977.05961741568137
 31
0.0
  0
LINE
  5
151EC
  8
01
 10
16127.966409426719
 20
-977.05961741568137
 30
0.0
 11
16127.74940942672
 21
-977.48061741568131
 31
0.0
  0
LINE
  5
151ED
  8
01
 10
16127.74940942672
 20
-977.48061741568131
 30
0.0
 11
16127.47040942672
 21
-977.89761741568145
 31
0.0
  0
LINE
  5
151EE
  8
01
 10
16127.47040942672
 20
-977.89761741568145
 30
0.0
 11
16127.12040942672
 21
-978.27661741568124
 31
0.0
  0
LINE
  5
151EF
  8
01
 10
16127.12040942672
 20
-978.27661741568124
 30
0.0
 11
16126.70140942672
 21
-978.57061741568145
 31
0.0
  0
LINE
  5
151F0
  8
01
 10
16126.70140942672
 20
-978.57061741568145
 30
0.0
 11
16126.22940942672
 21
-978.72761741568127
 31
0.0
  0
LINE
  5
151F1
  8
01
 10
16126.22940942672
 20
-978.72761741568127
 30
0.0
 11
16126.02540942672
 21
-978.74261741568148
 31
0.0
  0
LINE
  5
151F2
  8
01
 10
16126.02540942672
 20
-978.74261741568148
 30
0.0
 11
16125.74040942672
 21
-978.71261741568151
 31
0.0
  0
LINE
  5
151F3
  8
01
 10
16125.74040942672
 20
-978.71261741568151
 30
0.0
 11
16125.27540942672
 21
-978.52961741568151
 31
0.0
  0
LINE
  5
151F4
  8
01
 10
16125.27540942672
 20
-978.52961741568151
 30
0.0
 11
16124.867409426721
 21
-978.21761741568139
 31
0.0
  0
LINE
  5
151F5
  8
01
 10
16124.867409426721
 20
-978.21761741568139
 30
0.0
 11
16124.529409426719
 21
-977.82861741568138
 31
0.0
  0
LINE
  5
151F6
  8
01
 10
16124.529409426719
 20
-977.82861741568138
 30
0.0
 11
16124.262409426719
 21
-977.40961741568128
 31
0.0
  0
LINE
  5
151F7
  8
01
 10
16124.262409426719
 20
-977.40961741568128
 30
0.0
 11
16124.054409426721
 21
-976.99061741568141
 31
0.0
  0
LINE
  5
151F8
  8
01
 10
16124.054409426721
 20
-976.99061741568141
 30
0.0
 11
16123.895409426719
 21
-976.58861741568148
 31
0.0
  0
LINE
  5
151F9
  8
01
 10
16123.895409426719
 20
-976.58861741568148
 30
0.0
 11
16123.77340942672
 21
-976.21161741568142
 31
0.0
  0
LINE
  5
151FA
  8
01
 10
16123.77340942672
 20
-976.21161741568142
 30
0.0
 11
16123.681409426719
 21
-975.85961741568144
 31
0.0
  0
LINE
  5
151FB
  8
01
 10
16123.681409426719
 20
-975.85961741568144
 30
0.0
 11
16123.610409426719
 21
-975.53161741568147
 31
0.0
  0
LINE
  5
151FC
  8
01
 10
16123.610409426719
 20
-975.53161741568147
 30
0.0
 11
16123.557409426719
 21
-975.22361741568147
 31
0.0
  0
LINE
  5
151FD
  8
01
 10
16123.557409426719
 20
-975.22361741568147
 30
0.0
 11
16123.51740942672
 21
-974.93261741568131
 31
0.0
  0
LINE
  5
151FE
  8
01
 10
16123.51740942672
 20
-974.93261741568131
 30
0.0
 11
16123.48840942672
 21
-974.65461741568151
 31
0.0
  0
LINE
  5
151FF
  8
01
 10
16123.48840942672
 20
-974.65461741568151
 30
0.0
 11
16123.46840942672
 21
-974.38661741568148
 31
0.0
  0
LINE
  5
15200
  8
01
 10
16123.46840942672
 20
-974.38661741568148
 30
0.0
 11
16123.456409426721
 21
-974.12461741568131
 31
0.0
  0
LINE
  5
15201
  8
01
 10
16123.456409426721
 20
-974.12461741568131
 30
0.0
 11
16123.45140942672
 21
-973.8666174156815
 31
0.0
  0
LINE
  5
15202
  8
01
 10
16123.45140942672
 20
-973.8666174156815
 30
0.0
 11
16123.45440942672
 21
-973.60861741568146
 31
0.0
  0
LINE
  5
15203
  8
01
 10
16123.45440942672
 20
-973.60861741568146
 30
0.0
 11
16123.464409426721
 21
-973.34861741568136
 31
0.0
  0
LINE
  5
15204
  8
01
 10
16123.464409426721
 20
-973.34861741568136
 30
0.0
 11
16123.482409426721
 21
-973.08261741568128
 31
0.0
  0
LINE
  5
15205
  8
01
 10
16123.482409426721
 20
-973.08261741568128
 30
0.0
 11
16123.50840942672
 21
-972.80761741568131
 31
0.0
  0
LINE
  5
15206
  8
01
 10
16123.50840942672
 20
-972.80761741568131
 30
0.0
 11
16123.546409426721
 21
-972.5196174156813
 31
0.0
  0
LINE
  5
15207
  8
01
 10
16123.546409426721
 20
-972.5196174156813
 30
0.0
 11
16123.59540942672
 21
-972.21661741568141
 31
0.0
  0
LINE
  5
15208
  8
01
 10
16123.59540942672
 20
-972.21661741568141
 30
0.0
 11
16123.661409426721
 21
-971.89361741568121
 31
0.0
  0
LINE
  5
15209
  8
01
 10
16123.661409426721
 20
-971.89361741568121
 30
0.0
 11
16123.74840942672
 21
-971.54761741568143
 31
0.0
  0
LINE
  5
1520A
  8
01
 10
16123.74840942672
 20
-971.54761741568143
 30
0.0
 11
16123.86240942672
 21
-971.17661741568145
 31
0.0
  0
LINE
  5
1520B
  8
01
 10
16123.86240942672
 20
-971.17661741568145
 30
0.0
 11
16124.010409426721
 21
-970.78061741568138
 31
0.0
  0
LINE
  5
1520C
  8
01
 10
16124.010409426721
 20
-970.78061741568138
 30
0.0
 11
16124.205409426721
 21
-970.36461741568144
 31
0.0
  0
LINE
  5
1520D
  8
01
 10
16124.205409426721
 20
-970.36461741568144
 30
0.0
 11
16124.457409426719
 21
-969.9436174156815
 31
0.0
  0
LINE
  5
1520E
  8
01
 10
16124.457409426719
 20
-969.9436174156815
 30
0.0
 11
16124.777409426721
 21
-969.54361741568141
 31
0.0
  0
LINE
  5
1520F
  8
01
 10
16124.777409426721
 20
-969.54361741568141
 30
0.0
 11
16125.16840942672
 21
-969.20661741568131
 31
0.0
  0
LINE
  5
15210
  8
01
 10
16125.16840942672
 20
-969.20661741568131
 30
0.0
 11
16125.62140942672
 21
-968.98761741568126
 31
0.0
  0
LINE
  5
15211
  8
01
 10
16125.62140942672
 20
-968.98761741568126
 30
0.0
 11
16126.02540942672
 21
-968.92661741568145
 31
0.0
  0
LINE
  5
15212
  8
01
 10
16116.066409426719
 20
-968.92661741568145
 30
0.0
 11
16116.556409426719
 21
-968.94861741568127
 31
0.0
  0
LINE
  5
15213
  8
01
 10
16116.556409426719
 20
-968.94861741568127
 30
0.0
 11
16117.04340942672
 21
-969.01561741568128
 31
0.0
  0
LINE
  5
15214
  8
01
 10
16117.04340942672
 20
-969.01561741568128
 30
0.0
 11
16117.52240942672
 21
-969.12761741568147
 31
0.0
  0
LINE
  5
15215
  8
01
 10
16117.52240942672
 20
-969.12761741568147
 30
0.0
 11
16117.991409426721
 21
-969.28261741568144
 31
0.0
  0
LINE
  5
15216
  8
01
 10
16117.991409426721
 20
-969.28261741568144
 30
0.0
 11
16118.44440942672
 21
-969.4816174156814
 31
0.0
  0
LINE
  5
15217
  8
01
 10
16118.44440942672
 20
-969.4816174156814
 30
0.0
 11
16118.87940942672
 21
-969.72361741568147
 31
0.0
  0
LINE
  5
15218
  8
01
 10
16118.87940942672
 20
-969.72361741568147
 30
0.0
 11
16119.29040942672
 21
-970.00761741568135
 31
0.0
  0
LINE
  5
15219
  8
01
 10
16119.29040942672
 20
-970.00761741568135
 30
0.0
 11
16119.673409426719
 21
-970.33161741568142
 31
0.0
  0
LINE
  5
1521A
  8
01
 10
16119.673409426719
 20
-970.33161741568142
 30
0.0
 11
16120.02340942672
 21
-970.69461741568148
 31
0.0
  0
LINE
  5
1521B
  8
01
 10
16120.02340942672
 20
-970.69461741568148
 30
0.0
 11
16120.33640942672
 21
-971.09261741568139
 31
0.0
  0
LINE
  5
1521C
  8
01
 10
16120.33640942672
 20
-971.09261741568139
 30
0.0
 11
16120.608409426721
 21
-971.52261741568145
 31
0.0
  0
LINE
  5
1521D
  8
01
 10
16120.608409426721
 20
-971.52261741568145
 30
0.0
 11
16120.83440942672
 21
-971.9816174156814
 31
0.0
  0
LINE
  5
1521E
  8
01
 10
16120.83440942672
 20
-971.9816174156814
 30
0.0
 11
16121.010409426721
 21
-972.46261741568151
 31
0.0
  0
LINE
  5
1521F
  8
01
 10
16121.010409426721
 20
-972.46261741568151
 30
0.0
 11
16121.13340942672
 21
-972.96061741568133
 31
0.0
  0
LINE
  5
15220
  8
01
 10
16121.13340942672
 20
-972.96061741568133
 30
0.0
 11
16121.20140942672
 21
-973.4706174156812
 31
0.0
  0
LINE
  5
15221
  8
01
 10
16121.20140942672
 20
-973.4706174156812
 30
0.0
 11
16121.215409426721
 21
-973.83461741568135
 31
0.0
  0
LINE
  5
15222
  8
01
 10
16121.215409426721
 20
-973.83461741568135
 30
0.0
 11
16121.21340942672
 21
-973.98461741568156
 31
0.0
  0
LINE
  5
15223
  8
01
 10
16121.21340942672
 20
-973.98461741568156
 30
0.0
 11
16121.16840942672
 21
-974.49761741568136
 31
0.0
  0
LINE
  5
15224
  8
01
 10
16121.16840942672
 20
-974.49761741568136
 30
0.0
 11
16121.06740942672
 21
-975.00161741568149
 31
0.0
  0
LINE
  5
15225
  8
01
 10
16121.06740942672
 20
-975.00161741568149
 30
0.0
 11
16120.913409426719
 21
-975.4906174156813
 31
0.0
  0
LINE
  5
15226
  8
01
 10
16120.913409426719
 20
-975.4906174156813
 30
0.0
 11
16120.708409426719
 21
-975.95861741568126
 31
0.0
  0
LINE
  5
15227
  8
01
 10
16120.708409426719
 20
-975.95861741568126
 30
0.0
 11
16120.455409426721
 21
-976.40161741568124
 31
0.0
  0
LINE
  5
15228
  8
01
 10
16120.455409426721
 20
-976.40161741568124
 30
0.0
 11
16120.15840942672
 21
-976.81361741568128
 31
0.0
  0
LINE
  5
15229
  8
01
 10
16120.15840942672
 20
-976.81361741568128
 30
0.0
 11
16119.823409426721
 21
-977.19161741568121
 31
0.0
  0
LINE
  5
1522A
  8
01
 10
16119.823409426721
 20
-977.19161741568121
 30
0.0
 11
16119.45340942672
 21
-977.53161741568147
 31
0.0
  0
LINE
  5
1522B
  8
01
 10
16119.45340942672
 20
-977.53161741568147
 30
0.0
 11
16119.05340942672
 21
-977.83261741568151
 31
0.0
  0
LINE
  5
1522C
  8
01
 10
16119.05340942672
 20
-977.83261741568151
 30
0.0
 11
16118.627409426719
 21
-978.09261741568139
 31
0.0
  0
LINE
  5
1522D
  8
01
 10
16118.627409426719
 20
-978.09261741568139
 30
0.0
 11
16118.181409426719
 21
-978.30961741568149
 31
0.0
  0
LINE
  5
1522E
  8
01
 10
16118.181409426719
 20
-978.30961741568149
 30
0.0
 11
16117.71940942672
 21
-978.48261741568149
 31
0.0
  0
LINE
  5
1522F
  8
01
 10
16117.71940942672
 20
-978.48261741568149
 30
0.0
 11
16117.243409426719
 21
-978.61261741568137
 31
0.0
  0
LINE
  5
15230
  8
01
 10
16117.243409426719
 20
-978.61261741568137
 30
0.0
 11
16116.759409426721
 21
-978.69761741568141
 31
0.0
  0
LINE
  5
15231
  8
01
 10
16116.759409426721
 20
-978.69761741568141
 30
0.0
 11
16116.270409426719
 21
-978.73861741568135
 31
0.0
  0
LINE
  5
15232
  8
01
 10
16116.270409426719
 20
-978.73861741568135
 30
0.0
 11
16116.066409426719
 21
-978.74261741568148
 31
0.0
  0
ARC
  5
15290
  8
01
 10
15998.280453937479
 20
-1002.5346174156811
 30
0.0
 40
33.5
 50
157.62400000001949
 51
194.59299999997739
  0
LINE
  5
15291
  8
01
 10
15966.280453937479
 20
-1018.245617415681
 30
0.0
 11
15966.280453937479
 21
-1014.249617415681
 31
0.0
  0
ARC
  5
15292
  8
01
 10
15951.280453937479
 20
-1018.245617415681
 30
0.0
 40
15.0
 50
321.73700000002862
 51
0.0
  0
ARC
  5
15293
  8
01
 10
15953.280453937479
 20
-1014.249617415681
 30
0.0
 40
13.0
 50
0.0
 51
14.59299999997741
  0
LINE
  5
15294
  8
01
 10
15963.058453937479
 20
-1027.5346174156809
 30
0.0
 11
15963.058453937479
 21
-1036.395617415681
 31
0.0
  0
LINE
  5
15295
  8
01
 10
15992.502453937481
 20
-1027.5346174156809
 30
0.0
 11
15992.502453937481
 21
-1036.395617415681
 31
0.0
  0
ARC
  5
15296
  8
01
 10
16001.279453937481
 20
-1019.350617415681
 30
0.0
 40
12.0
 50
181.50699999999841
 51
223.0009999999624
  0
LINE
  5
15297
  8
01
 10
15994.280453937479
 20
-1014.5346174156811
 30
0.0
 11
16003.752453937481
 21
-1014.5346174156811
 31
0.0
  0
ARC
  5
15298
  8
01
 10
15994.280453937479
 20
-1019.5346174156811
 30
0.0
 40
5.0
 50
90.000999999996466
 51
180.0009999999964
  0
LINE
  5
15299
  8
01
 10
15992.502453937481
 20
-1036.395617415681
 30
0.0
 11
15990.530453937479
 21
-1037.5346174156809
 31
0.0
  0
LINE
  5
1529A
  8
01
 10
15963.058453937479
 20
-1036.395617415681
 30
0.0
 11
15965.030453937479
 21
-1037.5346174156809
 31
0.0
  0
LINE
  5
1529B
  8
01
 10
15991.25745393748
 20
-990.5346174156814
 30
0.0
 11
16003.752453937481
 21
-990.5346174156814
 31
0.0
  0
ARC
  5
1529C
  8
01
 10
15991.25745393748
 20
-987.53461741568128
 30
0.0
 40
3.0
 50
180.0009999999964
 51
270.0
  0
LINE
  5
1529D
  8
01
 10
16003.188453937481
 20
-1002.5346174156811
 30
0.0
 11
16003.188453937481
 21
-1014.5346174156811
 31
0.0
  0
LINE
  5
1529E
  8
01
 10
16003.188453937481
 20
-1013.721617415681
 30
0.0
 11
16001.780453937479
 21
-1014.5346174156811
 31
0.0
  0
LINE
  5
1529F
  8
01
 10
16003.752453937481
 20
-1013.721617415681
 30
0.0
 11
16003.188453937481
 21
-1013.721617415681
 31
0.0
  0
LINE
  5
152A0
  8
01
 10
16003.188453937481
 20
-990.5346174156814
 30
0.0
 11
16003.188453937481
 21
-1002.5346174156811
 31
0.0
  0
LINE
  5
152A1
  8
01
 10
16003.188453937481
 20
-991.34761741568138
 30
0.0
 11
16001.780453937479
 21
-990.5346174156814
 31
0.0
  0
LINE
  5
152A2
  8
01
 10
16003.752453937481
 20
-991.34761741568138
 30
0.0
 11
16003.188453937481
 21
-991.34761741568138
 31
0.0
  0
LINE
  5
152A3
  8
01
 10
15965.030453937479
 20
-1037.5346174156809
 30
0.0
 11
15977.780453937479
 21
-1037.5346174156809
 31
0.0
  0
LINE
  5
152A4
  8
01
 10
15977.780453937479
 20
-1037.5346174156809
 30
0.0
 11
15990.530453937479
 21
-1037.5346174156809
 31
0.0
  0
LINE
  5
152A5
  8
01
 10
16003.752453937481
 20
-1002.5346174156811
 30
0.0
 11
16003.752453937481
 21
-990.0346174156814
 31
0.0
  0
LINE
  5
152A6
  8
01
 10
16003.752453937481
 20
-1002.5346174156811
 30
0.0
 11
16003.752453937481
 21
-1015.0346174156811
 31
0.0
  0
ARC
  5
152A7
  8
01
 10
16030.065453937479
 20
-1020.149617415681
 30
0.0
 40
18.0
 50
137.69699999996669
 51
161.51100000000531
  0
ARC
  5
152A8
  8
01
 10
16008.252453937481
 20
-1012.855617415681
 30
0.0
 40
5.0
 50
316.69499999995662
 51
341.51100000000542
  0
ARC
  5
152A9
  8
01
 10
16008.252453937481
 20
-1012.855617415681
 30
0.0
 40
5.0
 50
205.8430000000069
 51
223.30700000005641
  0
LINE
  5
152AA
  8
01
 10
16004.61345393748
 20
-1016.2846174156811
 30
0.0
 11
16011.89045393748
 21
-1016.2846174156811
 31
0.0
  0
LINE
  5
152AB
  8
01
 10
16004.61345393748
 20
-988.7846174156814
 30
0.0
 11
16011.89045393748
 21
-988.7846174156814
 31
0.0
  0
ARC
  5
152AC
  8
01
 10
16008.252453937481
 20
-992.21361741568148
 30
0.0
 40
5.0
 50
136.69499999995659
 51
154.15999999997601
  0
ARC
  5
152AD
  8
01
 10
16008.252453937481
 20
-992.21361741568148
 30
0.0
 40
5.0
 50
18.492000000000179
 51
43.307000000056377
  0
ARC
  5
152AE
  8
01
 10
16030.065453937479
 20
-984.91961741568139
 30
0.0
 40
18.0
 50
198.49099999998521
 51
222.30399999996339
  0
LINE
  5
152AF
  8
01
 10
16016.752453937481
 20
-1002.5346174156811
 30
0.0
 11
16016.752453937481
 21
-1008.0346174156811
 31
0.0
  0
LINE
  5
152B0
  8
01
 10
16016.752453937481
 20
-1002.5346174156811
 30
0.0
 11
16016.752453937481
 21
-997.0346174156814
 31
0.0
  0
LINE
  5
152B1
  8
01
 10
16019.780453937479
 20
-997.7846174156814
 30
0.0
 11
16016.752453937481
 21
-997.7846174156814
 31
0.0
  0
LINE
  5
152B2
  8
01
 10
16020.780453937479
 20
-998.7846174156814
 30
0.0
 11
16020.780453937479
 21
-1001.634617415681
 31
0.0
  0
LINE
  5
152B3
  8
01
 10
16019.780453937479
 20
-1007.2846174156811
 30
0.0
 11
16016.752453937481
 21
-1007.2846174156811
 31
0.0
  0
LINE
  5
152B4
  8
01
 10
16020.780453937479
 20
-1006.2846174156811
 30
0.0
 11
16020.780453937479
 21
-1003.434617415681
 31
0.0
  0
LINE
  5
152B5
  8
01
 10
16018.780453937479
 20
-1001.634617415681
 30
0.0
 11
16020.780453937479
 21
-1001.634617415681
 31
0.0
  0
LINE
  5
152B6
  8
01
 10
16018.780453937479
 20
-1002.5346174156811
 30
0.0
 11
16018.780453937479
 21
-1001.634617415681
 31
0.0
  0
LINE
  5
152B7
  8
01
 10
16018.780453937479
 20
-1002.5346174156811
 30
0.0
 11
16018.780453937479
 21
-1003.434617415681
 31
0.0
  0
LINE
  5
152B8
  8
01
 10
16018.780453937479
 20
-1003.434617415681
 30
0.0
 11
16020.780453937479
 21
-1003.434617415681
 31
0.0
  0
LINE
  5
152BB
  8
01
 10
15967.30345393748
 20
-989.78161741568135
 30
0.0
 11
15967.30345393748
 21
-980.63461741568119
 31
0.0
  0
LINE
  5
152BC
  8
01
 10
15968.465453937481
 20
-982.5346174156814
 30
0.0
 11
15967.30345393748
 21
-984.54761741568132
 31
0.0
  0
LINE
  5
152BD
  8
01
 10
15968.465453937481
 20
-980.63461741568119
 30
0.0
 11
15968.465453937481
 21
-982.5346174156814
 31
0.0
  0
LINE
  5
152BE
  8
01
 10
15967.30345393748
 20
-982.5346174156814
 30
0.0
 11
15977.780453937479
 21
-982.5346174156814
 31
0.0
  0
LINE
  5
152BF
  8
01
 10
15988.25745393748
 20
-987.53461741568128
 30
0.0
 11
15988.25745393748
 21
-980.63461741568119
 31
0.0
  0
LINE
  5
152C0
  8
01
 10
15977.780453937479
 20
-982.5346174156814
 30
0.0
 11
15988.25745393748
 21
-982.5346174156814
 31
0.0
  0
LINE
  5
152C1
  8
01
 10
15987.09545393748
 20
-982.5346174156814
 30
0.0
 11
15988.25745393748
 21
-984.54761741568132
 31
0.0
  0
LINE
  5
152C2
  8
01
 10
15987.09545393748
 20
-980.63461741568119
 30
0.0
 11
15987.09545393748
 21
-982.5346174156814
 31
0.0
  0
LINE
  5
152C3
  8
01
 10
15970.41945393748
 20
-1027.5346174156809
 30
0.0
 11
15970.41945393748
 21
-1036.3958670047141
 31
0.0
  0
ARC
  5
152C4
  8
01
 10
15966.73895393748
 20
-1032.911596796378
 30
0.0
 40
6.5159793976376426
 50
55.608667357515039
 51
124.3913326424849
  0
ARC
  5
152C5
  8
01
 10
15966.73916999963
 20
-1031.018157801459
 30
0.0
 40
6.5164596321915154
 50
235.61385956471941
 51
304.38614043528059
  0
LINE
  5
152C6
  8
01
 10
15985.14145393748
 20
-1027.5346174156809
 30
0.0
 11
15985.14145393748
 21
-1036.3958670047141
 31
0.0
  0
ARC
  5
152C7
  8
01
 10
15988.821737875331
 20
-1031.018157801459
 30
0.0
 40
6.5164596321915154
 50
235.61385956471941
 51
304.38614043528059
  0
ARC
  5
152C8
  8
01
 10
15988.82195393748
 20
-1032.911596796378
 30
0.0
 40
6.5159793976376426
 50
55.608667357515039
 51
124.3913326424849
  0
ARC
  5
152C9
  8
01
 10
15977.780453937479
 20
-1013.174110949927
 30
0.0
 40
24.360506465753812
 50
252.41205005798679
 51
287.58794994201321
  0
ARC
  5
152CA
  8
01
 10
15977.780453937479
 20
-1050.7510353261291
 30
0.0
 40
24.355417910447681
 50
72.40825544167933
 51
107.5917445583207
  0
POLYLINE
  5
152CB
  8
01
 10
16004.613519584347
 20
-993.51561741568128
 30
0.0
 66
     1
 70
     8
  0
VERTEX
  8
01
  5
158ED
 10
16004.6
 20
-993.516
 30
0.000000
  70
    32
  0
VERTEX
  8
01
  5
158EE
 10
16004.6
 20
-993.515
 30
0.000000
  70
    32
  0
VERTEX
  8
01
  5
158EF
 10
16004.6
 20
-993.514
 30
0.000000
  70
    32
  0
VERTEX
  8
01
  5
158F0
 10
16004.6
 20
-993.512
 30
0.000000
  70
    32
  0
VERTEX
  8
01
  5
158F1
 10
16004.6
 20
-993.510
 30
0.000000
  70
    32
  0
VERTEX
  8
01
  5
158F2
 10
16004.5
 20
-993.507
 30
0.000000
  70
    32
  0
VERTEX
  8
01
  5
158F3
 10
16004.5
 20
-993.503
 30
0.000000
  70
    32
  0
VERTEX
  8
01
  5
158F4
 10
16004.5
 20
-993.498
 30
0.000000
  70
    32
  0
VERTEX
  8
01
  5
158F5
 10
16004.5
 20
-993.493
 30
0.000000
  70
    32
  0
VERTEX
  8
01
  5
158F6
 10
16004.5
 20
-993.486
 30
0.000000
  70
    32
  0
VERTEX
  8
01
  5
158F7
 10
16004.5
 20
-993.480
 30
0.000000
  70
    32
  0
VERTEX
  8
01
  5
158F8
 10
16004.4
 20
-993.472
 30
0.000000
  70
    32
  0
VERTEX
  8
01
  5
158F9
 10
16004.4
 20
-993.464
 30
0.000000
  70
    32
  0
VERTEX
  8
01
  5
158FA
 10
16004.4
 20
-993.455
 30
0.000000
  70
    32
  0
VERTEX
  8
01
  5
158FB
 10
16004.4
 20
-993.445
 30
0.000000
  70
    32
  0
VERTEX
  8
01
  5
158FC
 10
16004.4
 20
-993.435
 30
0.000000
  70
    32
  0
VERTEX
  8
01
  5
158FD
 10
16004.4
 20
-993.424
 30
0.000000
  70
    32
  0
VERTEX
  8
01
  5
158FE
 10
16004.4
 20
-993.412
 30
0.000000
  70
    32
  0
VERTEX
  8
01
  5
158FF
 10
16004.3
 20
-993.400
 30
0.000000
  70
    32
  0
VERTEX
  8
01
  5
15900
 10
16004.3
 20
-993.387
 30
0.000000
  70
    32
  0
VERTEX
  8
01
  5
15901
 10
16004.3
 20
-993.373
 30
0.000000
  70
    32
  0
VERTEX
  8
01
  5
15902
 10
16004.3
 20
-993.358
 30
0.000000
  70
    32
  0
VERTEX
  8
01
  5
15903
 10
16004.3
 20
-993.343
 30
0.000000
  70
    32
  0
VERTEX
  8
01
  5
15904
 10
16004.3
 20
-993.327
 30
0.000000
  70
    32
  0
VERTEX
  8
01
  5
15905
 10
16004.3
 20
-993.311
 30
0.000000
  70
    32
  0
VERTEX
  8
01
  5
15906
 10
16004.2
 20
-993.294
 30
0.000000
  70
    32
  0
VERTEX
  8
01
  5
15907
 10
16004.2
 20
-993.276
 30
0.000000
  70
    32
  0
VERTEX
  8
01
  5
15908
 10
16004.2
 20
-993.257
 30
0.000000
  70
    32
  0
VERTEX
  8
01
  5
15909
 10
16004.2
 20
-993.238
 30
0.000000
  70
    32
  0
VERTEX
  8
01
  5
1590A
 10
16004.2
 20
-993.219
 30
0.000000
  70
    32
  0
VERTEX
  8
01
  5
1590B
 10
16004.2
 20
-993.198
 30
0.000000
  70
    32
  0
VERTEX
  8
01
  5
1590C
 10
16004.2
 20
-993.177
 30
0.000000
  70
    32
  0
VERTEX
  8
01
  5
1590D
 10
16004.2
 20
-993.156
 30
0.000000
  70
    32
  0
VERTEX
  8
01
  5
1590E
 10
16004.1
 20
-993.133
 30
0.000000
  70
    32
  0
VERTEX
  8
01
  5
1590F
 10
16004.1
 20
-993.111
 30
0.000000
  70
    32
  0
VERTEX
  8
01
  5
15910
 10
16004.1
 20
-993.087
 30
0.000000
  70
    32
  0
VERTEX
  8
01
  5
15911
 10
16004.1
 20
-993.063
 30
0.000000
  70
    32
  0
VERTEX
  8
01
  5
15912
 10
16004.1
 20
-993.038
 30
0.000000
  70
    32
  0
VERTEX
  8
01
  5
15913
 10
16004.1
 20
-993.013
 30
0.000000
  70
    32
  0
VERTEX
  8
01
  5
15914
 10
16004.1
 20
-992.988
 30
0.000000
  70
    32
  0
VERTEX
  8
01
  5
15915
 10
16004.1
 20
-992.961
 30
0.000000
  70
    32
  0
VERTEX
  8
01
  5
15916
 10
16004.0
 20
-992.934
 30
0.000000
  70
    32
  0
VERTEX
  8
01
  5
15917
 10
16004.0
 20
-992.907
 30
0.000000
  70
    32
  0
VERTEX
  8
01
  5
15918
 10
16004.0
 20
-992.879
 30
0.000000
  70
    32
  0
VERTEX
  8
01
  5
15919
 10
16004.0
 20
-992.851
 30
0.000000
  70
    32
  0
VERTEX
  8
01
  5
1591A
 10
16004.0
 20
-992.822
 30
0.000000
  70
    32
  0
VERTEX
  8
01
  5
1591B
 10
16004.0
 20
-992.792
 30
0.000000
  70
    32
  0
VERTEX
  8
01
  5
1591C
 10
16004.0
 20
-992.762
 30
0.000000
  70
    32
  0
VERTEX
  8
01
  5
1591D
 10
16004.0
 20
-992.732
 30
0.000000
  70
    32
  0
VERTEX
  8
01
  5
1591E
 10
16004.0
 20
-992.701
 30
0.000000
  70
    32
  0
VERTEX
  8
01
  5
1591F
 10
16004.0
 20
-992.669
 30
0.000000
  70
    32
  0
VERTEX
  8
01
  5
15920
 10
16003.9
 20
-992.637
 30
0.000000
  70
    32
  0
VERTEX
  8
01
  5
15921
 10
16003.9
 20
-992.605
 30
0.000000
  70
    32
  0
VERTEX
  8
01
  5
15922
 10
16003.9
 20
-992.572
 30
0.000000
  70
    32
  0
VERTEX
  8
01
  5
15923
 10
16003.9
 20
-992.539
 30
0.000000
  70
    32
  0
VERTEX
  8
01
  5
15924
 10
16003.9
 20
-992.505
 30
0.000000
  70
    32
  0
VERTEX
  8
01
  5
15925
 10
16003.9
 20
-992.471
 30
0.000000
  70
    32
  0
VERTEX
  8
01
  5
15926
 10
16003.9
 20
-992.437
 30
0.000000
  70
    32
  0
VERTEX
  8
01
  5
15927
 10
16003.9
 20
-992.402
 30
0.000000
  70
    32
  0
VERTEX
  8
01
  5
15928
 10
16003.9
 20
-992.367
 30
0.000000
  70
    32
  0
VERTEX
  8
01
  5
15929
 10
16003.9
 20
-992.331
 30
0.000000
  70
    32
  0
VERTEX
  8
01
  5
1592A
 10
16003.9
 20
-992.295
 30
0.000000
  70
    32
  0
VERTEX
  8
01
  5
1592B
 10
16003.9
 20
-992.259
 30
0.000000
  70
    32
  0
VERTEX
  8
01
  5
1592C
 10
16003.8
 20
-992.222
 30
0.000000
  70
    32
  0
VERTEX
  8
01
  5
1592D
 10
16003.8
 20
-992.185
 30
0.000000
  70
    32
  0
VERTEX
  8
01
  5
1592E
 10
16003.8
 20
-992.148
 30
0.000000
  70
    32
  0
VERTEX
  8
01
  5
1592F
 10
16003.8
 20
-992.110
 30
0.000000
  70
    32
  0
VERTEX
  8
01
  5
15930
 10
16003.8
 20
-992.072
 30
0.000000
  70
    32
  0
VERTEX
  8
01
  5
15931
 10
16003.8
 20
-992.034
 30
0.000000
  70
    32
  0
VERTEX
  8
01
  5
15932
 10
16003.8
 20
-991.995
 30
0.000000
  70
    32
  0
VERTEX
  8
01
  5
15933
 10
16003.8
 20
-991.957
 30
0.000000
  70
    32
  0
VERTEX
  8
01
  5
15934
 10
16003.8
 20
-991.918
 30
0.000000
  70
    32
  0
VERTEX
  8
01
  5
15935
 10
16003.8
 20
-991.878
 30
0.000000
  70
    32
  0
VERTEX
  8
01
  5
15936
 10
16003.8
 20
-991.839
 30
0.000000
  70
    32
  0
VERTEX
  8
01
  5
15937
 10
16003.8
 20
-991.799
 30
0.000000
  70
    32
  0
VERTEX
  8
01
  5
15938
 10
16003.8
 20
-991.760
 30
0.000000
  70
    32
  0
VERTEX
  8
01
  5
15939
 10
16003.8
 20
-991.720
 30
0.000000
  70
    32
  0
VERTEX
  8
01
  5
1593A
 10
16003.8
 20
-991.679
 30
0.000000
  70
    32
  0
VERTEX
  8
01
  5
1593B
 10
16003.8
 20
-991.639
 30
0.000000
  70
    32
  0
VERTEX
  8
01
  5
1593C
 10
16003.8
 20
-991.599
 30
0.000000
  70
    32
  0
VERTEX
  8
01
  5
1593D
 10
16003.8
 20
-991.558
 30
0.000000
  70
    32
  0
VERTEX
  8
01
  5
1593E
 10
16003.8
 20
-991.517
 30
0.000000
  70
    32
  0
VERTEX
  8
01
  5
1593F
 10
16003.8
 20
-991.476
 30
0.000000
  70
    32
  0
VERTEX
  8
01
  5
15940
 10
16003.8
 20
-991.435
 30
0.000000
  70
    32
  0
VERTEX
  8
01
  5
15941
 10
16003.8
 20
-991.394
 30
0.000000
  70
    32
  0
VERTEX
  8
01
  5
15942
 10
16003.8
 20
-991.353
 30
0.000000
  70
    32
  0
VERTEX
  8
01
  5
15943
 10
16003.8
 20
-991.312
 30
0.000000
  70
    32
  0
VERTEX
  8
01
  5
15944
 10
16003.8
 20
-991.271
 30
0.000000
  70
    32
  0
VERTEX
  8
01
  5
15945
 10
16003.8
 20
-991.229
 30
0.000000
  70
    32
  0
VERTEX
  8
01
  5
15946
 10
16003.8
 20
-991.188
 30
0.000000
  70
    32
  0
VERTEX
  8
01
  5
15947
 10
16003.8
 20
-991.147
 30
0.000000
  70
    32
  0
VERTEX
  8
01
  5
15948
 10
16003.8
 20
-991.105
 30
0.000000
  70
    32
  0
VERTEX
  8
01
  5
15949
 10
16003.8
 20
-991.064
 30
0.000000
  70
    32
  0
VERTEX
  8
01
  5
1594A
 10
16003.8
 20
-991.023
 30
0.000000
  70
    32
  0
VERTEX
  8
01
  5
1594B
 10
16003.8
 20
-990.981
 30
0.000000
  70
    32
  0
VERTEX
  8
01
  5
1594C
 10
16003.8
 20
-990.940
 30
0.000000
  70
    32
  0
VERTEX
  8
01
  5
1594D
 10
16003.8
 20
-990.899
 30
0.000000
  70
    32
  0
VERTEX
  8
01
  5
1594E
 10
16003.8
 20
-990.858
 30
0.000000
  70
    32
  0
VERTEX
  8
01
  5
1594F
 10
16003.8
 20
-990.817
 30
0.000000
  70
    32
  0
VERTEX
  8
01
  5
15950
 10
16003.8
 20
-990.776
 30
0.000000
  70
    32
  0
VERTEX
  8
01
  5
15951
 10
16003.8
 20
-990.736
 30
0.000000
  70
    32
  0
VERTEX
  8
01
  5
15952
 10
16003.8
 20
-990.695
 30
0.000000
  70
    32
  0
VERTEX
  8
01
  5
15953
 10
16003.8
 20
-990.654
 30
0.000000
  70
    32
  0
VERTEX
  8
01
  5
15954
 10
16003.8
 20
-990.614
 30
0.000000
  70
    32
  0
VERTEX
  8
01
  5
15955
 10
16003.8
 20
-990.574
 30
0.000000
  70
    32
  0
VERTEX
  8
01
  5
15956
 10
16003.8
 20
-990.534
 30
0.000000
  70
    32
  0
VERTEX
  8
01
  5
15957
 10
16003.8
 20
-990.494
 30
0.000000
  70
    32
  0
VERTEX
  8
01
  5
15958
 10
16003.8
 20
-990.455
 30
0.000000
  70
    32
  0
VERTEX
  8
01
  5
15959
 10
16003.8
 20
-990.415
 30
0.000000
  70
    32
  0
VERTEX
  8
01
  5
1595A
 10
16003.8
 20
-990.376
 30
0.000000
  70
    32
  0
VERTEX
  8
01
  5
1595B
 10
16003.8
 20
-990.337
 30
0.000000
  70
    32
  0
VERTEX
  8
01
  5
1595C
 10
16003.8
 20
-990.298
 30
0.000000
  70
    32
  0
VERTEX
  8
01
  5
1595D
 10
16003.8
 20
-990.260
 30
0.000000
  70
    32
  0
VERTEX
  8
01
  5
1595E
 10
16003.8
 20
-990.222
 30
0.000000
  70
    32
  0
VERTEX
  8
01
  5
1595F
 10
16003.8
 20
-990.184
 30
0.000000
  70
    32
  0
VERTEX
  8
01
  5
15960
 10
16003.8
 20
-990.146
 30
0.000000
  70
    32
  0
VERTEX
  8
01
  5
15961
 10
16003.8
 20
-990.109
 30
0.000000
  70
    32
  0
VERTEX
  8
01
  5
15962
 10
16003.8
 20
-990.072
 30
0.000000
  70
    32
  0
VERTEX
  8
01
  5
15963
 10
16003.9
 20
-990.035
 30
0.000000
  70
    32
  0
VERTEX
  8
01
  5
15964
 10
16003.9
 20
-989.999
 30
0.000000
  70
    32
  0
VERTEX
  8
01
  5
15965
 10
16003.9
 20
-989.963
 30
0.000000
  70
    32
  0
VERTEX
  8
01
  5
15966
 10
16003.9
 20
-989.928
 30
0.000000
  70
    32
  0
VERTEX
  8
01
  5
15967
 10
16003.9
 20
-989.892
 30
0.000000
  70
    32
  0
VERTEX
  8
01
  5
15968
 10
16003.9
 20
-989.858
 30
0.000000
  70
    32
  0
VERTEX
  8
01
  5
15969
 10
16003.9
 20
-989.823
 30
0.000000
  70
    32
  0
VERTEX
  8
01
  5
1596A
 10
16003.9
 20
-989.789
 30
0.000000
  70
    32
  0
VERTEX
  8
01
  5
1596B
 10
16003.9
 20
-989.756
 30
0.000000
  70
    32
  0
VERTEX
  8
01
  5
1596C
 10
16003.9
 20
-989.722
 30
0.000000
  70
    32
  0
VERTEX
  8
01
  5
1596D
 10
16003.9
 20
-989.690
 30
0.000000
  70
    32
  0
SEQEND
  8
01
  5
1596E
  0
POLYLINE
  5
152CC
  8
01
 10
16012.150400740127
 20
-989.08216236670967
 30
0.0
 66
     1
 70
     8
  0
VERTEX
  8
01
  5
1596F
 10
16012.2
 20
-989.082
 30
0.000000
  70
    32
  0
VERTEX
  8
01
  5
15970
 10
16012.2
 20
-989.106
 30
0.000000
  70
    32
  0
VERTEX
  8
01
  5
15971
 10
16012.2
 20
-989.131
 30
0.000000
  70
    32
  0
VERTEX
  8
01
  5
15972
 10
16012.2
 20
-989.157
 30
0.000000
  70
    32
  0
VERTEX
  8
01
  5
15973
 10
16012.2
 20
-989.184
 30
0.000000
  70
    32
  0
VERTEX
  8
01
  5
15974
 10
16012.2
 20
-989.211
 30
0.000000
  70
    32
  0
VERTEX
  8
01
  5
15975
 10
16012.2
 20
-989.239
 30
0.000000
  70
    32
  0
VERTEX
  8
01
  5
15976
 10
16012.2
 20
-989.269
 30
0.000000
  70
    32
  0
VERTEX
  8
01
  5
15977
 10
16012.2
 20
-989.299
 30
0.000000
  70
    32
  0
VERTEX
  8
01
  5
15978
 10
16012.2
 20
-989.329
 30
0.000000
  70
    32
  0
VERTEX
  8
01
  5
15979
 10
16012.2
 20
-989.361
 30
0.000000
  70
    32
  0
VERTEX
  8
01
  5
1597A
 10
16012.2
 20
-989.393
 30
0.000000
  70
    32
  0
VERTEX
  8
01
  5
1597B
 10
16012.3
 20
-989.426
 30
0.000000
  70
    32
  0
VERTEX
  8
01
  5
1597C
 10
16012.3
 20
-989.460
 30
0.000000
  70
    32
  0
VERTEX
  8
01
  5
1597D
 10
16012.3
 20
-989.494
 30
0.000000
  70
    32
  0
VERTEX
  8
01
  5
1597E
 10
16012.3
 20
-989.529
 30
0.000000
  70
    32
  0
VERTEX
  8
01
  5
1597F
 10
16012.3
 20
-989.565
 30
0.000000
  70
    32
  0
VERTEX
  8
01
  5
15980
 10
16012.3
 20
-989.601
 30
0.000000
  70
    32
  0
VERTEX
  8
01
  5
15981
 10
16012.3
 20
-989.639
 30
0.000000
  70
    32
  0
VERTEX
  8
01
  5
15982
 10
16012.3
 20
-989.676
 30
0.000000
  70
    32
  0
VERTEX
  8
01
  5
15983
 10
16012.3
 20
-989.715
 30
0.000000
  70
    32
  0
VERTEX
  8
01
  5
15984
 10
16012.3
 20
-989.754
 30
0.000000
  70
    32
  0
VERTEX
  8
01
  5
15985
 10
16012.3
 20
-989.793
 30
0.000000
  70
    32
  0
VERTEX
  8
01
  5
15986
 10
16012.3
 20
-989.833
 30
0.000000
  70
    32
  0
VERTEX
  8
01
  5
15987
 10
16012.3
 20
-989.874
 30
0.000000
  70
    32
  0
VERTEX
  8
01
  5
15988
 10
16012.3
 20
-989.915
 30
0.000000
  70
    32
  0
VERTEX
  8
01
  5
15989
 10
16012.4
 20
-989.957
 30
0.000000
  70
    32
  0
VERTEX
  8
01
  5
1598A
 10
16012.4
 20
-990.000
 30
0.000000
  70
    32
  0
VERTEX
  8
01
  5
1598B
 10
16012.4
 20
-990.042
 30
0.000000
  70
    32
  0
VERTEX
  8
01
  5
1598C
 10
16012.4
 20
-990.086
 30
0.000000
  70
    32
  0
VERTEX
  8
01
  5
1598D
 10
16012.4
 20
-990.129
 30
0.000000
  70
    32
  0
VERTEX
  8
01
  5
1598E
 10
16012.4
 20
-990.173
 30
0.000000
  70
    32
  0
VERTEX
  8
01
  5
1598F
 10
16012.4
 20
-990.218
 30
0.000000
  70
    32
  0
VERTEX
  8
01
  5
15990
 10
16012.4
 20
-990.263
 30
0.000000
  70
    32
  0
VERTEX
  8
01
  5
15991
 10
16012.4
 20
-990.308
 30
0.000000
  70
    32
  0
VERTEX
  8
01
  5
15992
 10
16012.4
 20
-990.354
 30
0.000000
  70
    32
  0
VERTEX
  8
01
  5
15993
 10
16012.4
 20
-990.400
 30
0.000000
  70
    32
  0
VERTEX
  8
01
  5
15994
 10
16012.4
 20
-990.446
 30
0.000000
  70
    32
  0
VERTEX
  8
01
  5
15995
 10
16012.4
 20
-990.493
 30
0.000000
  70
    32
  0
VERTEX
  8
01
  5
15996
 10
16012.4
 20
-990.540
 30
0.000000
  70
    32
  0
VERTEX
  8
01
  5
15997
 10
16012.4
 20
-990.587
 30
0.000000
  70
    32
  0
VERTEX
  8
01
  5
15998
 10
16012.4
 20
-990.634
 30
0.000000
  70
    32
  0
VERTEX
  8
01
  5
15999
 10
16012.4
 20
-990.682
 30
0.000000
  70
    32
  0
VERTEX
  8
01
  5
1599A
 10
16012.4
 20
-990.730
 30
0.000000
  70
    32
  0
VERTEX
  8
01
  5
1599B
 10
16012.4
 20
-990.778
 30
0.000000
  70
    32
  0
VERTEX
  8
01
  5
1599C
 10
16012.4
 20
-990.826
 30
0.000000
  70
    32
  0
VERTEX
  8
01
  5
1599D
 10
16012.4
 20
-990.874
 30
0.000000
  70
    32
  0
VERTEX
  8
01
  5
1599E
 10
16012.4
 20
-990.923
 30
0.000000
  70
    32
  0
VERTEX
  8
01
  5
1599F
 10
16012.4
 20
-990.971
 30
0.000000
  70
    32
  0
VERTEX
  8
01
  5
159A0
 10
16012.4
 20
-991.020
 30
0.000000
  70
    32
  0
VERTEX
  8
01
  5
159A1
 10
16012.4
 20
-991.068
 30
0.000000
  70
    32
  0
VERTEX
  8
01
  5
159A2
 10
16012.4
 20
-991.117
 30
0.000000
  70
    32
  0
VERTEX
  8
01
  5
159A3
 10
16012.4
 20
-991.166
 30
0.000000
  70
    32
  0
VERTEX
  8
01
  5
159A4
 10
16012.4
 20
-991.214
 30
0.000000
  70
    32
  0
VERTEX
  8
01
  5
159A5
 10
16012.4
 20
-991.263
 30
0.000000
  70
    32
  0
VERTEX
  8
01
  5
159A6
 10
16012.4
 20
-991.312
 30
0.000000
  70
    32
  0
VERTEX
  8
01
  5
159A7
 10
16012.4
 20
-991.360
 30
0.000000
  70
    32
  0
VERTEX
  8
01
  5
159A8
 10
16012.4
 20
-991.409
 30
0.000000
  70
    32
  0
VERTEX
  8
01
  5
159A9
 10
16012.4
 20
-991.457
 30
0.000000
  70
    32
  0
VERTEX
  8
01
  5
159AA
 10
16012.4
 20
-991.505
 30
0.000000
  70
    32
  0
VERTEX
  8
01
  5
159AB
 10
16012.4
 20
-991.553
 30
0.000000
  70
    32
  0
VERTEX
  8
01
  5
159AC
 10
16012.4
 20
-991.601
 30
0.000000
  70
    32
  0
VERTEX
  8
01
  5
159AD
 10
16012.4
 20
-991.649
 30
0.000000
  70
    32
  0
VERTEX
  8
01
  5
159AE
 10
16012.4
 20
-991.696
 30
0.000000
  70
    32
  0
VERTEX
  8
01
  5
159AF
 10
16012.4
 20
-991.744
 30
0.000000
  70
    32
  0
VERTEX
  8
01
  5
159B0
 10
16012.4
 20
-991.791
 30
0.000000
  70
    32
  0
VERTEX
  8
01
  5
159B1
 10
16012.4
 20
-991.837
 30
0.000000
  70
    32
  0
VERTEX
  8
01
  5
159B2
 10
16012.4
 20
-991.884
 30
0.000000
  70
    32
  0
VERTEX
  8
01
  5
159B3
 10
16012.4
 20
-991.930
 30
0.000000
  70
    32
  0
VERTEX
  8
01
  5
159B4
 10
16012.4
 20
-991.976
 30
0.000000
  70
    32
  0
VERTEX
  8
01
  5
159B5
 10
16012.4
 20
-992.021
 30
0.000000
  70
    32
  0
VERTEX
  8
01
  5
159B6
 10
16012.4
 20
-992.066
 30
0.000000
  70
    32
  0
VERTEX
  8
01
  5
159B7
 10
16012.4
 20
-992.111
 30
0.000000
  70
    32
  0
VERTEX
  8
01
  5
159B8
 10
16012.4
 20
-992.155
 30
0.000000
  70
    32
  0
VERTEX
  8
01
  5
159B9
 10
16012.4
 20
-992.199
 30
0.000000
  70
    32
  0
VERTEX
  8
01
  5
159BA
 10
16012.4
 20
-992.242
 30
0.000000
  70
    32
  0
VERTEX
  8
01
  5
159BB
 10
16012.4
 20
-992.285
 30
0.000000
  70
    32
  0
VERTEX
  8
01
  5
159BC
 10
16012.4
 20
-992.328
 30
0.000000
  70
    32
  0
VERTEX
  8
01
  5
159BD
 10
16012.3
 20
-992.370
 30
0.000000
  70
    32
  0
VERTEX
  8
01
  5
159BE
 10
16012.3
 20
-992.411
 30
0.000000
  70
    32
  0
VERTEX
  8
01
  5
159BF
 10
16012.3
 20
-992.452
 30
0.000000
  70
    32
  0
VERTEX
  8
01
  5
159C0
 10
16012.3
 20
-992.493
 30
0.000000
  70
    32
  0
VERTEX
  8
01
  5
159C1
 10
16012.3
 20
-992.532
 30
0.000000
  70
    32
  0
VERTEX
  8
01
  5
159C2
 10
16012.3
 20
-992.572
 30
0.000000
  70
    32
  0
VERTEX
  8
01
  5
159C3
 10
16012.3
 20
-992.610
 30
0.000000
  70
    32
  0
VERTEX
  8
01
  5
159C4
 10
16012.3
 20
-992.648
 30
0.000000
  70
    32
  0
VERTEX
  8
01
  5
159C5
 10
16012.3
 20
-992.686
 30
0.000000
  70
    32
  0
VERTEX
  8
01
  5
159C6
 10
16012.3
 20
-992.722
 30
0.000000
  70
    32
  0
VERTEX
  8
01
  5
159C7
 10
16012.3
 20
-992.758
 30
0.000000
  70
    32
  0
VERTEX
  8
01
  5
159C8
 10
16012.3
 20
-992.794
 30
0.000000
  70
    32
  0
VERTEX
  8
01
  5
159C9
 10
16012.3
 20
-992.828
 30
0.000000
  70
    32
  0
VERTEX
  8
01
  5
159CA
 10
16012.3
 20
-992.862
 30
0.000000
  70
    32
  0
VERTEX
  8
01
  5
159CB
 10
16012.3
 20
-992.896
 30
0.000000
  70
    32
  0
VERTEX
  8
01
  5
159CC
 10
16012.2
 20
-992.928
 30
0.000000
  70
    32
  0
VERTEX
  8
01
  5
159CD
 10
16012.2
 20
-992.960
 30
0.000000
  70
    32
  0
VERTEX
  8
01
  5
159CE
 10
16012.2
 20
-992.991
 30
0.000000
  70
    32
  0
VERTEX
  8
01
  5
159CF
 10
16012.2
 20
-993.021
 30
0.000000
  70
    32
  0
VERTEX
  8
01
  5
159D0
 10
16012.2
 20
-993.050
 30
0.000000
  70
    32
  0
VERTEX
  8
01
  5
159D1
 10
16012.2
 20
-993.079
 30
0.000000
  70
    32
  0
VERTEX
  8
01
  5
159D2
 10
16012.2
 20
-993.107
 30
0.000000
  70
    32
  0
VERTEX
  8
01
  5
159D3
 10
16012.2
 20
-993.134
 30
0.000000
  70
    32
  0
VERTEX
  8
01
  5
159D4
 10
16012.2
 20
-993.160
 30
0.000000
  70
    32
  0
VERTEX
  8
01
  5
159D5
 10
16012.2
 20
-993.185
 30
0.000000
  70
    32
  0
VERTEX
  8
01
  5
159D6
 10
16012.2
 20
-993.209
 30
0.000000
  70
    32
  0
VERTEX
  8
01
  5
159D7
 10
16012.1
 20
-993.233
 30
0.000000
  70
    32
  0
VERTEX
  8
01
  5
159D8
 10
16012.1
 20
-993.256
 30
0.000000
  70
    32
  0
VERTEX
  8
01
  5
159D9
 10
16012.1
 20
-993.277
 30
0.000000
  70
    32
  0
VERTEX
  8
01
  5
159DA
 10
16012.1
 20
-993.298
 30
0.000000
  70
    32
  0
VERTEX
  8
01
  5
159DB
 10
16012.1
 20
-993.318
 30
0.000000
  70
    32
  0
VERTEX
  8
01
  5
159DC
 10
16012.1
 20
-993.337
 30
0.000000
  70
    32
  0
VERTEX
  8
01
  5
159DD
 10
16012.1
 20
-993.355
 30
0.000000
  70
    32
  0
VERTEX
  8
01
  5
159DE
 10
16012.1
 20
-993.372
 30
0.000000
  70
    32
  0
VERTEX
  8
01
  5
159DF
 10
16012.1
 20
-993.389
 30
0.000000
  70
    32
  0
VERTEX
  8
01
  5
159E0
 10
16012.1
 20
-993.404
 30
0.000000
  70
    32
  0
VERTEX
  8
01
  5
159E1
 10
16012.0
 20
-993.418
 30
0.000000
  70
    32
  0
VERTEX
  8
01
  5
159E2
 10
16012.0
 20
-993.431
 30
0.000000
  70
    32
  0
VERTEX
  8
01
  5
159E3
 10
16012.0
 20
-993.444
 30
0.000000
  70
    32
  0
VERTEX
  8
01
  5
159E4
 10
16012.0
 20
-993.455
 30
0.000000
  70
    32
  0
VERTEX
  8
01
  5
159E5
 10
16012.0
 20
-993.466
 30
0.000000
  70
    32
  0
VERTEX
  8
01
  5
159E6
 10
16012.0
 20
-993.475
 30
0.000000
  70
    32
  0
VERTEX
  8
01
  5
159E7
 10
16012.0
 20
-993.484
 30
0.000000
  70
    32
  0
VERTEX
  8
01
  5
159E8
 10
16012.0
 20
-993.491
 30
0.000000
  70
    32
  0
VERTEX
  8
01
  5
159E9
 10
16012.0
 20
-993.498
 30
0.000000
  70
    32
  0
VERTEX
  8
01
  5
159EA
 10
16011.9
 20
-993.503
 30
0.000000
  70
    32
  0
VERTEX
  8
01
  5
159EB
 10
16011.9
 20
-993.508
 30
0.000000
  70
    32
  0
VERTEX
  8
01
  5
159EC
 10
16011.9
 20
-993.511
 30
0.000000
  70
    32
  0
VERTEX
  8
01
  5
159ED
 10
16011.9
 20
-993.514
 30
0.000000
  70
    32
  0
VERTEX
  8
01
  5
159EE
 10
16011.9
 20
-993.515
 30
0.000000
  70
    32
  0
VERTEX
  8
01
  5
159EF
 10
16011.9
 20
-993.516
 30
0.000000
  70
    32
  0
SEQEND
  8
01
  5
159F0
  0
POLYLINE
  5
152CD
  8
01
 10
16011.89145393748
 20
-998.05561741568101
 30
0.0
 66
     1
 70
     8
  0
VERTEX
  8
01
  5
159F1
 10
16011.9
 20
-998.056
 30
0.000000
  70
    32
  0
VERTEX
  8
01
  5
159F2
 10
16011.9
 20
-998.056
 30
0.000000
  70
    32
  0
VERTEX
  8
01
  5
159F3
 10
16011.9
 20
-998.057
 30
0.000000
  70
    32
  0
VERTEX
  8
01
  5
159F4
 10
16011.9
 20
-998.059
 30
0.000000
  70
    32
  0
VERTEX
  8
01
  5
159F5
 10
16011.9
 20
-998.061
 30
0.000000
  70
    32
  0
VERTEX
  8
01
  5
159F6
 10
16011.9
 20
-998.064
 30
0.000000
  70
    32
  0
VERTEX
  8
01
  5
159F7
 10
16011.9
 20
-998.068
 30
0.000000
  70
    32
  0
VERTEX
  8
01
  5
159F8
 10
16011.9
 20
-998.072
 30
0.000000
  70
    32
  0
VERTEX
  8
01
  5
159F9
 10
16011.9
 20
-998.077
 30
0.000000
  70
    32
  0
VERTEX
  8
01
  5
159FA
 10
16012.0
 20
-998.083
 30
0.000000
  70
    32
  0
VERTEX
  8
01
  5
159FB
 10
16012.0
 20
-998.089
 30
0.000000
  70
    32
  0
VERTEX
  8
01
  5
159FC
 10
16012.0
 20
-998.096
 30
0.000000
  70
    32
  0
VERTEX
  8
01
  5
159FD
 10
16012.0
 20
-998.104
 30
0.000000
  70
    32
  0
VERTEX
  8
01
  5
159FE
 10
16012.0
 20
-998.112
 30
0.000000
  70
    32
  0
VERTEX
  8
01
  5
159FF
 10
16012.0
 20
-998.122
 30
0.000000
  70
    32
  0
VERTEX
  8
01
  5
15A00
 10
16012.0
 20
-998.131
 30
0.000000
  70
    32
  0
VERTEX
  8
01
  5
15A01
 10
16012.0
 20
-998.142
 30
0.000000
  70
    32
  0
VERTEX
  8
01
  5
15A02
 10
16012.0
 20
-998.153
 30
0.000000
  70
    32
  0
VERTEX
  8
01
  5
15A03
 10
16012.0
 20
-998.164
 30
0.000000
  70
    32
  0
VERTEX
  8
01
  5
15A04
 10
16012.0
 20
-998.177
 30
0.000000
  70
    32
  0
VERTEX
  8
01
  5
15A05
 10
16012.0
 20
-998.190
 30
0.000000
  70
    32
  0
VERTEX
  8
01
  5
15A06
 10
16012.0
 20
-998.204
 30
0.000000
  70
    32
  0
VERTEX
  8
01
  5
15A07
 10
16012.0
 20
-998.218
 30
0.000000
  70
    32
  0
VERTEX
  8
01
  5
15A08
 10
16012.0
 20
-998.233
 30
0.000000
  70
    32
  0
VERTEX
  8
01
  5
15A09
 10
16012.0
 20
-998.248
 30
0.000000
  70
    32
  0
VERTEX
  8
01
  5
15A0A
 10
16012.1
 20
-998.265
 30
0.000000
  70
    32
  0
VERTEX
  8
01
  5
15A0B
 10
16012.1
 20
-998.282
 30
0.000000
  70
    32
  0
VERTEX
  8
01
  5
15A0C
 10
16012.1
 20
-998.299
 30
0.000000
  70
    32
  0
VERTEX
  8
01
  5
15A0D
 10
16012.1
 20
-998.317
 30
0.000000
  70
    32
  0
VERTEX
  8
01
  5
15A0E
 10
16012.1
 20
-998.336
 30
0.000000
  70
    32
  0
VERTEX
  8
01
  5
15A0F
 10
16012.1
 20
-998.356
 30
0.000000
  70
    32
  0
VERTEX
  8
01
  5
15A10
 10
16012.1
 20
-998.376
 30
0.000000
  70
    32
  0
VERTEX
  8
01
  5
15A11
 10
16012.1
 20
-998.397
 30
0.000000
  70
    32
  0
VERTEX
  8
01
  5
15A12
 10
16012.1
 20
-998.418
 30
0.000000
  70
    32
  0
VERTEX
  8
01
  5
15A13
 10
16012.1
 20
-998.440
 30
0.000000
  70
    32
  0
VERTEX
  8
01
  5
15A14
 10
16012.1
 20
-998.462
 30
0.000000
  70
    32
  0
VERTEX
  8
01
  5
15A15
 10
16012.1
 20
-998.486
 30
0.000000
  70
    32
  0
VERTEX
  8
01
  5
15A16
 10
16012.1
 20
-998.509
 30
0.000000
  70
    32
  0
VERTEX
  8
01
  5
15A17
 10
16012.1
 20
-998.534
 30
0.000000
  70
    32
  0
VERTEX
  8
01
  5
15A18
 10
16012.1
 20
-998.559
 30
0.000000
  70
    32
  0
VERTEX
  8
01
  5
15A19
 10
16012.1
 20
-998.584
 30
0.000000
  70
    32
  0
VERTEX
  8
01
  5
15A1A
 10
16012.1
 20
-998.611
 30
0.000000
  70
    32
  0
VERTEX
  8
01
  5
15A1B
 10
16012.2
 20
-998.637
 30
0.000000
  70
    32
  0
VERTEX
  8
01
  5
15A1C
 10
16012.2
 20
-998.665
 30
0.000000
  70
    32
  0
VERTEX
  8
01
  5
15A1D
 10
16012.2
 20
-998.693
 30
0.000000
  70
    32
  0
VERTEX
  8
01
  5
15A1E
 10
16012.2
 20
-998.721
 30
0.000000
  70
    32
  0
VERTEX
  8
01
  5
15A1F
 10
16012.2
 20
-998.751
 30
0.000000
  70
    32
  0
VERTEX
  8
01
  5
15A20
 10
16012.2
 20
-998.780
 30
0.000000
  70
    32
  0
VERTEX
  8
01
  5
15A21
 10
16012.2
 20
-998.810
 30
0.000000
  70
    32
  0
VERTEX
  8
01
  5
15A22
 10
16012.2
 20
-998.841
 30
0.000000
  70
    32
  0
VERTEX
  8
01
  5
15A23
 10
16012.2
 20
-998.873
 30
0.000000
  70
    32
  0
VERTEX
  8
01
  5
15A24
 10
16012.2
 20
-998.905
 30
0.000000
  70
    32
  0
VERTEX
  8
01
  5
15A25
 10
16012.2
 20
-998.937
 30
0.000000
  70
    32
  0
VERTEX
  8
01
  5
15A26
 10
16012.2
 20
-998.970
 30
0.000000
  70
    32
  0
VERTEX
  8
01
  5
15A27
 10
16012.2
 20
-999.004
 30
0.000000
  70
    32
  0
VERTEX
  8
01
  5
15A28
 10
16012.2
 20
-999.038
 30
0.000000
  70
    32
  0
VERTEX
  8
01
  5
15A29
 10
16012.2
 20
-999.072
 30
0.000000
  70
    32
  0
VERTEX
  8
01
  5
15A2A
 10
16012.2
 20
-999.107
 30
0.000000
  70
    32
  0
VERTEX
  8
01
  5
15A2B
 10
16012.2
 20
-999.143
 30
0.000000
  70
    32
  0
VERTEX
  8
01
  5
15A2C
 10
16012.2
 20
-999.179
 30
0.000000
  70
    32
  0
VERTEX
  8
01
  5
15A2D
 10
16012.2
 20
-999.216
 30
0.000000
  70
    32
  0
VERTEX
  8
01
  5
15A2E
 10
16012.3
 20
-999.253
 30
0.000000
  70
    32
  0
VERTEX
  8
01
  5
15A2F
 10
16012.3
 20
-999.291
 30
0.000000
  70
    32
  0
VERTEX
  8
01
  5
15A30
 10
16012.3
 20
-999.329
 30
0.000000
  70
    32
  0
VERTEX
  8
01
  5
15A31
 10
16012.3
 20
-999.367
 30
0.000000
  70
    32
  0
VERTEX
  8
01
  5
15A32
 10
16012.3
 20
-999.407
 30
0.000000
  70
    32
  0
VERTEX
  8
01
  5
15A33
 10
16012.3
 20
-999.446
 30
0.000000
  70
    32
  0
VERTEX
  8
01
  5
15A34
 10
16012.3
 20
-999.486
 30
0.000000
  70
    32
  0
VERTEX
  8
01
  5
15A35
 10
16012.3
 20
-999.527
 30
0.000000
  70
    32
  0
VERTEX
  8
01
  5
15A36
 10
16012.3
 20
-999.568
 30
0.000000
  70
    32
  0
VERTEX
  8
01
  5
15A37
 10
16012.3
 20
-999.609
 30
0.000000
  70
    32
  0
VERTEX
  8
01
  5
15A38
 10
16012.3
 20
-999.651
 30
0.000000
  70
    32
  0
VERTEX
  8
01
  5
15A39
 10
16012.3
 20
-999.693
 30
0.000000
  70
    32
  0
VERTEX
  8
01
  5
15A3A
 10
16012.3
 20
-999.736
 30
0.000000
  70
    32
  0
VERTEX
  8
01
  5
15A3B
 10
16012.3
 20
-999.779
 30
0.000000
  70
    32
  0
VERTEX
  8
01
  5
15A3C
 10
16012.3
 20
-999.823
 30
0.000000
  70
    32
  0
VERTEX
  8
01
  5
15A3D
 10
16012.3
 20
-999.866
 30
0.000000
  70
    32
  0
VERTEX
  8
01
  5
15A3E
 10
16012.3
 20
-999.911
 30
0.000000
  70
    32
  0
VERTEX
  8
01
  5
15A3F
 10
16012.3
 20
-999.956
 30
0.000000
  70
    32
  0
VERTEX
  8
01
  5
15A40
 10
16012.3
 20
-1000.00
 30
0.000000
  70
    32
  0
VERTEX
  8
01
  5
15A41
 10
16012.3
 20
-1000.05
 30
0.000000
  70
    32
  0
VERTEX
  8
01
  5
15A42
 10
16012.3
 20
-1000.09
 30
0.000000
  70
    32
  0
VERTEX
  8
01
  5
15A43
 10
16012.3
 20
-1000.14
 30
0.000000
  70
    32
  0
VERTEX
  8
01
  5
15A44
 10
16012.3
 20
-1000.18
 30
0.000000
  70
    32
  0
VERTEX
  8
01
  5
15A45
 10
16012.3
 20
-1000.23
 30
0.000000
  70
    32
  0
VERTEX
  8
01
  5
15A46
 10
16012.4
 20
-1000.28
 30
0.000000
  70
    32
  0
VERTEX
  8
01
  5
15A47
 10
16012.4
 20
-1000.33
 30
0.000000
  70
    32
  0
VERTEX
  8
01
  5
15A48
 10
16012.4
 20
-1000.37
 30
0.000000
  70
    32
  0
VERTEX
  8
01
  5
15A49
 10
16012.4
 20
-1000.42
 30
0.000000
  70
    32
  0
VERTEX
  8
01
  5
15A4A
 10
16012.4
 20
-1000.47
 30
0.000000
  70
    32
  0
VERTEX
  8
01
  5
15A4B
 10
16012.4
 20
-1000.52
 30
0.000000
  70
    32
  0
VERTEX
  8
01
  5
15A4C
 10
16012.4
 20
-1000.57
 30
0.000000
  70
    32
  0
VERTEX
  8
01
  5
15A4D
 10
16012.4
 20
-1000.62
 30
0.000000
  70
    32
  0
VERTEX
  8
01
  5
15A4E
 10
16012.4
 20
-1000.67
 30
0.000000
  70
    32
  0
VERTEX
  8
01
  5
15A4F
 10
16012.4
 20
-1000.72
 30
0.000000
  70
    32
  0
VERTEX
  8
01
  5
15A50
 10
16012.4
 20
-1000.77
 30
0.000000
  70
    32
  0
VERTEX
  8
01
  5
15A51
 10
16012.4
 20
-1000.82
 30
0.000000
  70
    32
  0
VERTEX
  8
01
  5
15A52
 10
16012.4
 20
-1000.87
 30
0.000000
  70
    32
  0
VERTEX
  8
01
  5
15A53
 10
16012.4
 20
-1000.92
 30
0.000000
  70
    32
  0
VERTEX
  8
01
  5
15A54
 10
16012.4
 20
-1000.97
 30
0.000000
  70
    32
  0
VERTEX
  8
01
  5
15A55
 10
16012.4
 20
-1001.03
 30
0.000000
  70
    32
  0
VERTEX
  8
01
  5
15A56
 10
16012.4
 20
-1001.08
 30
0.000000
  70
    32
  0
VERTEX
  8
01
  5
15A57
 10
16012.4
 20
-1001.13
 30
0.000000
  70
    32
  0
VERTEX
  8
01
  5
15A58
 10
16012.4
 20
-1001.18
 30
0.000000
  70
    32
  0
VERTEX
  8
01
  5
15A59
 10
16012.4
 20
-1001.23
 30
0.000000
  70
    32
  0
VERTEX
  8
01
  5
15A5A
 10
16012.4
 20
-1001.29
 30
0.000000
  70
    32
  0
VERTEX
  8
01
  5
15A5B
 10
16012.4
 20
-1001.34
 30
0.000000
  70
    32
  0
VERTEX
  8
01
  5
15A5C
 10
16012.4
 20
-1001.39
 30
0.000000
  70
    32
  0
VERTEX
  8
01
  5
15A5D
 10
16012.4
 20
-1001.45
 30
0.000000
  70
    32
  0
VERTEX
  8
01
  5
15A5E
 10
16012.4
 20
-1001.50
 30
0.000000
  70
    32
  0
VERTEX
  8
01
  5
15A5F
 10
16012.4
 20
-1001.55
 30
0.000000
  70
    32
  0
VERTEX
  8
01
  5
15A60
 10
16012.4
 20
-1001.61
 30
0.000000
  70
    32
  0
VERTEX
  8
01
  5
15A61
 10
16012.4
 20
-1001.66
 30
0.000000
  70
    32
  0
VERTEX
  8
01
  5
15A62
 10
16012.4
 20
-1001.71
 30
0.000000
  70
    32
  0
VERTEX
  8
01
  5
15A63
 10
16012.4
 20
-1001.77
 30
0.000000
  70
    32
  0
VERTEX
  8
01
  5
15A64
 10
16012.4
 20
-1001.82
 30
0.000000
  70
    32
  0
VERTEX
  8
01
  5
15A65
 10
16012.4
 20
-1001.88
 30
0.000000
  70
    32
  0
VERTEX
  8
01
  5
15A66
 10
16012.4
 20
-1001.93
 30
0.000000
  70
    32
  0
VERTEX
  8
01
  5
15A67
 10
16012.4
 20
-1001.99
 30
0.000000
  70
    32
  0
VERTEX
  8
01
  5
15A68
 10
16012.4
 20
-1002.04
 30
0.000000
  70
    32
  0
VERTEX
  8
01
  5
15A69
 10
16012.4
 20
-1002.10
 30
0.000000
  70
    32
  0
VERTEX
  8
01
  5
15A6A
 10
16012.4
 20
-1002.15
 30
0.000000
  70
    32
  0
VERTEX
  8
01
  5
15A6B
 10
16012.4
 20
-1002.21
 30
0.000000
  70
    32
  0
VERTEX
  8
01
  5
15A6C
 10
16012.4
 20
-1002.26
 30
0.000000
  70
    32
  0
VERTEX
  8
01
  5
15A6D
 10
16012.4
 20
-1002.31
 30
0.000000
  70
    32
  0
VERTEX
  8
01
  5
15A6E
 10
16012.4
 20
-1002.37
 30
0.000000
  70
    32
  0
VERTEX
  8
01
  5
15A6F
 10
16012.4
 20
-1002.42
 30
0.000000
  70
    32
  0
VERTEX
  8
01
  5
15A70
 10
16012.4
 20
-1002.48
 30
0.000000
  70
    32
  0
VERTEX
  8
01
  5
15A71
 10
16012.4
 20
-1002.53
 30
0.000000
  70
    32
  0
SEQEND
  8
01
  5
15A72
  0
POLYLINE
  5
152CE
  8
01
 10
16003.752453937479
 20
-1002.5346174156811
 30
0.0
 66
     1
 70
     8
  0
VERTEX
  8
01
  5
15A73
 10
16003.8
 20
-1002.53
 30
0.000000
  70
    32
  0
VERTEX
  8
01
  5
15A74
 10
16003.8
 20
-1002.48
 30
0.000000
  70
    32
  0
VERTEX
  8
01
  5
15A75
 10
16003.8
 20
-1002.42
 30
0.000000
  70
    32
  0
VERTEX
  8
01
  5
15A76
 10
16003.8
 20
-1002.37
 30
0.000000
  70
    32
  0
VERTEX
  8
01
  5
15A77
 10
16003.8
 20
-1002.31
 30
0.000000
  70
    32
  0
VERTEX
  8
01
  5
15A78
 10
16003.8
 20
-1002.26
 30
0.000000
  70
    32
  0
VERTEX
  8
01
  5
15A79
 10
16003.8
 20
-1002.21
 30
0.000000
  70
    32
  0
VERTEX
  8
01
  5
15A7A
 10
16003.8
 20
-1002.15
 30
0.000000
  70
    32
  0
VERTEX
  8
01
  5
15A7B
 10
16003.8
 20
-1002.10
 30
0.000000
  70
    32
  0
VERTEX
  8
01
  5
15A7C
 10
16003.8
 20
-1002.04
 30
0.000000
  70
    32
  0
VERTEX
  8
01
  5
15A7D
 10
16003.8
 20
-1001.99
 30
0.000000
  70
    32
  0
VERTEX
  8
01
  5
15A7E
 10
16003.8
 20
-1001.93
 30
0.000000
  70
    32
  0
VERTEX
  8
01
  5
15A7F
 10
16003.8
 20
-1001.88
 30
0.000000
  70
    32
  0
VERTEX
  8
01
  5
15A80
 10
16003.8
 20
-1001.82
 30
0.000000
  70
    32
  0
VERTEX
  8
01
  5
15A81
 10
16003.8
 20
-1001.77
 30
0.000000
  70
    32
  0
VERTEX
  8
01
  5
15A82
 10
16003.8
 20
-1001.71
 30
0.000000
  70
    32
  0
VERTEX
  8
01
  5
15A83
 10
16003.8
 20
-1001.66
 30
0.000000
  70
    32
  0
VERTEX
  8
01
  5
15A84
 10
16003.8
 20
-1001.61
 30
0.000000
  70
    32
  0
VERTEX
  8
01
  5
15A85
 10
16003.8
 20
-1001.55
 30
0.000000
  70
    32
  0
VERTEX
  8
01
  5
15A86
 10
16003.8
 20
-1001.50
 30
0.000000
  70
    32
  0
VERTEX
  8
01
  5
15A87
 10
16003.8
 20
-1001.45
 30
0.000000
  70
    32
  0
VERTEX
  8
01
  5
15A88
 10
16003.8
 20
-1001.39
 30
0.000000
  70
    32
  0
VERTEX
  8
01
  5
15A89
 10
16003.8
 20
-1001.34
 30
0.000000
  70
    32
  0
VERTEX
  8
01
  5
15A8A
 10
16003.8
 20
-1001.29
 30
0.000000
  70
    32
  0
VERTEX
  8
01
  5
15A8B
 10
16003.8
 20
-1001.23
 30
0.000000
  70
    32
  0
VERTEX
  8
01
  5
15A8C
 10
16003.8
 20
-1001.18
 30
0.000000
  70
    32
  0
VERTEX
  8
01
  5
15A8D
 10
16003.8
 20
-1001.13
 30
0.000000
  70
    32
  0
VERTEX
  8
01
  5
15A8E
 10
16003.8
 20
-1001.08
 30
0.000000
  70
    32
  0
VERTEX
  8
01
  5
15A8F
 10
16003.8
 20
-1001.03
 30
0.000000
  70
    32
  0
VERTEX
  8
01
  5
15A90
 10
16003.8
 20
-1000.97
 30
0.000000
  70
    32
  0
VERTEX
  8
01
  5
15A91
 10
16003.8
 20
-1000.92
 30
0.000000
  70
    32
  0
VERTEX
  8
01
  5
15A92
 10
16003.8
 20
-1000.87
 30
0.000000
  70
    32
  0
VERTEX
  8
01
  5
15A93
 10
16003.8
 20
-1000.82
 30
0.000000
  70
    32
  0
VERTEX
  8
01
  5
15A94
 10
16003.8
 20
-1000.77
 30
0.000000
  70
    32
  0
VERTEX
  8
01
  5
15A95
 10
16003.8
 20
-1000.72
 30
0.000000
  70
    32
  0
VERTEX
  8
01
  5
15A96
 10
16003.8
 20
-1000.67
 30
0.000000
  70
    32
  0
VERTEX
  8
01
  5
15A97
 10
16003.8
 20
-1000.62
 30
0.000000
  70
    32
  0
VERTEX
  8
01
  5
15A98
 10
16003.8
 20
-1000.57
 30
0.000000
  70
    32
  0
VERTEX
  8
01
  5
15A99
 10
16003.8
 20
-1000.52
 30
0.000000
  70
    32
  0
VERTEX
  8
01
  5
15A9A
 10
16003.8
 20
-1000.47
 30
0.000000
  70
    32
  0
VERTEX
  8
01
  5
15A9B
 10
16003.9
 20
-1000.42
 30
0.000000
  70
    32
  0
VERTEX
  8
01
  5
15A9C
 10
16003.9
 20
-1000.37
 30
0.000000
  70
    32
  0
VERTEX
  8
01
  5
15A9D
 10
16003.9
 20
-1000.33
 30
0.000000
  70
    32
  0
VERTEX
  8
01
  5
15A9E
 10
16003.9
 20
-1000.28
 30
0.000000
  70
    32
  0
VERTEX
  8
01
  5
15A9F
 10
16003.9
 20
-1000.23
 30
0.000000
  70
    32
  0
VERTEX
  8
01
  5
15AA0
 10
16003.9
 20
-1000.18
 30
0.000000
  70
    32
  0
VERTEX
  8
01
  5
15AA1
 10
16003.9
 20
-1000.14
 30
0.000000
  70
    32
  0
VERTEX
  8
01
  5
15AA2
 10
16003.9
 20
-1000.09
 30
0.000000
  70
    32
  0
VERTEX
  8
01
  5
15AA3
 10
16003.9
 20
-1000.05
 30
0.000000
  70
    32
  0
VERTEX
  8
01
  5
15AA4
 10
16003.9
 20
-1000.00
 30
0.000000
  70
    32
  0
VERTEX
  8
01
  5
15AA5
 10
16003.9
 20
-999.956
 30
0.000000
  70
    32
  0
VERTEX
  8
01
  5
15AA6
 10
16003.9
 20
-999.911
 30
0.000000
  70
    32
  0
VERTEX
  8
01
  5
15AA7
 10
16003.9
 20
-999.866
 30
0.000000
  70
    32
  0
VERTEX
  8
01
  5
15AA8
 10
16003.9
 20
-999.823
 30
0.000000
  70
    32
  0
VERTEX
  8
01
  5
15AA9
 10
16003.9
 20
-999.779
 30
0.000000
  70
    32
  0
VERTEX
  8
01
  5
15AAA
 10
16003.9
 20
-999.736
 30
0.000000
  70
    32
  0
VERTEX
  8
01
  5
15AAB
 10
16003.9
 20
-999.693
 30
0.000000
  70
    32
  0
VERTEX
  8
01
  5
15AAC
 10
16004.0
 20
-999.651
 30
0.000000
  70
    32
  0
VERTEX
  8
01
  5
15AAD
 10
16004.0
 20
-999.609
 30
0.000000
  70
    32
  0
VERTEX
  8
01
  5
15AAE
 10
16004.0
 20
-999.568
 30
0.000000
  70
    32
  0
VERTEX
  8
01
  5
15AAF
 10
16004.0
 20
-999.527
 30
0.000000
  70
    32
  0
VERTEX
  8
01
  5
15AB0
 10
16004.0
 20
-999.486
 30
0.000000
  70
    32
  0
VERTEX
  8
01
  5
15AB1
 10
16004.0
 20
-999.446
 30
0.000000
  70
    32
  0
VERTEX
  8
01
  5
15AB2
 10
16004.0
 20
-999.407
 30
0.000000
  70
    32
  0
VERTEX
  8
01
  5
15AB3
 10
16004.0
 20
-999.367
 30
0.000000
  70
    32
  0
VERTEX
  8
01
  5
15AB4
 10
16004.0
 20
-999.329
 30
0.000000
  70
    32
  0
VERTEX
  8
01
  5
15AB5
 10
16004.0
 20
-999.291
 30
0.000000
  70
    32
  0
VERTEX
  8
01
  5
15AB6
 10
16004.0
 20
-999.253
 30
0.000000
  70
    32
  0
VERTEX
  8
01
  5
15AB7
 10
16004.0
 20
-999.216
 30
0.000000
  70
    32
  0
VERTEX
  8
01
  5
15AB8
 10
16004.0
 20
-999.179
 30
0.000000
  70
    32
  0
VERTEX
  8
01
  5
15AB9
 10
16004.1
 20
-999.143
 30
0.000000
  70
    32
  0
VERTEX
  8
01
  5
15ABA
 10
16004.1
 20
-999.107
 30
0.000000
  70
    32
  0
VERTEX
  8
01
  5
15ABB
 10
16004.1
 20
-999.072
 30
0.000000
  70
    32
  0
VERTEX
  8
01
  5
15ABC
 10
16004.1
 20
-999.038
 30
0.000000
  70
    32
  0
VERTEX
  8
01
  5
15ABD
 10
16004.1
 20
-999.004
 30
0.000000
  70
    32
  0
VERTEX
  8
01
  5
15ABE
 10
16004.1
 20
-998.970
 30
0.000000
  70
    32
  0
VERTEX
  8
01
  5
15ABF
 10
16004.1
 20
-998.937
 30
0.000000
  70
    32
  0
VERTEX
  8
01
  5
15AC0
 10
16004.1
 20
-998.905
 30
0.000000
  70
    32
  0
VERTEX
  8
01
  5
15AC1
 10
16004.1
 20
-998.873
 30
0.000000
  70
    32
  0
VERTEX
  8
01
  5
15AC2
 10
16004.1
 20
-998.841
 30
0.000000
  70
    32
  0
VERTEX
  8
01
  5
15AC3
 10
16004.1
 20
-998.810
 30
0.000000
  70
    32
  0
VERTEX
  8
01
  5
15AC4
 10
16004.1
 20
-998.780
 30
0.000000
  70
    32
  0
VERTEX
  8
01
  5
15AC5
 10
16004.2
 20
-998.751
 30
0.000000
  70
    32
  0
VERTEX
  8
01
  5
15AC6
 10
16004.2
 20
-998.721
 30
0.000000
  70
    32
  0
VERTEX
  8
01
  5
15AC7
 10
16004.2
 20
-998.693
 30
0.000000
  70
    32
  0
VERTEX
  8
01
  5
15AC8
 10
16004.2
 20
-998.665
 30
0.000000
  70
    32
  0
VERTEX
  8
01
  5
15AC9
 10
16004.2
 20
-998.637
 30
0.000000
  70
    32
  0
VERTEX
  8
01
  5
15ACA
 10
16004.2
 20
-998.611
 30
0.000000
  70
    32
  0
VERTEX
  8
01
  5
15ACB
 10
16004.2
 20
-998.584
 30
0.000000
  70
    32
  0
VERTEX
  8
01
  5
15ACC
 10
16004.2
 20
-998.559
 30
0.000000
  70
    32
  0
VERTEX
  8
01
  5
15ACD
 10
16004.2
 20
-998.534
 30
0.000000
  70
    32
  0
VERTEX
  8
01
  5
15ACE
 10
16004.2
 20
-998.509
 30
0.000000
  70
    32
  0
VERTEX
  8
01
  5
15ACF
 10
16004.2
 20
-998.486
 30
0.000000
  70
    32
  0
VERTEX
  8
01
  5
15AD0
 10
16004.3
 20
-998.462
 30
0.000000
  70
    32
  0
VERTEX
  8
01
  5
15AD1
 10
16004.3
 20
-998.440
 30
0.000000
  70
    32
  0
VERTEX
  8
01
  5
15AD2
 10
16004.3
 20
-998.418
 30
0.000000
  70
    32
  0
VERTEX
  8
01
  5
15AD3
 10
16004.3
 20
-998.397
 30
0.000000
  70
    32
  0
VERTEX
  8
01
  5
15AD4
 10
16004.3
 20
-998.376
 30
0.000000
  70
    32
  0
VERTEX
  8
01
  5
15AD5
 10
16004.3
 20
-998.356
 30
0.000000
  70
    32
  0
VERTEX
  8
01
  5
15AD6
 10
16004.3
 20
-998.336
 30
0.000000
  70
    32
  0
VERTEX
  8
01
  5
15AD7
 10
16004.3
 20
-998.317
 30
0.000000
  70
    32
  0
VERTEX
  8
01
  5
15AD8
 10
16004.3
 20
-998.299
 30
0.000000
  70
    32
  0
VERTEX
  8
01
  5
15AD9
 10
16004.3
 20
-998.282
 30
0.000000
  70
    32
  0
VERTEX
  8
01
  5
15ADA
 10
16004.4
 20
-998.265
 30
0.000000
  70
    32
  0
VERTEX
  8
01
  5
15ADB
 10
16004.4
 20
-998.248
 30
0.000000
  70
    32
  0
VERTEX
  8
01
  5
15ADC
 10
16004.4
 20
-998.233
 30
0.000000
  70
    32
  0
VERTEX
  8
01
  5
15ADD
 10
16004.4
 20
-998.218
 30
0.000000
  70
    32
  0
VERTEX
  8
01
  5
15ADE
 10
16004.4
 20
-998.204
 30
0.000000
  70
    32
  0
VERTEX
  8
01
  5
15ADF
 10
16004.4
 20
-998.190
 30
0.000000
  70
    32
  0
VERTEX
  8
01
  5
15AE0
 10
16004.4
 20
-998.177
 30
0.000000
  70
    32
  0
VERTEX
  8
01
  5
15AE1
 10
16004.4
 20
-998.164
 30
0.000000
  70
    32
  0
VERTEX
  8
01
  5
15AE2
 10
16004.4
 20
-998.153
 30
0.000000
  70
    32
  0
VERTEX
  8
01
  5
15AE3
 10
16004.4
 20
-998.142
 30
0.000000
  70
    32
  0
VERTEX
  8
01
  5
15AE4
 10
16004.5
 20
-998.131
 30
0.000000
  70
    32
  0
VERTEX
  8
01
  5
15AE5
 10
16004.5
 20
-998.122
 30
0.000000
  70
    32
  0
VERTEX
  8
01
  5
15AE6
 10
16004.5
 20
-998.112
 30
0.000000
  70
    32
  0
VERTEX
  8
01
  5
15AE7
 10
16004.5
 20
-998.104
 30
0.000000
  70
    32
  0
VERTEX
  8
01
  5
15AE8
 10
16004.5
 20
-998.096
 30
0.000000
  70
    32
  0
VERTEX
  8
01
  5
15AE9
 10
16004.5
 20
-998.089
 30
0.000000
  70
    32
  0
VERTEX
  8
01
  5
15AEA
 10
16004.5
 20
-998.083
 30
0.000000
  70
    32
  0
VERTEX
  8
01
  5
15AEB
 10
16004.5
 20
-998.077
 30
0.000000
  70
    32
  0
VERTEX
  8
01
  5
15AEC
 10
16004.5
 20
-998.072
 30
0.000000
  70
    32
  0
VERTEX
  8
01
  5
15AED
 10
16004.6
 20
-998.068
 30
0.000000
  70
    32
  0
VERTEX
  8
01
  5
15AEE
 10
16004.6
 20
-998.064
 30
0.000000
  70
    32
  0
VERTEX
  8
01
  5
15AEF
 10
16004.6
 20
-998.061
 30
0.000000
  70
    32
  0
VERTEX
  8
01
  5
15AF0
 10
16004.6
 20
-998.059
 30
0.000000
  70
    32
  0
VERTEX
  8
01
  5
15AF1
 10
16004.6
 20
-998.057
 30
0.000000
  70
    32
  0
VERTEX
  8
01
  5
15AF2
 10
16004.6
 20
-998.056
 30
0.000000
  70
    32
  0
VERTEX
  8
01
  5
15AF3
 10
16004.6
 20
-998.056
 30
0.000000
  70
    32
  0
SEQEND
  8
01
  5
15AF4
  0
LINE
  5
152CF
  8
01
 10
16011.89145393748
 20
-998.05561741568135
 30
0.0
 11
16004.61345393748
 21
-998.05561741568135
 31
0.0
  0
LINE
  5
152D0
  8
01
 10
16011.89145393748
 20
-993.51561741568139
 30
0.0
 11
16004.61345393748
 21
-993.51561741568139
 31
0.0
  0
LINE
  5
152D1
  8
01
 10
16004.61345393748
 20
-998.05561741568135
 30
0.0
 11
16004.61345393748
 21
-993.51561741568139
 31
0.0
  0
LINE
  5
152D2
  8
01
 10
16011.89145393748
 20
-993.51561741568139
 30
0.0
 11
16011.89145393748
 21
-998.05561741568135
 31
0.0
  0
POLYLINE
  5
152D3
  8
01
 10
16012.150400740127
 20
-1015.9870724646527
 30
0.0
 66
     1
 70
     8
  0
VERTEX
  8
01
  5
15AF5
 10
16012.2
 20
-1015.99
 30
0.000000
  70
    32
  0
VERTEX
  8
01
  5
15AF6
 10
16012.2
 20
-1015.96
 30
0.000000
  70
    32
  0
VERTEX
  8
01
  5
15AF7
 10
16012.2
 20
-1015.94
 30
0.000000
  70
    32
  0
VERTEX
  8
01
  5
15AF8
 10
16012.2
 20
-1015.91
 30
0.000000
  70
    32
  0
VERTEX
  8
01
  5
15AF9
 10
16012.2
 20
-1015.89
 30
0.000000
  70
    32
  0
VERTEX
  8
01
  5
15AFA
 10
16012.2
 20
-1015.86
 30
0.000000
  70
    32
  0
VERTEX
  8
01
  5
15AFB
 10
16012.2
 20
-1015.83
 30
0.000000
  70
    32
  0
VERTEX
  8
01
  5
15AFC
 10
16012.2
 20
-1015.80
 30
0.000000
  70
    32
  0
VERTEX
  8
01
  5
15AFD
 10
16012.2
 20
-1015.77
 30
0.000000
  70
    32
  0
VERTEX
  8
01
  5
15AFE
 10
16012.2
 20
-1015.74
 30
0.000000
  70
    32
  0
VERTEX
  8
01
  5
15AFF
 10
16012.2
 20
-1015.71
 30
0.000000
  70
    32
  0
VERTEX
  8
01
  5
15B00
 10
16012.2
 20
-1015.68
 30
0.000000
  70
    32
  0
VERTEX
  8
01
  5
15B01
 10
16012.3
 20
-1015.64
 30
0.000000
  70
    32
  0
VERTEX
  8
01
  5
15B02
 10
16012.3
 20
-1015.61
 30
0.000000
  70
    32
  0
VERTEX
  8
01
  5
15B03
 10
16012.3
 20
-1015.58
 30
0.000000
  70
    32
  0
VERTEX
  8
01
  5
15B04
 10
16012.3
 20
-1015.54
 30
0.000000
  70
    32
  0
VERTEX
  8
01
  5
15B05
 10
16012.3
 20
-1015.50
 30
0.000000
  70
    32
  0
VERTEX
  8
01
  5
15B06
 10
16012.3
 20
-1015.47
 30
0.000000
  70
    32
  0
VERTEX
  8
01
  5
15B07
 10
16012.3
 20
-1015.43
 30
0.000000
  70
    32
  0
VERTEX
  8
01
  5
15B08
 10
16012.3
 20
-1015.39
 30
0.000000
  70
    32
  0
VERTEX
  8
01
  5
15B09
 10
16012.3
 20
-1015.35
 30
0.000000
  70
    32
  0
VERTEX
  8
01
  5
15B0A
 10
16012.3
 20
-1015.32
 30
0.000000
  70
    32
  0
VERTEX
  8
01
  5
15B0B
 10
16012.3
 20
-1015.28
 30
0.000000
  70
    32
  0
VERTEX
  8
01
  5
15B0C
 10
16012.3
 20
-1015.24
 30
0.000000
  70
    32
  0
VERTEX
  8
01
  5
15B0D
 10
16012.3
 20
-1015.20
 30
0.000000
  70
    32
  0
VERTEX
  8
01
  5
15B0E
 10
16012.3
 20
-1015.15
 30
0.000000
  70
    32
  0
VERTEX
  8
01
  5
15B0F
 10
16012.4
 20
-1015.11
 30
0.000000
  70
    32
  0
VERTEX
  8
01
  5
15B10
 10
16012.4
 20
-1015.07
 30
0.000000
  70
    32
  0
VERTEX
  8
01
  5
15B11
 10
16012.4
 20
-1015.03
 30
0.000000
  70
    32
  0
VERTEX
  8
01
  5
15B12
 10
16012.4
 20
-1014.98
 30
0.000000
  70
    32
  0
VERTEX
  8
01
  5
15B13
 10
16012.4
 20
-1014.94
 30
0.000000
  70
    32
  0
VERTEX
  8
01
  5
15B14
 10
16012.4
 20
-1014.90
 30
0.000000
  70
    32
  0
VERTEX
  8
01
  5
15B15
 10
16012.4
 20
-1014.85
 30
0.000000
  70
    32
  0
VERTEX
  8
01
  5
15B16
 10
16012.4
 20
-1014.81
 30
0.000000
  70
    32
  0
VERTEX
  8
01
  5
15B17
 10
16012.4
 20
-1014.76
 30
0.000000
  70
    32
  0
VERTEX
  8
01
  5
15B18
 10
16012.4
 20
-1014.72
 30
0.000000
  70
    32
  0
VERTEX
  8
01
  5
15B19
 10
16012.4
 20
-1014.67
 30
0.000000
  70
    32
  0
VERTEX
  8
01
  5
15B1A
 10
16012.4
 20
-1014.62
 30
0.000000
  70
    32
  0
VERTEX
  8
01
  5
15B1B
 10
16012.4
 20
-1014.58
 30
0.000000
  70
    32
  0
VERTEX
  8
01
  5
15B1C
 10
16012.4
 20
-1014.53
 30
0.000000
  70
    32
  0
VERTEX
  8
01
  5
15B1D
 10
16012.4
 20
-1014.48
 30
0.000000
  70
    32
  0
VERTEX
  8
01
  5
15B1E
 10
16012.4
 20
-1014.43
 30
0.000000
  70
    32
  0
VERTEX
  8
01
  5
15B1F
 10
16012.4
 20
-1014.39
 30
0.000000
  70
    32
  0
VERTEX
  8
01
  5
15B20
 10
16012.4
 20
-1014.34
 30
0.000000
  70
    32
  0
VERTEX
  8
01
  5
15B21
 10
16012.4
 20
-1014.29
 30
0.000000
  70
    32
  0
VERTEX
  8
01
  5
15B22
 10
16012.4
 20
-1014.24
 30
0.000000
  70
    32
  0
VERTEX
  8
01
  5
15B23
 10
16012.4
 20
-1014.19
 30
0.000000
  70
    32
  0
VERTEX
  8
01
  5
15B24
 10
16012.4
 20
-1014.15
 30
0.000000
  70
    32
  0
VERTEX
  8
01
  5
15B25
 10
16012.4
 20
-1014.10
 30
0.000000
  70
    32
  0
VERTEX
  8
01
  5
15B26
 10
16012.4
 20
-1014.05
 30
0.000000
  70
    32
  0
VERTEX
  8
01
  5
15B27
 10
16012.4
 20
-1014.00
 30
0.000000
  70
    32
  0
VERTEX
  8
01
  5
15B28
 10
16012.4
 20
-1013.95
 30
0.000000
  70
    32
  0
VERTEX
  8
01
  5
15B29
 10
16012.4
 20
-1013.90
 30
0.000000
  70
    32
  0
VERTEX
  8
01
  5
15B2A
 10
16012.4
 20
-1013.85
 30
0.000000
  70
    32
  0
VERTEX
  8
01
  5
15B2B
 10
16012.4
 20
-1013.81
 30
0.000000
  70
    32
  0
VERTEX
  8
01
  5
15B2C
 10
16012.4
 20
-1013.76
 30
0.000000
  70
    32
  0
VERTEX
  8
01
  5
15B2D
 10
16012.4
 20
-1013.71
 30
0.000000
  70
    32
  0
VERTEX
  8
01
  5
15B2E
 10
16012.4
 20
-1013.66
 30
0.000000
  70
    32
  0
VERTEX
  8
01
  5
15B2F
 10
16012.4
 20
-1013.61
 30
0.000000
  70
    32
  0
VERTEX
  8
01
  5
15B30
 10
16012.4
 20
-1013.56
 30
0.000000
  70
    32
  0
VERTEX
  8
01
  5
15B31
 10
16012.4
 20
-1013.52
 30
0.000000
  70
    32
  0
VERTEX
  8
01
  5
15B32
 10
16012.4
 20
-1013.47
 30
0.000000
  70
    32
  0
VERTEX
  8
01
  5
15B33
 10
16012.4
 20
-1013.42
 30
0.000000
  70
    32
  0
VERTEX
  8
01
  5
15B34
 10
16012.4
 20
-1013.37
 30
0.000000
  70
    32
  0
VERTEX
  8
01
  5
15B35
 10
16012.4
 20
-1013.33
 30
0.000000
  70
    32
  0
VERTEX
  8
01
  5
15B36
 10
16012.4
 20
-1013.28
 30
0.000000
  70
    32
  0
VERTEX
  8
01
  5
15B37
 10
16012.4
 20
-1013.23
 30
0.000000
  70
    32
  0
VERTEX
  8
01
  5
15B38
 10
16012.4
 20
-1013.19
 30
0.000000
  70
    32
  0
VERTEX
  8
01
  5
15B39
 10
16012.4
 20
-1013.14
 30
0.000000
  70
    32
  0
VERTEX
  8
01
  5
15B3A
 10
16012.4
 20
-1013.09
 30
0.000000
  70
    32
  0
VERTEX
  8
01
  5
15B3B
 10
16012.4
 20
-1013.05
 30
0.000000
  70
    32
  0
VERTEX
  8
01
  5
15B3C
 10
16012.4
 20
-1013.00
 30
0.000000
  70
    32
  0
VERTEX
  8
01
  5
15B3D
 10
16012.4
 20
-1012.96
 30
0.000000
  70
    32
  0
VERTEX
  8
01
  5
15B3E
 10
16012.4
 20
-1012.91
 30
0.000000
  70
    32
  0
VERTEX
  8
01
  5
15B3F
 10
16012.4
 20
-1012.87
 30
0.000000
  70
    32
  0
VERTEX
  8
01
  5
15B40
 10
16012.4
 20
-1012.83
 30
0.000000
  70
    32
  0
VERTEX
  8
01
  5
15B41
 10
16012.4
 20
-1012.78
 30
0.000000
  70
    32
  0
VERTEX
  8
01
  5
15B42
 10
16012.4
 20
-1012.74
 30
0.000000
  70
    32
  0
VERTEX
  8
01
  5
15B43
 10
16012.3
 20
-1012.70
 30
0.000000
  70
    32
  0
VERTEX
  8
01
  5
15B44
 10
16012.3
 20
-1012.66
 30
0.000000
  70
    32
  0
VERTEX
  8
01
  5
15B45
 10
16012.3
 20
-1012.62
 30
0.000000
  70
    32
  0
VERTEX
  8
01
  5
15B46
 10
16012.3
 20
-1012.58
 30
0.000000
  70
    32
  0
VERTEX
  8
01
  5
15B47
 10
16012.3
 20
-1012.54
 30
0.000000
  70
    32
  0
VERTEX
  8
01
  5
15B48
 10
16012.3
 20
-1012.50
 30
0.000000
  70
    32
  0
VERTEX
  8
01
  5
15B49
 10
16012.3
 20
-1012.46
 30
0.000000
  70
    32
  0
VERTEX
  8
01
  5
15B4A
 10
16012.3
 20
-1012.42
 30
0.000000
  70
    32
  0
VERTEX
  8
01
  5
15B4B
 10
16012.3
 20
-1012.38
 30
0.000000
  70
    32
  0
VERTEX
  8
01
  5
15B4C
 10
16012.3
 20
-1012.35
 30
0.000000
  70
    32
  0
VERTEX
  8
01
  5
15B4D
 10
16012.3
 20
-1012.31
 30
0.000000
  70
    32
  0
VERTEX
  8
01
  5
15B4E
 10
16012.3
 20
-1012.28
 30
0.000000
  70
    32
  0
VERTEX
  8
01
  5
15B4F
 10
16012.3
 20
-1012.24
 30
0.000000
  70
    32
  0
VERTEX
  8
01
  5
15B50
 10
16012.3
 20
-1012.21
 30
0.000000
  70
    32
  0
VERTEX
  8
01
  5
15B51
 10
16012.3
 20
-1012.17
 30
0.000000
  70
    32
  0
VERTEX
  8
01
  5
15B52
 10
16012.2
 20
-1012.14
 30
0.000000
  70
    32
  0
VERTEX
  8
01
  5
15B53
 10
16012.2
 20
-1012.11
 30
0.000000
  70
    32
  0
VERTEX
  8
01
  5
15B54
 10
16012.2
 20
-1012.08
 30
0.000000
  70
    32
  0
VERTEX
  8
01
  5
15B55
 10
16012.2
 20
-1012.05
 30
0.000000
  70
    32
  0
VERTEX
  8
01
  5
15B56
 10
16012.2
 20
-1012.02
 30
0.000000
  70
    32
  0
VERTEX
  8
01
  5
15B57
 10
16012.2
 20
-1011.99
 30
0.000000
  70
    32
  0
VERTEX
  8
01
  5
15B58
 10
16012.2
 20
-1011.96
 30
0.000000
  70
    32
  0
VERTEX
  8
01
  5
15B59
 10
16012.2
 20
-1011.94
 30
0.000000
  70
    32
  0
VERTEX
  8
01
  5
15B5A
 10
16012.2
 20
-1011.91
 30
0.000000
  70
    32
  0
VERTEX
  8
01
  5
15B5B
 10
16012.2
 20
-1011.88
 30
0.000000
  70
    32
  0
VERTEX
  8
01
  5
15B5C
 10
16012.2
 20
-1011.86
 30
0.000000
  70
    32
  0
VERTEX
  8
01
  5
15B5D
 10
16012.1
 20
-1011.84
 30
0.000000
  70
    32
  0
VERTEX
  8
01
  5
15B5E
 10
16012.1
 20
-1011.81
 30
0.000000
  70
    32
  0
VERTEX
  8
01
  5
15B5F
 10
16012.1
 20
-1011.79
 30
0.000000
  70
    32
  0
VERTEX
  8
01
  5
15B60
 10
16012.1
 20
-1011.77
 30
0.000000
  70
    32
  0
VERTEX
  8
01
  5
15B61
 10
16012.1
 20
-1011.75
 30
0.000000
  70
    32
  0
VERTEX
  8
01
  5
15B62
 10
16012.1
 20
-1011.73
 30
0.000000
  70
    32
  0
VERTEX
  8
01
  5
15B63
 10
16012.1
 20
-1011.71
 30
0.000000
  70
    32
  0
VERTEX
  8
01
  5
15B64
 10
16012.1
 20
-1011.70
 30
0.000000
  70
    32
  0
VERTEX
  8
01
  5
15B65
 10
16012.1
 20
-1011.68
 30
0.000000
  70
    32
  0
VERTEX
  8
01
  5
15B66
 10
16012.1
 20
-1011.67
 30
0.000000
  70
    32
  0
VERTEX
  8
01
  5
15B67
 10
16012.0
 20
-1011.65
 30
0.000000
  70
    32
  0
VERTEX
  8
01
  5
15B68
 10
16012.0
 20
-1011.64
 30
0.000000
  70
    32
  0
VERTEX
  8
01
  5
15B69
 10
16012.0
 20
-1011.63
 30
0.000000
  70
    32
  0
VERTEX
  8
01
  5
15B6A
 10
16012.0
 20
-1011.61
 30
0.000000
  70
    32
  0
VERTEX
  8
01
  5
15B6B
 10
16012.0
 20
-1011.60
 30
0.000000
  70
    32
  0
VERTEX
  8
01
  5
15B6C
 10
16012.0
 20
-1011.59
 30
0.000000
  70
    32
  0
VERTEX
  8
01
  5
15B6D
 10
16012.0
 20
-1011.59
 30
0.000000
  70
    32
  0
VERTEX
  8
01
  5
15B6E
 10
16012.0
 20
-1011.58
 30
0.000000
  70
    32
  0
VERTEX
  8
01
  5
15B6F
 10
16012.0
 20
-1011.57
 30
0.000000
  70
    32
  0
VERTEX
  8
01
  5
15B70
 10
16011.9
 20
-1011.57
 30
0.000000
  70
    32
  0
VERTEX
  8
01
  5
15B71
 10
16011.9
 20
-1011.56
 30
0.000000
  70
    32
  0
VERTEX
  8
01
  5
15B72
 10
16011.9
 20
-1011.56
 30
0.000000
  70
    32
  0
VERTEX
  8
01
  5
15B73
 10
16011.9
 20
-1011.56
 30
0.000000
  70
    32
  0
VERTEX
  8
01
  5
15B74
 10
16011.9
 20
-1011.55
 30
0.000000
  70
    32
  0
VERTEX
  8
01
  5
15B75
 10
16011.9
 20
-1011.55
 30
0.000000
  70
    32
  0
SEQEND
  8
01
  5
15B76
  0
LINE
  5
152D4
  8
01
 10
16011.89145393748
 20
-1011.5536174156809
 30
0.0
 11
16011.89145393748
 21
-1007.013617415681
 31
0.0
  0
LINE
  5
152D5
  8
01
 10
16004.61345393748
 20
-1007.013617415681
 30
0.0
 11
16004.61345393748
 21
-1011.5536174156809
 31
0.0
  0
LINE
  5
152D6
  8
01
 10
16011.89145393748
 20
-1011.5536174156809
 30
0.0
 11
16004.61345393748
 21
-1011.5536174156809
 31
0.0
  0
LINE
  5
152D7
  8
01
 10
16011.89145393748
 20
-1007.013617415681
 30
0.0
 11
16004.61345393748
 21
-1007.013617415681
 31
0.0
  0
POLYLINE
  5
152D8
  8
01
 10
16003.752453937479
 20
-1002.5346174156811
 30
0.0
 66
     1
 70
     8
  0
VERTEX
  8
01
  5
15B77
 10
16003.8
 20
-1002.53
 30
0.000000
  70
    32
  0
VERTEX
  8
01
  5
15B78
 10
16003.8
 20
-1002.59
 30
0.000000
  70
    32
  0
VERTEX
  8
01
  5
15B79
 10
16003.8
 20
-1002.64
 30
0.000000
  70
    32
  0
VERTEX
  8
01
  5
15B7A
 10
16003.8
 20
-1002.70
 30
0.000000
  70
    32
  0
VERTEX
  8
01
  5
15B7B
 10
16003.8
 20
-1002.75
 30
0.000000
  70
    32
  0
VERTEX
  8
01
  5
15B7C
 10
16003.8
 20
-1002.81
 30
0.000000
  70
    32
  0
VERTEX
  8
01
  5
15B7D
 10
16003.8
 20
-1002.86
 30
0.000000
  70
    32
  0
VERTEX
  8
01
  5
15B7E
 10
16003.8
 20
-1002.92
 30
0.000000
  70
    32
  0
VERTEX
  8
01
  5
15B7F
 10
16003.8
 20
-1002.97
 30
0.000000
  70
    32
  0
VERTEX
  8
01
  5
15B80
 10
16003.8
 20
-1003.03
 30
0.000000
  70
    32
  0
VERTEX
  8
01
  5
15B81
 10
16003.8
 20
-1003.08
 30
0.000000
  70
    32
  0
VERTEX
  8
01
  5
15B82
 10
16003.8
 20
-1003.14
 30
0.000000
  70
    32
  0
VERTEX
  8
01
  5
15B83
 10
16003.8
 20
-1003.19
 30
0.000000
  70
    32
  0
VERTEX
  8
01
  5
15B84
 10
16003.8
 20
-1003.25
 30
0.000000
  70
    32
  0
VERTEX
  8
01
  5
15B85
 10
16003.8
 20
-1003.30
 30
0.000000
  70
    32
  0
VERTEX
  8
01
  5
15B86
 10
16003.8
 20
-1003.35
 30
0.000000
  70
    32
  0
VERTEX
  8
01
  5
15B87
 10
16003.8
 20
-1003.41
 30
0.000000
  70
    32
  0
VERTEX
  8
01
  5
15B88
 10
16003.8
 20
-1003.46
 30
0.000000
  70
    32
  0
VERTEX
  8
01
  5
15B89
 10
16003.8
 20
-1003.52
 30
0.000000
  70
    32
  0
VERTEX
  8
01
  5
15B8A
 10
16003.8
 20
-1003.57
 30
0.000000
  70
    32
  0
VERTEX
  8
01
  5
15B8B
 10
16003.8
 20
-1003.62
 30
0.000000
  70
    32
  0
VERTEX
  8
01
  5
15B8C
 10
16003.8
 20
-1003.68
 30
0.000000
  70
    32
  0
VERTEX
  8
01
  5
15B8D
 10
16003.8
 20
-1003.73
 30
0.000000
  70
    32
  0
VERTEX
  8
01
  5
15B8E
 10
16003.8
 20
-1003.78
 30
0.000000
  70
    32
  0
VERTEX
  8
01
  5
15B8F
 10
16003.8
 20
-1003.83
 30
0.000000
  70
    32
  0
VERTEX
  8
01
  5
15B90
 10
16003.8
 20
-1003.89
 30
0.000000
  70
    32
  0
VERTEX
  8
01
  5
15B91
 10
16003.8
 20
-1003.94
 30
0.000000
  70
    32
  0
VERTEX
  8
01
  5
15B92
 10
16003.8
 20
-1003.99
 30
0.000000
  70
    32
  0
VERTEX
  8
01
  5
15B93
 10
16003.8
 20
-1004.04
 30
0.000000
  70
    32
  0
VERTEX
  8
01
  5
15B94
 10
16003.8
 20
-1004.10
 30
0.000000
  70
    32
  0
VERTEX
  8
01
  5
15B95
 10
16003.8
 20
-1004.15
 30
0.000000
  70
    32
  0
VERTEX
  8
01
  5
15B96
 10
16003.8
 20
-1004.20
 30
0.000000
  70
    32
  0
VERTEX
  8
01
  5
15B97
 10
16003.8
 20
-1004.25
 30
0.000000
  70
    32
  0
VERTEX
  8
01
  5
15B98
 10
16003.8
 20
-1004.30
 30
0.000000
  70
    32
  0
VERTEX
  8
01
  5
15B99
 10
16003.8
 20
-1004.35
 30
0.000000
  70
    32
  0
VERTEX
  8
01
  5
15B9A
 10
16003.8
 20
-1004.40
 30
0.000000
  70
    32
  0
VERTEX
  8
01
  5
15B9B
 10
16003.8
 20
-1004.45
 30
0.000000
  70
    32
  0
VERTEX
  8
01
  5
15B9C
 10
16003.8
 20
-1004.50
 30
0.000000
  70
    32
  0
VERTEX
  8
01
  5
15B9D
 10
16003.8
 20
-1004.55
 30
0.000000
  70
    32
  0
VERTEX
  8
01
  5
15B9E
 10
16003.8
 20
-1004.60
 30
0.000000
  70
    32
  0
VERTEX
  8
01
  5
15B9F
 10
16003.9
 20
-1004.65
 30
0.000000
  70
    32
  0
VERTEX
  8
01
  5
15BA0
 10
16003.9
 20
-1004.69
 30
0.000000
  70
    32
  0
VERTEX
  8
01
  5
15BA1
 10
16003.9
 20
-1004.74
 30
0.000000
  70
    32
  0
VERTEX
  8
01
  5
15BA2
 10
16003.9
 20
-1004.79
 30
0.000000
  70
    32
  0
VERTEX
  8
01
  5
15BA3
 10
16003.9
 20
-1004.84
 30
0.000000
  70
    32
  0
VERTEX
  8
01
  5
15BA4
 10
16003.9
 20
-1004.88
 30
0.000000
  70
    32
  0
VERTEX
  8
01
  5
15BA5
 10
16003.9
 20
-1004.93
 30
0.000000
  70
    32
  0
VERTEX
  8
01
  5
15BA6
 10
16003.9
 20
-1004.98
 30
0.000000
  70
    32
  0
VERTEX
  8
01
  5
15BA7
 10
16003.9
 20
-1005.02
 30
0.000000
  70
    32
  0
VERTEX
  8
01
  5
15BA8
 10
16003.9
 20
-1005.07
 30
0.000000
  70
    32
  0
VERTEX
  8
01
  5
15BA9
 10
16003.9
 20
-1005.11
 30
0.000000
  70
    32
  0
VERTEX
  8
01
  5
15BAA
 10
16003.9
 20
-1005.16
 30
0.000000
  70
    32
  0
VERTEX
  8
01
  5
15BAB
 10
16003.9
 20
-1005.20
 30
0.000000
  70
    32
  0
VERTEX
  8
01
  5
15BAC
 10
16003.9
 20
-1005.25
 30
0.000000
  70
    32
  0
VERTEX
  8
01
  5
15BAD
 10
16003.9
 20
-1005.29
 30
0.000000
  70
    32
  0
VERTEX
  8
01
  5
15BAE
 10
16003.9
 20
-1005.33
 30
0.000000
  70
    32
  0
VERTEX
  8
01
  5
15BAF
 10
16003.9
 20
-1005.38
 30
0.000000
  70
    32
  0
VERTEX
  8
01
  5
15BB0
 10
16004.0
 20
-1005.42
 30
0.000000
  70
    32
  0
VERTEX
  8
01
  5
15BB1
 10
16004.0
 20
-1005.46
 30
0.000000
  70
    32
  0
VERTEX
  8
01
  5
15BB2
 10
16004.0
 20
-1005.50
 30
0.000000
  70
    32
  0
VERTEX
  8
01
  5
15BB3
 10
16004.0
 20
-1005.54
 30
0.000000
  70
    32
  0
VERTEX
  8
01
  5
15BB4
 10
16004.0
 20
-1005.58
 30
0.000000
  70
    32
  0
VERTEX
  8
01
  5
15BB5
 10
16004.0
 20
-1005.62
 30
0.000000
  70
    32
  0
VERTEX
  8
01
  5
15BB6
 10
16004.0
 20
-1005.66
 30
0.000000
  70
    32
  0
VERTEX
  8
01
  5
15BB7
 10
16004.0
 20
-1005.70
 30
0.000000
  70
    32
  0
VERTEX
  8
01
  5
15BB8
 10
16004.0
 20
-1005.74
 30
0.000000
  70
    32
  0
VERTEX
  8
01
  5
15BB9
 10
16004.0
 20
-1005.78
 30
0.000000
  70
    32
  0
VERTEX
  8
01
  5
15BBA
 10
16004.0
 20
-1005.82
 30
0.000000
  70
    32
  0
VERTEX
  8
01
  5
15BBB
 10
16004.0
 20
-1005.85
 30
0.000000
  70
    32
  0
VERTEX
  8
01
  5
15BBC
 10
16004.0
 20
-1005.89
 30
0.000000
  70
    32
  0
VERTEX
  8
01
  5
15BBD
 10
16004.1
 20
-1005.93
 30
0.000000
  70
    32
  0
VERTEX
  8
01
  5
15BBE
 10
16004.1
 20
-1005.96
 30
0.000000
  70
    32
  0
VERTEX
  8
01
  5
15BBF
 10
16004.1
 20
-1006.00
 30
0.000000
  70
    32
  0
VERTEX
  8
01
  5
15BC0
 10
16004.1
 20
-1006.03
 30
0.000000
  70
    32
  0
VERTEX
  8
01
  5
15BC1
 10
16004.1
 20
-1006.07
 30
0.000000
  70
    32
  0
VERTEX
  8
01
  5
15BC2
 10
16004.1
 20
-1006.10
 30
0.000000
  70
    32
  0
VERTEX
  8
01
  5
15BC3
 10
16004.1
 20
-1006.13
 30
0.000000
  70
    32
  0
VERTEX
  8
01
  5
15BC4
 10
16004.1
 20
-1006.16
 30
0.000000
  70
    32
  0
VERTEX
  8
01
  5
15BC5
 10
16004.1
 20
-1006.20
 30
0.000000
  70
    32
  0
VERTEX
  8
01
  5
15BC6
 10
16004.1
 20
-1006.23
 30
0.000000
  70
    32
  0
VERTEX
  8
01
  5
15BC7
 10
16004.1
 20
-1006.26
 30
0.000000
  70
    32
  0
VERTEX
  8
01
  5
15BC8
 10
16004.1
 20
-1006.29
 30
0.000000
  70
    32
  0
VERTEX
  8
01
  5
15BC9
 10
16004.2
 20
-1006.32
 30
0.000000
  70
    32
  0
VERTEX
  8
01
  5
15BCA
 10
16004.2
 20
-1006.35
 30
0.000000
  70
    32
  0
VERTEX
  8
01
  5
15BCB
 10
16004.2
 20
-1006.38
 30
0.000000
  70
    32
  0
VERTEX
  8
01
  5
15BCC
 10
16004.2
 20
-1006.40
 30
0.000000
  70
    32
  0
VERTEX
  8
01
  5
15BCD
 10
16004.2
 20
-1006.43
 30
0.000000
  70
    32
  0
VERTEX
  8
01
  5
15BCE
 10
16004.2
 20
-1006.46
 30
0.000000
  70
    32
  0
VERTEX
  8
01
  5
15BCF
 10
16004.2
 20
-1006.48
 30
0.000000
  70
    32
  0
VERTEX
  8
01
  5
15BD0
 10
16004.2
 20
-1006.51
 30
0.000000
  70
    32
  0
VERTEX
  8
01
  5
15BD1
 10
16004.2
 20
-1006.54
 30
0.000000
  70
    32
  0
VERTEX
  8
01
  5
15BD2
 10
16004.2
 20
-1006.56
 30
0.000000
  70
    32
  0
VERTEX
  8
01
  5
15BD3
 10
16004.2
 20
-1006.58
 30
0.000000
  70
    32
  0
VERTEX
  8
01
  5
15BD4
 10
16004.3
 20
-1006.61
 30
0.000000
  70
    32
  0
VERTEX
  8
01
  5
15BD5
 10
16004.3
 20
-1006.63
 30
0.000000
  70
    32
  0
VERTEX
  8
01
  5
15BD6
 10
16004.3
 20
-1006.65
 30
0.000000
  70
    32
  0
VERTEX
  8
01
  5
15BD7
 10
16004.3
 20
-1006.67
 30
0.000000
  70
    32
  0
VERTEX
  8
01
  5
15BD8
 10
16004.3
 20
-1006.69
 30
0.000000
  70
    32
  0
VERTEX
  8
01
  5
15BD9
 10
16004.3
 20
-1006.71
 30
0.000000
  70
    32
  0
VERTEX
  8
01
  5
15BDA
 10
16004.3
 20
-1006.73
 30
0.000000
  70
    32
  0
VERTEX
  8
01
  5
15BDB
 10
16004.3
 20
-1006.75
 30
0.000000
  70
    32
  0
VERTEX
  8
01
  5
15BDC
 10
16004.3
 20
-1006.77
 30
0.000000
  70
    32
  0
VERTEX
  8
01
  5
15BDD
 10
16004.3
 20
-1006.79
 30
0.000000
  70
    32
  0
VERTEX
  8
01
  5
15BDE
 10
16004.4
 20
-1006.80
 30
0.000000
  70
    32
  0
VERTEX
  8
01
  5
15BDF
 10
16004.4
 20
-1006.82
 30
0.000000
  70
    32
  0
VERTEX
  8
01
  5
15BE0
 10
16004.4
 20
-1006.84
 30
0.000000
  70
    32
  0
VERTEX
  8
01
  5
15BE1
 10
16004.4
 20
-1006.85
 30
0.000000
  70
    32
  0
VERTEX
  8
01
  5
15BE2
 10
16004.4
 20
-1006.87
 30
0.000000
  70
    32
  0
VERTEX
  8
01
  5
15BE3
 10
16004.4
 20
-1006.88
 30
0.000000
  70
    32
  0
VERTEX
  8
01
  5
15BE4
 10
16004.4
 20
-1006.89
 30
0.000000
  70
    32
  0
VERTEX
  8
01
  5
15BE5
 10
16004.4
 20
-1006.90
 30
0.000000
  70
    32
  0
VERTEX
  8
01
  5
15BE6
 10
16004.4
 20
-1006.92
 30
0.000000
  70
    32
  0
VERTEX
  8
01
  5
15BE7
 10
16004.4
 20
-1006.93
 30
0.000000
  70
    32
  0
VERTEX
  8
01
  5
15BE8
 10
16004.5
 20
-1006.94
 30
0.000000
  70
    32
  0
VERTEX
  8
01
  5
15BE9
 10
16004.5
 20
-1006.95
 30
0.000000
  70
    32
  0
VERTEX
  8
01
  5
15BEA
 10
16004.5
 20
-1006.96
 30
0.000000
  70
    32
  0
VERTEX
  8
01
  5
15BEB
 10
16004.5
 20
-1006.97
 30
0.000000
  70
    32
  0
VERTEX
  8
01
  5
15BEC
 10
16004.5
 20
-1006.97
 30
0.000000
  70
    32
  0
VERTEX
  8
01
  5
15BED
 10
16004.5
 20
-1006.98
 30
0.000000
  70
    32
  0
VERTEX
  8
01
  5
15BEE
 10
16004.5
 20
-1006.99
 30
0.000000
  70
    32
  0
VERTEX
  8
01
  5
15BEF
 10
16004.5
 20
-1006.99
 30
0.000000
  70
    32
  0
VERTEX
  8
01
  5
15BF0
 10
16004.5
 20
-1007.00
 30
0.000000
  70
    32
  0
VERTEX
  8
01
  5
15BF1
 10
16004.6
 20
-1007.00
 30
0.000000
  70
    32
  0
VERTEX
  8
01
  5
15BF2
 10
16004.6
 20
-1007.01
 30
0.000000
  70
    32
  0
VERTEX
  8
01
  5
15BF3
 10
16004.6
 20
-1007.01
 30
0.000000
  70
    32
  0
VERTEX
  8
01
  5
15BF4
 10
16004.6
 20
-1007.01
 30
0.000000
  70
    32
  0
VERTEX
  8
01
  5
15BF5
 10
16004.6
 20
-1007.01
 30
0.000000
  70
    32
  0
VERTEX
  8
01
  5
15BF6
 10
16004.6
 20
-1007.01
 30
0.000000
  70
    32
  0
VERTEX
  8
01
  5
15BF7
 10
16004.6
 20
-1007.01
 30
0.000000
  70
    32
  0
SEQEND
  8
01
  5
15BF8
  0
POLYLINE
  5
152D9
  8
01
 10
16011.89145393748
 20
-1007.0136174156811
 30
0.0
 66
     1
 70
     8
  0
VERTEX
  8
01
  5
15BF9
 10
16011.9
 20
-1007.01
 30
0.000000
  70
    32
  0
VERTEX
  8
01
  5
15BFA
 10
16011.9
 20
-1007.01
 30
0.000000
  70
    32
  0
VERTEX
  8
01
  5
15BFB
 10
16011.9
 20
-1007.01
 30
0.000000
  70
    32
  0
VERTEX
  8
01
  5
15BFC
 10
16011.9
 20
-1007.01
 30
0.000000
  70
    32
  0
VERTEX
  8
01
  5
15BFD
 10
16011.9
 20
-1007.01
 30
0.000000
  70
    32
  0
VERTEX
  8
01
  5
15BFE
 10
16011.9
 20
-1007.01
 30
0.000000
  70
    32
  0
VERTEX
  8
01
  5
15BFF
 10
16011.9
 20
-1007.00
 30
0.000000
  70
    32
  0
VERTEX
  8
01
  5
15C00
 10
16011.9
 20
-1007.00
 30
0.000000
  70
    32
  0
VERTEX
  8
01
  5
15C01
 10
16011.9
 20
-1006.99
 30
0.000000
  70
    32
  0
VERTEX
  8
01
  5
15C02
 10
16012.0
 20
-1006.99
 30
0.000000
  70
    32
  0
VERTEX
  8
01
  5
15C03
 10
16012.0
 20
-1006.98
 30
0.000000
  70
    32
  0
VERTEX
  8
01
  5
15C04
 10
16012.0
 20
-1006.97
 30
0.000000
  70
    32
  0
VERTEX
  8
01
  5
15C05
 10
16012.0
 20
-1006.97
 30
0.000000
  70
    32
  0
VERTEX
  8
01
  5
15C06
 10
16012.0
 20
-1006.96
 30
0.000000
  70
    32
  0
VERTEX
  8
01
  5
15C07
 10
16012.0
 20
-1006.95
 30
0.000000
  70
    32
  0
VERTEX
  8
01
  5
15C08
 10
16012.0
 20
-1006.94
 30
0.000000
  70
    32
  0
VERTEX
  8
01
  5
15C09
 10
16012.0
 20
-1006.93
 30
0.000000
  70
    32
  0
VERTEX
  8
01
  5
15C0A
 10
16012.0
 20
-1006.92
 30
0.000000
  70
    32
  0
VERTEX
  8
01
  5
15C0B
 10
16012.0
 20
-1006.90
 30
0.000000
  70
    32
  0
VERTEX
  8
01
  5
15C0C
 10
16012.0
 20
-1006.89
 30
0.000000
  70
    32
  0
VERTEX
  8
01
  5
15C0D
 10
16012.0
 20
-1006.88
 30
0.000000
  70
    32
  0
VERTEX
  8
01
  5
15C0E
 10
16012.0
 20
-1006.87
 30
0.000000
  70
    32
  0
VERTEX
  8
01
  5
15C0F
 10
16012.0
 20
-1006.85
 30
0.000000
  70
    32
  0
VERTEX
  8
01
  5
15C10
 10
16012.0
 20
-1006.84
 30
0.000000
  70
    32
  0
VERTEX
  8
01
  5
15C11
 10
16012.0
 20
-1006.82
 30
0.000000
  70
    32
  0
VERTEX
  8
01
  5
15C12
 10
16012.1
 20
-1006.80
 30
0.000000
  70
    32
  0
VERTEX
  8
01
  5
15C13
 10
16012.1
 20
-1006.79
 30
0.000000
  70
    32
  0
VERTEX
  8
01
  5
15C14
 10
16012.1
 20
-1006.77
 30
0.000000
  70
    32
  0
VERTEX
  8
01
  5
15C15
 10
16012.1
 20
-1006.75
 30
0.000000
  70
    32
  0
VERTEX
  8
01
  5
15C16
 10
16012.1
 20
-1006.73
 30
0.000000
  70
    32
  0
VERTEX
  8
01
  5
15C17
 10
16012.1
 20
-1006.71
 30
0.000000
  70
    32
  0
VERTEX
  8
01
  5
15C18
 10
16012.1
 20
-1006.69
 30
0.000000
  70
    32
  0
VERTEX
  8
01
  5
15C19
 10
16012.1
 20
-1006.67
 30
0.000000
  70
    32
  0
VERTEX
  8
01
  5
15C1A
 10
16012.1
 20
-1006.65
 30
0.000000
  70
    32
  0
VERTEX
  8
01
  5
15C1B
 10
16012.1
 20
-1006.63
 30
0.000000
  70
    32
  0
VERTEX
  8
01
  5
15C1C
 10
16012.1
 20
-1006.61
 30
0.000000
  70
    32
  0
VERTEX
  8
01
  5
15C1D
 10
16012.1
 20
-1006.58
 30
0.000000
  70
    32
  0
VERTEX
  8
01
  5
15C1E
 10
16012.1
 20
-1006.56
 30
0.000000
  70
    32
  0
VERTEX
  8
01
  5
15C1F
 10
16012.1
 20
-1006.54
 30
0.000000
  70
    32
  0
VERTEX
  8
01
  5
15C20
 10
16012.1
 20
-1006.51
 30
0.000000
  70
    32
  0
VERTEX
  8
01
  5
15C21
 10
16012.1
 20
-1006.48
 30
0.000000
  70
    32
  0
VERTEX
  8
01
  5
15C22
 10
16012.1
 20
-1006.46
 30
0.000000
  70
    32
  0
VERTEX
  8
01
  5
15C23
 10
16012.2
 20
-1006.43
 30
0.000000
  70
    32
  0
VERTEX
  8
01
  5
15C24
 10
16012.2
 20
-1006.40
 30
0.000000
  70
    32
  0
VERTEX
  8
01
  5
15C25
 10
16012.2
 20
-1006.38
 30
0.000000
  70
    32
  0
VERTEX
  8
01
  5
15C26
 10
16012.2
 20
-1006.35
 30
0.000000
  70
    32
  0
VERTEX
  8
01
  5
15C27
 10
16012.2
 20
-1006.32
 30
0.000000
  70
    32
  0
VERTEX
  8
01
  5
15C28
 10
16012.2
 20
-1006.29
 30
0.000000
  70
    32
  0
VERTEX
  8
01
  5
15C29
 10
16012.2
 20
-1006.26
 30
0.000000
  70
    32
  0
VERTEX
  8
01
  5
15C2A
 10
16012.2
 20
-1006.23
 30
0.000000
  70
    32
  0
VERTEX
  8
01
  5
15C2B
 10
16012.2
 20
-1006.20
 30
0.000000
  70
    32
  0
VERTEX
  8
01
  5
15C2C
 10
16012.2
 20
-1006.16
 30
0.000000
  70
    32
  0
VERTEX
  8
01
  5
15C2D
 10
16012.2
 20
-1006.13
 30
0.000000
  70
    32
  0
VERTEX
  8
01
  5
15C2E
 10
16012.2
 20
-1006.10
 30
0.000000
  70
    32
  0
VERTEX
  8
01
  5
15C2F
 10
16012.2
 20
-1006.07
 30
0.000000
  70
    32
  0
VERTEX
  8
01
  5
15C30
 10
16012.2
 20
-1006.03
 30
0.000000
  70
    32
  0
VERTEX
  8
01
  5
15C31
 10
16012.2
 20
-1006.00
 30
0.000000
  70
    32
  0
VERTEX
  8
01
  5
15C32
 10
16012.2
 20
-1005.96
 30
0.000000
  70
    32
  0
VERTEX
  8
01
  5
15C33
 10
16012.2
 20
-1005.93
 30
0.000000
  70
    32
  0
VERTEX
  8
01
  5
15C34
 10
16012.2
 20
-1005.89
 30
0.000000
  70
    32
  0
VERTEX
  8
01
  5
15C35
 10
16012.2
 20
-1005.85
 30
0.000000
  70
    32
  0
VERTEX
  8
01
  5
15C36
 10
16012.3
 20
-1005.82
 30
0.000000
  70
    32
  0
VERTEX
  8
01
  5
15C37
 10
16012.3
 20
-1005.78
 30
0.000000
  70
    32
  0
VERTEX
  8
01
  5
15C38
 10
16012.3
 20
-1005.74
 30
0.000000
  70
    32
  0
VERTEX
  8
01
  5
15C39
 10
16012.3
 20
-1005.70
 30
0.000000
  70
    32
  0
VERTEX
  8
01
  5
15C3A
 10
16012.3
 20
-1005.66
 30
0.000000
  70
    32
  0
VERTEX
  8
01
  5
15C3B
 10
16012.3
 20
-1005.62
 30
0.000000
  70
    32
  0
VERTEX
  8
01
  5
15C3C
 10
16012.3
 20
-1005.58
 30
0.000000
  70
    32
  0
VERTEX
  8
01
  5
15C3D
 10
16012.3
 20
-1005.54
 30
0.000000
  70
    32
  0
VERTEX
  8
01
  5
15C3E
 10
16012.3
 20
-1005.50
 30
0.000000
  70
    32
  0
VERTEX
  8
01
  5
15C3F
 10
16012.3
 20
-1005.46
 30
0.000000
  70
    32
  0
VERTEX
  8
01
  5
15C40
 10
16012.3
 20
-1005.42
 30
0.000000
  70
    32
  0
VERTEX
  8
01
  5
15C41
 10
16012.3
 20
-1005.38
 30
0.000000
  70
    32
  0
VERTEX
  8
01
  5
15C42
 10
16012.3
 20
-1005.33
 30
0.000000
  70
    32
  0
VERTEX
  8
01
  5
15C43
 10
16012.3
 20
-1005.29
 30
0.000000
  70
    32
  0
VERTEX
  8
01
  5
15C44
 10
16012.3
 20
-1005.25
 30
0.000000
  70
    32
  0
VERTEX
  8
01
  5
15C45
 10
16012.3
 20
-1005.20
 30
0.000000
  70
    32
  0
VERTEX
  8
01
  5
15C46
 10
16012.3
 20
-1005.16
 30
0.000000
  70
    32
  0
VERTEX
  8
01
  5
15C47
 10
16012.3
 20
-1005.11
 30
0.000000
  70
    32
  0
VERTEX
  8
01
  5
15C48
 10
16012.3
 20
-1005.07
 30
0.000000
  70
    32
  0
VERTEX
  8
01
  5
15C49
 10
16012.3
 20
-1005.02
 30
0.000000
  70
    32
  0
VERTEX
  8
01
  5
15C4A
 10
16012.3
 20
-1004.98
 30
0.000000
  70
    32
  0
VERTEX
  8
01
  5
15C4B
 10
16012.3
 20
-1004.93
 30
0.000000
  70
    32
  0
VERTEX
  8
01
  5
15C4C
 10
16012.3
 20
-1004.88
 30
0.000000
  70
    32
  0
VERTEX
  8
01
  5
15C4D
 10
16012.3
 20
-1004.84
 30
0.000000
  70
    32
  0
VERTEX
  8
01
  5
15C4E
 10
16012.4
 20
-1004.79
 30
0.000000
  70
    32
  0
VERTEX
  8
01
  5
15C4F
 10
16012.4
 20
-1004.74
 30
0.000000
  70
    32
  0
VERTEX
  8
01
  5
15C50
 10
16012.4
 20
-1004.69
 30
0.000000
  70
    32
  0
VERTEX
  8
01
  5
15C51
 10
16012.4
 20
-1004.65
 30
0.000000
  70
    32
  0
VERTEX
  8
01
  5
15C52
 10
16012.4
 20
-1004.60
 30
0.000000
  70
    32
  0
VERTEX
  8
01
  5
15C53
 10
16012.4
 20
-1004.55
 30
0.000000
  70
    32
  0
VERTEX
  8
01
  5
15C54
 10
16012.4
 20
-1004.50
 30
0.000000
  70
    32
  0
VERTEX
  8
01
  5
15C55
 10
16012.4
 20
-1004.45
 30
0.000000
  70
    32
  0
VERTEX
  8
01
  5
15C56
 10
16012.4
 20
-1004.40
 30
0.000000
  70
    32
  0
VERTEX
  8
01
  5
15C57
 10
16012.4
 20
-1004.35
 30
0.000000
  70
    32
  0
VERTEX
  8
01
  5
15C58
 10
16012.4
 20
-1004.30
 30
0.000000
  70
    32
  0
VERTEX
  8
01
  5
15C59
 10
16012.4
 20
-1004.25
 30
0.000000
  70
    32
  0
VERTEX
  8
01
  5
15C5A
 10
16012.4
 20
-1004.20
 30
0.000000
  70
    32
  0
VERTEX
  8
01
  5
15C5B
 10
16012.4
 20
-1004.15
 30
0.000000
  70
    32
  0
VERTEX
  8
01
  5
15C5C
 10
16012.4
 20
-1004.10
 30
0.000000
  70
    32
  0
VERTEX
  8
01
  5
15C5D
 10
16012.4
 20
-1004.04
 30
0.000000
  70
    32
  0
VERTEX
  8
01
  5
15C5E
 10
16012.4
 20
-1003.99
 30
0.000000
  70
    32
  0
VERTEX
  8
01
  5
15C5F
 10
16012.4
 20
-1003.94
 30
0.000000
  70
    32
  0
VERTEX
  8
01
  5
15C60
 10
16012.4
 20
-1003.89
 30
0.000000
  70
    32
  0
VERTEX
  8
01
  5
15C61
 10
16012.4
 20
-1003.83
 30
0.000000
  70
    32
  0
VERTEX
  8
01
  5
15C62
 10
16012.4
 20
-1003.78
 30
0.000000
  70
    32
  0
VERTEX
  8
01
  5
15C63
 10
16012.4
 20
-1003.73
 30
0.000000
  70
    32
  0
VERTEX
  8
01
  5
15C64
 10
16012.4
 20
-1003.68
 30
0.000000
  70
    32
  0
VERTEX
  8
01
  5
15C65
 10
16012.4
 20
-1003.62
 30
0.000000
  70
    32
  0
VERTEX
  8
01
  5
15C66
 10
16012.4
 20
-1003.57
 30
0.000000
  70
    32
  0
VERTEX
  8
01
  5
15C67
 10
16012.4
 20
-1003.52
 30
0.000000
  70
    32
  0
VERTEX
  8
01
  5
15C68
 10
16012.4
 20
-1003.46
 30
0.000000
  70
    32
  0
VERTEX
  8
01
  5
15C69
 10
16012.4
 20
-1003.41
 30
0.000000
  70
    32
  0
VERTEX
  8
01
  5
15C6A
 10
16012.4
 20
-1003.35
 30
0.000000
  70
    32
  0
VERTEX
  8
01
  5
15C6B
 10
16012.4
 20
-1003.30
 30
0.000000
  70
    32
  0
VERTEX
  8
01
  5
15C6C
 10
16012.4
 20
-1003.25
 30
0.000000
  70
    32
  0
VERTEX
  8
01
  5
15C6D
 10
16012.4
 20
-1003.19
 30
0.000000
  70
    32
  0
VERTEX
  8
01
  5
15C6E
 10
16012.4
 20
-1003.14
 30
0.000000
  70
    32
  0
VERTEX
  8
01
  5
15C6F
 10
16012.4
 20
-1003.08
 30
0.000000
  70
    32
  0
VERTEX
  8
01
  5
15C70
 10
16012.4
 20
-1003.03
 30
0.000000
  70
    32
  0
VERTEX
  8
01
  5
15C71
 10
16012.4
 20
-1002.97
 30
0.000000
  70
    32
  0
VERTEX
  8
01
  5
15C72
 10
16012.4
 20
-1002.92
 30
0.000000
  70
    32
  0
VERTEX
  8
01
  5
15C73
 10
16012.4
 20
-1002.86
 30
0.000000
  70
    32
  0
VERTEX
  8
01
  5
15C74
 10
16012.4
 20
-1002.81
 30
0.000000
  70
    32
  0
VERTEX
  8
01
  5
15C75
 10
16012.4
 20
-1002.75
 30
0.000000
  70
    32
  0
VERTEX
  8
01
  5
15C76
 10
16012.4
 20
-1002.70
 30
0.000000
  70
    32
  0
VERTEX
  8
01
  5
15C77
 10
16012.4
 20
-1002.64
 30
0.000000
  70
    32
  0
VERTEX
  8
01
  5
15C78
 10
16012.4
 20
-1002.59
 30
0.000000
  70
    32
  0
VERTEX
  8
01
  5
15C79
 10
16012.4
 20
-1002.53
 30
0.000000
  70
    32
  0
SEQEND
  8
01
  5
15C7A
  0
POLYLINE
  5
152DA
  8
01
 10
16004.613519584347
 20
-1011.5536174156816
 30
0.0
 66
     1
 70
     8
  0
VERTEX
  8
01
  5
15C7B
 10
16004.6
 20
-1011.55
 30
0.000000
  70
    32
  0
VERTEX
  8
01
  5
15C7C
 10
16004.6
 20
-1011.55
 30
0.000000
  70
    32
  0
VERTEX
  8
01
  5
15C7D
 10
16004.6
 20
-1011.56
 30
0.000000
  70
    32
  0
VERTEX
  8
01
  5
15C7E
 10
16004.6
 20
-1011.56
 30
0.000000
  70
    32
  0
VERTEX
  8
01
  5
15C7F
 10
16004.6
 20
-1011.56
 30
0.000000
  70
    32
  0
VERTEX
  8
01
  5
15C80
 10
16004.5
 20
-1011.56
 30
0.000000
  70
    32
  0
VERTEX
  8
01
  5
15C81
 10
16004.5
 20
-1011.57
 30
0.000000
  70
    32
  0
VERTEX
  8
01
  5
15C82
 10
16004.5
 20
-1011.57
 30
0.000000
  70
    32
  0
VERTEX
  8
01
  5
15C83
 10
16004.5
 20
-1011.58
 30
0.000000
  70
    32
  0
VERTEX
  8
01
  5
15C84
 10
16004.5
 20
-1011.58
 30
0.000000
  70
    32
  0
VERTEX
  8
01
  5
15C85
 10
16004.5
 20
-1011.59
 30
0.000000
  70
    32
  0
VERTEX
  8
01
  5
15C86
 10
16004.4
 20
-1011.60
 30
0.000000
  70
    32
  0
VERTEX
  8
01
  5
15C87
 10
16004.4
 20
-1011.61
 30
0.000000
  70
    32
  0
VERTEX
  8
01
  5
15C88
 10
16004.4
 20
-1011.61
 30
0.000000
  70
    32
  0
VERTEX
  8
01
  5
15C89
 10
16004.4
 20
-1011.62
 30
0.000000
  70
    32
  0
VERTEX
  8
01
  5
15C8A
 10
16004.4
 20
-1011.63
 30
0.000000
  70
    32
  0
VERTEX
  8
01
  5
15C8B
 10
16004.4
 20
-1011.65
 30
0.000000
  70
    32
  0
VERTEX
  8
01
  5
15C8C
 10
16004.4
 20
-1011.66
 30
0.000000
  70
    32
  0
VERTEX
  8
01
  5
15C8D
 10
16004.3
 20
-1011.67
 30
0.000000
  70
    32
  0
VERTEX
  8
01
  5
15C8E
 10
16004.3
 20
-1011.68
 30
0.000000
  70
    32
  0
VERTEX
  8
01
  5
15C8F
 10
16004.3
 20
-1011.70
 30
0.000000
  70
    32
  0
VERTEX
  8
01
  5
15C90
 10
16004.3
 20
-1011.71
 30
0.000000
  70
    32
  0
VERTEX
  8
01
  5
15C91
 10
16004.3
 20
-1011.73
 30
0.000000
  70
    32
  0
VERTEX
  8
01
  5
15C92
 10
16004.3
 20
-1011.74
 30
0.000000
  70
    32
  0
VERTEX
  8
01
  5
15C93
 10
16004.3
 20
-1011.76
 30
0.000000
  70
    32
  0
VERTEX
  8
01
  5
15C94
 10
16004.2
 20
-1011.78
 30
0.000000
  70
    32
  0
VERTEX
  8
01
  5
15C95
 10
16004.2
 20
-1011.79
 30
0.000000
  70
    32
  0
VERTEX
  8
01
  5
15C96
 10
16004.2
 20
-1011.81
 30
0.000000
  70
    32
  0
VERTEX
  8
01
  5
15C97
 10
16004.2
 20
-1011.83
 30
0.000000
  70
    32
  0
VERTEX
  8
01
  5
15C98
 10
16004.2
 20
-1011.85
 30
0.000000
  70
    32
  0
VERTEX
  8
01
  5
15C99
 10
16004.2
 20
-1011.87
 30
0.000000
  70
    32
  0
VERTEX
  8
01
  5
15C9A
 10
16004.2
 20
-1011.89
 30
0.000000
  70
    32
  0
VERTEX
  8
01
  5
15C9B
 10
16004.2
 20
-1011.91
 30
0.000000
  70
    32
  0
VERTEX
  8
01
  5
15C9C
 10
16004.1
 20
-1011.94
 30
0.000000
  70
    32
  0
VERTEX
  8
01
  5
15C9D
 10
16004.1
 20
-1011.96
 30
0.000000
  70
    32
  0
VERTEX
  8
01
  5
15C9E
 10
16004.1
 20
-1011.98
 30
0.000000
  70
    32
  0
VERTEX
  8
01
  5
15C9F
 10
16004.1
 20
-1012.01
 30
0.000000
  70
    32
  0
VERTEX
  8
01
  5
15CA0
 10
16004.1
 20
-1012.03
 30
0.000000
  70
    32
  0
VERTEX
  8
01
  5
15CA1
 10
16004.1
 20
-1012.06
 30
0.000000
  70
    32
  0
VERTEX
  8
01
  5
15CA2
 10
16004.1
 20
-1012.08
 30
0.000000
  70
    32
  0
VERTEX
  8
01
  5
15CA3
 10
16004.1
 20
-1012.11
 30
0.000000
  70
    32
  0
VERTEX
  8
01
  5
15CA4
 10
16004.0
 20
-1012.13
 30
0.000000
  70
    32
  0
VERTEX
  8
01
  5
15CA5
 10
16004.0
 20
-1012.16
 30
0.000000
  70
    32
  0
VERTEX
  8
01
  5
15CA6
 10
16004.0
 20
-1012.19
 30
0.000000
  70
    32
  0
VERTEX
  8
01
  5
15CA7
 10
16004.0
 20
-1012.22
 30
0.000000
  70
    32
  0
VERTEX
  8
01
  5
15CA8
 10
16004.0
 20
-1012.25
 30
0.000000
  70
    32
  0
VERTEX
  8
01
  5
15CA9
 10
16004.0
 20
-1012.28
 30
0.000000
  70
    32
  0
VERTEX
  8
01
  5
15CAA
 10
16004.0
 20
-1012.31
 30
0.000000
  70
    32
  0
VERTEX
  8
01
  5
15CAB
 10
16004.0
 20
-1012.34
 30
0.000000
  70
    32
  0
VERTEX
  8
01
  5
15CAC
 10
16004.0
 20
-1012.37
 30
0.000000
  70
    32
  0
VERTEX
  8
01
  5
15CAD
 10
16004.0
 20
-1012.40
 30
0.000000
  70
    32
  0
VERTEX
  8
01
  5
15CAE
 10
16003.9
 20
-1012.43
 30
0.000000
  70
    32
  0
VERTEX
  8
01
  5
15CAF
 10
16003.9
 20
-1012.46
 30
0.000000
  70
    32
  0
VERTEX
  8
01
  5
15CB0
 10
16003.9
 20
-1012.50
 30
0.000000
  70
    32
  0
VERTEX
  8
01
  5
15CB1
 10
16003.9
 20
-1012.53
 30
0.000000
  70
    32
  0
VERTEX
  8
01
  5
15CB2
 10
16003.9
 20
-1012.56
 30
0.000000
  70
    32
  0
VERTEX
  8
01
  5
15CB3
 10
16003.9
 20
-1012.60
 30
0.000000
  70
    32
  0
VERTEX
  8
01
  5
15CB4
 10
16003.9
 20
-1012.63
 30
0.000000
  70
    32
  0
VERTEX
  8
01
  5
15CB5
 10
16003.9
 20
-1012.67
 30
0.000000
  70
    32
  0
VERTEX
  8
01
  5
15CB6
 10
16003.9
 20
-1012.70
 30
0.000000
  70
    32
  0
VERTEX
  8
01
  5
15CB7
 10
16003.9
 20
-1012.74
 30
0.000000
  70
    32
  0
VERTEX
  8
01
  5
15CB8
 10
16003.9
 20
-1012.77
 30
0.000000
  70
    32
  0
VERTEX
  8
01
  5
15CB9
 10
16003.9
 20
-1012.81
 30
0.000000
  70
    32
  0
VERTEX
  8
01
  5
15CBA
 10
16003.8
 20
-1012.85
 30
0.000000
  70
    32
  0
VERTEX
  8
01
  5
15CBB
 10
16003.8
 20
-1012.88
 30
0.000000
  70
    32
  0
VERTEX
  8
01
  5
15CBC
 10
16003.8
 20
-1012.92
 30
0.000000
  70
    32
  0
VERTEX
  8
01
  5
15CBD
 10
16003.8
 20
-1012.96
 30
0.000000
  70
    32
  0
VERTEX
  8
01
  5
15CBE
 10
16003.8
 20
-1013.00
 30
0.000000
  70
    32
  0
VERTEX
  8
01
  5
15CBF
 10
16003.8
 20
-1013.04
 30
0.000000
  70
    32
  0
VERTEX
  8
01
  5
15CC0
 10
16003.8
 20
-1013.07
 30
0.000000
  70
    32
  0
VERTEX
  8
01
  5
15CC1
 10
16003.8
 20
-1013.11
 30
0.000000
  70
    32
  0
VERTEX
  8
01
  5
15CC2
 10
16003.8
 20
-1013.15
 30
0.000000
  70
    32
  0
VERTEX
  8
01
  5
15CC3
 10
16003.8
 20
-1013.19
 30
0.000000
  70
    32
  0
VERTEX
  8
01
  5
15CC4
 10
16003.8
 20
-1013.23
 30
0.000000
  70
    32
  0
VERTEX
  8
01
  5
15CC5
 10
16003.8
 20
-1013.27
 30
0.000000
  70
    32
  0
VERTEX
  8
01
  5
15CC6
 10
16003.8
 20
-1013.31
 30
0.000000
  70
    32
  0
VERTEX
  8
01
  5
15CC7
 10
16003.8
 20
-1013.35
 30
0.000000
  70
    32
  0
VERTEX
  8
01
  5
15CC8
 10
16003.8
 20
-1013.39
 30
0.000000
  70
    32
  0
VERTEX
  8
01
  5
15CC9
 10
16003.8
 20
-1013.43
 30
0.000000
  70
    32
  0
VERTEX
  8
01
  5
15CCA
 10
16003.8
 20
-1013.47
 30
0.000000
  70
    32
  0
VERTEX
  8
01
  5
15CCB
 10
16003.8
 20
-1013.51
 30
0.000000
  70
    32
  0
VERTEX
  8
01
  5
15CCC
 10
16003.8
 20
-1013.55
 30
0.000000
  70
    32
  0
VERTEX
  8
01
  5
15CCD
 10
16003.8
 20
-1013.59
 30
0.000000
  70
    32
  0
VERTEX
  8
01
  5
15CCE
 10
16003.8
 20
-1013.63
 30
0.000000
  70
    32
  0
VERTEX
  8
01
  5
15CCF
 10
16003.8
 20
-1013.68
 30
0.000000
  70
    32
  0
VERTEX
  8
01
  5
15CD0
 10
16003.8
 20
-1013.72
 30
0.000000
  70
    32
  0
VERTEX
  8
01
  5
15CD1
 10
16003.8
 20
-1013.76
 30
0.000000
  70
    32
  0
VERTEX
  8
01
  5
15CD2
 10
16003.8
 20
-1013.80
 30
0.000000
  70
    32
  0
VERTEX
  8
01
  5
15CD3
 10
16003.8
 20
-1013.84
 30
0.000000
  70
    32
  0
VERTEX
  8
01
  5
15CD4
 10
16003.8
 20
-1013.88
 30
0.000000
  70
    32
  0
VERTEX
  8
01
  5
15CD5
 10
16003.8
 20
-1013.92
 30
0.000000
  70
    32
  0
VERTEX
  8
01
  5
15CD6
 10
16003.8
 20
-1013.96
 30
0.000000
  70
    32
  0
VERTEX
  8
01
  5
15CD7
 10
16003.8
 20
-1014.01
 30
0.000000
  70
    32
  0
VERTEX
  8
01
  5
15CD8
 10
16003.8
 20
-1014.05
 30
0.000000
  70
    32
  0
VERTEX
  8
01
  5
15CD9
 10
16003.8
 20
-1014.09
 30
0.000000
  70
    32
  0
VERTEX
  8
01
  5
15CDA
 10
16003.8
 20
-1014.13
 30
0.000000
  70
    32
  0
VERTEX
  8
01
  5
15CDB
 10
16003.8
 20
-1014.17
 30
0.000000
  70
    32
  0
VERTEX
  8
01
  5
15CDC
 10
16003.8
 20
-1014.21
 30
0.000000
  70
    32
  0
VERTEX
  8
01
  5
15CDD
 10
16003.8
 20
-1014.25
 30
0.000000
  70
    32
  0
VERTEX
  8
01
  5
15CDE
 10
16003.8
 20
-1014.29
 30
0.000000
  70
    32
  0
VERTEX
  8
01
  5
15CDF
 10
16003.8
 20
-1014.33
 30
0.000000
  70
    32
  0
VERTEX
  8
01
  5
15CE0
 10
16003.8
 20
-1014.37
 30
0.000000
  70
    32
  0
VERTEX
  8
01
  5
15CE1
 10
16003.8
 20
-1014.41
 30
0.000000
  70
    32
  0
VERTEX
  8
01
  5
15CE2
 10
16003.8
 20
-1014.46
 30
0.000000
  70
    32
  0
VERTEX
  8
01
  5
15CE3
 10
16003.8
 20
-1014.50
 30
0.000000
  70
    32
  0
VERTEX
  8
01
  5
15CE4
 10
16003.8
 20
-1014.54
 30
0.000000
  70
    32
  0
VERTEX
  8
01
  5
15CE5
 10
16003.8
 20
-1014.58
 30
0.000000
  70
    32
  0
VERTEX
  8
01
  5
15CE6
 10
16003.8
 20
-1014.61
 30
0.000000
  70
    32
  0
VERTEX
  8
01
  5
15CE7
 10
16003.8
 20
-1014.65
 30
0.000000
  70
    32
  0
VERTEX
  8
01
  5
15CE8
 10
16003.8
 20
-1014.69
 30
0.000000
  70
    32
  0
VERTEX
  8
01
  5
15CE9
 10
16003.8
 20
-1014.73
 30
0.000000
  70
    32
  0
VERTEX
  8
01
  5
15CEA
 10
16003.8
 20
-1014.77
 30
0.000000
  70
    32
  0
VERTEX
  8
01
  5
15CEB
 10
16003.8
 20
-1014.81
 30
0.000000
  70
    32
  0
VERTEX
  8
01
  5
15CEC
 10
16003.8
 20
-1014.85
 30
0.000000
  70
    32
  0
VERTEX
  8
01
  5
15CED
 10
16003.8
 20
-1014.89
 30
0.000000
  70
    32
  0
VERTEX
  8
01
  5
15CEE
 10
16003.8
 20
-1014.92
 30
0.000000
  70
    32
  0
VERTEX
  8
01
  5
15CEF
 10
16003.8
 20
-1014.96
 30
0.000000
  70
    32
  0
VERTEX
  8
01
  5
15CF0
 10
16003.8
 20
-1015.00
 30
0.000000
  70
    32
  0
VERTEX
  8
01
  5
15CF1
 10
16003.9
 20
-1015.03
 30
0.000000
  70
    32
  0
VERTEX
  8
01
  5
15CF2
 10
16003.9
 20
-1015.07
 30
0.000000
  70
    32
  0
VERTEX
  8
01
  5
15CF3
 10
16003.9
 20
-1015.11
 30
0.000000
  70
    32
  0
VERTEX
  8
01
  5
15CF4
 10
16003.9
 20
-1015.14
 30
0.000000
  70
    32
  0
VERTEX
  8
01
  5
15CF5
 10
16003.9
 20
-1015.18
 30
0.000000
  70
    32
  0
VERTEX
  8
01
  5
15CF6
 10
16003.9
 20
-1015.21
 30
0.000000
  70
    32
  0
VERTEX
  8
01
  5
15CF7
 10
16003.9
 20
-1015.25
 30
0.000000
  70
    32
  0
VERTEX
  8
01
  5
15CF8
 10
16003.9
 20
-1015.28
 30
0.000000
  70
    32
  0
VERTEX
  8
01
  5
15CF9
 10
16003.9
 20
-1015.31
 30
0.000000
  70
    32
  0
VERTEX
  8
01
  5
15CFA
 10
16003.9
 20
-1015.35
 30
0.000000
  70
    32
  0
VERTEX
  8
01
  5
15CFB
 10
16003.9
 20
-1015.38
 30
0.000000
  70
    32
  0
SEQEND
  8
01
  5
15CFC
  0
LINE
  5
152DB
  8
01
 10
15988.180453937481
 20
-1042.9586174156809
 30
0.0
 11
15987.215453937481
 21
-1041.3746174156811
 31
0.0
  0
LINE
  5
152DC
  8
01
 10
15967.38045393748
 20
-1042.9586174156809
 30
0.0
 11
15968.34545393748
 21
-1041.3746174156811
 31
0.0
  0
LINE
  5
152DD
  8
01
 10
15977.780453937479
 20
-1041.3746174156811
 30
0.0
 11
15967.183453937479
 21
-1041.3746174156811
 31
0.0
  0
LINE
  5
152DE
  8
01
 10
15967.183453937479
 20
-1041.3746174156811
 30
0.0
 11
15967.303210350099
 21
-1037.5346174156809
 31
0.0
  0
LINE
  5
152DF
  8
01
 10
15988.377453937481
 20
-1041.3746174156811
 30
0.0
 11
15988.257697524859
 21
-1037.5346174156809
 31
0.0
  0
LINE
  5
152E0
  8
01
 10
15987.09545393748
 20
-1037.5346174156809
 30
0.0
 11
15987.215453937481
 21
-1041.3746174156811
 31
0.0
  0
LINE
  5
152E1
  8
01
 10
15968.465453937481
 20
-1037.5346174156809
 30
0.0
 11
15968.34545393748
 21
-1041.3746174156811
 31
0.0
  0
LINE
  5
152E2
  8
01
 10
15977.780453937479
 20
-1041.3746174156811
 30
0.0
 11
15988.377453937481
 21
-1041.3746174156811
 31
0.0
  0
LINE
  5
152E3
  8
01
 10
15967.38045393748
 20
-1047.166405931905
 30
0.0
 11
15967.38045393748
 21
-1041.3746174156811
 31
0.0
  0
LINE
  5
152E4
  8
01
 10
15988.180453937481
 20
-1047.1664059319039
 30
0.0
 11
15988.180453937481
 21
-1041.3746174156811
 31
0.0
  0
LINE
  5
152E5
  8
01
 10
15966.869453937479
 20
-968.6346174156813
 30
0.0
 11
15977.780453937479
 21
-968.6346174156813
 31
0.0
  0
ARC
  5
152E6
  8
01
 10
15976.680453937481
 20
-974.63461741568119
 30
0.0
 40
11.5
 50
148.5509999999999
 51
211.44900000000001
  0
LINE
  5
152E7
  8
01
 10
15966.869453937479
 20
-980.63461741568119
 30
0.0
 11
15977.780453937479
 21
-980.63461741568119
 31
0.0
  0
LINE
  5
152E8
  8
01
 10
15967.82145393748
 20
-969.7266174156814
 30
0.0
 11
15967.33745393748
 21
-969.81461741568137
 31
0.0
  0
LINE
  5
152E9
  8
01
 10
15967.33745393748
 20
-969.81461741568137
 30
0.0
 11
15966.89345393748
 21
-970.05661741568133
 31
0.0
  0
LINE
  5
152EA
  8
01
 10
15966.89345393748
 20
-970.05661741568133
 30
0.0
 11
15966.513453937479
 21
-970.40761741568144
 31
0.0
  0
LINE
  5
152EB
  8
01
 10
15966.513453937479
 20
-970.40761741568144
 30
0.0
 11
15966.20545393748
 21
-970.81361741568139
 31
0.0
  0
LINE
  5
152EC
  8
01
 10
15966.20545393748
 20
-970.81361741568139
 30
0.0
 11
15965.96445393748
 21
-971.23561741568142
 31
0.0
  0
LINE
  5
152ED
  8
01
 10
15965.96445393748
 20
-971.23561741568142
 30
0.0
 11
15965.778453937481
 21
-971.64861741568143
 31
0.0
  0
LINE
  5
152EE
  8
01
 10
15965.778453937481
 20
-971.64861741568143
 30
0.0
 11
15965.636453937481
 21
-972.04061741568125
 31
0.0
  0
LINE
  5
152EF
  8
01
 10
15965.636453937481
 20
-972.04061741568125
 30
0.0
 11
15965.52745393748
 21
-972.40761741568144
 31
0.0
  0
LINE
  5
152F0
  8
01
 10
15965.52745393748
 20
-972.40761741568144
 30
0.0
 11
15965.44445393748
 21
-972.74861741568145
 31
0.0
  0
LINE
  5
152F1
  8
01
 10
15965.44445393748
 20
-972.74861741568145
 30
0.0
 11
15965.38145393748
 21
-973.06861741568127
 31
0.0
  0
LINE
  5
152F2
  8
01
 10
15965.38145393748
 20
-973.06861741568127
 30
0.0
 11
15965.334453937479
 21
-973.36861741568134
 31
0.0
  0
LINE
  5
152F3
  8
01
 10
15965.334453937479
 20
-973.36861741568134
 30
0.0
 11
15965.298453937479
 21
-973.65461741568117
 31
0.0
  0
LINE
  5
152F4
  8
01
 10
15965.298453937479
 20
-973.65461741568117
 30
0.0
 11
15965.27345393748
 21
-973.92761741568131
 31
0.0
  0
LINE
  5
152F5
  8
01
 10
15965.27345393748
 20
-973.92761741568131
 30
0.0
 11
15965.25745393748
 21
-974.19261741568118
 31
0.0
  0
LINE
  5
152F6
  8
01
 10
15965.25745393748
 20
-974.19261741568118
 30
0.0
 11
15965.24845393748
 21
-974.45261741568129
 31
0.0
  0
LINE
  5
152F7
  8
01
 10
15965.24845393748
 20
-974.45261741568129
 30
0.0
 11
15965.24745393748
 21
-974.70961741568135
 31
0.0
  0
LINE
  5
152F8
  8
01
 10
15965.24745393748
 20
-974.70961741568135
 30
0.0
 11
15965.253453937479
 21
-974.96861741568125
 31
0.0
  0
LINE
  5
152F9
  8
01
 10
15965.253453937479
 20
-974.96861741568125
 30
0.0
 11
15965.26645393748
 21
-975.23061741568119
 31
0.0
  0
LINE
  5
152FA
  8
01
 10
15965.26645393748
 20
-975.23061741568119
 30
0.0
 11
15965.287453937481
 21
-975.50061741568129
 31
0.0
  0
LINE
  5
152FB
  8
01
 10
15965.287453937481
 20
-975.50061741568129
 30
0.0
 11
15965.31845393748
 21
-975.78061741568115
 31
0.0
  0
LINE
  5
152FC
  8
01
 10
15965.31845393748
 20
-975.78061741568115
 30
0.0
 11
15965.360453937479
 21
-976.07361741568138
 31
0.0
  0
LINE
  5
152FD
  8
01
 10
15965.360453937479
 20
-976.07361741568138
 30
0.0
 11
15965.41645393748
 21
-976.38561741568117
 31
0.0
  0
LINE
  5
152FE
  8
01
 10
15965.41645393748
 20
-976.38561741568117
 30
0.0
 11
15965.49045393748
 21
-976.71761741568139
 31
0.0
  0
LINE
  5
152FF
  8
01
 10
15965.49045393748
 20
-976.71761741568139
 30
0.0
 11
15965.58745393748
 21
-977.07361741568138
 31
0.0
  0
LINE
  5
15300
  8
01
 10
15965.58745393748
 20
-977.07361741568138
 30
0.0
 11
15965.71445393748
 21
-977.45461741568135
 31
0.0
  0
LINE
  5
15301
  8
01
 10
15965.71445393748
 20
-977.45461741568135
 30
0.0
 11
15965.88045393748
 21
-977.85961741568156
 31
0.0
  0
LINE
  5
15302
  8
01
 10
15965.88045393748
 20
-977.85961741568156
 30
0.0
 11
15966.09745393748
 21
-978.28061741568115
 31
0.0
  0
LINE
  5
15303
  8
01
 10
15966.09745393748
 20
-978.28061741568115
 30
0.0
 11
15966.376453937481
 21
-978.69761741568141
 31
0.0
  0
LINE
  5
15304
  8
01
 10
15966.376453937481
 20
-978.69761741568141
 30
0.0
 11
15966.726453937479
 21
-979.07661741568131
 31
0.0
  0
LINE
  5
15305
  8
01
 10
15966.726453937479
 20
-979.07661741568131
 30
0.0
 11
15967.145453937481
 21
-979.37061741568129
 31
0.0
  0
LINE
  5
15306
  8
01
 10
15967.145453937481
 20
-979.37061741568129
 30
0.0
 11
15967.617453937481
 21
-979.52761741568122
 31
0.0
  0
LINE
  5
15307
  8
01
 10
15967.617453937481
 20
-979.52761741568122
 30
0.0
 11
15967.82145393748
 21
-979.54261741568143
 31
0.0
  0
LINE
  5
15308
  8
01
 10
15967.82145393748
 20
-979.54261741568143
 30
0.0
 11
15968.10645393748
 21
-979.51261741568135
 31
0.0
  0
LINE
  5
15309
  8
01
 10
15968.10645393748
 20
-979.51261741568135
 30
0.0
 11
15968.57145393748
 21
-979.32961741568135
 31
0.0
  0
LINE
  5
1530A
  8
01
 10
15968.57145393748
 20
-979.32961741568135
 30
0.0
 11
15968.97945393748
 21
-979.01761741568146
 31
0.0
  0
LINE
  5
1530B
  8
01
 10
15968.97945393748
 20
-979.01761741568146
 30
0.0
 11
15969.31745393748
 21
-978.62861741568133
 31
0.0
  0
LINE
  5
1530C
  8
01
 10
15969.31745393748
 20
-978.62861741568133
 30
0.0
 11
15969.584453937479
 21
-978.20961741568135
 31
0.0
  0
LINE
  5
1530D
  8
01
 10
15969.584453937479
 20
-978.20961741568135
 30
0.0
 11
15969.79245393748
 21
-977.79061741568125
 31
0.0
  0
LINE
  5
1530E
  8
01
 10
15969.79245393748
 20
-977.79061741568125
 30
0.0
 11
15969.95145393748
 21
-977.38861741568144
 31
0.0
  0
LINE
  5
1530F
  8
01
 10
15969.95145393748
 20
-977.38861741568144
 30
0.0
 11
15970.073453937481
 21
-977.01161741568126
 31
0.0
  0
LINE
  5
15310
  8
01
 10
15970.073453937481
 20
-977.01161741568126
 30
0.0
 11
15970.165453937479
 21
-976.65961741568151
 31
0.0
  0
LINE
  5
15311
  8
01
 10
15970.165453937479
 20
-976.65961741568151
 30
0.0
 11
15970.236453937479
 21
-976.33161741568142
 31
0.0
  0
LINE
  5
15312
  8
01
 10
15970.236453937479
 20
-976.33161741568142
 30
0.0
 11
15970.289453937479
 21
-976.02361741568143
 31
0.0
  0
LINE
  5
15313
  8
01
 10
15970.289453937479
 20
-976.02361741568143
 30
0.0
 11
15970.32945393748
 21
-975.73261741568115
 31
0.0
  0
LINE
  5
15314
  8
01
 10
15970.32945393748
 20
-975.73261741568115
 30
0.0
 11
15970.358453937481
 21
-975.45461741568135
 31
0.0
  0
LINE
  5
15315
  8
01
 10
15970.358453937481
 20
-975.45461741568135
 30
0.0
 11
15970.378453937479
 21
-975.18661741568144
 31
0.0
  0
LINE
  5
15316
  8
01
 10
15970.378453937479
 20
-975.18661741568144
 30
0.0
 11
15970.39045393748
 21
-974.92461741568115
 31
0.0
  0
LINE
  5
15317
  8
01
 10
15970.39045393748
 20
-974.92461741568115
 30
0.0
 11
15970.395453937481
 21
-974.66661741568134
 31
0.0
  0
LINE
  5
15318
  8
01
 10
15970.395453937481
 20
-974.66661741568134
 30
0.0
 11
15970.39245393748
 21
-974.40861741568142
 31
0.0
  0
LINE
  5
15319
  8
01
 10
15970.39245393748
 20
-974.40861741568142
 30
0.0
 11
15970.38245393748
 21
-974.14861741568154
 31
0.0
  0
LINE
  5
1531A
  8
01
 10
15970.38245393748
 20
-974.14861741568154
 30
0.0
 11
15970.36445393748
 21
-973.88261741568124
 31
0.0
  0
LINE
  5
1531B
  8
01
 10
15970.36445393748
 20
-973.88261741568124
 30
0.0
 11
15970.33845393748
 21
-973.60761741568115
 31
0.0
  0
LINE
  5
1531C
  8
01
 10
15970.33845393748
 20
-973.60761741568115
 30
0.0
 11
15970.30045393748
 21
-973.31961741568125
 31
0.0
  0
LINE
  5
1531D
  8
01
 10
15970.30045393748
 20
-973.31961741568125
 30
0.0
 11
15970.251453937481
 21
-973.01661741568125
 31
0.0
  0
LINE
  5
1531E
  8
01
 10
15970.251453937481
 20
-973.01661741568125
 30
0.0
 11
15970.18545393748
 21
-972.69361741568127
 31
0.0
  0
LINE
  5
1531F
  8
01
 10
15970.18545393748
 20
-972.69361741568127
 30
0.0
 11
15970.09845393748
 21
-972.34761741568127
 31
0.0
  0
LINE
  5
15320
  8
01
 10
15970.09845393748
 20
-972.34761741568127
 30
0.0
 11
15969.984453937481
 21
-971.97661741568152
 31
0.0
  0
LINE
  5
15321
  8
01
 10
15969.984453937481
 20
-971.97661741568152
 30
0.0
 11
15969.83645393748
 21
-971.58061741568144
 31
0.0
  0
LINE
  5
15323
  8
01
 10
15969.64145393748
 20
-971.16461741568128
 30
0.0
 11
15969.38945393748
 21
-970.74361741568146
 31
0.0
  0
LINE
  5
15324
  8
01
 10
15969.38945393748
 20
-970.74361741568146
 30
0.0
 11
15969.06945393748
 21
-970.34361741568125
 31
0.0
  0
LINE
  5
15325
  8
01
 10
15969.06945393748
 20
-970.34361741568125
 30
0.0
 11
15968.67845393748
 21
-970.00661741568138
 31
0.0
  0
LINE
  5
15326
  8
01
 10
15968.67845393748
 20
-970.00661741568138
 30
0.0
 11
15968.225453937481
 21
-969.78761741568144
 31
0.0
  0
LINE
  5
15327
  8
01
 10
15968.225453937481
 20
-969.78761741568144
 30
0.0
 11
15967.82145393748
 21
-969.7266174156814
 31
0.0
  0
LINE
  5
1533D
  8
01
 10
15988.691453937479
 20
-968.6346174156813
 30
0.0
 11
15977.780453937479
 21
-968.6346174156813
 31
0.0
  0
ARC
  5
1533E
  8
01
 10
15978.88045393748
 20
-974.63461741568119
 30
0.0
 40
11.5
 50
328.55099999999987
 51
31.449000000000041
  0
LINE
  5
1533F
  8
01
 10
15988.691453937479
 20
-980.63461741568119
 30
0.0
 11
15977.780453937479
 21
-980.63461741568119
 31
0.0
  0
LINE
  5
15340
  8
01
 10
15987.73945393748
 20
-969.7266174156814
 30
0.0
 11
15988.22345393748
 21
-969.81461741568137
 31
0.0
  0
LINE
  5
15341
  8
01
 10
15988.22345393748
 20
-969.81461741568137
 30
0.0
 11
15988.66745393748
 21
-970.05661741568133
 31
0.0
  0
LINE
  5
15342
  8
01
 10
15988.66745393748
 20
-970.05661741568133
 30
0.0
 11
15989.047453937481
 21
-970.40761741568144
 31
0.0
  0
LINE
  5
15343
  8
01
 10
15989.047453937481
 20
-970.40761741568144
 30
0.0
 11
15989.35545393748
 21
-970.81361741568139
 31
0.0
  0
LINE
  5
15344
  8
01
 10
15989.35545393748
 20
-970.81361741568139
 30
0.0
 11
15989.59645393748
 21
-971.23561741568142
 31
0.0
  0
LINE
  5
15345
  8
01
 10
15989.59645393748
 20
-971.23561741568142
 30
0.0
 11
15989.78245393748
 21
-971.64861741568143
 31
0.0
  0
LINE
  5
15346
  8
01
 10
15989.78245393748
 20
-971.64861741568143
 30
0.0
 11
15989.924453937479
 21
-972.04061741568125
 31
0.0
  0
LINE
  5
15347
  8
01
 10
15989.924453937479
 20
-972.04061741568125
 30
0.0
 11
15990.03345393748
 21
-972.40761741568144
 31
0.0
  0
LINE
  5
15348
  8
01
 10
15990.03345393748
 20
-972.40761741568144
 30
0.0
 11
15990.11645393748
 21
-972.74861741568145
 31
0.0
  0
LINE
  5
15349
  8
01
 10
15990.11645393748
 20
-972.74861741568145
 30
0.0
 11
15990.179453937481
 21
-973.06861741568127
 31
0.0
  0
LINE
  5
1534A
  8
01
 10
15990.179453937481
 20
-973.06861741568127
 30
0.0
 11
15990.226453937479
 21
-973.36861741568134
 31
0.0
  0
LINE
  5
1534B
  8
01
 10
15990.226453937479
 20
-973.36861741568134
 30
0.0
 11
15990.262453937479
 21
-973.65461741568117
 31
0.0
  0
LINE
  5
1534C
  8
01
 10
15990.262453937479
 20
-973.65461741568117
 30
0.0
 11
15990.287453937481
 21
-973.92761741568131
 31
0.0
  0
LINE
  5
1534D
  8
01
 10
15990.287453937481
 20
-973.92761741568131
 30
0.0
 11
15990.30345393748
 21
-974.19261741568118
 31
0.0
  0
LINE
  5
1534E
  8
01
 10
15990.30345393748
 20
-974.19261741568118
 30
0.0
 11
15990.31245393748
 21
-974.45261741568129
 31
0.0
  0
LINE
  5
1534F
  8
01
 10
15990.31245393748
 20
-974.45261741568129
 30
0.0
 11
15990.313453937481
 21
-974.70961741568135
 31
0.0
  0
LINE
  5
15350
  8
01
 10
15990.313453937481
 20
-974.70961741568135
 30
0.0
 11
15990.307453937479
 21
-974.96861741568125
 31
0.0
  0
LINE
  5
15351
  8
01
 10
15990.307453937479
 20
-974.96861741568125
 30
0.0
 11
15990.29445393748
 21
-975.23061741568119
 31
0.0
  0
LINE
  5
15352
  8
01
 10
15990.29445393748
 20
-975.23061741568119
 30
0.0
 11
15990.27345393748
 21
-975.50061741568129
 31
0.0
  0
LINE
  5
15353
  8
01
 10
15990.27345393748
 20
-975.50061741568129
 30
0.0
 11
15990.242453937481
 21
-975.78061741568115
 31
0.0
  0
LINE
  5
15354
  8
01
 10
15990.242453937481
 20
-975.78061741568115
 30
0.0
 11
15990.200453937479
 21
-976.07361741568138
 31
0.0
  0
LINE
  5
15355
  8
01
 10
15990.200453937479
 20
-976.07361741568138
 30
0.0
 11
15990.144453937481
 21
-976.38561741568117
 31
0.0
  0
LINE
  5
15356
  8
01
 10
15990.144453937481
 20
-976.38561741568117
 30
0.0
 11
15990.07045393748
 21
-976.71761741568139
 31
0.0
  0
LINE
  5
15357
  8
01
 10
15990.07045393748
 20
-976.71761741568139
 30
0.0
 11
15989.97345393748
 21
-977.07361741568138
 31
0.0
  0
LINE
  5
15358
  8
01
 10
15989.97345393748
 20
-977.07361741568138
 30
0.0
 11
15989.84645393748
 21
-977.45461741568135
 31
0.0
  0
LINE
  5
15359
  8
01
 10
15989.84645393748
 20
-977.45461741568135
 30
0.0
 11
15989.680453937481
 21
-977.85961741568156
 31
0.0
  0
LINE
  5
1535A
  8
01
 10
15989.680453937481
 20
-977.85961741568156
 30
0.0
 11
15989.46345393748
 21
-978.28061741568115
 31
0.0
  0
LINE
  5
1535B
  8
01
 10
15989.46345393748
 20
-978.28061741568115
 30
0.0
 11
15989.18445393748
 21
-978.69761741568141
 31
0.0
  0
LINE
  5
1535C
  8
01
 10
15989.18445393748
 20
-978.69761741568141
 30
0.0
 11
15988.834453937479
 21
-979.07661741568131
 31
0.0
  0
LINE
  5
1535D
  8
01
 10
15988.834453937479
 20
-979.07661741568131
 30
0.0
 11
15988.415453937479
 21
-979.37061741568129
 31
0.0
  0
LINE
  5
1535E
  8
01
 10
15988.415453937479
 20
-979.37061741568129
 30
0.0
 11
15987.94345393748
 21
-979.52761741568122
 31
0.0
  0
LINE
  5
1535F
  8
01
 10
15987.94345393748
 20
-979.52761741568122
 30
0.0
 11
15987.73945393748
 21
-979.54261741568143
 31
0.0
  0
LINE
  5
15360
  8
01
 10
15987.73945393748
 20
-979.54261741568143
 30
0.0
 11
15987.45445393748
 21
-979.51261741568135
 31
0.0
  0
LINE
  5
15361
  8
01
 10
15987.45445393748
 20
-979.51261741568135
 30
0.0
 11
15986.98945393748
 21
-979.32961741568135
 31
0.0
  0
LINE
  5
15362
  8
01
 10
15986.98945393748
 20
-979.32961741568135
 30
0.0
 11
15986.581453937481
 21
-979.01761741568146
 31
0.0
  0
LINE
  5
15363
  8
01
 10
15986.581453937481
 20
-979.01761741568146
 30
0.0
 11
15986.243453937481
 21
-978.62861741568133
 31
0.0
  0
LINE
  5
15364
  8
01
 10
15986.243453937481
 20
-978.62861741568133
 30
0.0
 11
15985.976453937479
 21
-978.20961741568135
 31
0.0
  0
LINE
  5
15365
  8
01
 10
15985.976453937479
 20
-978.20961741568135
 30
0.0
 11
15985.76845393748
 21
-977.79061741568125
 31
0.0
  0
LINE
  5
15366
  8
01
 10
15985.76845393748
 20
-977.79061741568125
 30
0.0
 11
15985.609453937481
 21
-977.38861741568144
 31
0.0
  0
LINE
  5
15367
  8
01
 10
15985.609453937481
 20
-977.38861741568144
 30
0.0
 11
15985.48745393748
 21
-977.01161741568126
 31
0.0
  0
LINE
  5
15368
  8
01
 10
15985.48745393748
 20
-977.01161741568126
 30
0.0
 11
15985.395453937481
 21
-976.65961741568151
 31
0.0
  0
LINE
  5
15369
  8
01
 10
15985.395453937481
 20
-976.65961741568151
 30
0.0
 11
15985.324453937479
 21
-976.33161741568142
 31
0.0
  0
LINE
  5
1536A
  8
01
 10
15985.324453937479
 20
-976.33161741568142
 30
0.0
 11
15985.271453937479
 21
-976.02361741568143
 31
0.0
  0
LINE
  5
1536B
  8
01
 10
15985.271453937479
 20
-976.02361741568143
 30
0.0
 11
15985.23145393748
 21
-975.73261741568115
 31
0.0
  0
LINE
  5
1536C
  8
01
 10
15985.23145393748
 20
-975.73261741568115
 30
0.0
 11
15985.20245393748
 21
-975.45461741568135
 31
0.0
  0
LINE
  5
1536D
  8
01
 10
15985.20245393748
 20
-975.45461741568135
 30
0.0
 11
15985.182453937479
 21
-975.18661741568144
 31
0.0
  0
LINE
  5
1536E
  8
01
 10
15985.182453937479
 20
-975.18661741568144
 30
0.0
 11
15985.17045393748
 21
-974.92461741568115
 31
0.0
  0
LINE
  5
1536F
  8
01
 10
15985.17045393748
 20
-974.92461741568115
 30
0.0
 11
15985.165453937479
 21
-974.66661741568134
 31
0.0
  0
LINE
  5
15370
  8
01
 10
15985.165453937479
 20
-974.66661741568134
 30
0.0
 11
15985.16845393748
 21
-974.40861741568142
 31
0.0
  0
LINE
  5
15371
  8
01
 10
15985.16845393748
 20
-974.40861741568142
 30
0.0
 11
15985.17845393748
 21
-974.14861741568154
 31
0.0
  0
LINE
  5
15372
  8
01
 10
15985.17845393748
 20
-974.14861741568154
 30
0.0
 11
15985.19645393748
 21
-973.88261741568124
 31
0.0
  0
LINE
  5
15373
  8
01
 10
15985.19645393748
 20
-973.88261741568124
 30
0.0
 11
15985.22245393748
 21
-973.60761741568115
 31
0.0
  0
LINE
  5
15374
  8
01
 10
15985.22245393748
 20
-973.60761741568115
 30
0.0
 11
15985.260453937481
 21
-973.31961741568125
 31
0.0
  0
LINE
  5
15375
  8
01
 10
15985.260453937481
 20
-973.31961741568125
 30
0.0
 11
15985.30945393748
 21
-973.01661741568125
 31
0.0
  0
LINE
  5
15376
  8
01
 10
15985.30945393748
 20
-973.01661741568125
 30
0.0
 11
15985.37545393748
 21
-972.69361741568127
 31
0.0
  0
LINE
  5
15377
  8
01
 10
15985.37545393748
 20
-972.69361741568127
 30
0.0
 11
15985.46245393748
 21
-972.34761741568127
 31
0.0
  0
LINE
  5
15378
  8
01
 10
15985.46245393748
 20
-972.34761741568127
 30
0.0
 11
15985.57645393748
 21
-971.97661741568152
 31
0.0
  0
LINE
  5
15379
  8
01
 10
15985.57645393748
 20
-971.97661741568152
 30
0.0
 11
15985.724453937481
 21
-971.58061741568144
 31
0.0
  0
LINE
  5
1537A
  8
01
 10
15985.724453937481
 20
-971.58061741568144
 30
0.0
 11
15985.91945393748
 21
-971.16461741568128
 31
0.0
  0
LINE
  5
1537B
  8
01
 10
15985.91945393748
 20
-971.16461741568128
 30
0.0
 11
15986.171453937481
 21
-970.74361741568146
 31
0.0
  0
LINE
  5
1537C
  8
01
 10
15986.171453937481
 20
-970.74361741568146
 30
0.0
 11
15986.49145393748
 21
-970.34361741568125
 31
0.0
  0
LINE
  5
1537D
  8
01
 10
15986.49145393748
 20
-970.34361741568125
 30
0.0
 11
15986.88245393748
 21
-970.00661741568138
 31
0.0
  0
LINE
  5
1537E
  8
01
 10
15986.88245393748
 20
-970.00661741568138
 30
0.0
 11
15987.33545393748
 21
-969.78761741568144
 31
0.0
  0
LINE
  5
1537F
  8
01
 10
15987.33545393748
 20
-969.78761741568144
 30
0.0
 11
15987.73945393748
 21
-969.7266174156814
 31
0.0
  0
CIRCLE
  5
153B0
  8
1DIM
 10
15977.780453937479
 20
-974.63461741568142
 30
0.0
 40
5.1490000000012506
  0
LINE
  5
153B1
  8
01
 10
15970.82903770783
 20
-963.60128408234823
 30
0.0
 11
15984.731870167119
 21
-963.60128408234823
 31
0.0
  0
LINE
  5
153B2
  8
01
 10
15970.82903770783
 20
-960.60128408234812
 30
0.0
 11
15984.731870167119
 21
-960.60128408234812
 31
0.0
  0
LINE
  5
153B3
  8
01
 10
15970.82903770783
 20
-958.60128408234823
 30
0.0
 11
15984.731870167119
 21
-958.60128408234823
 31
0.0
  0
LINE
  5
153B4
  8
01
 10
15970.82903770783
 20
-955.60128408234823
 30
0.0
 11
15984.731870167119
 21
-955.60128408234823
 31
0.0
  0
LINE
  5
153B6
  8
01
 10
15970.82903770783
 20
-953.60128408234834
 30
0.0
 11
15984.731870167119
 21
-953.60128408234834
 31
0.0
  0
LINE
  5
153B7
  8
01
 10
15970.82903770783
 20
-950.60128408234823
 30
0.0
 11
15984.731870167119
 21
-950.60128408234823
 31
0.0
  0
LINE
  5
153B8
  8
01
 10
15970.82903770783
 20
-948.60128408234823
 30
0.0
 11
15984.731870167119
 21
-948.60128408234823
 31
0.0
  0
LINE
  5
153B9
  8
01
 10
15970.82903770783
 20
-945.60128408234834
 30
0.0
 11
15984.731870167119
 21
-945.60128408234834
 31
0.0
  0
LINE
  5
153BA
  8
01
 10
15970.82903770783
 20
-943.60128408234812
 30
0.0
 11
15984.731870167119
 21
-943.60128408234812
 31
0.0
  0
ARC
  5
153BB
  8
01
 10
15971.280453937479
 20
-967.10128408234834
 30
0.0
 40
1.5
 50
118.0724869358345
 51
241.92751306416551
  0
ARC
  5
153BC
  8
01
 10
15969.947120604151
 20
-964.60128408234846
 30
0.0
 40
1.333333333333333
 50
298.0724869358346
 51
61.927513064165453
  0
ARC
  5
153BD
  8
01
 10
15984.280453937479
 20
-967.10128408234834
 30
0.0
 40
1.5
 50
298.0724869358346
 51
61.927513064165453
  0
ARC
  5
153BE
  8
01
 10
15985.61378727081
 20
-964.60128408234846
 30
0.0
 40
1.333333333333333
 50
118.0724869358345
 51
241.92751306416551
  0
LINE
  5
153BF
  8
01
 10
15970.829037707839
 20
-968.60128408234834
 30
0.0
 11
15984.73187016713
 21
-968.60128408234834
 31
0.0
  0
LINE
  5
153C0
  8
01
 10
15970.829037707839
 20
-965.60128408234846
 30
0.0
 11
15984.73187016713
 21
-965.60128408234846
 31
0.0
  0
ARC
  5
153C2
  8
01
 10
15969.947120604151
 20
-969.60128408234846
 30
0.0
 40
1.333333333333333
 50
46.468847832632711
 51
61.927513064165453
  0
ARC
  5
153C4
  8
01
 10
15985.61378727081
 20
-969.60128408234846
 30
0.0
 40
1.333333333333333
 50
118.0724869358345
 51
133.53115216736731
  0
LINE
  5
153E9
  8
01
 10
15988.039453937479
 20
-1121.3716174156809
 30
0.0
 11
15986.840453937481
 21
-1122.533617415681
 31
0.0
  0
LINE
  5
153EA
  8
01
 10
15986.840453937481
 20
-1122.533617415681
 30
0.0
 11
15968.72045393748
 21
-1122.533617415681
 31
0.0
  0
LINE
  5
153EB
  8
01
 10
15968.72045393748
 20
-1122.533617415681
 30
0.0
 11
15967.521453937479
 21
-1121.3716174156809
 31
0.0
  0
LINE
  5
153EC
  8
01
 10
15968.72045393748
 20
-1122.533617415681
 30
0.0
 11
15968.34545393748
 21
-1110.5346174156809
 31
0.0
  0
LINE
  5
153ED
  8
01
 10
15986.840453937481
 20
-1122.533617415681
 30
0.0
 11
15987.215453937481
 21
-1110.5346174156809
 31
0.0
  0
LINE
  5
153EE
  8
01
 10
15988.377453937481
 20
-1110.5346174156809
 30
0.0
 11
15988.039453937479
 21
-1121.3716174156809
 31
0.0
  0
LINE
  5
153EF
  8
01
 10
15967.183453937479
 20
-1110.5346174156809
 30
0.0
 11
15967.521453937479
 21
-1121.3716174156809
 31
0.0
  0
LINE
  5
153F0
  8
01
 10
15988.377453937481
 20
-1110.5346174156809
 30
0.0
 11
15967.183453937479
 21
-1110.5346174156809
 31
0.0
  0
LINE
  5
153F1
  8
01
 10
15967.38045393748
 20
-1108.9496174156809
 30
0.0
 11
15968.34545393748
 21
-1110.5346174156809
 31
0.0
  0
LINE
  5
153F2
  8
01
 10
15988.180453937481
 20
-1108.9496174156809
 30
0.0
 11
15987.215453937481
 21
-1110.5346174156809
 31
0.0
  0
LINE
  5
153F5
  8
01
 10
15967.521453937479
 20
-1121.3716174156809
 30
0.0
 11
15988.039453937479
 21
-1121.3716174156809
 31
0.0
  0
LINE
  5
154EB
  8
1DIM
 10
15971.430453937481
 20
-875.69915596565045
 30
0.0
 11
15971.430453937481
 21
-868.92757662836266
 31
0.0
  0
LINE
  5
154EC
  8
1DIM
 10
15984.13045393748
 20
-875.69915596565045
 30
0.0
 11
15984.13045393748
 21
-868.92757662836266
 31
0.0
  0
LINE
  5
154ED
  8
1DIM
 10
15973.430453937481
 20
-869.92757662836254
 30
0.0
 11
15982.13045393748
 21
-869.92757662836254
 31
0.0
  0
LINE
  5
154EE
  8
1DIM
 10
15984.13045393748
 20
-869.92757662836254
 30
0.0
 11
16002.197120604151
 21
-869.92757662836254
 31
0.0
  0
LINE
  5
154F2
  8
1DIM
 10
16116.066409426719
 20
-997.7846174156814
 30
0.0
 11
16091.55838675753
 21
-997.7846174156814
 31
0.0
  0
LINE
  5
154F3
  8
1DIM
 10
16116.066409426719
 20
-1007.2846174156811
 30
0.0
 11
16091.55838675753
 21
-1007.2846174156811
 31
0.0
  0
LINE
  5
154F4
  8
1DIM
 10
16092.55838675753
 20
-999.7846174156814
 30
0.0
 11
16092.55838675753
 21
-1005.2846174156811
 31
0.0
  0
LINE
  5
154F5
  8
1DIM
 10
16092.55838675753
 20
-1007.2846174156811
 30
0.0
 11
16092.55838675753
 21
-1022.017950749015
 31
0.0
  0
TEXT
  5
154F9
  8
1DIM
 10
16012.982226520669
 20
-1122.017030358202
 30
0.0
 40
3.5
  1
R1/2
  0
LINE
  5
154FC
  8
1DIM
 10
16020.780453937479
 20
-998.78461741568049
 30
0.0
 11
16020.780453937479
 21
-922.25821638011189
 31
0.0
  0
LINE
  5
154FD
  8
1DIM
 10
15979.780453937479
 20
-923.25821638011189
 30
0.0
 11
16018.780453937479
 21
-923.25821638011189
 31
0.0
  0
LINE
  5
15501
  8
1DIM
 10
15960.859453937481
 20
-1002.5346174156811
 30
0.0
 11
15907.73168011732
 21
-1002.5346174156811
 31
0.0
  0
LINE
  5
15502
  8
1DIM
 10
15969.530453937479
 20
-1122.533617415681
 30
0.0
 11
15907.73168011732
 21
-1122.533617415681
 31
0.0
  0
LINE
  5
15503
  8
1DIM
 10
15908.73168011732
 20
-1004.5346174156811
 30
0.0
 11
15908.73168011732
 21
-1120.533617415681
 31
0.0
  0
LINE
  5
15507
  8
1DIM
 10
15966.870453937479
 20
-875.69915596565045
 30
0.0
 11
15907.73168011732
 21
-875.69915596565045
 31
0.0
  0
LINE
  5
15508
  8
1DIM
 10
15960.859453937481
 20
-1002.5346174156811
 30
0.0
 11
15907.73168011732
 21
-1002.5346174156811
 31
0.0
  0
LINE
  5
15509
  8
1DIM
 10
15908.73168011732
 20
-877.69915596565045
 30
0.0
 11
15908.73168011732
 21
-1000.5346174156811
 31
0.0
  0
LINE
  5
1550D
  8
1DIM
 10
15947.780453937479
 20
-1104.328617415681
 30
0.0
 11
15947.780453937479
 21
-1130.9924261243591
 31
0.0
  0
LINE
  5
1550E
  8
1DIM
 10
16007.780453937479
 20
-1104.328617415681
 30
0.0
 11
16007.780453937479
 21
-1130.9924261243591
 31
0.0
  0
LINE
  5
1550F
  8
1DIM
 10
15949.780453937479
 20
-1129.9924261243591
 30
0.0
 11
16005.780453937479
 21
-1129.9924261243591
 31
0.0
  0
TEXT
  5
15513
  8
1DIM
 10
15972.70545393748
 20
-1129.2924261243591
 30
0.0
 40
3.5
  1
φ60
  0
LINE
  5
15514
  8
0
  6
BYBLOCK
 10
16005.780453937479
 20
-1129.4565277443589
 30
0.0
 11
16007.780453937479
 21
-1129.9924261243591
 31
0.0
  0
LINE
  5
15515
  8
0
  6
BYBLOCK
 10
16007.780453937479
 20
-1129.9924261243591
 30
0.0
 11
16005.780453937479
 21
-1130.528324504359
 31
0.0
  0
LINE
  5
15516
  8
0
  6
BYBLOCK
 10
16007.780453937479
 20
-1129.9924261243591
 30
0.0
 11
16005.780453937479
 21
-1129.9924261243591
 31
0.0
  0
LINE
  5
15517
  8
0
  6
BYBLOCK
 10
15949.780453937479
 20
-1130.528324504359
 30
0.0
 11
15947.780453937479
 21
-1129.9924261243591
 31
0.0
  0
LINE
  5
15518
  8
0
  6
BYBLOCK
 10
15947.780453937479
 20
-1129.9924261243591
 30
0.0
 11
15949.780453937479
 21
-1129.4565277443589
 31
0.0
  0
LINE
  5
15519
  8
0
  6
BYBLOCK
 10
15947.780453937479
 20
-1129.9924261243591
 30
0.0
 11
15949.780453937479
 21
-1129.9924261243591
 31
0.0
  0
TEXT
  5
1551A
  8
1DIM
 10
15908.031680117319
 20
-943.49188669066325
 30
0.0
 40
3.5
  1
340
 50
90.0
  0
LINE
  5
1551B
  8
0
  6
BYBLOCK
 10
15909.26757849732
 20
-1000.5346174156811
 30
0.0
 11
15908.73168011732
 21
-1002.5346174156811
 31
0.0
  0
LINE
  5
1551C
  8
0
  6
BYBLOCK
 10
15908.73168011732
 20
-1002.5346174156811
 30
0.0
 11
15908.19578173732
 21
-1000.5346174156811
 31
0.0
  0
LINE
  5
1551D
  8
0
  6
BYBLOCK
 10
15908.73168011732
 20
-1002.5346174156811
 30
0.0
 11
15908.73168011732
 21
-1000.5346174156811
 31
0.0
  0
LINE
  5
1551E
  8
0
  6
BYBLOCK
 10
15908.19578173732
 20
-877.69915596565045
 30
0.0
 11
15908.73168011732
 21
-875.69915596565045
 31
0.0
  0
LINE
  5
1551F
  8
0
  6
BYBLOCK
 10
15908.73168011732
 20
-875.69915596565045
 30
0.0
 11
15909.26757849732
 21
-877.69915596565045
 31
0.0
  0
LINE
  5
15520
  8
0
  6
BYBLOCK
 10
15908.73168011732
 20
-875.69915596565045
 30
0.0
 11
15908.73168011732
 21
-877.69915596565045
 31
0.0
  0
TEXT
  5
15521
  8
1DIM
 10
15907.115013450661
 20
-1069.5341174156781
 30
0.0
 40
3.5
  1
(447)
 50
90.0
  0
LINE
  5
15522
  8
0
  6
BYBLOCK
 10
15909.26757849732
 20
-1120.533617415681
 30
0.0
 11
15908.73168011732
 21
-1122.533617415681
 31
0.0
  0
LINE
  5
15523
  8
0
  6
BYBLOCK
 10
15908.73168011732
 20
-1122.533617415681
 30
0.0
 11
15908.19578173732
 21
-1120.533617415681
 31
0.0
  0
LINE
  5
15524
  8
0
  6
BYBLOCK
 10
15908.73168011732
 20
-1122.533617415681
 30
0.0
 11
15908.73168011732
 21
-1120.533617415681
 31
0.0
  0
LINE
  5
15525
  8
0
  6
BYBLOCK
 10
15908.19578173732
 20
-1004.5346174156811
 30
0.0
 11
15908.73168011732
 21
-1002.5346174156811
 31
0.0
  0
LINE
  5
15526
  8
0
  6
BYBLOCK
 10
15908.73168011732
 20
-1002.5346174156811
 30
0.0
 11
15909.26757849732
 21
-1004.5346174156811
 31
0.0
  0
LINE
  5
15527
  8
0
  6
BYBLOCK
 10
15908.73168011732
 20
-1002.5346174156811
 30
0.0
 11
15908.73168011732
 21
-1004.5346174156811
 31
0.0
  0
TEXT
  5
15528
  8
1DIM
 10
15988.98989162012
 20
-922.55821638011184
 30
0.0
 40
3.5
  1
43 （リフト3mm）
  0
LINE
  5
15529
  8
0
  6
BYBLOCK
 10
16018.780453937479
 20
-922.72231800011184
 30
0.0
 11
16020.780453937479
 21
-923.25821638011189
 31
0.0
  0
LINE
  5
1552A
  8
0
  6
BYBLOCK
 10
16020.780453937479
 20
-923.25821638011189
 30
0.0
 11
16018.780453937479
 21
-923.79411476011194
 31
0.0
  0
LINE
  5
1552B
  8
0
  6
BYBLOCK
 10
16020.780453937479
 20
-923.25821638011189
 30
0.0
 11
16018.780453937479
 21
-923.25821638011189
 31
0.0
  0
LINE
  5
1552C
  8
0
  6
BYBLOCK
 10
15979.780453937479
 20
-923.79411476011194
 30
0.0
 11
15977.780453937479
 21
-923.25821638011189
 31
0.0
  0
LINE
  5
1552D
  8
0
  6
BYBLOCK
 10
15977.780453937479
 20
-923.25821638011189
 30
0.0
 11
15979.780453937479
 21
-922.72231800011184
 31
0.0
  0
LINE
  5
1552E
  8
0
  6
BYBLOCK
 10
15977.780453937479
 20
-923.25821638011189
 30
0.0
 11
15979.780453937479
 21
-923.25821638011189
 31
0.0
  0
LINE
  5
1552F
  8
1DIM
 10
15989.94316093059
 20
-1116.6026453057141
 30
0.0
 11
16010.282226520671
 21
-1122.717030358202
 31
0.0
  0
LINE
  5
15530
  8
1DIM
 10
16010.282226520671
 20
-1122.717030358202
 30
0.0
 11
16025.648893187339
 21
-1122.717030358202
 31
0.0
  0
LINE
  5
15531
  8
0
  6
BYBLOCK
 10
15989.78887849521
 20
-1117.1158548183109
 30
0.0
 11
15988.027836937281
 21
-1116.0268554129329
 31
0.0
  0
LINE
  5
15532
  8
0
  6
BYBLOCK
 10
15988.027836937281
 20
-1116.0268554129329
 30
0.0
 11
15990.09744336597
 21
-1116.0894357931179
 31
0.0
  0
LINE
  5
15533
  8
0
  6
BYBLOCK
 10
15988.027836937281
 20
-1116.0268554129329
 30
0.0
 11
15989.94316093059
 21
-1116.6026453057141
 31
0.0
  0
TEXT
  5
15534
  8
1DIM
 10
16091.858386757531
 20
-1021.601284082345
 30
0.0
 40
3.5
  1
φ9.5
 50
90.0
  0
LINE
  5
15535
  8
0
  6
BYBLOCK
 10
16093.094285137529
 20
-1005.2846174156811
 30
0.0
 11
16092.55838675753
 21
-1007.2846174156811
 31
0.0
  0
LINE
  5
15536
  8
0
  6
BYBLOCK
 10
16092.55838675753
 20
-1007.2846174156811
 30
0.0
 11
16092.02248837753
 21
-1005.2846174156811
 31
0.0
  0
LINE
  5
15537
  8
0
  6
BYBLOCK
 10
16092.55838675753
 20
-1007.2846174156811
 30
0.0
 11
16092.55838675753
 21
-1005.2846174156811
 31
0.0
  0
LINE
  5
15538
  8
0
  6
BYBLOCK
 10
16092.02248837753
 20
-999.7846174156814
 30
0.0
 11
16092.55838675753
 21
-997.7846174156814
 31
0.0
  0
LINE
  5
15539
  8
0
  6
BYBLOCK
 10
16092.55838675753
 20
-997.7846174156814
 30
0.0
 11
16093.094285137529
 21
-999.7846174156814
 31
0.0
  0
LINE
  5
1553A
  8
0
  6
BYBLOCK
 10
16092.55838675753
 20
-997.7846174156814
 30
0.0
 11
16092.55838675753
 21
-999.7846174156814
 31
0.0
  0
TEXT
  5
1553B
  8
1DIM
 10
15987.04712060414
 20
-869.22757662836273
 30
0.0
 40
3.5
  1
φ12.7
  0
LINE
  5
1553C
  8
0
  6
BYBLOCK
 10
15982.13045393748
 20
-869.39167824836261
 30
0.0
 11
15984.13045393748
 21
-869.92757662836254
 31
0.0
  0
LINE
  5
1553D
  8
0
  6
BYBLOCK
 10
15984.13045393748
 20
-869.92757662836254
 30
0.0
 11
15982.13045393748
 21
-870.46347500836271
 31
0.0
  0
LINE
  5
1553E
  8
0
  6
BYBLOCK
 10
15984.13045393748
 20
-869.92757662836254
 30
0.0
 11
15982.13045393748
 21
-869.92757662836254
 31
0.0
  0
LINE
  5
1553F
  8
0
  6
BYBLOCK
 10
15973.430453937481
 20
-870.46347500836271
 30
0.0
 11
15971.430453937481
 21
-869.92757662836254
 31
0.0
  0
LINE
  5
15540
  8
0
  6
BYBLOCK
 10
15971.430453937481
 20
-869.92757662836254
 30
0.0
 11
15973.430453937481
 21
-869.39167824836261
 31
0.0
  0
LINE
  5
15541
  8
0
  6
BYBLOCK
 10
15971.430453937481
 20
-869.92757662836254
 30
0.0
 11
15973.430453937481
 21
-869.92757662836254
 31
0.0
  0
VIEWPORT
  5
57
 67
     1
  8
0
 10
0.5284458321380612
 20
15.716048971455789
 30
0.0
 40
489.6864978232486
 41
324.70722197037583
 68
     1
 69
     1
1001
ACAD
1000
MVIEW
1002
{
1070
    16
1010
0.0
1020
0.0
1030
0.0
1010
0.0
1020
0.0
1030
1.0
1040
0.0
1040
324.70722197037583
1040
0.5284458321380612
1040
15.716048971455789
1040
50.0
1040
0.0
1040
0.0
1070
     0
1070
   100
1070
     1
1070
     1
1070
     0
1070
     0
1070
     0
1070
     0
1040
0.0
1040
0.0
1040
0.0
1040
10.0
1040
10.0
1040
10.0
1040
10.0
1070
     0
1002
{
1002
}
1002
}
  0
ENDSEC
  0
EOF
