  0
SECTION
  2
HEADER
  9
$ACADVER
  1
AC1012
  9
$DWGCODEPAGE
  3
ansi_932
  9
$INSBASE
 10
0.0
 20
0.0
 30
0.0
  9
$EXTMIN
 10
5039.321310856734
 20
-396.7213771094985
 30
0.0000000001127424
  9
$EXTMAX
 10
5357.749596239165
 20
-156.7226954226012
 30
0.0000000001127424
  9
$LIMMIN
 10
0.0
 20
0.0
  9
$LIMMAX
 10
420.0
 20
297.0
  9
$ORTHOMODE
 70
     0
  9
$REGENMODE
 70
     1
  9
$FILLMODE
 70
     1
  9
$QTEXTMODE
 70
     0
  9
$MIRRTEXT
 70
     0
  9
$DRAGMODE
 70
     2
  9
$LTSCALE
 40
0.5
  9
$OSMODE
 70
 14463
  9
$ATTMODE
 70
     1
  9
$TEXTSIZE
 40
4.0
  9
$TRACEWID
 40
1.0
  9
$TEXTSTYLE
  7
STANDARD
  9
$CLAYER
  8
1TEXT
  9
$CELTYPE
  6
BYLAYER
  9
$CECOLOR
 62
   256
  9
$CELTSCALE
 40
1.0
  9
$DELOBJ
 70
     1
  9
$DISPSILH
 70
     0
  9
$DIMSCALE
 40
1.0
  9
$DIMASZ
 40
2.0
  9
$DIMEXO
 40
0.0
  9
$DIMDLI
 40
7.0
  9
$DIMRND
 40
0.0
  9
$DIMDLE
 40
0.0
  9
$DIMEXE
 40
1.0
  9
$DIMTP
 40
0.0
  9
$DIMTM
 40
0.0
  9
$DIMTXT
 40
3.5
  9
$DIMCEN
 40
0.0
  9
$DIMTSZ
 40
0.0
  9
$DIMTOL
 70
     0
  9
$DIMLIM
 70
     0
  9
$DIMTIH
 70
     0
  9
$DIMTOH
 70
     0
  9
$DIMSE1
 70
     0
  9
$DIMSE2
 70
     0
  9
$DIMTAD
 70
     1
  9
$DIMZIN
 70
     8
  9
$DIMBLK
  1

  9
$DIMASO
 70
     1
  9
$DIMSHO
 70
     1
  9
$DIMPOST
  1
 
  9
$DIMAPOST
  1

  9
$DIMALT
 70
     0
  9
$DIMALTD
 70
     2
  9
$DIMALTF
 40
25.4
  9
$DIMLFAC
 40
1.0
  9
$DIMTOFL
 70
     1
  9
$DIMTVP
 40
0.0
  9
$DIMTIX
 70
     0
  9
$DIMSOXD
 70
     0
  9
$DIMSAH
 70
     1
  9
$DIMBLK1
  1
OPEN30
  9
$DIMBLK2
  1
OPEN30
  9
$DIMSTYLE
  2
NEWX10
  9
$DIMCLRD
 70
   256
  9
$DIMCLRE
 70
   256
  9
$DIMCLRT
 70
   201
  9
$DIMTFAC
 40
0.7
  9
$DIMGAP
 40
0.7
  9
$DIMJUST
 70
     0
  9
$DIMSD1
 70
     0
  9
$DIMSD2
 70
     0
  9
$DIMTOLJ
 70
     1
  9
$DIMTZIN
 70
     8
  9
$DIMALTZ
 70
     0
  9
$DIMALTTZ
 70
     0
  9
$DIMFIT
 70
     2
  9
$DIMUPT
 70
     0
  9
$DIMUNIT
 70
     2
  9
$DIMDEC
 70
     2
  9
$DIMTDEC
 70
     4
  9
$DIMALTU
 70
     2
  9
$DIMALTTD
 70
     2
  9
$DIMTXSTY
  7
STANDARD
  9
$DIMAUNIT
 70
     0
  9
$LUNITS
 70
     2
  9
$LUPREC
 70
     4
  9
$SKETCHINC
 40
1.0
  9
$FILLETRAD
 40
0.0
  9
$AUNITS
 70
     0
  9
$AUPREC
 70
     2
  9
$MENU
  1
acad
  9
$ELEVATION
 40
0.0
  9
$PELEVATION
 40
0.0
  9
$THICKNESS
 40
0.0
  9
$LIMCHECK
 70
     0
  9
$CHAMFERA
 40
10.0
  9
$CHAMFERB
 40
10.0
  9
$CHAMFERC
 40
20.0
  9
$CHAMFERD
 40
0.0
  9
$SKPOLY
 70
     0
  9
$TDCREATE
 40
2451318.621352917
  9
$TDUPDATE
 40
2458163.569893472
  9
$TDINDWG
 40
1.4792402083
  9
$TDUSRTIMER
 40
1.4792402083
  9
$USRTIMER
 70
     1
  9
$ANGBASE
 50
0.0
  9
$ANGDIR
 70
     0
  9
$PDMODE
 70
     0
  9
$PDSIZE
 40
0.0
  9
$PLINEWID
 40
0.0
  9
$COORDS
 70
     2
  9
$SPLFRAME
 70
     0
  9
$SPLINETYPE
 70
     6
  9
$SPLINESEGS
 70
     8
  9
$ATTDIA
 70
     0
  9
$ATTREQ
 70
     1
  9
$HANDLING
 70
     1
  9
$HANDSEED
  5
B5E0
  9
$SURFTAB1
 70
     6
  9
$SURFTAB2
 70
     6
  9
$SURFTYPE
 70
     6
  9
$SURFU
 70
     6
  9
$SURFV
 70
     6
  9
$UCSNAME
  2

  9
$UCSORG
 10
0.0
 20
0.0
 30
0.0
  9
$UCSXDIR
 10
1.0
 20
0.0
 30
0.0
  9
$UCSYDIR
 10
0.0
 20
1.0
 30
0.0
  9
$PUCSNAME
  2

  9
$PUCSORG
 10
0.0
 20
0.0
 30
0.0
  9
$PUCSXDIR
 10
1.0
 20
0.0
 30
0.0
  9
$PUCSYDIR
 10
0.0
 20
1.0
 30
0.0
  9
$USERI1
 70
     0
  9
$USERI2
 70
     0
  9
$USERI3
 70
     0
  9
$USERI4
 70
     0
  9
$USERI5
 70
     0
  9
$USERR1
 40
0.0
  9
$USERR2
 40
0.0
  9
$USERR3
 40
0.0
  9
$USERR4
 40
0.0
  9
$USERR5
 40
0.0
  9
$WORLDVIEW
 70
     1
  9
$SHADEDGE
 70
     3
  9
$SHADEDIF
 70
    70
  9
$TILEMODE
 70
     1
  9
$MAXACTVP
 70
    48
  9
$PINSBASE
 10
0.0
 20
0.0
 30
0.0
  9
$PLIMCHECK
 70
     0
  9
$PEXTMIN
 10
1.000000000000000E+20
 20
1.000000000000000E+20
 30
1.000000000000000E+20
  9
$PEXTMAX
 10
-1.000000000000000E+20
 20
-1.000000000000000E+20
 30
-1.000000000000000E+20
  9
$PLIMMIN
 10
0.0
 20
0.0
  9
$PLIMMAX
 10
420.0
 20
297.0
  9
$UNITMODE
 70
     0
  9
$VISRETAIN
 70
     1
  9
$PLINEGEN
 70
     0
  9
$PSLTSCALE
 70
     1
  9
$TREEDEPTH
 70
  3020
  9
$PICKSTYLE
 70
     1
  9
$CMLSTYLE
  2
STANDARD
  9
$CMLJUST
 70
     0
  9
$CMLSCALE
 40
20.0
  9
$SAVEIMAGES
 70
     1
  0
ENDSEC
  0
SECTION
  2
CLASSES
  0
CLASS
  1
DICTIONARYVAR
  2
AcDbDictionaryVar
  3
ObjectDBX Classes
 90
        0
280
     0
281
     0
  0
CLASS
  1
IDBUFFER
  2
AcDbIdBuffer
  3
ObjectDBX Classes
 90
    32768
280
     0
281
     0
  0
CLASS
  1
LWPOLYLINE
  2
AcDbPolyline
  3
ObjectDBX Classes
 90
    32768
280
     0
281
     1
  0
CLASS
  1
ACDBDICTIONARYWDFLT
  2
AcDbDictionaryWithDefault
  3
ObjectDBX Classes
 90
    32768
280
     0
281
     0
  0
CLASS
  1
ACDBPLACEHOLDER
  2
AcDbPlaceHolder
  3
ObjectDBX Classes
 90
        0
280
     0
281
     0
  0
CLASS
  1
LAYOUT
  2
AcDbLayout
  3
ObjectDBX Classes
 90
        0
280
     0
281
     0
  0
CLASS
  1
TABLESTYLE
  2
AcDbTableStyle
  3
ObjectDBX Classes
 90
     4095
280
     0
281
     0
  0
CLASS
  1
SORTENTSTABLE
  2
AcDbSortentsTable
  3
ObjectDBX Classes
 90
    32768
280
     0
281
     0
  0
CLASS
  1
MATERIAL
  2
AcDbMaterial
  3
ObjectDBX Classes
 90
     1153
280
     0
281
     0
  0
CLASS
  1
VISUALSTYLE
  2
AcDbVisualStyle
  3
ObjectDBX Classes
 90
     4095
280
     0
281
     0
  0
CLASS
  1
SCALE
  2
AcDbScale
  3
ObjectDBX Classes
 90
     1153
280
     0
281
     0
  0
CLASS
  1
MLEADERSTYLE
  2
AcDbMLeaderStyle
  3
ACDB_MLEADERSTYLE_CLASS
 90
     4095
280
     0
281
     0
  0
CLASS
  1
CELLSTYLEMAP
  2
AcDbCellStyleMap
  3
ObjectDBX Classes
 90
     1152
280
     0
281
     0
  0
CLASS
  1
SUN
  2
AcDbSun
  3
SCENEOE
 90
     1153
280
     0
281
     0
  0
CLASS
  1
XRECORD
  2
AcDbXrecord
  3
ObjectDBX Classes
 90
    32768
280
     0
281
     0
  0
CLASS
  1
HATCH
  2
AcDbHatch
  3
ObjectDBX Classes
 90
    32768
280
     0
281
     1
  0
ENDSEC
  0
SECTION
  2
TABLES
  0
TABLE
  2
VPORT
  5
8
330
0
100
AcDbSymbolTable
 70
     1
  0
VPORT
  5
952D
330
8
100
AcDbSymbolTableRecord
100
AcDbViewportTableRecord
  2
*ACTIVE
 70
     0
 10
0.0
 20
0.0
 11
1.0
 21
1.0
 12
5198.535453547949
 22
-276.7220362660498
 13
0.0
 23
0.0
 14
10.0
 24
10.0
 15
10.0
 25
10.0
 16
0.0
 26
0.0
 36
1.0
 17
0.0
 27
0.0
 37
0.0
 40
257.6827950743529
 41
1.871481028151775
 42
50.0
 43
0.0
 44
0.0
 50
0.0
 51
0.0
 71
    16
 72
   100
 73
     1
 74
     1
 75
     0
 76
     0
 77
     0
 78
     0
1001
ACAD_NAV_VCDISPLAY
1070
     3
  0
ENDTAB
  0
TABLE
  2
LTYPE
  5
5
330
0
100
AcDbSymbolTable
 70
     2
  0
LTYPE
  5
12
330
5
100
AcDbSymbolTableRecord
100
AcDbLinetypeTableRecord
  2
BYBLOCK
 70
     0
  3

 72
    65
 73
     0
 40
0.0
  0
LTYPE
  5
13
330
5
100
AcDbSymbolTableRecord
100
AcDbLinetypeTableRecord
  2
BYLAYER
 70
     0
  3

 72
    65
 73
     0
 40
0.0
  0
LTYPE
  5
14
330
5
100
AcDbSymbolTableRecord
100
AcDbLinetypeTableRecord
  2
CONTINUOUS
 70
     0
  3
Solid line
 72
    65
 73
     0
 40
0.0
  0
LTYPE
  5
9837
330
5
100
AcDbSymbolTableRecord
100
AcDbLinetypeTableRecord
  2
CENTER2
 70
     0
  3
Center (.5x) ___ _ ___ _ ___ _ ___ _ ___ _ ___
 72
    65
 73
     4
 40
28.575
 49
19.05
 74
     0
 49
-3.175
 74
     0
 49
3.175
 74
     0
 49
-3.175
 74
     0
  0
ENDTAB
  0
TABLE
  2
LAYER
  5
2
102
{ACAD_XDICTIONARY
360
96D9
102
}
330
0
100
AcDbSymbolTable
 70
     5
  0
LAYER
  5
E
102
{ACAD_XDICTIONARY
360
9593
102
}
330
2
100
AcDbSymbolTableRecord
100
AcDbLayerTableRecord
  2
0
 70
     0
 62
     7
  6
CONTINUOUS
  0
LAYER
  5
29
102
{ACAD_XDICTIONARY
360
9595
102
}
330
2
100
AcDbSymbolTableRecord
100
AcDbLayerTableRecord
  2
1CENTER
 70
     0
 62
     7
  6
CENTER2
  0
LAYER
  5
31
102
{ACAD_XDICTIONARY
360
9597
102
}
330
2
100
AcDbSymbolTableRecord
100
AcDbLayerTableRecord
  2
1TEXT
 70
     0
 62
     7
  6
CONTINUOUS
  0
LAYER
  5
243
102
{ACAD_XDICTIONARY
360
959D
102
}
330
2
100
AcDbSymbolTableRecord
100
AcDbLayerTableRecord
  2
01
 70
     0
 62
     1
  6
CONTINUOUS
  0
LAYER
  5
24E
102
{ACAD_XDICTIONARY
360
95A3
102
}
330
2
100
AcDbSymbolTableRecord
100
AcDbLayerTableRecord
  2
1DIM
 70
     0
 62
     7
  6
CONTINUOUS
  0
ENDTAB
  0
TABLE
  2
STYLE
  5
3
330
0
100
AcDbSymbolTable
 70
     1
  0
STYLE
  5
F
330
3
100
AcDbSymbolTableRecord
100
AcDbTextStyleTableRecord
  2
STANDARD
 70
     0
 40
0.0
 41
1.0
 50
0.0
 71
     0
 42
4.0
  3
txt.shx
  4
extfont.shx
  0
ENDTAB
  0
TABLE
  2
VIEW
  5
6
330
0
100
AcDbSymbolTable
 70
     0
  0
ENDTAB
  0
TABLE
  2
UCS
  5
7
330
0
100
AcDbSymbolTable
 70
     0
  0
ENDTAB
  0
TABLE
  2
APPID
  5
9
330
0
100
AcDbSymbolTable
 70
    14
  0
APPID
  5
10
330
9
100
AcDbSymbolTableRecord
100
AcDbRegAppTableRecord
  2
ACAD
 70
     0
  0
APPID
  5
21
330
9
100
AcDbSymbolTableRecord
100
AcDbRegAppTableRecord
  2
DRAWINGVARIABLESXDATA
 70
     0
  0
APPID
  5
64
330
9
100
AcDbSymbolTableRecord
100
AcDbRegAppTableRecord
  2
CONTENTTABDATA
 70
     0
  0
APPID
  5
65
330
9
100
AcDbSymbolTableRecord
100
AcDbRegAppTableRecord
  2
CONTENTCURRENTTAB
 70
     0
  0
APPID
  5
66
330
9
100
AcDbSymbolTableRecord
100
AcDbRegAppTableRecord
  2
CONTENTBLOCKDESCRIPTION
 70
     0
  0
APPID
  5
67
330
9
100
AcDbSymbolTableRecord
100
AcDbRegAppTableRecord
  2
CONTENTBLOCKICON
 70
     0
  0
APPID
  5
68
330
9
100
AcDbSymbolTableRecord
100
AcDbRegAppTableRecord
  2
CONTENTLONGBLOCKNAME
 70
     0
  0
APPID
  5
2AE
330
9
100
AcDbSymbolTableRecord
100
AcDbRegAppTableRecord
  2
ACAD_PSEXT
 70
     0
  0
APPID
  5
9585
330
9
100
AcDbSymbolTableRecord
100
AcDbRegAppTableRecord
  2
ACAD_MLEADERVER
 70
     0
  0
APPID
  5
A2E3
330
9
100
AcDbSymbolTableRecord
100
AcDbRegAppTableRecord
  2
ACADANNOTATIVE
 70
     0
  0
APPID
  5
A2E4
330
9
100
AcDbSymbolTableRecord
100
AcDbRegAppTableRecord
  2
ACDBBLOCKREPETAG
 70
     0
  0
APPID
  5
AEB1
330
9
100
AcDbSymbolTableRecord
100
AcDbRegAppTableRecord
  2
ACAD_NAV_VCDISPLAY
 70
     0
  0
APPID
  5
AEFE
330
9
100
AcDbSymbolTableRecord
100
AcDbRegAppTableRecord
  2
ACAECLAYERSTANDARD
 70
     0
  0
APPID
  5
B04E
330
9
100
AcDbSymbolTableRecord
100
AcDbRegAppTableRecord
  2
ACAD_EXEMPT_FROM_CAD_STAND
 70
     0
  0
ENDTAB
  0
TABLE
  2
DIMSTYLE
  5
A
330
0
100
AcDbSymbolTable
 70
     1
  0
DIMSTYLE
105
48
330
A
100
AcDbSymbolTableRecord
100
AcDbDimStyleTableRecord
  2
NEWX10
 70
     0
  3
 
  4

  5

  6
OPEN30
  7
OPEN30
 40
1.0
 41
2.0
 42
0.0
 43
7.0
 44
1.0
 45
0.0
 46
0.0
 47
0.0
 48
0.0
140
3.5
141
0.0
142
0.0
143
25.4
144
1.0
145
0.0
146
0.7
147
0.7
 71
     0
 72
     0
 73
     0
 74
     0
 75
     0
 76
     0
 77
     1
 78
     8
170
     0
171
     2
172
     1
173
     1
174
     0
175
     0
176
   256
177
   256
178
   201
179
     2
270
     2
271
     2
272
     4
273
     2
274
     2
340
F
275
     0
280
     0
281
     0
282
     0
283
     1
284
     8
285
     0
286
     0
287
     2
288
     0
  0
ENDTAB
  0
TABLE
  2
BLOCK_RECORD
  5
1
330
0
100
AcDbSymbolTable
 70
     8
  0
BLOCK_RECORD
  5
18
102
{ACAD_XDICTIONARY
360
88F
102
}
330
1
100
AcDbSymbolTableRecord
100
AcDbBlockTableRecord
  2
*MODEL_SPACE
  0
BLOCK_RECORD
  5
15
330
1
100
AcDbSymbolTableRecord
100
AcDbBlockTableRecord
  2
*PAPER_SPACE
  0
BLOCK_RECORD
  5
42
330
1
100
AcDbSymbolTableRecord
100
AcDbBlockTableRecord
  2
_OPEN30
  0
BLOCK_RECORD
  5
A333
330
1
100
AcDbSymbolTableRecord
100
AcDbBlockTableRecord
  2
A3WAKUKAWAJUN2017_HYOUDAI_
  0
BLOCK_RECORD
  5
B440
330
1
100
AcDbSymbolTableRecord
100
AcDbBlockTableRecord
  2
*X20
  0
BLOCK_RECORD
  5
B48E
330
1
100
AcDbSymbolTableRecord
100
AcDbBlockTableRecord
  2
*X21
  0
BLOCK_RECORD
  5
B4E0
330
1
100
AcDbSymbolTableRecord
100
AcDbBlockTableRecord
  2
*X22
  0
BLOCK_RECORD
  5
B531
330
1
100
AcDbSymbolTableRecord
100
AcDbBlockTableRecord
  2
*X23
  0
BLOCK_RECORD
  5
B56E
330
1
100
AcDbSymbolTableRecord
100
AcDbBlockTableRecord
  2
*X24
  0
BLOCK_RECORD
  5
B5AE
330
1
100
AcDbSymbolTableRecord
100
AcDbBlockTableRecord
  2
*X25
  0
ENDTAB
  0
ENDSEC
  0
SECTION
  2
BLOCKS
  0
BLOCK
  5
19
330
18
100
AcDbEntity
  8
0
100
AcDbBlockBegin
  2
*MODEL_SPACE
 70
     0
 10
0.0
 20
0.0
 30
0.0
  3
*MODEL_SPACE
  1

  0
ENDBLK
  5
1A
330
18
100
AcDbEntity
  8
0
100
AcDbBlockEnd
  0
BLOCK
  5
16
330
15
100
AcDbEntity
 67
     1
  8
0
100
AcDbBlockBegin
  2
*PAPER_SPACE
 70
     0
 10
0.0
 20
0.0
 30
0.0
  3
*PAPER_SPACE
  1

  0
ENDBLK
  5
17
330
15
100
AcDbEntity
 67
     1
  8
0
100
AcDbBlockEnd
  0
BLOCK
  5
43
330
42
100
AcDbEntity
  8
0
100
AcDbBlockBegin
  2
_OPEN30
 70
     0
 10
0.0
 20
0.0
 30
0.0
  3
_OPEN30
  1

  0
LINE
  5
44
330
42
100
AcDbEntity
  8
0
  6
BYBLOCK
 62
     0
100
AcDbLine
 10
-1.0
 20
0.26794919
 30
0.0
 11
0.0
 21
0.0
 31
0.0
  0
LINE
  5
45
330
42
100
AcDbEntity
  8
0
  6
BYBLOCK
 62
     0
100
AcDbLine
 10
0.0
 20
0.0
 30
0.0
 11
-1.0
 21
-0.26794919
 31
0.0
  0
LINE
  5
46
330
42
100
AcDbEntity
  8
0
  6
BYBLOCK
 62
     0
100
AcDbLine
 10
0.0
 20
0.0
 30
0.0
 11
-1.0
 21
0.0
 31
0.0
  0
ENDBLK
  5
47
330
42
100
AcDbEntity
  8
0
100
AcDbBlockEnd
  0
BLOCK
  5
AA56
330
A333
100
AcDbEntity
  8
0
100
AcDbBlockBegin
  2
A3WAKUKAWAJUN2017_HYOUDAI_
 70
     0
 10
0.0
 20
0.0
 30
0.0
  3
A3WAKUKAWAJUN2017_HYOUDAI_
  1

  0
LINE
  5
A335
330
A333
100
AcDbEntity
  8
0
100
AcDbLine
 10
13.26299999998673
 20
-0.0001000000000317
 30
0.0
 11
9.236999999990758
 21
8.999899999990987
 31
0.0
1001
ACAD
1000
ASC_BOUNDS
1002
{
1070
    19
1005
A376
1002
}
  0
LINE
  5
A336
330
A333
100
AcDbEntity
  8
0
100
AcDbLine
 10
5.657999999994331
 20
0.9999999999989768
 30
0.0
 11
9.236999999990758
 21
8.999999999991019
 31
0.0
1001
ACAD
1000
ASC_BOUNDS
1002
{
1070
    19
1005
A376
1002
}
  0
LINE
  5
A337
330
A333
100
AcDbEntity
  8
0
100
AcDbLine
 10
18.59199999998134
 20
-0.2368999999997641
 30
0.0
 11
16.46099999998353
 21
5.432899999994561
 31
0.0
1001
ACAD
1000
ASC_BOUNDS
1002
{
1070
    19
1005
A377
1002
}
  0
LINE
  5
A338
330
A333
100
AcDbEntity
  8
0
100
AcDbLine
 10
18.59199999998134
 20
-0.2368999999997641
 30
0.0
 11
22.38199999997767
 21
8.763099999991255
 31
0.0
1001
ACAD
1000
ASC_BOUNDS
1002
{
1070
    19
1005
A377
1002
}
  0
LINE
  5
A339
330
A333
100
AcDbEntity
  8
0
100
AcDbLine
 10
14.32899999998563
 20
-0.2368999999997641
 30
0.0
 11
16.46099999998353
 21
5.432899999994561
 31
0.0
1001
ACAD
1000
ASC_BOUNDS
1002
{
1070
    19
1005
A377
1002
}
  0
LINE
  5
A33A
330
A333
100
AcDbEntity
  8
0
100
AcDbLine
 10
14.32899999998563
 20
-0.2368999999997641
 30
0.0
 11
10.53899999998941
 21
8.763099999991255
 31
0.0
1001
ACAD
1000
ASC_BOUNDS
1002
{
1070
    19
1005
A377
1002
}
  0
LINE
  5
A33B
330
A333
100
AcDbEntity
  8
0
100
AcDbLine
 10
19.53899999998043
 20
-0.0001000000000317
 30
0.0
 11
23.56599999997638
 21
8.999899999990987
 31
0.0
1001
ACAD
1000
ASC_BOUNDS
1002
{
1070
    19
1005
A378
1002
}
  0
LINE
  5
A33C
330
A333
100
AcDbEntity
  8
0
100
AcDbLine
 10
26.97358892824991
 20
1.383099999991202
 30
0.0
 11
23.56599999997638
 21
8.999899999990987
 31
0.0
1001
ACAD
1000
ASC_BOUNDS
1002
{
1070
    19
1005
A378
1002
}
  0
LINE
  5
A33D
330
A333
100
AcDbEntity
  8
0
100
AcDbLine
 10
5.657999999994331
 20
0.9999999999989768
 30
0.0
 11
3.181999999996833
 21
4.668599999995308
 31
0.0
1001
ACAD
1000
ASC_BOUNDS
1002
{
1070
    19
1005
A376
1002
}
  0
LINE
  5
A33E
330
A333
100
AcDbEntity
  8
0
100
AcDbLine
 10
4.617999999995391
 20
-0.0001000000000317
 30
0.0
 11
1.420999999998571
 21
4.736799999995242
 31
0.0
1001
ACAD
1000
ASC_BOUNDS
1002
{
1070
    19
1005
A376
1002
}
  0
LINE
  5
A33F
330
A333
100
AcDbEntity
  8
0
100
AcDbLine
 10
1.420999999998571
 20
8.763099999991255
 30
0.0
 11
1.420999999998571
 21
0.0
 31
0.0
1001
ACAD
1000
ASC_BOUNDS
1002
{
1070
    19
1005
A37B
1002
}
  0
LINE
  5
A340
330
A333
100
AcDbEntity
  8
0
100
AcDbLine
 10
0.0
 20
8.763099999991255
 30
0.0
 11
0.0
 21
0.0
 31
0.0
1001
ACAD
1000
ASC_BOUNDS
1002
{
1070
    19
1005
A37B
1002
}
  0
LINE
  5
A341
330
A333
100
AcDbEntity
  8
0
100
AcDbLine
 10
6.766999999993232
 20
-0.0001000000000317
 30
0.0
 11
7.826999999992154
 21
2.368399999997621
 31
0.0
1001
ACAD
1000
ASC_BOUNDS
1002
{
1070
    19
1005
A376
1002
}
  0
LINE
  5
A342
330
A333
100
AcDbEntity
  8
0
100
AcDbLine
 10
0.0
 20
0.0
 30
0.0
 11
1.420999999998571
 21
0.0
 31
0.0
1001
ACAD
1000
ASC_BOUNDS
1002
{
1070
    19
1005
A37B
1002
}
  0
LINE
  5
A343
330
A333
100
AcDbEntity
  8
0
100
AcDbLine
 10
4.617999999995391
 20
0.0
 30
0.0
 11
6.766999999993232
 21
0.0
 31
0.0
1001
ACAD
1000
ASC_BOUNDS
1002
{
1070
    19
1005
A376
1002
}
  0
LINE
  5
A344
330
A333
100
AcDbEntity
  8
0
100
AcDbLine
 10
11.70599999998831
 20
-0.0001000000000317
 30
0.0
 11
10.64699999998936
 21
2.368399999997621
 31
0.0
1001
ACAD
1000
ASC_BOUNDS
1002
{
1070
    19
1005
A376
1002
}
  0
LINE
  5
A345
330
A333
100
AcDbEntity
  8
0
100
AcDbLine
 10
7.826999999992154
 20
2.368399999997621
 30
0.0
 11
10.64699999998936
 21
2.368399999997621
 31
0.0
1001
ACAD
1000
ASC_BOUNDS
1002
{
1070
    19
1005
A376
1002
}
  0
LINE
  5
A346
330
A333
100
AcDbEntity
  8
0
100
AcDbLine
 10
11.70599999998831
 20
0.0
 30
0.0
 11
13.26299999998673
 21
0.0
 31
0.0
1001
ACAD
1000
ASC_BOUNDS
1002
{
1070
    19
1005
A376
1002
}
  0
LINE
  5
A347
330
A333
100
AcDbEntity
  8
0
100
AcDbLine
 10
22.15599999997789
 20
2.368399999997621
 30
0.0
 11
24.97599999997499
 21
2.368399999997621
 31
0.0
1001
ACAD
1000
ASC_BOUNDS
1002
{
1070
    19
1005
A378
1002
}
  0
LINE
  5
A348
330
A333
100
AcDbEntity
  8
0
100
AcDbLine
 10
19.53899999998043
 20
0.0
 30
0.0
 11
21.09599999997886
 21
0.0
 31
0.0
1001
ACAD
1000
ASC_BOUNDS
1002
{
1070
    19
1005
A378
1002
}
  0
LINE
  5
A349
330
A333
100
AcDbEntity
  8
0
100
AcDbLine
 10
21.09599999997886
 20
-0.0001000000000317
 30
0.0
 11
22.15599999997789
 21
2.368399999997621
 31
0.0
1001
ACAD
1000
ASC_BOUNDS
1002
{
1070
    19
1005
A378
1002
}
  0
LINE
  5
A34A
330
A333
100
AcDbEntity
  8
0
100
AcDbLine
 10
26.02015566812236
 20
0.0330999999912365
 30
0.0
 11
24.97599999997499
 21
2.368399999997621
 31
0.0
1001
ACAD
1000
ASC_BOUNDS
1002
{
1070
    19
1005
A378
1002
}
  0
LINE
  5
A34B
330
A333
100
AcDbEntity
  8
0
100
AcDbLine
 10
14.32399999998563
 20
3.315799999996671
 30
0.0
 11
16.46099999998353
 21
8.999899999990987
 31
0.0
1001
ACAD
1000
ASC_BOUNDS
1002
{
1070
    19
1005
A377
1002
}
  0
LINE
  5
A34C
330
A333
100
AcDbEntity
  8
0
100
AcDbLine
 10
6.432999999993513
 20
8.763099999991255
 30
0.0
 11
3.181999999996833
 21
4.668599999995308
 31
0.0
1001
ACAD
1000
ASC_BOUNDS
1002
{
1070
    19
1005
A376
1002
}
  0
LINE
  5
A34D
330
A333
100
AcDbEntity
  8
0
100
AcDbLine
 10
4.617999999995391
 20
8.763099999991255
 30
0.0
 11
1.420999999998571
 21
4.736799999995242
 31
0.0
1001
ACAD
1000
ASC_BOUNDS
1002
{
1070
    19
1005
A376
1002
}
  0
LINE
  5
A34E
330
A333
100
AcDbEntity
  8
0
100
AcDbLine
 10
0.0
 20
8.763099999991255
 30
0.0
 11
1.420999999998571
 21
8.763099999991255
 31
0.0
1001
ACAD
1000
ASC_BOUNDS
1002
{
1070
    19
1005
A37B
1002
}
  0
LINE
  5
A34F
330
A333
100
AcDbEntity
  8
0
100
AcDbLine
 10
4.617999999995391
 20
8.763099999991255
 30
0.0
 11
6.432999999993513
 21
8.763099999991255
 31
0.0
1001
ACAD
1000
ASC_BOUNDS
1002
{
1070
    19
1005
A376
1002
}
  0
LINE
  5
A350
330
A333
100
AcDbEntity
  8
0
100
AcDbLine
 10
14.32399999998563
 20
3.315799999996671
 30
0.0
 11
12.02999999998792
 21
8.763099999991255
 31
0.0
1001
ACAD
1000
ASC_BOUNDS
1002
{
1070
    19
1005
A377
1002
}
  0
LINE
  5
A351
330
A333
100
AcDbEntity
  8
0
100
AcDbLine
 10
10.06399999998996
 20
3.670999999996297
 30
0.0
 11
9.236999999990758
 21
5.5200999999945
 31
0.0
1001
ACAD
1000
ASC_BOUNDS
1002
{
1070
    19
1005
A376
1002
}
  0
LINE
  5
A352
330
A333
100
AcDbEntity
  8
0
100
AcDbLine
 10
8.409999999991555
 20
3.670999999996297
 30
0.0
 11
9.236999999990758
 21
5.5200999999945
 31
0.0
1001
ACAD
1000
ASC_BOUNDS
1002
{
1070
    19
1005
A376
1002
}
  0
LINE
  5
A353
330
A333
100
AcDbEntity
  8
0
100
AcDbLine
 10
8.409999999991555
 20
3.670999999996297
 30
0.0
 11
10.06399999998996
 21
3.670999999996297
 31
0.0
1001
ACAD
1000
ASC_BOUNDS
1002
{
1070
    19
1005
A376
1002
}
  0
LINE
  5
A354
330
A333
100
AcDbEntity
  8
0
100
AcDbLine
 10
10.53899999998941
 20
8.763099999991255
 30
0.0
 11
12.02999999998792
 21
8.763099999991255
 31
0.0
1001
ACAD
1000
ASC_BOUNDS
1002
{
1070
    19
1005
A377
1002
}
  0
LINE
  5
A355
330
A333
100
AcDbEntity
  8
0
100
AcDbLine
 10
22.7389999999773
 20
3.670999999996297
 30
0.0
 11
23.56599999997638
 21
5.5200999999945
 31
0.0
1001
ACAD
1000
ASC_BOUNDS
1002
{
1070
    19
1005
A378
1002
}
  0
LINE
  5
A356
330
A333
100
AcDbEntity
  8
0
100
AcDbLine
 10
22.7389999999773
 20
3.670999999996297
 30
0.0
 11
24.39299999997559
 21
3.670999999996297
 31
0.0
1001
ACAD
1000
ASC_BOUNDS
1002
{
1070
    19
1005
A378
1002
}
  0
LINE
  5
A357
330
A333
100
AcDbEntity
  8
0
100
AcDbLine
 10
18.59799999998143
 20
3.315799999996671
 30
0.0
 11
20.89099999997916
 21
8.763099999991255
 31
0.0
1001
ACAD
1000
ASC_BOUNDS
1002
{
1070
    19
1005
A377
1002
}
  0
LINE
  5
A358
330
A333
100
AcDbEntity
  8
0
100
AcDbLine
 10
18.59799999998143
 20
3.315799999996671
 30
0.0
 11
16.46099999998353
 21
8.999899999990987
 31
0.0
1001
ACAD
1000
ASC_BOUNDS
1002
{
1070
    19
1005
A377
1002
}
  0
LINE
  5
A359
330
A333
100
AcDbEntity
  8
0
100
AcDbLine
 10
20.89099999997916
 20
8.763099999991255
 30
0.0
 11
22.38199999997767
 21
8.763099999991255
 31
0.0
1001
ACAD
1000
ASC_BOUNDS
1002
{
1070
    19
1005
A377
1002
}
  0
LINE
  5
A35A
330
A333
100
AcDbEntity
  8
0
100
AcDbLine
 10
24.39299999997559
 20
3.670999999996297
 30
0.0
 11
23.56599999997638
 21
5.5200999999945
 31
0.0
1001
ACAD
1000
ASC_BOUNDS
1002
{
1070
    19
1005
A378
1002
}
  0
LINE
  5
A35B
330
A333
100
AcDbEntity
  8
0
100
AcDbLine
 10
44.99999999995498
 20
-0.2368999999997641
 30
0.0
 11
40.02599999995994
 21
5.341799999994635
 31
0.0
1001
ACAD
1000
ASC_BOUNDS
1002
{
1070
    19
1005
A37A
1002
}
  0
LINE
  5
A35C
330
A333
100
AcDbEntity
  8
0
100
AcDbLine
 10
40.02599999995994
 20
5.341799999994635
 30
0.0
 11
40.02599999995994
 21
0.0
 31
0.0
1001
ACAD
1000
ASC_BOUNDS
1002
{
1070
    19
1005
A37A
1002
}
  0
LINE
  5
A35D
330
A333
100
AcDbEntity
  8
0
100
AcDbLine
 10
38.60499999996136
 20
8.999999999991019
 30
0.0
 11
38.60499999996136
 21
0.0
 31
0.0
1001
ACAD
1000
ASC_BOUNDS
1002
{
1070
    19
1005
A37A
1002
}
  0
LINE
  5
A35E
330
A333
100
AcDbEntity
  8
0
100
AcDbLine
 10
44.99999999995498
 20
8.763099999991255
 30
0.0
 11
44.99999999995498
 21
-0.2368999999997641
 31
0.0
1001
ACAD
1000
ASC_BOUNDS
1002
{
1070
    19
1005
A37A
1002
}
  0
LINE
  5
A35F
330
A333
100
AcDbEntity
  8
0
100
AcDbLine
 10
38.60499999996136
 20
0.0
 30
0.0
 11
40.02599999995994
 21
0.0
 31
0.0
1001
ACAD
1000
ASC_BOUNDS
1002
{
1070
    19
1005
A37A
1002
}
  0
LINE
  5
A360
330
A333
100
AcDbEntity
  8
0
100
AcDbLine
 10
43.57899999995641
 20
3.421199999996588
 30
0.0
 11
38.60499999996136
 21
8.999899999990987
 31
0.0
1001
ACAD
1000
ASC_BOUNDS
1002
{
1070
    19
1005
A37A
1002
}
  0
LINE
  5
A361
330
A333
100
AcDbEntity
  8
0
100
AcDbLine
 10
43.57899999995641
 20
8.763099999991255
 30
0.0
 11
43.57899999995641
 21
3.421199999996588
 31
0.0
1001
ACAD
1000
ASC_BOUNDS
1002
{
1070
    19
1005
A37A
1002
}
  0
LINE
  5
A362
330
A333
100
AcDbEntity
  8
0
100
AcDbLine
 10
43.57899999995641
 20
8.763099999991255
 30
0.0
 11
44.99999999995498
 21
8.763099999991255
 31
0.0
1001
ACAD
1000
ASC_BOUNDS
1002
{
1070
    19
1005
A37A
1002
}
  0
LINE
  5
A363
330
A333
100
AcDbEntity
  8
0
100
AcDbLine
 10
37.67199999996831
 20
8.763099999991255
 30
0.0
 11
36.23199999996837
 21
8.763099999991255
 31
0.0
  0
LINE
  5
A364
330
A333
100
AcDbEntity
  8
0
100
AcDbLine
 10
31.64199999996833
 20
8.763099999991255
 30
0.0
 11
31.64199999996833
 21
2.481619422925121
 31
0.0
  0
LINE
  5
A365
330
A333
100
AcDbEntity
  8
0
100
AcDbLine
 10
37.67199999996831
 20
8.763099999991255
 30
0.0
 11
37.67199999996831
 21
2.481619422925121
 31
0.0
  0
LINE
  5
A366
330
A333
100
AcDbEntity
  8
0
100
AcDbLine
 10
36.23199999996837
 20
8.763099999991255
 30
0.0
 11
36.23199999996837
 21
2.481619422925064
 31
0.0
  0
LINE
  5
A367
330
A333
100
AcDbEntity
  8
0
100
AcDbLine
 10
33.08199999996839
 20
8.763099999991255
 30
0.0
 11
33.08199999996839
 21
2.481619422925121
 31
0.0
  0
ARC
  5
A368
330
A333
100
AcDbEntity
  8
0
100
AcDbCircle
 10
34.65699999996832
 20
3.183099999991214
 30
0.0
 40
3.420000000000007
100
AcDbArc
 50
240.0000000000255
 51
299.9999999999766
  0
ARC
  5
A369
330
A333
100
AcDbEntity
  8
0
100
AcDbCircle
 10
34.65699999996832
 20
3.183099999991214
 30
0.0
 40
1.97999999999999
100
AcDbArc
 50
240.000000000026
 51
299.9999999999703
  0
LINE
  5
A36A
330
A333
100
AcDbEntity
  8
0
100
AcDbLine
 10
33.08199999996828
 20
8.763099999991255
 30
0.0
 11
31.64199999996833
 21
8.763099999991255
 31
0.0
  0
ARC
  5
A36B
330
A333
100
AcDbEntity
  8
0
100
AcDbCircle
 10
35.06199999996829
 20
2.481619422925064
 30
0.0
 40
1.17
100
AcDbArc
 50
299.9999999999699
 51
0.0
  0
ARC
  5
A36C
330
A333
100
AcDbEntity
  8
0
100
AcDbCircle
 10
34.25199999996835
 20
2.481619422925121
 30
0.0
 40
1.17
100
AcDbArc
 50
180.0
 51
240.0000000000238
  0
ARC
  5
A36D
330
A333
100
AcDbEntity
  8
0
100
AcDbCircle
 10
35.06199999996841
 20
2.481619422925121
 30
0.0
 40
2.61
100
AcDbArc
 50
299.9999999999756
 51
0.0
  0
ARC
  5
A36E
330
A333
100
AcDbEntity
  8
0
100
AcDbCircle
 10
34.25199999996835
 20
2.481619422925121
 30
0.0
 40
2.61
100
AcDbArc
 50
180.0
 51
240.0000000000244
  0
LINE
  5
A36F
330
A333
100
AcDbEntity
  8
0
100
AcDbLine
 10
29.30199999996933
 20
8.763099999991255
 30
0.0
 11
30.74199999996927
 21
8.763099999991255
 31
0.0
1001
ACAD
1000
ASC_BOUNDS
1002
{
1070
    19
1005
A378
1002
}
  0
LINE
  5
A370
330
A333
100
AcDbEntity
  8
0
100
AcDbLine
 10
30.74199999996927
 20
8.763099999991255
 30
0.0
 11
30.74199999996927
 21
2.373099999991211
 31
0.0
1001
ACAD
1000
ASC_BOUNDS
1002
{
1070
    19
1005
A378
1002
}
  0
LINE
  5
A371
330
A333
100
AcDbEntity
  8
0
100
AcDbLine
 10
26.02015566812236
 20
0.0330999999912365
 30
0.0
 11
28.40199999996923
 21
0.0330999999912365
 31
0.0
1001
ACAD
1000
ASC_BOUNDS
1002
{
1070
    19
1005
A378
1002
}
  0
LINE
  5
A372
330
A333
100
AcDbEntity
  8
0
100
AcDbLine
 10
29.30199999996933
 20
8.763099999991255
 30
0.0
 11
29.30199999996933
 21
2.283099999991236
 31
0.0
1001
ACAD
1000
ASC_BOUNDS
1002
{
1070
    19
1005
A378
1002
}
  0
LINE
  5
A373
330
A333
100
AcDbEntity
  8
0
100
AcDbLine
 10
26.97358892824991
 20
1.383099999991202
 30
0.0
 11
28.40199999996923
 21
1.383099999991202
 31
0.0
1001
ACAD
1000
ASC_BOUNDS
1002
{
1070
    19
1005
A378
1002
}
  0
ARC
  5
A374
330
A333
100
AcDbEntity
  8
0
100
AcDbCircle
 10
28.40199999996923
 20
2.283099999991236
 30
0.0
 40
0.9
100
AcDbArc
 50
270.0
 51
0.0
1001
ACAD
1000
ASC_BOUNDS
1002
{
1070
    19
1005
A378
1002
}
  0
ARC
  5
A375
330
A333
100
AcDbEntity
  8
0
100
AcDbCircle
 10
28.40199999996923
 20
2.373099999991211
 30
0.0
 40
2.34
100
AcDbArc
 50
270.0
 51
0.0
1001
ACAD
1000
ASC_BOUNDS
1002
{
1070
    19
1005
A378
1002
}
  0
INSERT
  5
A376
330
A333
100
AcDbEntity
  8
0
100
AcDbBlockReference
  2
*X20
 10
0.0
 20
0.0
 30
0.0
1001
ACAD
1000
HATCH
1002
{
1070
    19
1000
ANSI37
1040
0.15
1040
0.0
1000
ASC_BOUNDS
1070
     2
1070
     2
1070
    12
1005
A335
1005
A336
1005
A33D
1005
A34C
1005
A34F
1005
A34D
1005
A33E
1005
A343
1005
A341
1005
A345
1005
A344
1005
A346
1070
     2
1070
     3
1005
A351
1005
A353
1005
A352
1000
ASC_SEEDPOINT
1011
3.614004224891801
1021
2.996669441146025
1031
0.0
1000
R14_HATCH_DATA
1000
A376
1011
1.0
1021
0.0
1031
0.0
1011
0.0
1021
1.0
1031
0.0
1011
0.0
1021
0.0
1031
1.0
1040
0.0
1010
0.0
1020
0.0
1030
1.0
1000
ANSI37
1070
     0
1070
     1
1071
        2
1071
        7
1070
     0
1070
     1
1071
       17
1040
13.26299999998673
1040
-0.0001000000000317
1040
9.236999999990758
1040
8.999899999990987
1040
9.236999999990758
1040
8.999999999991019
1040
5.657999999994331
1040
0.9999999999989768
1040
3.181999999996833
1040
4.668599999995308
1040
6.432999999993513
1040
8.763099999991255
1040
4.617999999995391
1040
8.763099999991255
1040
1.420999999998571
1040
4.736799999995242
1040
4.617999999995391
1040
-0.0001000000000317
1040
4.617999999995391
1040
0.0
1040
6.766999999993232
1040
0.0
1040
6.766999999993232
1040
-0.0001000000000317
1040
7.826999999992154
1040
2.368399999997621
1040
10.64699999998936
1040
2.368399999997621
1040
11.70599999998831
1040
-0.0001000000000317
1040
11.70599999998831
1040
0.0
1040
13.26299999998673
1040
0.0
1071
       12
1005
A335
1005
A336
1005
A33D
1005
A34C
1005
A34F
1005
A34D
1005
A33E
1005
A343
1005
A341
1005
A345
1005
A344
1005
A346
1071
       22
1070
     0
1070
     1
1071
        3
1040
9.236999999990758
1040
5.5200999999945
1040
10.06399999998996
1040
3.670999999996297
1040
8.409999999991555
1040
3.670999999996297
1071
        3
1005
A351
1005
A353
1005
A352
1070
     0
1070
     1
1040
0.0
1040
0.15
1070
     0
1070
     2
1040
0.7853981633974483
1040
49.29960901727088
1040
-10.17736998311392
1040
-0.3367596045400932
1040
0.3367596045400932
1070
     0
1040
2.356194490192345
1040
49.29960901727088
1040
-10.17736998311392
1040
-0.3367596045400932
1040
-0.3367596045400932
1070
     0
1040
0.0110235143455945
1071
        2
1040
3.614004224891801
1040
2.996669441146025
1040
0.0
1040
3.614004224891801
1040
2.996669441146025
1040
0.0
1002
}
  0
INSERT
  5
A377
330
A333
100
AcDbEntity
  8
0
100
AcDbBlockReference
  2
*X21
 10
0.0
 20
0.0
 30
0.0
1001
ACAD
1000
HATCH
1002
{
1070
    19
1000
ANSI37
1040
0.15
1040
0.0
1000
ASC_BOUNDS
1070
     1
1070
     2
1070
    10
1005
A337
1005
A338
1005
A359
1005
A357
1005
A358
1005
A34B
1005
A350
1005
A354
1005
A33A
1005
A339
1000
ASC_SEEDPOINT
1011
14.73245321214324
1021
2.798246178283421
1031
0.0
1000
R14_HATCH_DATA
1000
A377
1011
1.0
1021
0.0
1031
0.0
1011
0.0
1021
1.0
1031
0.0
1011
0.0
1021
0.0
1031
1.0
1040
0.0
1010
0.0
1020
0.0
1030
1.0
1000
ANSI37
1070
     0
1070
     1
1071
        1
1071
        7
1070
     0
1070
     1
1071
       10
1040
16.46099999998353
1040
5.432899999994561
1040
18.59199999998134
1040
-0.2368999999997641
1040
22.38199999997767
1040
8.763099999991255
1040
20.89099999997916
1040
8.763099999991255
1040
18.59799999998143
1040
3.315799999996671
1040
16.46099999998353
1040
8.999899999990987
1040
14.32399999998563
1040
3.315799999996671
1040
12.02999999998792
1040
8.763099999991255
1040
10.53899999998941
1040
8.763099999991255
1040
14.32899999998563
1040
-0.2368999999997641
1071
       10
1005
A337
1005
A338
1005
A359
1005
A357
1005
A358
1005
A34B
1005
A350
1005
A354
1005
A33A
1005
A339
1070
     0
1070
     1
1040
0.0
1040
0.15
1070
     0
1070
     2
1040
0.7853981633974483
1040
49.29960901727088
1040
-10.17736998311392
1040
-0.3367596045400932
1040
0.3367596045400932
1070
     0
1040
2.356194490192345
1040
49.29960901727088
1040
-10.17736998311392
1040
-0.3367596045400932
1040
-0.3367596045400932
1070
     0
1040
0.0110235143455945
1071
        1
1040
14.73245321214324
1040
2.798246178283421
1040
0.0
1002
}
  0
INSERT
  5
A378
330
A333
100
AcDbEntity
  8
0
100
AcDbBlockReference
  2
*X22
 10
0.0
 20
0.0
 30
0.0
1001
ACAD
1000
HATCH
1002
{
1070
    19
1000
ANSI37
1040
0.15
1040
0.0
1000
ASC_BOUNDS
1070
     2
1070
     2
1070
    13
1005
A33B
1005
A348
1005
A349
1005
A347
1005
A34A
1005
A371
1005
A375
1005
A370
1005
A36F
1005
A372
1005
A374
1005
A373
1005
A33C
1070
     2
1070
     3
1005
A355
1005
A35A
1005
A356
1000
ASC_SEEDPOINT
1011
21.97929957367762
1021
3.294304244259308
1031
0.0
1000
R14_HATCH_DATA
1000
A378
1011
1.0
1021
0.0
1031
0.0
1011
0.0
1021
1.0
1031
0.0
1011
0.0
1021
0.0
1031
1.0
1040
0.0
1010
0.0
1020
0.0
1030
1.0
1000
ANSI37
1070
     0
1070
     1
1071
        2
1071
        7
1070
     1
1070
     1
1071
       15
1040
23.56599999997638
1040
8.999899999990987
1040
0.0
1040
19.53899999998043
1040
-0.0001000000000317
1040
0.0
1040
19.53899999998043
1040
0.0
1040
0.0
1040
21.09599999997886
1040
0.0
1040
0.0
1040
21.09599999997886
1040
-0.0001000000000317
1040
0.0
1040
22.15599999997789
1040
2.368399999997621
1040
0.0
1040
24.97599999997499
1040
2.368399999997621
1040
0.0
1040
26.02015566812236
1040
0.0330999999912365
1040
0.0
1040
28.40199999996923
1040
0.0330999999912365
1040
0.414213562373095
1040
30.74199999996923
1040
2.373099999991211
1040
0.0
1040
30.74199999996927
1040
8.763099999991255
1040
0.0
1040
29.30199999996933
1040
8.763099999991255
1040
0.0
1040
29.30199999996933
1040
2.283099999991236
1040
-0.414213562373095
1040
28.40199999996923
1040
1.383099999991237
1040
0.0
1040
26.97358892824991
1040
1.383099999991202
1040
0.0
1071
       13
1005
A33B
1005
A348
1005
A349
1005
A347
1005
A34A
1005
A371
1005
A375
1005
A370
1005
A36F
1005
A372
1005
A374
1005
A373
1005
A33C
1071
       22
1070
     0
1070
     1
1071
        3
1040
22.7389999999773
1040
3.670999999996297
1040
23.56599999997638
1040
5.5200999999945
1040
24.39299999997559
1040
3.670999999996297
1071
        3
1005
A355
1005
A35A
1005
A356
1070
     0
1070
     1
1040
0.0
1040
0.15
1070
     0
1070
     2
1040
0.7853981633974483
1040
49.29960901727088
1040
-10.17736998311392
1040
-0.3367596045400932
1040
0.3367596045400932
1070
     0
1040
2.356194490192345
1040
49.29960901727088
1040
-10.17736998311392
1040
-0.3367596045400932
1040
-0.3367596045400932
1070
     0
1040
0.0110235143455945
1071
        2
1040
21.97929957367762
1040
3.294304244259308
1040
0.0
1040
21.97929957367762
1040
3.294304244259308
1040
0.0
1002
}
  0
INSERT
  5
A379
330
A333
100
AcDbEntity
  8
0
100
AcDbBlockReference
  2
*X23
 10
0.0
 20
0.0
 30
0.0
1001
ACAD
1000
HATCH
1002
{
1070
    19
1000
ANSI37
1040
0.15
1040
0.0
1000
R14_HATCH_DATA
1000
A379
1011
1.0
1021
0.0
1031
0.0
1011
0.0
1021
1.0
1031
0.0
1011
0.0
1021
0.0
1031
1.0
1040
0.0
1010
0.0
1020
0.0
1030
1.0
1000
ANSI37
1070
     0
1070
     1
1071
        1
1071
        7
1070
     1
1070
     1
1071
       12
1040
31.64199999996833
1040
2.481619422925121
1040
0.2679491924310942
1040
32.94699999997067
1040
0.2212931190493919
1040
0.2679491924301353
1040
36.36699999995983
1040
0.2212931190459813
1040
0.2679491924321411
1040
37.67199999996831
1040
2.481619422928361
1040
0.0
1040
37.67199999996831
1040
8.763099999991255
1040
0.0
1040
36.23199999996837
1040
8.763099999991255
1040
0.0
1040
36.23199999996837
1040
2.481619422925064
1040
-0.2679491924310291
1040
35.64699999996708
1040
1.468369700498386
1040
-0.267949192430519
1040
33.66699999997093
1040
1.468369700497703
1040
-0.267949192431809
1040
33.08199999996839
1040
2.481619422926997
1040
0.0
1040
33.08199999996839
1040
8.763099999991255
1040
0.0
1040
31.64199999996833
1040
8.763099999991255
1040
0.0
1071
        0
1070
     0
1070
     1
1040
0.0
1040
0.15
1070
     0
1070
     2
1040
0.7853981633974483
1040
49.29960901727088
1040
-10.17736998311392
1040
-0.3367596045400932
1040
0.3367596045400932
1070
     0
1040
2.356194490192345
1040
49.29960901727088
1040
-10.17736998311392
1040
-0.3367596045400932
1040
-0.3367596045400932
1070
     0
1040
0.0110235143455945
1071
        1
1040
32.30357378967278
1040
3.988785755459219
1040
0.0
1002
}
  0
INSERT
  5
A37A
330
A333
100
AcDbEntity
  8
0
100
AcDbBlockReference
  2
*X24
 10
0.0
 20
0.0
 30
0.0
1001
ACAD
1000
HATCH
1002
{
1070
    19
1000
ANSI37
1040
0.15
1040
0.0
1000
ASC_BOUNDS
1070
     1
1070
     2
1070
     8
1005
A35B
1005
A35E
1005
A362
1005
A361
1005
A360
1005
A35D
1005
A35F
1005
A35C
1000
ASC_SEEDPOINT
1011
39.74896370716704
1021
4.484843821435049
1031
0.0
1000
R14_HATCH_DATA
1000
A37A
1011
1.0
1021
0.0
1031
0.0
1011
0.0
1021
1.0
1031
0.0
1011
0.0
1021
0.0
1031
1.0
1040
0.0
1010
0.0
1020
0.0
1030
1.0
1000
ANSI37
1070
     0
1070
     1
1071
        1
1071
        7
1070
     0
1070
     1
1071
        9
1040
40.02599999995994
1040
5.341799999994635
1040
44.99999999995498
1040
-0.2368999999997641
1040
44.99999999995498
1040
8.763099999991255
1040
43.57899999995641
1040
8.763099999991255
1040
43.57899999995641
1040
3.421199999996588
1040
38.60499999996136
1040
8.999899999990987
1040
38.60499999996136
1040
8.999999999991019
1040
38.60499999996136
1040
0.0
1040
40.02599999995994
1040
0.0
1071
        8
1005
A35B
1005
A35E
1005
A362
1005
A361
1005
A360
1005
A35D
1005
A35F
1005
A35C
1070
     0
1070
     1
1040
0.0
1040
0.15
1070
     0
1070
     2
1040
0.7853981633974483
1040
49.29960901727088
1040
-10.17736998311392
1040
-0.3367596045400932
1040
0.3367596045400932
1070
     0
1040
2.356194490192345
1040
49.29960901727088
1040
-10.17736998311392
1040
-0.3367596045400932
1040
-0.3367596045400932
1070
     0
1040
0.0110235143455945
1071
        1
1040
39.74896370716704
1040
4.484843821435049
1040
0.0
1002
}
  0
INSERT
  5
A37B
330
A333
100
AcDbEntity
  8
0
100
AcDbBlockReference
  2
*X25
 10
0.0
 20
0.0
 30
0.0
1001
ACAD
1000
HATCH
1002
{
1070
    19
1000
ANSI37
1040
0.15
1040
0.0
1000
ASC_BOUNDS
1070
     1
1070
     2
1070
     4
1005
A33F
1005
A34E
1005
A340
1005
A342
1000
ASC_SEEDPOINT
1011
1.079051535452663
1021
4.148538732891836
1031
0.0
1000
R14_HATCH_DATA
1000
A37B
1011
1.0
1021
0.0
1031
0.0
1011
0.0
1021
1.0
1031
0.0
1011
0.0
1021
0.0
1031
1.0
1040
0.0
1010
0.0
1020
0.0
1030
1.0
1000
ANSI37
1070
     0
1070
     1
1071
        1
1071
        7
1070
     0
1070
     1
1071
        4
1040
1.420999999998571
1040
0.0
1040
1.420999999998571
1040
8.763099999991255
1040
0.0
1040
8.763099999991255
1040
0.0
1040
0.0
1071
        4
1005
A33F
1005
A34E
1005
A340
1005
A342
1070
     0
1070
     1
1040
0.0
1040
0.15
1070
     0
1070
     2
1040
0.7853981633974483
1040
49.29960901727088
1040
-10.17736998311392
1040
-0.3367596045400932
1040
0.3367596045400932
1070
     0
1040
2.356194490192345
1040
49.29960901727088
1040
-10.17736998311392
1040
-0.3367596045400932
1040
-0.3367596045400932
1070
     0
1040
0.0053004257112761
1071
        1
1040
1.079051535452663
1040
4.148538732891836
1040
0.0
1002
}
  0
ENDBLK
  5
AA57
330
A333
100
AcDbEntity
  8
0
100
AcDbBlockEnd
  0
BLOCK
  5
B5CE
330
B440
100
AcDbEntity
  8
0
100
AcDbBlockBegin
  2
*X20
 70
     1
 10
0.0
 20
0.0
 30
0.0
  3
*X20
  1

  0
LINE
  5
B441
330
B440
100
AcDbEntity
  8
0
  6
CONTINUOUS
100
AcDbLine
 10
3.418023043697893
 20
7.251849696850613
 30
0.0
 11
4.929273346838536
 21
8.763099999991255
 31
0.0
  0
LINE
  5
B442
330
B440
100
AcDbEntity
  8
0
  6
CONTINUOUS
100
AcDbLine
 10
1.483656411257782
 20
4.643963855330318
 30
0.0
 11
5.60279255591872
 21
8.763099999991255
 31
0.0
  0
LINE
  5
B443
330
B440
100
AcDbEntity
  8
0
  6
CONTINUOUS
100
AcDbLine
 10
1.755053947328235
 20
4.241842182320584
 30
0.0
 11
6.276311764998907
 21
8.763099999991255
 31
0.0
  0
LINE
  5
B444
330
B440
100
AcDbEntity
  8
0
  6
CONTINUOUS
100
AcDbLine
 10
2.026451483398688
 20
3.839720509310849
 30
0.0
 11
4.441040904851878
 21
6.254309930764039
 31
0.0
  0
LINE
  5
B445
330
B440
100
AcDbEntity
  8
0
  6
CONTINUOUS
100
AcDbLine
 10
2.297849019469139
 20
3.437598836301114
 30
0.0
 11
3.321765168359338
 21
4.461514985191313
 31
0.0
  0
LINE
  5
B446
330
B440
100
AcDbEntity
  8
0
  6
CONTINUOUS
100
AcDbLine
 10
2.569246555539591
 20
3.03547716329138
 30
0.0
 11
3.593163397972743
 21
4.059394005724531
 31
0.0
  0
LINE
  5
B447
330
B440
100
AcDbEntity
  8
0
  6
CONTINUOUS
100
AcDbLine
 10
2.840644091610043
 20
2.633355490281646
 30
0.0
 11
3.864561627586149
 21
3.657273026257751
 31
0.0
  0
LINE
  5
B448
330
B440
100
AcDbEntity
  8
0
  6
CONTINUOUS
100
AcDbLine
 10
3.112041627680496
 20
2.231233817271911
 30
0.0
 11
4.135959857199554
 21
3.25515204679097
 31
0.0
  0
LINE
  5
B449
330
B440
100
AcDbEntity
  8
0
  6
CONTINUOUS
100
AcDbLine
 10
3.383439163750948
 20
1.829112144262177
 30
0.0
 11
4.40735808681296
 21
2.853031067324189
 31
0.0
  0
LINE
  5
B44A
330
B440
100
AcDbEntity
  8
0
  6
CONTINUOUS
100
AcDbLine
 10
3.654836699821399
 20
1.426990471252442
 30
0.0
 11
4.678756316426365
 21
2.450910087857407
 31
0.0
  0
LINE
  5
B44B
330
B440
100
AcDbEntity
  8
0
  6
CONTINUOUS
100
AcDbLine
 10
3.926234235891853
 20
1.024868798242709
 30
0.0
 11
4.95015454603977
 21
2.048789108390626
 31
0.0
  0
LINE
  5
B44C
330
B440
100
AcDbEntity
  8
0
  6
CONTINUOUS
100
AcDbLine
 10
4.197631771962304
 20
0.6227471252329737
 30
0.0
 11
5.221552775653176
 21
1.646668128923846
 31
0.0
  0
LINE
  5
B44D
330
B440
100
AcDbEntity
  8
0
  6
CONTINUOUS
100
AcDbLine
 10
8.715877546767851
 20
7.835069736359266
 30
0.0
 11
9.435953450375058
 21
8.555145639966472
 31
0.0
  0
LINE
  5
B44E
330
B440
100
AcDbEntity
  8
0
  6
CONTINUOUS
100
AcDbLine
 10
8.170620868422267
 20
6.616293848933497
 30
0.0
 11
9.644120833743461
 21
8.08979381425469
 31
0.0
  0
LINE
  5
B44F
330
B440
100
AcDbEntity
  8
0
  6
CONTINUOUS
100
AcDbLine
 10
7.625364190076684
 20
5.397517961507727
 30
0.0
 11
9.852288217111864
 21
7.624441988542907
 31
0.0
  0
LINE
  5
B450
330
B440
100
AcDbEntity
  8
0
  6
CONTINUOUS
100
AcDbLine
 10
7.080107511731101
 20
4.178742074081957
 30
0.0
 11
10.06045560048027
 21
7.159090162831124
 31
0.0
  0
LINE
  5
B451
330
B440
100
AcDbEntity
  8
0
  6
CONTINUOUS
100
AcDbLine
 10
6.534850833385518
 20
2.959966186656187
 30
0.0
 11
10.26862298384867
 21
6.693738337119342
 31
0.0
  0
LINE
  5
B452
330
B440
100
AcDbEntity
  8
0
  6
CONTINUOUS
100
AcDbLine
 10
4.469029308032756
 20
0.2206254522232385
 30
0.0
 11
5.492951005266582
 21
1.244547149457064
 31
0.0
  0
LINE
  5
B453
330
B440
100
AcDbEntity
  8
0
  6
CONTINUOUS
100
AcDbLine
 10
5.989594155039935
 20
1.741190299230417
 30
0.0
 11
8.806950407233131
 21
4.558546551423613
 31
0.0
  0
LINE
  5
B454
330
B440
100
AcDbEntity
  8
0
  6
CONTINUOUS
100
AcDbLine
 10
9.401251593263643
 20
5.152847737454126
 30
0.0
 11
10.47679036721708
 21
6.228386511407559
 31
0.0
  0
LINE
  5
B455
330
B440
100
AcDbEntity
  8
0
  6
CONTINUOUS
100
AcDbLine
 10
4.921837203428691
 20
-0.0000858614610131
 30
0.0
 11
8.592923064886001
 21
3.670999999996297
 31
0.0
  0
LINE
  5
B456
330
B440
100
AcDbEntity
  8
0
  6
CONTINUOUS
100
AcDbLine
 10
9.609390446785305
 20
4.6874673818956
 30
0.0
 11
10.68495775058548
 21
5.763034685695775
 31
0.0
  0
LINE
  5
B457
330
B440
100
AcDbEntity
  8
0
  6
CONTINUOUS
100
AcDbLine
 10
5.595387755019432
 20
-0.0000545189504582
 30
0.0
 11
7.716137258923768
 21
2.120694984953879
 31
0.0
  0
LINE
  5
B458
330
B440
100
AcDbEntity
  8
0
  6
CONTINUOUS
100
AcDbLine
 10
6.268938306610172
 20
-0.000023176439905
 30
0.0
 11
7.170485805526503
 21
0.9015243224764267
 31
0.0
  0
LINE
  5
B459
330
B440
100
AcDbEntity
  8
0
  6
CONTINUOUS
100
AcDbLine
 10
7.963842273967511
 20
2.368399999997621
 30
0.0
 11
9.266442273966188
 21
3.670999999996297
 31
0.0
  0
LINE
  5
B45A
330
B440
100
AcDbEntity
  8
0
  6
CONTINUOUS
100
AcDbLine
 10
8.637361483047696
 20
2.368399999997621
 30
0.0
 11
9.939961483046375
 21
3.670999999996297
 31
0.0
  0
LINE
  5
B45B
330
B440
100
AcDbEntity
  8
0
  6
CONTINUOUS
100
AcDbLine
 10
9.817529300306965
 20
4.222087026337075
 30
0.0
 11
10.89312513395388
 21
5.297682859983993
 31
0.0
  0
LINE
  5
B45C
330
B440
100
AcDbEntity
  8
0
  6
CONTINUOUS
100
AcDbLine
 10
10.02566815382863
 20
3.756706670778549
 30
0.0
 11
11.10129251732229
 21
4.832331034272211
 31
0.0
  0
LINE
  5
B45D
330
B440
100
AcDbEntity
  8
0
  6
CONTINUOUS
100
AcDbLine
 10
9.310880692127883
 20
2.368399999997621
 30
0.0
 11
11.30945990069069
 21
4.366979208560428
 31
0.0
  0
LINE
  5
B45E
330
B440
100
AcDbEntity
  8
0
  6
CONTINUOUS
100
AcDbLine
 10
9.98439990120807
 20
2.36839999999762
 30
0.0
 11
11.5176272840591
 21
3.901627382848645
 31
0.0
  0
LINE
  5
B45F
330
B440
100
AcDbEntity
  8
0
  6
CONTINUOUS
100
AcDbLine
 10
10.65037369446246
 20
2.36085458417182
 30
0.0
 11
11.7257946674275
 21
3.436275557136862
 31
0.0
  0
LINE
  5
B460
330
B440
100
AcDbEntity
  8
0
  6
CONTINUOUS
100
AcDbLine
 10
10.85847197087848
 20
1.895433651507656
 30
0.0
 11
11.9339620507959
 21
2.97092373142508
 31
0.0
  0
LINE
  5
B461
330
B440
100
AcDbEntity
  8
0
  6
CONTINUOUS
100
AcDbLine
 10
11.0665702472945
 20
1.430012718843491
 30
0.0
 11
12.14212943416431
 21
2.505571905713296
 31
0.0
  0
LINE
  5
B462
330
B440
100
AcDbEntity
  8
0
  6
CONTINUOUS
100
AcDbLine
 10
11.27466852371052
 20
0.9645917861793256
 30
0.0
 11
12.35029681753271
 21
2.040220080001513
 31
0.0
  0
LINE
  5
B463
330
B440
100
AcDbEntity
  8
0
  6
CONTINUOUS
100
AcDbLine
 10
11.48276680012654
 20
0.4991708535151611
 30
0.0
 11
12.55846420090111
 21
1.57486825428973
 31
0.0
  0
LINE
  5
B464
330
B440
100
AcDbEntity
  8
0
  6
CONTINUOUS
100
AcDbLine
 10
11.69086507654257
 20
0.0337499208509957
 30
0.0
 11
12.76663158426952
 21
1.109516428577947
 31
0.0
  0
LINE
  5
B465
330
B440
100
AcDbEntity
  8
0
  6
CONTINUOUS
100
AcDbLine
 10
12.33057447873954
 20
-0.0000598860322123
 30
0.0
 11
12.97479896763792
 21
0.6441646028661663
 31
0.0
  0
LINE
  5
B466
330
B440
100
AcDbEntity
  8
0
  6
CONTINUOUS
100
AcDbLine
 10
13.00413694809395
 20
-0.0000166257579952
 30
0.0
 11
13.18296635100632
 21
0.1788127771543824
 31
0.0
  0
LINE
  5
B467
330
B440
100
AcDbEntity
  8
0
  6
CONTINUOUS
100
AcDbLine
 10
4.772852165289667
 20
-0.000092794222212
 30
0.0
 11
4.296495091028902
 21
0.4762642800385528
 31
0.0
  0
LINE
  5
B468
330
B440
100
AcDbEntity
  8
0
  6
CONTINUOUS
100
AcDbLine
 10
5.446340034776103
 20
-0.0000614546284616
 30
0.0
 11
2.898195908335625
 21
2.548082671812017
 31
0.0
  0
LINE
  5
B469
330
B440
100
AcDbEntity
  8
0
  6
CONTINUOUS
100
AcDbLine
 10
6.119827904262539
 20
-0.0000301150347113
 30
0.0
 11
1.499896725642348
 21
4.61990106358548
 31
0.0
  0
LINE
  5
B46A
330
B440
100
AcDbEntity
  8
0
  6
CONTINUOUS
100
AcDbLine
 10
6.775136745476159
 20
0.0181802528318542
 30
0.0
 11
5.699826040202669
 21
1.093490958105344
 31
0.0
  0
LINE
  5
B46B
330
B440
100
AcDbEntity
  8
0
  6
CONTINUOUS
100
AcDbLine
 10
6.983376846288489
 20
0.4834593610997118
 30
0.0
 11
5.908008617934405
 21
1.558827589453796
 31
0.0
  0
LINE
  5
B46C
330
B440
100
AcDbEntity
  8
0
  6
CONTINUOUS
100
AcDbLine
 10
5.377063484962296
 20
1.416253513345719
 30
0.0
 11
1.702276957014131
 21
5.091040041293883
 31
0.0
  0
LINE
  5
B46D
330
B440
100
AcDbEntity
  8
0
  6
CONTINUOUS
100
AcDbLine
 10
3.978745891735324
 20
3.488090315652877
 30
0.0
 11
2.000373521109399
 21
5.466462686278803
 31
0.0
  0
LINE
  5
B46E
330
B440
100
AcDbEntity
  8
0
  6
CONTINUOUS
100
AcDbLine
 10
7.191616947100819
 20
0.948738469367568
 30
0.0
 11
6.11619119566614
 21
2.024164220802247
 31
0.0
  0
LINE
  5
B46F
330
B440
100
AcDbEntity
  8
0
  6
CONTINUOUS
100
AcDbLine
 10
7.399857047913149
 20
1.414017577635424
 30
0.0
 11
6.324373773397875
 21
2.489500852150698
 31
0.0
  0
LINE
  5
B470
330
B440
100
AcDbEntity
  8
0
  6
CONTINUOUS
100
AcDbLine
 10
7.608097148725479
 20
1.879296685903281
 30
0.0
 11
6.53255635112961
 21
2.95483748349915
 31
0.0
  0
LINE
  5
B471
330
B440
100
AcDbEntity
  8
0
  6
CONTINUOUS
100
AcDbLine
 10
7.816337249537808
 20
2.344575794171138
 30
0.0
 11
6.740738928861345
 21
3.420174114847601
 31
0.0
  0
LINE
  5
B472
330
B440
100
AcDbEntity
  8
0
  6
CONTINUOUS
100
AcDbLine
 10
3.310241080789734
 20
4.830114335678653
 30
0.0
 11
2.298470085204666
 21
5.84188533126372
 31
0.0
  0
LINE
  5
B473
330
B440
100
AcDbEntity
  8
0
  6
CONTINUOUS
100
AcDbLine
 10
3.60832983563551
 20
5.205544789913063
 30
0.0
 11
2.596566649299935
 21
6.217307976248638
 31
0.0
  0
LINE
  5
B474
330
B440
100
AcDbEntity
  8
0
  6
CONTINUOUS
100
AcDbLine
 10
3.906418590481286
 20
5.580975244147473
 30
0.0
 11
2.894663213395203
 21
6.592730621233557
 31
0.0
  0
LINE
  5
B475
330
B440
100
AcDbEntity
  8
0
  6
CONTINUOUS
100
AcDbLine
 10
4.204507345327062
 20
5.956405698381884
 30
0.0
 11
3.192759777490472
 21
6.968153266218474
 31
0.0
  0
LINE
  5
B476
330
B440
100
AcDbEntity
  8
0
  6
CONTINUOUS
100
AcDbLine
 10
8.466032252791512
 20
2.368399999997621
 30
0.0
 11
6.948921506593081
 21
3.885510746196053
 31
0.0
  0
LINE
  5
B477
330
B440
100
AcDbEntity
  8
0
  6
CONTINUOUS
100
AcDbLine
 10
9.139551461871699
 20
2.36839999999762
 30
0.0
 11
7.157104084324816
 21
4.350847377544504
 31
0.0
  0
LINE
  5
B478
330
B440
100
AcDbEntity
  8
0
  6
CONTINUOUS
100
AcDbLine
 10
4.502596100172839
 20
6.331836152616295
 30
0.0
 11
3.49085634158574
 21
7.343575911203393
 31
0.0
  0
LINE
  5
B479
330
B440
100
AcDbEntity
  8
0
  6
CONTINUOUS
100
AcDbLine
 10
4.800684855018615
 20
6.707266606850705
 30
0.0
 11
3.788952905681008
 21
7.718998556188312
 31
0.0
  0
LINE
  5
B47A
330
B440
100
AcDbEntity
  8
0
  6
CONTINUOUS
100
AcDbLine
 10
12.18154012887317
 20
-0.0000694579236642
 30
0.0
 11
11.32140332908496
 21
0.8600673418645499
 31
0.0
  0
LINE
  5
B47B
330
B440
100
AcDbEntity
  8
0
  6
CONTINUOUS
100
AcDbLine
 10
12.85501608323566
 20
-0.0000262032059659
 30
0.0
 11
10.77672456435345
 21
2.078265315676246
 31
0.0
  0
LINE
  5
B47C
330
B440
100
AcDbEntity
  8
0
  6
CONTINUOUS
100
AcDbLine
 10
9.813070670951886
 20
2.36839999999762
 30
0.0
 11
8.51047067095321
 21
3.670999999996297
 31
0.0
  0
LINE
  5
B47D
330
B440
100
AcDbEntity
  8
0
  6
CONTINUOUS
100
AcDbLine
 10
10.48658988003207
 20
2.36839999999762
 30
0.0
 11
9.183989880033396
 21
3.670999999996297
 31
0.0
  0
LINE
  5
B47E
330
B440
100
AcDbEntity
  8
0
  6
CONTINUOUS
100
AcDbLine
 10
8.441048632286794
 20
3.740422038662712
 30
0.0
 11
7.365286662056551
 21
4.816184008892956
 31
0.0
  0
LINE
  5
B47F
330
B440
100
AcDbEntity
  8
0
  6
CONTINUOUS
100
AcDbLine
 10
8.649187485808454
 20
4.205802394221237
 30
0.0
 11
7.573469239788285
 21
5.281520640241407
 31
0.0
  0
LINE
  5
B480
330
B440
100
AcDbEntity
  8
0
  6
CONTINUOUS
100
AcDbLine
 10
5.098773609864391
 20
7.082697061085115
 30
0.0
 11
4.087049469776277
 21
8.09442120117323
 31
0.0
  0
LINE
  5
B481
330
B440
100
AcDbEntity
  8
0
  6
CONTINUOUS
100
AcDbLine
 10
5.396862364710167
 20
7.458127515319526
 30
0.0
 11
4.385146033871544
 21
8.469843846158149
 31
0.0
  0
LINE
  5
B482
330
B440
100
AcDbEntity
  8
0
  6
CONTINUOUS
100
AcDbLine
 10
13.04801363231285
 20
0.4804954567970334
 30
0.0
 11
9.85750908911358
 21
3.670999999996297
 31
0.0
  0
LINE
  5
B483
330
B440
100
AcDbEntity
  8
0
  6
CONTINUOUS
100
AcDbLine
 10
8.857326339330116
 20
4.671182749779763
 30
0.0
 11
7.781651817520021
 21
5.746857271589858
 31
0.0
  0
LINE
  5
B484
330
B440
100
AcDbEntity
  8
0
  6
CONTINUOUS
100
AcDbLine
 10
5.694951119555943
 20
7.833557969553937
 30
0.0
 11
4.765409089118624
 21
8.763099999991255
 31
0.0
  0
LINE
  5
B485
330
B440
100
AcDbEntity
  8
0
  6
CONTINUOUS
100
AcDbLine
 10
12.50286117236978
 20
1.699167125820288
 30
0.0
 11
9.68611877250287
 21
4.515909525687196
 31
0.0
  0
LINE
  5
B486
330
B440
100
AcDbEntity
  8
0
  6
CONTINUOUS
100
AcDbLine
 10
9.065465192851777
 20
5.136563105338288
 30
0.0
 11
7.989834395251757
 21
6.21219390293831
 31
0.0
  0
LINE
  5
B487
330
B440
100
AcDbEntity
  8
0
  6
CONTINUOUS
100
AcDbLine
 10
5.993039874401719
 20
8.208988423788346
 30
0.0
 11
5.43892829819881
 21
8.763099999991255
 31
0.0
  0
LINE
  5
B488
330
B440
100
AcDbEntity
  8
0
  6
CONTINUOUS
100
AcDbLine
 10
11.95770871242671
 20
2.917838794843543
 30
0.0
 11
8.19801697298349
 21
6.677530534286761
 31
0.0
  0
LINE
  5
B489
330
B440
100
AcDbEntity
  8
0
  6
CONTINUOUS
100
AcDbLine
 10
6.291128629247495
 20
8.584418878022756
 30
0.0
 11
6.112447507278997
 21
8.763099999991255
 31
0.0
  0
LINE
  5
B48A
330
B440
100
AcDbEntity
  8
0
  6
CONTINUOUS
100
AcDbLine
 10
11.41255625248364
 20
4.136510463866797
 30
0.0
 11
8.406199550715227
 21
7.142867165635211
 31
0.0
  0
LINE
  5
B48B
330
B440
100
AcDbEntity
  8
0
  6
CONTINUOUS
100
AcDbLine
 10
10.86740379254057
 20
5.355182132890051
 30
0.0
 11
8.614382128446962
 21
7.608203796983664
 31
0.0
  0
LINE
  5
B48C
330
B440
100
AcDbEntity
  8
0
  6
CONTINUOUS
100
AcDbLine
 10
10.3222513325975
 20
6.573853801913305
 30
0.0
 11
8.822564706178696
 21
8.073540428332114
 31
0.0
  0
LINE
  5
B48D
330
B440
100
AcDbEntity
  8
0
  6
CONTINUOUS
100
AcDbLine
 10
9.777098872654436
 20
7.792525470936562
 30
0.0
 11
9.030747283910433
 21
8.538877059680566
 31
0.0
  0
ENDBLK
  5
B5CF
330
B440
100
AcDbEntity
  8
0
100
AcDbBlockEnd
  0
BLOCK
  5
B5D0
330
B48E
100
AcDbEntity
  8
0
100
AcDbBlockBegin
  2
*X21
 70
     1
 10
0.0
 20
0.0
 30
0.0
  3
*X21
  1

  0
LINE
  5
B48F
330
B48E
100
AcDbEntity
  8
0
  6
CONTINUOUS
100
AcDbLine
 10
10.67292308101235
 20
8.445076852443387
 30
0.0
 11
10.99094622856022
 21
8.763099999991255
 31
0.0
  0
LINE
  5
B490
330
B48E
100
AcDbEntity
  8
0
  6
CONTINUOUS
100
AcDbLine
 10
10.87250383178748
 20
7.971138394138331
 30
0.0
 11
11.6644654376404
 21
8.763099999991255
 31
0.0
  0
LINE
  5
B491
330
B48E
100
AcDbEntity
  8
0
  6
CONTINUOUS
100
AcDbLine
 10
11.07208458256261
 20
7.497199935833273
 30
0.0
 11
12.12126590876355
 21
8.546381262034211
 31
0.0
  0
LINE
  5
B492
330
B48E
100
AcDbEntity
  8
0
  6
CONTINUOUS
100
AcDbLine
 10
11.27166533333774
 20
7.023261477528216
 30
0.0
 11
12.32085164573666
 21
8.072447789927136
 31
0.0
  0
LINE
  5
B493
330
B48E
100
AcDbEntity
  8
0
  6
CONTINUOUS
100
AcDbLine
 10
11.47124608411287
 20
6.549323019223158
 30
0.0
 11
12.52043738270977
 21
7.59851431782006
 31
0.0
  0
LINE
  5
B494
330
B48E
100
AcDbEntity
  8
0
  6
CONTINUOUS
100
AcDbLine
 10
11.670826834888
 20
6.075384560918101
 30
0.0
 11
12.72002311968288
 21
7.124580845712984
 31
0.0
  0
LINE
  5
B495
330
B48E
100
AcDbEntity
  8
0
  6
CONTINUOUS
100
AcDbLine
 10
11.87040758566313
 20
5.601446102613043
 30
0.0
 11
12.91960885665599
 21
6.650647373605907
 31
0.0
  0
LINE
  5
B496
330
B48E
100
AcDbEntity
  8
0
  6
CONTINUOUS
100
AcDbLine
 10
12.06998833643825
 20
5.127507644307986
 30
0.0
 11
13.1191945936291
 21
6.176713901498832
 31
0.0
  0
LINE
  5
B497
330
B48E
100
AcDbEntity
  8
0
  6
CONTINUOUS
100
AcDbLine
 10
12.26956908721338
 20
4.65356918600293
 30
0.0
 11
13.31878033060221
 21
5.702780429391757
 31
0.0
  0
LINE
  5
B498
330
B48E
100
AcDbEntity
  8
0
  6
CONTINUOUS
100
AcDbLine
 10
12.46914983798851
 20
4.179630727697873
 30
0.0
 11
13.51836606757532
 21
5.228846957284683
 31
0.0
  0
LINE
  5
B499
330
B48E
100
AcDbEntity
  8
0
  6
CONTINUOUS
100
AcDbLine
 10
12.66873058876364
 20
3.705692269392816
 30
0.0
 11
13.71795180454843
 21
4.754913485177607
 31
0.0
  0
LINE
  5
B49A
330
B48E
100
AcDbEntity
  8
0
  6
CONTINUOUS
100
AcDbLine
 10
12.86831133953877
 20
3.231753811087759
 30
0.0
 11
13.91753754152154
 21
4.280980013070531
 31
0.0
  0
LINE
  5
B49B
330
B48E
100
AcDbEntity
  8
0
  6
CONTINUOUS
100
AcDbLine
 10
13.0678920903139
 20
2.757815352782702
 30
0.0
 11
14.11712327849465
 21
3.807046540963456
 31
0.0
  0
LINE
  5
B49C
330
B48E
100
AcDbEntity
  8
0
  6
CONTINUOUS
100
AcDbLine
 10
13.26747284108903
 20
2.283876894477644
 30
0.0
 11
14.31670901546777
 21
3.333113068856379
 31
0.0
  0
LINE
  5
B49D
330
B48E
100
AcDbEntity
  8
0
  6
CONTINUOUS
100
AcDbLine
 10
16.36767838827179
 20
8.751678487061342
 30
0.0
 11
16.50332410898388
 21
8.887324207773432
 31
0.0
  0
LINE
  5
B49E
330
B48E
100
AcDbEntity
  8
0
  6
CONTINUOUS
100
AcDbLine
 10
15.96190732182191
 20
7.67238821153127
 30
0.0
 11
16.68735328004734
 21
8.397834169756699
 31
0.0
  0
LINE
  5
B49F
330
B48E
100
AcDbEntity
  8
0
  6
CONTINUOUS
100
AcDbLine
 10
15.55613625537202
 20
6.593097936001196
 30
0.0
 11
16.87138245111079
 21
7.908344131739965
 31
0.0
  0
LINE
  5
B4A0
330
B48E
100
AcDbEntity
  8
0
  6
CONTINUOUS
100
AcDbLine
 10
15.15036518892213
 20
5.513807660471122
 30
0.0
 11
17.05541162217424
 21
7.418854093723231
 31
0.0
  0
LINE
  5
B4A1
330
B48E
100
AcDbEntity
  8
0
  6
CONTINUOUS
100
AcDbLine
 10
14.74459412247225
 20
4.434517384941048
 30
0.0
 11
17.2394407932377
 21
6.929364055706499
 31
0.0
  0
LINE
  5
B4A2
330
B48E
100
AcDbEntity
  8
0
  6
CONTINUOUS
100
AcDbLine
 10
14.33882305602236
 20
3.355227109410975
 30
0.0
 11
17.42346996430115
 21
6.439874017689766
 31
0.0
  0
LINE
  5
B4A3
330
B48E
100
AcDbEntity
  8
0
  6
CONTINUOUS
100
AcDbLine
 10
13.46705359186416
 20
1.809938436172586
 30
0.0
 11
16.0819338255367
 21
4.424818669845129
 31
0.0
  0
LINE
  5
B4A4
330
B48E
100
AcDbEntity
  8
0
  6
CONTINUOUS
100
AcDbLine
 10
16.63283254238972
 20
4.975717386698149
 30
0.0
 11
17.60749913536461
 21
5.950383979673033
 31
0.0
  0
LINE
  5
B4A5
330
B48E
100
AcDbEntity
  8
0
  6
CONTINUOUS
100
AcDbLine
 10
13.66663434263929
 20
1.335999977867529
 30
0.0
 11
15.67604797733754
 21
3.345413612565779
 31
0.0
  0
LINE
  5
B4A6
330
B48E
100
AcDbEntity
  8
0
  6
CONTINUOUS
100
AcDbLine
 10
13.86621509341442
 20
0.8620615195624723
 30
0.0
 11
15.27016212913838
 21
2.26600855528643
 31
0.0
  0
LINE
  5
B4A7
330
B48E
100
AcDbEntity
  8
0
  6
CONTINUOUS
100
AcDbLine
 10
16.81682257348267
 20
4.486188208710908
 30
0.0
 11
17.79152830642806
 21
5.460893941656299
 31
0.0
  0
LINE
  5
B4A8
330
B48E
100
AcDbEntity
  8
0
  6
CONTINUOUS
100
AcDbLine
 10
17.00081260457561
 20
3.996659030723667
 30
0.0
 11
17.97555747749151
 21
4.971403903639565
 31
0.0
  0
LINE
  5
B4A9
330
B48E
100
AcDbEntity
  8
0
  6
CONTINUOUS
100
AcDbLine
 10
20.74362343514722
 20
8.412989070375462
 30
0.0
 11
21.09373436476302
 21
8.763099999991256
 31
0.0
  0
LINE
  5
B4AA
330
B48E
100
AcDbEntity
  8
0
  6
CONTINUOUS
100
AcDbLine
 10
20.25401257174777
 20
7.249858997895826
 30
0.0
 11
21.7672535738432
 21
8.763099999991255
 31
0.0
  0
LINE
  5
B4AB
330
B48E
100
AcDbEntity
  8
0
  6
CONTINUOUS
100
AcDbLine
 10
14.06579584418955
 20
0.3881230612574149
 30
0.0
 11
14.86427628093921
 21
1.186603498007082
 31
0.0
  0
LINE
  5
B4AC
330
B48E
100
AcDbEntity
  8
0
  6
CONTINUOUS
100
AcDbLine
 10
14.26537659496467
 20
-0.0858153970476412
 30
0.0
 11
14.45839043274005
 21
0.1071984407277329
 31
0.0
  0
LINE
  5
B4AD
330
B48E
100
AcDbEntity
  8
0
  6
CONTINUOUS
100
AcDbLine
 10
17.18480263566856
 20
3.507129852736426
 30
0.0
 11
18.15958664855496
 21
4.481913865622833
 31
0.0
  0
LINE
  5
B4AE
330
B48E
100
AcDbEntity
  8
0
  6
CONTINUOUS
100
AcDbLine
 10
17.3687926667615
 20
3.017600674749186
 30
0.0
 11
18.34361581961842
 21
3.9924238276061
 31
0.0
  0
LINE
  5
B4AF
330
B48E
100
AcDbEntity
  8
0
  6
CONTINUOUS
100
AcDbLine
 10
19.76440170834832
 20
6.086728925416191
 30
0.0
 11
22.33924590259489
 21
8.661573119662755
 31
0.0
  0
LINE
  5
B4B0
330
B48E
100
AcDbEntity
  8
0
  6
CONTINUOUS
100
AcDbLine
 10
19.27479084494887
 20
4.923598852936555
 30
0.0
 11
21.84929622842713
 21
7.498104236414807
 31
0.0
  0
LINE
  5
B4B1
330
B48E
100
AcDbEntity
  8
0
  6
CONTINUOUS
100
AcDbLine
 10
17.55278269785445
 20
2.528071496761945
 30
0.0
 11
18.52764499068187
 21
3.502933789589366
 31
0.0
  0
LINE
  5
B4B2
330
B48E
100
AcDbEntity
  8
0
  6
CONTINUOUS
100
AcDbLine
 10
18.78517998154942
 20
3.760468780456919
 30
0.0
 11
21.35934655425936
 21
6.33463535316686
 31
0.0
  0
LINE
  5
B4B3
330
B48E
100
AcDbEntity
  8
0
  6
CONTINUOUS
100
AcDbLine
 10
17.73677272894739
 20
2.038542318774704
 30
0.0
 11
20.8693968800916
 21
5.171166469918914
 31
0.0
  0
LINE
  5
B4B4
330
B48E
100
AcDbEntity
  8
0
  6
CONTINUOUS
100
AcDbLine
 10
17.92076276004034
 20
1.549013140787464
 30
0.0
 11
20.37944720592384
 21
4.007697586670968
 31
0.0
  0
LINE
  5
B4B5
330
B48E
100
AcDbEntity
  8
0
  6
CONTINUOUS
100
AcDbLine
 10
18.10475279113329
 20
1.059483962800223
 30
0.0
 11
19.88949753175608
 21
2.84422870342302
 31
0.0
  0
LINE
  5
B4B6
330
B48E
100
AcDbEntity
  8
0
  6
CONTINUOUS
100
AcDbLine
 10
18.28874282222623
 20
0.5699547848129822
 30
0.0
 11
19.39954785758832
 21
1.680759820175074
 31
0.0
  0
LINE
  5
B4B7
330
B48E
100
AcDbEntity
  8
0
  6
CONTINUOUS
100
AcDbLine
 10
18.47273285331918
 20
0.0804256068257416
 30
0.0
 11
18.90959818342056
 21
0.517290936927127
 31
0.0
  0
LINE
  5
B4B8
330
B48E
100
AcDbEntity
  8
0
  6
CONTINUOUS
100
AcDbLine
 10
14.3590401358224
 20
-0.1570118376323384
 30
0.0
 11
14.24903296539946
 21
-0.0470046672093929
 31
0.0
  0
LINE
  5
B4B9
330
B48E
100
AcDbEntity
  8
0
  6
CONTINUOUS
100
AcDbLine
 10
14.54309291258661
 20
0.332454594683643
 30
0.0
 11
13.75908329123172
 21
1.116464216038529
 31
0.0
  0
LINE
  5
B4BA
330
B48E
100
AcDbEntity
  8
0
  6
CONTINUOUS
100
AcDbLine
 10
14.72714568935081
 20
0.8219210269996244
 30
0.0
 11
13.26913361706399
 21
2.27993309928645
 31
0.0
  0
LINE
  5
B4BB
330
B48E
100
AcDbEntity
  8
0
  6
CONTINUOUS
100
AcDbLine
 10
14.91119846611502
 20
1.311387459315606
 30
0.0
 11
12.77918394289625
 21
3.443401982534371
 31
0.0
  0
LINE
  5
B4BC
330
B48E
100
AcDbEntity
  8
0
  6
CONTINUOUS
100
AcDbLine
 10
15.09525124287922
 20
1.800853891631587
 30
0.0
 11
12.28923426872852
 21
4.606870865782293
 31
0.0
  0
LINE
  5
B4BD
330
B48E
100
AcDbEntity
  8
0
  6
CONTINUOUS
100
AcDbLine
 10
15.27930401964343
 20
2.290320323947569
 30
0.0
 11
11.79928459456078
 21
5.770339749030213
 31
0.0
  0
LINE
  5
B4BE
330
B48E
100
AcDbEntity
  8
0
  6
CONTINUOUS
100
AcDbLine
 10
15.46335679640763
 20
2.77978675626355
 30
0.0
 11
14.48885470994921
 21
3.754288842721972
 31
0.0
  0
LINE
  5
B4BF
330
B48E
100
AcDbEntity
  8
0
  6
CONTINUOUS
100
AcDbLine
 10
13.88507249233704
 20
4.358071060334137
 30
0.0
 11
11.30933492039305
 21
6.933808632278135
 31
0.0
  0
LINE
  5
B4C0
330
B48E
100
AcDbEntity
  8
0
  6
CONTINUOUS
100
AcDbLine
 10
18.75840522805855
 20
0.1582575336928151
 30
0.0
 11
18.25383727664818
 21
0.6628254851031863
 31
0.0
  0
LINE
  5
B4C1
330
B48E
100
AcDbEntity
  8
0
  6
CONTINUOUS
100
AcDbLine
 10
15.64740957317184
 20
3.269253188579531
 30
0.0
 11
14.67288388101266
 21
4.243778880738705
 31
0.0
  0
LINE
  5
B4C2
330
B48E
100
AcDbEntity
  8
0
  6
CONTINUOUS
100
AcDbLine
 10
13.39509276772158
 20
5.521569994029786
 30
0.0
 11
10.81938524622531
 21
8.097277515526056
 31
0.0
  0
LINE
  5
B4C3
330
B48E
100
AcDbEntity
  8
0
  6
CONTINUOUS
100
AcDbLine
 10
18.95798597883369
 20
0.6321959919978686
 30
0.0
 11
17.84825644852853
 21
1.741925522303024
 31
0.0
  0
LINE
  5
B4C4
330
B48E
100
AcDbEntity
  8
0
  6
CONTINUOUS
100
AcDbLine
 10
19.15756672960882
 20
1.106134450302922
 30
0.0
 11
17.44267562040888
 21
2.821025559502861
 31
0.0
  0
LINE
  5
B4C5
330
B48E
100
AcDbEntity
  8
0
  6
CONTINUOUS
100
AcDbLine
 10
15.83146234993604
 20
3.758719620895513
 30
0.0
 11
14.85691305207612
 21
4.733268918755439
 31
0.0
  0
LINE
  5
B4C6
330
B48E
100
AcDbEntity
  8
0
  6
CONTINUOUS
100
AcDbLine
 10
16.01551512670025
 20
4.248186053211494
 30
0.0
 11
15.04094222313957
 21
5.222758956772172
 31
0.0
  0
LINE
  5
B4C7
330
B48E
100
AcDbEntity
  8
0
  6
CONTINUOUS
100
AcDbLine
 10
12.90511304310612
 20
6.685068927725435
 30
0.0
 11
10.8270819708403
 21
8.763099999991255
 31
0.0
  0
LINE
  5
B4C8
330
B48E
100
AcDbEntity
  8
0
  6
CONTINUOUS
100
AcDbLine
 10
12.41513331849066
 20
7.848567861421083
 30
0.0
 11
11.50060117992049
 21
8.763099999991255
 31
0.0
  0
LINE
  5
B4C9
330
B48E
100
AcDbEntity
  8
0
  6
CONTINUOUS
100
AcDbLine
 10
19.35714748038395
 20
1.580072908607975
 30
0.0
 11
17.03709479228923
 21
3.900125596702697
 31
0.0
  0
LINE
  5
B4CA
330
B48E
100
AcDbEntity
  8
0
  6
CONTINUOUS
100
AcDbLine
 10
19.55672823115909
 20
2.054011366913028
 30
0.0
 11
16.63151396416958
 21
4.979225633902534
 31
0.0
  0
LINE
  5
B4CB
330
B48E
100
AcDbEntity
  8
0
  6
CONTINUOUS
100
AcDbLine
 10
16.19956790346445
 20
4.737652485527476
 30
0.0
 11
15.22497139420302
 21
5.712248994788904
 31
0.0
  0
LINE
  5
B4CC
330
B48E
100
AcDbEntity
  8
0
  6
CONTINUOUS
100
AcDbLine
 10
16.38362068022866
 20
5.227118917843457
 30
0.0
 11
15.40900056526648
 21
6.201739032805637
 31
0.0
  0
LINE
  5
B4CD
330
B48E
100
AcDbEntity
  8
0
  6
CONTINUOUS
100
AcDbLine
 10
19.75630898193422
 20
2.527949825218081
 30
0.0
 11
18.70774536448286
 21
3.576513442669441
 31
0.0
  0
LINE
  5
B4CE
330
B48E
100
AcDbEntity
  8
0
  6
CONTINUOUS
100
AcDbLine
 10
19.95588973270936
 20
3.001888283523134
 30
0.0
 11
18.90726987211446
 21
4.050508144118028
 31
0.0
  0
LINE
  5
B4CF
330
B48E
100
AcDbEntity
  8
0
  6
CONTINUOUS
100
AcDbLine
 10
20.15547048348449
 20
3.475826741828186
 30
0.0
 11
19.10679437974606
 21
4.524502845566614
 31
0.0
  0
LINE
  5
B4D0
330
B48E
100
AcDbEntity
  8
0
  6
CONTINUOUS
100
AcDbLine
 10
20.35505123425962
 20
3.94976520013324
 30
0.0
 11
19.30631888737766
 21
4.998497547015201
 31
0.0
  0
LINE
  5
B4D1
330
B48E
100
AcDbEntity
  8
0
  6
CONTINUOUS
100
AcDbLine
 10
20.55463198503475
 20
4.423703658438292
 30
0.0
 11
19.50584339500926
 21
5.472492248463787
 31
0.0
  0
LINE
  5
B4D2
330
B48E
100
AcDbEntity
  8
0
  6
CONTINUOUS
100
AcDbLine
 10
18.37481191085755
 20
3.909446896294752
 30
0.0
 11
15.59302973632993
 21
6.691229070822371
 31
0.0
  0
LINE
  5
B4D3
330
B48E
100
AcDbEntity
  8
0
  6
CONTINUOUS
100
AcDbLine
 10
17.96904084440766
 20
4.988737171824825
 30
0.0
 11
15.77705890739338
 21
7.180719108839104
 31
0.0
  0
LINE
  5
B4D4
330
B48E
100
AcDbEntity
  8
0
  6
CONTINUOUS
100
AcDbLine
 10
17.56326977795777
 20
6.068027447354899
 30
0.0
 11
15.96108807845684
 21
7.670209146855838
 31
0.0
  0
LINE
  5
B4D5
330
B48E
100
AcDbEntity
  8
0
  6
CONTINUOUS
100
AcDbLine
 10
17.15749871150789
 20
7.147317722884972
 30
0.0
 11
16.14511724952029
 21
8.15969918487257
 31
0.0
  0
LINE
  5
B4D6
330
B48E
100
AcDbEntity
  8
0
  6
CONTINUOUS
100
AcDbLine
 10
16.751727645058
 20
8.226607998415046
 30
0.0
 11
16.32914642058374
 21
8.649189222889303
 31
0.0
  0
LINE
  5
B4D7
330
B48E
100
AcDbEntity
  8
0
  6
CONTINUOUS
100
AcDbLine
 10
20.75421273580989
 20
4.897642116743345
 30
0.0
 11
19.70536790264086
 21
5.946486949912374
 31
0.0
  0
LINE
  5
B4D8
330
B48E
100
AcDbEntity
  8
0
  6
CONTINUOUS
100
AcDbLine
 10
20.95379348658502
 20
5.371580575048398
 30
0.0
 11
19.90489241027246
 21
6.42048165136096
 31
0.0
  0
LINE
  5
B4D9
330
B48E
100
AcDbEntity
  8
0
  6
CONTINUOUS
100
AcDbLine
 10
21.15337423736015
 20
5.845519033353452
 30
0.0
 11
20.10441691790406
 21
6.894476352809547
 31
0.0
  0
LINE
  5
B4DA
330
B48E
100
AcDbEntity
  8
0
  6
CONTINUOUS
100
AcDbLine
 10
21.35295498813529
 20
6.319457491658505
 30
0.0
 11
20.30394142553566
 21
7.368471054258134
 31
0.0
  0
LINE
  5
B4DB
330
B48E
100
AcDbEntity
  8
0
  6
CONTINUOUS
100
AcDbLine
 10
21.55253573891042
 20
6.793395949963558
 30
0.0
 11
20.50346593316726
 21
7.842465755706721
 31
0.0
  0
LINE
  5
B4DC
330
B48E
100
AcDbEntity
  8
0
  6
CONTINUOUS
100
AcDbLine
 10
21.75211648968556
 20
7.267334408268612
 30
0.0
 11
20.70299044079886
 21
8.316460457155308
 31
0.0
  0
LINE
  5
B4DD
330
B48E
100
AcDbEntity
  8
0
  6
CONTINUOUS
100
AcDbLine
 10
21.95169724046069
 20
7.741272866573663
 30
0.0
 11
20.9298701070431
 21
8.763099999991256
 31
0.0
  0
LINE
  5
B4DE
330
B48E
100
AcDbEntity
  8
0
  6
CONTINUOUS
100
AcDbLine
 10
22.15127799123582
 20
8.215211324878716
 30
0.0
 11
21.60338931612328
 21
8.763099999991256
 31
0.0
  0
LINE
  5
B4DF
330
B48E
100
AcDbEntity
  8
0
  6
CONTINUOUS
100
AcDbLine
 10
22.35085874201096
 20
8.689149783183769
 30
0.0
 11
22.27690852520347
 21
8.763099999991255
 31
0.0
  0
ENDBLK
  5
B5D1
330
B48E
100
AcDbEntity
  8
0
100
AcDbBlockEnd
  0
BLOCK
  5
B5D2
330
B4E0
100
AcDbEntity
  8
0
100
AcDbBlockBegin
  2
*X22
 70
     1
 10
0.0
 20
0.0
 30
0.0
  3
*X22
  1

  0
LINE
  5
B4E1
330
B4E0
100
AcDbEntity
  8
0
  6
CONTINUOUS
100
AcDbLine
 10
23.19462913593892
 20
8.169917934846424
 30
0.0
 11
23.70775465517246
 21
8.683043454079957
 31
0.0
  0
LINE
  5
B4E2
330
B4E0
100
AcDbEntity
  8
0
  6
CONTINUOUS
100
AcDbLine
 10
22.64923161835078
 20
6.951001208178088
 30
0.0
 11
23.9159364069932
 21
8.217705996820516
 31
0.0
  0
LINE
  5
B4E3
330
B4E0
100
AcDbEntity
  8
0
  6
CONTINUOUS
100
AcDbLine
 10
22.10383410076263
 20
5.732084481509751
 30
0.0
 11
24.12411815881395
 21
7.752368539561078
 31
0.0
  0
LINE
  5
B4E4
330
B4E0
100
AcDbEntity
  8
0
  6
CONTINUOUS
100
AcDbLine
 10
21.55843658317447
 20
4.513167754841414
 30
0.0
 11
24.3322999106347
 21
7.287031082301639
 31
0.0
  0
LINE
  5
B4E5
330
B4E0
100
AcDbEntity
  8
0
  6
CONTINUOUS
100
AcDbLine
 10
21.01303906558632
 20
3.294251028173077
 30
0.0
 11
24.54048166245544
 21
6.821693625042199
 31
0.0
  0
LINE
  5
B4E6
330
B4E0
100
AcDbEntity
  8
0
  6
CONTINUOUS
100
AcDbLine
 10
20.46764154799817
 20
2.075334301504738
 30
0.0
 11
23.28571549467848
 21
4.89340824818505
 31
0.0
  0
LINE
  5
B4E7
330
B4E0
100
AcDbEntity
  8
0
  6
CONTINUOUS
100
AcDbLine
 10
19.92224403041002
 20
0.8564175748364002
 30
0.0
 11
22.74075865492779
 21
3.674932199354171
 31
0.0
  0
LINE
  5
B4E8
330
B4E0
100
AcDbEntity
  8
0
  6
CONTINUOUS
100
AcDbLine
 10
23.67305085490148
 20
5.280743608408048
 30
0.0
 11
24.74866341427619
 21
6.356356167782759
 31
0.0
  0
LINE
  5
B4E9
330
B4E0
100
AcDbEntity
  8
0
  6
CONTINUOUS
100
AcDbLine
 10
23.88118970842314
 20
4.815363252849522
 30
0.0
 11
24.95684516609694
 21
5.89101871052332
 31
0.0
  0
LINE
  5
B4EA
330
B4E0
100
AcDbEntity
  8
0
  6
CONTINUOUS
100
AcDbLine
 10
19.73925852647308
 20
-0.0000871381807288
 30
0.0
 11
23.4103456646501
 21
3.670999999996297
 31
0.0
  0
LINE
  5
B4EB
330
B4E0
100
AcDbEntity
  8
0
  6
CONTINUOUS
100
AcDbLine
 10
24.0893285619448
 20
4.349982897290997
 30
0.0
 11
25.16502691791769
 21
5.42568125326388
 31
0.0
  0
LINE
  5
B4EC
330
B4E0
100
AcDbEntity
  8
0
  6
CONTINUOUS
100
AcDbLine
 10
20.41282099582748
 20
-0.0000438779065108
 30
0.0
 11
21.64944178675636
 21
1.236576913022366
 31
0.0
  0
LINE
  5
B4ED
330
B4E0
100
AcDbEntity
  8
0
  6
CONTINUOUS
100
AcDbLine
 10
22.78126487373161
 20
2.36839999999762
 30
0.0
 11
24.08386487373029
 21
3.670999999996297
 31
0.0
  0
LINE
  5
B4EE
330
B4E0
100
AcDbEntity
  8
0
  6
CONTINUOUS
100
AcDbLine
 10
24.29746741546646
 20
3.884602541732471
 30
0.0
 11
25.37320866973843
 21
4.960343796004441
 31
0.0
  0
LINE
  5
B4EF
330
B4E0
100
AcDbEntity
  8
0
  6
CONTINUOUS
100
AcDbLine
 10
21.08638346518189
 20
-0.0000006176322938
 30
0.0
 11
21.10379033335899
 21
0.0174062505448083
 31
0.0
  0
LINE
  5
B4F0
330
B4E0
100
AcDbEntity
  8
0
  6
CONTINUOUS
100
AcDbLine
 10
23.4547840828118
 20
2.36839999999762
 30
0.0
 11
25.58139042155918
 21
4.495006338745002
 31
0.0
  0
LINE
  5
B4F1
330
B4E0
100
AcDbEntity
  8
0
  6
CONTINUOUS
100
AcDbLine
 10
29.30199999996933
 20
8.215615917155148
 30
0.0
 11
29.84948408280543
 21
8.763099999991255
 31
0.0
  0
LINE
  5
B4F2
330
B4E0
100
AcDbEntity
  8
0
  6
CONTINUOUS
100
AcDbLine
 10
24.12830329189199
 20
2.36839999999762
 30
0.0
 11
25.78957217337993
 21
4.029668881485562
 31
0.0
  0
LINE
  5
B4F3
330
B4E0
100
AcDbEntity
  8
0
  6
CONTINUOUS
100
AcDbLine
 10
29.30199999996933
 20
7.54209670807496
 30
0.0
 11
30.52300329188562
 21
8.763099999991255
 31
0.0
  0
LINE
  5
B4F4
330
B4E0
100
AcDbEntity
  8
0
  6
CONTINUOUS
100
AcDbLine
 10
24.80182250097217
 20
2.36839999999762
 30
0.0
 11
25.99775392520067
 21
3.564331424226122
 31
0.0
  0
LINE
  5
B4F5
330
B4E0
100
AcDbEntity
  8
0
  6
CONTINUOUS
100
AcDbLine
 10
29.30199999996933
 20
6.868577498994774
 30
0.0
 11
30.74199999996926
 21
8.308577498994712
 31
0.0
  0
LINE
  5
B4F6
330
B4E0
100
AcDbEntity
  8
0
  6
CONTINUOUS
100
AcDbLine
 10
25.13028238392013
 20
2.023340673865392
 30
0.0
 11
26.20593567702142
 21
3.098993966966683
 31
0.0
  0
LINE
  5
B4F7
330
B4E0
100
AcDbEntity
  8
0
  6
CONTINUOUS
100
AcDbLine
 10
25.33838066033617
 20
1.557919741201244
 30
0.0
 11
26.41411742884217
 21
2.633656509707244
 31
0.0
  0
LINE
  5
B4F8
330
B4E0
100
AcDbEntity
  8
0
  6
CONTINUOUS
100
AcDbLine
 10
25.54647893675221
 20
1.092498808537098
 30
0.0
 11
26.62229918066291
 21
2.168319052447804
 31
0.0
  0
LINE
  5
B4F9
330
B4E0
100
AcDbEntity
  8
0
  6
CONTINUOUS
100
AcDbLine
 10
25.75457721316825
 20
0.62707787587295
 30
0.0
 11
26.83048093248366
 21
1.702981595188365
 31
0.0
  0
LINE
  5
B4FA
330
B4E0
100
AcDbEntity
  8
0
  6
CONTINUOUS
100
AcDbLine
 10
29.30199999996933
 20
6.195058289914587
 30
0.0
 11
30.74199999996926
 21
7.635058289914522
 31
0.0
  0
LINE
  5
B4FB
330
B4E0
100
AcDbEntity
  8
0
  6
CONTINUOUS
100
AcDbLine
 10
29.30199999996933
 20
5.521539080834401
 30
0.0
 11
30.74199999996926
 21
6.961539080834331
 31
0.0
  0
LINE
  5
B4FC
330
B4E0
100
AcDbEntity
  8
0
  6
CONTINUOUS
100
AcDbLine
 10
29.30199999996933
 20
4.848019871754214
 30
0.0
 11
30.74199999996925
 21
6.288019871754143
 31
0.0
  0
LINE
  5
B4FD
330
B4E0
100
AcDbEntity
  8
0
  6
CONTINUOUS
100
AcDbLine
 10
29.30199999996933
 20
4.174500662674028
 30
0.0
 11
30.74199999996925
 21
5.614500662673953
 31
0.0
  0
LINE
  5
B4FE
330
B4E0
100
AcDbEntity
  8
0
  6
CONTINUOUS
100
AcDbLine
 10
25.96267548958429
 20
0.1616569432088024
 30
0.0
 11
27.18411854636669
 21
1.383099999991207
 31
0.0
  0
LINE
  5
B4FF
330
B4E0
100
AcDbEntity
  8
0
  6
CONTINUOUS
100
AcDbLine
 10
29.30199999996933
 20
3.500981453593841
 30
0.0
 11
30.74199999996925
 21
4.940981453593762
 31
0.0
  0
LINE
  5
B500
330
B4E0
100
AcDbEntity
  8
0
  6
CONTINUOUS
100
AcDbLine
 10
26.50763775544691
 20
0.0330999999912356
 30
0.0
 11
27.85763775544689
 21
1.383099999991223
 31
0.0
  0
LINE
  5
B501
330
B4E0
100
AcDbEntity
  8
0
  6
CONTINUOUS
100
AcDbLine
 10
29.30199999996933
 20
2.827462244513656
 30
0.0
 11
30.74199999996925
 21
4.267462244513574
 31
0.0
  0
LINE
  5
B502
330
B4E0
100
AcDbEntity
  8
0
  6
CONTINUOUS
100
AcDbLine
 10
27.18115696452709
 20
0.0330999999912356
 30
0.0
 11
28.55073879889363
 21
1.402681834357775
 31
0.0
  0
LINE
  5
B503
330
B4E0
100
AcDbEntity
  8
0
  6
CONTINUOUS
100
AcDbLine
 10
29.28241816560272
 20
2.134361201066866
 30
0.0
 11
30.74199999996924
 21
3.593943035433383
 31
0.0
  0
LINE
  5
B504
330
B4E0
100
AcDbEntity
  8
0
  6
CONTINUOUS
100
AcDbLine
 10
27.85467617360728
 20
0.0330999999912356
 30
0.0
 11
30.74199999996924
 21
2.920423826353195
 31
0.0
  0
LINE
  5
B505
330
B4E0
100
AcDbEntity
  8
0
  6
CONTINUOUS
100
AcDbLine
 10
28.53897559587887
 20
0.0438802131826428
 30
0.0
 11
30.73121978677781
 21
2.236124404081585
 31
0.0
  0
LINE
  5
B506
330
B4E0
100
AcDbEntity
  8
0
  6
CONTINUOUS
100
AcDbLine
 10
29.45140055588722
 20
0.2827859641107988
 30
0.0
 11
30.49231403584965
 21
1.323699444073236
 31
0.0
  0
LINE
  5
B507
330
B4E0
100
AcDbEntity
  8
0
  6
CONTINUOUS
100
AcDbLine
 10
19.59027867740337
 20
-0.0000967065718083
 30
0.0
 11
19.55485265190471
 21
0.035329318926844
 31
0.0
  0
LINE
  5
B508
330
B4E0
100
AcDbEntity
  8
0
  6
CONTINUOUS
100
AcDbLine
 10
20.26375463176586
 20
-0.0000534518541091
 30
0.0
 11
19.76305575737534
 21
0.5006454225364014
 31
0.0
  0
LINE
  5
B509
330
B4E0
100
AcDbEntity
  8
0
  6
CONTINUOUS
100
AcDbLine
 10
20.93723058612834
 20
-0.0000101971364099
 30
0.0
 11
19.97125886284597
 21
0.965961526145958
 31
0.0
  0
LINE
  5
B50A
330
B4E0
100
AcDbEntity
  8
0
  6
CONTINUOUS
100
AcDbLine
 10
21.25514828313686
 20
0.355591314935257
 30
0.0
 11
20.1794619683166
 21
1.431277629755512
 31
0.0
  0
LINE
  5
B50B
330
B4E0
100
AcDbEntity
  8
0
  6
CONTINUOUS
100
AcDbLine
 10
21.46338838394921
 20
0.8208704232030986
 30
0.0
 11
20.38766507378723
 21
1.896593733365069
 31
0.0
  0
LINE
  5
B50C
330
B4E0
100
AcDbEntity
  8
0
  6
CONTINUOUS
100
AcDbLine
 10
21.67162848476155
 20
1.28614953147094
 30
0.0
 11
20.59586817925786
 21
2.361909836974626
 31
0.0
  0
LINE
  5
B50D
330
B4E0
100
AcDbEntity
  8
0
  6
CONTINUOUS
100
AcDbLine
 10
21.8798685855739
 20
1.751428639738782
 30
0.0
 11
20.80407128472849
 21
2.827225940584183
 31
0.0
  0
LINE
  5
B50E
330
B4E0
100
AcDbEntity
  8
0
  6
CONTINUOUS
100
AcDbLine
 10
22.08810868638624
 20
2.216707748006623
 30
0.0
 11
21.01227439019912
 21
3.292542044193739
 31
0.0
  0
LINE
  5
B50F
330
B4E0
100
AcDbEntity
  8
0
  6
CONTINUOUS
100
AcDbLine
 10
22.60993564347543
 20
2.36839999999762
 30
0.0
 11
21.22047749566975
 21
3.757858147803296
 31
0.0
  0
LINE
  5
B510
330
B4E0
100
AcDbEntity
  8
0
  6
CONTINUOUS
100
AcDbLine
 10
23.28345485255561
 20
2.36839999999762
 30
0.0
 11
21.42868060114038
 21
4.223174251412853
 31
0.0
  0
LINE
  5
B511
330
B4E0
100
AcDbEntity
  8
0
  6
CONTINUOUS
100
AcDbLine
 10
26.29227406164219
 20
0.0330999999912356
 30
0.0
 11
25.80009199592872
 21
0.5252820657046957
 31
0.0
  0
LINE
  5
B512
330
B4E0
100
AcDbEntity
  8
0
  6
CONTINUOUS
100
AcDbLine
 10
23.9569740616358
 20
2.36839999999762
 30
0.0
 11
21.63688370661101
 21
4.688490355022409
 31
0.0
  0
LINE
  5
B513
330
B4E0
100
AcDbEntity
  8
0
  6
CONTINUOUS
100
AcDbLine
 10
26.96579327072237
 20
0.0330999999912356
 30
0.0
 11
25.2554132311971
 21
1.743480039516508
 31
0.0
  0
LINE
  5
B514
330
B4E0
100
AcDbEntity
  8
0
  6
CONTINUOUS
100
AcDbLine
 10
24.63049327071599
 20
2.36839999999762
 30
0.0
 11
23.32789327071731
 21
3.670999999996297
 31
0.0
  0
LINE
  5
B515
330
B4E0
100
AcDbEntity
  8
0
  6
CONTINUOUS
100
AcDbLine
 10
22.92098674744635
 20
4.077906523267254
 30
0.0
 11
21.84508681208164
 21
5.153806458631966
 31
0.0
  0
LINE
  5
B516
330
B4E0
100
AcDbEntity
  8
0
  6
CONTINUOUS
100
AcDbLine
 10
27.63931247980256
 20
0.0330999999912356
 30
0.0
 11
24.0014124797975
 21
3.670999999996297
 31
0.0
  0
LINE
  5
B517
330
B4E0
100
AcDbEntity
  8
0
  6
CONTINUOUS
100
AcDbLine
 10
23.129125600968
 20
4.5432868788258
 30
0.0
 11
22.05328991755227
 21
5.619122562241522
 31
0.0
  0
LINE
  5
B518
330
B4E0
100
AcDbEntity
  8
0
  6
CONTINUOUS
100
AcDbLine
 10
28.31283168888275
 20
0.0330999999912356
 30
0.0
 11
24.16488385994816
 21
4.181047828925828
 31
0.0
  0
LINE
  5
B519
330
B4E0
100
AcDbEntity
  8
0
  6
CONTINUOUS
100
AcDbLine
 10
23.33726445448964
 20
5.008667234384345
 30
0.0
 11
22.2614930230229
 21
6.084438665851079
 31
0.0
  0
LINE
  5
B51A
330
B4E0
100
AcDbEntity
  8
0
  6
CONTINUOUS
100
AcDbLine
 10
28.92085740005492
 20
0.0985934978992438
 30
0.0
 11
27.63635089796295
 21
1.383099999991217
 31
0.0
  0
LINE
  5
B51B
330
B4E0
100
AcDbEntity
  8
0
  6
CONTINUOUS
100
AcDbLine
 10
26.43704649509776
 20
2.582404402856405
 30
0.0
 11
23.61992702019732
 21
5.399523877756844
 31
0.0
  0
LINE
  5
B51C
330
B4E0
100
AcDbEntity
  8
0
  6
CONTINUOUS
100
AcDbLine
 10
23.54540330801128
 20
5.47404758994289
 30
0.0
 11
22.46969612849353
 21
6.549754769460635
 31
0.0
  0
LINE
  5
B51D
330
B4E0
100
AcDbEntity
  8
0
  6
CONTINUOUS
100
AcDbLine
 10
29.42225615078443
 20
0.2707139562499279
 30
0.0
 11
28.30987010704312
 21
1.383099999991234
 31
0.0
  0
LINE
  5
B51E
330
B4E0
100
AcDbEntity
  8
0
  6
CONTINUOUS
100
AcDbLine
 10
25.89179548232307
 20
3.801174624711282
 30
0.0
 11
22.67789923396416
 21
7.015070873070191
 31
0.0
  0
LINE
  5
B51F
330
B4E0
100
AcDbEntity
  8
0
  6
CONTINUOUS
100
AcDbLine
 10
29.83624534690007
 20
0.5302439692144705
 30
0.0
 11
28.85811781497101
 21
1.508371501143527
 31
0.0
  0
LINE
  5
B520
330
B4E0
100
AcDbEntity
  8
0
  6
CONTINUOUS
100
AcDbLine
 10
25.34654446954838
 20
5.01994484656616
 30
0.0
 11
22.88610233943479
 21
7.480386976679748
 31
0.0
  0
LINE
  5
B521
330
B4E0
100
AcDbEntity
  8
0
  6
CONTINUOUS
100
AcDbLine
 10
30.17865975401872
 20
0.8613487711760022
 30
0.0
 11
29.18888744090175
 21
1.851121084292977
 31
0.0
  0
LINE
  5
B522
330
B4E0
100
AcDbEntity
  8
0
  6
CONTINUOUS
100
AcDbLine
 10
24.80129345677369
 20
6.238715068421037
 30
0.0
 11
23.09430544490542
 21
7.945703080289305
 31
0.0
  0
LINE
  5
B523
330
B4E0
100
AcDbEntity
  8
0
  6
CONTINUOUS
100
AcDbLine
 10
30.45496647202376
 20
1.258561262251155
 30
0.0
 11
29.30199999996933
 21
2.411527734305588
 31
0.0
  0
LINE
  5
B524
330
B4E0
100
AcDbEntity
  8
0
  6
CONTINUOUS
100
AcDbLine
 10
24.256042443999
 20
7.457485290275915
 30
0.0
 11
23.30250855037605
 21
8.411019183898862
 31
0.0
  0
LINE
  5
B525
330
B4E0
100
AcDbEntity
  8
0
  6
CONTINUOUS
100
AcDbLine
 10
30.64868582078271
 20
1.738361122572387
 30
0.0
 11
29.30199999996933
 21
3.085046943385775
 31
0.0
  0
LINE
  5
B526
330
B4E0
100
AcDbEntity
  8
0
  6
CONTINUOUS
100
AcDbLine
 10
23.71079143122431
 20
8.676255512130794
 30
0.0
 11
23.51071165584668
 21
8.876335287508416
 31
0.0
  0
LINE
  5
B527
330
B4E0
100
AcDbEntity
  8
0
  6
CONTINUOUS
100
AcDbLine
 10
30.73802122914428
 20
2.322544923291007
 30
0.0
 11
29.30199999996933
 21
3.758566152465961
 31
0.0
  0
LINE
  5
B528
330
B4E0
100
AcDbEntity
  8
0
  6
CONTINUOUS
100
AcDbLine
 10
30.74199999996924
 20
2.992085361546236
 30
0.0
 11
29.30199999996933
 21
4.432085361546148
 31
0.0
  0
LINE
  5
B529
330
B4E0
100
AcDbEntity
  8
0
  6
CONTINUOUS
100
AcDbLine
 10
30.74199999996924
 20
3.665604570626419
 30
0.0
 11
29.30199999996933
 21
5.105604570626333
 31
0.0
  0
LINE
  5
B52A
330
B4E0
100
AcDbEntity
  8
0
  6
CONTINUOUS
100
AcDbLine
 10
30.74199999996925
 20
4.339123779706602
 30
0.0
 11
29.30199999996933
 21
5.77912377970652
 31
0.0
  0
LINE
  5
B52B
330
B4E0
100
AcDbEntity
  8
0
  6
CONTINUOUS
100
AcDbLine
 10
30.74199999996925
 20
5.012642988786785
 30
0.0
 11
29.30199999996933
 21
6.452642988786707
 31
0.0
  0
LINE
  5
B52C
330
B4E0
100
AcDbEntity
  8
0
  6
CONTINUOUS
100
AcDbLine
 10
30.74199999996925
 20
5.68616219786697
 30
0.0
 11
29.30199999996933
 21
7.126162197866894
 31
0.0
  0
LINE
  5
B52D
330
B4E0
100
AcDbEntity
  8
0
  6
CONTINUOUS
100
AcDbLine
 10
30.74199999996925
 20
6.359681406947153
 30
0.0
 11
29.30199999996933
 21
7.799681406947081
 31
0.0
  0
LINE
  5
B52E
330
B4E0
100
AcDbEntity
  8
0
  6
CONTINUOUS
100
AcDbLine
 10
30.74199999996926
 20
7.033200616027337
 30
0.0
 11
29.30199999996933
 21
8.473200616027269
 31
0.0
  0
LINE
  5
B52F
330
B4E0
100
AcDbEntity
  8
0
  6
CONTINUOUS
100
AcDbLine
 10
30.74199999996926
 20
7.706719825107518
 30
0.0
 11
29.68561982508552
 21
8.763099999991255
 31
0.0
  0
LINE
  5
B530
330
B4E0
100
AcDbEntity
  8
0
  6
CONTINUOUS
100
AcDbLine
 10
30.74199999996926
 20
8.380239034187703
 30
0.0
 11
30.35913903416571
 21
8.763099999991255
 31
0.0
  0
ENDBLK
  5
B5D3
330
B4E0
100
AcDbEntity
  8
0
100
AcDbBlockEnd
  0
BLOCK
  5
B5D4
330
B531
100
AcDbEntity
  8
0
100
AcDbBlockBegin
  2
*X23
 70
     1
 10
0.0
 20
0.0
 30
0.0
  3
*X23
  1

  0
LINE
  5
B532
330
B531
100
AcDbEntity
  8
0
  6
CONTINUOUS
100
AcDbLine
 10
31.64199999996833
 20
8.535058289913598
 30
0.0
 11
31.87004171004599
 21
8.763099999991255
 31
0.0
  0
LINE
  5
B533
330
B531
100
AcDbEntity
  8
0
  6
CONTINUOUS
100
AcDbLine
 10
31.64199999996833
 20
7.861539080833412
 30
0.0
 11
32.54356091912618
 21
8.763099999991255
 31
0.0
  0
LINE
  5
B534
330
B531
100
AcDbEntity
  8
0
  6
CONTINUOUS
100
AcDbLine
 10
31.64199999996833
 20
7.188019871753226
 30
0.0
 11
33.08199999996839
 21
8.628019871753281
 31
0.0
  0
LINE
  5
B535
330
B531
100
AcDbEntity
  8
0
  6
CONTINUOUS
100
AcDbLine
 10
31.64199999996833
 20
6.51450066267304
 30
0.0
 11
33.08199999996839
 21
7.954500662673095
 31
0.0
  0
LINE
  5
B536
330
B531
100
AcDbEntity
  8
0
  6
CONTINUOUS
100
AcDbLine
 10
31.64199999996833
 20
5.840981453592853
 30
0.0
 11
33.08199999996839
 21
7.280981453592908
 31
0.0
  0
LINE
  5
B537
330
B531
100
AcDbEntity
  8
0
  6
CONTINUOUS
100
AcDbLine
 10
31.64199999996833
 20
5.167462244512667
 30
0.0
 11
33.08199999996839
 21
6.607462244512721
 31
0.0
  0
LINE
  5
B538
330
B531
100
AcDbEntity
  8
0
  6
CONTINUOUS
100
AcDbLine
 10
31.64199999996833
 20
4.493943035432481
 30
0.0
 11
33.08199999996839
 21
5.933943035432535
 31
0.0
  0
LINE
  5
B539
330
B531
100
AcDbEntity
  8
0
  6
CONTINUOUS
100
AcDbLine
 10
31.64199999996833
 20
3.820423826352293
 30
0.0
 11
33.08199999996839
 21
5.260423826352348
 31
0.0
  0
LINE
  5
B53A
330
B531
100
AcDbEntity
  8
0
  6
CONTINUOUS
100
AcDbLine
 10
31.64199999996833
 20
3.146904617272106
 30
0.0
 11
33.08199999996839
 21
4.586904617272161
 31
0.0
  0
LINE
  5
B53B
330
B531
100
AcDbEntity
  8
0
  6
CONTINUOUS
100
AcDbLine
 10
36.23199999996837
 20
8.410423826352325
 30
0.0
 11
36.5846761736073
 21
8.763099999991255
 31
0.0
  0
LINE
  5
B53C
330
B531
100
AcDbEntity
  8
0
  6
CONTINUOUS
100
AcDbLine
 10
36.23199999996837
 20
7.73690461727214
 30
0.0
 11
37.25819538268748
 21
8.763099999991255
 31
0.0
  0
LINE
  5
B53D
330
B531
100
AcDbEntity
  8
0
  6
CONTINUOUS
100
AcDbLine
 10
31.64257403601376
 20
2.473959444237348
 30
0.0
 11
33.08199999996839
 21
3.913385408191974
 31
0.0
  0
LINE
  5
B53E
330
B531
100
AcDbEntity
  8
0
  6
CONTINUOUS
100
AcDbLine
 10
36.23199999996837
 20
7.063385408191953
 30
0.0
 11
37.67199999996831
 21
8.503385408191894
 31
0.0
  0
LINE
  5
B53F
330
B531
100
AcDbEntity
  8
0
  6
CONTINUOUS
100
AcDbLine
 10
31.72013636841932
 20
1.87800256756272
 30
0.0
 11
33.08199999996839
 21
3.239866199111788
 31
0.0
  0
LINE
  5
B540
330
B531
100
AcDbEntity
  8
0
  6
CONTINUOUS
100
AcDbLine
 10
36.23199999996837
 20
6.389866199111767
 30
0.0
 11
37.67199999996831
 21
7.829866199111708
 31
0.0
  0
LINE
  5
B541
330
B531
100
AcDbEntity
  8
0
  6
CONTINUOUS
100
AcDbLine
 10
31.89042734314753
 20
1.374774333210744
 30
0.0
 11
33.08199999996839
 21
2.566346990031601
 31
0.0
  0
LINE
  5
B542
330
B531
100
AcDbEntity
  8
0
  6
CONTINUOUS
100
AcDbLine
 10
36.23199999996837
 20
5.71634699003158
 30
0.0
 11
37.67199999996831
 21
7.156346990031521
 31
0.0
  0
LINE
  5
B543
330
B531
100
AcDbEntity
  8
0
  6
CONTINUOUS
100
AcDbLine
 10
32.14210568064475
 20
0.952933461627778
 30
0.0
 11
33.18745552475986
 21
1.998283305742888
 31
0.0
  0
LINE
  5
B544
330
B531
100
AcDbEntity
  8
0
  6
CONTINUOUS
100
AcDbLine
 10
36.23199999996837
 20
5.042827780951393
 30
0.0
 11
37.67199999996831
 21
6.482827780951334
 31
0.0
  0
LINE
  5
B545
330
B531
100
AcDbEntity
  8
0
  6
CONTINUOUS
100
AcDbLine
 10
32.45820639400955
 20
0.5955149659123915
 30
0.0
 11
33.47242681921943
 21
1.60973539112227
 31
0.0
  0
LINE
  5
B546
330
B531
100
AcDbEntity
  8
0
  6
CONTINUOUS
100
AcDbLine
 10
36.23199999996837
 20
4.369308571871207
 30
0.0
 11
37.67199999996831
 21
5.809308571871147
 31
0.0
  0
LINE
  5
B547
330
B531
100
AcDbEntity
  8
0
  6
CONTINUOUS
100
AcDbLine
 10
32.83432456621412
 20
0.2981139290367771
 30
0.0
 11
33.89722476612215
 21
1.361014128944803
 31
0.0
  0
LINE
  5
B548
330
B531
100
AcDbEntity
  8
0
  6
CONTINUOUS
100
AcDbLine
 10
36.23199999996837
 20
3.69578936279102
 30
0.0
 11
37.67199999996831
 21
5.135789362790962
 31
0.0
  0
LINE
  5
B549
330
B531
100
AcDbEntity
  8
0
  6
CONTINUOUS
100
AcDbLine
 10
33.2711633111245
 20
0.0614334648669672
 30
0.0
 11
34.43247338014423
 21
1.222743533886696
 31
0.0
  0
LINE
  5
B54A
330
B531
100
AcDbEntity
  8
0
  6
CONTINUOUS
100
AcDbLine
 10
36.23199999996837
 20
3.022270153710834
 30
0.0
 11
37.67199999996831
 21
4.462270153710775
 31
0.0
  0
LINE
  5
B54B
330
B531
100
AcDbEntity
  8
0
  6
CONTINUOUS
100
AcDbLine
 10
33.76515245874577
 20
-0.1180965965919523
 30
0.0
 11
35.1587445516215
 21
1.27549549628378
 31
0.0
  0
LINE
  5
B54C
330
B531
100
AcDbEntity
  8
0
  6
CONTINUOUS
100
AcDbLine
 10
36.21639478609585
 20
2.333145730758136
 30
0.0
 11
37.67199999996831
 21
3.788750944630588
 31
0.0
  0
LINE
  5
B54D
330
B531
100
AcDbEntity
  8
0
  6
CONTINUOUS
100
AcDbLine
 10
34.34060583368432
 20
-0.2161624307335863
 30
0.0
 11
37.67199999996831
 21
3.115231735550401
 31
0.0
  0
LINE
  5
B54E
330
B531
100
AcDbEntity
  8
0
  6
CONTINUOUS
100
AcDbLine
 10
35.01698193613905
 20
-0.2133055373590427
 30
0.0
 11
37.66876712070525
 21
2.438479647207154
 31
0.0
  0
LINE
  5
B54F
330
B531
100
AcDbEntity
  8
0
  6
CONTINUOUS
100
AcDbLine
 10
35.90743367693304
 20
0.0036269943547609
 30
0.0
 11
37.51723902192366
 21
1.613432339345381
 31
0.0
  0
LINE
  5
B550
330
B531
100
AcDbEntity
  8
0
  6
CONTINUOUS
100
AcDbLine
 10
32.55309425579761
 20
0.5074718966376706
 30
0.0
 11
32.27784730925847
 21
0.7827188431768102
 31
0.0
  0
LINE
  5
B551
330
B531
100
AcDbEntity
  8
0
  6
CONTINUOUS
100
AcDbLine
 10
33.87496468909684
 20
-0.1408793275813673
 30
0.0
 11
31.67993083278052
 21
2.054154528734943
 31
0.0
  0
LINE
  5
B552
330
B531
100
AcDbEntity
  8
0
  6
CONTINUOUS
100
AcDbLine
 10
34.64362813207632
 20
-0.2360235614806649
 30
0.0
 11
31.64199999996833
 21
2.765604570627322
 31
0.0
  0
LINE
  5
B553
330
B531
100
AcDbEntity
  8
0
  6
CONTINUOUS
100
AcDbLine
 10
35.25801106796118
 20
-0.1768872882853429
 30
0.0
 11
31.64199999996833
 21
3.439123779707508
 31
0.0
  0
LINE
  5
B554
330
B531
100
AcDbEntity
  8
0
  6
CONTINUOUS
100
AcDbLine
 10
35.79065650332146
 20
-0.0360135145654361
 30
0.0
 11
34.54143210838231
 21
1.213210880373721
 31
0.0
  0
LINE
  5
B555
330
B531
100
AcDbEntity
  8
0
  6
CONTINUOUS
100
AcDbLine
 10
33.08199999996839
 20
2.67264298878764
 30
0.0
 11
31.64199999996833
 21
4.112642988787695
 31
0.0
  0
LINE
  5
B556
330
B531
100
AcDbEntity
  8
0
  6
CONTINUOUS
100
AcDbLine
 10
36.25975597779143
 20
0.1684062200447833
 30
0.0
 11
35.15395110240023
 21
1.274211095435983
 31
0.0
  0
LINE
  5
B557
330
B531
100
AcDbEntity
  8
0
  6
CONTINUOUS
100
AcDbLine
 10
33.08199999996839
 20
3.346162197867826
 30
0.0
 11
31.64199999996833
 21
4.786162197867881
 31
0.0
  0
LINE
  5
B558
330
B531
100
AcDbEntity
  8
0
  6
CONTINUOUS
100
AcDbLine
 10
36.67226329638774
 20
0.4294181105286579
 30
0.0
 11
35.63766478748767
 21
1.464016619428737
 31
0.0
  0
LINE
  5
B559
330
B531
100
AcDbEntity
  8
0
  6
CONTINUOUS
100
AcDbLine
 10
33.08199999996839
 20
4.019681406948012
 30
0.0
 11
31.64199999996833
 21
5.459681406948068
 31
0.0
  0
LINE
  5
B55A
330
B531
100
AcDbEntity
  8
0
  6
CONTINUOUS
100
AcDbLine
 10
37.01677749710036
 20
0.7584231188962329
 30
0.0
 11
35.99563422741351
 21
1.779566388583076
 31
0.0
  0
LINE
  5
B55B
330
B531
100
AcDbEntity
  8
0
  6
CONTINUOUS
100
AcDbLine
 10
33.08199999996839
 20
4.693200616028199
 30
0.0
 11
31.64199999996833
 21
6.133200616028255
 31
0.0
  0
LINE
  5
B55C
330
B531
100
AcDbEntity
  8
0
  6
CONTINUOUS
100
AcDbLine
 10
37.29859977568887
 20
1.1501200493879
 30
0.0
 11
36.20680593341555
 21
2.241913891661226
 31
0.0
  0
LINE
  5
B55D
330
B531
100
AcDbEntity
  8
0
  6
CONTINUOUS
100
AcDbLine
 10
33.08199999996839
 20
5.366719825108386
 30
0.0
 11
31.64199999996833
 21
6.80671982510844
 31
0.0
  0
LINE
  5
B55E
330
B531
100
AcDbEntity
  8
0
  6
CONTINUOUS
100
AcDbLine
 10
37.5148623517228
 20
1.607376682434161
 30
0.0
 11
36.23199999996837
 21
2.890239034188594
 31
0.0
  0
LINE
  5
B55F
330
B531
100
AcDbEntity
  8
0
  6
CONTINUOUS
100
AcDbLine
 10
33.08199999996839
 20
6.040239034188573
 30
0.0
 11
31.64199999996833
 21
7.480239034188627
 31
0.0
  0
LINE
  5
B560
330
B531
100
AcDbEntity
  8
0
  6
CONTINUOUS
100
AcDbLine
 10
37.64705163358367
 20
2.148706609653477
 30
0.0
 11
36.23199999996837
 21
3.56375824326878
 31
0.0
  0
LINE
  5
B561
330
B531
100
AcDbEntity
  8
0
  6
CONTINUOUS
100
AcDbLine
 10
33.08199999996839
 20
6.713758243268758
 30
0.0
 11
31.64199999996833
 21
8.153758243268815
 31
0.0
  0
LINE
  5
B562
330
B531
100
AcDbEntity
  8
0
  6
CONTINUOUS
100
AcDbLine
 10
37.67199999996831
 20
2.797277452349026
 30
0.0
 11
36.23199999996837
 21
4.237277452348967
 31
0.0
  0
LINE
  5
B563
330
B531
100
AcDbEntity
  8
0
  6
CONTINUOUS
100
AcDbLine
 10
37.67199999996831
 20
3.470796661429213
 30
0.0
 11
36.23199999996837
 21
4.910796661429154
 31
0.0
  0
LINE
  5
B564
330
B531
100
AcDbEntity
  8
0
  6
CONTINUOUS
100
AcDbLine
 10
37.67199999996831
 20
4.144315870509399
 30
0.0
 11
36.23199999996837
 21
5.58431587050934
 31
0.0
  0
LINE
  5
B565
330
B531
100
AcDbEntity
  8
0
  6
CONTINUOUS
100
AcDbLine
 10
33.08199999996839
 20
7.387277452348945
 30
0.0
 11
31.70617745232608
 21
8.763099999991255
 31
0.0
  0
LINE
  5
B566
330
B531
100
AcDbEntity
  8
0
  6
CONTINUOUS
100
AcDbLine
 10
33.08199999996839
 20
8.060796661429132
 30
0.0
 11
32.37969666140626
 21
8.763099999991255
 31
0.0
  0
LINE
  5
B567
330
B531
100
AcDbEntity
  8
0
  6
CONTINUOUS
100
AcDbLine
 10
33.08199999996839
 20
8.734315870509318
 30
0.0
 11
33.05321587048645
 21
8.763099999991255
 31
0.0
  0
LINE
  5
B568
330
B531
100
AcDbEntity
  8
0
  6
CONTINUOUS
100
AcDbLine
 10
37.67199999996831
 20
4.817835079589585
 30
0.0
 11
36.23199999996837
 21
6.257835079589526
 31
0.0
  0
LINE
  5
B569
330
B531
100
AcDbEntity
  8
0
  6
CONTINUOUS
100
AcDbLine
 10
37.67199999996831
 20
5.491354288669771
 30
0.0
 11
36.23199999996837
 21
6.931354288669713
 31
0.0
  0
LINE
  5
B56A
330
B531
100
AcDbEntity
  8
0
  6
CONTINUOUS
100
AcDbLine
 10
37.67199999996831
 20
6.164873497749958
 30
0.0
 11
36.23199999996837
 21
7.6048734977499
 31
0.0
  0
LINE
  5
B56B
330
B531
100
AcDbEntity
  8
0
  6
CONTINUOUS
100
AcDbLine
 10
37.67199999996831
 20
6.838392706830144
 30
0.0
 11
36.23199999996837
 21
8.278392706830086
 31
0.0
  0
LINE
  5
B56C
330
B531
100
AcDbEntity
  8
0
  6
CONTINUOUS
100
AcDbLine
 10
37.67199999996831
 20
7.511911915910332
 30
0.0
 11
36.42081191588738
 21
8.763099999991255
 31
0.0
  0
LINE
  5
B56D
330
B531
100
AcDbEntity
  8
0
  6
CONTINUOUS
100
AcDbLine
 10
37.67199999996831
 20
8.185431124990519
 30
0.0
 11
37.09433112496757
 21
8.763099999991255
 31
0.0
  0
ENDBLK
  5
B5D5
330
B531
100
AcDbEntity
  8
0
100
AcDbBlockEnd
  0
BLOCK
  5
B5D6
330
B56E
100
AcDbEntity
  8
0
100
AcDbBlockBegin
  2
*X24
 70
     1
 10
0.0
 20
0.0
 30
0.0
  3
*X24
  1

  0
LINE
  5
B56F
330
B56E
100
AcDbEntity
  8
0
  6
CONTINUOUS
100
AcDbLine
 10
38.60499999996136
 20
8.762866199104765
 30
0.0
 11
38.71672554182345
 21
8.874591740966855
 31
0.0
  0
LINE
  5
B570
330
B56E
100
AcDbEntity
  8
0
  6
CONTINUOUS
100
AcDbLine
 10
38.60499999996136
 20
8.089346990024577
 30
0.0
 11
39.03418785440363
 21
8.518534844466847
 31
0.0
  0
LINE
  5
B571
330
B56E
100
AcDbEntity
  8
0
  6
CONTINUOUS
100
AcDbLine
 10
38.60499999996136
 20
7.41582778094439
 30
0.0
 11
39.35165016698382
 21
8.16247794796684
 31
0.0
  0
LINE
  5
B572
330
B56E
100
AcDbEntity
  8
0
  6
CONTINUOUS
100
AcDbLine
 10
38.60499999996136
 20
6.742308571864204
 30
0.0
 11
39.66911247956399
 21
7.806421051466834
 31
0.0
  0
LINE
  5
B573
330
B56E
100
AcDbEntity
  8
0
  6
CONTINUOUS
100
AcDbLine
 10
38.60499999996136
 20
6.068789362784018
 30
0.0
 11
39.98657479214418
 21
7.450364154966827
 31
0.0
  0
LINE
  5
B574
330
B56E
100
AcDbEntity
  8
0
  6
CONTINUOUS
100
AcDbLine
 10
38.60499999996136
 20
5.395270153703832
 30
0.0
 11
40.30403710472435
 21
7.09430725846682
 31
0.0
  0
LINE
  5
B575
330
B56E
100
AcDbEntity
  8
0
  6
CONTINUOUS
100
AcDbLine
 10
38.60499999996136
 20
4.721750944623645
 30
0.0
 11
40.62149941730453
 21
6.738250361966813
 31
0.0
  0
LINE
  5
B576
330
B56E
100
AcDbEntity
  8
0
  6
CONTINUOUS
100
AcDbLine
 10
38.60499999996136
 20
4.048231735543458
 30
0.0
 11
40.93896172988471
 21
6.382193465466806
 31
0.0
  0
LINE
  5
B577
330
B56E
100
AcDbEntity
  8
0
  6
CONTINUOUS
100
AcDbLine
 10
38.60499999996136
 20
3.374712526463272
 30
0.0
 11
40.02599999995994
 21
4.795712526461843
 31
0.0
  0
LINE
  5
B578
330
B56E
100
AcDbEntity
  8
0
  6
CONTINUOUS
100
AcDbLine
 10
38.60499999996136
 20
2.701193317383085
 30
0.0
 11
40.02599999995994
 21
4.122193317381657
 31
0.0
  0
LINE
  5
B579
330
B56E
100
AcDbEntity
  8
0
  6
CONTINUOUS
100
AcDbLine
 10
40.28339754687704
 20
5.053110073378947
 30
0.0
 11
41.25642404246489
 21
6.026136568966799
 31
0.0
  0
LINE
  5
B57A
330
B56E
100
AcDbEntity
  8
0
  6
CONTINUOUS
100
AcDbLine
 10
40.60085985945722
 20
4.697053176878939
 30
0.0
 11
41.57388635504507
 21
5.670079672466793
 31
0.0
  0
LINE
  5
B57B
330
B56E
100
AcDbEntity
  8
0
  6
CONTINUOUS
100
AcDbLine
 10
43.57899999995641
 20
8.348712526458318
 30
0.0
 11
43.99338747348935
 21
8.763099999991255
 31
0.0
  0
LINE
  5
B57C
330
B56E
100
AcDbEntity
  8
0
  6
CONTINUOUS
100
AcDbLine
 10
43.57899999995641
 20
7.675193317378131
 30
0.0
 11
44.66690668256953
 21
8.763099999991255
 31
0.0
  0
LINE
  5
B57D
330
B56E
100
AcDbEntity
  8
0
  6
CONTINUOUS
100
AcDbLine
 10
38.60499999996136
 20
2.027674108302898
 30
0.0
 11
40.02599999995994
 21
3.44867410830147
 31
0.0
  0
LINE
  5
B57E
330
B56E
100
AcDbEntity
  8
0
  6
CONTINUOUS
100
AcDbLine
 10
38.60499999996136
 20
1.354154899222712
 30
0.0
 11
40.02599999995994
 21
2.775154899221284
 31
0.0
  0
LINE
  5
B57F
330
B56E
100
AcDbEntity
  8
0
  6
CONTINUOUS
100
AcDbLine
 10
38.60499999996136
 20
0.6806356901425255
 30
0.0
 11
40.02599999995994
 21
2.101635690141098
 31
0.0
  0
LINE
  5
B580
330
B56E
100
AcDbEntity
  8
0
  6
CONTINUOUS
100
AcDbLine
 10
38.60499999996136
 20
0.0071164810623383
 30
0.0
 11
40.02599999995994
 21
1.428116481060911
 31
0.0
  0
LINE
  5
B581
330
B56E
100
AcDbEntity
  8
0
  6
CONTINUOUS
100
AcDbLine
 10
40.9183221720374
 20
4.340996280378933
 30
0.0
 11
41.89134866762525
 21
5.314022775966786
 31
0.0
  0
LINE
  5
B582
330
B56E
100
AcDbEntity
  8
0
  6
CONTINUOUS
100
AcDbLine
 10
41.23578448461758
 20
3.984939383878926
 30
0.0
 11
42.20881098020543
 21
4.957965879466778
 31
0.0
  0
LINE
  5
B583
330
B56E
100
AcDbEntity
  8
0
  6
CONTINUOUS
100
AcDbLine
 10
41.55324679719776
 20
3.628882487378919
 30
0.0
 11
42.52627329278561
 21
4.601908982966772
 31
0.0
  0
LINE
  5
B584
330
B56E
100
AcDbEntity
  8
0
  6
CONTINUOUS
100
AcDbLine
 10
41.87070910977793
 20
3.272825590878912
 30
0.0
 11
42.84373560536579
 21
4.245852086466765
 31
0.0
  0
LINE
  5
B585
330
B56E
100
AcDbEntity
  8
0
  6
CONTINUOUS
100
AcDbLine
 10
43.57899999995641
 20
7.001674108297943
 30
0.0
 11
44.99999999995498
 21
8.422674108296516
 31
0.0
  0
LINE
  5
B586
330
B56E
100
AcDbEntity
  8
0
  6
CONTINUOUS
100
AcDbLine
 10
43.57899999995641
 20
6.328154899217758
 30
0.0
 11
44.99999999995498
 21
7.749154899216329
 31
0.0
  0
LINE
  5
B587
330
B56E
100
AcDbEntity
  8
0
  6
CONTINUOUS
100
AcDbLine
 10
43.57899999995641
 20
5.654635690137571
 30
0.0
 11
44.99999999995498
 21
7.075635690136142
 31
0.0
  0
LINE
  5
B588
330
B56E
100
AcDbEntity
  8
0
  6
CONTINUOUS
100
AcDbLine
 10
43.57899999995641
 20
4.981116481057384
 30
0.0
 11
44.99999999995498
 21
6.402116481055955
 31
0.0
  0
LINE
  5
B589
330
B56E
100
AcDbEntity
  8
0
  6
CONTINUOUS
100
AcDbLine
 10
39.27140272797921
 20
-0.0000000000000009
 30
0.0
 11
40.02599999995994
 21
0.7545972719807246
 31
0.0
  0
LINE
  5
B58A
330
B56E
100
AcDbEntity
  8
0
  6
CONTINUOUS
100
AcDbLine
 10
39.9449219370594
 20
-0.0000000000000009
 30
0.0
 11
40.02599999995994
 21
0.0810780629005379
 31
0.0
  0
LINE
  5
B58B
330
B56E
100
AcDbEntity
  8
0
  6
CONTINUOUS
100
AcDbLine
 10
42.18817142235812
 20
2.916768694378905
 30
0.0
 11
43.16119791794597
 21
3.889795189966758
 31
0.0
  0
LINE
  5
B58C
330
B56E
100
AcDbEntity
  8
0
  6
CONTINUOUS
100
AcDbLine
 10
42.50563373493829
 20
2.560711797878898
 30
0.0
 11
43.47866023052615
 21
3.533738293466751
 31
0.0
  0
LINE
  5
B58D
330
B56E
100
AcDbEntity
  8
0
  6
CONTINUOUS
100
AcDbLine
 10
43.57899999995641
 20
4.307597271977198
 30
0.0
 11
44.99999999995498
 21
5.728597271975769
 31
0.0
  0
LINE
  5
B58E
330
B56E
100
AcDbEntity
  8
0
  6
CONTINUOUS
100
AcDbLine
 10
43.57899999995641
 20
3.634078062897011
 30
0.0
 11
44.99999999995498
 21
5.055078062895582
 31
0.0
  0
LINE
  5
B58F
330
B56E
100
AcDbEntity
  8
0
  6
CONTINUOUS
100
AcDbLine
 10
42.82309604751848
 20
2.204654901378891
 30
0.0
 11
44.99999999995498
 21
4.381558853815395
 31
0.0
  0
LINE
  5
B590
330
B56E
100
AcDbEntity
  8
0
  6
CONTINUOUS
100
AcDbLine
 10
43.14055836009865
 20
1.848598004878885
 30
0.0
 11
44.99999999995498
 21
3.70803964473521
 31
0.0
  0
LINE
  5
B591
330
B56E
100
AcDbEntity
  8
0
  6
CONTINUOUS
100
AcDbLine
 10
43.45802067267883
 20
1.492541108378878
 30
0.0
 11
44.99999999995498
 21
3.034520435655023
 31
0.0
  0
LINE
  5
B592
330
B56E
100
AcDbEntity
  8
0
  6
CONTINUOUS
100
AcDbLine
 10
43.77548298525902
 20
1.136484211878871
 30
0.0
 11
44.99999999995498
 21
2.361001226574837
 31
0.0
  0
LINE
  5
B593
330
B56E
100
AcDbEntity
  8
0
  6
CONTINUOUS
100
AcDbLine
 10
44.09294529783919
 20
0.7804273153788639
 30
0.0
 11
44.99999999995498
 21
1.687482017494649
 31
0.0
  0
LINE
  5
B594
330
B56E
100
AcDbEntity
  8
0
  6
CONTINUOUS
100
AcDbLine
 10
44.41040761041938
 20
0.4243704188788566
 30
0.0
 11
44.99999999995498
 21
1.013962808414463
 31
0.0
  0
LINE
  5
B595
330
B56E
100
AcDbEntity
  8
0
  6
CONTINUOUS
100
AcDbLine
 10
44.72786992299955
 20
0.0683135223788494
 30
0.0
 11
44.99999999995498
 21
0.340443599334276
 31
0.0
  0
LINE
  5
B596
330
B56E
100
AcDbEntity
  8
0
  6
CONTINUOUS
100
AcDbLine
 10
39.12223903415696
 20
-0.0000000000000009
 30
0.0
 11
38.60499999996136
 21
0.5172390341955961
 31
0.0
  0
LINE
  5
B597
330
B56E
100
AcDbEntity
  8
0
  6
CONTINUOUS
100
AcDbLine
 10
39.79575824323715
 20
-0.0000000000000009
 30
0.0
 11
38.60499999996136
 21
1.190758243275783
 31
0.0
  0
LINE
  5
B598
330
B56E
100
AcDbEntity
  8
0
  6
CONTINUOUS
100
AcDbLine
 10
40.02599999995994
 20
0.443277452357397
 30
0.0
 11
38.60499999996136
 21
1.864277452355969
 31
0.0
  0
LINE
  5
B599
330
B56E
100
AcDbEntity
  8
0
  6
CONTINUOUS
100
AcDbLine
 10
40.02599999995994
 20
1.116796661437583
 30
0.0
 11
38.60499999996136
 21
2.537796661436155
 31
0.0
  0
LINE
  5
B59A
330
B56E
100
AcDbEntity
  8
0
  6
CONTINUOUS
100
AcDbLine
 10
40.02599999995994
 20
1.79031587051777
 30
0.0
 11
38.60499999996136
 21
3.211315870516341
 31
0.0
  0
LINE
  5
B59B
330
B56E
100
AcDbEntity
  8
0
  6
CONTINUOUS
100
AcDbLine
 10
40.02599999995994
 20
2.463835079597956
 30
0.0
 11
38.60499999996136
 21
3.884835079596527
 31
0.0
  0
LINE
  5
B59C
330
B56E
100
AcDbEntity
  8
0
  6
CONTINUOUS
100
AcDbLine
 10
40.02599999995994
 20
3.137354288678143
 30
0.0
 11
38.60499999996136
 21
4.558354288676714
 31
0.0
  0
LINE
  5
B59D
330
B56E
100
AcDbEntity
  8
0
  6
CONTINUOUS
100
AcDbLine
 10
40.02599999995994
 20
3.810873497758329
 30
0.0
 11
38.60499999996136
 21
5.2318734977569
 31
0.0
  0
LINE
  5
B59E
330
B56E
100
AcDbEntity
  8
0
  6
CONTINUOUS
100
AcDbLine
 10
40.02599999995994
 20
4.484392706838515
 30
0.0
 11
38.60499999996136
 21
5.905392706837086
 31
0.0
  0
LINE
  5
B59F
330
B56E
100
AcDbEntity
  8
0
  6
CONTINUOUS
100
AcDbLine
 10
44.99999999995498
 20
0.183911915923658
 30
0.0
 11
41.53858364506288
 21
3.64532827081576
 31
0.0
  0
LINE
  5
B5A0
330
B56E
100
AcDbEntity
  8
0
  6
CONTINUOUS
100
AcDbLine
 10
40.02599999995994
 20
5.157911915918703
 30
0.0
 11
38.60499999996136
 21
6.578911915917274
 31
0.0
  0
LINE
  5
B5A1
330
B56E
100
AcDbEntity
  8
0
  6
CONTINUOUS
100
AcDbLine
 10
44.99999999995498
 20
0.8574311250038447
 30
0.0
 11
38.60499999996136
 21
7.25243112499746
 31
0.0
  0
LINE
  5
B5A2
330
B56E
100
AcDbEntity
  8
0
  6
CONTINUOUS
100
AcDbLine
 10
44.99999999995498
 20
1.530950334084031
 30
0.0
 11
38.60499999996136
 21
7.925950334077647
 31
0.0
  0
LINE
  5
B5A3
330
B56E
100
AcDbEntity
  8
0
  6
CONTINUOUS
100
AcDbLine
 10
44.99999999995498
 20
2.204469543164218
 30
0.0
 11
43.57899999995641
 21
3.625469543162789
 31
0.0
  0
LINE
  5
B5A4
330
B56E
100
AcDbEntity
  8
0
  6
CONTINUOUS
100
AcDbLine
 10
41.89876730984767
 20
5.305702233271528
 30
0.0
 11
38.60499999996136
 21
8.599469543157834
 31
0.0
  0
LINE
  5
B5A5
330
B56E
100
AcDbEntity
  8
0
  6
CONTINUOUS
100
AcDbLine
 10
44.99999999995498
 20
2.877988752244405
 30
0.0
 11
43.57899999995641
 21
4.298988752242975
 31
0.0
  0
LINE
  5
B5A6
330
B56E
100
AcDbEntity
  8
0
  6
CONTINUOUS
100
AcDbLine
 10
44.99999999995498
 20
3.551507961324591
 30
0.0
 11
43.57899999995641
 21
4.972507961323163
 31
0.0
  0
LINE
  5
B5A7
330
B56E
100
AcDbEntity
  8
0
  6
CONTINUOUS
100
AcDbLine
 10
44.99999999995498
 20
4.225027170404777
 30
0.0
 11
43.57899999995641
 21
5.646027170403348
 31
0.0
  0
LINE
  5
B5A8
330
B56E
100
AcDbEntity
  8
0
  6
CONTINUOUS
100
AcDbLine
 10
44.99999999995498
 20
4.898546379484964
 30
0.0
 11
43.57899999995641
 21
6.319546379483535
 31
0.0
  0
LINE
  5
B5A9
330
B56E
100
AcDbEntity
  8
0
  6
CONTINUOUS
100
AcDbLine
 10
44.99999999995498
 20
5.572065588565151
 30
0.0
 11
43.57899999995641
 21
6.993065588563722
 31
0.0
  0
LINE
  5
B5AA
330
B56E
100
AcDbEntity
  8
0
  6
CONTINUOUS
100
AcDbLine
 10
44.99999999995498
 20
6.245584797645336
 30
0.0
 11
43.57899999995641
 21
7.666584797643908
 31
0.0
  0
LINE
  5
B5AB
330
B56E
100
AcDbEntity
  8
0
  6
CONTINUOUS
100
AcDbLine
 10
44.99999999995498
 20
6.919104006725522
 30
0.0
 11
43.57899999995641
 21
8.340104006724093
 31
0.0
  0
LINE
  5
B5AC
330
B56E
100
AcDbEntity
  8
0
  6
CONTINUOUS
100
AcDbLine
 10
44.99999999995498
 20
7.592623215805709
 30
0.0
 11
43.82952321576943
 21
8.763099999991255
 31
0.0
  0
LINE
  5
B5AD
330
B56E
100
AcDbEntity
  8
0
  6
CONTINUOUS
100
AcDbLine
 10
44.99999999995498
 20
8.266142424885896
 30
0.0
 11
44.50304242484962
 21
8.763099999991255
 31
0.0
  0
ENDBLK
  5
B5D7
330
B56E
100
AcDbEntity
  8
0
100
AcDbBlockEnd
  0
BLOCK
  5
B5D8
330
B5AE
100
AcDbEntity
  8
0
100
AcDbBlockBegin
  2
*X25
 70
     1
 10
0.0
 20
0.0
 30
0.0
  3
*X25
  1

  0
LINE
  5
B5AF
330
B5AE
100
AcDbEntity
  8
0
  6
CONTINUOUS
100
AcDbLine
 10
0.0
 20
8.548461116714023
 30
0.0
 11
0.2146388832772324
 21
8.763099999991255
 31
0.0
  0
LINE
  5
B5B0
330
B5AE
100
AcDbEntity
  8
0
  6
CONTINUOUS
100
AcDbLine
 10
-0.0000000000000002
 20
7.874941907633837
 30
0.0
 11
0.8881580923574184
 21
8.763099999991255
 31
0.0
  0
LINE
  5
B5B1
330
B5AE
100
AcDbEntity
  8
0
  6
CONTINUOUS
100
AcDbLine
 10
0.0
 20
7.20142269855365
 30
0.0
 11
1.420999999998572
 21
8.622422698552223
 31
0.0
  0
LINE
  5
B5B2
330
B5AE
100
AcDbEntity
  8
0
  6
CONTINUOUS
100
AcDbLine
 10
-0.0000000000000001
 20
6.527903489473465
 30
0.0
 11
1.420999999998571
 21
7.948903489472036
 31
0.0
  0
LINE
  5
B5B3
330
B5AE
100
AcDbEntity
  8
0
  6
CONTINUOUS
100
AcDbLine
 10
-0.0000000000000002
 20
5.854384280393278
 30
0.0
 11
1.420999999998571
 21
7.275384280391849
 31
0.0
  0
LINE
  5
B5B4
330
B5AE
100
AcDbEntity
  8
0
  6
CONTINUOUS
100
AcDbLine
 10
-0.0000000000000002
 20
5.180865071313091
 30
0.0
 11
1.420999999998571
 21
6.601865071311663
 31
0.0
  0
LINE
  5
B5B5
330
B5AE
100
AcDbEntity
  8
0
  6
CONTINUOUS
100
AcDbLine
 10
0.0
 20
4.507345862232905
 30
0.0
 11
1.420999999998571
 21
5.928345862231477
 31
0.0
  0
LINE
  5
B5B6
330
B5AE
100
AcDbEntity
  8
0
  6
CONTINUOUS
100
AcDbLine
 10
-0.0000000000000003
 20
3.833826653152718
 30
0.0
 11
1.420999999998571
 21
5.25482665315129
 31
0.0
  0
LINE
  5
B5B7
330
B5AE
100
AcDbEntity
  8
0
  6
CONTINUOUS
100
AcDbLine
 10
-0.0000000000000002
 20
3.160307444072532
 30
0.0
 11
1.420999999998571
 21
4.581307444071103
 31
0.0
  0
LINE
  5
B5B8
330
B5AE
100
AcDbEntity
  8
0
  6
CONTINUOUS
100
AcDbLine
 10
-0.0000000000000001
 20
2.486788234992345
 30
0.0
 11
1.420999999998571
 21
3.907788234990917
 31
0.0
  0
LINE
  5
B5B9
330
B5AE
100
AcDbEntity
  8
0
  6
CONTINUOUS
100
AcDbLine
 10
-0.0000000000000006
 20
1.813269025912159
 30
0.0
 11
1.420999999998571
 21
3.234269025910731
 31
0.0
  0
LINE
  5
B5BA
330
B5AE
100
AcDbEntity
  8
0
  6
CONTINUOUS
100
AcDbLine
 10
0.0
 20
1.139749816831973
 30
0.0
 11
1.420999999998571
 21
2.560749816830544
 31
0.0
  0
LINE
  5
B5BB
330
B5AE
100
AcDbEntity
  8
0
  6
CONTINUOUS
100
AcDbLine
 10
0.0000000000000002
 20
0.466230607751787
 30
0.0
 11
1.420999999998571
 21
1.887230607750358
 31
0.0
  0
LINE
  5
B5BC
330
B5AE
100
AcDbEntity
  8
0
  6
CONTINUOUS
100
AcDbLine
 10
0.2072886013284003
 20
-0.0000000000000009
 30
0.0
 11
1.420999999998571
 21
1.213711398670171
 31
0.0
  0
LINE
  5
B5BD
330
B5AE
100
AcDbEntity
  8
0
  6
CONTINUOUS
100
AcDbLine
 10
0.8808078104085864
 20
-0.0000000000000009
 30
0.0
 11
1.420999999998571
 21
0.5401921895899839
 31
0.0
  0
LINE
  5
B5BE
330
B5AE
100
AcDbEntity
  8
0
  6
CONTINUOUS
100
AcDbLine
 10
0.0581249075061505
 20
-0.0000000000000009
 30
0.0
 11
-0.0000000000000002
 21
0.0581249075061496
 31
0.0
  0
LINE
  5
B5BF
330
B5AE
100
AcDbEntity
  8
0
  6
CONTINUOUS
100
AcDbLine
 10
0.7316441165863372
 20
-0.0000000000000009
 30
0.0
 11
-0.0000000000000002
 21
0.7316441165863363
 31
0.0
  0
LINE
  5
B5C0
330
B5AE
100
AcDbEntity
  8
0
  6
CONTINUOUS
100
AcDbLine
 10
1.405163325666523
 20
-0.0000000000000009
 30
0.0
 11
-0.0000000000000002
 21
1.405163325666523
 31
0.0
  0
LINE
  5
B5C1
330
B5AE
100
AcDbEntity
  8
0
  6
CONTINUOUS
100
AcDbLine
 10
1.420999999998572
 20
0.6576825347481381
 30
0.0
 11
-0.0000000000000001
 21
2.07868253474671
 31
0.0
  0
LINE
  5
B5C2
330
B5AE
100
AcDbEntity
  8
0
  6
CONTINUOUS
100
AcDbLine
 10
1.420999999998571
 20
1.331201743828324
 30
0.0
 11
-0.0000000000000001
 21
2.752201743826896
 31
0.0
  0
LINE
  5
B5C3
330
B5AE
100
AcDbEntity
  8
0
  6
CONTINUOUS
100
AcDbLine
 10
1.420999999998571
 20
2.004720952908511
 30
0.0
 11
-0.0000000000000002
 21
3.425720952907082
 31
0.0
  0
LINE
  5
B5C4
330
B5AE
100
AcDbEntity
  8
0
  6
CONTINUOUS
100
AcDbLine
 10
1.420999999998571
 20
2.678240161988697
 30
0.0
 11
-0.0000000000000001
 21
4.099240161987269
 31
0.0
  0
LINE
  5
B5C5
330
B5AE
100
AcDbEntity
  8
0
  6
CONTINUOUS
100
AcDbLine
 10
1.420999999998572
 20
3.351759371068884
 30
0.0
 11
0.0
 21
4.772759371067455
 31
0.0
  0
LINE
  5
B5C6
330
B5AE
100
AcDbEntity
  8
0
  6
CONTINUOUS
100
AcDbLine
 10
1.420999999998571
 20
4.02527858014907
 30
0.0
 11
-0.0000000000000003
 21
5.446278580147642
 31
0.0
  0
LINE
  5
B5C7
330
B5AE
100
AcDbEntity
  8
0
  6
CONTINUOUS
100
AcDbLine
 10
1.420999999998571
 20
4.698797789229257
 30
0.0
 11
0.0
 21
6.119797789227828
 31
0.0
  0
LINE
  5
B5C8
330
B5AE
100
AcDbEntity
  8
0
  6
CONTINUOUS
100
AcDbLine
 10
1.420999999998571
 20
5.372316998309444
 30
0.0
 11
-0.0000000000000001
 21
6.793316998308015
 31
0.0
  0
LINE
  5
B5C9
330
B5AE
100
AcDbEntity
  8
0
  6
CONTINUOUS
100
AcDbLine
 10
1.420999999998572
 20
6.045836207389629
 30
0.0
 11
-0.0000000000000004
 21
7.466836207388202
 31
0.0
  0
LINE
  5
B5CA
330
B5AE
100
AcDbEntity
  8
0
  6
CONTINUOUS
100
AcDbLine
 10
1.420999999998571
 20
6.719355416469816
 30
0.0
 11
0.0
 21
8.140355416468388
 31
0.0
  0
LINE
  5
B5CB
330
B5AE
100
AcDbEntity
  8
0
  6
CONTINUOUS
100
AcDbLine
 10
1.420999999998571
 20
7.392874625550003
 30
0.0
 11
0.0507746255573185
 21
8.763099999991255
 31
0.0
  0
LINE
  5
B5CC
330
B5AE
100
AcDbEntity
  8
0
  6
CONTINUOUS
100
AcDbLine
 10
1.420999999998571
 20
8.06639383463019
 30
0.0
 11
0.7242938346375052
 21
8.763099999991255
 31
0.0
  0
LINE
  5
B5CD
330
B5AE
100
AcDbEntity
  8
0
  6
CONTINUOUS
100
AcDbLine
 10
1.420999999998571
 20
8.739913043710375
 30
0.0
 11
1.397813043717691
 21
8.763099999991255
 31
0.0
  0
ENDBLK
  5
B5D9
330
B5AE
100
AcDbEntity
  8
0
100
AcDbBlockEnd
  0
ENDSEC
  0
SECTION
  2
ENTITIES
  0
LINE
  5
AF60
330
18
100
AcDbEntity
  8
01
100
AcDbLine
 10
5167.449596239165
 20
-175.2226954226012
 30
0.0000000001127424
 11
5215.449596239165
 21
-175.2226954226012
 31
0.0000000001127424
  0
LINE
  5
AF61
330
18
100
AcDbEntity
  8
01
100
AcDbLine
 10
5166.449596239165
 20
-166.7226954226012
 30
0.0000000001127424
 11
5166.449596239165
 21
-174.2226954226012
 31
0.0000000001127424
  0
ARC
  5
AF62
330
18
100
AcDbEntity
  8
01
100
AcDbCircle
 10
5167.449596239165
 20
-174.2226954226012
 30
0.0000000001127424
 40
1.0
100
AcDbArc
 50
180.0
 51
270.0
  0
LINE
  5
AF63
330
18
100
AcDbEntity
  8
01
100
AcDbLine
 10
5216.449596239165
 20
-166.7226954226012
 30
0.0000000001127424
 11
5216.449596239165
 21
-174.2226954226012
 31
0.0000000001127424
  0
ARC
  5
AF64
330
18
100
AcDbEntity
  8
01
100
AcDbCircle
 10
5215.449596239165
 20
-174.2226954226012
 30
0.0000000001127424
 40
1.0
100
AcDbArc
 50
270.0
 51
0.0
  0
ARC
  5
AF65
330
18
100
AcDbEntity
  8
01
100
AcDbCircle
 10
5191.449596239165
 20
-326.7213771094985
 30
0.0000000001127424
 40
25.0
100
AcDbArc
 50
25.09659438639138
 51
347.0501528593937
  0
LINE
  5
AF67
330
18
100
AcDbEntity
  8
01
100
AcDbLine
 10
5041.449596239165
 20
-301.7213771094985
 30
0.0000000001127424
 11
5041.449596239165
 21
-351.7213771094985
 31
0.0000000001127424
  0
LINE
  5
AF68
330
18
100
AcDbEntity
  8
01
100
AcDbLine
 10
5049.949596239165
 20
-350.7213771094985
 30
0.0000000001127424
 11
5049.949596239165
 21
-302.7213771094985
 31
0.0000000001127424
  0
LINE
  5
AF69
330
18
100
AcDbEntity
  8
01
100
AcDbLine
 10
5041.449596239165
 20
-351.7213771094985
 30
0.0000000001127424
 11
5048.949596239165
 21
-351.7213771094985
 31
0.0000000001127424
  0
ARC
  5
AF6A
330
18
100
AcDbEntity
  8
01
100
AcDbCircle
 10
5048.949596239165
 20
-350.7213771094985
 30
0.0000000001127424
 40
1.0
100
AcDbArc
 50
270.0
 51
0.0
  0
LINE
  5
AF6B
330
18
100
AcDbEntity
  8
01
100
AcDbLine
 10
5041.449596239165
 20
-301.7213771094985
 30
0.0000000001127424
 11
5048.949596239165
 21
-301.7213771094985
 31
0.0000000001127424
  0
ARC
  5
AF6C
330
18
100
AcDbEntity
  8
01
100
AcDbCircle
 10
5048.949596239165
 20
-302.7213771094985
 30
0.0000000001127424
 40
1.0
100
AcDbArc
 50
0.0
 51
90.0
  0
LINE
  5
AF6D
330
18
100
AcDbEntity
  8
01
100
AcDbLine
 10
5039.321310856734
 20
-326.7213771094985
 30
0.0000000001127424
 11
5061.949596239165
 21
-326.7213771094985
 31
0.0000000001127424
  0
LINE
  5
AF6E
330
18
100
AcDbEntity
  8
01
100
AcDbLine
 10
5166.449596239165
 20
-166.7226954226012
 30
0.0000000001127424
 11
5216.449596239165
 21
-166.7226954226012
 31
0.0000000001127424
  0
LINE
  5
AF6F
330
18
100
AcDbEntity
  8
01
  6
BYBLOCK
100
AcDbLine
 10
5140.450364081482
 20
-166.7226954226012
 30
0.0000000001127424
 11
5294.204744236513
 21
-166.7226954226012
 31
0.0000000001127424
  0
LINE
  5
AF70
330
18
100
AcDbEntity
  8
01
100
AcDbLine
 10
5191.449596239165
 20
-161.7226954226012
 30
0.0000000001127424
 11
5191.449596239165
 21
-188.2226954226012
 31
0.0000000001127424
  0
LINE
  5
AF76
330
18
100
AcDbEntity
  8
01
100
AcDbLine
 10
5041.449596239165
 20
-206.7213771094985
 30
0.0000000001127424
 11
5041.449596239165
 21
-396.7213771094985
 31
0.0000000001127424
  0
LINE
  5
AF77
330
18
100
AcDbEntity
  8
1CENTER
100
AcDbLine
 10
5055.949596239165
 20
-341.7213771094985
 30
0.0000000001127424
 11
5055.949596239165
 21
-333.7213771094985
 31
0.0000000001127424
  0
LINE
  5
AF78
330
18
100
AcDbEntity
  8
01
100
AcDbLine
 10
5161.449596239165
 20
-326.7213771094985
 30
0.0000000001127424
 11
5221.449596239165
 21
-326.7213771094985
 31
0.0000000001127424
  0
LINE
  5
AF79
330
18
100
AcDbEntity
  8
01
100
AcDbLine
 10
5191.449596239165
 20
-296.7213771094985
 30
0.0000000001127424
 11
5191.449596239165
 21
-356.7213771094985
 31
0.0000000001127424
  0
TEXT
  5
AF7A
330
18
100
AcDbEntity
  8
1TEXT
100
AcDbText
 10
5041.449596239165
 20
-166.7226954226012
 30
0.0000000001127424
 40
10.0
  1
HWC
 41
1.0171875
100
AcDbText
  0
LINE
  5
AF7B
330
18
100
AcDbEntity
  8
01
100
AcDbLine
 10
5202.449598843915
 20
-175.7226957296548
 30
0.0000000001127424
 11
5201.964002337815
 21
-199.2226957214211
 31
0.0000000001127424
  0
LINE
  5
AF7C
330
18
100
AcDbEntity
  8
01
100
AcDbLine
 10
5202.449598843915
 20
-175.7226957296548
 30
0.0000000001127424
 11
5201.742063851737
 21
-175.722695559994
 31
0.0000000001127424
  0
LINE
  5
AF7D
330
18
100
AcDbEntity
  8
01
100
AcDbLine
 10
5201.742063851737
 20
-175.722695559994
 30
0.0000000001127424
 11
5185.081561440659
 21
-175.7226953375948
 31
0.0000000001127424
  0
LINE
  5
AF7E
330
18
100
AcDbEntity
  8
01
100
AcDbLine
 10
5321.605542172822
 20
-216.5928593306526
 30
0.0000000001127424
 11
5320.556983790489
 21
-209.3857606513016
 31
0.0000000001127424
  0
LINE
  5
AF7F
330
18
100
AcDbEntity
  8
01
100
AcDbLine
 10
5322.29457370847
 20
-221.3288077154652
 30
0.0000000001127424
 11
5321.605542172822
 21
-216.5928593306526
 31
0.0000000001127424
  0
LINE
  5
AF81
330
18
100
AcDbEntity
  8
01
100
AcDbLine
 10
5185.081561440661
 20
-175.7226953375948
 30
0.0000000001127424
 11
5176.998256279627
 21
-175.7226958902825
 31
0.0000000001127424
  0
LINE
  5
AF82
330
18
100
AcDbEntity
  8
01
100
AcDbLine
 10
5176.998256279627
 20
-175.7226958902825
 30
0.0000000001127424
 11
5176.989841634667
 21
-175.7226958942838
 31
0.0000000001127424
  0
LINE
  5
AF83
330
18
100
AcDbEntity
  8
01
100
AcDbLine
 10
5322.294573708471
 20
-221.3288077154693
 30
0.0000000001127424
 11
5322.295600808852
 21
-221.3359875440656
 31
0.0000000001127424
  0
ARC
  5
AF84
330
18
100
AcDbEntity
  8
01
100
AcDbCircle
 10
5320.806965115956
 20
-221.5500286457559
 30
0.0000000001127424
 40
1.503944752767843
100
AcDbArc
 50
280.782755547542
 51
8.182104823938438
  0
LINE
  5
AF85
330
18
100
AcDbEntity
  8
01
100
AcDbLine
 10
5321.088344665887
 20
-223.0274247423522
 30
0.0000000001127424
 11
5321.050588091031
 21
-223.034513484803
 31
0.0000000001127424
  0
LINE
  5
AF87
330
18
100
AcDbEntity
  8
01
100
AcDbLine
 10
5176.989795905147
 20
-175.7226971107543
 30
0.0000000001127424
 11
5177.999745724082
 21
-199.2213994843942
 31
0.0000000001127424
  0
ARC
  5
AF88
330
18
100
AcDbEntity
  8
01
100
AcDbCircle
 10
5319.070342644804
 20
-209.586268882822
 30
0.0000000001127424
 40
1.500020505392395
100
AcDbArc
 50
8.278429023717885
 51
97.00250722867297
  0
ARC
  5
AF8A
330
18
100
AcDbEntity
  8
01
100
AcDbCircle
 10
5191.449605283615
 20
-326.7214449426706
 30
0.0000000001127424
 40
10.99998463624293
100
AcDbArc
 50
252.2898241091091
 51
311.0850892413147
  0
ARC
  5
AF8C
330
18
100
AcDbEntity
  8
01
100
AcDbCircle
 10
5191.449596239164
 20
-326.7213771094998
 30
0.0000000001127424
 40
10.99995557997882
100
AcDbArc
 50
61.87905568485787
 51
125.374208487781
  0
ARC
  5
AF8D
330
18
100
AcDbEntity
  8
01
100
AcDbCircle
 10
5196.659813077874
 20
-334.0599358274953
 30
0.0000000001127424
 40
20.00000022223971
100
AcDbArc
 50
125.3740796030873
 51
169.4444355548997
  0
LINE
  5
AF8F
330
18
100
AcDbEntity
  8
1DIM
100
AcDbLine
 10
5321.088221635205
 20
-317.955658937065
 30
0.0000000001127424
 11
5321.050686626727
 21
-317.9556898954206
 31
0.0000000001127424
  0
ARC
  5
AF91
330
18
100
AcDbEntity
  8
01
100
AcDbCircle
 10
5177.489369052044
 20
-330.4877272402359
 30
0.0000000001127424
 40
0.4995746316248237
100
AcDbArc
 50
169.4380719746873
 51
214.9967267222964
  0
LINE
  5
AF92
330
18
100
AcDbEntity
  8
01
100
AcDbLine
 10
5181.344805088452
 20
-336.8648445865269
 30
0.0000000001127424
 11
5177.080125101821
 21
-330.7742480977117
 31
0.0000000001127424
  0
ARC
  5
AF93
330
18
100
AcDbEntity
  8
01
100
AcDbCircle
 10
5181.753975588824
 20
-336.5784178631743
 30
0.0000000001127424
 40
0.4994604751387548
100
AcDbArc
 50
214.9927131105689
 51
285.1469215185326
  0
ARC
  5
AF94
330
18
100
AcDbEntity
  8
01
100
AcDbCircle
 10
5184.757168643071
 20
-347.6787972829657
 30
0.0000000001127424
 40
11.00000002972425
100
AcDbArc
 50
72.28986909469593
 51
105.1385575810948
  0
LINE
  5
AF95
330
18
100
AcDbEntity
  8
1DIM
100
AcDbLine
 10
5181.765653861138
 20
-335.7270021459158
 30
0.0000000001127424
 11
5181.344805088452
 21
-336.8648445865269
 31
0.0000000001127424
  0
LINE
  5
AF96
330
18
100
AcDbEntity
  8
1DIM
100
AcDbLine
 10
5177.080125101821
 20
-330.7742480977117
 30
0.0000000001127424
 11
5178.084994370769
 21
-330.2597436894266
 31
0.0000000001127424
  0
LINE
  5
AF98
330
18
100
AcDbEntity
  8
1DIM
100
AcDbLine
 10
5321.10620919671
 20
-319.5968641604218
 30
0.0000000001127424
 11
5321.060110087306
 21
-319.5981788375866
 31
0.0000000001127424
  0
ARC
  5
AF9A
330
18
100
AcDbEntity
  8
01
100
AcDbCircle
 10
5321.424368905126
 20
-319.0594821688451
 30
0.0000000001127424
 40
0.8846145843931124
100
AcDbArc
 50
343.5772511836327
 51
359.8830813211777
  0
ARC
  5
AF9B
330
18
100
AcDbEntity
  8
01
100
AcDbCircle
 10
5321.453484311763
 20
-318.4617128584946
 30
0.0000000001127424
 40
0.8569468926332238
100
AcDbArc
 50
359.8503607650555
 51
15.69598209823613
  0
LINE
  5
AF9E
330
18
100
AcDbEntity
  8
01
100
AcDbLine
 10
5322.308972853553
 20
-319.0612668956524
 30
0.0000000001127424
 11
5322.310414261384
 21
-318.4640038333723
 31
0.0000000001127424
  0
ARC
  5
AFA0
330
18
100
AcDbEntity
  8
01
100
AcDbCircle
 10
5319.953281761975
 20
-317.4763823110529
 30
0.0000000001127424
 40
1.81279660479139
100
AcDbArc
 50
58.67150184560573
 51
87.61935966236912
  0
LINE
  5
AFA3
330
18
100
AcDbEntity
  8
01
100
AcDbLine
 10
5050.449595856433
 20
-337.2000538037901
 30
0.0000000001127424
 11
5050.449595710164
 21
-337.7213720202599
 31
0.0000000001127424
  0
ARC
  5
AFA6
330
18
100
AcDbEntity
  8
1DIM
100
AcDbCircle
 10
5090.429131408327
 20
-329.9105550127852
 30
0.0000000001127424
 40
14.24835812183592
100
AcDbArc
 50
104.0919019929658
 51
116.0413785838234
  0
LINE
  5
AFA7
330
18
100
AcDbEntity
  8
01
100
AcDbLine
 10
5050.449595988521
 20
-317.7520818401745
 30
0.0000000001127424
 11
5050.449596341853
 21
-330.3960989183834
 31
0.0000000001127424
  0
LINE
  5
AFAA
330
18
100
AcDbEntity
  8
01
100
AcDbLine
 10
5050.449596341853
 20
-330.3960989183834
 30
0.0000000001127424
 11
5050.449596338275
 21
-330.7741908798207
 31
0.0000000001127424
  0
LINE
  5
AFAB
330
18
100
AcDbEntity
  8
01
100
AcDbLine
 10
5050.44959615186
 20
-336.8647868093894
 30
0.0000000001127424
 11
5050.449596338275
 21
-330.7741908798207
 31
0.0000000001127424
  0
LINE
  5
AFAC
330
18
100
AcDbEntity
  8
01
100
AcDbLine
 10
5050.449596133966
 20
-337.0778102614922
 30
0.0000000001127424
 11
5050.44959615186
 21
-336.8647868093894
 31
0.0000000001127424
  0
LINE
  5
AFAD
330
18
100
AcDbEntity
  8
01
100
AcDbLine
 10
5050.449595874362
 20
-337.0778154106083
 30
0.0000000001127424
 11
5050.449595856433
 21
-337.2000538037946
 31
0.0000000001127424
  0
LINE
  5
AFAE
330
18
100
AcDbEntity
  8
1DIM
100
AcDbLine
 10
5073.948602839969
 20
-335.7269422592426
 30
0.0000000001127424
 11
5050.44959615186
 21
-336.8647868093894
 31
0.0000000001127424
  0
LINE
  5
AFAF
330
18
100
AcDbEntity
  8
1DIM
100
AcDbLine
 10
5050.449596338275
 20
-330.7741908798207
 30
0.0000000001127424
 11
5073.950629011986
 21
-330.2596842852372
 31
0.0000000001127424
  0
ARC
  5
AFB2
330
18
100
AcDbEntity
  8
01
100
AcDbCircle
 10
5093.379202946506
 20
-329.7081032740089
 30
0.0000000001127424
 40
15.18549594415499
100
AcDbArc
 50
35.60432826769017
 51
73.25410222328567
  0
ARC
  5
AFB5
330
18
100
AcDbEntity
  8
01
100
AcDbCircle
 10
5090.451597389458
 20
-329.9960650171743
 30
0.0000000001127424
 40
14.33676555732153
100
AcDbArc
 50
104.1086455958066
 51
115.9862599156787
  0
LINE
  5
AFB8
330
18
100
AcDbEntity
  8
01
100
AcDbLine
 10
5073.95251524143
 20
-316.8322785696428
 30
0.0000000001127424
 11
5050.449595710167
 21
-315.7213652368964
 31
0.0000000001127424
  0
LINE
  5
AFB9
330
18
100
AcDbEntity
  8
01
100
AcDbLine
 10
5073.946675741977
 20
-336.610319982723
 30
0.0000000001127424
 11
5059.048592730437
 21
-337.3147225429093
 31
0.0000000001127424
  0
LINE
  5
AFBA
330
18
100
AcDbEntity
  8
01
100
AcDbLine
 10
5050.449595710164
 20
-337.7213720202599
 30
0.0000000001127424
 11
5052.849673778624
 21
-337.6078664051156
 31
0.0000000001127424
  0
LINE
  5
B0FC
330
18
100
AcDbEntity
  8
01
100
AcDbLine
 10
5191.449596239165
 20
-301.7213771094985
 30
0.0000000001127424
 11
5155.149596239165
 21
-301.7213771094985
 31
0.0000000001127424
1001
ACAD
1000
DSTYLE
1002
{
1070
     3
1000
φ<>
1070
    40
1040
1.3
1070
    45
1040
0.5
1002
}
  0
LINE
  5
B0FD
330
18
100
AcDbEntity
  8
01
100
AcDbLine
 10
5191.449596239165
 20
-351.7213771094976
 30
0.0000000001127424
 11
5155.149596239165
 21
-351.7213771094976
 31
0.0000000001127424
1001
ACAD
1000
DSTYLE
1002
{
1070
     3
1000
φ<>
1070
    40
1040
1.3
1070
    45
1040
0.5
1002
}
  0
LINE
  5
B0FE
330
18
100
AcDbEntity
  8
01
100
AcDbLine
 10
5156.449596239165
 20
-304.3213771094985
 30
0.0000000001127424
 11
5156.449596239165
 21
-349.1213771094975
 31
0.0000000001127424
1001
ACAD
1000
DSTYLE
1002
{
1070
     3
1000
φ<>
1070
    40
1040
1.3
1070
    45
1040
0.5
1002
}
  0
LINE
  5
B102
330
18
100
AcDbEntity
  8
01
100
AcDbLine
 10
5201.964001233438
 20
-199.2226953720269
 30
0.0000000001127424
 11
5201.949184949258
 21
-199.9522485946832
 31
0.0000000001127424
  0
LINE
  5
B103
330
18
100
AcDbEntity
  8
01
100
AcDbLine
 10
5201.949184949258
 20
-199.9522485946832
 30
0.0000000001127424
 11
5201.941792065957
 21
-200.5623407577691
 31
0.0000000001127424
  0
LINE
  5
B104
330
18
100
AcDbEntity
  8
01
100
AcDbLine
 10
5201.941792065957
 20
-200.5623407577691
 30
0.0000000001127424
 11
5201.944767529824
 21
-201.077691099566
 31
0.0000000001127424
  0
LINE
  5
B105
330
18
100
AcDbEntity
  8
01
100
AcDbLine
 10
5201.944767529824
 20
-201.077691099566
 30
0.0000000001127424
 11
5201.958660657266
 21
-201.520577452105
 31
0.0000000001127424
  0
LINE
  5
B106
330
18
100
AcDbEntity
  8
01
100
AcDbLine
 10
5201.958660657266
 20
-201.520577452105
 30
0.0000000001127424
 11
5201.985188062051
 21
-201.933892271441
 31
0.0000000001127424
  0
LINE
  5
B107
330
18
100
AcDbEntity
  8
01
100
AcDbLine
 10
5177.99997764335
 20
-199.2268152450738
 30
0.0000000001127424
 11
5178.089970166543
 21
-201.3964624618707
 31
0.0000000001127424
  0
LINE
  5
B108
330
18
100
AcDbEntity
  8
01
100
AcDbLine
 10
5178.089970166543
 20
-201.3964624618707
 30
0.0000000001127424
 11
5178.254509503701
 21
-203.55988409273
 31
0.0000000001127424
  0
LINE
  5
B109
330
18
100
AcDbEntity
  8
01
100
AcDbLine
 10
5178.254509503701
 20
-203.55988409273
 30
0.0000000001127424
 11
5178.542824323037
 21
-205.7089166855035
 31
0.0000000001127424
  0
LINE
  5
B10A
330
18
100
AcDbEntity
  8
01
100
AcDbLine
 10
5178.542824323037
 20
-205.7089166855035
 30
0.0000000001127424
 11
5178.972683484414
 21
-207.8330469345269
 31
0.0000000001127424
  0
LINE
  5
B10B
330
18
100
AcDbEntity
  8
01
100
AcDbLine
 10
5178.972683484414
 20
-207.8330469345269
 30
0.0000000001127424
 11
5179.550114209512
 21
-209.9208765243707
 31
0.0000000001127424
  0
LINE
  5
B10C
330
18
100
AcDbEntity
  8
01
100
AcDbLine
 10
5179.550114209512
 20
-209.9208765243707
 30
0.0000000001127424
 11
5180.275764996865
 21
-211.9610834335504
 31
0.0000000001127424
  0
LINE
  5
B10D
330
18
100
AcDbEntity
  8
01
100
AcDbLine
 10
5180.275764996865
 20
-211.9610834335504
 30
0.0000000001127424
 11
5181.14593177543
 21
-213.9431390976129
 31
0.0000000001127424
  0
LINE
  5
B10E
330
18
100
AcDbEntity
  8
01
100
AcDbLine
 10
5181.14593177543
 20
-213.9431390976129
 30
0.0000000001127424
 11
5182.154892499307
 21
-215.857476255816
 31
0.0000000001127424
  0
LINE
  5
B10F
330
18
100
AcDbEntity
  8
01
100
AcDbLine
 10
5182.154892499307
 20
-215.857476255816
 30
0.0000000001127424
 11
5183.296101147988
 21
-217.6953211044488
 31
0.0000000001127424
  0
LINE
  5
B110
330
18
100
AcDbEntity
  8
01
100
AcDbLine
 10
5183.296101147988
 20
-217.6953211044488
 30
0.0000000001127424
 11
5184.561977918008
 21
-219.44904424898
 31
0.0000000001127424
  0
LINE
  5
B111
330
18
100
AcDbEntity
  8
01
100
AcDbLine
 10
5184.561977918008
 20
-219.44904424898
 30
0.0000000001127424
 11
5185.944920117715
 21
-221.1112451767144
 31
0.0000000001127424
  0
LINE
  5
B112
330
18
100
AcDbEntity
  8
01
100
AcDbLine
 10
5185.944920117715
 20
-221.1112451767144
 30
0.0000000001127424
 11
5187.437458569863
 21
-222.6752252792535
 31
0.0000000001127424
  0
LINE
  5
B113
330
18
100
AcDbEntity
  8
01
100
AcDbLine
 10
5187.437458569863
 20
-222.6752252792535
 30
0.0000000001127424
 11
5189.032269055703
 21
-224.1343012069879
 31
0.0000000001127424
  0
LINE
  5
B114
330
18
100
AcDbEntity
  8
01
100
AcDbLine
 10
5189.032269055703
 20
-224.1343012069879
 30
0.0000000001127424
 11
5190.722294385293
 21
-225.4813013290582
 31
0.0000000001127424
  0
LINE
  5
B115
330
18
100
AcDbEntity
  8
01
100
AcDbLine
 10
5190.722294385293
 20
-225.4813013290582
 30
0.0000000001127424
 11
5192.500599439004
 21
-226.7088861679254
 31
0.0000000001127424
  0
LINE
  5
B116
330
18
100
AcDbEntity
  8
01
100
AcDbLine
 10
5192.500599439004
 20
-226.7088861679254
 30
0.0000000001127424
 11
5194.360065991738
 21
-227.8097162460504
 31
0.0000000001127424
  0
LINE
  5
B117
330
18
100
AcDbEntity
  8
01
100
AcDbLine
 10
5194.360065991738
 20
-227.8097162460504
 30
0.0000000001127424
 11
5196.292721326211
 21
-228.776436827105
 31
0.0000000001127424
  0
LINE
  5
B118
330
18
100
AcDbEntity
  8
01
100
AcDbLine
 10
5196.292721326211
 20
-228.776436827105
 30
0.0000000001127424
 11
5198.28989082084
 21
-229.6022577499566
 31
0.0000000001127424
  0
LINE
  5
B119
330
18
100
AcDbEntity
  8
01
100
AcDbLine
 10
5198.28989082084
 20
-229.6022577499566
 30
0.0000000001127424
 11
5200.341724927285
 21
-230.2817468856988
 31
0.0000000001127424
  0
LINE
  5
B11A
330
18
100
AcDbEntity
  8
01
100
AcDbLine
 10
5200.341724927285
 20
-230.2817468856988
 30
0.0000000001127424
 11
5202.437618787148
 21
-230.8116083358941
 31
0.0000000001127424
  0
LINE
  5
B11B
330
18
100
AcDbEntity
  8
01
100
AcDbLine
 10
5202.437618787148
 20
-230.8116083358941
 30
0.0000000001127424
 11
5204.565929944375
 21
-231.1928034042535
 31
0.0000000001127424
  0
LINE
  5
B11C
330
18
100
AcDbEntity
  8
01
100
AcDbLine
 10
5204.565929944375
 20
-231.1928034042535
 30
0.0000000001127424
 11
5206.714787061074
 21
-231.4326257919488
 31
0.0000000001127424
  0
LINE
  5
B11D
330
18
100
AcDbEntity
  8
01
100
AcDbLine
 10
5206.714787061074
 20
-231.4326257919488
 30
0.0000000001127424
 11
5208.872639233926
 21
-231.5544519638238
 31
0.0000000001127424
  0
LINE
  5
B11E
330
18
100
AcDbEntity
  8
01
100
AcDbLine
 10
5208.872639233926
 20
-231.5544519638238
 30
0.0000000001127424
 11
5211.030987317422
 21
-231.6240320419488
 31
0.0000000001127424
  0
LINE
  5
B11F
330
18
100
AcDbEntity
  8
01
100
AcDbLine
 10
5211.030987317422
 20
-231.6240320419488
 30
0.0000000001127424
 11
5213.189983899453
 21
-231.6842737411675
 31
0.0000000001127424
  0
LINE
  5
B120
330
18
100
AcDbEntity
  8
01
100
AcDbLine
 10
5213.189983899453
 20
-231.6842737411675
 30
0.0000000001127424
 11
5215.349621350625
 21
-231.735421202105
 31
0.0000000001127424
  0
LINE
  5
B121
330
18
100
AcDbEntity
  8
01
100
AcDbLine
 10
5215.349621350625
 20
-231.735421202105
 30
0.0000000001127424
 11
5217.509861523965
 21
-231.7774286483941
 31
0.0000000001127424
  0
LINE
  5
B122
330
18
100
AcDbEntity
  8
01
100
AcDbLine
 10
5217.509861523965
 20
-231.7774286483941
 30
0.0000000001127424
 11
5219.670658643106
 21
-231.810357115191
 31
0.0000000001127424
  0
LINE
  5
B123
330
18
100
AcDbEntity
  8
01
100
AcDbLine
 10
5219.670658643106
 20
-231.810357115191
 30
0.0000000001127424
 11
5221.831982190469
 21
-231.8341760849175
 31
0.0000000001127424
  0
LINE
  5
B124
330
18
100
AcDbEntity
  8
01
100
AcDbLine
 10
5221.831982190469
 20
-231.8341760849175
 30
0.0000000001127424
 11
5223.993778760293
 21
-231.8488702987847
 31
0.0000000001127424
  0
LINE
  5
B125
330
18
100
AcDbEntity
  8
01
100
AcDbLine
 10
5223.993778760293
 20
-231.8488702987847
 30
0.0000000001127424
 11
5226.156002576211
 21
-231.8544550155816
 31
0.0000000001127424
  0
LINE
  5
B126
330
18
100
AcDbEntity
  8
01
100
AcDbLine
 10
5226.156002576211
 20
-231.8544550155816
 30
0.0000000001127424
 11
5228.318607861856
 21
-231.85089971773
 31
0.0000000001127424
  0
LINE
  5
B127
330
18
100
AcDbEntity
  8
01
100
AcDbLine
 10
5228.318607861856
 20
-231.85089971773
 30
0.0000000001127424
 11
5230.481556470254
 21
-231.8382196640191
 31
0.0000000001127424
  0
LINE
  5
B128
330
18
100
AcDbEntity
  8
01
100
AcDbLine
 10
5230.481556470254
 20
-231.8382196640191
 30
0.0000000001127424
 11
5232.644802625039
 21
-231.8163995956597
 31
0.0000000001127424
  0
LINE
  5
B129
330
18
100
AcDbEntity
  8
01
100
AcDbLine
 10
5232.644802625039
 20
-231.8163995956597
 30
0.0000000001127424
 11
5234.808300549844
 21
-231.7854395126519
 31
0.0000000001127424
  0
LINE
  5
B12A
330
18
100
AcDbEntity
  8
01
100
AcDbLine
 10
5234.808300549844
 20
-231.7854395126519
 30
0.0000000001127424
 11
5236.972004468301
 21
-231.7453241562066
 31
0.0000000001127424
  0
LINE
  5
B12B
330
18
100
AcDbEntity
  8
01
100
AcDbLine
 10
5236.972004468301
 20
-231.7453241562066
 30
0.0000000001127424
 11
5239.135868604043
 21
-231.6960535263238
 31
0.0000000001127424
  0
LINE
  5
B12C
330
18
100
AcDbEntity
  8
01
100
AcDbLine
 10
5239.135868604043
 20
-231.6960535263238
 30
0.0000000001127424
 11
5241.299854810098
 21
-231.6376276230035
 31
0.0000000001127424
  0
LINE
  5
B12D
330
18
100
AcDbEntity
  8
01
100
AcDbLine
 10
5241.299854810098
 20
-231.6376276230035
 30
0.0000000001127424
 11
5243.463909680703
 21
-231.5700464462457
 31
0.0000000001127424
  0
LINE
  5
B12E
330
18
100
AcDbEntity
  8
01
100
AcDbLine
 10
5243.463909680703
 20
-231.5700464462457
 30
0.0000000001127424
 11
5245.627987439492
 21
-231.4932947372613
 31
0.0000000001127424
  0
LINE
  5
B12F
330
18
100
AcDbEntity
  8
01
100
AcDbLine
 10
5245.627987439492
 20
-231.4932947372613
 30
0.0000000001127424
 11
5247.792042310098
 21
-231.4073724960504
 31
0.0000000001127424
  0
LINE
  5
B130
330
18
100
AcDbEntity
  8
01
100
AcDbLine
 10
5247.792042310098
 20
-231.4073724960504
 30
0.0000000001127424
 11
5249.956043774941
 21
-231.3122797226129
 31
0.0000000001127424
  0
LINE
  5
B131
330
18
100
AcDbEntity
  8
01
100
AcDbLine
 10
5249.956043774941
 20
-231.3122797226129
 30
0.0000000001127424
 11
5252.119923169473
 21
-231.2080164169488
 31
0.0000000001127424
  0
LINE
  5
B132
330
18
100
AcDbEntity
  8
01
100
AcDbLine
 10
5252.119923169473
 20
-231.2080164169488
 30
0.0000000001127424
 11
5254.283665234902
 21
-231.0945673202691
 31
0.0000000001127424
  0
LINE
  5
B133
330
18
100
AcDbEntity
  8
01
100
AcDbLine
 10
5254.283665234902
 20
-231.0945673202691
 30
0.0000000001127424
 11
5256.447193677285
 21
-230.9719476913629
 31
0.0000000001127424
  0
LINE
  5
B134
330
18
100
AcDbEntity
  8
01
100
AcDbLine
 10
5256.447193677285
 20
-230.9719476913629
 30
0.0000000001127424
 11
5258.610462720254
 21
-230.840142271441
 31
0.0000000001127424
  0
LINE
  5
B135
330
18
100
AcDbEntity
  8
01
100
AcDbLine
 10
5258.610462720254
 20
-230.840142271441
 30
0.0000000001127424
 11
5260.77345710502
 21
-230.6991663192925
 31
0.0000000001127424
  0
LINE
  5
B136
330
18
100
AcDbEntity
  8
01
100
AcDbLine
 10
5260.77345710502
 20
-230.6991663192925
 30
0.0000000001127424
 11
5262.936100537637
 21
-230.5490045761285
 31
0.0000000001127424
  0
LINE
  5
B137
330
18
100
AcDbEntity
  8
01
100
AcDbLine
 10
5262.936100537637
 20
-230.5490045761285
 30
0.0000000001127424
 11
5265.098362500527
 21
-230.3896570419488
 31
0.0000000001127424
  0
LINE
  5
B138
330
18
100
AcDbEntity
  8
01
100
AcDbLine
 10
5265.098362500527
 20
-230.3896570419488
 30
0.0000000001127424
 11
5267.260197217324
 21
-230.2211237167535
 31
0.0000000001127424
  0
LINE
  5
B139
330
18
100
AcDbEntity
  8
01
100
AcDbLine
 10
5267.260197217324
 20
-230.2211237167535
 30
0.0000000001127424
 11
5269.42155891166
 21
-230.0434198593316
 31
0.0000000001127424
  0
LINE
  5
B13A
330
18
100
AcDbEntity
  8
01
100
AcDbLine
 10
5269.42155891166
 20
-230.0434198593316
 30
0.0000000001127424
 11
5271.582386548379
 21
-229.8565302108941
 31
0.0000000001127424
  0
LINE
  5
B13B
330
18
100
AcDbEntity
  8
01
100
AcDbLine
 10
5271.582386548379
 20
-229.8565302108941
 30
0.0000000001127424
 11
5273.742664868691
 21
-229.660454771441
 31
0.0000000001127424
  0
LINE
  5
B13C
330
18
100
AcDbEntity
  8
01
100
AcDbLine
 10
5273.742664868691
 20
-229.660454771441
 30
0.0000000001127424
 11
5275.902317578652
 21
-229.4552240585504
 31
0.0000000001127424
  0
LINE
  5
B13D
330
18
100
AcDbEntity
  8
01
100
AcDbLine
 10
5275.902317578652
 20
-229.4552240585504
 30
0.0000000001127424
 11
5278.061298901895
 21
-229.2408075546441
 31
0.0000000001127424
  0
LINE
  5
B13E
330
18
100
AcDbEntity
  8
01
100
AcDbLine
 10
5278.061298901895
 20
-229.2408075546441
 30
0.0000000001127424
 11
5280.219593579629
 21
-229.0172205185113
 31
0.0000000001127424
  0
LINE
  5
B13F
330
18
100
AcDbEntity
  8
01
100
AcDbLine
 10
5280.219593579629
 20
-229.0172205185113
 30
0.0000000001127424
 11
5282.37712531791
 21
-228.784478208941
 31
0.0000000001127424
  0
LINE
  5
B140
330
18
100
AcDbEntity
  8
01
100
AcDbLine
 10
5282.37712531791
 20
-228.784478208941
 30
0.0000000001127424
 11
5284.53386359916
 21
-228.5425653671441
 31
0.0000000001127424
  0
LINE
  5
B141
330
18
100
AcDbEntity
  8
01
100
AcDbLine
 10
5284.53386359916
 20
-228.5425653671441
 30
0.0000000001127424
 11
5286.689762647012
 21
-228.2914972519097
 31
0.0000000001127424
  0
LINE
  5
B142
330
18
100
AcDbEntity
  8
01
100
AcDbLine
 10
5286.689762647012
 20
-228.2914972519097
 30
0.0000000001127424
 11
5288.844761426309
 21
-228.0312738632379
 31
0.0000000001127424
  0
LINE
  5
B143
330
18
100
AcDbEntity
  8
01
100
AcDbLine
 10
5288.844761426309
 20
-228.0312738632379
 30
0.0000000001127424
 11
5290.998829419473
 21
-227.7619104599175
 31
0.0000000001127424
  0
LINE
  5
B144
330
18
100
AcDbEntity
  8
01
100
AcDbLine
 10
5290.998829419473
 20
-227.7619104599175
 30
0.0000000001127424
 11
5293.151920850137
 21
-227.4834223007379
 31
0.0000000001127424
  0
LINE
  5
B145
330
18
100
AcDbEntity
  8
01
100
AcDbLine
 10
5293.151920850137
 20
-227.4834223007379
 30
0.0000000001127424
 11
5295.303974683145
 21
-227.1957941269097
 31
0.0000000001127424
  0
LINE
  5
B146
330
18
100
AcDbEntity
  8
01
100
AcDbLine
 10
5295.303974683145
 20
-227.1957941269097
 30
0.0000000001127424
 11
5297.454960400918
 21
-226.8990411972222
 31
0.0000000001127424
  0
LINE
  5
B147
330
18
100
AcDbEntity
  8
01
100
AcDbLine
 10
5297.454960400918
 20
-226.8990411972222
 30
0.0000000001127424
 11
5299.604847485879
 21
-226.5931940292535
 31
0.0000000001127424
  0
LINE
  5
B148
330
18
100
AcDbEntity
  8
01
100
AcDbLine
 10
5299.604847485879
 20
-226.5931940292535
 30
0.0000000001127424
 11
5301.753559644082
 21
-226.2782678817925
 31
0.0000000001127424
  0
LINE
  5
B149
330
18
100
AcDbEntity
  8
01
100
AcDbLine
 10
5301.753559644082
 20
-226.2782678817925
 30
0.0000000001127424
 11
5303.901066357949
 21
-225.9542627548394
 31
0.0000000001127424
  0
LINE
  5
B14A
330
18
100
AcDbEntity
  8
01
100
AcDbLine
 10
5303.901066357949
 20
-225.9542627548394
 30
0.0000000001127424
 11
5306.047337109902
 21
-225.6212091659722
 31
0.0000000001127424
  0
LINE
  5
B14B
330
18
100
AcDbEntity
  8
01
100
AcDbLine
 10
5306.047337109902
 20
-225.6212091659722
 30
0.0000000001127424
 11
5308.192310864785
 21
-225.279107115191
 31
0.0000000001127424
  0
LINE
  5
B14C
330
18
100
AcDbEntity
  8
01
100
AcDbLine
 10
5308.192310864785
 20
-225.279107115191
 30
0.0000000001127424
 11
5310.335972363809
 21
-224.9279871200738
 31
0.0000000001127424
  0
LINE
  5
B14D
330
18
100
AcDbEntity
  8
01
100
AcDbLine
 10
5310.335972363809
 20
-224.9279871200738
 30
0.0000000001127424
 11
5312.478245313027
 21
-224.5678644394097
 31
0.0000000001127424
  0
LINE
  5
B14E
330
18
100
AcDbEntity
  8
01
100
AcDbLine
 10
5312.478245313027
 20
-224.5678644394097
 30
0.0000000001127424
 11
5314.619099194863
 21
-224.1987543319879
 31
0.0000000001127424
  0
LINE
  5
B14F
330
18
100
AcDbEntity
  8
01
100
AcDbLine
 10
5314.619099194863
 20
-224.1987543319879
 30
0.0000000001127424
 11
5316.758488232949
 21
-223.8207025741754
 31
0.0000000001127424
  0
LINE
  5
B150
330
18
100
AcDbEntity
  8
01
100
AcDbLine
 10
5316.758488232949
 20
-223.8207025741754
 30
0.0000000001127424
 11
5318.896351392129
 21
-223.4337244247613
 31
0.0000000001127424
  0
LINE
  5
B151
330
18
100
AcDbEntity
  8
01
100
AcDbLine
 10
5318.896351392129
 20
-223.4337244247613
 30
0.0000000001127424
 11
5321.050587231973
 21
-223.0345087265191
 31
0.0000000001127424
  0
LINE
  5
B152
330
18
100
AcDbEntity
  8
01
100
AcDbLine
 10
5318.887470776895
 20
-208.0974359726129
 30
0.0000000001127424
 11
5317.762302930215
 21
-208.2343225692925
 31
0.0000000001127424
  0
LINE
  5
B153
330
18
100
AcDbEntity
  8
01
100
AcDbLine
 10
5317.762302930215
 20
-208.2343225692925
 30
0.0000000001127424
 11
5316.636814648965
 21
-208.3685999130425
 31
0.0000000001127424
  0
LINE
  5
B154
330
18
100
AcDbEntity
  8
01
100
AcDbLine
 10
5316.636814648965
 20
-208.3685999130425
 30
0.0000000001127424
 11
5315.511005933145
 21
-208.5002680038629
 31
0.0000000001127424
  0
LINE
  5
B155
330
18
100
AcDbEntity
  8
01
100
AcDbLine
 10
5315.511005933145
 20
-208.5002680038629
 30
0.0000000001127424
 11
5314.384907300332
 21
-208.6293268417535
 31
0.0000000001127424
  0
LINE
  5
B156
330
18
100
AcDbEntity
  8
01
100
AcDbLine
 10
5314.384907300332
 20
-208.6293268417535
 30
0.0000000001127424
 11
5313.258518750527
 21
-208.7557764267144
 31
0.0000000001127424
  0
LINE
  5
B157
330
18
100
AcDbEntity
  8
01
100
AcDbLine
 10
5313.258518750527
 20
-208.7557764267144
 30
0.0000000001127424
 11
5312.131825024941
 21
-208.8796167587457
 31
0.0000000001127424
  0
LINE
  5
B158
330
18
100
AcDbEntity
  8
01
100
AcDbLine
 10
5312.131825024941
 20
-208.8796167587457
 30
0.0000000001127424
 11
5311.004871899941
 21
-209.0008325790582
 31
0.0000000001127424
  0
LINE
  5
B159
330
18
100
AcDbEntity
  8
01
100
AcDbLine
 10
5311.004871899941
 20
-209.0008325790582
 30
0.0000000001127424
 11
5309.877644116738
 21
-209.11945440523
 31
0.0000000001127424
  0
LINE
  5
B15A
330
18
100
AcDbEntity
  8
01
100
AcDbLine
 10
5309.877644116738
 20
-209.11945440523
 30
0.0000000001127424
 11
5308.750156934121
 21
-209.2354669784722
 31
0.0000000001127424
  0
LINE
  5
B15B
330
18
100
AcDbEntity
  8
01
100
AcDbLine
 10
5308.750156934121
 20
-209.2354669784722
 30
0.0000000001127424
 11
5307.62241035209
 21
-209.3488550399957
 31
0.0000000001127424
  0
LINE
  5
B15C
330
18
100
AcDbEntity
  8
01
100
AcDbLine
 10
5307.62241035209
 20
-209.3488550399957
 30
0.0000000001127424
 11
5306.494419629434
 21
-209.4596185898004
 31
0.0000000001127424
  0
LINE
  5
B15D
330
18
100
AcDbEntity
  8
01
100
AcDbLine
 10
5306.494419629434
 20
-209.4596185898004
 30
0.0000000001127424
 11
5305.366200024941
 21
-209.5677881454644
 31
0.0000000001127424
  0
LINE
  5
B15E
330
18
100
AcDbEntity
  8
01
100
AcDbLine
 10
5305.366200024941
 20
-209.5677881454644
 30
0.0000000001127424
 11
5304.237751538613
 21
-209.6733331894097
 31
0.0000000001127424
  0
LINE
  5
B15F
330
18
100
AcDbEntity
  8
01
100
AcDbLine
 10
5304.237751538613
 20
-209.6733331894097
 30
0.0000000001127424
 11
5303.109089429238
 21
-209.7762537216363
 31
0.0000000001127424
  0
LINE
  5
B160
330
18
100
AcDbEntity
  8
01
100
AcDbLine
 10
5303.109089429238
 20
-209.7762537216363
 30
0.0000000001127424
 11
5301.980213696816
 21
-209.8765650009332
 31
0.0000000001127424
  0
LINE
  5
B161
330
18
100
AcDbEntity
  8
01
100
AcDbLine
 10
5301.980213696816
 20
-209.8765650009332
 30
0.0000000001127424
 11
5300.851124341348
 21
-209.9742517685113
 31
0.0000000001127424
  0
LINE
  5
B162
330
18
100
AcDbEntity
  8
01
100
AcDbLine
 10
5300.851124341348
 20
-209.9742517685113
 30
0.0000000001127424
 11
5299.72185188041
 21
-210.0693292831597
 31
0.0000000001127424
  0
LINE
  5
B163
330
18
100
AcDbEntity
  8
01
100
AcDbLine
 10
5299.72185188041
 20
-210.0693292831597
 30
0.0000000001127424
 11
5298.592381055215
 21
-210.1617822860894
 31
0.0000000001127424
  0
LINE
  5
B164
330
18
100
AcDbEntity
  8
01
100
AcDbLine
 10
5298.592381055215
 20
-210.1617822860894
 30
0.0000000001127424
 11
5297.46274238334
 21
-210.2516107773004
 31
0.0000000001127424
  0
LINE
  5
B165
330
18
100
AcDbEntity
  8
01
100
AcDbLine
 10
5297.46274238334
 20
-210.2516107773004
 30
0.0000000001127424
 11
5296.332935864785
 21
-210.3388147567925
 31
0.0000000001127424
  0
LINE
  5
B166
330
18
100
AcDbEntity
  8
01
100
AcDbLine
 10
5296.332935864785
 20
-210.3388147567925
 30
0.0000000001127424
 11
5295.20297675834
 21
-210.423409483355
 31
0.0000000001127424
  0
LINE
  5
B167
330
18
100
AcDbEntity
  8
01
100
AcDbLine
 10
5295.20297675834
 20
-210.423409483355
 30
0.0000000001127424
 11
5294.072849805215
 21
-210.5053644394097
 31
0.0000000001127424
  0
LINE
  5
B168
330
18
100
AcDbEntity
  8
01
100
AcDbLine
 10
5294.072849805215
 20
-210.5053644394097
 30
0.0000000001127424
 11
5292.942585522988
 21
-210.5847101425347
 31
0.0000000001127424
  0
LINE
  5
B169
330
18
100
AcDbEntity
  8
01
100
AcDbLine
 10
5292.942585522988
 20
-210.5847101425347
 30
0.0000000001127424
 11
5291.81218391166
 21
-210.6614160751519
 31
0.0000000001127424
  0
LINE
  5
B16A
330
18
100
AcDbEntity
  8
01
100
AcDbLine
 10
5291.81218391166
 20
-210.6614160751519
 30
0.0000000001127424
 11
5290.681644971231
 21
-210.7355127548394
 31
0.0000000001127424
  0
LINE
  5
B16B
330
18
100
AcDbEntity
  8
01
100
AcDbLine
 10
5290.681644971231
 20
-210.7355127548394
 30
0.0000000001127424
 11
5289.550968701699
 21
-210.8069849228082
 31
0.0000000001127424
  0
LINE
  5
B16C
330
18
100
AcDbEntity
  8
01
100
AcDbLine
 10
5289.550968701699
 20
-210.8069849228082
 30
0.0000000001127424
 11
5288.420185620645
 21
-210.8758173202691
 31
0.0000000001127424
  0
LINE
  5
B16D
330
18
100
AcDbEntity
  8
01
100
AcDbLine
 10
5288.420185620645
 20
-210.8758173202691
 30
0.0000000001127424
 11
5287.289295728066
 21
-210.9420252060113
 31
0.0000000001127424
  0
LINE
  5
B16E
330
18
100
AcDbEntity
  8
01
100
AcDbLine
 10
5287.289295728066
 20
-210.9420252060113
 30
0.0000000001127424
 11
5286.158283765176
 21
-211.0056238388238
 31
0.0000000001127424
  0
LINE
  5
B16F
330
18
100
AcDbEntity
  8
01
100
AcDbLine
 10
5286.158283765176
 20
-211.0056238388238
 30
0.0000000001127424
 11
5285.027180249551
 21
-211.0665827011285
 31
0.0000000001127424
  0
LINE
  5
B170
330
18
100
AcDbEntity
  8
01
100
AcDbLine
 10
5285.027180249551
 20
-211.0665827011285
 30
0.0000000001127424
 11
5283.895985181191
 21
-211.1249170517144
 31
0.0000000001127424
  0
LINE
  5
B171
330
18
100
AcDbEntity
  8
01
100
AcDbLine
 10
5283.895985181191
 20
-211.1249170517144
 30
0.0000000001127424
 11
5282.764698560098
 21
-211.1806421493707
 31
0.0000000001127424
  0
LINE
  5
B172
330
18
100
AcDbEntity
  8
01
100
AcDbLine
 10
5282.764698560098
 20
-211.1806421493707
 30
0.0000000001127424
 11
5281.63332038627
 21
-211.2337274765191
 31
0.0000000001127424
  0
LINE
  5
B173
330
18
100
AcDbEntity
  8
01
100
AcDbLine
 10
5281.63332038627
 20
-211.2337274765191
 30
0.0000000001127424
 11
5280.501865918496
 21
-211.2841730331597
 31
0.0000000001127424
  0
LINE
  5
B174
330
18
100
AcDbEntity
  8
01
100
AcDbLine
 10
5280.501865918496
 20
-211.2841730331597
 30
0.0000000001127424
 11
5279.370350415566
 21
-211.3320093368707
 31
0.0000000001127424
  0
LINE
  5
B175
330
18
100
AcDbEntity
  8
01
100
AcDbLine
 10
5279.370350415566
 20
-211.3320093368707
 30
0.0000000001127424
 11
5278.238758618691
 21
-211.3772211288629
 31
0.0000000001127424
  0
LINE
  5
B176
330
18
100
AcDbEntity
  8
01
100
AcDbLine
 10
5278.238758618691
 20
-211.3772211288629
 30
0.0000000001127424
 11
5277.107121045449
 21
-211.4197931503472
 31
0.0000000001127424
  0
LINE
  5
B177
330
18
100
AcDbEntity
  8
01
100
AcDbLine
 10
5277.107121045449
 20
-211.4197931503472
 30
0.0000000001127424
 11
5275.97543769584
 21
-211.4597559189019
 31
0.0000000001127424
  0
LINE
  5
B178
330
18
100
AcDbEntity
  8
01
100
AcDbLine
 10
5275.97543769584
 20
-211.4597559189019
 30
0.0000000001127424
 11
5274.843708569863
 21
-211.4970789169488
 31
0.0000000001127424
  0
LINE
  5
B179
330
18
100
AcDbEntity
  8
01
100
AcDbLine
 10
5274.843708569863
 20
-211.4970789169488
 30
0.0000000001127424
 11
5273.711948926309
 21
-211.5317774032769
 31
0.0000000001127424
  0
LINE
  5
B17A
330
18
100
AcDbEntity
  8
01
100
AcDbLine
 10
5273.711948926309
 20
-211.5317774032769
 30
0.0000000001127424
 11
5272.580158765176
 21
-211.5638513778863
 31
0.0000000001127424
  0
LINE
  5
B17B
330
18
100
AcDbEntity
  8
01
100
AcDbLine
 10
5272.580158765176
 20
-211.5638513778863
 30
0.0000000001127424
 11
5271.448338086465
 21
-211.5932855819879
 31
0.0000000001127424
  0
LINE
  5
B17C
330
18
100
AcDbEntity
  8
01
100
AcDbLine
 10
5271.448338086465
 20
-211.5932855819879
 30
0.0000000001127424
 11
5270.316517407754
 21
-211.6201105331597
 31
0.0000000001127424
  0
LINE
  5
B17D
330
18
100
AcDbEntity
  8
01
100
AcDbLine
 10
5270.316517407754
 20
-211.6201105331597
 30
0.0000000001127424
 11
5269.184696729043
 21
-211.6442957138238
 31
0.0000000001127424
  0
LINE
  5
B17E
330
18
100
AcDbEntity
  8
01
100
AcDbLine
 10
5269.184696729043
 20
-211.6442957138238
 30
0.0000000001127424
 11
5268.052860791543
 21
-211.6658716415582
 31
0.0000000001127424
  0
LINE
  5
B17F
330
18
100
AcDbEntity
  8
01
100
AcDbLine
 10
5268.052860791543
 20
-211.6658716415582
 30
0.0000000001127424
 11
5266.921055371621
 21
-211.6848077987847
 31
0.0000000001127424
  0
LINE
  5
B180
330
18
100
AcDbEntity
  8
01
100
AcDbLine
 10
5266.921055371621
 20
-211.6848077987847
 30
0.0000000001127424
 11
5265.789249951699
 21
-211.7011194442925
 31
0.0000000001127424
  0
LINE
  5
B181
330
18
100
AcDbEntity
  8
01
100
AcDbLine
 10
5265.789249951699
 20
-211.7011194442925
 30
0.0000000001127424
 11
5264.657475049356
 21
-211.7148065780816
 31
0.0000000001127424
  0
LINE
  5
B182
330
18
100
AcDbEntity
  8
01
100
AcDbLine
 10
5264.657475049356
 20
-211.7148065780816
 30
0.0000000001127424
 11
5263.525715405801
 21
-211.7258539413629
 31
0.0000000001127424
  0
LINE
  5
B183
330
18
100
AcDbEntity
  8
01
100
AcDbLine
 10
5263.525715405801
 20
-211.7258539413629
 30
0.0000000001127424
 11
5262.394016797402
 21
-211.7342920517144
 31
0.0000000001127424
  0
LINE
  5
B184
330
18
100
AcDbEntity
  8
01
100
AcDbLine
 10
5262.394016797402
 20
-211.7342920517144
 30
0.0000000001127424
 11
5261.262333447793
 21
-211.7401056503472
 31
0.0000000001127424
  0
LINE
  5
B185
330
18
100
AcDbEntity
  8
01
100
AcDbLine
 10
5261.262333447793
 20
-211.7401056503472
 30
0.0000000001127424
 11
5260.130726392129
 21
-211.7432794784722
 31
0.0000000001127424
  0
LINE
  5
B186
330
18
100
AcDbEntity
  8
01
100
AcDbLine
 10
5260.130726392129
 20
-211.7432794784722
 30
0.0000000001127424
 11
5258.999165112832
 21
-211.7438440536675
 31
0.0000000001127424
  0
LINE
  5
B187
330
18
100
AcDbEntity
  8
01
100
AcDbLine
 10
5258.999165112832
 20
-211.7438440536675
 30
0.0000000001127424
 11
5257.867664868691
 21
-211.741768858355
 31
0.0000000001127424
  0
LINE
  5
B188
330
18
100
AcDbEntity
  8
01
100
AcDbLine
 10
5257.867664868691
 20
-211.741768858355
 30
0.0000000001127424
 11
5256.736240918496
 21
-211.7370691513238
 31
0.0000000001127424
  0
LINE
  5
B189
330
18
100
AcDbEntity
  8
01
100
AcDbLine
 10
5256.736240918496
 20
-211.7370691513238
 30
0.0000000001127424
 11
5255.604893262246
 21
-211.7297601913629
 31
0.0000000001127424
  0
LINE
  5
B18A
330
18
100
AcDbEntity
  8
01
100
AcDbLine
 10
5255.604893262246
 20
-211.7297601913629
 30
0.0000000001127424
 11
5254.473621899941
 21
-211.7198114608941
 31
0.0000000001127424
  0
LINE
  5
B18B
330
18
100
AcDbEntity
  8
01
100
AcDbLine
 10
5254.473621899941
 20
-211.7198114608941
 30
0.0000000001127424
 11
5253.34245734916
 21
-211.7072534774957
 31
0.0000000001127424
  0
LINE
  5
B18C
330
18
100
AcDbEntity
  8
01
100
AcDbLine
 10
5253.34245734916
 20
-211.7072534774957
 30
0.0000000001127424
 11
5252.211384351113
 21
-211.6920557235894
 31
0.0000000001127424
  0
LINE
  5
B18D
330
18
100
AcDbEntity
  8
01
100
AcDbLine
 10
5252.211384351113
 20
-211.6920557235894
 30
0.0000000001127424
 11
5251.08041816459
 21
-211.6742487167535
 31
0.0000000001127424
  0
LINE
  5
B18E
330
18
100
AcDbEntity
  8
01
100
AcDbLine
 10
5251.08041816459
 20
-211.6742487167535
 30
0.0000000001127424
 11
5249.94955878959
 21
-211.6538171981988
 31
0.0000000001127424
  0
LINE
  5
B18F
330
18
100
AcDbEntity
  8
01
100
AcDbLine
 10
5249.94955878959
 20
-211.6538171981988
 30
0.0000000001127424
 11
5248.818821484902
 21
-211.6307611679254
 31
0.0000000001127424
  0
LINE
  5
B190
330
18
100
AcDbEntity
  8
01
100
AcDbLine
 10
5248.818821484902
 20
-211.6307611679254
 30
0.0000000001127424
 11
5247.688221509316
 21
-211.6050806259332
 31
0.0000000001127424
  0
LINE
  5
B191
330
18
100
AcDbEntity
  8
01
100
AcDbLine
 10
5247.688221509316
 20
-211.6050806259332
 30
0.0000000001127424
 11
5246.557743604043
 21
-211.5767755722222
 31
0.0000000001127424
  0
LINE
  5
B192
330
18
100
AcDbEntity
  8
01
100
AcDbLine
 10
5246.557743604043
 20
-211.5767755722222
 30
0.0000000001127424
 11
5245.427403027871
 21
-211.5458460067925
 31
0.0000000001127424
  0
LINE
  5
B193
330
18
100
AcDbEntity
  8
01
100
AcDbLine
 10
5245.427403027871
 20
-211.5458460067925
 30
0.0000000001127424
 11
5244.29721503959
 21
-211.5123071884332
 31
0.0000000001127424
  0
LINE
  5
B194
330
18
100
AcDbEntity
  8
01
100
AcDbLine
 10
5244.29721503959
 20
-211.5123071884332
 30
0.0000000001127424
 11
5243.167187268594
 21
-211.476143858355
 31
0.0000000001127424
  0
LINE
  5
B195
330
18
100
AcDbEntity
  8
01
100
AcDbLine
 10
5243.167187268594
 20
-211.476143858355
 30
0.0000000001127424
 11
5242.037312085488
 21
-211.4373560165582
 31
0.0000000001127424
  0
LINE
  5
B196
330
18
100
AcDbEntity
  8
01
100
AcDbLine
 10
5242.037312085488
 20
-211.4373560165582
 30
0.0000000001127424
 11
5240.907612378457
 21
-211.3959589218316
 31
0.0000000001127424
  0
LINE
  5
B197
330
18
100
AcDbEntity
  8
01
100
AcDbLine
 10
5240.907612378457
 20
-211.3959589218316
 30
0.0000000001127424
 11
5239.778080518106
 21
-211.3519373153863
 31
0.0000000001127424
  0
LINE
  5
B198
330
18
100
AcDbEntity
  8
01
100
AcDbLine
 10
5239.778080518106
 20
-211.3519373153863
 30
0.0000000001127424
 11
5238.648731763223
 21
-211.3053064560113
 31
0.0000000001127424
  0
LINE
  5
B199
330
18
100
AcDbEntity
  8
01
100
AcDbLine
 10
5238.648731763223
 20
-211.3053064560113
 30
0.0000000001127424
 11
5237.519573743203
 21
-211.2560510849175
 31
0.0000000001127424
  0
LINE
  5
B19A
330
18
100
AcDbEntity
  8
01
100
AcDbLine
 10
5237.519573743203
 20
-211.2560510849175
 30
0.0000000001127424
 11
5236.390606458047
 21
-211.204171202105
 31
0.0000000001127424
  0
LINE
  5
B19B
330
18
100
AcDbEntity
  8
01
100
AcDbLine
 10
5236.390606458047
 20
-211.204171202105
 30
0.0000000001127424
 11
5235.261845166543
 21
-211.1496820663629
 31
0.0000000001127424
  0
LINE
  5
B19C
330
18
100
AcDbEntity
  8
01
100
AcDbLine
 10
5235.261845166543
 20
-211.1496820663629
 30
0.0000000001127424
 11
5234.133297498086
 21
-211.092583677691
 31
0.0000000001127424
  0
LINE
  5
B19D
330
18
100
AcDbEntity
  8
01
100
AcDbLine
 10
5234.133297498086
 20
-211.092583677691
 30
0.0000000001127424
 11
5233.004955823281
 21
-211.0328607773004
 31
0.0000000001127424
  0
LINE
  5
B19E
330
18
100
AcDbEntity
  8
01
100
AcDbLine
 10
5233.004955823281
 20
-211.0328607773004
 30
0.0000000001127424
 11
5231.876843030313
 21
-210.97052862398
 31
0.0000000001127424
  0
LINE
  5
B19F
330
18
100
AcDbEntity
  8
01
100
AcDbLine
 10
5231.876843030313
 20
-210.97052862398
 30
0.0000000001127424
 11
5230.74895911918
 21
-210.90558721773
 31
0.0000000001127424
  0
LINE
  5
B1A0
330
18
100
AcDbEntity
  8
01
100
AcDbLine
 10
5230.74895911918
 20
-210.90558721773
 30
0.0000000001127424
 11
5229.621311719277
 21
-210.8380365585504
 31
0.0000000001127424
  0
LINE
  5
B1A1
330
18
100
AcDbEntity
  8
01
100
AcDbLine
 10
5229.621311719277
 20
-210.8380365585504
 30
0.0000000001127424
 11
5228.49390846
 21
-210.767876646441
 31
0.0000000001127424
  0
LINE
  5
B1A2
330
18
100
AcDbEntity
  8
01
100
AcDbLine
 10
5228.49390846
 20
-210.767876646441
 30
0.0000000001127424
 11
5227.366756970742
 21
-210.6950922226129
 31
0.0000000001127424
  0
LINE
  5
B1A3
330
18
100
AcDbEntity
  8
01
100
AcDbLine
 10
5227.366756970742
 20
-210.6950922226129
 30
0.0000000001127424
 11
5226.239857251504
 21
-210.6197138046441
 31
0.0000000001127424
  0
LINE
  5
B1A4
330
18
100
AcDbEntity
  8
01
100
AcDbLine
 10
5226.239857251504
 20
-210.6197138046441
 30
0.0000000001127424
 11
5225.113224561074
 21
-210.5417108749566
 31
0.0000000001127424
  0
LINE
  5
B1A5
330
18
100
AcDbEntity
  8
01
100
AcDbLine
 10
5225.113224561074
 20
-210.5417108749566
 30
0.0000000001127424
 11
5223.986858899453
 21
-210.4611139511285
 31
0.0000000001127424
  0
LINE
  5
B1A6
330
18
100
AcDbEntity
  8
01
100
AcDbLine
 10
5223.986858899453
 20
-210.4611139511285
 30
0.0000000001127424
 11
5222.86077552543
 21
-210.3779077743707
 31
0.0000000001127424
  0
LINE
  5
B1A7
330
18
100
AcDbEntity
  8
01
100
AcDbLine
 10
5222.86077552543
 20
-210.3779077743707
 30
0.0000000001127424
 11
5221.734974439004
 21
-210.2921076034722
 31
0.0000000001127424
  0
LINE
  5
B1A8
330
18
100
AcDbEntity
  8
01
100
AcDbLine
 10
5221.734974439004
 20
-210.2921076034722
 30
0.0000000001127424
 11
5220.60946326957
 21
-210.203682920855
 31
0.0000000001127424
  0
LINE
  5
B1A9
330
18
100
AcDbEntity
  8
01
100
AcDbLine
 10
5220.60946326957
 20
-210.203682920855
 30
0.0000000001127424
 11
5219.484242017129
 21
-210.1126795028863
 31
0.0000000001127424
  0
LINE
  5
B1AA
330
18
100
AcDbEntity
  8
01
100
AcDbLine
 10
5219.484242017129
 20
-210.1126795028863
 30
0.0000000001127424
 11
5218.359333569863
 21
-210.0190515731988
 31
0.0000000001127424
  0
LINE
  5
B1AB
330
18
100
AcDbEntity
  8
01
100
AcDbLine
 10
5218.359333569863
 20
-210.0190515731988
 30
0.0000000001127424
 11
5217.234737927773
 21
-209.9228296493707
 31
0.0000000001127424
  0
LINE
  5
B1AC
330
18
100
AcDbEntity
  8
01
100
AcDbLine
 10
5217.234737927773
 20
-209.9228296493707
 30
0.0000000001127424
 11
5216.110455090859
 21
-209.8240137314019
 31
0.0000000001127424
  0
LINE
  5
B1AD
330
18
100
AcDbEntity
  8
01
100
AcDbLine
 10
5216.110455090859
 20
-209.8240137314019
 30
0.0000000001127424
 11
5214.986492688516
 21
-209.7226038192925
 31
0.0000000001127424
  0
LINE
  5
B1AE
330
18
100
AcDbEntity
  8
01
100
AcDbLine
 10
5214.986492688516
 20
-209.7226038192925
 30
0.0000000001127424
 11
5213.862865979531
 21
-209.6185846542535
 31
0.0000000001127424
  0
LINE
  5
B1AF
330
18
100
AcDbEntity
  8
01
100
AcDbLine
 10
5213.862865979531
 20
-209.6185846542535
 30
0.0000000001127424
 11
5212.739582593301
 21
-209.5119714950738
 31
0.0000000001127424
  0
LINE
  5
B1B0
330
18
100
AcDbEntity
  8
01
100
AcDbLine
 10
5212.739582593301
 20
-209.5119714950738
 30
0.0000000001127424
 11
5211.616642529824
 21
-209.4027338241754
 31
0.0000000001127424
  0
LINE
  5
B1B1
330
18
100
AcDbEntity
  8
01
100
AcDbLine
 10
5211.616642529824
 20
-209.4027338241754
 30
0.0000000001127424
 11
5210.494144971231
 21
-209.2909174179254
 31
0.0000000001127424
  0
LINE
  5
B1B2
330
18
100
AcDbEntity
  8
01
100
AcDbLine
 10
5210.494144971231
 20
-209.2909174179254
 30
0.0000000001127424
 11
5209.375851209023
 21
-209.1627435898004
 31
0.0000000001127424
  0
LINE
  5
B1B3
330
18
100
AcDbEntity
  8
01
100
AcDbLine
 10
5209.375851209023
 20
-209.1627435898004
 30
0.0000000001127424
 11
5208.272305066445
 21
-208.972725889605
 31
0.0000000001127424
  0
LINE
  5
B1B4
330
18
100
AcDbEntity
  8
01
100
AcDbLine
 10
5208.272305066445
 20
-208.972725889605
 30
0.0000000001127424
 11
5207.203121716836
 21
-208.6639490341363
 31
0.0000000001127424
  0
LINE
  5
B1B5
330
18
100
AcDbEntity
  8
01
100
AcDbLine
 10
5207.203121716836
 20
-208.6639490341363
 30
0.0000000001127424
 11
5206.191540295938
 21
-208.2018671249566
 31
0.0000000001127424
  0
LINE
  5
B1B6
330
18
100
AcDbEntity
  8
01
100
AcDbLine
 10
5206.191540295938
 20
-208.2018671249566
 30
0.0000000001127424
 11
5205.254444653848
 21
-207.5949793075738
 31
0.0000000001127424
  0
LINE
  5
B1B7
330
18
100
AcDbEntity
  8
01
100
AcDbLine
 10
5205.254444653848
 20
-207.5949793075738
 30
0.0000000001127424
 11
5204.403301770547
 21
-206.8665552353082
 31
0.0000000001127424
  0
LINE
  5
B1B8
330
18
100
AcDbEntity
  8
01
100
AcDbLine
 10
5204.403301770547
 20
-206.8665552353082
 30
0.0000000001127424
 11
5203.648937756875
 21
-206.0343713974175
 31
0.0000000001127424
  0
LINE
  5
B1B9
330
18
100
AcDbEntity
  8
01
100
AcDbLine
 10
5203.648937756875
 20
-206.0343713974175
 30
0.0000000001127424
 11
5203.005451733926
 21
-205.110909483355
 31
0.0000000001127424
  0
LINE
  5
B1BA
330
18
100
AcDbEntity
  8
01
100
AcDbLine
 10
5203.005451733926
 20
-205.110909483355
 30
0.0000000001127424
 11
5202.495724255898
 21
-204.1051111435113
 31
0.0000000001127424
  0
LINE
  5
B1BB
330
18
100
AcDbEntity
  8
01
100
AcDbLine
 10
5202.495724255898
 20
-204.1051111435113
 30
0.0000000001127424
 11
5202.150875623086
 21
-203.0290308212457
 31
0.0000000001127424
  0
LINE
  5
B1BC
330
18
100
AcDbEntity
  8
01
100
AcDbLine
 10
5202.150875623086
 20
-203.0290308212457
 30
0.0000000001127424
 11
5201.982693250039
 21
-201.9034357284722
 31
0.0000000001127424
  0
LINE
  5
B1BD
330
18
100
AcDbEntity
  8
01
100
AcDbLine
 10
5191.449597923468
 20
-337.6079091780516
 30
0.0000000001127424
 11
5190.78053817005
 21
-337.5854406111571
 31
0.0000000001127424
  0
LINE
  5
B1BE
330
18
100
AcDbEntity
  8
01
100
AcDbLine
 10
5190.78053817005
 20
-337.5854406111571
 30
0.0000000001127424
 11
5190.145581810187
 21
-337.5195379011961
 31
0.0000000001127424
  0
LINE
  5
B1BF
330
18
100
AcDbEntity
  8
01
100
AcDbLine
 10
5190.145581810187
 20
-337.5195379011961
 30
0.0000000001127424
 11
5189.574636070441
 21
-337.4216565840575
 31
0.0000000001127424
  0
LINE
  5
B1C0
330
18
100
AcDbEntity
  8
01
100
AcDbLine
 10
5189.574636070441
 20
-337.4216565840575
 30
0.0000000001127424
 11
5189.092000572394
 21
-337.3074598067137
 31
0.0000000001127424
  0
LINE
  5
B1C1
330
18
100
AcDbEntity
  8
01
100
AcDbLine
 10
5189.092000572394
 20
-337.3074598067137
 30
0.0000000001127424
 11
5188.717450706671
 21
-337.1947965376708
 31
0.0000000001127424
  0
LINE
  5
B1C2
330
18
100
AcDbEntity
  8
01
100
AcDbLine
 10
5188.717450706671
 20
-337.1947965376708
 30
0.0000000001127424
 11
5188.467328636359
 21
-337.1004628889891
 31
0.0000000001127424
  0
LINE
  5
B1C3
330
18
100
AcDbEntity
  8
01
100
AcDbLine
 10
5188.467328636359
 20
-337.1004628889891
 30
0.0000000001127424
 11
5188.355428306769
 21
-337.0393209212157
 31
0.0000000001127424
  0
LINE
  5
B1C4
330
18
100
AcDbEntity
  8
01
100
AcDbLine
 10
5188.355428306769
 20
-337.0393209212157
 30
0.0000000001127424
 11
5188.38812789173
 21
-337.0183515303465
 31
0.0000000001127424
  0
LINE
  5
B1C5
330
18
100
AcDbEntity
  8
01
100
AcDbLine
 10
5188.38812789173
 20
-337.0183515303465
 30
0.0000000001127424
 11
5188.565679161261
 21
-337.0382871382567
 31
0.0000000001127424
  0
LINE
  5
B1C6
330
18
100
AcDbEntity
  8
01
100
AcDbLine
 10
5188.565679161261
 20
-337.0382871382567
 30
0.0000000001127424
 11
5188.877904503058
 21
-337.0894574873778
 31
0.0000000001127424
  0
LINE
  5
B1C7
330
18
100
AcDbEntity
  8
01
100
AcDbLine
 10
5188.877904503058
 20
-337.0894574873778
 30
0.0000000001127424
 11
5189.309957115363
 21
-337.1583966963622
 31
0.0000000001127424
  0
LINE
  5
B1C8
330
18
100
AcDbEntity
  8
01
100
AcDbLine
 10
5189.309957115363
 20
-337.1583966963622
 30
0.0000000001127424
 11
5189.841909019659
 21
-337.2281827681395
 31
0.0000000001127424
  0
LINE
  5
B1C9
330
18
100
AcDbEntity
  8
01
100
AcDbLine
 10
5189.841909019659
 20
-337.2281827681395
 30
0.0000000001127424
 11
5190.450147239874
 21
-337.2835912459227
 31
0.0000000001127424
  0
LINE
  5
B1CA
330
18
100
AcDbEntity
  8
01
100
AcDbLine
 10
5190.450147239874
 20
-337.2835912459227
 30
0.0000000001127424
 11
5191.106717674445
 21
-337.3124456160399
 31
0.0000000001127424
  0
LINE
  5
B1CB
330
18
100
AcDbEntity
  8
01
100
AcDbLine
 10
5191.106717674445
 20
-337.3124456160399
 30
0.0000000001127424
 11
5191.780225364874
 21
-337.3079251997801
 31
0.0000000001127424
  0
LINE
  5
B1CC
330
18
100
AcDbEntity
  8
01
100
AcDbLine
 10
5191.780225364874
 20
-337.3079251997801
 30
0.0000000001127424
 11
5192.43695601673
 21
-337.270426725659
 31
0.0000000001127424
  0
LINE
  5
B1CD
330
18
100
AcDbEntity
  8
01
100
AcDbLine
 10
5192.43695601673
 20
-337.270426725659
 30
0.0000000001127424
 11
5193.045796959113
 21
-337.2074765913817
 31
0.0000000001127424
  0
LINE
  5
B1CE
330
18
100
AcDbEntity
  8
01
100
AcDbLine
 10
5193.045796959113
 20
-337.2074765913817
 30
0.0000000001127424
 11
5193.579015342902
 21
-337.1319150679442
 31
0.0000000001127424
  0
LINE
  5
B1CF
330
18
100
AcDbEntity
  8
01
100
AcDbLine
 10
5193.579015342902
 20
-337.1319150679442
 30
0.0000000001127424
 11
5194.013120262335
 21
-337.0590810530516
 31
0.0000000001127424
  0
LINE
  5
B1D0
330
18
100
AcDbEntity
  8
01
100
AcDbLine
 10
5194.013120262335
 20
-337.0590810530516
 30
0.0000000001127424
 11
5194.328321067999
 21
-337.0059079878661
 31
0.0000000001127424
  0
LINE
  5
B1D1
330
18
100
AcDbEntity
  8
01
100
AcDbLine
 10
5194.328321067999
 20
-337.0059079878661
 30
0.0000000001127424
 11
5194.508771507452
 21
-336.9865636580321
 31
0.0000000001127424
  0
LINE
  5
B1D2
330
18
100
AcDbEntity
  8
01
100
AcDbLine
 10
5194.508771507452
 20
-336.9865636580321
 30
0.0000000001127424
 11
5194.544576255988
 21
-337.0099096052977
 31
0.0000000001127424
  0
LINE
  5
B1D3
330
18
100
AcDbEntity
  8
01
100
AcDbLine
 10
5194.544576255988
 20
-337.0099096052977
 30
0.0000000001127424
 11
5194.435926048468
 21
-337.0746450178954
 31
0.0000000001127424
  0
LINE
  5
B1D4
330
18
100
AcDbEntity
  8
01
100
AcDbLine
 10
5194.435926048468
 20
-337.0746450178954
 30
0.0000000001127424
 11
5194.189153282355
 21
-337.17324349812
 31
0.0000000001127424
  0
LINE
  5
B1D5
330
18
100
AcDbEntity
  8
01
100
AcDbLine
 10
5194.189153282355
 20
-337.17324349812
 30
0.0000000001127424
 11
5193.817838279913
 21
-337.2904996626708
 31
0.0000000001127424
  0
LINE
  5
B1D6
330
18
100
AcDbEntity
  8
01
100
AcDbLine
 10
5193.817838279913
 20
-337.2904996626708
 30
0.0000000001127424
 11
5193.338246910284
 21
-337.409155821118
 31
0.0000000001127424
  0
LINE
  5
B1D7
330
18
100
AcDbEntity
  8
01
100
AcDbLine
 10
5193.338246910284
 20
-337.409155821118
 30
0.0000000001127424
 11
5192.76979598255
 21
-337.5113248579833
 31
0.0000000001127424
  0
LINE
  5
B1D8
330
18
100
AcDbEntity
  8
01
100
AcDbLine
 10
5192.76979598255
 20
-337.5113248579833
 30
0.0000000001127424
 11
5192.136518089484
 21
-337.5813512556883
 31
0.0000000001127424
  0
LINE
  5
B1D9
330
18
100
AcDbEntity
  8
01
100
AcDbLine
 10
5192.136518089484
 20
-337.5813512556883
 30
0.0000000001127424
 11
5191.449597923468
 21
-337.6079091780516
 31
0.0000000001127424
  0
LINE
  5
B1DA
330
18
100
AcDbEntity
  8
01
100
AcDbLine
 10
5320.895841209601
 20
-315.9278936140868
 30
0.0000000001127424
 11
5321.247312156866
 21
-316.1967763655516
 31
0.0000000001127424
  0
LINE
  5
B1DB
330
18
100
AcDbEntity
  8
01
100
AcDbLine
 10
5321.247312156866
 20
-316.1967763655516
 30
0.0000000001127424
 11
5321.508710472296
 21
-316.4898748152586
 31
0.0000000001127424
  0
LINE
  5
B1DC
330
18
100
AcDbEntity
  8
01
100
AcDbLine
 10
5321.508710472296
 20
-316.4898748152586
 30
0.0000000001127424
 11
5321.70948561878
 21
-316.7916936629149
 31
0.0000000001127424
  0
LINE
  5
B1DD
330
18
100
AcDbEntity
  8
01
100
AcDbLine
 10
5321.70948561878
 20
-316.7916936629149
 30
0.0000000001127424
 11
5321.873502342413
 21
-317.1039037459227
 31
0.0000000001127424
  0
LINE
  5
B1DE
330
18
100
AcDbEntity
  8
01
100
AcDbLine
 10
5321.873502342413
 20
-317.1039037459227
 30
0.0000000001127424
 11
5322.014936058234
 21
-317.4327993147704
 31
0.0000000001127424
  0
LINE
  5
B1DF
330
18
100
AcDbEntity
  8
01
100
AcDbLine
 10
5322.014936058234
 20
-317.4327993147704
 30
0.0000000001127424
 11
5322.142057029913
 21
-317.7839803450438
 31
0.0000000001127424
  0
LINE
  5
B1E0
330
18
100
AcDbEntity
  8
01
100
AcDbLine
 10
5322.142057029913
 20
-317.7839803450438
 30
0.0000000001127424
 11
5322.276334373663
 21
-318.2224416487547
 31
0.0000000001127424
  0
LINE
  5
B1E1
330
18
100
AcDbEntity
  8
01
100
AcDbLine
 10
5321.735166160773
 20
-320.6464528792235
 30
0.0000000001127424
 11
5321.922956077765
 21
-320.2765950911376
 31
0.0000000001127424
  0
LINE
  5
B1E2
330
18
100
AcDbEntity
  8
01
100
AcDbLine
 10
5321.922956077765
 20
-320.2765950911376
 30
0.0000000001127424
 11
5322.084607689093
 21
-319.8806600325438
 31
0.0000000001127424
  0
LINE
  5
B1E3
330
18
100
AcDbEntity
  8
01
100
AcDbLine
 10
5322.084607689093
 20
-319.8806600325438
 30
0.0000000001127424
 11
5322.272122947882
 21
-319.3121556990477
 31
0.0000000001127424
  0
LINE
  5
B1E4
330
18
100
AcDbEntity
  8
01
100
AcDbLine
 10
5321.735166160773
 20
-320.6464528792235
 30
0.0000000001127424
 11
5321.547971336554
 21
-320.9363851302001
 31
0.0000000001127424
  0
LINE
  5
B1E5
330
18
100
AcDbEntity
  8
01
100
AcDbLine
 10
5321.547971336554
 20
-320.9363851302001
 30
0.0000000001127424
 11
5321.30845412464
 21
-321.2190389387938
 31
0.0000000001127424
  0
LINE
  5
B1E6
330
18
100
AcDbEntity
  8
01
100
AcDbLine
 10
5321.30845412464
 20
-321.2190389387938
 30
0.0000000001127424
 11
5320.990598289679
 21
-321.4837789290282
 31
0.0000000001127424
  0
LINE
  5
B1E7
330
18
100
AcDbEntity
  8
01
100
AcDbLine
 10
5320.990598289679
 20
-321.4837789290282
 30
0.0000000001127424
 11
5320.577313987921
 21
-321.6948919051024
 31
0.0000000001127424
  0
LINE
  5
B1E8
330
18
100
AcDbEntity
  8
01
100
AcDbLine
 10
5320.577313987921
 20
-321.6948919051024
 30
0.0000000001127424
 11
5320.067227928351
 21
-321.7999868147704
 31
0.0000000001127424
  0
LINE
  5
B1E9
330
18
100
AcDbEntity
  8
01
100
AcDbLine
 10
5320.028195945929
 20
-315.6649465315672
 30
0.0000000001127424
 11
5318.522870628546
 21
-315.6069783919188
 31
0.0000000001127424
  0
LINE
  5
B1EA
330
18
100
AcDbEntity
  8
01
100
AcDbLine
 10
5318.522870628546
 20
-315.6069783919188
 30
0.0000000001127424
 11
5317.017530052374
 21
-315.5507039778563
 31
0.0000000001127424
  0
LINE
  5
B1EB
330
18
100
AcDbEntity
  8
01
100
AcDbLine
 10
5317.017530052374
 20
-315.5507039778563
 30
0.0000000001127424
 11
5315.512082664679
 21
-315.4961538069579
 31
0.0000000001127424
  0
LINE
  5
B1EC
330
18
100
AcDbEntity
  8
01
100
AcDbLine
 10
5315.512082664679
 20
-315.4961538069579
 30
0.0000000001127424
 11
5314.006482689093
 21
-315.4433507674071
 31
0.0000000001127424
  0
LINE
  5
B1ED
330
18
100
AcDbEntity
  8
01
100
AcDbLine
 10
5314.006482689093
 20
-315.4433507674071
 30
0.0000000001127424
 11
5312.500653831671
 21
-315.3923253767821
 31
0.0000000001127424
  0
LINE
  5
B1EE
330
18
100
AcDbEntity
  8
01
100
AcDbLine
 10
5312.500653831671
 20
-315.3923253767821
 30
0.0000000001127424
 11
5310.994550316046
 21
-315.3430928938719
 31
0.0000000001127424
  0
LINE
  5
B1EF
330
18
100
AcDbEntity
  8
01
100
AcDbLine
 10
5310.994550316046
 20
-315.3430928938719
 30
0.0000000001127424
 11
5309.488156883429
 21
-315.2956609480711
 31
0.0000000001127424
  0
LINE
  5
B1F0
330
18
100
AcDbEntity
  8
01
100
AcDbLine
 10
5309.488156883429
 20
-315.2956609480711
 30
0.0000000001127424
 11
5307.981443016241
 21
-315.2500524275633
 31
0.0000000001127424
  0
LINE
  5
B1F1
330
18
100
AcDbEntity
  8
01
100
AcDbLine
 10
5307.981443016241
 20
-315.2500524275633
 30
0.0000000001127424
 11
5306.474362938116
 21
-315.206274961743
 31
0.0000000001127424
  0
LINE
  5
B1F2
330
18
100
AcDbEntity
  8
01
100
AcDbLine
 10
5306.474362938116
 20
-315.206274961743
 30
0.0000000001127424
 11
5304.966947166632
 21
-315.1643361800047
 31
0.0000000001127424
  0
LINE
  5
B1F3
330
18
100
AcDbEntity
  8
01
100
AcDbLine
 10
5304.966947166632
 20
-315.1643361800047
 30
0.0000000001127424
 11
5303.459149925421
 21
-315.124243711743
 31
0.0000000001127424
  0
LINE
  5
B1F4
330
18
100
AcDbEntity
  8
01
100
AcDbLine
 10
5303.459149925421
 20
-315.124243711743
 30
0.0000000001127424
 11
5301.951001732062
 21
-315.0859975569579
 31
0.0000000001127424
  0
LINE
  5
B1F5
330
18
100
AcDbEntity
  8
01
100
AcDbLine
 10
5301.951001732062
 20
-315.0859975569579
 30
0.0000000001127424
 11
5300.442487327765
 21
-315.0496129744383
 31
0.0000000001127424
  0
LINE
  5
B1F6
330
18
100
AcDbEntity
  8
01
100
AcDbLine
 10
5300.442487327765
 20
-315.0496129744383
 30
0.0000000001127424
 11
5298.93360671253
 21
-315.015097593579
 31
0.0000000001127424
  0
LINE
  5
B1F7
330
18
100
AcDbEntity
  8
01
100
AcDbLine
 10
5298.93360671253
 20
-315.015097593579
 30
0.0000000001127424
 11
5297.42434462757
 21
-314.9824437849852
 31
0.0000000001127424
  0
LINE
  5
B1F8
330
18
100
AcDbEntity
  8
01
100
AcDbLine
 10
5297.42434462757
 20
-314.9824437849852
 30
0.0000000001127424
 11
5295.91473159046
 21
-314.9516744368407
 31
0.0000000001127424
  0
LINE
  5
B1F9
330
18
100
AcDbEntity
  8
01
100
AcDbLine
 10
5295.91473159046
 20
-314.9516744368407
 30
0.0000000001127424
 11
5294.404737083624
 21
-314.9227819197508
 31
0.0000000001127424
  0
LINE
  5
B1FA
330
18
100
AcDbEntity
  8
01
100
AcDbLine
 10
5294.404737083624
 20
-314.9227819197508
 30
0.0000000001127424
 11
5292.894361107062
 21
-314.8957814925047
 31
0.0000000001127424
  0
LINE
  5
B1FB
330
18
100
AcDbEntity
  8
01
100
AcDbLine
 10
5292.894361107062
 20
-314.8957814925047
 30
0.0000000001127424
 11
5291.38364943714
 21
-314.8706655257079
 31
0.0000000001127424
  0
LINE
  5
B1FC
330
18
100
AcDbEntity
  8
01
100
AcDbLine
 10
5291.38364943714
 20
-314.8706655257079
 30
0.0000000001127424
 11
5289.87257155628
 21
-314.8474416487547
 31
0.0000000001127424
  0
LINE
  5
B1FD
330
18
100
AcDbEntity
  8
01
100
AcDbLine
 10
5289.87257155628
 20
-314.8474416487547
 30
0.0000000001127424
 11
5288.361173240851
 21
-314.8261098616454
 31
0.0000000001127424
  0
LINE
  5
B1FE
330
18
100
AcDbEntity
  8
01
100
AcDbLine
 10
5288.361173240851
 20
-314.8261098616454
 30
0.0000000001127424
 11
5286.849439232062
 21
-314.8066777937743
 31
0.0000000001127424
  0
LINE
  5
B1FF
330
18
100
AcDbEntity
  8
01
100
AcDbLine
 10
5286.849439232062
 20
-314.8066777937743
 30
0.0000000001127424
 11
5285.337384788702
 21
-314.7891378157469
 31
0.0000000001127424
  0
LINE
  5
B200
330
18
100
AcDbEntity
  8
01
100
AcDbLine
 10
5285.337384788702
 20
-314.7891378157469
 30
0.0000000001127424
 11
5283.825025169562
 21
-314.7735051863524
 31
0.0000000001127424
  0
LINE
  5
B201
330
18
100
AcDbEntity
  8
01
100
AcDbLine
 10
5283.825025169562
 20
-314.7735051863524
 30
0.0000000001127424
 11
5282.31236037464
 21
-314.7597722761961
 31
0.0000000001127424
  0
LINE
  5
B202
330
18
100
AcDbEntity
  8
01
100
AcDbLine
 10
5282.31236037464
 20
-314.7597722761961
 30
0.0000000001127424
 11
5280.799436180304
 21
-314.7479467146727
 31
0.0000000001127424
  0
LINE
  5
B203
330
18
100
AcDbEntity
  8
01
100
AcDbLine
 10
5280.799436180304
 20
-314.7479467146727
 30
0.0000000001127424
 11
5279.286222068976
 21
-314.7380208723876
 31
0.0000000001127424
  0
LINE
  5
B204
330
18
100
AcDbEntity
  8
01
100
AcDbLine
 10
5279.286222068976
 20
-314.7380208723876
 30
0.0000000001127424
 11
5277.772763817023
 21
-314.7299947493407
 31
0.0000000001127424
  0
LINE
  5
B205
330
18
100
AcDbEntity
  8
01
100
AcDbLine
 10
5277.772763817023
 20
-314.7299947493407
 30
0.0000000001127424
 11
5276.259061424445
 21
-314.7238836043211
 31
0.0000000001127424
  0
LINE
  5
B206
330
18
100
AcDbEntity
  8
01
100
AcDbLine
 10
5276.259061424445
 20
-314.7238836043211
 30
0.0000000001127424
 11
5274.745114891241
 21
-314.7196798079344
 31
0.0000000001127424
  0
LINE
  5
B207
330
18
100
AcDbEntity
  8
01
100
AcDbLine
 10
5274.745114891241
 20
-314.7196798079344
 30
0.0000000001127424
 11
5273.230954734991
 21
-314.7173833601805
 31
0.0000000001127424
  0
LINE
  5
B208
330
18
100
AcDbEntity
  8
01
100
AcDbLine
 10
5273.230954734991
 20
-314.7173833601805
 30
0.0000000001127424
 11
5271.716596214484
 21
-314.717001890454
 31
0.0000000001127424
  0
LINE
  5
B209
330
18
100
AcDbEntity
  8
01
100
AcDbLine
 10
5271.716596214484
 20
-314.717001890454
 30
0.0000000001127424
 11
5270.202039329718
 21
-314.7185277693602
 31
0.0000000001127424
  0
LINE
  5
B20A
330
18
100
AcDbEntity
  8
01
100
AcDbLine
 10
5270.202039329718
 20
-314.7185277693602
 30
0.0000000001127424
 11
5268.687299339484
 21
-314.7219609968993
 31
0.0000000001127424
  0
LINE
  5
B20B
330
18
100
AcDbEntity
  8
01
100
AcDbLine
 10
5268.687299339484
 20
-314.7219609968993
 30
0.0000000001127424
 11
5267.172406761359
 21
-314.7273092024657
 31
0.0000000001127424
  0
LINE
  5
B20C
330
18
100
AcDbEntity
  8
01
100
AcDbLine
 10
5267.172406761359
 20
-314.7273092024657
 30
0.0000000001127424
 11
5265.657361595343
 21
-314.7345723860594
 31
0.0000000001127424
  0
LINE
  5
B20D
330
18
100
AcDbEntity
  8
01
100
AcDbLine
 10
5265.657361595343
 20
-314.7345723860594
 30
0.0000000001127424
 11
5264.142179100226
 21
-314.743742918286
 31
0.0000000001127424
  0
LINE
  5
B20E
330
18
100
AcDbEntity
  8
01
100
AcDbLine
 10
5264.142179100226
 20
-314.743742918286
 30
0.0000000001127424
 11
5262.626874534796
 21
-314.7548207991454
 31
0.0000000001127424
  0
LINE
  5
B20F
330
18
100
AcDbEntity
  8
01
100
AcDbLine
 10
5262.626874534796
 20
-314.7548207991454
 30
0.0000000001127424
 11
5261.111478416632
 21
-314.7678136580321
 31
0.0000000001127424
  0
LINE
  5
B210
330
18
100
AcDbEntity
  8
01
100
AcDbLine
 10
5261.111478416632
 20
-314.7678136580321
 30
0.0000000001127424
 11
5259.595975486945
 21
-314.7827214949461
 31
0.0000000001127424
  0
LINE
  5
B211
330
18
100
AcDbEntity
  8
01
100
AcDbLine
 10
5259.595975486945
 20
-314.7827214949461
 30
0.0000000001127424
 11
5258.080411522101
 21
-314.799536680493
 31
0.0000000001127424
  0
LINE
  5
B212
330
18
100
AcDbEntity
  8
01
100
AcDbLine
 10
5258.080411522101
 20
-314.799536680493
 30
0.0000000001127424
 11
5256.564786522101
 21
-314.8182592146727
 31
0.0000000001127424
  0
LINE
  5
B213
330
18
100
AcDbEntity
  8
01
100
AcDbLine
 10
5256.564786522101
 20
-314.8182592146727
 30
0.0000000001127424
 11
5255.049100486945
 21
-314.8388890974852
 31
0.0000000001127424
  0
LINE
  5
B214
330
18
100
AcDbEntity
  8
01
100
AcDbLine
 10
5255.049100486945
 20
-314.8388890974852
 30
0.0000000001127424
 11
5253.533399192999
 21
-314.8614339583251
 31
0.0000000001127424
  0
LINE
  5
B215
330
18
100
AcDbEntity
  8
01
100
AcDbLine
 10
5253.533399192999
 20
-314.8614339583251
 30
0.0000000001127424
 11
5252.017682640265
 21
-314.8858861677977
 31
0.0000000001127424
  0
LINE
  5
B216
330
18
100
AcDbEntity
  8
01
100
AcDbLine
 10
5252.017682640265
 20
-314.8858861677977
 30
0.0000000001127424
 11
5250.50196608753
 21
-314.9122457259032
 31
0.0000000001127424
  0
LINE
  5
B217
330
18
100
AcDbEntity
  8
01
100
AcDbLine
 10
5250.50196608753
 20
-314.9122457259032
 30
0.0000000001127424
 11
5248.986249534796
 21
-314.9405126326415
 31
0.0000000001127424
  0
LINE
  5
B218
330
18
100
AcDbEntity
  8
01
100
AcDbLine
 10
5248.986249534796
 20
-314.9405126326415
 30
0.0000000001127424
 11
5247.470578758429
 21
-314.9706868880126
 31
0.0000000001127424
  0
LINE
  5
B219
330
18
100
AcDbEntity
  8
01
100
AcDbLine
 10
5247.470578758429
 20
-314.9706868880126
 30
0.0000000001127424
 11
5245.954953758429
 21
-315.0027684920165
 31
0.0000000001127424
  0
LINE
  5
B21A
330
18
100
AcDbEntity
  8
01
100
AcDbLine
 10
5245.954953758429
 20
-315.0027684920165
 30
0.0000000001127424
 11
5244.439382164191
 21
-315.0367498152586
 31
0.0000000001127424
  0
LINE
  5
B21B
330
18
100
AcDbEntity
  8
01
100
AcDbLine
 10
5244.439382164191
 20
-315.0367498152586
 30
0.0000000001127424
 11
5242.923894493292
 21
-315.0726384871336
 31
0.0000000001127424
  0
LINE
  5
B21C
330
18
100
AcDbEntity
  8
01
100
AcDbLine
 10
5242.923894493292
 20
-315.0726384871336
 30
0.0000000001127424
 11
5241.408498375128
 21
-315.1104268782469
 31
0.0000000001127424
  0
LINE
  5
B21D
330
18
100
AcDbEntity
  8
01
100
AcDbLine
 10
5241.408498375128
 20
-315.1104268782469
 30
0.0000000001127424
 11
5239.893201439093
 21
-315.1501149885985
 31
0.0000000001127424
  0
LINE
  5
B21E
330
18
100
AcDbEntity
  8
01
100
AcDbLine
 10
5239.893201439093
 20
-315.1501149885985
 30
0.0000000001127424
 11
5238.378034202765
 21
-315.1917104475829
 31
0.0000000001127424
  0
LINE
  5
B21F
330
18
100
AcDbEntity
  8
01
100
AcDbLine
 10
5238.378034202765
 20
-315.1917104475829
 30
0.0000000001127424
 11
5236.863004295538
 21
-315.235197996411
 31
0.0000000001127424
  0
LINE
  5
B220
330
18
100
AcDbEntity
  8
01
100
AcDbLine
 10
5236.863004295538
 20
-315.235197996411
 30
0.0000000001127424
 11
5235.348126976202
 21
-315.2805852644774
 31
0.0000000001127424
  0
LINE
  5
B221
330
18
100
AcDbEntity
  8
01
100
AcDbLine
 10
5235.348126976202
 20
-315.2805852644774
 30
0.0000000001127424
 11
5233.833409874152
 21
-315.3278646223876
 31
0.0000000001127424
  0
LINE
  5
B222
330
18
100
AcDbEntity
  8
01
100
AcDbLine
 10
5233.833409874152
 20
-315.3278646223876
 30
0.0000000001127424
 11
5232.318883506964
 21
-315.3770360701415
 31
0.0000000001127424
  0
LINE
  5
B223
330
18
100
AcDbEntity
  8
01
100
AcDbLine
 10
5232.318883506964
 20
-315.3770360701415
 30
0.0000000001127424
 11
5230.804555504034
 21
-315.4281072371336
 31
0.0000000001127424
  0
LINE
  5
B224
330
18
100
AcDbEntity
  8
01
100
AcDbLine
 10
5230.804555504034
 20
-315.4281072371336
 30
0.0000000001127424
 11
5229.290448753546
 21
-315.4810628645751
 31
0.0000000001127424
  0
LINE
  5
B225
330
18
100
AcDbEntity
  8
01
100
AcDbLine
 10
5229.290448753546
 20
-315.4810628645751
 30
0.0000000001127424
 11
5227.776563255499
 21
-315.5359105818602
 31
0.0000000001127424
  0
LINE
  5
B226
330
18
100
AcDbEntity
  8
01
100
AcDbLine
 10
5227.776563255499
 20
-315.5359105818602
 30
0.0000000001127424
 11
5226.262921898077
 21
-315.5926351302001
 31
0.0000000001127424
  0
LINE
  5
B227
330
18
100
AcDbEntity
  8
01
100
AcDbLine
 10
5226.262921898077
 20
-315.5926351302001
 30
0.0000000001127424
 11
5224.749547569464
 21
-315.6512517683836
 31
0.0000000001127424
  0
LINE
  5
B228
330
18
100
AcDbEntity
  8
01
100
AcDbLine
 10
5224.749547569464
 20
-315.6512517683836
 30
0.0000000001127424
 11
5223.236447899054
 21
-315.7117452376219
 31
0.0000000001127424
  0
LINE
  5
B229
330
18
100
AcDbEntity
  8
01
100
AcDbLine
 10
5223.236447899054
 20
-315.7117452376219
 30
0.0000000001127424
 11
5221.723638145636
 21
-315.7741231673094
 31
0.0000000001127424
  0
LINE
  5
B22A
330
18
100
AcDbEntity
  8
01
100
AcDbLine
 10
5221.723638145636
 20
-315.7741231673094
 30
0.0000000001127424
 11
5220.211133567999
 21
-315.8383702986571
 31
0.0000000001127424
  0
LINE
  5
B22B
330
18
100
AcDbEntity
  8
01
100
AcDbLine
 10
5220.211133567999
 20
-315.8383702986571
 30
0.0000000001127424
 11
5218.698949424933
 21
-315.9044942610594
 31
0.0000000001127424
  0
LINE
  5
B22C
330
18
100
AcDbEntity
  8
01
100
AcDbLine
 10
5218.698949424933
 20
-315.9044942610594
 30
0.0000000001127424
 11
5217.18710860462
 21
-315.9724874251219
 31
0.0000000001127424
  0
LINE
  5
B22D
330
18
100
AcDbEntity
  8
01
100
AcDbLine
 10
5217.18710860462
 20
-315.9724874251219
 30
0.0000000001127424
 11
5215.675618736456
 21
-316.0423497908446
 31
0.0000000001127424
  0
LINE
  5
B22E
330
18
100
AcDbEntity
  8
01
100
AcDbLine
 10
5215.675618736456
 20
-316.0423497908446
 30
0.0000000001127424
 11
5214.16449507923
 21
-316.1140813582274
 31
0.0000000001127424
  0
LINE
  5
B22F
330
18
100
AcDbEntity
  8
01
100
AcDbLine
 10
5214.16449507923
 20
-316.1140813582274
 30
0.0000000001127424
 11
5212.65375289173
 21
-316.1876744978758
 31
0.0000000001127424
  0
LINE
  5
B230
330
18
100
AcDbEntity
  8
01
100
AcDbLine
 10
5212.65375289173
 20
-316.1876744978758
 30
0.0000000001127424
 11
5211.143407432745
 21
-316.2631368391844
 31
0.0000000001127424
  0
LINE
  5
B231
330
18
100
AcDbEntity
  8
01
100
AcDbLine
 10
5211.143407432745
 20
-316.2631368391844
 30
0.0000000001127424
 11
5209.63348159046
 21
-316.3404531233641
 31
0.0000000001127424
  0
LINE
  5
B232
330
18
100
AcDbEntity
  8
01
100
AcDbLine
 10
5209.63348159046
 20
-316.3404531233641
 30
0.0000000001127424
 11
5208.124463646124
 21
-316.4195852034422
 31
0.0000000001127424
  0
LINE
  5
B233
330
18
100
AcDbEntity
  8
01
100
AcDbLine
 10
5208.124463646124
 20
-316.4195852034422
 30
0.0000000001127424
 11
5206.621381370734
 21
-316.5001363509032
 31
0.0000000001127424
  0
LINE
  5
B234
330
18
100
AcDbEntity
  8
01
100
AcDbLine
 10
5206.621381370734
 20
-316.5001363509032
 30
0.0000000001127424
 11
5205.133443443488
 21
-316.5811834090086
 31
0.0000000001127424
  0
LINE
  5
B235
330
18
100
AcDbEntity
  8
01
100
AcDbLine
 10
5205.133443443488
 20
-316.5811834090086
 30
0.0000000001127424
 11
5203.672978965948
 21
-316.6612691634032
 31
0.0000000001127424
  0
LINE
  5
B236
330
18
100
AcDbEntity
  8
01
100
AcDbLine
 10
5203.672978965948
 20
-316.6612691634032
 30
0.0000000001127424
 11
5202.253285972784
 21
-316.7387914412352
 31
0.0000000001127424
  0
LINE
  5
B237
330
18
100
AcDbEntity
  8
01
100
AcDbLine
 10
5202.253285972784
 20
-316.7387914412352
 30
0.0000000001127424
 11
5200.886846153448
 21
-316.8122014754149
 31
0.0000000001127424
  0
LINE
  5
B238
330
18
100
AcDbEntity
  8
01
100
AcDbLine
 10
5200.886846153448
 20
-316.8122014754149
 30
0.0000000001127424
 11
5199.584477989386
 21
-316.8801259749266
 31
0.0000000001127424
  0
LINE
  5
B239
330
18
100
AcDbEntity
  8
01
100
AcDbLine
 10
5199.584477989386
 20
-316.8801259749266
 30
0.0000000001127424
 11
5198.355542747687
 21
-316.9413747542235
 31
0.0000000001127424
  0
LINE
  5
B23A
330
18
100
AcDbEntity
  8
01
100
AcDbLine
 10
5198.355542747687
 20
-316.9413747542235
 30
0.0000000001127424
 11
5197.20901259632
 21
-316.9948873274657
 31
0.0000000001127424
  0
LINE
  5
B23B
330
18
100
AcDbEntity
  8
01
100
AcDbLine
 10
5197.20901259632
 20
-316.9948873274657
 30
0.0000000001127424
 11
5196.154744713019
 21
-317.0396260969969
 31
0.0000000001127424
  0
LINE
  5
B23C
330
18
100
AcDbEntity
  8
01
100
AcDbLine
 10
5196.154744713019
 20
-317.0396260969969
 30
0.0000000001127424
 11
5195.205518333624
 21
-317.0745076887938
 31
0.0000000001127424
  0
LINE
  5
B23D
330
18
100
AcDbEntity
  8
01
100
AcDbLine
 10
5195.205518333624
 20
-317.0745076887938
 30
0.0000000001127424
 11
5194.378743736456
 21
-317.0984410994383
 31
0.0000000001127424
  0
LINE
  5
B23E
330
18
100
AcDbEntity
  8
01
100
AcDbLine
 10
5194.378743736456
 20
-317.0984410994383
 30
0.0000000001127424
 11
5193.702344505499
 21
-317.1105794661376
 31
0.0000000001127424
  0
LINE
  5
B23F
330
18
100
AcDbEntity
  8
01
100
AcDbLine
 10
5193.702344505499
 20
-317.1105794661376
 30
0.0000000001127424
 11
5193.222501365851
 21
-317.1113347761961
 31
0.0000000001127424
  0
LINE
  5
B240
330
18
100
AcDbEntity
  8
01
100
AcDbLine
 10
5193.222501365851
 20
-317.1113347761961
 30
0.0000000001127424
 11
5193.028340904425
 21
-317.107153867993
 31
0.0000000001127424
  0
LINE
  5
B241
330
18
100
AcDbEntity
  8
01
100
AcDbLine
 10
5194.974759666632
 20
-335.7547216170165
 30
0.0000000001127424
 11
5195.157231895636
 21
-335.7089109175536
 31
0.0000000001127424
  0
LINE
  5
B242
330
18
100
AcDbEntity
  8
01
100
AcDbLine
 10
5195.157231895636
 20
-335.7089109175536
 30
0.0000000001127424
 11
5195.617154686163
 21
-335.6046170943114
 31
0.0000000001127424
  0
LINE
  5
B243
330
18
100
AcDbEntity
  8
01
100
AcDbLine
 10
5195.617154686163
 20
-335.6046170943114
 30
0.0000000001127424
 11
5196.271672813605
 21
-335.467692350659
 31
0.0000000001127424
  0
LINE
  5
B244
330
18
100
AcDbEntity
  8
01
100
AcDbLine
 10
5196.271672813605
 20
-335.467692350659
 30
0.0000000001127424
 11
5197.075215904425
 21
-335.3095197432372
 31
0.0000000001127424
  0
LINE
  5
B245
330
18
100
AcDbEntity
  8
01
100
AcDbLine
 10
5197.075215904425
 20
-335.3095197432372
 30
0.0000000001127424
 11
5198.00115737171
 21
-335.13564584187
 31
0.0000000001127424
  0
LINE
  5
B246
330
18
100
AcDbEntity
  8
01
100
AcDbLine
 10
5198.00115737171
 20
-335.13564584187
 30
0.0000000001127424
 11
5199.032201378058
 21
-334.9493398421141
 31
0.0000000001127424
  0
LINE
  5
B247
330
18
100
AcDbEntity
  8
01
100
AcDbLine
 10
5199.032201378058
 20
-334.9493398421141
 30
0.0000000001127424
 11
5200.155973045538
 21
-334.7527570479247
 31
0.0000000001127424
  0
LINE
  5
B248
330
18
100
AcDbEntity
  8
01
100
AcDbLine
 10
5200.155973045538
 20
-334.7527570479247
 30
0.0000000001127424
 11
5201.362989036749
 21
-334.5474805586668
 31
0.0000000001127424
  0
LINE
  5
B249
330
18
100
AcDbEntity
  8
01
100
AcDbLine
 10
5201.362989036749
 20
-334.5474805586668
 30
0.0000000001127424
 11
5202.644414512823
 21
-334.3349065535399
 31
0.0000000001127424
  0
LINE
  5
B24A
330
18
100
AcDbEntity
  8
01
100
AcDbLine
 10
5202.644414512823
 20
-334.3349065535399
 30
0.0000000001127424
 11
5203.99115523548
 21
-334.116415952954
 31
0.0000000001127424
  0
LINE
  5
B24B
330
18
100
AcDbEntity
  8
01
100
AcDbLine
 10
5203.99115523548
 20
-334.116415952954
 30
0.0000000001127424
 11
5205.392934410284
 21
-333.8935117476317
 31
0.0000000001127424
  0
LINE
  5
B24C
330
18
100
AcDbEntity
  8
01
100
AcDbLine
 10
5205.392934410284
 20
-333.8935117476317
 30
0.0000000001127424
 11
5206.837926475714
 21
-333.667815183911
 31
0.0000000001127424
  0
LINE
  5
B24D
330
18
100
AcDbEntity
  8
01
100
AcDbLine
 10
5206.837926475714
 20
-333.667815183911
 30
0.0000000001127424
 11
5208.313077537726
 21
-333.4409894697997
 31
0.0000000001127424
  0
LINE
  5
B24E
330
18
100
AcDbEntity
  8
01
100
AcDbLine
 10
5208.313077537726
 20
-333.4409894697997
 30
0.0000000001127424
 11
5209.805951683234
 21
-333.2144155257079
 31
0.0000000001127424
  0
LINE
  5
B24F
330
18
100
AcDbEntity
  8
01
100
AcDbLine
 10
5209.805951683234
 20
-333.2144155257079
 30
0.0000000001127424
 11
5211.306279747198
 21
-332.9890355818602
 31
0.0000000001127424
  0
LINE
  5
B250
330
18
100
AcDbEntity
  8
01
100
AcDbLine
 10
5211.306279747198
 20
-332.9890355818602
 30
0.0000000001127424
 11
5212.807920067023
 21
-332.7654485457274
 31
0.0000000001127424
  0
LINE
  5
B251
330
18
100
AcDbEntity
  8
01
100
AcDbLine
 10
5212.807920067023
 20
-332.7654485457274
 30
0.0000000001127424
 11
5214.310224144171
 21
-332.5437421553465
 31
0.0000000001127424
  0
LINE
  5
B252
330
18
100
AcDbEntity
  8
01
100
AcDbLine
 10
5214.310224144171
 20
-332.5437421553465
 30
0.0000000001127424
 11
5215.813130943488
 21
-332.3239202254149
 31
0.0000000001127424
  0
LINE
  5
B253
330
18
100
AcDbEntity
  8
01
100
AcDbLine
 10
5215.813130943488
 20
-332.3239202254149
 30
0.0000000001127424
 11
5217.316663353155
 21
-332.1059865706297
 31
0.0000000001127424
  0
LINE
  5
B254
330
18
100
AcDbEntity
  8
01
100
AcDbLine
 10
5217.316663353155
 20
-332.1059865706297
 30
0.0000000001127424
 11
5218.820798484991
 21
-331.8899411909911
 31
0.0000000001127424
  0
LINE
  5
B255
330
18
100
AcDbEntity
  8
01
100
AcDbLine
 10
5218.820798484991
 20
-331.8899411909911
 30
0.0000000001127424
 11
5220.325505821417
 21
-331.6757917158934
 31
0.0000000001127424
  0
LINE
  5
B256
330
18
100
AcDbEntity
  8
01
100
AcDbLine
 10
5220.325505821417
 20
-331.6757917158934
 30
0.0000000001127424
 11
5221.830777733038
 21
-331.4635305159422
 31
0.0000000001127424
  0
LINE
  5
B257
330
18
100
AcDbEntity
  8
01
100
AcDbLine
 10
5221.830777733038
 20
-331.4635305159422
 30
0.0000000001127424
 11
5223.336591331671
 21
-331.2531728499266
 31
0.0000000001127424
  0
LINE
  5
B258
330
18
100
AcDbEntity
  8
01
100
AcDbLine
 10
5223.336591331671
 20
-331.2531728499266
 30
0.0000000001127424
 11
5224.842938987921
 21
-331.044711088452
 31
0.0000000001127424
  0
LINE
  5
B259
330
18
100
AcDbEntity
  8
01
100
AcDbLine
 10
5224.842938987921
 20
-331.044711088452
 30
0.0000000001127424
 11
5226.349797813605
 21
-330.8381490462157
 31
0.0000000001127424
  0
LINE
  5
B25A
330
18
100
AcDbEntity
  8
01
100
AcDbLine
 10
5226.349797813605
 20
-330.8381490462157
 30
0.0000000001127424
 11
5227.857152549933
 21
-330.6334943526122
 31
0.0000000001127424
  0
LINE
  5
B25B
330
18
100
AcDbEntity
  8
01
100
AcDbLine
 10
5227.857152549933
 20
-330.6334943526122
 30
0.0000000001127424
 11
5229.364987938116
 21
-330.4307470076415
 31
0.0000000001127424
  0
LINE
  5
B25C
330
18
100
AcDbEntity
  8
01
100
AcDbLine
 10
5229.364987938116
 20
-330.4307470076415
 30
0.0000000001127424
 11
5230.873288719366
 21
-330.2299070113036
 31
0.0000000001127424
  0
LINE
  5
B25D
330
18
100
AcDbEntity
  8
01
100
AcDbLine
 10
5230.873288719366
 20
-330.2299070113036
 30
0.0000000001127424
 11
5232.382039634894
 21
-330.030981992993
 31
0.0000000001127424
  0
LINE
  5
B25E
330
18
100
AcDbEntity
  8
01
100
AcDbLine
 10
5232.382039634894
 20
-330.030981992993
 30
0.0000000001127424
 11
5233.891217796515
 21
-329.8339681380126
 31
0.0000000001127424
  0
LINE
  5
B25F
330
18
100
AcDbEntity
  8
01
100
AcDbLine
 10
5233.891217796515
 20
-329.8339681380126
 30
0.0000000001127424
 11
5235.400807945441
 21
-329.6388730757567
 31
0.0000000001127424
  0
LINE
  5
B260
330
18
100
AcDbEntity
  8
01
100
AcDbLine
 10
5235.400807945441
 20
-329.6388730757567
 30
0.0000000001127424
 11
5236.910794822882
 21
-329.4456929915282
 31
0.0000000001127424
  0
LINE
  5
B261
330
18
100
AcDbEntity
  8
01
100
AcDbLine
 10
5236.910794822882
 20
-329.4456929915282
 30
0.0000000001127424
 11
5238.42116317005
 21
-329.2544355147215
 31
0.0000000001127424
  0
LINE
  5
B262
330
18
100
AcDbEntity
  8
01
100
AcDbLine
 10
5238.42116317005
 20
-329.2544355147215
 30
0.0000000001127424
 11
5239.931897728155
 21
-329.0651006453368
 31
0.0000000001127424
  0
LINE
  5
B263
330
18
100
AcDbEntity
  8
01
100
AcDbLine
 10
5239.931897728155
 20
-329.0651006453368
 30
0.0000000001127424
 11
5241.442975609015
 21
-328.8776883833739
 31
0.0000000001127424
  0
LINE
  5
B264
330
18
100
AcDbEntity
  8
01
100
AcDbLine
 10
5241.442975609015
 20
-328.8776883833739
 30
0.0000000001127424
 11
5242.954381553839
 21
-328.6921987288329
 31
0.0000000001127424
  0
LINE
  5
B265
330
18
100
AcDbEntity
  8
01
100
AcDbLine
 10
5242.954381553839
 20
-328.6921987288329
 30
0.0000000001127424
 11
5244.466107933234
 21
-328.5086393111083
 31
0.0000000001127424
  0
LINE
  5
B266
330
18
100
AcDbEntity
  8
01
100
AcDbLine
 10
5244.466107933234
 20
-328.5086393111083
 30
0.0000000001127424
 11
5245.97812422962
 21
-328.3270063155028
 31
0.0000000001127424
  0
LINE
  5
B267
330
18
100
AcDbEntity
  8
01
100
AcDbLine
 10
5245.97812422962
 20
-328.3270063155028
 30
0.0000000001127424
 11
5247.49041518421
 21
-328.1472997420165
 31
0.0000000001127424
  0
LINE
  5
B268
330
18
100
AcDbEntity
  8
01
100
AcDbLine
 10
5247.49041518421
 20
-328.1472997420165
 30
0.0000000001127424
 11
5249.002973167609
 21
-327.9695272200438
 31
0.0000000001127424
  0
LINE
  5
B269
330
18
100
AcDbEntity
  8
01
100
AcDbLine
 10
5249.002973167609
 20
-327.9695272200438
 30
0.0000000001127424
 11
5250.515775291632
 21
-327.7936849348876
 31
0.0000000001127424
  0
LINE
  5
B26A
330
18
100
AcDbEntity
  8
01
100
AcDbLine
 10
5250.515775291632
 20
-327.7936849348876
 30
0.0000000001127424
 11
5252.028806297491
 21
-327.619776701245
 31
0.0000000001127424
  0
LINE
  5
B26B
330
18
100
AcDbEntity
  8
01
100
AcDbLine
 10
5252.028806297491
 20
-327.619776701245
 30
0.0000000001127424
 11
5253.542050926398
 21
-327.4478025191161
 31
0.0000000001127424
  0
LINE
  5
B26C
330
18
100
AcDbEntity
  8
01
100
AcDbLine
 10
5253.542050926398
 20
-327.4478025191161
 30
0.0000000001127424
 11
5255.055478660773
 21
-327.2777623885008
 31
0.0000000001127424
  0
LINE
  5
B26D
330
18
100
AcDbEntity
  8
01
100
AcDbLine
 10
5255.055478660773
 20
-327.2777623885008
 30
0.0000000001127424
 11
5256.569089500616
 21
-327.1096601240965
 31
0.0000000001127424
  0
LINE
  5
B26E
330
18
100
AcDbEntity
  8
01
100
AcDbLine
 10
5256.569089500616
 20
-327.1096601240965
 30
0.0000000001127424
 11
5258.082852928351
 21
-326.9434919112059
 31
0.0000000001127424
  0
LINE
  5
B26F
330
18
100
AcDbEntity
  8
01
100
AcDbLine
 10
5258.082852928351
 20
-326.9434919112059
 30
0.0000000001127424
 11
5259.596768943976
 21
-326.7792615645262
 31
0.0000000001127424
  0
LINE
  5
B270
330
18
100
AcDbEntity
  8
01
100
AcDbLine
 10
5259.596768943976
 20
-326.7792615645262
 30
0.0000000001127424
 11
5261.110791771124
 21
-326.6169728987547
 31
0.0000000001127424
  0
LINE
  5
B271
330
18
100
AcDbEntity
  8
01
100
AcDbLine
 10
5261.110791771124
 20
-326.6169728987547
 30
0.0000000001127424
 11
5262.624936668585
 21
-326.4566182844969
 31
0.0000000001127424
  0
LINE
  5
B272
330
18
100
AcDbEntity
  8
01
100
AcDbLine
 10
5262.624936668585
 20
-326.4566182844969
 30
0.0000000001127424
 11
5264.13917311878
 21
-326.2982053511473
 31
0.0000000001127424
  0
LINE
  5
B273
330
18
100
AcDbEntity
  8
01
100
AcDbLine
 10
5264.13917311878
 20
-326.2982053511473
 30
0.0000000001127424
 11
5265.653470604132
 21
-326.1417340987059
 31
0.0000000001127424
  0
LINE
  5
B274
330
18
100
AcDbEntity
  8
01
100
AcDbLine
 10
5265.653470604132
 20
-326.1417340987059
 30
0.0000000001127424
 11
5267.167813865851
 21
-325.9872007124754
 31
0.0000000001127424
  0
LINE
  5
B275
330
18
100
AcDbEntity
  8
01
100
AcDbLine
 10
5267.167813865851
 20
-325.9872007124754
 30
0.0000000001127424
 11
5268.682202903937
 21
-325.8346090071532
 31
0.0000000001127424
  0
LINE
  5
B276
330
18
100
AcDbEntity
  8
01
100
AcDbLine
 10
5268.682202903937
 20
-325.8346090071532
 30
0.0000000001127424
 11
5270.196622459601
 21
-325.6839589827391
 31
0.0000000001127424
  0
LINE
  5
B277
330
18
100
AcDbEntity
  8
01
100
AcDbLine
 10
5270.196622459601
 20
-325.6839589827391
 30
0.0000000001127424
 11
5271.711026756476
 21
-325.5352506392333
 31
0.0000000001127424
  0
LINE
  5
B278
330
18
100
AcDbEntity
  8
01
100
AcDbLine
 10
5271.711026756476
 20
-325.5352506392333
 30
0.0000000001127424
 11
5273.225415794562
 21
-325.3884877913329
 31
0.0000000001127424
  0
LINE
  5
B279
330
18
100
AcDbEntity
  8
01
100
AcDbLine
 10
5273.225415794562
 20
-325.3884877913329
 30
0.0000000001127424
 11
5274.739789573859
 21
-325.2436628096434
 31
0.0000000001127424
  0
LINE
  5
B27A
330
18
100
AcDbEntity
  8
01
100
AcDbLine
 10
5274.739789573859
 20
-325.2436628096434
 30
0.0000000001127424
 11
5276.25408705921
 21
-325.1007833235594
 31
0.0000000001127424
  0
LINE
  5
B27B
330
18
100
AcDbEntity
  8
01
100
AcDbLine
 10
5276.25408705921
 20
-325.1007833235594
 30
0.0000000001127424
 11
5277.768323509405
 21
-324.9598455183836
 31
0.0000000001127424
  0
LINE
  5
B27C
330
18
100
AcDbEntity
  8
01
100
AcDbLine
 10
5277.768323509405
 20
-324.9598455183836
 30
0.0000000001127424
 11
5279.282483665655
 21
-324.8208493941161
 31
0.0000000001127424
  0
LINE
  5
B27D
330
18
100
AcDbEntity
  8
01
100
AcDbLine
 10
5279.282483665655
 20
-324.8208493941161
 30
0.0000000001127424
 11
5280.796521751593
 21
-324.683798765454
 31
0.0000000001127424
  0
LINE
  5
B27E
330
18
100
AcDbEntity
  8
01
100
AcDbLine
 10
5280.796521751593
 20
-324.683798765454
 30
0.0000000001127424
 11
5282.310437767218
 21
-324.5486860030028
 31
0.0000000001127424
  0
LINE
  5
B27F
330
18
100
AcDbEntity
  8
01
100
AcDbLine
 10
5282.310437767218
 20
-324.5486860030028
 30
0.0000000001127424
 11
5283.824216453741
 21
-324.4155187361571
 31
0.0000000001127424
  0
LINE
  5
B280
330
18
100
AcDbEntity
  8
01
100
AcDbLine
 10
5283.824216453741
 20
-324.4155187361571
 30
0.0000000001127424
 11
5285.337827293585
 21
-324.2842893355223
 31
0.0000000001127424
  0
LINE
  5
B281
330
18
100
AcDbEntity
  8
01
100
AcDbLine
 10
5285.337827293585
 20
-324.2842893355223
 30
0.0000000001127424
 11
5286.851270286749
 21
-324.155005430493
 31
0.0000000001127424
  0
LINE
  5
B282
330
18
100
AcDbEntity
  8
01
100
AcDbLine
 10
5286.851270286749
 20
-324.155005430493
 30
0.0000000001127424
 11
5288.364499656866
 21
-324.0276593916747
 31
0.0000000001127424
  0
LINE
  5
B283
330
18
100
AcDbEntity
  8
01
100
AcDbLine
 10
5288.364499656866
 20
-324.0276593916747
 30
0.0000000001127424
 11
5289.877530662726
 21
-323.9022550337645
 31
0.0000000001127424
  0
LINE
  5
B284
330
18
100
AcDbEntity
  8
01
100
AcDbLine
 10
5289.877530662726
 20
-323.9022550337645
 30
0.0000000001127424
 11
5291.39031752796
 21
-323.7787923567626
 31
0.0000000001127424
  0
LINE
  5
B285
330
18
100
AcDbEntity
  8
01
100
AcDbLine
 10
5291.39031752796
 20
-323.7787923567626
 30
0.0000000001127424
 11
5292.90284499378
 21
-323.6572637312743
 31
0.0000000001127424
  0
LINE
  5
B286
330
18
100
AcDbEntity
  8
01
100
AcDbLine
 10
5292.90284499378
 20
-323.6572637312743
 30
0.0000000001127424
 11
5294.415113060187
 21
-323.5376806013915
 31
0.0000000001127424
  0
LINE
  5
B287
330
18
100
AcDbEntity
  8
01
100
AcDbLine
 10
5294.415113060187
 20
-323.5376806013915
 30
0.0000000001127424
 11
5295.927075950812
 21
-323.4200353377196
 31
0.0000000001127424
  0
LINE
  5
B288
330
18
100
AcDbEntity
  8
01
100
AcDbLine
 10
5295.927075950812
 20
-323.4200353377196
 30
0.0000000001127424
 11
5297.438733665655
 21
-323.3043203108641
 31
0.0000000001127424
  0
LINE
  5
B289
330
18
100
AcDbEntity
  8
01
100
AcDbLine
 10
5297.438733665655
 20
-323.3043203108641
 30
0.0000000001127424
 11
5298.95005568714
 21
-323.1905431502196
 31
0.0000000001127424
  0
LINE
  5
B28A
330
18
100
AcDbEntity
  8
01
100
AcDbLine
 10
5298.95005568714
 20
-323.1905431502196
 30
0.0000000001127424
 11
5300.461026756476
 21
-323.0786962263915
 31
0.0000000001127424
  0
LINE
  5
B28B
330
18
100
AcDbEntity
  8
01
100
AcDbLine
 10
5300.461026756476
 20
-323.0786962263915
 30
0.0000000001127424
 11
5301.971631614874
 21
-322.9687871687743
 31
0.0000000001127424
  0
LINE
  5
B28C
330
18
100
AcDbEntity
  8
01
100
AcDbLine
 10
5301.971631614874
 20
-322.9687871687743
 30
0.0000000001127424
 11
5303.481855003546
 21
-322.8608083479735
 31
0.0000000001127424
  0
LINE
  5
B28D
330
18
100
AcDbEntity
  8
01
100
AcDbLine
 10
5303.481855003546
 20
-322.8608083479735
 30
0.0000000001127424
 11
5304.991666404913
 21
-322.7547521345946
 31
0.0000000001127424
  0
LINE
  5
B28E
330
18
100
AcDbEntity
  8
01
100
AcDbLine
 10
5304.991666404913
 20
-322.7547521345946
 30
0.0000000001127424
 11
5306.501035301398
 21
-322.6506337874266
 31
0.0000000001127424
  0
LINE
  5
B28F
330
18
100
AcDbEntity
  8
01
100
AcDbLine
 10
5306.501035301398
 20
-322.6506337874266
 30
0.0000000001127424
 11
5308.00994643421
 21
-322.5484533064696
 31
0.0000000001127424
  0
LINE
  5
B290
330
18
100
AcDbEntity
  8
01
100
AcDbLine
 10
5308.00994643421
 20
-322.5484533064696
 30
0.0000000001127424
 11
5309.518384544562
 21
-322.448203062329
 31
0.0000000001127424
  0
LINE
  5
B291
330
18
100
AcDbEntity
  8
01
100
AcDbLine
 10
5309.518384544562
 20
-322.448203062329
 30
0.0000000001127424
 11
5311.026334373663
 21
-322.3498830550047
 31
0.0000000001127424
  0
LINE
  5
B292
330
18
100
AcDbEntity
  8
01
100
AcDbLine
 10
5311.026334373663
 20
-322.3498830550047
 30
0.0000000001127424
 11
5312.533765403937
 21
-322.2534932844969
 31
0.0000000001127424
  0
LINE
  5
B293
330
18
100
AcDbEntity
  8
01
100
AcDbLine
 10
5312.533765403937
 20
-322.2534932844969
 30
0.0000000001127424
 11
5314.040647117804
 21
-322.1589956038329
 31
0.0000000001127424
  0
LINE
  5
B294
330
18
100
AcDbEntity
  8
01
100
AcDbLine
 10
5314.040647117804
 20
-322.1589956038329
 30
0.0000000001127424
 11
5315.546994774054
 21
-322.0664052718016
 31
0.0000000001127424
  0
LINE
  5
B295
330
18
100
AcDbEntity
  8
01
100
AcDbLine
 10
5315.546994774054
 20
-322.0664052718016
 30
0.0000000001127424
 11
5317.052686302374
 21
-321.9758901350829
 31
0.0000000001127424
  0
LINE
  5
B296
330
18
100
AcDbEntity
  8
01
100
AcDbLine
 10
5317.052686302374
 20
-321.9758901350829
 30
0.0000000001127424
 11
5318.557904808234
 21
-321.8869085066649
 31
0.0000000001127424
  0
LINE
  5
B297
330
18
100
AcDbEntity
  8
01
100
AcDbLine
 10
5318.557904808234
 20
-321.8869085066649
 30
0.0000000001127424
 11
5320.067136375616
 21
-321.800024961743
 31
0.0000000001127424
  0
LINE
  5
B298
330
18
100
AcDbEntity
  8
01
100
AcDbLine
 10
5052.849600693114
 20
-337.6078479579019
 30
0.0000000001127424
 11
5052.917426010496
 21
-337.5870235255288
 31
0.0000000001127424
  0
LINE
  5
B299
330
18
100
AcDbEntity
  8
01
100
AcDbLine
 10
5052.917426010496
 20
-337.5870235255288
 30
0.0000000001127424
 11
5053.116949936278
 21
-337.5255592158364
 31
0.0000000001127424
  0
LINE
  5
B29A
330
18
100
AcDbEntity
  8
01
100
AcDbLine
 10
5053.116949936278
 20
-337.5255592158364
 30
0.0000000001127424
 11
5053.437262436278
 21
-337.4334829142617
 31
0.0000000001127424
  0
LINE
  5
B29B
330
18
100
AcDbEntity
  8
01
100
AcDbLine
 10
5053.437262436278
 20
-337.4334829142617
 30
0.0000000001127424
 11
5053.863531967528
 21
-337.3244817545938
 31
0.0000000001127424
  0
LINE
  5
B29C
330
18
100
AcDbEntity
  8
01
100
AcDbLine
 10
5053.863531967528
 20
-337.3244817545938
 30
0.0000000001127424
 11
5054.378760239012
 21
-337.2145040324258
 31
0.0000000001127424
  0
LINE
  5
B29D
330
18
100
AcDbEntity
  8
01
100
AcDbLine
 10
5054.378760239012
 20
-337.2145040324258
 30
0.0000000001127424
 11
5054.962668320067
 21
-337.1187560847329
 31
0.0000000001127424
  0
LINE
  5
B29E
330
18
100
AcDbEntity
  8
01
100
AcDbLine
 10
5054.962668320067
 20
-337.1187560847329
 30
0.0000000001127424
 11
5055.592459579832
 21
-337.051295070939
 31
0.0000000001127424
  0
LINE
  5
B29F
330
18
100
AcDbEntity
  8
01
100
AcDbLine
 10
5055.592459579832
 20
-337.051295070939
 30
0.0000000001127424
 11
5056.240500351317
 21
-337.0200279048013
 31
0.0000000001127424
  0
LINE
  5
B2A0
330
18
100
AcDbEntity
  8
01
100
AcDbLine
 10
5056.240500351317
 20
-337.0200279048013
 30
0.0000000001127424
 11
5056.87619676245
 21
-337.0276277354287
 31
0.0000000001127424
  0
LINE
  5
B2A1
330
18
100
AcDbEntity
  8
01
100
AcDbLine
 10
5056.87619676245
 20
-337.0276277354287
 30
0.0000000001127424
 11
5057.470831772215
 21
-337.067745952897
 31
0.0000000001127424
  0
LINE
  5
B2A2
330
18
100
AcDbEntity
  8
01
100
AcDbLine
 10
5057.470831772215
 20
-337.067745952897
 30
0.0000000001127424
 11
5057.997549911864
 21
-337.129456310563
 31
0.0000000001127424
  0
LINE
  5
B2A3
330
18
100
AcDbEntity
  8
01
100
AcDbLine
 10
5057.997549911864
 20
-337.129456310563
 30
0.0000000001127424
 11
5058.435034653075
 21
-337.198397426896
 31
0.0000000001127424
  0
LINE
  5
B2A4
330
18
100
AcDbEntity
  8
01
100
AcDbLine
 10
5058.435034653075
 20
-337.198397426896
 30
0.0000000001127424
 11
5058.764853378661
 21
-337.2597139170693
 31
0.0000000001127424
  0
LINE
  5
B2A5
330
18
100
AcDbEntity
  8
01
100
AcDbLine
 10
5058.764853378661
 20
-337.2597139170693
 30
0.0000000001127424
 11
5058.973166366942
 21
-337.3015373042153
 31
0.0000000001127424
  0
LINE
  5
B2A6
330
18
100
AcDbEntity
  8
01
100
AcDbLine
 10
5058.973166366942
 20
-337.3015373042153
 30
0.0000000001127424
 11
5059.049597641356
 21
-337.3143918803262
 31
0.0000000001127424
  0
LINE
  5
B2A7
330
18
100
AcDbEntity
  8
01
100
AcDbLine
 10
5050.44959153784
 20
-315.721364765458
 30
0.0000000001127424
 11
5050.44959153784
 21
-315.7756135752725
 31
0.0000000001127424
  0
LINE
  5
B2A8
330
18
100
AcDbEntity
  8
01
100
AcDbLine
 10
5050.44959153784
 20
-315.7756135752725
 30
0.0000000001127424
 11
5050.44959153784
 21
-315.9378259470986
 31
0.0000000001127424
  0
LINE
  5
B2A9
330
18
100
AcDbEntity
  8
01
100
AcDbLine
 10
5050.44959153784
 20
-315.9378259470986
 30
0.0000000001127424
 11
5050.44959153784
 21
-316.2064035227822
 31
0.0000000001127424
  0
LINE
  5
B2AA
330
18
100
AcDbEntity
  8
01
100
AcDbLine
 10
5050.44959153784
 20
-316.2064035227822
 30
0.0000000001127424
 11
5050.44959153784
 21
-316.578693180375
 31
0.0000000001127424
  0
LINE
  5
B2AB
330
18
100
AcDbEntity
  8
01
100
AcDbLine
 10
5050.44959153784
 20
-316.578693180375
 30
0.0000000001127424
 11
5050.44959153784
 21
-317.0510232737588
 31
0.0000000001127424
  0
LINE
  5
B2AC
330
18
100
AcDbEntity
  8
01
100
AcDbLine
 10
5050.44959153784
 20
-317.0510232737588
 30
0.0000000001127424
 11
5050.44959153784
 21
-317.7520826151895
 31
0.0000000001127424
  0
LINE
  5
B2AD
330
18
100
AcDbEntity
  8
01
100
AcDbLine
 10
5104.346609970457
 20
-329.8494470408486
 30
0.0000000001127424
 11
5104.25151719702
 21
-330.1438901713418
 31
0.0000000001127424
  0
LINE
  5
B2AE
330
18
100
AcDbEntity
  8
01
100
AcDbLine
 10
5104.25151719702
 20
-330.1438901713418
 30
0.0000000001127424
 11
5104.147269150145
 21
-330.4431417277383
 31
0.0000000001127424
  0
LINE
  5
B2AF
330
18
100
AcDbEntity
  8
01
100
AcDbLine
 10
5104.147269150145
 20
-330.4431417277383
 30
0.0000000001127424
 11
5104.027136703856
 21
-330.7577188303994
 31
0.0000000001127424
  0
LINE
  5
B2B0
330
18
100
AcDbEntity
  8
01
100
AcDbLine
 10
5104.027136703856
 20
-330.7577188303994
 30
0.0000000001127424
 11
5103.803137680418
 21
-331.1340310862588
 31
0.0000000001127424
  0
LINE
  5
B2B1
330
18
100
AcDbEntity
  8
01
100
AcDbLine
 10
5103.803137680418
 20
-331.1340310862588
 30
0.0000000001127424
 11
5103.451315781004
 21
-331.4721067240762
 31
0.0000000001127424
  0
LINE
  5
B2B2
330
18
100
AcDbEntity
  8
01
100
AcDbLine
 10
5103.451315781004
 20
-331.4721067240762
 30
0.0000000001127424
 11
5102.98328294409
 21
-331.7673938563394
 31
0.0000000001127424
  0
LINE
  5
B2B3
330
18
100
AcDbEntity
  8
01
100
AcDbLine
 10
5102.98328294409
 20
-331.7673938563394
 30
0.0000000001127424
 11
5102.391089340575
 21
-332.0427148631143
 31
0.0000000001127424
  0
LINE
  5
B2B4
330
18
100
AcDbEntity
  8
01
100
AcDbLine
 10
5102.391089340575
 20
-332.0427148631143
 30
0.0000000001127424
 11
5101.665869614012
 21
-332.3105495265054
 31
0.0000000001127424
  0
LINE
  5
B2B5
330
18
100
AcDbEntity
  8
01
100
AcDbLine
 10
5101.665869614012
 20
-332.3105495265054
 30
0.0000000001127424
 11
5100.806097885496
 21
-332.5751312068032
 31
0.0000000001127424
  0
LINE
  5
B2B6
330
18
100
AcDbEntity
  8
01
100
AcDbLine
 10
5100.806097885496
 20
-332.5751312068032
 30
0.0000000001127424
 11
5099.813971420653
 21
-332.8377464106607
 31
0.0000000001127424
  0
LINE
  5
B2B7
330
18
100
AcDbEntity
  8
01
100
AcDbLine
 10
5099.813971420653
 20
-332.8377464106607
 30
0.0000000001127424
 11
5098.695288559325
 21
-333.097998409562
 31
0.0000000001127424
  0
LINE
  5
B2B8
330
18
100
AcDbEntity
  8
01
100
AcDbLine
 10
5098.695288559325
 20
-333.097998409562
 30
0.0000000001127424
 11
5095.779676731424
 21
-333.7032955031154
 31
0.0000000001127424
  0
LINE
  5
B2B9
330
18
100
AcDbEntity
  8
01
100
AcDbLine
 10
5095.779676731424
 20
-333.7032955031154
 30
0.0000000001127424
 11
5094.282050033934
 21
-334.1786134532022
 31
0.0000000001127424
  0
LINE
  5
B2BA
330
18
100
AcDbEntity
  8
01
100
AcDbLine
 10
5094.282050033934
 20
-334.1786134532022
 30
0.0000000001127424
 11
5092.498953720457
 21
-334.6224181941079
 31
0.0000000001127424
  0
LINE
  5
B2BB
330
18
100
AcDbEntity
  8
01
100
AcDbLine
 10
5092.498953720457
 20
-334.6224181941079
 30
0.0000000001127424
 11
5090.602118393309
 21
-335.0057113459634
 31
0.0000000001127424
  0
LINE
  5
B2BC
330
18
100
AcDbEntity
  8
01
100
AcDbLine
 10
5090.602118393309
 20
-335.0057113459634
 30
0.0000000001127424
 11
5088.565283676512
 21
-335.3460214427041
 31
0.0000000001127424
  0
LINE
  5
B2BD
330
18
100
AcDbEntity
  8
01
100
AcDbLine
 10
5088.565283676512
 20
-335.3460214427041
 30
0.0000000001127424
 11
5086.38188829077
 21
-335.6496312907266
 31
0.0000000001127424
  0
LINE
  5
B2BE
330
18
100
AcDbEntity
  8
01
100
AcDbLine
 10
5086.38188829077
 20
-335.6496312907266
 30
0.0000000001127424
 11
5084.060294052489
 21
-335.9167249491738
 31
0.0000000001127424
  0
LINE
  5
B2BF
330
18
100
AcDbEntity
  8
01
100
AcDbLine
 10
5084.060294052489
 20
-335.9167249491738
 30
0.0000000001127424
 11
5081.620703598387
 21
-336.1453740885781
 31
0.0000000001127424
  0
LINE
  5
B2C0
330
18
100
AcDbEntity
  8
01
100
AcDbLine
 10
5081.620703598387
 20
-336.1453740885781
 30
0.0000000001127424
 11
5079.09575547827
 21
-336.3339002421426
 31
0.0000000001127424
  0
LINE
  5
B2C1
330
18
100
AcDbEntity
  8
01
100
AcDbLine
 10
5079.09575547827
 20
-336.3339002421426
 30
0.0000000001127424
 11
5076.526465317137
 21
-336.4846484950112
 31
0.0000000001127424
  0
LINE
  5
B2C2
330
18
100
AcDbEntity
  8
01
100
AcDbLine
 10
5076.526465317137
 20
-336.4846484950112
 30
0.0000000001127424
 11
5073.946677109129
 21
-336.61031988173
 31
0.0000000001127424
  0
LINE
  5
B2C3
330
18
100
AcDbEntity
  8
01
100
AcDbLine
 10
5106.399847885496
 20
-325.1066453745889
 30
0.0000000001127424
 11
5106.581396957762
 21
-323.6128957560586
 31
0.0000000001127424
  0
LINE
  5
B2C4
330
18
100
AcDbEntity
  8
01
100
AcDbLine
 10
5106.581396957762
 20
-323.6128957560586
 30
0.0000000001127424
 11
5106.581396957762
 21
-323.6128957560586
 31
0.0000000001127424
  0
LINE
  5
B2C5
330
18
100
AcDbEntity
  8
01
100
AcDbLine
 10
5106.581396957762
 20
-323.6128957560586
 30
0.0000000001127424
 11
5106.534338852293
 21
-322.9080655863809
 31
0.0000000001127424
  0
LINE
  5
B2C6
330
18
100
AcDbEntity
  8
01
100
AcDbLine
 10
5106.534338852293
 20
-322.9080655863809
 30
0.0000000001127424
 11
5106.391943832762
 21
-322.2349756053018
 31
0.0000000001127424
  0
LINE
  5
B2C7
330
18
100
AcDbEntity
  8
01
100
AcDbLine
 10
5106.391943832762
 20
-322.2349756053018
 30
0.0000000001127424
 11
5106.153281113036
 21
-321.5984151652383
 31
0.0000000001127424
  0
LINE
  5
B2C8
330
18
100
AcDbEntity
  8
01
100
AcDbLine
 10
5106.153281113036
 20
-321.5984151652383
 30
0.0000000001127424
 11
5105.725867172606
 21
-320.8673360636758
 31
0.0000000001127424
  0
LINE
  5
B2C9
330
18
100
AcDbEntity
  8
01
100
AcDbLine
 10
5104.306708237059
 20
-329.9510152628945
 30
0.0000000001127424
 11
5104.307776352293
 21
-329.9481065562295
 31
0.0000000001127424
  0
LINE
  5
B2CA
330
18
100
AcDbEntity
  8
01
100
AcDbLine
 10
5106.397147079832
 20
-325.1181924632119
 30
0.0000000001127424
 11
5106.383932968504
 21
-325.1742131999063
 31
0.0000000001127424
  0
LINE
  5
B2CB
330
18
100
AcDbEntity
  8
01
100
AcDbLine
 10
5106.383932968504
 20
-325.1742131999063
 30
0.0000000001127424
 11
5106.370367905028
 21
-325.2304628184365
 31
0.0000000001127424
  0
LINE
  5
B2CC
330
18
100
AcDbEntity
  8
01
100
AcDbLine
 10
5106.370367905028
 20
-325.2304628184365
 30
0.0000000001127424
 11
5106.356482406981
 21
-325.2869603922891
 31
0.0000000001127424
  0
LINE
  5
B2CD
330
18
100
AcDbEntity
  8
01
100
AcDbLine
 10
5106.356482406981
 20
-325.2869603922891
 30
0.0000000001127424
 11
5106.342230697996
 21
-325.3437173655557
 31
0.0000000001127424
  0
LINE
  5
B2CE
330
18
100
AcDbEntity
  8
01
100
AcDbLine
 10
5106.342230697996
 20
-325.3437173655557
 30
0.0000000001127424
 11
5106.327643295653
 21
-325.4007089427041
 31
0.0000000001127424
  0
LINE
  5
B2CF
330
18
100
AcDbEntity
  8
01
100
AcDbLine
 10
5106.327643295653
 20
-325.4007089427041
 30
0.0000000001127424
 11
5106.312735458739
 21
-325.4578874400186
 31
0.0000000001127424
  0
LINE
  5
B2D0
330
18
100
AcDbEntity
  8
01
100
AcDbLine
 10
5106.312735458739
 20
-325.4578874400186
 30
0.0000000001127424
 11
5106.297507187254
 21
-325.5152128031777
 31
0.0000000001127424
  0
LINE
  5
B2D1
330
18
100
AcDbEntity
  8
01
100
AcDbLine
 10
5106.297507187254
 20
-325.5152128031777
 30
0.0000000001127424
 11
5106.281912704832
 21
-325.5728662303018
 31
0.0000000001127424
  0
LINE
  5
B2D2
330
18
100
AcDbEntity
  8
01
100
AcDbLine
 10
5106.281912704832
 20
-325.5728662303018
 30
0.0000000001127424
 11
5106.265829941161
 21
-325.6312444499063
 31
0.0000000001127424
  0
LINE
  5
B2D3
330
18
100
AcDbEntity
  8
01
100
AcDbLine
 10
5106.265829941161
 20
-325.6312444499063
 30
0.0000000001127424
 11
5106.249625107176
 21
-325.6890733531045
 31
0.0000000001127424
  0
LINE
  5
B2D4
330
18
100
AcDbEntity
  8
01
100
AcDbLine
 10
5106.249625107176
 20
-325.6890733531045
 30
0.0000000001127424
 11
5106.232840439207
 21
-325.7479493907022
 31
0.0000000001127424
  0
LINE
  5
B2D5
330
18
100
AcDbEntity
  8
01
100
AcDbLine
 10
5106.232840439207
 20
-325.7479493907022
 30
0.0000000001127424
 11
5106.217368027098
 21
-325.8014829447793
 31
0.0000000001127424
  0
LINE
  5
B2D6
330
18
100
AcDbEntity
  8
01
100
AcDbLine
 10
5106.217368027098
 20
-325.8014829447793
 30
0.0000000001127424
 11
5106.165305038817
 21
-325.971687107377
 31
0.0000000001127424
  0
LINE
  5
B2D7
330
18
100
AcDbEntity
  8
01
100
AcDbLine
 10
5106.165305038817
 20
-325.971687107377
 30
0.0000000001127424
 11
5106.075598617918
 21
-326.2310846140908
 31
0.0000000001127424
  0
LINE
  5
B2D8
330
18
100
AcDbEntity
  8
01
100
AcDbLine
 10
5106.075598617918
 20
-326.2310846140908
 30
0.0000000001127424
 11
5105.966223617918
 21
-326.5110948374795
 31
0.0000000001127424
  0
LINE
  5
B2D9
330
18
100
AcDbEntity
  8
01
100
AcDbLine
 10
5105.966223617918
 20
-326.5110948374795
 30
0.0000000001127424
 11
5105.841330429442
 21
-326.8013589671182
 31
0.0000000001127424
  0
LINE
  5
B2DA
330
18
100
AcDbEntity
  8
01
100
AcDbLine
 10
5105.841330429442
 20
-326.8013589671182
 30
0.0000000001127424
 11
5105.705878158934
 21
-327.0940339854287
 31
0.0000000001127424
  0
LINE
  5
B2DB
330
18
100
AcDbEntity
  8
01
100
AcDbLine
 10
5105.705878158934
 20
-327.0940339854287
 30
0.0000000001127424
 11
5105.563223739989
 21
-327.386497288041
 31
0.0000000001127424
  0
LINE
  5
B2DC
330
18
100
AcDbEntity
  8
01
100
AcDbLine
 10
5105.563223739989
 20
-327.386497288041
 30
0.0000000001127424
 11
5105.415930649168
 21
-327.6779496958779
 31
0.0000000001127424
  0
LINE
  5
B2DD
330
18
100
AcDbEntity
  8
01
100
AcDbLine
 10
5105.415930649168
 20
-327.6779496958779
 30
0.0000000001127424
 11
5105.266119858153
 21
-327.9682672312783
 31
0.0000000001127424
  0
LINE
  5
B2DE
330
18
100
AcDbEntity
  8
01
100
AcDbLine
 10
5105.266119858153
 20
-327.9682672312783
 30
0.0000000001127424
 11
5105.115271469481
 21
-328.2582319071817
 31
0.0000000001127424
  0
LINE
  5
B2DF
330
18
100
AcDbEntity
  8
01
100
AcDbLine
 10
5105.115271469481
 20
-328.2582319071817
 30
0.0000000001127424
 11
5104.964941879637
 21
-328.5483129313516
 31
0.0000000001127424
  0
LINE
  5
B2E0
330
18
100
AcDbEntity
  8
01
100
AcDbLine
 10
5104.964941879637
 20
-328.5483129313516
 30
0.0000000001127424
 11
5104.816840072996
 21
-328.8386552622842
 31
0.0000000001127424
  0
LINE
  5
B2E1
330
18
100
AcDbEntity
  8
01
100
AcDbLine
 10
5104.816840072996
 20
-328.8386552622842
 30
0.0000000001127424
 11
5104.674796005614
 21
-329.1250150492715
 31
0.0000000001127424
  0
LINE
  5
B2E2
330
18
100
AcDbEntity
  8
01
100
AcDbLine
 10
5104.674796005614
 20
-329.1250150492715
 30
0.0000000001127424
 11
5104.547369858153
 21
-329.3923719218301
 31
0.0000000001127424
  0
LINE
  5
B2E3
330
18
100
AcDbEntity
  8
01
100
AcDbLine
 10
5104.547369858153
 20
-329.3923719218301
 30
0.0000000001127424
 11
5104.447272201903
 21
-329.6128194621133
 31
0.0000000001127424
  0
LINE
  5
B2E4
330
18
100
AcDbEntity
  8
01
100
AcDbLine
 10
5104.447272201903
 20
-329.6128194621133
 30
0.0000000001127424
 11
5104.38530625952
 21
-329.7560632517861
 31
0.0000000001127424
  0
LINE
  5
B2E5
330
18
100
AcDbEntity
  8
01
100
AcDbLine
 10
5104.38530625952
 20
-329.7560632517861
 30
0.0000000001127424
 11
5104.349692245848
 21
-329.8418653300332
 31
0.0000000001127424
  0
LINE
  5
B2E6
330
18
100
AcDbEntity
  8
01
100
AcDbLine
 10
5104.349692245848
 20
-329.8418653300332
 30
0.0000000001127424
 11
5104.326636215575
 21
-329.8992784312295
 31
0.0000000001127424
  0
LINE
  5
B2E7
330
18
100
AcDbEntity
  8
01
100
AcDbLine
 10
5104.326636215575
 20
-329.8992784312295
 30
0.0000000001127424
 11
5104.314810654051
 21
-329.929637699418
 31
0.0000000001127424
  0
LINE
  5
B2E8
330
18
100
AcDbEntity
  8
01
100
AcDbLine
 10
5104.314810654051
 20
-329.929637699418
 30
0.0000000001127424
 11
5104.308524032957
 21
-329.9461362650918
 31
0.0000000001127424
  0
LINE
  5
B2E9
330
18
100
AcDbEntity
  8
01
100
AcDbLine
 10
5104.308524032957
 20
-329.9461362650918
 30
0.0000000001127424
 11
5104.306708237059
 21
-329.9510152628945
 31
0.0000000001127424
  0
LINE
  5
B2EA
330
18
100
AcDbEntity
  8
01
100
AcDbLine
 10
5073.95252122534
 20
-316.8322789958047
 30
0.0000000001127424
 11
5075.01128282202
 21
-316.8828046610879
 31
0.0000000001127424
  0
LINE
  5
B2EB
330
18
100
AcDbEntity
  8
01
100
AcDbLine
 10
5075.01128282202
 20
-316.8828046610879
 30
0.0000000001127424
 11
5076.069907089598
 21
-316.9324262431192
 31
0.0000000001127424
  0
LINE
  5
B2EC
330
18
100
AcDbEntity
  8
01
100
AcDbLine
 10
5076.069907089598
 20
-316.9324262431192
 30
0.0000000001127424
 11
5077.127539535887
 21
-316.9784963419961
 31
0.0000000001127424
  0
LINE
  5
B2ED
330
18
100
AcDbEntity
  8
01
100
AcDbLine
 10
5077.127539535887
 20
-316.9784963419961
 30
0.0000000001127424
 11
5078.181219955809
 21
-317.0191018870401
 31
0.0000000001127424
  0
LINE
  5
B2EE
330
18
100
AcDbEntity
  8
01
100
AcDbLine
 10
5078.181219955809
 20
-317.0191018870401
 30
0.0000000001127424
 11
5079.226660629637
 21
-317.0528867533731
 31
0.0000000001127424
  0
LINE
  5
B2EF
330
18
100
AcDbEntity
  8
01
100
AcDbLine
 10
5079.226660629637
 20
-317.0528867533731
 30
0.0000000001127424
 11
5080.258246322996
 21
-317.0791662028359
 31
0.0000000001127424
  0
LINE
  5
B2F0
330
18
100
AcDbEntity
  8
01
100
AcDbLine
 10
5080.258246322996
 20
-317.0791662028359
 30
0.0000000001127424
 11
5081.270117660887
 21
-317.0976712992715
 31
0.0000000001127424
  0
LINE
  5
B2F1
330
18
100
AcDbEntity
  8
01
100
AcDbLine
 10
5081.270117660887
 20
-317.0976712992715
 30
0.0000000001127424
 11
5082.256903549559
 21
-317.1085241129922
 31
0.0000000001127424
  0
LINE
  5
B2F2
330
18
100
AcDbEntity
  8
01
100
AcDbLine
 10
5082.256903549559
 20
-317.1085241129922
 30
0.0000000001127424
 11
5083.214529892332
 21
-317.1121385386514
 31
0.0000000001127424
  0
LINE
  5
B2F3
330
18
100
AcDbEntity
  8
01
100
AcDbLine
 10
5083.214529892332
 20
-317.1121385386514
 30
0.0000000001127424
 11
5084.139075180418
 21
-317.1089742472695
 31
0.0000000001127424
  0
LINE
  5
B2F4
330
18
100
AcDbEntity
  8
01
100
AcDbLine
 10
5084.139075180418
 20
-317.1089742472695
 30
0.0000000001127424
 11
5085.026801010496
 21
-317.0995080760049
 31
0.0000000001127424
  0
LINE
  5
B2F5
330
18
100
AcDbEntity
  8
01
100
AcDbLine
 10
5085.026801010496
 20
-317.0995080760049
 30
0.0000000001127424
 11
5085.874609848387
 21
-317.0842740824746
 31
0.0000000001127424
  0
LINE
  5
B2F6
330
18
100
AcDbEntity
  8
01
100
AcDbLine
 10
5085.874609848387
 20
-317.0842740824746
 30
0.0000000001127424
 11
5086.679495712645
 21
-317.0638139536904
 31
0.0000000001127424
  0
LINE
  5
B2F7
330
18
100
AcDbEntity
  8
01
100
AcDbLine
 10
5086.679495712645
 20
-317.0638139536904
 30
0.0000000001127424
 11
5087.438071152098
 21
-317.0386712840127
 31
0.0000000001127424
  0
LINE
  5
B2F8
330
18
100
AcDbEntity
  8
01
100
AcDbLine
 10
5087.438071152098
 20
-317.0386712840127
 30
0.0000000001127424
 11
5088.146414657957
 21
-317.0093839457559
 31
0.0000000001127424
  0
LINE
  5
B2F9
330
18
100
AcDbEntity
  8
01
100
AcDbLine
 10
5088.146414657957
 20
-317.0093839457559
 30
0.0000000001127424
 11
5088.799643417723
 21
-316.9765813639688
 31
0.0000000001127424
  0
LINE
  5
B2FA
330
18
100
AcDbEntity
  8
01
100
AcDbLine
 10
5088.799643417723
 20
-316.9765813639688
 30
0.0000000001127424
 11
5089.391699692137
 21
-316.9410264781045
 31
0.0000000001127424
  0
LINE
  5
B2FB
330
18
100
AcDbEntity
  8
01
100
AcDbLine
 10
5089.391699692137
 20
-316.9410264781045
 30
0.0000000001127424
 11
5089.914526840575
 21
-316.9037702372598
 31
0.0000000001127424
  0
LINE
  5
B2FC
330
18
100
AcDbEntity
  8
01
100
AcDbLine
 10
5089.914526840575
 20
-316.9037702372598
 30
0.0000000001127424
 11
5090.357321640379
 21
-316.8663976481484
 31
0.0000000001127424
  0
LINE
  5
B2FD
330
18
100
AcDbEntity
  8
01
100
AcDbLine
 10
5090.357321640379
 20
-316.8663976481484
 30
0.0000000001127424
 11
5090.705038925536
 21
-316.8314969828652
 31
0.0000000001127424
  0
LINE
  5
B2FE
330
18
100
AcDbEntity
  8
01
100
AcDbLine
 10
5090.705038925536
 20
-316.8314969828652
 30
0.0000000001127424
 11
5090.936606308348
 21
-316.8036878397988
 31
0.0000000001127424
  0
LINE
  5
B2FF
330
18
100
AcDbEntity
  8
01
100
AcDbLine
 10
5090.936606308348
 20
-316.8036878397988
 30
0.0000000001127424
 11
5091.022726913817
 21
-316.7913205912637
 31
0.0000000001127424
  0
LINE
  5
B300
330
18
100
AcDbEntity
  8
01
100
AcDbLine
 10
5097.754568954832
 20
-315.1665933421182
 30
0.0000000001127424
 11
5097.039160629637
 21
-314.9788987925576
 31
0.0000000001127424
  0
LINE
  5
B301
330
18
100
AcDbEntity
  8
01
100
AcDbLine
 10
5097.039160629637
 20
-314.9788987925576
 30
0.0000000001127424
 11
5096.404684921629
 21
-314.8570001414346
 31
0.0000000001127424
  0
LINE
  5
B302
330
18
100
AcDbEntity
  8
01
100
AcDbLine
 10
5096.404684921629
 20
-314.8570001414346
 30
0.0000000001127424
 11
5095.84168138159
 21
-314.781724720292
 31
0.0000000001127424
  0
LINE
  5
B303
330
18
100
AcDbEntity
  8
01
100
AcDbLine
 10
5095.84168138159
 20
-314.781724720292
 30
0.0000000001127424
 11
5095.344321152098
 21
-314.739618091874
 31
0.0000000001127424
  0
LINE
  5
B304
330
18
100
AcDbEntity
  8
01
100
AcDbLine
 10
5095.344321152098
 20
-314.739618091874
 30
0.0000000001127424
 11
5094.901953598387
 21
-314.7204759409951
 31
0.0000000001127424
  0
LINE
  5
B305
330
18
100
AcDbEntity
  8
01
100
AcDbLine
 10
5094.901953598387
 20
-314.7204759409951
 30
0.0000000001127424
 11
5094.50347032202
 21
-314.7171304514932
 31
0.0000000001127424
  0
LINE
  5
B306
330
18
100
AcDbEntity
  8
01
100
AcDbLine
 10
5094.50347032202
 20
-314.7171304514932
 30
0.0000000001127424
 11
5094.141363998778
 21
-314.7251336863565
 31
0.0000000001127424
  0
LINE
  5
B307
330
18
100
AcDbEntity
  8
01
100
AcDbLine
 10
5094.141363998778
 20
-314.7251336863565
 30
0.0000000001127424
 11
5093.808020492918
 21
-314.7415216258096
 31
0.0000000001127424
  0
LINE
  5
B308
330
18
100
AcDbEntity
  8
01
100
AcDbLine
 10
5093.808020492918
 20
-314.7415216258096
 30
0.0000000001127424
 11
5093.497015854246
 21
-314.7637613108682
 31
0.0000000001127424
  0
LINE
  5
B309
330
18
100
AcDbEntity
  8
01
100
AcDbLine
 10
5093.497015854246
 20
-314.7637613108682
 30
0.0000000001127424
 11
5093.204947372801
 21
-314.7905557444619
 31
0.0000000001127424
  0
LINE
  5
B30A
330
18
100
AcDbEntity
  8
01
100
AcDbLine
 10
5093.204947372801
 20
-314.7905557444619
 30
0.0000000001127424
 11
5092.926825424559
 21
-314.8210351756143
 31
0.0000000001127424
  0
LINE
  5
B30B
330
18
100
AcDbEntity
  8
01
100
AcDbLine
 10
5092.926825424559
 20
-314.8210351756143
 30
0.0000000001127424
 11
5092.659140488036
 21
-314.8546350291299
 31
0.0000000001127424
  0
LINE
  5
B30C
330
18
100
AcDbEntity
  8
01
100
AcDbLine
 10
5092.659140488036
 20
-314.8546350291299
 30
0.0000000001127424
 11
5092.399527450926
 21
-314.8909280589151
 31
0.0000000001127424
  0
LINE
  5
B30D
330
18
100
AcDbEntity
  8
01
100
AcDbLine
 10
5092.399527450926
 20
-314.8909280589151
 30
0.0000000001127424
 11
5092.145850082762
 21
-314.9296052744912
 31
0.0000000001127424
  0
LINE
  5
B30E
330
18
100
AcDbEntity
  8
01
100
AcDbLine
 10
5092.145850082762
 20
-314.9296052744912
 30
0.0000000001127424
 11
5091.896384140379
 21
-314.9705484202432
 31
0.0000000001127424
  0
LINE
  5
B30F
330
18
100
AcDbEntity
  8
01
100
AcDbLine
 10
5091.896384140379
 20
-314.9705484202432
 30
0.0000000001127424
 11
5091.649405380614
 21
-315.0136659434365
 31
0.0000000001127424
  0
LINE
  5
B310
330
18
100
AcDbEntity
  8
01
100
AcDbLine
 10
5091.649405380614
 20
-315.0136659434365
 30
0.0000000001127424
 11
5091.403494736082
 21
-315.0588968089151
 31
0.0000000001127424
  0
LINE
  5
B311
330
18
100
AcDbEntity
  8
01
100
AcDbLine
 10
5091.403494736082
 20
-315.0588968089151
 30
0.0000000001127424
 11
5091.157507797606
 21
-315.1062333872842
 31
0.0000000001127424
  0
LINE
  5
B312
330
18
100
AcDbEntity
  8
01
100
AcDbLine
 10
5091.157507797606
 20
-315.1062333872842
 30
0.0000000001127424
 11
5090.910468002684
 21
-315.155675678544
 31
0.0000000001127424
  0
LINE
  5
B313
330
18
100
AcDbEntity
  8
01
100
AcDbLine
 10
5090.910468002684
 20
-315.155675678544
 30
0.0000000001127424
 11
5090.661612411864
 21
-315.207261829667
 31
0.0000000001127424
  0
LINE
  5
B314
330
18
100
AcDbEntity
  8
01
100
AcDbLine
 10
5090.661612411864
 20
-315.207261829667
 30
0.0000000001127424
 11
5090.410193344481
 21
-315.2610261729287
 31
0.0000000001127424
  0
LINE
  5
B315
330
18
100
AcDbEntity
  8
01
100
AcDbLine
 10
5090.410193344481
 20
-315.2610261729287
 30
0.0000000001127424
 11
5090.15549363745
 21
-315.3170068553018
 31
0.0000000001127424
  0
LINE
  5
B316
330
18
100
AcDbEntity
  8
01
100
AcDbLine
 10
5090.15549363745
 20
-315.3170068553018
 30
0.0000000001127424
 11
5089.896765610106
 21
-315.3752343943643
 31
0.0000000001127424
  0
LINE
  5
B317
330
18
100
AcDbEntity
  8
01
100
AcDbLine
 10
5089.896765610106
 20
-315.3752343943643
 30
0.0000000001127424
 11
5089.633307358153
 21
-315.4357545664834
 31
0.0000000001127424
  0
LINE
  5
B318
330
18
100
AcDbEntity
  8
01
100
AcDbLine
 10
5089.633307358153
 20
-315.4357545664834
 30
0.0000000001127424
 11
5089.364600082762
 21
-315.4986169627236
 31
0.0000000001127424
  0
LINE
  5
B319
330
18
100
AcDbEntity
  8
01
100
AcDbLine
 10
5089.364600082762
 20
-315.4986169627236
 30
0.0000000001127424
 11
5089.090155502684
 21
-315.5638635447549
 31
0.0000000001127424
  0
LINE
  5
B31A
330
18
100
AcDbEntity
  8
01
100
AcDbLine
 10
5089.090155502684
 20
-315.5638635447549
 30
0.0000000001127424
 11
5088.809409042723
 21
-315.6315496256875
 31
0.0000000001127424
  0
LINE
  5
B31B
330
18
100
AcDbEntity
  8
01
100
AcDbLine
 10
5088.809409042723
 20
-315.6315496256875
 30
0.0000000001127424
 11
5088.521780868895
 21
-315.7017133524942
 31
0.0000000001127424
  0
LINE
  5
B31C
330
18
100
AcDbEntity
  8
01
100
AcDbLine
 10
5088.521780868895
 20
-315.7017133524942
 30
0.0000000001127424
 11
5088.226721664793
 21
-315.7743871501016
 31
0.0000000001127424
  0
LINE
  5
B31D
330
18
100
AcDbEntity
  8
01
100
AcDbLine
 10
5088.226721664793
 20
-315.7743871501016
 30
0.0000000001127424
 11
5087.92371263159
 21
-315.8496072581338
 31
0.0000000001127424
  0
LINE
  5
B31E
330
18
100
AcDbEntity
  8
01
100
AcDbLine
 10
5087.92371263159
 20
-315.8496072581338
 30
0.0000000001127424
 11
5087.6120366062
 21
-315.9274175456094
 31
0.0000000001127424
  0
LINE
  5
B31F
330
18
100
AcDbEntity
  8
01
100
AcDbLine
 10
5087.6120366062
 20
-315.9274175456094
 30
0.0000000001127424
 11
5087.291312118895
 21
-316.0077855876016
 31
0.0000000001127424
  0
LINE
  5
B320
330
18
100
AcDbEntity
  8
01
100
AcDbLine
 10
5087.291312118895
 20
-316.0077855876016
 30
0.0000000001127424
 11
5086.956839462645
 21
-316.0917146494912
 31
0.0000000001127424
  0
LINE
  5
B321
330
18
100
AcDbEntity
  8
01
  6
BYBLOCK
100
AcDbLine
 10
5155.752928345165
 20
-304.3213771094985
 30
0.0000000001127424
 11
5156.449596239165
 21
-301.7213771094985
 31
0.0000000001127424
  0
LINE
  5
B322
330
18
100
AcDbEntity
  8
01
  6
BYBLOCK
100
AcDbLine
 10
5156.449596239165
 20
-301.7213771094985
 30
0.0000000001127424
 11
5157.146264133165
 21
-304.3213771094985
 31
0.0000000001127424
  0
LINE
  5
B323
330
18
100
AcDbEntity
  8
01
  6
BYBLOCK
100
AcDbLine
 10
5156.449596239165
 20
-301.7213771094985
 30
0.0000000001127424
 11
5156.449596239165
 21
-304.3213771094985
 31
0.0000000001127424
  0
LINE
  5
B324
330
18
100
AcDbEntity
  8
01
  6
BYBLOCK
100
AcDbLine
 10
5157.146264133165
 20
-349.1213771094975
 30
0.0000000001127424
 11
5156.449596239165
 21
-351.7213771094976
 31
0.0000000001127424
  0
LINE
  5
B325
330
18
100
AcDbEntity
  8
01
  6
BYBLOCK
100
AcDbLine
 10
5156.449596239165
 20
-351.7213771094976
 30
0.0000000001127424
 11
5155.752928345165
 21
-349.1213771094975
 31
0.0000000001127424
  0
LINE
  5
B326
330
18
100
AcDbEntity
  8
01
  6
BYBLOCK
100
AcDbLine
 10
5156.449596239165
 20
-351.7213771094976
 30
0.0000000001127424
 11
5156.449596239165
 21
-349.1213771094975
 31
0.0000000001127424
  0
TEXT
  5
B327
330
18
100
AcDbEntity
  8
01
  6
CONTINUOUS
100
AcDbText
 10
5155.539596239165
 20
-334.9208800160977
 30
0.0000000001127424
 40
4.55
  1
φ50
 50
90.0
100
AcDbText
1001
ACAD
1000
DSTYLE
1002
{
1070
     3
1000
φ<>
1070
    40
1040
1.3
1070
    45
1040
0.5
1002
}
  0
LINE
  5
B328
330
18
100
AcDbEntity
  8
1DIM
100
AcDbLine
 10
5191.449596239165
 20
-188.2226954226012
 30
0.0000000001127424
 11
5191.449596239165
 21
-253.0226954226012
 31
0.0000000001127424
1001
ACAD
1000
DSTYLE
1002
{
1070
    40
1040
1.3
1070
    45
1040
0.5
1002
}
  0
LINE
  5
B329
330
18
100
AcDbEntity
  8
1DIM
100
AcDbLine
 10
5322.310909868724
 20
-221.5500286457559
 30
0.0000000001127424
 11
5322.310909868724
 21
-253.0226954226012
 31
0.0000000001127424
1001
ACAD
1000
DSTYLE
1002
{
1070
    40
1040
1.3
1070
    45
1040
0.5
1002
}
  0
LINE
  5
B32A
330
18
100
AcDbEntity
  8
1DIM
100
AcDbLine
 10
5194.049596239165
 20
-251.7226954226012
 30
0.0000000001127424
 11
5319.710909868723
 21
-251.7226954226012
 31
0.0000000001127424
1001
ACAD
1000
DSTYLE
1002
{
1070
    40
1040
1.3
1070
    45
1040
0.5
1002
}
  0
LINE
  5
B32E
330
18
100
AcDbEntity
  8
1DIM
100
AcDbLine
 10
5176.989795905147
 20
-175.7226971107543
 30
0.0000000001127424
 11
5176.989795905147
 21
-263.0226954226012
 31
0.0000000001127424
1001
ACAD
1000
DSTYLE
1002
{
1070
    40
1040
1.3
1070
    45
1040
0.5
1002
}
  0
LINE
  5
B32F
330
18
100
AcDbEntity
  8
1DIM
100
AcDbLine
 10
5322.310909868724
 20
-221.5500286457559
 30
0.0000000001127424
 11
5322.310909868724
 21
-263.0226954226012
 31
0.0000000001127424
1001
ACAD
1000
DSTYLE
1002
{
1070
    40
1040
1.3
1070
    45
1040
0.5
1002
}
  0
LINE
  5
B330
330
18
100
AcDbEntity
  8
1DIM
100
AcDbLine
 10
5179.589795905147
 20
-261.7226954226012
 30
0.0000000001127424
 11
5319.710909868723
 21
-261.7226954226012
 31
0.0000000001127424
1001
ACAD
1000
DSTYLE
1002
{
1070
    40
1040
1.3
1070
    45
1040
0.5
1002
}
  0
LINE
  5
B334
330
18
100
AcDbEntity
  8
1DIM
100
AcDbLine
 10
5319.070342644804
 20
-208.0862483774295
 30
0.0000000001127424
 11
5347.749596239165
 21
-208.0862483774295
 31
0.0000000001127424
1001
ACAD
1000
DSTYLE
1002
{
1070
    40
1040
1.3
1070
    45
1040
0.5
1002
}
  0
LINE
  5
B335
330
18
100
AcDbEntity
  8
1DIM
100
AcDbLine
 10
5294.204744236513
 20
-166.7226954226012
 30
0.0000000001127424
 11
5347.749596239165
 21
-166.7226954226012
 31
0.0000000001127424
1001
ACAD
1000
DSTYLE
1002
{
1070
    40
1040
1.3
1070
    45
1040
0.5
1002
}
  0
LINE
  5
B336
330
18
100
AcDbEntity
  8
1DIM
100
AcDbLine
 10
5346.449596239165
 20
-205.4862483774295
 30
0.0000000001127424
 11
5346.449596239165
 21
-169.3226954226012
 31
0.0000000001127424
1001
ACAD
1000
DSTYLE
1002
{
1070
    40
1040
1.3
1070
    45
1040
0.5
1002
}
  0
LINE
  5
B33A
330
18
100
AcDbEntity
  8
1DIM
100
AcDbLine
 10
5228.318607861856
 20
-231.85089971773
 30
0.0000000001127424
 11
5357.749596239165
 21
-231.8508997177301
 31
0.0000000001127424
1001
ACAD
1000
DSTYLE
1002
{
1070
    40
1040
1.3
1070
    45
1040
0.5
1002
}
  0
LINE
  5
B33B
330
18
100
AcDbEntity
  8
1DIM
100
AcDbLine
 10
5294.204744236513
 20
-166.7226954226012
 30
0.0000000001127424
 11
5357.749596239165
 21
-166.7226954226012
 31
0.0000000001127424
1001
ACAD
1000
DSTYLE
1002
{
1070
    40
1040
1.3
1070
    45
1040
0.5
1002
}
  0
LINE
  5
B33C
330
18
100
AcDbEntity
  8
1DIM
100
AcDbLine
 10
5356.449596239165
 20
-229.2508997177301
 30
0.0000000001127424
 11
5356.449596239165
 21
-169.3226954226012
 31
0.0000000001127424
1001
ACAD
1000
DSTYLE
1002
{
1070
    40
1040
1.3
1070
    45
1040
0.5
1002
}
  0
LINE
  5
B340
330
18
100
AcDbEntity
  8
1DIM
100
AcDbLine
 10
5318.557904808234
 20
-321.8869085066649
 30
0.0000000001127424
 11
5347.749596239165
 21
-321.8869085066649
 31
0.0000000001127424
1001
ACAD
1000
DSTYLE
1002
{
1070
    40
1040
1.3
1070
    45
1040
0.5
1002
}
  0
LINE
  5
B341
330
18
100
AcDbEntity
  8
1DIM
100
AcDbLine
 10
5271.716596214484
 20
-314.717001890454
 30
0.0000000001127424
 11
5347.749596239165
 21
-314.717001890454
 31
0.0000000001127424
1001
ACAD
1000
DSTYLE
1002
{
1070
    40
1040
1.3
1070
    45
1040
0.5
1002
}
  0
LINE
  5
B342
330
18
100
AcDbEntity
  8
1DIM
100
AcDbLine
 10
5346.449596239165
 20
-319.2869085066649
 30
0.0000000001127424
 11
5346.449596239165
 21
-317.317001890454
 31
0.0000000001127424
1001
ACAD
1000
DSTYLE
1002
{
1070
    40
1040
1.3
1070
    45
1040
0.5
1002
}
  0
LINE
  5
B346
330
18
100
AcDbEntity
  8
1DIM
100
AcDbLine
 10
5178.08522567005
 20
-330.2596273177001
 30
0.0000000001127424
 11
5178.176210014532
 21
-330.1752462141844
 31
0.0000000001127424
  0
LINE
  5
B347
330
18
100
AcDbEntity
  8
1DIM
100
AcDbLine
 10
5178.176210014532
 20
-330.1752462141844
 30
0.0000000001127424
 11
5178.345616905402
 21
-330.0512113325926
 31
0.0000000001127424
  0
LINE
  5
B348
330
18
100
AcDbEntity
  8
1DIM
100
AcDbLine
 10
5178.345616905402
 20
-330.0512113325926
 30
0.0000000001127424
 11
5178.645459739874
 21
-329.9049253218504
 31
0.0000000001127424
  0
LINE
  5
B349
330
18
100
AcDbEntity
  8
1DIM
100
AcDbLine
 10
5178.645459739874
 20
-329.9049253218504
 30
0.0000000001127424
 11
5179.09405669422
 21
-329.7420110457274
 31
0.0000000001127424
  0
LINE
  5
B34A
330
18
100
AcDbEntity
  8
1DIM
100
AcDbLine
 10
5179.09405669422
 20
-329.7420110457274
 30
0.0000000001127424
 11
5179.697599022101
 21
-329.5655622237059
 31
0.0000000001127424
  0
LINE
  5
B34B
330
18
100
AcDbEntity
  8
1DIM
100
AcDbLine
 10
5179.697599022101
 20
-329.5655622237059
 30
0.0000000001127424
 11
5180.456006614874
 21
-329.3776807539793
 31
0.0000000001127424
  0
LINE
  5
B34C
330
18
100
AcDbEntity
  8
1DIM
100
AcDbLine
 10
5180.456006614874
 20
-329.3776807539793
 30
0.0000000001127424
 11
5181.36484297962
 21
-329.1799611800047
 31
0.0000000001127424
  0
LINE
  5
B34D
330
18
100
AcDbEntity
  8
1DIM
100
AcDbLine
 10
5181.36484297962
 20
-329.1799611800047
 30
0.0000000001127424
 11
5182.418111412238
 21
-328.9737920515868
 31
0.0000000001127424
  0
LINE
  5
B34E
330
18
100
AcDbEntity
  8
1DIM
100
AcDbLine
 10
5182.418111412238
 20
-328.9737920515868
 30
0.0000000001127424
 11
5183.6081748888
 21
-328.7601308577391
 31
0.0000000001127424
  0
LINE
  5
B34F
330
18
100
AcDbEntity
  8
1DIM
100
AcDbLine
 10
5183.6081748888
 20
-328.7601308577391
 30
0.0000000001127424
 11
5184.926816551398
 21
-328.5397824995848
 31
0.0000000001127424
  0
LINE
  5
B350
330
18
100
AcDbEntity
  8
1DIM
100
AcDbLine
 10
5184.926816551398
 20
-328.5397824995848
 30
0.0000000001127424
 11
5186.366109459113
 21
-328.3135404341551
 31
0.0000000001127424
  0
LINE
  5
B351
330
18
100
AcDbEntity
  8
1DIM
100
AcDbLine
 10
5186.366109459113
 20
-328.3135404341551
 30
0.0000000001127424
 11
5187.918340294073
 21
-328.0822057478758
 31
0.0000000001127424
  0
LINE
  5
B352
330
18
100
AcDbEntity
  8
1DIM
100
AcDbLine
 10
5187.918340294073
 20
-328.0822057478758
 30
0.0000000001127424
 11
5189.575826255988
 21
-327.8465795271727
 31
0.0000000001127424
  0
LINE
  5
B353
330
18
100
AcDbEntity
  8
1DIM
100
AcDbLine
 10
5189.575826255988
 20
-327.8465795271727
 30
0.0000000001127424
 11
5191.331052391241
 21
-327.607699369702
 31
0.0000000001127424
  0
LINE
  5
B354
330
18
100
AcDbEntity
  8
1DIM
100
AcDbLine
 10
5191.331052391241
 20
-327.607699369702
 30
0.0000000001127424
 11
5193.176633445929
 21
-327.3667745344969
 31
0.0000000001127424
  0
LINE
  5
B355
330
18
100
AcDbEntity
  8
1DIM
100
AcDbLine
 10
5193.176633445929
 20
-327.3667745344969
 30
0.0000000001127424
 11
5195.105146019171
 21
-327.1250257246825
 31
0.0000000001127424
  0
LINE
  5
B356
330
18
100
AcDbEntity
  8
1DIM
100
AcDbLine
 10
5195.105146019171
 20
-327.1250257246825
 30
0.0000000001127424
 11
5197.107961265753
 21
-326.8837880843016
 31
0.0000000001127424
  0
LINE
  5
B357
330
18
100
AcDbEntity
  8
1DIM
100
AcDbLine
 10
5197.107961265753
 20
-326.8837880843016
 30
0.0000000001127424
 11
5199.175061790655
 21
-326.6444844954344
 31
0.0000000001127424
  0
LINE
  5
B358
330
18
100
AcDbEntity
  8
1DIM
100
AcDbLine
 10
5199.175061790655
 20
-326.6444844954344
 30
0.0000000001127424
 11
5201.295392601202
 21
-326.4082441084715
 31
0.0000000001127424
  0
LINE
  5
B359
330
18
100
AcDbEntity
  8
1DIM
100
AcDbLine
 10
5201.295392601202
 20
-326.4082441084715
 30
0.0000000001127424
 11
5203.456266014288
 21
-326.1752462141844
 31
0.0000000001127424
  0
LINE
  5
B35A
330
18
100
AcDbEntity
  8
1DIM
100
AcDbLine
 10
5203.456266014288
 20
-326.1752462141844
 30
0.0000000001127424
 11
5205.643811790655
 21
-325.944670652661
 31
0.0000000001127424
  0
LINE
  5
B35B
330
18
100
AcDbEntity
  8
1DIM
100
AcDbLine
 10
5205.643811790655
 20
-325.944670652661
 30
0.0000000001127424
 11
5207.842443077277
 21
-325.7115697615477
 31
0.0000000001127424
  0
LINE
  5
B35C
330
18
100
AcDbEntity
  8
1DIM
100
AcDbLine
 10
5207.842443077277
 20
-325.7115697615477
 30
0.0000000001127424
 11
5210.029630272101
 21
-325.4662961714598
 31
0.0000000001127424
  0
LINE
  5
B35D
330
18
100
AcDbEntity
  8
1DIM
100
AcDbLine
 10
5210.029630272101
 20
-325.4662961714598
 30
0.0000000001127424
 11
5212.207898704718
 21
-325.222933744702
 31
0.0000000001127424
  0
LINE
  5
B35E
330
18
100
AcDbEntity
  8
1DIM
100
AcDbLine
 10
5212.207898704718
 20
-325.222933744702
 30
0.0000000001127424
 11
5214.386769859503
 21
-324.9833097212645
 31
0.0000000001127424
  0
LINE
  5
B35F
330
18
100
AcDbEntity
  8
1DIM
100
AcDbLine
 10
5214.386769859503
 20
-324.9833097212645
 30
0.0000000001127424
 11
5216.56626662464
 21
-324.7474241011473
 31
0.0000000001127424
  0
LINE
  5
B360
330
18
100
AcDbEntity
  8
1DIM
100
AcDbLine
 10
5216.56626662464
 20
-324.7474241011473
 30
0.0000000001127424
 11
5218.746335594366
 21
-324.5152806990477
 31
0.0000000001127424
  0
LINE
  5
B361
330
18
100
AcDbEntity
  8
1DIM
100
AcDbLine
 10
5218.746335594366
 20
-324.5152806990477
 30
0.0000000001127424
 11
5220.92693862171
 21
-324.286898588452
 31
0.0000000001127424
  0
LINE
  5
B362
330
18
100
AcDbEntity
  8
1DIM
100
AcDbLine
 10
5220.92693862171
 20
-324.286898588452
 30
0.0000000001127424
 11
5223.108029930304
 21
-324.0622777693602
 31
0.0000000001127424
  0
LINE
  5
B363
330
18
100
AcDbEntity
  8
1DIM
100
AcDbLine
 10
5223.108029930304
 20
-324.0622777693602
 30
0.0000000001127424
 11
5225.289571373175
 21
-323.8414373152586
 31
0.0000000001127424
  0
LINE
  5
B364
330
18
100
AcDbEntity
  8
1DIM
100
AcDbLine
 10
5225.289571373175
 20
-323.8414373152586
 30
0.0000000001127424
 11
5227.471509544562
 21
-323.6243810408446
 31
0.0000000001127424
  0
LINE
  5
B365
330
18
100
AcDbEntity
  8
1DIM
100
AcDbLine
 10
5227.471509544562
 20
-323.6243810408446
 30
0.0000000001127424
 11
5229.653806297491
 21
-323.4111242049071
 31
0.0000000001127424
  0
LINE
  5
B366
330
18
100
AcDbEntity
  8
1DIM
100
AcDbLine
 10
5229.653806297491
 20
-323.4111242049071
 30
0.0000000001127424
 11
5231.836408226202
 21
-323.2016820662352
 31
0.0000000001127424
  0
LINE
  5
B367
330
18
100
AcDbEntity
  8
1DIM
100
AcDbLine
 10
5231.836408226202
 20
-323.2016820662352
 30
0.0000000001127424
 11
5234.019277183722
 21
-322.9960622542235
 31
0.0000000001127424
  0
LINE
  5
B368
330
18
100
AcDbEntity
  8
1DIM
100
AcDbLine
 10
5234.019277183722
 20
-322.9960622542235
 30
0.0000000001127424
 11
5236.202375023077
 21
-322.7942723982665
 31
0.0000000001127424
  0
LINE
  5
B369
330
18
100
AcDbEntity
  8
1DIM
100
AcDbLine
 10
5236.202375023077
 20
-322.7942723982665
 30
0.0000000001127424
 11
5238.385640709113
 21
-322.5963277571532
 31
0.0000000001127424
  0
LINE
  5
B36A
330
18
100
AcDbEntity
  8
1DIM
100
AcDbLine
 10
5238.385640709113
 20
-322.5963277571532
 30
0.0000000001127424
 11
5240.569036094855
 21
-322.4022283308836
 31
0.0000000001127424
  0
LINE
  5
B36B
330
18
100
AcDbEntity
  8
1DIM
100
AcDbLine
 10
5240.569036094855
 20
-322.4022283308836
 30
0.0000000001127424
 11
5242.752523033331
 21
-322.2119817488524
 31
0.0000000001127424
  0
LINE
  5
B36C
330
18
100
AcDbEntity
  8
1DIM
100
AcDbLine
 10
5242.752523033331
 20
-322.2119817488524
 30
0.0000000001127424
 11
5244.936040489386
 21
-322.025595640454
 31
0.0000000001127424
  0
LINE
  5
B36D
330
18
100
AcDbEntity
  8
1DIM
100
AcDbLine
 10
5244.936040489386
 20
-322.025595640454
 30
0.0000000001127424
 11
5247.119550316046
 21
-321.8430776350829
 31
0.0000000001127424
  0
LINE
  5
B36E
330
18
100
AcDbEntity
  8
1DIM
100
AcDbLine
 10
5247.119550316046
 20
-321.8430776350829
 30
0.0000000001127424
 11
5249.303021995734
 21
-321.6644353621336
 31
0.0000000001127424
  0
LINE
  5
B36F
330
18
100
AcDbEntity
  8
1DIM
100
AcDbLine
 10
5249.303021995734
 20
-321.6644353621336
 30
0.0000000001127424
 11
5251.486386863898
 21
-321.4896764510008
 31
0.0000000001127424
  0
LINE
  5
B370
330
18
100
AcDbEntity
  8
1DIM
100
AcDbLine
 10
5251.486386863898
 20
-321.4896764510008
 30
0.0000000001127424
 11
5253.669599144171
 21
-321.3188009016844
 31
0.0000000001127424
  0
LINE
  5
B371
330
18
100
AcDbEntity
  8
1DIM
100
AcDbLine
 10
5253.669599144171
 20
-321.3188009016844
 30
0.0000000001127424
 11
5255.852628318976
 21
-321.151816343579
 31
0.0000000001127424
  0
LINE
  5
B372
330
18
100
AcDbEntity
  8
1DIM
100
AcDbLine
 10
5255.852628318976
 20
-321.151816343579
 30
0.0000000001127424
 11
5258.035413353155
 21
-320.988730406079
 31
0.0000000001127424
  0
LINE
  5
B373
330
18
100
AcDbEntity
  8
1DIM
100
AcDbLine
 10
5258.035413353155
 20
-320.988730406079
 30
0.0000000001127424
 11
5260.217908470343
 21
-320.829550718579
 31
0.0000000001127424
  0
LINE
  5
B374
330
18
100
AcDbEntity
  8
1DIM
100
AcDbLine
 10
5260.217908470343
 20
-320.829550718579
 30
0.0000000001127424
 11
5262.40008315296
 21
-320.674277281079
 31
0.0000000001127424
  0
LINE
  5
B375
330
18
100
AcDbEntity
  8
1DIM
100
AcDbLine
 10
5262.40008315296
 20
-320.674277281079
 30
0.0000000001127424
 11
5264.581876365851
 21
-320.522910093579
 31
0.0000000001127424
  0
LINE
  5
B376
330
18
100
AcDbEntity
  8
1DIM
100
AcDbLine
 10
5264.581876365851
 20
-320.522910093579
 30
0.0000000001127424
 11
5266.763242332648
 21
-320.375464414868
 31
0.0000000001127424
  0
LINE
  5
B377
330
18
100
AcDbEntity
  8
1DIM
100
AcDbLine
 10
5266.763242332648
 20
-320.375464414868
 30
0.0000000001127424
 11
5268.944150535773
 21
-320.2319326155516
 31
0.0000000001127424
  0
LINE
  5
B378
330
18
100
AcDbEntity
  8
1DIM
100
AcDbLine
 10
5268.944150535773
 20
-320.2319326155516
 30
0.0000000001127424
 11
5271.12453994007
 21
-320.0923299544188
 31
0.0000000001127424
  0
LINE
  5
B379
330
18
100
AcDbEntity
  8
1DIM
100
AcDbLine
 10
5271.12453994007
 20
-320.0923299544188
 30
0.0000000001127424
 11
5273.304349510382
 21
-319.9566488020751
 31
0.0000000001127424
  0
LINE
  5
B37A
330
18
100
AcDbEntity
  8
1DIM
100
AcDbLine
 10
5273.304349510382
 20
-319.9566488020751
 30
0.0000000001127424
 11
5275.483563987921
 21
-319.8248967879149
 31
0.0000000001127424
  0
LINE
  5
B37B
330
18
100
AcDbEntity
  8
1DIM
100
AcDbLine
 10
5275.483563987921
 20
-319.8248967879149
 30
0.0000000001127424
 11
5277.66212233753
 21
-319.6970815413329
 31
0.0000000001127424
  0
LINE
  5
B37C
330
18
100
AcDbEntity
  8
1DIM
100
AcDbLine
 10
5277.66212233753
 20
-319.6970815413329
 30
0.0000000001127424
 11
5279.839963524054
 21
-319.5731878035399
 31
0.0000000001127424
  0
LINE
  5
B37D
330
18
100
AcDbEntity
  8
1DIM
100
AcDbLine
 10
5279.839963524054
 20
-319.5731878035399
 30
0.0000000001127424
 11
5282.017072288702
 21
-319.453215574536
 31
0.0000000001127424
  0
LINE
  5
B37E
330
18
100
AcDbEntity
  8
1DIM
100
AcDbLine
 10
5282.017072288702
 20
-319.453215574536
 30
0.0000000001127424
 11
5284.19337233753
 21
-319.3371801131102
 31
0.0000000001127424
  0
LINE
  5
B37F
330
18
100
AcDbEntity
  8
1DIM
100
AcDbLine
 10
5284.19337233753
 20
-319.3371801131102
 30
0.0000000001127424
 11
5286.36883315296
 21
-319.2250661604735
 31
0.0000000001127424
  0
LINE
  5
B380
330
18
100
AcDbEntity
  8
1DIM
100
AcDbLine
 10
5286.36883315296
 20
-319.2250661604735
 30
0.0000000001127424
 11
5288.543393699835
 21
-319.1168737166258
 31
0.0000000001127424
  0
LINE
  5
B381
330
18
100
AcDbEntity
  8
1DIM
100
AcDbLine
 10
5288.543393699835
 20
-319.1168737166258
 30
0.0000000001127424
 11
5290.717023460577
 21
-319.0126104109618
 31
0.0000000001127424
  0
LINE
  5
B382
330
18
100
AcDbEntity
  8
1DIM
100
AcDbLine
 10
5290.717023460577
 20
-319.0126104109618
 30
0.0000000001127424
 11
5292.88967665882
 21
-318.9122686140868
 31
0.0000000001127424
  0
LINE
  5
B383
330
18
100
AcDbEntity
  8
1DIM
100
AcDbLine
 10
5292.88967665882
 20
-318.9122686140868
 30
0.0000000001127424
 11
5295.061277000616
 21
-318.8158483260008
 31
0.0000000001127424
  0
LINE
  5
B384
330
18
100
AcDbEntity
  8
1DIM
100
AcDbLine
 10
5295.061277000616
 20
-318.8158483260008
 30
0.0000000001127424
 11
5297.231824485968
 21
-318.723349546704
 31
0.0000000001127424
  0
LINE
  5
B385
330
18
100
AcDbEntity
  8
1DIM
100
AcDbLine
 10
5297.231824485968
 20
-318.723349546704
 30
0.0000000001127424
 11
5299.40122756214
 21
-318.634741758618
 31
0.0000000001127424
  0
LINE
  5
B386
330
18
100
AcDbEntity
  8
1DIM
100
AcDbLine
 10
5299.40122756214
 20
-318.634741758618
 30
0.0000000001127424
 11
5301.569470970343
 21
-318.5500020735594
 31
0.0000000001127424
  0
LINE
  5
B387
330
18
100
AcDbEntity
  8
1DIM
100
AcDbLine
 10
5301.569470970343
 20
-318.5500020735594
 30
0.0000000001127424
 11
5303.73650893421
 21
-318.4690923445555
 31
0.0000000001127424
  0
LINE
  5
B388
330
18
100
AcDbEntity
  8
1DIM
100
AcDbLine
 10
5303.73650893421
 20
-318.4690923445555
 30
0.0000000001127424
 11
5305.902265159796
 21
-318.3919973128172
 31
0.0000000001127424
  0
LINE
  5
B389
330
18
100
AcDbEntity
  8
1DIM
100
AcDbLine
 10
5305.902265159796
 20
-318.3919973128172
 30
0.0000000001127424
 11
5308.066739647101
 21
-318.3186712019774
 31
0.0000000001127424
  0
LINE
  5
B38A
330
18
100
AcDbEntity
  8
1DIM
100
AcDbLine
 10
5308.066739647101
 20
-318.3186712019774
 30
0.0000000001127424
 11
5310.229856102179
 21
-318.2490834944579
 31
0.0000000001127424
  0
LINE
  5
B38B
330
18
100
AcDbEntity
  8
1DIM
100
AcDbLine
 10
5310.229856102179
 20
-318.2490834944579
 30
0.0000000001127424
 11
5312.391568748663
 21
-318.1832189314696
 31
0.0000000001127424
  0
LINE
  5
B38C
330
18
100
AcDbEntity
  8
1DIM
100
AcDbLine
 10
5312.391568748663
 20
-318.1832189314696
 30
0.0000000001127424
 11
5314.551847068976
 21
-318.1210393660399
 31
0.0000000001127424
  0
LINE
  5
B38D
330
18
100
AcDbEntity
  8
1DIM
100
AcDbLine
 10
5314.551847068976
 20
-318.1210393660399
 30
0.0000000001127424
 11
5316.710645286749
 21
-318.0625066511961
 31
0.0000000001127424
  0
LINE
  5
B38E
330
18
100
AcDbEntity
  8
1DIM
100
AcDbLine
 10
5316.710645286749
 20
-318.0625066511961
 30
0.0000000001127424
 11
5318.867902366827
 21
-318.0076055281493
 31
0.0000000001127424
  0
LINE
  5
B38F
330
18
100
AcDbEntity
  8
1DIM
100
AcDbLine
 10
5318.867902366827
 20
-318.0076055281493
 30
0.0000000001127424
 11
5321.050687401007
 21
-317.9556722395751
 31
0.0000000001127424
  0
LINE
  5
B390
330
18
100
AcDbEntity
  8
1DIM
100
AcDbLine
 10
5321.060117332648
 20
-319.5981664412352
 30
0.0000000001127424
 11
5319.039136497687
 21
-319.7104558699461
 31
0.0000000001127424
  0
LINE
  5
B391
330
18
100
AcDbEntity
  8
1DIM
100
AcDbLine
 10
5319.039136497687
 20
-319.7104558699461
 30
0.0000000001127424
 11
5317.01695021839
 21
-319.8257970564696
 31
0.0000000001127424
  0
LINE
  5
B392
330
18
100
AcDbEntity
  8
1DIM
100
AcDbLine
 10
5317.01695021839
 20
-319.8257970564696
 30
0.0000000001127424
 11
5314.993619529913
 21
-319.9442205183836
 31
0.0000000001127424
  0
LINE
  5
B393
330
18
100
AcDbEntity
  8
1DIM
100
AcDbLine
 10
5314.993619529913
 20
-319.9442205183836
 30
0.0000000001127424
 11
5312.969159691046
 21
-320.065764402661
 31
0.0000000001127424
  0
LINE
  5
B394
330
18
100
AcDbEntity
  8
1DIM
100
AcDbLine
 10
5312.969159691046
 20
-320.065764402661
 30
0.0000000001127424
 11
5310.943631736945
 21
-320.1904439680907
 31
0.0000000001127424
  0
LINE
  5
B395
330
18
100
AcDbEntity
  8
1DIM
100
AcDbLine
 10
5310.943631736945
 20
-320.1904439680907
 30
0.0000000001127424
 11
5308.917066185187
 21
-320.3183049910399
 31
0.0000000001127424
  0
LINE
  5
B396
330
18
100
AcDbEntity
  8
1DIM
100
AcDbLine
 10
5308.917066185187
 20
-320.3183049910399
 30
0.0000000001127424
 11
5306.889524070929
 21
-320.4493779890868
 31
0.0000000001127424
  0
LINE
  5
B397
330
18
100
AcDbEntity
  8
1DIM
100
AcDbLine
 10
5306.889524070929
 20
-320.4493779890868
 30
0.0000000001127424
 11
5304.86102065296
 21
-320.5836934798094
 31
0.0000000001127424
  0
LINE
  5
B398
330
18
100
AcDbEntity
  8
1DIM
100
AcDbLine
 10
5304.86102065296
 20
-320.5836934798094
 30
0.0000000001127424
 11
5302.831632225226
 21
-320.721281980786
 31
0.0000000001127424
  0
LINE
  5
B399
330
18
100
AcDbEntity
  8
1DIM
100
AcDbLine
 10
5302.831632225226
 20
-320.721281980786
 30
0.0000000001127424
 11
5300.801374046515
 21
-320.8621663802001
 31
0.0000000001127424
  0
LINE
  5
B39A
330
18
100
AcDbEntity
  8
1DIM
100
AcDbLine
 10
5300.801374046515
 20
-320.8621663802001
 30
0.0000000001127424
 11
5298.770307151984
 21
-321.0063619368407
 31
0.0000000001127424
  0
LINE
  5
B39B
330
18
100
AcDbEntity
  8
1DIM
100
AcDbLine
 10
5298.770307151984
 20
-321.0063619368407
 30
0.0000000001127424
 11
5296.738446800421
 21
-321.1538686507079
 31
0.0000000001127424
  0
LINE
  5
B39C
330
18
100
AcDbEntity
  8
1DIM
100
AcDbLine
 10
5296.738446800421
 20
-321.1538686507079
 30
0.0000000001127424
 11
5294.705854026984
 21
-321.3046941511961
 31
0.0000000001127424
  0
LINE
  5
B39D
330
18
100
AcDbEntity
  8
1DIM
100
AcDbLine
 10
5294.705854026984
 20
-321.3046941511961
 30
0.0000000001127424
 11
5292.672559349249
 21
-321.4588536970946
 31
0.0000000001127424
  0
LINE
  5
B39E
330
18
100
AcDbEntity
  8
1DIM
100
AcDbLine
 10
5292.672559349249
 20
-321.4588536970946
 30
0.0000000001127424
 11
5290.638608543585
 21
-321.6163396590086
 31
0.0000000001127424
  0
LINE
  5
B39F
330
18
100
AcDbEntity
  8
1DIM
100
AcDbLine
 10
5290.638608543585
 20
-321.6163396590086
 30
0.0000000001127424
 11
5288.60403212757
 21
-321.7771749251219
 31
0.0000000001127424
  0
LINE
  5
B3A0
330
18
100
AcDbEntity
  8
1DIM
100
AcDbLine
 10
5288.60403212757
 20
-321.7771749251219
 30
0.0000000001127424
 11
5286.56887587757
 21
-321.9413518660399
 31
0.0000000001127424
  0
LINE
  5
B3A1
330
18
100
AcDbEntity
  8
1DIM
100
AcDbLine
 10
5286.56887587757
 20
-321.9413518660399
 30
0.0000000001127424
 11
5284.533185569952
 21
-322.1088857405516
 31
0.0000000001127424
  0
LINE
  5
B3A2
330
18
100
AcDbEntity
  8
1DIM
100
AcDbLine
 10
5284.533185569952
 20
-322.1088857405516
 30
0.0000000001127424
 11
5282.496991722296
 21
-322.2797765486571
 31
0.0000000001127424
  0
LINE
  5
B3A3
330
18
100
AcDbEntity
  8
1DIM
100
AcDbLine
 10
5282.496991722296
 20
-322.2797765486571
 30
0.0000000001127424
 11
5280.460340110968
 21
-322.4540395491454
 31
0.0000000001127424
  0
LINE
  5
B3A4
330
18
100
AcDbEntity
  8
1DIM
100
AcDbLine
 10
5280.460340110968
 20
-322.4540395491454
 30
0.0000000001127424
 11
5278.423261253546
 21
-322.631682371411
 31
0.0000000001127424
  0
LINE
  5
B3A5
330
18
100
AcDbEntity
  8
1DIM
100
AcDbLine
 10
5278.423261253546
 20
-322.631682371411
 30
0.0000000001127424
 11
5276.385800926398
 21
-322.8126897566649
 31
0.0000000001127424
  0
LINE
  5
B3A6
330
18
100
AcDbEntity
  8
1DIM
100
AcDbLine
 10
5276.385800926398
 20
-322.8126897566649
 30
0.0000000001127424
 11
5274.347989647101
 21
-322.9970769636961
 31
0.0000000001127424
  0
LINE
  5
B3A7
330
18
100
AcDbEntity
  8
1DIM
100
AcDbLine
 10
5274.347989647101
 20
-322.9970769636961
 30
0.0000000001127424
 11
5272.309888450812
 21
-323.1848439925047
 31
0.0000000001127424
  0
LINE
  5
B3A8
330
18
100
AcDbEntity
  8
1DIM
100
AcDbLine
 10
5272.309888450812
 20
-323.1848439925047
 30
0.0000000001127424
 11
5270.27151259632
 21
-323.3759755843016
 31
0.0000000001127424
  0
LINE
  5
B3A9
330
18
100
AcDbEntity
  8
1DIM
100
AcDbLine
 10
5270.27151259632
 20
-323.3759755843016
 30
0.0000000001127424
 11
5268.23292311878
 21
-323.5704869978758
 31
0.0000000001127424
  0
LINE
  5
B3AA
330
18
100
AcDbEntity
  8
1DIM
100
AcDbLine
 10
5268.23292311878
 20
-323.5704869978758
 30
0.0000000001127424
 11
5266.194135276984
 21
-323.7683706038329
 31
0.0000000001127424
  0
LINE
  5
B3AB
330
18
100
AcDbEntity
  8
1DIM
100
AcDbLine
 10
5266.194135276984
 20
-323.7683706038329
 30
0.0000000001127424
 11
5264.155210106085
 21
-323.9696264021727
 31
0.0000000001127424
  0
LINE
  5
B3AC
330
18
100
AcDbEntity
  8
1DIM
100
AcDbLine
 10
5264.155210106085
 20
-323.9696264021727
 30
0.0000000001127424
 11
5262.116162864874
 21
-324.1742543928954
 31
0.0000000001127424
  0
LINE
  5
B3AD
330
18
100
AcDbEntity
  8
1DIM
100
AcDbLine
 10
5262.116162864874
 20
-324.1742543928954
 30
0.0000000001127424
 11
5260.077069847296
 21
-324.3822507613036
 31
0.0000000001127424
  0
LINE
  5
B3AE
330
18
100
AcDbEntity
  8
1DIM
100
AcDbLine
 10
5260.077069847296
 20
-324.3822507613036
 30
0.0000000001127424
 11
5258.037931053351
 21
-324.5936193220946
 31
0.0000000001127424
  0
LINE
  5
B3AF
330
18
100
AcDbEntity
  8
1DIM
100
AcDbLine
 10
5258.037931053351
 20
-324.5936193220946
 30
0.0000000001127424
 11
5255.998807518195
 21
-324.8083486311766
 31
0.0000000001127424
  0
LINE
  5
B3B0
330
18
100
AcDbEntity
  8
1DIM
100
AcDbLine
 10
5255.998807518195
 20
-324.8083486311766
 30
0.0000000001127424
 11
5253.959714500616
 21
-325.0264425032469
 31
0.0000000001127424
  0
LINE
  5
B3B1
330
18
100
AcDbEntity
  8
1DIM
100
AcDbLine
 10
5253.959714500616
 20
-325.0264425032469
 30
0.0000000001127424
 11
5251.920728294562
 21
-325.2478971236083
 31
0.0000000001127424
  0
LINE
  5
B3B2
330
18
100
AcDbEntity
  8
1DIM
100
AcDbLine
 10
5251.920728294562
 20
-325.2478971236083
 30
0.0000000001127424
 11
5249.88186415882
 21
-325.4727048628661
 31
0.0000000001127424
  0
LINE
  5
B3B3
330
18
100
AcDbEntity
  8
1DIM
100
AcDbLine
 10
5249.88186415882
 20
-325.4727048628661
 30
0.0000000001127424
 11
5247.843152610968
 21
-325.7008657210204
 31
0.0000000001127424
  0
LINE
  5
B3B4
330
18
100
AcDbEntity
  8
1DIM
100
AcDbLine
 10
5247.843152610968
 20
-325.7008657210204
 30
0.0000000001127424
 11
5245.804647056769
 21
-325.9323796980711
 31
0.0000000001127424
  0
LINE
  5
B3B5
330
18
100
AcDbEntity
  8
1DIM
100
AcDbLine
 10
5245.804647056769
 20
-325.9323796980711
 30
0.0000000001127424
 11
5243.7663780138
 21
-326.1672353499266
 31
0.0000000001127424
  0
LINE
  5
B3B6
330
18
100
AcDbEntity
  8
1DIM
100
AcDbLine
 10
5243.7663780138
 20
-326.1672353499266
 30
0.0000000001127424
 11
5241.728391258429
 21
-326.405436491284
 31
0.0000000001127424
  0
LINE
  5
B3B7
330
18
100
AcDbEntity
  8
1DIM
100
AcDbLine
 10
5241.728391258429
 20
-326.405436491284
 30
0.0000000001127424
 11
5239.690724937628
 21
-326.6469716780516
 31
0.0000000001127424
  0
LINE
  5
B3B8
330
18
100
AcDbEntity
  8
1DIM
100
AcDbLine
 10
5239.690724937628
 20
-326.6469716780516
 30
0.0000000001127424
 11
5237.653409568976
 21
-326.8918409102293
 31
0.0000000001127424
  0
LINE
  5
B3B9
330
18
100
AcDbEntity
  8
1DIM
100
AcDbLine
 10
5237.653409568976
 20
-326.8918409102293
 30
0.0000000001127424
 11
5235.616483299445
 21
-327.1400365584227
 31
0.0000000001127424
  0
LINE
  5
B3BA
330
18
100
AcDbEntity
  8
1DIM
100
AcDbLine
 10
5235.616483299445
 20
-327.1400365584227
 30
0.0000000001127424
 11
5233.579991905402
 21
-327.3915548079344
 31
0.0000000001127424
  0
LINE
  5
B3BB
330
18
100
AcDbEntity
  8
1DIM
100
AcDbLine
 10
5233.579991905402
 20
-327.3915548079344
 30
0.0000000001127424
 11
5231.543965904425
 21
-327.64638802937
 31
0.0000000001127424
  0
LINE
  5
B3BC
330
18
100
AcDbEntity
  8
1DIM
100
AcDbLine
 10
5231.543965904425
 20
-327.64638802937
 30
0.0000000001127424
 11
5229.508443443488
 21
-327.9045285933348
 31
0.0000000001127424
  0
LINE
  5
B3BD
330
18
100
AcDbEntity
  8
1DIM
100
AcDbLine
 10
5229.508443443488
 20
-327.9045285933348
 30
0.0000000001127424
 11
5227.473462669562
 21
-328.1659726851317
 31
0.0000000001127424
  0
LINE
  5
B3BE
330
18
100
AcDbEntity
  8
1DIM
100
AcDbLine
 10
5227.473462669562
 20
-328.1659726851317
 30
0.0000000001127424
 11
5225.43906172962
 21
-328.4307126753661
 31
0.0000000001127424
  0
LINE
  5
B3BF
330
18
100
AcDbEntity
  8
1DIM
100
AcDbLine
 10
5225.43906172962
 20
-328.4307126753661
 30
0.0000000001127424
 11
5223.40528640003
 21
-328.6987409346434
 31
0.0000000001127424
  0
LINE
  5
B3C0
330
18
100
AcDbEntity
  8
1DIM
100
AcDbLine
 10
5223.40528640003
 20
-328.6987409346434
 30
0.0000000001127424
 11
5221.372174827765
 21
-328.9700574629637
 31
0.0000000001127424
  0
LINE
  5
B3C1
330
18
100
AcDbEntity
  8
1DIM
100
AcDbLine
 10
5221.372174827765
 20
-328.9700574629637
 30
0.0000000001127424
 11
5219.339749901007
 21
-329.2446470015379
 31
0.0000000001127424
  0
LINE
  5
B3C2
330
18
100
AcDbEntity
  8
1DIM
100
AcDbLine
 10
5219.339749901007
 20
-329.2446470015379
 30
0.0000000001127424
 11
5217.308034507941
 21
-329.522494291577
 31
0.0000000001127424
  0
LINE
  5
B3C3
330
18
100
AcDbEntity
  8
1DIM
100
AcDbLine
 10
5217.308034507941
 20
-329.522494291577
 30
0.0000000001127424
 11
5215.277074424933
 21
-329.8035955183836
 31
0.0000000001127424
  0
LINE
  5
B3C4
330
18
100
AcDbEntity
  8
1DIM
100
AcDbLine
 10
5215.277074424933
 20
-329.8035955183836
 30
0.0000000001127424
 11
5213.246999351691
 21
-330.0879888289305
 31
0.0000000001127424
  0
LINE
  5
B3C5
330
18
100
AcDbEntity
  8
1DIM
100
AcDbLine
 10
5213.246999351691
 20
-330.0879888289305
 30
0.0000000001127424
 11
5211.217481224249
 21
-330.3753957503172
 31
0.0000000001127424
  0
LINE
  5
B3C6
330
18
100
AcDbEntity
  8
1DIM
100
AcDbLine
 10
5211.217481224249
 20
-330.3753957503172
 30
0.0000000001127424
 11
5209.187100975226
 21
-330.6633023970458
 31
0.0000000001127424
  0
LINE
  5
B3C7
330
18
100
AcDbEntity
  8
1DIM
100
AcDbLine
 10
5209.187100975226
 20
-330.6633023970458
 30
0.0000000001127424
 11
5207.139852134894
 21
-330.9358281843993
 31
0.0000000001127424
  0
LINE
  5
B3C8
330
18
100
AcDbEntity
  8
1DIM
100
AcDbLine
 10
5207.139852134894
 20
-330.9358281843993
 30
0.0000000001127424
 11
5205.093877403448
 21
-331.2004880659911
 31
0.0000000001127424
  0
LINE
  5
B3C9
330
18
100
AcDbEntity
  8
1DIM
100
AcDbLine
 10
5205.093877403448
 20
-331.2004880659911
 30
0.0000000001127424
 11
5203.066152183722
 21
-331.4651174300047
 31
0.0000000001127424
  0
LINE
  5
B3CA
330
18
100
AcDbEntity
  8
1DIM
100
AcDbLine
 10
5203.066152183722
 20
-331.4651174300047
 30
0.0000000001127424
 11
5201.073354332159
 21
-331.7316541426512
 31
0.0000000001127424
  0
LINE
  5
B3CB
330
18
100
AcDbEntity
  8
1DIM
100
AcDbLine
 10
5201.073354332159
 20
-331.7316541426512
 30
0.0000000001127424
 11
5199.129117576788
 21
-332.0001439802977
 31
0.0000000001127424
  0
LINE
  5
B3CC
330
18
100
AcDbEntity
  8
1DIM
100
AcDbLine
 10
5199.129117576788
 20
-332.0001439802977
 30
0.0000000001127424
 11
5197.245221702765
 21
-332.2696180098387
 31
0.0000000001127424
  0
LINE
  5
B3CD
330
18
100
AcDbEntity
  8
1DIM
100
AcDbLine
 10
5197.245221702765
 20
-332.2696180098387
 30
0.0000000001127424
 11
5195.432637779425
 21
-332.5389051192137
 31
0.0000000001127424
  0
LINE
  5
B3CE
330
18
100
AcDbEntity
  8
1DIM
100
AcDbLine
 10
5195.432637779425
 20
-332.5389051192137
 30
0.0000000001127424
 11
5193.70005568714
 21
-332.8066320174071
 31
0.0000000001127424
  0
LINE
  5
B3CF
330
18
100
AcDbEntity
  8
1DIM
100
AcDbLine
 10
5193.70005568714
 20
-332.8066320174071
 30
0.0000000001127424
 11
5192.055478660773
 21
-333.0713872664305
 31
0.0000000001127424
  0
LINE
  5
B3D0
330
18
100
AcDbEntity
  8
1DIM
100
AcDbLine
 10
5192.055478660773
 20
-333.0713872664305
 30
0.0000000001127424
 11
5190.506261436652
 21
-333.3319158308836
 31
0.0000000001127424
  0
LINE
  5
B3D1
330
18
100
AcDbEntity
  8
1DIM
100
AcDbLine
 10
5190.506261436652
 20
-333.3319158308836
 30
0.0000000001127424
 11
5189.059415428351
 21
-333.5870656721922
 31
0.0000000001127424
  0
LINE
  5
B3D2
330
18
100
AcDbEntity
  8
1DIM
100
AcDbLine
 10
5189.059415428351
 20
-333.5870656721922
 30
0.0000000001127424
 11
5187.722379295538
 21
-333.8357724898192
 31
0.0000000001127424
  0
LINE
  5
B3D3
330
18
100
AcDbEntity
  8
1DIM
100
AcDbLine
 10
5187.722379295538
 20
-333.8357724898192
 30
0.0000000001127424
 11
5186.503049461554
 21
-334.07705209187
 31
0.0000000001127424
  0
LINE
  5
B3D4
330
18
100
AcDbEntity
  8
1DIM
100
AcDbLine
 10
5186.503049461554
 20
-334.07705209187
 30
0.0000000001127424
 11
5185.409635154913
 21
-334.3099088423583
 31
0.0000000001127424
  0
LINE
  5
B3D5
330
18
100
AcDbEntity
  8
1DIM
100
AcDbLine
 10
5185.409635154913
 20
-334.3099088423583
 30
0.0000000001127424
 11
5184.450772850226
 21
-334.533350919995
 31
0.0000000001127424
  0
LINE
  5
B3D6
330
18
100
AcDbEntity
  8
1DIM
100
AcDbLine
 10
5184.450772850226
 20
-334.533350919995
 30
0.0000000001127424
 11
5183.634618370245
 21
-334.7463330977293
 31
0.0000000001127424
  0
LINE
  5
B3D7
330
18
100
AcDbEntity
  8
1DIM
100
AcDbLine
 10
5183.634618370245
 20
-334.7463330977293
 30
0.0000000001127424
 11
5182.967561332892
 21
-334.9476766341063
 31
0.0000000001127424
  0
LINE
  5
B3D8
330
18
100
AcDbEntity
  8
1DIM
100
AcDbLine
 10
5182.967561332892
 20
-334.9476766341063
 30
0.0000000001127424
 11
5182.454648582648
 21
-335.1361531966063
 31
0.0000000001127424
  0
LINE
  5
B3D9
330
18
100
AcDbEntity
  8
1DIM
100
AcDbLine
 10
5182.454648582648
 20
-335.1361531966063
 30
0.0000000001127424
 11
5182.095277397345
 21
-335.3104123823973
 31
0.0000000001127424
  0
LINE
  5
B3DA
330
18
100
AcDbEntity
  8
1DIM
100
AcDbLine
 10
5182.095277397345
 20
-335.3104123823973
 30
0.0000000001127424
 11
5181.88148650379
 21
-335.4688100569579
 31
0.0000000001127424
  0
LINE
  5
B3DB
330
18
100
AcDbEntity
  8
1DIM
100
AcDbLine
 10
5181.88148650379
 20
-335.4688100569579
 30
0.0000000001127424
 11
5181.791215507697
 21
-335.6091794722411
 31
0.0000000001127424
  0
LINE
  5
B3DC
330
18
100
AcDbEntity
  8
1DIM
100
AcDbLine
 10
5181.791215507697
 20
-335.6091794722411
 30
0.0000000001127424
 11
5181.76563796253
 21
-335.7270421736571
 31
0.0000000001127424
  0
LINE
  5
B3DD
330
18
100
AcDbEntity
  8
1DIM
100
AcDbLine
 10
5322.293561546515
 20
-318.968352293286
 30
0.0000000001127424
 11
5322.296140281866
 21
-319.1426381819579
 31
0.0000000001127424
  0
LINE
  5
B3DE
330
18
100
AcDbEntity
  8
1DIM
100
AcDbLine
 10
5322.296140281866
 20
-319.1426381819579
 30
0.0000000001127424
 11
5322.183560936163
 21
-319.3049001448485
 31
0.0000000001127424
  0
LINE
  5
B3DF
330
18
100
AcDbEntity
  8
1DIM
100
AcDbLine
 10
5322.183560936163
 20
-319.3049001448485
 30
0.0000000001127424
 11
5321.95266494007
 21
-319.4437093489501
 31
0.0000000001127424
  0
LINE
  5
B3E0
330
18
100
AcDbEntity
  8
1DIM
100
AcDbLine
 10
5321.95266494007
 20
-319.4437093489501
 30
0.0000000001127424
 11
5321.607511131476
 21
-319.5451955550047
 31
0.0000000001127424
  0
LINE
  5
B3E1
330
18
100
AcDbEntity
  8
1DIM
100
AcDbLine
 10
5321.607511131476
 20
-319.5451955550047
 30
0.0000000001127424
 11
5321.106198875616
 21
-319.5968465559813
 31
0.0000000001127424
  0
LINE
  5
B3E2
330
18
100
AcDbEntity
  8
1DIM
100
AcDbLine
 10
5322.294583885382
 20
-318.551245664868
 30
0.0000000001127424
 11
5322.297483055304
 21
-318.3860616438719
 31
0.0000000001127424
  0
LINE
  5
B3E3
330
18
100
AcDbEntity
  8
1DIM
100
AcDbLine
 10
5322.297483055304
 20
-318.3860616438719
 30
0.0000000001127424
 11
5322.182752220343
 21
-318.231665586743
 31
0.0000000001127424
  0
LINE
  5
B3E4
330
18
100
AcDbEntity
  8
1DIM
100
AcDbLine
 10
5322.182752220343
 20
-318.231665586743
 30
0.0000000001127424
 11
5321.946698753546
 21
-318.099081968579
 31
0.0000000001127424
  0
LINE
  5
B3E5
330
18
100
AcDbEntity
  8
1DIM
100
AcDbLine
 10
5321.946698753546
 20
-318.099081968579
 30
0.0000000001127424
 11
5321.593503563116
 21
-318.0025014632079
 31
0.0000000001127424
  0
LINE
  5
B3E6
330
18
100
AcDbEntity
  8
1DIM
100
AcDbLine
 10
5321.593503563116
 20
-318.0025014632079
 30
0.0000000001127424
 11
5321.088208763312
 21
-317.9555349104735
 31
0.0000000001127424
  0
LINE
  5
B3E7
330
18
100
AcDbEntity
  8
1DIM
100
AcDbLine
 10
5073.956046005614
 20
-330.2595670512246
 30
0.0000000001127424
 11
5076.107016464598
 21
-330.1775586894082
 31
0.0000000001127424
  0
LINE
  5
B3E8
330
18
100
AcDbEntity
  8
1DIM
100
AcDbLine
 10
5076.107016464598
 20
-330.1775586894082
 30
0.0000000001127424
 11
5078.264105697996
 21
-330.0571000865029
 31
0.0000000001127424
  0
LINE
  5
B3E9
330
18
100
AcDbEntity
  8
1DIM
100
AcDbLine
 10
5078.264105697996
 20
-330.0571000865029
 30
0.0000000001127424
 11
5080.411780258543
 21
-329.9150026133584
 31
0.0000000001127424
  0
LINE
  5
B3EA
330
18
100
AcDbEntity
  8
1DIM
100
AcDbLine
 10
5080.411780258543
 20
-329.9150026133584
 30
0.0000000001127424
 11
5082.536642929442
 21
-329.7567632487344
 31
0.0000000001127424
  0
LINE
  5
B3EB
330
18
100
AcDbEntity
  8
1DIM
100
AcDbLine
 10
5082.536642929442
 20
-329.7567632487344
 30
0.0000000001127424
 11
5084.626120468504
 21
-329.5853650858926
 31
0.0000000001127424
  0
LINE
  5
B3EC
330
18
100
AcDbEntity
  8
1DIM
100
AcDbLine
 10
5084.626120468504
 20
-329.5853650858926
 30
0.0000000001127424
 11
5086.668219467528
 21
-329.4028413584756
 31
0.0000000001127424
  0
LINE
  5
B3ED
330
18
100
AcDbEntity
  8
1DIM
100
AcDbLine
 10
5086.668219467528
 20
-329.4028413584756
 30
0.0000000001127424
 11
5088.652167221434
 21
-329.210716038041
 31
0.0000000001127424
  0
LINE
  5
B3EE
330
18
100
AcDbEntity
  8
1DIM
100
AcDbLine
 10
5088.652167221434
 20
-329.210716038041
 30
0.0000000001127424
 11
5090.567969223387
 21
-329.0103280833291
 31
0.0000000001127424
  0
LINE
  5
B3EF
330
18
100
AcDbEntity
  8
1DIM
100
AcDbLine
 10
5090.567969223387
 20
-329.0103280833291
 30
0.0000000001127424
 11
5092.407095810301
 21
-328.8026349833535
 31
0.0000000001127424
  0
LINE
  5
B3F0
330
18
100
AcDbEntity
  8
1DIM
100
AcDbLine
 10
5092.407095810301
 20
-328.8026349833535
 30
0.0000000001127424
 11
5094.161764999754
 21
-328.5883920481729
 31
0.0000000001127424
  0
LINE
  5
B3F1
330
18
100
AcDbEntity
  8
1DIM
100
AcDbLine
 10
5094.161764999754
 20
-328.5883920481729
 30
0.0000000001127424
 11
5095.824698349364
 21
-328.3683450511026
 31
0.0000000001127424
  0
LINE
  5
B3F2
330
18
100
AcDbEntity
  8
1DIM
100
AcDbLine
 10
5095.824698349364
 20
-328.3683450511026
 30
0.0000000001127424
 11
5097.389288803465
 21
-328.143239765458
 31
0.0000000001127424
  0
LINE
  5
B3F3
330
18
100
AcDbEntity
  8
1DIM
100
AcDbLine
 10
5097.389288803465
 20
-328.143239765458
 30
0.0000000001127424
 11
5098.848990341551
 21
-327.9138219645547
 31
0.0000000001127424
  0
LINE
  5
B3F4
330
18
100
AcDbEntity
  8
1DIM
100
AcDbLine
 10
5098.848990341551
 20
-327.9138219645547
 30
0.0000000001127424
 11
5100.196936508543
 21
-327.6809747508096
 31
0.0000000001127424
  0
LINE
  5
B3F5
330
18
100
AcDbEntity
  8
1DIM
100
AcDbLine
 10
5100.196936508543
 20
-327.6809747508096
 30
0.0000000001127424
 11
5101.425604721434
 21
-327.4458158305215
 31
0.0000000001127424
  0
LINE
  5
B3F6
330
18
100
AcDbEntity
  8
1DIM
100
AcDbLine
 10
5101.425604721434
 20
-327.4458158305215
 30
0.0000000001127424
 11
5102.527457138426
 21
-327.2094819834756
 31
0.0000000001127424
  0
LINE
  5
B3F7
330
18
100
AcDbEntity
  8
1DIM
100
AcDbLine
 10
5102.527457138426
 20
-327.2094819834756
 30
0.0000000001127424
 11
5103.495154281981
 21
-326.9731691172647
 31
0.0000000001127424
  0
LINE
  5
B3F8
330
18
100
AcDbEntity
  8
1DIM
100
AcDbLine
 10
5103.495154281981
 20
-326.9731691172647
 30
0.0000000001127424
 11
5104.321844955809
 21
-326.7382142832803
 31
0.0000000001127424
  0
LINE
  5
B3F9
330
18
100
AcDbEntity
  8
1DIM
100
AcDbLine
 10
5104.321844955809
 20
-326.7382142832803
 30
0.0000000001127424
 11
5105.001562973387
 21
-326.5058267405557
 31
0.0000000001127424
  0
LINE
  5
B3FA
330
18
100
AcDbEntity
  8
1DIM
100
AcDbLine
 10
5105.001562973387
 20
-326.5058267405557
 30
0.0000000001127424
 11
5105.531042953856
 21
-326.2766225626992
 31
0.0000000001127424
  0
LINE
  5
B3FB
330
18
100
AcDbEntity
  8
1DIM
100
AcDbLine
 10
5105.531042953856
 20
-326.2766225626992
 30
0.0000000001127424
 11
5105.911414047606
 21
-326.050243168168
 31
0.0000000001127424
  0
LINE
  5
B3FC
330
18
100
AcDbEntity
  8
1DIM
100
AcDbLine
 10
5105.911414047606
 20
-326.050243168168
 30
0.0000000001127424
 11
5106.150061508543
 21
-325.8245141795205
 31
0.0000000001127424
  0
LINE
  5
B3FD
330
18
100
AcDbEntity
  8
1DIM
100
AcDbLine
 10
5106.150061508543
 20
-325.8245141795205
 30
0.0000000001127424
 11
5106.270773788817
 21
-325.5900991251992
 31
0.0000000001127424
  0
LINE
  5
B3FE
330
18
100
AcDbEntity
  8
1DIM
100
AcDbLine
 10
5106.270773788817
 20
-325.5900991251992
 30
0.0000000001127424
 11
5106.339041611082
 21
-325.3500001719522
 31
0.0000000001127424
  0
LINE
  5
B3FF
330
18
100
AcDbEntity
  8
1DIM
100
AcDbLine
 10
5106.339041611082
 20
-325.3500001719522
 30
0.0000000001127424
 11
5106.399847885496
 21
-325.1066453745889
 31
0.0000000001127424
  0
LINE
  5
B400
330
18
100
AcDbEntity
  8
1DIM
100
AcDbLine
 10
5104.345724960692
 20
-329.8516290476846
 30
0.0000000001127424
 11
5104.25395860327
 21
-330.1343877604531
 31
0.0000000001127424
  0
LINE
  5
B401
330
18
100
AcDbEntity
  8
1DIM
100
AcDbLine
 10
5104.25395860327
 20
-330.1343877604531
 30
0.0000000001127424
 11
5104.154105087645
 21
-330.4199807932901
 31
0.0000000001127424
  0
LINE
  5
B402
330
18
100
AcDbEntity
  8
1DIM
100
AcDbLine
 10
5104.154105087645
 20
-330.4199807932901
 30
0.0000000001127424
 11
5104.044669052489
 21
-330.7045533946084
 31
0.0000000001127424
  0
LINE
  5
B403
330
18
100
AcDbEntity
  8
1DIM
100
AcDbLine
 10
5104.044669052489
 20
-330.7045533946084
 30
0.0000000001127424
 11
5103.88172044409
 21
-330.9728524973916
 31
0.0000000001127424
  0
LINE
  5
B404
330
18
100
AcDbEntity
  8
1DIM
100
AcDbLine
 10
5103.88172044409
 20
-330.9728524973916
 30
0.0000000001127424
 11
5103.603552719481
 21
-331.235208301835
 31
0.0000000001127424
  0
LINE
  5
B405
330
18
100
AcDbEntity
  8
1DIM
100
AcDbLine
 10
5103.603552719481
 20
-331.235208301835
 30
0.0000000001127424
 11
5103.18494310034
 21
-331.4980104258584
 31
0.0000000001127424
  0
LINE
  5
B406
330
18
100
AcDbEntity
  8
1DIM
100
AcDbLine
 10
5103.18494310034
 20
-331.4980104258584
 30
0.0000000001127424
 11
5102.61756028784
 21
-331.7627666285562
 31
0.0000000001127424
  0
LINE
  5
B407
330
18
100
AcDbEntity
  8
1DIM
100
AcDbLine
 10
5102.61756028784
 20
-331.7627666285562
 30
0.0000000001127424
 11
5101.901053329832
 21
-332.0293700984048
 31
0.0000000001127424
  0
LINE
  5
B408
330
18
100
AcDbEntity
  8
1DIM
100
AcDbLine
 10
5101.901053329832
 20
-332.0293700984048
 30
0.0000000001127424
 11
5101.040274521239
 21
-332.2968213847207
 31
0.0000000001127424
  0
LINE
  5
B409
330
18
100
AcDbEntity
  8
1DIM
100
AcDbLine
 10
5101.040274521239
 20
-332.2968213847207
 30
0.0000000001127424
 11
5100.041251083739
 21
-332.5639627268838
 31
0.0000000001127424
  0
LINE
  5
B40A
330
18
100
AcDbEntity
  8
1DIM
100
AcDbLine
 10
5100.041251083739
 20
-332.5639627268838
 30
0.0000000001127424
 11
5098.912039657957
 21
-332.8294360926675
 31
0.0000000001127424
  0
LINE
  5
B40B
330
18
100
AcDbEntity
  8
1DIM
100
AcDbLine
 10
5098.912039657957
 20
-332.8294360926675
 30
0.0000000001127424
 11
5097.661002060301
 21
-333.0918681910562
 31
0.0000000001127424
  0
LINE
  5
B40C
330
18
100
AcDbEntity
  8
1DIM
100
AcDbLine
 10
5097.661002060301
 20
-333.0918681910562
 30
0.0000000001127424
 11
5096.295996567137
 21
-333.3500488093423
 31
0.0000000001127424
  0
LINE
  5
B40D
330
18
100
AcDbEntity
  8
1DIM
100
AcDbLine
 10
5096.295996567137
 20
-333.3500488093423
 30
0.0000000001127424
 11
5094.824606796629
 21
-333.6028554728555
 31
0.0000000001127424
  0
LINE
  5
B40E
330
18
100
AcDbEntity
  8
1DIM
100
AcDbLine
 10
5094.824606796629
 20
-333.6028554728555
 30
0.0000000001127424
 11
5093.254019638426
 21
-333.8492534449624
 31
0.0000000001127424
  0
LINE
  5
B40F
330
18
100
AcDbEntity
  8
1DIM
100
AcDbLine
 10
5093.254019638426
 20
-333.8492534449624
 30
0.0000000001127424
 11
5091.591147323973
 21
-334.0882804682778
 31
0.0000000001127424
  0
LINE
  5
B410
330
18
100
AcDbEntity
  8
1DIM
100
AcDbLine
 10
5091.591147323973
 20
-334.0882804682778
 30
0.0000000001127424
 11
5089.843359848387
 21
-334.3189714243936
 31
0.0000000001127424
  0
LINE
  5
B411
330
18
100
AcDbEntity
  8
1DIM
100
AcDbLine
 10
5089.843359848387
 20
-334.3189714243936
 30
0.0000000001127424
 11
5088.018668075926
 21
-334.5403487971353
 31
0.0000000001127424
  0
LINE
  5
B412
330
18
100
AcDbEntity
  8
1DIM
100
AcDbLine
 10
5088.018668075926
 20
-334.5403487971353
 30
0.0000000001127424
 11
5086.125800033934
 21
-334.7513921549844
 31
0.0000000001127424
  0
LINE
  5
B413
330
18
100
AcDbEntity
  8
1DIM
100
AcDbLine
 10
5086.125800033934
 20
-334.7513921549844
 30
0.0000000001127424
 11
5084.175589462645
 21
-334.9509427836465
 31
0.0000000001127424
  0
LINE
  5
B414
330
18
100
AcDbEntity
  8
1DIM
100
AcDbLine
 10
5084.175589462645
 20
-334.9509427836465
 30
0.0000000001127424
 11
5082.179541489012
 21
-335.1378000071572
 31
0.0000000001127424
  0
LINE
  5
B415
330
18
100
AcDbEntity
  8
1DIM
100
AcDbLine
 10
5082.179541489012
 20
-335.1378000071572
 30
0.0000000001127424
 11
5080.151068588621
 21
-335.31064775496
 31
0.0000000001127424
  0
LINE
  5
B416
330
18
100
AcDbEntity
  8
1DIM
100
AcDbLine
 10
5080.151068588621
 20
-335.31064775496
 30
0.0000000001127424
 11
5078.104041000731
 21
-335.4678676417398
 31
0.0000000001127424
  0
LINE
  5
B417
330
18
100
AcDbEntity
  8
1DIM
100
AcDbLine
 10
5078.104041000731
 20
-335.4678676417398
 30
0.0000000001127424
 11
5076.053244491942
 21
-335.6073587229776
 31
0.0000000001127424
  0
LINE
  5
B418
330
18
100
AcDbEntity
  8
1DIM
100
AcDbLine
 10
5076.053244491942
 20
-335.6073587229776
 30
0.0000000001127424
 11
5073.947791000731
 21
-335.7269819071817
 31
0.0000000001127424
  0
LINE
  5
B419
330
18
100
AcDbEntity
  8
0
  6
BYBLOCK
100
AcDbLine
 10
5194.049596239165
 20
-252.4193633166012
 30
0.0000000001127424
 11
5191.449596239165
 21
-251.7226954226012
 31
0.0000000001127424
  0
LINE
  5
B41A
330
18
100
AcDbEntity
  8
0
  6
BYBLOCK
100
AcDbLine
 10
5191.449596239165
 20
-251.7226954226012
 30
0.0000000001127424
 11
5194.049596239165
 21
-251.0260275286012
 31
0.0000000001127424
  0
LINE
  5
B41B
330
18
100
AcDbEntity
  8
0
  6
BYBLOCK
100
AcDbLine
 10
5191.449596239165
 20
-251.7226954226012
 30
0.0000000001127424
 11
5194.049596239165
 21
-251.7226954226012
 31
0.0000000001127424
  0
LINE
  5
B41C
330
18
100
AcDbEntity
  8
0
  6
BYBLOCK
100
AcDbLine
 10
5319.710909868723
 20
-251.0260275286012
 30
0.0000000001127424
 11
5322.310909868724
 21
-251.7226954226012
 31
0.0000000001127424
  0
LINE
  5
B41D
330
18
100
AcDbEntity
  8
0
  6
BYBLOCK
100
AcDbLine
 10
5322.310909868724
 20
-251.7226954226012
 30
0.0000000001127424
 11
5319.710909868723
 21
-252.4193633166012
 31
0.0000000001127424
  0
LINE
  5
B41E
330
18
100
AcDbEntity
  8
0
  6
BYBLOCK
100
AcDbLine
 10
5322.310909868724
 20
-251.7226954226012
 30
0.0000000001127424
 11
5319.710909868723
 21
-251.7226954226012
 31
0.0000000001127424
  0
TEXT
  5
B41F
330
18
100
AcDbEntity
  8
1DIM
  6
CONTINUOUS
100
AcDbText
 10
5252.330253053944
 20
-250.8126954226012
 30
0.0000000001127424
 40
4.55
  1
131
100
AcDbText
1001
ACAD
1000
DSTYLE
1002
{
1070
    40
1040
1.3
1070
    45
1040
0.5
1002
}
  0
LINE
  5
B420
330
18
100
AcDbEntity
  8
0
  6
BYBLOCK
100
AcDbLine
 10
5179.589795905147
 20
-262.4193633166012
 30
0.0000000001127424
 11
5176.989795905147
 21
-261.7226954226012
 31
0.0000000001127424
  0
LINE
  5
B421
330
18
100
AcDbEntity
  8
0
  6
BYBLOCK
100
AcDbLine
 10
5176.989795905147
 20
-261.7226954226012
 30
0.0000000001127424
 11
5179.589795905147
 21
-261.0260275286012
 31
0.0000000001127424
  0
LINE
  5
B422
330
18
100
AcDbEntity
  8
0
  6
BYBLOCK
100
AcDbLine
 10
5176.989795905147
 20
-261.7226954226012
 30
0.0000000001127424
 11
5179.589795905147
 21
-261.7226954226012
 31
0.0000000001127424
  0
LINE
  5
B423
330
18
100
AcDbEntity
  8
0
  6
BYBLOCK
100
AcDbLine
 10
5319.710909868723
 20
-261.0260275286012
 30
0.0000000001127424
 11
5322.310909868724
 21
-261.7226954226012
 31
0.0000000001127424
  0
LINE
  5
B424
330
18
100
AcDbEntity
  8
0
  6
BYBLOCK
100
AcDbLine
 10
5322.310909868724
 20
-261.7226954226012
 30
0.0000000001127424
 11
5319.710909868723
 21
-262.4193633166012
 31
0.0000000001127424
  0
LINE
  5
B425
330
18
100
AcDbEntity
  8
0
  6
BYBLOCK
100
AcDbLine
 10
5322.310909868724
 20
-261.7226954226012
 30
0.0000000001127424
 11
5319.710909868723
 21
-261.7226954226012
 31
0.0000000001127424
  0
TEXT
  5
B426
330
18
100
AcDbEntity
  8
1DIM
  6
CONTINUOUS
100
AcDbText
 10
5241.292887609157
 20
-260.8126954226012
 30
0.0000000001127424
 40
4.55
  1
145.5
100
AcDbText
1001
ACAD
1000
DSTYLE
1002
{
1070
    40
1040
1.3
1070
    45
1040
0.5
1002
}
  0
LINE
  5
B427
330
18
100
AcDbEntity
  8
0
  6
BYBLOCK
100
AcDbLine
 10
5347.146264133165
 20
-205.4862483774295
 30
0.0000000001127424
 11
5346.449596239165
 21
-208.0862483774295
 31
0.0000000001127424
  0
LINE
  5
B428
330
18
100
AcDbEntity
  8
0
  6
BYBLOCK
100
AcDbLine
 10
5346.449596239165
 20
-208.0862483774295
 30
0.0000000001127424
 11
5345.752928345165
 21
-205.4862483774295
 31
0.0000000001127424
  0
LINE
  5
B429
330
18
100
AcDbEntity
  8
0
  6
BYBLOCK
100
AcDbLine
 10
5346.449596239165
 20
-208.0862483774295
 30
0.0000000001127424
 11
5346.449596239165
 21
-205.4862483774295
 31
0.0000000001127424
  0
LINE
  5
B42A
330
18
100
AcDbEntity
  8
0
  6
BYBLOCK
100
AcDbLine
 10
5345.752928345165
 20
-169.3226954226012
 30
0.0000000001127424
 11
5346.449596239165
 21
-166.7226954226012
 31
0.0000000001127424
  0
LINE
  5
B42B
330
18
100
AcDbEntity
  8
0
  6
BYBLOCK
100
AcDbLine
 10
5346.449596239165
 20
-166.7226954226012
 30
0.0000000001127424
 11
5347.146264133165
 21
-169.3226954226012
 31
0.0000000001127424
  0
LINE
  5
B42C
330
18
100
AcDbEntity
  8
0
  6
BYBLOCK
100
AcDbLine
 10
5346.449596239165
 20
-166.7226954226012
 30
0.0000000001127424
 11
5346.449596239165
 21
-169.3226954226012
 31
0.0000000001127424
  0
TEXT
  5
B42D
330
18
100
AcDbEntity
  8
1DIM
  6
CONTINUOUS
100
AcDbText
 10
5345.539596239164
 20
-193.4711385666815
 30
0.0000000001127424
 40
4.55
  1
41.5
 50
90.0
100
AcDbText
1001
ACAD
1000
DSTYLE
1002
{
1070
    40
1040
1.3
1070
    45
1040
0.5
1002
}
  0
LINE
  5
B42E
330
18
100
AcDbEntity
  8
0
  6
BYBLOCK
100
AcDbLine
 10
5357.146264133165
 20
-229.2508997177301
 30
0.0000000001127424
 11
5356.449596239165
 21
-231.8508997177301
 31
0.0000000001127424
  0
LINE
  5
B42F
330
18
100
AcDbEntity
  8
0
  6
BYBLOCK
100
AcDbLine
 10
5356.449596239165
 20
-231.8508997177301
 30
0.0000000001127424
 11
5355.752928345165
 21
-229.2508997177301
 31
0.0000000001127424
  0
LINE
  5
B430
330
18
100
AcDbEntity
  8
0
  6
BYBLOCK
100
AcDbLine
 10
5356.449596239165
 20
-231.8508997177301
 30
0.0000000001127424
 11
5356.449596239165
 21
-229.2508997177301
 31
0.0000000001127424
  0
LINE
  5
B431
330
18
100
AcDbEntity
  8
0
  6
BYBLOCK
100
AcDbLine
 10
5355.752928345165
 20
-169.3226954226012
 30
0.0000000001127424
 11
5356.449596239165
 21
-166.7226954226012
 31
0.0000000001127424
  0
LINE
  5
B432
330
18
100
AcDbEntity
  8
0
  6
BYBLOCK
100
AcDbLine
 10
5356.449596239165
 20
-166.7226954226012
 30
0.0000000001127424
 11
5357.146264133165
 21
-169.3226954226012
 31
0.0000000001127424
  0
LINE
  5
B433
330
18
100
AcDbEntity
  8
0
  6
BYBLOCK
100
AcDbLine
 10
5356.449596239165
 20
-166.7226954226012
 30
0.0000000001127424
 11
5356.449596239165
 21
-169.3226954226012
 31
0.0000000001127424
  0
TEXT
  5
B434
330
18
100
AcDbEntity
  8
1DIM
  6
CONTINUOUS
100
AcDbText
 10
5355.539596239165
 20
-203.0942628479424
 30
0.0000000001127424
 40
4.55
  1
65
 50
90.0
100
AcDbText
1001
ACAD
1000
DSTYLE
1002
{
1070
    40
1040
1.3
1070
    45
1040
0.5
1002
}
  0
LINE
  5
B435
330
18
100
AcDbEntity
  8
0
  6
BYBLOCK
100
AcDbLine
 10
5347.146264133165
 20
-319.2869085066649
 30
0.0000000001127424
 11
5346.449596239165
 21
-321.8869085066649
 31
0.0000000001127424
  0
LINE
  5
B436
330
18
100
AcDbEntity
  8
0
  6
BYBLOCK
100
AcDbLine
 10
5346.449596239165
 20
-321.8869085066649
 30
0.0000000001127424
 11
5345.752928345165
 21
-319.2869085066649
 31
0.0000000001127424
  0
LINE
  5
B437
330
18
100
AcDbEntity
  8
0
  6
BYBLOCK
100
AcDbLine
 10
5346.449596239165
 20
-321.8869085066649
 30
0.0000000001127424
 11
5346.449596239165
 21
-319.2869085066649
 31
0.0000000001127424
  0
LINE
  5
B438
330
18
100
AcDbEntity
  8
0
  6
BYBLOCK
100
AcDbLine
 10
5345.752928345165
 20
-317.317001890454
 30
0.0000000001127424
 11
5346.449596239165
 21
-314.717001890454
 31
0.0000000001127424
  0
LINE
  5
B439
330
18
100
AcDbEntity
  8
0
  6
BYBLOCK
100
AcDbLine
 10
5346.449596239165
 20
-314.717001890454
 30
0.0000000001127424
 11
5347.146264133165
 21
-317.317001890454
 31
0.0000000001127424
  0
LINE
  5
B43A
330
18
100
AcDbEntity
  8
0
  6
BYBLOCK
100
AcDbLine
 10
5346.449596239165
 20
-314.717001890454
 30
0.0000000001127424
 11
5346.449596239165
 21
-317.317001890454
 31
0.0000000001127424
  0
TEXT
  5
B43B
330
18
100
AcDbEntity
  8
1DIM
  6
CONTINUOUS
100
AcDbText
 10
5345.539596239164
 20
-319.8186218652254
 30
0.0000000001127424
 40
4.55
  1
7
 50
90.0
100
AcDbText
1001
ACAD
1000
DSTYLE
1002
{
1070
    40
1040
1.3
1070
    45
1040
0.5
1002
}
  0
VIEWPORT
  5
57
330
15
100
AcDbEntity
 67
     1
  8
0
100
AcDbViewport
 68
     1
 10
0.0
 20
0.0
 30
0.0
 40
555.8298653610772
 41
297.0
 68
     1
 69
     1
1001
ACAD
1000
MVIEW
1002
{
1070
    16
1010
0.0
1020
0.0
1030
0.0
1010
0.0
1020
0.0
1030
1.0
1040
0.0
1040
297.0
1040
5.728000000000009
1040
25.339
1040
50.0
1040
0.0
1040
0.0
1070
    16
1070
   100
1070
     0
1070
     1
1070
     0
1070
     0
1070
     0
1070
     0
1040
0.0
1040
0.0
1040
0.0
1040
10.0
1040
10.0
1040
10.0
1040
10.0
1070
     0
1002
{
1002
}
1002
}
  0
ENDSEC
  0
SECTION
  2
OBJECTS
  0
DICTIONARY
  5
C
330
0
100
AcDbDictionary
  3
ACAD_CIP_PREVIOUS_PRODUCT_INFO
350
AEA8
  3
ACAD_COLOR
350
18D
  3
ACAD_GROUP
350
D
  3
ACAD_LAYOUT
350
18E
  3
ACAD_MATERIAL
350
18C
  3
ACAD_MLEADERSTYLE
350
9583
  3
ACAD_MLINESTYLE
350
1B
  3
ACAD_PLOTSETTINGS
350
18F
  3
ACAD_SCALELIST
350
9561
  3
ACAD_VISUALSTYLE
350
9550
  3
ACDBHEADERROUNDTRIPXREC
350
B43C
  3
ACDBVARIABLEDICTIONARY
350
37
  3
CONTENTDICTIONARY
350
D8
  3
DRAWINGVARIABLESDICT
350
20
  3
DWGPROPS
350
B43F
1001
ACAD
1000
TREAT_AS_HARD
1070
     0
  0
DICTIONARY
  5
96D9
330
2
100
AcDbDictionary
  3
ACAD_LAYERSTATES
360
96DA
1001
ACAD
1000
TREAT_AS_HARD
1070
     1
  0
DICTIONARY
  5
9593
330
E
100
AcDbDictionary
  3
ADSK_XREC_LAYER_RECONCILED
360
9594
1001
ACAD
1000
TREAT_AS_HARD
1070
     1
  0
DICTIONARY
  5
9595
330
29
100
AcDbDictionary
  3
ADSK_XREC_LAYER_RECONCILED
360
9596
1001
ACAD
1000
TREAT_AS_HARD
1070
     1
  0
DICTIONARY
  5
9597
330
31
100
AcDbDictionary
  3
ADSK_XREC_LAYER_RECONCILED
360
9598
1001
ACAD
1000
TREAT_AS_HARD
1070
     1
  0
DICTIONARY
  5
959D
330
243
100
AcDbDictionary
  3
ADSK_XREC_LAYER_RECONCILED
360
959E
1001
ACAD
1000
TREAT_AS_HARD
1070
     1
  0
DICTIONARY
  5
95A3
330
24E
100
AcDbDictionary
  3
ADSK_XREC_LAYER_RECONCILED
360
95A4
1001
ACAD
1000
TREAT_AS_HARD
1070
     1
  0
DICTIONARY
  5
88F
330
18
100
AcDbDictionary
  3
ACAD_SORTENTS
360
890
1001
ACAD
1000
TREAT_AS_HARD
1070
     1
  0
XRECORD
  5
AEA8
102
{ACAD_REACTORS
330
C
102
}
330
C
100
AcDbXrecord
300
ACDLT
300
2012
300
ACDLT_F_S
  0
DICTIONARY
  5
18D
102
{ACAD_REACTORS
330
C
102
}
330
C
100
AcDbDictionary
1001
ACAD
1000
TREAT_AS_HARD
1070
     0
  0
DICTIONARY
  5
D
102
{ACAD_REACTORS
330
C
102
}
330
C
100
AcDbDictionary
1001
ACAD
1000
TREAT_AS_HARD
1070
     0
  0
DICTIONARY
  5
18E
102
{ACAD_REACTORS
330
C
102
}
330
C
100
AcDbDictionary
1001
ACAD
1000
TREAT_AS_HARD
1070
     0
  0
DICTIONARY
  5
18C
102
{ACAD_REACTORS
330
C
102
}
330
C
100
AcDbDictionary
  3
BYBLOCK
350
9540
  3
BYLAYER
350
9538
  3
GLOBAL
350
9548
1001
ACAD
1000
TREAT_AS_HARD
1070
     0
  0
DICTIONARY
  5
9583
102
{ACAD_REACTORS
330
C
102
}
330
C
100
AcDbDictionary
  3
STANDARD
350
9584
1001
ACAD
1000
TREAT_AS_HARD
1070
     0
  0
DICTIONARY
  5
1B
102
{ACAD_REACTORS
330
C
102
}
330
C
100
AcDbDictionary
  3
STANDARD
350
1C
1001
ACAD
1000
TREAT_AS_HARD
1070
     0
  0
DICTIONARY
  5
18F
102
{ACAD_REACTORS
330
C
102
}
330
C
100
AcDbDictionary
1001
ACAD
1000
TREAT_AS_HARD
1070
     0
  0
DICTIONARY
  5
9561
102
{ACAD_REACTORS
330
C
102
}
330
C
100
AcDbDictionary
  3
A0
350
9562
  3
A1
350
9563
  3
A2
350
9564
  3
A3
350
9565
  3
A4
350
9566
  3
A5
350
9567
  3
A6
350
9568
  3
A7
350
9569
  3
A8
350
956A
  3
A9
350
956B
  3
B0
350
956C
  3
B1
350
956D
  3
B2
350
956E
  3
B3
350
956F
  3
B4
350
9570
  3
B5
350
9571
  3
B6
350
9572
  3
B7
350
9573
  3
B8
350
9574
  3
B9
350
9575
  3
C0
350
9576
  3
C1
350
9577
  3
C2
350
9578
  3
C3
350
9579
  3
C4
350
957A
  3
C5
350
957B
  3
C6
350
957C
  3
C7
350
957D
  3
C8
350
957E
  3
C9
350
957F
  3
D0
350
9580
  3
D1
350
9581
  3
D2
350
9582
1001
ACAD
1000
TREAT_AS_HARD
1070
     0
  0
DICTIONARY
  5
9550
102
{ACAD_REACTORS
330
C
102
}
330
C
100
AcDbDictionary
  3
2DWIREFRAME
350
9556
  3
3D_HIDDEN
350
9558
  3
3DWIREFRAME
350
9557
  3
BASIC
350
9555
  3
BRIGHTEN
350
955C
  3
COLORCHANGE
350
9560
  3
CONCEPTUAL
350
9559
  3
DIM
350
955B
  3
EDGECOLOROFF
350
A211
  3
FACEPATTERN
350
955F
  3
FLAT
350
9551
  3
FLATWITHEDGES
350
9552
  3
GOURAUD
350
9553
  3
GOURAUDWITHEDGES
350
9554
  3
HIDDEN
350
A260
  3
JITTEROFF
350
A20F
  3
LINEPATTERN
350
955E
  3
MODELING
350
A266
  3
OVERHANGOFF
350
A210
  3
REALISTIC
350
955A
  3
SHADED
350
A265
  3
SHADED_WITH_EDGES
350
A264
  3
SHADES_OF_GRAY
350
A261
  3
SKETCHY
350
A262
  3
THICKEN
350
955D
  3
WIREFRAME
350
A25F
  3
X-RAY
350
A263
1001
ACAD
1000
TREAT_AS_HARD
1070
     0
  0
DICTIONARY
  5
B43C
102
{ACAD_REACTORS
330
C
102
}
330
C
100
AcDbDictionary
  3
COLORDICT
350
B43D
  3
MATERIALDICT
350
B43E
1001
ACAD
1000
TREAT_AS_HARD
1070
     0
  0
DICTIONARY
  5
37
102
{ACAD_REACTORS
330
C
102
}
330
C
100
AcDbDictionary
  3
CANNOSCALE
350
B082
  3
CMLEADERSTYLE
350
9627
  3
CTABLESTYLE
350
29E
  3
DIMADEC
350
38
  3
DIMASSOC
350
1CE
  3
HIDETEXT
350
704E
  3
INDEXCTL
350
962A
  3
INTERSECTIONCOLOR
350
7052
  3
INTERSECTIONDISPLAY
350
7051
  3
MSLTSCALE
350
AB30
  3
OBSCOLOR
350
704F
  3
OBSLTYPE
350
7050
  3
PROJECTNAME
350
1CF
  3
SORTENTS
350
9629
  3
XCLIPFRAME
350
B061
1001
ACAD
1000
TREAT_AS_HARD
1070
     0
  0
DICTIONARY
  5
D8
102
{ACAD_REACTORS
330
C
102
}
330
C
100
AcDbDictionary
1001
ACAD
1000
TREAT_AS_HARD
1070
     0
  0
DICTIONARY
  5
20
102
{ACAD_REACTORS
330
C
102
}
330
C
100
AcDbDictionary
1001
DRAWINGVARIABLESXDATA
1000
POLARANG
1000
0.261799387799149410000000
1000
POLARMODE
1000
1
1000
POLARSTYLE
1000
1
1001
ACAD
1000
TREAT_AS_HARD
1070
     0
  0
XRECORD
  5
B43F
102
{ACAD_REACTORS
330
C
102
}
330
C
100
AcDbXrecord
  1
DWGPROPS COOKIE
  2

  3

  4

  6

  7

  8
3684
  9

300
=
301
=
302
=
303
=
304
=
305
=
306
=
307
=
308
=
309
=
 40
0.0
 41
2451318.246352917
 42
2458163.194893472
  1

 90
        0
  0
DICTIONARY
  5
96DA
102
{ACAD_REACTORS
330
96D9
102
}
330
96D9
100
AcDbDictionary
1001
ACAD
1000
TREAT_AS_HARD
1070
     0
  0
ACAD_PROXY_OBJECT
  5
9594
102
{ACAD_REACTORS
330
9593
102
}
330
9593
100
AcDbZombieObject
 90
      499
 91
      514
 93
       34
310
40C8804040
  0
ACAD_PROXY_OBJECT
  5
9596
102
{ACAD_REACTORS
330
9595
102
}
330
9595
100
AcDbZombieObject
 90
      499
 91
      514
 93
       34
310
40C8804040
  0
ACAD_PROXY_OBJECT
  5
9598
102
{ACAD_REACTORS
330
9597
102
}
330
9597
100
AcDbZombieObject
 90
      499
 91
      514
 93
       34
310
40C8804040
  0
ACAD_PROXY_OBJECT
  5
959E
102
{ACAD_REACTORS
330
959D
102
}
330
959D
100
AcDbZombieObject
 90
      499
 91
      514
 93
       34
310
40C8804040
  0
ACAD_PROXY_OBJECT
  5
95A4
102
{ACAD_REACTORS
330
95A3
102
}
330
95A3
100
AcDbZombieObject
 90
      499
 91
      514
 93
       34
310
40C8804040
  0
SORTENTSTABLE
  5
890
102
{ACAD_REACTORS
330
88F
102
}
330
88F
100
AcDbSortentsTable
330
18
331
AF67
  5
AF74
331
AF68
  5
AF75
331
AF69
  5
AF76
331
AF6A
  5
AF77
331
AF6B
  5
AF78
331
AF6C
  5
AF79
331
AF6D
  5
AF7A
331
AF6E
  5
AF7B
331
AF6F
  5
AF7C
331
AF70
  5
AF7D
331
0
  5
AF7E
331
0
  5
AF7F
331
0
  5
AF81
331
0
  5
AF82
331
0
  5
AF83
331
AF76
  5
B116
331
AF77
  5
B117
331
AF78
  5
B118
331
AF79
  5
B119
331
AF7A
  5
B11A
331
AF7B
  5
B11B
331
AF7C
  5
B11C
331
AF7D
  5
B11D
331
AF7E
  5
B11E
331
AF7F
  5
B11F
331
AF81
  5
B125
331
AF82
  5
B126
331
AF83
  5
B127
331
AF84
  5
B128
331
AF85
  5
B129
331
AF87
  5
B175
331
AF88
  5
B176
331
AF8A
  5
B1E6
331
AF8C
  5
B204
331
AF8D
  5
B205
331
0
  5
B1C1
331
AF8F
  5
B250
331
0
  5
B1C3
331
AF91
  5
B29E
331
AF92
  5
B29F
331
AF93
  5
B2A0
331
AF94
  5
B2A1
331
AF95
  5
B2A2
331
AF96
  5
B2A3
331
0
  5
B1CA
331
AF98
  5
B2AB
331
0
  5
B1CC
331
AF9A
  5
B2B1
331
AF9B
  5
B2B2
331
AF9E
  5
B2BD
331
AFA0
  5
B2C3
331
AFA3
  5
B373
331
AFA6
  5
B389
331
AFA7
  5
B38A
331
0
  5
B2A7
331
0
  5
B2A8
331
AFAA
  5
B3BD
331
AFAB
  5
B3BE
331
AFAC
  5
B3BF
331
AFAD
  5
B3C0
331
AFAE
  5
B3C1
331
AFAF
  5
B3C2
331
AFB2
  5
B3DF
331
AFB5
  5
B401
331
AFB8
  5
B439
331
AFB9
  5
B43A
331
AFBA
  5
B43B
331
B0FC
  5
AF67
331
B0FD
  5
AF68
331
B0FE
  5
AF69
331
0
  5
AF6A
331
0
  5
AF6B
331
0
  5
AF6C
331
B102
  5
B120
331
B103
  5
B121
331
B104
  5
B122
331
B105
  5
B123
331
B106
  5
B124
331
B107
  5
B12A
331
B108
  5
B12B
331
B109
  5
B12C
331
B10A
  5
B12D
331
B10B
  5
B12E
331
B10C
  5
B12F
331
B10D
  5
B130
331
B10E
  5
B131
331
B10F
  5
B132
331
B110
  5
B133
331
B111
  5
B134
331
B112
  5
B135
331
B113
  5
B136
331
B114
  5
B137
331
B115
  5
B138
331
B116
  5
B139
331
B117
  5
B13A
331
B118
  5
B13B
331
B119
  5
B13C
331
B11A
  5
B13D
331
B11B
  5
B13E
331
B11C
  5
B13F
331
B11D
  5
B140
331
B11E
  5
B141
331
B11F
  5
B142
331
B120
  5
B143
331
B121
  5
B144
331
B122
  5
B145
331
B123
  5
B146
331
B124
  5
B147
331
B125
  5
B148
331
B126
  5
B149
331
B127
  5
B14A
331
B128
  5
B14B
331
B129
  5
B14C
331
B12A
  5
B14D
331
B12B
  5
B14E
331
B12C
  5
B14F
331
B12D
  5
B150
331
B12E
  5
B151
331
B12F
  5
B152
331
B130
  5
B153
331
B131
  5
B154
331
B132
  5
B155
331
B133
  5
B156
331
B134
  5
B157
331
B135
  5
B158
331
B136
  5
B159
331
B137
  5
B15A
331
B138
  5
B15B
331
B139
  5
B15C
331
B13A
  5
B15D
331
B13B
  5
B15E
331
B13C
  5
B15F
331
B13D
  5
B160
331
B13E
  5
B161
331
B13F
  5
B162
331
B140
  5
B163
331
B141
  5
B164
331
B142
  5
B165
331
B143
  5
B166
331
B144
  5
B167
331
B145
  5
B168
331
B146
  5
B169
331
B147
  5
B16A
331
B148
  5
B16B
331
B149
  5
B16C
331
B14A
  5
B16D
331
B14B
  5
B16E
331
B14C
  5
B16F
331
B14D
  5
B170
331
B14E
  5
B171
331
B14F
  5
B172
331
B150
  5
B173
331
B151
  5
B174
331
B152
  5
B177
331
B153
  5
B178
331
B154
  5
B179
331
B155
  5
B17A
331
B156
  5
B17B
331
B157
  5
B17C
331
B158
  5
B17D
331
B159
  5
B17E
331
B15A
  5
B17F
331
B15B
  5
B180
331
B15C
  5
B181
331
B15D
  5
B182
331
B15E
  5
B183
331
B15F
  5
B184
331
B160
  5
B185
331
B161
  5
B186
331
B162
  5
B187
331
B163
  5
B188
331
B164
  5
B189
331
B165
  5
B18A
331
B166
  5
B18B
331
B167
  5
B18C
331
B168
  5
B18D
331
B169
  5
B18E
331
B16A
  5
B18F
331
B16B
  5
B190
331
B16C
  5
B191
331
B16D
  5
B192
331
B16E
  5
B193
331
B16F
  5
B194
331
B170
  5
B195
331
B171
  5
B196
331
B172
  5
B197
331
B173
  5
B198
331
B174
  5
B199
331
B175
  5
B19A
331
B176
  5
B19B
331
B177
  5
B19C
331
B178
  5
B19D
331
B179
  5
B19E
331
B17A
  5
B19F
331
B17B
  5
B1A0
331
B17C
  5
B1A1
331
B17D
  5
B1A2
331
B17E
  5
B1A3
331
B17F
  5
B1A4
331
B180
  5
B1A5
331
B181
  5
B1A6
331
B182
  5
B1A7
331
B183
  5
B1A8
331
B184
  5
B1A9
331
B185
  5
B1AA
331
B186
  5
B1AB
331
B187
  5
B1AC
331
B188
  5
B1AD
331
B189
  5
B1AE
331
B18A
  5
B1AF
331
B18B
  5
B1B0
331
B18C
  5
B1B1
331
B18D
  5
B1B2
331
B18E
  5
B1B3
331
B18F
  5
B1B4
331
B190
  5
B1B5
331
B191
  5
B1B6
331
B192
  5
B1B7
331
B193
  5
B1B8
331
B194
  5
B1B9
331
B195
  5
B1BA
331
B196
  5
B1BB
331
B197
  5
B1BC
331
B198
  5
B1BD
331
B199
  5
B1BE
331
B19A
  5
B1BF
331
B19B
  5
B1C0
331
B19C
  5
B1C2
331
B19D
  5
B1C4
331
B19E
  5
B1C5
331
B19F
  5
B1C6
331
B1A0
  5
B1C7
331
B1A1
  5
B1C8
331
B1A2
  5
B1C9
331
B1A3
  5
B1CB
331
B1A4
  5
B1CD
331
B1A5
  5
B1CE
331
B1A6
  5
B1CF
331
B1A7
  5
B1D0
331
B1A8
  5
B1D1
331
B1A9
  5
B1D2
331
B1AA
  5
B1D3
331
B1AB
  5
B1D4
331
B1AC
  5
B1D5
331
B1AD
  5
B1D6
331
B1AE
  5
B1D7
331
B1AF
  5
B1D8
331
B1B0
  5
B1D9
331
B1B1
  5
B1DA
331
B1B2
  5
B1DB
331
B1B3
  5
B1DC
331
B1B4
  5
B1DD
331
B1B5
  5
B1DE
331
B1B6
  5
B1DF
331
B1B7
  5
B1E0
331
B1B8
  5
B1E1
331
B1B9
  5
B1E2
331
B1BA
  5
B1E3
331
B1BB
  5
B1E4
331
B1BC
  5
B1E5
331
B1BD
  5
B1E7
331
B1BE
  5
B1E8
331
B1BF
  5
B1E9
331
B1C0
  5
B1EA
331
B1C1
  5
B1EB
331
B1C2
  5
B1EC
331
B1C3
  5
B1ED
331
B1C4
  5
B1EE
331
B1C5
  5
B1EF
331
B1C6
  5
B1F0
331
B1C7
  5
B1F1
331
B1C8
  5
B1F2
331
B1C9
  5
B1F3
331
B1CA
  5
B1F4
331
B1CB
  5
B1F5
331
B1CC
  5
B1F6
331
B1CD
  5
B1F7
331
B1CE
  5
B1F8
331
B1CF
  5
B1F9
331
B1D0
  5
B1FA
331
B1D1
  5
B1FB
331
B1D2
  5
B1FC
331
B1D3
  5
B1FD
331
B1D4
  5
B1FE
331
B1D5
  5
B1FF
331
B1D6
  5
B200
331
B1D7
  5
B201
331
B1D8
  5
B202
331
B1D9
  5
B203
331
B1DA
  5
B2B3
331
B1DB
  5
B2B4
331
B1DC
  5
B2B5
331
B1DD
  5
B2B6
331
B1DE
  5
B2B7
331
B1DF
  5
B2B8
331
B1E0
  5
B2B9
331
B1E1
  5
B2BA
331
B1E2
  5
B2BB
331
B1E3
  5
B2BC
331
B1E4
  5
B2BE
331
B1E5
  5
B2BF
331
B1E6
  5
B2C0
331
B1E7
  5
B2C1
331
B1E8
  5
B2C2
331
B1E9
  5
B2C4
331
B1EA
  5
B2C5
331
B1EB
  5
B2C6
331
B1EC
  5
B2C7
331
B1ED
  5
B2C8
331
B1EE
  5
B2C9
331
B1EF
  5
B2CA
331
B1F0
  5
B2CB
331
B1F1
  5
B2CC
331
B1F2
  5
B2CD
331
B1F3
  5
B2CE
331
B1F4
  5
B2CF
331
B1F5
  5
B2D0
331
B1F6
  5
B2D1
331
B1F7
  5
B2D2
331
B1F8
  5
B2D3
331
B1F9
  5
B2D4
331
B1FA
  5
B2D5
331
B1FB
  5
B2D6
331
B1FC
  5
B2D7
331
B1FD
  5
B2D8
331
B1FE
  5
B2D9
331
B1FF
  5
B2DA
331
B200
  5
B2DB
331
B201
  5
B2DC
331
B202
  5
B2DD
331
B203
  5
B2DE
331
B204
  5
B2DF
331
B205
  5
B2E0
331
B206
  5
B2E1
331
B207
  5
B2E2
331
B208
  5
B2E3
331
B209
  5
B2E4
331
B20A
  5
B2E5
331
B20B
  5
B2E6
331
B20C
  5
B2E7
331
B20D
  5
B2E8
331
B20E
  5
B2E9
331
B20F
  5
B2EA
331
B210
  5
B2EB
331
B211
  5
B2EC
331
B212
  5
B2ED
331
B213
  5
B2EE
331
B214
  5
B2EF
331
B215
  5
B2F0
331
B216
  5
B2F1
331
B217
  5
B2F2
331
B218
  5
B2F3
331
B219
  5
B2F4
331
B21A
  5
B2F5
331
B21B
  5
B2F6
331
B21C
  5
B2F7
331
B21D
  5
B2F8
331
B21E
  5
B2F9
331
B21F
  5
B2FA
331
B220
  5
B2FB
331
B221
  5
B2FC
331
B222
  5
B2FD
331
B223
  5
B2FE
331
B224
  5
B2FF
331
B225
  5
B300
331
B226
  5
B301
331
B227
  5
B302
331
B228
  5
B303
331
B229
  5
B304
331
B22A
  5
B305
331
B22B
  5
B306
331
B22C
  5
B307
331
B22D
  5
B308
331
B22E
  5
B309
331
B22F
  5
B30A
331
B230
  5
B30B
331
B231
  5
B30C
331
B232
  5
B30D
331
B233
  5
B30E
331
B234
  5
B30F
331
B235
  5
B310
331
B236
  5
B311
331
B237
  5
B312
331
B238
  5
B313
331
B239
  5
B314
331
B23A
  5
B315
331
B23B
  5
B316
331
B23C
  5
B317
331
B23D
  5
B318
331
B23E
  5
B319
331
B23F
  5
B31A
331
B240
  5
B31B
331
B241
  5
B31C
331
B242
  5
B31D
331
B243
  5
B31E
331
B244
  5
B31F
331
B245
  5
B320
331
B246
  5
B321
331
B247
  5
B322
331
B248
  5
B323
331
B249
  5
B324
331
B24A
  5
B325
331
B24B
  5
B326
331
B24C
  5
B327
331
B24D
  5
B328
331
B24E
  5
B329
331
B24F
  5
B32A
331
B250
  5
B32B
331
B251
  5
B32C
331
B252
  5
B32D
331
B253
  5
B32E
331
B254
  5
B32F
331
B255
  5
B330
331
B256
  5
B331
331
B257
  5
B332
331
B258
  5
B333
331
B259
  5
B334
331
B25A
  5
B335
331
B25B
  5
B336
331
B25C
  5
B337
331
B25D
  5
B338
331
B25E
  5
B339
331
B25F
  5
B33A
331
B260
  5
B33B
331
B261
  5
B33C
331
B262
  5
B33D
331
B263
  5
B33E
331
B264
  5
B33F
331
B265
  5
B340
331
B266
  5
B341
331
B267
  5
B342
331
B268
  5
B343
331
B269
  5
B344
331
B26A
  5
B345
331
B26B
  5
B346
331
B26C
  5
B347
331
B26D
  5
B348
331
B26E
  5
B349
331
B26F
  5
B34A
331
B270
  5
B34B
331
B271
  5
B34C
331
B272
  5
B34D
331
B273
  5
B34E
331
B274
  5
B34F
331
B275
  5
B350
331
B276
  5
B351
331
B277
  5
B352
331
B278
  5
B353
331
B279
  5
B354
331
B27A
  5
B355
331
B27B
  5
B356
331
B27C
  5
B357
331
B27D
  5
B358
331
B27E
  5
B359
331
B27F
  5
B35A
331
B280
  5
B35B
331
B281
  5
B35C
331
B282
  5
B35D
331
B283
  5
B35E
331
B284
  5
B35F
331
B285
  5
B360
331
B286
  5
B361
331
B287
  5
B362
331
B288
  5
B363
331
B289
  5
B364
331
B28A
  5
B365
331
B28B
  5
B366
331
B28C
  5
B367
331
B28D
  5
B368
331
B28E
  5
B369
331
B28F
  5
B36A
331
B290
  5
B36B
331
B291
  5
B36C
331
B292
  5
B36D
331
B293
  5
B36E
331
B294
  5
B36F
331
B295
  5
B370
331
B296
  5
B371
331
B297
  5
B372
331
B298
  5
B374
331
B299
  5
B375
331
B29A
  5
B376
331
B29B
  5
B377
331
B29C
  5
B378
331
B29D
  5
B379
331
B29E
  5
B37A
331
B29F
  5
B37B
331
B2A0
  5
B37C
331
B2A1
  5
B37D
331
B2A2
  5
B37E
331
B2A3
  5
B37F
331
B2A4
  5
B380
331
B2A5
  5
B381
331
B2A6
  5
B382
331
B2A7
  5
B383
331
B2A8
  5
B384
331
B2A9
  5
B385
331
B2AA
  5
B386
331
B2AB
  5
B387
331
B2AC
  5
B388
331
B2AD
  5
B3C3
331
B2AE
  5
B3C4
331
B2AF
  5
B3C5
331
B2B0
  5
B3C6
331
B2B1
  5
B3C7
331
B2B2
  5
B3C8
331
B2B3
  5
B3C9
331
B2B4
  5
B3CA
331
B2B5
  5
B3CB
331
B2B6
  5
B3CC
331
B2B7
  5
B3CD
331
B2B8
  5
B3CE
331
B2B9
  5
B3CF
331
B2BA
  5
B3D0
331
B2BB
  5
B3D1
331
B2BC
  5
B3D2
331
B2BD
  5
B3D3
331
B2BE
  5
B3D4
331
B2BF
  5
B3D5
331
B2C0
  5
B3D6
331
B2C1
  5
B3D7
331
B2C2
  5
B3D8
331
B2C3
  5
B3D9
331
B2C4
  5
B3DA
331
B2C5
  5
B3DB
331
B2C6
  5
B3DC
331
B2C7
  5
B3DD
331
B2C8
  5
B3DE
331
B2C9
  5
B3E0
331
B2CA
  5
B3E1
331
B2CB
  5
B3E2
331
B2CC
  5
B3E3
331
B2CD
  5
B3E4
331
B2CE
  5
B3E5
331
B2CF
  5
B3E6
331
B2D0
  5
B3E7
331
B2D1
  5
B3E8
331
B2D2
  5
B3E9
331
B2D3
  5
B3EA
331
B2D4
  5
B3EB
331
B2D5
  5
B3EC
331
B2D6
  5
B3ED
331
B2D7
  5
B3EE
331
B2D8
  5
B3EF
331
B2D9
  5
B3F0
331
B2DA
  5
B3F1
331
B2DB
  5
B3F2
331
B2DC
  5
B3F3
331
B2DD
  5
B3F4
331
B2DE
  5
B3F5
331
B2DF
  5
B3F6
331
B2E0
  5
B3F7
331
B2E1
  5
B3F8
331
B2E2
  5
B3F9
331
B2E3
  5
B3FA
331
B2E4
  5
B3FB
331
B2E5
  5
B3FC
331
B2E6
  5
B3FD
331
B2E7
  5
B3FE
331
B2E8
  5
B3FF
331
B2E9
  5
B400
331
B2EA
  5
B402
331
B2EB
  5
B403
331
B2EC
  5
B404
331
B2ED
  5
B405
331
B2EE
  5
B406
331
B2EF
  5
B407
331
B2F0
  5
B408
331
B2F1
  5
B409
331
B2F2
  5
B40A
331
B2F3
  5
B40B
331
B2F4
  5
B40C
331
B2F5
  5
B40D
331
B2F6
  5
B40E
331
B2F7
  5
B40F
331
B2F8
  5
B410
331
B2F9
  5
B411
331
B2FA
  5
B412
331
B2FB
  5
B413
331
B2FC
  5
B414
331
B2FD
  5
B415
331
B2FE
  5
B416
331
B2FF
  5
B417
331
B300
  5
B418
331
B301
  5
B419
331
B302
  5
B41A
331
B303
  5
B41B
331
B304
  5
B41C
331
B305
  5
B41D
331
B306
  5
B41E
331
B307
  5
B41F
331
B308
  5
B420
331
B309
  5
B421
331
B30A
  5
B422
331
B30B
  5
B423
331
B30C
  5
B424
331
B30D
  5
B425
331
B30E
  5
B426
331
B30F
  5
B427
331
B310
  5
B428
331
B311
  5
B429
331
B312
  5
B42A
331
B313
  5
B42B
331
B314
  5
B42C
331
B315
  5
B42D
331
B316
  5
B42E
331
B317
  5
B42F
331
B318
  5
B430
331
B319
  5
B431
331
B31A
  5
B432
331
B31B
  5
B433
331
B31C
  5
B434
331
B31D
  5
B435
331
B31E
  5
B436
331
B31F
  5
B437
331
B320
  5
B438
331
B321
  5
AF6D
331
B322
  5
AF6E
331
B323
  5
AF6F
331
B324
  5
AF70
331
B325
  5
AF71
331
B326
  5
AF72
331
B327
  5
AF73
331
B328
  5
AF84
331
B329
  5
AF85
331
B32A
  5
AF87
331
0
  5
AF88
331
0
  5
AF8A
331
0
  5
AF8C
331
B32E
  5
AF9A
331
B32F
  5
AF9B
331
B330
  5
AFA6
331
0
  5
AF90
331
0
  5
AF91
331
0
  5
AF92
331
B334
  5
AFB5
331
B335
  5
AFB8
331
B336
  5
AFB9
331
0
  5
AF96
331
0
  5
AF97
331
0
  5
AF98
331
B33A
  5
B102
331
B33B
  5
B103
331
B33C
  5
B104
331
0
  5
AF9E
331
0
  5
AFA0
331
0
  5
AFA3
331
B340
  5
B10C
331
B341
  5
B10D
331
B342
  5
B10E
331
0
  5
AFA9
331
0
  5
AFAA
331
0
  5
AFAB
331
B346
  5
B206
331
B347
  5
B207
331
B348
  5
B208
331
B349
  5
B209
331
B34A
  5
B20A
331
B34B
  5
B20B
331
B34C
  5
B20C
331
B34D
  5
B20D
331
B34E
  5
B20E
331
B34F
  5
B20F
331
B350
  5
B210
331
B351
  5
B211
331
B352
  5
B212
331
B353
  5
B213
331
B354
  5
B214
331
B355
  5
B215
331
B356
  5
B216
331
B357
  5
B217
331
B358
  5
B218
331
B359
  5
B219
331
B35A
  5
B21A
331
B35B
  5
B21B
331
B35C
  5
B21C
331
B35D
  5
B21D
331
B35E
  5
B21E
331
B35F
  5
B21F
331
B360
  5
B220
331
B361
  5
B221
331
B362
  5
B222
331
B363
  5
B223
331
B364
  5
B224
331
B365
  5
B225
331
B366
  5
B226
331
B367
  5
B227
331
B368
  5
B228
331
B369
  5
B229
331
B36A
  5
B22A
331
B36B
  5
B22B
331
B36C
  5
B22C
331
B36D
  5
B22D
331
B36E
  5
B22E
331
B36F
  5
B22F
331
B370
  5
B230
331
B371
  5
B231
331
B372
  5
B232
331
B373
  5
B233
331
B374
  5
B234
331
B375
  5
B235
331
B376
  5
B236
331
B377
  5
B237
331
B378
  5
B238
331
B379
  5
B239
331
B37A
  5
B23A
331
B37B
  5
B23B
331
B37C
  5
B23C
331
B37D
  5
B23D
331
B37E
  5
B23E
331
B37F
  5
B23F
331
B380
  5
B240
331
B381
  5
B241
331
B382
  5
B242
331
B383
  5
B243
331
B384
  5
B244
331
B385
  5
B245
331
B386
  5
B246
331
B387
  5
B247
331
B388
  5
B248
331
B389
  5
B249
331
B38A
  5
B24A
331
B38B
  5
B24B
331
B38C
  5
B24C
331
B38D
  5
B24D
331
B38E
  5
B24E
331
B38F
  5
B24F
331
B390
  5
B251
331
B391
  5
B252
331
B392
  5
B253
331
B393
  5
B254
331
B394
  5
B255
331
B395
  5
B256
331
B396
  5
B257
331
B397
  5
B258
331
B398
  5
B259
331
B399
  5
B25A
331
B39A
  5
B25B
331
B39B
  5
B25C
331
B39C
  5
B25D
331
B39D
  5
B25E
331
B39E
  5
B25F
331
B39F
  5
B260
331
B3A0
  5
B261
331
B3A1
  5
B262
331
B3A2
  5
B263
331
B3A3
  5
B264
331
B3A4
  5
B265
331
B3A5
  5
B266
331
B3A6
  5
B267
331
B3A7
  5
B268
331
B3A8
  5
B269
331
B3A9
  5
B26A
331
B3AA
  5
B26B
331
B3AB
  5
B26C
331
B3AC
  5
B26D
331
B3AD
  5
B26E
331
B3AE
  5
B26F
331
B3AF
  5
B270
331
B3B0
  5
B271
331
B3B1
  5
B272
331
B3B2
  5
B273
331
B3B3
  5
B274
331
B3B4
  5
B275
331
B3B5
  5
B276
331
B3B6
  5
B277
331
B3B7
  5
B278
331
B3B8
  5
B279
331
B3B9
  5
B27A
331
B3BA
  5
B27B
331
B3BB
  5
B27C
331
B3BC
  5
B27D
331
B3BD
  5
B27E
331
B3BE
  5
B27F
331
B3BF
  5
B280
331
B3C0
  5
B281
331
B3C1
  5
B282
331
B3C2
  5
B283
331
B3C3
  5
B284
331
B3C4
  5
B285
331
B3C5
  5
B286
331
B3C6
  5
B287
331
B3C7
  5
B288
331
B3C8
  5
B289
331
B3C9
  5
B28A
331
B3CA
  5
B28B
331
B3CB
  5
B28C
331
B3CC
  5
B28D
331
B3CD
  5
B28E
331
B3CE
  5
B28F
331
B3CF
  5
B290
331
B3D0
  5
B291
331
B3D1
  5
B292
331
B3D2
  5
B293
331
B3D3
  5
B294
331
B3D4
  5
B295
331
B3D5
  5
B296
331
B3D6
  5
B297
331
B3D7
  5
B298
331
B3D8
  5
B299
331
B3D9
  5
B29A
331
B3DA
  5
B29B
331
B3DB
  5
B29C
331
B3DC
  5
B29D
331
B3DD
  5
B2A4
331
B3DE
  5
B2A5
331
B3DF
  5
B2A6
331
B3E0
  5
B2A9
331
B3E1
  5
B2AA
331
B3E2
  5
B2AC
331
B3E3
  5
B2AD
331
B3E4
  5
B2AE
331
B3E5
  5
B2AF
331
B3E6
  5
B2B0
331
B3E7
  5
B38B
331
B3E8
  5
B38C
331
B3E9
  5
B38D
331
B3EA
  5
B38E
331
B3EB
  5
B38F
331
B3EC
  5
B390
331
B3ED
  5
B391
331
B3EE
  5
B392
331
B3EF
  5
B393
331
B3F0
  5
B394
331
B3F1
  5
B395
331
B3F2
  5
B396
331
B3F3
  5
B397
331
B3F4
  5
B398
331
B3F5
  5
B399
331
B3F6
  5
B39A
331
B3F7
  5
B39B
331
B3F8
  5
B39C
331
B3F9
  5
B39D
331
B3FA
  5
B39E
331
B3FB
  5
B39F
331
B3FC
  5
B3A0
331
B3FD
  5
B3A1
331
B3FE
  5
B3A2
331
B3FF
  5
B3A3
331
B400
  5
B3A4
331
B401
  5
B3A5
331
B402
  5
B3A6
331
B403
  5
B3A7
331
B404
  5
B3A8
331
B405
  5
B3A9
331
B406
  5
B3AA
331
B407
  5
B3AB
331
B408
  5
B3AC
331
B409
  5
B3AD
331
B40A
  5
B3AE
331
B40B
  5
B3AF
331
B40C
  5
B3B0
331
B40D
  5
B3B1
331
B40E
  5
B3B2
331
B40F
  5
B3B3
331
B410
  5
B3B4
331
B411
  5
B3B5
331
B412
  5
B3B6
331
B413
  5
B3B7
331
B414
  5
B3B8
331
B415
  5
B3B9
331
B416
  5
B3BA
331
B417
  5
B3BB
331
B418
  5
B3BC
331
B419
  5
AF8D
331
B41A
  5
AF8E
331
B41B
  5
AF8F
331
B41C
  5
AF93
331
B41D
  5
AF94
331
B41E
  5
AF95
331
B41F
  5
AF99
331
B420
  5
AFA7
331
B421
  5
AFA8
331
B422
  5
AFAC
331
B423
  5
AFAD
331
B424
  5
AFAE
331
B425
  5
AFAF
331
B426
  5
AFB2
331
B427
  5
AFBA
331
B428
  5
B0FC
331
B429
  5
B0FD
331
B42A
  5
B0FE
331
B42B
  5
B0FF
331
B42C
  5
B100
331
B42D
  5
B101
331
B42E
  5
B105
331
B42F
  5
B106
331
B430
  5
B107
331
B431
  5
B108
331
B432
  5
B109
331
B433
  5
B10A
331
B434
  5
B10B
331
B435
  5
B10F
331
B436
  5
B110
331
B437
  5
B111
331
B438
  5
B112
331
B439
  5
B113
331
B43A
  5
B114
331
B43B
  5
B115
  0
MATERIAL
  5
9540
102
{ACAD_REACTORS
330
18C
102
}
102
{ACAD_XDICTIONARY
360
B5DA
102
}
330
18C
100
AcDbMaterial
  1
BYBLOCK
 72
     0
 73
     2
 43
0.0208333333333333
 43
0.0
 43
0.0
 43
0.0
 43
0.0
 43
0.0208333333333333
 43
0.0
 43
0.0
 43
0.0
 43
0.0
 43
1.0
 43
0.0
 43
0.0
 43
0.0
 43
0.0
 43
1.0
 77
     0
 78
     2
 47
0.0208333333333333
 47
0.0
 47
0.0
 47
0.0
 47
0.0
 47
0.0208333333333333
 47
0.0
 47
0.0
 47
0.0
 47
0.0
 47
1.0
 47
0.0
 47
0.0
 47
0.0
 47
0.0
 47
1.0
171
     0
172
     2
 49
0.0208333333333333
 49
0.0
 49
0.0
 49
0.0
 49
0.0
 49
0.0208333333333333
 49
0.0
 49
0.0
 49
0.0
 49
0.0
 49
1.0
 49
0.0
 49
0.0
 49
0.0
 49
0.0
 49
1.0
175
     0
176
     2
142
0.0208333333333333
142
0.0
142
0.0
142
0.0
142
0.0
142
0.0208333333333333
142
0.0
142
0.0
142
0.0
142
0.0
142
1.0
142
0.0
142
0.0
142
0.0
142
0.0
142
1.0
179
     0
270
     2
144
0.0208333333333333
144
0.0
144
0.0
144
0.0
144
0.0
144
0.0208333333333333
144
0.0
144
0.0
144
0.0
144
0.0
144
1.0
144
0.0
144
0.0
144
0.0
144
0.0
144
1.0
274
     2
147
0.0208333333333333
147
0.0
147
0.0
147
0.0
147
0.0
147
0.0208333333333333
147
0.0
147
0.0
147
0.0
147
0.0
147
1.0
147
0.0
147
0.0
147
0.0
147
0.0
147
1.0
  0
MATERIAL
  5
9538
102
{ACAD_REACTORS
330
18C
102
}
102
{ACAD_XDICTIONARY
360
B5DC
102
}
330
18C
100
AcDbMaterial
  1
BYLAYER
 72
     0
 73
     2
 43
0.0208333333333333
 43
0.0
 43
0.0
 43
0.0
 43
0.0
 43
0.0208333333333333
 43
0.0
 43
0.0
 43
0.0
 43
0.0
 43
1.0
 43
0.0
 43
0.0
 43
0.0
 43
0.0
 43
1.0
 77
     0
 78
     2
 47
0.0208333333333333
 47
0.0
 47
0.0
 47
0.0
 47
0.0
 47
0.0208333333333333
 47
0.0
 47
0.0
 47
0.0
 47
0.0
 47
1.0
 47
0.0
 47
0.0
 47
0.0
 47
0.0
 47
1.0
171
     0
172
     2
 49
0.0208333333333333
 49
0.0
 49
0.0
 49
0.0
 49
0.0
 49
0.0208333333333333
 49
0.0
 49
0.0
 49
0.0
 49
0.0
 49
1.0
 49
0.0
 49
0.0
 49
0.0
 49
0.0
 49
1.0
175
     0
176
     2
142
0.0208333333333333
142
0.0
142
0.0
142
0.0
142
0.0
142
0.0208333333333333
142
0.0
142
0.0
142
0.0
142
0.0
142
1.0
142
0.0
142
0.0
142
0.0
142
0.0
142
1.0
179
     0
270
     2
144
0.0208333333333333
144
0.0
144
0.0
144
0.0
144
0.0
144
0.0208333333333333
144
0.0
144
0.0
144
0.0
144
0.0
144
1.0
144
0.0
144
0.0
144
0.0
144
0.0
144
1.0
274
     2
147
0.0208333333333333
147
0.0
147
0.0
147
0.0
147
0.0
147
0.0208333333333333
147
0.0
147
0.0
147
0.0
147
0.0
147
1.0
147
0.0
147
0.0
147
0.0
147
0.0
147
1.0
  0
MATERIAL
  5
9548
102
{ACAD_REACTORS
330
18C
102
}
102
{ACAD_XDICTIONARY
360
B5DE
102
}
330
18C
100
AcDbMaterial
  1
GLOBAL
 72
     0
 73
     2
 43
0.0208333333333333
 43
0.0
 43
0.0
 43
0.0
 43
0.0
 43
0.0208333333333333
 43
0.0
 43
0.0
 43
0.0
 43
0.0
 43
1.0
 43
0.0
 43
0.0
 43
0.0
 43
0.0
 43
1.0
 77
     0
 78
     2
 47
0.0208333333333333
 47
0.0
 47
0.0
 47
0.0
 47
0.0
 47
0.0208333333333333
 47
0.0
 47
0.0
 47
0.0
 47
0.0
 47
1.0
 47
0.0
 47
0.0
 47
0.0
 47
0.0
 47
1.0
171
     0
172
     2
 49
0.0208333333333333
 49
0.0
 49
0.0
 49
0.0
 49
0.0
 49
0.0208333333333333
 49
0.0
 49
0.0
 49
0.0
 49
0.0
 49
1.0
 49
0.0
 49
0.0
 49
0.0
 49
0.0
 49
1.0
175
     0
176
     2
142
0.0208333333333333
142
0.0
142
0.0
142
0.0
142
0.0
142
0.0208333333333333
142
0.0
142
0.0
142
0.0
142
0.0
142
1.0
142
0.0
142
0.0
142
0.0
142
0.0
142
1.0
179
     0
270
     2
144
0.0208333333333333
144
0.0
144
0.0
144
0.0
144
0.0
144
0.0208333333333333
144
0.0
144
0.0
144
0.0
144
0.0
144
1.0
144
0.0
144
0.0
144
0.0
144
0.0
144
1.0
274
     2
147
0.0208333333333333
147
0.0
147
0.0
147
0.0
147
0.0
147
0.0208333333333333
147
0.0
147
0.0
147
0.0
147
0.0
147
1.0
147
0.0
147
0.0
147
0.0
147
0.0
147
1.0
  0
ACAD_PROXY_OBJECT
  5
9584
102
{ACAD_REACTORS
330
9583
102
}
330
9583
100
AcDbZombieObject
 90
      499
 91
      511
 93
      610
310
40901902A4063FBFFFFFE000000000000002040AD7A3703D0AD73F4214DD185B99185C990000000000000104090141901A00000000000004100000000000000041025764000000000000300FC0
340
12
340
0
340
F
340
0
 94
        0
1001
ACAD_MLEADERVER
1070
     2
  0
MLINESTYLE
  5
1C
102
{ACAD_REACTORS
330
1B
102
}
330
1B
100
AcDbMlineStyle
  2
STANDARD
 70
     0
  3

 62
   256
 51
90.0
 52
90.0
 71
     2
 49
0.5
 62
   256
  6
BYLAYER
 49
-0.5
 62
   256
  6
BYLAYER
  0
ACAD_PROXY_OBJECT
  5
9562
102
{ACAD_REACTORS
330
9561
102
}
330
9561
100
AcDbZombieObject
 90
      499
 91
      510
 93
       41
310
903313A31580
  0
ACAD_PROXY_OBJECT
  5
9563
102
{ACAD_REACTORS
330
9561
102
}
330
9561
100
AcDbZombieObject
 90
      499
 91
      510
 93
      105
310
903313A324000000000000004000
  0
ACAD_PROXY_OBJECT
  5
9564
102
{ACAD_REACTORS
330
9561
102
}
330
9561
100
AcDbZombieObject
 90
      499
 91
      510
 93
      105
310
903313A344000000000000104000
  0
ACAD_PROXY_OBJECT
  5
9565
102
{ACAD_REACTORS
330
9561
102
}
330
9561
100
AcDbZombieObject
 90
      499
 91
      510
 93
      105
310
903313A354000000000000144000
  0
ACAD_PROXY_OBJECT
  5
9566
102
{ACAD_REACTORS
330
9561
102
}
330
9561
100
AcDbZombieObject
 90
      499
 91
      510
 93
      105
310
903313A384000000000000204000
  0
ACAD_PROXY_OBJECT
  5
9567
102
{ACAD_REACTORS
330
9561
102
}
330
9561
100
AcDbZombieObject
 90
      499
 91
      510
 93
      113
310
904313A31304000000000000244000
  0
ACAD_PROXY_OBJECT
  5
9568
102
{ACAD_REACTORS
330
9561
102
}
330
9561
100
AcDbZombieObject
 90
      499
 91
      510
 93
      113
310
904313A31364000000000000304000
  0
ACAD_PROXY_OBJECT
  5
9569
102
{ACAD_REACTORS
330
9561
102
}
330
9561
100
AcDbZombieObject
 90
      499
 91
      510
 93
      113
310
904313A32304000000000000344000
  0
ACAD_PROXY_OBJECT
  5
956A
102
{ACAD_REACTORS
330
9561
102
}
330
9561
100
AcDbZombieObject
 90
      499
 91
      510
 93
      113
310
904313A333040000000000003E4000
  0
ACAD_PROXY_OBJECT
  5
956B
102
{ACAD_REACTORS
330
9561
102
}
330
9561
100
AcDbZombieObject
 90
      499
 91
      510
 93
      113
310
904313A34304000000000000444000
  0
ACAD_PROXY_OBJECT
  5
956C
102
{ACAD_REACTORS
330
9561
102
}
330
9561
100
AcDbZombieObject
 90
      499
 91
      510
 93
      113
310
904313A35304000000000000494000
  0
ACAD_PROXY_OBJECT
  5
956D
102
{ACAD_REACTORS
330
9561
102
}
330
9561
100
AcDbZombieObject
 90
      499
 91
      510
 93
      121
310
905313A3130304000000000000594000
  0
ACAD_PROXY_OBJECT
  5
956E
102
{ACAD_REACTORS
330
9561
102
}
330
9561
100
AcDbZombieObject
 90
      499
 91
      510
 93
      105
310
903323A310000000000000010100
  0
ACAD_PROXY_OBJECT
  5
956F
102
{ACAD_REACTORS
330
9561
102
}
330
9561
100
AcDbZombieObject
 90
      499
 91
      510
 93
      105
310
903343A310000000000000410100
  0
ACAD_PROXY_OBJECT
  5
9570
102
{ACAD_REACTORS
330
9561
102
}
330
9561
100
AcDbZombieObject
 90
      499
 91
      510
 93
      105
310
903383A310000000000000810100
  0
ACAD_PROXY_OBJECT
  5
9571
102
{ACAD_REACTORS
330
9561
102
}
330
9561
100
AcDbZombieObject
 90
      499
 91
      510
 93
      113
310
90431303A310000000000000910100
  0
ACAD_PROXY_OBJECT
  5
9572
102
{ACAD_REACTORS
330
9561
102
}
330
9561
100
AcDbZombieObject
 90
      499
 91
      510
 93
      121
310
9053130303A310000000000001650100
  0
ACAD_PROXY_OBJECT
  5
9573
102
{ACAD_REACTORS
330
9561
102
}
330
9561
100
AcDbZombieObject
 90
      499
 91
      510
 93
      257
310
90E312F31323822203D2031272D3022000000000000200FC000000000000284000
  0
ACAD_PROXY_OBJECT
  5
9574
102
{ACAD_REACTORS
330
9561
102
}
330
9561
100
AcDbZombieObject
 90
      499
 91
      510
 93
      249
310
90D312F363422203D2031272D3022000000000000240FC000000000000284000
  0
ACAD_PROXY_OBJECT
  5
9575
102
{ACAD_REACTORS
330
9561
102
}
330
9561
100
AcDbZombieObject
 90
      499
 91
      510
 93
      249
310
90D312F333222203D2031272D3022000000000000280FC000000000000284000
  0
ACAD_PROXY_OBJECT
  5
9576
102
{ACAD_REACTORS
330
9561
102
}
330
9561
100
AcDbZombieObject
 90
      499
 91
      510
 93
      249
310
90D312F313622203D2031272D30220000000000002C0FC000000000000284000
  0
ACAD_PROXY_OBJECT
  5
9577
102
{ACAD_REACTORS
330
9561
102
}
330
9561
100
AcDbZombieObject
 90
      499
 91
      510
 93
      249
310
90D332F333222203D2031272D30220000000000002E0FC000000000000284000
  0
ACAD_PROXY_OBJECT
  5
9578
102
{ACAD_REACTORS
330
9561
102
}
330
9561
100
AcDbZombieObject
 90
      499
 91
      510
 93
      241
310
90C312F3822203D2031272D3022000000000000300FC000000000000284000
  0
ACAD_PROXY_OBJECT
  5
9579
102
{ACAD_REACTORS
330
9561
102
}
330
9561
100
AcDbZombieObject
 90
      499
 91
      510
 93
      249
310
90D332F313622203D2031272D3022000000000000320FC000000000000284000
  0
ACAD_PROXY_OBJECT
  5
957A
102
{ACAD_REACTORS
330
9561
102
}
330
9561
100
AcDbZombieObject
 90
      499
 91
      510
 93
      241
310
90C312F3422203D2031272D3022000000000000340FC000000000000284000
  0
ACAD_PROXY_OBJECT
  5
957B
102
{ACAD_REACTORS
330
9561
102
}
330
9561
100
AcDbZombieObject
 90
      499
 91
      510
 93
      241
310
90C332F3822203D2031272D3022000000000000360FC000000000000284000
  0
ACAD_PROXY_OBJECT
  5
957C
102
{ACAD_REACTORS
330
9561
102
}
330
9561
100
AcDbZombieObject
 90
      499
 91
      510
 93
      241
310
90C312F3222203D2031272D3022000000000000380FC000000000000284000
  0
ACAD_PROXY_OBJECT
  5
957D
102
{ACAD_REACTORS
330
9561
102
}
330
9561
100
AcDbZombieObject
 90
      499
 91
      510
 93
      241
310
90C332F3422203D2031272D30220000000000003A0FC000000000000284000
  0
ACAD_PROXY_OBJECT
  5
957E
102
{ACAD_REACTORS
330
9561
102
}
330
9561
100
AcDbZombieObject
 90
      499
 91
      510
 93
      161
310
90A3122203D2031272D30224000000000000284000
  0
ACAD_PROXY_OBJECT
  5
957F
102
{ACAD_REACTORS
330
9561
102
}
330
9561
100
AcDbZombieObject
 90
      499
 91
      510
 93
      257
310
90E312D312F3222203D2031272D30220000000000003E0FC000000000000284000
  0
ACAD_PROXY_OBJECT
  5
9580
102
{ACAD_REACTORS
330
9561
102
}
330
9561
100
AcDbZombieObject
 90
      499
 91
      510
 93
      225
310
90A3322203D2031272D302200000000000002100000000000000284000
  0
ACAD_PROXY_OBJECT
  5
9581
102
{ACAD_REACTORS
330
9561
102
}
330
9561
100
AcDbZombieObject
 90
      499
 91
      510
 93
      225
310
90A3622203D2031272D302200000000000006100000000000000284000
  0
ACAD_PROXY_OBJECT
  5
9582
102
{ACAD_REACTORS
330
9561
102
}
330
9561
100
AcDbZombieObject
 90
      499
 91
      510
 93
      249
310
90D31272D3022203D2031272D30220000000000000A100000000000000284000
  0
ACAD_PROXY_OBJECT
  5
9556
102
{ACAD_REACTORS
330
9550
102
}
330
9550
100
AcDbZombieObject
 90
      499
 91
      509
 93
      436
310
42CC9915DA5C99599C985B595049028333333333333E3BF0000000000000FB0107901411070040501600405405064090741402480A0340
1001
ACAD
1000
AcDbSavedByObjectVersion
1070
     0
  0
ACAD_PROXY_OBJECT
  5
9558
102
{ACAD_REACTORS
330
9550
102
}
330
9550
100
AcDbZombieObject
 90
      499
 91
      509
 93
      500
310
424CD108121A5919195B90640502408333333333333E3BF0000000000000FB01079024090700405020000000000001110200405405064090740C02480A0340
1001
ACAD
1000
AcDbSavedByObjectVersion
1070
     0
  0
ACAD_PROXY_OBJECT
  5
9557
102
{ACAD_REACTORS
330
9550
102
}
330
9550
100
AcDbZombieObject
 90
      499
 91
      509
 93
      436
310
42CCD915DA5C99599C985B595059028333333333333E3BF0000000000000FB0107901411070040501600405405064090741402480A0340
1001
ACAD
1000
AcDbSavedByObjectVersion
1070
     0
  0
ACAD_PROXY_OBJECT
  5
9555
102
{ACAD_REACTORS
330
9550
102
}
330
9550
100
AcDbZombieObject
 90
      499
 91
      509
 93
      388
310
4150985CDA58D07406404333333333333E3BF0000000000000FB0107A41107004050150841D405064090741402480A0350
1001
ACAD
1000
AcDbSavedByObjectVersion
1070
     0
  0
ACAD_PROXY_OBJECT
  5
955C
102
{ACAD_REACTORS
330
9550
102
}
330
9550
100
AcDbZombieObject
 90
      499
 91
      509
 93
      428
310
42109C9A59DA1D195B90C409028333333333333E3BF0000000000000FB010790141107004050150841D405064090741402480A029950
1001
ACAD
1000
AcDbSavedByObjectVersion
1070
     0
  0
ACAD_PROXY_OBJECT
  5
9560
102
{ACAD_REACTORS
330
9550
102
}
330
9550
100
AcDbZombieObject
 90
      499
 91
      509
 93
      452
310
42D0DBDB1BDC90DA185B99D95104090240C333333333333E3BF0000000000000FB0108901411070040501508421405064090741402480A0350
1001
ACAD
1000
AcDbSavedByObjectVersion
1070
     0
  0
ACAD_PROXY_OBJECT
  5
9559
102
{ACAD_REACTORS
330
9550
102
}
330
9550
100
AcDbZombieObject
 90
      499
 91
      509
 93
      500
310
4290DBDB98D95C1D1D585B10940D028333333333333E3BF0000000000000FB0107902409070040501000000000000111010841D405064090740C02480A0340
1001
ACAD
1000
AcDbSavedByObjectVersion
1070
     0
  0
ACAD_PROXY_OBJECT
  5
955B
102
{ACAD_REACTORS
330
9550
102
}
330
9550
100
AcDbZombieObject
 90
      499
 91
      509
 93
      412
310
40D11A5B50B409028333333333333E3BF0000000000000FB010790141107004050150841D405064090741402480A02677FFFFFD0
1001
ACAD
1000
AcDbSavedByObjectVersion
1070
     0
  0
ACAD_PROXY_OBJECT
  5
A211
102
{ACAD_REACTORS
330
9550
102
}
330
9550
100
AcDbZombieObject
 90
      499
 91
      509
 93
      452
310
43115919D950DBDB1BDC93D999916409028333333333333E3BF0000000000000FB010790141107004050150841D405064090741402480A0350
1001
ACAD
1000
AcDbSavedByObjectVersion
1070
     0
  0
ACAD_PROXY_OBJECT
  5
955F
102
{ACAD_REACTORS
330
9550
102
}
330
9550
100
AcDbZombieObject
 90
      499
 91
      509
 93
      444
310
42D19858D95C185D1D195C9B90F409028333333333333E3BF0000000000000FB010790141107004050150841D405064090741402480A0350
1001
ACAD
1000
AcDbSavedByObjectVersion
1070
     0
  0
ACAD_PROXY_OBJECT
  5
9551
102
{ACAD_REACTORS
330
9550
102
}
330
9550
100
AcDbZombieObject
 90
      499
 91
      509
 93
      388
310
41119B185D240901404333333333333E3BF0000000000000F9010740A41107004050150841D405064090741402480A1B50
1001
ACAD
1000
AcDbSavedByObjectVersion
1070
     0
  0
ACAD_PROXY_OBJECT
  5
9552
102
{ACAD_REACTORS
330
9550
102
}
330
9550
100
AcDbZombieObject
 90
      499
 91
      509
 93
      476
310
43519B185D15DA5D1A115919D95CD0140901404333333333333E3BF0000000000000F9010740901411070040501600405405064090741402480A1B50
1001
ACAD
1000
AcDbSavedByObjectVersion
1070
     0
  0
ACAD_PROXY_OBJECT
  5
9553
102
{ACAD_REACTORS
330
9550
102
}
330
9550
100
AcDbZombieObject
 90
      499
 91
      509
 93
      412
310
41D1DBDD5C985D5910240902404333333333333E3BF0000000000000F9010740A411070040501641D405064090741402480A1B50
1001
ACAD
1000
AcDbSavedByObjectVersion
1070
     0
  0
ACAD_PROXY_OBJECT
  5
9554
102
{ACAD_REACTORS
330
9550
102
}
330
9550
100
AcDbZombieObject
 90
      499
 91
      509
 93
      500
310
4411DBDD5C985D5915DA5D1A115919D95CD0340902404333333333333E3BF0000000000000F9010740901411070040501600405405064090741402480A1B50
1001
ACAD
1000
AcDbSavedByObjectVersion
1070
     0
  0
ACAD_PROXY_OBJECT
  5
A260
102
{ACAD_REACTORS
330
9550
102
}
330
9550
100
AcDbZombieObject
 90
      499
 91
      509
 93
      476
310
41921A5919195B90640502408333333333333E3BF0000000000000FB01079024090700405020000000000001110200405405064090740C02480A0340
1001
ACAD
1000
AcDbSavedByObjectVersion
1070
     0
  0
ACAD_PROXY_OBJECT
  5
A20F
102
{ACAD_REACTORS
330
9550
102
}
330
9550
100
AcDbZombieObject
 90
      499
 91
      509
 93
      428
310
42529A5D1D195C93D999914409028333333333333E3BF0000000000000FB010790141107004050150A41D405064090741402480A0350
1001
ACAD
1000
AcDbSavedByObjectVersion
1070
     0
  0
ACAD_PROXY_OBJECT
  5
955E
102
{ACAD_REACTORS
330
9550
102
}
330
9550
100
AcDbZombieObject
 90
      499
 91
      509
 93
      444
310
42D31A5B995C185D1D195C9B90E409028333333333333E3BF0000000000000FB010790141107004050750841D405064090741402483A0350
1001
ACAD
1000
AcDbSavedByObjectVersion
1070
     0
  0
ACAD_PROXY_OBJECT
  5
A266
102
{ACAD_REACTORS
330
9550
102
}
330
9550
100
AcDbZombieObject
 90
      499
 91
      509
 93
      484
310
42135BD9195B1A5B99D0A409028333333333333E3BF0000000000000F901074090290700405010000000000201990108421405064090741402480A1B40
1001
ACAD
1000
AcDbSavedByObjectVersion
1070
     0
  0
ACAD_PROXY_OBJECT
  5
A210
102
{ACAD_REACTORS
330
9550
102
}
330
9550
100
AcDbZombieObject
 90
      499
 91
      509
 93
      444
310
42D3DD995C9A185B99D3D999915409028333333333333E3BF0000000000000FB010790141107004050150941D405064090741402480A0350
1001
ACAD
1000
AcDbSavedByObjectVersion
1070
     0
  0
ACAD_PROXY_OBJECT
  5
955A
102
{ACAD_REACTORS
330
9550
102
}
330
9550
100
AcDbZombieObject
 90
      499
 91
      509
 93
      420
310
425499585B1A5CDD1A58D08409028333333333333E3BF0000000000000FB01079019070040501508421405064090741402480A1B40
1001
ACAD
1000
AcDbSavedByObjectVersion
1070
     0
  0
ACAD_PROXY_OBJECT
  5
A265
102
{ACAD_REACTORS
330
9550
102
}
330
9550
100
AcDbZombieObject
 90
      499
 91
      509
 93
      420
310
4194DA1859195911B40902404333333333333E3BF0000000000000F9010740A41107004050150800405405064090840C02480A0B40
1001
ACAD
1000
AcDbSavedByObjectVersion
1070
     0
  0
ACAD_PROXY_OBJECT
  5
A264
102
{ACAD_REACTORS
330
9550
102
}
330
9550
100
AcDbZombieObject
 90
      499
 91
      509
 93
      516
310
4454DA18591959081DDA5D1A08195919D95CD1A40902404333333333333E3BF0000000000000F901074090142907004050250800405405064090740C02480A0B40
1001
ACAD
1000
AcDbSavedByObjectVersion
1070
     0
  0
ACAD_PROXY_OBJECT
  5
A261
102
{ACAD_REACTORS
330
9550
102
}
330
9550
100
AcDbZombieObject
 90
      499
 91
      509
 93
      532
310
4394DA1859195CC81BD98811DC985E5174090240C333333333333E3BF0000000000000FB01079024090741D01000000000000111010841D405064090740C02480A0340
1001
ACAD
1000
AcDbSavedByObjectVersion
1070
     0
  0
ACAD_PROXY_OBJECT
  5
A262
102
{ACAD_REACTORS
330
9550
102
}
330
9550
100
AcDbZombieObject
 90
      499
 91
      509
 93
      476
310
41D4DAD95D18DA1E51840502408333333333333E3BF0000000000000FB01079024090741D01000000000000111010B41D405064090741802480A0340
1001
ACAD
1000
AcDbSavedByObjectVersion
1070
     0
  0
ACAD_PROXY_OBJECT
  5
955D
102
{ACAD_REACTORS
330
9550
102
}
330
9550
100
AcDbZombieObject
 90
      499
 91
      509
 93
      412
310
41D51A1A58DAD95B90D409028333333333333E3BF0000000000000FB010790141107004050150C41D405064090741402480A0350
1001
ACAD
1000
AcDbSavedByObjectVersion
1070
     0
  0
ACAD_PROXY_OBJECT
  5
A25F
102
{ACAD_REACTORS
330
9550
102
}
330
9550
100
AcDbZombieObject
 90
      499
 91
      509
 93
      420
310
4255DA5C99599C985B595059028333333333333E3BF0000000000000FB0107901411070040501600405405064090740C02480A0340
1001
ACAD
1000
AcDbSavedByObjectVersion
1070
     0
  0
ACAD_PROXY_OBJECT
  5
A263
102
{ACAD_REACTORS
330
9550
102
}
330
9550
100
AcDbZombieObject
 90
      499
 91
      509
 93
      404
310
41560B54985E51940902404000000000000E03F0000000000000FB010740501907004050150841D405064090740C02480A1B40
1001
ACAD
1000
AcDbSavedByObjectVersion
1070
     0
  0
XRECORD
  5
B43D
102
{ACAD_REACTORS
330
B43C
102
}
330
B43C
100
AcDbXrecord
340
18D
  0
XRECORD
  5
B43E
102
{ACAD_REACTORS
330
B43C
102
}
330
B43C
100
AcDbXrecord
340
18C
  0
DICTIONARYVAR
  5
B082
102
{ACAD_REACTORS
330
37
102
}
330
37
100
DictionaryVariables
280
     0
  1
1:1
  0
DICTIONARYVAR
  5
9627
102
{ACAD_REACTORS
330
37
102
}
330
37
100
DictionaryVariables
280
     0
  1
Standard
  0
DICTIONARYVAR
  5
29E
102
{ACAD_REACTORS
330
37
102
}
330
37
100
DictionaryVariables
280
     0
  1
Standard
  0
DICTIONARYVAR
  5
38
102
{ACAD_REACTORS
330
37
102
}
330
37
100
DictionaryVariables
280
     0
  1
-1
  0
DICTIONARYVAR
  5
1CE
102
{ACAD_REACTORS
330
37
102
}
330
37
100
DictionaryVariables
280
     0
  1
2
  0
DICTIONARYVAR
  5
704E
102
{ACAD_REACTORS
330
37
102
}
330
37
100
DictionaryVariables
280
     0
  1
1
  0
DICTIONARYVAR
  5
962A
102
{ACAD_REACTORS
330
37
102
}
330
37
100
DictionaryVariables
280
     0
  1
0
  0
DICTIONARYVAR
  5
7052
102
{ACAD_REACTORS
330
37
102
}
330
37
100
DictionaryVariables
280
     0
  1
8
  0
DICTIONARYVAR
  5
7051
102
{ACAD_REACTORS
330
37
102
}
330
37
100
DictionaryVariables
280
     0
  1
1
  0
DICTIONARYVAR
  5
AB30
102
{ACAD_REACTORS
330
37
102
}
330
37
100
DictionaryVariables
280
     0
  1
0
  0
DICTIONARYVAR
  5
704F
102
{ACAD_REACTORS
330
37
102
}
330
37
100
DictionaryVariables
280
     0
  1
8
  0
DICTIONARYVAR
  5
7050
102
{ACAD_REACTORS
330
37
102
}
330
37
100
DictionaryVariables
280
     0
  1
2
  0
DICTIONARYVAR
  5
1CF
102
{ACAD_REACTORS
330
37
102
}
330
37
100
DictionaryVariables
280
     0
  1

  0
DICTIONARYVAR
  5
9629
102
{ACAD_REACTORS
330
37
102
}
330
37
100
DictionaryVariables
280
     0
  1
127
  0
DICTIONARYVAR
  5
B061
102
{ACAD_REACTORS
330
37
102
}
330
37
100
DictionaryVariables
280
     0
  1
2
  0
DICTIONARY
  5
B5DA
330
9540
100
AcDbDictionary
  3
ACAD_XREC_ROUNDTRIP
360
B5DB
1001
ACAD
1000
TREAT_AS_HARD
1070
     1
  0
DICTIONARY
  5
B5DC
330
9538
100
AcDbDictionary
  3
ACAD_XREC_ROUNDTRIP
360
B5DD
1001
ACAD
1000
TREAT_AS_HARD
1070
     1
  0
DICTIONARY
  5
B5DE
330
9548
100
AcDbDictionary
  3
ACAD_XREC_ROUNDTRIP
360
B5DF
1001
ACAD
1000
TREAT_AS_HARD
1070
     1
  0
XRECORD
  5
B5DB
102
{ACAD_REACTORS
330
B5DA
102
}
330
B5DA
100
AcDbXrecord
102
MATERIAL
148
0.0
149
0.0
149
0.0
 93
        0
 94
      127
282
     0
 72
     0
 77
     0
171
     0
175
     0
179
     0
273
     0
  0
XRECORD
  5
B5DD
102
{ACAD_REACTORS
330
B5DC
102
}
330
B5DC
100
AcDbXrecord
102
MATERIAL
148
0.0
149
0.0
149
0.0
 93
        0
 94
      127
282
     0
 72
     0
 77
     0
171
     0
175
     0
179
     0
273
     0
  0
XRECORD
  5
B5DF
102
{ACAD_REACTORS
330
B5DE
102
}
330
B5DE
100
AcDbXrecord
102
MATERIAL
148
0.0
149
0.0
149
0.0
 93
        0
 94
      127
282
     0
 72
     0
 77
     0
171
     0
175
     0
179
     0
273
     0
  0
ENDSEC
  0
EOF
