  0
SECTION
  2
HEADER
  9
$ACADVER
  1
AC1012
  9
$DWGCODEPAGE
  3
ansi_932
  9
$INSBASE
 10
0.0
 20
0.0
 30
0.0
  9
$EXTMIN
 10
4469.179645183809
 20
-398.1517474957459
 30
0.0
  9
$EXTMAX
 10
5416.233914002544
 20
232.6025213229889
 30
0.0
  9
$LIMMIN
 10
0.0
 20
0.0
  9
$LIMMAX
 10
420.0
 20
297.0
  9
$ORTHOMODE
 70
     0
  9
$REGENMODE
 70
     1
  9
$FILLMODE
 70
     1
  9
$QTEXTMODE
 70
     0
  9
$MIRRTEXT
 70
     0
  9
$DRAGMODE
 70
     2
  9
$LTSCALE
 40
0.5
  9
$OSMODE
 70
 14463
  9
$ATTMODE
 70
     1
  9
$TEXTSIZE
 40
4.0
  9
$TRACEWID
 40
1.0
  9
$TEXTSTYLE
  7
STANDARD
  9
$CLAYER
  8
1TEXT
  9
$CELTYPE
  6
BYLAYER
  9
$CECOLOR
 62
   256
  9
$CELTSCALE
 40
1.0
  9
$DELOBJ
 70
     1
  9
$DISPSILH
 70
     0
  9
$DIMSCALE
 40
1.0
  9
$DIMASZ
 40
2.0
  9
$DIMEXO
 40
0.0
  9
$DIMDLI
 40
7.0
  9
$DIMRND
 40
0.0
  9
$DIMDLE
 40
0.0
  9
$DIMEXE
 40
1.0
  9
$DIMTP
 40
0.0
  9
$DIMTM
 40
0.0
  9
$DIMTXT
 40
3.5
  9
$DIMCEN
 40
0.0
  9
$DIMTSZ
 40
0.0
  9
$DIMTOL
 70
     0
  9
$DIMLIM
 70
     0
  9
$DIMTIH
 70
     0
  9
$DIMTOH
 70
     0
  9
$DIMSE1
 70
     0
  9
$DIMSE2
 70
     0
  9
$DIMTAD
 70
     1
  9
$DIMZIN
 70
     8
  9
$DIMBLK
  1

  9
$DIMASO
 70
     1
  9
$DIMSHO
 70
     1
  9
$DIMPOST
  1
 
  9
$DIMAPOST
  1

  9
$DIMALT
 70
     0
  9
$DIMALTD
 70
     2
  9
$DIMALTF
 40
25.4
  9
$DIMLFAC
 40
1.0
  9
$DIMTOFL
 70
     1
  9
$DIMTVP
 40
0.0
  9
$DIMTIX
 70
     0
  9
$DIMSOXD
 70
     0
  9
$DIMSAH
 70
     1
  9
$DIMBLK1
  1
OPEN30
  9
$DIMBLK2
  1
OPEN30
  9
$DIMSTYLE
  2
NEWX10
  9
$DIMCLRD
 70
   256
  9
$DIMCLRE
 70
   256
  9
$DIMCLRT
 70
   201
  9
$DIMTFAC
 40
0.7
  9
$DIMGAP
 40
0.7
  9
$DIMJUST
 70
     0
  9
$DIMSD1
 70
     0
  9
$DIMSD2
 70
     0
  9
$DIMTOLJ
 70
     1
  9
$DIMTZIN
 70
     8
  9
$DIMALTZ
 70
     0
  9
$DIMALTTZ
 70
     0
  9
$DIMFIT
 70
     2
  9
$DIMUPT
 70
     0
  9
$DIMUNIT
 70
     2
  9
$DIMDEC
 70
     2
  9
$DIMTDEC
 70
     4
  9
$DIMALTU
 70
     2
  9
$DIMALTTD
 70
     2
  9
$DIMTXSTY
  7
STANDARD
  9
$DIMAUNIT
 70
     0
  9
$LUNITS
 70
     2
  9
$LUPREC
 70
     4
  9
$SKETCHINC
 40
1.0
  9
$FILLETRAD
 40
0.0
  9
$AUNITS
 70
     0
  9
$AUPREC
 70
     2
  9
$MENU
  1
acad
  9
$ELEVATION
 40
0.0
  9
$PELEVATION
 40
0.0
  9
$THICKNESS
 40
0.0
  9
$LIMCHECK
 70
     0
  9
$CHAMFERA
 40
10.0
  9
$CHAMFERB
 40
10.0
  9
$CHAMFERC
 40
20.0
  9
$CHAMFERD
 40
0.0
  9
$SKPOLY
 70
     0
  9
$TDCREATE
 40
2451318.621352917
  9
$TDUPDATE
 40
2458164.391624109
  9
$TDINDWG
 40
1.4872692708
  9
$TDUSRTIMER
 40
1.4872692708
  9
$USRTIMER
 70
     1
  9
$ANGBASE
 50
0.0
  9
$ANGDIR
 70
     0
  9
$PDMODE
 70
     0
  9
$PDSIZE
 40
0.0
  9
$PLINEWID
 40
0.0
  9
$COORDS
 70
     2
  9
$SPLFRAME
 70
     0
  9
$SPLINETYPE
 70
     6
  9
$SPLINESEGS
 70
     8
  9
$ATTDIA
 70
     0
  9
$ATTREQ
 70
     1
  9
$HANDLING
 70
     1
  9
$HANDSEED
  5
BA4B
  9
$SURFTAB1
 70
     6
  9
$SURFTAB2
 70
     6
  9
$SURFTYPE
 70
     6
  9
$SURFU
 70
     6
  9
$SURFV
 70
     6
  9
$UCSNAME
  2

  9
$UCSORG
 10
0.0
 20
0.0
 30
0.0
  9
$UCSXDIR
 10
1.0
 20
0.0
 30
0.0
  9
$UCSYDIR
 10
0.0
 20
1.0
 30
0.0
  9
$PUCSNAME
  2

  9
$PUCSORG
 10
0.0
 20
0.0
 30
0.0
  9
$PUCSXDIR
 10
1.0
 20
0.0
 30
0.0
  9
$PUCSYDIR
 10
0.0
 20
1.0
 30
0.0
  9
$USERI1
 70
     0
  9
$USERI2
 70
     0
  9
$USERI3
 70
     0
  9
$USERI4
 70
     0
  9
$USERI5
 70
     0
  9
$USERR1
 40
0.0
  9
$USERR2
 40
0.0
  9
$USERR3
 40
0.0
  9
$USERR4
 40
0.0
  9
$USERR5
 40
0.0
  9
$WORLDVIEW
 70
     1
  9
$SHADEDGE
 70
     3
  9
$SHADEDIF
 70
    70
  9
$TILEMODE
 70
     1
  9
$MAXACTVP
 70
    48
  9
$PINSBASE
 10
0.0
 20
0.0
 30
0.0
  9
$PLIMCHECK
 70
     0
  9
$PEXTMIN
 10
1.000000000000000E+20
 20
1.000000000000000E+20
 30
1.000000000000000E+20
  9
$PEXTMAX
 10
-1.000000000000000E+20
 20
-1.000000000000000E+20
 30
-1.000000000000000E+20
  9
$PLIMMIN
 10
0.0
 20
0.0
  9
$PLIMMAX
 10
420.0
 20
297.0
  9
$UNITMODE
 70
     0
  9
$VISRETAIN
 70
     1
  9
$PLINEGEN
 70
     0
  9
$PSLTSCALE
 70
     1
  9
$TREEDEPTH
 70
  3020
  9
$PICKSTYLE
 70
     1
  9
$CMLSTYLE
  2
STANDARD
  9
$CMLJUST
 70
     0
  9
$CMLSCALE
 40
20.0
  9
$SAVEIMAGES
 70
     1
  0
ENDSEC
  0
SECTION
  2
CLASSES
  0
CLASS
  1
DICTIONARYVAR
  2
AcDbDictionaryVar
  3
ObjectDBX Classes
 90
        0
280
     0
281
     0
  0
CLASS
  1
IDBUFFER
  2
AcDbIdBuffer
  3
ObjectDBX Classes
 90
    32768
280
     0
281
     0
  0
CLASS
  1
LWPOLYLINE
  2
AcDbPolyline
  3
ObjectDBX Classes
 90
    32768
280
     0
281
     1
  0
CLASS
  1
ACDBDICTIONARYWDFLT
  2
AcDbDictionaryWithDefault
  3
ObjectDBX Classes
 90
    32768
280
     0
281
     0
  0
CLASS
  1
ACDBPLACEHOLDER
  2
AcDbPlaceHolder
  3
ObjectDBX Classes
 90
        0
280
     0
281
     0
  0
CLASS
  1
LAYOUT
  2
AcDbLayout
  3
ObjectDBX Classes
 90
        0
280
     0
281
     0
  0
CLASS
  1
TABLESTYLE
  2
AcDbTableStyle
  3
ObjectDBX Classes
 90
     4095
280
     0
281
     0
  0
CLASS
  1
SORTENTSTABLE
  2
AcDbSortentsTable
  3
ObjectDBX Classes
 90
    32768
280
     0
281
     0
  0
CLASS
  1
MATERIAL
  2
AcDbMaterial
  3
ObjectDBX Classes
 90
     1153
280
     0
281
     0
  0
CLASS
  1
VISUALSTYLE
  2
AcDbVisualStyle
  3
ObjectDBX Classes
 90
     4095
280
     0
281
     0
  0
CLASS
  1
SCALE
  2
AcDbScale
  3
ObjectDBX Classes
 90
     1153
280
     0
281
     0
  0
CLASS
  1
MLEADERSTYLE
  2
AcDbMLeaderStyle
  3
ACDB_MLEADERSTYLE_CLASS
 90
     4095
280
     0
281
     0
  0
CLASS
  1
CELLSTYLEMAP
  2
AcDbCellStyleMap
  3
ObjectDBX Classes
 90
     1152
280
     0
281
     0
  0
CLASS
  1
SUN
  2
AcDbSun
  3
SCENEOE
 90
     1153
280
     0
281
     0
  0
CLASS
  1
DIMASSOC
  2
AcDbDimAssoc
  3
"AcDbDimAssoc|Product Desc:     AcDim ARX App For Dimension|Company:          Autodesk, Inc.|WEB Address:      www.autodesk.com"
 90
        0
280
     0
281
     0
  0
CLASS
  1
XRECORD
  2
AcDbXrecord
  3
ObjectDBX Classes
 90
    32768
280
     0
281
     0
  0
CLASS
  1
HATCH
  2
AcDbHatch
  3
ObjectDBX Classes
 90
    32768
280
     0
281
     1
  0
ENDSEC
  0
SECTION
  2
TABLES
  0
TABLE
  2
VPORT
  5
8
330
0
100
AcDbSymbolTable
 70
     1
  0
VPORT
  5
952D
330
8
100
AcDbSymbolTableRecord
100
AcDbViewportTableRecord
  2
*ACTIVE
 70
     0
 10
0.0
 20
0.0
 11
1.0
 21
1.0
 12
4942.706779593176
 22
-82.77461308637851
 13
0.0
 23
0.0
 14
10.0
 24
10.0
 15
10.0
 25
10.0
 16
0.0
 26
0.0
 36
1.0
 17
0.0
 27
0.0
 37
0.0
 40
677.2308991527469
 41
1.871481028151775
 42
50.0
 43
0.0
 44
0.0
 50
0.0
 51
0.0
 71
    16
 72
   100
 73
     1
 74
     1
 75
     0
 76
     0
 77
     0
 78
     0
1001
ACAD_NAV_VCDISPLAY
1070
     3
  0
ENDTAB
  0
TABLE
  2
LTYPE
  5
5
330
0
100
AcDbSymbolTable
 70
     2
  0
LTYPE
  5
12
330
5
100
AcDbSymbolTableRecord
100
AcDbLinetypeTableRecord
  2
BYBLOCK
 70
     0
  3

 72
    65
 73
     0
 40
0.0
  0
LTYPE
  5
13
330
5
100
AcDbSymbolTableRecord
100
AcDbLinetypeTableRecord
  2
BYLAYER
 70
     0
  3

 72
    65
 73
     0
 40
0.0
  0
LTYPE
  5
14
330
5
100
AcDbSymbolTableRecord
100
AcDbLinetypeTableRecord
  2
CONTINUOUS
 70
     0
  3
Solid line
 72
    65
 73
     0
 40
0.0
  0
LTYPE
  5
9837
330
5
100
AcDbSymbolTableRecord
100
AcDbLinetypeTableRecord
  2
CENTER2
 70
     0
  3
Center (.5x) ___ _ ___ _ ___ _ ___ _ ___ _ ___
 72
    65
 73
     4
 40
28.575
 49
19.05
 74
     0
 49
-3.175
 74
     0
 49
3.175
 74
     0
 49
-3.175
 74
     0
  0
ENDTAB
  0
TABLE
  2
LAYER
  5
2
102
{ACAD_XDICTIONARY
360
96D9
102
}
330
0
100
AcDbSymbolTable
 70
     5
  0
LAYER
  5
E
102
{ACAD_XDICTIONARY
360
9593
102
}
330
2
100
AcDbSymbolTableRecord
100
AcDbLayerTableRecord
  2
0
 70
     0
 62
     7
  6
CONTINUOUS
  0
LAYER
  5
29
102
{ACAD_XDICTIONARY
360
9595
102
}
330
2
100
AcDbSymbolTableRecord
100
AcDbLayerTableRecord
  2
1CENTER
 70
     0
 62
     7
  6
CENTER2
  0
LAYER
  5
31
102
{ACAD_XDICTIONARY
360
9597
102
}
330
2
100
AcDbSymbolTableRecord
100
AcDbLayerTableRecord
  2
1TEXT
 70
     0
 62
     7
  6
CONTINUOUS
  0
LAYER
  5
243
102
{ACAD_XDICTIONARY
360
959D
102
}
330
2
100
AcDbSymbolTableRecord
100
AcDbLayerTableRecord
  2
01
 70
     0
 62
     1
  6
CONTINUOUS
  0
LAYER
  5
24E
102
{ACAD_XDICTIONARY
360
95A3
102
}
330
2
100
AcDbSymbolTableRecord
100
AcDbLayerTableRecord
  2
1DIM
 70
     0
 62
     7
  6
CONTINUOUS
  0
ENDTAB
  0
TABLE
  2
STYLE
  5
3
330
0
100
AcDbSymbolTable
 70
     1
  0
STYLE
  5
F
330
3
100
AcDbSymbolTableRecord
100
AcDbTextStyleTableRecord
  2
STANDARD
 70
     0
 40
0.0
 41
1.0
 50
0.0
 71
     0
 42
4.0
  3
txt.shx
  4
extfont.shx
  0
ENDTAB
  0
TABLE
  2
VIEW
  5
6
330
0
100
AcDbSymbolTable
 70
     0
  0
ENDTAB
  0
TABLE
  2
UCS
  5
7
330
0
100
AcDbSymbolTable
 70
     0
  0
ENDTAB
  0
TABLE
  2
APPID
  5
9
330
0
100
AcDbSymbolTable
 70
    14
  0
APPID
  5
10
330
9
100
AcDbSymbolTableRecord
100
AcDbRegAppTableRecord
  2
ACAD
 70
     0
  0
APPID
  5
21
330
9
100
AcDbSymbolTableRecord
100
AcDbRegAppTableRecord
  2
DRAWINGVARIABLESXDATA
 70
     0
  0
APPID
  5
64
330
9
100
AcDbSymbolTableRecord
100
AcDbRegAppTableRecord
  2
CONTENTTABDATA
 70
     0
  0
APPID
  5
65
330
9
100
AcDbSymbolTableRecord
100
AcDbRegAppTableRecord
  2
CONTENTCURRENTTAB
 70
     0
  0
APPID
  5
66
330
9
100
AcDbSymbolTableRecord
100
AcDbRegAppTableRecord
  2
CONTENTBLOCKDESCRIPTION
 70
     0
  0
APPID
  5
67
330
9
100
AcDbSymbolTableRecord
100
AcDbRegAppTableRecord
  2
CONTENTBLOCKICON
 70
     0
  0
APPID
  5
68
330
9
100
AcDbSymbolTableRecord
100
AcDbRegAppTableRecord
  2
CONTENTLONGBLOCKNAME
 70
     0
  0
APPID
  5
2AE
330
9
100
AcDbSymbolTableRecord
100
AcDbRegAppTableRecord
  2
ACAD_PSEXT
 70
     0
  0
APPID
  5
9585
330
9
100
AcDbSymbolTableRecord
100
AcDbRegAppTableRecord
  2
ACAD_MLEADERVER
 70
     0
  0
APPID
  5
A2E3
330
9
100
AcDbSymbolTableRecord
100
AcDbRegAppTableRecord
  2
ACADANNOTATIVE
 70
     0
  0
APPID
  5
A2E4
330
9
100
AcDbSymbolTableRecord
100
AcDbRegAppTableRecord
  2
ACDBBLOCKREPETAG
 70
     0
  0
APPID
  5
AEC0
330
9
100
AcDbSymbolTableRecord
100
AcDbRegAppTableRecord
  2
ACAD_NAV_VCDISPLAY
 70
     0
  0
APPID
  5
AF18
330
9
100
AcDbSymbolTableRecord
100
AcDbRegAppTableRecord
  2
ACAECLAYERSTANDARD
 70
     0
  0
APPID
  5
B27F
330
9
100
AcDbSymbolTableRecord
100
AcDbRegAppTableRecord
  2
ACAD_EXEMPT_FROM_CAD_STAND
 70
     0
  0
ENDTAB
  0
TABLE
  2
DIMSTYLE
  5
A
330
0
100
AcDbSymbolTable
 70
     1
  0
DIMSTYLE
105
48
330
A
100
AcDbSymbolTableRecord
100
AcDbDimStyleTableRecord
  2
NEWX10
 70
     0
  3
 
  4

  5

  6
OPEN30
  7
OPEN30
 40
1.0
 41
2.0
 42
0.0
 43
7.0
 44
1.0
 45
0.0
 46
0.0
 47
0.0
 48
0.0
140
3.5
141
0.0
142
0.0
143
25.4
144
1.0
145
0.0
146
0.7
147
0.7
 71
     0
 72
     0
 73
     0
 74
     0
 75
     0
 76
     0
 77
     1
 78
     8
170
     0
171
     2
172
     1
173
     1
174
     0
175
     0
176
   256
177
   256
178
   201
179
     2
270
     2
271
     2
272
     4
273
     2
274
     2
340
F
275
     0
280
     0
281
     0
282
     0
283
     1
284
     8
285
     0
286
     0
287
     2
288
     0
  0
ENDTAB
  0
TABLE
  2
BLOCK_RECORD
  5
1
330
0
100
AcDbSymbolTable
 70
     8
  0
BLOCK_RECORD
  5
18
102
{ACAD_XDICTIONARY
360
88F
102
}
330
1
100
AcDbSymbolTableRecord
100
AcDbBlockTableRecord
  2
*MODEL_SPACE
  0
BLOCK_RECORD
  5
15
330
1
100
AcDbSymbolTableRecord
100
AcDbBlockTableRecord
  2
*PAPER_SPACE
  0
BLOCK_RECORD
  5
42
330
1
100
AcDbSymbolTableRecord
100
AcDbBlockTableRecord
  2
_OPEN30
  0
BLOCK_RECORD
  5
A333
330
1
100
AcDbSymbolTableRecord
100
AcDbBlockTableRecord
  2
A3WAKUKAWAJUN2017_HYOUDAI_
  0
BLOCK_RECORD
  5
B8AB
330
1
100
AcDbSymbolTableRecord
100
AcDbBlockTableRecord
  2
*X35
  0
BLOCK_RECORD
  5
B8F9
330
1
100
AcDbSymbolTableRecord
100
AcDbBlockTableRecord
  2
*X36
  0
BLOCK_RECORD
  5
B94B
330
1
100
AcDbSymbolTableRecord
100
AcDbBlockTableRecord
  2
*X37
  0
BLOCK_RECORD
  5
B99C
330
1
100
AcDbSymbolTableRecord
100
AcDbBlockTableRecord
  2
*X38
  0
BLOCK_RECORD
  5
B9D9
330
1
100
AcDbSymbolTableRecord
100
AcDbBlockTableRecord
  2
*X39
  0
BLOCK_RECORD
  5
BA19
330
1
100
AcDbSymbolTableRecord
100
AcDbBlockTableRecord
  2
*X40
  0
ENDTAB
  0
ENDSEC
  0
SECTION
  2
BLOCKS
  0
BLOCK
  5
19
330
18
100
AcDbEntity
  8
0
100
AcDbBlockBegin
  2
*MODEL_SPACE
 70
     0
 10
0.0
 20
0.0
 30
0.0
  3
*MODEL_SPACE
  1

  0
ENDBLK
  5
1A
330
18
100
AcDbEntity
  8
0
100
AcDbBlockEnd
  0
BLOCK
  5
16
330
15
100
AcDbEntity
 67
     1
  8
0
100
AcDbBlockBegin
  2
*PAPER_SPACE
 70
     0
 10
0.0
 20
0.0
 30
0.0
  3
*PAPER_SPACE
  1

  0
ENDBLK
  5
17
330
15
100
AcDbEntity
 67
     1
  8
0
100
AcDbBlockEnd
  0
BLOCK
  5
43
330
42
100
AcDbEntity
  8
0
100
AcDbBlockBegin
  2
_OPEN30
 70
     0
 10
0.0
 20
0.0
 30
0.0
  3
_OPEN30
  1

  0
LINE
  5
44
330
42
100
AcDbEntity
  8
0
  6
BYBLOCK
 62
     0
100
AcDbLine
 10
-1.0
 20
0.26794919
 30
0.0
 11
0.0
 21
0.0
 31
0.0
  0
LINE
  5
45
330
42
100
AcDbEntity
  8
0
  6
BYBLOCK
 62
     0
100
AcDbLine
 10
0.0
 20
0.0
 30
0.0
 11
-1.0
 21
-0.26794919
 31
0.0
  0
LINE
  5
46
330
42
100
AcDbEntity
  8
0
  6
BYBLOCK
 62
     0
100
AcDbLine
 10
0.0
 20
0.0
 30
0.0
 11
-1.0
 21
0.0
 31
0.0
  0
ENDBLK
  5
47
330
42
100
AcDbEntity
  8
0
100
AcDbBlockEnd
  0
BLOCK
  5
AA56
330
A333
100
AcDbEntity
  8
0
100
AcDbBlockBegin
  2
A3WAKUKAWAJUN2017_HYOUDAI_
 70
     0
 10
0.0
 20
0.0
 30
0.0
  3
A3WAKUKAWAJUN2017_HYOUDAI_
  1

  0
LINE
  5
A335
330
A333
100
AcDbEntity
  8
0
100
AcDbLine
 10
13.26299999998673
 20
-0.0001000000000317
 30
0.0
 11
9.236999999990758
 21
8.999899999990987
 31
0.0
1001
ACAD
1000
ASC_BOUNDS
1002
{
1070
    19
1005
A376
1002
}
  0
LINE
  5
A336
330
A333
100
AcDbEntity
  8
0
100
AcDbLine
 10
5.657999999994331
 20
0.9999999999989768
 30
0.0
 11
9.236999999990758
 21
8.999999999991019
 31
0.0
1001
ACAD
1000
ASC_BOUNDS
1002
{
1070
    19
1005
A376
1002
}
  0
LINE
  5
A337
330
A333
100
AcDbEntity
  8
0
100
AcDbLine
 10
18.59199999998134
 20
-0.2368999999997641
 30
0.0
 11
16.46099999998353
 21
5.432899999994561
 31
0.0
1001
ACAD
1000
ASC_BOUNDS
1002
{
1070
    19
1005
A377
1002
}
  0
LINE
  5
A338
330
A333
100
AcDbEntity
  8
0
100
AcDbLine
 10
18.59199999998134
 20
-0.2368999999997641
 30
0.0
 11
22.38199999997767
 21
8.763099999991255
 31
0.0
1001
ACAD
1000
ASC_BOUNDS
1002
{
1070
    19
1005
A377
1002
}
  0
LINE
  5
A339
330
A333
100
AcDbEntity
  8
0
100
AcDbLine
 10
14.32899999998563
 20
-0.2368999999997641
 30
0.0
 11
16.46099999998353
 21
5.432899999994561
 31
0.0
1001
ACAD
1000
ASC_BOUNDS
1002
{
1070
    19
1005
A377
1002
}
  0
LINE
  5
A33A
330
A333
100
AcDbEntity
  8
0
100
AcDbLine
 10
14.32899999998563
 20
-0.2368999999997641
 30
0.0
 11
10.53899999998941
 21
8.763099999991255
 31
0.0
1001
ACAD
1000
ASC_BOUNDS
1002
{
1070
    19
1005
A377
1002
}
  0
LINE
  5
A33B
330
A333
100
AcDbEntity
  8
0
100
AcDbLine
 10
19.53899999998043
 20
-0.0001000000000317
 30
0.0
 11
23.56599999997638
 21
8.999899999990987
 31
0.0
1001
ACAD
1000
ASC_BOUNDS
1002
{
1070
    19
1005
A378
1002
}
  0
LINE
  5
A33C
330
A333
100
AcDbEntity
  8
0
100
AcDbLine
 10
26.97358892824991
 20
1.383099999991202
 30
0.0
 11
23.56599999997638
 21
8.999899999990987
 31
0.0
1001
ACAD
1000
ASC_BOUNDS
1002
{
1070
    19
1005
A378
1002
}
  0
LINE
  5
A33D
330
A333
100
AcDbEntity
  8
0
100
AcDbLine
 10
5.657999999994331
 20
0.9999999999989768
 30
0.0
 11
3.181999999996833
 21
4.668599999995308
 31
0.0
1001
ACAD
1000
ASC_BOUNDS
1002
{
1070
    19
1005
A376
1002
}
  0
LINE
  5
A33E
330
A333
100
AcDbEntity
  8
0
100
AcDbLine
 10
4.617999999995391
 20
-0.0001000000000317
 30
0.0
 11
1.420999999998571
 21
4.736799999995242
 31
0.0
1001
ACAD
1000
ASC_BOUNDS
1002
{
1070
    19
1005
A376
1002
}
  0
LINE
  5
A33F
330
A333
100
AcDbEntity
  8
0
100
AcDbLine
 10
1.420999999998571
 20
8.763099999991255
 30
0.0
 11
1.420999999998571
 21
0.0
 31
0.0
1001
ACAD
1000
ASC_BOUNDS
1002
{
1070
    19
1005
A37B
1002
}
  0
LINE
  5
A340
330
A333
100
AcDbEntity
  8
0
100
AcDbLine
 10
0.0
 20
8.763099999991255
 30
0.0
 11
0.0
 21
0.0
 31
0.0
1001
ACAD
1000
ASC_BOUNDS
1002
{
1070
    19
1005
A37B
1002
}
  0
LINE
  5
A341
330
A333
100
AcDbEntity
  8
0
100
AcDbLine
 10
6.766999999993232
 20
-0.0001000000000317
 30
0.0
 11
7.826999999992154
 21
2.368399999997621
 31
0.0
1001
ACAD
1000
ASC_BOUNDS
1002
{
1070
    19
1005
A376
1002
}
  0
LINE
  5
A342
330
A333
100
AcDbEntity
  8
0
100
AcDbLine
 10
0.0
 20
0.0
 30
0.0
 11
1.420999999998571
 21
0.0
 31
0.0
1001
ACAD
1000
ASC_BOUNDS
1002
{
1070
    19
1005
A37B
1002
}
  0
LINE
  5
A343
330
A333
100
AcDbEntity
  8
0
100
AcDbLine
 10
4.617999999995391
 20
0.0
 30
0.0
 11
6.766999999993232
 21
0.0
 31
0.0
1001
ACAD
1000
ASC_BOUNDS
1002
{
1070
    19
1005
A376
1002
}
  0
LINE
  5
A344
330
A333
100
AcDbEntity
  8
0
100
AcDbLine
 10
11.70599999998831
 20
-0.0001000000000317
 30
0.0
 11
10.64699999998936
 21
2.368399999997621
 31
0.0
1001
ACAD
1000
ASC_BOUNDS
1002
{
1070
    19
1005
A376
1002
}
  0
LINE
  5
A345
330
A333
100
AcDbEntity
  8
0
100
AcDbLine
 10
7.826999999992154
 20
2.368399999997621
 30
0.0
 11
10.64699999998936
 21
2.368399999997621
 31
0.0
1001
ACAD
1000
ASC_BOUNDS
1002
{
1070
    19
1005
A376
1002
}
  0
LINE
  5
A346
330
A333
100
AcDbEntity
  8
0
100
AcDbLine
 10
11.70599999998831
 20
0.0
 30
0.0
 11
13.26299999998673
 21
0.0
 31
0.0
1001
ACAD
1000
ASC_BOUNDS
1002
{
1070
    19
1005
A376
1002
}
  0
LINE
  5
A347
330
A333
100
AcDbEntity
  8
0
100
AcDbLine
 10
22.15599999997789
 20
2.368399999997621
 30
0.0
 11
24.97599999997499
 21
2.368399999997621
 31
0.0
1001
ACAD
1000
ASC_BOUNDS
1002
{
1070
    19
1005
A378
1002
}
  0
LINE
  5
A348
330
A333
100
AcDbEntity
  8
0
100
AcDbLine
 10
19.53899999998043
 20
0.0
 30
0.0
 11
21.09599999997886
 21
0.0
 31
0.0
1001
ACAD
1000
ASC_BOUNDS
1002
{
1070
    19
1005
A378
1002
}
  0
LINE
  5
A349
330
A333
100
AcDbEntity
  8
0
100
AcDbLine
 10
21.09599999997886
 20
-0.0001000000000317
 30
0.0
 11
22.15599999997789
 21
2.368399999997621
 31
0.0
1001
ACAD
1000
ASC_BOUNDS
1002
{
1070
    19
1005
A378
1002
}
  0
LINE
  5
A34A
330
A333
100
AcDbEntity
  8
0
100
AcDbLine
 10
26.02015566812236
 20
0.0330999999912365
 30
0.0
 11
24.97599999997499
 21
2.368399999997621
 31
0.0
1001
ACAD
1000
ASC_BOUNDS
1002
{
1070
    19
1005
A378
1002
}
  0
LINE
  5
A34B
330
A333
100
AcDbEntity
  8
0
100
AcDbLine
 10
14.32399999998563
 20
3.315799999996671
 30
0.0
 11
16.46099999998353
 21
8.999899999990987
 31
0.0
1001
ACAD
1000
ASC_BOUNDS
1002
{
1070
    19
1005
A377
1002
}
  0
LINE
  5
A34C
330
A333
100
AcDbEntity
  8
0
100
AcDbLine
 10
6.432999999993513
 20
8.763099999991255
 30
0.0
 11
3.181999999996833
 21
4.668599999995308
 31
0.0
1001
ACAD
1000
ASC_BOUNDS
1002
{
1070
    19
1005
A376
1002
}
  0
LINE
  5
A34D
330
A333
100
AcDbEntity
  8
0
100
AcDbLine
 10
4.617999999995391
 20
8.763099999991255
 30
0.0
 11
1.420999999998571
 21
4.736799999995242
 31
0.0
1001
ACAD
1000
ASC_BOUNDS
1002
{
1070
    19
1005
A376
1002
}
  0
LINE
  5
A34E
330
A333
100
AcDbEntity
  8
0
100
AcDbLine
 10
0.0
 20
8.763099999991255
 30
0.0
 11
1.420999999998571
 21
8.763099999991255
 31
0.0
1001
ACAD
1000
ASC_BOUNDS
1002
{
1070
    19
1005
A37B
1002
}
  0
LINE
  5
A34F
330
A333
100
AcDbEntity
  8
0
100
AcDbLine
 10
4.617999999995391
 20
8.763099999991255
 30
0.0
 11
6.432999999993513
 21
8.763099999991255
 31
0.0
1001
ACAD
1000
ASC_BOUNDS
1002
{
1070
    19
1005
A376
1002
}
  0
LINE
  5
A350
330
A333
100
AcDbEntity
  8
0
100
AcDbLine
 10
14.32399999998563
 20
3.315799999996671
 30
0.0
 11
12.02999999998792
 21
8.763099999991255
 31
0.0
1001
ACAD
1000
ASC_BOUNDS
1002
{
1070
    19
1005
A377
1002
}
  0
LINE
  5
A351
330
A333
100
AcDbEntity
  8
0
100
AcDbLine
 10
10.06399999998996
 20
3.670999999996297
 30
0.0
 11
9.236999999990758
 21
5.5200999999945
 31
0.0
1001
ACAD
1000
ASC_BOUNDS
1002
{
1070
    19
1005
A376
1002
}
  0
LINE
  5
A352
330
A333
100
AcDbEntity
  8
0
100
AcDbLine
 10
8.409999999991555
 20
3.670999999996297
 30
0.0
 11
9.236999999990758
 21
5.5200999999945
 31
0.0
1001
ACAD
1000
ASC_BOUNDS
1002
{
1070
    19
1005
A376
1002
}
  0
LINE
  5
A353
330
A333
100
AcDbEntity
  8
0
100
AcDbLine
 10
8.409999999991555
 20
3.670999999996297
 30
0.0
 11
10.06399999998996
 21
3.670999999996297
 31
0.0
1001
ACAD
1000
ASC_BOUNDS
1002
{
1070
    19
1005
A376
1002
}
  0
LINE
  5
A354
330
A333
100
AcDbEntity
  8
0
100
AcDbLine
 10
10.53899999998941
 20
8.763099999991255
 30
0.0
 11
12.02999999998792
 21
8.763099999991255
 31
0.0
1001
ACAD
1000
ASC_BOUNDS
1002
{
1070
    19
1005
A377
1002
}
  0
LINE
  5
A355
330
A333
100
AcDbEntity
  8
0
100
AcDbLine
 10
22.7389999999773
 20
3.670999999996297
 30
0.0
 11
23.56599999997638
 21
5.5200999999945
 31
0.0
1001
ACAD
1000
ASC_BOUNDS
1002
{
1070
    19
1005
A378
1002
}
  0
LINE
  5
A356
330
A333
100
AcDbEntity
  8
0
100
AcDbLine
 10
22.7389999999773
 20
3.670999999996297
 30
0.0
 11
24.39299999997559
 21
3.670999999996297
 31
0.0
1001
ACAD
1000
ASC_BOUNDS
1002
{
1070
    19
1005
A378
1002
}
  0
LINE
  5
A357
330
A333
100
AcDbEntity
  8
0
100
AcDbLine
 10
18.59799999998143
 20
3.315799999996671
 30
0.0
 11
20.89099999997916
 21
8.763099999991255
 31
0.0
1001
ACAD
1000
ASC_BOUNDS
1002
{
1070
    19
1005
A377
1002
}
  0
LINE
  5
A358
330
A333
100
AcDbEntity
  8
0
100
AcDbLine
 10
18.59799999998143
 20
3.315799999996671
 30
0.0
 11
16.46099999998353
 21
8.999899999990987
 31
0.0
1001
ACAD
1000
ASC_BOUNDS
1002
{
1070
    19
1005
A377
1002
}
  0
LINE
  5
A359
330
A333
100
AcDbEntity
  8
0
100
AcDbLine
 10
20.89099999997916
 20
8.763099999991255
 30
0.0
 11
22.38199999997767
 21
8.763099999991255
 31
0.0
1001
ACAD
1000
ASC_BOUNDS
1002
{
1070
    19
1005
A377
1002
}
  0
LINE
  5
A35A
330
A333
100
AcDbEntity
  8
0
100
AcDbLine
 10
24.39299999997559
 20
3.670999999996297
 30
0.0
 11
23.56599999997638
 21
5.5200999999945
 31
0.0
1001
ACAD
1000
ASC_BOUNDS
1002
{
1070
    19
1005
A378
1002
}
  0
LINE
  5
A35B
330
A333
100
AcDbEntity
  8
0
100
AcDbLine
 10
44.99999999995498
 20
-0.2368999999997641
 30
0.0
 11
40.02599999995994
 21
5.341799999994635
 31
0.0
1001
ACAD
1000
ASC_BOUNDS
1002
{
1070
    19
1005
A37A
1002
}
  0
LINE
  5
A35C
330
A333
100
AcDbEntity
  8
0
100
AcDbLine
 10
40.02599999995994
 20
5.341799999994635
 30
0.0
 11
40.02599999995994
 21
0.0
 31
0.0
1001
ACAD
1000
ASC_BOUNDS
1002
{
1070
    19
1005
A37A
1002
}
  0
LINE
  5
A35D
330
A333
100
AcDbEntity
  8
0
100
AcDbLine
 10
38.60499999996136
 20
8.999999999991019
 30
0.0
 11
38.60499999996136
 21
0.0
 31
0.0
1001
ACAD
1000
ASC_BOUNDS
1002
{
1070
    19
1005
A37A
1002
}
  0
LINE
  5
A35E
330
A333
100
AcDbEntity
  8
0
100
AcDbLine
 10
44.99999999995498
 20
8.763099999991255
 30
0.0
 11
44.99999999995498
 21
-0.2368999999997641
 31
0.0
1001
ACAD
1000
ASC_BOUNDS
1002
{
1070
    19
1005
A37A
1002
}
  0
LINE
  5
A35F
330
A333
100
AcDbEntity
  8
0
100
AcDbLine
 10
38.60499999996136
 20
0.0
 30
0.0
 11
40.02599999995994
 21
0.0
 31
0.0
1001
ACAD
1000
ASC_BOUNDS
1002
{
1070
    19
1005
A37A
1002
}
  0
LINE
  5
A360
330
A333
100
AcDbEntity
  8
0
100
AcDbLine
 10
43.57899999995641
 20
3.421199999996588
 30
0.0
 11
38.60499999996136
 21
8.999899999990987
 31
0.0
1001
ACAD
1000
ASC_BOUNDS
1002
{
1070
    19
1005
A37A
1002
}
  0
LINE
  5
A361
330
A333
100
AcDbEntity
  8
0
100
AcDbLine
 10
43.57899999995641
 20
8.763099999991255
 30
0.0
 11
43.57899999995641
 21
3.421199999996588
 31
0.0
1001
ACAD
1000
ASC_BOUNDS
1002
{
1070
    19
1005
A37A
1002
}
  0
LINE
  5
A362
330
A333
100
AcDbEntity
  8
0
100
AcDbLine
 10
43.57899999995641
 20
8.763099999991255
 30
0.0
 11
44.99999999995498
 21
8.763099999991255
 31
0.0
1001
ACAD
1000
ASC_BOUNDS
1002
{
1070
    19
1005
A37A
1002
}
  0
LINE
  5
A363
330
A333
100
AcDbEntity
  8
0
100
AcDbLine
 10
37.67199999996831
 20
8.763099999991255
 30
0.0
 11
36.23199999996837
 21
8.763099999991255
 31
0.0
  0
LINE
  5
A364
330
A333
100
AcDbEntity
  8
0
100
AcDbLine
 10
31.64199999996833
 20
8.763099999991255
 30
0.0
 11
31.64199999996833
 21
2.481619422925121
 31
0.0
  0
LINE
  5
A365
330
A333
100
AcDbEntity
  8
0
100
AcDbLine
 10
37.67199999996831
 20
8.763099999991255
 30
0.0
 11
37.67199999996831
 21
2.481619422925121
 31
0.0
  0
LINE
  5
A366
330
A333
100
AcDbEntity
  8
0
100
AcDbLine
 10
36.23199999996837
 20
8.763099999991255
 30
0.0
 11
36.23199999996837
 21
2.481619422925064
 31
0.0
  0
LINE
  5
A367
330
A333
100
AcDbEntity
  8
0
100
AcDbLine
 10
33.08199999996839
 20
8.763099999991255
 30
0.0
 11
33.08199999996839
 21
2.481619422925121
 31
0.0
  0
ARC
  5
A368
330
A333
100
AcDbEntity
  8
0
100
AcDbCircle
 10
34.65699999996832
 20
3.183099999991214
 30
0.0
 40
3.420000000000007
100
AcDbArc
 50
240.0000000000255
 51
299.9999999999766
  0
ARC
  5
A369
330
A333
100
AcDbEntity
  8
0
100
AcDbCircle
 10
34.65699999996832
 20
3.183099999991214
 30
0.0
 40
1.97999999999999
100
AcDbArc
 50
240.000000000026
 51
299.9999999999703
  0
LINE
  5
A36A
330
A333
100
AcDbEntity
  8
0
100
AcDbLine
 10
33.08199999996828
 20
8.763099999991255
 30
0.0
 11
31.64199999996833
 21
8.763099999991255
 31
0.0
  0
ARC
  5
A36B
330
A333
100
AcDbEntity
  8
0
100
AcDbCircle
 10
35.06199999996829
 20
2.481619422925064
 30
0.0
 40
1.17
100
AcDbArc
 50
299.9999999999699
 51
0.0
  0
ARC
  5
A36C
330
A333
100
AcDbEntity
  8
0
100
AcDbCircle
 10
34.25199999996835
 20
2.481619422925121
 30
0.0
 40
1.17
100
AcDbArc
 50
180.0
 51
240.0000000000238
  0
ARC
  5
A36D
330
A333
100
AcDbEntity
  8
0
100
AcDbCircle
 10
35.06199999996841
 20
2.481619422925121
 30
0.0
 40
2.61
100
AcDbArc
 50
299.9999999999756
 51
0.0
  0
ARC
  5
A36E
330
A333
100
AcDbEntity
  8
0
100
AcDbCircle
 10
34.25199999996835
 20
2.481619422925121
 30
0.0
 40
2.61
100
AcDbArc
 50
180.0
 51
240.0000000000244
  0
LINE
  5
A36F
330
A333
100
AcDbEntity
  8
0
100
AcDbLine
 10
29.30199999996933
 20
8.763099999991255
 30
0.0
 11
30.74199999996927
 21
8.763099999991255
 31
0.0
1001
ACAD
1000
ASC_BOUNDS
1002
{
1070
    19
1005
A378
1002
}
  0
LINE
  5
A370
330
A333
100
AcDbEntity
  8
0
100
AcDbLine
 10
30.74199999996927
 20
8.763099999991255
 30
0.0
 11
30.74199999996927
 21
2.373099999991211
 31
0.0
1001
ACAD
1000
ASC_BOUNDS
1002
{
1070
    19
1005
A378
1002
}
  0
LINE
  5
A371
330
A333
100
AcDbEntity
  8
0
100
AcDbLine
 10
26.02015566812236
 20
0.0330999999912365
 30
0.0
 11
28.40199999996923
 21
0.0330999999912365
 31
0.0
1001
ACAD
1000
ASC_BOUNDS
1002
{
1070
    19
1005
A378
1002
}
  0
LINE
  5
A372
330
A333
100
AcDbEntity
  8
0
100
AcDbLine
 10
29.30199999996933
 20
8.763099999991255
 30
0.0
 11
29.30199999996933
 21
2.283099999991236
 31
0.0
1001
ACAD
1000
ASC_BOUNDS
1002
{
1070
    19
1005
A378
1002
}
  0
LINE
  5
A373
330
A333
100
AcDbEntity
  8
0
100
AcDbLine
 10
26.97358892824991
 20
1.383099999991202
 30
0.0
 11
28.40199999996923
 21
1.383099999991202
 31
0.0
1001
ACAD
1000
ASC_BOUNDS
1002
{
1070
    19
1005
A378
1002
}
  0
ARC
  5
A374
330
A333
100
AcDbEntity
  8
0
100
AcDbCircle
 10
28.40199999996923
 20
2.283099999991236
 30
0.0
 40
0.9
100
AcDbArc
 50
270.0
 51
0.0
1001
ACAD
1000
ASC_BOUNDS
1002
{
1070
    19
1005
A378
1002
}
  0
ARC
  5
A375
330
A333
100
AcDbEntity
  8
0
100
AcDbCircle
 10
28.40199999996923
 20
2.373099999991211
 30
0.0
 40
2.34
100
AcDbArc
 50
270.0
 51
0.0
1001
ACAD
1000
ASC_BOUNDS
1002
{
1070
    19
1005
A378
1002
}
  0
INSERT
  5
A376
330
A333
100
AcDbEntity
  8
0
100
AcDbBlockReference
  2
*X35
 10
0.0
 20
0.0
 30
0.0
1001
ACAD
1000
HATCH
1002
{
1070
    19
1000
ANSI37
1040
0.15
1040
0.0
1000
ASC_BOUNDS
1070
     2
1070
     2
1070
    12
1005
A335
1005
A336
1005
A33D
1005
A34C
1005
A34F
1005
A34D
1005
A33E
1005
A343
1005
A341
1005
A345
1005
A344
1005
A346
1070
     2
1070
     3
1005
A351
1005
A353
1005
A352
1000
ASC_SEEDPOINT
1011
3.614004224891801
1021
2.996669441146025
1031
0.0
1000
R14_HATCH_DATA
1000
A376
1011
1.0
1021
0.0
1031
0.0
1011
0.0
1021
1.0
1031
0.0
1011
0.0
1021
0.0
1031
1.0
1040
0.0
1010
0.0
1020
0.0
1030
1.0
1000
ANSI37
1070
     0
1070
     1
1071
        2
1071
        7
1070
     0
1070
     1
1071
       17
1040
13.26299999998673
1040
-0.0001000000000317
1040
9.236999999990758
1040
8.999899999990987
1040
9.236999999990758
1040
8.999999999991019
1040
5.657999999994331
1040
0.9999999999989768
1040
3.181999999996833
1040
4.668599999995308
1040
6.432999999993513
1040
8.763099999991255
1040
4.617999999995391
1040
8.763099999991255
1040
1.420999999998571
1040
4.736799999995242
1040
4.617999999995391
1040
-0.0001000000000317
1040
4.617999999995391
1040
0.0
1040
6.766999999993232
1040
0.0
1040
6.766999999993232
1040
-0.0001000000000317
1040
7.826999999992154
1040
2.368399999997621
1040
10.64699999998936
1040
2.368399999997621
1040
11.70599999998831
1040
-0.0001000000000317
1040
11.70599999998831
1040
0.0
1040
13.26299999998673
1040
0.0
1071
       12
1005
A335
1005
A336
1005
A33D
1005
A34C
1005
A34F
1005
A34D
1005
A33E
1005
A343
1005
A341
1005
A345
1005
A344
1005
A346
1071
       22
1070
     0
1070
     1
1071
        3
1040
9.236999999990758
1040
5.5200999999945
1040
10.06399999998996
1040
3.670999999996297
1040
8.409999999991555
1040
3.670999999996297
1071
        3
1005
A351
1005
A353
1005
A352
1070
     0
1070
     1
1040
0.0
1040
0.15
1070
     0
1070
     2
1040
0.7853981633974483
1040
49.29960901727088
1040
-10.17736998311392
1040
-0.3367596045400932
1040
0.3367596045400932
1070
     0
1040
2.356194490192345
1040
49.29960901727088
1040
-10.17736998311392
1040
-0.3367596045400932
1040
-0.3367596045400932
1070
     0
1040
0.0110235143455945
1071
        2
1040
3.614004224891801
1040
2.996669441146025
1040
0.0
1040
3.614004224891801
1040
2.996669441146025
1040
0.0
1002
}
  0
INSERT
  5
A377
330
A333
100
AcDbEntity
  8
0
100
AcDbBlockReference
  2
*X36
 10
0.0
 20
0.0
 30
0.0
1001
ACAD
1000
HATCH
1002
{
1070
    19
1000
ANSI37
1040
0.15
1040
0.0
1000
ASC_BOUNDS
1070
     1
1070
     2
1070
    10
1005
A337
1005
A338
1005
A359
1005
A357
1005
A358
1005
A34B
1005
A350
1005
A354
1005
A33A
1005
A339
1000
ASC_SEEDPOINT
1011
14.73245321214324
1021
2.798246178283421
1031
0.0
1000
R14_HATCH_DATA
1000
A377
1011
1.0
1021
0.0
1031
0.0
1011
0.0
1021
1.0
1031
0.0
1011
0.0
1021
0.0
1031
1.0
1040
0.0
1010
0.0
1020
0.0
1030
1.0
1000
ANSI37
1070
     0
1070
     1
1071
        1
1071
        7
1070
     0
1070
     1
1071
       10
1040
16.46099999998353
1040
5.432899999994561
1040
18.59199999998134
1040
-0.2368999999997641
1040
22.38199999997767
1040
8.763099999991255
1040
20.89099999997916
1040
8.763099999991255
1040
18.59799999998143
1040
3.315799999996671
1040
16.46099999998353
1040
8.999899999990987
1040
14.32399999998563
1040
3.315799999996671
1040
12.02999999998792
1040
8.763099999991255
1040
10.53899999998941
1040
8.763099999991255
1040
14.32899999998563
1040
-0.2368999999997641
1071
       10
1005
A337
1005
A338
1005
A359
1005
A357
1005
A358
1005
A34B
1005
A350
1005
A354
1005
A33A
1005
A339
1070
     0
1070
     1
1040
0.0
1040
0.15
1070
     0
1070
     2
1040
0.7853981633974483
1040
49.29960901727088
1040
-10.17736998311392
1040
-0.3367596045400932
1040
0.3367596045400932
1070
     0
1040
2.356194490192345
1040
49.29960901727088
1040
-10.17736998311392
1040
-0.3367596045400932
1040
-0.3367596045400932
1070
     0
1040
0.0110235143455945
1071
        1
1040
14.73245321214324
1040
2.798246178283421
1040
0.0
1002
}
  0
INSERT
  5
A378
330
A333
100
AcDbEntity
  8
0
100
AcDbBlockReference
  2
*X37
 10
0.0
 20
0.0
 30
0.0
1001
ACAD
1000
HATCH
1002
{
1070
    19
1000
ANSI37
1040
0.15
1040
0.0
1000
ASC_BOUNDS
1070
     2
1070
     2
1070
    13
1005
A33B
1005
A348
1005
A349
1005
A347
1005
A34A
1005
A371
1005
A375
1005
A370
1005
A36F
1005
A372
1005
A374
1005
A373
1005
A33C
1070
     2
1070
     3
1005
A355
1005
A35A
1005
A356
1000
ASC_SEEDPOINT
1011
21.97929957367762
1021
3.294304244259308
1031
0.0
1000
R14_HATCH_DATA
1000
A378
1011
1.0
1021
0.0
1031
0.0
1011
0.0
1021
1.0
1031
0.0
1011
0.0
1021
0.0
1031
1.0
1040
0.0
1010
0.0
1020
0.0
1030
1.0
1000
ANSI37
1070
     0
1070
     1
1071
        2
1071
        7
1070
     1
1070
     1
1071
       15
1040
23.56599999997638
1040
8.999899999990987
1040
0.0
1040
19.53899999998043
1040
-0.0001000000000317
1040
0.0
1040
19.53899999998043
1040
0.0
1040
0.0
1040
21.09599999997886
1040
0.0
1040
0.0
1040
21.09599999997886
1040
-0.0001000000000317
1040
0.0
1040
22.15599999997789
1040
2.368399999997621
1040
0.0
1040
24.97599999997499
1040
2.368399999997621
1040
0.0
1040
26.02015566812236
1040
0.0330999999912365
1040
0.0
1040
28.40199999996923
1040
0.0330999999912365
1040
0.414213562373095
1040
30.74199999996923
1040
2.373099999991211
1040
0.0
1040
30.74199999996927
1040
8.763099999991255
1040
0.0
1040
29.30199999996933
1040
8.763099999991255
1040
0.0
1040
29.30199999996933
1040
2.283099999991236
1040
-0.414213562373095
1040
28.40199999996923
1040
1.383099999991237
1040
0.0
1040
26.97358892824991
1040
1.383099999991202
1040
0.0
1071
       13
1005
A33B
1005
A348
1005
A349
1005
A347
1005
A34A
1005
A371
1005
A375
1005
A370
1005
A36F
1005
A372
1005
A374
1005
A373
1005
A33C
1071
       22
1070
     0
1070
     1
1071
        3
1040
22.7389999999773
1040
3.670999999996297
1040
23.56599999997638
1040
5.5200999999945
1040
24.39299999997559
1040
3.670999999996297
1071
        3
1005
A355
1005
A35A
1005
A356
1070
     0
1070
     1
1040
0.0
1040
0.15
1070
     0
1070
     2
1040
0.7853981633974483
1040
49.29960901727088
1040
-10.17736998311392
1040
-0.3367596045400932
1040
0.3367596045400932
1070
     0
1040
2.356194490192345
1040
49.29960901727088
1040
-10.17736998311392
1040
-0.3367596045400932
1040
-0.3367596045400932
1070
     0
1040
0.0110235143455945
1071
        2
1040
21.97929957367762
1040
3.294304244259308
1040
0.0
1040
21.97929957367762
1040
3.294304244259308
1040
0.0
1002
}
  0
INSERT
  5
A379
330
A333
100
AcDbEntity
  8
0
100
AcDbBlockReference
  2
*X38
 10
0.0
 20
0.0
 30
0.0
1001
ACAD
1000
HATCH
1002
{
1070
    19
1000
ANSI37
1040
0.15
1040
0.0
1000
R14_HATCH_DATA
1000
A379
1011
1.0
1021
0.0
1031
0.0
1011
0.0
1021
1.0
1031
0.0
1011
0.0
1021
0.0
1031
1.0
1040
0.0
1010
0.0
1020
0.0
1030
1.0
1000
ANSI37
1070
     0
1070
     1
1071
        1
1071
        7
1070
     1
1070
     1
1071
       12
1040
31.64199999996833
1040
2.481619422925121
1040
0.2679491924310942
1040
32.94699999997067
1040
0.2212931190493919
1040
0.2679491924301353
1040
36.36699999995983
1040
0.2212931190459813
1040
0.2679491924321411
1040
37.67199999996831
1040
2.481619422928361
1040
0.0
1040
37.67199999996831
1040
8.763099999991255
1040
0.0
1040
36.23199999996837
1040
8.763099999991255
1040
0.0
1040
36.23199999996837
1040
2.481619422925064
1040
-0.2679491924310291
1040
35.64699999996708
1040
1.468369700498386
1040
-0.267949192430519
1040
33.66699999997093
1040
1.468369700497703
1040
-0.267949192431809
1040
33.08199999996839
1040
2.481619422926997
1040
0.0
1040
33.08199999996839
1040
8.763099999991255
1040
0.0
1040
31.64199999996833
1040
8.763099999991255
1040
0.0
1071
        0
1070
     0
1070
     1
1040
0.0
1040
0.15
1070
     0
1070
     2
1040
0.7853981633974483
1040
49.29960901727088
1040
-10.17736998311392
1040
-0.3367596045400932
1040
0.3367596045400932
1070
     0
1040
2.356194490192345
1040
49.29960901727088
1040
-10.17736998311392
1040
-0.3367596045400932
1040
-0.3367596045400932
1070
     0
1040
0.0110235143455945
1071
        1
1040
32.30357378967278
1040
3.988785755459219
1040
0.0
1002
}
  0
INSERT
  5
A37A
330
A333
100
AcDbEntity
  8
0
100
AcDbBlockReference
  2
*X39
 10
0.0
 20
0.0
 30
0.0
1001
ACAD
1000
HATCH
1002
{
1070
    19
1000
ANSI37
1040
0.15
1040
0.0
1000
ASC_BOUNDS
1070
     1
1070
     2
1070
     8
1005
A35B
1005
A35E
1005
A362
1005
A361
1005
A360
1005
A35D
1005
A35F
1005
A35C
1000
ASC_SEEDPOINT
1011
39.74896370716704
1021
4.484843821435049
1031
0.0
1000
R14_HATCH_DATA
1000
A37A
1011
1.0
1021
0.0
1031
0.0
1011
0.0
1021
1.0
1031
0.0
1011
0.0
1021
0.0
1031
1.0
1040
0.0
1010
0.0
1020
0.0
1030
1.0
1000
ANSI37
1070
     0
1070
     1
1071
        1
1071
        7
1070
     0
1070
     1
1071
        9
1040
40.02599999995994
1040
5.341799999994635
1040
44.99999999995498
1040
-0.2368999999997641
1040
44.99999999995498
1040
8.763099999991255
1040
43.57899999995641
1040
8.763099999991255
1040
43.57899999995641
1040
3.421199999996588
1040
38.60499999996136
1040
8.999899999990987
1040
38.60499999996136
1040
8.999999999991019
1040
38.60499999996136
1040
0.0
1040
40.02599999995994
1040
0.0
1071
        8
1005
A35B
1005
A35E
1005
A362
1005
A361
1005
A360
1005
A35D
1005
A35F
1005
A35C
1070
     0
1070
     1
1040
0.0
1040
0.15
1070
     0
1070
     2
1040
0.7853981633974483
1040
49.29960901727088
1040
-10.17736998311392
1040
-0.3367596045400932
1040
0.3367596045400932
1070
     0
1040
2.356194490192345
1040
49.29960901727088
1040
-10.17736998311392
1040
-0.3367596045400932
1040
-0.3367596045400932
1070
     0
1040
0.0110235143455945
1071
        1
1040
39.74896370716704
1040
4.484843821435049
1040
0.0
1002
}
  0
INSERT
  5
A37B
330
A333
100
AcDbEntity
  8
0
100
AcDbBlockReference
  2
*X40
 10
0.0
 20
0.0
 30
0.0
1001
ACAD
1000
HATCH
1002
{
1070
    19
1000
ANSI37
1040
0.15
1040
0.0
1000
ASC_BOUNDS
1070
     1
1070
     2
1070
     4
1005
A33F
1005
A34E
1005
A340
1005
A342
1000
ASC_SEEDPOINT
1011
1.079051535452663
1021
4.148538732891836
1031
0.0
1000
R14_HATCH_DATA
1000
A37B
1011
1.0
1021
0.0
1031
0.0
1011
0.0
1021
1.0
1031
0.0
1011
0.0
1021
0.0
1031
1.0
1040
0.0
1010
0.0
1020
0.0
1030
1.0
1000
ANSI37
1070
     0
1070
     1
1071
        1
1071
        7
1070
     0
1070
     1
1071
        4
1040
1.420999999998571
1040
0.0
1040
1.420999999998571
1040
8.763099999991255
1040
0.0
1040
8.763099999991255
1040
0.0
1040
0.0
1071
        4
1005
A33F
1005
A34E
1005
A340
1005
A342
1070
     0
1070
     1
1040
0.0
1040
0.15
1070
     0
1070
     2
1040
0.7853981633974483
1040
49.29960901727088
1040
-10.17736998311392
1040
-0.3367596045400932
1040
0.3367596045400932
1070
     0
1040
2.356194490192345
1040
49.29960901727088
1040
-10.17736998311392
1040
-0.3367596045400932
1040
-0.3367596045400932
1070
     0
1040
0.0053004257112761
1071
        1
1040
1.079051535452663
1040
4.148538732891836
1040
0.0
1002
}
  0
ENDBLK
  5
AA57
330
A333
100
AcDbEntity
  8
0
100
AcDbBlockEnd
  0
BLOCK
  5
BA39
330
B8AB
100
AcDbEntity
  8
0
100
AcDbBlockBegin
  2
*X35
 70
     1
 10
0.0
 20
0.0
 30
0.0
  3
*X35
  1

  0
LINE
  5
B8AC
330
B8AB
100
AcDbEntity
  8
0
  6
CONTINUOUS
100
AcDbLine
 10
3.418023043697893
 20
7.251849696850613
 30
0.0
 11
4.929273346838536
 21
8.763099999991255
 31
0.0
  0
LINE
  5
B8AD
330
B8AB
100
AcDbEntity
  8
0
  6
CONTINUOUS
100
AcDbLine
 10
1.483656411257782
 20
4.643963855330318
 30
0.0
 11
5.60279255591872
 21
8.763099999991255
 31
0.0
  0
LINE
  5
B8AE
330
B8AB
100
AcDbEntity
  8
0
  6
CONTINUOUS
100
AcDbLine
 10
1.755053947328235
 20
4.241842182320584
 30
0.0
 11
6.276311764998907
 21
8.763099999991255
 31
0.0
  0
LINE
  5
B8AF
330
B8AB
100
AcDbEntity
  8
0
  6
CONTINUOUS
100
AcDbLine
 10
2.026451483398688
 20
3.839720509310849
 30
0.0
 11
4.441040904851878
 21
6.254309930764039
 31
0.0
  0
LINE
  5
B8B0
330
B8AB
100
AcDbEntity
  8
0
  6
CONTINUOUS
100
AcDbLine
 10
2.297849019469139
 20
3.437598836301114
 30
0.0
 11
3.321765168359338
 21
4.461514985191313
 31
0.0
  0
LINE
  5
B8B1
330
B8AB
100
AcDbEntity
  8
0
  6
CONTINUOUS
100
AcDbLine
 10
2.569246555539591
 20
3.03547716329138
 30
0.0
 11
3.593163397972743
 21
4.059394005724531
 31
0.0
  0
LINE
  5
B8B2
330
B8AB
100
AcDbEntity
  8
0
  6
CONTINUOUS
100
AcDbLine
 10
2.840644091610043
 20
2.633355490281646
 30
0.0
 11
3.864561627586149
 21
3.657273026257751
 31
0.0
  0
LINE
  5
B8B3
330
B8AB
100
AcDbEntity
  8
0
  6
CONTINUOUS
100
AcDbLine
 10
3.112041627680496
 20
2.231233817271911
 30
0.0
 11
4.135959857199554
 21
3.25515204679097
 31
0.0
  0
LINE
  5
B8B4
330
B8AB
100
AcDbEntity
  8
0
  6
CONTINUOUS
100
AcDbLine
 10
3.383439163750948
 20
1.829112144262177
 30
0.0
 11
4.40735808681296
 21
2.853031067324189
 31
0.0
  0
LINE
  5
B8B5
330
B8AB
100
AcDbEntity
  8
0
  6
CONTINUOUS
100
AcDbLine
 10
3.654836699821399
 20
1.426990471252442
 30
0.0
 11
4.678756316426365
 21
2.450910087857407
 31
0.0
  0
LINE
  5
B8B6
330
B8AB
100
AcDbEntity
  8
0
  6
CONTINUOUS
100
AcDbLine
 10
3.926234235891853
 20
1.024868798242709
 30
0.0
 11
4.95015454603977
 21
2.048789108390626
 31
0.0
  0
LINE
  5
B8B7
330
B8AB
100
AcDbEntity
  8
0
  6
CONTINUOUS
100
AcDbLine
 10
4.197631771962304
 20
0.6227471252329737
 30
0.0
 11
5.221552775653176
 21
1.646668128923846
 31
0.0
  0
LINE
  5
B8B8
330
B8AB
100
AcDbEntity
  8
0
  6
CONTINUOUS
100
AcDbLine
 10
8.715877546767851
 20
7.835069736359266
 30
0.0
 11
9.435953450375058
 21
8.555145639966472
 31
0.0
  0
LINE
  5
B8B9
330
B8AB
100
AcDbEntity
  8
0
  6
CONTINUOUS
100
AcDbLine
 10
8.170620868422267
 20
6.616293848933497
 30
0.0
 11
9.644120833743461
 21
8.08979381425469
 31
0.0
  0
LINE
  5
B8BA
330
B8AB
100
AcDbEntity
  8
0
  6
CONTINUOUS
100
AcDbLine
 10
7.625364190076684
 20
5.397517961507727
 30
0.0
 11
9.852288217111864
 21
7.624441988542907
 31
0.0
  0
LINE
  5
B8BB
330
B8AB
100
AcDbEntity
  8
0
  6
CONTINUOUS
100
AcDbLine
 10
7.080107511731101
 20
4.178742074081957
 30
0.0
 11
10.06045560048027
 21
7.159090162831124
 31
0.0
  0
LINE
  5
B8BC
330
B8AB
100
AcDbEntity
  8
0
  6
CONTINUOUS
100
AcDbLine
 10
6.534850833385518
 20
2.959966186656187
 30
0.0
 11
10.26862298384867
 21
6.693738337119342
 31
0.0
  0
LINE
  5
B8BD
330
B8AB
100
AcDbEntity
  8
0
  6
CONTINUOUS
100
AcDbLine
 10
4.469029308032756
 20
0.2206254522232385
 30
0.0
 11
5.492951005266582
 21
1.244547149457064
 31
0.0
  0
LINE
  5
B8BE
330
B8AB
100
AcDbEntity
  8
0
  6
CONTINUOUS
100
AcDbLine
 10
5.989594155039935
 20
1.741190299230417
 30
0.0
 11
8.806950407233131
 21
4.558546551423613
 31
0.0
  0
LINE
  5
B8BF
330
B8AB
100
AcDbEntity
  8
0
  6
CONTINUOUS
100
AcDbLine
 10
9.401251593263643
 20
5.152847737454126
 30
0.0
 11
10.47679036721708
 21
6.228386511407559
 31
0.0
  0
LINE
  5
B8C0
330
B8AB
100
AcDbEntity
  8
0
  6
CONTINUOUS
100
AcDbLine
 10
4.921837203428691
 20
-0.0000858614610131
 30
0.0
 11
8.592923064886001
 21
3.670999999996297
 31
0.0
  0
LINE
  5
B8C1
330
B8AB
100
AcDbEntity
  8
0
  6
CONTINUOUS
100
AcDbLine
 10
9.609390446785305
 20
4.6874673818956
 30
0.0
 11
10.68495775058548
 21
5.763034685695775
 31
0.0
  0
LINE
  5
B8C2
330
B8AB
100
AcDbEntity
  8
0
  6
CONTINUOUS
100
AcDbLine
 10
5.595387755019432
 20
-0.0000545189504582
 30
0.0
 11
7.716137258923768
 21
2.120694984953879
 31
0.0
  0
LINE
  5
B8C3
330
B8AB
100
AcDbEntity
  8
0
  6
CONTINUOUS
100
AcDbLine
 10
6.268938306610172
 20
-0.000023176439905
 30
0.0
 11
7.170485805526503
 21
0.9015243224764267
 31
0.0
  0
LINE
  5
B8C4
330
B8AB
100
AcDbEntity
  8
0
  6
CONTINUOUS
100
AcDbLine
 10
7.963842273967511
 20
2.368399999997621
 30
0.0
 11
9.266442273966188
 21
3.670999999996297
 31
0.0
  0
LINE
  5
B8C5
330
B8AB
100
AcDbEntity
  8
0
  6
CONTINUOUS
100
AcDbLine
 10
8.637361483047696
 20
2.368399999997621
 30
0.0
 11
9.939961483046375
 21
3.670999999996297
 31
0.0
  0
LINE
  5
B8C6
330
B8AB
100
AcDbEntity
  8
0
  6
CONTINUOUS
100
AcDbLine
 10
9.817529300306965
 20
4.222087026337075
 30
0.0
 11
10.89312513395388
 21
5.297682859983993
 31
0.0
  0
LINE
  5
B8C7
330
B8AB
100
AcDbEntity
  8
0
  6
CONTINUOUS
100
AcDbLine
 10
10.02566815382863
 20
3.756706670778549
 30
0.0
 11
11.10129251732229
 21
4.832331034272211
 31
0.0
  0
LINE
  5
B8C8
330
B8AB
100
AcDbEntity
  8
0
  6
CONTINUOUS
100
AcDbLine
 10
9.310880692127883
 20
2.368399999997621
 30
0.0
 11
11.30945990069069
 21
4.366979208560428
 31
0.0
  0
LINE
  5
B8C9
330
B8AB
100
AcDbEntity
  8
0
  6
CONTINUOUS
100
AcDbLine
 10
9.98439990120807
 20
2.36839999999762
 30
0.0
 11
11.5176272840591
 21
3.901627382848645
 31
0.0
  0
LINE
  5
B8CA
330
B8AB
100
AcDbEntity
  8
0
  6
CONTINUOUS
100
AcDbLine
 10
10.65037369446246
 20
2.36085458417182
 30
0.0
 11
11.7257946674275
 21
3.436275557136862
 31
0.0
  0
LINE
  5
B8CB
330
B8AB
100
AcDbEntity
  8
0
  6
CONTINUOUS
100
AcDbLine
 10
10.85847197087848
 20
1.895433651507656
 30
0.0
 11
11.9339620507959
 21
2.97092373142508
 31
0.0
  0
LINE
  5
B8CC
330
B8AB
100
AcDbEntity
  8
0
  6
CONTINUOUS
100
AcDbLine
 10
11.0665702472945
 20
1.430012718843491
 30
0.0
 11
12.14212943416431
 21
2.505571905713296
 31
0.0
  0
LINE
  5
B8CD
330
B8AB
100
AcDbEntity
  8
0
  6
CONTINUOUS
100
AcDbLine
 10
11.27466852371052
 20
0.9645917861793256
 30
0.0
 11
12.35029681753271
 21
2.040220080001513
 31
0.0
  0
LINE
  5
B8CE
330
B8AB
100
AcDbEntity
  8
0
  6
CONTINUOUS
100
AcDbLine
 10
11.48276680012654
 20
0.4991708535151611
 30
0.0
 11
12.55846420090111
 21
1.57486825428973
 31
0.0
  0
LINE
  5
B8CF
330
B8AB
100
AcDbEntity
  8
0
  6
CONTINUOUS
100
AcDbLine
 10
11.69086507654257
 20
0.0337499208509957
 30
0.0
 11
12.76663158426952
 21
1.109516428577947
 31
0.0
  0
LINE
  5
B8D0
330
B8AB
100
AcDbEntity
  8
0
  6
CONTINUOUS
100
AcDbLine
 10
12.33057447873954
 20
-0.0000598860322123
 30
0.0
 11
12.97479896763792
 21
0.6441646028661663
 31
0.0
  0
LINE
  5
B8D1
330
B8AB
100
AcDbEntity
  8
0
  6
CONTINUOUS
100
AcDbLine
 10
13.00413694809395
 20
-0.0000166257579952
 30
0.0
 11
13.18296635100632
 21
0.1788127771543824
 31
0.0
  0
LINE
  5
B8D2
330
B8AB
100
AcDbEntity
  8
0
  6
CONTINUOUS
100
AcDbLine
 10
4.772852165289667
 20
-0.000092794222212
 30
0.0
 11
4.296495091028902
 21
0.4762642800385528
 31
0.0
  0
LINE
  5
B8D3
330
B8AB
100
AcDbEntity
  8
0
  6
CONTINUOUS
100
AcDbLine
 10
5.446340034776103
 20
-0.0000614546284616
 30
0.0
 11
2.898195908335625
 21
2.548082671812017
 31
0.0
  0
LINE
  5
B8D4
330
B8AB
100
AcDbEntity
  8
0
  6
CONTINUOUS
100
AcDbLine
 10
6.119827904262539
 20
-0.0000301150347113
 30
0.0
 11
1.499896725642348
 21
4.61990106358548
 31
0.0
  0
LINE
  5
B8D5
330
B8AB
100
AcDbEntity
  8
0
  6
CONTINUOUS
100
AcDbLine
 10
6.775136745476159
 20
0.0181802528318542
 30
0.0
 11
5.699826040202669
 21
1.093490958105344
 31
0.0
  0
LINE
  5
B8D6
330
B8AB
100
AcDbEntity
  8
0
  6
CONTINUOUS
100
AcDbLine
 10
6.983376846288489
 20
0.4834593610997118
 30
0.0
 11
5.908008617934405
 21
1.558827589453796
 31
0.0
  0
LINE
  5
B8D7
330
B8AB
100
AcDbEntity
  8
0
  6
CONTINUOUS
100
AcDbLine
 10
5.377063484962296
 20
1.416253513345719
 30
0.0
 11
1.702276957014131
 21
5.091040041293883
 31
0.0
  0
LINE
  5
B8D8
330
B8AB
100
AcDbEntity
  8
0
  6
CONTINUOUS
100
AcDbLine
 10
3.978745891735324
 20
3.488090315652877
 30
0.0
 11
2.000373521109399
 21
5.466462686278803
 31
0.0
  0
LINE
  5
B8D9
330
B8AB
100
AcDbEntity
  8
0
  6
CONTINUOUS
100
AcDbLine
 10
7.191616947100819
 20
0.948738469367568
 30
0.0
 11
6.11619119566614
 21
2.024164220802247
 31
0.0
  0
LINE
  5
B8DA
330
B8AB
100
AcDbEntity
  8
0
  6
CONTINUOUS
100
AcDbLine
 10
7.399857047913149
 20
1.414017577635424
 30
0.0
 11
6.324373773397875
 21
2.489500852150698
 31
0.0
  0
LINE
  5
B8DB
330
B8AB
100
AcDbEntity
  8
0
  6
CONTINUOUS
100
AcDbLine
 10
7.608097148725479
 20
1.879296685903281
 30
0.0
 11
6.53255635112961
 21
2.95483748349915
 31
0.0
  0
LINE
  5
B8DC
330
B8AB
100
AcDbEntity
  8
0
  6
CONTINUOUS
100
AcDbLine
 10
7.816337249537808
 20
2.344575794171138
 30
0.0
 11
6.740738928861345
 21
3.420174114847601
 31
0.0
  0
LINE
  5
B8DD
330
B8AB
100
AcDbEntity
  8
0
  6
CONTINUOUS
100
AcDbLine
 10
3.310241080789734
 20
4.830114335678653
 30
0.0
 11
2.298470085204666
 21
5.84188533126372
 31
0.0
  0
LINE
  5
B8DE
330
B8AB
100
AcDbEntity
  8
0
  6
CONTINUOUS
100
AcDbLine
 10
3.60832983563551
 20
5.205544789913063
 30
0.0
 11
2.596566649299935
 21
6.217307976248638
 31
0.0
  0
LINE
  5
B8DF
330
B8AB
100
AcDbEntity
  8
0
  6
CONTINUOUS
100
AcDbLine
 10
3.906418590481286
 20
5.580975244147473
 30
0.0
 11
2.894663213395203
 21
6.592730621233557
 31
0.0
  0
LINE
  5
B8E0
330
B8AB
100
AcDbEntity
  8
0
  6
CONTINUOUS
100
AcDbLine
 10
4.204507345327062
 20
5.956405698381884
 30
0.0
 11
3.192759777490472
 21
6.968153266218474
 31
0.0
  0
LINE
  5
B8E1
330
B8AB
100
AcDbEntity
  8
0
  6
CONTINUOUS
100
AcDbLine
 10
8.466032252791512
 20
2.368399999997621
 30
0.0
 11
6.948921506593081
 21
3.885510746196053
 31
0.0
  0
LINE
  5
B8E2
330
B8AB
100
AcDbEntity
  8
0
  6
CONTINUOUS
100
AcDbLine
 10
9.139551461871699
 20
2.36839999999762
 30
0.0
 11
7.157104084324816
 21
4.350847377544504
 31
0.0
  0
LINE
  5
B8E3
330
B8AB
100
AcDbEntity
  8
0
  6
CONTINUOUS
100
AcDbLine
 10
4.502596100172839
 20
6.331836152616295
 30
0.0
 11
3.49085634158574
 21
7.343575911203393
 31
0.0
  0
LINE
  5
B8E4
330
B8AB
100
AcDbEntity
  8
0
  6
CONTINUOUS
100
AcDbLine
 10
4.800684855018615
 20
6.707266606850705
 30
0.0
 11
3.788952905681008
 21
7.718998556188312
 31
0.0
  0
LINE
  5
B8E5
330
B8AB
100
AcDbEntity
  8
0
  6
CONTINUOUS
100
AcDbLine
 10
12.18154012887317
 20
-0.0000694579236642
 30
0.0
 11
11.32140332908496
 21
0.8600673418645499
 31
0.0
  0
LINE
  5
B8E6
330
B8AB
100
AcDbEntity
  8
0
  6
CONTINUOUS
100
AcDbLine
 10
12.85501608323566
 20
-0.0000262032059659
 30
0.0
 11
10.77672456435345
 21
2.078265315676246
 31
0.0
  0
LINE
  5
B8E7
330
B8AB
100
AcDbEntity
  8
0
  6
CONTINUOUS
100
AcDbLine
 10
9.813070670951886
 20
2.36839999999762
 30
0.0
 11
8.51047067095321
 21
3.670999999996297
 31
0.0
  0
LINE
  5
B8E8
330
B8AB
100
AcDbEntity
  8
0
  6
CONTINUOUS
100
AcDbLine
 10
10.48658988003207
 20
2.36839999999762
 30
0.0
 11
9.183989880033396
 21
3.670999999996297
 31
0.0
  0
LINE
  5
B8E9
330
B8AB
100
AcDbEntity
  8
0
  6
CONTINUOUS
100
AcDbLine
 10
8.441048632286794
 20
3.740422038662712
 30
0.0
 11
7.365286662056551
 21
4.816184008892956
 31
0.0
  0
LINE
  5
B8EA
330
B8AB
100
AcDbEntity
  8
0
  6
CONTINUOUS
100
AcDbLine
 10
8.649187485808454
 20
4.205802394221237
 30
0.0
 11
7.573469239788285
 21
5.281520640241407
 31
0.0
  0
LINE
  5
B8EB
330
B8AB
100
AcDbEntity
  8
0
  6
CONTINUOUS
100
AcDbLine
 10
5.098773609864391
 20
7.082697061085115
 30
0.0
 11
4.087049469776277
 21
8.09442120117323
 31
0.0
  0
LINE
  5
B8EC
330
B8AB
100
AcDbEntity
  8
0
  6
CONTINUOUS
100
AcDbLine
 10
5.396862364710167
 20
7.458127515319526
 30
0.0
 11
4.385146033871544
 21
8.469843846158149
 31
0.0
  0
LINE
  5
B8ED
330
B8AB
100
AcDbEntity
  8
0
  6
CONTINUOUS
100
AcDbLine
 10
13.04801363231285
 20
0.4804954567970334
 30
0.0
 11
9.85750908911358
 21
3.670999999996297
 31
0.0
  0
LINE
  5
B8EE
330
B8AB
100
AcDbEntity
  8
0
  6
CONTINUOUS
100
AcDbLine
 10
8.857326339330116
 20
4.671182749779763
 30
0.0
 11
7.781651817520021
 21
5.746857271589858
 31
0.0
  0
LINE
  5
B8EF
330
B8AB
100
AcDbEntity
  8
0
  6
CONTINUOUS
100
AcDbLine
 10
5.694951119555943
 20
7.833557969553937
 30
0.0
 11
4.765409089118624
 21
8.763099999991255
 31
0.0
  0
LINE
  5
B8F0
330
B8AB
100
AcDbEntity
  8
0
  6
CONTINUOUS
100
AcDbLine
 10
12.50286117236978
 20
1.699167125820288
 30
0.0
 11
9.68611877250287
 21
4.515909525687196
 31
0.0
  0
LINE
  5
B8F1
330
B8AB
100
AcDbEntity
  8
0
  6
CONTINUOUS
100
AcDbLine
 10
9.065465192851777
 20
5.136563105338288
 30
0.0
 11
7.989834395251757
 21
6.21219390293831
 31
0.0
  0
LINE
  5
B8F2
330
B8AB
100
AcDbEntity
  8
0
  6
CONTINUOUS
100
AcDbLine
 10
5.993039874401719
 20
8.208988423788346
 30
0.0
 11
5.43892829819881
 21
8.763099999991255
 31
0.0
  0
LINE
  5
B8F3
330
B8AB
100
AcDbEntity
  8
0
  6
CONTINUOUS
100
AcDbLine
 10
11.95770871242671
 20
2.917838794843543
 30
0.0
 11
8.19801697298349
 21
6.677530534286761
 31
0.0
  0
LINE
  5
B8F4
330
B8AB
100
AcDbEntity
  8
0
  6
CONTINUOUS
100
AcDbLine
 10
6.291128629247495
 20
8.584418878022756
 30
0.0
 11
6.112447507278997
 21
8.763099999991255
 31
0.0
  0
LINE
  5
B8F5
330
B8AB
100
AcDbEntity
  8
0
  6
CONTINUOUS
100
AcDbLine
 10
11.41255625248364
 20
4.136510463866797
 30
0.0
 11
8.406199550715227
 21
7.142867165635211
 31
0.0
  0
LINE
  5
B8F6
330
B8AB
100
AcDbEntity
  8
0
  6
CONTINUOUS
100
AcDbLine
 10
10.86740379254057
 20
5.355182132890051
 30
0.0
 11
8.614382128446962
 21
7.608203796983664
 31
0.0
  0
LINE
  5
B8F7
330
B8AB
100
AcDbEntity
  8
0
  6
CONTINUOUS
100
AcDbLine
 10
10.3222513325975
 20
6.573853801913305
 30
0.0
 11
8.822564706178696
 21
8.073540428332114
 31
0.0
  0
LINE
  5
B8F8
330
B8AB
100
AcDbEntity
  8
0
  6
CONTINUOUS
100
AcDbLine
 10
9.777098872654436
 20
7.792525470936562
 30
0.0
 11
9.030747283910433
 21
8.538877059680566
 31
0.0
  0
ENDBLK
  5
BA3A
330
B8AB
100
AcDbEntity
  8
0
100
AcDbBlockEnd
  0
BLOCK
  5
BA3B
330
B8F9
100
AcDbEntity
  8
0
100
AcDbBlockBegin
  2
*X36
 70
     1
 10
0.0
 20
0.0
 30
0.0
  3
*X36
  1

  0
LINE
  5
B8FA
330
B8F9
100
AcDbEntity
  8
0
  6
CONTINUOUS
100
AcDbLine
 10
10.67292308101235
 20
8.445076852443387
 30
0.0
 11
10.99094622856022
 21
8.763099999991255
 31
0.0
  0
LINE
  5
B8FB
330
B8F9
100
AcDbEntity
  8
0
  6
CONTINUOUS
100
AcDbLine
 10
10.87250383178748
 20
7.971138394138331
 30
0.0
 11
11.6644654376404
 21
8.763099999991255
 31
0.0
  0
LINE
  5
B8FC
330
B8F9
100
AcDbEntity
  8
0
  6
CONTINUOUS
100
AcDbLine
 10
11.07208458256261
 20
7.497199935833273
 30
0.0
 11
12.12126590876355
 21
8.546381262034211
 31
0.0
  0
LINE
  5
B8FD
330
B8F9
100
AcDbEntity
  8
0
  6
CONTINUOUS
100
AcDbLine
 10
11.27166533333774
 20
7.023261477528216
 30
0.0
 11
12.32085164573666
 21
8.072447789927136
 31
0.0
  0
LINE
  5
B8FE
330
B8F9
100
AcDbEntity
  8
0
  6
CONTINUOUS
100
AcDbLine
 10
11.47124608411287
 20
6.549323019223158
 30
0.0
 11
12.52043738270977
 21
7.59851431782006
 31
0.0
  0
LINE
  5
B8FF
330
B8F9
100
AcDbEntity
  8
0
  6
CONTINUOUS
100
AcDbLine
 10
11.670826834888
 20
6.075384560918101
 30
0.0
 11
12.72002311968288
 21
7.124580845712984
 31
0.0
  0
LINE
  5
B900
330
B8F9
100
AcDbEntity
  8
0
  6
CONTINUOUS
100
AcDbLine
 10
11.87040758566313
 20
5.601446102613043
 30
0.0
 11
12.91960885665599
 21
6.650647373605907
 31
0.0
  0
LINE
  5
B901
330
B8F9
100
AcDbEntity
  8
0
  6
CONTINUOUS
100
AcDbLine
 10
12.06998833643825
 20
5.127507644307986
 30
0.0
 11
13.1191945936291
 21
6.176713901498832
 31
0.0
  0
LINE
  5
B902
330
B8F9
100
AcDbEntity
  8
0
  6
CONTINUOUS
100
AcDbLine
 10
12.26956908721338
 20
4.65356918600293
 30
0.0
 11
13.31878033060221
 21
5.702780429391757
 31
0.0
  0
LINE
  5
B903
330
B8F9
100
AcDbEntity
  8
0
  6
CONTINUOUS
100
AcDbLine
 10
12.46914983798851
 20
4.179630727697873
 30
0.0
 11
13.51836606757532
 21
5.228846957284683
 31
0.0
  0
LINE
  5
B904
330
B8F9
100
AcDbEntity
  8
0
  6
CONTINUOUS
100
AcDbLine
 10
12.66873058876364
 20
3.705692269392816
 30
0.0
 11
13.71795180454843
 21
4.754913485177607
 31
0.0
  0
LINE
  5
B905
330
B8F9
100
AcDbEntity
  8
0
  6
CONTINUOUS
100
AcDbLine
 10
12.86831133953877
 20
3.231753811087759
 30
0.0
 11
13.91753754152154
 21
4.280980013070531
 31
0.0
  0
LINE
  5
B906
330
B8F9
100
AcDbEntity
  8
0
  6
CONTINUOUS
100
AcDbLine
 10
13.0678920903139
 20
2.757815352782702
 30
0.0
 11
14.11712327849465
 21
3.807046540963456
 31
0.0
  0
LINE
  5
B907
330
B8F9
100
AcDbEntity
  8
0
  6
CONTINUOUS
100
AcDbLine
 10
13.26747284108903
 20
2.283876894477644
 30
0.0
 11
14.31670901546777
 21
3.333113068856379
 31
0.0
  0
LINE
  5
B908
330
B8F9
100
AcDbEntity
  8
0
  6
CONTINUOUS
100
AcDbLine
 10
16.36767838827179
 20
8.751678487061342
 30
0.0
 11
16.50332410898388
 21
8.887324207773432
 31
0.0
  0
LINE
  5
B909
330
B8F9
100
AcDbEntity
  8
0
  6
CONTINUOUS
100
AcDbLine
 10
15.96190732182191
 20
7.67238821153127
 30
0.0
 11
16.68735328004734
 21
8.397834169756699
 31
0.0
  0
LINE
  5
B90A
330
B8F9
100
AcDbEntity
  8
0
  6
CONTINUOUS
100
AcDbLine
 10
15.55613625537202
 20
6.593097936001196
 30
0.0
 11
16.87138245111079
 21
7.908344131739965
 31
0.0
  0
LINE
  5
B90B
330
B8F9
100
AcDbEntity
  8
0
  6
CONTINUOUS
100
AcDbLine
 10
15.15036518892213
 20
5.513807660471122
 30
0.0
 11
17.05541162217424
 21
7.418854093723231
 31
0.0
  0
LINE
  5
B90C
330
B8F9
100
AcDbEntity
  8
0
  6
CONTINUOUS
100
AcDbLine
 10
14.74459412247225
 20
4.434517384941048
 30
0.0
 11
17.2394407932377
 21
6.929364055706499
 31
0.0
  0
LINE
  5
B90D
330
B8F9
100
AcDbEntity
  8
0
  6
CONTINUOUS
100
AcDbLine
 10
14.33882305602236
 20
3.355227109410975
 30
0.0
 11
17.42346996430115
 21
6.439874017689766
 31
0.0
  0
LINE
  5
B90E
330
B8F9
100
AcDbEntity
  8
0
  6
CONTINUOUS
100
AcDbLine
 10
13.46705359186416
 20
1.809938436172586
 30
0.0
 11
16.0819338255367
 21
4.424818669845129
 31
0.0
  0
LINE
  5
B90F
330
B8F9
100
AcDbEntity
  8
0
  6
CONTINUOUS
100
AcDbLine
 10
16.63283254238972
 20
4.975717386698149
 30
0.0
 11
17.60749913536461
 21
5.950383979673033
 31
0.0
  0
LINE
  5
B910
330
B8F9
100
AcDbEntity
  8
0
  6
CONTINUOUS
100
AcDbLine
 10
13.66663434263929
 20
1.335999977867529
 30
0.0
 11
15.67604797733754
 21
3.345413612565779
 31
0.0
  0
LINE
  5
B911
330
B8F9
100
AcDbEntity
  8
0
  6
CONTINUOUS
100
AcDbLine
 10
13.86621509341442
 20
0.8620615195624723
 30
0.0
 11
15.27016212913838
 21
2.26600855528643
 31
0.0
  0
LINE
  5
B912
330
B8F9
100
AcDbEntity
  8
0
  6
CONTINUOUS
100
AcDbLine
 10
16.81682257348267
 20
4.486188208710908
 30
0.0
 11
17.79152830642806
 21
5.460893941656299
 31
0.0
  0
LINE
  5
B913
330
B8F9
100
AcDbEntity
  8
0
  6
CONTINUOUS
100
AcDbLine
 10
17.00081260457561
 20
3.996659030723667
 30
0.0
 11
17.97555747749151
 21
4.971403903639565
 31
0.0
  0
LINE
  5
B914
330
B8F9
100
AcDbEntity
  8
0
  6
CONTINUOUS
100
AcDbLine
 10
20.74362343514722
 20
8.412989070375462
 30
0.0
 11
21.09373436476302
 21
8.763099999991256
 31
0.0
  0
LINE
  5
B915
330
B8F9
100
AcDbEntity
  8
0
  6
CONTINUOUS
100
AcDbLine
 10
20.25401257174777
 20
7.249858997895826
 30
0.0
 11
21.7672535738432
 21
8.763099999991255
 31
0.0
  0
LINE
  5
B916
330
B8F9
100
AcDbEntity
  8
0
  6
CONTINUOUS
100
AcDbLine
 10
14.06579584418955
 20
0.3881230612574149
 30
0.0
 11
14.86427628093921
 21
1.186603498007082
 31
0.0
  0
LINE
  5
B917
330
B8F9
100
AcDbEntity
  8
0
  6
CONTINUOUS
100
AcDbLine
 10
14.26537659496467
 20
-0.0858153970476412
 30
0.0
 11
14.45839043274005
 21
0.1071984407277329
 31
0.0
  0
LINE
  5
B918
330
B8F9
100
AcDbEntity
  8
0
  6
CONTINUOUS
100
AcDbLine
 10
17.18480263566856
 20
3.507129852736426
 30
0.0
 11
18.15958664855496
 21
4.481913865622833
 31
0.0
  0
LINE
  5
B919
330
B8F9
100
AcDbEntity
  8
0
  6
CONTINUOUS
100
AcDbLine
 10
17.3687926667615
 20
3.017600674749186
 30
0.0
 11
18.34361581961842
 21
3.9924238276061
 31
0.0
  0
LINE
  5
B91A
330
B8F9
100
AcDbEntity
  8
0
  6
CONTINUOUS
100
AcDbLine
 10
19.76440170834832
 20
6.086728925416191
 30
0.0
 11
22.33924590259489
 21
8.661573119662755
 31
0.0
  0
LINE
  5
B91B
330
B8F9
100
AcDbEntity
  8
0
  6
CONTINUOUS
100
AcDbLine
 10
19.27479084494887
 20
4.923598852936555
 30
0.0
 11
21.84929622842713
 21
7.498104236414807
 31
0.0
  0
LINE
  5
B91C
330
B8F9
100
AcDbEntity
  8
0
  6
CONTINUOUS
100
AcDbLine
 10
17.55278269785445
 20
2.528071496761945
 30
0.0
 11
18.52764499068187
 21
3.502933789589366
 31
0.0
  0
LINE
  5
B91D
330
B8F9
100
AcDbEntity
  8
0
  6
CONTINUOUS
100
AcDbLine
 10
18.78517998154942
 20
3.760468780456919
 30
0.0
 11
21.35934655425936
 21
6.33463535316686
 31
0.0
  0
LINE
  5
B91E
330
B8F9
100
AcDbEntity
  8
0
  6
CONTINUOUS
100
AcDbLine
 10
17.73677272894739
 20
2.038542318774704
 30
0.0
 11
20.8693968800916
 21
5.171166469918914
 31
0.0
  0
LINE
  5
B91F
330
B8F9
100
AcDbEntity
  8
0
  6
CONTINUOUS
100
AcDbLine
 10
17.92076276004034
 20
1.549013140787464
 30
0.0
 11
20.37944720592384
 21
4.007697586670968
 31
0.0
  0
LINE
  5
B920
330
B8F9
100
AcDbEntity
  8
0
  6
CONTINUOUS
100
AcDbLine
 10
18.10475279113329
 20
1.059483962800223
 30
0.0
 11
19.88949753175608
 21
2.84422870342302
 31
0.0
  0
LINE
  5
B921
330
B8F9
100
AcDbEntity
  8
0
  6
CONTINUOUS
100
AcDbLine
 10
18.28874282222623
 20
0.5699547848129822
 30
0.0
 11
19.39954785758832
 21
1.680759820175074
 31
0.0
  0
LINE
  5
B922
330
B8F9
100
AcDbEntity
  8
0
  6
CONTINUOUS
100
AcDbLine
 10
18.47273285331918
 20
0.0804256068257416
 30
0.0
 11
18.90959818342056
 21
0.517290936927127
 31
0.0
  0
LINE
  5
B923
330
B8F9
100
AcDbEntity
  8
0
  6
CONTINUOUS
100
AcDbLine
 10
14.3590401358224
 20
-0.1570118376323384
 30
0.0
 11
14.24903296539946
 21
-0.0470046672093929
 31
0.0
  0
LINE
  5
B924
330
B8F9
100
AcDbEntity
  8
0
  6
CONTINUOUS
100
AcDbLine
 10
14.54309291258661
 20
0.332454594683643
 30
0.0
 11
13.75908329123172
 21
1.116464216038529
 31
0.0
  0
LINE
  5
B925
330
B8F9
100
AcDbEntity
  8
0
  6
CONTINUOUS
100
AcDbLine
 10
14.72714568935081
 20
0.8219210269996244
 30
0.0
 11
13.26913361706399
 21
2.27993309928645
 31
0.0
  0
LINE
  5
B926
330
B8F9
100
AcDbEntity
  8
0
  6
CONTINUOUS
100
AcDbLine
 10
14.91119846611502
 20
1.311387459315606
 30
0.0
 11
12.77918394289625
 21
3.443401982534371
 31
0.0
  0
LINE
  5
B927
330
B8F9
100
AcDbEntity
  8
0
  6
CONTINUOUS
100
AcDbLine
 10
15.09525124287922
 20
1.800853891631587
 30
0.0
 11
12.28923426872852
 21
4.606870865782293
 31
0.0
  0
LINE
  5
B928
330
B8F9
100
AcDbEntity
  8
0
  6
CONTINUOUS
100
AcDbLine
 10
15.27930401964343
 20
2.290320323947569
 30
0.0
 11
11.79928459456078
 21
5.770339749030213
 31
0.0
  0
LINE
  5
B929
330
B8F9
100
AcDbEntity
  8
0
  6
CONTINUOUS
100
AcDbLine
 10
15.46335679640763
 20
2.77978675626355
 30
0.0
 11
14.48885470994921
 21
3.754288842721972
 31
0.0
  0
LINE
  5
B92A
330
B8F9
100
AcDbEntity
  8
0
  6
CONTINUOUS
100
AcDbLine
 10
13.88507249233704
 20
4.358071060334137
 30
0.0
 11
11.30933492039305
 21
6.933808632278135
 31
0.0
  0
LINE
  5
B92B
330
B8F9
100
AcDbEntity
  8
0
  6
CONTINUOUS
100
AcDbLine
 10
18.75840522805855
 20
0.1582575336928151
 30
0.0
 11
18.25383727664818
 21
0.6628254851031863
 31
0.0
  0
LINE
  5
B92C
330
B8F9
100
AcDbEntity
  8
0
  6
CONTINUOUS
100
AcDbLine
 10
15.64740957317184
 20
3.269253188579531
 30
0.0
 11
14.67288388101266
 21
4.243778880738705
 31
0.0
  0
LINE
  5
B92D
330
B8F9
100
AcDbEntity
  8
0
  6
CONTINUOUS
100
AcDbLine
 10
13.39509276772158
 20
5.521569994029786
 30
0.0
 11
10.81938524622531
 21
8.097277515526056
 31
0.0
  0
LINE
  5
B92E
330
B8F9
100
AcDbEntity
  8
0
  6
CONTINUOUS
100
AcDbLine
 10
18.95798597883369
 20
0.6321959919978686
 30
0.0
 11
17.84825644852853
 21
1.741925522303024
 31
0.0
  0
LINE
  5
B92F
330
B8F9
100
AcDbEntity
  8
0
  6
CONTINUOUS
100
AcDbLine
 10
19.15756672960882
 20
1.106134450302922
 30
0.0
 11
17.44267562040888
 21
2.821025559502861
 31
0.0
  0
LINE
  5
B930
330
B8F9
100
AcDbEntity
  8
0
  6
CONTINUOUS
100
AcDbLine
 10
15.83146234993604
 20
3.758719620895513
 30
0.0
 11
14.85691305207612
 21
4.733268918755439
 31
0.0
  0
LINE
  5
B931
330
B8F9
100
AcDbEntity
  8
0
  6
CONTINUOUS
100
AcDbLine
 10
16.01551512670025
 20
4.248186053211494
 30
0.0
 11
15.04094222313957
 21
5.222758956772172
 31
0.0
  0
LINE
  5
B932
330
B8F9
100
AcDbEntity
  8
0
  6
CONTINUOUS
100
AcDbLine
 10
12.90511304310612
 20
6.685068927725435
 30
0.0
 11
10.8270819708403
 21
8.763099999991255
 31
0.0
  0
LINE
  5
B933
330
B8F9
100
AcDbEntity
  8
0
  6
CONTINUOUS
100
AcDbLine
 10
12.41513331849066
 20
7.848567861421083
 30
0.0
 11
11.50060117992049
 21
8.763099999991255
 31
0.0
  0
LINE
  5
B934
330
B8F9
100
AcDbEntity
  8
0
  6
CONTINUOUS
100
AcDbLine
 10
19.35714748038395
 20
1.580072908607975
 30
0.0
 11
17.03709479228923
 21
3.900125596702697
 31
0.0
  0
LINE
  5
B935
330
B8F9
100
AcDbEntity
  8
0
  6
CONTINUOUS
100
AcDbLine
 10
19.55672823115909
 20
2.054011366913028
 30
0.0
 11
16.63151396416958
 21
4.979225633902534
 31
0.0
  0
LINE
  5
B936
330
B8F9
100
AcDbEntity
  8
0
  6
CONTINUOUS
100
AcDbLine
 10
16.19956790346445
 20
4.737652485527476
 30
0.0
 11
15.22497139420302
 21
5.712248994788904
 31
0.0
  0
LINE
  5
B937
330
B8F9
100
AcDbEntity
  8
0
  6
CONTINUOUS
100
AcDbLine
 10
16.38362068022866
 20
5.227118917843457
 30
0.0
 11
15.40900056526648
 21
6.201739032805637
 31
0.0
  0
LINE
  5
B938
330
B8F9
100
AcDbEntity
  8
0
  6
CONTINUOUS
100
AcDbLine
 10
19.75630898193422
 20
2.527949825218081
 30
0.0
 11
18.70774536448286
 21
3.576513442669441
 31
0.0
  0
LINE
  5
B939
330
B8F9
100
AcDbEntity
  8
0
  6
CONTINUOUS
100
AcDbLine
 10
19.95588973270936
 20
3.001888283523134
 30
0.0
 11
18.90726987211446
 21
4.050508144118028
 31
0.0
  0
LINE
  5
B93A
330
B8F9
100
AcDbEntity
  8
0
  6
CONTINUOUS
100
AcDbLine
 10
20.15547048348449
 20
3.475826741828186
 30
0.0
 11
19.10679437974606
 21
4.524502845566614
 31
0.0
  0
LINE
  5
B93B
330
B8F9
100
AcDbEntity
  8
0
  6
CONTINUOUS
100
AcDbLine
 10
20.35505123425962
 20
3.94976520013324
 30
0.0
 11
19.30631888737766
 21
4.998497547015201
 31
0.0
  0
LINE
  5
B93C
330
B8F9
100
AcDbEntity
  8
0
  6
CONTINUOUS
100
AcDbLine
 10
20.55463198503475
 20
4.423703658438292
 30
0.0
 11
19.50584339500926
 21
5.472492248463787
 31
0.0
  0
LINE
  5
B93D
330
B8F9
100
AcDbEntity
  8
0
  6
CONTINUOUS
100
AcDbLine
 10
18.37481191085755
 20
3.909446896294752
 30
0.0
 11
15.59302973632993
 21
6.691229070822371
 31
0.0
  0
LINE
  5
B93E
330
B8F9
100
AcDbEntity
  8
0
  6
CONTINUOUS
100
AcDbLine
 10
17.96904084440766
 20
4.988737171824825
 30
0.0
 11
15.77705890739338
 21
7.180719108839104
 31
0.0
  0
LINE
  5
B93F
330
B8F9
100
AcDbEntity
  8
0
  6
CONTINUOUS
100
AcDbLine
 10
17.56326977795777
 20
6.068027447354899
 30
0.0
 11
15.96108807845684
 21
7.670209146855838
 31
0.0
  0
LINE
  5
B940
330
B8F9
100
AcDbEntity
  8
0
  6
CONTINUOUS
100
AcDbLine
 10
17.15749871150789
 20
7.147317722884972
 30
0.0
 11
16.14511724952029
 21
8.15969918487257
 31
0.0
  0
LINE
  5
B941
330
B8F9
100
AcDbEntity
  8
0
  6
CONTINUOUS
100
AcDbLine
 10
16.751727645058
 20
8.226607998415046
 30
0.0
 11
16.32914642058374
 21
8.649189222889303
 31
0.0
  0
LINE
  5
B942
330
B8F9
100
AcDbEntity
  8
0
  6
CONTINUOUS
100
AcDbLine
 10
20.75421273580989
 20
4.897642116743345
 30
0.0
 11
19.70536790264086
 21
5.946486949912374
 31
0.0
  0
LINE
  5
B943
330
B8F9
100
AcDbEntity
  8
0
  6
CONTINUOUS
100
AcDbLine
 10
20.95379348658502
 20
5.371580575048398
 30
0.0
 11
19.90489241027246
 21
6.42048165136096
 31
0.0
  0
LINE
  5
B944
330
B8F9
100
AcDbEntity
  8
0
  6
CONTINUOUS
100
AcDbLine
 10
21.15337423736015
 20
5.845519033353452
 30
0.0
 11
20.10441691790406
 21
6.894476352809547
 31
0.0
  0
LINE
  5
B945
330
B8F9
100
AcDbEntity
  8
0
  6
CONTINUOUS
100
AcDbLine
 10
21.35295498813529
 20
6.319457491658505
 30
0.0
 11
20.30394142553566
 21
7.368471054258134
 31
0.0
  0
LINE
  5
B946
330
B8F9
100
AcDbEntity
  8
0
  6
CONTINUOUS
100
AcDbLine
 10
21.55253573891042
 20
6.793395949963558
 30
0.0
 11
20.50346593316726
 21
7.842465755706721
 31
0.0
  0
LINE
  5
B947
330
B8F9
100
AcDbEntity
  8
0
  6
CONTINUOUS
100
AcDbLine
 10
21.75211648968556
 20
7.267334408268612
 30
0.0
 11
20.70299044079886
 21
8.316460457155308
 31
0.0
  0
LINE
  5
B948
330
B8F9
100
AcDbEntity
  8
0
  6
CONTINUOUS
100
AcDbLine
 10
21.95169724046069
 20
7.741272866573663
 30
0.0
 11
20.9298701070431
 21
8.763099999991256
 31
0.0
  0
LINE
  5
B949
330
B8F9
100
AcDbEntity
  8
0
  6
CONTINUOUS
100
AcDbLine
 10
22.15127799123582
 20
8.215211324878716
 30
0.0
 11
21.60338931612328
 21
8.763099999991256
 31
0.0
  0
LINE
  5
B94A
330
B8F9
100
AcDbEntity
  8
0
  6
CONTINUOUS
100
AcDbLine
 10
22.35085874201096
 20
8.689149783183769
 30
0.0
 11
22.27690852520347
 21
8.763099999991255
 31
0.0
  0
ENDBLK
  5
BA3C
330
B8F9
100
AcDbEntity
  8
0
100
AcDbBlockEnd
  0
BLOCK
  5
BA3D
330
B94B
100
AcDbEntity
  8
0
100
AcDbBlockBegin
  2
*X37
 70
     1
 10
0.0
 20
0.0
 30
0.0
  3
*X37
  1

  0
LINE
  5
B94C
330
B94B
100
AcDbEntity
  8
0
  6
CONTINUOUS
100
AcDbLine
 10
23.19462913593892
 20
8.169917934846424
 30
0.0
 11
23.70775465517246
 21
8.683043454079957
 31
0.0
  0
LINE
  5
B94D
330
B94B
100
AcDbEntity
  8
0
  6
CONTINUOUS
100
AcDbLine
 10
22.64923161835078
 20
6.951001208178088
 30
0.0
 11
23.9159364069932
 21
8.217705996820516
 31
0.0
  0
LINE
  5
B94E
330
B94B
100
AcDbEntity
  8
0
  6
CONTINUOUS
100
AcDbLine
 10
22.10383410076263
 20
5.732084481509751
 30
0.0
 11
24.12411815881395
 21
7.752368539561078
 31
0.0
  0
LINE
  5
B94F
330
B94B
100
AcDbEntity
  8
0
  6
CONTINUOUS
100
AcDbLine
 10
21.55843658317447
 20
4.513167754841414
 30
0.0
 11
24.3322999106347
 21
7.287031082301639
 31
0.0
  0
LINE
  5
B950
330
B94B
100
AcDbEntity
  8
0
  6
CONTINUOUS
100
AcDbLine
 10
21.01303906558632
 20
3.294251028173077
 30
0.0
 11
24.54048166245544
 21
6.821693625042199
 31
0.0
  0
LINE
  5
B951
330
B94B
100
AcDbEntity
  8
0
  6
CONTINUOUS
100
AcDbLine
 10
20.46764154799817
 20
2.075334301504738
 30
0.0
 11
23.28571549467848
 21
4.89340824818505
 31
0.0
  0
LINE
  5
B952
330
B94B
100
AcDbEntity
  8
0
  6
CONTINUOUS
100
AcDbLine
 10
19.92224403041002
 20
0.8564175748364002
 30
0.0
 11
22.74075865492779
 21
3.674932199354171
 31
0.0
  0
LINE
  5
B953
330
B94B
100
AcDbEntity
  8
0
  6
CONTINUOUS
100
AcDbLine
 10
23.67305085490148
 20
5.280743608408048
 30
0.0
 11
24.74866341427619
 21
6.356356167782759
 31
0.0
  0
LINE
  5
B954
330
B94B
100
AcDbEntity
  8
0
  6
CONTINUOUS
100
AcDbLine
 10
23.88118970842314
 20
4.815363252849522
 30
0.0
 11
24.95684516609694
 21
5.89101871052332
 31
0.0
  0
LINE
  5
B955
330
B94B
100
AcDbEntity
  8
0
  6
CONTINUOUS
100
AcDbLine
 10
19.73925852647308
 20
-0.0000871381807288
 30
0.0
 11
23.4103456646501
 21
3.670999999996297
 31
0.0
  0
LINE
  5
B956
330
B94B
100
AcDbEntity
  8
0
  6
CONTINUOUS
100
AcDbLine
 10
24.0893285619448
 20
4.349982897290997
 30
0.0
 11
25.16502691791769
 21
5.42568125326388
 31
0.0
  0
LINE
  5
B957
330
B94B
100
AcDbEntity
  8
0
  6
CONTINUOUS
100
AcDbLine
 10
20.41282099582748
 20
-0.0000438779065108
 30
0.0
 11
21.64944178675636
 21
1.236576913022366
 31
0.0
  0
LINE
  5
B958
330
B94B
100
AcDbEntity
  8
0
  6
CONTINUOUS
100
AcDbLine
 10
22.78126487373161
 20
2.36839999999762
 30
0.0
 11
24.08386487373029
 21
3.670999999996297
 31
0.0
  0
LINE
  5
B959
330
B94B
100
AcDbEntity
  8
0
  6
CONTINUOUS
100
AcDbLine
 10
24.29746741546646
 20
3.884602541732471
 30
0.0
 11
25.37320866973843
 21
4.960343796004441
 31
0.0
  0
LINE
  5
B95A
330
B94B
100
AcDbEntity
  8
0
  6
CONTINUOUS
100
AcDbLine
 10
21.08638346518189
 20
-0.0000006176322938
 30
0.0
 11
21.10379033335899
 21
0.0174062505448083
 31
0.0
  0
LINE
  5
B95B
330
B94B
100
AcDbEntity
  8
0
  6
CONTINUOUS
100
AcDbLine
 10
23.4547840828118
 20
2.36839999999762
 30
0.0
 11
25.58139042155918
 21
4.495006338745002
 31
0.0
  0
LINE
  5
B95C
330
B94B
100
AcDbEntity
  8
0
  6
CONTINUOUS
100
AcDbLine
 10
29.30199999996933
 20
8.215615917155148
 30
0.0
 11
29.84948408280543
 21
8.763099999991255
 31
0.0
  0
LINE
  5
B95D
330
B94B
100
AcDbEntity
  8
0
  6
CONTINUOUS
100
AcDbLine
 10
24.12830329189199
 20
2.36839999999762
 30
0.0
 11
25.78957217337993
 21
4.029668881485562
 31
0.0
  0
LINE
  5
B95E
330
B94B
100
AcDbEntity
  8
0
  6
CONTINUOUS
100
AcDbLine
 10
29.30199999996933
 20
7.54209670807496
 30
0.0
 11
30.52300329188562
 21
8.763099999991255
 31
0.0
  0
LINE
  5
B95F
330
B94B
100
AcDbEntity
  8
0
  6
CONTINUOUS
100
AcDbLine
 10
24.80182250097217
 20
2.36839999999762
 30
0.0
 11
25.99775392520067
 21
3.564331424226122
 31
0.0
  0
LINE
  5
B960
330
B94B
100
AcDbEntity
  8
0
  6
CONTINUOUS
100
AcDbLine
 10
29.30199999996933
 20
6.868577498994774
 30
0.0
 11
30.74199999996926
 21
8.308577498994712
 31
0.0
  0
LINE
  5
B961
330
B94B
100
AcDbEntity
  8
0
  6
CONTINUOUS
100
AcDbLine
 10
25.13028238392013
 20
2.023340673865392
 30
0.0
 11
26.20593567702142
 21
3.098993966966683
 31
0.0
  0
LINE
  5
B962
330
B94B
100
AcDbEntity
  8
0
  6
CONTINUOUS
100
AcDbLine
 10
25.33838066033617
 20
1.557919741201244
 30
0.0
 11
26.41411742884217
 21
2.633656509707244
 31
0.0
  0
LINE
  5
B963
330
B94B
100
AcDbEntity
  8
0
  6
CONTINUOUS
100
AcDbLine
 10
25.54647893675221
 20
1.092498808537098
 30
0.0
 11
26.62229918066291
 21
2.168319052447804
 31
0.0
  0
LINE
  5
B964
330
B94B
100
AcDbEntity
  8
0
  6
CONTINUOUS
100
AcDbLine
 10
25.75457721316825
 20
0.62707787587295
 30
0.0
 11
26.83048093248366
 21
1.702981595188365
 31
0.0
  0
LINE
  5
B965
330
B94B
100
AcDbEntity
  8
0
  6
CONTINUOUS
100
AcDbLine
 10
29.30199999996933
 20
6.195058289914587
 30
0.0
 11
30.74199999996926
 21
7.635058289914522
 31
0.0
  0
LINE
  5
B966
330
B94B
100
AcDbEntity
  8
0
  6
CONTINUOUS
100
AcDbLine
 10
29.30199999996933
 20
5.521539080834401
 30
0.0
 11
30.74199999996926
 21
6.961539080834331
 31
0.0
  0
LINE
  5
B967
330
B94B
100
AcDbEntity
  8
0
  6
CONTINUOUS
100
AcDbLine
 10
29.30199999996933
 20
4.848019871754214
 30
0.0
 11
30.74199999996925
 21
6.288019871754143
 31
0.0
  0
LINE
  5
B968
330
B94B
100
AcDbEntity
  8
0
  6
CONTINUOUS
100
AcDbLine
 10
29.30199999996933
 20
4.174500662674028
 30
0.0
 11
30.74199999996925
 21
5.614500662673953
 31
0.0
  0
LINE
  5
B969
330
B94B
100
AcDbEntity
  8
0
  6
CONTINUOUS
100
AcDbLine
 10
25.96267548958429
 20
0.1616569432088024
 30
0.0
 11
27.18411854636669
 21
1.383099999991207
 31
0.0
  0
LINE
  5
B96A
330
B94B
100
AcDbEntity
  8
0
  6
CONTINUOUS
100
AcDbLine
 10
29.30199999996933
 20
3.500981453593841
 30
0.0
 11
30.74199999996925
 21
4.940981453593762
 31
0.0
  0
LINE
  5
B96B
330
B94B
100
AcDbEntity
  8
0
  6
CONTINUOUS
100
AcDbLine
 10
26.50763775544691
 20
0.0330999999912356
 30
0.0
 11
27.85763775544689
 21
1.383099999991223
 31
0.0
  0
LINE
  5
B96C
330
B94B
100
AcDbEntity
  8
0
  6
CONTINUOUS
100
AcDbLine
 10
29.30199999996933
 20
2.827462244513656
 30
0.0
 11
30.74199999996925
 21
4.267462244513574
 31
0.0
  0
LINE
  5
B96D
330
B94B
100
AcDbEntity
  8
0
  6
CONTINUOUS
100
AcDbLine
 10
27.18115696452709
 20
0.0330999999912356
 30
0.0
 11
28.55073879889363
 21
1.402681834357775
 31
0.0
  0
LINE
  5
B96E
330
B94B
100
AcDbEntity
  8
0
  6
CONTINUOUS
100
AcDbLine
 10
29.28241816560272
 20
2.134361201066866
 30
0.0
 11
30.74199999996924
 21
3.593943035433383
 31
0.0
  0
LINE
  5
B96F
330
B94B
100
AcDbEntity
  8
0
  6
CONTINUOUS
100
AcDbLine
 10
27.85467617360728
 20
0.0330999999912356
 30
0.0
 11
30.74199999996924
 21
2.920423826353195
 31
0.0
  0
LINE
  5
B970
330
B94B
100
AcDbEntity
  8
0
  6
CONTINUOUS
100
AcDbLine
 10
28.53897559587887
 20
0.0438802131826428
 30
0.0
 11
30.73121978677781
 21
2.236124404081585
 31
0.0
  0
LINE
  5
B971
330
B94B
100
AcDbEntity
  8
0
  6
CONTINUOUS
100
AcDbLine
 10
29.45140055588722
 20
0.2827859641107988
 30
0.0
 11
30.49231403584965
 21
1.323699444073236
 31
0.0
  0
LINE
  5
B972
330
B94B
100
AcDbEntity
  8
0
  6
CONTINUOUS
100
AcDbLine
 10
19.59027867740337
 20
-0.0000967065718083
 30
0.0
 11
19.55485265190471
 21
0.035329318926844
 31
0.0
  0
LINE
  5
B973
330
B94B
100
AcDbEntity
  8
0
  6
CONTINUOUS
100
AcDbLine
 10
20.26375463176586
 20
-0.0000534518541091
 30
0.0
 11
19.76305575737534
 21
0.5006454225364014
 31
0.0
  0
LINE
  5
B974
330
B94B
100
AcDbEntity
  8
0
  6
CONTINUOUS
100
AcDbLine
 10
20.93723058612834
 20
-0.0000101971364099
 30
0.0
 11
19.97125886284597
 21
0.965961526145958
 31
0.0
  0
LINE
  5
B975
330
B94B
100
AcDbEntity
  8
0
  6
CONTINUOUS
100
AcDbLine
 10
21.25514828313686
 20
0.355591314935257
 30
0.0
 11
20.1794619683166
 21
1.431277629755512
 31
0.0
  0
LINE
  5
B976
330
B94B
100
AcDbEntity
  8
0
  6
CONTINUOUS
100
AcDbLine
 10
21.46338838394921
 20
0.8208704232030986
 30
0.0
 11
20.38766507378723
 21
1.896593733365069
 31
0.0
  0
LINE
  5
B977
330
B94B
100
AcDbEntity
  8
0
  6
CONTINUOUS
100
AcDbLine
 10
21.67162848476155
 20
1.28614953147094
 30
0.0
 11
20.59586817925786
 21
2.361909836974626
 31
0.0
  0
LINE
  5
B978
330
B94B
100
AcDbEntity
  8
0
  6
CONTINUOUS
100
AcDbLine
 10
21.8798685855739
 20
1.751428639738782
 30
0.0
 11
20.80407128472849
 21
2.827225940584183
 31
0.0
  0
LINE
  5
B979
330
B94B
100
AcDbEntity
  8
0
  6
CONTINUOUS
100
AcDbLine
 10
22.08810868638624
 20
2.216707748006623
 30
0.0
 11
21.01227439019912
 21
3.292542044193739
 31
0.0
  0
LINE
  5
B97A
330
B94B
100
AcDbEntity
  8
0
  6
CONTINUOUS
100
AcDbLine
 10
22.60993564347543
 20
2.36839999999762
 30
0.0
 11
21.22047749566975
 21
3.757858147803296
 31
0.0
  0
LINE
  5
B97B
330
B94B
100
AcDbEntity
  8
0
  6
CONTINUOUS
100
AcDbLine
 10
23.28345485255561
 20
2.36839999999762
 30
0.0
 11
21.42868060114038
 21
4.223174251412853
 31
0.0
  0
LINE
  5
B97C
330
B94B
100
AcDbEntity
  8
0
  6
CONTINUOUS
100
AcDbLine
 10
26.29227406164219
 20
0.0330999999912356
 30
0.0
 11
25.80009199592872
 21
0.5252820657046957
 31
0.0
  0
LINE
  5
B97D
330
B94B
100
AcDbEntity
  8
0
  6
CONTINUOUS
100
AcDbLine
 10
23.9569740616358
 20
2.36839999999762
 30
0.0
 11
21.63688370661101
 21
4.688490355022409
 31
0.0
  0
LINE
  5
B97E
330
B94B
100
AcDbEntity
  8
0
  6
CONTINUOUS
100
AcDbLine
 10
26.96579327072237
 20
0.0330999999912356
 30
0.0
 11
25.2554132311971
 21
1.743480039516508
 31
0.0
  0
LINE
  5
B97F
330
B94B
100
AcDbEntity
  8
0
  6
CONTINUOUS
100
AcDbLine
 10
24.63049327071599
 20
2.36839999999762
 30
0.0
 11
23.32789327071731
 21
3.670999999996297
 31
0.0
  0
LINE
  5
B980
330
B94B
100
AcDbEntity
  8
0
  6
CONTINUOUS
100
AcDbLine
 10
22.92098674744635
 20
4.077906523267254
 30
0.0
 11
21.84508681208164
 21
5.153806458631966
 31
0.0
  0
LINE
  5
B981
330
B94B
100
AcDbEntity
  8
0
  6
CONTINUOUS
100
AcDbLine
 10
27.63931247980256
 20
0.0330999999912356
 30
0.0
 11
24.0014124797975
 21
3.670999999996297
 31
0.0
  0
LINE
  5
B982
330
B94B
100
AcDbEntity
  8
0
  6
CONTINUOUS
100
AcDbLine
 10
23.129125600968
 20
4.5432868788258
 30
0.0
 11
22.05328991755227
 21
5.619122562241522
 31
0.0
  0
LINE
  5
B983
330
B94B
100
AcDbEntity
  8
0
  6
CONTINUOUS
100
AcDbLine
 10
28.31283168888275
 20
0.0330999999912356
 30
0.0
 11
24.16488385994816
 21
4.181047828925828
 31
0.0
  0
LINE
  5
B984
330
B94B
100
AcDbEntity
  8
0
  6
CONTINUOUS
100
AcDbLine
 10
23.33726445448964
 20
5.008667234384345
 30
0.0
 11
22.2614930230229
 21
6.084438665851079
 31
0.0
  0
LINE
  5
B985
330
B94B
100
AcDbEntity
  8
0
  6
CONTINUOUS
100
AcDbLine
 10
28.92085740005492
 20
0.0985934978992438
 30
0.0
 11
27.63635089796295
 21
1.383099999991217
 31
0.0
  0
LINE
  5
B986
330
B94B
100
AcDbEntity
  8
0
  6
CONTINUOUS
100
AcDbLine
 10
26.43704649509776
 20
2.582404402856405
 30
0.0
 11
23.61992702019732
 21
5.399523877756844
 31
0.0
  0
LINE
  5
B987
330
B94B
100
AcDbEntity
  8
0
  6
CONTINUOUS
100
AcDbLine
 10
23.54540330801128
 20
5.47404758994289
 30
0.0
 11
22.46969612849353
 21
6.549754769460635
 31
0.0
  0
LINE
  5
B988
330
B94B
100
AcDbEntity
  8
0
  6
CONTINUOUS
100
AcDbLine
 10
29.42225615078443
 20
0.2707139562499279
 30
0.0
 11
28.30987010704312
 21
1.383099999991234
 31
0.0
  0
LINE
  5
B989
330
B94B
100
AcDbEntity
  8
0
  6
CONTINUOUS
100
AcDbLine
 10
25.89179548232307
 20
3.801174624711282
 30
0.0
 11
22.67789923396416
 21
7.015070873070191
 31
0.0
  0
LINE
  5
B98A
330
B94B
100
AcDbEntity
  8
0
  6
CONTINUOUS
100
AcDbLine
 10
29.83624534690007
 20
0.5302439692144705
 30
0.0
 11
28.85811781497101
 21
1.508371501143527
 31
0.0
  0
LINE
  5
B98B
330
B94B
100
AcDbEntity
  8
0
  6
CONTINUOUS
100
AcDbLine
 10
25.34654446954838
 20
5.01994484656616
 30
0.0
 11
22.88610233943479
 21
7.480386976679748
 31
0.0
  0
LINE
  5
B98C
330
B94B
100
AcDbEntity
  8
0
  6
CONTINUOUS
100
AcDbLine
 10
30.17865975401872
 20
0.8613487711760022
 30
0.0
 11
29.18888744090175
 21
1.851121084292977
 31
0.0
  0
LINE
  5
B98D
330
B94B
100
AcDbEntity
  8
0
  6
CONTINUOUS
100
AcDbLine
 10
24.80129345677369
 20
6.238715068421037
 30
0.0
 11
23.09430544490542
 21
7.945703080289305
 31
0.0
  0
LINE
  5
B98E
330
B94B
100
AcDbEntity
  8
0
  6
CONTINUOUS
100
AcDbLine
 10
30.45496647202376
 20
1.258561262251155
 30
0.0
 11
29.30199999996933
 21
2.411527734305588
 31
0.0
  0
LINE
  5
B98F
330
B94B
100
AcDbEntity
  8
0
  6
CONTINUOUS
100
AcDbLine
 10
24.256042443999
 20
7.457485290275915
 30
0.0
 11
23.30250855037605
 21
8.411019183898862
 31
0.0
  0
LINE
  5
B990
330
B94B
100
AcDbEntity
  8
0
  6
CONTINUOUS
100
AcDbLine
 10
30.64868582078271
 20
1.738361122572387
 30
0.0
 11
29.30199999996933
 21
3.085046943385775
 31
0.0
  0
LINE
  5
B991
330
B94B
100
AcDbEntity
  8
0
  6
CONTINUOUS
100
AcDbLine
 10
23.71079143122431
 20
8.676255512130794
 30
0.0
 11
23.51071165584668
 21
8.876335287508416
 31
0.0
  0
LINE
  5
B992
330
B94B
100
AcDbEntity
  8
0
  6
CONTINUOUS
100
AcDbLine
 10
30.73802122914428
 20
2.322544923291007
 30
0.0
 11
29.30199999996933
 21
3.758566152465961
 31
0.0
  0
LINE
  5
B993
330
B94B
100
AcDbEntity
  8
0
  6
CONTINUOUS
100
AcDbLine
 10
30.74199999996924
 20
2.992085361546236
 30
0.0
 11
29.30199999996933
 21
4.432085361546148
 31
0.0
  0
LINE
  5
B994
330
B94B
100
AcDbEntity
  8
0
  6
CONTINUOUS
100
AcDbLine
 10
30.74199999996924
 20
3.665604570626419
 30
0.0
 11
29.30199999996933
 21
5.105604570626333
 31
0.0
  0
LINE
  5
B995
330
B94B
100
AcDbEntity
  8
0
  6
CONTINUOUS
100
AcDbLine
 10
30.74199999996925
 20
4.339123779706602
 30
0.0
 11
29.30199999996933
 21
5.77912377970652
 31
0.0
  0
LINE
  5
B996
330
B94B
100
AcDbEntity
  8
0
  6
CONTINUOUS
100
AcDbLine
 10
30.74199999996925
 20
5.012642988786785
 30
0.0
 11
29.30199999996933
 21
6.452642988786707
 31
0.0
  0
LINE
  5
B997
330
B94B
100
AcDbEntity
  8
0
  6
CONTINUOUS
100
AcDbLine
 10
30.74199999996925
 20
5.68616219786697
 30
0.0
 11
29.30199999996933
 21
7.126162197866894
 31
0.0
  0
LINE
  5
B998
330
B94B
100
AcDbEntity
  8
0
  6
CONTINUOUS
100
AcDbLine
 10
30.74199999996925
 20
6.359681406947153
 30
0.0
 11
29.30199999996933
 21
7.799681406947081
 31
0.0
  0
LINE
  5
B999
330
B94B
100
AcDbEntity
  8
0
  6
CONTINUOUS
100
AcDbLine
 10
30.74199999996926
 20
7.033200616027337
 30
0.0
 11
29.30199999996933
 21
8.473200616027269
 31
0.0
  0
LINE
  5
B99A
330
B94B
100
AcDbEntity
  8
0
  6
CONTINUOUS
100
AcDbLine
 10
30.74199999996926
 20
7.706719825107518
 30
0.0
 11
29.68561982508552
 21
8.763099999991255
 31
0.0
  0
LINE
  5
B99B
330
B94B
100
AcDbEntity
  8
0
  6
CONTINUOUS
100
AcDbLine
 10
30.74199999996926
 20
8.380239034187703
 30
0.0
 11
30.35913903416571
 21
8.763099999991255
 31
0.0
  0
ENDBLK
  5
BA3E
330
B94B
100
AcDbEntity
  8
0
100
AcDbBlockEnd
  0
BLOCK
  5
BA3F
330
B99C
100
AcDbEntity
  8
0
100
AcDbBlockBegin
  2
*X38
 70
     1
 10
0.0
 20
0.0
 30
0.0
  3
*X38
  1

  0
LINE
  5
B99D
330
B99C
100
AcDbEntity
  8
0
  6
CONTINUOUS
100
AcDbLine
 10
31.64199999996833
 20
8.535058289913598
 30
0.0
 11
31.87004171004599
 21
8.763099999991255
 31
0.0
  0
LINE
  5
B99E
330
B99C
100
AcDbEntity
  8
0
  6
CONTINUOUS
100
AcDbLine
 10
31.64199999996833
 20
7.861539080833412
 30
0.0
 11
32.54356091912618
 21
8.763099999991255
 31
0.0
  0
LINE
  5
B99F
330
B99C
100
AcDbEntity
  8
0
  6
CONTINUOUS
100
AcDbLine
 10
31.64199999996833
 20
7.188019871753226
 30
0.0
 11
33.08199999996839
 21
8.628019871753281
 31
0.0
  0
LINE
  5
B9A0
330
B99C
100
AcDbEntity
  8
0
  6
CONTINUOUS
100
AcDbLine
 10
31.64199999996833
 20
6.51450066267304
 30
0.0
 11
33.08199999996839
 21
7.954500662673095
 31
0.0
  0
LINE
  5
B9A1
330
B99C
100
AcDbEntity
  8
0
  6
CONTINUOUS
100
AcDbLine
 10
31.64199999996833
 20
5.840981453592853
 30
0.0
 11
33.08199999996839
 21
7.280981453592908
 31
0.0
  0
LINE
  5
B9A2
330
B99C
100
AcDbEntity
  8
0
  6
CONTINUOUS
100
AcDbLine
 10
31.64199999996833
 20
5.167462244512667
 30
0.0
 11
33.08199999996839
 21
6.607462244512721
 31
0.0
  0
LINE
  5
B9A3
330
B99C
100
AcDbEntity
  8
0
  6
CONTINUOUS
100
AcDbLine
 10
31.64199999996833
 20
4.493943035432481
 30
0.0
 11
33.08199999996839
 21
5.933943035432535
 31
0.0
  0
LINE
  5
B9A4
330
B99C
100
AcDbEntity
  8
0
  6
CONTINUOUS
100
AcDbLine
 10
31.64199999996833
 20
3.820423826352293
 30
0.0
 11
33.08199999996839
 21
5.260423826352348
 31
0.0
  0
LINE
  5
B9A5
330
B99C
100
AcDbEntity
  8
0
  6
CONTINUOUS
100
AcDbLine
 10
31.64199999996833
 20
3.146904617272106
 30
0.0
 11
33.08199999996839
 21
4.586904617272161
 31
0.0
  0
LINE
  5
B9A6
330
B99C
100
AcDbEntity
  8
0
  6
CONTINUOUS
100
AcDbLine
 10
36.23199999996837
 20
8.410423826352325
 30
0.0
 11
36.5846761736073
 21
8.763099999991255
 31
0.0
  0
LINE
  5
B9A7
330
B99C
100
AcDbEntity
  8
0
  6
CONTINUOUS
100
AcDbLine
 10
36.23199999996837
 20
7.73690461727214
 30
0.0
 11
37.25819538268748
 21
8.763099999991255
 31
0.0
  0
LINE
  5
B9A8
330
B99C
100
AcDbEntity
  8
0
  6
CONTINUOUS
100
AcDbLine
 10
31.64257403601376
 20
2.473959444237348
 30
0.0
 11
33.08199999996839
 21
3.913385408191974
 31
0.0
  0
LINE
  5
B9A9
330
B99C
100
AcDbEntity
  8
0
  6
CONTINUOUS
100
AcDbLine
 10
36.23199999996837
 20
7.063385408191953
 30
0.0
 11
37.67199999996831
 21
8.503385408191894
 31
0.0
  0
LINE
  5
B9AA
330
B99C
100
AcDbEntity
  8
0
  6
CONTINUOUS
100
AcDbLine
 10
31.72013636841932
 20
1.87800256756272
 30
0.0
 11
33.08199999996839
 21
3.239866199111788
 31
0.0
  0
LINE
  5
B9AB
330
B99C
100
AcDbEntity
  8
0
  6
CONTINUOUS
100
AcDbLine
 10
36.23199999996837
 20
6.389866199111767
 30
0.0
 11
37.67199999996831
 21
7.829866199111708
 31
0.0
  0
LINE
  5
B9AC
330
B99C
100
AcDbEntity
  8
0
  6
CONTINUOUS
100
AcDbLine
 10
31.89042734314753
 20
1.374774333210744
 30
0.0
 11
33.08199999996839
 21
2.566346990031601
 31
0.0
  0
LINE
  5
B9AD
330
B99C
100
AcDbEntity
  8
0
  6
CONTINUOUS
100
AcDbLine
 10
36.23199999996837
 20
5.71634699003158
 30
0.0
 11
37.67199999996831
 21
7.156346990031521
 31
0.0
  0
LINE
  5
B9AE
330
B99C
100
AcDbEntity
  8
0
  6
CONTINUOUS
100
AcDbLine
 10
32.14210568064475
 20
0.952933461627778
 30
0.0
 11
33.18745552475986
 21
1.998283305742888
 31
0.0
  0
LINE
  5
B9AF
330
B99C
100
AcDbEntity
  8
0
  6
CONTINUOUS
100
AcDbLine
 10
36.23199999996837
 20
5.042827780951393
 30
0.0
 11
37.67199999996831
 21
6.482827780951334
 31
0.0
  0
LINE
  5
B9B0
330
B99C
100
AcDbEntity
  8
0
  6
CONTINUOUS
100
AcDbLine
 10
32.45820639400955
 20
0.5955149659123915
 30
0.0
 11
33.47242681921943
 21
1.60973539112227
 31
0.0
  0
LINE
  5
B9B1
330
B99C
100
AcDbEntity
  8
0
  6
CONTINUOUS
100
AcDbLine
 10
36.23199999996837
 20
4.369308571871207
 30
0.0
 11
37.67199999996831
 21
5.809308571871147
 31
0.0
  0
LINE
  5
B9B2
330
B99C
100
AcDbEntity
  8
0
  6
CONTINUOUS
100
AcDbLine
 10
32.83432456621412
 20
0.2981139290367771
 30
0.0
 11
33.89722476612215
 21
1.361014128944803
 31
0.0
  0
LINE
  5
B9B3
330
B99C
100
AcDbEntity
  8
0
  6
CONTINUOUS
100
AcDbLine
 10
36.23199999996837
 20
3.69578936279102
 30
0.0
 11
37.67199999996831
 21
5.135789362790962
 31
0.0
  0
LINE
  5
B9B4
330
B99C
100
AcDbEntity
  8
0
  6
CONTINUOUS
100
AcDbLine
 10
33.2711633111245
 20
0.0614334648669672
 30
0.0
 11
34.43247338014423
 21
1.222743533886696
 31
0.0
  0
LINE
  5
B9B5
330
B99C
100
AcDbEntity
  8
0
  6
CONTINUOUS
100
AcDbLine
 10
36.23199999996837
 20
3.022270153710834
 30
0.0
 11
37.67199999996831
 21
4.462270153710775
 31
0.0
  0
LINE
  5
B9B6
330
B99C
100
AcDbEntity
  8
0
  6
CONTINUOUS
100
AcDbLine
 10
33.76515245874577
 20
-0.1180965965919523
 30
0.0
 11
35.1587445516215
 21
1.27549549628378
 31
0.0
  0
LINE
  5
B9B7
330
B99C
100
AcDbEntity
  8
0
  6
CONTINUOUS
100
AcDbLine
 10
36.21639478609585
 20
2.333145730758136
 30
0.0
 11
37.67199999996831
 21
3.788750944630588
 31
0.0
  0
LINE
  5
B9B8
330
B99C
100
AcDbEntity
  8
0
  6
CONTINUOUS
100
AcDbLine
 10
34.34060583368432
 20
-0.2161624307335863
 30
0.0
 11
37.67199999996831
 21
3.115231735550401
 31
0.0
  0
LINE
  5
B9B9
330
B99C
100
AcDbEntity
  8
0
  6
CONTINUOUS
100
AcDbLine
 10
35.01698193613905
 20
-0.2133055373590427
 30
0.0
 11
37.66876712070525
 21
2.438479647207154
 31
0.0
  0
LINE
  5
B9BA
330
B99C
100
AcDbEntity
  8
0
  6
CONTINUOUS
100
AcDbLine
 10
35.90743367693304
 20
0.0036269943547609
 30
0.0
 11
37.51723902192366
 21
1.613432339345381
 31
0.0
  0
LINE
  5
B9BB
330
B99C
100
AcDbEntity
  8
0
  6
CONTINUOUS
100
AcDbLine
 10
32.55309425579761
 20
0.5074718966376706
 30
0.0
 11
32.27784730925847
 21
0.7827188431768102
 31
0.0
  0
LINE
  5
B9BC
330
B99C
100
AcDbEntity
  8
0
  6
CONTINUOUS
100
AcDbLine
 10
33.87496468909684
 20
-0.1408793275813673
 30
0.0
 11
31.67993083278052
 21
2.054154528734943
 31
0.0
  0
LINE
  5
B9BD
330
B99C
100
AcDbEntity
  8
0
  6
CONTINUOUS
100
AcDbLine
 10
34.64362813207632
 20
-0.2360235614806649
 30
0.0
 11
31.64199999996833
 21
2.765604570627322
 31
0.0
  0
LINE
  5
B9BE
330
B99C
100
AcDbEntity
  8
0
  6
CONTINUOUS
100
AcDbLine
 10
35.25801106796118
 20
-0.1768872882853429
 30
0.0
 11
31.64199999996833
 21
3.439123779707508
 31
0.0
  0
LINE
  5
B9BF
330
B99C
100
AcDbEntity
  8
0
  6
CONTINUOUS
100
AcDbLine
 10
35.79065650332146
 20
-0.0360135145654361
 30
0.0
 11
34.54143210838231
 21
1.213210880373721
 31
0.0
  0
LINE
  5
B9C0
330
B99C
100
AcDbEntity
  8
0
  6
CONTINUOUS
100
AcDbLine
 10
33.08199999996839
 20
2.67264298878764
 30
0.0
 11
31.64199999996833
 21
4.112642988787695
 31
0.0
  0
LINE
  5
B9C1
330
B99C
100
AcDbEntity
  8
0
  6
CONTINUOUS
100
AcDbLine
 10
36.25975597779143
 20
0.1684062200447833
 30
0.0
 11
35.15395110240023
 21
1.274211095435983
 31
0.0
  0
LINE
  5
B9C2
330
B99C
100
AcDbEntity
  8
0
  6
CONTINUOUS
100
AcDbLine
 10
33.08199999996839
 20
3.346162197867826
 30
0.0
 11
31.64199999996833
 21
4.786162197867881
 31
0.0
  0
LINE
  5
B9C3
330
B99C
100
AcDbEntity
  8
0
  6
CONTINUOUS
100
AcDbLine
 10
36.67226329638774
 20
0.4294181105286579
 30
0.0
 11
35.63766478748767
 21
1.464016619428737
 31
0.0
  0
LINE
  5
B9C4
330
B99C
100
AcDbEntity
  8
0
  6
CONTINUOUS
100
AcDbLine
 10
33.08199999996839
 20
4.019681406948012
 30
0.0
 11
31.64199999996833
 21
5.459681406948068
 31
0.0
  0
LINE
  5
B9C5
330
B99C
100
AcDbEntity
  8
0
  6
CONTINUOUS
100
AcDbLine
 10
37.01677749710036
 20
0.7584231188962329
 30
0.0
 11
35.99563422741351
 21
1.779566388583076
 31
0.0
  0
LINE
  5
B9C6
330
B99C
100
AcDbEntity
  8
0
  6
CONTINUOUS
100
AcDbLine
 10
33.08199999996839
 20
4.693200616028199
 30
0.0
 11
31.64199999996833
 21
6.133200616028255
 31
0.0
  0
LINE
  5
B9C7
330
B99C
100
AcDbEntity
  8
0
  6
CONTINUOUS
100
AcDbLine
 10
37.29859977568887
 20
1.1501200493879
 30
0.0
 11
36.20680593341555
 21
2.241913891661226
 31
0.0
  0
LINE
  5
B9C8
330
B99C
100
AcDbEntity
  8
0
  6
CONTINUOUS
100
AcDbLine
 10
33.08199999996839
 20
5.366719825108386
 30
0.0
 11
31.64199999996833
 21
6.80671982510844
 31
0.0
  0
LINE
  5
B9C9
330
B99C
100
AcDbEntity
  8
0
  6
CONTINUOUS
100
AcDbLine
 10
37.5148623517228
 20
1.607376682434161
 30
0.0
 11
36.23199999996837
 21
2.890239034188594
 31
0.0
  0
LINE
  5
B9CA
330
B99C
100
AcDbEntity
  8
0
  6
CONTINUOUS
100
AcDbLine
 10
33.08199999996839
 20
6.040239034188573
 30
0.0
 11
31.64199999996833
 21
7.480239034188627
 31
0.0
  0
LINE
  5
B9CB
330
B99C
100
AcDbEntity
  8
0
  6
CONTINUOUS
100
AcDbLine
 10
37.64705163358367
 20
2.148706609653477
 30
0.0
 11
36.23199999996837
 21
3.56375824326878
 31
0.0
  0
LINE
  5
B9CC
330
B99C
100
AcDbEntity
  8
0
  6
CONTINUOUS
100
AcDbLine
 10
33.08199999996839
 20
6.713758243268758
 30
0.0
 11
31.64199999996833
 21
8.153758243268815
 31
0.0
  0
LINE
  5
B9CD
330
B99C
100
AcDbEntity
  8
0
  6
CONTINUOUS
100
AcDbLine
 10
37.67199999996831
 20
2.797277452349026
 30
0.0
 11
36.23199999996837
 21
4.237277452348967
 31
0.0
  0
LINE
  5
B9CE
330
B99C
100
AcDbEntity
  8
0
  6
CONTINUOUS
100
AcDbLine
 10
37.67199999996831
 20
3.470796661429213
 30
0.0
 11
36.23199999996837
 21
4.910796661429154
 31
0.0
  0
LINE
  5
B9CF
330
B99C
100
AcDbEntity
  8
0
  6
CONTINUOUS
100
AcDbLine
 10
37.67199999996831
 20
4.144315870509399
 30
0.0
 11
36.23199999996837
 21
5.58431587050934
 31
0.0
  0
LINE
  5
B9D0
330
B99C
100
AcDbEntity
  8
0
  6
CONTINUOUS
100
AcDbLine
 10
33.08199999996839
 20
7.387277452348945
 30
0.0
 11
31.70617745232608
 21
8.763099999991255
 31
0.0
  0
LINE
  5
B9D1
330
B99C
100
AcDbEntity
  8
0
  6
CONTINUOUS
100
AcDbLine
 10
33.08199999996839
 20
8.060796661429132
 30
0.0
 11
32.37969666140626
 21
8.763099999991255
 31
0.0
  0
LINE
  5
B9D2
330
B99C
100
AcDbEntity
  8
0
  6
CONTINUOUS
100
AcDbLine
 10
33.08199999996839
 20
8.734315870509318
 30
0.0
 11
33.05321587048645
 21
8.763099999991255
 31
0.0
  0
LINE
  5
B9D3
330
B99C
100
AcDbEntity
  8
0
  6
CONTINUOUS
100
AcDbLine
 10
37.67199999996831
 20
4.817835079589585
 30
0.0
 11
36.23199999996837
 21
6.257835079589526
 31
0.0
  0
LINE
  5
B9D4
330
B99C
100
AcDbEntity
  8
0
  6
CONTINUOUS
100
AcDbLine
 10
37.67199999996831
 20
5.491354288669771
 30
0.0
 11
36.23199999996837
 21
6.931354288669713
 31
0.0
  0
LINE
  5
B9D5
330
B99C
100
AcDbEntity
  8
0
  6
CONTINUOUS
100
AcDbLine
 10
37.67199999996831
 20
6.164873497749958
 30
0.0
 11
36.23199999996837
 21
7.6048734977499
 31
0.0
  0
LINE
  5
B9D6
330
B99C
100
AcDbEntity
  8
0
  6
CONTINUOUS
100
AcDbLine
 10
37.67199999996831
 20
6.838392706830144
 30
0.0
 11
36.23199999996837
 21
8.278392706830086
 31
0.0
  0
LINE
  5
B9D7
330
B99C
100
AcDbEntity
  8
0
  6
CONTINUOUS
100
AcDbLine
 10
37.67199999996831
 20
7.511911915910332
 30
0.0
 11
36.42081191588738
 21
8.763099999991255
 31
0.0
  0
LINE
  5
B9D8
330
B99C
100
AcDbEntity
  8
0
  6
CONTINUOUS
100
AcDbLine
 10
37.67199999996831
 20
8.185431124990519
 30
0.0
 11
37.09433112496757
 21
8.763099999991255
 31
0.0
  0
ENDBLK
  5
BA40
330
B99C
100
AcDbEntity
  8
0
100
AcDbBlockEnd
  0
BLOCK
  5
BA41
330
B9D9
100
AcDbEntity
  8
0
100
AcDbBlockBegin
  2
*X39
 70
     1
 10
0.0
 20
0.0
 30
0.0
  3
*X39
  1

  0
LINE
  5
B9DA
330
B9D9
100
AcDbEntity
  8
0
  6
CONTINUOUS
100
AcDbLine
 10
38.60499999996136
 20
8.762866199104765
 30
0.0
 11
38.71672554182345
 21
8.874591740966855
 31
0.0
  0
LINE
  5
B9DB
330
B9D9
100
AcDbEntity
  8
0
  6
CONTINUOUS
100
AcDbLine
 10
38.60499999996136
 20
8.089346990024577
 30
0.0
 11
39.03418785440363
 21
8.518534844466847
 31
0.0
  0
LINE
  5
B9DC
330
B9D9
100
AcDbEntity
  8
0
  6
CONTINUOUS
100
AcDbLine
 10
38.60499999996136
 20
7.41582778094439
 30
0.0
 11
39.35165016698382
 21
8.16247794796684
 31
0.0
  0
LINE
  5
B9DD
330
B9D9
100
AcDbEntity
  8
0
  6
CONTINUOUS
100
AcDbLine
 10
38.60499999996136
 20
6.742308571864204
 30
0.0
 11
39.66911247956399
 21
7.806421051466834
 31
0.0
  0
LINE
  5
B9DE
330
B9D9
100
AcDbEntity
  8
0
  6
CONTINUOUS
100
AcDbLine
 10
38.60499999996136
 20
6.068789362784018
 30
0.0
 11
39.98657479214418
 21
7.450364154966827
 31
0.0
  0
LINE
  5
B9DF
330
B9D9
100
AcDbEntity
  8
0
  6
CONTINUOUS
100
AcDbLine
 10
38.60499999996136
 20
5.395270153703832
 30
0.0
 11
40.30403710472435
 21
7.09430725846682
 31
0.0
  0
LINE
  5
B9E0
330
B9D9
100
AcDbEntity
  8
0
  6
CONTINUOUS
100
AcDbLine
 10
38.60499999996136
 20
4.721750944623645
 30
0.0
 11
40.62149941730453
 21
6.738250361966813
 31
0.0
  0
LINE
  5
B9E1
330
B9D9
100
AcDbEntity
  8
0
  6
CONTINUOUS
100
AcDbLine
 10
38.60499999996136
 20
4.048231735543458
 30
0.0
 11
40.93896172988471
 21
6.382193465466806
 31
0.0
  0
LINE
  5
B9E2
330
B9D9
100
AcDbEntity
  8
0
  6
CONTINUOUS
100
AcDbLine
 10
38.60499999996136
 20
3.374712526463272
 30
0.0
 11
40.02599999995994
 21
4.795712526461843
 31
0.0
  0
LINE
  5
B9E3
330
B9D9
100
AcDbEntity
  8
0
  6
CONTINUOUS
100
AcDbLine
 10
38.60499999996136
 20
2.701193317383085
 30
0.0
 11
40.02599999995994
 21
4.122193317381657
 31
0.0
  0
LINE
  5
B9E4
330
B9D9
100
AcDbEntity
  8
0
  6
CONTINUOUS
100
AcDbLine
 10
40.28339754687704
 20
5.053110073378947
 30
0.0
 11
41.25642404246489
 21
6.026136568966799
 31
0.0
  0
LINE
  5
B9E5
330
B9D9
100
AcDbEntity
  8
0
  6
CONTINUOUS
100
AcDbLine
 10
40.60085985945722
 20
4.697053176878939
 30
0.0
 11
41.57388635504507
 21
5.670079672466793
 31
0.0
  0
LINE
  5
B9E6
330
B9D9
100
AcDbEntity
  8
0
  6
CONTINUOUS
100
AcDbLine
 10
43.57899999995641
 20
8.348712526458318
 30
0.0
 11
43.99338747348935
 21
8.763099999991255
 31
0.0
  0
LINE
  5
B9E7
330
B9D9
100
AcDbEntity
  8
0
  6
CONTINUOUS
100
AcDbLine
 10
43.57899999995641
 20
7.675193317378131
 30
0.0
 11
44.66690668256953
 21
8.763099999991255
 31
0.0
  0
LINE
  5
B9E8
330
B9D9
100
AcDbEntity
  8
0
  6
CONTINUOUS
100
AcDbLine
 10
38.60499999996136
 20
2.027674108302898
 30
0.0
 11
40.02599999995994
 21
3.44867410830147
 31
0.0
  0
LINE
  5
B9E9
330
B9D9
100
AcDbEntity
  8
0
  6
CONTINUOUS
100
AcDbLine
 10
38.60499999996136
 20
1.354154899222712
 30
0.0
 11
40.02599999995994
 21
2.775154899221284
 31
0.0
  0
LINE
  5
B9EA
330
B9D9
100
AcDbEntity
  8
0
  6
CONTINUOUS
100
AcDbLine
 10
38.60499999996136
 20
0.6806356901425255
 30
0.0
 11
40.02599999995994
 21
2.101635690141098
 31
0.0
  0
LINE
  5
B9EB
330
B9D9
100
AcDbEntity
  8
0
  6
CONTINUOUS
100
AcDbLine
 10
38.60499999996136
 20
0.0071164810623383
 30
0.0
 11
40.02599999995994
 21
1.428116481060911
 31
0.0
  0
LINE
  5
B9EC
330
B9D9
100
AcDbEntity
  8
0
  6
CONTINUOUS
100
AcDbLine
 10
40.9183221720374
 20
4.340996280378933
 30
0.0
 11
41.89134866762525
 21
5.314022775966786
 31
0.0
  0
LINE
  5
B9ED
330
B9D9
100
AcDbEntity
  8
0
  6
CONTINUOUS
100
AcDbLine
 10
41.23578448461758
 20
3.984939383878926
 30
0.0
 11
42.20881098020543
 21
4.957965879466778
 31
0.0
  0
LINE
  5
B9EE
330
B9D9
100
AcDbEntity
  8
0
  6
CONTINUOUS
100
AcDbLine
 10
41.55324679719776
 20
3.628882487378919
 30
0.0
 11
42.52627329278561
 21
4.601908982966772
 31
0.0
  0
LINE
  5
B9EF
330
B9D9
100
AcDbEntity
  8
0
  6
CONTINUOUS
100
AcDbLine
 10
41.87070910977793
 20
3.272825590878912
 30
0.0
 11
42.84373560536579
 21
4.245852086466765
 31
0.0
  0
LINE
  5
B9F0
330
B9D9
100
AcDbEntity
  8
0
  6
CONTINUOUS
100
AcDbLine
 10
43.57899999995641
 20
7.001674108297943
 30
0.0
 11
44.99999999995498
 21
8.422674108296516
 31
0.0
  0
LINE
  5
B9F1
330
B9D9
100
AcDbEntity
  8
0
  6
CONTINUOUS
100
AcDbLine
 10
43.57899999995641
 20
6.328154899217758
 30
0.0
 11
44.99999999995498
 21
7.749154899216329
 31
0.0
  0
LINE
  5
B9F2
330
B9D9
100
AcDbEntity
  8
0
  6
CONTINUOUS
100
AcDbLine
 10
43.57899999995641
 20
5.654635690137571
 30
0.0
 11
44.99999999995498
 21
7.075635690136142
 31
0.0
  0
LINE
  5
B9F3
330
B9D9
100
AcDbEntity
  8
0
  6
CONTINUOUS
100
AcDbLine
 10
43.57899999995641
 20
4.981116481057384
 30
0.0
 11
44.99999999995498
 21
6.402116481055955
 31
0.0
  0
LINE
  5
B9F4
330
B9D9
100
AcDbEntity
  8
0
  6
CONTINUOUS
100
AcDbLine
 10
39.27140272797921
 20
-0.0000000000000009
 30
0.0
 11
40.02599999995994
 21
0.7545972719807246
 31
0.0
  0
LINE
  5
B9F5
330
B9D9
100
AcDbEntity
  8
0
  6
CONTINUOUS
100
AcDbLine
 10
39.9449219370594
 20
-0.0000000000000009
 30
0.0
 11
40.02599999995994
 21
0.0810780629005379
 31
0.0
  0
LINE
  5
B9F6
330
B9D9
100
AcDbEntity
  8
0
  6
CONTINUOUS
100
AcDbLine
 10
42.18817142235812
 20
2.916768694378905
 30
0.0
 11
43.16119791794597
 21
3.889795189966758
 31
0.0
  0
LINE
  5
B9F7
330
B9D9
100
AcDbEntity
  8
0
  6
CONTINUOUS
100
AcDbLine
 10
42.50563373493829
 20
2.560711797878898
 30
0.0
 11
43.47866023052615
 21
3.533738293466751
 31
0.0
  0
LINE
  5
B9F8
330
B9D9
100
AcDbEntity
  8
0
  6
CONTINUOUS
100
AcDbLine
 10
43.57899999995641
 20
4.307597271977198
 30
0.0
 11
44.99999999995498
 21
5.728597271975769
 31
0.0
  0
LINE
  5
B9F9
330
B9D9
100
AcDbEntity
  8
0
  6
CONTINUOUS
100
AcDbLine
 10
43.57899999995641
 20
3.634078062897011
 30
0.0
 11
44.99999999995498
 21
5.055078062895582
 31
0.0
  0
LINE
  5
B9FA
330
B9D9
100
AcDbEntity
  8
0
  6
CONTINUOUS
100
AcDbLine
 10
42.82309604751848
 20
2.204654901378891
 30
0.0
 11
44.99999999995498
 21
4.381558853815395
 31
0.0
  0
LINE
  5
B9FB
330
B9D9
100
AcDbEntity
  8
0
  6
CONTINUOUS
100
AcDbLine
 10
43.14055836009865
 20
1.848598004878885
 30
0.0
 11
44.99999999995498
 21
3.70803964473521
 31
0.0
  0
LINE
  5
B9FC
330
B9D9
100
AcDbEntity
  8
0
  6
CONTINUOUS
100
AcDbLine
 10
43.45802067267883
 20
1.492541108378878
 30
0.0
 11
44.99999999995498
 21
3.034520435655023
 31
0.0
  0
LINE
  5
B9FD
330
B9D9
100
AcDbEntity
  8
0
  6
CONTINUOUS
100
AcDbLine
 10
43.77548298525902
 20
1.136484211878871
 30
0.0
 11
44.99999999995498
 21
2.361001226574837
 31
0.0
  0
LINE
  5
B9FE
330
B9D9
100
AcDbEntity
  8
0
  6
CONTINUOUS
100
AcDbLine
 10
44.09294529783919
 20
0.7804273153788639
 30
0.0
 11
44.99999999995498
 21
1.687482017494649
 31
0.0
  0
LINE
  5
B9FF
330
B9D9
100
AcDbEntity
  8
0
  6
CONTINUOUS
100
AcDbLine
 10
44.41040761041938
 20
0.4243704188788566
 30
0.0
 11
44.99999999995498
 21
1.013962808414463
 31
0.0
  0
LINE
  5
BA00
330
B9D9
100
AcDbEntity
  8
0
  6
CONTINUOUS
100
AcDbLine
 10
44.72786992299955
 20
0.0683135223788494
 30
0.0
 11
44.99999999995498
 21
0.340443599334276
 31
0.0
  0
LINE
  5
BA01
330
B9D9
100
AcDbEntity
  8
0
  6
CONTINUOUS
100
AcDbLine
 10
39.12223903415696
 20
-0.0000000000000009
 30
0.0
 11
38.60499999996136
 21
0.5172390341955961
 31
0.0
  0
LINE
  5
BA02
330
B9D9
100
AcDbEntity
  8
0
  6
CONTINUOUS
100
AcDbLine
 10
39.79575824323715
 20
-0.0000000000000009
 30
0.0
 11
38.60499999996136
 21
1.190758243275783
 31
0.0
  0
LINE
  5
BA03
330
B9D9
100
AcDbEntity
  8
0
  6
CONTINUOUS
100
AcDbLine
 10
40.02599999995994
 20
0.443277452357397
 30
0.0
 11
38.60499999996136
 21
1.864277452355969
 31
0.0
  0
LINE
  5
BA04
330
B9D9
100
AcDbEntity
  8
0
  6
CONTINUOUS
100
AcDbLine
 10
40.02599999995994
 20
1.116796661437583
 30
0.0
 11
38.60499999996136
 21
2.537796661436155
 31
0.0
  0
LINE
  5
BA05
330
B9D9
100
AcDbEntity
  8
0
  6
CONTINUOUS
100
AcDbLine
 10
40.02599999995994
 20
1.79031587051777
 30
0.0
 11
38.60499999996136
 21
3.211315870516341
 31
0.0
  0
LINE
  5
BA06
330
B9D9
100
AcDbEntity
  8
0
  6
CONTINUOUS
100
AcDbLine
 10
40.02599999995994
 20
2.463835079597956
 30
0.0
 11
38.60499999996136
 21
3.884835079596527
 31
0.0
  0
LINE
  5
BA07
330
B9D9
100
AcDbEntity
  8
0
  6
CONTINUOUS
100
AcDbLine
 10
40.02599999995994
 20
3.137354288678143
 30
0.0
 11
38.60499999996136
 21
4.558354288676714
 31
0.0
  0
LINE
  5
BA08
330
B9D9
100
AcDbEntity
  8
0
  6
CONTINUOUS
100
AcDbLine
 10
40.02599999995994
 20
3.810873497758329
 30
0.0
 11
38.60499999996136
 21
5.2318734977569
 31
0.0
  0
LINE
  5
BA09
330
B9D9
100
AcDbEntity
  8
0
  6
CONTINUOUS
100
AcDbLine
 10
40.02599999995994
 20
4.484392706838515
 30
0.0
 11
38.60499999996136
 21
5.905392706837086
 31
0.0
  0
LINE
  5
BA0A
330
B9D9
100
AcDbEntity
  8
0
  6
CONTINUOUS
100
AcDbLine
 10
44.99999999995498
 20
0.183911915923658
 30
0.0
 11
41.53858364506288
 21
3.64532827081576
 31
0.0
  0
LINE
  5
BA0B
330
B9D9
100
AcDbEntity
  8
0
  6
CONTINUOUS
100
AcDbLine
 10
40.02599999995994
 20
5.157911915918703
 30
0.0
 11
38.60499999996136
 21
6.578911915917274
 31
0.0
  0
LINE
  5
BA0C
330
B9D9
100
AcDbEntity
  8
0
  6
CONTINUOUS
100
AcDbLine
 10
44.99999999995498
 20
0.8574311250038447
 30
0.0
 11
38.60499999996136
 21
7.25243112499746
 31
0.0
  0
LINE
  5
BA0D
330
B9D9
100
AcDbEntity
  8
0
  6
CONTINUOUS
100
AcDbLine
 10
44.99999999995498
 20
1.530950334084031
 30
0.0
 11
38.60499999996136
 21
7.925950334077647
 31
0.0
  0
LINE
  5
BA0E
330
B9D9
100
AcDbEntity
  8
0
  6
CONTINUOUS
100
AcDbLine
 10
44.99999999995498
 20
2.204469543164218
 30
0.0
 11
43.57899999995641
 21
3.625469543162789
 31
0.0
  0
LINE
  5
BA0F
330
B9D9
100
AcDbEntity
  8
0
  6
CONTINUOUS
100
AcDbLine
 10
41.89876730984767
 20
5.305702233271528
 30
0.0
 11
38.60499999996136
 21
8.599469543157834
 31
0.0
  0
LINE
  5
BA10
330
B9D9
100
AcDbEntity
  8
0
  6
CONTINUOUS
100
AcDbLine
 10
44.99999999995498
 20
2.877988752244405
 30
0.0
 11
43.57899999995641
 21
4.298988752242975
 31
0.0
  0
LINE
  5
BA11
330
B9D9
100
AcDbEntity
  8
0
  6
CONTINUOUS
100
AcDbLine
 10
44.99999999995498
 20
3.551507961324591
 30
0.0
 11
43.57899999995641
 21
4.972507961323163
 31
0.0
  0
LINE
  5
BA12
330
B9D9
100
AcDbEntity
  8
0
  6
CONTINUOUS
100
AcDbLine
 10
44.99999999995498
 20
4.225027170404777
 30
0.0
 11
43.57899999995641
 21
5.646027170403348
 31
0.0
  0
LINE
  5
BA13
330
B9D9
100
AcDbEntity
  8
0
  6
CONTINUOUS
100
AcDbLine
 10
44.99999999995498
 20
4.898546379484964
 30
0.0
 11
43.57899999995641
 21
6.319546379483535
 31
0.0
  0
LINE
  5
BA14
330
B9D9
100
AcDbEntity
  8
0
  6
CONTINUOUS
100
AcDbLine
 10
44.99999999995498
 20
5.572065588565151
 30
0.0
 11
43.57899999995641
 21
6.993065588563722
 31
0.0
  0
LINE
  5
BA15
330
B9D9
100
AcDbEntity
  8
0
  6
CONTINUOUS
100
AcDbLine
 10
44.99999999995498
 20
6.245584797645336
 30
0.0
 11
43.57899999995641
 21
7.666584797643908
 31
0.0
  0
LINE
  5
BA16
330
B9D9
100
AcDbEntity
  8
0
  6
CONTINUOUS
100
AcDbLine
 10
44.99999999995498
 20
6.919104006725522
 30
0.0
 11
43.57899999995641
 21
8.340104006724093
 31
0.0
  0
LINE
  5
BA17
330
B9D9
100
AcDbEntity
  8
0
  6
CONTINUOUS
100
AcDbLine
 10
44.99999999995498
 20
7.592623215805709
 30
0.0
 11
43.82952321576943
 21
8.763099999991255
 31
0.0
  0
LINE
  5
BA18
330
B9D9
100
AcDbEntity
  8
0
  6
CONTINUOUS
100
AcDbLine
 10
44.99999999995498
 20
8.266142424885896
 30
0.0
 11
44.50304242484962
 21
8.763099999991255
 31
0.0
  0
ENDBLK
  5
BA42
330
B9D9
100
AcDbEntity
  8
0
100
AcDbBlockEnd
  0
BLOCK
  5
BA43
330
BA19
100
AcDbEntity
  8
0
100
AcDbBlockBegin
  2
*X40
 70
     1
 10
0.0
 20
0.0
 30
0.0
  3
*X40
  1

  0
LINE
  5
BA1A
330
BA19
100
AcDbEntity
  8
0
  6
CONTINUOUS
100
AcDbLine
 10
0.0
 20
8.548461116714023
 30
0.0
 11
0.2146388832772324
 21
8.763099999991255
 31
0.0
  0
LINE
  5
BA1B
330
BA19
100
AcDbEntity
  8
0
  6
CONTINUOUS
100
AcDbLine
 10
-0.0000000000000002
 20
7.874941907633837
 30
0.0
 11
0.8881580923574184
 21
8.763099999991255
 31
0.0
  0
LINE
  5
BA1C
330
BA19
100
AcDbEntity
  8
0
  6
CONTINUOUS
100
AcDbLine
 10
0.0
 20
7.20142269855365
 30
0.0
 11
1.420999999998572
 21
8.622422698552223
 31
0.0
  0
LINE
  5
BA1D
330
BA19
100
AcDbEntity
  8
0
  6
CONTINUOUS
100
AcDbLine
 10
-0.0000000000000001
 20
6.527903489473465
 30
0.0
 11
1.420999999998571
 21
7.948903489472036
 31
0.0
  0
LINE
  5
BA1E
330
BA19
100
AcDbEntity
  8
0
  6
CONTINUOUS
100
AcDbLine
 10
-0.0000000000000002
 20
5.854384280393278
 30
0.0
 11
1.420999999998571
 21
7.275384280391849
 31
0.0
  0
LINE
  5
BA1F
330
BA19
100
AcDbEntity
  8
0
  6
CONTINUOUS
100
AcDbLine
 10
-0.0000000000000002
 20
5.180865071313091
 30
0.0
 11
1.420999999998571
 21
6.601865071311663
 31
0.0
  0
LINE
  5
BA20
330
BA19
100
AcDbEntity
  8
0
  6
CONTINUOUS
100
AcDbLine
 10
0.0
 20
4.507345862232905
 30
0.0
 11
1.420999999998571
 21
5.928345862231477
 31
0.0
  0
LINE
  5
BA21
330
BA19
100
AcDbEntity
  8
0
  6
CONTINUOUS
100
AcDbLine
 10
-0.0000000000000003
 20
3.833826653152718
 30
0.0
 11
1.420999999998571
 21
5.25482665315129
 31
0.0
  0
LINE
  5
BA22
330
BA19
100
AcDbEntity
  8
0
  6
CONTINUOUS
100
AcDbLine
 10
-0.0000000000000002
 20
3.160307444072532
 30
0.0
 11
1.420999999998571
 21
4.581307444071103
 31
0.0
  0
LINE
  5
BA23
330
BA19
100
AcDbEntity
  8
0
  6
CONTINUOUS
100
AcDbLine
 10
-0.0000000000000001
 20
2.486788234992345
 30
0.0
 11
1.420999999998571
 21
3.907788234990917
 31
0.0
  0
LINE
  5
BA24
330
BA19
100
AcDbEntity
  8
0
  6
CONTINUOUS
100
AcDbLine
 10
-0.0000000000000006
 20
1.813269025912159
 30
0.0
 11
1.420999999998571
 21
3.234269025910731
 31
0.0
  0
LINE
  5
BA25
330
BA19
100
AcDbEntity
  8
0
  6
CONTINUOUS
100
AcDbLine
 10
0.0
 20
1.139749816831973
 30
0.0
 11
1.420999999998571
 21
2.560749816830544
 31
0.0
  0
LINE
  5
BA26
330
BA19
100
AcDbEntity
  8
0
  6
CONTINUOUS
100
AcDbLine
 10
0.0000000000000002
 20
0.466230607751787
 30
0.0
 11
1.420999999998571
 21
1.887230607750358
 31
0.0
  0
LINE
  5
BA27
330
BA19
100
AcDbEntity
  8
0
  6
CONTINUOUS
100
AcDbLine
 10
0.2072886013284003
 20
-0.0000000000000009
 30
0.0
 11
1.420999999998571
 21
1.213711398670171
 31
0.0
  0
LINE
  5
BA28
330
BA19
100
AcDbEntity
  8
0
  6
CONTINUOUS
100
AcDbLine
 10
0.8808078104085864
 20
-0.0000000000000009
 30
0.0
 11
1.420999999998571
 21
0.5401921895899839
 31
0.0
  0
LINE
  5
BA29
330
BA19
100
AcDbEntity
  8
0
  6
CONTINUOUS
100
AcDbLine
 10
0.0581249075061505
 20
-0.0000000000000009
 30
0.0
 11
-0.0000000000000002
 21
0.0581249075061496
 31
0.0
  0
LINE
  5
BA2A
330
BA19
100
AcDbEntity
  8
0
  6
CONTINUOUS
100
AcDbLine
 10
0.7316441165863372
 20
-0.0000000000000009
 30
0.0
 11
-0.0000000000000002
 21
0.7316441165863363
 31
0.0
  0
LINE
  5
BA2B
330
BA19
100
AcDbEntity
  8
0
  6
CONTINUOUS
100
AcDbLine
 10
1.405163325666523
 20
-0.0000000000000009
 30
0.0
 11
-0.0000000000000002
 21
1.405163325666523
 31
0.0
  0
LINE
  5
BA2C
330
BA19
100
AcDbEntity
  8
0
  6
CONTINUOUS
100
AcDbLine
 10
1.420999999998572
 20
0.6576825347481381
 30
0.0
 11
-0.0000000000000001
 21
2.07868253474671
 31
0.0
  0
LINE
  5
BA2D
330
BA19
100
AcDbEntity
  8
0
  6
CONTINUOUS
100
AcDbLine
 10
1.420999999998571
 20
1.331201743828324
 30
0.0
 11
-0.0000000000000001
 21
2.752201743826896
 31
0.0
  0
LINE
  5
BA2E
330
BA19
100
AcDbEntity
  8
0
  6
CONTINUOUS
100
AcDbLine
 10
1.420999999998571
 20
2.004720952908511
 30
0.0
 11
-0.0000000000000002
 21
3.425720952907082
 31
0.0
  0
LINE
  5
BA2F
330
BA19
100
AcDbEntity
  8
0
  6
CONTINUOUS
100
AcDbLine
 10
1.420999999998571
 20
2.678240161988697
 30
0.0
 11
-0.0000000000000001
 21
4.099240161987269
 31
0.0
  0
LINE
  5
BA30
330
BA19
100
AcDbEntity
  8
0
  6
CONTINUOUS
100
AcDbLine
 10
1.420999999998572
 20
3.351759371068884
 30
0.0
 11
0.0
 21
4.772759371067455
 31
0.0
  0
LINE
  5
BA31
330
BA19
100
AcDbEntity
  8
0
  6
CONTINUOUS
100
AcDbLine
 10
1.420999999998571
 20
4.02527858014907
 30
0.0
 11
-0.0000000000000003
 21
5.446278580147642
 31
0.0
  0
LINE
  5
BA32
330
BA19
100
AcDbEntity
  8
0
  6
CONTINUOUS
100
AcDbLine
 10
1.420999999998571
 20
4.698797789229257
 30
0.0
 11
0.0
 21
6.119797789227828
 31
0.0
  0
LINE
  5
BA33
330
BA19
100
AcDbEntity
  8
0
  6
CONTINUOUS
100
AcDbLine
 10
1.420999999998571
 20
5.372316998309444
 30
0.0
 11
-0.0000000000000001
 21
6.793316998308015
 31
0.0
  0
LINE
  5
BA34
330
BA19
100
AcDbEntity
  8
0
  6
CONTINUOUS
100
AcDbLine
 10
1.420999999998572
 20
6.045836207389629
 30
0.0
 11
-0.0000000000000004
 21
7.466836207388202
 31
0.0
  0
LINE
  5
BA35
330
BA19
100
AcDbEntity
  8
0
  6
CONTINUOUS
100
AcDbLine
 10
1.420999999998571
 20
6.719355416469816
 30
0.0
 11
0.0
 21
8.140355416468388
 31
0.0
  0
LINE
  5
BA36
330
BA19
100
AcDbEntity
  8
0
  6
CONTINUOUS
100
AcDbLine
 10
1.420999999998571
 20
7.392874625550003
 30
0.0
 11
0.0507746255573185
 21
8.763099999991255
 31
0.0
  0
LINE
  5
BA37
330
BA19
100
AcDbEntity
  8
0
  6
CONTINUOUS
100
AcDbLine
 10
1.420999999998571
 20
8.06639383463019
 30
0.0
 11
0.7242938346375052
 21
8.763099999991255
 31
0.0
  0
LINE
  5
BA38
330
BA19
100
AcDbEntity
  8
0
  6
CONTINUOUS
100
AcDbLine
 10
1.420999999998571
 20
8.739913043710375
 30
0.0
 11
1.397813043717691
 21
8.763099999991255
 31
0.0
  0
ENDBLK
  5
BA44
330
BA19
100
AcDbEntity
  8
0
100
AcDbBlockEnd
  0
ENDSEC
  0
SECTION
  2
ENTITIES
  0
LINE
  5
AF86
330
18
100
AcDbEntity
  8
01
100
AcDbLine
 10
5097.805628620114
 20
-328.1517474957459
 30
0.0
 11
5120.433914002544
 21
-328.1517474957459
 31
0.0
  0
LINE
  5
AF8B
330
18
100
AcDbEntity
  8
01
100
AcDbLine
 10
5099.933914002544
 20
-208.1517474957459
 30
0.0
 11
5099.933914002544
 21
-398.1517474957459
 31
0.0
  0
LINE
  5
AF8D
330
18
100
AcDbEntity
  8
01
100
AcDbLine
 10
5219.933914002544
 20
-328.1517474957459
 30
0.0
 11
5279.933914002544
 21
-328.1517474957459
 31
0.0
  0
LINE
  5
AF8E
330
18
100
AcDbEntity
  8
01
100
AcDbLine
 10
5249.933914002544
 20
-298.1517474957459
 30
0.0
 11
5249.933914002544
 21
-358.1517474957459
 31
0.0
  0
LINE
  5
AF8F
330
18
100
AcDbEntity
  8
01
100
AcDbLine
 10
5224.933914002544
 20
-214.6517474957459
 30
0.0
 11
5224.933914002544
 21
-391.6517474957459
 31
0.0
  0
ARC
  5
AF90
330
18
100
AcDbEntity
  8
01
100
AcDbCircle
 10
5225.433914002544
 20
-391.6517474957459
 30
0.0
 40
0.5
100
AcDbArc
 50
180.0
 51
270.0
  0
LINE
  5
AF91
330
18
100
AcDbEntity
  8
01
100
AcDbLine
 10
5274.933914002544
 20
-214.6517474957459
 30
0.0
 11
5274.933914002544
 21
-317.1512349255433
 31
0.0
  0
ARC
  5
AF92
330
18
100
AcDbEntity
  8
01
100
AcDbCircle
 10
5274.433914002544
 20
-214.6517474957459
 30
0.0
 40
0.5
100
AcDbArc
 50
0.0
 51
90.0
  0
LINE
  5
AF93
330
18
100
AcDbEntity
  8
01
100
AcDbLine
 10
5274.433914002544
 20
-392.1517474957459
 30
0.0
 11
5225.433914002544
 21
-392.1517474957459
 31
0.0
  0
ARC
  5
AF94
330
18
100
AcDbEntity
  8
01
100
AcDbCircle
 10
5274.433914002544
 20
-391.6517474957459
 30
0.0
 40
0.5
100
AcDbArc
 50
270.0
 51
0.0
  0
LINE
  5
AF95
330
18
100
AcDbEntity
  8
01
100
AcDbLine
 10
5225.433914002544
 20
-214.1517474957459
 30
0.0
 11
5274.433914002544
 21
-214.1517474957459
 31
0.0
  0
ARC
  5
AF96
330
18
100
AcDbEntity
  8
01
100
AcDbCircle
 10
5225.433914002544
 20
-214.6517474957459
 30
0.0
 40
0.5
100
AcDbArc
 50
90.0
 51
180.0
  0
LINE
  5
AF97
330
18
100
AcDbEntity
  8
01
100
AcDbLine
 10
5108.433914002544
 20
-214.6517474957459
 30
0.0
 11
5108.433914002544
 21
-391.6517474957459
 31
0.0
  0
ARC
  5
AF98
330
18
100
AcDbEntity
  8
01
100
AcDbCircle
 10
5107.933914002544
 20
-391.6517474957459
 30
0.0
 40
0.5
100
AcDbArc
 50
270.0
 51
0.0
  0
LINE
  5
AF99
330
18
100
AcDbEntity
  8
01
100
AcDbLine
 10
5099.933914002544
 20
-214.1517474957459
 30
0.0
 11
5099.933914002544
 21
-392.1517474957459
 31
0.0
  0
LINE
  5
AF9A
330
18
100
AcDbEntity
  8
01
100
AcDbLine
 10
5107.933914002544
 20
-214.1517474957459
 30
0.0
 11
5099.933914002544
 21
-214.1517474957459
 31
0.0
  0
ARC
  5
AF9B
330
18
100
AcDbEntity
  8
01
100
AcDbCircle
 10
5107.933914002544
 20
-214.6517474957459
 30
0.0
 40
0.5
100
AcDbArc
 50
0.0
 51
90.0
  0
LINE
  5
AF9C
330
18
100
AcDbEntity
  8
01
100
AcDbLine
 10
5107.933914002544
 20
-392.1517474957459
 30
0.0
 11
5099.933914002544
 21
-392.1517474957459
 31
0.0
  0
LINE
  5
AFA0
330
18
100
AcDbEntity
  8
01
100
AcDbLine
 10
5198.934798184604
 20
-93.12503714628883
 30
0.0
 11
5352.689178339637
 21
-93.12503714628883
 31
0.0
  0
LINE
  5
AFA1
330
18
100
AcDbEntity
  8
01
100
AcDbLine
 10
5224.933914002544
 20
-93.12503714628974
 30
0.0
 11
5274.933914002544
 21
-93.12503714628747
 31
0.0
  0
LINE
  5
AFA2
330
18
100
AcDbEntity
  8
01
100
AcDbLine
 10
5225.43391400254
 20
-101.6250371462897
 30
0.0
 11
5274.433914002544
 21
-101.6250371462861
 31
0.0
  0
LINE
  5
AFA3
330
18
100
AcDbEntity
  8
01
100
AcDbLine
 10
5274.933914002544
 20
-93.12503714628747
 30
0.0
 11
5274.933914002544
 21
-101.1250371462861
 31
0.0
  0
ARC
  5
AFA4
330
18
100
AcDbEntity
  8
01
100
AcDbCircle
 10
5274.433914002544
 20
-101.1250371462861
 30
0.0
 40
0.5
100
AcDbArc
 50
270.0
 51
0.0
  0
LINE
  5
AFA5
330
18
100
AcDbEntity
  8
01
100
AcDbLine
 10
5224.933914002544
 20
-93.12503714628974
 30
0.0
 11
5224.93391400254
 21
-101.1250371462893
 31
0.0
  0
ARC
  5
AFA6
330
18
100
AcDbEntity
  8
01
100
AcDbCircle
 10
5225.43391400254
 20
-101.1250371462897
 30
0.0
 40
0.5
100
AcDbArc
 50
180.0
 51
270.0
  0
TEXT
  5
AFC0
330
18
100
AcDbEntity
  8
1TEXT
100
AcDbText
 10
5099.933914002544
 20
-168.1517474957459
 30
0.0
 40
10.0
  1
J5K
 41
1.0171875
100
AcDbText
  0
LINE
  5
B281
330
18
100
AcDbEntity
  8
01
100
AcDbLine
 10
4649.933914002544
 20
51.84825250425411
 30
0.0
 11
4469.179645183809
 21
232.6025213229889
 31
0.0
  0
LINE
  5
B4A3
330
18
100
AcDbEntity
  8
01
100
AcDbLine
 10
5275.933816083273
 20
-135.4285276127231
 30
0.0
 11
5275.933816083273
 21
-156.8285275888813
 31
0.0
  0
LINE
  5
B4A4
330
18
100
AcDbEntity
  8
01
100
AcDbLine
 10
5276.233816095194
 20
-157.1285276008022
 30
0.0
 11
5275.933816083273
 21
-156.8285275888813
 31
0.0
  0
LINE
  5
B4A5
330
18
100
AcDbEntity
  8
01
100
AcDbLine
 10
5379.933816083273
 20
-136.1285276008022
 30
0.0
 11
5379.933816083273
 21
-156.1285276008022
 31
0.0
  0
LINE
  5
B4A6
330
18
100
AcDbEntity
  8
01
100
AcDbLine
 10
5276.233816095194
 20
-157.1285276008022
 30
0.0
 11
5378.933816083273
 21
-157.1285276008022
 31
0.0
  0
LINE
  5
B4A7
330
18
100
AcDbEntity
  8
01
100
AcDbLine
 10
5379.933816083273
 20
-156.1285276008022
 30
0.0
 11
5378.933816083273
 21
-157.1285276008022
 31
0.0
  0
LINE
  5
B4A8
330
18
100
AcDbEntity
  8
01
100
AcDbLine
 10
5379.933816083273
 20
-136.1285276008022
 30
0.0
 11
5378.933816083273
 21
-135.1285276008022
 31
0.0
  0
LINE
  5
B4A9
330
18
100
AcDbEntity
  8
01
100
AcDbLine
 10
5276.233816095194
 20
-135.1285276008022
 30
0.0
 11
5378.933816083273
 21
-135.1285276008022
 31
0.0
  0
LINE
  5
B4AA
330
18
100
AcDbEntity
  8
01
100
AcDbLine
 10
5276.233816095194
 20
-135.1285276008022
 30
0.0
 11
5275.933816083273
 21
-135.4285276127231
 31
0.0
  0
ARC
  5
B4AD
330
18
100
AcDbEntity
  8
01
100
AcDbCircle
 10
5249.933032039509
 20
-402.0963862294589
 30
0.0
 40
84.94460091152641
100
AcDbArc
 50
89.9878755802652
 51
98.27265283297875
  0
ARC
  5
B4AE
330
18
100
AcDbEntity
  8
01
100
AcDbCircle
 10
5237.854230569042
 20
-319.0253494529488
 30
0.0
 40
1.000012932068664
100
AcDbArc
 50
98.24212204796751
 51
174.7103039992548
  0
ARC
  5
B4AF
330
18
100
AcDbEntity
  8
01
100
AcDbCircle
 10
5336.432657710782
 20
-328.1517474956145
 30
0.0
 40
99.99999999756967
100
AcDbArc
 50
174.7106265571576
 51
180.0000000000651
  0
ARC
  5
B4B1
330
18
100
AcDbEntity
  8
01
100
AcDbCircle
 10
5249.933397314882
 20
-254.2033012054644
 30
0.0
 40
84.94842140630374
100
AcDbArc
 50
261.7274728703495
 51
269.8950466629126
  0
ARC
  5
B4B2
330
18
100
AcDbEntity
  8
01
100
AcDbCircle
 10
5237.854230569042
 20
-337.278145538543
 30
0.0
 40
1.000012932068664
100
AcDbArc
 50
185.2896960007452
 51
261.7578779520325
  0
ARC
  5
B4B3
330
18
100
AcDbEntity
  8
01
100
AcDbCircle
 10
5336.432657710782
 20
-328.1517474958773
 30
0.0
 40
99.99999999756967
100
AcDbArc
 50
179.9999999999349
 51
185.2893734428423
  0
ARC
  5
B4B7
330
18
100
AcDbEntity
  8
01
100
AcDbCircle
 10
5237.853777112691
 20
-319.0259990197796
 30
0.0
 40
1.001052064613086
100
AcDbArc
 50
98.2078953895582
 51
174.6010656829207
  0
LINE
  5
B4B8
330
18
100
AcDbEntity
  8
01
100
AcDbLine
 10
5275.633914175445
 20
-317.1513644442225
 30
0.0
 11
5275.933914002552
 21
-317.4517470110095
 31
0.0
  0
ARC
  5
B4B9
330
18
100
AcDbEntity
  8
01
100
AcDbCircle
 10
5237.853777112691
 20
-337.2774959717121
 30
0.0
 40
1.001052064613086
100
AcDbArc
 50
185.3989343170793
 51
261.7921046104418
  0
LINE
  5
B4BA
330
18
100
AcDbEntity
  8
01
100
AcDbLine
 10
5275.633914175445
 20
-339.1521305472693
 30
0.0
 11
5275.933914002552
 21
-338.8517479804823
 31
0.0
  0
LINE
  5
B4BB
330
18
100
AcDbEntity
  8
01
100
AcDbLine
 10
5275.933816083273
 20
-137.3606077896713
 30
0.0
 11
5275.933816083273
 21
-156.8184938553422
 31
0.0
  0
LINE
  5
B4BC
330
18
100
AcDbEntity
  8
1DIM
100
AcDbLine
 10
5275.633816043325
 20
-157.1182998112355
 30
0.0
 11
5275.933816083273
 21
-156.8184938553422
 31
0.0
  0
LINE
  5
B4BE
330
18
100
AcDbEntity
  8
01
100
AcDbLine
 10
5275.933816083273
 20
-156.8249776510812
 30
0.0
 11
5275.933816083273
 21
-156.8184784323959
 31
0.0
  0
LINE
  5
B4BF
330
18
100
AcDbEntity
  8
1DIM
100
AcDbLine
 10
5275.633816074303
 20
-157.1249335930682
 30
0.0
 11
5275.633816071647
 21
-157.1182996023086
 31
0.0
  0
LINE
  5
B4C0
330
18
100
AcDbEntity
  8
01
100
AcDbLine
 10
5275.933816083273
 20
-156.8250221135449
 30
0.0
 11
5275.633816074019
 21
-157.1249821291662
 31
0.0
  0
LINE
  5
B4C1
330
18
100
AcDbEntity
  8
01
100
AcDbLine
 10
5275.633895840499
 20
-135.1320699784877
 30
0.0
 11
5275.933816083273
 21
-135.4250961362488
 31
0.0
  0
ARC
  5
B4C6
330
18
100
AcDbEntity
  8
01
100
AcDbCircle
 10
5151.479956866508
 20
-328.1587134517254
 30
0.0
 40
11.45391812263481
100
AcDbArc
 50
0.0348375833099646
 51
1.957588514517256
  0
ARC
  5
B4C8
330
18
100
AcDbEntity
  8
01
100
AcDbCircle
 10
5151.479956866532
 20
-328.1447847887325
 30
0.0
 40
11.45391812261128
100
AcDbArc
 50
358.0424114854827
 51
359.96516241669
  0
LINE
  5
B4CE
330
18
100
AcDbEntity
  8
01
100
AcDbLine
 10
5107.933917495683
 20
-339.1517483126149
 30
0.0
 11
5110.03434520951
 21
-339.1518490828435
 31
0.0
  0
LINE
  5
B4D2
330
18
100
AcDbEntity
  8
01
100
AcDbLine
 10
5249.933032039509
 20
-317.1517853179325
 30
0.0
 11
5250.237649735581
 21
-317.1499870132207
 31
0.0
  0
LINE
  5
B4D3
330
18
100
AcDbEntity
  8
01
100
AcDbLine
 10
5249.777790472729
 20
-339.1515800928771
 30
0.0
 11
5250.237649735581
 21
-339.153507978534
 31
0.0
  0
LINE
  5
B4D4
330
18
100
AcDbEntity
  8
01
100
AcDbLine
 10
5275.933914002552
 20
-317.4517475076668
 30
0.0
 11
5275.933914002552
 21
-338.851747483825
 31
0.0
  0
LINE
  5
B4D5
330
18
100
AcDbEntity
  8
01
100
AcDbLine
 10
5276.233914014473
 20
-339.1517474957459
 30
0.0
 11
5275.933914002552
 21
-338.851747483825
 31
0.0
  0
LINE
  5
B4D6
330
18
100
AcDbEntity
  8
01
100
AcDbLine
 10
5379.933914002552
 20
-318.1517474957459
 30
0.0
 11
5379.933914002552
 21
-338.1517474957459
 31
0.0
  0
LINE
  5
B4D7
330
18
100
AcDbEntity
  8
01
100
AcDbLine
 10
5276.233914014473
 20
-339.1517474957459
 30
0.0
 11
5378.933914002552
 21
-339.1517474957459
 31
0.0
  0
LINE
  5
B4D8
330
18
100
AcDbEntity
  8
01
100
AcDbLine
 10
5379.933914002552
 20
-338.1517474957459
 30
0.0
 11
5378.933914002552
 21
-339.1517474957459
 31
0.0
  0
LINE
  5
B4D9
330
18
100
AcDbEntity
  8
01
100
AcDbLine
 10
5379.933914002552
 20
-318.1517474957459
 30
0.0
 11
5378.933914002552
 21
-317.1517474957459
 31
0.0
  0
LINE
  5
B4DA
330
18
100
AcDbEntity
  8
01
100
AcDbLine
 10
5276.233914014473
 20
-317.1517474957459
 30
0.0
 11
5378.933914002552
 21
-317.1517474957459
 31
0.0
  0
LINE
  5
B4DB
330
18
100
AcDbEntity
  8
01
100
AcDbLine
 10
5276.233914014473
 20
-317.1517474957459
 30
0.0
 11
5275.933914002552
 21
-317.4517475076668
 31
0.0
  0
LINE
  5
B4DC
330
18
100
AcDbEntity
  8
1CENTER
100
AcDbLine
 10
5249.933914002543
 20
-81.1517474957459
 30
0.0
 11
5249.933914002544
 21
-105.6517474957458
 31
0.0
  0
LINE
  5
B598
330
18
100
AcDbEntity
  8
01
100
AcDbLine
 10
5274.933914002544
 20
-339.1522600662113
 30
0.0
 11
5274.933914002544
 21
-391.6517474957459
 31
0.0
  0
LINE
  5
B66D
330
18
100
AcDbEntity
  8
01
100
AcDbLine
 10
5275.933915909897
 20
-317.4517486401551
 30
0.0
 11
5275.933915909897
 21
-317.5257690258973
 31
0.0
  0
LINE
  5
B66E
330
18
100
AcDbEntity
  8
01
100
AcDbLine
 10
5275.933915909897
 20
-317.5257690258973
 30
0.0
 11
5275.933915909897
 21
-317.7470596142762
 31
0.0
  0
LINE
  5
B66F
330
18
100
AcDbEntity
  8
01
100
AcDbLine
 10
5275.933915909897
 20
-317.7470596142762
 30
0.0
 11
5275.933915909897
 21
-318.1123855420105
 31
0.0
  0
LINE
  5
B670
330
18
100
AcDbEntity
  8
01
100
AcDbLine
 10
5275.933915909897
 20
-318.1123855420105
 30
0.0
 11
5275.933915909897
 21
-318.6167190381043
 31
0.0
  0
LINE
  5
B671
330
18
100
AcDbEntity
  8
01
100
AcDbLine
 10
5275.933915909897
 20
-318.6167190381043
 30
0.0
 11
5275.933915909897
 21
-319.253361494159
 31
0.0
  0
LINE
  5
B672
330
18
100
AcDbEntity
  8
01
100
AcDbLine
 10
5275.933915909897
 20
-319.253361494159
 30
0.0
 11
5275.933915909897
 21
-320.0134857007019
 31
0.0
  0
LINE
  5
B673
330
18
100
AcDbEntity
  8
01
100
AcDbLine
 10
5275.933915909897
 20
-320.0134857007019
 30
0.0
 11
5275.933915909897
 21
-320.8864486523621
 31
0.0
  0
LINE
  5
B674
330
18
100
AcDbEntity
  8
01
100
AcDbLine
 10
5275.933915909897
 20
-320.8864486523621
 30
0.0
 11
5275.933915909897
 21
-321.860050947284
 31
0.0
  0
LINE
  5
B675
330
18
100
AcDbEntity
  8
01
100
AcDbLine
 10
5275.933915909897
 20
-321.860050947284
 30
0.0
 11
5275.933915909897
 21
-322.9207961865418
 31
0.0
  0
LINE
  5
B676
330
18
100
AcDbEntity
  8
01
100
AcDbLine
 10
5275.933915909897
 20
-322.9207961865418
 30
0.0
 11
5275.933915909897
 21
-324.0540511914246
 31
0.0
  0
LINE
  5
B677
330
18
100
AcDbEntity
  8
01
100
AcDbLine
 10
5275.933915909897
 20
-324.0540511914246
 30
0.0
 11
5275.933915909897
 21
-325.2441070385926
 31
0.0
  0
LINE
  5
B678
330
18
100
AcDbEntity
  8
01
100
AcDbLine
 10
5275.933915909897
 20
-325.2441070385926
 30
0.0
 11
5275.933915909897
 21
-326.4744308300965
 31
0.0
  0
LINE
  5
B679
330
18
100
AcDbEntity
  8
01
100
AcDbLine
 10
5275.933915909897
 20
-326.4744308300965
 30
0.0
 11
5275.933915909897
 21
-327.7778671093934
 31
0.0
  0
LINE
  5
B67A
330
18
100
AcDbEntity
  8
01
100
AcDbLine
 10
5270.933914002552
 20
-327.7407529943287
 30
0.0
 11
5269.102525529038
 21
-327.7208831616394
 31
0.0
  0
LINE
  5
B67B
330
18
100
AcDbEntity
  8
01
100
AcDbLine
 10
5269.102525529038
 20
-327.7208831616394
 30
0.0
 11
5266.910508927475
 21
-327.6737945385926
 31
0.0
  0
LINE
  5
B67C
330
18
100
AcDbEntity
  8
01
100
AcDbLine
 10
5266.910508927475
 20
-327.6737945385926
 30
0.0
 11
5264.714494523178
 21
-327.593823225116
 31
0.0
  0
LINE
  5
B67D
330
18
100
AcDbEntity
  8
01
100
AcDbLine
 10
5264.714494523178
 20
-327.593823225116
 30
0.0
 11
5262.520555314194
 21
-327.4732711621277
 31
0.0
  0
LINE
  5
B67E
330
18
100
AcDbEntity
  8
01
100
AcDbLine
 10
5262.520555314194
 20
-327.4732711621277
 30
0.0
 11
5260.340944108139
 21
-327.3038680859559
 31
0.0
  0
LINE
  5
B67F
330
18
100
AcDbEntity
  8
01
100
AcDbLine
 10
5260.340944108139
 20
-327.3038680859559
 30
0.0
 11
5258.194917496811
 21
-327.0763366528504
 31
0.0
  0
LINE
  5
B680
330
18
100
AcDbEntity
  8
01
100
AcDbLine
 10
5258.194917496811
 20
-327.0763366528504
 30
0.0
 11
5256.109300431382
 21
-326.7858016797059
 31
0.0
  0
LINE
  5
B681
330
18
100
AcDbEntity
  8
01
100
AcDbLine
 10
5256.109300431382
 20
-326.7858016797059
 30
0.0
 11
5254.115754899155
 21
-326.4328277417176
 31
0.0
  0
LINE
  5
B682
330
18
100
AcDbEntity
  8
01
100
AcDbLine
 10
5254.115754899155
 20
-326.4328277417176
 30
0.0
 11
5252.244569596421
 21
-326.0236862011902
 31
0.0
  0
LINE
  5
B683
330
18
100
AcDbEntity
  8
01
100
AcDbLine
 10
5252.244569596421
 20
-326.0236862011902
 30
0.0
 11
5250.518060502182
 21
-325.569294721698
 31
0.0
  0
LINE
  5
B684
330
18
100
AcDbEntity
  8
01
100
AcDbLine
 10
5250.518060502182
 20
-325.569294721698
 30
0.0
 11
5248.947343644272
 21
-325.082348615741
 31
0.0
  0
LINE
  5
B685
330
18
100
AcDbEntity
  8
01
100
AcDbLine
 10
5248.947343644272
 20
-325.082348615741
 30
0.0
 11
5247.531129655014
 21
-324.5751464673035
 31
0.0
  0
LINE
  5
B686
330
18
100
AcDbEntity
  8
01
100
AcDbLine
 10
5247.531129655014
 20
-324.5751464673035
 30
0.0
 11
5246.262956437241
 21
-324.0588119336121
 31
0.0
  0
LINE
  5
B687
330
18
100
AcDbEntity
  8
01
100
AcDbLine
 10
5246.262956437241
 20
-324.0588119336121
 30
0.0
 11
5245.130670365464
 21
-323.542065412616
 31
0.0
  0
LINE
  5
B688
330
18
100
AcDbEntity
  8
01
100
AcDbLine
 10
5245.130670365464
 20
-323.542065412616
 30
0.0
 11
5244.121377762925
 21
-323.031697065448
 31
0.0
  0
LINE
  5
B689
330
18
100
AcDbEntity
  8
01
100
AcDbLine
 10
5244.121377762925
 20
-323.031697065448
 30
0.0
 11
5243.222467240464
 21
-322.5329559155457
 31
0.0
  0
LINE
  5
B68A
330
18
100
AcDbEntity
  8
01
100
AcDbLine
 10
5243.222467240464
 20
-322.5329559155457
 30
0.0
 11
5242.422479447495
 21
-322.0499618359559
 31
0.0
  0
LINE
  5
B68B
330
18
100
AcDbEntity
  8
01
100
AcDbLine
 10
5242.422479447495
 20
-322.0499618359559
 30
0.0
 11
5241.711038407456
 21
-321.5860412426941
 31
0.0
  0
LINE
  5
B68C
330
18
100
AcDbEntity
  8
01
100
AcDbLine
 10
5241.711038407456
 20
-321.5860412426941
 30
0.0
 11
5241.079095658432
 21
-321.1437270947449
 31
0.0
  0
LINE
  5
B68D
330
18
100
AcDbEntity
  8
01
100
AcDbLine
 10
5241.079095658432
 20
-321.1437270947449
 30
0.0
 11
5240.519067582261
 21
-320.725056440448
 31
0.0
  0
LINE
  5
B68E
330
18
100
AcDbEntity
  8
01
100
AcDbLine
 10
5240.519067582261
 20
-320.725056440448
 30
0.0
 11
5240.024392899643
 21
-320.3317916699402
 31
0.0
  0
LINE
  5
B68F
330
18
100
AcDbEntity
  8
01
100
AcDbLine
 10
5240.024392899643
 20
-320.3317916699402
 30
0.0
 11
5239.589364823471
 21
-319.9655044384949
 31
0.0
  0
LINE
  5
B690
330
18
100
AcDbEntity
  8
01
100
AcDbLine
 10
5239.589364823471
 20
-319.9655044384949
 30
0.0
 11
5239.209276017319
 21
-319.6276748486512
 31
0.0
  0
LINE
  5
B691
330
18
100
AcDbEntity
  8
01
100
AcDbLine
 10
5239.209276017319
 20
-319.6276748486512
 30
0.0
 11
5238.880555924546
 21
-319.3196990796082
 31
0.0
  0
LINE
  5
B692
330
18
100
AcDbEntity
  8
01
100
AcDbLine
 10
5238.880555924546
 20
-319.3196990796082
 30
0.0
 11
5238.599710282456
 21
-319.0429427929871
 31
0.0
  0
LINE
  5
B693
330
18
100
AcDbEntity
  8
01
100
AcDbLine
 10
5238.599710282456
 20
-319.0429427929871
 30
0.0
 11
5238.363374528061
 21
-318.7987563916199
 31
0.0
  0
LINE
  5
B694
330
18
100
AcDbEntity
  8
01
100
AcDbLine
 10
5238.363374528061
 20
-318.7987563916199
 30
0.0
 11
5238.168832596909
 21
-318.5882308789246
 31
0.0
  0
LINE
  5
B695
330
18
100
AcDbEntity
  8
01
100
AcDbLine
 10
5238.168832596909
 20
-318.5882308789246
 30
0.0
 11
5238.013582047593
 21
-318.4124114819519
 31
0.0
  0
LINE
  5
B696
330
18
100
AcDbEntity
  8
01
100
AcDbLine
 10
5238.013582047593
 20
-318.4124114819519
 30
0.0
 11
5237.895089921128
 21
-318.2722671338074
 31
0.0
  0
LINE
  5
B697
330
18
100
AcDbEntity
  8
01
100
AcDbLine
 10
5237.895089921128
 20
-318.2722671338074
 30
0.0
 11
5237.810151871811
 21
-318.1673782177918
 31
0.0
  0
LINE
  5
B698
330
18
100
AcDbEntity
  8
01
100
AcDbLine
 10
5237.810151871811
 20
-318.1673782177918
 30
0.0
 11
5237.754792985093
 21
-318.0957687207215
 31
0.0
  0
LINE
  5
B699
330
18
100
AcDbEntity
  8
01
100
AcDbLine
 10
5237.754792985093
 20
-318.0957687207215
 30
0.0
 11
5237.724672135483
 21
-318.0548675366394
 31
0.0
  0
LINE
  5
B69A
330
18
100
AcDbEntity
  8
01
100
AcDbLine
 10
5237.724672135483
 20
-318.0548675366394
 30
0.0
 11
5237.713098343979
 21
-318.0384872265809
 31
0.0
  0
LINE
  5
B69B
330
18
100
AcDbEntity
  8
01
100
AcDbLine
 10
5237.713098343979
 20
-318.0384872265809
 30
0.0
 11
5237.710870560776
 21
-318.0356719799988
 31
0.0
  0
LINE
  5
B69C
330
18
100
AcDbEntity
  8
01
100
AcDbLine
 10
5275.933915909897
 20
-338.851750166034
 30
0.0
 11
5275.933915909897
 21
-338.7777297802918
 31
0.0
  0
LINE
  5
B69D
330
18
100
AcDbEntity
  8
01
100
AcDbLine
 10
5275.933915909897
 20
-338.7777297802918
 30
0.0
 11
5275.933915909897
 21
-338.5564315625184
 31
0.0
  0
LINE
  5
B69E
330
18
100
AcDbEntity
  8
01
100
AcDbLine
 10
5275.933915909897
 20
-338.5564315625184
 30
0.0
 11
5275.933915909897
 21
-338.191105634784
 31
0.0
  0
LINE
  5
B69F
330
18
100
AcDbEntity
  8
01
100
AcDbLine
 10
5275.933915909897
 20
-338.191105634784
 30
0.0
 11
5275.933915909897
 21
-337.6867721386902
 31
0.0
  0
LINE
  5
B6A0
330
18
100
AcDbEntity
  8
01
100
AcDbLine
 10
5275.933915909897
 20
-337.6867721386902
 30
0.0
 11
5275.933915909897
 21
-337.0501373120301
 31
0.0
  0
LINE
  5
B6A1
330
18
100
AcDbEntity
  8
01
100
AcDbLine
 10
5275.933915909897
 20
-337.0501373120301
 30
0.0
 11
5275.933915909897
 21
-336.2900131054871
 31
0.0
  0
LINE
  5
B6A2
330
18
100
AcDbEntity
  8
01
100
AcDbLine
 10
5275.933915909897
 20
-336.2900131054871
 30
0.0
 11
5275.933915909897
 21
-335.4170501538269
 31
0.0
  0
LINE
  5
B6A3
330
18
100
AcDbEntity
  8
01
100
AcDbLine
 10
5275.933915909897
 20
-335.4170501538269
 30
0.0
 11
5275.933915909897
 21
-334.4434402295105
 31
0.0
  0
LINE
  5
B6A4
330
18
100
AcDbEntity
  8
01
100
AcDbLine
 10
5275.933915909897
 20
-334.4434402295105
 30
0.0
 11
5275.933915909897
 21
-333.3826949902527
 31
0.0
  0
LINE
  5
B6A5
330
18
100
AcDbEntity
  8
01
100
AcDbLine
 10
5275.933915909897
 20
-333.3826949902527
 30
0.0
 11
5275.933915909897
 21
-332.2494476147644
 31
0.0
  0
LINE
  5
B6A6
330
18
100
AcDbEntity
  8
01
100
AcDbLine
 10
5275.933915909897
 20
-332.2494476147644
 30
0.0
 11
5275.933915909897
 21
-331.0593841382019
 31
0.0
  0
LINE
  5
B6A7
330
18
100
AcDbEntity
  8
01
100
AcDbLine
 10
5275.933915909897
 20
-331.0593841382019
 30
0.0
 11
5275.933915909897
 21
-329.8290679760926
 31
0.0
  0
LINE
  5
B6A8
330
18
100
AcDbEntity
  8
01
100
AcDbLine
 10
5275.933915909897
 20
-329.8290679760926
 30
0.0
 11
5275.933915909897
 21
-328.5256316967957
 31
0.0
  0
LINE
  5
B6A9
330
18
100
AcDbEntity
  8
01
100
AcDbLine
 10
5270.933914002552
 20
-328.5627445776486
 30
0.0
 11
5269.102525529038
 21
-328.5826080151551
 31
0.0
  0
LINE
  5
B6AA
330
18
100
AcDbEntity
  8
01
100
AcDbLine
 10
5269.102525529038
 20
-328.5826080151551
 30
0.0
 11
5266.910508927475
 21
-328.6297042675965
 31
0.0
  0
LINE
  5
B6AB
330
18
100
AcDbEntity
  8
01
100
AcDbLine
 10
5266.910508927475
 20
-328.6297042675965
 30
0.0
 11
5264.714494523178
 21
-328.709675581073
 31
0.0
  0
LINE
  5
B6AC
330
18
100
AcDbEntity
  8
01
100
AcDbLine
 10
5264.714494523178
 20
-328.709675581073
 30
0.0
 11
5262.520555314194
 21
-328.8302200146668
 31
0.0
  0
LINE
  5
B6AD
330
18
100
AcDbEntity
  8
01
100
AcDbLine
 10
5262.520555314194
 20
-328.8302200146668
 30
0.0
 11
5260.340944108139
 21
-328.9996230908387
 31
0.0
  0
LINE
  5
B6AE
330
18
100
AcDbEntity
  8
01
100
AcDbLine
 10
5260.340944108139
 20
-328.9996230908387
 30
0.0
 11
5258.194917496811
 21
-329.2271545239441
 31
0.0
  0
LINE
  5
B6AF
330
18
100
AcDbEntity
  8
01
100
AcDbLine
 10
5258.194917496811
 20
-329.2271545239441
 30
0.0
 11
5256.109300431382
 21
-329.5176971264832
 31
0.0
  0
LINE
  5
B6B0
330
18
100
AcDbEntity
  8
01
100
AcDbLine
 10
5256.109300431382
 20
-329.5176971264832
 30
0.0
 11
5254.115754899155
 21
-329.8706634350769
 31
0.0
  0
LINE
  5
B6B1
330
18
100
AcDbEntity
  8
01
100
AcDbLine
 10
5254.115754899155
 20
-329.8706634350769
 30
0.0
 11
5252.244569596421
 21
-330.2798126049988
 31
0.0
  0
LINE
  5
B6B2
330
18
100
AcDbEntity
  8
01
100
AcDbLine
 10
5252.244569596421
 20
-330.2798126049988
 30
0.0
 11
5250.518060502182
 21
-330.7341964550965
 31
0.0
  0
LINE
  5
B6B3
330
18
100
AcDbEntity
  8
01
100
AcDbLine
 10
5250.518060502182
 20
-330.7341964550965
 30
0.0
 11
5248.947343644272
 21
-331.2211425610535
 31
0.0
  0
LINE
  5
B6B4
330
18
100
AcDbEntity
  8
01
100
AcDbLine
 10
5248.947343644272
 20
-331.2211425610535
 30
0.0
 11
5247.531129655014
 21
-331.7283523388855
 31
0.0
  0
LINE
  5
B6B5
330
18
100
AcDbEntity
  8
01
100
AcDbLine
 10
5247.531129655014
 20
-331.7283523388855
 30
0.0
 11
5246.262956437241
 21
-332.2446792431824
 31
0.0
  0
LINE
  5
B6B6
330
18
100
AcDbEntity
  8
01
100
AcDbLine
 10
5246.262956437241
 20
-332.2446792431824
 30
0.0
 11
5245.130670365464
 21
-332.761433393573
 31
0.0
  0
LINE
  5
B6B7
330
18
100
AcDbEntity
  8
01
100
AcDbLine
 10
5245.130670365464
 20
-332.761433393573
 30
0.0
 11
5244.121377762925
 21
-333.271801740741
 31
0.0
  0
LINE
  5
B6B8
330
18
100
AcDbEntity
  8
01
100
AcDbLine
 10
5244.121377762925
 20
-333.271801740741
 30
0.0
 11
5243.222467240464
 21
-333.7705352612488
 31
0.0
  0
LINE
  5
B6B9
330
18
100
AcDbEntity
  8
01
100
AcDbLine
 10
5243.222467240464
 20
-333.7705352612488
 30
0.0
 11
5242.422479447495
 21
-334.2535293408387
 31
0.0
  0
LINE
  5
B6BA
330
18
100
AcDbEntity
  8
01
100
AcDbLine
 10
5242.422479447495
 20
-334.2535293408387
 30
0.0
 11
5241.711038407456
 21
-334.7174499341004
 31
0.0
  0
LINE
  5
B6BB
330
18
100
AcDbEntity
  8
01
100
AcDbLine
 10
5241.711038407456
 20
-334.7174499341004
 30
0.0
 11
5241.079095658432
 21
-335.1597717114441
 31
0.0
  0
LINE
  5
B6BC
330
18
100
AcDbEntity
  8
01
100
AcDbLine
 10
5241.079095658432
 20
-335.1597717114441
 30
0.0
 11
5240.519067582261
 21
-335.578442365741
 31
0.0
  0
LINE
  5
B6BD
330
18
100
AcDbEntity
  8
01
100
AcDbLine
 10
5240.519067582261
 20
-335.578442365741
 30
0.0
 11
5240.024392899643
 21
-335.9717071362488
 31
0.0
  0
LINE
  5
B6BE
330
18
100
AcDbEntity
  8
01
100
AcDbLine
 10
5240.024392899643
 20
-335.9717071362488
 30
0.0
 11
5239.589364823471
 21
-336.3379867382996
 31
0.0
  0
LINE
  5
B6BF
330
18
100
AcDbEntity
  8
01
100
AcDbLine
 10
5239.589364823471
 20
-336.3379867382996
 30
0.0
 11
5239.209276017319
 21
-336.6758163281434
 31
0.0
  0
LINE
  5
B6C0
330
18
100
AcDbEntity
  8
01
100
AcDbLine
 10
5239.209276017319
 20
-336.6758163281434
 30
0.0
 11
5238.880555924546
 21
-336.9837997265809
 31
0.0
  0
LINE
  5
B6C1
330
18
100
AcDbEntity
  8
01
100
AcDbLine
 10
5238.880555924546
 20
-336.9837997265809
 30
0.0
 11
5238.599710282456
 21
-337.2605483838074
 31
0.0
  0
LINE
  5
B6C2
330
18
100
AcDbEntity
  8
01
100
AcDbLine
 10
5238.599710282456
 20
-337.2605483838074
 30
0.0
 11
5238.363374528061
 21
-337.5047424145691
 31
0.0
  0
LINE
  5
B6C3
330
18
100
AcDbEntity
  8
01
100
AcDbLine
 10
5238.363374528061
 20
-337.5047424145691
 30
0.0
 11
5238.168832596909
 21
-337.7152602978699
 31
0.0
  0
LINE
  5
B6C4
330
18
100
AcDbEntity
  8
01
100
AcDbLine
 10
5238.168832596909
 20
-337.7152602978699
 30
0.0
 11
5238.013582047593
 21
-337.8910873242371
 31
0.0
  0
LINE
  5
B6C5
330
18
100
AcDbEntity
  8
01
100
AcDbLine
 10
5238.013582047593
 20
-337.8910873242371
 30
0.0
 11
5237.895089921128
 21
-338.0312316723816
 31
0.0
  0
LINE
  5
B6C6
330
18
100
AcDbEntity
  8
01
100
AcDbLine
 10
5237.895089921128
 20
-338.0312316723816
 30
0.0
 11
5237.810151871811
 21
-338.1361129590027
 31
0.0
  0
LINE
  5
B6C7
330
18
100
AcDbEntity
  8
01
100
AcDbLine
 10
5237.810151871811
 20
-338.1361129590027
 30
0.0
 11
5237.754792985093
 21
-338.2077300854676
 31
0.0
  0
LINE
  5
B6C8
330
18
100
AcDbEntity
  8
01
100
AcDbLine
 10
5237.754792985093
 20
-338.2077300854676
 30
0.0
 11
5237.724672135483
 21
-338.2486236401551
 31
0.0
  0
LINE
  5
B6C9
330
18
100
AcDbEntity
  8
01
100
AcDbLine
 10
5237.724672135483
 20
-338.2486236401551
 30
0.0
 11
5237.713098343979
 21
-338.2650115796082
 31
0.0
  0
LINE
  5
B6CA
330
18
100
AcDbEntity
  8
01
100
AcDbLine
 10
5237.713098343979
 20
-338.2650115796082
 30
0.0
 11
5237.710870560776
 21
-338.2678268261902
 31
0.0
  0
LINE
  5
B6CB
330
18
100
AcDbEntity
  8
01
100
AcDbLine
 10
5246.555467423569
 20
-339.0687072583191
 30
0.0
 11
5246.562593278061
 21
-339.0682571240418
 31
0.0
  0
LINE
  5
B6CC
330
18
100
AcDbEntity
  8
01
100
AcDbLine
 10
5275.633912858139
 20
-339.1521270581238
 30
0.0
 11
5273.987672623764
 21
-339.1524398632996
 31
0.0
  0
LINE
  5
B6CD
330
18
100
AcDbEntity
  8
01
100
AcDbLine
 10
5273.987672623764
 20
-339.1524398632996
 30
0.0
 11
5272.343934830796
 21
-339.1520889111512
 31
0.0
  0
LINE
  5
B6CE
330
18
100
AcDbEntity
  8
01
100
AcDbLine
 10
5272.343934830796
 20
-339.1520889111512
 30
0.0
 11
5270.708650406968
 21
-339.154011518573
 31
0.0
  0
LINE
  5
B6CF
330
18
100
AcDbEntity
  8
01
100
AcDbLine
 10
5270.708650406968
 20
-339.154011518573
 30
0.0
 11
5269.098436173569
 21
-339.1601913281434
 31
0.0
  0
LINE
  5
B6D0
330
18
100
AcDbEntity
  8
01
100
AcDbLine
 10
5269.098436173569
 20
-339.1601913281434
 30
0.0
 11
5267.543550309311
 21
-339.1752059765809
 31
0.0
  0
LINE
  5
B6D1
330
18
100
AcDbEntity
  8
01
100
AcDbLine
 10
5267.543550309311
 20
-339.1752059765809
 30
0.0
 11
5266.074586686264
 21
-339.2027557202332
 31
0.0
  0
LINE
  5
B6D2
330
18
100
AcDbEntity
  8
01
100
AcDbLine
 10
5266.074586686264
 20
-339.2027557202332
 30
0.0
 11
5264.7007921306
 21
-339.240551740741
 31
0.0
  0
LINE
  5
B6D3
330
18
100
AcDbEntity
  8
01
100
AcDbLine
 10
5264.7007921306
 20
-339.240551740741
 30
0.0
 11
5263.413011368882
 21
-339.2819183178894
 31
0.0
  0
LINE
  5
B6D4
330
18
100
AcDbEntity
  8
01
100
AcDbLine
 10
5263.413011368882
 20
-339.2819183178894
 30
0.0
 11
5262.206804093491
 21
-339.3189971753113
 31
0.0
  0
LINE
  5
B6D5
330
18
100
AcDbEntity
  8
01
100
AcDbLine
 10
5262.206804093491
 20
-339.3189971753113
 30
0.0
 11
5261.088792618882
 21
-339.3471648999207
 31
0.0
  0
LINE
  5
B6D6
330
18
100
AcDbEntity
  8
01
100
AcDbLine
 10
5261.088792618882
 20
-339.3471648999207
 30
0.0
 11
5260.055833634507
 21
-339.3655364819519
 31
0.0
  0
LINE
  5
B6D7
330
18
100
AcDbEntity
  8
01
100
AcDbLine
 10
5260.055833634507
 20
-339.3655364819519
 30
0.0
 11
5259.100618180405
 21
-339.3745773144715
 31
0.0
  0
LINE
  5
B6D8
330
18
100
AcDbEntity
  8
01
100
AcDbLine
 10
5259.100618180405
 20
-339.3745773144715
 30
0.0
 11
5258.218904313218
 21
-339.3752487011902
 31
0.0
  0
LINE
  5
B6D9
330
18
100
AcDbEntity
  8
01
100
AcDbLine
 10
5258.218904313218
 20
-339.3752487011902
 30
0.0
 11
5257.402986344468
 21
-339.3690307446473
 31
0.0
  0
LINE
  5
B6DA
330
18
100
AcDbEntity
  8
01
100
AcDbLine
 10
5257.402986344468
 20
-339.3690307446473
 30
0.0
 11
5256.639711197983
 21
-339.3573272534363
 31
0.0
  0
LINE
  5
B6DB
330
18
100
AcDbEntity
  8
01
100
AcDbLine
 10
5256.639711197983
 20
-339.3573272534363
 30
0.0
 11
5255.917466935288
 21
-339.3411910840027
 31
0.0
  0
LINE
  5
B6DC
330
18
100
AcDbEntity
  8
01
100
AcDbLine
 10
5255.917466935288
 20
-339.3411910840027
 30
0.0
 11
5255.231797989975
 21
-339.3216293164246
 31
0.0
  0
LINE
  5
B6DD
330
18
100
AcDbEntity
  8
01
100
AcDbLine
 10
5255.231797989975
 20
-339.3216293164246
 30
0.0
 11
5254.579469498764
 21
-339.2997024365418
 31
0.0
  0
LINE
  5
B6DE
330
18
100
AcDbEntity
  8
01
100
AcDbLine
 10
5254.579469498764
 20
-339.2997024365418
 30
0.0
 11
5253.955873307358
 21
-339.2763870068543
 31
0.0
  0
LINE
  5
B6DF
330
18
100
AcDbEntity
  8
01
100
AcDbLine
 10
5253.955873307358
 20
-339.2763870068543
 30
0.0
 11
5253.371385392319
 21
-339.253117353534
 31
0.0
  0
LINE
  5
B6E0
330
18
100
AcDbEntity
  8
01
100
AcDbLine
 10
5253.371385392319
 20
-339.253117353534
 30
0.0
 11
5252.842317399155
 21
-339.2317397900574
 31
0.0
  0
LINE
  5
B6E1
330
18
100
AcDbEntity
  8
01
100
AcDbLine
 10
5252.842317399155
 20
-339.2317397900574
 30
0.0
 11
5252.352601822983
 21
-339.2125442334168
 31
0.0
  0
LINE
  5
B6E2
330
18
100
AcDbEntity
  8
01
100
AcDbLine
 10
5252.352601822983
 20
-339.2125442334168
 30
0.0
 11
5251.892091569077
 21
-339.1954543896668
 31
0.0
  0
LINE
  5
B6E3
330
18
100
AcDbEntity
  8
01
100
AcDbLine
 10
5251.892091569077
 20
-339.1954543896668
 30
0.0
 11
5251.492662247788
 21
-339.1818130322449
 31
0.0
  0
LINE
  5
B6E4
330
18
100
AcDbEntity
  8
01
100
AcDbLine
 10
5251.492662247788
 20
-339.1818130322449
 30
0.0
 11
5251.177743729721
 21
-339.1724136181824
 31
0.0
  0
LINE
  5
B6E5
330
18
100
AcDbEntity
  8
01
100
AcDbLine
 10
5251.177743729721
 20
-339.1724136181824
 30
0.0
 11
5250.873384293686
 21
-339.1648376294129
 31
0.0
  0
LINE
  5
B6E6
330
18
100
AcDbEntity
  8
01
100
AcDbLine
 10
5250.873384293686
 20
-339.1648376294129
 30
0.0
 11
5250.579095658432
 21
-339.1586959668152
 31
0.0
  0
LINE
  5
B6E7
330
18
100
AcDbEntity
  8
01
100
AcDbLine
 10
5250.579095658432
 20
-339.1586959668152
 30
0.0
 11
5250.366906937729
 21
-339.1550872632019
 31
0.0
  0
LINE
  5
B6E8
330
18
100
AcDbEntity
  8
01
100
AcDbLine
 10
5250.366906937729
 20
-339.1550872632019
 30
0.0
 11
5250.237649735581
 21
-339.153507978534
 31
0.0
  0
LINE
  5
B6E9
330
18
100
AcDbEntity
  8
01
100
AcDbLine
 10
5275.933817990618
 20
-135.4250995961735
 30
0.0
 11
5275.933817990618
 21
-135.5048267690251
 31
0.0
  0
LINE
  5
B6EA
330
18
100
AcDbEntity
  8
01
100
AcDbLine
 10
5275.933817990618
 20
-135.5048267690251
 30
0.0
 11
5275.933817990618
 21
-135.7428791371892
 31
0.0
  0
LINE
  5
B6EB
330
18
100
AcDbEntity
  8
01
100
AcDbLine
 10
5275.933817990618
 20
-135.7428791371892
 30
0.0
 11
5275.933817990618
 21
-136.1357014028142
 31
0.0
  0
LINE
  5
B6EC
330
18
100
AcDbEntity
  8
01
100
AcDbLine
 10
5275.933817990618
 20
-136.1357014028142
 30
0.0
 11
5275.933817990618
 21
-136.6774341909001
 31
0.0
  0
LINE
  5
B6ED
330
18
100
AcDbEntity
  8
01
100
AcDbLine
 10
5275.933817990618
 20
-136.6774341909001
 30
0.0
 11
5275.933817990618
 21
-137.3608143178532
 31
0.0
  0
LINE
  5
B6EE
330
18
100
AcDbEntity
  8
01
100
AcDbLine
 10
5275.63381493886
 20
-157.1249897328923
 30
0.0
 11
5273.796656735735
 21
-157.122716173322
 31
0.0
  0
LINE
  5
B6EF
330
18
100
AcDbEntity
  8
01
100
AcDbLine
 10
5273.796656735735
 20
-157.122716173322
 30
0.0
 11
5271.959544308977
 21
-157.1096699086735
 31
0.0
  0
LINE
  5
B6F0
330
18
100
AcDbEntity
  8
01
100
AcDbLine
 10
5271.959544308977
 20
-157.1096699086735
 30
0.0
 11
5270.122706540423
 21
-157.0755665151189
 31
0.0
  0
LINE
  5
B6F1
330
18
100
AcDbEntity
  8
01
100
AcDbLine
 10
5270.122706540423
 20
-157.0755665151189
 30
0.0
 11
5268.286555417376
 21
-157.0097248403142
 31
0.0
  0
LINE
  5
B6F2
330
18
100
AcDbEntity
  8
01
100
AcDbLine
 10
5268.286555417376
 20
-157.0097248403142
 30
0.0
 11
5266.452799924212
 21
-156.8994190541814
 31
0.0
  0
LINE
  5
B6F3
330
18
100
AcDbEntity
  8
01
100
AcDbLine
 10
5266.452799924212
 20
-156.8994190541814
 30
0.0
 11
5264.623591550188
 21
-156.731129869611
 31
0.0
  0
LINE
  5
B6F4
330
18
100
AcDbEntity
  8
01
100
AcDbLine
 10
5264.623591550188
 20
-156.731129869611
 30
0.0
 11
5262.802348264056
 21
-156.4906208364079
 31
0.0
  0
LINE
  5
B6F5
330
18
100
AcDbEntity
  8
01
100
AcDbLine
 10
5262.802348264056
 20
-156.4906208364079
 30
0.0
 11
5260.99482262929
 21
-156.1627247182439
 31
0.0
  0
LINE
  5
B6F6
330
18
100
AcDbEntity
  8
01
100
AcDbLine
 10
5260.99482262929
 20
-156.1627247182439
 30
0.0
 11
5259.209071286517
 21
-155.7326252309392
 31
0.0
  0
LINE
  5
B6F7
330
18
100
AcDbEntity
  8
01
100
AcDbLine
 10
5259.209071286517
 20
-155.7326252309392
 30
0.0
 11
5257.455241330462
 21
-155.1868030873845
 31
0.0
  0
LINE
  5
B6F8
330
18
100
AcDbEntity
  8
01
100
AcDbLine
 10
5257.455241330462
 20
-155.1868030873845
 30
0.0
 11
5255.74596703847
 21
-154.5145161000798
 31
0.0
  0
LINE
  5
B6F9
330
18
100
AcDbEntity
  8
01
100
AcDbLine
 10
5255.74596703847
 20
-154.5145161000798
 30
0.0
 11
5254.09508813222
 21
-153.7095539418767
 31
0.0
  0
LINE
  5
B6FA
330
18
100
AcDbEntity
  8
01
100
AcDbLine
 10
5254.09508813222
 20
-153.7095539418767
 30
0.0
 11
5252.51613915761
 21
-152.7714283315251
 31
0.0
  0
LINE
  5
B6FB
330
18
100
AcDbEntity
  8
01
100
AcDbLine
 10
5252.51613915761
 20
-152.7714283315251
 30
0.0
 11
5251.020838864642
 21
-151.7049457875798
 31
0.0
  0
LINE
  5
B6FC
330
18
100
AcDbEntity
  8
01
100
AcDbLine
 10
5251.020838864642
 20
-151.7049457875798
 30
0.0
 11
5249.617602475481
 21
-150.5199024526189
 31
0.0
  0
LINE
  5
B6FD
330
18
100
AcDbEntity
  8
01
100
AcDbLine
 10
5249.617602475481
 20
-150.5199024526189
 30
0.0
 11
5248.310862668352
 21
-149.229161485822
 31
0.0
  0
LINE
  5
B6FE
330
18
100
AcDbEntity
  8
01
100
AcDbLine
 10
5248.310862668352
 20
-149.229161485822
 30
0.0
 11
5247.101336606341
 21
-147.846837267072
 31
0.0
  0
LINE
  5
B6FF
330
18
100
AcDbEntity
  8
01
100
AcDbLine
 10
5247.101336606341
 20
-147.846837267072
 30
0.0
 11
5245.986712582903
 21
-146.3867847768376
 31
0.0
  0
LINE
  5
B700
330
18
100
AcDbEntity
  8
01
100
AcDbLine
 10
5245.986712582903
 20
-146.3867847768376
 30
0.0
 11
5244.96276391347
 21
-144.8617145864079
 31
0.0
  0
LINE
  5
B701
330
18
100
AcDbEntity
  8
01
100
AcDbLine
 10
5244.96276391347
 20
-144.8617145864079
 30
0.0
 11
5244.024050839739
 21
-143.2827808705876
 31
0.0
  0
LINE
  5
B702
330
18
100
AcDbEntity
  8
01
100
AcDbLine
 10
5244.024050839739
 20
-143.2827808705876
 30
0.0
 11
5243.164721616106
 21
-141.659093126447
 31
0.0
  0
LINE
  5
B703
330
18
100
AcDbEntity
  8
01
100
AcDbLine
 10
5243.164721616106
 20
-141.659093126447
 30
0.0
 11
5242.378886349993
 21
-139.9986622182439
 31
0.0
  0
LINE
  5
B704
330
18
100
AcDbEntity
  8
01
100
AcDbLine
 10
5242.378886349993
 20
-139.9986622182439
 30
0.0
 11
5241.66107476552
 21
-138.3076221791814
 31
0.0
  0
LINE
  5
B705
330
18
100
AcDbEntity
  8
01
100
AcDbLine
 10
5241.66107476552
 20
-138.3076221791814
 30
0.0
 11
5241.006106503802
 21
-136.5912525502751
 31
0.0
  0
LINE
  5
B706
330
18
100
AcDbEntity
  8
01
100
AcDbLine
 10
5241.006106503802
 20
-136.5912525502751
 30
0.0
 11
5240.409381039934
 21
-134.8537647573064
 31
0.0
  0
LINE
  5
B707
330
18
100
AcDbEntity
  8
01
100
AcDbLine
 10
5240.409381039934
 20
-134.8537647573064
 30
0.0
 11
5239.866740353899
 21
-133.0986530629704
 31
0.0
  0
LINE
  5
B708
330
18
100
AcDbEntity
  8
01
100
AcDbLine
 10
5239.866740353899
 20
-133.0986530629704
 30
0.0
 11
5239.374613889056
 21
-131.3286793080876
 31
0.0
  0
LINE
  5
B709
330
18
100
AcDbEntity
  8
01
100
AcDbLine
 10
5239.374613889056
 20
-131.3286793080876
 30
0.0
 11
5238.929736264544
 21
-129.5462238637517
 31
0.0
  0
LINE
  5
B70A
330
18
100
AcDbEntity
  8
01
100
AcDbLine
 10
5238.929736264544
 20
-129.5462238637517
 30
0.0
 11
5238.529292233782
 21
-127.7532703725407
 31
0.0
  0
LINE
  5
B70B
330
18
100
AcDbEntity
  8
01
100
AcDbLine
 10
5238.529292233782
 20
-127.7532703725407
 30
0.0
 11
5238.17077172597
 21
-125.9514667836735
 31
0.0
  0
LINE
  5
B70C
330
18
100
AcDbEntity
  8
01
100
AcDbLine
 10
5238.17077172597
 20
-125.9514667836735
 30
0.0
 11
5237.851939328509
 21
-124.1422016469548
 31
0.0
  0
LINE
  5
B70D
330
18
100
AcDbEntity
  8
01
100
AcDbLine
 10
5237.851939328509
 20
-124.1422016469548
 30
0.0
 11
5237.570834287005
 21
-122.3267109242985
 31
0.0
  0
LINE
  5
B70E
330
18
100
AcDbEntity
  8
01
100
AcDbLine
 10
5237.570834287005
 20
-122.3267109242985
 30
0.0
 11
5237.325617917376
 21
-120.506032213361
 31
0.0
  0
LINE
  5
B70F
330
18
100
AcDbEntity
  8
01
100
AcDbLine
 10
5237.325617917376
 20
-120.506032213361
 30
0.0
 11
5237.114627011614
 21
-118.6810200063298
 31
0.0
  0
LINE
  5
B710
330
18
100
AcDbEntity
  8
01
100
AcDbLine
 10
5237.114627011614
 20
-118.6810200063298
 30
0.0
 11
5236.936221249895
 21
-116.8525287953923
 31
0.0
  0
LINE
  5
B711
330
18
100
AcDbEntity
  8
01
100
AcDbLine
 10
5236.936221249895
 20
-116.8525287953923
 30
0.0
 11
5236.788798459368
 21
-115.0213062612126
 31
0.0
  0
LINE
  5
B712
330
18
100
AcDbEntity
  8
01
100
AcDbLine
 10
5236.788798459368
 20
-115.0213062612126
 30
0.0
 11
5236.670748837786
 21
-113.1879932729314
 31
0.0
  0
LINE
  5
B713
330
18
100
AcDbEntity
  8
01
100
AcDbLine
 10
5236.670748837786
 20
-113.1879932729314
 30
0.0
 11
5236.579928525286
 21
-111.3530933705876
 31
0.0
  0
LINE
  5
B714
330
18
100
AcDbEntity
  8
01
100
AcDbLine
 10
5236.579928525286
 20
-111.3530933705876
 30
0.0
 11
5236.513911374407
 21
-109.5170948354314
 31
0.0
  0
LINE
  5
B715
330
18
100
AcDbEntity
  8
01
100
AcDbLine
 10
5236.513911374407
 20
-109.5170948354314
 30
0.0
 11
5236.470194943743
 21
-107.6804401723454
 31
0.0
  0
LINE
  5
B716
330
18
100
AcDbEntity
  8
01
100
AcDbLine
 10
5236.470194943743
 20
-107.6804401723454
 30
0.0
 11
5236.445269711809
 21
-105.8434498159001
 31
0.0
  0
LINE
  5
B717
330
18
100
AcDbEntity
  8
01
100
AcDbLine
 10
5236.445269711809
 20
-105.8434498159001
 30
0.0
 11
5236.434672482806
 21
-104.0063068715642
 31
0.0
  0
LINE
  5
B718
330
18
100
AcDbEntity
  8
01
100
AcDbLine
 10
5236.434672482806
 20
-104.0063068715642
 30
0.0
 11
5236.432559144198
 21
-102.1250387833406
 31
0.0
  0
LINE
  5
B719
330
18
100
AcDbEntity
  8
01
100
AcDbLine
 10
5236.432559144198
 20
-102.1250387833406
 30
0.0
 11
5263.435069211321
 21
-102.1250355092595
 31
0.0
  0
LINE
  5
B71A
330
18
100
AcDbEntity
  8
01
100
AcDbLine
 10
5263.435069211321
 20
-102.1250355092595
 30
0.0
 11
5263.434779294329
 21
-103.0945331899235
 31
0.0
  0
LINE
  5
B71B
330
18
100
AcDbEntity
  8
01
100
AcDbLine
 10
5263.434779294329
 20
-103.0945331899235
 30
0.0
 11
5263.434611447649
 21
-104.0640308705876
 31
0.0
  0
LINE
  5
B71C
330
18
100
AcDbEntity
  8
01
100
AcDbLine
 10
5263.434611447649
 20
-104.0640308705876
 30
0.0
 11
5263.435588010149
 21
-105.0335285512517
 31
0.0
  0
LINE
  5
B71D
330
18
100
AcDbEntity
  8
01
100
AcDbLine
 10
5263.435588010149
 20
-105.0335285512517
 30
0.0
 11
5263.438792355852
 21
-106.0030262319157
 31
0.0
  0
LINE
  5
B71E
330
18
100
AcDbEntity
  8
01
100
AcDbLine
 10
5263.438792355852
 20
-106.0030262319157
 30
0.0
 11
5263.445109494524
 21
-106.9725086537907
 31
0.0
  0
LINE
  5
B71F
330
18
100
AcDbEntity
  8
01
100
AcDbLine
 10
5263.445109494524
 20
-106.9725086537907
 30
0.0
 11
5263.45510400136
 21
-107.9419605580876
 31
0.0
  0
LINE
  5
B720
330
18
100
AcDbEntity
  8
01
100
AcDbLine
 10
5263.45510400136
 20
-107.9419605580876
 30
0.0
 11
5263.469294675188
 21
-108.9113514272282
 31
0.0
  0
LINE
  5
B721
330
18
100
AcDbEntity
  8
01
100
AcDbLine
 10
5263.469294675188
 20
-108.9113514272282
 30
0.0
 11
5263.488169797259
 21
-109.8806812612126
 31
0.0
  0
LINE
  5
B722
330
18
100
AcDbEntity
  8
01
100
AcDbLine
 10
5263.488169797259
 20
-109.8806812612126
 30
0.0
 11
5263.512202390032
 21
-110.8498737660954
 31
0.0
  0
LINE
  5
B723
330
18
100
AcDbEntity
  8
01
100
AcDbLine
 10
5263.512202390032
 20
-110.8498737660954
 30
0.0
 11
5263.541804440813
 21
-111.8189289418767
 31
0.0
  0
LINE
  5
B724
330
18
100
AcDbEntity
  8
01
100
AcDbLine
 10
5263.541804440813
 20
-111.8189289418767
 30
0.0
 11
5263.577464230852
 21
-112.787770494611
 31
0.0
  0
LINE
  5
B725
330
18
100
AcDbEntity
  8
01
100
AcDbLine
 10
5263.577464230852
 20
-112.787770494611
 30
0.0
 11
5263.619639523821
 21
-113.7563526479314
 31
0.0
  0
LINE
  5
B726
330
18
100
AcDbEntity
  8
01
100
AcDbLine
 10
5263.619639523821
 20
-113.7563526479314
 30
0.0
 11
5263.668940671282
 21
-114.7246143666814
 31
0.0
  0
LINE
  5
B727
330
18
100
AcDbEntity
  8
01
100
AcDbLine
 10
5263.668940671282
 20
-114.7246143666814
 30
0.0
 11
5263.726008542376
 21
-115.6924335805485
 31
0.0
  0
LINE
  5
B728
330
18
100
AcDbEntity
  8
01
100
AcDbLine
 10
5263.726008542376
 20
-115.6924335805485
 30
0.0
 11
5263.791545041399
 21
-116.6597034780095
 31
0.0
  0
LINE
  5
B729
330
18
100
AcDbEntity
  8
01
100
AcDbLine
 10
5263.791545041399
 20
-116.6597034780095
 30
0.0
 11
5263.866221555071
 21
-117.6263172475407
 31
0.0
  0
LINE
  5
B72A
330
18
100
AcDbEntity
  8
01
100
AcDbLine
 10
5263.866221555071
 20
-117.6263172475407
 30
0.0
 11
5263.950739987688
 21
-118.5921375600407
 31
0.0
  0
LINE
  5
B72B
330
18
100
AcDbEntity
  8
01
100
AcDbLine
 10
5263.950739987688
 20
-118.5921375600407
 30
0.0
 11
5264.046168454485
 21
-119.5569355336735
 31
0.0
  0
LINE
  5
B72C
330
18
100
AcDbEntity
  8
01
100
AcDbLine
 10
5264.046168454485
 20
-119.5569355336735
 30
0.0
 11
5264.153651364642
 21
-120.5204517690251
 31
0.0
  0
LINE
  5
B72D
330
18
100
AcDbEntity
  8
01
100
AcDbLine
 10
5264.153651364642
 20
-120.5204517690251
 30
0.0
 11
5264.274378903704
 21
-121.4823810903142
 31
0.0
  0
LINE
  5
B72E
330
18
100
AcDbEntity
  8
01
100
AcDbLine
 10
5264.274378903704
 20
-121.4823810903142
 30
0.0
 11
5264.409648068743
 21
-122.4423878041814
 31
0.0
  0
LINE
  5
B72F
330
18
100
AcDbEntity
  8
01
100
AcDbLine
 10
5264.409648068743
 20
-122.4423878041814
 30
0.0
 11
5264.561213620501
 21
-123.3999531117985
 31
0.0
  0
LINE
  5
B730
330
18
100
AcDbEntity
  8
01
100
AcDbLine
 10
5264.561213620501
 20
-123.3999531117985
 30
0.0
 11
5264.731043942767
 21
-124.3544361440251
 31
0.0
  0
LINE
  5
B731
330
18
100
AcDbEntity
  8
01
100
AcDbLine
 10
5264.731043942767
 20
-124.3544361440251
 30
0.0
 11
5264.92158044179
 21
-125.3050129262517
 31
0.0
  0
LINE
  5
B732
330
18
100
AcDbEntity
  8
01
100
AcDbLine
 10
5264.92158044179
 20
-125.3050129262517
 30
0.0
 11
5265.135508664446
 21
-126.2507221547673
 31
0.0
  0
LINE
  5
B733
330
18
100
AcDbEntity
  8
01
100
AcDbLine
 10
5265.135508664446
 20
-126.2507221547673
 30
0.0
 11
5265.376933224993
 21
-127.1896717397282
 31
0.0
  0
LINE
  5
B734
330
18
100
AcDbEntity
  8
01
100
AcDbLine
 10
5265.376933224993
 20
-127.1896717397282
 30
0.0
 11
5265.650538571673
 21
-128.1195881215642
 31
0.0
  0
LINE
  5
B735
330
18
100
AcDbEntity
  8
01
100
AcDbLine
 10
5265.650538571673
 20
-128.1195881215642
 30
0.0
 11
5265.961222775774
 21
-129.0379841176579
 31
0.0
  0
LINE
  5
B736
330
18
100
AcDbEntity
  8
01
100
AcDbLine
 10
5265.961222775774
 20
-129.0379841176579
 30
0.0
 11
5266.316218503313
 21
-129.9400226918767
 31
0.0
  0
LINE
  5
B737
330
18
100
AcDbEntity
  8
01
100
AcDbLine
 10
5266.316218503313
 20
-129.9400226918767
 30
0.0
 11
5266.724330075579
 21
-130.8191730825017
 31
0.0
  0
LINE
  5
B738
330
18
100
AcDbEntity
  8
01
100
AcDbLine
 10
5266.724330075579
 20
-130.8191730825017
 30
0.0
 11
5267.195963986712
 21
-131.665929063947
 31
0.0
  0
LINE
  5
B739
330
18
100
AcDbEntity
  8
01
100
AcDbLine
 10
5267.195963986712
 20
-131.665929063947
 30
0.0
 11
5267.743418820696
 21
-132.4655811635564
 31
0.0
  0
LINE
  5
B73A
330
18
100
AcDbEntity
  8
01
100
AcDbLine
 10
5267.743418820696
 20
-132.4655811635564
 30
0.0
 11
5268.37861169179
 21
-133.1971485463689
 31
0.0
  0
LINE
  5
B73B
330
18
100
AcDbEntity
  8
01
100
AcDbLine
 10
5268.37861169179
 20
-133.1971485463689
 30
0.0
 11
5269.10924828847
 21
-133.833180650861
 31
0.0
  0
LINE
  5
B73C
330
18
100
AcDbEntity
  8
01
100
AcDbLine
 10
5269.10924828847
 20
-133.833180650861
 30
0.0
 11
5269.930247433977
 21
-134.346608385236
 31
0.0
  0
LINE
  5
B73D
330
18
100
AcDbEntity
  8
01
100
AcDbLine
 10
5269.930247433977
 20
-134.346608385236
 30
0.0
 11
5270.823451169329
 21
-134.720616563947
 31
0.0
  0
LINE
  5
B73E
330
18
100
AcDbEntity
  8
01
100
AcDbLine
 10
5270.823451169329
 20
-134.720616563947
 30
0.0
 11
5271.761469968157
 21
-134.9621937123845
 31
0.0
  0
LINE
  5
B73F
330
18
100
AcDbEntity
  8
01
100
AcDbLine
 10
5271.761469968157
 20
-134.9621937123845
 30
0.0
 11
5272.721736081438
 21
-135.0935871450017
 31
0.0
  0
LINE
  5
B740
330
18
100
AcDbEntity
  8
01
100
AcDbLine
 10
5272.721736081438
 20
-135.0935871450017
 30
0.0
 11
5273.689875729876
 21
-135.1464435903142
 31
0.0
  0
LINE
  5
B741
330
18
100
AcDbEntity
  8
01
100
AcDbLine
 10
5273.689875729876
 20
-135.1464435903142
 30
0.0
 11
5274.659236081438
 21
-135.150807603986
 31
0.0
  0
LINE
  5
B742
330
18
100
AcDbEntity
  8
01
100
AcDbLine
 10
5274.659236081438
 20
-135.150807603986
 30
0.0
 11
5275.633891232806
 21
-135.1320698110173
 31
0.0
  0
LINE
  5
B743
330
18
100
AcDbEntity
  8
01
100
AcDbLine
 10
5152.585200763356
 20
-317.1710112643627
 30
0.0
 11
5153.819407916676
 21
-317.3151610446362
 31
0.0
  0
LINE
  5
B744
330
18
100
AcDbEntity
  8
01
100
AcDbLine
 10
5153.819407916676
 20
-317.3151610446362
 30
0.0
 11
5155.029353595387
 21
-317.5975325656323
 31
0.0
  0
LINE
  5
B745
330
18
100
AcDbEntity
  8
01
100
AcDbLine
 10
5155.029353595387
 20
-317.5975325656323
 30
0.0
 11
5156.199748492848
 21
-318.0142272067455
 31
0.0
  0
LINE
  5
B746
330
18
100
AcDbEntity
  8
01
100
AcDbLine
 10
5156.199748492848
 20
-318.0142272067455
 30
0.0
 11
5157.315776324879
 21
-318.5601332736401
 31
0.0
  0
LINE
  5
B747
330
18
100
AcDbEntity
  8
01
100
AcDbLine
 10
5157.315776324879
 20
-318.5601332736401
 30
0.0
 11
5158.363093829762
 21
-319.2284033847241
 31
0.0
  0
LINE
  5
B748
330
18
100
AcDbEntity
  8
01
100
AcDbLine
 10
5158.363093829762
 20
-319.2284033847241
 30
0.0
 11
5159.328364825856
 21
-320.0104735446362
 31
0.0
  0
LINE
  5
B749
330
18
100
AcDbEntity
  8
01
100
AcDbLine
 10
5159.328364825856
 20
-320.0104735446362
 30
0.0
 11
5160.199367023121
 21
-320.8963034701733
 31
0.0
  0
LINE
  5
B74A
330
18
100
AcDbEntity
  8
01
100
AcDbLine
 10
5160.199367023121
 20
-320.8963034701733
 30
0.0
 11
5160.965098834645
 21
-321.8745902133373
 31
0.0
  0
LINE
  5
B74B
330
18
100
AcDbEntity
  8
01
100
AcDbLine
 10
5160.965098834645
 20
-321.8745902133373
 30
0.0
 11
5161.615809894215
 21
-322.9329741549877
 31
0.0
  0
LINE
  5
B74C
330
18
100
AcDbEntity
  8
01
100
AcDbLine
 10
5161.615809894215
 20
-322.9329741549877
 30
0.0
 11
5162.143046832692
 21
-324.0580695224194
 31
0.0
  0
LINE
  5
B74D
330
18
100
AcDbEntity
  8
01
100
AcDbLine
 10
5162.143046832692
 20
-324.0580695224194
 30
0.0
 11
5162.539943194996
 21
-325.235525424519
 31
0.0
  0
LINE
  5
B74E
330
18
100
AcDbEntity
  8
01
100
AcDbLine
 10
5162.539943194996
 20
-325.235525424519
 30
0.0
 11
5162.801509357106
 21
-326.4502699923901
 31
0.0
  0
LINE
  5
B74F
330
18
100
AcDbEntity
  8
01
100
AcDbLine
 10
5162.801509357106
 20
-326.4502699923901
 30
0.0
 11
5162.927196002614
 21
-327.7674544406323
 31
0.0
  0
LINE
  5
B750
330
18
100
AcDbEntity
  8
01
100
AcDbLine
 10
5162.927196002614
 20
-327.767450625935
 30
0.0
 11
5162.927211261403
 21
-327.7683318210034
 31
0.0
  0
LINE
  5
B751
330
18
100
AcDbEntity
  8
01
100
AcDbLine
 10
5162.927211261403
 20
-327.7683318210034
 30
0.0
 11
5162.927196002614
 21
-327.7684348178295
 31
0.0
  0
LINE
  5
B752
330
18
100
AcDbEntity
  8
01
100
AcDbLine
 10
5162.927196002614
 20
-327.7684348178295
 30
0.0
 11
5162.927180743824
 21
-327.7685149264721
 31
0.0
  0
LINE
  5
B753
330
18
100
AcDbEntity
  8
01
100
AcDbLine
 10
5162.927180743824
 20
-327.7685149264721
 30
0.0
 11
5162.927150226246
 21
-327.7685835910229
 31
0.0
  0
LINE
  5
B754
330
18
100
AcDbEntity
  8
01
100
AcDbLine
 10
5162.927150226246
 20
-327.7685835910229
 30
0.0
 11
5162.92708919109
 21
-327.7686369967846
 31
0.0
  0
LINE
  5
B755
330
18
100
AcDbEntity
  8
01
100
AcDbLine
 10
5162.927196002614
 20
-327.7674544406323
 30
0.0
 11
5162.924464679371
 21
-327.7575591159252
 31
0.0
  0
LINE
  5
B756
330
18
100
AcDbEntity
  8
01
100
AcDbLine
 10
5162.924464679371
 20
-327.7575591159252
 30
0.0
 11
5162.910670734059
 21
-327.7486289096264
 31
0.0
  0
LINE
  5
B757
330
18
100
AcDbEntity
  8
01
100
AcDbLine
 10
5162.910670734059
 20
-327.7486289096264
 30
0.0
 11
5162.87467525066
 21
-327.733270938435
 31
0.0
  0
LINE
  5
B758
330
18
100
AcDbEntity
  8
01
100
AcDbLine
 10
5162.87467525066
 20
-327.733270938435
 30
0.0
 11
5162.804011798512
 21
-327.7042677951245
 31
0.0
  0
LINE
  5
B759
330
18
100
AcDbEntity
  8
01
100
AcDbLine
 10
5162.804011798512
 20
-327.7042677951245
 30
0.0
 11
5162.684627032887
 21
-327.6547530246166
 31
0.0
  0
LINE
  5
B75A
330
18
100
AcDbEntity
  8
01
100
AcDbLine
 10
5162.684627032887
 20
-327.6547530246166
 30
0.0
 11
5162.500483966481
 21
-327.5794509005932
 31
0.0
  0
LINE
  5
B75B
330
18
100
AcDbEntity
  8
01
100
AcDbLine
 10
5162.500483966481
 20
-327.5794509005932
 30
0.0
 11
5162.234462237965
 21
-327.473577792683
 31
0.0
  0
LINE
  5
B75C
330
18
100
AcDbEntity
  8
01
100
AcDbLine
 10
5162.234462237965
 20
-327.473577792683
 30
0.0
 11
5161.868220782887
 21
-327.3318923068432
 31
0.0
  0
LINE
  5
B75D
330
18
100
AcDbEntity
  8
01
100
AcDbLine
 10
5161.868220782887
 20
-327.3318923068432
 30
0.0
 11
5161.383723712574
 21
-327.1483176303295
 31
0.0
  0
LINE
  5
B75E
330
18
100
AcDbEntity
  8
01
100
AcDbLine
 10
5161.383723712574
 20
-327.1483176303295
 30
0.0
 11
5160.765559650074
 21
-326.9190199923901
 31
0.0
  0
LINE
  5
B75F
330
18
100
AcDbEntity
  8
01
100
AcDbLine
 10
5160.765559650074
 20
-326.9190199923901
 30
0.0
 11
5160.003184772145
 21
-326.6430876803784
 31
0.0
  0
LINE
  5
B760
330
18
100
AcDbEntity
  8
01
100
AcDbLine
 10
5160.003184772145
 20
-326.6430876803784
 30
0.0
 11
5159.093730426442
 21
-326.3226950717358
 31
0.0
  0
LINE
  5
B761
330
18
100
AcDbEntity
  8
01
100
AcDbLine
 10
5159.093730426442
 20
-326.3226950717358
 30
0.0
 11
5158.042308307301
 21
-325.9629843783764
 31
0.0
  0
LINE
  5
B762
330
18
100
AcDbEntity
  8
01
100
AcDbLine
 10
5158.042308307301
 20
-325.9629843783764
 30
0.0
 11
5156.861140704762
 21
-325.5713027072338
 31
0.0
  0
LINE
  5
B763
330
18
100
AcDbEntity
  8
01
100
AcDbLine
 10
5156.861140704762
 20
-325.5713027072338
 30
0.0
 11
5155.566234088551
 21
-325.155691440144
 31
0.0
  0
LINE
  5
B764
330
18
100
AcDbEntity
  8
01
100
AcDbLine
 10
5155.566234088551
 20
-325.155691440144
 30
0.0
 11
5154.174678302418
 21
-324.7238944125561
 31
0.0
  0
LINE
  5
B765
330
18
100
AcDbEntity
  8
01
100
AcDbLine
 10
5154.174678302418
 20
-324.7238944125561
 30
0.0
 11
5152.70328853191
 21
-324.2832968783764
 31
0.0
  0
LINE
  5
B766
330
18
100
AcDbEntity
  8
01
100
AcDbLine
 10
5152.70328853191
 20
-324.2832968783764
 30
0.0
 11
5151.165904498707
 21
-323.8397582126049
 31
0.0
  0
LINE
  5
B767
330
18
100
AcDbEntity
  8
01
100
AcDbLine
 10
5151.165904498707
 20
-323.8397582126049
 30
0.0
 11
5149.574641681324
 21
-323.3983023715405
 31
0.0
  0
LINE
  5
B768
330
18
100
AcDbEntity
  8
01
100
AcDbLine
 10
5149.574641681324
 20
-323.3983023715405
 30
0.0
 11
5147.938868976246
 21
-322.9626792025952
 31
0.0
  0
LINE
  5
B769
330
18
100
AcDbEntity
  8
01
100
AcDbLine
 10
5147.938868976246
 20
-322.9626792025952
 30
0.0
 11
5146.266551471364
 21
-322.5360854220776
 31
0.0
  0
LINE
  5
B76A
330
18
100
AcDbEntity
  8
01
100
AcDbLine
 10
5146.266551471364
 20
-322.5360854220776
 30
0.0
 11
5144.563701129567
 21
-322.1210349154858
 31
0.0
  0
LINE
  5
B76B
330
18
100
AcDbEntity
  8
01
100
AcDbLine
 10
5144.563701129567
 20
-322.1210349154858
 30
0.0
 11
5142.835368610035
 21
-321.7196982455639
 31
0.0
  0
LINE
  5
B76C
330
18
100
AcDbEntity
  8
01
100
AcDbLine
 10
5142.835368610035
 20
-321.7196982455639
 30
0.0
 11
5141.085338092457
 21
-321.3337042880444
 31
0.0
  0
LINE
  5
B76D
330
18
100
AcDbEntity
  8
01
100
AcDbLine
 10
5141.085338092457
 20
-321.3337042880444
 30
0.0
 11
5139.316844440114
 21
-320.9644797397045
 31
0.0
  0
LINE
  5
B76E
330
18
100
AcDbEntity
  8
01
100
AcDbLine
 10
5139.316844440114
 20
-320.9644797397045
 30
0.0
 11
5137.532405353199
 21
-320.6131728244213
 31
0.0
  0
LINE
  5
B76F
330
18
100
AcDbEntity
  8
01
100
AcDbLine
 10
5137.532405353199
 20
-320.6131728244213
 30
0.0
 11
5135.734187579762
 21
-320.2808554721264
 31
0.0
  0
LINE
  5
B770
330
18
100
AcDbEntity
  8
01
100
AcDbLine
 10
5135.734187579762
 20
-320.2808554721264
 30
0.0
 11
5133.92399165691
 21
-319.9684966159252
 31
0.0
  0
LINE
  5
B771
330
18
100
AcDbEntity
  8
01
100
AcDbLine
 10
5133.92399165691
 20
-319.9684966159252
 30
0.0
 11
5132.103297687184
 21
-319.6770232272534
 31
0.0
  0
LINE
  5
B772
330
18
100
AcDbEntity
  8
01
100
AcDbLine
 10
5132.103297687184
 20
-319.6770232272534
 30
0.0
 11
5130.273204303395
 21
-319.4073050570873
 31
0.0
  0
LINE
  5
B773
330
18
100
AcDbEntity
  8
01
100
AcDbLine
 10
5130.273204303395
 20
-319.4073050570873
 30
0.0
 11
5128.434825397145
 21
-319.1602194857983
 31
0.0
  0
LINE
  5
B774
330
18
100
AcDbEntity
  8
01
100
AcDbLine
 10
5128.434825397145
 20
-319.1602194857983
 30
0.0
 11
5126.589305377614
 21
-318.9366248202709
 31
0.0
  0
LINE
  5
B775
330
18
100
AcDbEntity
  8
01
100
AcDbLine
 10
5126.589305377614
 20
-318.9366248202709
 30
0.0
 11
5124.737651324879
 21
-318.7373030734448
 31
0.0
  0
LINE
  5
B776
330
18
100
AcDbEntity
  8
01
100
AcDbLine
 10
5124.737651324879
 20
-318.7373030734448
 30
0.0
 11
5122.880794025074
 21
-318.5629065585522
 31
0.0
  0
LINE
  5
B777
330
18
100
AcDbEntity
  8
01
100
AcDbLine
 10
5122.880794025074
 20
-318.5629065585522
 30
0.0
 11
5121.019649005543
 21
-318.4140875888256
 31
0.0
  0
LINE
  5
B778
330
18
100
AcDbEntity
  8
01
100
AcDbLine
 10
5121.019649005543
 20
-318.4140875888256
 30
0.0
 11
5119.155162311207
 21
-318.2914755893139
 31
0.0
  0
LINE
  5
B779
330
18
100
AcDbEntity
  8
01
100
AcDbLine
 10
5119.155162311207
 20
-318.2914755893139
 30
0.0
 11
5117.288341022145
 21
-318.1949561190991
 31
0.0
  0
LINE
  5
B77A
330
18
100
AcDbEntity
  8
01
100
AcDbLine
 10
5117.288341022145
 20
-318.1949561190991
 30
0.0
 11
5115.420375323903
 21
-318.1233161044506
 31
0.0
  0
LINE
  5
B77B
330
18
100
AcDbEntity
  8
01
100
AcDbLine
 10
5115.420375323903
 20
-318.1233161044506
 30
0.0
 11
5113.552485919606
 21
-318.075239474812
 31
0.0
  0
LINE
  5
B77C
330
18
100
AcDbEntity
  8
01
100
AcDbLine
 10
5113.552485919606
 20
-318.075239474812
 30
0.0
 11
5111.686107135426
 21
-318.0482924533276
 31
0.0
  0
LINE
  5
B77D
330
18
100
AcDbEntity
  8
01
100
AcDbLine
 10
5111.686107135426
 20
-318.0482924533276
 30
0.0
 11
5109.823237872731
 21
-318.0376608920483
 31
0.0
  0
LINE
  5
B77E
330
18
100
AcDbEntity
  8
01
100
AcDbLine
 10
5109.823237872731
 20
-318.0376608920483
 30
0.0
 11
5107.93392512859
 21
-318.0356696200756
 31
0.0
  0
LINE
  5
B77F
330
18
100
AcDbEntity
  8
01
100
AcDbLine
 10
5152.585200763356
 20
-339.1324866366772
 30
0.0
 11
5153.819407916676
 21
-338.9883368564037
 31
0.0
  0
LINE
  5
B780
330
18
100
AcDbEntity
  8
01
100
AcDbLine
 10
5153.819407916676
 20
-338.9883368564037
 30
0.0
 11
5155.029353595387
 21
-338.7059653354077
 31
0.0
  0
LINE
  5
B781
330
18
100
AcDbEntity
  8
01
100
AcDbLine
 10
5155.029353595387
 20
-338.7059653354077
 30
0.0
 11
5156.199748492848
 21
-338.2892706942944
 31
0.0
  0
LINE
  5
B782
330
18
100
AcDbEntity
  8
01
100
AcDbLine
 10
5156.199748492848
 20
-338.2892706942944
 30
0.0
 11
5157.315776324879
 21
-337.7433684420971
 31
0.0
  0
LINE
  5
B783
330
18
100
AcDbEntity
  8
01
100
AcDbLine
 10
5157.315776324879
 20
-337.7433684420971
 30
0.0
 11
5158.363093829762
 21
-337.0750945163159
 31
0.0
  0
LINE
  5
B784
330
18
100
AcDbEntity
  8
01
100
AcDbLine
 10
5158.363093829762
 20
-337.0750945163159
 30
0.0
 11
5159.328364825856
 21
-336.2930243564037
 31
0.0
  0
LINE
  5
B785
330
18
100
AcDbEntity
  8
01
100
AcDbLine
 10
5159.328364825856
 20
-336.2930243564037
 30
0.0
 11
5160.199367023121
 21
-335.4071944308666
 31
0.0
  0
LINE
  5
B786
330
18
100
AcDbEntity
  8
01
100
AcDbLine
 10
5160.199367023121
 20
-335.4071944308666
 30
0.0
 11
5160.965098834645
 21
-334.4289076877026
 31
0.0
  0
LINE
  5
B787
330
18
100
AcDbEntity
  8
01
100
AcDbLine
 10
5160.965098834645
 20
-334.4289076877026
 30
0.0
 11
5161.615809894215
 21
-333.3705237460522
 31
0.0
  0
LINE
  5
B788
330
18
100
AcDbEntity
  8
01
100
AcDbLine
 10
5161.615809894215
 20
-333.3705237460522
 30
0.0
 11
5162.143046832692
 21
-332.2454283786205
 31
0.0
  0
LINE
  5
B789
330
18
100
AcDbEntity
  8
01
100
AcDbLine
 10
5162.143046832692
 20
-332.2454283786205
 30
0.0
 11
5162.539943194996
 21
-331.0679724765209
 31
0.0
  0
LINE
  5
B78A
330
18
100
AcDbEntity
  8
01
100
AcDbLine
 10
5162.539943194996
 20
-331.0679724765209
 30
0.0
 11
5162.801509357106
 21
-329.8532279086498
 31
0.0
  0
LINE
  5
B78B
330
18
100
AcDbEntity
  8
01
100
AcDbLine
 10
5162.801509357106
 20
-329.8532279086498
 30
0.0
 11
5162.927196002614
 21
-328.5360434604077
 31
0.0
  0
LINE
  5
B78C
330
18
100
AcDbEntity
  8
01
100
AcDbLine
 10
5162.927196002614
 20
-328.5360472751049
 30
0.0
 11
5162.927211261403
 21
-328.5351660800366
 31
0.0
  0
LINE
  5
B78D
330
18
100
AcDbEntity
  8
01
100
AcDbLine
 10
5162.927211261403
 20
-328.5351660800366
 30
0.0
 11
5162.927196002614
 21
-328.5350630832104
 31
0.0
  0
LINE
  5
B78E
330
18
100
AcDbEntity
  8
01
100
AcDbLine
 10
5162.927196002614
 20
-328.5350630832104
 30
0.0
 11
5162.927180743824
 21
-328.5349829745678
 31
0.0
  0
LINE
  5
B78F
330
18
100
AcDbEntity
  8
01
100
AcDbLine
 10
5162.927180743824
 20
-328.5349829745678
 30
0.0
 11
5162.927150226246
 21
-328.534914310017
 31
0.0
  0
LINE
  5
B790
330
18
100
AcDbEntity
  8
01
100
AcDbLine
 10
5162.927150226246
 20
-328.534914310017
 30
0.0
 11
5162.92708919109
 21
-328.5348609042553
 31
0.0
  0
LINE
  5
B791
330
18
100
AcDbEntity
  8
01
100
AcDbLine
 10
5162.927196002614
 20
-328.5360434604077
 30
0.0
 11
5162.924464679371
 21
-328.5459387851147
 31
0.0
  0
LINE
  5
B792
330
18
100
AcDbEntity
  8
01
100
AcDbLine
 10
5162.924464679371
 20
-328.5459387851147
 30
0.0
 11
5162.910670734059
 21
-328.5548689914135
 31
0.0
  0
LINE
  5
B793
330
18
100
AcDbEntity
  8
01
100
AcDbLine
 10
5162.910670734059
 20
-328.5548689914135
 30
0.0
 11
5162.87467525066
 21
-328.5702269626049
 31
0.0
  0
LINE
  5
B794
330
18
100
AcDbEntity
  8
01
100
AcDbLine
 10
5162.87467525066
 20
-328.5702269626049
 30
0.0
 11
5162.804011798512
 21
-328.5992301059155
 31
0.0
  0
LINE
  5
B795
330
18
100
AcDbEntity
  8
01
100
AcDbLine
 10
5162.804011798512
 20
-328.5992301059155
 30
0.0
 11
5162.684627032887
 21
-328.6487448764233
 31
0.0
  0
LINE
  5
B796
330
18
100
AcDbEntity
  8
01
100
AcDbLine
 10
5162.684627032887
 20
-328.6487448764233
 30
0.0
 11
5162.500483966481
 21
-328.7240470004467
 31
0.0
  0
LINE
  5
B797
330
18
100
AcDbEntity
  8
01
100
AcDbLine
 10
5162.500483966481
 20
-328.7240470004467
 30
0.0
 11
5162.234462237965
 21
-328.8299201083569
 31
0.0
  0
LINE
  5
B798
330
18
100
AcDbEntity
  8
01
100
AcDbLine
 10
5162.234462237965
 20
-328.8299201083569
 30
0.0
 11
5161.868220782887
 21
-328.9716055941967
 31
0.0
  0
LINE
  5
B799
330
18
100
AcDbEntity
  8
01
100
AcDbLine
 10
5161.868220782887
 20
-328.9716055941967
 30
0.0
 11
5161.383723712574
 21
-329.1551802707104
 31
0.0
  0
LINE
  5
B79A
330
18
100
AcDbEntity
  8
01
100
AcDbLine
 10
5161.383723712574
 20
-329.1551802707104
 30
0.0
 11
5160.765559650074
 21
-329.3844779086498
 31
0.0
  0
LINE
  5
B79B
330
18
100
AcDbEntity
  8
01
100
AcDbLine
 10
5160.765559650074
 20
-329.3844779086498
 30
0.0
 11
5160.003184772145
 21
-329.6604064059643
 31
0.0
  0
LINE
  5
B79C
330
18
100
AcDbEntity
  8
01
100
AcDbLine
 10
5160.003184772145
 20
-329.6604064059643
 30
0.0
 11
5159.093730426442
 21
-329.9807990146069
 31
0.0
  0
LINE
  5
B79D
330
18
100
AcDbEntity
  8
01
100
AcDbLine
 10
5159.093730426442
 20
-329.9807990146069
 30
0.0
 11
5158.042308307301
 21
-330.3405135226635
 31
0.0
  0
LINE
  5
B79E
330
18
100
AcDbEntity
  8
01
100
AcDbLine
 10
5158.042308307301
 20
-330.3405135226635
 30
0.0
 11
5156.861140704762
 21
-330.7321913791088
 31
0.0
  0
LINE
  5
B79F
330
18
100
AcDbEntity
  8
01
100
AcDbLine
 10
5156.861140704762
 20
-330.7321913791088
 30
0.0
 11
5155.566234088551
 21
-331.1478026461987
 31
0.0
  0
LINE
  5
B7A0
330
18
100
AcDbEntity
  8
01
100
AcDbLine
 10
5155.566234088551
 20
-331.1478026461987
 30
0.0
 11
5154.174678302418
 21
-331.5795996737866
 31
0.0
  0
LINE
  5
B7A1
330
18
100
AcDbEntity
  8
01
100
AcDbLine
 10
5154.174678302418
 20
-331.5795996737866
 30
0.0
 11
5152.70328853191
 21
-332.0202010226635
 31
0.0
  0
LINE
  5
B7A2
330
18
100
AcDbEntity
  8
01
100
AcDbLine
 10
5152.70328853191
 20
-332.0202010226635
 30
0.0
 11
5151.165904498707
 21
-332.463739688435
 31
0.0
  0
LINE
  5
B7A3
330
18
100
AcDbEntity
  8
01
100
AcDbLine
 10
5151.165904498707
 20
-332.463739688435
 30
0.0
 11
5149.574641681324
 21
-332.9051917148022
 31
0.0
  0
LINE
  5
B7A4
330
18
100
AcDbEntity
  8
01
100
AcDbLine
 10
5149.574641681324
 20
-332.9051917148022
 30
0.0
 11
5147.938868976246
 21
-333.3408148837475
 31
0.0
  0
LINE
  5
B7A5
330
18
100
AcDbEntity
  8
01
100
AcDbLine
 10
5147.938868976246
 20
-333.3408148837475
 30
0.0
 11
5146.266551471364
 21
-333.7674086642651
 31
0.0
  0
LINE
  5
B7A6
330
18
100
AcDbEntity
  8
01
100
AcDbLine
 10
5146.266551471364
 20
-333.7674086642651
 30
0.0
 11
5144.563701129567
 21
-334.1824591708569
 31
0.0
  0
LINE
  5
B7A7
330
18
100
AcDbEntity
  8
01
100
AcDbLine
 10
5144.563701129567
 20
-334.1824591708569
 30
0.0
 11
5142.835368610035
 21
-334.583799655476
 31
0.0
  0
LINE
  5
B7A8
330
18
100
AcDbEntity
  8
01
100
AcDbLine
 10
5142.835368610035
 20
-334.583799655476
 30
0.0
 11
5141.085338092457
 21
-334.9697897982983
 31
0.0
  0
LINE
  5
B7A9
330
18
100
AcDbEntity
  8
01
100
AcDbLine
 10
5141.085338092457
 20
-334.9697897982983
 30
0.0
 11
5139.316844440114
 21
-335.3390143466381
 31
0.0
  0
LINE
  5
B7AA
330
18
100
AcDbEntity
  8
01
100
AcDbLine
 10
5139.316844440114
 20
-335.3390143466381
 30
0.0
 11
5137.532405353199
 21
-335.6903212619213
 31
0.0
  0
LINE
  5
B7AB
330
18
100
AcDbEntity
  8
01
100
AcDbLine
 10
5137.532405353199
 20
-335.6903212619213
 30
0.0
 11
5135.734187579762
 21
-336.0226424289135
 31
0.0
  0
LINE
  5
B7AC
330
18
100
AcDbEntity
  8
01
100
AcDbLine
 10
5135.734187579762
 20
-336.0226424289135
 30
0.0
 11
5133.92399165691
 21
-336.3350012851147
 31
0.0
  0
LINE
  5
B7AD
330
18
100
AcDbEntity
  8
01
100
AcDbLine
 10
5133.92399165691
 20
-336.3350012851147
 30
0.0
 11
5132.103297687184
 21
-336.6264746737866
 31
0.0
  0
LINE
  5
B7AE
330
18
100
AcDbEntity
  8
01
100
AcDbLine
 10
5132.103297687184
 20
-336.6264746737866
 30
0.0
 11
5130.273204303395
 21
-336.8961890292553
 31
0.0
  0
LINE
  5
B7AF
330
18
100
AcDbEntity
  8
01
100
AcDbLine
 10
5130.273204303395
 20
-336.8961890292553
 30
0.0
 11
5128.434825397145
 21
-337.1432746005444
 31
0.0
  0
LINE
  5
B7B0
330
18
100
AcDbEntity
  8
01
100
AcDbLine
 10
5128.434825397145
 20
-337.1432746005444
 30
0.0
 11
5126.589305377614
 21
-337.3668692660717
 31
0.0
  0
LINE
  5
B7B1
330
18
100
AcDbEntity
  8
01
100
AcDbLine
 10
5126.589305377614
 20
-337.3668692660717
 30
0.0
 11
5124.737651324879
 21
-337.5661910128979
 31
0.0
  0
LINE
  5
B7B2
330
18
100
AcDbEntity
  8
01
100
AcDbLine
 10
5124.737651324879
 20
-337.5661910128979
 30
0.0
 11
5122.880794025074
 21
-337.7405875277905
 31
0.0
  0
LINE
  5
B7B3
330
18
100
AcDbEntity
  8
01
100
AcDbLine
 10
5122.880794025074
 20
-337.7405875277905
 30
0.0
 11
5121.019649005543
 21
-337.8894084048657
 31
0.0
  0
LINE
  5
B7B4
330
18
100
AcDbEntity
  8
01
100
AcDbLine
 10
5121.019649005543
 20
-337.8894084048657
 30
0.0
 11
5119.155162311207
 21
-338.0120204043774
 31
0.0
  0
LINE
  5
B7B5
330
18
100
AcDbEntity
  8
01
100
AcDbLine
 10
5119.155162311207
 20
-338.0120204043774
 30
0.0
 11
5117.288341022145
 21
-338.1085379672436
 31
0.0
  0
LINE
  5
B7B6
330
18
100
AcDbEntity
  8
01
100
AcDbLine
 10
5117.288341022145
 20
-338.1085379672436
 30
0.0
 11
5115.420375323903
 21
-338.180177981892
 31
0.0
  0
LINE
  5
B7B7
330
18
100
AcDbEntity
  8
01
100
AcDbLine
 10
5115.420375323903
 20
-338.180177981892
 30
0.0
 11
5113.552485919606
 21
-338.2282546115307
 31
0.0
  0
LINE
  5
B7B8
330
18
100
AcDbEntity
  8
01
100
AcDbLine
 10
5113.552485919606
 20
-338.2282546115307
 30
0.0
 11
5111.686107135426
 21
-338.2552035403637
 31
0.0
  0
LINE
  5
B7B9
330
18
100
AcDbEntity
  8
01
100
AcDbLine
 10
5111.686107135426
 20
-338.2552035403637
 30
0.0
 11
5109.823237872731
 21
-338.265835101643
 31
0.0
  0
LINE
  5
B7BA
330
18
100
AcDbEntity
  8
01
100
AcDbLine
 10
5109.823237872731
 20
-338.265835101643
 30
0.0
 11
5107.93392512859
 21
-338.267824466267
 31
0.0
  0
LINE
  5
B7BB
330
18
100
AcDbEntity
  8
01
100
AcDbLine
 10
5110.034007526051
 20
-339.1518347812084
 30
0.0
 11
5110.113597369801
 21
-339.1479533267407
 31
0.0
  0
LINE
  5
B7BC
330
18
100
AcDbEntity
  8
01
100
AcDbLine
 10
5110.113597369801
 20
-339.1479533267407
 30
0.0
 11
5110.348247028004
 21
-339.1380122256664
 31
0.0
  0
LINE
  5
B7BD
330
18
100
AcDbEntity
  8
01
100
AcDbLine
 10
5110.348247028004
 20
-339.1380122256664
 30
0.0
 11
5110.727534747731
 21
-339.1238425326733
 31
0.0
  0
LINE
  5
B7BE
330
18
100
AcDbEntity
  8
01
100
AcDbLine
 10
5110.727534747731
 20
-339.1238425326733
 30
0.0
 11
5111.232997394215
 21
-339.1077845645336
 31
0.0
  0
LINE
  5
B7BF
330
18
100
AcDbEntity
  8
01
100
AcDbLine
 10
5111.232997394215
 20
-339.1077845645336
 30
0.0
 11
5111.841548419606
 21
-339.0922682834057
 31
0.0
  0
LINE
  5
B7C0
330
18
100
AcDbEntity
  8
01
100
AcDbLine
 10
5111.841548419606
 20
-339.0922682834057
 30
0.0
 11
5112.524714923512
 21
-339.0794089389233
 31
0.0
  0
LINE
  5
B7C1
330
18
100
AcDbEntity
  8
01
100
AcDbLine
 10
5112.524714923512
 20
-339.0794089389233
 30
0.0
 11
5113.250560260426
 21
-339.0710356784252
 31
0.0
  0
LINE
  5
B7C2
330
18
100
AcDbEntity
  8
01
100
AcDbLine
 10
5113.250560260426
 20
-339.0710356784252
 30
0.0
 11
5113.985072589528
 21
-339.0682623935131
 31
0.0
  0
LINE
  5
B7C3
330
18
100
AcDbEntity
  8
01
100
AcDbLine
 10
5113.985072589528
 20
-339.0682623935131
 30
0.0
 11
5114.69369075359
 21
-339.0716593814282
 31
0.0
  0
LINE
  5
B7C4
330
18
100
AcDbEntity
  8
01
100
AcDbLine
 10
5114.69369075359
 20
-339.0716593814282
 30
0.0
 11
5115.343471027028
 21
-339.0808566165356
 31
0.0
  0
LINE
  5
B7C5
330
18
100
AcDbEntity
  8
01
100
AcDbLine
 10
5115.343471027028
 20
-339.0808566165356
 30
0.0
 11
5115.903560138356
 21
-339.0948985171703
 31
0.0
  0
LINE
  5
B7C6
330
18
100
AcDbEntity
  8
01
100
AcDbLine
 10
5115.903560138356
 20
-339.0948985171703
 30
0.0
 11
5116.348369098317
 21
-339.1117804599194
 31
0.0
  0
LINE
  5
B7C7
330
18
100
AcDbEntity
  8
01
100
AcDbLine
 10
5116.348369098317
 20
-339.1117804599194
 30
0.0
 11
5116.656535602223
 21
-339.1291010928539
 31
0.0
  0
LINE
  5
B7C8
330
18
100
AcDbEntity
  8
01
100
AcDbLine
 10
5116.656535602223
 20
-339.1291010928539
 30
0.0
 11
5116.814387775074
 21
-339.1440241885571
 31
0.0
  0
LINE
  5
B7C9
330
18
100
AcDbEntity
  8
01
100
AcDbLine
 10
5116.814387775074
 20
-339.1440241885571
 30
0.0
 11
5116.813930011403
 21
-339.1540530276684
 31
0.0
  0
LINE
  5
B7CA
330
18
100
AcDbEntity
  8
01
100
AcDbLine
 10
5116.813930011403
 20
-339.1540530276684
 30
0.0
 11
5116.65577266277
 21
-339.157472903767
 31
0.0
  0
LINE
  5
B7CB
330
18
100
AcDbEntity
  8
01
100
AcDbLine
 10
5116.65577266277
 20
-339.157472903767
 30
0.0
 11
5116.346858478199
 21
-339.1538031649975
 31
0.0
  0
LINE
  5
B7CC
330
18
100
AcDbEntity
  8
01
100
AcDbLine
 10
5116.346858478199
 20
-339.1538031649975
 30
0.0
 11
5115.902049518239
 21
-339.1442339969067
 31
0.0
  0
LINE
  5
B7CD
330
18
100
AcDbEntity
  8
01
100
AcDbLine
 10
5115.902049518239
 20
-339.1442339969067
 30
0.0
 11
5115.341884112965
 21
-339.131033237019
 31
0.0
  0
LINE
  5
B7CE
330
18
100
AcDbEntity
  8
01
100
AcDbLine
 10
5115.341884112965
 20
-339.131033237019
 30
0.0
 11
5114.692668414723
 21
-339.1174872470287
 31
0.0
  0
LINE
  5
B7CF
330
18
100
AcDbEntity
  8
01
100
AcDbLine
 10
5114.692668414723
 20
-339.1174872470287
 30
0.0
 11
5113.984523273121
 21
-339.1064875674633
 31
0.0
  0
LINE
  5
B7D0
330
18
100
AcDbEntity
  8
01
100
AcDbLine
 10
5113.984523273121
 20
-339.1064875674633
 30
0.0
 11
5113.25065181316
 21
-339.100422198811
 31
0.0
  0
LINE
  5
B7D1
330
18
100
AcDbEntity
  8
01
100
AcDbLine
 10
5113.25065181316
 20
-339.100422198811
 30
0.0
 11
5112.525203204762
 21
-339.100307757893
 31
0.0
  0
LINE
  5
B7D2
330
18
100
AcDbEntity
  8
01
100
AcDbLine
 10
5112.525203204762
 20
-339.100307757893
 30
0.0
 11
5111.842433429371
 21
-339.1060393405346
 31
0.0
  0
LINE
  5
B7D3
330
18
100
AcDbEntity
  8
01
100
AcDbLine
 10
5111.842433429371
 20
-339.1060393405346
 30
0.0
 11
5111.233806110035
 21
-339.1161578250317
 31
0.0
  0
LINE
  5
B7D4
330
18
100
AcDbEntity
  8
01
100
AcDbLine
 10
5111.233806110035
 20
-339.1161578250317
 30
0.0
 11
5110.728343463551
 21
-339.1285231662182
 31
0.0
  0
LINE
  5
B7D5
330
18
100
AcDbEntity
  8
01
100
AcDbLine
 10
5110.728343463551
 20
-339.1285231662182
 30
0.0
 11
5110.348979449879
 21
-339.1403525424389
 31
0.0
  0
LINE
  5
B7D6
330
18
100
AcDbEntity
  8
01
100
AcDbLine
 10
5110.348979449879
 20
-339.1403525424389
 30
0.0
 11
5110.114299274098
 21
-339.1488402438549
 31
0.0
  0
LINE
  5
B7D7
330
18
100
AcDbEntity
  8
01
100
AcDbLine
 10
5110.114299274098
 20
-339.1488402438549
 30
0.0
 11
5110.034007526051
 21
-339.1518347812084
 31
0.0
  0
LINE
  5
B7D8
330
18
100
AcDbEntity
  8
01
100
AcDbLine
 10
5151.839122272145
 20
-339.1520121646313
 30
0.0
 11
5151.771846271168
 21
-339.1528723788647
 31
0.0
  0
LINE
  5
B7D9
330
18
100
AcDbEntity
  8
01
100
AcDbLine
 10
5151.771846271168
 20
-339.1528723788647
 30
0.0
 11
5151.576854205739
 21
-339.1563590121655
 31
0.0
  0
LINE
  5
B7DA
330
18
100
AcDbEntity
  8
01
100
AcDbLine
 10
5151.576854205739
 20
-339.1563590121655
 30
0.0
 11
5151.321650958668
 21
-339.1630957675366
 31
0.0
  0
LINE
  5
B7DB
330
18
100
AcDbEntity
  8
01
100
AcDbLine
 10
5151.321650958668
 20
-339.1630957675366
 30
0.0
 11
5150.927836871754
 21
-339.1773684573559
 31
0.0
  0
LINE
  5
B7DC
330
18
100
AcDbEntity
  8
01
100
AcDbLine
 10
5150.927836871754
 20
-339.1773684573559
 30
0.0
 11
5150.379710651051
 21
-339.2008402896313
 31
0.0
  0
LINE
  5
B7DD
330
18
100
AcDbEntity
  8
01
100
AcDbLine
 10
5150.379710651051
 20
-339.2008402896313
 30
0.0
 11
5149.686259723317
 21
-339.2323744845776
 31
0.0
  0
LINE
  5
B7DE
330
18
100
AcDbEntity
  8
01
100
AcDbLine
 10
5149.686259723317
 20
-339.2323744845776
 30
0.0
 11
5148.857127643239
 21
-339.2679713321118
 31
0.0
  0
LINE
  5
B7DF
330
18
100
AcDbEntity
  8
01
100
AcDbLine
 10
5148.857127643239
 20
-339.2679713321118
 30
0.0
 11
5147.92203853191
 21
-339.3018801761059
 31
0.0
  0
LINE
  5
B7E0
330
18
100
AcDbEntity
  8
01
100
AcDbLine
 10
5147.92203853191
 20
-339.3018801761059
 30
0.0
 11
5146.90739009441
 21
-339.3300097537426
 31
0.0
  0
LINE
  5
B7E1
330
18
100
AcDbEntity
  8
01
100
AcDbLine
 10
5146.90739009441
 20
-339.3300097537426
 30
0.0
 11
5145.836314654957
 21
-339.3510115695385
 31
0.0
  0
LINE
  5
B7E2
330
18
100
AcDbEntity
  8
01
100
AcDbLine
 10
5145.836314654957
 20
-339.3510115695385
 30
0.0
 11
5144.719645953785
 21
-339.3652422976879
 31
0.0
  0
LINE
  5
B7E3
330
18
100
AcDbEntity
  8
01
100
AcDbLine
 10
5144.719645953785
 20
-339.3652422976879
 30
0.0
 11
5143.563670611989
 21
-339.3732855868725
 31
0.0
  0
LINE
  5
B7E4
330
18
100
AcDbEntity
  8
01
100
AcDbLine
 10
5143.563670611989
 20
-339.3732855868725
 30
0.0
 11
5142.37549922527
 21
-339.3758986544995
 31
0.0
  0
LINE
  5
B7E5
330
18
100
AcDbEntity
  8
01
100
AcDbLine
 10
5142.37549922527
 20
-339.3758986544995
 30
0.0
 11
5141.161891437184
 21
-339.3740599704174
 31
0.0
  0
LINE
  5
B7E6
330
18
100
AcDbEntity
  8
01
100
AcDbLine
 10
5141.161891437184
 20
-339.3740599704174
 30
0.0
 11
5139.927958942067
 21
-339.3686621737866
 31
0.0
  0
LINE
  5
B7E7
330
18
100
AcDbEntity
  8
01
100
AcDbLine
 10
5139.927958942067
 20
-339.3686621737866
 30
0.0
 11
5138.677714801442
 21
-339.3604834628491
 31
0.0
  0
LINE
  5
B7E8
330
18
100
AcDbEntity
  8
01
100
AcDbLine
 10
5138.677714801442
 20
-339.3604834628491
 30
0.0
 11
5137.414287067067
 21
-339.350084598103
 31
0.0
  0
LINE
  5
B7E9
330
18
100
AcDbEntity
  8
01
100
AcDbLine
 10
5137.414287067067
 20
-339.350084598103
 30
0.0
 11
5136.140284991871
 21
-339.337913806477
 31
0.0
  0
LINE
  5
B7EA
330
18
100
AcDbEntity
  8
01
100
AcDbLine
 10
5136.140284991871
 20
-339.337913806477
 30
0.0
 11
5134.858027911793
 21
-339.3243849826245
 31
0.0
  0
LINE
  5
B7EB
330
18
100
AcDbEntity
  8
01
100
AcDbLine
 10
5134.858027911793
 20
-339.3243849826245
 30
0.0
 11
5133.569301105153
 21
-339.3098338199047
 31
0.0
  0
LINE
  5
B7EC
330
18
100
AcDbEntity
  8
01
100
AcDbLine
 10
5133.569301105153
 20
-339.3098338199047
 30
0.0
 11
5132.275447345387
 21
-339.2945540500073
 31
0.0
  0
LINE
  5
B7ED
330
18
100
AcDbEntity
  8
01
100
AcDbLine
 10
5132.275447345387
 20
-339.2945540500073
 30
0.0
 11
5130.977824664723
 21
-339.278888995686
 31
0.0
  0
LINE
  5
B7EE
330
18
100
AcDbEntity
  8
01
100
AcDbLine
 10
5130.977824664723
 20
-339.278888995686
 30
0.0
 11
5129.677760577809
 21
-339.2631838870434
 31
0.0
  0
LINE
  5
B7EF
330
18
100
AcDbEntity
  8
01
100
AcDbLine
 10
5129.677760577809
 20
-339.2631838870434
 30
0.0
 11
5128.37630794109
 21
-339.2477572513012
 31
0.0
  0
LINE
  5
B7F0
330
18
100
AcDbEntity
  8
01
100
AcDbLine
 10
5128.37630794109
 20
-339.2477572513012
 30
0.0
 11
5127.074107623707
 21
-339.2328608584789
 31
0.0
  0
LINE
  5
B7F1
330
18
100
AcDbEntity
  8
01
100
AcDbLine
 10
5127.074107623707
 20
-339.2328608584789
 30
0.0
 11
5125.771617389332
 21
-339.2187007022289
 31
0.0
  0
LINE
  5
B7F2
330
18
100
AcDbEntity
  8
01
100
AcDbLine
 10
5125.771617389332
 20
-339.2187007022289
 30
0.0
 11
5124.469768024098
 21
-339.2055724215893
 31
0.0
  0
LINE
  5
B7F3
330
18
100
AcDbEntity
  8
01
100
AcDbLine
 10
5124.469768024098
 20
-339.2055724215893
 30
0.0
 11
5123.169856525074
 21
-339.1937830996899
 31
0.0
  0
LINE
  5
B7F4
330
18
100
AcDbEntity
  8
01
100
AcDbLine
 10
5123.169856525074
 20
-339.1937830996899
 30
0.0
 11
5121.872142291676
 21
-339.1835139346508
 31
0.0
  0
LINE
  5
B7F5
330
18
100
AcDbEntity
  8
01
100
AcDbLine
 10
5121.872142291676
 20
-339.1835139346508
 30
0.0
 11
5120.575267291676
 21
-339.174734408894
 31
0.0
  0
LINE
  5
B7F6
330
18
100
AcDbEntity
  8
01
100
AcDbLine
 10
5120.575267291676
 20
-339.174734408894
 30
0.0
 11
5119.278193927418
 21
-339.1674349856762
 31
0.0
  0
LINE
  5
B7F7
330
18
100
AcDbEntity
  8
01
100
AcDbLine
 10
5119.278193927418
 20
-339.1674349856762
 30
0.0
 11
5117.980525470387
 21
-339.1616957736401
 31
0.0
  0
LINE
  5
B7F8
330
18
100
AcDbEntity
  8
01
100
AcDbLine
 10
5117.980525470387
 20
-339.1616957736401
 30
0.0
 11
5116.671107745778
 21
-339.1575282168774
 31
0.0
  0
LINE
  5
B7F9
330
18
100
AcDbEntity
  8
01
100
AcDbLine
 10
5152.585200763356
 20
-339.1324885440258
 30
0.0
 11
5152.411494708668
 21
-339.1415255618481
 31
0.0
  0
LINE
  5
B7FA
330
18
100
AcDbEntity
  8
01
100
AcDbLine
 10
5152.411494708668
 20
-339.1415255618481
 30
0.0
 11
5152.25033137859
 21
-339.1474974704174
 31
0.0
  0
LINE
  5
B7FB
330
18
100
AcDbEntity
  8
01
100
AcDbLine
 10
5152.25033137859
 20
-339.1474974704174
 30
0.0
 11
5152.105266070973
 21
-339.1508982730297
 31
0.0
  0
LINE
  5
B7FC
330
18
100
AcDbEntity
  8
01
100
AcDbLine
 10
5152.105266070973
 20
-339.1508982730297
 30
0.0
 11
5151.983348346364
 21
-339.1523230624584
 31
0.0
  0
LINE
  5
B7FD
330
18
100
AcDbEntity
  8
01
100
AcDbLine
 10
5151.983348346364
 20
-339.1523230624584
 30
0.0
 11
5151.891139484059
 21
-339.1525405002026
 31
0.0
  0
LINE
  5
B7FE
330
18
100
AcDbEntity
  8
01
100
AcDbLine
 10
5151.891139484059
 20
-339.1525405002026
 30
0.0
 11
5151.819652057301
 21
-339.1522143435864
 31
0.0
  0
LINE
  5
B7FF
330
18
100
AcDbEntity
  8
01
100
AcDbLine
 10
5151.776133990895
 20
-317.151670749226
 30
0.0
 11
5151.830852008473
 21
-317.1514571261791
 31
0.0
  0
LINE
  5
B800
330
18
100
AcDbEntity
  8
01
100
AcDbLine
 10
5151.830852008473
 20
-317.1514571261791
 30
0.0
 11
5151.811976886403
 21
-317.1511862826733
 31
0.0
  0
LINE
  5
B801
330
18
100
AcDbEntity
  8
01
100
AcDbLine
 10
5151.811976886403
 20
-317.1511862826733
 30
0.0
 11
5151.652461505543
 21
-317.148611362019
 31
0.0
  0
LINE
  5
B802
330
18
100
AcDbEntity
  8
01
100
AcDbLine
 10
5151.652461505543
 20
-317.148611362019
 30
0.0
 11
5151.424907184254
 21
-317.1434538913159
 31
0.0
  0
LINE
  5
B803
330
18
100
AcDbEntity
  8
01
100
AcDbLine
 10
5151.424907184254
 20
-317.1434538913159
 30
0.0
 11
5151.086665607106
 21
-317.132269198933
 31
0.0
  0
LINE
  5
B804
330
18
100
AcDbEntity
  8
01
100
AcDbLine
 10
5151.086665607106
 20
-317.132269198933
 30
0.0
 11
5150.592891193043
 21
-317.1120894503979
 31
0.0
  0
LINE
  5
B805
330
18
100
AcDbEntity
  8
01
100
AcDbLine
 10
5150.592891193043
 20
-317.1120894503979
 30
0.0
 11
5149.95247981609
 21
-317.0832274508862
 31
0.0
  0
LINE
  5
B806
330
18
100
AcDbEntity
  8
01
100
AcDbLine
 10
5149.95247981609
 20
-317.0832274508862
 30
0.0
 11
5149.170161700856
 21
-317.0484603000073
 31
0.0
  0
LINE
  5
B807
330
18
100
AcDbEntity
  8
01
100
AcDbLine
 10
5149.170161700856
 20
-317.0484603000073
 30
0.0
 11
5148.271266437184
 21
-317.013414676228
 31
0.0
  0
LINE
  5
B808
330
18
100
AcDbEntity
  8
01
100
AcDbLine
 10
5148.271266437184
 20
-317.013414676228
 30
0.0
 11
5147.284221149098
 21
-316.9829352450756
 31
0.0
  0
LINE
  5
B809
330
18
100
AcDbEntity
  8
01
100
AcDbLine
 10
5147.284221149098
 20
-316.9829352450756
 30
0.0
 11
5146.232860065114
 21
-316.9593337130932
 31
0.0
  0
LINE
  5
B80A
330
18
100
AcDbEntity
  8
01
100
AcDbLine
 10
5146.232860065114
 20
-316.9593337130932
 30
0.0
 11
5145.133693194996
 21
-316.9427168918041
 31
0.0
  0
LINE
  5
B80B
330
18
100
AcDbEntity
  8
01
100
AcDbLine
 10
5145.133693194996
 20
-316.9427168918041
 30
0.0
 11
5143.992900348317
 21
-316.9325163913159
 31
0.0
  0
LINE
  5
B80C
330
18
100
AcDbEntity
  8
01
100
AcDbLine
 10
5143.992900348317
 20
-316.9325163913159
 30
0.0
 11
5142.817317462574
 21
-316.928022677937
 31
0.0
  0
LINE
  5
B80D
330
18
100
AcDbEntity
  8
01
100
AcDbLine
 10
5142.817317462574
 20
-316.928022677937
 30
0.0
 11
5141.614070392262
 21
-316.9282782626537
 31
0.0
  0
LINE
  5
B80E
330
18
100
AcDbEntity
  8
01
100
AcDbLine
 10
5141.614070392262
 20
-316.9282782626537
 30
0.0
 11
5140.389018512379
 21
-316.9323943210034
 31
0.0
  0
LINE
  5
B80F
330
18
100
AcDbEntity
  8
01
100
AcDbLine
 10
5140.389018512379
 20
-316.9323943210034
 30
0.0
 11
5139.146022296559
 21
-316.9396384311108
 31
0.0
  0
LINE
  5
B810
330
18
100
AcDbEntity
  8
01
100
AcDbLine
 10
5139.146022296559
 20
-316.9396384311108
 30
0.0
 11
5137.888728595387
 21
-316.9493048739819
 31
0.0
  0
LINE
  5
B811
330
18
100
AcDbEntity
  8
01
100
AcDbLine
 10
5137.888728595387
 20
-316.9493048739819
 30
0.0
 11
5136.62012813152
 21
-316.9608405185131
 31
0.0
  0
LINE
  5
B812
330
18
100
AcDbEntity
  8
01
100
AcDbLine
 10
5136.62012813152
 20
-316.9608405185131
 30
0.0
 11
5135.342479205739
 21
-316.9738715243725
 31
0.0
  0
LINE
  5
B813
330
18
100
AcDbEntity
  8
01
100
AcDbLine
 10
5135.342479205739
 20
-316.9738715243725
 30
0.0
 11
5134.05778071941
 21
-316.9880545688061
 31
0.0
  0
LINE
  5
B814
330
18
100
AcDbEntity
  8
01
100
AcDbLine
 10
5134.05778071941
 20
-316.9880545688061
 30
0.0
 11
5132.767466998707
 21
-317.0030692172436
 31
0.0
  0
LINE
  5
B815
330
18
100
AcDbEntity
  8
01
100
AcDbLine
 10
5132.767466998707
 20
-317.0030692172436
 30
0.0
 11
5131.472880817067
 21
-317.0186026645092
 31
0.0
  0
LINE
  5
B816
330
18
100
AcDbEntity
  8
01
100
AcDbLine
 10
5131.472880817067
 20
-317.0186026645092
 30
0.0
 11
5130.175334430348
 21
-317.0343192172436
 31
0.0
  0
LINE
  5
B817
330
18
100
AcDbEntity
  8
01
100
AcDbLine
 10
5130.175334430348
 20
-317.0343192172436
 30
0.0
 11
5128.876033282887
 21
-317.0498717379955
 31
0.0
  0
LINE
  5
B818
330
18
100
AcDbEntity
  8
01
100
AcDbLine
 10
5128.876033282887
 20
-317.0498717379955
 30
0.0
 11
5127.57584712566
 21
-317.0649741244702
 31
0.0
  0
LINE
  5
B819
330
18
100
AcDbEntity
  8
01
100
AcDbLine
 10
5127.57584712566
 20
-317.0649741244702
 30
0.0
 11
5126.275126910817
 21
-317.0794241977123
 31
0.0
  0
LINE
  5
B81A
330
18
100
AcDbEntity
  8
01
100
AcDbLine
 10
5126.275126910817
 20
-317.0794241977123
 30
0.0
 11
5124.974635577809
 21
-317.0929701877026
 31
0.0
  0
LINE
  5
B81B
330
18
100
AcDbEntity
  8
01
100
AcDbLine
 10
5124.974635577809
 20
-317.0929701877026
 30
0.0
 11
5123.675593829762
 21
-317.1052992892651
 31
0.0
  0
LINE
  5
B81C
330
18
100
AcDbEntity
  8
01
100
AcDbLine
 10
5123.675593829762
 20
-317.1052992892651
 30
0.0
 11
5122.378856158864
 21
-317.1161521029858
 31
0.0
  0
LINE
  5
B81D
330
18
100
AcDbEntity
  8
01
100
AcDbLine
 10
5122.378856158864
 20
-317.1161521029858
 30
0.0
 11
5121.083583331715
 21
-317.1254981112866
 31
0.0
  0
LINE
  5
B81E
330
18
100
AcDbEntity
  8
01
100
AcDbLine
 10
5121.083583331715
 20
-317.1254981112866
 30
0.0
 11
5119.788447833668
 21
-317.1333716464428
 31
0.0
  0
LINE
  5
B81F
330
18
100
AcDbEntity
  8
01
100
AcDbLine
 10
5119.788447833668
 20
-317.1333716464428
 30
0.0
 11
5118.492763019215
 21
-317.1397307467846
 31
0.0
  0
LINE
  5
B820
330
18
100
AcDbEntity
  8
01
100
AcDbLine
 10
5118.492763019215
 20
-317.1397307467846
 30
0.0
 11
5117.196177936207
 21
-317.1444647860912
 31
0.0
  0
LINE
  5
B821
330
18
100
AcDbEntity
  8
01
100
AcDbLine
 10
5117.196177936207
 20
-317.1444647860912
 30
0.0
 11
5115.895427203785
 21
-317.1477034640698
 31
0.0
  0
LINE
  5
B822
330
18
100
AcDbEntity
  8
01
100
AcDbLine
 10
5115.895427203785
 20
-317.1477034640698
 30
0.0
 11
5114.587977862965
 21
-317.1497214389233
 31
0.0
  0
LINE
  5
B823
330
18
100
AcDbEntity
  8
01
100
AcDbLine
 10
5114.587977862965
 20
-317.1497214389233
 30
0.0
 11
5113.271373248707
 21
-317.150923068562
 31
0.0
  0
LINE
  5
B824
330
18
100
AcDbEntity
  8
01
100
AcDbLine
 10
5113.271373248707
 20
-317.150923068562
 30
0.0
 11
5111.946086383473
 21
-317.1515677523998
 31
0.0
  0
LINE
  5
B825
330
18
100
AcDbEntity
  8
01
100
AcDbLine
 10
5111.946086383473
 20
-317.1515677523998
 30
0.0
 11
5110.613399005543
 21
-317.1517661166577
 31
0.0
  0
LINE
  5
B826
330
18
100
AcDbEntity
  8
01
100
AcDbLine
 10
5110.613399005543
 20
-317.1517661166577
 30
0.0
 11
5109.276271319996
 21
-317.1516783786205
 31
0.0
  0
LINE
  5
B827
330
18
100
AcDbEntity
  8
01
100
AcDbLine
 10
5109.276271319996
 20
-317.1516783786205
 30
0.0
 11
5107.933909869801
 21
-317.1517470431713
 31
0.0
  0
LINE
  5
B828
330
18
100
AcDbEntity
  8
01
100
AcDbLine
 10
5107.933909869801
 20
-317.1517470431713
 30
0.0
 11
5107.933918135273
 21
-339.1517113984587
 31
0.0
  0
LINE
  5
B829
330
18
100
AcDbEntity
  8
01
100
AcDbLine
 10
5152.585200763356
 20
-317.1710112643627
 30
0.0
 11
5152.411494708668
 21
-317.1619742465405
 31
0.0
  0
LINE
  5
B82A
330
18
100
AcDbEntity
  8
01
100
AcDbLine
 10
5152.411494708668
 20
-317.1619742465405
 30
0.0
 11
5152.25033137859
 21
-317.1560004306225
 31
0.0
  0
LINE
  5
B82B
330
18
100
AcDbEntity
  8
01
100
AcDbLine
 10
5152.25033137859
 20
-317.1560004306225
 30
0.0
 11
5152.105266070973
 21
-317.1526015353588
 31
0.0
  0
LINE
  5
B82C
330
18
100
AcDbEntity
  8
01
100
AcDbLine
 10
5152.105266070973
 20
-317.1526015353588
 30
0.0
 11
5151.983348346364
 21
-317.1511748385815
 31
0.0
  0
LINE
  5
B82D
330
18
100
AcDbEntity
  8
01
100
AcDbLine
 10
5151.983348346364
 20
-317.1511748385815
 30
0.0
 11
5151.891139484059
 21
-317.1509574008373
 31
0.0
  0
LINE
  5
B82E
330
18
100
AcDbEntity
  8
01
100
AcDbLine
 10
5151.891139484059
 20
-317.1509574008373
 30
0.0
 11
5151.819652057301
 21
-317.1512816501049
 31
0.0
  0
LINE
  5
B82F
330
18
100
AcDbEntity
  8
01
100
AcDbLine
 10
5275.633912858139
 20
-317.1513679336308
 30
0.0
 11
5273.987672623764
 21
-317.151055128455
 31
0.0
  0
LINE
  5
B830
330
18
100
AcDbEntity
  8
01
100
AcDbLine
 10
5273.987672623764
 20
-317.151055128455
 30
0.0
 11
5272.343934830796
 21
-317.1514060806035
 31
0.0
  0
LINE
  5
B831
330
18
100
AcDbEntity
  8
01
100
AcDbLine
 10
5272.343934830796
 20
-317.1514060806035
 30
0.0
 11
5270.708650406968
 21
-317.1494834731816
 31
0.0
  0
LINE
  5
B832
330
18
100
AcDbEntity
  8
01
100
AcDbLine
 10
5270.708650406968
 20
-317.1494834731816
 30
0.0
 11
5269.098436173569
 21
-317.1433036636113
 31
0.0
  0
LINE
  5
B833
330
18
100
AcDbEntity
  8
01
100
AcDbLine
 10
5269.098436173569
 20
-317.1433036636113
 30
0.0
 11
5267.543550309311
 21
-317.1282890151738
 31
0.0
  0
LINE
  5
B834
330
18
100
AcDbEntity
  8
01
100
AcDbLine
 10
5267.543550309311
 20
-317.1282890151738
 30
0.0
 11
5266.074586686264
 21
-317.1007392715214
 31
0.0
  0
LINE
  5
B835
330
18
100
AcDbEntity
  8
01
100
AcDbLine
 10
5266.074586686264
 20
-317.1007392715214
 30
0.0
 11
5264.7007921306
 21
-317.0629432510136
 31
0.0
  0
LINE
  5
B836
330
18
100
AcDbEntity
  8
01
100
AcDbLine
 10
5264.7007921306
 20
-317.0629432510136
 30
0.0
 11
5263.413011368882
 21
-317.0215766738652
 31
0.0
  0
LINE
  5
B837
330
18
100
AcDbEntity
  8
01
100
AcDbLine
 10
5263.413011368882
 20
-317.0215766738652
 30
0.0
 11
5262.206804093491
 21
-316.9844978164433
 31
0.0
  0
LINE
  5
B838
330
18
100
AcDbEntity
  8
01
100
AcDbLine
 10
5262.206804093491
 20
-316.9844978164433
 30
0.0
 11
5261.088792618882
 21
-316.9563300918339
 31
0.0
  0
LINE
  5
B839
330
18
100
AcDbEntity
  8
01
100
AcDbLine
 10
5261.088792618882
 20
-316.9563300918339
 30
0.0
 11
5260.055833634507
 21
-316.9379585098027
 31
0.0
  0
LINE
  5
B83A
330
18
100
AcDbEntity
  8
01
100
AcDbLine
 10
5260.055833634507
 20
-316.9379585098027
 30
0.0
 11
5259.100618180405
 21
-316.9289176772832
 31
0.0
  0
LINE
  5
B83B
330
18
100
AcDbEntity
  8
01
100
AcDbLine
 10
5259.100618180405
 20
-316.9289176772832
 30
0.0
 11
5258.218904313218
 21
-316.9282462905644
 31
0.0
  0
LINE
  5
B83C
330
18
100
AcDbEntity
  8
01
100
AcDbLine
 10
5258.218904313218
 20
-316.9282462905644
 30
0.0
 11
5257.402986344468
 21
-316.9344642471074
 31
0.0
  0
LINE
  5
B83D
330
18
100
AcDbEntity
  8
01
100
AcDbLine
 10
5257.402986344468
 20
-316.9344642471074
 30
0.0
 11
5256.639711197983
 21
-316.9461677383183
 31
0.0
  0
LINE
  5
B83E
330
18
100
AcDbEntity
  8
01
100
AcDbLine
 10
5256.639711197983
 20
-316.9461677383183
 30
0.0
 11
5255.917466935288
 21
-316.9623039077519
 31
0.0
  0
LINE
  5
B83F
330
18
100
AcDbEntity
  8
01
100
AcDbLine
 10
5255.917466935288
 20
-316.9623039077519
 30
0.0
 11
5255.231797989975
 21
-316.98186567533
 31
0.0
  0
LINE
  5
B840
330
18
100
AcDbEntity
  8
01
100
AcDbLine
 10
5255.231797989975
 20
-316.98186567533
 30
0.0
 11
5254.579469498764
 21
-317.0037925552128
 31
0.0
  0
LINE
  5
B841
330
18
100
AcDbEntity
  8
01
100
AcDbLine
 10
5254.579469498764
 20
-317.0037925552128
 30
0.0
 11
5253.955873307358
 21
-317.0271079849003
 31
0.0
  0
LINE
  5
B842
330
18
100
AcDbEntity
  8
01
100
AcDbLine
 10
5253.955873307358
 20
-317.0271079849003
 30
0.0
 11
5253.371385392319
 21
-317.0503776382207
 31
0.0
  0
LINE
  5
B843
330
18
100
AcDbEntity
  8
01
100
AcDbLine
 10
5253.371385392319
 20
-317.0503776382207
 30
0.0
 11
5252.842317399155
 21
-317.0717552016972
 31
0.0
  0
LINE
  5
B844
330
18
100
AcDbEntity
  8
01
100
AcDbLine
 10
5252.842317399155
 20
-317.0717552016972
 30
0.0
 11
5252.352601822983
 21
-317.0909507583378
 31
0.0
  0
LINE
  5
B845
330
18
100
AcDbEntity
  8
01
100
AcDbLine
 10
5252.352601822983
 20
-317.0909507583378
 30
0.0
 11
5251.892091569077
 21
-317.1080406020878
 31
0.0
  0
LINE
  5
B846
330
18
100
AcDbEntity
  8
01
100
AcDbLine
 10
5251.892091569077
 20
-317.1080406020878
 30
0.0
 11
5251.492662247788
 21
-317.1216819595097
 31
0.0
  0
LINE
  5
B847
330
18
100
AcDbEntity
  8
01
100
AcDbLine
 10
5251.492662247788
 20
-317.1216819595097
 30
0.0
 11
5251.177743729721
 21
-317.1310813735722
 31
0.0
  0
LINE
  5
B848
330
18
100
AcDbEntity
  8
01
100
AcDbLine
 10
5251.177743729721
 20
-317.1310813735722
 30
0.0
 11
5250.873384293686
 21
-317.1386573623417
 31
0.0
  0
LINE
  5
B849
330
18
100
AcDbEntity
  8
01
100
AcDbLine
 10
5250.873384293686
 20
-317.1386573623417
 30
0.0
 11
5250.579095658432
 21
-317.1447990249394
 31
0.0
  0
LINE
  5
B84A
330
18
100
AcDbEntity
  8
01
100
AcDbLine
 10
5250.579095658432
 20
-317.1447990249394
 30
0.0
 11
5250.366906937729
 21
-317.1484077285527
 31
0.0
  0
LINE
  5
B84B
330
18
100
AcDbEntity
  8
01
100
AcDbLine
 10
5250.366906937729
 20
-317.1484077285527
 30
0.0
 11
5250.237649735581
 21
-317.1499870132207
 31
0.0
  0
LINE
  5
B84C
330
18
100
AcDbEntity
  8
1DIM
100
AcDbLine
 10
5274.433914002544
 20
-392.1517474957459
 30
0.0
 11
5416.233914002544
 21
-392.1517474957459
 31
0.0
1001
ACAD
1000
DSTYLE
1002
{
1070
    40
1040
1.3
1070
    45
1040
0.5
1070
   341
1005
0
1002
}
  0
LINE
  5
B84D
330
18
100
AcDbEntity
  8
1DIM
100
AcDbLine
 10
5274.433914002544
 20
-214.1517474957459
 30
0.0
 11
5416.233914002544
 21
-214.1517474957459
 31
0.0
1001
ACAD
1000
DSTYLE
1002
{
1070
    40
1040
1.3
1070
    45
1040
0.5
1070
   341
1005
0
1002
}
  0
LINE
  5
B84E
330
18
100
AcDbEntity
  8
1DIM
100
AcDbLine
 10
5414.933914002544
 20
-389.5517474957459
 30
0.0
 11
5414.933914002544
 21
-216.7517474957459
 31
0.0
1001
ACAD
1000
DSTYLE
1002
{
1070
    40
1040
1.3
1070
    45
1040
0.5
1070
   341
1005
0
1002
}
  0
LINE
  5
B852
330
18
100
AcDbEntity
  8
1DIM
100
AcDbLine
 10
5224.933914002544
 20
-214.6517474957459
 30
0.0
 11
5224.933914002544
 21
-207.4517474957462
 31
0.0
1001
ACAD
1000
DSTYLE
1002
{
1070
    40
1040
1.3
1070
    45
1040
0.5
1070
   341
1005
0
1002
}
  0
LINE
  5
B853
330
18
100
AcDbEntity
  8
1DIM
100
AcDbLine
 10
5274.933914002544
 20
-214.6517474957459
 30
0.0
 11
5274.933914002544
 21
-207.4517474957462
 31
0.0
1001
ACAD
1000
DSTYLE
1002
{
1070
    40
1040
1.3
1070
    45
1040
0.5
1070
   341
1005
0
1002
}
  0
LINE
  5
B854
330
18
100
AcDbEntity
  8
1DIM
100
AcDbLine
 10
5227.533914002544
 20
-208.7517474957463
 30
0.0
 11
5272.333914002544
 21
-208.7517474957463
 31
0.0
1001
ACAD
1000
DSTYLE
1002
{
1070
    40
1040
1.3
1070
    45
1040
0.5
1070
   341
1005
0
1002
}
  0
LINE
  5
B858
330
18
100
AcDbEntity
  8
1DIM
100
AcDbLine
 10
5352.689061999892
 20
-93.12502838671736
 30
0.0
 11
5396.233816083273
 21
-93.12502838671736
 31
0.0
1001
ACAD
1000
DSTYLE
1002
{
1070
    40
1040
1.3
1002
}
  0
LINE
  5
B859
330
18
100
AcDbEntity
  8
1DIM
100
AcDbLine
 10
5378.933816083273
 20
-135.1285276008023
 30
0.0
 11
5396.233816083273
 21
-135.1285276008023
 31
0.0
1001
ACAD
1000
DSTYLE
1002
{
1070
    40
1040
1.3
1002
}
  0
LINE
  5
B85A
330
18
100
AcDbEntity
  8
1DIM
100
AcDbLine
 10
5394.933816083273
 20
-95.72502838671736
 30
0.0
 11
5394.933816083273
 21
-132.5285276008023
 31
0.0
1001
ACAD
1000
DSTYLE
1002
{
1070
    40
1040
1.3
1002
}
  0
LINE
  5
B85E
330
18
100
AcDbEntity
  8
1DIM
100
AcDbLine
 10
5352.689061999892
 20
-93.12502838671736
 30
0.0
 11
5406.233816083273
 21
-93.12502838671736
 31
0.0
1001
ACAD
1000
DSTYLE
1002
{
1070
    40
1040
1.3
1002
}
  0
LINE
  5
B85F
330
18
100
AcDbEntity
  8
1DIM
100
AcDbLine
 10
5378.933816083273
 20
-157.1285276008023
 30
0.0
 11
5406.233816083273
 21
-157.1285276008023
 31
0.0
1001
ACAD
1000
DSTYLE
1002
{
1070
    40
1040
1.3
1002
}
  0
LINE
  5
B860
330
18
100
AcDbEntity
  8
1DIM
100
AcDbLine
 10
5404.933816083273
 20
-95.72502838671736
 30
0.0
 11
5404.933816083273
 21
-154.5285276008023
 31
0.0
1001
ACAD
1000
DSTYLE
1002
{
1070
    40
1040
1.3
1002
}
  0
LINE
  5
B864
330
18
100
AcDbEntity
  8
1DIM
100
AcDbLine
 10
5378.933914002552
 20
-339.1517474957459
 30
0.0
 11
5396.233906902552
 21
-339.1517474957459
 31
0.0
1001
ACAD
1000
DSTYLE
1002
{
1070
     3
1000
φ<>
1070
    40
1040
1.3
1070
   271
1070
     1
1002
}
  0
LINE
  5
B865
330
18
100
AcDbEntity
  8
1DIM
100
AcDbLine
 10
5378.933914002552
 20
-317.1517474957459
 30
0.0
 11
5396.233906902552
 21
-317.1517474957459
 31
0.0
1001
ACAD
1000
DSTYLE
1002
{
1070
     3
1000
φ<>
1070
    40
1040
1.3
1070
   271
1070
     1
1002
}
  0
LINE
  5
B866
330
18
100
AcDbEntity
  8
1DIM
100
AcDbLine
 10
5394.933906902552
 20
-336.5517474957459
 30
0.0
 11
5394.933906902552
 21
-319.7517474957459
 31
0.0
1001
ACAD
1000
DSTYLE
1002
{
1070
     3
1000
φ<>
1070
    40
1040
1.3
1070
   271
1070
     1
1002
}
  0
LINE
  5
B86A
330
18
100
AcDbEntity
  8
1DIM
100
AcDbLine
 10
5249.933914002545
 20
-114.6250283867172
 30
0.0
 11
5249.933914002545
 21
-173.4285276008022
 31
0.0
1001
ACAD
1000
DSTYLE
1002
{
1070
    40
1040
1.3
1002
}
  0
LINE
  5
B86B
330
18
100
AcDbEntity
  8
1DIM
100
AcDbLine
 10
5379.933816083273
 20
-156.1285276008022
 30
0.0
 11
5379.933816083273
 21
-173.4285276008022
 31
0.0
1001
ACAD
1000
DSTYLE
1002
{
1070
    40
1040
1.3
1002
}
  0
LINE
  5
B86C
330
18
100
AcDbEntity
  8
1DIM
100
AcDbLine
 10
5252.533914002545
 20
-172.1285276008022
 30
0.0
 11
5377.333816083273
 21
-172.1285276008022
 31
0.0
1001
ACAD
1000
DSTYLE
1002
{
1070
    40
1040
1.3
1002
}
  0
LINE
  5
B870
330
18
100
AcDbEntity
  8
1DIM
100
AcDbLine
 10
5236.43255914052
 20
-102.1250355092595
 30
0.0
 11
5236.43255914052
 21
-183.4285276008022
 31
0.0
1001
ACAD
1000
DSTYLE
1002
{
1070
    40
1040
1.3
1002
}
  0
LINE
  5
B871
330
18
100
AcDbEntity
  8
1DIM
100
AcDbLine
 10
5379.933816083273
 20
-156.1285276008022
 30
0.0
 11
5379.933816083273
 21
-183.4285276008022
 31
0.0
1001
ACAD
1000
DSTYLE
1002
{
1070
    40
1040
1.3
1002
}
  0
LINE
  5
B872
330
18
100
AcDbEntity
  8
1DIM
100
AcDbLine
 10
5239.032559140521
 20
-182.1285276008022
 30
0.0
 11
5377.333816083273
 21
-182.1285276008022
 31
0.0
1001
ACAD
1000
DSTYLE
1002
{
1070
    40
1040
1.3
1002
}
  0
LINE
  5
B876
330
18
100
AcDbEntity
  8
0
  6
BYBLOCK
100
AcDbLine
 10
5415.630581896544
 20
-389.5517474957459
 30
0.0
 11
5414.933914002544
 21
-392.1517474957459
 31
0.0
  0
LINE
  5
B877
330
18
100
AcDbEntity
  8
0
  6
BYBLOCK
100
AcDbLine
 10
5414.933914002544
 20
-392.1517474957459
 30
0.0
 11
5414.237246108544
 21
-389.5517474957459
 31
0.0
  0
LINE
  5
B878
330
18
100
AcDbEntity
  8
0
  6
BYBLOCK
100
AcDbLine
 10
5414.933914002544
 20
-392.1517474957459
 30
0.0
 11
5414.933914002544
 21
-389.5517474957459
 31
0.0
  0
LINE
  5
B879
330
18
100
AcDbEntity
  8
0
  6
BYBLOCK
100
AcDbLine
 10
5414.237246108544
 20
-216.7517474957459
 30
0.0
 11
5414.933914002544
 21
-214.1517474957459
 31
0.0
  0
LINE
  5
B87A
330
18
100
AcDbEntity
  8
0
  6
BYBLOCK
100
AcDbLine
 10
5414.933914002544
 20
-214.1517474957459
 30
0.0
 11
5415.630581896544
 21
-216.7517474957459
 31
0.0
  0
LINE
  5
B87B
330
18
100
AcDbEntity
  8
0
  6
BYBLOCK
100
AcDbLine
 10
5414.933914002544
 20
-214.1517474957459
 30
0.0
 11
5414.933914002544
 21
-216.7517474957459
 31
0.0
  0
TEXT
  5
B87C
330
18
100
AcDbEntity
  8
1DIM
  6
CONTINUOUS
100
AcDbText
 10
5414.023914002543
 20
-308.4600808290788
 30
0.0
 40
4.55
  1
178
 50
90.0
100
AcDbText
1001
ACAD
1000
DSTYLE
1002
{
1070
    40
1040
1.3
1070
    45
1040
0.5
1070
   341
1005
0
1002
}
  0
LINE
  5
B87D
330
18
100
AcDbEntity
  8
0
  6
BYBLOCK
100
AcDbLine
 10
5227.533914002544
 20
-209.4484153897463
 30
0.0
 11
5224.933914002544
 21
-208.7517474957463
 31
0.0
  0
LINE
  5
B87E
330
18
100
AcDbEntity
  8
0
  6
BYBLOCK
100
AcDbLine
 10
5224.933914002544
 20
-208.7517474957463
 30
0.0
 11
5227.533914002544
 21
-208.0550796017463
 31
0.0
  0
LINE
  5
B87F
330
18
100
AcDbEntity
  8
0
  6
BYBLOCK
100
AcDbLine
 10
5224.933914002544
 20
-208.7517474957463
 30
0.0
 11
5227.533914002544
 21
-208.7517474957463
 31
0.0
  0
LINE
  5
B880
330
18
100
AcDbEntity
  8
0
  6
BYBLOCK
100
AcDbLine
 10
5272.333914002544
 20
-208.0550796017463
 30
0.0
 11
5274.933914002544
 21
-208.7517474957463
 31
0.0
  0
LINE
  5
B881
330
18
100
AcDbEntity
  8
0
  6
BYBLOCK
100
AcDbLine
 10
5274.933914002544
 20
-208.7517474957463
 30
0.0
 11
5272.333914002544
 21
-209.4484153897463
 31
0.0
  0
LINE
  5
B882
330
18
100
AcDbEntity
  8
0
  6
BYBLOCK
100
AcDbLine
 10
5274.933914002544
 20
-208.7517474957463
 30
0.0
 11
5272.333914002544
 21
-208.7517474957463
 31
0.0
  0
TEXT
  5
B883
330
18
100
AcDbEntity
  8
1DIM
  6
CONTINUOUS
100
AcDbText
 10
5246.410823724766
 20
-207.8417474957463
 30
0.0
 40
4.55
  1
50
100
AcDbText
1001
ACAD
1000
DSTYLE
1002
{
1070
    40
1040
1.3
1070
    45
1040
0.5
1070
   341
1005
0
1002
}
  0
LINE
  5
B884
330
18
100
AcDbEntity
  8
0
  6
BYBLOCK
100
AcDbLine
 10
5394.237148189273
 20
-95.72502838671736
 30
0.0
 11
5394.933816083273
 21
-93.12502838671736
 31
0.0
  0
LINE
  5
B885
330
18
100
AcDbEntity
  8
0
  6
BYBLOCK
100
AcDbLine
 10
5394.933816083273
 20
-93.12502838671736
 30
0.0
 11
5395.630483977273
 21
-95.72502838671736
 31
0.0
  0
LINE
  5
B886
330
18
100
AcDbEntity
  8
0
  6
BYBLOCK
100
AcDbLine
 10
5394.933816083273
 20
-93.12502838671736
 30
0.0
 11
5394.933816083273
 21
-95.72502838671736
 31
0.0
  0
LINE
  5
B887
330
18
100
AcDbEntity
  8
0
  6
BYBLOCK
100
AcDbLine
 10
5395.630483977273
 20
-132.5285276008023
 30
0.0
 11
5394.933816083273
 21
-135.1285276008023
 31
0.0
  0
LINE
  5
B888
330
18
100
AcDbEntity
  8
0
  6
BYBLOCK
100
AcDbLine
 10
5394.933816083273
 20
-135.1285276008023
 30
0.0
 11
5394.237148189273
 21
-132.5285276008023
 31
0.0
  0
LINE
  5
B889
330
18
100
AcDbEntity
  8
0
  6
BYBLOCK
100
AcDbLine
 10
5394.933816083273
 20
-135.1285276008023
 30
0.0
 11
5394.933816083273
 21
-132.5285276008023
 31
0.0
  0
TEXT
  5
B88A
330
18
100
AcDbEntity
  8
1DIM
  6
CONTINUOUS
100
AcDbText
 10
5394.023816083273
 20
-117.9184446604258
 30
0.0
 40
4.55
  1
42
 50
90.0
100
AcDbText
1001
ACAD
1000
DSTYLE
1002
{
1070
    40
1040
1.3
1002
}
  0
LINE
  5
B88B
330
18
100
AcDbEntity
  8
0
  6
BYBLOCK
100
AcDbLine
 10
5404.237148189273
 20
-95.72502838671736
 30
0.0
 11
5404.933816083273
 21
-93.12502838671736
 31
0.0
  0
LINE
  5
B88C
330
18
100
AcDbEntity
  8
0
  6
BYBLOCK
100
AcDbLine
 10
5404.933816083273
 20
-93.12502838671736
 30
0.0
 11
5405.630483977273
 21
-95.72502838671736
 31
0.0
  0
LINE
  5
B88D
330
18
100
AcDbEntity
  8
0
  6
BYBLOCK
100
AcDbLine
 10
5404.933816083273
 20
-93.12502838671736
 30
0.0
 11
5404.933816083273
 21
-95.72502838671736
 31
0.0
  0
LINE
  5
B88E
330
18
100
AcDbEntity
  8
0
  6
BYBLOCK
100
AcDbLine
 10
5405.630483977273
 20
-154.5285276008023
 30
0.0
 11
5404.933816083273
 21
-157.1285276008023
 31
0.0
  0
LINE
  5
B88F
330
18
100
AcDbEntity
  8
0
  6
BYBLOCK
100
AcDbLine
 10
5404.933816083273
 20
-157.1285276008023
 30
0.0
 11
5404.237148189273
 21
-154.5285276008023
 31
0.0
  0
LINE
  5
B890
330
18
100
AcDbEntity
  8
0
  6
BYBLOCK
100
AcDbLine
 10
5404.933816083273
 20
-157.1285276008023
 30
0.0
 11
5404.933816083273
 21
-154.5285276008023
 31
0.0
  0
TEXT
  5
B891
330
18
100
AcDbEntity
  8
1DIM
  6
CONTINUOUS
100
AcDbText
 10
5404.023816083273
 20
-128.9342432715366
 30
0.0
 40
4.55
  1
64
 50
90.0
100
AcDbText
1001
ACAD
1000
DSTYLE
1002
{
1070
    40
1040
1.3
1002
}
  0
LINE
  5
B892
330
18
100
AcDbEntity
  8
0
  6
BYBLOCK
100
AcDbLine
 10
5395.630574796552
 20
-336.5517474957459
 30
0.0
 11
5394.933906902552
 21
-339.1517474957459
 31
0.0
  0
LINE
  5
B893
330
18
100
AcDbEntity
  8
0
  6
BYBLOCK
100
AcDbLine
 10
5394.933906902552
 20
-339.1517474957459
 30
0.0
 11
5394.237239008552
 21
-336.5517474957459
 31
0.0
  0
LINE
  5
B894
330
18
100
AcDbEntity
  8
0
  6
BYBLOCK
100
AcDbLine
 10
5394.933906902552
 20
-339.1517474957459
 30
0.0
 11
5394.933906902552
 21
-336.5517474957459
 31
0.0
  0
LINE
  5
B895
330
18
100
AcDbEntity
  8
0
  6
BYBLOCK
100
AcDbLine
 10
5394.237239008552
 20
-319.7517474957459
 30
0.0
 11
5394.933906902552
 21
-317.1517474957459
 31
0.0
  0
LINE
  5
B896
330
18
100
AcDbEntity
  8
0
  6
BYBLOCK
100
AcDbLine
 10
5394.933906902552
 20
-317.1517474957459
 30
0.0
 11
5395.630574796552
 21
-319.7517474957459
 31
0.0
  0
LINE
  5
B897
330
18
100
AcDbEntity
  8
0
  6
BYBLOCK
100
AcDbLine
 10
5394.933906902552
 20
-317.1517474957459
 30
0.0
 11
5394.933906902552
 21
-319.7517474957459
 31
0.0
  0
TEXT
  5
B898
330
18
100
AcDbEntity
  8
1DIM
  6
CONTINUOUS
100
AcDbText
 10
5394.023906902551
 20
-335.2800808290785
 30
0.0
 40
4.55
  1
φ22
 50
90.0
100
AcDbText
1001
ACAD
1000
DSTYLE
1002
{
1070
     3
1000
φ<>
1070
    40
1040
1.3
1070
   271
1070
     1
1002
}
  0
LINE
  5
B899
330
18
100
AcDbEntity
  8
0
  6
BYBLOCK
100
AcDbLine
 10
5252.533914002545
 20
-172.8251954948022
 30
0.0
 11
5249.933914002545
 21
-172.1285276008022
 31
0.0
  0
LINE
  5
B89A
330
18
100
AcDbEntity
  8
0
  6
BYBLOCK
100
AcDbLine
 10
5249.933914002545
 20
-172.1285276008022
 30
0.0
 11
5252.533914002545
 21
-171.4318597068022
 31
0.0
  0
LINE
  5
B89B
330
18
100
AcDbEntity
  8
0
  6
BYBLOCK
100
AcDbLine
 10
5249.933914002545
 20
-172.1285276008022
 30
0.0
 11
5252.533914002545
 21
-172.1285276008022
 31
0.0
  0
LINE
  5
B89C
330
18
100
AcDbEntity
  8
0
  6
BYBLOCK
100
AcDbLine
 10
5377.333816083273
 20
-171.4318597068022
 30
0.0
 11
5379.933816083273
 21
-172.1285276008022
 31
0.0
  0
LINE
  5
B89D
330
18
100
AcDbEntity
  8
0
  6
BYBLOCK
100
AcDbLine
 10
5379.933816083273
 20
-172.1285276008022
 30
0.0
 11
5377.333816083273
 21
-172.8251954948022
 31
0.0
  0
LINE
  5
B89E
330
18
100
AcDbEntity
  8
0
  6
BYBLOCK
100
AcDbLine
 10
5379.933816083273
 20
-172.1285276008022
 30
0.0
 11
5377.333816083273
 21
-172.1285276008022
 31
0.0
  0
TEXT
  5
B89F
330
18
100
AcDbEntity
  8
1DIM
  6
CONTINUOUS
100
AcDbText
 10
5309.909906709576
 20
-171.2185276008022
 30
0.0
 40
4.55
  1
130
100
AcDbText
1001
ACAD
1000
DSTYLE
1002
{
1070
    40
1040
1.3
1002
}
  0
LINE
  5
B8A0
330
18
100
AcDbEntity
  8
0
  6
BYBLOCK
100
AcDbLine
 10
5239.032559140521
 20
-182.8251954948022
 30
0.0
 11
5236.43255914052
 21
-182.1285276008022
 31
0.0
  0
LINE
  5
B8A1
330
18
100
AcDbEntity
  8
0
  6
BYBLOCK
100
AcDbLine
 10
5236.43255914052
 20
-182.1285276008022
 30
0.0
 11
5239.032559140521
 21
-181.4318597068022
 31
0.0
  0
LINE
  5
B8A2
330
18
100
AcDbEntity
  8
0
  6
BYBLOCK
100
AcDbLine
 10
5236.43255914052
 20
-182.1285276008022
 30
0.0
 11
5239.032559140521
 21
-182.1285276008022
 31
0.0
  0
LINE
  5
B8A3
330
18
100
AcDbEntity
  8
0
  6
BYBLOCK
100
AcDbLine
 10
5377.333816083273
 20
-181.4318597068022
 30
0.0
 11
5379.933816083273
 21
-182.1285276008022
 31
0.0
  0
LINE
  5
B8A4
330
18
100
AcDbEntity
  8
0
  6
BYBLOCK
100
AcDbLine
 10
5379.933816083273
 20
-182.1285276008022
 30
0.0
 11
5377.333816083273
 21
-182.8251954948022
 31
0.0
  0
LINE
  5
B8A5
330
18
100
AcDbEntity
  8
0
  6
BYBLOCK
100
AcDbLine
 10
5379.933816083273
 20
-182.1285276008022
 30
0.0
 11
5377.333816083273
 21
-182.1285276008022
 31
0.0
  0
TEXT
  5
B8A6
330
18
100
AcDbEntity
  8
1DIM
  6
CONTINUOUS
100
AcDbText
 10
5293.092249235879
 20
-181.2185276008022
 30
0.0
 40
4.55
  1
143.5
100
AcDbText
1001
ACAD
1000
DSTYLE
1002
{
1070
    40
1040
1.3
1002
}
  0
VIEWPORT
  5
57
330
15
100
AcDbEntity
 67
     1
  8
0
100
AcDbViewport
 68
     1
 10
0.0
 20
0.0
 30
0.0
 40
555.829865361077
 41
296.9999999999999
 68
     1
 69
     1
1001
ACAD
1000
MVIEW
1002
{
1070
    16
1010
0.0
1020
0.0
1030
0.0
1010
0.0
1020
0.0
1030
1.0
1040
0.0
1040
296.9999999999999
1040
5.728000000000009
1040
25.33899999999998
1040
50.0
1040
0.0
1040
0.0
1070
    16
1070
   100
1070
     0
1070
     1
1070
     0
1070
     0
1070
     0
1070
     0
1040
0.0
1040
0.0
1040
0.0
1040
10.0
1040
10.0
1040
10.0
1040
10.0
1070
     0
1002
{
1002
}
1002
}
  0
ENDSEC
  0
SECTION
  2
OBJECTS
  0
DICTIONARY
  5
C
330
0
100
AcDbDictionary
  3
ACAD_CIP_PREVIOUS_PRODUCT_INFO
350
AEA8
  3
ACAD_COLOR
350
18D
  3
ACAD_GROUP
350
D
  3
ACAD_LAYOUT
350
18E
  3
ACAD_MATERIAL
350
18C
  3
ACAD_MLEADERSTYLE
350
9583
  3
ACAD_MLINESTYLE
350
1B
  3
ACAD_PLOTSETTINGS
350
18F
  3
ACAD_SCALELIST
350
9561
  3
ACAD_VISUALSTYLE
350
9550
  3
ACDBHEADERROUNDTRIPXREC
350
B8A7
  3
ACDBVARIABLEDICTIONARY
350
37
  3
AEC_PROPERTY_SET_DEFS
350
AF70
  3
CONTENTDICTIONARY
350
D8
  3
DRAWINGVARIABLESDICT
350
20
  3
DWGPROPS
350
B8AA
1001
ACAD
1000
TREAT_AS_HARD
1070
     0
  0
DICTIONARY
  5
96D9
330
2
100
AcDbDictionary
  3
ACAD_LAYERSTATES
360
96DA
1001
ACAD
1000
TREAT_AS_HARD
1070
     1
  0
DICTIONARY
  5
9593
330
E
100
AcDbDictionary
  3
ADSK_XREC_LAYER_RECONCILED
360
9594
1001
ACAD
1000
TREAT_AS_HARD
1070
     1
  0
DICTIONARY
  5
9595
330
29
100
AcDbDictionary
  3
ADSK_XREC_LAYER_RECONCILED
360
9596
1001
ACAD
1000
TREAT_AS_HARD
1070
     1
  0
DICTIONARY
  5
9597
330
31
100
AcDbDictionary
  3
ADSK_XREC_LAYER_RECONCILED
360
9598
1001
ACAD
1000
TREAT_AS_HARD
1070
     1
  0
DICTIONARY
  5
959D
330
243
100
AcDbDictionary
  3
ADSK_XREC_LAYER_RECONCILED
360
959E
1001
ACAD
1000
TREAT_AS_HARD
1070
     1
  0
DICTIONARY
  5
95A3
330
24E
100
AcDbDictionary
  3
ADSK_XREC_LAYER_RECONCILED
360
95A4
1001
ACAD
1000
TREAT_AS_HARD
1070
     1
  0
DICTIONARY
  5
88F
330
18
100
AcDbDictionary
  3
ACAD_SORTENTS
360
890
1001
ACAD
1000
TREAT_AS_HARD
1070
     1
  0
XRECORD
  5
AEA8
102
{ACAD_REACTORS
330
C
102
}
330
C
100
AcDbXrecord
300
ACDLT
300
2012
300
ACDLT_F_S
  0
DICTIONARY
  5
18D
102
{ACAD_REACTORS
330
C
102
}
330
C
100
AcDbDictionary
1001
ACAD
1000
TREAT_AS_HARD
1070
     0
  0
DICTIONARY
  5
D
102
{ACAD_REACTORS
330
C
102
}
330
C
100
AcDbDictionary
1001
ACAD
1000
TREAT_AS_HARD
1070
     0
  0
DICTIONARY
  5
18E
102
{ACAD_REACTORS
330
C
102
}
330
C
100
AcDbDictionary
1001
ACAD
1000
TREAT_AS_HARD
1070
     0
  0
DICTIONARY
  5
18C
102
{ACAD_REACTORS
330
C
102
}
330
C
100
AcDbDictionary
  3
BYBLOCK
350
9540
  3
BYLAYER
350
9538
  3
GLOBAL
350
9548
1001
ACAD
1000
TREAT_AS_HARD
1070
     0
  0
DICTIONARY
  5
9583
102
{ACAD_REACTORS
330
C
102
}
330
C
100
AcDbDictionary
  3
STANDARD
350
9584
1001
ACAD
1000
TREAT_AS_HARD
1070
     0
  0
DICTIONARY
  5
1B
102
{ACAD_REACTORS
330
C
102
}
330
C
100
AcDbDictionary
  3
STANDARD
350
1C
1001
ACAD
1000
TREAT_AS_HARD
1070
     0
  0
DICTIONARY
  5
18F
102
{ACAD_REACTORS
330
C
102
}
330
C
100
AcDbDictionary
1001
ACAD
1000
TREAT_AS_HARD
1070
     0
  0
DICTIONARY
  5
9561
102
{ACAD_REACTORS
330
C
102
}
330
C
100
AcDbDictionary
  3
A0
350
9562
  3
A1
350
9563
  3
A2
350
9564
  3
A3
350
9565
  3
A4
350
9566
  3
A5
350
9567
  3
A6
350
9568
  3
A7
350
9569
  3
A8
350
956A
  3
A9
350
956B
  3
B0
350
956C
  3
B1
350
956D
  3
B2
350
956E
  3
B3
350
956F
  3
B4
350
9570
  3
B5
350
9571
  3
B6
350
9572
  3
B7
350
9573
  3
B8
350
9574
  3
B9
350
9575
  3
C0
350
9576
  3
C1
350
9577
  3
C2
350
9578
  3
C3
350
9579
  3
C4
350
957A
  3
C5
350
957B
  3
C6
350
957C
  3
C7
350
957D
  3
C8
350
957E
  3
C9
350
957F
  3
D0
350
9580
  3
D1
350
9581
  3
D2
350
9582
1001
ACAD
1000
TREAT_AS_HARD
1070
     0
  0
DICTIONARY
  5
9550
102
{ACAD_REACTORS
330
C
102
}
330
C
100
AcDbDictionary
  3
2DWIREFRAME
350
9556
  3
3D_HIDDEN
350
9558
  3
3DWIREFRAME
350
9557
  3
BASIC
350
9555
  3
BRIGHTEN
350
955C
  3
COLORCHANGE
350
9560
  3
CONCEPTUAL
350
9559
  3
DIM
350
955B
  3
EDGECOLOROFF
350
A211
  3
FACEPATTERN
350
955F
  3
FLAT
350
9551
  3
FLATWITHEDGES
350
9552
  3
GOURAUD
350
9553
  3
GOURAUDWITHEDGES
350
9554
  3
HIDDEN
350
A260
  3
JITTEROFF
350
A20F
  3
LINEPATTERN
350
955E
  3
MODELING
350
A266
  3
OVERHANGOFF
350
A210
  3
REALISTIC
350
955A
  3
SHADED
350
A265
  3
SHADED_WITH_EDGES
350
A264
  3
SHADES_OF_GRAY
350
A261
  3
SKETCHY
350
A262
  3
THICKEN
350
955D
  3
WIREFRAME
350
A25F
  3
X-RAY
350
A263
1001
ACAD
1000
TREAT_AS_HARD
1070
     0
  0
DICTIONARY
  5
B8A7
102
{ACAD_REACTORS
330
C
102
}
330
C
100
AcDbDictionary
  3
COLORDICT
350
B8A8
  3
MATERIALDICT
350
B8A9
1001
ACAD
1000
TREAT_AS_HARD
1070
     0
  0
DICTIONARY
  5
37
102
{ACAD_REACTORS
330
C
102
}
330
C
100
AcDbDictionary
  3
CANNOSCALE
350
AAE0
  3
CMLEADERSTYLE
350
9627
  3
CTABLESTYLE
350
29E
  3
DIMADEC
350
38
  3
DIMASSOC
350
1CE
  3
HIDETEXT
350
704E
  3
INDEXCTL
350
962A
  3
INTERSECTIONCOLOR
350
7052
  3
INTERSECTIONDISPLAY
350
7051
  3
MSLTSCALE
350
AB30
  3
OBSCOLOR
350
704F
  3
OBSLTYPE
350
7050
  3
PROJECTNAME
350
1CF
  3
SORTENTS
350
9629
  3
XCLIPFRAME
350
B5D6
1001
ACAD
1000
TREAT_AS_HARD
1070
     0
  0
DICTIONARY
  5
AF70
102
{ACAD_REACTORS
330
C
102
}
330
C
100
AcDbDictionary
1001
ACAD
1000
TREAT_AS_HARD
1070
     0
  0
DICTIONARY
  5
D8
102
{ACAD_REACTORS
330
C
102
}
330
C
100
AcDbDictionary
1001
ACAD
1000
TREAT_AS_HARD
1070
     0
  0
DICTIONARY
  5
20
102
{ACAD_REACTORS
330
C
102
}
330
C
100
AcDbDictionary
1001
DRAWINGVARIABLESXDATA
1000
POLARANG
1000
0.261799387799149410000000
1000
POLARMODE
1000
1
1000
POLARSTYLE
1000
1
1001
ACAD
1000
TREAT_AS_HARD
1070
     0
  0
XRECORD
  5
B8AA
102
{ACAD_REACTORS
330
C
102
}
330
C
100
AcDbXrecord
  1
DWGPROPS COOKIE
  2

  3

  4

  6

  7

  8
3684
  9

300
=
301
=
302
=
303
=
304
=
305
=
306
=
307
=
308
=
309
=
 40
0.0
 41
2451318.246352917
 42
2458164.016624109
  1

 90
        0
  0
DICTIONARY
  5
96DA
102
{ACAD_REACTORS
330
96D9
102
}
330
96D9
100
AcDbDictionary
1001
ACAD
1000
TREAT_AS_HARD
1070
     0
  0
ACAD_PROXY_OBJECT
  5
9594
102
{ACAD_REACTORS
330
9593
102
}
330
9593
100
AcDbZombieObject
 90
      499
 91
      515
 93
       34
310
40C8804040
  0
ACAD_PROXY_OBJECT
  5
9596
102
{ACAD_REACTORS
330
9595
102
}
330
9595
100
AcDbZombieObject
 90
      499
 91
      515
 93
       34
310
40C8804040
  0
ACAD_PROXY_OBJECT
  5
9598
102
{ACAD_REACTORS
330
9597
102
}
330
9597
100
AcDbZombieObject
 90
      499
 91
      515
 93
       34
310
40C8804040
  0
ACAD_PROXY_OBJECT
  5
959E
102
{ACAD_REACTORS
330
959D
102
}
330
959D
100
AcDbZombieObject
 90
      499
 91
      515
 93
       34
310
40C8804040
  0
ACAD_PROXY_OBJECT
  5
95A4
102
{ACAD_REACTORS
330
95A3
102
}
330
95A3
100
AcDbZombieObject
 90
      499
 91
      515
 93
       34
310
40C8804040
  0
SORTENTSTABLE
  5
890
102
{ACAD_REACTORS
330
88F
102
}
330
88F
100
AcDbSortentsTable
330
18
331
AF92
  5
AF93
331
AF93
  5
AF94
331
AF94
  5
AF95
331
AF95
  5
AF96
331
AF96
  5
AF97
331
AF97
  5
AF98
331
AF98
  5
AF99
331
AF99
  5
AF9A
331
AF9A
  5
AF9B
331
AF9B
  5
AF9C
331
AF9C
  5
AF9D
331
0
  5
AF9E
331
0
  5
AFA0
331
AFA0
  5
B4C0
331
AFA1
  5
B4C8
331
AFA2
  5
B4CA
331
AFA3
  5
B4D0
331
AFA4
  5
B4D7
331
AFA5
  5
B4D8
331
AFA6
  5
B4D9
331
AFC0
  5
B573
331
B281
  5
B598
331
0
  5
B49E
331
0
  5
B49F
331
0
  5
B4A0
331
0
  5
B4A1
331
0
  5
B4A4
331
B4A3
  5
B6A2
331
B4A4
  5
B6A3
331
B4A5
  5
B6A4
331
B4A6
  5
B6A5
331
B4A7
  5
B6A6
331
B4A8
  5
B6A7
331
B4A9
  5
B6A8
331
B4AA
  5
B6A9
331
0
  5
B4AD
331
0
  5
B4AE
331
B4AD
  5
B6D9
331
B4AE
  5
B6DA
331
B4AF
  5
B6DB
331
0
  5
B4B2
331
B4B1
  5
B6E9
331
B4B2
  5
B6EA
331
B4B3
  5
B6EB
331
0
  5
B4B6
331
0
  5
B4B7
331
0
  5
B4B8
331
B4B7
  5
B72C
331
B4B8
  5
B72D
331
B4B9
  5
B72E
331
B4BA
  5
B72F
331
B4BB
  5
B730
331
B4BC
  5
B731
331
0
  5
B4BF
331
B4BE
  5
B737
331
B4BF
  5
B738
331
B4C0
  5
B739
331
B4C1
  5
B73A
331
0
  5
B4C4
331
0
  5
B4C5
331
0
  5
B4C6
331
0
  5
B4C7
331
B4C6
  5
B7CC
331
0
  5
B4C9
331
B4C8
  5
B7DA
331
0
  5
B4CB
331
0
  5
B4CC
331
0
  5
B4CD
331
0
  5
B4CE
331
0
  5
B4CF
331
B4CE
  5
B84E
331
0
  5
B4D1
331
0
  5
B4D2
331
0
  5
B4D3
331
B4D2
  5
B89C
331
B4D3
  5
B89D
331
B4D4
  5
B89E
331
B4D5
  5
B89F
331
B4D6
  5
B8A0
331
B4D7
  5
B8A1
331
B4D8
  5
B8A2
331
B4D9
  5
B8A3
331
B4DA
  5
B8A4
331
B4DB
  5
B8A5
331
B4DC
  5
B8A6
331
B598
  5
AF92
331
B66D
  5
B6AA
331
B66E
  5
B6AB
331
B66F
  5
B6AC
331
B670
  5
B6AD
331
B671
  5
B6AE
331
B672
  5
B6AF
331
B673
  5
B6B0
331
B674
  5
B6B1
331
B675
  5
B6B2
331
B676
  5
B6B3
331
B677
  5
B6B4
331
B678
  5
B6B5
331
B679
  5
B6B6
331
B67A
  5
B6B7
331
B67B
  5
B6B8
331
B67C
  5
B6B9
331
B67D
  5
B6BA
331
B67E
  5
B6BB
331
B67F
  5
B6BC
331
B680
  5
B6BD
331
B681
  5
B6BE
331
B682
  5
B6BF
331
B683
  5
B6C0
331
B684
  5
B6C1
331
B685
  5
B6C2
331
B686
  5
B6C3
331
B687
  5
B6C4
331
B688
  5
B6C5
331
B689
  5
B6C6
331
B68A
  5
B6C7
331
B68B
  5
B6C8
331
B68C
  5
B6C9
331
B68D
  5
B6CA
331
B68E
  5
B6CB
331
B68F
  5
B6CC
331
B690
  5
B6CD
331
B691
  5
B6CE
331
B692
  5
B6CF
331
B693
  5
B6D0
331
B694
  5
B6D1
331
B695
  5
B6D2
331
B696
  5
B6D3
331
B697
  5
B6D4
331
B698
  5
B6D5
331
B699
  5
B6D6
331
B69A
  5
B6D7
331
B69B
  5
B6D8
331
B69C
  5
B6DC
331
B69D
  5
B6DD
331
B69E
  5
B6DE
331
B69F
  5
B6DF
331
B6A0
  5
B6E0
331
B6A1
  5
B6E1
331
B6A2
  5
B6E2
331
B6A3
  5
B6E3
331
B6A4
  5
B6E4
331
B6A5
  5
B6E5
331
B6A6
  5
B6E6
331
B6A7
  5
B6E7
331
B6A8
  5
B6E8
331
B6A9
  5
B6EC
331
B6AA
  5
B6ED
331
B6AB
  5
B6EE
331
B6AC
  5
B6EF
331
B6AD
  5
B6F0
331
B6AE
  5
B6F1
331
B6AF
  5
B6F2
331
B6B0
  5
B6F3
331
B6B1
  5
B6F4
331
B6B2
  5
B6F5
331
B6B3
  5
B6F6
331
B6B4
  5
B6F7
331
B6B5
  5
B6F8
331
B6B6
  5
B6F9
331
B6B7
  5
B6FA
331
B6B8
  5
B6FB
331
B6B9
  5
B6FC
331
B6BA
  5
B6FD
331
B6BB
  5
B6FE
331
B6BC
  5
B6FF
331
B6BD
  5
B700
331
B6BE
  5
B701
331
B6BF
  5
B702
331
B6C0
  5
B703
331
B6C1
  5
B704
331
B6C2
  5
B705
331
B6C3
  5
B706
331
B6C4
  5
B707
331
B6C5
  5
B708
331
B6C6
  5
B709
331
B6C7
  5
B70A
331
B6C8
  5
B70B
331
B6C9
  5
B70C
331
B6CA
  5
B70D
331
B6CB
  5
B70E
331
B6CC
  5
B70F
331
B6CD
  5
B710
331
B6CE
  5
B711
331
B6CF
  5
B712
331
B6D0
  5
B713
331
B6D1
  5
B714
331
B6D2
  5
B715
331
B6D3
  5
B716
331
B6D4
  5
B717
331
B6D5
  5
B718
331
B6D6
  5
B719
331
B6D7
  5
B71A
331
B6D8
  5
B71B
331
B6D9
  5
B71C
331
B6DA
  5
B71D
331
B6DB
  5
B71E
331
B6DC
  5
B71F
331
B6DD
  5
B720
331
B6DE
  5
B721
331
B6DF
  5
B722
331
B6E0
  5
B723
331
B6E1
  5
B724
331
B6E2
  5
B725
331
B6E3
  5
B726
331
B6E4
  5
B727
331
B6E5
  5
B728
331
B6E6
  5
B729
331
B6E7
  5
B72A
331
B6E8
  5
B72B
331
B6E9
  5
B732
331
B6EA
  5
B733
331
B6EB
  5
B734
331
B6EC
  5
B735
331
B6ED
  5
B736
331
B6EE
  5
B73B
331
B6EF
  5
B73C
331
B6F0
  5
B73D
331
B6F1
  5
B73E
331
B6F2
  5
B73F
331
B6F3
  5
B740
331
B6F4
  5
B741
331
B6F5
  5
B742
331
B6F6
  5
B743
331
B6F7
  5
B744
331
B6F8
  5
B745
331
B6F9
  5
B746
331
B6FA
  5
B747
331
B6FB
  5
B748
331
B6FC
  5
B749
331
B6FD
  5
B74A
331
B6FE
  5
B74B
331
B6FF
  5
B74C
331
B700
  5
B74D
331
B701
  5
B74E
331
B702
  5
B74F
331
B703
  5
B750
331
B704
  5
B751
331
B705
  5
B752
331
B706
  5
B753
331
B707
  5
B754
331
B708
  5
B755
331
B709
  5
B756
331
B70A
  5
B757
331
B70B
  5
B758
331
B70C
  5
B759
331
B70D
  5
B75A
331
B70E
  5
B75B
331
B70F
  5
B75C
331
B710
  5
B75D
331
B711
  5
B75E
331
B712
  5
B75F
331
B713
  5
B760
331
B714
  5
B761
331
B715
  5
B762
331
B716
  5
B763
331
B717
  5
B764
331
B718
  5
B765
331
B719
  5
B766
331
B71A
  5
B767
331
B71B
  5
B768
331
B71C
  5
B769
331
B71D
  5
B76A
331
B71E
  5
B76B
331
B71F
  5
B76C
331
B720
  5
B76D
331
B721
  5
B76E
331
B722
  5
B76F
331
B723
  5
B770
331
B724
  5
B771
331
B725
  5
B772
331
B726
  5
B773
331
B727
  5
B774
331
B728
  5
B775
331
B729
  5
B776
331
B72A
  5
B777
331
B72B
  5
B778
331
B72C
  5
B779
331
B72D
  5
B77A
331
B72E
  5
B77B
331
B72F
  5
B77C
331
B730
  5
B77D
331
B731
  5
B77E
331
B732
  5
B77F
331
B733
  5
B780
331
B734
  5
B781
331
B735
  5
B782
331
B736
  5
B783
331
B737
  5
B784
331
B738
  5
B785
331
B739
  5
B786
331
B73A
  5
B787
331
B73B
  5
B788
331
B73C
  5
B789
331
B73D
  5
B78A
331
B73E
  5
B78B
331
B73F
  5
B78C
331
B740
  5
B78D
331
B741
  5
B78E
331
B742
  5
B78F
331
B743
  5
B790
331
B744
  5
B791
331
B745
  5
B792
331
B746
  5
B793
331
B747
  5
B794
331
B748
  5
B795
331
B749
  5
B796
331
B74A
  5
B797
331
B74B
  5
B798
331
B74C
  5
B799
331
B74D
  5
B79A
331
B74E
  5
B79B
331
B74F
  5
B79C
331
B750
  5
B79D
331
B751
  5
B79E
331
B752
  5
B79F
331
B753
  5
B7A0
331
B754
  5
B7A1
331
B755
  5
B7A2
331
B756
  5
B7A3
331
B757
  5
B7A4
331
B758
  5
B7A5
331
B759
  5
B7A6
331
B75A
  5
B7A7
331
B75B
  5
B7A8
331
B75C
  5
B7A9
331
B75D
  5
B7AA
331
B75E
  5
B7AB
331
B75F
  5
B7AC
331
B760
  5
B7AD
331
B761
  5
B7AE
331
B762
  5
B7AF
331
B763
  5
B7B0
331
B764
  5
B7B1
331
B765
  5
B7B2
331
B766
  5
B7B3
331
B767
  5
B7B4
331
B768
  5
B7B5
331
B769
  5
B7B6
331
B76A
  5
B7B7
331
B76B
  5
B7B8
331
B76C
  5
B7B9
331
B76D
  5
B7BA
331
B76E
  5
B7BB
331
B76F
  5
B7BC
331
B770
  5
B7BD
331
B771
  5
B7BE
331
B772
  5
B7BF
331
B773
  5
B7C0
331
B774
  5
B7C1
331
B775
  5
B7C2
331
B776
  5
B7C3
331
B777
  5
B7C4
331
B778
  5
B7C5
331
B779
  5
B7C6
331
B77A
  5
B7C7
331
B77B
  5
B7C8
331
B77C
  5
B7C9
331
B77D
  5
B7CA
331
B77E
  5
B7CB
331
B77F
  5
B7CD
331
B780
  5
B7CE
331
B781
  5
B7CF
331
B782
  5
B7D0
331
B783
  5
B7D1
331
B784
  5
B7D2
331
B785
  5
B7D3
331
B786
  5
B7D4
331
B787
  5
B7D5
331
B788
  5
B7D6
331
B789
  5
B7D7
331
B78A
  5
B7D8
331
B78B
  5
B7D9
331
B78C
  5
B7DB
331
B78D
  5
B7DC
331
B78E
  5
B7DD
331
B78F
  5
B7DE
331
B790
  5
B7DF
331
B791
  5
B7E0
331
B792
  5
B7E1
331
B793
  5
B7E2
331
B794
  5
B7E3
331
B795
  5
B7E4
331
B796
  5
B7E5
331
B797
  5
B7E6
331
B798
  5
B7E7
331
B799
  5
B7E8
331
B79A
  5
B7E9
331
B79B
  5
B7EA
331
B79C
  5
B7EB
331
B79D
  5
B7EC
331
B79E
  5
B7ED
331
B79F
  5
B7EE
331
B7A0
  5
B7EF
331
B7A1
  5
B7F0
331
B7A2
  5
B7F1
331
B7A3
  5
B7F2
331
B7A4
  5
B7F3
331
B7A5
  5
B7F4
331
B7A6
  5
B7F5
331
B7A7
  5
B7F6
331
B7A8
  5
B7F7
331
B7A9
  5
B7F8
331
B7AA
  5
B7F9
331
B7AB
  5
B7FA
331
B7AC
  5
B7FB
331
B7AD
  5
B7FC
331
B7AE
  5
B7FD
331
B7AF
  5
B7FE
331
B7B0
  5
B7FF
331
B7B1
  5
B800
331
B7B2
  5
B801
331
B7B3
  5
B802
331
B7B4
  5
B803
331
B7B5
  5
B804
331
B7B6
  5
B805
331
B7B7
  5
B806
331
B7B8
  5
B807
331
B7B9
  5
B808
331
B7BA
  5
B809
331
B7BB
  5
B80A
331
B7BC
  5
B80B
331
B7BD
  5
B80C
331
B7BE
  5
B80D
331
B7BF
  5
B80E
331
B7C0
  5
B80F
331
B7C1
  5
B810
331
B7C2
  5
B811
331
B7C3
  5
B812
331
B7C4
  5
B813
331
B7C5
  5
B814
331
B7C6
  5
B815
331
B7C7
  5
B816
331
B7C8
  5
B817
331
B7C9
  5
B818
331
B7CA
  5
B819
331
B7CB
  5
B81A
331
B7CC
  5
B81B
331
B7CD
  5
B81C
331
B7CE
  5
B81D
331
B7CF
  5
B81E
331
B7D0
  5
B81F
331
B7D1
  5
B820
331
B7D2
  5
B821
331
B7D3
  5
B822
331
B7D4
  5
B823
331
B7D5
  5
B824
331
B7D6
  5
B825
331
B7D7
  5
B826
331
B7D8
  5
B827
331
B7D9
  5
B828
331
B7DA
  5
B829
331
B7DB
  5
B82A
331
B7DC
  5
B82B
331
B7DD
  5
B82C
331
B7DE
  5
B82D
331
B7DF
  5
B82E
331
B7E0
  5
B82F
331
B7E1
  5
B830
331
B7E2
  5
B831
331
B7E3
  5
B832
331
B7E4
  5
B833
331
B7E5
  5
B834
331
B7E6
  5
B835
331
B7E7
  5
B836
331
B7E8
  5
B837
331
B7E9
  5
B838
331
B7EA
  5
B839
331
B7EB
  5
B83A
331
B7EC
  5
B83B
331
B7ED
  5
B83C
331
B7EE
  5
B83D
331
B7EF
  5
B83E
331
B7F0
  5
B83F
331
B7F1
  5
B840
331
B7F2
  5
B841
331
B7F3
  5
B842
331
B7F4
  5
B843
331
B7F5
  5
B844
331
B7F6
  5
B845
331
B7F7
  5
B846
331
B7F8
  5
B847
331
B7F9
  5
B848
331
B7FA
  5
B849
331
B7FB
  5
B84A
331
B7FC
  5
B84B
331
B7FD
  5
B84C
331
B7FE
  5
B84D
331
B7FF
  5
B84F
331
B800
  5
B850
331
B801
  5
B851
331
B802
  5
B852
331
B803
  5
B853
331
B804
  5
B854
331
B805
  5
B855
331
B806
  5
B856
331
B807
  5
B857
331
B808
  5
B858
331
B809
  5
B859
331
B80A
  5
B85A
331
B80B
  5
B85B
331
B80C
  5
B85C
331
B80D
  5
B85D
331
B80E
  5
B85E
331
B80F
  5
B85F
331
B810
  5
B860
331
B811
  5
B861
331
B812
  5
B862
331
B813
  5
B863
331
B814
  5
B864
331
B815
  5
B865
331
B816
  5
B866
331
B817
  5
B867
331
B818
  5
B868
331
B819
  5
B869
331
B81A
  5
B86A
331
B81B
  5
B86B
331
B81C
  5
B86C
331
B81D
  5
B86D
331
B81E
  5
B86E
331
B81F
  5
B86F
331
B820
  5
B870
331
B821
  5
B871
331
B822
  5
B872
331
B823
  5
B873
331
B824
  5
B874
331
B825
  5
B875
331
B826
  5
B876
331
B827
  5
B877
331
B828
  5
B878
331
B829
  5
B879
331
B82A
  5
B87A
331
B82B
  5
B87B
331
B82C
  5
B87C
331
B82D
  5
B87D
331
B82E
  5
B87E
331
B82F
  5
B87F
331
B830
  5
B880
331
B831
  5
B881
331
B832
  5
B882
331
B833
  5
B883
331
B834
  5
B884
331
B835
  5
B885
331
B836
  5
B886
331
B837
  5
B887
331
B838
  5
B888
331
B839
  5
B889
331
B83A
  5
B88A
331
B83B
  5
B88B
331
B83C
  5
B88C
331
B83D
  5
B88D
331
B83E
  5
B88E
331
B83F
  5
B88F
331
B840
  5
B890
331
B841
  5
B891
331
B842
  5
B892
331
B843
  5
B893
331
B844
  5
B894
331
B845
  5
B895
331
B846
  5
B896
331
B847
  5
B897
331
B848
  5
B898
331
B849
  5
B899
331
B84A
  5
B89A
331
B84B
  5
B89B
331
B84C
  5
AFA1
331
B84D
  5
AFA2
331
B84E
  5
AFA4
331
0
  5
AFA5
331
0
  5
AFA6
331
0
  5
AFC0
331
B852
  5
B4AC
331
B853
  5
B4AF
331
B854
  5
B4B0
331
0
  5
B4A5
331
0
  5
B4A6
331
0
  5
B4A7
331
B858
  5
B66D
331
B859
  5
B671
331
B85A
  5
B672
331
0
  5
B4BA
331
0
  5
B4BB
331
0
  5
B4BC
331
B85E
  5
B67A
331
B85F
  5
B67B
331
B860
  5
B67C
331
0
  5
B4C1
331
0
  5
B4C2
331
0
  5
B4C3
331
B864
  5
B684
331
B865
  5
B685
331
B866
  5
B686
331
0
  5
B4D4
331
0
  5
B4D5
331
0
  5
B4D6
331
B86A
  5
B68E
331
B86B
  5
B68F
331
B86C
  5
B690
331
0
  5
B4DA
331
0
  5
B4DB
331
0
  5
B4DC
331
B870
  5
B698
331
B871
  5
B699
331
B872
  5
B69A
331
0
  5
B66E
331
0
  5
B66F
331
0
  5
B670
331
B876
  5
B281
331
B877
  5
B49C
331
B878
  5
B49D
331
B879
  5
B4A8
331
B87A
  5
B4A9
331
B87B
  5
B4AA
331
B87C
  5
B4AB
331
B87D
  5
B4B1
331
B87E
  5
B4B3
331
B87F
  5
B4B4
331
B880
  5
B4B5
331
B881
  5
B4B9
331
B882
  5
B4BD
331
B883
  5
B4BE
331
B884
  5
B673
331
B885
  5
B674
331
B886
  5
B675
331
B887
  5
B676
331
B888
  5
B677
331
B889
  5
B678
331
B88A
  5
B679
331
B88B
  5
B67D
331
B88C
  5
B67E
331
B88D
  5
B67F
331
B88E
  5
B680
331
B88F
  5
B681
331
B890
  5
B682
331
B891
  5
B683
331
B892
  5
B687
331
B893
  5
B688
331
B894
  5
B689
331
B895
  5
B68A
331
B896
  5
B68B
331
B897
  5
B68C
331
B898
  5
B68D
331
B899
  5
B691
331
B89A
  5
B692
331
B89B
  5
B693
331
B89C
  5
B694
331
B89D
  5
B695
331
B89E
  5
B696
331
B89F
  5
B697
331
B8A0
  5
B69B
331
B8A1
  5
B69C
331
B8A2
  5
B69D
331
B8A3
  5
B69E
331
B8A4
  5
B69F
331
B8A5
  5
B6A0
331
B8A6
  5
B6A1
  0
MATERIAL
  5
9540
102
{ACAD_REACTORS
330
18C
102
}
102
{ACAD_XDICTIONARY
360
BA45
102
}
330
18C
100
AcDbMaterial
  1
BYBLOCK
 72
     0
 73
     2
 43
0.0208333333333333
 43
0.0
 43
0.0
 43
0.0
 43
0.0
 43
0.0208333333333333
 43
0.0
 43
0.0
 43
0.0
 43
0.0
 43
1.0
 43
0.0
 43
0.0
 43
0.0
 43
0.0
 43
1.0
 77
     0
 78
     2
 47
0.0208333333333333
 47
0.0
 47
0.0
 47
0.0
 47
0.0
 47
0.0208333333333333
 47
0.0
 47
0.0
 47
0.0
 47
0.0
 47
1.0
 47
0.0
 47
0.0
 47
0.0
 47
0.0
 47
1.0
171
     0
172
     2
 49
0.0208333333333333
 49
0.0
 49
0.0
 49
0.0
 49
0.0
 49
0.0208333333333333
 49
0.0
 49
0.0
 49
0.0
 49
0.0
 49
1.0
 49
0.0
 49
0.0
 49
0.0
 49
0.0
 49
1.0
175
     0
176
     2
142
0.0208333333333333
142
0.0
142
0.0
142
0.0
142
0.0
142
0.0208333333333333
142
0.0
142
0.0
142
0.0
142
0.0
142
1.0
142
0.0
142
0.0
142
0.0
142
0.0
142
1.0
179
     0
270
     2
144
0.0208333333333333
144
0.0
144
0.0
144
0.0
144
0.0
144
0.0208333333333333
144
0.0
144
0.0
144
0.0
144
0.0
144
1.0
144
0.0
144
0.0
144
0.0
144
0.0
144
1.0
274
     2
147
0.0208333333333333
147
0.0
147
0.0
147
0.0
147
0.0
147
0.0208333333333333
147
0.0
147
0.0
147
0.0
147
0.0
147
1.0
147
0.0
147
0.0
147
0.0
147
0.0
147
1.0
  0
MATERIAL
  5
9538
102
{ACAD_REACTORS
330
18C
102
}
102
{ACAD_XDICTIONARY
360
BA47
102
}
330
18C
100
AcDbMaterial
  1
BYLAYER
 72
     0
 73
     2
 43
0.0208333333333333
 43
0.0
 43
0.0
 43
0.0
 43
0.0
 43
0.0208333333333333
 43
0.0
 43
0.0
 43
0.0
 43
0.0
 43
1.0
 43
0.0
 43
0.0
 43
0.0
 43
0.0
 43
1.0
 77
     0
 78
     2
 47
0.0208333333333333
 47
0.0
 47
0.0
 47
0.0
 47
0.0
 47
0.0208333333333333
 47
0.0
 47
0.0
 47
0.0
 47
0.0
 47
1.0
 47
0.0
 47
0.0
 47
0.0
 47
0.0
 47
1.0
171
     0
172
     2
 49
0.0208333333333333
 49
0.0
 49
0.0
 49
0.0
 49
0.0
 49
0.0208333333333333
 49
0.0
 49
0.0
 49
0.0
 49
0.0
 49
1.0
 49
0.0
 49
0.0
 49
0.0
 49
0.0
 49
1.0
175
     0
176
     2
142
0.0208333333333333
142
0.0
142
0.0
142
0.0
142
0.0
142
0.0208333333333333
142
0.0
142
0.0
142
0.0
142
0.0
142
1.0
142
0.0
142
0.0
142
0.0
142
0.0
142
1.0
179
     0
270
     2
144
0.0208333333333333
144
0.0
144
0.0
144
0.0
144
0.0
144
0.0208333333333333
144
0.0
144
0.0
144
0.0
144
0.0
144
1.0
144
0.0
144
0.0
144
0.0
144
0.0
144
1.0
274
     2
147
0.0208333333333333
147
0.0
147
0.0
147
0.0
147
0.0
147
0.0208333333333333
147
0.0
147
0.0
147
0.0
147
0.0
147
1.0
147
0.0
147
0.0
147
0.0
147
0.0
147
1.0
  0
MATERIAL
  5
9548
102
{ACAD_REACTORS
330
18C
102
}
102
{ACAD_XDICTIONARY
360
BA49
102
}
330
18C
100
AcDbMaterial
  1
GLOBAL
 72
     0
 73
     2
 43
0.0208333333333333
 43
0.0
 43
0.0
 43
0.0
 43
0.0
 43
0.0208333333333333
 43
0.0
 43
0.0
 43
0.0
 43
0.0
 43
1.0
 43
0.0
 43
0.0
 43
0.0
 43
0.0
 43
1.0
 77
     0
 78
     2
 47
0.0208333333333333
 47
0.0
 47
0.0
 47
0.0
 47
0.0
 47
0.0208333333333333
 47
0.0
 47
0.0
 47
0.0
 47
0.0
 47
1.0
 47
0.0
 47
0.0
 47
0.0
 47
0.0
 47
1.0
171
     0
172
     2
 49
0.0208333333333333
 49
0.0
 49
0.0
 49
0.0
 49
0.0
 49
0.0208333333333333
 49
0.0
 49
0.0
 49
0.0
 49
0.0
 49
1.0
 49
0.0
 49
0.0
 49
0.0
 49
0.0
 49
1.0
175
     0
176
     2
142
0.0208333333333333
142
0.0
142
0.0
142
0.0
142
0.0
142
0.0208333333333333
142
0.0
142
0.0
142
0.0
142
0.0
142
1.0
142
0.0
142
0.0
142
0.0
142
0.0
142
1.0
179
     0
270
     2
144
0.0208333333333333
144
0.0
144
0.0
144
0.0
144
0.0
144
0.0208333333333333
144
0.0
144
0.0
144
0.0
144
0.0
144
1.0
144
0.0
144
0.0
144
0.0
144
0.0
144
1.0
274
     2
147
0.0208333333333333
147
0.0
147
0.0
147
0.0
147
0.0
147
0.0208333333333333
147
0.0
147
0.0
147
0.0
147
0.0
147
1.0
147
0.0
147
0.0
147
0.0
147
0.0
147
1.0
  0
ACAD_PROXY_OBJECT
  5
9584
102
{ACAD_REACTORS
330
9583
102
}
330
9583
100
AcDbZombieObject
 90
      499
 91
      511
 93
      610
310
40901902A4063FBFFFFFE000000000000002040AD7A3703D0AD73F4214DD185B99185C990000000000000104090141901A00000000000004100000000000000041025764000000000000300FC0
340
12
340
0
340
F
340
0
 94
        0
1001
ACAD_MLEADERVER
1070
     2
  0
MLINESTYLE
  5
1C
102
{ACAD_REACTORS
330
1B
102
}
330
1B
100
AcDbMlineStyle
  2
STANDARD
 70
     0
  3

 62
   256
 51
90.0
 52
90.0
 71
     2
 49
0.5
 62
   256
  6
BYLAYER
 49
-0.5
 62
   256
  6
BYLAYER
  0
ACAD_PROXY_OBJECT
  5
9562
102
{ACAD_REACTORS
330
9561
102
}
330
9561
100
AcDbZombieObject
 90
      499
 91
      510
 93
       41
310
903313A31580
  0
ACAD_PROXY_OBJECT
  5
9563
102
{ACAD_REACTORS
330
9561
102
}
330
9561
100
AcDbZombieObject
 90
      499
 91
      510
 93
      105
310
903313A324000000000000004000
  0
ACAD_PROXY_OBJECT
  5
9564
102
{ACAD_REACTORS
330
9561
102
}
330
9561
100
AcDbZombieObject
 90
      499
 91
      510
 93
      105
310
903313A344000000000000104000
  0
ACAD_PROXY_OBJECT
  5
9565
102
{ACAD_REACTORS
330
9561
102
}
330
9561
100
AcDbZombieObject
 90
      499
 91
      510
 93
      105
310
903313A354000000000000144000
  0
ACAD_PROXY_OBJECT
  5
9566
102
{ACAD_REACTORS
330
9561
102
}
330
9561
100
AcDbZombieObject
 90
      499
 91
      510
 93
      105
310
903313A384000000000000204000
  0
ACAD_PROXY_OBJECT
  5
9567
102
{ACAD_REACTORS
330
9561
102
}
330
9561
100
AcDbZombieObject
 90
      499
 91
      510
 93
      113
310
904313A31304000000000000244000
  0
ACAD_PROXY_OBJECT
  5
9568
102
{ACAD_REACTORS
330
9561
102
}
330
9561
100
AcDbZombieObject
 90
      499
 91
      510
 93
      113
310
904313A31364000000000000304000
  0
ACAD_PROXY_OBJECT
  5
9569
102
{ACAD_REACTORS
330
9561
102
}
330
9561
100
AcDbZombieObject
 90
      499
 91
      510
 93
      113
310
904313A32304000000000000344000
  0
ACAD_PROXY_OBJECT
  5
956A
102
{ACAD_REACTORS
330
9561
102
}
330
9561
100
AcDbZombieObject
 90
      499
 91
      510
 93
      113
310
904313A333040000000000003E4000
  0
ACAD_PROXY_OBJECT
  5
956B
102
{ACAD_REACTORS
330
9561
102
}
330
9561
100
AcDbZombieObject
 90
      499
 91
      510
 93
      113
310
904313A34304000000000000444000
  0
ACAD_PROXY_OBJECT
  5
956C
102
{ACAD_REACTORS
330
9561
102
}
330
9561
100
AcDbZombieObject
 90
      499
 91
      510
 93
      113
310
904313A35304000000000000494000
  0
ACAD_PROXY_OBJECT
  5
956D
102
{ACAD_REACTORS
330
9561
102
}
330
9561
100
AcDbZombieObject
 90
      499
 91
      510
 93
      121
310
905313A3130304000000000000594000
  0
ACAD_PROXY_OBJECT
  5
956E
102
{ACAD_REACTORS
330
9561
102
}
330
9561
100
AcDbZombieObject
 90
      499
 91
      510
 93
      105
310
903323A310000000000000010100
  0
ACAD_PROXY_OBJECT
  5
956F
102
{ACAD_REACTORS
330
9561
102
}
330
9561
100
AcDbZombieObject
 90
      499
 91
      510
 93
      105
310
903343A310000000000000410100
  0
ACAD_PROXY_OBJECT
  5
9570
102
{ACAD_REACTORS
330
9561
102
}
330
9561
100
AcDbZombieObject
 90
      499
 91
      510
 93
      105
310
903383A310000000000000810100
  0
ACAD_PROXY_OBJECT
  5
9571
102
{ACAD_REACTORS
330
9561
102
}
330
9561
100
AcDbZombieObject
 90
      499
 91
      510
 93
      113
310
90431303A310000000000000910100
  0
ACAD_PROXY_OBJECT
  5
9572
102
{ACAD_REACTORS
330
9561
102
}
330
9561
100
AcDbZombieObject
 90
      499
 91
      510
 93
      121
310
9053130303A310000000000001650100
  0
ACAD_PROXY_OBJECT
  5
9573
102
{ACAD_REACTORS
330
9561
102
}
330
9561
100
AcDbZombieObject
 90
      499
 91
      510
 93
      257
310
90E312F31323822203D2031272D3022000000000000200FC000000000000284000
  0
ACAD_PROXY_OBJECT
  5
9574
102
{ACAD_REACTORS
330
9561
102
}
330
9561
100
AcDbZombieObject
 90
      499
 91
      510
 93
      249
310
90D312F363422203D2031272D3022000000000000240FC000000000000284000
  0
ACAD_PROXY_OBJECT
  5
9575
102
{ACAD_REACTORS
330
9561
102
}
330
9561
100
AcDbZombieObject
 90
      499
 91
      510
 93
      249
310
90D312F333222203D2031272D3022000000000000280FC000000000000284000
  0
ACAD_PROXY_OBJECT
  5
9576
102
{ACAD_REACTORS
330
9561
102
}
330
9561
100
AcDbZombieObject
 90
      499
 91
      510
 93
      249
310
90D312F313622203D2031272D30220000000000002C0FC000000000000284000
  0
ACAD_PROXY_OBJECT
  5
9577
102
{ACAD_REACTORS
330
9561
102
}
330
9561
100
AcDbZombieObject
 90
      499
 91
      510
 93
      249
310
90D332F333222203D2031272D30220000000000002E0FC000000000000284000
  0
ACAD_PROXY_OBJECT
  5
9578
102
{ACAD_REACTORS
330
9561
102
}
330
9561
100
AcDbZombieObject
 90
      499
 91
      510
 93
      241
310
90C312F3822203D2031272D3022000000000000300FC000000000000284000
  0
ACAD_PROXY_OBJECT
  5
9579
102
{ACAD_REACTORS
330
9561
102
}
330
9561
100
AcDbZombieObject
 90
      499
 91
      510
 93
      249
310
90D332F313622203D2031272D3022000000000000320FC000000000000284000
  0
ACAD_PROXY_OBJECT
  5
957A
102
{ACAD_REACTORS
330
9561
102
}
330
9561
100
AcDbZombieObject
 90
      499
 91
      510
 93
      241
310
90C312F3422203D2031272D3022000000000000340FC000000000000284000
  0
ACAD_PROXY_OBJECT
  5
957B
102
{ACAD_REACTORS
330
9561
102
}
330
9561
100
AcDbZombieObject
 90
      499
 91
      510
 93
      241
310
90C332F3822203D2031272D3022000000000000360FC000000000000284000
  0
ACAD_PROXY_OBJECT
  5
957C
102
{ACAD_REACTORS
330
9561
102
}
330
9561
100
AcDbZombieObject
 90
      499
 91
      510
 93
      241
310
90C312F3222203D2031272D3022000000000000380FC000000000000284000
  0
ACAD_PROXY_OBJECT
  5
957D
102
{ACAD_REACTORS
330
9561
102
}
330
9561
100
AcDbZombieObject
 90
      499
 91
      510
 93
      241
310
90C332F3422203D2031272D30220000000000003A0FC000000000000284000
  0
ACAD_PROXY_OBJECT
  5
957E
102
{ACAD_REACTORS
330
9561
102
}
330
9561
100
AcDbZombieObject
 90
      499
 91
      510
 93
      161
310
90A3122203D2031272D30224000000000000284000
  0
ACAD_PROXY_OBJECT
  5
957F
102
{ACAD_REACTORS
330
9561
102
}
330
9561
100
AcDbZombieObject
 90
      499
 91
      510
 93
      257
310
90E312D312F3222203D2031272D30220000000000003E0FC000000000000284000
  0
ACAD_PROXY_OBJECT
  5
9580
102
{ACAD_REACTORS
330
9561
102
}
330
9561
100
AcDbZombieObject
 90
      499
 91
      510
 93
      225
310
90A3322203D2031272D302200000000000002100000000000000284000
  0
ACAD_PROXY_OBJECT
  5
9581
102
{ACAD_REACTORS
330
9561
102
}
330
9561
100
AcDbZombieObject
 90
      499
 91
      510
 93
      225
310
90A3622203D2031272D302200000000000006100000000000000284000
  0
ACAD_PROXY_OBJECT
  5
9582
102
{ACAD_REACTORS
330
9561
102
}
330
9561
100
AcDbZombieObject
 90
      499
 91
      510
 93
      249
310
90D31272D3022203D2031272D30220000000000000A100000000000000284000
  0
ACAD_PROXY_OBJECT
  5
9556
102
{ACAD_REACTORS
330
9550
102
}
330
9550
100
AcDbZombieObject
 90
      499
 91
      509
 93
      436
310
42CC9915DA5C99599C985B595049028333333333333E3BF0000000000000FB0107901411070040501600405405064090741402480A0340
1001
ACAD
1000
AcDbSavedByObjectVersion
1070
     0
  0
ACAD_PROXY_OBJECT
  5
9558
102
{ACAD_REACTORS
330
9550
102
}
330
9550
100
AcDbZombieObject
 90
      499
 91
      509
 93
      500
310
424CD108121A5919195B90640502408333333333333E3BF0000000000000FB01079024090700405020000000000001110200405405064090740C02480A0340
1001
ACAD
1000
AcDbSavedByObjectVersion
1070
     0
  0
ACAD_PROXY_OBJECT
  5
9557
102
{ACAD_REACTORS
330
9550
102
}
330
9550
100
AcDbZombieObject
 90
      499
 91
      509
 93
      436
310
42CCD915DA5C99599C985B595059028333333333333E3BF0000000000000FB0107901411070040501600405405064090741402480A0340
1001
ACAD
1000
AcDbSavedByObjectVersion
1070
     0
  0
ACAD_PROXY_OBJECT
  5
9555
102
{ACAD_REACTORS
330
9550
102
}
330
9550
100
AcDbZombieObject
 90
      499
 91
      509
 93
      388
310
4150985CDA58D07406404333333333333E3BF0000000000000FB0107A41107004050150841D405064090741402480A0350
1001
ACAD
1000
AcDbSavedByObjectVersion
1070
     0
  0
ACAD_PROXY_OBJECT
  5
955C
102
{ACAD_REACTORS
330
9550
102
}
330
9550
100
AcDbZombieObject
 90
      499
 91
      509
 93
      428
310
42109C9A59DA1D195B90C409028333333333333E3BF0000000000000FB010790141107004050150841D405064090741402480A029950
1001
ACAD
1000
AcDbSavedByObjectVersion
1070
     0
  0
ACAD_PROXY_OBJECT
  5
9560
102
{ACAD_REACTORS
330
9550
102
}
330
9550
100
AcDbZombieObject
 90
      499
 91
      509
 93
      452
310
42D0DBDB1BDC90DA185B99D95104090240C333333333333E3BF0000000000000FB0108901411070040501508421405064090741402480A0350
1001
ACAD
1000
AcDbSavedByObjectVersion
1070
     0
  0
ACAD_PROXY_OBJECT
  5
9559
102
{ACAD_REACTORS
330
9550
102
}
330
9550
100
AcDbZombieObject
 90
      499
 91
      509
 93
      500
310
4290DBDB98D95C1D1D585B10940D028333333333333E3BF0000000000000FB0107902409070040501000000000000111010841D405064090740C02480A0340
1001
ACAD
1000
AcDbSavedByObjectVersion
1070
     0
  0
ACAD_PROXY_OBJECT
  5
955B
102
{ACAD_REACTORS
330
9550
102
}
330
9550
100
AcDbZombieObject
 90
      499
 91
      509
 93
      412
310
40D11A5B50B409028333333333333E3BF0000000000000FB010790141107004050150841D405064090741402480A02677FFFFFD0
1001
ACAD
1000
AcDbSavedByObjectVersion
1070
     0
  0
ACAD_PROXY_OBJECT
  5
A211
102
{ACAD_REACTORS
330
9550
102
}
330
9550
100
AcDbZombieObject
 90
      499
 91
      509
 93
      452
310
43115919D950DBDB1BDC93D999916409028333333333333E3BF0000000000000FB010790141107004050150841D405064090741402480A0350
1001
ACAD
1000
AcDbSavedByObjectVersion
1070
     0
  0
ACAD_PROXY_OBJECT
  5
955F
102
{ACAD_REACTORS
330
9550
102
}
330
9550
100
AcDbZombieObject
 90
      499
 91
      509
 93
      444
310
42D19858D95C185D1D195C9B90F409028333333333333E3BF0000000000000FB010790141107004050150841D405064090741402480A0350
1001
ACAD
1000
AcDbSavedByObjectVersion
1070
     0
  0
ACAD_PROXY_OBJECT
  5
9551
102
{ACAD_REACTORS
330
9550
102
}
330
9550
100
AcDbZombieObject
 90
      499
 91
      509
 93
      388
310
41119B185D240901404333333333333E3BF0000000000000F9010740A41107004050150841D405064090741402480A1B50
1001
ACAD
1000
AcDbSavedByObjectVersion
1070
     0
  0
ACAD_PROXY_OBJECT
  5
9552
102
{ACAD_REACTORS
330
9550
102
}
330
9550
100
AcDbZombieObject
 90
      499
 91
      509
 93
      476
310
43519B185D15DA5D1A115919D95CD0140901404333333333333E3BF0000000000000F9010740901411070040501600405405064090741402480A1B50
1001
ACAD
1000
AcDbSavedByObjectVersion
1070
     0
  0
ACAD_PROXY_OBJECT
  5
9553
102
{ACAD_REACTORS
330
9550
102
}
330
9550
100
AcDbZombieObject
 90
      499
 91
      509
 93
      412
310
41D1DBDD5C985D5910240902404333333333333E3BF0000000000000F9010740A411070040501641D405064090741402480A1B50
1001
ACAD
1000
AcDbSavedByObjectVersion
1070
     0
  0
ACAD_PROXY_OBJECT
  5
9554
102
{ACAD_REACTORS
330
9550
102
}
330
9550
100
AcDbZombieObject
 90
      499
 91
      509
 93
      500
310
4411DBDD5C985D5915DA5D1A115919D95CD0340902404333333333333E3BF0000000000000F9010740901411070040501600405405064090741402480A1B50
1001
ACAD
1000
AcDbSavedByObjectVersion
1070
     0
  0
ACAD_PROXY_OBJECT
  5
A260
102
{ACAD_REACTORS
330
9550
102
}
330
9550
100
AcDbZombieObject
 90
      499
 91
      509
 93
      476
310
41921A5919195B90640502408333333333333E3BF0000000000000FB01079024090700405020000000000001110200405405064090740C02480A0340
1001
ACAD
1000
AcDbSavedByObjectVersion
1070
     0
  0
ACAD_PROXY_OBJECT
  5
A20F
102
{ACAD_REACTORS
330
9550
102
}
330
9550
100
AcDbZombieObject
 90
      499
 91
      509
 93
      428
310
42529A5D1D195C93D999914409028333333333333E3BF0000000000000FB010790141107004050150A41D405064090741402480A0350
1001
ACAD
1000
AcDbSavedByObjectVersion
1070
     0
  0
ACAD_PROXY_OBJECT
  5
955E
102
{ACAD_REACTORS
330
9550
102
}
330
9550
100
AcDbZombieObject
 90
      499
 91
      509
 93
      444
310
42D31A5B995C185D1D195C9B90E409028333333333333E3BF0000000000000FB010790141107004050750841D405064090741402483A0350
1001
ACAD
1000
AcDbSavedByObjectVersion
1070
     0
  0
ACAD_PROXY_OBJECT
  5
A266
102
{ACAD_REACTORS
330
9550
102
}
330
9550
100
AcDbZombieObject
 90
      499
 91
      509
 93
      484
310
42135BD9195B1A5B99D0A409028333333333333E3BF0000000000000F901074090290700405010000000000201990108421405064090741402480A1B40
1001
ACAD
1000
AcDbSavedByObjectVersion
1070
     0
  0
ACAD_PROXY_OBJECT
  5
A210
102
{ACAD_REACTORS
330
9550
102
}
330
9550
100
AcDbZombieObject
 90
      499
 91
      509
 93
      444
310
42D3DD995C9A185B99D3D999915409028333333333333E3BF0000000000000FB010790141107004050150941D405064090741402480A0350
1001
ACAD
1000
AcDbSavedByObjectVersion
1070
     0
  0
ACAD_PROXY_OBJECT
  5
955A
102
{ACAD_REACTORS
330
9550
102
}
330
9550
100
AcDbZombieObject
 90
      499
 91
      509
 93
      420
310
425499585B1A5CDD1A58D08409028333333333333E3BF0000000000000FB01079019070040501508421405064090741402480A1B40
1001
ACAD
1000
AcDbSavedByObjectVersion
1070
     0
  0
ACAD_PROXY_OBJECT
  5
A265
102
{ACAD_REACTORS
330
9550
102
}
330
9550
100
AcDbZombieObject
 90
      499
 91
      509
 93
      420
310
4194DA1859195911B40902404333333333333E3BF0000000000000F9010740A41107004050150800405405064090840C02480A0B40
1001
ACAD
1000
AcDbSavedByObjectVersion
1070
     0
  0
ACAD_PROXY_OBJECT
  5
A264
102
{ACAD_REACTORS
330
9550
102
}
330
9550
100
AcDbZombieObject
 90
      499
 91
      509
 93
      516
310
4454DA18591959081DDA5D1A08195919D95CD1A40902404333333333333E3BF0000000000000F901074090142907004050250800405405064090740C02480A0B40
1001
ACAD
1000
AcDbSavedByObjectVersion
1070
     0
  0
ACAD_PROXY_OBJECT
  5
A261
102
{ACAD_REACTORS
330
9550
102
}
330
9550
100
AcDbZombieObject
 90
      499
 91
      509
 93
      532
310
4394DA1859195CC81BD98811DC985E5174090240C333333333333E3BF0000000000000FB01079024090741D01000000000000111010841D405064090740C02480A0340
1001
ACAD
1000
AcDbSavedByObjectVersion
1070
     0
  0
ACAD_PROXY_OBJECT
  5
A262
102
{ACAD_REACTORS
330
9550
102
}
330
9550
100
AcDbZombieObject
 90
      499
 91
      509
 93
      476
310
41D4DAD95D18DA1E51840502408333333333333E3BF0000000000000FB01079024090741D01000000000000111010B41D405064090741802480A0340
1001
ACAD
1000
AcDbSavedByObjectVersion
1070
     0
  0
ACAD_PROXY_OBJECT
  5
955D
102
{ACAD_REACTORS
330
9550
102
}
330
9550
100
AcDbZombieObject
 90
      499
 91
      509
 93
      412
310
41D51A1A58DAD95B90D409028333333333333E3BF0000000000000FB010790141107004050150C41D405064090741402480A0350
1001
ACAD
1000
AcDbSavedByObjectVersion
1070
     0
  0
ACAD_PROXY_OBJECT
  5
A25F
102
{ACAD_REACTORS
330
9550
102
}
330
9550
100
AcDbZombieObject
 90
      499
 91
      509
 93
      420
310
4255DA5C99599C985B595059028333333333333E3BF0000000000000FB0107901411070040501600405405064090740C02480A0340
1001
ACAD
1000
AcDbSavedByObjectVersion
1070
     0
  0
ACAD_PROXY_OBJECT
  5
A263
102
{ACAD_REACTORS
330
9550
102
}
330
9550
100
AcDbZombieObject
 90
      499
 91
      509
 93
      404
310
41560B54985E51940902404000000000000E03F0000000000000FB010740501907004050150841D405064090740C02480A1B40
1001
ACAD
1000
AcDbSavedByObjectVersion
1070
     0
  0
XRECORD
  5
B8A8
102
{ACAD_REACTORS
330
B8A7
102
}
330
B8A7
100
AcDbXrecord
340
18D
  0
XRECORD
  5
B8A9
102
{ACAD_REACTORS
330
B8A7
102
}
330
B8A7
100
AcDbXrecord
340
18C
  0
DICTIONARYVAR
  5
AAE0
102
{ACAD_REACTORS
330
37
102
}
330
37
100
DictionaryVariables
280
     0
  1
1:1
  0
DICTIONARYVAR
  5
9627
102
{ACAD_REACTORS
330
37
102
}
330
37
100
DictionaryVariables
280
     0
  1
Standard
  0
DICTIONARYVAR
  5
29E
102
{ACAD_REACTORS
330
37
102
}
330
37
100
DictionaryVariables
280
     0
  1
Standard
  0
DICTIONARYVAR
  5
38
102
{ACAD_REACTORS
330
37
102
}
330
37
100
DictionaryVariables
280
     0
  1
-1
  0
DICTIONARYVAR
  5
1CE
102
{ACAD_REACTORS
330
37
102
}
330
37
100
DictionaryVariables
280
     0
  1
2
  0
DICTIONARYVAR
  5
704E
102
{ACAD_REACTORS
330
37
102
}
330
37
100
DictionaryVariables
280
     0
  1
1
  0
DICTIONARYVAR
  5
962A
102
{ACAD_REACTORS
330
37
102
}
330
37
100
DictionaryVariables
280
     0
  1
0
  0
DICTIONARYVAR
  5
7052
102
{ACAD_REACTORS
330
37
102
}
330
37
100
DictionaryVariables
280
     0
  1
8
  0
DICTIONARYVAR
  5
7051
102
{ACAD_REACTORS
330
37
102
}
330
37
100
DictionaryVariables
280
     0
  1
1
  0
DICTIONARYVAR
  5
AB30
102
{ACAD_REACTORS
330
37
102
}
330
37
100
DictionaryVariables
280
     0
  1
0
  0
DICTIONARYVAR
  5
704F
102
{ACAD_REACTORS
330
37
102
}
330
37
100
DictionaryVariables
280
     0
  1
8
  0
DICTIONARYVAR
  5
7050
102
{ACAD_REACTORS
330
37
102
}
330
37
100
DictionaryVariables
280
     0
  1
2
  0
DICTIONARYVAR
  5
1CF
102
{ACAD_REACTORS
330
37
102
}
330
37
100
DictionaryVariables
280
     0
  1

  0
DICTIONARYVAR
  5
9629
102
{ACAD_REACTORS
330
37
102
}
330
37
100
DictionaryVariables
280
     0
  1
127
  0
DICTIONARYVAR
  5
B5D6
102
{ACAD_REACTORS
330
37
102
}
330
37
100
DictionaryVariables
280
     0
  1
2
  0
DICTIONARY
  5
BA45
330
9540
100
AcDbDictionary
  3
ACAD_XREC_ROUNDTRIP
360
BA46
1001
ACAD
1000
TREAT_AS_HARD
1070
     1
  0
DICTIONARY
  5
BA47
330
9538
100
AcDbDictionary
  3
ACAD_XREC_ROUNDTRIP
360
BA48
1001
ACAD
1000
TREAT_AS_HARD
1070
     1
  0
DICTIONARY
  5
BA49
330
9548
100
AcDbDictionary
  3
ACAD_XREC_ROUNDTRIP
360
BA4A
1001
ACAD
1000
TREAT_AS_HARD
1070
     1
  0
XRECORD
  5
BA46
102
{ACAD_REACTORS
330
BA45
102
}
330
BA45
100
AcDbXrecord
102
MATERIAL
148
0.0
149
0.0
149
0.0
 93
        0
 94
      127
282
     0
 72
     0
 77
     0
171
     0
175
     0
179
     0
273
     0
  0
XRECORD
  5
BA48
102
{ACAD_REACTORS
330
BA47
102
}
330
BA47
100
AcDbXrecord
102
MATERIAL
148
0.0
149
0.0
149
0.0
 93
        0
 94
      127
282
     0
 72
     0
 77
     0
171
     0
175
     0
179
     0
273
     0
  0
XRECORD
  5
BA4A
102
{ACAD_REACTORS
330
BA49
102
}
330
BA49
100
AcDbXrecord
102
MATERIAL
148
0.0
149
0.0
149
0.0
 93
        0
 94
      127
282
     0
 72
     0
 77
     0
171
     0
175
     0
179
     0
273
     0
  0
ENDSEC
  0
EOF
