  0
SECTION
  2
HEADER
  9
$ACADVER
  1
AC1012
  9
$DWGCODEPAGE
  3
ansi_932
  9
$INSBASE
 10
0.0
 20
0.0
 30
0.0
  9
$EXTMIN
 10
5034.139554797974
 20
-372.9009516538244
 30
0.0
  9
$EXTMAX
 10
5342.567742261134
 20
-132.8883810780387
 30
0.0000000002254849
  9
$LIMMIN
 10
0.0
 20
0.0
  9
$LIMMAX
 10
420.0
 20
297.0
  9
$ORTHOMODE
 70
     0
  9
$REGENMODE
 70
     1
  9
$FILLMODE
 70
     1
  9
$QTEXTMODE
 70
     0
  9
$MIRRTEXT
 70
     0
  9
$DRAGMODE
 70
     2
  9
$LTSCALE
 40
0.5
  9
$OSMODE
 70
 14463
  9
$ATTMODE
 70
     1
  9
$TEXTSIZE
 40
4.0
  9
$TRACEWID
 40
1.0
  9
$TEXTSTYLE
  7
STANDARD
  9
$CLAYER
  8
1TEXT
  9
$CELTYPE
  6
BYLAYER
  9
$CECOLOR
 62
   256
  9
$CELTSCALE
 40
1.0
  9
$DELOBJ
 70
     1
  9
$DISPSILH
 70
     0
  9
$DIMSCALE
 40
1.0
  9
$DIMASZ
 40
2.0
  9
$DIMEXO
 40
0.0
  9
$DIMDLI
 40
7.0
  9
$DIMRND
 40
0.0
  9
$DIMDLE
 40
0.0
  9
$DIMEXE
 40
1.0
  9
$DIMTP
 40
0.0
  9
$DIMTM
 40
0.0
  9
$DIMTXT
 40
3.5
  9
$DIMCEN
 40
0.0
  9
$DIMTSZ
 40
0.0
  9
$DIMTOL
 70
     0
  9
$DIMLIM
 70
     0
  9
$DIMTIH
 70
     0
  9
$DIMTOH
 70
     0
  9
$DIMSE1
 70
     0
  9
$DIMSE2
 70
     0
  9
$DIMTAD
 70
     1
  9
$DIMZIN
 70
     8
  9
$DIMBLK
  1

  9
$DIMASO
 70
     1
  9
$DIMSHO
 70
     1
  9
$DIMPOST
  1
 
  9
$DIMAPOST
  1

  9
$DIMALT
 70
     0
  9
$DIMALTD
 70
     2
  9
$DIMALTF
 40
25.4
  9
$DIMLFAC
 40
1.0
  9
$DIMTOFL
 70
     1
  9
$DIMTVP
 40
0.0
  9
$DIMTIX
 70
     0
  9
$DIMSOXD
 70
     0
  9
$DIMSAH
 70
     1
  9
$DIMBLK1
  1
OPEN30
  9
$DIMBLK2
  1
OPEN30
  9
$DIMSTYLE
  2
NEWX10
  9
$DIMCLRD
 70
   256
  9
$DIMCLRE
 70
   256
  9
$DIMCLRT
 70
   201
  9
$DIMTFAC
 40
0.7
  9
$DIMGAP
 40
0.7
  9
$DIMJUST
 70
     0
  9
$DIMSD1
 70
     0
  9
$DIMSD2
 70
     0
  9
$DIMTOLJ
 70
     1
  9
$DIMTZIN
 70
     8
  9
$DIMALTZ
 70
     0
  9
$DIMALTTZ
 70
     0
  9
$DIMFIT
 70
     2
  9
$DIMUPT
 70
     0
  9
$DIMUNIT
 70
     2
  9
$DIMDEC
 70
     2
  9
$DIMTDEC
 70
     4
  9
$DIMALTU
 70
     2
  9
$DIMALTTD
 70
     2
  9
$DIMTXSTY
  7
STANDARD
  9
$DIMAUNIT
 70
     0
  9
$LUNITS
 70
     2
  9
$LUPREC
 70
     4
  9
$SKETCHINC
 40
1.0
  9
$FILLETRAD
 40
0.0
  9
$AUNITS
 70
     0
  9
$AUPREC
 70
     2
  9
$MENU
  1
acad
  9
$ELEVATION
 40
0.0
  9
$PELEVATION
 40
0.0
  9
$THICKNESS
 40
0.0
  9
$LIMCHECK
 70
     0
  9
$CHAMFERA
 40
10.0
  9
$CHAMFERB
 40
10.0
  9
$CHAMFERC
 40
20.0
  9
$CHAMFERD
 40
0.0
  9
$SKPOLY
 70
     0
  9
$TDCREATE
 40
2451318.621352917
  9
$TDUPDATE
 40
2458164.391123426
  9
$TDINDWG
 40
1.4906358796
  9
$TDUSRTIMER
 40
1.4906358796
  9
$USRTIMER
 70
     1
  9
$ANGBASE
 50
0.0
  9
$ANGDIR
 70
     0
  9
$PDMODE
 70
     0
  9
$PDSIZE
 40
0.0
  9
$PLINEWID
 40
0.0
  9
$COORDS
 70
     2
  9
$SPLFRAME
 70
     0
  9
$SPLINETYPE
 70
     6
  9
$SPLINESEGS
 70
     8
  9
$ATTDIA
 70
     0
  9
$ATTREQ
 70
     1
  9
$HANDLING
 70
     1
  9
$HANDSEED
  5
B9C8
  9
$SURFTAB1
 70
     6
  9
$SURFTAB2
 70
     6
  9
$SURFTYPE
 70
     6
  9
$SURFU
 70
     6
  9
$SURFV
 70
     6
  9
$UCSNAME
  2

  9
$UCSORG
 10
0.0
 20
0.0
 30
0.0
  9
$UCSXDIR
 10
1.0
 20
0.0
 30
0.0
  9
$UCSYDIR
 10
0.0
 20
1.0
 30
0.0
  9
$PUCSNAME
  2

  9
$PUCSORG
 10
0.0
 20
0.0
 30
0.0
  9
$PUCSXDIR
 10
1.0
 20
0.0
 30
0.0
  9
$PUCSYDIR
 10
0.0
 20
1.0
 30
0.0
  9
$USERI1
 70
     0
  9
$USERI2
 70
     0
  9
$USERI3
 70
     0
  9
$USERI4
 70
     0
  9
$USERI5
 70
     0
  9
$USERR1
 40
0.0
  9
$USERR2
 40
0.0
  9
$USERR3
 40
0.0
  9
$USERR4
 40
0.0
  9
$USERR5
 40
0.0
  9
$WORLDVIEW
 70
     1
  9
$SHADEDGE
 70
     3
  9
$SHADEDIF
 70
    70
  9
$TILEMODE
 70
     1
  9
$MAXACTVP
 70
    48
  9
$PINSBASE
 10
0.0
 20
0.0
 30
0.0
  9
$PLIMCHECK
 70
     0
  9
$PEXTMIN
 10
1.000000000000000E+20
 20
1.000000000000000E+20
 30
1.000000000000000E+20
  9
$PEXTMAX
 10
-1.000000000000000E+20
 20
-1.000000000000000E+20
 30
-1.000000000000000E+20
  9
$PLIMMIN
 10
0.0
 20
0.0
  9
$PLIMMAX
 10
420.0
 20
297.0
  9
$UNITMODE
 70
     0
  9
$VISRETAIN
 70
     1
  9
$PLINEGEN
 70
     0
  9
$PSLTSCALE
 70
     1
  9
$TREEDEPTH
 70
  3020
  9
$PICKSTYLE
 70
     1
  9
$CMLSTYLE
  2
STANDARD
  9
$CMLJUST
 70
     0
  9
$CMLSCALE
 40
20.0
  9
$SAVEIMAGES
 70
     1
  0
ENDSEC
  0
SECTION
  2
CLASSES
  0
CLASS
  1
DICTIONARYVAR
  2
AcDbDictionaryVar
  3
ObjectDBX Classes
 90
        0
280
     0
281
     0
  0
CLASS
  1
IDBUFFER
  2
AcDbIdBuffer
  3
ObjectDBX Classes
 90
    32768
280
     0
281
     0
  0
CLASS
  1
LWPOLYLINE
  2
AcDbPolyline
  3
ObjectDBX Classes
 90
    32768
280
     0
281
     1
  0
CLASS
  1
ACDBDICTIONARYWDFLT
  2
AcDbDictionaryWithDefault
  3
ObjectDBX Classes
 90
    32768
280
     0
281
     0
  0
CLASS
  1
ACDBPLACEHOLDER
  2
AcDbPlaceHolder
  3
ObjectDBX Classes
 90
        0
280
     0
281
     0
  0
CLASS
  1
LAYOUT
  2
AcDbLayout
  3
ObjectDBX Classes
 90
        0
280
     0
281
     0
  0
CLASS
  1
TABLESTYLE
  2
AcDbTableStyle
  3
ObjectDBX Classes
 90
     4095
280
     0
281
     0
  0
CLASS
  1
SORTENTSTABLE
  2
AcDbSortentsTable
  3
ObjectDBX Classes
 90
    32768
280
     0
281
     0
  0
CLASS
  1
MATERIAL
  2
AcDbMaterial
  3
ObjectDBX Classes
 90
     1153
280
     0
281
     0
  0
CLASS
  1
VISUALSTYLE
  2
AcDbVisualStyle
  3
ObjectDBX Classes
 90
     4095
280
     0
281
     0
  0
CLASS
  1
SCALE
  2
AcDbScale
  3
ObjectDBX Classes
 90
     1153
280
     0
281
     0
  0
CLASS
  1
MLEADERSTYLE
  2
AcDbMLeaderStyle
  3
ACDB_MLEADERSTYLE_CLASS
 90
     4095
280
     0
281
     0
  0
CLASS
  1
CELLSTYLEMAP
  2
AcDbCellStyleMap
  3
ObjectDBX Classes
 90
     1152
280
     0
281
     0
  0
CLASS
  1
SUN
  2
AcDbSun
  3
SCENEOE
 90
     1153
280
     0
281
     0
  0
CLASS
  1
XRECORD
  2
AcDbXrecord
  3
ObjectDBX Classes
 90
    32768
280
     0
281
     0
  0
CLASS
  1
HATCH
  2
AcDbHatch
  3
ObjectDBX Classes
 90
    32768
280
     0
281
     1
  0
ENDSEC
  0
SECTION
  2
TABLES
  0
TABLE
  2
VPORT
  5
8
330
0
100
AcDbSymbolTable
 70
     1
  0
VPORT
  5
952D
330
8
100
AcDbSymbolTableRecord
100
AcDbViewportTableRecord
  2
*ACTIVE
 70
     0
 10
0.0
 20
0.0
 11
1.0
 21
1.0
 12
5188.353648529554
 22
-252.8946663659316
 13
0.0
 23
0.0
 14
10.0
 24
10.0
 15
10.0
 25
10.0
 16
0.0
 26
0.0
 36
1.0
 17
0.0
 27
0.0
 37
0.0
 40
257.6977073550541
 41
1.871481028151775
 42
50.0
 43
0.0
 44
0.0
 50
0.0
 51
0.0
 71
    16
 72
   100
 73
     1
 74
     1
 75
     0
 76
     0
 77
     0
 78
     0
1001
ACAD_NAV_VCDISPLAY
1070
     3
  0
ENDTAB
  0
TABLE
  2
LTYPE
  5
5
330
0
100
AcDbSymbolTable
 70
     2
  0
LTYPE
  5
12
330
5
100
AcDbSymbolTableRecord
100
AcDbLinetypeTableRecord
  2
BYBLOCK
 70
     0
  3

 72
    65
 73
     0
 40
0.0
  0
LTYPE
  5
13
330
5
100
AcDbSymbolTableRecord
100
AcDbLinetypeTableRecord
  2
BYLAYER
 70
     0
  3

 72
    65
 73
     0
 40
0.0
  0
LTYPE
  5
14
330
5
100
AcDbSymbolTableRecord
100
AcDbLinetypeTableRecord
  2
CONTINUOUS
 70
     0
  3
Solid line
 72
    65
 73
     0
 40
0.0
  0
LTYPE
  5
9837
330
5
100
AcDbSymbolTableRecord
100
AcDbLinetypeTableRecord
  2
CENTER2
 70
     0
  3
Center (.5x) ___ _ ___ _ ___ _ ___ _ ___ _ ___
 72
    65
 73
     4
 40
28.575
 49
19.05
 74
     0
 49
-3.175
 74
     0
 49
3.175
 74
     0
 49
-3.175
 74
     0
  0
ENDTAB
  0
TABLE
  2
LAYER
  5
2
102
{ACAD_XDICTIONARY
360
96D9
102
}
330
0
100
AcDbSymbolTable
 70
     5
  0
LAYER
  5
E
102
{ACAD_XDICTIONARY
360
9593
102
}
330
2
100
AcDbSymbolTableRecord
100
AcDbLayerTableRecord
  2
0
 70
     0
 62
     7
  6
CONTINUOUS
  0
LAYER
  5
29
102
{ACAD_XDICTIONARY
360
9595
102
}
330
2
100
AcDbSymbolTableRecord
100
AcDbLayerTableRecord
  2
1CENTER
 70
     0
 62
     7
  6
CENTER2
  0
LAYER
  5
31
102
{ACAD_XDICTIONARY
360
9597
102
}
330
2
100
AcDbSymbolTableRecord
100
AcDbLayerTableRecord
  2
1TEXT
 70
     0
 62
     7
  6
CONTINUOUS
  0
LAYER
  5
243
102
{ACAD_XDICTIONARY
360
959D
102
}
330
2
100
AcDbSymbolTableRecord
100
AcDbLayerTableRecord
  2
01
 70
     0
 62
     1
  6
CONTINUOUS
  0
LAYER
  5
24E
102
{ACAD_XDICTIONARY
360
95A3
102
}
330
2
100
AcDbSymbolTableRecord
100
AcDbLayerTableRecord
  2
1DIM
 70
     0
 62
     7
  6
CONTINUOUS
  0
ENDTAB
  0
TABLE
  2
STYLE
  5
3
330
0
100
AcDbSymbolTable
 70
     1
  0
STYLE
  5
F
330
3
100
AcDbSymbolTableRecord
100
AcDbTextStyleTableRecord
  2
STANDARD
 70
     0
 40
0.0
 41
1.0
 50
0.0
 71
     0
 42
4.0
  3
txt.shx
  4
extfont.shx
  0
ENDTAB
  0
TABLE
  2
VIEW
  5
6
330
0
100
AcDbSymbolTable
 70
     0
  0
ENDTAB
  0
TABLE
  2
UCS
  5
7
330
0
100
AcDbSymbolTable
 70
     0
  0
ENDTAB
  0
TABLE
  2
APPID
  5
9
330
0
100
AcDbSymbolTable
 70
    14
  0
APPID
  5
10
330
9
100
AcDbSymbolTableRecord
100
AcDbRegAppTableRecord
  2
ACAD
 70
     0
  0
APPID
  5
21
330
9
100
AcDbSymbolTableRecord
100
AcDbRegAppTableRecord
  2
DRAWINGVARIABLESXDATA
 70
     0
  0
APPID
  5
64
330
9
100
AcDbSymbolTableRecord
100
AcDbRegAppTableRecord
  2
CONTENTTABDATA
 70
     0
  0
APPID
  5
65
330
9
100
AcDbSymbolTableRecord
100
AcDbRegAppTableRecord
  2
CONTENTCURRENTTAB
 70
     0
  0
APPID
  5
66
330
9
100
AcDbSymbolTableRecord
100
AcDbRegAppTableRecord
  2
CONTENTBLOCKDESCRIPTION
 70
     0
  0
APPID
  5
67
330
9
100
AcDbSymbolTableRecord
100
AcDbRegAppTableRecord
  2
CONTENTBLOCKICON
 70
     0
  0
APPID
  5
68
330
9
100
AcDbSymbolTableRecord
100
AcDbRegAppTableRecord
  2
CONTENTLONGBLOCKNAME
 70
     0
  0
APPID
  5
2AE
330
9
100
AcDbSymbolTableRecord
100
AcDbRegAppTableRecord
  2
ACAD_PSEXT
 70
     0
  0
APPID
  5
9585
330
9
100
AcDbSymbolTableRecord
100
AcDbRegAppTableRecord
  2
ACAD_MLEADERVER
 70
     0
  0
APPID
  5
A2E3
330
9
100
AcDbSymbolTableRecord
100
AcDbRegAppTableRecord
  2
ACADANNOTATIVE
 70
     0
  0
APPID
  5
A2E4
330
9
100
AcDbSymbolTableRecord
100
AcDbRegAppTableRecord
  2
ACDBBLOCKREPETAG
 70
     0
  0
APPID
  5
AD6E
330
9
100
AcDbSymbolTableRecord
100
AcDbRegAppTableRecord
  2
ACAD_EXEMPT_FROM_CAD_STAND
 70
     0
  0
APPID
  5
AD77
330
9
100
AcDbSymbolTableRecord
100
AcDbRegAppTableRecord
  2
ACAD_NAV_VCDISPLAY
 70
     0
  0
APPID
  5
ADC3
330
9
100
AcDbSymbolTableRecord
100
AcDbRegAppTableRecord
  2
ACAECLAYERSTANDARD
 70
     0
  0
ENDTAB
  0
TABLE
  2
DIMSTYLE
  5
A
330
0
100
AcDbSymbolTable
 70
     1
  0
DIMSTYLE
105
48
330
A
100
AcDbSymbolTableRecord
100
AcDbDimStyleTableRecord
  2
NEWX10
 70
     0
  3
 
  4

  5

  6
OPEN30
  7
OPEN30
 40
1.0
 41
2.0
 42
0.0
 43
7.0
 44
1.0
 45
0.0
 46
0.0
 47
0.0
 48
0.0
140
3.5
141
0.0
142
0.0
143
25.4
144
1.0
145
0.0
146
0.7
147
0.7
 71
     0
 72
     0
 73
     0
 74
     0
 75
     0
 76
     0
 77
     1
 78
     8
170
     0
171
     2
172
     1
173
     1
174
     0
175
     0
176
   256
177
   256
178
   201
179
     2
270
     2
271
     2
272
     4
273
     2
274
     2
340
F
275
     0
280
     0
281
     0
282
     0
283
     1
284
     8
285
     0
286
     0
287
     2
288
     0
  0
ENDTAB
  0
TABLE
  2
BLOCK_RECORD
  5
1
330
0
100
AcDbSymbolTable
 70
     8
  0
BLOCK_RECORD
  5
18
102
{ACAD_XDICTIONARY
360
88F
102
}
330
1
100
AcDbSymbolTableRecord
100
AcDbBlockTableRecord
  2
*MODEL_SPACE
  0
BLOCK_RECORD
  5
15
330
1
100
AcDbSymbolTableRecord
100
AcDbBlockTableRecord
  2
*PAPER_SPACE
  0
BLOCK_RECORD
  5
42
330
1
100
AcDbSymbolTableRecord
100
AcDbBlockTableRecord
  2
_OPEN30
  0
BLOCK_RECORD
  5
A333
330
1
100
AcDbSymbolTableRecord
100
AcDbBlockTableRecord
  2
A3WAKUKAWAJUN2017_HYOUDAI_
  0
BLOCK_RECORD
  5
B828
330
1
100
AcDbSymbolTableRecord
100
AcDbBlockTableRecord
  2
*X23
  0
BLOCK_RECORD
  5
B876
330
1
100
AcDbSymbolTableRecord
100
AcDbBlockTableRecord
  2
*X24
  0
BLOCK_RECORD
  5
B8C8
330
1
100
AcDbSymbolTableRecord
100
AcDbBlockTableRecord
  2
*X25
  0
BLOCK_RECORD
  5
B919
330
1
100
AcDbSymbolTableRecord
100
AcDbBlockTableRecord
  2
*X26
  0
BLOCK_RECORD
  5
B956
330
1
100
AcDbSymbolTableRecord
100
AcDbBlockTableRecord
  2
*X27
  0
BLOCK_RECORD
  5
B996
330
1
100
AcDbSymbolTableRecord
100
AcDbBlockTableRecord
  2
*X28
  0
ENDTAB
  0
ENDSEC
  0
SECTION
  2
BLOCKS
  0
BLOCK
  5
19
330
18
100
AcDbEntity
  8
0
100
AcDbBlockBegin
  2
*MODEL_SPACE
 70
     0
 10
0.0
 20
0.0
 30
0.0
  3
*MODEL_SPACE
  1

  0
ENDBLK
  5
1A
330
18
100
AcDbEntity
  8
0
100
AcDbBlockEnd
  0
BLOCK
  5
16
330
15
100
AcDbEntity
 67
     1
  8
0
100
AcDbBlockBegin
  2
*PAPER_SPACE
 70
     0
 10
0.0
 20
0.0
 30
0.0
  3
*PAPER_SPACE
  1

  0
ENDBLK
  5
17
330
15
100
AcDbEntity
 67
     1
  8
0
100
AcDbBlockEnd
  0
BLOCK
  5
43
330
42
100
AcDbEntity
  8
0
100
AcDbBlockBegin
  2
_OPEN30
 70
     0
 10
0.0
 20
0.0
 30
0.0
  3
_OPEN30
  1

  0
LINE
  5
44
330
42
100
AcDbEntity
  8
0
  6
BYBLOCK
 62
     0
100
AcDbLine
 10
-1.0
 20
0.26794919
 30
0.0
 11
0.0
 21
0.0
 31
0.0
  0
LINE
  5
45
330
42
100
AcDbEntity
  8
0
  6
BYBLOCK
 62
     0
100
AcDbLine
 10
0.0
 20
0.0
 30
0.0
 11
-1.0
 21
-0.26794919
 31
0.0
  0
LINE
  5
46
330
42
100
AcDbEntity
  8
0
  6
BYBLOCK
 62
     0
100
AcDbLine
 10
0.0
 20
0.0
 30
0.0
 11
-1.0
 21
0.0
 31
0.0
  0
ENDBLK
  5
47
330
42
100
AcDbEntity
  8
0
100
AcDbBlockEnd
  0
BLOCK
  5
AA56
330
A333
100
AcDbEntity
  8
0
100
AcDbBlockBegin
  2
A3WAKUKAWAJUN2017_HYOUDAI_
 70
     0
 10
0.0
 20
0.0
 30
0.0
  3
A3WAKUKAWAJUN2017_HYOUDAI_
  1

  0
LINE
  5
A335
330
A333
100
AcDbEntity
  8
0
100
AcDbLine
 10
13.26299999998673
 20
-0.0001000000000317
 30
0.0
 11
9.236999999990758
 21
8.999899999990987
 31
0.0
1001
ACAD
1000
ASC_BOUNDS
1002
{
1070
    19
1005
A376
1002
}
  0
LINE
  5
A336
330
A333
100
AcDbEntity
  8
0
100
AcDbLine
 10
5.657999999994331
 20
0.9999999999989768
 30
0.0
 11
9.236999999990758
 21
8.999999999991019
 31
0.0
1001
ACAD
1000
ASC_BOUNDS
1002
{
1070
    19
1005
A376
1002
}
  0
LINE
  5
A337
330
A333
100
AcDbEntity
  8
0
100
AcDbLine
 10
18.59199999998134
 20
-0.2368999999997641
 30
0.0
 11
16.46099999998353
 21
5.432899999994561
 31
0.0
1001
ACAD
1000
ASC_BOUNDS
1002
{
1070
    19
1005
A377
1002
}
  0
LINE
  5
A338
330
A333
100
AcDbEntity
  8
0
100
AcDbLine
 10
18.59199999998134
 20
-0.2368999999997641
 30
0.0
 11
22.38199999997767
 21
8.763099999991255
 31
0.0
1001
ACAD
1000
ASC_BOUNDS
1002
{
1070
    19
1005
A377
1002
}
  0
LINE
  5
A339
330
A333
100
AcDbEntity
  8
0
100
AcDbLine
 10
14.32899999998563
 20
-0.2368999999997641
 30
0.0
 11
16.46099999998353
 21
5.432899999994561
 31
0.0
1001
ACAD
1000
ASC_BOUNDS
1002
{
1070
    19
1005
A377
1002
}
  0
LINE
  5
A33A
330
A333
100
AcDbEntity
  8
0
100
AcDbLine
 10
14.32899999998563
 20
-0.2368999999997641
 30
0.0
 11
10.53899999998941
 21
8.763099999991255
 31
0.0
1001
ACAD
1000
ASC_BOUNDS
1002
{
1070
    19
1005
A377
1002
}
  0
LINE
  5
A33B
330
A333
100
AcDbEntity
  8
0
100
AcDbLine
 10
19.53899999998043
 20
-0.0001000000000317
 30
0.0
 11
23.56599999997638
 21
8.999899999990987
 31
0.0
1001
ACAD
1000
ASC_BOUNDS
1002
{
1070
    19
1005
A378
1002
}
  0
LINE
  5
A33C
330
A333
100
AcDbEntity
  8
0
100
AcDbLine
 10
26.97358892824991
 20
1.383099999991202
 30
0.0
 11
23.56599999997638
 21
8.999899999990987
 31
0.0
1001
ACAD
1000
ASC_BOUNDS
1002
{
1070
    19
1005
A378
1002
}
  0
LINE
  5
A33D
330
A333
100
AcDbEntity
  8
0
100
AcDbLine
 10
5.657999999994331
 20
0.9999999999989768
 30
0.0
 11
3.181999999996833
 21
4.668599999995308
 31
0.0
1001
ACAD
1000
ASC_BOUNDS
1002
{
1070
    19
1005
A376
1002
}
  0
LINE
  5
A33E
330
A333
100
AcDbEntity
  8
0
100
AcDbLine
 10
4.617999999995391
 20
-0.0001000000000317
 30
0.0
 11
1.420999999998571
 21
4.736799999995242
 31
0.0
1001
ACAD
1000
ASC_BOUNDS
1002
{
1070
    19
1005
A376
1002
}
  0
LINE
  5
A33F
330
A333
100
AcDbEntity
  8
0
100
AcDbLine
 10
1.420999999998571
 20
8.763099999991255
 30
0.0
 11
1.420999999998571
 21
0.0
 31
0.0
1001
ACAD
1000
ASC_BOUNDS
1002
{
1070
    19
1005
A37B
1002
}
  0
LINE
  5
A340
330
A333
100
AcDbEntity
  8
0
100
AcDbLine
 10
0.0
 20
8.763099999991255
 30
0.0
 11
0.0
 21
0.0
 31
0.0
1001
ACAD
1000
ASC_BOUNDS
1002
{
1070
    19
1005
A37B
1002
}
  0
LINE
  5
A341
330
A333
100
AcDbEntity
  8
0
100
AcDbLine
 10
6.766999999993232
 20
-0.0001000000000317
 30
0.0
 11
7.826999999992154
 21
2.368399999997621
 31
0.0
1001
ACAD
1000
ASC_BOUNDS
1002
{
1070
    19
1005
A376
1002
}
  0
LINE
  5
A342
330
A333
100
AcDbEntity
  8
0
100
AcDbLine
 10
0.0
 20
0.0
 30
0.0
 11
1.420999999998571
 21
0.0
 31
0.0
1001
ACAD
1000
ASC_BOUNDS
1002
{
1070
    19
1005
A37B
1002
}
  0
LINE
  5
A343
330
A333
100
AcDbEntity
  8
0
100
AcDbLine
 10
4.617999999995391
 20
0.0
 30
0.0
 11
6.766999999993232
 21
0.0
 31
0.0
1001
ACAD
1000
ASC_BOUNDS
1002
{
1070
    19
1005
A376
1002
}
  0
LINE
  5
A344
330
A333
100
AcDbEntity
  8
0
100
AcDbLine
 10
11.70599999998831
 20
-0.0001000000000317
 30
0.0
 11
10.64699999998936
 21
2.368399999997621
 31
0.0
1001
ACAD
1000
ASC_BOUNDS
1002
{
1070
    19
1005
A376
1002
}
  0
LINE
  5
A345
330
A333
100
AcDbEntity
  8
0
100
AcDbLine
 10
7.826999999992154
 20
2.368399999997621
 30
0.0
 11
10.64699999998936
 21
2.368399999997621
 31
0.0
1001
ACAD
1000
ASC_BOUNDS
1002
{
1070
    19
1005
A376
1002
}
  0
LINE
  5
A346
330
A333
100
AcDbEntity
  8
0
100
AcDbLine
 10
11.70599999998831
 20
0.0
 30
0.0
 11
13.26299999998673
 21
0.0
 31
0.0
1001
ACAD
1000
ASC_BOUNDS
1002
{
1070
    19
1005
A376
1002
}
  0
LINE
  5
A347
330
A333
100
AcDbEntity
  8
0
100
AcDbLine
 10
22.15599999997789
 20
2.368399999997621
 30
0.0
 11
24.97599999997499
 21
2.368399999997621
 31
0.0
1001
ACAD
1000
ASC_BOUNDS
1002
{
1070
    19
1005
A378
1002
}
  0
LINE
  5
A348
330
A333
100
AcDbEntity
  8
0
100
AcDbLine
 10
19.53899999998043
 20
0.0
 30
0.0
 11
21.09599999997886
 21
0.0
 31
0.0
1001
ACAD
1000
ASC_BOUNDS
1002
{
1070
    19
1005
A378
1002
}
  0
LINE
  5
A349
330
A333
100
AcDbEntity
  8
0
100
AcDbLine
 10
21.09599999997886
 20
-0.0001000000000317
 30
0.0
 11
22.15599999997789
 21
2.368399999997621
 31
0.0
1001
ACAD
1000
ASC_BOUNDS
1002
{
1070
    19
1005
A378
1002
}
  0
LINE
  5
A34A
330
A333
100
AcDbEntity
  8
0
100
AcDbLine
 10
26.02015566812236
 20
0.0330999999912365
 30
0.0
 11
24.97599999997499
 21
2.368399999997621
 31
0.0
1001
ACAD
1000
ASC_BOUNDS
1002
{
1070
    19
1005
A378
1002
}
  0
LINE
  5
A34B
330
A333
100
AcDbEntity
  8
0
100
AcDbLine
 10
14.32399999998563
 20
3.315799999996671
 30
0.0
 11
16.46099999998353
 21
8.999899999990987
 31
0.0
1001
ACAD
1000
ASC_BOUNDS
1002
{
1070
    19
1005
A377
1002
}
  0
LINE
  5
A34C
330
A333
100
AcDbEntity
  8
0
100
AcDbLine
 10
6.432999999993513
 20
8.763099999991255
 30
0.0
 11
3.181999999996833
 21
4.668599999995308
 31
0.0
1001
ACAD
1000
ASC_BOUNDS
1002
{
1070
    19
1005
A376
1002
}
  0
LINE
  5
A34D
330
A333
100
AcDbEntity
  8
0
100
AcDbLine
 10
4.617999999995391
 20
8.763099999991255
 30
0.0
 11
1.420999999998571
 21
4.736799999995242
 31
0.0
1001
ACAD
1000
ASC_BOUNDS
1002
{
1070
    19
1005
A376
1002
}
  0
LINE
  5
A34E
330
A333
100
AcDbEntity
  8
0
100
AcDbLine
 10
0.0
 20
8.763099999991255
 30
0.0
 11
1.420999999998571
 21
8.763099999991255
 31
0.0
1001
ACAD
1000
ASC_BOUNDS
1002
{
1070
    19
1005
A37B
1002
}
  0
LINE
  5
A34F
330
A333
100
AcDbEntity
  8
0
100
AcDbLine
 10
4.617999999995391
 20
8.763099999991255
 30
0.0
 11
6.432999999993513
 21
8.763099999991255
 31
0.0
1001
ACAD
1000
ASC_BOUNDS
1002
{
1070
    19
1005
A376
1002
}
  0
LINE
  5
A350
330
A333
100
AcDbEntity
  8
0
100
AcDbLine
 10
14.32399999998563
 20
3.315799999996671
 30
0.0
 11
12.02999999998792
 21
8.763099999991255
 31
0.0
1001
ACAD
1000
ASC_BOUNDS
1002
{
1070
    19
1005
A377
1002
}
  0
LINE
  5
A351
330
A333
100
AcDbEntity
  8
0
100
AcDbLine
 10
10.06399999998996
 20
3.670999999996297
 30
0.0
 11
9.236999999990758
 21
5.5200999999945
 31
0.0
1001
ACAD
1000
ASC_BOUNDS
1002
{
1070
    19
1005
A376
1002
}
  0
LINE
  5
A352
330
A333
100
AcDbEntity
  8
0
100
AcDbLine
 10
8.409999999991555
 20
3.670999999996297
 30
0.0
 11
9.236999999990758
 21
5.5200999999945
 31
0.0
1001
ACAD
1000
ASC_BOUNDS
1002
{
1070
    19
1005
A376
1002
}
  0
LINE
  5
A353
330
A333
100
AcDbEntity
  8
0
100
AcDbLine
 10
8.409999999991555
 20
3.670999999996297
 30
0.0
 11
10.06399999998996
 21
3.670999999996297
 31
0.0
1001
ACAD
1000
ASC_BOUNDS
1002
{
1070
    19
1005
A376
1002
}
  0
LINE
  5
A354
330
A333
100
AcDbEntity
  8
0
100
AcDbLine
 10
10.53899999998941
 20
8.763099999991255
 30
0.0
 11
12.02999999998792
 21
8.763099999991255
 31
0.0
1001
ACAD
1000
ASC_BOUNDS
1002
{
1070
    19
1005
A377
1002
}
  0
LINE
  5
A355
330
A333
100
AcDbEntity
  8
0
100
AcDbLine
 10
22.7389999999773
 20
3.670999999996297
 30
0.0
 11
23.56599999997638
 21
5.5200999999945
 31
0.0
1001
ACAD
1000
ASC_BOUNDS
1002
{
1070
    19
1005
A378
1002
}
  0
LINE
  5
A356
330
A333
100
AcDbEntity
  8
0
100
AcDbLine
 10
22.7389999999773
 20
3.670999999996297
 30
0.0
 11
24.39299999997559
 21
3.670999999996297
 31
0.0
1001
ACAD
1000
ASC_BOUNDS
1002
{
1070
    19
1005
A378
1002
}
  0
LINE
  5
A357
330
A333
100
AcDbEntity
  8
0
100
AcDbLine
 10
18.59799999998143
 20
3.315799999996671
 30
0.0
 11
20.89099999997916
 21
8.763099999991255
 31
0.0
1001
ACAD
1000
ASC_BOUNDS
1002
{
1070
    19
1005
A377
1002
}
  0
LINE
  5
A358
330
A333
100
AcDbEntity
  8
0
100
AcDbLine
 10
18.59799999998143
 20
3.315799999996671
 30
0.0
 11
16.46099999998353
 21
8.999899999990987
 31
0.0
1001
ACAD
1000
ASC_BOUNDS
1002
{
1070
    19
1005
A377
1002
}
  0
LINE
  5
A359
330
A333
100
AcDbEntity
  8
0
100
AcDbLine
 10
20.89099999997916
 20
8.763099999991255
 30
0.0
 11
22.38199999997767
 21
8.763099999991255
 31
0.0
1001
ACAD
1000
ASC_BOUNDS
1002
{
1070
    19
1005
A377
1002
}
  0
LINE
  5
A35A
330
A333
100
AcDbEntity
  8
0
100
AcDbLine
 10
24.39299999997559
 20
3.670999999996297
 30
0.0
 11
23.56599999997638
 21
5.5200999999945
 31
0.0
1001
ACAD
1000
ASC_BOUNDS
1002
{
1070
    19
1005
A378
1002
}
  0
LINE
  5
A35B
330
A333
100
AcDbEntity
  8
0
100
AcDbLine
 10
44.99999999995498
 20
-0.2368999999997641
 30
0.0
 11
40.02599999995994
 21
5.341799999994635
 31
0.0
1001
ACAD
1000
ASC_BOUNDS
1002
{
1070
    19
1005
A37A
1002
}
  0
LINE
  5
A35C
330
A333
100
AcDbEntity
  8
0
100
AcDbLine
 10
40.02599999995994
 20
5.341799999994635
 30
0.0
 11
40.02599999995994
 21
0.0
 31
0.0
1001
ACAD
1000
ASC_BOUNDS
1002
{
1070
    19
1005
A37A
1002
}
  0
LINE
  5
A35D
330
A333
100
AcDbEntity
  8
0
100
AcDbLine
 10
38.60499999996136
 20
8.999999999991019
 30
0.0
 11
38.60499999996136
 21
0.0
 31
0.0
1001
ACAD
1000
ASC_BOUNDS
1002
{
1070
    19
1005
A37A
1002
}
  0
LINE
  5
A35E
330
A333
100
AcDbEntity
  8
0
100
AcDbLine
 10
44.99999999995498
 20
8.763099999991255
 30
0.0
 11
44.99999999995498
 21
-0.2368999999997641
 31
0.0
1001
ACAD
1000
ASC_BOUNDS
1002
{
1070
    19
1005
A37A
1002
}
  0
LINE
  5
A35F
330
A333
100
AcDbEntity
  8
0
100
AcDbLine
 10
38.60499999996136
 20
0.0
 30
0.0
 11
40.02599999995994
 21
0.0
 31
0.0
1001
ACAD
1000
ASC_BOUNDS
1002
{
1070
    19
1005
A37A
1002
}
  0
LINE
  5
A360
330
A333
100
AcDbEntity
  8
0
100
AcDbLine
 10
43.57899999995641
 20
3.421199999996588
 30
0.0
 11
38.60499999996136
 21
8.999899999990987
 31
0.0
1001
ACAD
1000
ASC_BOUNDS
1002
{
1070
    19
1005
A37A
1002
}
  0
LINE
  5
A361
330
A333
100
AcDbEntity
  8
0
100
AcDbLine
 10
43.57899999995641
 20
8.763099999991255
 30
0.0
 11
43.57899999995641
 21
3.421199999996588
 31
0.0
1001
ACAD
1000
ASC_BOUNDS
1002
{
1070
    19
1005
A37A
1002
}
  0
LINE
  5
A362
330
A333
100
AcDbEntity
  8
0
100
AcDbLine
 10
43.57899999995641
 20
8.763099999991255
 30
0.0
 11
44.99999999995498
 21
8.763099999991255
 31
0.0
1001
ACAD
1000
ASC_BOUNDS
1002
{
1070
    19
1005
A37A
1002
}
  0
LINE
  5
A363
330
A333
100
AcDbEntity
  8
0
100
AcDbLine
 10
37.67199999996831
 20
8.763099999991255
 30
0.0
 11
36.23199999996837
 21
8.763099999991255
 31
0.0
  0
LINE
  5
A364
330
A333
100
AcDbEntity
  8
0
100
AcDbLine
 10
31.64199999996833
 20
8.763099999991255
 30
0.0
 11
31.64199999996833
 21
2.481619422925121
 31
0.0
  0
LINE
  5
A365
330
A333
100
AcDbEntity
  8
0
100
AcDbLine
 10
37.67199999996831
 20
8.763099999991255
 30
0.0
 11
37.67199999996831
 21
2.481619422925121
 31
0.0
  0
LINE
  5
A366
330
A333
100
AcDbEntity
  8
0
100
AcDbLine
 10
36.23199999996837
 20
8.763099999991255
 30
0.0
 11
36.23199999996837
 21
2.481619422925064
 31
0.0
  0
LINE
  5
A367
330
A333
100
AcDbEntity
  8
0
100
AcDbLine
 10
33.08199999996839
 20
8.763099999991255
 30
0.0
 11
33.08199999996839
 21
2.481619422925121
 31
0.0
  0
ARC
  5
A368
330
A333
100
AcDbEntity
  8
0
100
AcDbCircle
 10
34.65699999996832
 20
3.183099999991214
 30
0.0
 40
3.420000000000007
100
AcDbArc
 50
240.0000000000255
 51
299.9999999999766
  0
ARC
  5
A369
330
A333
100
AcDbEntity
  8
0
100
AcDbCircle
 10
34.65699999996832
 20
3.183099999991214
 30
0.0
 40
1.97999999999999
100
AcDbArc
 50
240.000000000026
 51
299.9999999999703
  0
LINE
  5
A36A
330
A333
100
AcDbEntity
  8
0
100
AcDbLine
 10
33.08199999996828
 20
8.763099999991255
 30
0.0
 11
31.64199999996833
 21
8.763099999991255
 31
0.0
  0
ARC
  5
A36B
330
A333
100
AcDbEntity
  8
0
100
AcDbCircle
 10
35.06199999996829
 20
2.481619422925064
 30
0.0
 40
1.17
100
AcDbArc
 50
299.9999999999699
 51
0.0
  0
ARC
  5
A36C
330
A333
100
AcDbEntity
  8
0
100
AcDbCircle
 10
34.25199999996835
 20
2.481619422925121
 30
0.0
 40
1.17
100
AcDbArc
 50
180.0
 51
240.0000000000238
  0
ARC
  5
A36D
330
A333
100
AcDbEntity
  8
0
100
AcDbCircle
 10
35.06199999996841
 20
2.481619422925121
 30
0.0
 40
2.61
100
AcDbArc
 50
299.9999999999756
 51
0.0
  0
ARC
  5
A36E
330
A333
100
AcDbEntity
  8
0
100
AcDbCircle
 10
34.25199999996835
 20
2.481619422925121
 30
0.0
 40
2.61
100
AcDbArc
 50
180.0
 51
240.0000000000244
  0
LINE
  5
A36F
330
A333
100
AcDbEntity
  8
0
100
AcDbLine
 10
29.30199999996933
 20
8.763099999991255
 30
0.0
 11
30.74199999996927
 21
8.763099999991255
 31
0.0
1001
ACAD
1000
ASC_BOUNDS
1002
{
1070
    19
1005
A378
1002
}
  0
LINE
  5
A370
330
A333
100
AcDbEntity
  8
0
100
AcDbLine
 10
30.74199999996927
 20
8.763099999991255
 30
0.0
 11
30.74199999996927
 21
2.373099999991211
 31
0.0
1001
ACAD
1000
ASC_BOUNDS
1002
{
1070
    19
1005
A378
1002
}
  0
LINE
  5
A371
330
A333
100
AcDbEntity
  8
0
100
AcDbLine
 10
26.02015566812236
 20
0.0330999999912365
 30
0.0
 11
28.40199999996923
 21
0.0330999999912365
 31
0.0
1001
ACAD
1000
ASC_BOUNDS
1002
{
1070
    19
1005
A378
1002
}
  0
LINE
  5
A372
330
A333
100
AcDbEntity
  8
0
100
AcDbLine
 10
29.30199999996933
 20
8.763099999991255
 30
0.0
 11
29.30199999996933
 21
2.283099999991236
 31
0.0
1001
ACAD
1000
ASC_BOUNDS
1002
{
1070
    19
1005
A378
1002
}
  0
LINE
  5
A373
330
A333
100
AcDbEntity
  8
0
100
AcDbLine
 10
26.97358892824991
 20
1.383099999991202
 30
0.0
 11
28.40199999996923
 21
1.383099999991202
 31
0.0
1001
ACAD
1000
ASC_BOUNDS
1002
{
1070
    19
1005
A378
1002
}
  0
ARC
  5
A374
330
A333
100
AcDbEntity
  8
0
100
AcDbCircle
 10
28.40199999996923
 20
2.283099999991236
 30
0.0
 40
0.9
100
AcDbArc
 50
270.0
 51
0.0
1001
ACAD
1000
ASC_BOUNDS
1002
{
1070
    19
1005
A378
1002
}
  0
ARC
  5
A375
330
A333
100
AcDbEntity
  8
0
100
AcDbCircle
 10
28.40199999996923
 20
2.373099999991211
 30
0.0
 40
2.34
100
AcDbArc
 50
270.0
 51
0.0
1001
ACAD
1000
ASC_BOUNDS
1002
{
1070
    19
1005
A378
1002
}
  0
INSERT
  5
A376
330
A333
100
AcDbEntity
  8
0
100
AcDbBlockReference
  2
*X23
 10
0.0
 20
0.0
 30
0.0
1001
ACAD
1000
HATCH
1002
{
1070
    19
1000
ANSI37
1040
0.15
1040
0.0
1000
ASC_BOUNDS
1070
     2
1070
     2
1070
    12
1005
A335
1005
A336
1005
A33D
1005
A34C
1005
A34F
1005
A34D
1005
A33E
1005
A343
1005
A341
1005
A345
1005
A344
1005
A346
1070
     2
1070
     3
1005
A351
1005
A353
1005
A352
1000
ASC_SEEDPOINT
1011
3.614004224891801
1021
2.996669441146025
1031
0.0
1000
R14_HATCH_DATA
1000
A376
1011
1.0
1021
0.0
1031
0.0
1011
0.0
1021
1.0
1031
0.0
1011
0.0
1021
0.0
1031
1.0
1040
0.0
1010
0.0
1020
0.0
1030
1.0
1000
ANSI37
1070
     0
1070
     1
1071
        2
1071
        7
1070
     0
1070
     1
1071
       17
1040
13.26299999998673
1040
-0.0001000000000317
1040
9.236999999990758
1040
8.999899999990987
1040
9.236999999990758
1040
8.999999999991019
1040
5.657999999994331
1040
0.9999999999989768
1040
3.181999999996833
1040
4.668599999995308
1040
6.432999999993513
1040
8.763099999991255
1040
4.617999999995391
1040
8.763099999991255
1040
1.420999999998571
1040
4.736799999995242
1040
4.617999999995391
1040
-0.0001000000000317
1040
4.617999999995391
1040
0.0
1040
6.766999999993232
1040
0.0
1040
6.766999999993232
1040
-0.0001000000000317
1040
7.826999999992154
1040
2.368399999997621
1040
10.64699999998936
1040
2.368399999997621
1040
11.70599999998831
1040
-0.0001000000000317
1040
11.70599999998831
1040
0.0
1040
13.26299999998673
1040
0.0
1071
       12
1005
A335
1005
A336
1005
A33D
1005
A34C
1005
A34F
1005
A34D
1005
A33E
1005
A343
1005
A341
1005
A345
1005
A344
1005
A346
1071
       22
1070
     0
1070
     1
1071
        3
1040
9.236999999990758
1040
5.5200999999945
1040
10.06399999998996
1040
3.670999999996297
1040
8.409999999991555
1040
3.670999999996297
1071
        3
1005
A351
1005
A353
1005
A352
1070
     0
1070
     1
1040
0.0
1040
0.15
1070
     0
1070
     2
1040
0.7853981633974483
1040
49.29960901727088
1040
-10.17736998311392
1040
-0.3367596045400932
1040
0.3367596045400932
1070
     0
1040
2.356194490192345
1040
49.29960901727088
1040
-10.17736998311392
1040
-0.3367596045400932
1040
-0.3367596045400932
1070
     0
1040
0.0110235143455945
1071
        2
1040
3.614004224891801
1040
2.996669441146025
1040
0.0
1040
3.614004224891801
1040
2.996669441146025
1040
0.0
1002
}
  0
INSERT
  5
A377
330
A333
100
AcDbEntity
  8
0
100
AcDbBlockReference
  2
*X24
 10
0.0
 20
0.0
 30
0.0
1001
ACAD
1000
HATCH
1002
{
1070
    19
1000
ANSI37
1040
0.15
1040
0.0
1000
ASC_BOUNDS
1070
     1
1070
     2
1070
    10
1005
A337
1005
A338
1005
A359
1005
A357
1005
A358
1005
A34B
1005
A350
1005
A354
1005
A33A
1005
A339
1000
ASC_SEEDPOINT
1011
14.73245321214324
1021
2.798246178283421
1031
0.0
1000
R14_HATCH_DATA
1000
A377
1011
1.0
1021
0.0
1031
0.0
1011
0.0
1021
1.0
1031
0.0
1011
0.0
1021
0.0
1031
1.0
1040
0.0
1010
0.0
1020
0.0
1030
1.0
1000
ANSI37
1070
     0
1070
     1
1071
        1
1071
        7
1070
     0
1070
     1
1071
       10
1040
16.46099999998353
1040
5.432899999994561
1040
18.59199999998134
1040
-0.2368999999997641
1040
22.38199999997767
1040
8.763099999991255
1040
20.89099999997916
1040
8.763099999991255
1040
18.59799999998143
1040
3.315799999996671
1040
16.46099999998353
1040
8.999899999990987
1040
14.32399999998563
1040
3.315799999996671
1040
12.02999999998792
1040
8.763099999991255
1040
10.53899999998941
1040
8.763099999991255
1040
14.32899999998563
1040
-0.2368999999997641
1071
       10
1005
A337
1005
A338
1005
A359
1005
A357
1005
A358
1005
A34B
1005
A350
1005
A354
1005
A33A
1005
A339
1070
     0
1070
     1
1040
0.0
1040
0.15
1070
     0
1070
     2
1040
0.7853981633974483
1040
49.29960901727088
1040
-10.17736998311392
1040
-0.3367596045400932
1040
0.3367596045400932
1070
     0
1040
2.356194490192345
1040
49.29960901727088
1040
-10.17736998311392
1040
-0.3367596045400932
1040
-0.3367596045400932
1070
     0
1040
0.0110235143455945
1071
        1
1040
14.73245321214324
1040
2.798246178283421
1040
0.0
1002
}
  0
INSERT
  5
A378
330
A333
100
AcDbEntity
  8
0
100
AcDbBlockReference
  2
*X25
 10
0.0
 20
0.0
 30
0.0
1001
ACAD
1000
HATCH
1002
{
1070
    19
1000
ANSI37
1040
0.15
1040
0.0
1000
ASC_BOUNDS
1070
     2
1070
     2
1070
    13
1005
A33B
1005
A348
1005
A349
1005
A347
1005
A34A
1005
A371
1005
A375
1005
A370
1005
A36F
1005
A372
1005
A374
1005
A373
1005
A33C
1070
     2
1070
     3
1005
A355
1005
A35A
1005
A356
1000
ASC_SEEDPOINT
1011
21.97929957367762
1021
3.294304244259308
1031
0.0
1000
R14_HATCH_DATA
1000
A378
1011
1.0
1021
0.0
1031
0.0
1011
0.0
1021
1.0
1031
0.0
1011
0.0
1021
0.0
1031
1.0
1040
0.0
1010
0.0
1020
0.0
1030
1.0
1000
ANSI37
1070
     0
1070
     1
1071
        2
1071
        7
1070
     1
1070
     1
1071
       15
1040
23.56599999997638
1040
8.999899999990987
1040
0.0
1040
19.53899999998043
1040
-0.0001000000000317
1040
0.0
1040
19.53899999998043
1040
0.0
1040
0.0
1040
21.09599999997886
1040
0.0
1040
0.0
1040
21.09599999997886
1040
-0.0001000000000317
1040
0.0
1040
22.15599999997789
1040
2.368399999997621
1040
0.0
1040
24.97599999997499
1040
2.368399999997621
1040
0.0
1040
26.02015566812236
1040
0.0330999999912365
1040
0.0
1040
28.40199999996923
1040
0.0330999999912365
1040
0.414213562373095
1040
30.74199999996923
1040
2.373099999991211
1040
0.0
1040
30.74199999996927
1040
8.763099999991255
1040
0.0
1040
29.30199999996933
1040
8.763099999991255
1040
0.0
1040
29.30199999996933
1040
2.283099999991236
1040
-0.414213562373095
1040
28.40199999996923
1040
1.383099999991237
1040
0.0
1040
26.97358892824991
1040
1.383099999991202
1040
0.0
1071
       13
1005
A33B
1005
A348
1005
A349
1005
A347
1005
A34A
1005
A371
1005
A375
1005
A370
1005
A36F
1005
A372
1005
A374
1005
A373
1005
A33C
1071
       22
1070
     0
1070
     1
1071
        3
1040
22.7389999999773
1040
3.670999999996297
1040
23.56599999997638
1040
5.5200999999945
1040
24.39299999997559
1040
3.670999999996297
1071
        3
1005
A355
1005
A35A
1005
A356
1070
     0
1070
     1
1040
0.0
1040
0.15
1070
     0
1070
     2
1040
0.7853981633974483
1040
49.29960901727088
1040
-10.17736998311392
1040
-0.3367596045400932
1040
0.3367596045400932
1070
     0
1040
2.356194490192345
1040
49.29960901727088
1040
-10.17736998311392
1040
-0.3367596045400932
1040
-0.3367596045400932
1070
     0
1040
0.0110235143455945
1071
        2
1040
21.97929957367762
1040
3.294304244259308
1040
0.0
1040
21.97929957367762
1040
3.294304244259308
1040
0.0
1002
}
  0
INSERT
  5
A379
330
A333
100
AcDbEntity
  8
0
100
AcDbBlockReference
  2
*X26
 10
0.0
 20
0.0
 30
0.0
1001
ACAD
1000
HATCH
1002
{
1070
    19
1000
ANSI37
1040
0.15
1040
0.0
1000
R14_HATCH_DATA
1000
A379
1011
1.0
1021
0.0
1031
0.0
1011
0.0
1021
1.0
1031
0.0
1011
0.0
1021
0.0
1031
1.0
1040
0.0
1010
0.0
1020
0.0
1030
1.0
1000
ANSI37
1070
     0
1070
     1
1071
        1
1071
        7
1070
     1
1070
     1
1071
       12
1040
31.64199999996833
1040
2.481619422925121
1040
0.2679491924310942
1040
32.94699999997067
1040
0.2212931190493919
1040
0.2679491924301353
1040
36.36699999995983
1040
0.2212931190459813
1040
0.2679491924321411
1040
37.67199999996831
1040
2.481619422928361
1040
0.0
1040
37.67199999996831
1040
8.763099999991255
1040
0.0
1040
36.23199999996837
1040
8.763099999991255
1040
0.0
1040
36.23199999996837
1040
2.481619422925064
1040
-0.2679491924310291
1040
35.64699999996708
1040
1.468369700498386
1040
-0.267949192430519
1040
33.66699999997093
1040
1.468369700497703
1040
-0.267949192431809
1040
33.08199999996839
1040
2.481619422926997
1040
0.0
1040
33.08199999996839
1040
8.763099999991255
1040
0.0
1040
31.64199999996833
1040
8.763099999991255
1040
0.0
1071
        0
1070
     0
1070
     1
1040
0.0
1040
0.15
1070
     0
1070
     2
1040
0.7853981633974483
1040
49.29960901727088
1040
-10.17736998311392
1040
-0.3367596045400932
1040
0.3367596045400932
1070
     0
1040
2.356194490192345
1040
49.29960901727088
1040
-10.17736998311392
1040
-0.3367596045400932
1040
-0.3367596045400932
1070
     0
1040
0.0110235143455945
1071
        1
1040
32.30357378967278
1040
3.988785755459219
1040
0.0
1002
}
  0
INSERT
  5
A37A
330
A333
100
AcDbEntity
  8
0
100
AcDbBlockReference
  2
*X27
 10
0.0
 20
0.0
 30
0.0
1001
ACAD
1000
HATCH
1002
{
1070
    19
1000
ANSI37
1040
0.15
1040
0.0
1000
ASC_BOUNDS
1070
     1
1070
     2
1070
     8
1005
A35B
1005
A35E
1005
A362
1005
A361
1005
A360
1005
A35D
1005
A35F
1005
A35C
1000
ASC_SEEDPOINT
1011
39.74896370716704
1021
4.484843821435049
1031
0.0
1000
R14_HATCH_DATA
1000
A37A
1011
1.0
1021
0.0
1031
0.0
1011
0.0
1021
1.0
1031
0.0
1011
0.0
1021
0.0
1031
1.0
1040
0.0
1010
0.0
1020
0.0
1030
1.0
1000
ANSI37
1070
     0
1070
     1
1071
        1
1071
        7
1070
     0
1070
     1
1071
        9
1040
40.02599999995994
1040
5.341799999994635
1040
44.99999999995498
1040
-0.2368999999997641
1040
44.99999999995498
1040
8.763099999991255
1040
43.57899999995641
1040
8.763099999991255
1040
43.57899999995641
1040
3.421199999996588
1040
38.60499999996136
1040
8.999899999990987
1040
38.60499999996136
1040
8.999999999991019
1040
38.60499999996136
1040
0.0
1040
40.02599999995994
1040
0.0
1071
        8
1005
A35B
1005
A35E
1005
A362
1005
A361
1005
A360
1005
A35D
1005
A35F
1005
A35C
1070
     0
1070
     1
1040
0.0
1040
0.15
1070
     0
1070
     2
1040
0.7853981633974483
1040
49.29960901727088
1040
-10.17736998311392
1040
-0.3367596045400932
1040
0.3367596045400932
1070
     0
1040
2.356194490192345
1040
49.29960901727088
1040
-10.17736998311392
1040
-0.3367596045400932
1040
-0.3367596045400932
1070
     0
1040
0.0110235143455945
1071
        1
1040
39.74896370716704
1040
4.484843821435049
1040
0.0
1002
}
  0
INSERT
  5
A37B
330
A333
100
AcDbEntity
  8
0
100
AcDbBlockReference
  2
*X28
 10
0.0
 20
0.0
 30
0.0
1001
ACAD
1000
HATCH
1002
{
1070
    19
1000
ANSI37
1040
0.15
1040
0.0
1000
ASC_BOUNDS
1070
     1
1070
     2
1070
     4
1005
A33F
1005
A34E
1005
A340
1005
A342
1000
ASC_SEEDPOINT
1011
1.079051535452663
1021
4.148538732891836
1031
0.0
1000
R14_HATCH_DATA
1000
A37B
1011
1.0
1021
0.0
1031
0.0
1011
0.0
1021
1.0
1031
0.0
1011
0.0
1021
0.0
1031
1.0
1040
0.0
1010
0.0
1020
0.0
1030
1.0
1000
ANSI37
1070
     0
1070
     1
1071
        1
1071
        7
1070
     0
1070
     1
1071
        4
1040
1.420999999998571
1040
0.0
1040
1.420999999998571
1040
8.763099999991255
1040
0.0
1040
8.763099999991255
1040
0.0
1040
0.0
1071
        4
1005
A33F
1005
A34E
1005
A340
1005
A342
1070
     0
1070
     1
1040
0.0
1040
0.15
1070
     0
1070
     2
1040
0.7853981633974483
1040
49.29960901727088
1040
-10.17736998311392
1040
-0.3367596045400932
1040
0.3367596045400932
1070
     0
1040
2.356194490192345
1040
49.29960901727088
1040
-10.17736998311392
1040
-0.3367596045400932
1040
-0.3367596045400932
1070
     0
1040
0.0053004257112761
1071
        1
1040
1.079051535452663
1040
4.148538732891836
1040
0.0
1002
}
  0
ENDBLK
  5
AA57
330
A333
100
AcDbEntity
  8
0
100
AcDbBlockEnd
  0
BLOCK
  5
B9B6
330
B828
100
AcDbEntity
  8
0
100
AcDbBlockBegin
  2
*X23
 70
     1
 10
0.0
 20
0.0
 30
0.0
  3
*X23
  1

  0
LINE
  5
B829
330
B828
100
AcDbEntity
  8
0
  6
CONTINUOUS
100
AcDbLine
 10
3.418023043697893
 20
7.251849696850613
 30
0.0
 11
4.929273346838536
 21
8.763099999991255
 31
0.0
  0
LINE
  5
B82A
330
B828
100
AcDbEntity
  8
0
  6
CONTINUOUS
100
AcDbLine
 10
1.483656411257782
 20
4.643963855330318
 30
0.0
 11
5.60279255591872
 21
8.763099999991255
 31
0.0
  0
LINE
  5
B82B
330
B828
100
AcDbEntity
  8
0
  6
CONTINUOUS
100
AcDbLine
 10
1.755053947328235
 20
4.241842182320584
 30
0.0
 11
6.276311764998907
 21
8.763099999991255
 31
0.0
  0
LINE
  5
B82C
330
B828
100
AcDbEntity
  8
0
  6
CONTINUOUS
100
AcDbLine
 10
2.026451483398688
 20
3.839720509310849
 30
0.0
 11
4.441040904851878
 21
6.254309930764039
 31
0.0
  0
LINE
  5
B82D
330
B828
100
AcDbEntity
  8
0
  6
CONTINUOUS
100
AcDbLine
 10
2.297849019469139
 20
3.437598836301114
 30
0.0
 11
3.321765168359338
 21
4.461514985191313
 31
0.0
  0
LINE
  5
B82E
330
B828
100
AcDbEntity
  8
0
  6
CONTINUOUS
100
AcDbLine
 10
2.569246555539591
 20
3.03547716329138
 30
0.0
 11
3.593163397972743
 21
4.059394005724531
 31
0.0
  0
LINE
  5
B82F
330
B828
100
AcDbEntity
  8
0
  6
CONTINUOUS
100
AcDbLine
 10
2.840644091610043
 20
2.633355490281646
 30
0.0
 11
3.864561627586149
 21
3.657273026257751
 31
0.0
  0
LINE
  5
B830
330
B828
100
AcDbEntity
  8
0
  6
CONTINUOUS
100
AcDbLine
 10
3.112041627680496
 20
2.231233817271911
 30
0.0
 11
4.135959857199554
 21
3.25515204679097
 31
0.0
  0
LINE
  5
B831
330
B828
100
AcDbEntity
  8
0
  6
CONTINUOUS
100
AcDbLine
 10
3.383439163750948
 20
1.829112144262177
 30
0.0
 11
4.40735808681296
 21
2.853031067324189
 31
0.0
  0
LINE
  5
B832
330
B828
100
AcDbEntity
  8
0
  6
CONTINUOUS
100
AcDbLine
 10
3.654836699821399
 20
1.426990471252442
 30
0.0
 11
4.678756316426365
 21
2.450910087857407
 31
0.0
  0
LINE
  5
B833
330
B828
100
AcDbEntity
  8
0
  6
CONTINUOUS
100
AcDbLine
 10
3.926234235891853
 20
1.024868798242709
 30
0.0
 11
4.95015454603977
 21
2.048789108390626
 31
0.0
  0
LINE
  5
B834
330
B828
100
AcDbEntity
  8
0
  6
CONTINUOUS
100
AcDbLine
 10
4.197631771962304
 20
0.6227471252329737
 30
0.0
 11
5.221552775653176
 21
1.646668128923846
 31
0.0
  0
LINE
  5
B835
330
B828
100
AcDbEntity
  8
0
  6
CONTINUOUS
100
AcDbLine
 10
8.715877546767851
 20
7.835069736359266
 30
0.0
 11
9.435953450375058
 21
8.555145639966472
 31
0.0
  0
LINE
  5
B836
330
B828
100
AcDbEntity
  8
0
  6
CONTINUOUS
100
AcDbLine
 10
8.170620868422267
 20
6.616293848933497
 30
0.0
 11
9.644120833743461
 21
8.08979381425469
 31
0.0
  0
LINE
  5
B837
330
B828
100
AcDbEntity
  8
0
  6
CONTINUOUS
100
AcDbLine
 10
7.625364190076684
 20
5.397517961507727
 30
0.0
 11
9.852288217111864
 21
7.624441988542907
 31
0.0
  0
LINE
  5
B838
330
B828
100
AcDbEntity
  8
0
  6
CONTINUOUS
100
AcDbLine
 10
7.080107511731101
 20
4.178742074081957
 30
0.0
 11
10.06045560048027
 21
7.159090162831124
 31
0.0
  0
LINE
  5
B839
330
B828
100
AcDbEntity
  8
0
  6
CONTINUOUS
100
AcDbLine
 10
6.534850833385518
 20
2.959966186656187
 30
0.0
 11
10.26862298384867
 21
6.693738337119342
 31
0.0
  0
LINE
  5
B83A
330
B828
100
AcDbEntity
  8
0
  6
CONTINUOUS
100
AcDbLine
 10
4.469029308032756
 20
0.2206254522232385
 30
0.0
 11
5.492951005266582
 21
1.244547149457064
 31
0.0
  0
LINE
  5
B83B
330
B828
100
AcDbEntity
  8
0
  6
CONTINUOUS
100
AcDbLine
 10
5.989594155039935
 20
1.741190299230417
 30
0.0
 11
8.806950407233131
 21
4.558546551423613
 31
0.0
  0
LINE
  5
B83C
330
B828
100
AcDbEntity
  8
0
  6
CONTINUOUS
100
AcDbLine
 10
9.401251593263643
 20
5.152847737454126
 30
0.0
 11
10.47679036721708
 21
6.228386511407559
 31
0.0
  0
LINE
  5
B83D
330
B828
100
AcDbEntity
  8
0
  6
CONTINUOUS
100
AcDbLine
 10
4.921837203428691
 20
-0.0000858614610131
 30
0.0
 11
8.592923064886001
 21
3.670999999996297
 31
0.0
  0
LINE
  5
B83E
330
B828
100
AcDbEntity
  8
0
  6
CONTINUOUS
100
AcDbLine
 10
9.609390446785305
 20
4.6874673818956
 30
0.0
 11
10.68495775058548
 21
5.763034685695775
 31
0.0
  0
LINE
  5
B83F
330
B828
100
AcDbEntity
  8
0
  6
CONTINUOUS
100
AcDbLine
 10
5.595387755019432
 20
-0.0000545189504582
 30
0.0
 11
7.716137258923768
 21
2.120694984953879
 31
0.0
  0
LINE
  5
B840
330
B828
100
AcDbEntity
  8
0
  6
CONTINUOUS
100
AcDbLine
 10
6.268938306610172
 20
-0.000023176439905
 30
0.0
 11
7.170485805526503
 21
0.9015243224764267
 31
0.0
  0
LINE
  5
B841
330
B828
100
AcDbEntity
  8
0
  6
CONTINUOUS
100
AcDbLine
 10
7.963842273967511
 20
2.368399999997621
 30
0.0
 11
9.266442273966188
 21
3.670999999996297
 31
0.0
  0
LINE
  5
B842
330
B828
100
AcDbEntity
  8
0
  6
CONTINUOUS
100
AcDbLine
 10
8.637361483047696
 20
2.368399999997621
 30
0.0
 11
9.939961483046375
 21
3.670999999996297
 31
0.0
  0
LINE
  5
B843
330
B828
100
AcDbEntity
  8
0
  6
CONTINUOUS
100
AcDbLine
 10
9.817529300306965
 20
4.222087026337075
 30
0.0
 11
10.89312513395388
 21
5.297682859983993
 31
0.0
  0
LINE
  5
B844
330
B828
100
AcDbEntity
  8
0
  6
CONTINUOUS
100
AcDbLine
 10
10.02566815382863
 20
3.756706670778549
 30
0.0
 11
11.10129251732229
 21
4.832331034272211
 31
0.0
  0
LINE
  5
B845
330
B828
100
AcDbEntity
  8
0
  6
CONTINUOUS
100
AcDbLine
 10
9.310880692127883
 20
2.368399999997621
 30
0.0
 11
11.30945990069069
 21
4.366979208560428
 31
0.0
  0
LINE
  5
B846
330
B828
100
AcDbEntity
  8
0
  6
CONTINUOUS
100
AcDbLine
 10
9.98439990120807
 20
2.36839999999762
 30
0.0
 11
11.5176272840591
 21
3.901627382848645
 31
0.0
  0
LINE
  5
B847
330
B828
100
AcDbEntity
  8
0
  6
CONTINUOUS
100
AcDbLine
 10
10.65037369446246
 20
2.36085458417182
 30
0.0
 11
11.7257946674275
 21
3.436275557136862
 31
0.0
  0
LINE
  5
B848
330
B828
100
AcDbEntity
  8
0
  6
CONTINUOUS
100
AcDbLine
 10
10.85847197087848
 20
1.895433651507656
 30
0.0
 11
11.9339620507959
 21
2.97092373142508
 31
0.0
  0
LINE
  5
B849
330
B828
100
AcDbEntity
  8
0
  6
CONTINUOUS
100
AcDbLine
 10
11.0665702472945
 20
1.430012718843491
 30
0.0
 11
12.14212943416431
 21
2.505571905713296
 31
0.0
  0
LINE
  5
B84A
330
B828
100
AcDbEntity
  8
0
  6
CONTINUOUS
100
AcDbLine
 10
11.27466852371052
 20
0.9645917861793256
 30
0.0
 11
12.35029681753271
 21
2.040220080001513
 31
0.0
  0
LINE
  5
B84B
330
B828
100
AcDbEntity
  8
0
  6
CONTINUOUS
100
AcDbLine
 10
11.48276680012654
 20
0.4991708535151611
 30
0.0
 11
12.55846420090111
 21
1.57486825428973
 31
0.0
  0
LINE
  5
B84C
330
B828
100
AcDbEntity
  8
0
  6
CONTINUOUS
100
AcDbLine
 10
11.69086507654257
 20
0.0337499208509957
 30
0.0
 11
12.76663158426952
 21
1.109516428577947
 31
0.0
  0
LINE
  5
B84D
330
B828
100
AcDbEntity
  8
0
  6
CONTINUOUS
100
AcDbLine
 10
12.33057447873954
 20
-0.0000598860322123
 30
0.0
 11
12.97479896763792
 21
0.6441646028661663
 31
0.0
  0
LINE
  5
B84E
330
B828
100
AcDbEntity
  8
0
  6
CONTINUOUS
100
AcDbLine
 10
13.00413694809395
 20
-0.0000166257579952
 30
0.0
 11
13.18296635100632
 21
0.1788127771543824
 31
0.0
  0
LINE
  5
B84F
330
B828
100
AcDbEntity
  8
0
  6
CONTINUOUS
100
AcDbLine
 10
4.772852165289667
 20
-0.000092794222212
 30
0.0
 11
4.296495091028902
 21
0.4762642800385528
 31
0.0
  0
LINE
  5
B850
330
B828
100
AcDbEntity
  8
0
  6
CONTINUOUS
100
AcDbLine
 10
5.446340034776103
 20
-0.0000614546284616
 30
0.0
 11
2.898195908335625
 21
2.548082671812017
 31
0.0
  0
LINE
  5
B851
330
B828
100
AcDbEntity
  8
0
  6
CONTINUOUS
100
AcDbLine
 10
6.119827904262539
 20
-0.0000301150347113
 30
0.0
 11
1.499896725642348
 21
4.61990106358548
 31
0.0
  0
LINE
  5
B852
330
B828
100
AcDbEntity
  8
0
  6
CONTINUOUS
100
AcDbLine
 10
6.775136745476159
 20
0.0181802528318542
 30
0.0
 11
5.699826040202669
 21
1.093490958105344
 31
0.0
  0
LINE
  5
B853
330
B828
100
AcDbEntity
  8
0
  6
CONTINUOUS
100
AcDbLine
 10
6.983376846288489
 20
0.4834593610997118
 30
0.0
 11
5.908008617934405
 21
1.558827589453796
 31
0.0
  0
LINE
  5
B854
330
B828
100
AcDbEntity
  8
0
  6
CONTINUOUS
100
AcDbLine
 10
5.377063484962296
 20
1.416253513345719
 30
0.0
 11
1.702276957014131
 21
5.091040041293883
 31
0.0
  0
LINE
  5
B855
330
B828
100
AcDbEntity
  8
0
  6
CONTINUOUS
100
AcDbLine
 10
3.978745891735324
 20
3.488090315652877
 30
0.0
 11
2.000373521109399
 21
5.466462686278803
 31
0.0
  0
LINE
  5
B856
330
B828
100
AcDbEntity
  8
0
  6
CONTINUOUS
100
AcDbLine
 10
7.191616947100819
 20
0.948738469367568
 30
0.0
 11
6.11619119566614
 21
2.024164220802247
 31
0.0
  0
LINE
  5
B857
330
B828
100
AcDbEntity
  8
0
  6
CONTINUOUS
100
AcDbLine
 10
7.399857047913149
 20
1.414017577635424
 30
0.0
 11
6.324373773397875
 21
2.489500852150698
 31
0.0
  0
LINE
  5
B858
330
B828
100
AcDbEntity
  8
0
  6
CONTINUOUS
100
AcDbLine
 10
7.608097148725479
 20
1.879296685903281
 30
0.0
 11
6.53255635112961
 21
2.95483748349915
 31
0.0
  0
LINE
  5
B859
330
B828
100
AcDbEntity
  8
0
  6
CONTINUOUS
100
AcDbLine
 10
7.816337249537808
 20
2.344575794171138
 30
0.0
 11
6.740738928861345
 21
3.420174114847601
 31
0.0
  0
LINE
  5
B85A
330
B828
100
AcDbEntity
  8
0
  6
CONTINUOUS
100
AcDbLine
 10
3.310241080789734
 20
4.830114335678653
 30
0.0
 11
2.298470085204666
 21
5.84188533126372
 31
0.0
  0
LINE
  5
B85B
330
B828
100
AcDbEntity
  8
0
  6
CONTINUOUS
100
AcDbLine
 10
3.60832983563551
 20
5.205544789913063
 30
0.0
 11
2.596566649299935
 21
6.217307976248638
 31
0.0
  0
LINE
  5
B85C
330
B828
100
AcDbEntity
  8
0
  6
CONTINUOUS
100
AcDbLine
 10
3.906418590481286
 20
5.580975244147473
 30
0.0
 11
2.894663213395203
 21
6.592730621233557
 31
0.0
  0
LINE
  5
B85D
330
B828
100
AcDbEntity
  8
0
  6
CONTINUOUS
100
AcDbLine
 10
4.204507345327062
 20
5.956405698381884
 30
0.0
 11
3.192759777490472
 21
6.968153266218474
 31
0.0
  0
LINE
  5
B85E
330
B828
100
AcDbEntity
  8
0
  6
CONTINUOUS
100
AcDbLine
 10
8.466032252791512
 20
2.368399999997621
 30
0.0
 11
6.948921506593081
 21
3.885510746196053
 31
0.0
  0
LINE
  5
B85F
330
B828
100
AcDbEntity
  8
0
  6
CONTINUOUS
100
AcDbLine
 10
9.139551461871699
 20
2.36839999999762
 30
0.0
 11
7.157104084324816
 21
4.350847377544504
 31
0.0
  0
LINE
  5
B860
330
B828
100
AcDbEntity
  8
0
  6
CONTINUOUS
100
AcDbLine
 10
4.502596100172839
 20
6.331836152616295
 30
0.0
 11
3.49085634158574
 21
7.343575911203393
 31
0.0
  0
LINE
  5
B861
330
B828
100
AcDbEntity
  8
0
  6
CONTINUOUS
100
AcDbLine
 10
4.800684855018615
 20
6.707266606850705
 30
0.0
 11
3.788952905681008
 21
7.718998556188312
 31
0.0
  0
LINE
  5
B862
330
B828
100
AcDbEntity
  8
0
  6
CONTINUOUS
100
AcDbLine
 10
12.18154012887317
 20
-0.0000694579236642
 30
0.0
 11
11.32140332908496
 21
0.8600673418645499
 31
0.0
  0
LINE
  5
B863
330
B828
100
AcDbEntity
  8
0
  6
CONTINUOUS
100
AcDbLine
 10
12.85501608323566
 20
-0.0000262032059659
 30
0.0
 11
10.77672456435345
 21
2.078265315676246
 31
0.0
  0
LINE
  5
B864
330
B828
100
AcDbEntity
  8
0
  6
CONTINUOUS
100
AcDbLine
 10
9.813070670951886
 20
2.36839999999762
 30
0.0
 11
8.51047067095321
 21
3.670999999996297
 31
0.0
  0
LINE
  5
B865
330
B828
100
AcDbEntity
  8
0
  6
CONTINUOUS
100
AcDbLine
 10
10.48658988003207
 20
2.36839999999762
 30
0.0
 11
9.183989880033396
 21
3.670999999996297
 31
0.0
  0
LINE
  5
B866
330
B828
100
AcDbEntity
  8
0
  6
CONTINUOUS
100
AcDbLine
 10
8.441048632286794
 20
3.740422038662712
 30
0.0
 11
7.365286662056551
 21
4.816184008892956
 31
0.0
  0
LINE
  5
B867
330
B828
100
AcDbEntity
  8
0
  6
CONTINUOUS
100
AcDbLine
 10
8.649187485808454
 20
4.205802394221237
 30
0.0
 11
7.573469239788285
 21
5.281520640241407
 31
0.0
  0
LINE
  5
B868
330
B828
100
AcDbEntity
  8
0
  6
CONTINUOUS
100
AcDbLine
 10
5.098773609864391
 20
7.082697061085115
 30
0.0
 11
4.087049469776277
 21
8.09442120117323
 31
0.0
  0
LINE
  5
B869
330
B828
100
AcDbEntity
  8
0
  6
CONTINUOUS
100
AcDbLine
 10
5.396862364710167
 20
7.458127515319526
 30
0.0
 11
4.385146033871544
 21
8.469843846158149
 31
0.0
  0
LINE
  5
B86A
330
B828
100
AcDbEntity
  8
0
  6
CONTINUOUS
100
AcDbLine
 10
13.04801363231285
 20
0.4804954567970334
 30
0.0
 11
9.85750908911358
 21
3.670999999996297
 31
0.0
  0
LINE
  5
B86B
330
B828
100
AcDbEntity
  8
0
  6
CONTINUOUS
100
AcDbLine
 10
8.857326339330116
 20
4.671182749779763
 30
0.0
 11
7.781651817520021
 21
5.746857271589858
 31
0.0
  0
LINE
  5
B86C
330
B828
100
AcDbEntity
  8
0
  6
CONTINUOUS
100
AcDbLine
 10
5.694951119555943
 20
7.833557969553937
 30
0.0
 11
4.765409089118624
 21
8.763099999991255
 31
0.0
  0
LINE
  5
B86D
330
B828
100
AcDbEntity
  8
0
  6
CONTINUOUS
100
AcDbLine
 10
12.50286117236978
 20
1.699167125820288
 30
0.0
 11
9.68611877250287
 21
4.515909525687196
 31
0.0
  0
LINE
  5
B86E
330
B828
100
AcDbEntity
  8
0
  6
CONTINUOUS
100
AcDbLine
 10
9.065465192851777
 20
5.136563105338288
 30
0.0
 11
7.989834395251757
 21
6.21219390293831
 31
0.0
  0
LINE
  5
B86F
330
B828
100
AcDbEntity
  8
0
  6
CONTINUOUS
100
AcDbLine
 10
5.993039874401719
 20
8.208988423788346
 30
0.0
 11
5.43892829819881
 21
8.763099999991255
 31
0.0
  0
LINE
  5
B870
330
B828
100
AcDbEntity
  8
0
  6
CONTINUOUS
100
AcDbLine
 10
11.95770871242671
 20
2.917838794843543
 30
0.0
 11
8.19801697298349
 21
6.677530534286761
 31
0.0
  0
LINE
  5
B871
330
B828
100
AcDbEntity
  8
0
  6
CONTINUOUS
100
AcDbLine
 10
6.291128629247495
 20
8.584418878022756
 30
0.0
 11
6.112447507278997
 21
8.763099999991255
 31
0.0
  0
LINE
  5
B872
330
B828
100
AcDbEntity
  8
0
  6
CONTINUOUS
100
AcDbLine
 10
11.41255625248364
 20
4.136510463866797
 30
0.0
 11
8.406199550715227
 21
7.142867165635211
 31
0.0
  0
LINE
  5
B873
330
B828
100
AcDbEntity
  8
0
  6
CONTINUOUS
100
AcDbLine
 10
10.86740379254057
 20
5.355182132890051
 30
0.0
 11
8.614382128446962
 21
7.608203796983664
 31
0.0
  0
LINE
  5
B874
330
B828
100
AcDbEntity
  8
0
  6
CONTINUOUS
100
AcDbLine
 10
10.3222513325975
 20
6.573853801913305
 30
0.0
 11
8.822564706178696
 21
8.073540428332114
 31
0.0
  0
LINE
  5
B875
330
B828
100
AcDbEntity
  8
0
  6
CONTINUOUS
100
AcDbLine
 10
9.777098872654436
 20
7.792525470936562
 30
0.0
 11
9.030747283910433
 21
8.538877059680566
 31
0.0
  0
ENDBLK
  5
B9B7
330
B828
100
AcDbEntity
  8
0
100
AcDbBlockEnd
  0
BLOCK
  5
B9B8
330
B876
100
AcDbEntity
  8
0
100
AcDbBlockBegin
  2
*X24
 70
     1
 10
0.0
 20
0.0
 30
0.0
  3
*X24
  1

  0
LINE
  5
B877
330
B876
100
AcDbEntity
  8
0
  6
CONTINUOUS
100
AcDbLine
 10
10.67292308101235
 20
8.445076852443387
 30
0.0
 11
10.99094622856022
 21
8.763099999991255
 31
0.0
  0
LINE
  5
B878
330
B876
100
AcDbEntity
  8
0
  6
CONTINUOUS
100
AcDbLine
 10
10.87250383178748
 20
7.971138394138331
 30
0.0
 11
11.6644654376404
 21
8.763099999991255
 31
0.0
  0
LINE
  5
B879
330
B876
100
AcDbEntity
  8
0
  6
CONTINUOUS
100
AcDbLine
 10
11.07208458256261
 20
7.497199935833273
 30
0.0
 11
12.12126590876355
 21
8.546381262034211
 31
0.0
  0
LINE
  5
B87A
330
B876
100
AcDbEntity
  8
0
  6
CONTINUOUS
100
AcDbLine
 10
11.27166533333774
 20
7.023261477528216
 30
0.0
 11
12.32085164573666
 21
8.072447789927136
 31
0.0
  0
LINE
  5
B87B
330
B876
100
AcDbEntity
  8
0
  6
CONTINUOUS
100
AcDbLine
 10
11.47124608411287
 20
6.549323019223158
 30
0.0
 11
12.52043738270977
 21
7.59851431782006
 31
0.0
  0
LINE
  5
B87C
330
B876
100
AcDbEntity
  8
0
  6
CONTINUOUS
100
AcDbLine
 10
11.670826834888
 20
6.075384560918101
 30
0.0
 11
12.72002311968288
 21
7.124580845712984
 31
0.0
  0
LINE
  5
B87D
330
B876
100
AcDbEntity
  8
0
  6
CONTINUOUS
100
AcDbLine
 10
11.87040758566313
 20
5.601446102613043
 30
0.0
 11
12.91960885665599
 21
6.650647373605907
 31
0.0
  0
LINE
  5
B87E
330
B876
100
AcDbEntity
  8
0
  6
CONTINUOUS
100
AcDbLine
 10
12.06998833643825
 20
5.127507644307986
 30
0.0
 11
13.1191945936291
 21
6.176713901498832
 31
0.0
  0
LINE
  5
B87F
330
B876
100
AcDbEntity
  8
0
  6
CONTINUOUS
100
AcDbLine
 10
12.26956908721338
 20
4.65356918600293
 30
0.0
 11
13.31878033060221
 21
5.702780429391757
 31
0.0
  0
LINE
  5
B880
330
B876
100
AcDbEntity
  8
0
  6
CONTINUOUS
100
AcDbLine
 10
12.46914983798851
 20
4.179630727697873
 30
0.0
 11
13.51836606757532
 21
5.228846957284683
 31
0.0
  0
LINE
  5
B881
330
B876
100
AcDbEntity
  8
0
  6
CONTINUOUS
100
AcDbLine
 10
12.66873058876364
 20
3.705692269392816
 30
0.0
 11
13.71795180454843
 21
4.754913485177607
 31
0.0
  0
LINE
  5
B882
330
B876
100
AcDbEntity
  8
0
  6
CONTINUOUS
100
AcDbLine
 10
12.86831133953877
 20
3.231753811087759
 30
0.0
 11
13.91753754152154
 21
4.280980013070531
 31
0.0
  0
LINE
  5
B883
330
B876
100
AcDbEntity
  8
0
  6
CONTINUOUS
100
AcDbLine
 10
13.0678920903139
 20
2.757815352782702
 30
0.0
 11
14.11712327849465
 21
3.807046540963456
 31
0.0
  0
LINE
  5
B884
330
B876
100
AcDbEntity
  8
0
  6
CONTINUOUS
100
AcDbLine
 10
13.26747284108903
 20
2.283876894477644
 30
0.0
 11
14.31670901546777
 21
3.333113068856379
 31
0.0
  0
LINE
  5
B885
330
B876
100
AcDbEntity
  8
0
  6
CONTINUOUS
100
AcDbLine
 10
16.36767838827179
 20
8.751678487061342
 30
0.0
 11
16.50332410898388
 21
8.887324207773432
 31
0.0
  0
LINE
  5
B886
330
B876
100
AcDbEntity
  8
0
  6
CONTINUOUS
100
AcDbLine
 10
15.96190732182191
 20
7.67238821153127
 30
0.0
 11
16.68735328004734
 21
8.397834169756699
 31
0.0
  0
LINE
  5
B887
330
B876
100
AcDbEntity
  8
0
  6
CONTINUOUS
100
AcDbLine
 10
15.55613625537202
 20
6.593097936001196
 30
0.0
 11
16.87138245111079
 21
7.908344131739965
 31
0.0
  0
LINE
  5
B888
330
B876
100
AcDbEntity
  8
0
  6
CONTINUOUS
100
AcDbLine
 10
15.15036518892213
 20
5.513807660471122
 30
0.0
 11
17.05541162217424
 21
7.418854093723231
 31
0.0
  0
LINE
  5
B889
330
B876
100
AcDbEntity
  8
0
  6
CONTINUOUS
100
AcDbLine
 10
14.74459412247225
 20
4.434517384941048
 30
0.0
 11
17.2394407932377
 21
6.929364055706499
 31
0.0
  0
LINE
  5
B88A
330
B876
100
AcDbEntity
  8
0
  6
CONTINUOUS
100
AcDbLine
 10
14.33882305602236
 20
3.355227109410975
 30
0.0
 11
17.42346996430115
 21
6.439874017689766
 31
0.0
  0
LINE
  5
B88B
330
B876
100
AcDbEntity
  8
0
  6
CONTINUOUS
100
AcDbLine
 10
13.46705359186416
 20
1.809938436172586
 30
0.0
 11
16.0819338255367
 21
4.424818669845129
 31
0.0
  0
LINE
  5
B88C
330
B876
100
AcDbEntity
  8
0
  6
CONTINUOUS
100
AcDbLine
 10
16.63283254238972
 20
4.975717386698149
 30
0.0
 11
17.60749913536461
 21
5.950383979673033
 31
0.0
  0
LINE
  5
B88D
330
B876
100
AcDbEntity
  8
0
  6
CONTINUOUS
100
AcDbLine
 10
13.66663434263929
 20
1.335999977867529
 30
0.0
 11
15.67604797733754
 21
3.345413612565779
 31
0.0
  0
LINE
  5
B88E
330
B876
100
AcDbEntity
  8
0
  6
CONTINUOUS
100
AcDbLine
 10
13.86621509341442
 20
0.8620615195624723
 30
0.0
 11
15.27016212913838
 21
2.26600855528643
 31
0.0
  0
LINE
  5
B88F
330
B876
100
AcDbEntity
  8
0
  6
CONTINUOUS
100
AcDbLine
 10
16.81682257348267
 20
4.486188208710908
 30
0.0
 11
17.79152830642806
 21
5.460893941656299
 31
0.0
  0
LINE
  5
B890
330
B876
100
AcDbEntity
  8
0
  6
CONTINUOUS
100
AcDbLine
 10
17.00081260457561
 20
3.996659030723667
 30
0.0
 11
17.97555747749151
 21
4.971403903639565
 31
0.0
  0
LINE
  5
B891
330
B876
100
AcDbEntity
  8
0
  6
CONTINUOUS
100
AcDbLine
 10
20.74362343514722
 20
8.412989070375462
 30
0.0
 11
21.09373436476302
 21
8.763099999991256
 31
0.0
  0
LINE
  5
B892
330
B876
100
AcDbEntity
  8
0
  6
CONTINUOUS
100
AcDbLine
 10
20.25401257174777
 20
7.249858997895826
 30
0.0
 11
21.7672535738432
 21
8.763099999991255
 31
0.0
  0
LINE
  5
B893
330
B876
100
AcDbEntity
  8
0
  6
CONTINUOUS
100
AcDbLine
 10
14.06579584418955
 20
0.3881230612574149
 30
0.0
 11
14.86427628093921
 21
1.186603498007082
 31
0.0
  0
LINE
  5
B894
330
B876
100
AcDbEntity
  8
0
  6
CONTINUOUS
100
AcDbLine
 10
14.26537659496467
 20
-0.0858153970476412
 30
0.0
 11
14.45839043274005
 21
0.1071984407277329
 31
0.0
  0
LINE
  5
B895
330
B876
100
AcDbEntity
  8
0
  6
CONTINUOUS
100
AcDbLine
 10
17.18480263566856
 20
3.507129852736426
 30
0.0
 11
18.15958664855496
 21
4.481913865622833
 31
0.0
  0
LINE
  5
B896
330
B876
100
AcDbEntity
  8
0
  6
CONTINUOUS
100
AcDbLine
 10
17.3687926667615
 20
3.017600674749186
 30
0.0
 11
18.34361581961842
 21
3.9924238276061
 31
0.0
  0
LINE
  5
B897
330
B876
100
AcDbEntity
  8
0
  6
CONTINUOUS
100
AcDbLine
 10
19.76440170834832
 20
6.086728925416191
 30
0.0
 11
22.33924590259489
 21
8.661573119662755
 31
0.0
  0
LINE
  5
B898
330
B876
100
AcDbEntity
  8
0
  6
CONTINUOUS
100
AcDbLine
 10
19.27479084494887
 20
4.923598852936555
 30
0.0
 11
21.84929622842713
 21
7.498104236414807
 31
0.0
  0
LINE
  5
B899
330
B876
100
AcDbEntity
  8
0
  6
CONTINUOUS
100
AcDbLine
 10
17.55278269785445
 20
2.528071496761945
 30
0.0
 11
18.52764499068187
 21
3.502933789589366
 31
0.0
  0
LINE
  5
B89A
330
B876
100
AcDbEntity
  8
0
  6
CONTINUOUS
100
AcDbLine
 10
18.78517998154942
 20
3.760468780456919
 30
0.0
 11
21.35934655425936
 21
6.33463535316686
 31
0.0
  0
LINE
  5
B89B
330
B876
100
AcDbEntity
  8
0
  6
CONTINUOUS
100
AcDbLine
 10
17.73677272894739
 20
2.038542318774704
 30
0.0
 11
20.8693968800916
 21
5.171166469918914
 31
0.0
  0
LINE
  5
B89C
330
B876
100
AcDbEntity
  8
0
  6
CONTINUOUS
100
AcDbLine
 10
17.92076276004034
 20
1.549013140787464
 30
0.0
 11
20.37944720592384
 21
4.007697586670968
 31
0.0
  0
LINE
  5
B89D
330
B876
100
AcDbEntity
  8
0
  6
CONTINUOUS
100
AcDbLine
 10
18.10475279113329
 20
1.059483962800223
 30
0.0
 11
19.88949753175608
 21
2.84422870342302
 31
0.0
  0
LINE
  5
B89E
330
B876
100
AcDbEntity
  8
0
  6
CONTINUOUS
100
AcDbLine
 10
18.28874282222623
 20
0.5699547848129822
 30
0.0
 11
19.39954785758832
 21
1.680759820175074
 31
0.0
  0
LINE
  5
B89F
330
B876
100
AcDbEntity
  8
0
  6
CONTINUOUS
100
AcDbLine
 10
18.47273285331918
 20
0.0804256068257416
 30
0.0
 11
18.90959818342056
 21
0.517290936927127
 31
0.0
  0
LINE
  5
B8A0
330
B876
100
AcDbEntity
  8
0
  6
CONTINUOUS
100
AcDbLine
 10
14.3590401358224
 20
-0.1570118376323384
 30
0.0
 11
14.24903296539946
 21
-0.0470046672093929
 31
0.0
  0
LINE
  5
B8A1
330
B876
100
AcDbEntity
  8
0
  6
CONTINUOUS
100
AcDbLine
 10
14.54309291258661
 20
0.332454594683643
 30
0.0
 11
13.75908329123172
 21
1.116464216038529
 31
0.0
  0
LINE
  5
B8A2
330
B876
100
AcDbEntity
  8
0
  6
CONTINUOUS
100
AcDbLine
 10
14.72714568935081
 20
0.8219210269996244
 30
0.0
 11
13.26913361706399
 21
2.27993309928645
 31
0.0
  0
LINE
  5
B8A3
330
B876
100
AcDbEntity
  8
0
  6
CONTINUOUS
100
AcDbLine
 10
14.91119846611502
 20
1.311387459315606
 30
0.0
 11
12.77918394289625
 21
3.443401982534371
 31
0.0
  0
LINE
  5
B8A4
330
B876
100
AcDbEntity
  8
0
  6
CONTINUOUS
100
AcDbLine
 10
15.09525124287922
 20
1.800853891631587
 30
0.0
 11
12.28923426872852
 21
4.606870865782293
 31
0.0
  0
LINE
  5
B8A5
330
B876
100
AcDbEntity
  8
0
  6
CONTINUOUS
100
AcDbLine
 10
15.27930401964343
 20
2.290320323947569
 30
0.0
 11
11.79928459456078
 21
5.770339749030213
 31
0.0
  0
LINE
  5
B8A6
330
B876
100
AcDbEntity
  8
0
  6
CONTINUOUS
100
AcDbLine
 10
15.46335679640763
 20
2.77978675626355
 30
0.0
 11
14.48885470994921
 21
3.754288842721972
 31
0.0
  0
LINE
  5
B8A7
330
B876
100
AcDbEntity
  8
0
  6
CONTINUOUS
100
AcDbLine
 10
13.88507249233704
 20
4.358071060334137
 30
0.0
 11
11.30933492039305
 21
6.933808632278135
 31
0.0
  0
LINE
  5
B8A8
330
B876
100
AcDbEntity
  8
0
  6
CONTINUOUS
100
AcDbLine
 10
18.75840522805855
 20
0.1582575336928151
 30
0.0
 11
18.25383727664818
 21
0.6628254851031863
 31
0.0
  0
LINE
  5
B8A9
330
B876
100
AcDbEntity
  8
0
  6
CONTINUOUS
100
AcDbLine
 10
15.64740957317184
 20
3.269253188579531
 30
0.0
 11
14.67288388101266
 21
4.243778880738705
 31
0.0
  0
LINE
  5
B8AA
330
B876
100
AcDbEntity
  8
0
  6
CONTINUOUS
100
AcDbLine
 10
13.39509276772158
 20
5.521569994029786
 30
0.0
 11
10.81938524622531
 21
8.097277515526056
 31
0.0
  0
LINE
  5
B8AB
330
B876
100
AcDbEntity
  8
0
  6
CONTINUOUS
100
AcDbLine
 10
18.95798597883369
 20
0.6321959919978686
 30
0.0
 11
17.84825644852853
 21
1.741925522303024
 31
0.0
  0
LINE
  5
B8AC
330
B876
100
AcDbEntity
  8
0
  6
CONTINUOUS
100
AcDbLine
 10
19.15756672960882
 20
1.106134450302922
 30
0.0
 11
17.44267562040888
 21
2.821025559502861
 31
0.0
  0
LINE
  5
B8AD
330
B876
100
AcDbEntity
  8
0
  6
CONTINUOUS
100
AcDbLine
 10
15.83146234993604
 20
3.758719620895513
 30
0.0
 11
14.85691305207612
 21
4.733268918755439
 31
0.0
  0
LINE
  5
B8AE
330
B876
100
AcDbEntity
  8
0
  6
CONTINUOUS
100
AcDbLine
 10
16.01551512670025
 20
4.248186053211494
 30
0.0
 11
15.04094222313957
 21
5.222758956772172
 31
0.0
  0
LINE
  5
B8AF
330
B876
100
AcDbEntity
  8
0
  6
CONTINUOUS
100
AcDbLine
 10
12.90511304310612
 20
6.685068927725435
 30
0.0
 11
10.8270819708403
 21
8.763099999991255
 31
0.0
  0
LINE
  5
B8B0
330
B876
100
AcDbEntity
  8
0
  6
CONTINUOUS
100
AcDbLine
 10
12.41513331849066
 20
7.848567861421083
 30
0.0
 11
11.50060117992049
 21
8.763099999991255
 31
0.0
  0
LINE
  5
B8B1
330
B876
100
AcDbEntity
  8
0
  6
CONTINUOUS
100
AcDbLine
 10
19.35714748038395
 20
1.580072908607975
 30
0.0
 11
17.03709479228923
 21
3.900125596702697
 31
0.0
  0
LINE
  5
B8B2
330
B876
100
AcDbEntity
  8
0
  6
CONTINUOUS
100
AcDbLine
 10
19.55672823115909
 20
2.054011366913028
 30
0.0
 11
16.63151396416958
 21
4.979225633902534
 31
0.0
  0
LINE
  5
B8B3
330
B876
100
AcDbEntity
  8
0
  6
CONTINUOUS
100
AcDbLine
 10
16.19956790346445
 20
4.737652485527476
 30
0.0
 11
15.22497139420302
 21
5.712248994788904
 31
0.0
  0
LINE
  5
B8B4
330
B876
100
AcDbEntity
  8
0
  6
CONTINUOUS
100
AcDbLine
 10
16.38362068022866
 20
5.227118917843457
 30
0.0
 11
15.40900056526648
 21
6.201739032805637
 31
0.0
  0
LINE
  5
B8B5
330
B876
100
AcDbEntity
  8
0
  6
CONTINUOUS
100
AcDbLine
 10
19.75630898193422
 20
2.527949825218081
 30
0.0
 11
18.70774536448286
 21
3.576513442669441
 31
0.0
  0
LINE
  5
B8B6
330
B876
100
AcDbEntity
  8
0
  6
CONTINUOUS
100
AcDbLine
 10
19.95588973270936
 20
3.001888283523134
 30
0.0
 11
18.90726987211446
 21
4.050508144118028
 31
0.0
  0
LINE
  5
B8B7
330
B876
100
AcDbEntity
  8
0
  6
CONTINUOUS
100
AcDbLine
 10
20.15547048348449
 20
3.475826741828186
 30
0.0
 11
19.10679437974606
 21
4.524502845566614
 31
0.0
  0
LINE
  5
B8B8
330
B876
100
AcDbEntity
  8
0
  6
CONTINUOUS
100
AcDbLine
 10
20.35505123425962
 20
3.94976520013324
 30
0.0
 11
19.30631888737766
 21
4.998497547015201
 31
0.0
  0
LINE
  5
B8B9
330
B876
100
AcDbEntity
  8
0
  6
CONTINUOUS
100
AcDbLine
 10
20.55463198503475
 20
4.423703658438292
 30
0.0
 11
19.50584339500926
 21
5.472492248463787
 31
0.0
  0
LINE
  5
B8BA
330
B876
100
AcDbEntity
  8
0
  6
CONTINUOUS
100
AcDbLine
 10
18.37481191085755
 20
3.909446896294752
 30
0.0
 11
15.59302973632993
 21
6.691229070822371
 31
0.0
  0
LINE
  5
B8BB
330
B876
100
AcDbEntity
  8
0
  6
CONTINUOUS
100
AcDbLine
 10
17.96904084440766
 20
4.988737171824825
 30
0.0
 11
15.77705890739338
 21
7.180719108839104
 31
0.0
  0
LINE
  5
B8BC
330
B876
100
AcDbEntity
  8
0
  6
CONTINUOUS
100
AcDbLine
 10
17.56326977795777
 20
6.068027447354899
 30
0.0
 11
15.96108807845684
 21
7.670209146855838
 31
0.0
  0
LINE
  5
B8BD
330
B876
100
AcDbEntity
  8
0
  6
CONTINUOUS
100
AcDbLine
 10
17.15749871150789
 20
7.147317722884972
 30
0.0
 11
16.14511724952029
 21
8.15969918487257
 31
0.0
  0
LINE
  5
B8BE
330
B876
100
AcDbEntity
  8
0
  6
CONTINUOUS
100
AcDbLine
 10
16.751727645058
 20
8.226607998415046
 30
0.0
 11
16.32914642058374
 21
8.649189222889303
 31
0.0
  0
LINE
  5
B8BF
330
B876
100
AcDbEntity
  8
0
  6
CONTINUOUS
100
AcDbLine
 10
20.75421273580989
 20
4.897642116743345
 30
0.0
 11
19.70536790264086
 21
5.946486949912374
 31
0.0
  0
LINE
  5
B8C0
330
B876
100
AcDbEntity
  8
0
  6
CONTINUOUS
100
AcDbLine
 10
20.95379348658502
 20
5.371580575048398
 30
0.0
 11
19.90489241027246
 21
6.42048165136096
 31
0.0
  0
LINE
  5
B8C1
330
B876
100
AcDbEntity
  8
0
  6
CONTINUOUS
100
AcDbLine
 10
21.15337423736015
 20
5.845519033353452
 30
0.0
 11
20.10441691790406
 21
6.894476352809547
 31
0.0
  0
LINE
  5
B8C2
330
B876
100
AcDbEntity
  8
0
  6
CONTINUOUS
100
AcDbLine
 10
21.35295498813529
 20
6.319457491658505
 30
0.0
 11
20.30394142553566
 21
7.368471054258134
 31
0.0
  0
LINE
  5
B8C3
330
B876
100
AcDbEntity
  8
0
  6
CONTINUOUS
100
AcDbLine
 10
21.55253573891042
 20
6.793395949963558
 30
0.0
 11
20.50346593316726
 21
7.842465755706721
 31
0.0
  0
LINE
  5
B8C4
330
B876
100
AcDbEntity
  8
0
  6
CONTINUOUS
100
AcDbLine
 10
21.75211648968556
 20
7.267334408268612
 30
0.0
 11
20.70299044079886
 21
8.316460457155308
 31
0.0
  0
LINE
  5
B8C5
330
B876
100
AcDbEntity
  8
0
  6
CONTINUOUS
100
AcDbLine
 10
21.95169724046069
 20
7.741272866573663
 30
0.0
 11
20.9298701070431
 21
8.763099999991256
 31
0.0
  0
LINE
  5
B8C6
330
B876
100
AcDbEntity
  8
0
  6
CONTINUOUS
100
AcDbLine
 10
22.15127799123582
 20
8.215211324878716
 30
0.0
 11
21.60338931612328
 21
8.763099999991256
 31
0.0
  0
LINE
  5
B8C7
330
B876
100
AcDbEntity
  8
0
  6
CONTINUOUS
100
AcDbLine
 10
22.35085874201096
 20
8.689149783183769
 30
0.0
 11
22.27690852520347
 21
8.763099999991255
 31
0.0
  0
ENDBLK
  5
B9B9
330
B876
100
AcDbEntity
  8
0
100
AcDbBlockEnd
  0
BLOCK
  5
B9BA
330
B8C8
100
AcDbEntity
  8
0
100
AcDbBlockBegin
  2
*X25
 70
     1
 10
0.0
 20
0.0
 30
0.0
  3
*X25
  1

  0
LINE
  5
B8C9
330
B8C8
100
AcDbEntity
  8
0
  6
CONTINUOUS
100
AcDbLine
 10
23.19462913593892
 20
8.169917934846424
 30
0.0
 11
23.70775465517246
 21
8.683043454079957
 31
0.0
  0
LINE
  5
B8CA
330
B8C8
100
AcDbEntity
  8
0
  6
CONTINUOUS
100
AcDbLine
 10
22.64923161835078
 20
6.951001208178088
 30
0.0
 11
23.9159364069932
 21
8.217705996820516
 31
0.0
  0
LINE
  5
B8CB
330
B8C8
100
AcDbEntity
  8
0
  6
CONTINUOUS
100
AcDbLine
 10
22.10383410076263
 20
5.732084481509751
 30
0.0
 11
24.12411815881395
 21
7.752368539561078
 31
0.0
  0
LINE
  5
B8CC
330
B8C8
100
AcDbEntity
  8
0
  6
CONTINUOUS
100
AcDbLine
 10
21.55843658317447
 20
4.513167754841414
 30
0.0
 11
24.3322999106347
 21
7.287031082301639
 31
0.0
  0
LINE
  5
B8CD
330
B8C8
100
AcDbEntity
  8
0
  6
CONTINUOUS
100
AcDbLine
 10
21.01303906558632
 20
3.294251028173077
 30
0.0
 11
24.54048166245544
 21
6.821693625042199
 31
0.0
  0
LINE
  5
B8CE
330
B8C8
100
AcDbEntity
  8
0
  6
CONTINUOUS
100
AcDbLine
 10
20.46764154799817
 20
2.075334301504738
 30
0.0
 11
23.28571549467848
 21
4.89340824818505
 31
0.0
  0
LINE
  5
B8CF
330
B8C8
100
AcDbEntity
  8
0
  6
CONTINUOUS
100
AcDbLine
 10
19.92224403041002
 20
0.8564175748364002
 30
0.0
 11
22.74075865492779
 21
3.674932199354171
 31
0.0
  0
LINE
  5
B8D0
330
B8C8
100
AcDbEntity
  8
0
  6
CONTINUOUS
100
AcDbLine
 10
23.67305085490148
 20
5.280743608408048
 30
0.0
 11
24.74866341427619
 21
6.356356167782759
 31
0.0
  0
LINE
  5
B8D1
330
B8C8
100
AcDbEntity
  8
0
  6
CONTINUOUS
100
AcDbLine
 10
23.88118970842314
 20
4.815363252849522
 30
0.0
 11
24.95684516609694
 21
5.89101871052332
 31
0.0
  0
LINE
  5
B8D2
330
B8C8
100
AcDbEntity
  8
0
  6
CONTINUOUS
100
AcDbLine
 10
19.73925852647308
 20
-0.0000871381807288
 30
0.0
 11
23.4103456646501
 21
3.670999999996297
 31
0.0
  0
LINE
  5
B8D3
330
B8C8
100
AcDbEntity
  8
0
  6
CONTINUOUS
100
AcDbLine
 10
24.0893285619448
 20
4.349982897290997
 30
0.0
 11
25.16502691791769
 21
5.42568125326388
 31
0.0
  0
LINE
  5
B8D4
330
B8C8
100
AcDbEntity
  8
0
  6
CONTINUOUS
100
AcDbLine
 10
20.41282099582748
 20
-0.0000438779065108
 30
0.0
 11
21.64944178675636
 21
1.236576913022366
 31
0.0
  0
LINE
  5
B8D5
330
B8C8
100
AcDbEntity
  8
0
  6
CONTINUOUS
100
AcDbLine
 10
22.78126487373161
 20
2.36839999999762
 30
0.0
 11
24.08386487373029
 21
3.670999999996297
 31
0.0
  0
LINE
  5
B8D6
330
B8C8
100
AcDbEntity
  8
0
  6
CONTINUOUS
100
AcDbLine
 10
24.29746741546646
 20
3.884602541732471
 30
0.0
 11
25.37320866973843
 21
4.960343796004441
 31
0.0
  0
LINE
  5
B8D7
330
B8C8
100
AcDbEntity
  8
0
  6
CONTINUOUS
100
AcDbLine
 10
21.08638346518189
 20
-0.0000006176322938
 30
0.0
 11
21.10379033335899
 21
0.0174062505448083
 31
0.0
  0
LINE
  5
B8D8
330
B8C8
100
AcDbEntity
  8
0
  6
CONTINUOUS
100
AcDbLine
 10
23.4547840828118
 20
2.36839999999762
 30
0.0
 11
25.58139042155918
 21
4.495006338745002
 31
0.0
  0
LINE
  5
B8D9
330
B8C8
100
AcDbEntity
  8
0
  6
CONTINUOUS
100
AcDbLine
 10
29.30199999996933
 20
8.215615917155148
 30
0.0
 11
29.84948408280543
 21
8.763099999991255
 31
0.0
  0
LINE
  5
B8DA
330
B8C8
100
AcDbEntity
  8
0
  6
CONTINUOUS
100
AcDbLine
 10
24.12830329189199
 20
2.36839999999762
 30
0.0
 11
25.78957217337993
 21
4.029668881485562
 31
0.0
  0
LINE
  5
B8DB
330
B8C8
100
AcDbEntity
  8
0
  6
CONTINUOUS
100
AcDbLine
 10
29.30199999996933
 20
7.54209670807496
 30
0.0
 11
30.52300329188562
 21
8.763099999991255
 31
0.0
  0
LINE
  5
B8DC
330
B8C8
100
AcDbEntity
  8
0
  6
CONTINUOUS
100
AcDbLine
 10
24.80182250097217
 20
2.36839999999762
 30
0.0
 11
25.99775392520067
 21
3.564331424226122
 31
0.0
  0
LINE
  5
B8DD
330
B8C8
100
AcDbEntity
  8
0
  6
CONTINUOUS
100
AcDbLine
 10
29.30199999996933
 20
6.868577498994774
 30
0.0
 11
30.74199999996926
 21
8.308577498994712
 31
0.0
  0
LINE
  5
B8DE
330
B8C8
100
AcDbEntity
  8
0
  6
CONTINUOUS
100
AcDbLine
 10
25.13028238392013
 20
2.023340673865392
 30
0.0
 11
26.20593567702142
 21
3.098993966966683
 31
0.0
  0
LINE
  5
B8DF
330
B8C8
100
AcDbEntity
  8
0
  6
CONTINUOUS
100
AcDbLine
 10
25.33838066033617
 20
1.557919741201244
 30
0.0
 11
26.41411742884217
 21
2.633656509707244
 31
0.0
  0
LINE
  5
B8E0
330
B8C8
100
AcDbEntity
  8
0
  6
CONTINUOUS
100
AcDbLine
 10
25.54647893675221
 20
1.092498808537098
 30
0.0
 11
26.62229918066291
 21
2.168319052447804
 31
0.0
  0
LINE
  5
B8E1
330
B8C8
100
AcDbEntity
  8
0
  6
CONTINUOUS
100
AcDbLine
 10
25.75457721316825
 20
0.62707787587295
 30
0.0
 11
26.83048093248366
 21
1.702981595188365
 31
0.0
  0
LINE
  5
B8E2
330
B8C8
100
AcDbEntity
  8
0
  6
CONTINUOUS
100
AcDbLine
 10
29.30199999996933
 20
6.195058289914587
 30
0.0
 11
30.74199999996926
 21
7.635058289914522
 31
0.0
  0
LINE
  5
B8E3
330
B8C8
100
AcDbEntity
  8
0
  6
CONTINUOUS
100
AcDbLine
 10
29.30199999996933
 20
5.521539080834401
 30
0.0
 11
30.74199999996926
 21
6.961539080834331
 31
0.0
  0
LINE
  5
B8E4
330
B8C8
100
AcDbEntity
  8
0
  6
CONTINUOUS
100
AcDbLine
 10
29.30199999996933
 20
4.848019871754214
 30
0.0
 11
30.74199999996925
 21
6.288019871754143
 31
0.0
  0
LINE
  5
B8E5
330
B8C8
100
AcDbEntity
  8
0
  6
CONTINUOUS
100
AcDbLine
 10
29.30199999996933
 20
4.174500662674028
 30
0.0
 11
30.74199999996925
 21
5.614500662673953
 31
0.0
  0
LINE
  5
B8E6
330
B8C8
100
AcDbEntity
  8
0
  6
CONTINUOUS
100
AcDbLine
 10
25.96267548958429
 20
0.1616569432088024
 30
0.0
 11
27.18411854636669
 21
1.383099999991207
 31
0.0
  0
LINE
  5
B8E7
330
B8C8
100
AcDbEntity
  8
0
  6
CONTINUOUS
100
AcDbLine
 10
29.30199999996933
 20
3.500981453593841
 30
0.0
 11
30.74199999996925
 21
4.940981453593762
 31
0.0
  0
LINE
  5
B8E8
330
B8C8
100
AcDbEntity
  8
0
  6
CONTINUOUS
100
AcDbLine
 10
26.50763775544691
 20
0.0330999999912356
 30
0.0
 11
27.85763775544689
 21
1.383099999991223
 31
0.0
  0
LINE
  5
B8E9
330
B8C8
100
AcDbEntity
  8
0
  6
CONTINUOUS
100
AcDbLine
 10
29.30199999996933
 20
2.827462244513656
 30
0.0
 11
30.74199999996925
 21
4.267462244513574
 31
0.0
  0
LINE
  5
B8EA
330
B8C8
100
AcDbEntity
  8
0
  6
CONTINUOUS
100
AcDbLine
 10
27.18115696452709
 20
0.0330999999912356
 30
0.0
 11
28.55073879889363
 21
1.402681834357775
 31
0.0
  0
LINE
  5
B8EB
330
B8C8
100
AcDbEntity
  8
0
  6
CONTINUOUS
100
AcDbLine
 10
29.28241816560272
 20
2.134361201066866
 30
0.0
 11
30.74199999996924
 21
3.593943035433383
 31
0.0
  0
LINE
  5
B8EC
330
B8C8
100
AcDbEntity
  8
0
  6
CONTINUOUS
100
AcDbLine
 10
27.85467617360728
 20
0.0330999999912356
 30
0.0
 11
30.74199999996924
 21
2.920423826353195
 31
0.0
  0
LINE
  5
B8ED
330
B8C8
100
AcDbEntity
  8
0
  6
CONTINUOUS
100
AcDbLine
 10
28.53897559587887
 20
0.0438802131826428
 30
0.0
 11
30.73121978677781
 21
2.236124404081585
 31
0.0
  0
LINE
  5
B8EE
330
B8C8
100
AcDbEntity
  8
0
  6
CONTINUOUS
100
AcDbLine
 10
29.45140055588722
 20
0.2827859641107988
 30
0.0
 11
30.49231403584965
 21
1.323699444073236
 31
0.0
  0
LINE
  5
B8EF
330
B8C8
100
AcDbEntity
  8
0
  6
CONTINUOUS
100
AcDbLine
 10
19.59027867740337
 20
-0.0000967065718083
 30
0.0
 11
19.55485265190471
 21
0.035329318926844
 31
0.0
  0
LINE
  5
B8F0
330
B8C8
100
AcDbEntity
  8
0
  6
CONTINUOUS
100
AcDbLine
 10
20.26375463176586
 20
-0.0000534518541091
 30
0.0
 11
19.76305575737534
 21
0.5006454225364014
 31
0.0
  0
LINE
  5
B8F1
330
B8C8
100
AcDbEntity
  8
0
  6
CONTINUOUS
100
AcDbLine
 10
20.93723058612834
 20
-0.0000101971364099
 30
0.0
 11
19.97125886284597
 21
0.965961526145958
 31
0.0
  0
LINE
  5
B8F2
330
B8C8
100
AcDbEntity
  8
0
  6
CONTINUOUS
100
AcDbLine
 10
21.25514828313686
 20
0.355591314935257
 30
0.0
 11
20.1794619683166
 21
1.431277629755512
 31
0.0
  0
LINE
  5
B8F3
330
B8C8
100
AcDbEntity
  8
0
  6
CONTINUOUS
100
AcDbLine
 10
21.46338838394921
 20
0.8208704232030986
 30
0.0
 11
20.38766507378723
 21
1.896593733365069
 31
0.0
  0
LINE
  5
B8F4
330
B8C8
100
AcDbEntity
  8
0
  6
CONTINUOUS
100
AcDbLine
 10
21.67162848476155
 20
1.28614953147094
 30
0.0
 11
20.59586817925786
 21
2.361909836974626
 31
0.0
  0
LINE
  5
B8F5
330
B8C8
100
AcDbEntity
  8
0
  6
CONTINUOUS
100
AcDbLine
 10
21.8798685855739
 20
1.751428639738782
 30
0.0
 11
20.80407128472849
 21
2.827225940584183
 31
0.0
  0
LINE
  5
B8F6
330
B8C8
100
AcDbEntity
  8
0
  6
CONTINUOUS
100
AcDbLine
 10
22.08810868638624
 20
2.216707748006623
 30
0.0
 11
21.01227439019912
 21
3.292542044193739
 31
0.0
  0
LINE
  5
B8F7
330
B8C8
100
AcDbEntity
  8
0
  6
CONTINUOUS
100
AcDbLine
 10
22.60993564347543
 20
2.36839999999762
 30
0.0
 11
21.22047749566975
 21
3.757858147803296
 31
0.0
  0
LINE
  5
B8F8
330
B8C8
100
AcDbEntity
  8
0
  6
CONTINUOUS
100
AcDbLine
 10
23.28345485255561
 20
2.36839999999762
 30
0.0
 11
21.42868060114038
 21
4.223174251412853
 31
0.0
  0
LINE
  5
B8F9
330
B8C8
100
AcDbEntity
  8
0
  6
CONTINUOUS
100
AcDbLine
 10
26.29227406164219
 20
0.0330999999912356
 30
0.0
 11
25.80009199592872
 21
0.5252820657046957
 31
0.0
  0
LINE
  5
B8FA
330
B8C8
100
AcDbEntity
  8
0
  6
CONTINUOUS
100
AcDbLine
 10
23.9569740616358
 20
2.36839999999762
 30
0.0
 11
21.63688370661101
 21
4.688490355022409
 31
0.0
  0
LINE
  5
B8FB
330
B8C8
100
AcDbEntity
  8
0
  6
CONTINUOUS
100
AcDbLine
 10
26.96579327072237
 20
0.0330999999912356
 30
0.0
 11
25.2554132311971
 21
1.743480039516508
 31
0.0
  0
LINE
  5
B8FC
330
B8C8
100
AcDbEntity
  8
0
  6
CONTINUOUS
100
AcDbLine
 10
24.63049327071599
 20
2.36839999999762
 30
0.0
 11
23.32789327071731
 21
3.670999999996297
 31
0.0
  0
LINE
  5
B8FD
330
B8C8
100
AcDbEntity
  8
0
  6
CONTINUOUS
100
AcDbLine
 10
22.92098674744635
 20
4.077906523267254
 30
0.0
 11
21.84508681208164
 21
5.153806458631966
 31
0.0
  0
LINE
  5
B8FE
330
B8C8
100
AcDbEntity
  8
0
  6
CONTINUOUS
100
AcDbLine
 10
27.63931247980256
 20
0.0330999999912356
 30
0.0
 11
24.0014124797975
 21
3.670999999996297
 31
0.0
  0
LINE
  5
B8FF
330
B8C8
100
AcDbEntity
  8
0
  6
CONTINUOUS
100
AcDbLine
 10
23.129125600968
 20
4.5432868788258
 30
0.0
 11
22.05328991755227
 21
5.619122562241522
 31
0.0
  0
LINE
  5
B900
330
B8C8
100
AcDbEntity
  8
0
  6
CONTINUOUS
100
AcDbLine
 10
28.31283168888275
 20
0.0330999999912356
 30
0.0
 11
24.16488385994816
 21
4.181047828925828
 31
0.0
  0
LINE
  5
B901
330
B8C8
100
AcDbEntity
  8
0
  6
CONTINUOUS
100
AcDbLine
 10
23.33726445448964
 20
5.008667234384345
 30
0.0
 11
22.2614930230229
 21
6.084438665851079
 31
0.0
  0
LINE
  5
B902
330
B8C8
100
AcDbEntity
  8
0
  6
CONTINUOUS
100
AcDbLine
 10
28.92085740005492
 20
0.0985934978992438
 30
0.0
 11
27.63635089796295
 21
1.383099999991217
 31
0.0
  0
LINE
  5
B903
330
B8C8
100
AcDbEntity
  8
0
  6
CONTINUOUS
100
AcDbLine
 10
26.43704649509776
 20
2.582404402856405
 30
0.0
 11
23.61992702019732
 21
5.399523877756844
 31
0.0
  0
LINE
  5
B904
330
B8C8
100
AcDbEntity
  8
0
  6
CONTINUOUS
100
AcDbLine
 10
23.54540330801128
 20
5.47404758994289
 30
0.0
 11
22.46969612849353
 21
6.549754769460635
 31
0.0
  0
LINE
  5
B905
330
B8C8
100
AcDbEntity
  8
0
  6
CONTINUOUS
100
AcDbLine
 10
29.42225615078443
 20
0.2707139562499279
 30
0.0
 11
28.30987010704312
 21
1.383099999991234
 31
0.0
  0
LINE
  5
B906
330
B8C8
100
AcDbEntity
  8
0
  6
CONTINUOUS
100
AcDbLine
 10
25.89179548232307
 20
3.801174624711282
 30
0.0
 11
22.67789923396416
 21
7.015070873070191
 31
0.0
  0
LINE
  5
B907
330
B8C8
100
AcDbEntity
  8
0
  6
CONTINUOUS
100
AcDbLine
 10
29.83624534690007
 20
0.5302439692144705
 30
0.0
 11
28.85811781497101
 21
1.508371501143527
 31
0.0
  0
LINE
  5
B908
330
B8C8
100
AcDbEntity
  8
0
  6
CONTINUOUS
100
AcDbLine
 10
25.34654446954838
 20
5.01994484656616
 30
0.0
 11
22.88610233943479
 21
7.480386976679748
 31
0.0
  0
LINE
  5
B909
330
B8C8
100
AcDbEntity
  8
0
  6
CONTINUOUS
100
AcDbLine
 10
30.17865975401872
 20
0.8613487711760022
 30
0.0
 11
29.18888744090175
 21
1.851121084292977
 31
0.0
  0
LINE
  5
B90A
330
B8C8
100
AcDbEntity
  8
0
  6
CONTINUOUS
100
AcDbLine
 10
24.80129345677369
 20
6.238715068421037
 30
0.0
 11
23.09430544490542
 21
7.945703080289305
 31
0.0
  0
LINE
  5
B90B
330
B8C8
100
AcDbEntity
  8
0
  6
CONTINUOUS
100
AcDbLine
 10
30.45496647202376
 20
1.258561262251155
 30
0.0
 11
29.30199999996933
 21
2.411527734305588
 31
0.0
  0
LINE
  5
B90C
330
B8C8
100
AcDbEntity
  8
0
  6
CONTINUOUS
100
AcDbLine
 10
24.256042443999
 20
7.457485290275915
 30
0.0
 11
23.30250855037605
 21
8.411019183898862
 31
0.0
  0
LINE
  5
B90D
330
B8C8
100
AcDbEntity
  8
0
  6
CONTINUOUS
100
AcDbLine
 10
30.64868582078271
 20
1.738361122572387
 30
0.0
 11
29.30199999996933
 21
3.085046943385775
 31
0.0
  0
LINE
  5
B90E
330
B8C8
100
AcDbEntity
  8
0
  6
CONTINUOUS
100
AcDbLine
 10
23.71079143122431
 20
8.676255512130794
 30
0.0
 11
23.51071165584668
 21
8.876335287508416
 31
0.0
  0
LINE
  5
B90F
330
B8C8
100
AcDbEntity
  8
0
  6
CONTINUOUS
100
AcDbLine
 10
30.73802122914428
 20
2.322544923291007
 30
0.0
 11
29.30199999996933
 21
3.758566152465961
 31
0.0
  0
LINE
  5
B910
330
B8C8
100
AcDbEntity
  8
0
  6
CONTINUOUS
100
AcDbLine
 10
30.74199999996924
 20
2.992085361546236
 30
0.0
 11
29.30199999996933
 21
4.432085361546148
 31
0.0
  0
LINE
  5
B911
330
B8C8
100
AcDbEntity
  8
0
  6
CONTINUOUS
100
AcDbLine
 10
30.74199999996924
 20
3.665604570626419
 30
0.0
 11
29.30199999996933
 21
5.105604570626333
 31
0.0
  0
LINE
  5
B912
330
B8C8
100
AcDbEntity
  8
0
  6
CONTINUOUS
100
AcDbLine
 10
30.74199999996925
 20
4.339123779706602
 30
0.0
 11
29.30199999996933
 21
5.77912377970652
 31
0.0
  0
LINE
  5
B913
330
B8C8
100
AcDbEntity
  8
0
  6
CONTINUOUS
100
AcDbLine
 10
30.74199999996925
 20
5.012642988786785
 30
0.0
 11
29.30199999996933
 21
6.452642988786707
 31
0.0
  0
LINE
  5
B914
330
B8C8
100
AcDbEntity
  8
0
  6
CONTINUOUS
100
AcDbLine
 10
30.74199999996925
 20
5.68616219786697
 30
0.0
 11
29.30199999996933
 21
7.126162197866894
 31
0.0
  0
LINE
  5
B915
330
B8C8
100
AcDbEntity
  8
0
  6
CONTINUOUS
100
AcDbLine
 10
30.74199999996925
 20
6.359681406947153
 30
0.0
 11
29.30199999996933
 21
7.799681406947081
 31
0.0
  0
LINE
  5
B916
330
B8C8
100
AcDbEntity
  8
0
  6
CONTINUOUS
100
AcDbLine
 10
30.74199999996926
 20
7.033200616027337
 30
0.0
 11
29.30199999996933
 21
8.473200616027269
 31
0.0
  0
LINE
  5
B917
330
B8C8
100
AcDbEntity
  8
0
  6
CONTINUOUS
100
AcDbLine
 10
30.74199999996926
 20
7.706719825107518
 30
0.0
 11
29.68561982508552
 21
8.763099999991255
 31
0.0
  0
LINE
  5
B918
330
B8C8
100
AcDbEntity
  8
0
  6
CONTINUOUS
100
AcDbLine
 10
30.74199999996926
 20
8.380239034187703
 30
0.0
 11
30.35913903416571
 21
8.763099999991255
 31
0.0
  0
ENDBLK
  5
B9BB
330
B8C8
100
AcDbEntity
  8
0
100
AcDbBlockEnd
  0
BLOCK
  5
B9BC
330
B919
100
AcDbEntity
  8
0
100
AcDbBlockBegin
  2
*X26
 70
     1
 10
0.0
 20
0.0
 30
0.0
  3
*X26
  1

  0
LINE
  5
B91A
330
B919
100
AcDbEntity
  8
0
  6
CONTINUOUS
100
AcDbLine
 10
31.64199999996833
 20
8.535058289913598
 30
0.0
 11
31.87004171004599
 21
8.763099999991255
 31
0.0
  0
LINE
  5
B91B
330
B919
100
AcDbEntity
  8
0
  6
CONTINUOUS
100
AcDbLine
 10
31.64199999996833
 20
7.861539080833412
 30
0.0
 11
32.54356091912618
 21
8.763099999991255
 31
0.0
  0
LINE
  5
B91C
330
B919
100
AcDbEntity
  8
0
  6
CONTINUOUS
100
AcDbLine
 10
31.64199999996833
 20
7.188019871753226
 30
0.0
 11
33.08199999996839
 21
8.628019871753281
 31
0.0
  0
LINE
  5
B91D
330
B919
100
AcDbEntity
  8
0
  6
CONTINUOUS
100
AcDbLine
 10
31.64199999996833
 20
6.51450066267304
 30
0.0
 11
33.08199999996839
 21
7.954500662673095
 31
0.0
  0
LINE
  5
B91E
330
B919
100
AcDbEntity
  8
0
  6
CONTINUOUS
100
AcDbLine
 10
31.64199999996833
 20
5.840981453592853
 30
0.0
 11
33.08199999996839
 21
7.280981453592908
 31
0.0
  0
LINE
  5
B91F
330
B919
100
AcDbEntity
  8
0
  6
CONTINUOUS
100
AcDbLine
 10
31.64199999996833
 20
5.167462244512667
 30
0.0
 11
33.08199999996839
 21
6.607462244512721
 31
0.0
  0
LINE
  5
B920
330
B919
100
AcDbEntity
  8
0
  6
CONTINUOUS
100
AcDbLine
 10
31.64199999996833
 20
4.493943035432481
 30
0.0
 11
33.08199999996839
 21
5.933943035432535
 31
0.0
  0
LINE
  5
B921
330
B919
100
AcDbEntity
  8
0
  6
CONTINUOUS
100
AcDbLine
 10
31.64199999996833
 20
3.820423826352293
 30
0.0
 11
33.08199999996839
 21
5.260423826352348
 31
0.0
  0
LINE
  5
B922
330
B919
100
AcDbEntity
  8
0
  6
CONTINUOUS
100
AcDbLine
 10
31.64199999996833
 20
3.146904617272106
 30
0.0
 11
33.08199999996839
 21
4.586904617272161
 31
0.0
  0
LINE
  5
B923
330
B919
100
AcDbEntity
  8
0
  6
CONTINUOUS
100
AcDbLine
 10
36.23199999996837
 20
8.410423826352325
 30
0.0
 11
36.5846761736073
 21
8.763099999991255
 31
0.0
  0
LINE
  5
B924
330
B919
100
AcDbEntity
  8
0
  6
CONTINUOUS
100
AcDbLine
 10
36.23199999996837
 20
7.73690461727214
 30
0.0
 11
37.25819538268748
 21
8.763099999991255
 31
0.0
  0
LINE
  5
B925
330
B919
100
AcDbEntity
  8
0
  6
CONTINUOUS
100
AcDbLine
 10
31.64257403601376
 20
2.473959444237348
 30
0.0
 11
33.08199999996839
 21
3.913385408191974
 31
0.0
  0
LINE
  5
B926
330
B919
100
AcDbEntity
  8
0
  6
CONTINUOUS
100
AcDbLine
 10
36.23199999996837
 20
7.063385408191953
 30
0.0
 11
37.67199999996831
 21
8.503385408191894
 31
0.0
  0
LINE
  5
B927
330
B919
100
AcDbEntity
  8
0
  6
CONTINUOUS
100
AcDbLine
 10
31.72013636841932
 20
1.87800256756272
 30
0.0
 11
33.08199999996839
 21
3.239866199111788
 31
0.0
  0
LINE
  5
B928
330
B919
100
AcDbEntity
  8
0
  6
CONTINUOUS
100
AcDbLine
 10
36.23199999996837
 20
6.389866199111767
 30
0.0
 11
37.67199999996831
 21
7.829866199111708
 31
0.0
  0
LINE
  5
B929
330
B919
100
AcDbEntity
  8
0
  6
CONTINUOUS
100
AcDbLine
 10
31.89042734314753
 20
1.374774333210744
 30
0.0
 11
33.08199999996839
 21
2.566346990031601
 31
0.0
  0
LINE
  5
B92A
330
B919
100
AcDbEntity
  8
0
  6
CONTINUOUS
100
AcDbLine
 10
36.23199999996837
 20
5.71634699003158
 30
0.0
 11
37.67199999996831
 21
7.156346990031521
 31
0.0
  0
LINE
  5
B92B
330
B919
100
AcDbEntity
  8
0
  6
CONTINUOUS
100
AcDbLine
 10
32.14210568064475
 20
0.952933461627778
 30
0.0
 11
33.18745552475986
 21
1.998283305742888
 31
0.0
  0
LINE
  5
B92C
330
B919
100
AcDbEntity
  8
0
  6
CONTINUOUS
100
AcDbLine
 10
36.23199999996837
 20
5.042827780951393
 30
0.0
 11
37.67199999996831
 21
6.482827780951334
 31
0.0
  0
LINE
  5
B92D
330
B919
100
AcDbEntity
  8
0
  6
CONTINUOUS
100
AcDbLine
 10
32.45820639400955
 20
0.5955149659123915
 30
0.0
 11
33.47242681921943
 21
1.60973539112227
 31
0.0
  0
LINE
  5
B92E
330
B919
100
AcDbEntity
  8
0
  6
CONTINUOUS
100
AcDbLine
 10
36.23199999996837
 20
4.369308571871207
 30
0.0
 11
37.67199999996831
 21
5.809308571871147
 31
0.0
  0
LINE
  5
B92F
330
B919
100
AcDbEntity
  8
0
  6
CONTINUOUS
100
AcDbLine
 10
32.83432456621412
 20
0.2981139290367771
 30
0.0
 11
33.89722476612215
 21
1.361014128944803
 31
0.0
  0
LINE
  5
B930
330
B919
100
AcDbEntity
  8
0
  6
CONTINUOUS
100
AcDbLine
 10
36.23199999996837
 20
3.69578936279102
 30
0.0
 11
37.67199999996831
 21
5.135789362790962
 31
0.0
  0
LINE
  5
B931
330
B919
100
AcDbEntity
  8
0
  6
CONTINUOUS
100
AcDbLine
 10
33.2711633111245
 20
0.0614334648669672
 30
0.0
 11
34.43247338014423
 21
1.222743533886696
 31
0.0
  0
LINE
  5
B932
330
B919
100
AcDbEntity
  8
0
  6
CONTINUOUS
100
AcDbLine
 10
36.23199999996837
 20
3.022270153710834
 30
0.0
 11
37.67199999996831
 21
4.462270153710775
 31
0.0
  0
LINE
  5
B933
330
B919
100
AcDbEntity
  8
0
  6
CONTINUOUS
100
AcDbLine
 10
33.76515245874577
 20
-0.1180965965919523
 30
0.0
 11
35.1587445516215
 21
1.27549549628378
 31
0.0
  0
LINE
  5
B934
330
B919
100
AcDbEntity
  8
0
  6
CONTINUOUS
100
AcDbLine
 10
36.21639478609585
 20
2.333145730758136
 30
0.0
 11
37.67199999996831
 21
3.788750944630588
 31
0.0
  0
LINE
  5
B935
330
B919
100
AcDbEntity
  8
0
  6
CONTINUOUS
100
AcDbLine
 10
34.34060583368432
 20
-0.2161624307335863
 30
0.0
 11
37.67199999996831
 21
3.115231735550401
 31
0.0
  0
LINE
  5
B936
330
B919
100
AcDbEntity
  8
0
  6
CONTINUOUS
100
AcDbLine
 10
35.01698193613905
 20
-0.2133055373590427
 30
0.0
 11
37.66876712070525
 21
2.438479647207154
 31
0.0
  0
LINE
  5
B937
330
B919
100
AcDbEntity
  8
0
  6
CONTINUOUS
100
AcDbLine
 10
35.90743367693304
 20
0.0036269943547609
 30
0.0
 11
37.51723902192366
 21
1.613432339345381
 31
0.0
  0
LINE
  5
B938
330
B919
100
AcDbEntity
  8
0
  6
CONTINUOUS
100
AcDbLine
 10
32.55309425579761
 20
0.5074718966376706
 30
0.0
 11
32.27784730925847
 21
0.7827188431768102
 31
0.0
  0
LINE
  5
B939
330
B919
100
AcDbEntity
  8
0
  6
CONTINUOUS
100
AcDbLine
 10
33.87496468909684
 20
-0.1408793275813673
 30
0.0
 11
31.67993083278052
 21
2.054154528734943
 31
0.0
  0
LINE
  5
B93A
330
B919
100
AcDbEntity
  8
0
  6
CONTINUOUS
100
AcDbLine
 10
34.64362813207632
 20
-0.2360235614806649
 30
0.0
 11
31.64199999996833
 21
2.765604570627322
 31
0.0
  0
LINE
  5
B93B
330
B919
100
AcDbEntity
  8
0
  6
CONTINUOUS
100
AcDbLine
 10
35.25801106796118
 20
-0.1768872882853429
 30
0.0
 11
31.64199999996833
 21
3.439123779707508
 31
0.0
  0
LINE
  5
B93C
330
B919
100
AcDbEntity
  8
0
  6
CONTINUOUS
100
AcDbLine
 10
35.79065650332146
 20
-0.0360135145654361
 30
0.0
 11
34.54143210838231
 21
1.213210880373721
 31
0.0
  0
LINE
  5
B93D
330
B919
100
AcDbEntity
  8
0
  6
CONTINUOUS
100
AcDbLine
 10
33.08199999996839
 20
2.67264298878764
 30
0.0
 11
31.64199999996833
 21
4.112642988787695
 31
0.0
  0
LINE
  5
B93E
330
B919
100
AcDbEntity
  8
0
  6
CONTINUOUS
100
AcDbLine
 10
36.25975597779143
 20
0.1684062200447833
 30
0.0
 11
35.15395110240023
 21
1.274211095435983
 31
0.0
  0
LINE
  5
B93F
330
B919
100
AcDbEntity
  8
0
  6
CONTINUOUS
100
AcDbLine
 10
33.08199999996839
 20
3.346162197867826
 30
0.0
 11
31.64199999996833
 21
4.786162197867881
 31
0.0
  0
LINE
  5
B940
330
B919
100
AcDbEntity
  8
0
  6
CONTINUOUS
100
AcDbLine
 10
36.67226329638774
 20
0.4294181105286579
 30
0.0
 11
35.63766478748767
 21
1.464016619428737
 31
0.0
  0
LINE
  5
B941
330
B919
100
AcDbEntity
  8
0
  6
CONTINUOUS
100
AcDbLine
 10
33.08199999996839
 20
4.019681406948012
 30
0.0
 11
31.64199999996833
 21
5.459681406948068
 31
0.0
  0
LINE
  5
B942
330
B919
100
AcDbEntity
  8
0
  6
CONTINUOUS
100
AcDbLine
 10
37.01677749710036
 20
0.7584231188962329
 30
0.0
 11
35.99563422741351
 21
1.779566388583076
 31
0.0
  0
LINE
  5
B943
330
B919
100
AcDbEntity
  8
0
  6
CONTINUOUS
100
AcDbLine
 10
33.08199999996839
 20
4.693200616028199
 30
0.0
 11
31.64199999996833
 21
6.133200616028255
 31
0.0
  0
LINE
  5
B944
330
B919
100
AcDbEntity
  8
0
  6
CONTINUOUS
100
AcDbLine
 10
37.29859977568887
 20
1.1501200493879
 30
0.0
 11
36.20680593341555
 21
2.241913891661226
 31
0.0
  0
LINE
  5
B945
330
B919
100
AcDbEntity
  8
0
  6
CONTINUOUS
100
AcDbLine
 10
33.08199999996839
 20
5.366719825108386
 30
0.0
 11
31.64199999996833
 21
6.80671982510844
 31
0.0
  0
LINE
  5
B946
330
B919
100
AcDbEntity
  8
0
  6
CONTINUOUS
100
AcDbLine
 10
37.5148623517228
 20
1.607376682434161
 30
0.0
 11
36.23199999996837
 21
2.890239034188594
 31
0.0
  0
LINE
  5
B947
330
B919
100
AcDbEntity
  8
0
  6
CONTINUOUS
100
AcDbLine
 10
33.08199999996839
 20
6.040239034188573
 30
0.0
 11
31.64199999996833
 21
7.480239034188627
 31
0.0
  0
LINE
  5
B948
330
B919
100
AcDbEntity
  8
0
  6
CONTINUOUS
100
AcDbLine
 10
37.64705163358367
 20
2.148706609653477
 30
0.0
 11
36.23199999996837
 21
3.56375824326878
 31
0.0
  0
LINE
  5
B949
330
B919
100
AcDbEntity
  8
0
  6
CONTINUOUS
100
AcDbLine
 10
33.08199999996839
 20
6.713758243268758
 30
0.0
 11
31.64199999996833
 21
8.153758243268815
 31
0.0
  0
LINE
  5
B94A
330
B919
100
AcDbEntity
  8
0
  6
CONTINUOUS
100
AcDbLine
 10
37.67199999996831
 20
2.797277452349026
 30
0.0
 11
36.23199999996837
 21
4.237277452348967
 31
0.0
  0
LINE
  5
B94B
330
B919
100
AcDbEntity
  8
0
  6
CONTINUOUS
100
AcDbLine
 10
37.67199999996831
 20
3.470796661429213
 30
0.0
 11
36.23199999996837
 21
4.910796661429154
 31
0.0
  0
LINE
  5
B94C
330
B919
100
AcDbEntity
  8
0
  6
CONTINUOUS
100
AcDbLine
 10
37.67199999996831
 20
4.144315870509399
 30
0.0
 11
36.23199999996837
 21
5.58431587050934
 31
0.0
  0
LINE
  5
B94D
330
B919
100
AcDbEntity
  8
0
  6
CONTINUOUS
100
AcDbLine
 10
33.08199999996839
 20
7.387277452348945
 30
0.0
 11
31.70617745232608
 21
8.763099999991255
 31
0.0
  0
LINE
  5
B94E
330
B919
100
AcDbEntity
  8
0
  6
CONTINUOUS
100
AcDbLine
 10
33.08199999996839
 20
8.060796661429132
 30
0.0
 11
32.37969666140626
 21
8.763099999991255
 31
0.0
  0
LINE
  5
B94F
330
B919
100
AcDbEntity
  8
0
  6
CONTINUOUS
100
AcDbLine
 10
33.08199999996839
 20
8.734315870509318
 30
0.0
 11
33.05321587048645
 21
8.763099999991255
 31
0.0
  0
LINE
  5
B950
330
B919
100
AcDbEntity
  8
0
  6
CONTINUOUS
100
AcDbLine
 10
37.67199999996831
 20
4.817835079589585
 30
0.0
 11
36.23199999996837
 21
6.257835079589526
 31
0.0
  0
LINE
  5
B951
330
B919
100
AcDbEntity
  8
0
  6
CONTINUOUS
100
AcDbLine
 10
37.67199999996831
 20
5.491354288669771
 30
0.0
 11
36.23199999996837
 21
6.931354288669713
 31
0.0
  0
LINE
  5
B952
330
B919
100
AcDbEntity
  8
0
  6
CONTINUOUS
100
AcDbLine
 10
37.67199999996831
 20
6.164873497749958
 30
0.0
 11
36.23199999996837
 21
7.6048734977499
 31
0.0
  0
LINE
  5
B953
330
B919
100
AcDbEntity
  8
0
  6
CONTINUOUS
100
AcDbLine
 10
37.67199999996831
 20
6.838392706830144
 30
0.0
 11
36.23199999996837
 21
8.278392706830086
 31
0.0
  0
LINE
  5
B954
330
B919
100
AcDbEntity
  8
0
  6
CONTINUOUS
100
AcDbLine
 10
37.67199999996831
 20
7.511911915910332
 30
0.0
 11
36.42081191588738
 21
8.763099999991255
 31
0.0
  0
LINE
  5
B955
330
B919
100
AcDbEntity
  8
0
  6
CONTINUOUS
100
AcDbLine
 10
37.67199999996831
 20
8.185431124990519
 30
0.0
 11
37.09433112496757
 21
8.763099999991255
 31
0.0
  0
ENDBLK
  5
B9BD
330
B919
100
AcDbEntity
  8
0
100
AcDbBlockEnd
  0
BLOCK
  5
B9BE
330
B956
100
AcDbEntity
  8
0
100
AcDbBlockBegin
  2
*X27
 70
     1
 10
0.0
 20
0.0
 30
0.0
  3
*X27
  1

  0
LINE
  5
B957
330
B956
100
AcDbEntity
  8
0
  6
CONTINUOUS
100
AcDbLine
 10
38.60499999996136
 20
8.762866199104765
 30
0.0
 11
38.71672554182345
 21
8.874591740966855
 31
0.0
  0
LINE
  5
B958
330
B956
100
AcDbEntity
  8
0
  6
CONTINUOUS
100
AcDbLine
 10
38.60499999996136
 20
8.089346990024577
 30
0.0
 11
39.03418785440363
 21
8.518534844466847
 31
0.0
  0
LINE
  5
B959
330
B956
100
AcDbEntity
  8
0
  6
CONTINUOUS
100
AcDbLine
 10
38.60499999996136
 20
7.41582778094439
 30
0.0
 11
39.35165016698382
 21
8.16247794796684
 31
0.0
  0
LINE
  5
B95A
330
B956
100
AcDbEntity
  8
0
  6
CONTINUOUS
100
AcDbLine
 10
38.60499999996136
 20
6.742308571864204
 30
0.0
 11
39.66911247956399
 21
7.806421051466834
 31
0.0
  0
LINE
  5
B95B
330
B956
100
AcDbEntity
  8
0
  6
CONTINUOUS
100
AcDbLine
 10
38.60499999996136
 20
6.068789362784018
 30
0.0
 11
39.98657479214418
 21
7.450364154966827
 31
0.0
  0
LINE
  5
B95C
330
B956
100
AcDbEntity
  8
0
  6
CONTINUOUS
100
AcDbLine
 10
38.60499999996136
 20
5.395270153703832
 30
0.0
 11
40.30403710472435
 21
7.09430725846682
 31
0.0
  0
LINE
  5
B95D
330
B956
100
AcDbEntity
  8
0
  6
CONTINUOUS
100
AcDbLine
 10
38.60499999996136
 20
4.721750944623645
 30
0.0
 11
40.62149941730453
 21
6.738250361966813
 31
0.0
  0
LINE
  5
B95E
330
B956
100
AcDbEntity
  8
0
  6
CONTINUOUS
100
AcDbLine
 10
38.60499999996136
 20
4.048231735543458
 30
0.0
 11
40.93896172988471
 21
6.382193465466806
 31
0.0
  0
LINE
  5
B95F
330
B956
100
AcDbEntity
  8
0
  6
CONTINUOUS
100
AcDbLine
 10
38.60499999996136
 20
3.374712526463272
 30
0.0
 11
40.02599999995994
 21
4.795712526461843
 31
0.0
  0
LINE
  5
B960
330
B956
100
AcDbEntity
  8
0
  6
CONTINUOUS
100
AcDbLine
 10
38.60499999996136
 20
2.701193317383085
 30
0.0
 11
40.02599999995994
 21
4.122193317381657
 31
0.0
  0
LINE
  5
B961
330
B956
100
AcDbEntity
  8
0
  6
CONTINUOUS
100
AcDbLine
 10
40.28339754687704
 20
5.053110073378947
 30
0.0
 11
41.25642404246489
 21
6.026136568966799
 31
0.0
  0
LINE
  5
B962
330
B956
100
AcDbEntity
  8
0
  6
CONTINUOUS
100
AcDbLine
 10
40.60085985945722
 20
4.697053176878939
 30
0.0
 11
41.57388635504507
 21
5.670079672466793
 31
0.0
  0
LINE
  5
B963
330
B956
100
AcDbEntity
  8
0
  6
CONTINUOUS
100
AcDbLine
 10
43.57899999995641
 20
8.348712526458318
 30
0.0
 11
43.99338747348935
 21
8.763099999991255
 31
0.0
  0
LINE
  5
B964
330
B956
100
AcDbEntity
  8
0
  6
CONTINUOUS
100
AcDbLine
 10
43.57899999995641
 20
7.675193317378131
 30
0.0
 11
44.66690668256953
 21
8.763099999991255
 31
0.0
  0
LINE
  5
B965
330
B956
100
AcDbEntity
  8
0
  6
CONTINUOUS
100
AcDbLine
 10
38.60499999996136
 20
2.027674108302898
 30
0.0
 11
40.02599999995994
 21
3.44867410830147
 31
0.0
  0
LINE
  5
B966
330
B956
100
AcDbEntity
  8
0
  6
CONTINUOUS
100
AcDbLine
 10
38.60499999996136
 20
1.354154899222712
 30
0.0
 11
40.02599999995994
 21
2.775154899221284
 31
0.0
  0
LINE
  5
B967
330
B956
100
AcDbEntity
  8
0
  6
CONTINUOUS
100
AcDbLine
 10
38.60499999996136
 20
0.6806356901425255
 30
0.0
 11
40.02599999995994
 21
2.101635690141098
 31
0.0
  0
LINE
  5
B968
330
B956
100
AcDbEntity
  8
0
  6
CONTINUOUS
100
AcDbLine
 10
38.60499999996136
 20
0.0071164810623383
 30
0.0
 11
40.02599999995994
 21
1.428116481060911
 31
0.0
  0
LINE
  5
B969
330
B956
100
AcDbEntity
  8
0
  6
CONTINUOUS
100
AcDbLine
 10
40.9183221720374
 20
4.340996280378933
 30
0.0
 11
41.89134866762525
 21
5.314022775966786
 31
0.0
  0
LINE
  5
B96A
330
B956
100
AcDbEntity
  8
0
  6
CONTINUOUS
100
AcDbLine
 10
41.23578448461758
 20
3.984939383878926
 30
0.0
 11
42.20881098020543
 21
4.957965879466778
 31
0.0
  0
LINE
  5
B96B
330
B956
100
AcDbEntity
  8
0
  6
CONTINUOUS
100
AcDbLine
 10
41.55324679719776
 20
3.628882487378919
 30
0.0
 11
42.52627329278561
 21
4.601908982966772
 31
0.0
  0
LINE
  5
B96C
330
B956
100
AcDbEntity
  8
0
  6
CONTINUOUS
100
AcDbLine
 10
41.87070910977793
 20
3.272825590878912
 30
0.0
 11
42.84373560536579
 21
4.245852086466765
 31
0.0
  0
LINE
  5
B96D
330
B956
100
AcDbEntity
  8
0
  6
CONTINUOUS
100
AcDbLine
 10
43.57899999995641
 20
7.001674108297943
 30
0.0
 11
44.99999999995498
 21
8.422674108296516
 31
0.0
  0
LINE
  5
B96E
330
B956
100
AcDbEntity
  8
0
  6
CONTINUOUS
100
AcDbLine
 10
43.57899999995641
 20
6.328154899217758
 30
0.0
 11
44.99999999995498
 21
7.749154899216329
 31
0.0
  0
LINE
  5
B96F
330
B956
100
AcDbEntity
  8
0
  6
CONTINUOUS
100
AcDbLine
 10
43.57899999995641
 20
5.654635690137571
 30
0.0
 11
44.99999999995498
 21
7.075635690136142
 31
0.0
  0
LINE
  5
B970
330
B956
100
AcDbEntity
  8
0
  6
CONTINUOUS
100
AcDbLine
 10
43.57899999995641
 20
4.981116481057384
 30
0.0
 11
44.99999999995498
 21
6.402116481055955
 31
0.0
  0
LINE
  5
B971
330
B956
100
AcDbEntity
  8
0
  6
CONTINUOUS
100
AcDbLine
 10
39.27140272797921
 20
-0.0000000000000009
 30
0.0
 11
40.02599999995994
 21
0.7545972719807246
 31
0.0
  0
LINE
  5
B972
330
B956
100
AcDbEntity
  8
0
  6
CONTINUOUS
100
AcDbLine
 10
39.9449219370594
 20
-0.0000000000000009
 30
0.0
 11
40.02599999995994
 21
0.0810780629005379
 31
0.0
  0
LINE
  5
B973
330
B956
100
AcDbEntity
  8
0
  6
CONTINUOUS
100
AcDbLine
 10
42.18817142235812
 20
2.916768694378905
 30
0.0
 11
43.16119791794597
 21
3.889795189966758
 31
0.0
  0
LINE
  5
B974
330
B956
100
AcDbEntity
  8
0
  6
CONTINUOUS
100
AcDbLine
 10
42.50563373493829
 20
2.560711797878898
 30
0.0
 11
43.47866023052615
 21
3.533738293466751
 31
0.0
  0
LINE
  5
B975
330
B956
100
AcDbEntity
  8
0
  6
CONTINUOUS
100
AcDbLine
 10
43.57899999995641
 20
4.307597271977198
 30
0.0
 11
44.99999999995498
 21
5.728597271975769
 31
0.0
  0
LINE
  5
B976
330
B956
100
AcDbEntity
  8
0
  6
CONTINUOUS
100
AcDbLine
 10
43.57899999995641
 20
3.634078062897011
 30
0.0
 11
44.99999999995498
 21
5.055078062895582
 31
0.0
  0
LINE
  5
B977
330
B956
100
AcDbEntity
  8
0
  6
CONTINUOUS
100
AcDbLine
 10
42.82309604751848
 20
2.204654901378891
 30
0.0
 11
44.99999999995498
 21
4.381558853815395
 31
0.0
  0
LINE
  5
B978
330
B956
100
AcDbEntity
  8
0
  6
CONTINUOUS
100
AcDbLine
 10
43.14055836009865
 20
1.848598004878885
 30
0.0
 11
44.99999999995498
 21
3.70803964473521
 31
0.0
  0
LINE
  5
B979
330
B956
100
AcDbEntity
  8
0
  6
CONTINUOUS
100
AcDbLine
 10
43.45802067267883
 20
1.492541108378878
 30
0.0
 11
44.99999999995498
 21
3.034520435655023
 31
0.0
  0
LINE
  5
B97A
330
B956
100
AcDbEntity
  8
0
  6
CONTINUOUS
100
AcDbLine
 10
43.77548298525902
 20
1.136484211878871
 30
0.0
 11
44.99999999995498
 21
2.361001226574837
 31
0.0
  0
LINE
  5
B97B
330
B956
100
AcDbEntity
  8
0
  6
CONTINUOUS
100
AcDbLine
 10
44.09294529783919
 20
0.7804273153788639
 30
0.0
 11
44.99999999995498
 21
1.687482017494649
 31
0.0
  0
LINE
  5
B97C
330
B956
100
AcDbEntity
  8
0
  6
CONTINUOUS
100
AcDbLine
 10
44.41040761041938
 20
0.4243704188788566
 30
0.0
 11
44.99999999995498
 21
1.013962808414463
 31
0.0
  0
LINE
  5
B97D
330
B956
100
AcDbEntity
  8
0
  6
CONTINUOUS
100
AcDbLine
 10
44.72786992299955
 20
0.0683135223788494
 30
0.0
 11
44.99999999995498
 21
0.340443599334276
 31
0.0
  0
LINE
  5
B97E
330
B956
100
AcDbEntity
  8
0
  6
CONTINUOUS
100
AcDbLine
 10
39.12223903415696
 20
-0.0000000000000009
 30
0.0
 11
38.60499999996136
 21
0.5172390341955961
 31
0.0
  0
LINE
  5
B97F
330
B956
100
AcDbEntity
  8
0
  6
CONTINUOUS
100
AcDbLine
 10
39.79575824323715
 20
-0.0000000000000009
 30
0.0
 11
38.60499999996136
 21
1.190758243275783
 31
0.0
  0
LINE
  5
B980
330
B956
100
AcDbEntity
  8
0
  6
CONTINUOUS
100
AcDbLine
 10
40.02599999995994
 20
0.443277452357397
 30
0.0
 11
38.60499999996136
 21
1.864277452355969
 31
0.0
  0
LINE
  5
B981
330
B956
100
AcDbEntity
  8
0
  6
CONTINUOUS
100
AcDbLine
 10
40.02599999995994
 20
1.116796661437583
 30
0.0
 11
38.60499999996136
 21
2.537796661436155
 31
0.0
  0
LINE
  5
B982
330
B956
100
AcDbEntity
  8
0
  6
CONTINUOUS
100
AcDbLine
 10
40.02599999995994
 20
1.79031587051777
 30
0.0
 11
38.60499999996136
 21
3.211315870516341
 31
0.0
  0
LINE
  5
B983
330
B956
100
AcDbEntity
  8
0
  6
CONTINUOUS
100
AcDbLine
 10
40.02599999995994
 20
2.463835079597956
 30
0.0
 11
38.60499999996136
 21
3.884835079596527
 31
0.0
  0
LINE
  5
B984
330
B956
100
AcDbEntity
  8
0
  6
CONTINUOUS
100
AcDbLine
 10
40.02599999995994
 20
3.137354288678143
 30
0.0
 11
38.60499999996136
 21
4.558354288676714
 31
0.0
  0
LINE
  5
B985
330
B956
100
AcDbEntity
  8
0
  6
CONTINUOUS
100
AcDbLine
 10
40.02599999995994
 20
3.810873497758329
 30
0.0
 11
38.60499999996136
 21
5.2318734977569
 31
0.0
  0
LINE
  5
B986
330
B956
100
AcDbEntity
  8
0
  6
CONTINUOUS
100
AcDbLine
 10
40.02599999995994
 20
4.484392706838515
 30
0.0
 11
38.60499999996136
 21
5.905392706837086
 31
0.0
  0
LINE
  5
B987
330
B956
100
AcDbEntity
  8
0
  6
CONTINUOUS
100
AcDbLine
 10
44.99999999995498
 20
0.183911915923658
 30
0.0
 11
41.53858364506288
 21
3.64532827081576
 31
0.0
  0
LINE
  5
B988
330
B956
100
AcDbEntity
  8
0
  6
CONTINUOUS
100
AcDbLine
 10
40.02599999995994
 20
5.157911915918703
 30
0.0
 11
38.60499999996136
 21
6.578911915917274
 31
0.0
  0
LINE
  5
B989
330
B956
100
AcDbEntity
  8
0
  6
CONTINUOUS
100
AcDbLine
 10
44.99999999995498
 20
0.8574311250038447
 30
0.0
 11
38.60499999996136
 21
7.25243112499746
 31
0.0
  0
LINE
  5
B98A
330
B956
100
AcDbEntity
  8
0
  6
CONTINUOUS
100
AcDbLine
 10
44.99999999995498
 20
1.530950334084031
 30
0.0
 11
38.60499999996136
 21
7.925950334077647
 31
0.0
  0
LINE
  5
B98B
330
B956
100
AcDbEntity
  8
0
  6
CONTINUOUS
100
AcDbLine
 10
44.99999999995498
 20
2.204469543164218
 30
0.0
 11
43.57899999995641
 21
3.625469543162789
 31
0.0
  0
LINE
  5
B98C
330
B956
100
AcDbEntity
  8
0
  6
CONTINUOUS
100
AcDbLine
 10
41.89876730984767
 20
5.305702233271528
 30
0.0
 11
38.60499999996136
 21
8.599469543157834
 31
0.0
  0
LINE
  5
B98D
330
B956
100
AcDbEntity
  8
0
  6
CONTINUOUS
100
AcDbLine
 10
44.99999999995498
 20
2.877988752244405
 30
0.0
 11
43.57899999995641
 21
4.298988752242975
 31
0.0
  0
LINE
  5
B98E
330
B956
100
AcDbEntity
  8
0
  6
CONTINUOUS
100
AcDbLine
 10
44.99999999995498
 20
3.551507961324591
 30
0.0
 11
43.57899999995641
 21
4.972507961323163
 31
0.0
  0
LINE
  5
B98F
330
B956
100
AcDbEntity
  8
0
  6
CONTINUOUS
100
AcDbLine
 10
44.99999999995498
 20
4.225027170404777
 30
0.0
 11
43.57899999995641
 21
5.646027170403348
 31
0.0
  0
LINE
  5
B990
330
B956
100
AcDbEntity
  8
0
  6
CONTINUOUS
100
AcDbLine
 10
44.99999999995498
 20
4.898546379484964
 30
0.0
 11
43.57899999995641
 21
6.319546379483535
 31
0.0
  0
LINE
  5
B991
330
B956
100
AcDbEntity
  8
0
  6
CONTINUOUS
100
AcDbLine
 10
44.99999999995498
 20
5.572065588565151
 30
0.0
 11
43.57899999995641
 21
6.993065588563722
 31
0.0
  0
LINE
  5
B992
330
B956
100
AcDbEntity
  8
0
  6
CONTINUOUS
100
AcDbLine
 10
44.99999999995498
 20
6.245584797645336
 30
0.0
 11
43.57899999995641
 21
7.666584797643908
 31
0.0
  0
LINE
  5
B993
330
B956
100
AcDbEntity
  8
0
  6
CONTINUOUS
100
AcDbLine
 10
44.99999999995498
 20
6.919104006725522
 30
0.0
 11
43.57899999995641
 21
8.340104006724093
 31
0.0
  0
LINE
  5
B994
330
B956
100
AcDbEntity
  8
0
  6
CONTINUOUS
100
AcDbLine
 10
44.99999999995498
 20
7.592623215805709
 30
0.0
 11
43.82952321576943
 21
8.763099999991255
 31
0.0
  0
LINE
  5
B995
330
B956
100
AcDbEntity
  8
0
  6
CONTINUOUS
100
AcDbLine
 10
44.99999999995498
 20
8.266142424885896
 30
0.0
 11
44.50304242484962
 21
8.763099999991255
 31
0.0
  0
ENDBLK
  5
B9BF
330
B956
100
AcDbEntity
  8
0
100
AcDbBlockEnd
  0
BLOCK
  5
B9C0
330
B996
100
AcDbEntity
  8
0
100
AcDbBlockBegin
  2
*X28
 70
     1
 10
0.0
 20
0.0
 30
0.0
  3
*X28
  1

  0
LINE
  5
B997
330
B996
100
AcDbEntity
  8
0
  6
CONTINUOUS
100
AcDbLine
 10
0.0
 20
8.548461116714023
 30
0.0
 11
0.2146388832772324
 21
8.763099999991255
 31
0.0
  0
LINE
  5
B998
330
B996
100
AcDbEntity
  8
0
  6
CONTINUOUS
100
AcDbLine
 10
-0.0000000000000002
 20
7.874941907633837
 30
0.0
 11
0.8881580923574184
 21
8.763099999991255
 31
0.0
  0
LINE
  5
B999
330
B996
100
AcDbEntity
  8
0
  6
CONTINUOUS
100
AcDbLine
 10
0.0
 20
7.20142269855365
 30
0.0
 11
1.420999999998572
 21
8.622422698552223
 31
0.0
  0
LINE
  5
B99A
330
B996
100
AcDbEntity
  8
0
  6
CONTINUOUS
100
AcDbLine
 10
-0.0000000000000001
 20
6.527903489473465
 30
0.0
 11
1.420999999998571
 21
7.948903489472036
 31
0.0
  0
LINE
  5
B99B
330
B996
100
AcDbEntity
  8
0
  6
CONTINUOUS
100
AcDbLine
 10
-0.0000000000000002
 20
5.854384280393278
 30
0.0
 11
1.420999999998571
 21
7.275384280391849
 31
0.0
  0
LINE
  5
B99C
330
B996
100
AcDbEntity
  8
0
  6
CONTINUOUS
100
AcDbLine
 10
-0.0000000000000002
 20
5.180865071313091
 30
0.0
 11
1.420999999998571
 21
6.601865071311663
 31
0.0
  0
LINE
  5
B99D
330
B996
100
AcDbEntity
  8
0
  6
CONTINUOUS
100
AcDbLine
 10
0.0
 20
4.507345862232905
 30
0.0
 11
1.420999999998571
 21
5.928345862231477
 31
0.0
  0
LINE
  5
B99E
330
B996
100
AcDbEntity
  8
0
  6
CONTINUOUS
100
AcDbLine
 10
-0.0000000000000003
 20
3.833826653152718
 30
0.0
 11
1.420999999998571
 21
5.25482665315129
 31
0.0
  0
LINE
  5
B99F
330
B996
100
AcDbEntity
  8
0
  6
CONTINUOUS
100
AcDbLine
 10
-0.0000000000000002
 20
3.160307444072532
 30
0.0
 11
1.420999999998571
 21
4.581307444071103
 31
0.0
  0
LINE
  5
B9A0
330
B996
100
AcDbEntity
  8
0
  6
CONTINUOUS
100
AcDbLine
 10
-0.0000000000000001
 20
2.486788234992345
 30
0.0
 11
1.420999999998571
 21
3.907788234990917
 31
0.0
  0
LINE
  5
B9A1
330
B996
100
AcDbEntity
  8
0
  6
CONTINUOUS
100
AcDbLine
 10
-0.0000000000000006
 20
1.813269025912159
 30
0.0
 11
1.420999999998571
 21
3.234269025910731
 31
0.0
  0
LINE
  5
B9A2
330
B996
100
AcDbEntity
  8
0
  6
CONTINUOUS
100
AcDbLine
 10
0.0
 20
1.139749816831973
 30
0.0
 11
1.420999999998571
 21
2.560749816830544
 31
0.0
  0
LINE
  5
B9A3
330
B996
100
AcDbEntity
  8
0
  6
CONTINUOUS
100
AcDbLine
 10
0.0000000000000002
 20
0.466230607751787
 30
0.0
 11
1.420999999998571
 21
1.887230607750358
 31
0.0
  0
LINE
  5
B9A4
330
B996
100
AcDbEntity
  8
0
  6
CONTINUOUS
100
AcDbLine
 10
0.2072886013284003
 20
-0.0000000000000009
 30
0.0
 11
1.420999999998571
 21
1.213711398670171
 31
0.0
  0
LINE
  5
B9A5
330
B996
100
AcDbEntity
  8
0
  6
CONTINUOUS
100
AcDbLine
 10
0.8808078104085864
 20
-0.0000000000000009
 30
0.0
 11
1.420999999998571
 21
0.5401921895899839
 31
0.0
  0
LINE
  5
B9A6
330
B996
100
AcDbEntity
  8
0
  6
CONTINUOUS
100
AcDbLine
 10
0.0581249075061505
 20
-0.0000000000000009
 30
0.0
 11
-0.0000000000000002
 21
0.0581249075061496
 31
0.0
  0
LINE
  5
B9A7
330
B996
100
AcDbEntity
  8
0
  6
CONTINUOUS
100
AcDbLine
 10
0.7316441165863372
 20
-0.0000000000000009
 30
0.0
 11
-0.0000000000000002
 21
0.7316441165863363
 31
0.0
  0
LINE
  5
B9A8
330
B996
100
AcDbEntity
  8
0
  6
CONTINUOUS
100
AcDbLine
 10
1.405163325666523
 20
-0.0000000000000009
 30
0.0
 11
-0.0000000000000002
 21
1.405163325666523
 31
0.0
  0
LINE
  5
B9A9
330
B996
100
AcDbEntity
  8
0
  6
CONTINUOUS
100
AcDbLine
 10
1.420999999998572
 20
0.6576825347481381
 30
0.0
 11
-0.0000000000000001
 21
2.07868253474671
 31
0.0
  0
LINE
  5
B9AA
330
B996
100
AcDbEntity
  8
0
  6
CONTINUOUS
100
AcDbLine
 10
1.420999999998571
 20
1.331201743828324
 30
0.0
 11
-0.0000000000000001
 21
2.752201743826896
 31
0.0
  0
LINE
  5
B9AB
330
B996
100
AcDbEntity
  8
0
  6
CONTINUOUS
100
AcDbLine
 10
1.420999999998571
 20
2.004720952908511
 30
0.0
 11
-0.0000000000000002
 21
3.425720952907082
 31
0.0
  0
LINE
  5
B9AC
330
B996
100
AcDbEntity
  8
0
  6
CONTINUOUS
100
AcDbLine
 10
1.420999999998571
 20
2.678240161988697
 30
0.0
 11
-0.0000000000000001
 21
4.099240161987269
 31
0.0
  0
LINE
  5
B9AD
330
B996
100
AcDbEntity
  8
0
  6
CONTINUOUS
100
AcDbLine
 10
1.420999999998572
 20
3.351759371068884
 30
0.0
 11
0.0
 21
4.772759371067455
 31
0.0
  0
LINE
  5
B9AE
330
B996
100
AcDbEntity
  8
0
  6
CONTINUOUS
100
AcDbLine
 10
1.420999999998571
 20
4.02527858014907
 30
0.0
 11
-0.0000000000000003
 21
5.446278580147642
 31
0.0
  0
LINE
  5
B9AF
330
B996
100
AcDbEntity
  8
0
  6
CONTINUOUS
100
AcDbLine
 10
1.420999999998571
 20
4.698797789229257
 30
0.0
 11
0.0
 21
6.119797789227828
 31
0.0
  0
LINE
  5
B9B0
330
B996
100
AcDbEntity
  8
0
  6
CONTINUOUS
100
AcDbLine
 10
1.420999999998571
 20
5.372316998309444
 30
0.0
 11
-0.0000000000000001
 21
6.793316998308015
 31
0.0
  0
LINE
  5
B9B1
330
B996
100
AcDbEntity
  8
0
  6
CONTINUOUS
100
AcDbLine
 10
1.420999999998572
 20
6.045836207389629
 30
0.0
 11
-0.0000000000000004
 21
7.466836207388202
 31
0.0
  0
LINE
  5
B9B2
330
B996
100
AcDbEntity
  8
0
  6
CONTINUOUS
100
AcDbLine
 10
1.420999999998571
 20
6.719355416469816
 30
0.0
 11
0.0
 21
8.140355416468388
 31
0.0
  0
LINE
  5
B9B3
330
B996
100
AcDbEntity
  8
0
  6
CONTINUOUS
100
AcDbLine
 10
1.420999999998571
 20
7.392874625550003
 30
0.0
 11
0.0507746255573185
 21
8.763099999991255
 31
0.0
  0
LINE
  5
B9B4
330
B996
100
AcDbEntity
  8
0
  6
CONTINUOUS
100
AcDbLine
 10
1.420999999998571
 20
8.06639383463019
 30
0.0
 11
0.7242938346375052
 21
8.763099999991255
 31
0.0
  0
LINE
  5
B9B5
330
B996
100
AcDbEntity
  8
0
  6
CONTINUOUS
100
AcDbLine
 10
1.420999999998571
 20
8.739913043710375
 30
0.0
 11
1.397813043717691
 21
8.763099999991255
 31
0.0
  0
ENDBLK
  5
B9C1
330
B996
100
AcDbEntity
  8
0
100
AcDbBlockEnd
  0
ENDSEC
  0
SECTION
  2
ENTITIES
  0
LINE
  5
AE2E
330
18
100
AcDbEntity
  8
01
100
AcDbLine
 10
5034.139554797974
 20
-302.9009516538244
 30
0.0000000000563712
 11
5056.767840180404
 21
-302.9009516538244
 31
0.0000000000563712
  0
LINE
  5
AE2F
330
18
100
AcDbEntity
  8
01
  6
BYBLOCK
100
AcDbLine
 10
5135.268608022721
 20
-142.9022699669272
 30
0.0000000001127424
 11
5289.022988177752
 21
-142.9022699669272
 31
0.0000000001127424
  0
LINE
  5
AE31
330
18
100
AcDbEntity
  8
01
100
AcDbLine
 10
5186.267840180404
 20
-137.9022699669272
 30
0.0000000001127424
 11
5186.267840180404
 21
-164.4022699669272
 31
0.0000000001127424
  0
LINE
  5
AE37
330
18
100
AcDbEntity
  8
01
100
AcDbLine
 10
5036.267840180404
 20
-182.9009516538244
 30
0.0000000000563712
 11
5036.267840180404
 21
-372.9009516538244
 31
0.0000000000563712
  0
LINE
  5
AE39
330
18
100
AcDbEntity
  8
01
100
AcDbLine
 10
5156.267840180404
 20
-302.9009516538244
 30
0.0000000000563712
 11
5216.267840180404
 21
-302.9009516538244
 31
0.0000000000563712
  0
LINE
  5
AE3A
330
18
100
AcDbEntity
  8
01
100
AcDbLine
 10
5186.267840180404
 20
-272.9009516538244
 30
0.0000000000563712
 11
5186.267840180404
 21
-332.9009516538244
 31
0.0000000000563712
  0
LINE
  5
AE3C
330
18
100
AcDbEntity
  8
01
100
AcDbLine
 10
5212.267840180404
 20
-276.4009516538263
 30
0.0000000000563712
 11
5160.267840180408
 21
-276.4009516538263
 31
0.0000000000563712
  0
LINE
  5
AE3D
330
18
100
AcDbEntity
  8
01
100
AcDbLine
 10
5160.267840180408
 20
-329.4009516538263
 30
0.0000000000563712
 11
5212.267840180404
 21
-329.4009516538263
 31
0.0000000000563712
  0
LINE
  5
AE3E
330
18
100
AcDbEntity
  8
01
100
AcDbLine
 10
5159.767840180408
 20
-276.9009516538263
 30
0.0000000000563712
 11
5159.767840180408
 21
-328.9009516538263
 31
0.0000000000563712
  0
ARC
  5
AE3F
330
18
100
AcDbEntity
  8
01
100
AcDbCircle
 10
5160.267840180408
 20
-328.9009516538263
 30
0.0000000000563712
 40
0.5
100
AcDbArc
 50
180.0
 51
270.0
  0
ARC
  5
AE40
330
18
100
AcDbEntity
  8
01
100
AcDbCircle
 10
5160.267840180408
 20
-276.9009516538263
 30
0.0000000000563712
 40
0.5
100
AcDbArc
 50
90.0
 51
180.0
  0
LINE
  5
AE41
330
18
100
AcDbEntity
  8
01
100
AcDbLine
 10
5212.767840180404
 20
-276.9009516538263
 30
0.0000000000563712
 11
5212.767840180404
 21
-291.9009516538244
 31
0.0000000000563712
  0
ARC
  5
AE42
330
18
100
AcDbEntity
  8
01
100
AcDbCircle
 10
5212.267840180404
 20
-328.9009516538263
 30
0.0000000000563712
 40
0.5
100
AcDbArc
 50
270.0
 51
0.0
  0
ARC
  5
AE43
330
18
100
AcDbEntity
  8
01
100
AcDbCircle
 10
5212.267840180404
 20
-276.9009516538263
 30
0.0000000000563712
 40
0.5
100
AcDbArc
 50
0.0
 51
90.0
  0
LINE
  5
AE44
330
18
100
AcDbEntity
  8
01
100
AcDbLine
 10
5159.767840180408
 20
-142.9022699669272
 30
0.0000000001127424
 11
5212.767840180404
 21
-142.9022699669272
 31
0.0000000001127424
  0
LINE
  5
AE45
330
18
100
AcDbEntity
  8
01
100
AcDbLine
 10
5160.267840180408
 20
-151.4022699669272
 30
0.0000000001127424
 11
5212.267840180404
 21
-151.4022699669272
 31
0.0000000001127424
  0
LINE
  5
AE46
330
18
100
AcDbEntity
  8
01
100
AcDbLine
 10
5212.767840180404
 20
-142.9022699669272
 30
0.0000000001127424
 11
5212.767840180404
 21
-150.9022699669272
 31
0.0000000001127424
  0
LINE
  5
AE47
330
18
100
AcDbEntity
  8
01
100
AcDbLine
 10
5159.767840180408
 20
-142.9022699669272
 30
0.0000000001127424
 11
5159.767840180408
 21
-150.9022699669272
 31
0.0000000001127424
  0
ARC
  5
AE48
330
18
100
AcDbEntity
  8
01
100
AcDbCircle
 10
5160.267840180408
 20
-150.9022699669272
 30
0.0000000001127424
 40
0.5
100
AcDbArc
 50
180.0
 51
270.0
  0
ARC
  5
AE49
330
18
100
AcDbEntity
  8
01
100
AcDbCircle
 10
5212.267840180404
 20
-150.9022699669272
 30
0.0000000001127424
 40
0.5
100
AcDbArc
 50
270.0
 51
0.0
  0
LINE
  5
AE4A
330
18
100
AcDbEntity
  8
01
100
AcDbLine
 10
5036.267840180404
 20
-329.4009516538235
 30
0.0000000000563712
 11
5036.267840180404
 21
-276.4009516538263
 31
0.0000000000563712
  0
LINE
  5
AE4B
330
18
100
AcDbEntity
  8
01
100
AcDbLine
 10
5044.767840180404
 20
-328.9009516538235
 30
0.0000000000563712
 11
5044.767840180404
 21
-276.9009516538263
 31
0.0000000000563712
  0
LINE
  5
AE4C
330
18
100
AcDbEntity
  8
01
100
AcDbLine
 10
5036.267840180404
 20
-276.4009516538263
 30
0.0000000000563712
 11
5044.267840180404
 21
-276.4009516538263
 31
0.0000000000563712
  0
LINE
  5
AE4D
330
18
100
AcDbEntity
  8
01
100
AcDbLine
 10
5036.267840180404
 20
-329.4009516538235
 30
0.0000000000563712
 11
5044.267840180404
 21
-329.4009516538235
 31
0.0000000000563712
  0
ARC
  5
AE4E
330
18
100
AcDbEntity
  8
01
100
AcDbCircle
 10
5044.267840180404
 20
-328.9009516538235
 30
0.0000000000563712
 40
0.5
100
AcDbArc
 50
270.0
 51
0.0
  0
ARC
  5
AE4F
330
18
100
AcDbEntity
  8
01
100
AcDbCircle
 10
5044.267840180404
 20
-276.9009516538263
 30
0.0000000000563712
 40
0.5
100
AcDbArc
 50
0.0
 51
90.0
  0
TEXT
  5
AE66
330
18
100
AcDbEntity
  8
1TEXT
100
AcDbText
 10
5036.267840180404
 20
-142.9022699669276
 30
0.0
 40
10.0
  1
J5T
 41
1.0171875
100
AcDbText
  0
LINE
  5
B243
330
18
100
AcDbEntity
  8
1CENTER
100
AcDbLine
 10
5050.767840118443
 20
-314.6509542921981
 30
0.0000000000563712
 11
5050.767840118443
 21
-309.6615625787467
 31
0.0000000000563712
  0
LINE
  5
B40B
330
18
100
AcDbEntity
  8
01
100
AcDbLine
 10
5212.267742261134
 20
-185.2057691929331
 30
0.0000000001127424
 11
5212.267742261134
 21
-206.6057691690912
 31
0.0000000001127424
  0
LINE
  5
B40C
330
18
100
AcDbEntity
  8
01
100
AcDbLine
 10
5212.567742273055
 20
-206.9057691810121
 30
0.0000000001127424
 11
5212.267742261134
 21
-206.6057691690912
 31
0.0000000001127424
  0
LINE
  5
B40D
330
18
100
AcDbEntity
  8
01
100
AcDbLine
 10
5316.267742261134
 20
-185.9057691810121
 30
0.0000000001127424
 11
5316.267742261134
 21
-205.9057691810121
 31
0.0000000001127424
  0
LINE
  5
B40E
330
18
100
AcDbEntity
  8
01
100
AcDbLine
 10
5212.567742273055
 20
-206.9057691810121
 30
0.0000000001127424
 11
5315.267742261134
 21
-206.9057691810121
 31
0.0000000001127424
  0
LINE
  5
B40F
330
18
100
AcDbEntity
  8
01
100
AcDbLine
 10
5316.267742261134
 20
-205.9057691810121
 30
0.0000000001127424
 11
5315.267742261134
 21
-206.9057691810121
 31
0.0000000001127424
  0
LINE
  5
B410
330
18
100
AcDbEntity
  8
01
100
AcDbLine
 10
5316.267742261134
 20
-185.9057691810121
 30
0.0000000001127424
 11
5315.267742261134
 21
-184.9057691810121
 31
0.0000000001127424
  0
LINE
  5
B411
330
18
100
AcDbEntity
  8
01
100
AcDbLine
 10
5212.567742273055
 20
-184.9057691810121
 30
0.0000000001127424
 11
5315.267742261134
 21
-184.9057691810121
 31
0.0000000001127424
  0
LINE
  5
B412
330
18
100
AcDbEntity
  8
01
100
AcDbLine
 10
5212.567742273055
 20
-184.9057691810121
 30
0.0000000001127424
 11
5212.267742261134
 21
-185.2057691929331
 31
0.0000000001127424
  0
ARC
  5
B415
330
18
100
AcDbEntity
  8
01
100
AcDbCircle
 10
5186.266958217369
 20
-376.8455903875375
 30
0.0000000000563712
 40
84.94460091152641
100
AcDbArc
 50
89.9878755802652
 51
98.27265283297871
  0
ARC
  5
B416
330
18
100
AcDbEntity
  8
01
100
AcDbCircle
 10
5174.188156746902
 20
-293.7745536110274
 30
0.0000000000563712
 40
1.000012932068664
100
AcDbArc
 50
98.24212204796753
 51
174.7103039992549
  0
ARC
  5
B417
330
18
100
AcDbEntity
  8
01
100
AcDbCircle
 10
5272.766583888642
 20
-302.9009516536931
 30
0.0000000000563712
 40
99.99999999756967
100
AcDbArc
 50
174.7106265571576
 51
180.0000000000651
  0
ARC
  5
B419
330
18
100
AcDbEntity
  8
01
100
AcDbCircle
 10
5186.267323492742
 20
-228.952505363543
 30
0.0000000000563712
 40
84.94842140630374
100
AcDbArc
 50
261.7274728703495
 51
269.8950466629126
  0
ARC
  5
B41A
330
18
100
AcDbEntity
  8
01
100
AcDbCircle
 10
5174.188156746902
 20
-312.0273496966216
 30
0.0000000000563712
 40
1.000012932068664
100
AcDbArc
 50
185.2896960007452
 51
261.7578779520325
  0
ARC
  5
B41B
330
18
100
AcDbEntity
  8
01
100
AcDbCircle
 10
5272.766583888642
 20
-302.9009516539559
 30
0.0000000000563712
 40
99.99999999756967
100
AcDbArc
 50
179.9999999999349
 51
185.2893734428424
  0
ARC
  5
B41F
330
18
100
AcDbEntity
  8
01
100
AcDbCircle
 10
5174.187703290551
 20
-293.7752031778581
 30
0.0000000000563712
 40
1.001052064613086
100
AcDbArc
 50
98.2078953895582
 51
174.6010656829209
  0
LINE
  5
B420
330
18
100
AcDbEntity
  8
01
100
AcDbLine
 10
5211.967840353305
 20
-291.9005686023011
 30
0.0000000000563712
 11
5212.267840180412
 21
-292.2009511690881
 31
0.0000000000563712
  0
ARC
  5
B421
330
18
100
AcDbEntity
  8
01
100
AcDbCircle
 10
5174.187703290551
 20
-312.0267001297908
 30
0.0000000000563712
 40
1.001052064613086
100
AcDbArc
 50
185.3989343170791
 51
261.7921046104418
  0
LINE
  5
B422
330
18
100
AcDbEntity
  8
01
100
AcDbLine
 10
5211.967840353305
 20
-313.9013347053479
 30
0.0000000000563712
 11
5212.267840180412
 21
-313.6009521385608
 31
0.0000000000563712
  0
LINE
  5
B423
330
18
100
AcDbEntity
  8
01
100
AcDbLine
 10
5212.267742261134
 20
-187.1378493698812
 30
0.0000000001127424
 11
5212.267742261134
 21
-206.5957354355521
 31
0.0000000001127424
  0
LINE
  5
B424
330
18
100
AcDbEntity
  8
1DIM
100
AcDbLine
 10
5211.967742221186
 20
-206.8955413914455
 30
0.0000000001127424
 11
5212.267742261134
 21
-206.5957354355521
 31
0.0000000001127424
  0
LINE
  5
B425
330
18
100
AcDbEntity
  8
01
100
AcDbLine
 10
5199.343175025748
 20
-151.9022698630549
 30
0.0000000001127424
 11
5198.490975396568
 21
-151.9022699022828
 31
0.0000000001127424
  0
LINE
  5
B426
330
18
100
AcDbEntity
  8
01
100
AcDbLine
 10
5174.044701041977
 20
-151.9022802085656
 30
0.0000000001127424
 11
5198.490979318835
 21
-151.9022597252888
 31
0.0000000001127424
  0
LINE
  5
B427
330
18
100
AcDbEntity
  8
01
100
AcDbLine
 10
5173.192304656739
 20
-151.9022698630527
 30
0.0000000001127424
 11
5174.044700426401
 21
-151.9022699022833
 31
0.0000000001127424
  0
LINE
  5
B429
330
18
100
AcDbEntity
  8
01
100
AcDbLine
 10
5212.267742261134
 20
-206.6022192312911
 30
0.0000000001127424
 11
5212.267742261134
 21
-206.5957200126059
 31
0.0000000001127424
  0
LINE
  5
B42A
330
18
100
AcDbEntity
  8
1DIM
100
AcDbLine
 10
5211.967742252164
 20
-206.9021751732781
 30
0.0000000001127424
 11
5211.967742249508
 21
-206.8955411825185
 31
0.0000000001127424
  0
LINE
  5
B42B
330
18
100
AcDbEntity
  8
01
100
AcDbLine
 10
5199.343174998474
 20
-151.9022698630549
 30
0.0000000001127424
 11
5199.768998550467
 21
-151.9022694600952
 31
0.0000000001127424
  0
LINE
  5
B42C
330
18
100
AcDbEntity
  8
01
100
AcDbLine
 10
5173.192304683305
 20
-151.9022698630527
 30
0.0000000001127424
 11
5172.766485971794
 21
-151.9022694600952
 31
0.0000000001127424
  0
LINE
  5
B42D
330
18
100
AcDbEntity
  8
01
100
AcDbLine
 10
5212.267742261134
 20
-206.6022636937548
 30
0.0000000001127424
 11
5211.96774225188
 21
-206.9022237093761
 31
0.0000000001127424
  0
LINE
  5
B42E
330
18
100
AcDbEntity
  8
01
100
AcDbLine
 10
5211.96782201836
 20
-184.9093115586976
 30
0.0000000001127424
 11
5212.267742261134
 21
-185.2023377164587
 31
0.0000000001127424
  0
ARC
  5
B434
330
18
100
AcDbEntity
  8
01
100
AcDbCircle
 10
5088.813880137855
 20
-302.907917609804
 30
0.0000000000563712
 40
11.45391812263481
100
AcDbArc
 50
0.0348375833099646
 51
1.957588514517155
  0
ARC
  5
B436
330
18
100
AcDbEntity
  8
01
100
AcDbCircle
 10
5088.813880137879
 20
-302.8939889468112
 30
0.0000000000563712
 40
11.45391812261128
100
AcDbArc
 50
358.0424114854828
 51
359.96516241669
  0
LINE
  5
B43C
330
18
100
AcDbEntity
  8
01
100
AcDbLine
 10
5045.26784076703
 20
-313.9009524706936
 30
0.0000000000563712
 11
5047.368268480857
 21
-313.9010532409221
 31
0.0000000000563712
  0
LINE
  5
B440
330
18
100
AcDbEntity
  8
01
100
AcDbLine
 10
5186.266958217369
 20
-291.9009894760112
 30
0.0000000000563712
 11
5186.571575913441
 21
-291.8991911712992
 31
0.0000000000563712
  0
LINE
  5
B441
330
18
100
AcDbEntity
  8
01
100
AcDbLine
 10
5186.111716650589
 20
-313.9007842509557
 30
0.0000000000563712
 11
5186.571575913441
 21
-313.9027121366125
 31
0.0000000000563712
  0
LINE
  5
B442
330
18
100
AcDbEntity
  8
01
100
AcDbLine
 10
5212.267840180412
 20
-292.2009516657454
 30
0.0000000000563712
 11
5212.267840180412
 21
-313.6009516419035
 31
0.0000000000563712
  0
LINE
  5
B443
330
18
100
AcDbEntity
  8
01
100
AcDbLine
 10
5212.567840192333
 20
-313.9009516538244
 30
0.0000000000563712
 11
5212.267840180412
 21
-313.6009516419035
 31
0.0000000000563712
  0
LINE
  5
B444
330
18
100
AcDbEntity
  8
01
100
AcDbLine
 10
5316.267840180412
 20
-292.9009516538244
 30
0.0000000000563712
 11
5316.267840180412
 21
-312.9009516538244
 31
0.0000000000563712
  0
LINE
  5
B445
330
18
100
AcDbEntity
  8
01
100
AcDbLine
 10
5212.567840192333
 20
-313.9009516538244
 30
0.0000000000563712
 11
5315.267840180412
 21
-313.9009516538244
 31
0.0000000000563712
  0
LINE
  5
B446
330
18
100
AcDbEntity
  8
01
100
AcDbLine
 10
5316.267840180412
 20
-312.9009516538244
 30
0.0000000000563712
 11
5315.267840180412
 21
-313.9009516538244
 31
0.0000000000563712
  0
LINE
  5
B447
330
18
100
AcDbEntity
  8
01
100
AcDbLine
 10
5316.267840180412
 20
-292.9009516538244
 30
0.0000000000563712
 11
5315.267840180412
 21
-291.9009516538244
 31
0.0000000000563712
  0
LINE
  5
B448
330
18
100
AcDbEntity
  8
01
100
AcDbLine
 10
5212.567840192333
 20
-291.9009516538244
 30
0.0000000000563712
 11
5315.267840180412
 21
-291.9009516538244
 31
0.0000000000563712
  0
LINE
  5
B449
330
18
100
AcDbEntity
  8
01
100
AcDbLine
 10
5212.567840192333
 20
-291.9009516538244
 30
0.0000000000563712
 11
5212.267840180412
 21
-292.2009516657454
 31
0.0000000000563712
  0
LINE
  5
B542
330
18
100
AcDbEntity
  8
01
100
AcDbLine
 10
5212.767840180404
 20
-313.9009516538244
 30
0.0000000000563712
 11
5212.767840180404
 21
-328.9009516538263
 31
0.0000000000563712
  0
LINE
  5
B5F8
330
18
100
AcDbEntity
  8
01
100
AcDbLine
 10
5160.267840180408
 20
-276.4009516538263
 30
0.0000000000563712
 11
5149.967840180404
 21
-276.4009516538263
 31
0.0000000000563712
1001
ACAD
1000
DSTYLE
1002
{
1070
     3
1000
□<>
1070
    40
1040
1.3
1070
    45
1040
0.5
1002
}
  0
LINE
  5
B5F9
330
18
100
AcDbEntity
  8
01
100
AcDbLine
 10
5160.267840180408
 20
-329.4009516538263
 30
0.0000000000563712
 11
5149.967840180404
 21
-329.4009516538263
 31
0.0000000000563712
1001
ACAD
1000
DSTYLE
1002
{
1070
     3
1000
□<>
1070
    40
1040
1.3
1070
    45
1040
0.5
1002
}
  0
LINE
  5
B5FA
330
18
100
AcDbEntity
  8
01
100
AcDbLine
 10
5151.267840180404
 20
-279.0009516538263
 30
0.0000000000563712
 11
5151.267840180404
 21
-326.8009516538262
 31
0.0000000000563712
1001
ACAD
1000
DSTYLE
1002
{
1070
     3
1000
□<>
1070
    40
1040
1.3
1070
    45
1040
0.5
1002
}
  0
LINE
  5
B5FE
330
18
100
AcDbEntity
  8
01
100
AcDbLine
 10
5212.267842087757
 20
-292.2009527982336
 30
0.0
 11
5212.267842087757
 21
-292.2749731839758
 31
0.0
  0
LINE
  5
B5FF
330
18
100
AcDbEntity
  8
01
100
AcDbLine
 10
5212.267842087757
 20
-292.2749731839758
 30
0.0
 11
5212.267842087757
 21
-292.4962637723547
 31
0.0
  0
LINE
  5
B600
330
18
100
AcDbEntity
  8
01
100
AcDbLine
 10
5212.267842087757
 20
-292.4962637723547
 30
0.0
 11
5212.267842087757
 21
-292.8615897000891
 31
0.0
  0
LINE
  5
B601
330
18
100
AcDbEntity
  8
01
100
AcDbLine
 10
5212.267842087757
 20
-292.8615897000891
 30
0.0
 11
5212.267842087757
 21
-293.3659231961828
 31
0.0
  0
LINE
  5
B602
330
18
100
AcDbEntity
  8
01
100
AcDbLine
 10
5212.267842087757
 20
-293.3659231961828
 30
0.0
 11
5212.267842087757
 21
-294.0025656522375
 31
0.0
  0
LINE
  5
B603
330
18
100
AcDbEntity
  8
01
100
AcDbLine
 10
5212.267842087757
 20
-294.0025656522375
 30
0.0
 11
5212.267842087757
 21
-294.7626898587805
 31
0.0
  0
LINE
  5
B604
330
18
100
AcDbEntity
  8
01
100
AcDbLine
 10
5212.267842087757
 20
-294.7626898587805
 30
0.0
 11
5212.267842087757
 21
-295.6356528104407
 31
0.0
  0
LINE
  5
B605
330
18
100
AcDbEntity
  8
01
100
AcDbLine
 10
5212.267842087757
 20
-295.6356528104407
 30
0.0
 11
5212.267842087757
 21
-296.6092551053625
 31
0.0
  0
LINE
  5
B606
330
18
100
AcDbEntity
  8
01
100
AcDbLine
 10
5212.267842087757
 20
-296.6092551053625
 30
0.0
 11
5212.267842087757
 21
-297.6700003446203
 31
0.0
  0
LINE
  5
B607
330
18
100
AcDbEntity
  8
01
100
AcDbLine
 10
5212.267842087757
 20
-297.6700003446203
 30
0.0
 11
5212.267842087757
 21
-298.8032553495032
 31
0.0
  0
LINE
  5
B608
330
18
100
AcDbEntity
  8
01
100
AcDbLine
 10
5212.267842087757
 20
-298.8032553495032
 30
0.0
 11
5212.267842087757
 21
-299.9933111966711
 31
0.0
  0
LINE
  5
B609
330
18
100
AcDbEntity
  8
01
100
AcDbLine
 10
5212.267842087757
 20
-299.9933111966711
 30
0.0
 11
5212.267842087757
 21
-301.223634988175
 31
0.0
  0
LINE
  5
B60A
330
18
100
AcDbEntity
  8
01
100
AcDbLine
 10
5212.267842087757
 20
-301.223634988175
 30
0.0
 11
5212.267842087757
 21
-302.5270712674719
 31
0.0
  0
LINE
  5
B60B
330
18
100
AcDbEntity
  8
01
100
AcDbLine
 10
5207.267840180412
 20
-302.4899571524072
 30
0.0
 11
5205.436451706898
 21
-302.470087319718
 31
0.0
  0
LINE
  5
B60C
330
18
100
AcDbEntity
  8
01
100
AcDbLine
 10
5205.436451706898
 20
-302.470087319718
 30
0.0
 11
5203.244435105335
 21
-302.4229986966711
 31
0.0
  0
LINE
  5
B60D
330
18
100
AcDbEntity
  8
01
100
AcDbLine
 10
5203.244435105335
 20
-302.4229986966711
 30
0.0
 11
5201.048420701039
 21
-302.3430273831946
 31
0.0
  0
LINE
  5
B60E
330
18
100
AcDbEntity
  8
01
100
AcDbLine
 10
5201.048420701039
 20
-302.3430273831946
 30
0.0
 11
5198.854481492054
 21
-302.2224753202063
 31
0.0
  0
LINE
  5
B60F
330
18
100
AcDbEntity
  8
01
100
AcDbLine
 10
5198.854481492054
 20
-302.2224753202063
 30
0.0
 11
5196.674870286
 21
-302.0530722440344
 31
0.0
  0
LINE
  5
B610
330
18
100
AcDbEntity
  8
01
100
AcDbLine
 10
5196.674870286
 20
-302.0530722440344
 30
0.0
 11
5194.528843674671
 21
-301.8255408109289
 31
0.0
  0
LINE
  5
B611
330
18
100
AcDbEntity
  8
01
100
AcDbLine
 10
5194.528843674671
 20
-301.8255408109289
 30
0.0
 11
5192.443226609242
 21
-301.5350058377844
 31
0.0
  0
LINE
  5
B612
330
18
100
AcDbEntity
  8
01
100
AcDbLine
 10
5192.443226609242
 20
-301.5350058377844
 30
0.0
 11
5190.449681077015
 21
-301.1820318997961
 31
0.0
  0
LINE
  5
B613
330
18
100
AcDbEntity
  8
01
100
AcDbLine
 10
5190.449681077015
 20
-301.1820318997961
 30
0.0
 11
5188.578495774281
 21
-300.7728903592688
 31
0.0
  0
LINE
  5
B614
330
18
100
AcDbEntity
  8
01
100
AcDbLine
 10
5188.578495774281
 20
-300.7728903592688
 30
0.0
 11
5186.851986680043
 21
-300.3184988797766
 31
0.0
  0
LINE
  5
B615
330
18
100
AcDbEntity
  8
01
100
AcDbLine
 10
5186.851986680043
 20
-300.3184988797766
 30
0.0
 11
5185.281269822132
 21
-299.8315527738196
 31
0.0
  0
LINE
  5
B616
330
18
100
AcDbEntity
  8
01
100
AcDbLine
 10
5185.281269822132
 20
-299.8315527738196
 30
0.0
 11
5183.865055832875
 21
-299.3243506253821
 31
0.0
  0
LINE
  5
B617
330
18
100
AcDbEntity
  8
01
100
AcDbLine
 10
5183.865055832875
 20
-299.3243506253821
 30
0.0
 11
5182.596882615101
 21
-298.8080160916907
 31
0.0
  0
LINE
  5
B618
330
18
100
AcDbEntity
  8
01
100
AcDbLine
 10
5182.596882615101
 20
-298.8080160916907
 30
0.0
 11
5181.464596543324
 21
-298.2912695706946
 31
0.0
  0
LINE
  5
B619
330
18
100
AcDbEntity
  8
01
100
AcDbLine
 10
5181.464596543324
 20
-298.2912695706946
 30
0.0
 11
5180.455303940785
 21
-297.7809012235266
 31
0.0
  0
LINE
  5
B61A
330
18
100
AcDbEntity
  8
01
100
AcDbLine
 10
5180.455303940785
 20
-297.7809012235266
 30
0.0
 11
5179.556393418324
 21
-297.2821600736243
 31
0.0
  0
LINE
  5
B61B
330
18
100
AcDbEntity
  8
01
100
AcDbLine
 10
5179.556393418324
 20
-297.2821600736243
 30
0.0
 11
5178.756405625355
 21
-296.7991659940344
 31
0.0
  0
LINE
  5
B61C
330
18
100
AcDbEntity
  8
01
100
AcDbLine
 10
5178.756405625355
 20
-296.7991659940344
 30
0.0
 11
5178.044964585316
 21
-296.3352454007727
 31
0.0
  0
LINE
  5
B61D
330
18
100
AcDbEntity
  8
01
100
AcDbLine
 10
5178.044964585316
 20
-296.3352454007727
 30
0.0
 11
5177.413021836293
 21
-295.8929312528235
 31
0.0
  0
LINE
  5
B61E
330
18
100
AcDbEntity
  8
01
100
AcDbLine
 10
5177.413021836293
 20
-295.8929312528235
 30
0.0
 11
5176.852993760121
 21
-295.4742605985266
 31
0.0
  0
LINE
  5
B61F
330
18
100
AcDbEntity
  8
01
100
AcDbLine
 10
5176.852993760121
 20
-295.4742605985266
 30
0.0
 11
5176.358319077503
 21
-295.0809958280188
 31
0.0
  0
LINE
  5
B620
330
18
100
AcDbEntity
  8
01
100
AcDbLine
 10
5176.358319077503
 20
-295.0809958280188
 30
0.0
 11
5175.923291001332
 21
-294.7147085965735
 31
0.0
  0
LINE
  5
B621
330
18
100
AcDbEntity
  8
01
100
AcDbLine
 10
5175.923291001332
 20
-294.7147085965735
 30
0.0
 11
5175.543202195179
 21
-294.3768790067297
 31
0.0
  0
LINE
  5
B622
330
18
100
AcDbEntity
  8
01
100
AcDbLine
 10
5175.543202195179
 20
-294.3768790067297
 30
0.0
 11
5175.214482102406
 21
-294.0689032376868
 31
0.0
  0
LINE
  5
B623
330
18
100
AcDbEntity
  8
01
100
AcDbLine
 10
5175.214482102406
 20
-294.0689032376868
 30
0.0
 11
5174.933636460316
 21
-293.7921469510657
 31
0.0
  0
LINE
  5
B624
330
18
100
AcDbEntity
  8
01
100
AcDbLine
 10
5174.933636460316
 20
-293.7921469510657
 30
0.0
 11
5174.697300705921
 21
-293.5479605496985
 31
0.0
  0
LINE
  5
B625
330
18
100
AcDbEntity
  8
01
100
AcDbLine
 10
5174.697300705921
 20
-293.5479605496985
 30
0.0
 11
5174.502758774769
 21
-293.3374350370032
 31
0.0
  0
LINE
  5
B626
330
18
100
AcDbEntity
  8
01
100
AcDbLine
 10
5174.502758774769
 20
-293.3374350370032
 30
0.0
 11
5174.347508225453
 21
-293.1616156400305
 31
0.0
  0
LINE
  5
B627
330
18
100
AcDbEntity
  8
01
100
AcDbLine
 10
5174.347508225453
 20
-293.1616156400305
 30
0.0
 11
5174.229016098988
 21
-293.021471291886
 31
0.0
  0
LINE
  5
B628
330
18
100
AcDbEntity
  8
01
100
AcDbLine
 10
5174.229016098988
 20
-293.021471291886
 30
0.0
 11
5174.144078049671
 21
-292.9165823758703
 31
0.0
  0
LINE
  5
B629
330
18
100
AcDbEntity
  8
01
100
AcDbLine
 10
5174.144078049671
 20
-292.9165823758703
 30
0.0
 11
5174.088719162953
 21
-292.8449728788
 31
0.0
  0
LINE
  5
B62A
330
18
100
AcDbEntity
  8
01
100
AcDbLine
 10
5174.088719162953
 20
-292.8449728788
 30
0.0
 11
5174.058598313343
 21
-292.804071694718
 31
0.0
  0
LINE
  5
B62B
330
18
100
AcDbEntity
  8
01
100
AcDbLine
 10
5174.058598313343
 20
-292.804071694718
 30
0.0
 11
5174.047024521839
 21
-292.7876913846594
 31
0.0
  0
LINE
  5
B62C
330
18
100
AcDbEntity
  8
01
100
AcDbLine
 10
5174.047024521839
 20
-292.7876913846594
 30
0.0
 11
5174.044796738636
 21
-292.7848761380774
 31
0.0
  0
LINE
  5
B62D
330
18
100
AcDbEntity
  8
01
100
AcDbLine
 10
5212.267842087757
 20
-313.6009543241125
 30
0.0
 11
5212.267842087757
 21
-313.5269339383703
 31
0.0
  0
LINE
  5
B62E
330
18
100
AcDbEntity
  8
01
100
AcDbLine
 10
5212.267842087757
 20
-313.5269339383703
 30
0.0
 11
5212.267842087757
 21
-313.3056357205969
 31
0.0
  0
LINE
  5
B62F
330
18
100
AcDbEntity
  8
01
100
AcDbLine
 10
5212.267842087757
 20
-313.3056357205969
 30
0.0
 11
5212.267842087757
 21
-312.9403097928625
 31
0.0
  0
LINE
  5
B630
330
18
100
AcDbEntity
  8
01
100
AcDbLine
 10
5212.267842087757
 20
-312.9403097928625
 30
0.0
 11
5212.267842087757
 21
-312.4359762967688
 31
0.0
  0
LINE
  5
B631
330
18
100
AcDbEntity
  8
01
100
AcDbLine
 10
5212.267842087757
 20
-312.4359762967688
 30
0.0
 11
5212.267842087757
 21
-311.7993414701086
 31
0.0
  0
LINE
  5
B632
330
18
100
AcDbEntity
  8
01
100
AcDbLine
 10
5212.267842087757
 20
-311.7993414701086
 30
0.0
 11
5212.267842087757
 21
-311.0392172635657
 31
0.0
  0
LINE
  5
B633
330
18
100
AcDbEntity
  8
01
100
AcDbLine
 10
5212.267842087757
 20
-311.0392172635657
 30
0.0
 11
5212.267842087757
 21
-310.1662543119055
 31
0.0
  0
LINE
  5
B634
330
18
100
AcDbEntity
  8
01
100
AcDbLine
 10
5212.267842087757
 20
-310.1662543119055
 30
0.0
 11
5212.267842087757
 21
-309.1926443875891
 31
0.0
  0
LINE
  5
B635
330
18
100
AcDbEntity
  8
01
100
AcDbLine
 10
5212.267842087757
 20
-309.1926443875891
 30
0.0
 11
5212.267842087757
 21
-308.1318991483313
 31
0.0
  0
LINE
  5
B636
330
18
100
AcDbEntity
  8
01
100
AcDbLine
 10
5212.267842087757
 20
-308.1318991483313
 30
0.0
 11
5212.267842087757
 21
-306.998651772843
 31
0.0
  0
LINE
  5
B637
330
18
100
AcDbEntity
  8
01
100
AcDbLine
 10
5212.267842087757
 20
-306.998651772843
 30
0.0
 11
5212.267842087757
 21
-305.8085882962805
 31
0.0
  0
LINE
  5
B638
330
18
100
AcDbEntity
  8
01
100
AcDbLine
 10
5212.267842087757
 20
-305.8085882962805
 30
0.0
 11
5212.267842087757
 21
-304.5782721341711
 31
0.0
  0
LINE
  5
B639
330
18
100
AcDbEntity
  8
01
100
AcDbLine
 10
5212.267842087757
 20
-304.5782721341711
 30
0.0
 11
5212.267842087757
 21
-303.2748358548743
 31
0.0
  0
LINE
  5
B63A
330
18
100
AcDbEntity
  8
01
100
AcDbLine
 10
5207.267840180412
 20
-303.3119487357271
 30
0.0
 11
5205.436451706898
 21
-303.3318121732336
 31
0.0
  0
LINE
  5
B63B
330
18
100
AcDbEntity
  8
01
100
AcDbLine
 10
5205.436451706898
 20
-303.3318121732336
 30
0.0
 11
5203.244435105335
 21
-303.378908425675
 31
0.0
  0
LINE
  5
B63C
330
18
100
AcDbEntity
  8
01
100
AcDbLine
 10
5203.244435105335
 20
-303.378908425675
 30
0.0
 11
5201.048420701039
 21
-303.4588797391516
 31
0.0
  0
LINE
  5
B63D
330
18
100
AcDbEntity
  8
01
100
AcDbLine
 10
5201.048420701039
 20
-303.4588797391516
 30
0.0
 11
5198.854481492054
 21
-303.5794241727453
 31
0.0
  0
LINE
  5
B63E
330
18
100
AcDbEntity
  8
01
100
AcDbLine
 10
5198.854481492054
 20
-303.5794241727453
 30
0.0
 11
5196.674870286
 21
-303.7488272489172
 31
0.0
  0
LINE
  5
B63F
330
18
100
AcDbEntity
  8
01
100
AcDbLine
 10
5196.674870286
 20
-303.7488272489172
 30
0.0
 11
5194.528843674671
 21
-303.9763586820227
 31
0.0
  0
LINE
  5
B640
330
18
100
AcDbEntity
  8
01
100
AcDbLine
 10
5194.528843674671
 20
-303.9763586820227
 30
0.0
 11
5192.443226609242
 21
-304.2669012845618
 31
0.0
  0
LINE
  5
B641
330
18
100
AcDbEntity
  8
01
100
AcDbLine
 10
5192.443226609242
 20
-304.2669012845618
 30
0.0
 11
5190.449681077015
 21
-304.6198675931555
 31
0.0
  0
LINE
  5
B642
330
18
100
AcDbEntity
  8
01
100
AcDbLine
 10
5190.449681077015
 20
-304.6198675931555
 30
0.0
 11
5188.578495774281
 21
-305.0290167630774
 31
0.0
  0
LINE
  5
B643
330
18
100
AcDbEntity
  8
01
100
AcDbLine
 10
5188.578495774281
 20
-305.0290167630774
 30
0.0
 11
5186.851986680043
 21
-305.483400613175
 31
0.0
  0
LINE
  5
B644
330
18
100
AcDbEntity
  8
01
100
AcDbLine
 10
5186.851986680043
 20
-305.483400613175
 30
0.0
 11
5185.281269822132
 21
-305.9703467191321
 31
0.0
  0
LINE
  5
B645
330
18
100
AcDbEntity
  8
01
100
AcDbLine
 10
5185.281269822132
 20
-305.9703467191321
 30
0.0
 11
5183.865055832875
 21
-306.4775564969641
 31
0.0
  0
LINE
  5
B646
330
18
100
AcDbEntity
  8
01
100
AcDbLine
 10
5183.865055832875
 20
-306.4775564969641
 30
0.0
 11
5182.596882615101
 21
-306.993883401261
 31
0.0
  0
LINE
  5
B647
330
18
100
AcDbEntity
  8
01
100
AcDbLine
 10
5182.596882615101
 20
-306.993883401261
 30
0.0
 11
5181.464596543324
 21
-307.5106375516516
 31
0.0
  0
LINE
  5
B648
330
18
100
AcDbEntity
  8
01
100
AcDbLine
 10
5181.464596543324
 20
-307.5106375516516
 30
0.0
 11
5180.455303940785
 21
-308.0210058988196
 31
0.0
  0
LINE
  5
B649
330
18
100
AcDbEntity
  8
01
100
AcDbLine
 10
5180.455303940785
 20
-308.0210058988196
 30
0.0
 11
5179.556393418324
 21
-308.5197394193274
 31
0.0
  0
LINE
  5
B64A
330
18
100
AcDbEntity
  8
01
100
AcDbLine
 10
5179.556393418324
 20
-308.5197394193274
 30
0.0
 11
5178.756405625355
 21
-309.0027334989172
 31
0.0
  0
LINE
  5
B64B
330
18
100
AcDbEntity
  8
01
100
AcDbLine
 10
5178.756405625355
 20
-309.0027334989172
 30
0.0
 11
5178.044964585316
 21
-309.4666540921789
 31
0.0
  0
LINE
  5
B64C
330
18
100
AcDbEntity
  8
01
100
AcDbLine
 10
5178.044964585316
 20
-309.4666540921789
 30
0.0
 11
5177.413021836293
 21
-309.9089758695227
 31
0.0
  0
LINE
  5
B64D
330
18
100
AcDbEntity
  8
01
100
AcDbLine
 10
5177.413021836293
 20
-309.9089758695227
 30
0.0
 11
5176.852993760121
 21
-310.3276465238196
 31
0.0
  0
LINE
  5
B64E
330
18
100
AcDbEntity
  8
01
100
AcDbLine
 10
5176.852993760121
 20
-310.3276465238196
 30
0.0
 11
5176.358319077503
 21
-310.7209112943274
 31
0.0
  0
LINE
  5
B64F
330
18
100
AcDbEntity
  8
01
100
AcDbLine
 10
5176.358319077503
 20
-310.7209112943274
 30
0.0
 11
5175.923291001332
 21
-311.0871908963782
 31
0.0
  0
LINE
  5
B650
330
18
100
AcDbEntity
  8
01
100
AcDbLine
 10
5175.923291001332
 20
-311.0871908963782
 30
0.0
 11
5175.543202195179
 21
-311.4250204862219
 31
0.0
  0
LINE
  5
B651
330
18
100
AcDbEntity
  8
01
100
AcDbLine
 10
5175.543202195179
 20
-311.4250204862219
 30
0.0
 11
5175.214482102406
 21
-311.7330038846594
 31
0.0
  0
LINE
  5
B652
330
18
100
AcDbEntity
  8
01
100
AcDbLine
 10
5175.214482102406
 20
-311.7330038846594
 30
0.0
 11
5174.933636460316
 21
-312.009752541886
 31
0.0
  0
LINE
  5
B653
330
18
100
AcDbEntity
  8
01
100
AcDbLine
 10
5174.933636460316
 20
-312.009752541886
 30
0.0
 11
5174.697300705921
 21
-312.2539465726477
 31
0.0
  0
LINE
  5
B654
330
18
100
AcDbEntity
  8
01
100
AcDbLine
 10
5174.697300705921
 20
-312.2539465726477
 30
0.0
 11
5174.502758774769
 21
-312.4644644559485
 31
0.0
  0
LINE
  5
B655
330
18
100
AcDbEntity
  8
01
100
AcDbLine
 10
5174.502758774769
 20
-312.4644644559485
 30
0.0
 11
5174.347508225453
 21
-312.6402914823157
 31
0.0
  0
LINE
  5
B656
330
18
100
AcDbEntity
  8
01
100
AcDbLine
 10
5174.347508225453
 20
-312.6402914823157
 30
0.0
 11
5174.229016098988
 21
-312.7804358304602
 31
0.0
  0
LINE
  5
B657
330
18
100
AcDbEntity
  8
01
100
AcDbLine
 10
5174.229016098988
 20
-312.7804358304602
 30
0.0
 11
5174.144078049671
 21
-312.8853171170813
 31
0.0
  0
LINE
  5
B658
330
18
100
AcDbEntity
  8
01
100
AcDbLine
 10
5174.144078049671
 20
-312.8853171170813
 30
0.0
 11
5174.088719162953
 21
-312.9569342435461
 31
0.0
  0
LINE
  5
B659
330
18
100
AcDbEntity
  8
01
100
AcDbLine
 10
5174.088719162953
 20
-312.9569342435461
 30
0.0
 11
5174.058598313343
 21
-312.9978277982336
 31
0.0
  0
LINE
  5
B65A
330
18
100
AcDbEntity
  8
01
100
AcDbLine
 10
5174.058598313343
 20
-312.9978277982336
 30
0.0
 11
5174.047024521839
 21
-313.0142157376868
 31
0.0
  0
LINE
  5
B65B
330
18
100
AcDbEntity
  8
01
100
AcDbLine
 10
5174.047024521839
 20
-313.0142157376868
 30
0.0
 11
5174.044796738636
 21
-313.0170309842688
 31
0.0
  0
LINE
  5
B65C
330
18
100
AcDbEntity
  8
01
100
AcDbLine
 10
5182.889393601429
 20
-313.8179114163977
 30
0.0
 11
5182.896519455921
 21
-313.8174612821203
 31
0.0
  0
LINE
  5
B65D
330
18
100
AcDbEntity
  8
01
100
AcDbLine
 10
5211.967839036
 20
-313.9013312162024
 30
0.0
 11
5210.321598801625
 21
-313.9016440213782
 31
0.0
  0
LINE
  5
B65E
330
18
100
AcDbEntity
  8
01
100
AcDbLine
 10
5210.321598801625
 20
-313.9016440213782
 30
0.0
 11
5208.677861008656
 21
-313.9012930692297
 31
0.0
  0
LINE
  5
B65F
330
18
100
AcDbEntity
  8
01
100
AcDbLine
 10
5208.677861008656
 20
-313.9012930692297
 30
0.0
 11
5207.042576584828
 21
-313.9032156766516
 31
0.0
  0
LINE
  5
B660
330
18
100
AcDbEntity
  8
01
100
AcDbLine
 10
5207.042576584828
 20
-313.9032156766516
 30
0.0
 11
5205.432362351429
 21
-313.9093954862219
 31
0.0
  0
LINE
  5
B661
330
18
100
AcDbEntity
  8
01
100
AcDbLine
 10
5205.432362351429
 20
-313.9093954862219
 30
0.0
 11
5203.877476487171
 21
-313.9244101346594
 31
0.0
  0
LINE
  5
B662
330
18
100
AcDbEntity
  8
01
100
AcDbLine
 10
5203.877476487171
 20
-313.9244101346594
 30
0.0
 11
5202.408512864125
 21
-313.9519598783118
 31
0.0
  0
LINE
  5
B663
330
18
100
AcDbEntity
  8
01
100
AcDbLine
 10
5202.408512864125
 20
-313.9519598783118
 30
0.0
 11
5201.03471830846
 21
-313.9897558988196
 31
0.0
  0
LINE
  5
B664
330
18
100
AcDbEntity
  8
01
100
AcDbLine
 10
5201.03471830846
 20
-313.9897558988196
 30
0.0
 11
5199.746937546742
 21
-314.031122475968
 31
0.0
  0
LINE
  5
B665
330
18
100
AcDbEntity
  8
01
100
AcDbLine
 10
5199.746937546742
 20
-314.031122475968
 30
0.0
 11
5198.540730271351
 21
-314.0682013333899
 31
0.0
  0
LINE
  5
B666
330
18
100
AcDbEntity
  8
01
100
AcDbLine
 10
5198.540730271351
 20
-314.0682013333899
 30
0.0
 11
5197.422718796742
 21
-314.0963690579993
 31
0.0
  0
LINE
  5
B667
330
18
100
AcDbEntity
  8
01
100
AcDbLine
 10
5197.422718796742
 20
-314.0963690579993
 30
0.0
 11
5196.389759812367
 21
-314.1147406400305
 31
0.0
  0
LINE
  5
B668
330
18
100
AcDbEntity
  8
01
100
AcDbLine
 10
5196.389759812367
 20
-314.1147406400305
 30
0.0
 11
5195.434544358265
 21
-314.12378147255
 31
0.0
  0
LINE
  5
B669
330
18
100
AcDbEntity
  8
01
100
AcDbLine
 10
5195.434544358265
 20
-314.12378147255
 30
0.0
 11
5194.552830491078
 21
-314.1244528592688
 31
0.0
  0
LINE
  5
B66A
330
18
100
AcDbEntity
  8
01
100
AcDbLine
 10
5194.552830491078
 20
-314.1244528592688
 30
0.0
 11
5193.736912522328
 21
-314.1182349027258
 31
0.0
  0
LINE
  5
B66B
330
18
100
AcDbEntity
  8
01
100
AcDbLine
 10
5193.736912522328
 20
-314.1182349027258
 30
0.0
 11
5192.973637375843
 21
-314.1065314115149
 31
0.0
  0
LINE
  5
B66C
330
18
100
AcDbEntity
  8
01
100
AcDbLine
 10
5192.973637375843
 20
-314.1065314115149
 30
0.0
 11
5192.251393113148
 21
-314.0903952420813
 31
0.0
  0
LINE
  5
B66D
330
18
100
AcDbEntity
  8
01
100
AcDbLine
 10
5192.251393113148
 20
-314.0903952420813
 30
0.0
 11
5191.565724167835
 21
-314.0708334745032
 31
0.0
  0
LINE
  5
B66E
330
18
100
AcDbEntity
  8
01
100
AcDbLine
 10
5191.565724167835
 20
-314.0708334745032
 30
0.0
 11
5190.913395676625
 21
-314.0489065946203
 31
0.0
  0
LINE
  5
B66F
330
18
100
AcDbEntity
  8
01
100
AcDbLine
 10
5190.913395676625
 20
-314.0489065946203
 30
0.0
 11
5190.289799485218
 21
-314.0255911649328
 31
0.0
  0
LINE
  5
B670
330
18
100
AcDbEntity
  8
01
100
AcDbLine
 10
5190.289799485218
 20
-314.0255911649328
 30
0.0
 11
5189.705311570179
 21
-314.0023215116125
 31
0.0
  0
LINE
  5
B671
330
18
100
AcDbEntity
  8
01
100
AcDbLine
 10
5189.705311570179
 20
-314.0023215116125
 30
0.0
 11
5189.176243577015
 21
-313.980943948136
 31
0.0
  0
LINE
  5
B672
330
18
100
AcDbEntity
  8
01
100
AcDbLine
 10
5189.176243577015
 20
-313.980943948136
 30
0.0
 11
5188.686528000843
 21
-313.9617483914953
 31
0.0
  0
LINE
  5
B673
330
18
100
AcDbEntity
  8
01
100
AcDbLine
 10
5188.686528000843
 20
-313.9617483914953
 30
0.0
 11
5188.226017746937
 21
-313.9446585477453
 31
0.0
  0
LINE
  5
B674
330
18
100
AcDbEntity
  8
01
100
AcDbLine
 10
5188.226017746937
 20
-313.9446585477453
 30
0.0
 11
5187.826588425648
 21
-313.9310171903235
 31
0.0
  0
LINE
  5
B675
330
18
100
AcDbEntity
  8
01
100
AcDbLine
 10
5187.826588425648
 20
-313.9310171903235
 30
0.0
 11
5187.511669907582
 21
-313.921617776261
 31
0.0
  0
LINE
  5
B676
330
18
100
AcDbEntity
  8
01
100
AcDbLine
 10
5187.511669907582
 20
-313.921617776261
 30
0.0
 11
5187.207310471546
 21
-313.9140417874914
 31
0.0
  0
LINE
  5
B677
330
18
100
AcDbEntity
  8
01
100
AcDbLine
 10
5187.207310471546
 20
-313.9140417874914
 30
0.0
 11
5186.913021836293
 21
-313.9079001248938
 31
0.0
  0
LINE
  5
B678
330
18
100
AcDbEntity
  8
01
100
AcDbLine
 10
5186.913021836293
 20
-313.9079001248938
 30
0.0
 11
5186.700833115589
 21
-313.9042914212805
 31
0.0
  0
LINE
  5
B679
330
18
100
AcDbEntity
  8
01
100
AcDbLine
 10
5186.700833115589
 20
-313.9042914212805
 30
0.0
 11
5186.571575913441
 21
-313.9027121366125
 31
0.0
  0
LINE
  5
B67A
330
18
100
AcDbEntity
  8
01
100
AcDbLine
 10
5212.267744168479
 20
-185.2023411763835
 30
0.0
 11
5212.267744168479
 21
-185.282068349235
 31
0.0
  0
LINE
  5
B67B
330
18
100
AcDbEntity
  8
01
100
AcDbLine
 10
5212.267744168479
 20
-185.282068349235
 30
0.0
 11
5212.267744168479
 21
-185.5201207173991
 31
0.0
  0
LINE
  5
B67C
330
18
100
AcDbEntity
  8
01
100
AcDbLine
 10
5212.267744168479
 20
-185.5201207173991
 30
0.0
 11
5212.267744168479
 21
-185.9129429830241
 31
0.0
  0
LINE
  5
B67D
330
18
100
AcDbEntity
  8
01
100
AcDbLine
 10
5212.267744168479
 20
-185.9129429830241
 30
0.0
 11
5212.267744168479
 21
-186.45467577111
 31
0.0
  0
LINE
  5
B67E
330
18
100
AcDbEntity
  8
01
100
AcDbLine
 10
5212.267744168479
 20
-186.45467577111
 30
0.0
 11
5212.267744168479
 21
-187.1380558980632
 31
0.0
  0
LINE
  5
B67F
330
18
100
AcDbEntity
  8
01
100
AcDbLine
 10
5199.768995389182
 20
-151.9022770894694
 30
0.0
 11
5199.76870547219
 21
-152.8717747701335
 31
0.0
  0
LINE
  5
B680
330
18
100
AcDbEntity
  8
01
100
AcDbLine
 10
5199.76870547219
 20
-152.8717747701335
 30
0.0
 11
5199.76853762551
 21
-153.8412724507975
 31
0.0
  0
LINE
  5
B681
330
18
100
AcDbEntity
  8
01
100
AcDbLine
 10
5199.76853762551
 20
-153.8412724507975
 30
0.0
 11
5199.76951418801
 21
-154.8107701314616
 31
0.0
  0
LINE
  5
B682
330
18
100
AcDbEntity
  8
01
100
AcDbLine
 10
5199.76951418801
 20
-154.8107701314616
 30
0.0
 11
5199.772718533713
 21
-155.7802678121257
 31
0.0
  0
LINE
  5
B683
330
18
100
AcDbEntity
  8
01
100
AcDbLine
 10
5199.772718533713
 20
-155.7802678121257
 30
0.0
 11
5199.779035672385
 21
-156.7497502340007
 31
0.0
  0
LINE
  5
B684
330
18
100
AcDbEntity
  8
01
100
AcDbLine
 10
5199.779035672385
 20
-156.7497502340007
 30
0.0
 11
5199.789030179221
 21
-157.7192021382975
 31
0.0
  0
LINE
  5
B685
330
18
100
AcDbEntity
  8
01
100
AcDbLine
 10
5199.789030179221
 20
-157.7192021382975
 30
0.0
 11
5199.803220853049
 21
-158.6885930074382
 31
0.0
  0
LINE
  5
B686
330
18
100
AcDbEntity
  8
01
100
AcDbLine
 10
5199.803220853049
 20
-158.6885930074382
 30
0.0
 11
5199.82209597512
 21
-159.6579228414225
 31
0.0
  0
LINE
  5
B687
330
18
100
AcDbEntity
  8
01
100
AcDbLine
 10
5199.82209597512
 20
-159.6579228414225
 30
0.0
 11
5199.846128567893
 21
-160.6271153463053
 31
0.0
  0
LINE
  5
B688
330
18
100
AcDbEntity
  8
01
100
AcDbLine
 10
5199.846128567893
 20
-160.6271153463053
 30
0.0
 11
5199.875730618674
 21
-161.5961705220866
 31
0.0
  0
LINE
  5
B689
330
18
100
AcDbEntity
  8
01
100
AcDbLine
 10
5199.875730618674
 20
-161.5961705220866
 30
0.0
 11
5199.911390408713
 21
-162.565012074821
 31
0.0
  0
LINE
  5
B68A
330
18
100
AcDbEntity
  8
01
100
AcDbLine
 10
5199.911390408713
 20
-162.565012074821
 30
0.0
 11
5199.953565701682
 21
-163.5335942281413
 31
0.0
  0
LINE
  5
B68B
330
18
100
AcDbEntity
  8
01
100
AcDbLine
 10
5199.953565701682
 20
-163.5335942281413
 30
0.0
 11
5200.002866849143
 21
-164.5018559468913
 31
0.0
  0
LINE
  5
B68C
330
18
100
AcDbEntity
  8
01
100
AcDbLine
 10
5200.002866849143
 20
-164.5018559468913
 30
0.0
 11
5200.059934720237
 21
-165.4696751607585
 31
0.0
  0
LINE
  5
B68D
330
18
100
AcDbEntity
  8
01
100
AcDbLine
 10
5200.059934720237
 20
-165.4696751607585
 30
0.0
 11
5200.12547121926
 21
-166.4369450582194
 31
0.0
  0
LINE
  5
B68E
330
18
100
AcDbEntity
  8
01
100
AcDbLine
 10
5200.12547121926
 20
-166.4369450582194
 30
0.0
 11
5200.200147732932
 21
-167.4035588277507
 31
0.0
  0
LINE
  5
B68F
330
18
100
AcDbEntity
  8
01
100
AcDbLine
 10
5200.200147732932
 20
-167.4035588277507
 30
0.0
 11
5200.284666165549
 21
-168.3693791402507
 31
0.0
  0
LINE
  5
B690
330
18
100
AcDbEntity
  8
01
100
AcDbLine
 10
5200.284666165549
 20
-168.3693791402507
 30
0.0
 11
5200.380094632346
 21
-169.3341771138835
 31
0.0
  0
LINE
  5
B691
330
18
100
AcDbEntity
  8
01
100
AcDbLine
 10
5200.380094632346
 20
-169.3341771138835
 30
0.0
 11
5200.487577542503
 21
-170.297693349235
 31
0.0
  0
LINE
  5
B692
330
18
100
AcDbEntity
  8
01
100
AcDbLine
 10
5200.487577542503
 20
-170.297693349235
 30
0.0
 11
5200.608305081565
 21
-171.2596226705241
 31
0.0
  0
LINE
  5
B693
330
18
100
AcDbEntity
  8
01
100
AcDbLine
 10
5200.608305081565
 20
-171.2596226705241
 30
0.0
 11
5200.743574246604
 21
-172.2196293843913
 31
0.0
  0
LINE
  5
B694
330
18
100
AcDbEntity
  8
01
100
AcDbLine
 10
5200.743574246604
 20
-172.2196293843913
 30
0.0
 11
5200.895139798362
 21
-173.1771946920085
 31
0.0
  0
LINE
  5
B695
330
18
100
AcDbEntity
  8
01
100
AcDbLine
 10
5200.895139798362
 20
-173.1771946920085
 30
0.0
 11
5201.064970120628
 21
-174.131677724235
 31
0.0
  0
LINE
  5
B696
330
18
100
AcDbEntity
  8
01
100
AcDbLine
 10
5201.064970120628
 20
-174.131677724235
 30
0.0
 11
5201.255506619651
 21
-175.0822545064616
 31
0.0
  0
LINE
  5
B697
330
18
100
AcDbEntity
  8
01
100
AcDbLine
 10
5201.255506619651
 20
-175.0822545064616
 30
0.0
 11
5201.469434842307
 21
-176.0279637349772
 31
0.0
  0
LINE
  5
B698
330
18
100
AcDbEntity
  8
01
100
AcDbLine
 10
5201.469434842307
 20
-176.0279637349772
 30
0.0
 11
5201.710859402854
 21
-176.9669133199382
 31
0.0
  0
LINE
  5
B699
330
18
100
AcDbEntity
  8
01
100
AcDbLine
 10
5201.710859402854
 20
-176.9669133199382
 30
0.0
 11
5201.984464749534
 21
-177.8968297017741
 31
0.0
  0
LINE
  5
B69A
330
18
100
AcDbEntity
  8
01
100
AcDbLine
 10
5201.984464749534
 20
-177.8968297017741
 30
0.0
 11
5202.295148953635
 21
-178.8152256978678
 31
0.0
  0
LINE
  5
B69B
330
18
100
AcDbEntity
  8
01
100
AcDbLine
 10
5202.295148953635
 20
-178.8152256978678
 30
0.0
 11
5202.650144681174
 21
-179.7172642720866
 31
0.0
  0
LINE
  5
B69C
330
18
100
AcDbEntity
  8
01
100
AcDbLine
 10
5202.650144681174
 20
-179.7172642720866
 30
0.0
 11
5203.05825625344
 21
-180.5964146627116
 31
0.0
  0
LINE
  5
B69D
330
18
100
AcDbEntity
  8
01
100
AcDbLine
 10
5203.05825625344
 20
-180.5964146627116
 30
0.0
 11
5203.529890164573
 21
-181.4431706441569
 31
0.0
  0
LINE
  5
B69E
330
18
100
AcDbEntity
  8
01
100
AcDbLine
 10
5203.529890164573
 20
-181.4431706441569
 30
0.0
 11
5204.077344998557
 21
-182.2428227437663
 31
0.0
  0
LINE
  5
B69F
330
18
100
AcDbEntity
  8
01
100
AcDbLine
 10
5204.077344998557
 20
-182.2428227437663
 30
0.0
 11
5204.712537869651
 21
-182.9743901265788
 31
0.0
  0
LINE
  5
B6A0
330
18
100
AcDbEntity
  8
01
100
AcDbLine
 10
5204.712537869651
 20
-182.9743901265788
 30
0.0
 11
5205.443174466331
 21
-183.610422231071
 31
0.0
  0
LINE
  5
B6A1
330
18
100
AcDbEntity
  8
01
100
AcDbLine
 10
5205.443174466331
 20
-183.610422231071
 30
0.0
 11
5206.264173611838
 21
-184.123849965446
 31
0.0
  0
LINE
  5
B6A2
330
18
100
AcDbEntity
  8
01
100
AcDbLine
 10
5206.264173611838
 20
-184.123849965446
 30
0.0
 11
5207.15737734719
 21
-184.4978581441569
 31
0.0
  0
LINE
  5
B6A3
330
18
100
AcDbEntity
  8
01
100
AcDbLine
 10
5207.15737734719
 20
-184.4978581441569
 30
0.0
 11
5208.095396146018
 21
-184.7394352925944
 31
0.0
  0
LINE
  5
B6A4
330
18
100
AcDbEntity
  8
01
100
AcDbLine
 10
5208.095396146018
 20
-184.7394352925944
 30
0.0
 11
5209.055662259299
 21
-184.8708287252116
 31
0.0
  0
LINE
  5
B6A5
330
18
100
AcDbEntity
  8
01
100
AcDbLine
 10
5209.055662259299
 20
-184.8708287252116
 30
0.0
 11
5210.023801907737
 21
-184.9236851705241
 31
0.0
  0
LINE
  5
B6A6
330
18
100
AcDbEntity
  8
01
100
AcDbLine
 10
5210.023801907737
 20
-184.9236851705241
 30
0.0
 11
5210.993162259299
 21
-184.928049184196
 31
0.0
  0
LINE
  5
B6A7
330
18
100
AcDbEntity
  8
01
100
AcDbLine
 10
5210.993162259299
 20
-184.928049184196
 30
0.0
 11
5211.967817410667
 21
-184.9093113912272
 31
0.0
  0
LINE
  5
B6A8
330
18
100
AcDbEntity
  8
01
100
AcDbLine
 10
5211.967741116721
 20
-206.9022313131022
 30
0.0
 11
5210.130582913596
 21
-206.8999577535319
 31
0.0
  0
LINE
  5
B6A9
330
18
100
AcDbEntity
  8
01
100
AcDbLine
 10
5210.130582913596
 20
-206.8999577535319
 30
0.0
 11
5208.293470486838
 21
-206.8869114888835
 31
0.0
  0
LINE
  5
B6AA
330
18
100
AcDbEntity
  8
01
100
AcDbLine
 10
5208.293470486838
 20
-206.8869114888835
 30
0.0
 11
5206.456632718284
 21
-206.8528080953288
 31
0.0
  0
LINE
  5
B6AB
330
18
100
AcDbEntity
  8
01
100
AcDbLine
 10
5206.456632718284
 20
-206.8528080953288
 30
0.0
 11
5204.620481595237
 21
-206.7869664205241
 31
0.0
  0
LINE
  5
B6AC
330
18
100
AcDbEntity
  8
01
100
AcDbLine
 10
5204.620481595237
 20
-206.7869664205241
 30
0.0
 11
5202.786726102073
 21
-206.6766606343913
 31
0.0
  0
LINE
  5
B6AD
330
18
100
AcDbEntity
  8
01
100
AcDbLine
 10
5202.786726102073
 20
-206.6766606343913
 30
0.0
 11
5200.957517728049
 21
-206.508371449821
 31
0.0
  0
LINE
  5
B6AE
330
18
100
AcDbEntity
  8
01
100
AcDbLine
 10
5200.957517728049
 20
-206.508371449821
 30
0.0
 11
5199.136274441917
 21
-206.2678624166178
 31
0.0
  0
LINE
  5
B6AF
330
18
100
AcDbEntity
  8
01
100
AcDbLine
 10
5199.136274441917
 20
-206.2678624166178
 30
0.0
 11
5197.328748807151
 21
-205.9399662984538
 31
0.0
  0
LINE
  5
B6B0
330
18
100
AcDbEntity
  8
01
100
AcDbLine
 10
5197.328748807151
 20
-205.9399662984538
 30
0.0
 11
5195.542997464378
 21
-205.5098668111491
 31
0.0
  0
LINE
  5
B6B1
330
18
100
AcDbEntity
  8
01
100
AcDbLine
 10
5195.542997464378
 20
-205.5098668111491
 30
0.0
 11
5193.789167508323
 21
-204.9640446675944
 31
0.0
  0
LINE
  5
B6B2
330
18
100
AcDbEntity
  8
01
100
AcDbLine
 10
5193.789167508323
 20
-204.9640446675944
 30
0.0
 11
5192.079893216331
 21
-204.2917576802897
 31
0.0
  0
LINE
  5
B6B3
330
18
100
AcDbEntity
  8
01
100
AcDbLine
 10
5192.079893216331
 20
-204.2917576802897
 30
0.0
 11
5190.429014310081
 21
-203.4867955220866
 31
0.0
  0
LINE
  5
B6B4
330
18
100
AcDbEntity
  8
01
100
AcDbLine
 10
5190.429014310081
 20
-203.4867955220866
 30
0.0
 11
5188.850065335471
 21
-202.548669911735
 31
0.0
  0
LINE
  5
B6B5
330
18
100
AcDbEntity
  8
01
100
AcDbLine
 10
5188.850065335471
 20
-202.548669911735
 30
0.0
 11
5187.354765042503
 21
-201.4821873677897
 31
0.0
  0
LINE
  5
B6B6
330
18
100
AcDbEntity
  8
01
100
AcDbLine
 10
5187.354765042503
 20
-201.4821873677897
 30
0.0
 11
5185.951528653342
 21
-200.2971440328288
 31
0.0
  0
LINE
  5
B6B7
330
18
100
AcDbEntity
  8
01
100
AcDbLine
 10
5185.951528653342
 20
-200.2971440328288
 30
0.0
 11
5184.644788846213
 21
-199.0064030660319
 31
0.0
  0
LINE
  5
B6B8
330
18
100
AcDbEntity
  8
01
100
AcDbLine
 10
5184.644788846213
 20
-199.0064030660319
 30
0.0
 11
5183.435262784202
 21
-197.6240788472819
 31
0.0
  0
LINE
  5
B6B9
330
18
100
AcDbEntity
  8
01
100
AcDbLine
 10
5183.435262784202
 20
-197.6240788472819
 30
0.0
 11
5182.320638760764
 21
-196.1640263570475
 31
0.0
  0
LINE
  5
B6BA
330
18
100
AcDbEntity
  8
01
100
AcDbLine
 10
5182.320638760764
 20
-196.1640263570475
 30
0.0
 11
5181.296690091331
 21
-194.6389561666178
 31
0.0
  0
LINE
  5
B6BB
330
18
100
AcDbEntity
  8
01
100
AcDbLine
 10
5181.296690091331
 20
-194.6389561666178
 30
0.0
 11
5180.3579770176
 21
-193.0600224507975
 31
0.0
  0
LINE
  5
B6BC
330
18
100
AcDbEntity
  8
01
100
AcDbLine
 10
5180.3579770176
 20
-193.0600224507975
 30
0.0
 11
5179.498647793967
 21
-191.4363347066569
 31
0.0
  0
LINE
  5
B6BD
330
18
100
AcDbEntity
  8
01
100
AcDbLine
 10
5179.498647793967
 20
-191.4363347066569
 30
0.0
 11
5178.712812527854
 21
-189.7759037984538
 31
0.0
  0
LINE
  5
B6BE
330
18
100
AcDbEntity
  8
01
100
AcDbLine
 10
5178.712812527854
 20
-189.7759037984538
 30
0.0
 11
5177.995000943381
 21
-188.0848637593913
 31
0.0
  0
LINE
  5
B6BF
330
18
100
AcDbEntity
  8
01
100
AcDbLine
 10
5177.995000943381
 20
-188.0848637593913
 30
0.0
 11
5177.340032681663
 21
-186.368494130485
 31
0.0
  0
LINE
  5
B6C0
330
18
100
AcDbEntity
  8
01
100
AcDbLine
 10
5177.340032681663
 20
-186.368494130485
 30
0.0
 11
5176.743307217796
 21
-184.6310063375163
 31
0.0
  0
LINE
  5
B6C1
330
18
100
AcDbEntity
  8
01
100
AcDbLine
 10
5176.743307217796
 20
-184.6310063375163
 30
0.0
 11
5176.20066653176
 21
-182.8758946431803
 31
0.0
  0
LINE
  5
B6C2
330
18
100
AcDbEntity
  8
01
100
AcDbLine
 10
5176.20066653176
 20
-182.8758946431803
 30
0.0
 11
5175.708540066917
 21
-181.1059208882975
 31
0.0
  0
LINE
  5
B6C3
330
18
100
AcDbEntity
  8
01
100
AcDbLine
 10
5175.708540066917
 20
-181.1059208882975
 30
0.0
 11
5175.263662442405
 21
-179.3234654439616
 31
0.0
  0
LINE
  5
B6C4
330
18
100
AcDbEntity
  8
01
100
AcDbLine
 10
5175.263662442405
 20
-179.3234654439616
 30
0.0
 11
5174.863218411643
 21
-177.5305119527507
 31
0.0
  0
LINE
  5
B6C5
330
18
100
AcDbEntity
  8
01
100
AcDbLine
 10
5174.863218411643
 20
-177.5305119527507
 30
0.0
 11
5174.504697903831
 21
-175.7287083638835
 31
0.0
  0
LINE
  5
B6C6
330
18
100
AcDbEntity
  8
01
100
AcDbLine
 10
5174.504697903831
 20
-175.7287083638835
 30
0.0
 11
5174.18586550637
 21
-173.9194432271647
 31
0.0
  0
LINE
  5
B6C7
330
18
100
AcDbEntity
  8
01
100
AcDbLine
 10
5174.18586550637
 20
-173.9194432271647
 30
0.0
 11
5173.904760464866
 21
-172.1039525045085
 31
0.0
  0
LINE
  5
B6C8
330
18
100
AcDbEntity
  8
01
100
AcDbLine
 10
5173.904760464866
 20
-172.1039525045085
 30
0.0
 11
5173.659544095237
 21
-170.283273793571
 31
0.0
  0
LINE
  5
B6C9
330
18
100
AcDbEntity
  8
01
100
AcDbLine
 10
5173.659544095237
 20
-170.283273793571
 30
0.0
 11
5173.448553189475
 21
-168.4582615865397
 31
0.0
  0
LINE
  5
B6CA
330
18
100
AcDbEntity
  8
01
100
AcDbLine
 10
5173.448553189475
 20
-168.4582615865397
 30
0.0
 11
5173.270147427756
 21
-166.6297703756022
 31
0.0
  0
LINE
  5
B6CB
330
18
100
AcDbEntity
  8
01
100
AcDbLine
 10
5173.270147427756
 20
-166.6297703756022
 30
0.0
 11
5173.122724637229
 21
-164.7985478414225
 31
0.0
  0
LINE
  5
B6CC
330
18
100
AcDbEntity
  8
01
100
AcDbLine
 10
5173.122724637229
 20
-164.7985478414225
 30
0.0
 11
5173.004675015647
 21
-162.9652348531413
 31
0.0
  0
LINE
  5
B6CD
330
18
100
AcDbEntity
  8
01
100
AcDbLine
 10
5173.004675015647
 20
-162.9652348531413
 30
0.0
 11
5172.913854703147
 21
-161.1303349507975
 31
0.0
  0
LINE
  5
B6CE
330
18
100
AcDbEntity
  8
01
100
AcDbLine
 10
5172.913854703147
 20
-161.1303349507975
 30
0.0
 11
5172.847837552268
 21
-159.2943364156413
 31
0.0
  0
LINE
  5
B6CF
330
18
100
AcDbEntity
  8
01
100
AcDbLine
 10
5172.847837552268
 20
-159.2943364156413
 30
0.0
 11
5172.804121121604
 21
-157.4576817525553
 31
0.0
  0
LINE
  5
B6D0
330
18
100
AcDbEntity
  8
01
100
AcDbLine
 10
5172.804121121604
 20
-157.4576817525553
 30
0.0
 11
5172.779195889671
 21
-155.62069139611
 31
0.0
  0
LINE
  5
B6D1
330
18
100
AcDbEntity
  8
01
100
AcDbLine
 10
5172.779195889671
 20
-155.62069139611
 30
0.0
 11
5172.768598660667
 21
-153.7835484517741
 31
0.0
  0
LINE
  5
B6D2
330
18
100
AcDbEntity
  8
01
100
AcDbLine
 10
5172.768598660667
 20
-153.7835484517741
 30
0.0
 11
5172.766485318381
 21
-151.9022770894694
 31
0.0
  0
LINE
  5
B6D3
330
18
100
AcDbEntity
  8
01
100
AcDbLine
 10
5089.919124034703
 20
-291.9202154224414
 30
0.0
 11
5091.153331188023
 21
-292.0643652027148
 31
0.0
  0
LINE
  5
B6D4
330
18
100
AcDbEntity
  8
01
100
AcDbLine
 10
5091.153331188023
 20
-292.0643652027148
 30
0.0
 11
5092.363276866734
 21
-292.3467367237109
 31
0.0
  0
LINE
  5
B6D5
330
18
100
AcDbEntity
  8
01
100
AcDbLine
 10
5092.363276866734
 20
-292.3467367237109
 30
0.0
 11
5093.533671764195
 21
-292.7634313648242
 31
0.0
  0
LINE
  5
B6D6
330
18
100
AcDbEntity
  8
01
100
AcDbLine
 10
5093.533671764195
 20
-292.7634313648242
 30
0.0
 11
5094.649699596226
 21
-293.3093374317187
 31
0.0
  0
LINE
  5
B6D7
330
18
100
AcDbEntity
  8
01
100
AcDbLine
 10
5094.649699596226
 20
-293.3093374317187
 30
0.0
 11
5095.697017101109
 21
-293.9776075428027
 31
0.0
  0
LINE
  5
B6D8
330
18
100
AcDbEntity
  8
01
100
AcDbLine
 10
5095.697017101109
 20
-293.9776075428027
 30
0.0
 11
5096.662288097203
 21
-294.7596777027148
 31
0.0
  0
LINE
  5
B6D9
330
18
100
AcDbEntity
  8
01
100
AcDbLine
 10
5096.662288097203
 20
-294.7596777027148
 30
0.0
 11
5097.533290294468
 21
-295.6455076282519
 31
0.0
  0
LINE
  5
B6DA
330
18
100
AcDbEntity
  8
01
100
AcDbLine
 10
5097.533290294468
 20
-295.6455076282519
 30
0.0
 11
5098.299022105992
 21
-296.623794371416
 31
0.0
  0
LINE
  5
B6DB
330
18
100
AcDbEntity
  8
01
100
AcDbLine
 10
5098.299022105992
 20
-296.623794371416
 30
0.0
 11
5098.949733165562
 21
-297.6821783130664
 31
0.0
  0
LINE
  5
B6DC
330
18
100
AcDbEntity
  8
01
100
AcDbLine
 10
5098.949733165562
 20
-297.6821783130664
 30
0.0
 11
5099.476970104039
 21
-298.807273680498
 31
0.0
  0
LINE
  5
B6DD
330
18
100
AcDbEntity
  8
01
100
AcDbLine
 10
5099.476970104039
 20
-298.807273680498
 30
0.0
 11
5099.873866466343
 21
-299.9847295825977
 31
0.0
  0
LINE
  5
B6DE
330
18
100
AcDbEntity
  8
01
100
AcDbLine
 10
5099.873866466343
 20
-299.9847295825977
 30
0.0
 11
5100.135432628453
 21
-301.1994741504687
 31
0.0
  0
LINE
  5
B6DF
330
18
100
AcDbEntity
  8
01
100
AcDbLine
 10
5100.135432628453
 20
-301.1994741504687
 30
0.0
 11
5100.261119273961
 21
-302.5166585987109
 31
0.0
  0
LINE
  5
B6E0
330
18
100
AcDbEntity
  8
01
100
AcDbLine
 10
5100.261119273961
 20
-302.5166547840137
 30
0.0
 11
5100.26113453275
 21
-302.517535979082
 31
0.0
  0
LINE
  5
B6E1
330
18
100
AcDbEntity
  8
01
100
AcDbLine
 10
5100.26113453275
 20
-302.517535979082
 30
0.0
 11
5100.261119273961
 21
-302.5176389759082
 31
0.0
  0
LINE
  5
B6E2
330
18
100
AcDbEntity
  8
01
100
AcDbLine
 10
5100.261119273961
 20
-302.5176389759082
 30
0.0
 11
5100.261104015171
 21
-302.5177190845508
 31
0.0
  0
LINE
  5
B6E3
330
18
100
AcDbEntity
  8
01
100
AcDbLine
 10
5100.261104015171
 20
-302.5177190845508
 30
0.0
 11
5100.261073497593
 21
-302.5177877491016
 31
0.0
  0
LINE
  5
B6E4
330
18
100
AcDbEntity
  8
01
100
AcDbLine
 10
5100.261073497593
 20
-302.5177877491016
 30
0.0
 11
5100.261012462437
 21
-302.5178411548633
 31
0.0
  0
LINE
  5
B6E5
330
18
100
AcDbEntity
  8
01
100
AcDbLine
 10
5100.261119273961
 20
-302.5166585987109
 30
0.0
 11
5100.258387950718
 21
-302.5067632740039
 31
0.0
  0
LINE
  5
B6E6
330
18
100
AcDbEntity
  8
01
100
AcDbLine
 10
5100.258387950718
 20
-302.5067632740039
 30
0.0
 11
5100.244594005406
 21
-302.4978330677051
 31
0.0
  0
LINE
  5
B6E7
330
18
100
AcDbEntity
  8
01
100
AcDbLine
 10
5100.244594005406
 20
-302.4978330677051
 30
0.0
 11
5100.208598522007
 21
-302.4824750965137
 31
0.0
  0
LINE
  5
B6E8
330
18
100
AcDbEntity
  8
01
100
AcDbLine
 10
5100.208598522007
 20
-302.4824750965137
 30
0.0
 11
5100.137935069859
 21
-302.4534719532031
 31
0.0
  0
LINE
  5
B6E9
330
18
100
AcDbEntity
  8
01
100
AcDbLine
 10
5100.137935069859
 20
-302.4534719532031
 30
0.0
 11
5100.018550304234
 21
-302.4039571826953
 31
0.0
  0
LINE
  5
B6EA
330
18
100
AcDbEntity
  8
01
100
AcDbLine
 10
5100.018550304234
 20
-302.4039571826953
 30
0.0
 11
5099.834407237828
 21
-302.3286550586719
 31
0.0
  0
LINE
  5
B6EB
330
18
100
AcDbEntity
  8
01
100
AcDbLine
 10
5099.834407237828
 20
-302.3286550586719
 30
0.0
 11
5099.568385509312
 21
-302.2227819507617
 31
0.0
  0
LINE
  5
B6EC
330
18
100
AcDbEntity
  8
01
100
AcDbLine
 10
5099.568385509312
 20
-302.2227819507617
 30
0.0
 11
5099.202144054234
 21
-302.0810964649219
 31
0.0
  0
LINE
  5
B6ED
330
18
100
AcDbEntity
  8
01
100
AcDbLine
 10
5099.202144054234
 20
-302.0810964649219
 30
0.0
 11
5098.717646983921
 21
-301.8975217884082
 31
0.0
  0
LINE
  5
B6EE
330
18
100
AcDbEntity
  8
01
100
AcDbLine
 10
5098.717646983921
 20
-301.8975217884082
 30
0.0
 11
5098.099482921421
 21
-301.6682241504687
 31
0.0
  0
LINE
  5
B6EF
330
18
100
AcDbEntity
  8
01
100
AcDbLine
 10
5098.099482921421
 20
-301.6682241504687
 30
0.0
 11
5097.337108043492
 21
-301.392291838457
 31
0.0
  0
LINE
  5
B6F0
330
18
100
AcDbEntity
  8
01
100
AcDbLine
 10
5097.337108043492
 20
-301.392291838457
 30
0.0
 11
5096.427653697789
 21
-301.0718992298144
 31
0.0
  0
LINE
  5
B6F1
330
18
100
AcDbEntity
  8
01
100
AcDbLine
 10
5096.427653697789
 20
-301.0718992298144
 30
0.0
 11
5095.376231578648
 21
-300.7121885364551
 31
0.0
  0
LINE
  5
B6F2
330
18
100
AcDbEntity
  8
01
100
AcDbLine
 10
5095.376231578648
 20
-300.7121885364551
 30
0.0
 11
5094.195063976109
 21
-300.3205068653125
 31
0.0
  0
LINE
  5
B6F3
330
18
100
AcDbEntity
  8
01
100
AcDbLine
 10
5094.195063976109
 20
-300.3205068653125
 30
0.0
 11
5092.900157359898
 21
-299.9048955982227
 31
0.0
  0
LINE
  5
B6F4
330
18
100
AcDbEntity
  8
01
100
AcDbLine
 10
5092.900157359898
 20
-299.9048955982227
 30
0.0
 11
5091.508601573765
 21
-299.4730985706348
 31
0.0
  0
LINE
  5
B6F5
330
18
100
AcDbEntity
  8
01
100
AcDbLine
 10
5091.508601573765
 20
-299.4730985706348
 30
0.0
 11
5090.037211803257
 21
-299.0325010364551
 31
0.0
  0
LINE
  5
B6F6
330
18
100
AcDbEntity
  8
01
100
AcDbLine
 10
5090.037211803257
 20
-299.0325010364551
 30
0.0
 11
5088.499827770054
 21
-298.5889623706836
 31
0.0
  0
LINE
  5
B6F7
330
18
100
AcDbEntity
  8
01
100
AcDbLine
 10
5088.499827770054
 20
-298.5889623706836
 30
0.0
 11
5086.908564952671
 21
-298.1475065296191
 31
0.0
  0
LINE
  5
B6F8
330
18
100
AcDbEntity
  8
01
100
AcDbLine
 10
5086.908564952671
 20
-298.1475065296191
 30
0.0
 11
5085.272792247593
 21
-297.7118833606738
 31
0.0
  0
LINE
  5
B6F9
330
18
100
AcDbEntity
  8
01
100
AcDbLine
 10
5085.272792247593
 20
-297.7118833606738
 30
0.0
 11
5083.600474742711
 21
-297.2852895801562
 31
0.0
  0
LINE
  5
B6FA
330
18
100
AcDbEntity
  8
01
100
AcDbLine
 10
5083.600474742711
 20
-297.2852895801562
 30
0.0
 11
5081.897624400914
 21
-296.8702390735644
 31
0.0
  0
LINE
  5
B6FB
330
18
100
AcDbEntity
  8
01
100
AcDbLine
 10
5081.897624400914
 20
-296.8702390735644
 30
0.0
 11
5080.169291881382
 21
-296.4689024036426
 31
0.0
  0
LINE
  5
B6FC
330
18
100
AcDbEntity
  8
01
100
AcDbLine
 10
5080.169291881382
 20
-296.4689024036426
 30
0.0
 11
5078.419261363804
 21
-296.082908446123
 31
0.0
  0
LINE
  5
B6FD
330
18
100
AcDbEntity
  8
01
100
AcDbLine
 10
5078.419261363804
 20
-296.082908446123
 30
0.0
 11
5076.650767711461
 21
-295.7136838977832
 31
0.0
  0
LINE
  5
B6FE
330
18
100
AcDbEntity
  8
01
100
AcDbLine
 10
5076.650767711461
 20
-295.7136838977832
 30
0.0
 11
5074.866328624546
 21
-295.3623769825
 31
0.0
  0
LINE
  5
B6FF
330
18
100
AcDbEntity
  8
01
100
AcDbLine
 10
5074.866328624546
 20
-295.3623769825
 30
0.0
 11
5073.068110851109
 21
-295.0300596302051
 31
0.0
  0
LINE
  5
B700
330
18
100
AcDbEntity
  8
01
100
AcDbLine
 10
5073.068110851109
 20
-295.0300596302051
 30
0.0
 11
5071.257914928257
 21
-294.7177007740039
 31
0.0
  0
LINE
  5
B701
330
18
100
AcDbEntity
  8
01
100
AcDbLine
 10
5071.257914928257
 20
-294.7177007740039
 30
0.0
 11
5069.437220958531
 21
-294.426227385332
 31
0.0
  0
LINE
  5
B702
330
18
100
AcDbEntity
  8
01
100
AcDbLine
 10
5069.437220958531
 20
-294.426227385332
 30
0.0
 11
5067.607127574742
 21
-294.156509215166
 31
0.0
  0
LINE
  5
B703
330
18
100
AcDbEntity
  8
01
100
AcDbLine
 10
5067.607127574742
 20
-294.156509215166
 30
0.0
 11
5065.768748668492
 21
-293.9094236438769
 31
0.0
  0
LINE
  5
B704
330
18
100
AcDbEntity
  8
01
100
AcDbLine
 10
5065.768748668492
 20
-293.9094236438769
 30
0.0
 11
5063.923228648961
 21
-293.6858289783496
 31
0.0
  0
LINE
  5
B705
330
18
100
AcDbEntity
  8
01
100
AcDbLine
 10
5063.923228648961
 20
-293.6858289783496
 30
0.0
 11
5062.071574596226
 21
-293.4865072315234
 31
0.0
  0
LINE
  5
B706
330
18
100
AcDbEntity
  8
01
100
AcDbLine
 10
5062.071574596226
 20
-293.4865072315234
 30
0.0
 11
5060.214717296421
 21
-293.3121107166309
 31
0.0
  0
LINE
  5
B707
330
18
100
AcDbEntity
  8
01
100
AcDbLine
 10
5060.214717296421
 20
-293.3121107166309
 30
0.0
 11
5058.35357227689
 21
-293.1632917469043
 31
0.0
  0
LINE
  5
B708
330
18
100
AcDbEntity
  8
01
100
AcDbLine
 10
5058.35357227689
 20
-293.1632917469043
 30
0.0
 11
5056.489085582554
 21
-293.0406797473926
 31
0.0
  0
LINE
  5
B709
330
18
100
AcDbEntity
  8
01
100
AcDbLine
 10
5056.489085582554
 20
-293.0406797473926
 30
0.0
 11
5054.622264293492
 21
-292.9441602771777
 31
0.0
  0
LINE
  5
B70A
330
18
100
AcDbEntity
  8
01
100
AcDbLine
 10
5054.622264293492
 20
-292.9441602771777
 30
0.0
 11
5052.75429859525
 21
-292.8725202625293
 31
0.0
  0
LINE
  5
B70B
330
18
100
AcDbEntity
  8
01
100
AcDbLine
 10
5052.75429859525
 20
-292.8725202625293
 30
0.0
 11
5050.886409190953
 21
-292.8244436328906
 31
0.0
  0
LINE
  5
B70C
330
18
100
AcDbEntity
  8
01
100
AcDbLine
 10
5050.886409190953
 20
-292.8244436328906
 30
0.0
 11
5049.020030406773
 21
-292.7974966114062
 31
0.0
  0
LINE
  5
B70D
330
18
100
AcDbEntity
  8
01
100
AcDbLine
 10
5049.020030406773
 20
-292.7974966114062
 30
0.0
 11
5047.157161144078
 21
-292.7868650501269
 31
0.0
  0
LINE
  5
B70E
330
18
100
AcDbEntity
  8
01
100
AcDbLine
 10
5047.157161144078
 20
-292.7868650501269
 30
0.0
 11
5045.267848399937
 21
-292.7848737781543
 31
0.0
  0
LINE
  5
B70F
330
18
100
AcDbEntity
  8
01
100
AcDbLine
 10
5089.919124034703
 20
-313.8816907947559
 30
0.0
 11
5091.153331188023
 21
-313.7375410144824
 31
0.0
  0
LINE
  5
B710
330
18
100
AcDbEntity
  8
01
100
AcDbLine
 10
5091.153331188023
 20
-313.7375410144824
 30
0.0
 11
5092.363276866734
 21
-313.4551694934863
 31
0.0
  0
LINE
  5
B711
330
18
100
AcDbEntity
  8
01
100
AcDbLine
 10
5092.363276866734
 20
-313.4551694934863
 30
0.0
 11
5093.533671764195
 21
-313.038474852373
 31
0.0
  0
LINE
  5
B712
330
18
100
AcDbEntity
  8
01
100
AcDbLine
 10
5093.533671764195
 20
-313.038474852373
 30
0.0
 11
5094.649699596226
 21
-312.4925726001758
 31
0.0
  0
LINE
  5
B713
330
18
100
AcDbEntity
  8
01
100
AcDbLine
 10
5094.649699596226
 20
-312.4925726001758
 30
0.0
 11
5095.697017101109
 21
-311.8242986743945
 31
0.0
  0
LINE
  5
B714
330
18
100
AcDbEntity
  8
01
100
AcDbLine
 10
5095.697017101109
 20
-311.8242986743945
 30
0.0
 11
5096.662288097203
 21
-311.0422285144824
 31
0.0
  0
LINE
  5
B715
330
18
100
AcDbEntity
  8
01
100
AcDbLine
 10
5096.662288097203
 20
-311.0422285144824
 30
0.0
 11
5097.533290294468
 21
-310.1563985889453
 31
0.0
  0
LINE
  5
B716
330
18
100
AcDbEntity
  8
01
100
AcDbLine
 10
5097.533290294468
 20
-310.1563985889453
 30
0.0
 11
5098.299022105992
 21
-309.1781118457812
 31
0.0
  0
LINE
  5
B717
330
18
100
AcDbEntity
  8
01
100
AcDbLine
 10
5098.299022105992
 20
-309.1781118457812
 30
0.0
 11
5098.949733165562
 21
-308.1197279041309
 31
0.0
  0
LINE
  5
B718
330
18
100
AcDbEntity
  8
01
100
AcDbLine
 10
5098.949733165562
 20
-308.1197279041309
 30
0.0
 11
5099.476970104039
 21
-306.9946325366992
 31
0.0
  0
LINE
  5
B719
330
18
100
AcDbEntity
  8
01
100
AcDbLine
 10
5099.476970104039
 20
-306.9946325366992
 30
0.0
 11
5099.873866466343
 21
-305.8171766345996
 31
0.0
  0
LINE
  5
B71A
330
18
100
AcDbEntity
  8
01
100
AcDbLine
 10
5099.873866466343
 20
-305.8171766345996
 30
0.0
 11
5100.135432628453
 21
-304.6024320667285
 31
0.0
  0
LINE
  5
B71B
330
18
100
AcDbEntity
  8
01
100
AcDbLine
 10
5100.135432628453
 20
-304.6024320667285
 30
0.0
 11
5100.261119273961
 21
-303.2852476184863
 31
0.0
  0
LINE
  5
B71C
330
18
100
AcDbEntity
  8
01
100
AcDbLine
 10
5100.261119273961
 20
-303.2852514331836
 30
0.0
 11
5100.26113453275
 21
-303.2843702381152
 31
0.0
  0
LINE
  5
B71D
330
18
100
AcDbEntity
  8
01
100
AcDbLine
 10
5100.26113453275
 20
-303.2843702381152
 30
0.0
 11
5100.261119273961
 21
-303.2842672412891
 31
0.0
  0
LINE
  5
B71E
330
18
100
AcDbEntity
  8
01
100
AcDbLine
 10
5100.261119273961
 20
-303.2842672412891
 30
0.0
 11
5100.261104015171
 21
-303.2841871326465
 31
0.0
  0
LINE
  5
B71F
330
18
100
AcDbEntity
  8
01
100
AcDbLine
 10
5100.261104015171
 20
-303.2841871326465
 30
0.0
 11
5100.261073497593
 21
-303.2841184680957
 31
0.0
  0
LINE
  5
B720
330
18
100
AcDbEntity
  8
01
100
AcDbLine
 10
5100.261073497593
 20
-303.2841184680957
 30
0.0
 11
5100.261012462437
 21
-303.284065062334
 31
0.0
  0
LINE
  5
B721
330
18
100
AcDbEntity
  8
01
100
AcDbLine
 10
5100.261119273961
 20
-303.2852476184863
 30
0.0
 11
5100.258387950718
 21
-303.2951429431934
 31
0.0
  0
LINE
  5
B722
330
18
100
AcDbEntity
  8
01
100
AcDbLine
 10
5100.258387950718
 20
-303.2951429431934
 30
0.0
 11
5100.244594005406
 21
-303.3040731494922
 31
0.0
  0
LINE
  5
B723
330
18
100
AcDbEntity
  8
01
100
AcDbLine
 10
5100.244594005406
 20
-303.3040731494922
 30
0.0
 11
5100.208598522007
 21
-303.3194311206836
 31
0.0
  0
LINE
  5
B724
330
18
100
AcDbEntity
  8
01
100
AcDbLine
 10
5100.208598522007
 20
-303.3194311206836
 30
0.0
 11
5100.137935069859
 21
-303.3484342639941
 31
0.0
  0
LINE
  5
B725
330
18
100
AcDbEntity
  8
01
100
AcDbLine
 10
5100.137935069859
 20
-303.3484342639941
 30
0.0
 11
5100.018550304234
 21
-303.3979490345019
 31
0.0
  0
LINE
  5
B726
330
18
100
AcDbEntity
  8
01
100
AcDbLine
 10
5100.018550304234
 20
-303.3979490345019
 30
0.0
 11
5099.834407237828
 21
-303.4732511585254
 31
0.0
  0
LINE
  5
B727
330
18
100
AcDbEntity
  8
01
100
AcDbLine
 10
5099.834407237828
 20
-303.4732511585254
 30
0.0
 11
5099.568385509312
 21
-303.5791242664355
 31
0.0
  0
LINE
  5
B728
330
18
100
AcDbEntity
  8
01
100
AcDbLine
 10
5099.568385509312
 20
-303.5791242664355
 30
0.0
 11
5099.202144054234
 21
-303.7208097522754
 31
0.0
  0
LINE
  5
B729
330
18
100
AcDbEntity
  8
01
100
AcDbLine
 10
5099.202144054234
 20
-303.7208097522754
 30
0.0
 11
5098.717646983921
 21
-303.9043844287891
 31
0.0
  0
LINE
  5
B72A
330
18
100
AcDbEntity
  8
01
100
AcDbLine
 10
5098.717646983921
 20
-303.9043844287891
 30
0.0
 11
5098.099482921421
 21
-304.1336820667285
 31
0.0
  0
LINE
  5
B72B
330
18
100
AcDbEntity
  8
01
100
AcDbLine
 10
5098.099482921421
 20
-304.1336820667285
 30
0.0
 11
5097.337108043492
 21
-304.409610564043
 31
0.0
  0
LINE
  5
B72C
330
18
100
AcDbEntity
  8
01
100
AcDbLine
 10
5097.337108043492
 20
-304.409610564043
 30
0.0
 11
5096.427653697789
 21
-304.7300031726855
 31
0.0
  0
LINE
  5
B72D
330
18
100
AcDbEntity
  8
01
100
AcDbLine
 10
5096.427653697789
 20
-304.7300031726855
 30
0.0
 11
5095.376231578648
 21
-305.0897176807422
 31
0.0
  0
LINE
  5
B72E
330
18
100
AcDbEntity
  8
01
100
AcDbLine
 10
5095.376231578648
 20
-305.0897176807422
 30
0.0
 11
5094.195063976109
 21
-305.4813955371875
 31
0.0
  0
LINE
  5
B72F
330
18
100
AcDbEntity
  8
01
100
AcDbLine
 10
5094.195063976109
 20
-305.4813955371875
 30
0.0
 11
5092.900157359898
 21
-305.8970068042773
 31
0.0
  0
LINE
  5
B730
330
18
100
AcDbEntity
  8
01
100
AcDbLine
 10
5092.900157359898
 20
-305.8970068042773
 30
0.0
 11
5091.508601573765
 21
-306.3288038318652
 31
0.0
  0
LINE
  5
B731
330
18
100
AcDbEntity
  8
01
100
AcDbLine
 10
5091.508601573765
 20
-306.3288038318652
 30
0.0
 11
5090.037211803257
 21
-306.7694051807422
 31
0.0
  0
LINE
  5
B732
330
18
100
AcDbEntity
  8
01
100
AcDbLine
 10
5090.037211803257
 20
-306.7694051807422
 30
0.0
 11
5088.499827770054
 21
-307.2129438465137
 31
0.0
  0
LINE
  5
B733
330
18
100
AcDbEntity
  8
01
100
AcDbLine
 10
5088.499827770054
 20
-307.2129438465137
 30
0.0
 11
5086.908564952671
 21
-307.6543958728809
 31
0.0
  0
LINE
  5
B734
330
18
100
AcDbEntity
  8
01
100
AcDbLine
 10
5086.908564952671
 20
-307.6543958728809
 30
0.0
 11
5085.272792247593
 21
-308.0900190418262
 31
0.0
  0
LINE
  5
B735
330
18
100
AcDbEntity
  8
01
100
AcDbLine
 10
5085.272792247593
 20
-308.0900190418262
 30
0.0
 11
5083.600474742711
 21
-308.5166128223437
 31
0.0
  0
LINE
  5
B736
330
18
100
AcDbEntity
  8
01
100
AcDbLine
 10
5083.600474742711
 20
-308.5166128223437
 30
0.0
 11
5081.897624400914
 21
-308.9316633289355
 31
0.0
  0
LINE
  5
B737
330
18
100
AcDbEntity
  8
01
100
AcDbLine
 10
5081.897624400914
 20
-308.9316633289355
 30
0.0
 11
5080.169291881382
 21
-309.3330038135547
 31
0.0
  0
LINE
  5
B738
330
18
100
AcDbEntity
  8
01
100
AcDbLine
 10
5080.169291881382
 20
-309.3330038135547
 30
0.0
 11
5078.419261363804
 21
-309.7189939563769
 31
0.0
  0
LINE
  5
B739
330
18
100
AcDbEntity
  8
01
100
AcDbLine
 10
5078.419261363804
 20
-309.7189939563769
 30
0.0
 11
5076.650767711461
 21
-310.0882185047168
 31
0.0
  0
LINE
  5
B73A
330
18
100
AcDbEntity
  8
01
100
AcDbLine
 10
5076.650767711461
 20
-310.0882185047168
 30
0.0
 11
5074.866328624546
 21
-310.43952542
 31
0.0
  0
LINE
  5
B73B
330
18
100
AcDbEntity
  8
01
100
AcDbLine
 10
5074.866328624546
 20
-310.43952542
 30
0.0
 11
5073.068110851109
 21
-310.7718465869922
 31
0.0
  0
LINE
  5
B73C
330
18
100
AcDbEntity
  8
01
100
AcDbLine
 10
5073.068110851109
 20
-310.7718465869922
 30
0.0
 11
5071.257914928257
 21
-311.0842054431934
 31
0.0
  0
LINE
  5
B73D
330
18
100
AcDbEntity
  8
01
100
AcDbLine
 10
5071.257914928257
 20
-311.0842054431934
 30
0.0
 11
5069.437220958531
 21
-311.3756788318652
 31
0.0
  0
LINE
  5
B73E
330
18
100
AcDbEntity
  8
01
100
AcDbLine
 10
5069.437220958531
 20
-311.3756788318652
 30
0.0
 11
5067.607127574742
 21
-311.645393187334
 31
0.0
  0
LINE
  5
B73F
330
18
100
AcDbEntity
  8
01
100
AcDbLine
 10
5067.607127574742
 20
-311.645393187334
 30
0.0
 11
5065.768748668492
 21
-311.892478758623
 31
0.0
  0
LINE
  5
B740
330
18
100
AcDbEntity
  8
01
100
AcDbLine
 10
5065.768748668492
 20
-311.892478758623
 30
0.0
 11
5063.923228648961
 21
-312.1160734241504
 31
0.0
  0
LINE
  5
B741
330
18
100
AcDbEntity
  8
01
100
AcDbLine
 10
5063.923228648961
 20
-312.1160734241504
 30
0.0
 11
5062.071574596226
 21
-312.3153951709766
 31
0.0
  0
LINE
  5
B742
330
18
100
AcDbEntity
  8
01
100
AcDbLine
 10
5062.071574596226
 20
-312.3153951709766
 30
0.0
 11
5060.214717296421
 21
-312.4897916858691
 31
0.0
  0
LINE
  5
B743
330
18
100
AcDbEntity
  8
01
100
AcDbLine
 10
5060.214717296421
 20
-312.4897916858691
 30
0.0
 11
5058.35357227689
 21
-312.6386125629443
 31
0.0
  0
LINE
  5
B744
330
18
100
AcDbEntity
  8
01
100
AcDbLine
 10
5058.35357227689
 20
-312.6386125629443
 30
0.0
 11
5056.489085582554
 21
-312.7612245624561
 31
0.0
  0
LINE
  5
B745
330
18
100
AcDbEntity
  8
01
100
AcDbLine
 10
5056.489085582554
 20
-312.7612245624561
 30
0.0
 11
5054.622264293492
 21
-312.8577421253223
 31
0.0
  0
LINE
  5
B746
330
18
100
AcDbEntity
  8
01
100
AcDbLine
 10
5054.622264293492
 20
-312.8577421253223
 30
0.0
 11
5052.75429859525
 21
-312.9293821399707
 31
0.0
  0
LINE
  5
B747
330
18
100
AcDbEntity
  8
01
100
AcDbLine
 10
5052.75429859525
 20
-312.9293821399707
 30
0.0
 11
5050.886409190953
 21
-312.9774587696094
 31
0.0
  0
LINE
  5
B748
330
18
100
AcDbEntity
  8
01
100
AcDbLine
 10
5050.886409190953
 20
-312.9774587696094
 30
0.0
 11
5049.020030406773
 21
-313.0044076984424
 31
0.0
  0
LINE
  5
B749
330
18
100
AcDbEntity
  8
01
100
AcDbLine
 10
5049.020030406773
 20
-313.0044076984424
 30
0.0
 11
5047.157161144078
 21
-313.0150392597217
 31
0.0
  0
LINE
  5
B74A
330
18
100
AcDbEntity
  8
01
100
AcDbLine
 10
5047.157161144078
 20
-313.0150392597217
 30
0.0
 11
5045.267848399937
 21
-313.0170286243457
 31
0.0
  0
LINE
  5
B74B
330
18
100
AcDbEntity
  8
01
100
AcDbLine
 10
5047.367930797398
 20
-313.9010389392871
 30
0.0
 11
5047.447520641148
 21
-313.8971574848193
 31
0.0
  0
LINE
  5
B74C
330
18
100
AcDbEntity
  8
01
100
AcDbLine
 10
5047.447520641148
 20
-313.8971574848193
 30
0.0
 11
5047.682170299351
 21
-313.8872163837451
 31
0.0
  0
LINE
  5
B74D
330
18
100
AcDbEntity
  8
01
100
AcDbLine
 10
5047.682170299351
 20
-313.8872163837451
 30
0.0
 11
5048.061458019078
 21
-313.8730466907519
 31
0.0
  0
LINE
  5
B74E
330
18
100
AcDbEntity
  8
01
100
AcDbLine
 10
5048.061458019078
 20
-313.8730466907519
 30
0.0
 11
5048.566920665562
 21
-313.8569887226123
 31
0.0
  0
LINE
  5
B74F
330
18
100
AcDbEntity
  8
01
100
AcDbLine
 10
5048.566920665562
 20
-313.8569887226123
 30
0.0
 11
5049.175471690953
 21
-313.8414724414844
 31
0.0
  0
LINE
  5
B750
330
18
100
AcDbEntity
  8
01
100
AcDbLine
 10
5049.175471690953
 20
-313.8414724414844
 30
0.0
 11
5049.858638194859
 21
-313.8286130970019
 31
0.0
  0
LINE
  5
B751
330
18
100
AcDbEntity
  8
01
100
AcDbLine
 10
5049.858638194859
 20
-313.8286130970019
 30
0.0
 11
5050.584483531773
 21
-313.8202398365039
 31
0.0
  0
LINE
  5
B752
330
18
100
AcDbEntity
  8
01
100
AcDbLine
 10
5050.584483531773
 20
-313.8202398365039
 30
0.0
 11
5051.318995860875
 21
-313.8174665515918
 31
0.0
  0
LINE
  5
B753
330
18
100
AcDbEntity
  8
01
100
AcDbLine
 10
5051.318995860875
 20
-313.8174665515918
 30
0.0
 11
5052.027614024937
 21
-313.8208635395068
 31
0.0
  0
LINE
  5
B754
330
18
100
AcDbEntity
  8
01
100
AcDbLine
 10
5052.027614024937
 20
-313.8208635395068
 30
0.0
 11
5052.677394298375
 21
-313.8300607746143
 31
0.0
  0
LINE
  5
B755
330
18
100
AcDbEntity
  8
01
100
AcDbLine
 10
5052.677394298375
 20
-313.8300607746143
 30
0.0
 11
5053.237483409703
 21
-313.844102675249
 31
0.0
  0
LINE
  5
B756
330
18
100
AcDbEntity
  8
01
100
AcDbLine
 10
5053.237483409703
 20
-313.844102675249
 30
0.0
 11
5053.682292369664
 21
-313.860984617998
 31
0.0
  0
LINE
  5
B757
330
18
100
AcDbEntity
  8
01
100
AcDbLine
 10
5053.682292369664
 20
-313.860984617998
 30
0.0
 11
5053.99045887357
 21
-313.8783052509326
 31
0.0
  0
LINE
  5
B758
330
18
100
AcDbEntity
  8
01
100
AcDbLine
 10
5053.99045887357
 20
-313.8783052509326
 30
0.0
 11
5054.148311046421
 21
-313.8932283466357
 31
0.0
  0
LINE
  5
B759
330
18
100
AcDbEntity
  8
01
100
AcDbLine
 10
5054.148311046421
 20
-313.8932283466357
 30
0.0
 11
5054.14785328275
 21
-313.9032571857471
 31
0.0
  0
LINE
  5
B75A
330
18
100
AcDbEntity
  8
01
100
AcDbLine
 10
5054.14785328275
 20
-313.9032571857471
 30
0.0
 11
5053.989695934117
 21
-313.9066770618457
 31
0.0
  0
LINE
  5
B75B
330
18
100
AcDbEntity
  8
01
100
AcDbLine
 10
5053.989695934117
 20
-313.9066770618457
 30
0.0
 11
5053.680781749546
 21
-313.9030073230762
 31
0.0
  0
LINE
  5
B75C
330
18
100
AcDbEntity
  8
01
100
AcDbLine
 10
5053.680781749546
 20
-313.9030073230762
 30
0.0
 11
5053.235972789586
 21
-313.8934381549853
 31
0.0
  0
LINE
  5
B75D
330
18
100
AcDbEntity
  8
01
100
AcDbLine
 10
5053.235972789586
 20
-313.8934381549853
 30
0.0
 11
5052.675807384312
 21
-313.8802373950977
 31
0.0
  0
LINE
  5
B75E
330
18
100
AcDbEntity
  8
01
100
AcDbLine
 10
5052.675807384312
 20
-313.8802373950977
 30
0.0
 11
5052.02659168607
 21
-313.8666914051074
 31
0.0
  0
LINE
  5
B75F
330
18
100
AcDbEntity
  8
01
100
AcDbLine
 10
5052.02659168607
 20
-313.8666914051074
 30
0.0
 11
5051.318446544468
 21
-313.855691725542
 31
0.0
  0
LINE
  5
B760
330
18
100
AcDbEntity
  8
01
100
AcDbLine
 10
5051.318446544468
 20
-313.855691725542
 30
0.0
 11
5050.584575084507
 21
-313.8496263568896
 31
0.0
  0
LINE
  5
B761
330
18
100
AcDbEntity
  8
01
100
AcDbLine
 10
5050.584575084507
 20
-313.8496263568896
 30
0.0
 11
5049.859126476109
 21
-313.8495119159717
 31
0.0
  0
LINE
  5
B762
330
18
100
AcDbEntity
  8
01
100
AcDbLine
 10
5049.859126476109
 20
-313.8495119159717
 30
0.0
 11
5049.176356700718
 21
-313.8552434986133
 31
0.0
  0
LINE
  5
B763
330
18
100
AcDbEntity
  8
01
100
AcDbLine
 10
5049.176356700718
 20
-313.8552434986133
 30
0.0
 11
5048.567729381382
 21
-313.8653619831103
 31
0.0
  0
LINE
  5
B764
330
18
100
AcDbEntity
  8
01
100
AcDbLine
 10
5048.567729381382
 20
-313.8653619831103
 30
0.0
 11
5048.062266734898
 21
-313.8777273242969
 31
0.0
  0
LINE
  5
B765
330
18
100
AcDbEntity
  8
01
100
AcDbLine
 10
5048.062266734898
 20
-313.8777273242969
 30
0.0
 11
5047.682902721226
 21
-313.8895567005176
 31
0.0
  0
LINE
  5
B766
330
18
100
AcDbEntity
  8
01
100
AcDbLine
 10
5047.682902721226
 20
-313.8895567005176
 30
0.0
 11
5047.448222545445
 21
-313.8980444019336
 31
0.0
  0
LINE
  5
B767
330
18
100
AcDbEntity
  8
01
100
AcDbLine
 10
5047.448222545445
 20
-313.8980444019336
 30
0.0
 11
5047.367930797398
 21
-313.9010389392871
 31
0.0
  0
LINE
  5
B768
330
18
100
AcDbEntity
  8
01
100
AcDbLine
 10
5089.173045543492
 20
-313.90121632271
 30
0.0
 11
5089.105769542515
 21
-313.9020765369434
 31
0.0
  0
LINE
  5
B769
330
18
100
AcDbEntity
  8
01
100
AcDbLine
 10
5089.105769542515
 20
-313.9020765369434
 30
0.0
 11
5088.910777477086
 21
-313.9055631702441
 31
0.0
  0
LINE
  5
B76A
330
18
100
AcDbEntity
  8
01
100
AcDbLine
 10
5088.910777477086
 20
-313.9055631702441
 30
0.0
 11
5088.655574230015
 21
-313.9122999256152
 31
0.0
  0
LINE
  5
B76B
330
18
100
AcDbEntity
  8
01
100
AcDbLine
 10
5088.655574230015
 20
-313.9122999256152
 30
0.0
 11
5088.261760143101
 21
-313.9265726154346
 31
0.0
  0
LINE
  5
B76C
330
18
100
AcDbEntity
  8
01
100
AcDbLine
 10
5088.261760143101
 20
-313.9265726154346
 30
0.0
 11
5087.713633922398
 21
-313.95004444771
 31
0.0
  0
LINE
  5
B76D
330
18
100
AcDbEntity
  8
01
100
AcDbLine
 10
5087.713633922398
 20
-313.95004444771
 30
0.0
 11
5087.020182994664
 21
-313.9815786426562
 31
0.0
  0
LINE
  5
B76E
330
18
100
AcDbEntity
  8
01
100
AcDbLine
 10
5087.020182994664
 20
-313.9815786426562
 30
0.0
 11
5086.191050914586
 21
-314.0171754901904
 31
0.0
  0
LINE
  5
B76F
330
18
100
AcDbEntity
  8
01
100
AcDbLine
 10
5086.191050914586
 20
-314.0171754901904
 30
0.0
 11
5085.255961803257
 21
-314.0510843341846
 31
0.0
  0
LINE
  5
B770
330
18
100
AcDbEntity
  8
01
100
AcDbLine
 10
5085.255961803257
 20
-314.0510843341846
 30
0.0
 11
5084.241313365757
 21
-314.0792139118213
 31
0.0
  0
LINE
  5
B771
330
18
100
AcDbEntity
  8
01
100
AcDbLine
 10
5084.241313365757
 20
-314.0792139118213
 30
0.0
 11
5083.170237926304
 21
-314.1002157276172
 31
0.0
  0
LINE
  5
B772
330
18
100
AcDbEntity
  8
01
100
AcDbLine
 10
5083.170237926304
 20
-314.1002157276172
 30
0.0
 11
5082.053569225132
 21
-314.1144464557666
 31
0.0
  0
LINE
  5
B773
330
18
100
AcDbEntity
  8
01
100
AcDbLine
 10
5082.053569225132
 20
-314.1144464557666
 30
0.0
 11
5080.897593883336
 21
-314.1224897449512
 31
0.0
  0
LINE
  5
B774
330
18
100
AcDbEntity
  8
01
100
AcDbLine
 10
5080.897593883336
 20
-314.1224897449512
 30
0.0
 11
5079.709422496617
 21
-314.1251028125781
 31
0.0
  0
LINE
  5
B775
330
18
100
AcDbEntity
  8
01
100
AcDbLine
 10
5079.709422496617
 20
-314.1251028125781
 30
0.0
 11
5078.495814708531
 21
-314.1232641284961
 31
0.0
  0
LINE
  5
B776
330
18
100
AcDbEntity
  8
01
100
AcDbLine
 10
5078.495814708531
 20
-314.1232641284961
 30
0.0
 11
5077.261882213414
 21
-314.1178663318652
 31
0.0
  0
LINE
  5
B777
330
18
100
AcDbEntity
  8
01
100
AcDbLine
 10
5077.261882213414
 20
-314.1178663318652
 30
0.0
 11
5076.011638072789
 21
-314.1096876209277
 31
0.0
  0
LINE
  5
B778
330
18
100
AcDbEntity
  8
01
100
AcDbLine
 10
5076.011638072789
 20
-314.1096876209277
 30
0.0
 11
5074.748210338414
 21
-314.0992887561816
 31
0.0
  0
LINE
  5
B779
330
18
100
AcDbEntity
  8
01
100
AcDbLine
 10
5074.748210338414
 20
-314.0992887561816
 30
0.0
 11
5073.474208263218
 21
-314.0871179645557
 31
0.0
  0
LINE
  5
B77A
330
18
100
AcDbEntity
  8
01
100
AcDbLine
 10
5073.474208263218
 20
-314.0871179645557
 30
0.0
 11
5072.19195118314
 21
-314.0735891407031
 31
0.0
  0
LINE
  5
B77B
330
18
100
AcDbEntity
  8
01
100
AcDbLine
 10
5072.19195118314
 20
-314.0735891407031
 30
0.0
 11
5070.9032243765
 21
-314.0590379779834
 31
0.0
  0
LINE
  5
B77C
330
18
100
AcDbEntity
  8
01
100
AcDbLine
 10
5070.9032243765
 20
-314.0590379779834
 30
0.0
 11
5069.609370616734
 21
-314.0437582080859
 31
0.0
  0
LINE
  5
B77D
330
18
100
AcDbEntity
  8
01
100
AcDbLine
 10
5069.609370616734
 20
-314.0437582080859
 30
0.0
 11
5068.31174793607
 21
-314.0280931537646
 31
0.0
  0
LINE
  5
B77E
330
18
100
AcDbEntity
  8
01
100
AcDbLine
 10
5068.31174793607
 20
-314.0280931537646
 30
0.0
 11
5067.011683849156
 21
-314.0123880451221
 31
0.0
  0
LINE
  5
B77F
330
18
100
AcDbEntity
  8
01
100
AcDbLine
 10
5067.011683849156
 20
-314.0123880451221
 30
0.0
 11
5065.710231212437
 21
-313.9969614093799
 31
0.0
  0
LINE
  5
B780
330
18
100
AcDbEntity
  8
01
100
AcDbLine
 10
5065.710231212437
 20
-313.9969614093799
 30
0.0
 11
5064.408030895054
 21
-313.9820650165576
 31
0.0
  0
LINE
  5
B781
330
18
100
AcDbEntity
  8
01
100
AcDbLine
 10
5064.408030895054
 20
-313.9820650165576
 30
0.0
 11
5063.105540660679
 21
-313.9679048603076
 31
0.0
  0
LINE
  5
B782
330
18
100
AcDbEntity
  8
01
100
AcDbLine
 10
5063.105540660679
 20
-313.9679048603076
 30
0.0
 11
5061.803691295445
 21
-313.954776579668
 31
0.0
  0
LINE
  5
B783
330
18
100
AcDbEntity
  8
01
100
AcDbLine
 10
5061.803691295445
 20
-313.954776579668
 30
0.0
 11
5060.503779796421
 21
-313.9429872577686
 31
0.0
  0
LINE
  5
B784
330
18
100
AcDbEntity
  8
01
100
AcDbLine
 10
5060.503779796421
 20
-313.9429872577686
 30
0.0
 11
5059.206065563023
 21
-313.9327180927295
 31
0.0
  0
LINE
  5
B785
330
18
100
AcDbEntity
  8
01
100
AcDbLine
 10
5059.206065563023
 20
-313.9327180927295
 30
0.0
 11
5057.909190563023
 21
-313.9239385669727
 31
0.0
  0
LINE
  5
B786
330
18
100
AcDbEntity
  8
01
100
AcDbLine
 10
5057.909190563023
 20
-313.9239385669727
 30
0.0
 11
5056.612117198765
 21
-313.9166391437549
 31
0.0
  0
LINE
  5
B787
330
18
100
AcDbEntity
  8
01
100
AcDbLine
 10
5056.612117198765
 20
-313.9166391437549
 30
0.0
 11
5055.314448741734
 21
-313.9108999317187
 31
0.0
  0
LINE
  5
B788
330
18
100
AcDbEntity
  8
01
100
AcDbLine
 10
5055.314448741734
 20
-313.9108999317187
 30
0.0
 11
5054.005031017125
 21
-313.9067323749561
 31
0.0
  0
LINE
  5
B789
330
18
100
AcDbEntity
  8
01
100
AcDbLine
 10
5089.919124034703
 20
-313.8816927021045
 30
0.0
 11
5089.745417980015
 21
-313.8907297199268
 31
0.0
  0
LINE
  5
B78A
330
18
100
AcDbEntity
  8
01
100
AcDbLine
 10
5089.745417980015
 20
-313.8907297199268
 30
0.0
 11
5089.584254649937
 21
-313.8967016284961
 31
0.0
  0
LINE
  5
B78B
330
18
100
AcDbEntity
  8
01
100
AcDbLine
 10
5089.584254649937
 20
-313.8967016284961
 30
0.0
 11
5089.43918934232
 21
-313.9001024311084
 31
0.0
  0
LINE
  5
B78C
330
18
100
AcDbEntity
  8
01
100
AcDbLine
 10
5089.43918934232
 20
-313.9001024311084
 30
0.0
 11
5089.317271617711
 21
-313.9015272205371
 31
0.0
  0
LINE
  5
B78D
330
18
100
AcDbEntity
  8
01
100
AcDbLine
 10
5089.317271617711
 20
-313.9015272205371
 30
0.0
 11
5089.225062755406
 21
-313.9017446582812
 31
0.0
  0
LINE
  5
B78E
330
18
100
AcDbEntity
  8
01
100
AcDbLine
 10
5089.225062755406
 20
-313.9017446582812
 30
0.0
 11
5089.153575328648
 21
-313.901418501665
 31
0.0
  0
LINE
  5
B78F
330
18
100
AcDbEntity
  8
01
100
AcDbLine
 10
5089.110057262242
 20
-291.9008749073047
 30
0.0
 11
5089.16477527982
 21
-291.9006612842578
 31
0.0
  0
LINE
  5
B790
330
18
100
AcDbEntity
  8
01
100
AcDbLine
 10
5089.16477527982
 20
-291.9006612842578
 30
0.0
 11
5089.14590015775
 21
-291.9003904407519
 31
0.0
  0
LINE
  5
B791
330
18
100
AcDbEntity
  8
01
100
AcDbLine
 10
5089.14590015775
 20
-291.9003904407519
 30
0.0
 11
5088.98638477689
 21
-291.8978155200977
 31
0.0
  0
LINE
  5
B792
330
18
100
AcDbEntity
  8
01
100
AcDbLine
 10
5088.98638477689
 20
-291.8978155200977
 30
0.0
 11
5088.758830455601
 21
-291.8926580493945
 31
0.0
  0
LINE
  5
B793
330
18
100
AcDbEntity
  8
01
100
AcDbLine
 10
5088.758830455601
 20
-291.8926580493945
 30
0.0
 11
5088.420588878453
 21
-291.8814733570117
 31
0.0
  0
LINE
  5
B794
330
18
100
AcDbEntity
  8
01
100
AcDbLine
 10
5088.420588878453
 20
-291.8814733570117
 30
0.0
 11
5087.92681446439
 21
-291.8612936084766
 31
0.0
  0
LINE
  5
B795
330
18
100
AcDbEntity
  8
01
100
AcDbLine
 10
5087.92681446439
 20
-291.8612936084766
 30
0.0
 11
5087.286403087437
 21
-291.8324316089648
 31
0.0
  0
LINE
  5
B796
330
18
100
AcDbEntity
  8
01
100
AcDbLine
 10
5087.286403087437
 20
-291.8324316089648
 30
0.0
 11
5086.504084972203
 21
-291.7976644580859
 31
0.0
  0
LINE
  5
B797
330
18
100
AcDbEntity
  8
01
100
AcDbLine
 10
5086.504084972203
 20
-291.7976644580859
 30
0.0
 11
5085.605189708531
 21
-291.7626188343066
 31
0.0
  0
LINE
  5
B798
330
18
100
AcDbEntity
  8
01
100
AcDbLine
 10
5085.605189708531
 20
-291.7626188343066
 30
0.0
 11
5084.618144420445
 21
-291.7321394031543
 31
0.0
  0
LINE
  5
B799
330
18
100
AcDbEntity
  8
01
100
AcDbLine
 10
5084.618144420445
 20
-291.7321394031543
 30
0.0
 11
5083.566783336461
 21
-291.7085378711719
 31
0.0
  0
LINE
  5
B79A
330
18
100
AcDbEntity
  8
01
100
AcDbLine
 10
5083.566783336461
 20
-291.7085378711719
 30
0.0
 11
5082.467616466343
 21
-291.6919210498828
 31
0.0
  0
LINE
  5
B79B
330
18
100
AcDbEntity
  8
01
100
AcDbLine
 10
5082.467616466343
 20
-291.6919210498828
 30
0.0
 11
5081.326823619664
 21
-291.6817205493945
 31
0.0
  0
LINE
  5
B79C
330
18
100
AcDbEntity
  8
01
100
AcDbLine
 10
5081.326823619664
 20
-291.6817205493945
 30
0.0
 11
5080.151240733921
 21
-291.6772268360156
 31
0.0
  0
LINE
  5
B79D
330
18
100
AcDbEntity
  8
01
100
AcDbLine
 10
5080.151240733921
 20
-291.6772268360156
 30
0.0
 11
5078.947993663609
 21
-291.6774824207324
 31
0.0
  0
LINE
  5
B79E
330
18
100
AcDbEntity
  8
01
100
AcDbLine
 10
5078.947993663609
 20
-291.6774824207324
 30
0.0
 11
5077.722941783726
 21
-291.681598479082
 31
0.0
  0
LINE
  5
B79F
330
18
100
AcDbEntity
  8
01
100
AcDbLine
 10
5077.722941783726
 20
-291.681598479082
 30
0.0
 11
5076.479945567906
 21
-291.6888425891894
 31
0.0
  0
LINE
  5
B7A0
330
18
100
AcDbEntity
  8
01
100
AcDbLine
 10
5076.479945567906
 20
-291.6888425891894
 30
0.0
 11
5075.222651866734
 21
-291.6985090320605
 31
0.0
  0
LINE
  5
B7A1
330
18
100
AcDbEntity
  8
01
100
AcDbLine
 10
5075.222651866734
 20
-291.6985090320605
 30
0.0
 11
5073.954051402867
 21
-291.7100446765918
 31
0.0
  0
LINE
  5
B7A2
330
18
100
AcDbEntity
  8
01
100
AcDbLine
 10
5073.954051402867
 20
-291.7100446765918
 30
0.0
 11
5072.676402477086
 21
-291.7230756824512
 31
0.0
  0
LINE
  5
B7A3
330
18
100
AcDbEntity
  8
01
100
AcDbLine
 10
5072.676402477086
 20
-291.7230756824512
 30
0.0
 11
5071.391703990757
 21
-291.7372587268848
 31
0.0
  0
LINE
  5
B7A4
330
18
100
AcDbEntity
  8
01
100
AcDbLine
 10
5071.391703990757
 20
-291.7372587268848
 30
0.0
 11
5070.101390270054
 21
-291.7522733753223
 31
0.0
  0
LINE
  5
B7A5
330
18
100
AcDbEntity
  8
01
100
AcDbLine
 10
5070.101390270054
 20
-291.7522733753223
 30
0.0
 11
5068.806804088414
 21
-291.7678068225879
 31
0.0
  0
LINE
  5
B7A6
330
18
100
AcDbEntity
  8
01
100
AcDbLine
 10
5068.806804088414
 20
-291.7678068225879
 30
0.0
 11
5067.509257701695
 21
-291.7835233753223
 31
0.0
  0
LINE
  5
B7A7
330
18
100
AcDbEntity
  8
01
100
AcDbLine
 10
5067.509257701695
 20
-291.7835233753223
 30
0.0
 11
5066.209956554234
 21
-291.7990758960742
 31
0.0
  0
LINE
  5
B7A8
330
18
100
AcDbEntity
  8
01
100
AcDbLine
 10
5066.209956554234
 20
-291.7990758960742
 30
0.0
 11
5064.909770397007
 21
-291.8141782825488
 31
0.0
  0
LINE
  5
B7A9
330
18
100
AcDbEntity
  8
01
100
AcDbLine
 10
5064.909770397007
 20
-291.8141782825488
 30
0.0
 11
5063.609050182164
 21
-291.828628355791
 31
0.0
  0
LINE
  5
B7AA
330
18
100
AcDbEntity
  8
01
100
AcDbLine
 10
5063.609050182164
 20
-291.828628355791
 30
0.0
 11
5062.308558849156
 21
-291.8421743457812
 31
0.0
  0
LINE
  5
B7AB
330
18
100
AcDbEntity
  8
01
100
AcDbLine
 10
5062.308558849156
 20
-291.8421743457812
 30
0.0
 11
5061.009517101109
 21
-291.8545034473437
 31
0.0
  0
LINE
  5
B7AC
330
18
100
AcDbEntity
  8
01
100
AcDbLine
 10
5061.009517101109
 20
-291.8545034473437
 30
0.0
 11
5059.712779430211
 21
-291.8653562610644
 31
0.0
  0
LINE
  5
B7AD
330
18
100
AcDbEntity
  8
01
100
AcDbLine
 10
5059.712779430211
 20
-291.8653562610644
 30
0.0
 11
5058.417506603062
 21
-291.8747022693652
 31
0.0
  0
LINE
  5
B7AE
330
18
100
AcDbEntity
  8
01
100
AcDbLine
 10
5058.417506603062
 20
-291.8747022693652
 30
0.0
 11
5057.122371105015
 21
-291.8825758045215
 31
0.0
  0
LINE
  5
B7AF
330
18
100
AcDbEntity
  8
01
100
AcDbLine
 10
5057.122371105015
 20
-291.8825758045215
 30
0.0
 11
5055.826686290562
 21
-291.8889349048633
 31
0.0
  0
LINE
  5
B7B0
330
18
100
AcDbEntity
  8
01
100
AcDbLine
 10
5055.826686290562
 20
-291.8889349048633
 30
0.0
 11
5054.530101207554
 21
-291.8936689441699
 31
0.0
  0
LINE
  5
B7B1
330
18
100
AcDbEntity
  8
01
100
AcDbLine
 10
5054.530101207554
 20
-291.8936689441699
 30
0.0
 11
5053.229350475132
 21
-291.8969076221484
 31
0.0
  0
LINE
  5
B7B2
330
18
100
AcDbEntity
  8
01
100
AcDbLine
 10
5053.229350475132
 20
-291.8969076221484
 30
0.0
 11
5051.921901134312
 21
-291.8989255970019
 31
0.0
  0
LINE
  5
B7B3
330
18
100
AcDbEntity
  8
01
100
AcDbLine
 10
5051.921901134312
 20
-291.8989255970019
 30
0.0
 11
5050.605296520054
 21
-291.9001272266406
 31
0.0
  0
LINE
  5
B7B4
330
18
100
AcDbEntity
  8
01
100
AcDbLine
 10
5050.605296520054
 20
-291.9001272266406
 30
0.0
 11
5049.28000965482
 21
-291.9007719104785
 31
0.0
  0
LINE
  5
B7B5
330
18
100
AcDbEntity
  8
01
100
AcDbLine
 10
5049.28000965482
 20
-291.9007719104785
 30
0.0
 11
5047.94732227689
 21
-291.9009702747363
 31
0.0
  0
LINE
  5
B7B6
330
18
100
AcDbEntity
  8
01
100
AcDbLine
 10
5047.94732227689
 20
-291.9009702747363
 30
0.0
 11
5046.610194591343
 21
-291.9008825366992
 31
0.0
  0
LINE
  5
B7B7
330
18
100
AcDbEntity
  8
01
100
AcDbLine
 10
5046.610194591343
 20
-291.9008825366992
 30
0.0
 11
5045.267833141148
 21
-291.90095120125
 31
0.0
  0
LINE
  5
B7B8
330
18
100
AcDbEntity
  8
01
100
AcDbLine
 10
5045.267833141148
 20
-291.90095120125
 30
0.0
 11
5045.267841406619
 21
-313.9009155565374
 31
0.0
  0
LINE
  5
B7B9
330
18
100
AcDbEntity
  8
01
100
AcDbLine
 10
5089.919124034703
 20
-291.9202154224414
 30
0.0
 11
5089.745417980015
 21
-291.9111784046191
 31
0.0
  0
LINE
  5
B7BA
330
18
100
AcDbEntity
  8
01
100
AcDbLine
 10
5089.745417980015
 20
-291.9111784046191
 30
0.0
 11
5089.584254649937
 21
-291.9052045887012
 31
0.0
  0
LINE
  5
B7BB
330
18
100
AcDbEntity
  8
01
100
AcDbLine
 10
5089.584254649937
 20
-291.9052045887012
 30
0.0
 11
5089.43918934232
 21
-291.9018056934375
 31
0.0
  0
LINE
  5
B7BC
330
18
100
AcDbEntity
  8
01
100
AcDbLine
 10
5089.43918934232
 20
-291.9018056934375
 30
0.0
 11
5089.317271617711
 21
-291.9003789966602
 31
0.0
  0
LINE
  5
B7BD
330
18
100
AcDbEntity
  8
01
100
AcDbLine
 10
5089.317271617711
 20
-291.9003789966602
 30
0.0
 11
5089.225062755406
 21
-291.900161558916
 31
0.0
  0
LINE
  5
B7BE
330
18
100
AcDbEntity
  8
01
100
AcDbLine
 10
5089.225062755406
 20
-291.900161558916
 30
0.0
 11
5089.153575328648
 21
-291.9004858081836
 31
0.0
  0
LINE
  5
B7BF
330
18
100
AcDbEntity
  8
01
100
AcDbLine
 10
5211.967839036
 20
-291.9005720917094
 30
0.0
 11
5210.321598801625
 21
-291.9002592865336
 31
0.0
  0
LINE
  5
B7C0
330
18
100
AcDbEntity
  8
01
100
AcDbLine
 10
5210.321598801625
 20
-291.9002592865336
 30
0.0
 11
5208.677861008656
 21
-291.900610238682
 31
0.0
  0
LINE
  5
B7C1
330
18
100
AcDbEntity
  8
01
100
AcDbLine
 10
5208.677861008656
 20
-291.900610238682
 30
0.0
 11
5207.042576584828
 21
-291.8986876312601
 31
0.0
  0
LINE
  5
B7C2
330
18
100
AcDbEntity
  8
01
100
AcDbLine
 10
5207.042576584828
 20
-291.8986876312601
 30
0.0
 11
5205.432362351429
 21
-291.8925078216898
 31
0.0
  0
LINE
  5
B7C3
330
18
100
AcDbEntity
  8
01
100
AcDbLine
 10
5205.432362351429
 20
-291.8925078216898
 30
0.0
 11
5203.877476487171
 21
-291.8774931732523
 31
0.0
  0
LINE
  5
B7C4
330
18
100
AcDbEntity
  8
01
100
AcDbLine
 10
5203.877476487171
 20
-291.8774931732523
 30
0.0
 11
5202.408512864125
 21
-291.8499434296
 31
0.0
  0
LINE
  5
B7C5
330
18
100
AcDbEntity
  8
01
100
AcDbLine
 10
5202.408512864125
 20
-291.8499434296
 30
0.0
 11
5201.03471830846
 21
-291.8121474090922
 31
0.0
  0
LINE
  5
B7C6
330
18
100
AcDbEntity
  8
01
100
AcDbLine
 10
5201.03471830846
 20
-291.8121474090922
 30
0.0
 11
5199.746937546742
 21
-291.7707808319437
 31
0.0
  0
LINE
  5
B7C7
330
18
100
AcDbEntity
  8
01
100
AcDbLine
 10
5199.746937546742
 20
-291.7707808319437
 30
0.0
 11
5198.540730271351
 21
-291.7337019745219
 31
0.0
  0
LINE
  5
B7C8
330
18
100
AcDbEntity
  8
01
100
AcDbLine
 10
5198.540730271351
 20
-291.7337019745219
 30
0.0
 11
5197.422718796742
 21
-291.7055342499125
 31
0.0
  0
LINE
  5
B7C9
330
18
100
AcDbEntity
  8
01
100
AcDbLine
 10
5197.422718796742
 20
-291.7055342499125
 30
0.0
 11
5196.389759812367
 21
-291.6871626678812
 31
0.0
  0
LINE
  5
B7CA
330
18
100
AcDbEntity
  8
01
100
AcDbLine
 10
5196.389759812367
 20
-291.6871626678812
 30
0.0
 11
5195.434544358265
 21
-291.6781218353617
 31
0.0
  0
LINE
  5
B7CB
330
18
100
AcDbEntity
  8
01
100
AcDbLine
 10
5195.434544358265
 20
-291.6781218353617
 30
0.0
 11
5194.552830491078
 21
-291.677450448643
 31
0.0
  0
LINE
  5
B7CC
330
18
100
AcDbEntity
  8
01
100
AcDbLine
 10
5194.552830491078
 20
-291.677450448643
 30
0.0
 11
5193.736912522328
 21
-291.6836684051859
 31
0.0
  0
LINE
  5
B7CD
330
18
100
AcDbEntity
  8
01
100
AcDbLine
 10
5193.736912522328
 20
-291.6836684051859
 30
0.0
 11
5192.973637375843
 21
-291.6953718963969
 31
0.0
  0
LINE
  5
B7CE
330
18
100
AcDbEntity
  8
01
100
AcDbLine
 10
5192.973637375843
 20
-291.6953718963969
 30
0.0
 11
5192.251393113148
 21
-291.7115080658305
 31
0.0
  0
LINE
  5
B7CF
330
18
100
AcDbEntity
  8
01
100
AcDbLine
 10
5192.251393113148
 20
-291.7115080658305
 30
0.0
 11
5191.565724167835
 21
-291.7310698334086
 31
0.0
  0
LINE
  5
B7D0
330
18
100
AcDbEntity
  8
01
100
AcDbLine
 10
5191.565724167835
 20
-291.7310698334086
 30
0.0
 11
5190.913395676625
 21
-291.7529967132914
 31
0.0
  0
LINE
  5
B7D1
330
18
100
AcDbEntity
  8
01
100
AcDbLine
 10
5190.913395676625
 20
-291.7529967132914
 30
0.0
 11
5190.289799485218
 21
-291.7763121429789
 31
0.0
  0
LINE
  5
B7D2
330
18
100
AcDbEntity
  8
01
100
AcDbLine
 10
5190.289799485218
 20
-291.7763121429789
 30
0.0
 11
5189.705311570179
 21
-291.7995817962992
 31
0.0
  0
LINE
  5
B7D3
330
18
100
AcDbEntity
  8
01
100
AcDbLine
 10
5189.705311570179
 20
-291.7995817962992
 30
0.0
 11
5189.176243577015
 21
-291.8209593597758
 31
0.0
  0
LINE
  5
B7D4
330
18
100
AcDbEntity
  8
01
100
AcDbLine
 10
5189.176243577015
 20
-291.8209593597758
 30
0.0
 11
5188.686528000843
 21
-291.8401549164164
 31
0.0
  0
LINE
  5
B7D5
330
18
100
AcDbEntity
  8
01
100
AcDbLine
 10
5188.686528000843
 20
-291.8401549164164
 30
0.0
 11
5188.226017746937
 21
-291.8572447601664
 31
0.0
  0
LINE
  5
B7D6
330
18
100
AcDbEntity
  8
01
100
AcDbLine
 10
5188.226017746937
 20
-291.8572447601664
 30
0.0
 11
5187.826588425648
 21
-291.8708861175883
 31
0.0
  0
LINE
  5
B7D7
330
18
100
AcDbEntity
  8
01
100
AcDbLine
 10
5187.826588425648
 20
-291.8708861175883
 30
0.0
 11
5187.511669907582
 21
-291.8802855316508
 31
0.0
  0
LINE
  5
B7D8
330
18
100
AcDbEntity
  8
01
100
AcDbLine
 10
5187.511669907582
 20
-291.8802855316508
 30
0.0
 11
5187.207310471546
 21
-291.8878615204203
 31
0.0
  0
LINE
  5
B7D9
330
18
100
AcDbEntity
  8
01
100
AcDbLine
 10
5187.207310471546
 20
-291.8878615204203
 30
0.0
 11
5186.913021836293
 21
-291.894003183018
 31
0.0
  0
LINE
  5
B7DA
330
18
100
AcDbEntity
  8
01
100
AcDbLine
 10
5186.913021836293
 20
-291.894003183018
 30
0.0
 11
5186.700833115589
 21
-291.8976118866312
 31
0.0
  0
LINE
  5
B7DB
330
18
100
AcDbEntity
  8
01
100
AcDbLine
 10
5186.700833115589
 20
-291.8976118866312
 30
0.0
 11
5186.571575913441
 21
-291.8991911712992
 31
0.0
  0
LINE
  5
B7DC
330
18
100
AcDbEntity
  8
01
  6
BYBLOCK
100
AcDbLine
 10
5150.571172286404
 20
-279.0009516538263
 30
0.0000000000563712
 11
5151.267840180404
 21
-276.4009516538263
 31
0.0000000000563712
  0
LINE
  5
B7DD
330
18
100
AcDbEntity
  8
01
  6
BYBLOCK
100
AcDbLine
 10
5151.267840180404
 20
-276.4009516538263
 30
0.0000000000563712
 11
5151.964508074404
 21
-279.0009516538263
 31
0.0000000000563712
  0
LINE
  5
B7DE
330
18
100
AcDbEntity
  8
01
  6
BYBLOCK
100
AcDbLine
 10
5151.267840180404
 20
-276.4009516538263
 30
0.0000000000563712
 11
5151.267840180404
 21
-279.0009516538263
 31
0.0000000000563712
  0
LINE
  5
B7DF
330
18
100
AcDbEntity
  8
01
  6
BYBLOCK
100
AcDbLine
 10
5151.964508074404
 20
-326.8009516538262
 30
0.0000000000563712
 11
5151.267840180404
 21
-329.4009516538263
 31
0.0000000000563712
  0
LINE
  5
B7E0
330
18
100
AcDbEntity
  8
01
  6
BYBLOCK
100
AcDbLine
 10
5151.267840180404
 20
-329.4009516538263
 30
0.0000000000563712
 11
5150.571172286404
 21
-326.8009516538262
 31
0.0000000000563712
  0
LINE
  5
B7E1
330
18
100
AcDbEntity
  8
01
  6
BYBLOCK
100
AcDbLine
 10
5151.267840180404
 20
-329.4009516538263
 30
0.0000000000563712
 11
5151.267840180404
 21
-326.8009516538262
 31
0.0000000000563712
  0
TEXT
  5
B7E2
330
18
100
AcDbEntity
  8
01
  6
CONTINUOUS
100
AcDbText
 10
5150.357840180404
 20
-310.9298295604231
 30
0.0000000000563712
 40
4.55
  1
□53
 50
90.0
100
AcDbText
1001
ACAD
1000
DSTYLE
1002
{
1070
     3
1000
□<>
1070
    40
1040
1.3
1070
    45
1040
0.5
1002
}
  0
LINE
  5
B7E3
330
18
100
AcDbEntity
  8
1DIM
100
AcDbLine
 10
5289.022988177753
 20
-142.9022699669272
 30
0.0000000002254849
 11
5332.567742261134
 21
-142.9022699669272
 31
0.0000000002254849
1001
ACAD
1000
DSTYLE
1002
{
1070
    40
1040
1.3
1002
}
  0
LINE
  5
B7E4
330
18
100
AcDbEntity
  8
1DIM
100
AcDbLine
 10
5315.267742261134
 20
-184.9057691810121
 30
0.0000000002254849
 11
5332.567742261134
 21
-184.9057691810121
 31
0.0000000002254849
1001
ACAD
1000
DSTYLE
1002
{
1070
    40
1040
1.3
1002
}
  0
LINE
  5
B7E5
330
18
100
AcDbEntity
  8
1DIM
100
AcDbLine
 10
5331.267742261134
 20
-145.5022699669272
 30
0.0000000002254849
 11
5331.267742261134
 21
-182.3057691810122
 31
0.0000000002254849
1001
ACAD
1000
DSTYLE
1002
{
1070
    40
1040
1.3
1002
}
  0
LINE
  5
B7E9
330
18
100
AcDbEntity
  8
1DIM
100
AcDbLine
 10
5289.022988177753
 20
-142.9022699669272
 30
0.0000000002254849
 11
5342.567742261134
 21
-142.9022699669272
 31
0.0000000002254849
1001
ACAD
1000
DSTYLE
1002
{
1070
    40
1040
1.3
1002
}
  0
LINE
  5
B7EA
330
18
100
AcDbEntity
  8
1DIM
100
AcDbLine
 10
5315.267742261134
 20
-206.9057691810121
 30
0.0000000002254849
 11
5342.567742261134
 21
-206.9057691810121
 31
0.0000000002254849
1001
ACAD
1000
DSTYLE
1002
{
1070
    40
1040
1.3
1002
}
  0
LINE
  5
B7EB
330
18
100
AcDbEntity
  8
1DIM
100
AcDbLine
 10
5341.267742261134
 20
-145.5022699669272
 30
0.0000000002254849
 11
5341.267742261134
 21
-204.3057691810122
 31
0.0000000002254849
1001
ACAD
1000
DSTYLE
1002
{
1070
    40
1040
1.3
1002
}
  0
LINE
  5
B7EF
330
18
100
AcDbEntity
  8
1DIM
100
AcDbLine
 10
5315.267840180412
 20
-313.9009516538244
 30
0.0000000000563712
 11
5332.567833080412
 21
-313.9009516538244
 31
0.0000000000563712
1001
ACAD
1000
DSTYLE
1002
{
1070
     3
1000
φ<>
1070
    40
1040
1.3
1070
   271
1070
     1
1002
}
  0
LINE
  5
B7F0
330
18
100
AcDbEntity
  8
1DIM
100
AcDbLine
 10
5315.267840180412
 20
-291.9009516538244
 30
0.0000000000563712
 11
5332.567833080412
 21
-291.9009516538244
 31
0.0000000000563712
1001
ACAD
1000
DSTYLE
1002
{
1070
     3
1000
φ<>
1070
    40
1040
1.3
1070
   271
1070
     1
1002
}
  0
LINE
  5
B7F1
330
18
100
AcDbEntity
  8
1DIM
100
AcDbLine
 10
5331.267833080412
 20
-311.3009516538244
 30
0.0000000000563712
 11
5331.267833080412
 21
-294.5009516538245
 31
0.0000000000563712
1001
ACAD
1000
DSTYLE
1002
{
1070
     3
1000
φ<>
1070
    40
1040
1.3
1070
   271
1070
     1
1002
}
  0
LINE
  5
B7F5
330
18
100
AcDbEntity
  8
1DIM
100
AcDbLine
 10
5186.267840180406
 20
-164.4022699669272
 30
0.0000000002254849
 11
5186.267840180406
 21
-223.2057691810122
 31
0.0000000002254849
1001
ACAD
1000
DSTYLE
1002
{
1070
    40
1040
1.3
1002
}
  0
LINE
  5
B7F6
330
18
100
AcDbEntity
  8
1DIM
100
AcDbLine
 10
5316.267742261134
 20
-205.9057691810121
 30
0.0000000002254849
 11
5316.267742261134
 21
-223.2057691810122
 31
0.0000000002254849
1001
ACAD
1000
DSTYLE
1002
{
1070
    40
1040
1.3
1002
}
  0
LINE
  5
B7F7
330
18
100
AcDbEntity
  8
1DIM
100
AcDbLine
 10
5188.867840180406
 20
-221.9057691810121
 30
0.0000000002254849
 11
5313.667742261134
 21
-221.9057691810121
 31
0.0000000002254849
1001
ACAD
1000
DSTYLE
1002
{
1070
    40
1040
1.3
1002
}
  0
LINE
  5
B7FB
330
18
100
AcDbEntity
  8
1DIM
100
AcDbLine
 10
5172.766485318381
 20
-151.9022770894694
 30
0.0000000002254849
 11
5172.766485318381
 21
-233.2057691810122
 31
0.0000000002254849
1001
ACAD
1000
DSTYLE
1002
{
1070
    40
1040
1.3
1002
}
  0
LINE
  5
B7FC
330
18
100
AcDbEntity
  8
1DIM
100
AcDbLine
 10
5316.267742261134
 20
-205.9057691810121
 30
0.0000000002254849
 11
5316.267742261134
 21
-233.2057691810122
 31
0.0000000002254849
1001
ACAD
1000
DSTYLE
1002
{
1070
    40
1040
1.3
1002
}
  0
LINE
  5
B7FD
330
18
100
AcDbEntity
  8
1DIM
100
AcDbLine
 10
5175.366485318382
 20
-231.9057691810121
 30
0.0000000002254849
 11
5313.667742261134
 21
-231.9057691810121
 31
0.0000000002254849
1001
ACAD
1000
DSTYLE
1002
{
1070
    40
1040
1.3
1002
}
  0
LINE
  5
B801
330
18
100
AcDbEntity
  8
0
  6
BYBLOCK
100
AcDbLine
 10
5330.571074367134
 20
-145.5022699669272
 30
0.0000000002254849
 11
5331.267742261134
 21
-142.9022699669272
 31
0.0000000002254849
  0
LINE
  5
B802
330
18
100
AcDbEntity
  8
0
  6
BYBLOCK
100
AcDbLine
 10
5331.267742261134
 20
-142.9022699669272
 30
0.0000000002254849
 11
5331.964410155134
 21
-145.5022699669272
 31
0.0000000002254849
  0
LINE
  5
B803
330
18
100
AcDbEntity
  8
0
  6
BYBLOCK
100
AcDbLine
 10
5331.267742261134
 20
-142.9022699669272
 30
0.0000000002254849
 11
5331.267742261134
 21
-145.5022699669272
 31
0.0000000002254849
  0
LINE
  5
B804
330
18
100
AcDbEntity
  8
0
  6
BYBLOCK
100
AcDbLine
 10
5331.964410155134
 20
-182.3057691810122
 30
0.0000000002254849
 11
5331.267742261134
 21
-184.9057691810121
 31
0.0000000002254849
  0
LINE
  5
B805
330
18
100
AcDbEntity
  8
0
  6
BYBLOCK
100
AcDbLine
 10
5331.267742261134
 20
-184.9057691810121
 30
0.0000000002254849
 11
5330.571074367134
 21
-182.3057691810122
 31
0.0000000002254849
  0
LINE
  5
B806
330
18
100
AcDbEntity
  8
0
  6
BYBLOCK
100
AcDbLine
 10
5331.267742261134
 20
-184.9057691810121
 30
0.0000000002254849
 11
5331.267742261134
 21
-182.3057691810122
 31
0.0000000002254849
  0
TEXT
  5
B807
330
18
100
AcDbEntity
  8
1DIM
  6
CONTINUOUS
100
AcDbText
 10
5330.357742261134
 20
-167.695686240636
 30
0.0000000002254849
 40
4.55
  1
42
 50
90.0
100
AcDbText
1001
ACAD
1000
DSTYLE
1002
{
1070
    40
1040
1.3
1002
}
  0
LINE
  5
B808
330
18
100
AcDbEntity
  8
0
  6
BYBLOCK
100
AcDbLine
 10
5340.571074367134
 20
-145.5022699669272
 30
0.0000000002254849
 11
5341.267742261134
 21
-142.9022699669272
 31
0.0000000002254849
  0
LINE
  5
B809
330
18
100
AcDbEntity
  8
0
  6
BYBLOCK
100
AcDbLine
 10
5341.267742261134
 20
-142.9022699669272
 30
0.0000000002254849
 11
5341.964410155134
 21
-145.5022699669272
 31
0.0000000002254849
  0
LINE
  5
B80A
330
18
100
AcDbEntity
  8
0
  6
BYBLOCK
100
AcDbLine
 10
5341.267742261134
 20
-142.9022699669272
 30
0.0000000002254849
 11
5341.267742261134
 21
-145.5022699669272
 31
0.0000000002254849
  0
LINE
  5
B80B
330
18
100
AcDbEntity
  8
0
  6
BYBLOCK
100
AcDbLine
 10
5341.964410155134
 20
-204.3057691810122
 30
0.0000000002254849
 11
5341.267742261134
 21
-206.9057691810121
 31
0.0000000002254849
  0
LINE
  5
B80C
330
18
100
AcDbEntity
  8
0
  6
BYBLOCK
100
AcDbLine
 10
5341.267742261134
 20
-206.9057691810121
 30
0.0000000002254849
 11
5340.571074367134
 21
-204.3057691810122
 31
0.0000000002254849
  0
LINE
  5
B80D
330
18
100
AcDbEntity
  8
0
  6
BYBLOCK
100
AcDbLine
 10
5341.267742261134
 20
-206.9057691810121
 30
0.0000000002254849
 11
5341.267742261134
 21
-204.3057691810122
 31
0.0000000002254849
  0
TEXT
  5
B80E
330
18
100
AcDbEntity
  8
1DIM
  6
CONTINUOUS
100
AcDbText
 10
5340.357742261134
 20
-178.7114848517467
 30
0.0000000002254849
 40
4.55
  1
64
 50
90.0
100
AcDbText
1001
ACAD
1000
DSTYLE
1002
{
1070
    40
1040
1.3
1002
}
  0
LINE
  5
B80F
330
18
100
AcDbEntity
  8
0
  6
BYBLOCK
100
AcDbLine
 10
5331.964500974412
 20
-311.3009516538244
 30
0.0000000000563712
 11
5331.267833080412
 21
-313.9009516538244
 31
0.0000000000563712
  0
LINE
  5
B810
330
18
100
AcDbEntity
  8
0
  6
BYBLOCK
100
AcDbLine
 10
5331.267833080412
 20
-313.9009516538244
 30
0.0000000000563712
 11
5330.571165186412
 21
-311.3009516538244
 31
0.0000000000563712
  0
LINE
  5
B811
330
18
100
AcDbEntity
  8
0
  6
BYBLOCK
100
AcDbLine
 10
5331.267833080412
 20
-313.9009516538244
 30
0.0000000000563712
 11
5331.267833080412
 21
-311.3009516538244
 31
0.0000000000563712
  0
LINE
  5
B812
330
18
100
AcDbEntity
  8
0
  6
BYBLOCK
100
AcDbLine
 10
5330.571165186412
 20
-294.5009516538245
 30
0.0000000000563712
 11
5331.267833080412
 21
-291.9009516538244
 31
0.0000000000563712
  0
LINE
  5
B813
330
18
100
AcDbEntity
  8
0
  6
BYBLOCK
100
AcDbLine
 10
5331.267833080412
 20
-291.9009516538244
 30
0.0000000000563712
 11
5331.964500974412
 21
-294.5009516538245
 31
0.0000000000563712
  0
LINE
  5
B814
330
18
100
AcDbEntity
  8
0
  6
BYBLOCK
100
AcDbLine
 10
5331.267833080412
 20
-291.9009516538244
 30
0.0000000000563712
 11
5331.267833080412
 21
-294.5009516538245
 31
0.0000000000563712
  0
TEXT
  5
B815
330
18
100
AcDbEntity
  8
1DIM
  6
CONTINUOUS
100
AcDbText
 10
5330.357833080412
 20
-310.0292849871566
 30
0.0000000000563712
 40
4.55
  1
φ22
 50
90.0
100
AcDbText
1001
ACAD
1000
DSTYLE
1002
{
1070
     3
1000
φ<>
1070
    40
1040
1.3
1070
   271
1070
     1
1002
}
  0
LINE
  5
B816
330
18
100
AcDbEntity
  8
0
  6
BYBLOCK
100
AcDbLine
 10
5188.867840180406
 20
-222.6024370750121
 30
0.0000000002254849
 11
5186.267840180406
 21
-221.9057691810121
 31
0.0000000002254849
  0
LINE
  5
B817
330
18
100
AcDbEntity
  8
0
  6
BYBLOCK
100
AcDbLine
 10
5186.267840180406
 20
-221.9057691810121
 30
0.0000000002254849
 11
5188.867840180406
 21
-221.2091012870121
 31
0.0000000002254849
  0
LINE
  5
B818
330
18
100
AcDbEntity
  8
0
  6
BYBLOCK
100
AcDbLine
 10
5186.267840180406
 20
-221.9057691810121
 30
0.0000000002254849
 11
5188.867840180406
 21
-221.9057691810121
 31
0.0000000002254849
  0
LINE
  5
B819
330
18
100
AcDbEntity
  8
0
  6
BYBLOCK
100
AcDbLine
 10
5313.667742261134
 20
-221.2091012870121
 30
0.0000000002254849
 11
5316.267742261134
 21
-221.9057691810121
 31
0.0000000002254849
  0
LINE
  5
B81A
330
18
100
AcDbEntity
  8
0
  6
BYBLOCK
100
AcDbLine
 10
5316.267742261134
 20
-221.9057691810121
 30
0.0000000002254849
 11
5313.667742261134
 21
-222.6024370750121
 31
0.0000000002254849
  0
LINE
  5
B81B
330
18
100
AcDbEntity
  8
0
  6
BYBLOCK
100
AcDbLine
 10
5316.267742261134
 20
-221.9057691810121
 30
0.0000000002254849
 11
5313.667742261134
 21
-221.9057691810121
 31
0.0000000002254849
  0
TEXT
  5
B81C
330
18
100
AcDbEntity
  8
1DIM
  6
CONTINUOUS
100
AcDbText
 10
5246.243832887437
 20
-220.9957691810122
 30
0.0000000002254849
 40
4.55
  1
130
100
AcDbText
1001
ACAD
1000
DSTYLE
1002
{
1070
    40
1040
1.3
1002
}
  0
LINE
  5
B81D
330
18
100
AcDbEntity
  8
0
  6
BYBLOCK
100
AcDbLine
 10
5175.366485318382
 20
-232.6024370750121
 30
0.0000000002254849
 11
5172.766485318381
 21
-231.9057691810121
 31
0.0000000002254849
  0
LINE
  5
B81E
330
18
100
AcDbEntity
  8
0
  6
BYBLOCK
100
AcDbLine
 10
5172.766485318381
 20
-231.9057691810121
 30
0.0000000002254849
 11
5175.366485318382
 21
-231.2091012870121
 31
0.0000000002254849
  0
LINE
  5
B81F
330
18
100
AcDbEntity
  8
0
  6
BYBLOCK
100
AcDbLine
 10
5172.766485318381
 20
-231.9057691810121
 30
0.0000000002254849
 11
5175.366485318382
 21
-231.9057691810121
 31
0.0000000002254849
  0
LINE
  5
B820
330
18
100
AcDbEntity
  8
0
  6
BYBLOCK
100
AcDbLine
 10
5313.667742261134
 20
-231.2091012870121
 30
0.0000000002254849
 11
5316.267742261134
 21
-231.9057691810121
 31
0.0000000002254849
  0
LINE
  5
B821
330
18
100
AcDbEntity
  8
0
  6
BYBLOCK
100
AcDbLine
 10
5316.267742261134
 20
-231.9057691810121
 30
0.0000000002254849
 11
5313.667742261134
 21
-232.6024370750121
 31
0.0000000002254849
  0
LINE
  5
B822
330
18
100
AcDbEntity
  8
0
  6
BYBLOCK
100
AcDbLine
 10
5316.267742261134
 20
-231.9057691810121
 30
0.0000000002254849
 11
5313.667742261134
 21
-231.9057691810121
 31
0.0000000002254849
  0
TEXT
  5
B823
330
18
100
AcDbEntity
  8
1DIM
  6
CONTINUOUS
100
AcDbText
 10
5229.42617541374
 20
-230.9957691810122
 30
0.0000000002254849
 40
4.55
  1
143.5
100
AcDbText
1001
ACAD
1000
DSTYLE
1002
{
1070
    40
1040
1.3
1002
}
  0
VIEWPORT
  5
57
330
15
100
AcDbEntity
 67
     1
  8
0
100
AcDbViewport
 68
     1
 10
0.0
 20
0.0
 30
0.0
 40
555.829865361077
 41
296.9999999999999
 68
     1
 69
     1
1001
ACAD
1000
MVIEW
1002
{
1070
    16
1010
0.0
1020
0.0
1030
0.0
1010
0.0
1020
0.0
1030
1.0
1040
0.0
1040
296.9999999999999
1040
5.728000000000009
1040
25.33899999999998
1040
50.0
1040
0.0
1040
0.0
1070
    16
1070
   100
1070
     0
1070
     1
1070
     0
1070
     0
1070
     0
1070
     0
1040
0.0
1040
0.0
1040
0.0
1040
10.0
1040
10.0
1040
10.0
1040
10.0
1070
     0
1002
{
1002
}
1002
}
  0
ENDSEC
  0
SECTION
  2
OBJECTS
  0
DICTIONARY
  5
C
330
0
100
AcDbDictionary
  3
ACAD_CIP_PREVIOUS_PRODUCT_INFO
350
AD5D
  3
ACAD_COLOR
350
18D
  3
ACAD_GROUP
350
D
  3
ACAD_LAYOUT
350
18E
  3
ACAD_MATERIAL
350
18C
  3
ACAD_MLEADERSTYLE
350
9583
  3
ACAD_MLINESTYLE
350
1B
  3
ACAD_PLOTSETTINGS
350
18F
  3
ACAD_SCALELIST
350
9561
  3
ACAD_VISUALSTYLE
350
9550
  3
ACDBHEADERROUNDTRIPXREC
350
B824
  3
ACDBVARIABLEDICTIONARY
350
37
  3
AEC_PROPERTY_SET_DEFS
350
AE18
  3
CONTENTDICTIONARY
350
D8
  3
DRAWINGVARIABLESDICT
350
20
  3
DWGPROPS
350
B827
1001
ACAD
1000
TREAT_AS_HARD
1070
     0
  0
DICTIONARY
  5
96D9
330
2
100
AcDbDictionary
  3
ACAD_LAYERSTATES
360
96DA
1001
ACAD
1000
TREAT_AS_HARD
1070
     1
  0
DICTIONARY
  5
9593
330
E
100
AcDbDictionary
  3
ADSK_XREC_LAYER_RECONCILED
360
9594
1001
ACAD
1000
TREAT_AS_HARD
1070
     1
  0
DICTIONARY
  5
9595
330
29
100
AcDbDictionary
  3
ADSK_XREC_LAYER_RECONCILED
360
9596
1001
ACAD
1000
TREAT_AS_HARD
1070
     1
  0
DICTIONARY
  5
9597
330
31
100
AcDbDictionary
  3
ADSK_XREC_LAYER_RECONCILED
360
9598
1001
ACAD
1000
TREAT_AS_HARD
1070
     1
  0
DICTIONARY
  5
959D
330
243
100
AcDbDictionary
  3
ADSK_XREC_LAYER_RECONCILED
360
959E
1001
ACAD
1000
TREAT_AS_HARD
1070
     1
  0
DICTIONARY
  5
95A3
330
24E
100
AcDbDictionary
  3
ADSK_XREC_LAYER_RECONCILED
360
95A4
1001
ACAD
1000
TREAT_AS_HARD
1070
     1
  0
DICTIONARY
  5
88F
330
18
100
AcDbDictionary
  3
ACAD_SORTENTS
360
890
1001
ACAD
1000
TREAT_AS_HARD
1070
     1
  0
XRECORD
  5
AD5D
102
{ACAD_REACTORS
330
C
102
}
330
C
100
AcDbXrecord
300
ACDLT
300
2012
300
ACDLT_F_S
  0
DICTIONARY
  5
18D
102
{ACAD_REACTORS
330
C
102
}
330
C
100
AcDbDictionary
1001
ACAD
1000
TREAT_AS_HARD
1070
     0
  0
DICTIONARY
  5
D
102
{ACAD_REACTORS
330
C
102
}
330
C
100
AcDbDictionary
1001
ACAD
1000
TREAT_AS_HARD
1070
     0
  0
DICTIONARY
  5
18E
102
{ACAD_REACTORS
330
C
102
}
330
C
100
AcDbDictionary
1001
ACAD
1000
TREAT_AS_HARD
1070
     0
  0
DICTIONARY
  5
18C
102
{ACAD_REACTORS
330
C
102
}
330
C
100
AcDbDictionary
  3
BYBLOCK
350
9540
  3
BYLAYER
350
9538
  3
GLOBAL
350
9548
1001
ACAD
1000
TREAT_AS_HARD
1070
     0
  0
DICTIONARY
  5
9583
102
{ACAD_REACTORS
330
C
102
}
330
C
100
AcDbDictionary
  3
STANDARD
350
9584
1001
ACAD
1000
TREAT_AS_HARD
1070
     0
  0
DICTIONARY
  5
1B
102
{ACAD_REACTORS
330
C
102
}
330
C
100
AcDbDictionary
  3
STANDARD
350
1C
1001
ACAD
1000
TREAT_AS_HARD
1070
     0
  0
DICTIONARY
  5
18F
102
{ACAD_REACTORS
330
C
102
}
330
C
100
AcDbDictionary
1001
ACAD
1000
TREAT_AS_HARD
1070
     0
  0
DICTIONARY
  5
9561
102
{ACAD_REACTORS
330
C
102
}
330
C
100
AcDbDictionary
  3
A0
350
9562
  3
A1
350
9563
  3
A2
350
9564
  3
A3
350
9565
  3
A4
350
9566
  3
A5
350
9567
  3
A6
350
9568
  3
A7
350
9569
  3
A8
350
956A
  3
A9
350
956B
  3
B0
350
956C
  3
B1
350
956D
  3
B2
350
956E
  3
B3
350
956F
  3
B4
350
9570
  3
B5
350
9571
  3
B6
350
9572
  3
B7
350
9573
  3
B8
350
9574
  3
B9
350
9575
  3
C0
350
9576
  3
C1
350
9577
  3
C2
350
9578
  3
C3
350
9579
  3
C4
350
957A
  3
C5
350
957B
  3
C6
350
957C
  3
C7
350
957D
  3
C8
350
957E
  3
C9
350
957F
  3
D0
350
9580
  3
D1
350
9581
  3
D2
350
9582
1001
ACAD
1000
TREAT_AS_HARD
1070
     0
  0
DICTIONARY
  5
9550
102
{ACAD_REACTORS
330
C
102
}
330
C
100
AcDbDictionary
  3
2DWIREFRAME
350
9556
  3
3D_HIDDEN
350
9558
  3
3DWIREFRAME
350
9557
  3
BASIC
350
9555
  3
BRIGHTEN
350
955C
  3
COLORCHANGE
350
9560
  3
CONCEPTUAL
350
9559
  3
DIM
350
955B
  3
EDGECOLOROFF
350
A211
  3
FACEPATTERN
350
955F
  3
FLAT
350
9551
  3
FLATWITHEDGES
350
9552
  3
GOURAUD
350
9553
  3
GOURAUDWITHEDGES
350
9554
  3
HIDDEN
350
A260
  3
JITTEROFF
350
A20F
  3
LINEPATTERN
350
955E
  3
MODELING
350
A266
  3
OVERHANGOFF
350
A210
  3
REALISTIC
350
955A
  3
SHADED
350
A265
  3
SHADED_WITH_EDGES
350
A264
  3
SHADES_OF_GRAY
350
A261
  3
SKETCHY
350
A262
  3
THICKEN
350
955D
  3
WIREFRAME
350
A25F
  3
X-RAY
350
A263
1001
ACAD
1000
TREAT_AS_HARD
1070
     0
  0
DICTIONARY
  5
B824
102
{ACAD_REACTORS
330
C
102
}
330
C
100
AcDbDictionary
  3
COLORDICT
350
B825
  3
MATERIALDICT
350
B826
1001
ACAD
1000
TREAT_AS_HARD
1070
     0
  0
DICTIONARY
  5
37
102
{ACAD_REACTORS
330
C
102
}
330
C
100
AcDbDictionary
  3
CANNOSCALE
350
AAE0
  3
CMLEADERSTYLE
350
9627
  3
CTABLESTYLE
350
29E
  3
DIMADEC
350
38
  3
DIMASSOC
350
1CE
  3
HIDETEXT
350
704E
  3
INDEXCTL
350
962A
  3
INTERSECTIONCOLOR
350
7052
  3
INTERSECTIONDISPLAY
350
7051
  3
MSLTSCALE
350
AB30
  3
OBSCOLOR
350
704F
  3
OBSLTYPE
350
7050
  3
PROJECTNAME
350
1CF
  3
SORTENTS
350
9629
  3
XCLIPFRAME
350
B55F
1001
ACAD
1000
TREAT_AS_HARD
1070
     0
  0
DICTIONARY
  5
AE18
102
{ACAD_REACTORS
330
C
102
}
330
C
100
AcDbDictionary
1001
ACAD
1000
TREAT_AS_HARD
1070
     0
  0
DICTIONARY
  5
D8
102
{ACAD_REACTORS
330
C
102
}
330
C
100
AcDbDictionary
1001
ACAD
1000
TREAT_AS_HARD
1070
     0
  0
DICTIONARY
  5
20
102
{ACAD_REACTORS
330
C
102
}
330
C
100
AcDbDictionary
1001
DRAWINGVARIABLESXDATA
1000
POLARANG
1000
0.261799387799149410000000
1000
POLARMODE
1000
1
1000
POLARSTYLE
1000
1
1001
ACAD
1000
TREAT_AS_HARD
1070
     0
  0
XRECORD
  5
B827
102
{ACAD_REACTORS
330
C
102
}
330
C
100
AcDbXrecord
  1
DWGPROPS COOKIE
  2

  3

  4

  6

  7

  8
3684
  9

300
=
301
=
302
=
303
=
304
=
305
=
306
=
307
=
308
=
309
=
 40
0.0
 41
2451318.246352917
 42
2458164.016123426
  1

 90
        0
  0
DICTIONARY
  5
96DA
102
{ACAD_REACTORS
330
96D9
102
}
330
96D9
100
AcDbDictionary
1001
ACAD
1000
TREAT_AS_HARD
1070
     0
  0
ACAD_PROXY_OBJECT
  5
9594
102
{ACAD_REACTORS
330
9593
102
}
330
9593
100
AcDbZombieObject
 90
      499
 91
      514
 93
       34
310
40C8804040
  0
ACAD_PROXY_OBJECT
  5
9596
102
{ACAD_REACTORS
330
9595
102
}
330
9595
100
AcDbZombieObject
 90
      499
 91
      514
 93
       34
310
40C8804040
  0
ACAD_PROXY_OBJECT
  5
9598
102
{ACAD_REACTORS
330
9597
102
}
330
9597
100
AcDbZombieObject
 90
      499
 91
      514
 93
       34
310
40C8804040
  0
ACAD_PROXY_OBJECT
  5
959E
102
{ACAD_REACTORS
330
959D
102
}
330
959D
100
AcDbZombieObject
 90
      499
 91
      514
 93
       34
310
40C8804040
  0
ACAD_PROXY_OBJECT
  5
95A4
102
{ACAD_REACTORS
330
95A3
102
}
330
95A3
100
AcDbZombieObject
 90
      499
 91
      514
 93
       34
310
40C8804040
  0
SORTENTSTABLE
  5
890
102
{ACAD_REACTORS
330
88F
102
}
330
88F
100
AcDbSortentsTable
330
18
331
AE3C
  5
AE4C
331
AE3D
  5
AE4D
331
AE3E
  5
AE4E
331
AE3F
  5
AE4F
331
AE40
  5
AE66
331
AE41
  5
B1C2
331
AE42
  5
B2F0
331
AE43
  5
B404
331
AE44
  5
B405
331
AE45
  5
B406
331
AE46
  5
B407
331
AE47
  5
B408
331
AE48
  5
B409
331
AE49
  5
B40C
331
AE4A
  5
B40D
331
AE4B
  5
B40E
331
AE4C
  5
B40F
331
AE4D
  5
B410
331
AE4E
  5
B411
331
AE4F
  5
B412
331
AE66
  5
B413
331
B243
  5
B414
331
0
  5
B417
331
0
  5
B418
331
0
  5
B419
331
0
  5
B41B
331
0
  5
B41C
331
B40B
  5
B61C
331
B40C
  5
B61D
331
B40D
  5
B61E
331
B40E
  5
B61F
331
B40F
  5
B620
331
B410
  5
B621
331
B411
  5
B622
331
B412
  5
B623
331
0
  5
B415
331
0
  5
B416
331
B415
  5
B653
331
B416
  5
B654
331
B417
  5
B655
331
0
  5
B41A
331
B419
  5
B663
331
B41A
  5
B664
331
B41B
  5
B665
331
0
  5
B41E
331
0
  5
B41F
331
0
  5
B420
331
B41F
  5
B6A6
331
B420
  5
B6A7
331
B421
  5
B6A8
331
B422
  5
B6A9
331
B423
  5
B6AA
331
B424
  5
B6AB
331
B425
  5
B6AC
331
B426
  5
B6AD
331
B427
  5
B6AE
331
0
  5
B42A
331
B429
  5
B6B4
331
B42A
  5
B6B5
331
B42B
  5
B6B6
331
B42C
  5
B6B7
331
B42D
  5
B6B8
331
B42E
  5
B6B9
331
0
  5
B431
331
0
  5
B432
331
0
  5
B433
331
0
  5
B434
331
0
  5
B435
331
B434
  5
B74A
331
0
  5
B437
331
B436
  5
B758
331
0
  5
B439
331
0
  5
B43A
331
0
  5
B43B
331
0
  5
B43C
331
0
  5
B43D
331
B43C
  5
B7CC
331
0
  5
B43F
331
0
  5
B440
331
0
  5
B441
331
B440
  5
B81A
331
B441
  5
B81B
331
B442
  5
B81C
331
B443
  5
B81D
331
B444
  5
B81E
331
B445
  5
B81F
331
B446
  5
B820
331
B447
  5
B821
331
B448
  5
B822
331
B449
  5
B823
331
B542
  5
B1C3
331
B5F8
  5
AE3C
331
B5F9
  5
AE3D
331
B5FA
  5
AE3E
331
0
  5
AE3F
331
0
  5
AE40
331
0
  5
AE41
331
B5FE
  5
B624
331
B5FF
  5
B625
331
B600
  5
B626
331
B601
  5
B627
331
B602
  5
B628
331
B603
  5
B629
331
B604
  5
B62A
331
B605
  5
B62B
331
B606
  5
B62C
331
B607
  5
B62D
331
B608
  5
B62E
331
B609
  5
B62F
331
B60A
  5
B630
331
B60B
  5
B631
331
B60C
  5
B632
331
B60D
  5
B633
331
B60E
  5
B634
331
B60F
  5
B635
331
B610
  5
B636
331
B611
  5
B637
331
B612
  5
B638
331
B613
  5
B639
331
B614
  5
B63A
331
B615
  5
B63B
331
B616
  5
B63C
331
B617
  5
B63D
331
B618
  5
B63E
331
B619
  5
B63F
331
B61A
  5
B640
331
B61B
  5
B641
331
B61C
  5
B642
331
B61D
  5
B643
331
B61E
  5
B644
331
B61F
  5
B645
331
B620
  5
B646
331
B621
  5
B647
331
B622
  5
B648
331
B623
  5
B649
331
B624
  5
B64A
331
B625
  5
B64B
331
B626
  5
B64C
331
B627
  5
B64D
331
B628
  5
B64E
331
B629
  5
B64F
331
B62A
  5
B650
331
B62B
  5
B651
331
B62C
  5
B652
331
B62D
  5
B656
331
B62E
  5
B657
331
B62F
  5
B658
331
B630
  5
B659
331
B631
  5
B65A
331
B632
  5
B65B
331
B633
  5
B65C
331
B634
  5
B65D
331
B635
  5
B65E
331
B636
  5
B65F
331
B637
  5
B660
331
B638
  5
B661
331
B639
  5
B662
331
B63A
  5
B666
331
B63B
  5
B667
331
B63C
  5
B668
331
B63D
  5
B669
331
B63E
  5
B66A
331
B63F
  5
B66B
331
B640
  5
B66C
331
B641
  5
B66D
331
B642
  5
B66E
331
B643
  5
B66F
331
B644
  5
B670
331
B645
  5
B671
331
B646
  5
B672
331
B647
  5
B673
331
B648
  5
B674
331
B649
  5
B675
331
B64A
  5
B676
331
B64B
  5
B677
331
B64C
  5
B678
331
B64D
  5
B679
331
B64E
  5
B67A
331
B64F
  5
B67B
331
B650
  5
B67C
331
B651
  5
B67D
331
B652
  5
B67E
331
B653
  5
B67F
331
B654
  5
B680
331
B655
  5
B681
331
B656
  5
B682
331
B657
  5
B683
331
B658
  5
B684
331
B659
  5
B685
331
B65A
  5
B686
331
B65B
  5
B687
331
B65C
  5
B688
331
B65D
  5
B689
331
B65E
  5
B68A
331
B65F
  5
B68B
331
B660
  5
B68C
331
B661
  5
B68D
331
B662
  5
B68E
331
B663
  5
B68F
331
B664
  5
B690
331
B665
  5
B691
331
B666
  5
B692
331
B667
  5
B693
331
B668
  5
B694
331
B669
  5
B695
331
B66A
  5
B696
331
B66B
  5
B697
331
B66C
  5
B698
331
B66D
  5
B699
331
B66E
  5
B69A
331
B66F
  5
B69B
331
B670
  5
B69C
331
B671
  5
B69D
331
B672
  5
B69E
331
B673
  5
B69F
331
B674
  5
B6A0
331
B675
  5
B6A1
331
B676
  5
B6A2
331
B677
  5
B6A3
331
B678
  5
B6A4
331
B679
  5
B6A5
331
B67A
  5
B6AF
331
B67B
  5
B6B0
331
B67C
  5
B6B1
331
B67D
  5
B6B2
331
B67E
  5
B6B3
331
B67F
  5
B6BA
331
B680
  5
B6BB
331
B681
  5
B6BC
331
B682
  5
B6BD
331
B683
  5
B6BE
331
B684
  5
B6BF
331
B685
  5
B6C0
331
B686
  5
B6C1
331
B687
  5
B6C2
331
B688
  5
B6C3
331
B689
  5
B6C4
331
B68A
  5
B6C5
331
B68B
  5
B6C6
331
B68C
  5
B6C7
331
B68D
  5
B6C8
331
B68E
  5
B6C9
331
B68F
  5
B6CA
331
B690
  5
B6CB
331
B691
  5
B6CC
331
B692
  5
B6CD
331
B693
  5
B6CE
331
B694
  5
B6CF
331
B695
  5
B6D0
331
B696
  5
B6D1
331
B697
  5
B6D2
331
B698
  5
B6D3
331
B699
  5
B6D4
331
B69A
  5
B6D5
331
B69B
  5
B6D6
331
B69C
  5
B6D7
331
B69D
  5
B6D8
331
B69E
  5
B6D9
331
B69F
  5
B6DA
331
B6A0
  5
B6DB
331
B6A1
  5
B6DC
331
B6A2
  5
B6DD
331
B6A3
  5
B6DE
331
B6A4
  5
B6DF
331
B6A5
  5
B6E0
331
B6A6
  5
B6E1
331
B6A7
  5
B6E2
331
B6A8
  5
B6E3
331
B6A9
  5
B6E4
331
B6AA
  5
B6E5
331
B6AB
  5
B6E6
331
B6AC
  5
B6E7
331
B6AD
  5
B6E8
331
B6AE
  5
B6E9
331
B6AF
  5
B6EA
331
B6B0
  5
B6EB
331
B6B1
  5
B6EC
331
B6B2
  5
B6ED
331
B6B3
  5
B6EE
331
B6B4
  5
B6EF
331
B6B5
  5
B6F0
331
B6B6
  5
B6F1
331
B6B7
  5
B6F2
331
B6B8
  5
B6F3
331
B6B9
  5
B6F4
331
B6BA
  5
B6F5
331
B6BB
  5
B6F6
331
B6BC
  5
B6F7
331
B6BD
  5
B6F8
331
B6BE
  5
B6F9
331
B6BF
  5
B6FA
331
B6C0
  5
B6FB
331
B6C1
  5
B6FC
331
B6C2
  5
B6FD
331
B6C3
  5
B6FE
331
B6C4
  5
B6FF
331
B6C5
  5
B700
331
B6C6
  5
B701
331
B6C7
  5
B702
331
B6C8
  5
B703
331
B6C9
  5
B704
331
B6CA
  5
B705
331
B6CB
  5
B706
331
B6CC
  5
B707
331
B6CD
  5
B708
331
B6CE
  5
B709
331
B6CF
  5
B70A
331
B6D0
  5
B70B
331
B6D1
  5
B70C
331
B6D2
  5
B70D
331
B6D3
  5
B70E
331
B6D4
  5
B70F
331
B6D5
  5
B710
331
B6D6
  5
B711
331
B6D7
  5
B712
331
B6D8
  5
B713
331
B6D9
  5
B714
331
B6DA
  5
B715
331
B6DB
  5
B716
331
B6DC
  5
B717
331
B6DD
  5
B718
331
B6DE
  5
B719
331
B6DF
  5
B71A
331
B6E0
  5
B71B
331
B6E1
  5
B71C
331
B6E2
  5
B71D
331
B6E3
  5
B71E
331
B6E4
  5
B71F
331
B6E5
  5
B720
331
B6E6
  5
B721
331
B6E7
  5
B722
331
B6E8
  5
B723
331
B6E9
  5
B724
331
B6EA
  5
B725
331
B6EB
  5
B726
331
B6EC
  5
B727
331
B6ED
  5
B728
331
B6EE
  5
B729
331
B6EF
  5
B72A
331
B6F0
  5
B72B
331
B6F1
  5
B72C
331
B6F2
  5
B72D
331
B6F3
  5
B72E
331
B6F4
  5
B72F
331
B6F5
  5
B730
331
B6F6
  5
B731
331
B6F7
  5
B732
331
B6F8
  5
B733
331
B6F9
  5
B734
331
B6FA
  5
B735
331
B6FB
  5
B736
331
B6FC
  5
B737
331
B6FD
  5
B738
331
B6FE
  5
B739
331
B6FF
  5
B73A
331
B700
  5
B73B
331
B701
  5
B73C
331
B702
  5
B73D
331
B703
  5
B73E
331
B704
  5
B73F
331
B705
  5
B740
331
B706
  5
B741
331
B707
  5
B742
331
B708
  5
B743
331
B709
  5
B744
331
B70A
  5
B745
331
B70B
  5
B746
331
B70C
  5
B747
331
B70D
  5
B748
331
B70E
  5
B749
331
B70F
  5
B74B
331
B710
  5
B74C
331
B711
  5
B74D
331
B712
  5
B74E
331
B713
  5
B74F
331
B714
  5
B750
331
B715
  5
B751
331
B716
  5
B752
331
B717
  5
B753
331
B718
  5
B754
331
B719
  5
B755
331
B71A
  5
B756
331
B71B
  5
B757
331
B71C
  5
B759
331
B71D
  5
B75A
331
B71E
  5
B75B
331
B71F
  5
B75C
331
B720
  5
B75D
331
B721
  5
B75E
331
B722
  5
B75F
331
B723
  5
B760
331
B724
  5
B761
331
B725
  5
B762
331
B726
  5
B763
331
B727
  5
B764
331
B728
  5
B765
331
B729
  5
B766
331
B72A
  5
B767
331
B72B
  5
B768
331
B72C
  5
B769
331
B72D
  5
B76A
331
B72E
  5
B76B
331
B72F
  5
B76C
331
B730
  5
B76D
331
B731
  5
B76E
331
B732
  5
B76F
331
B733
  5
B770
331
B734
  5
B771
331
B735
  5
B772
331
B736
  5
B773
331
B737
  5
B774
331
B738
  5
B775
331
B739
  5
B776
331
B73A
  5
B777
331
B73B
  5
B778
331
B73C
  5
B779
331
B73D
  5
B77A
331
B73E
  5
B77B
331
B73F
  5
B77C
331
B740
  5
B77D
331
B741
  5
B77E
331
B742
  5
B77F
331
B743
  5
B780
331
B744
  5
B781
331
B745
  5
B782
331
B746
  5
B783
331
B747
  5
B784
331
B748
  5
B785
331
B749
  5
B786
331
B74A
  5
B787
331
B74B
  5
B788
331
B74C
  5
B789
331
B74D
  5
B78A
331
B74E
  5
B78B
331
B74F
  5
B78C
331
B750
  5
B78D
331
B751
  5
B78E
331
B752
  5
B78F
331
B753
  5
B790
331
B754
  5
B791
331
B755
  5
B792
331
B756
  5
B793
331
B757
  5
B794
331
B758
  5
B795
331
B759
  5
B796
331
B75A
  5
B797
331
B75B
  5
B798
331
B75C
  5
B799
331
B75D
  5
B79A
331
B75E
  5
B79B
331
B75F
  5
B79C
331
B760
  5
B79D
331
B761
  5
B79E
331
B762
  5
B79F
331
B763
  5
B7A0
331
B764
  5
B7A1
331
B765
  5
B7A2
331
B766
  5
B7A3
331
B767
  5
B7A4
331
B768
  5
B7A5
331
B769
  5
B7A6
331
B76A
  5
B7A7
331
B76B
  5
B7A8
331
B76C
  5
B7A9
331
B76D
  5
B7AA
331
B76E
  5
B7AB
331
B76F
  5
B7AC
331
B770
  5
B7AD
331
B771
  5
B7AE
331
B772
  5
B7AF
331
B773
  5
B7B0
331
B774
  5
B7B1
331
B775
  5
B7B2
331
B776
  5
B7B3
331
B777
  5
B7B4
331
B778
  5
B7B5
331
B779
  5
B7B6
331
B77A
  5
B7B7
331
B77B
  5
B7B8
331
B77C
  5
B7B9
331
B77D
  5
B7BA
331
B77E
  5
B7BB
331
B77F
  5
B7BC
331
B780
  5
B7BD
331
B781
  5
B7BE
331
B782
  5
B7BF
331
B783
  5
B7C0
331
B784
  5
B7C1
331
B785
  5
B7C2
331
B786
  5
B7C3
331
B787
  5
B7C4
331
B788
  5
B7C5
331
B789
  5
B7C6
331
B78A
  5
B7C7
331
B78B
  5
B7C8
331
B78C
  5
B7C9
331
B78D
  5
B7CA
331
B78E
  5
B7CB
331
B78F
  5
B7CD
331
B790
  5
B7CE
331
B791
  5
B7CF
331
B792
  5
B7D0
331
B793
  5
B7D1
331
B794
  5
B7D2
331
B795
  5
B7D3
331
B796
  5
B7D4
331
B797
  5
B7D5
331
B798
  5
B7D6
331
B799
  5
B7D7
331
B79A
  5
B7D8
331
B79B
  5
B7D9
331
B79C
  5
B7DA
331
B79D
  5
B7DB
331
B79E
  5
B7DC
331
B79F
  5
B7DD
331
B7A0
  5
B7DE
331
B7A1
  5
B7DF
331
B7A2
  5
B7E0
331
B7A3
  5
B7E1
331
B7A4
  5
B7E2
331
B7A5
  5
B7E3
331
B7A6
  5
B7E4
331
B7A7
  5
B7E5
331
B7A8
  5
B7E6
331
B7A9
  5
B7E7
331
B7AA
  5
B7E8
331
B7AB
  5
B7E9
331
B7AC
  5
B7EA
331
B7AD
  5
B7EB
331
B7AE
  5
B7EC
331
B7AF
  5
B7ED
331
B7B0
  5
B7EE
331
B7B1
  5
B7EF
331
B7B2
  5
B7F0
331
B7B3
  5
B7F1
331
B7B4
  5
B7F2
331
B7B5
  5
B7F3
331
B7B6
  5
B7F4
331
B7B7
  5
B7F5
331
B7B8
  5
B7F6
331
B7B9
  5
B7F7
331
B7BA
  5
B7F8
331
B7BB
  5
B7F9
331
B7BC
  5
B7FA
331
B7BD
  5
B7FB
331
B7BE
  5
B7FC
331
B7BF
  5
B7FD
331
B7C0
  5
B7FE
331
B7C1
  5
B7FF
331
B7C2
  5
B800
331
B7C3
  5
B801
331
B7C4
  5
B802
331
B7C5
  5
B803
331
B7C6
  5
B804
331
B7C7
  5
B805
331
B7C8
  5
B806
331
B7C9
  5
B807
331
B7CA
  5
B808
331
B7CB
  5
B809
331
B7CC
  5
B80A
331
B7CD
  5
B80B
331
B7CE
  5
B80C
331
B7CF
  5
B80D
331
B7D0
  5
B80E
331
B7D1
  5
B80F
331
B7D2
  5
B810
331
B7D3
  5
B811
331
B7D4
  5
B812
331
B7D5
  5
B813
331
B7D6
  5
B814
331
B7D7
  5
B815
331
B7D8
  5
B816
331
B7D9
  5
B817
331
B7DA
  5
B818
331
B7DB
  5
B819
331
B7DC
  5
AE42
331
B7DD
  5
AE43
331
B7DE
  5
AE44
331
B7DF
  5
AE45
331
B7E0
  5
AE49
331
B7E1
  5
AE4A
331
B7E2
  5
AE4B
331
B7E3
  5
B41D
331
B7E4
  5
B421
331
B7E5
  5
B422
331
0
  5
B423
331
0
  5
B424
331
0
  5
B425
331
B7E9
  5
B442
331
B7EA
  5
B443
331
B7EB
  5
B447
331
0
  5
B429
331
0
  5
B42B
331
0
  5
B42C
331
B7EF
  5
B5FE
331
B7F0
  5
B5FF
331
B7F1
  5
B600
331
0
  5
B430
331
0
  5
B436
331
0
  5
B438
331
B7F5
  5
B608
331
B7F6
  5
B609
331
B7F7
  5
B60A
331
0
  5
B444
331
0
  5
B445
331
0
  5
B446
331
B7FB
  5
B612
331
B7FC
  5
B613
331
B7FD
  5
B614
331
0
  5
B4E0
331
0
  5
B542
331
0
  5
B5F8
331
B801
  5
B426
331
B802
  5
B427
331
B803
  5
B428
331
B804
  5
B42D
331
B805
  5
B42E
331
B806
  5
B42F
331
B807
  5
B43E
331
B808
  5
B448
331
B809
  5
B449
331
B80A
  5
B5F9
331
B80B
  5
B5FA
331
B80C
  5
B5FB
331
B80D
  5
B5FC
331
B80E
  5
B5FD
331
B80F
  5
B601
331
B810
  5
B602
331
B811
  5
B603
331
B812
  5
B604
331
B813
  5
B605
331
B814
  5
B606
331
B815
  5
B607
331
B816
  5
B60B
331
B817
  5
B60C
331
B818
  5
B60D
331
B819
  5
B60E
331
B81A
  5
B60F
331
B81B
  5
B610
331
B81C
  5
B611
331
B81D
  5
B615
331
B81E
  5
B616
331
B81F
  5
B617
331
B820
  5
B618
331
B821
  5
B619
331
B822
  5
B61A
331
B823
  5
B61B
  0
MATERIAL
  5
9540
102
{ACAD_REACTORS
330
18C
102
}
102
{ACAD_XDICTIONARY
360
B9C2
102
}
330
18C
100
AcDbMaterial
  1
BYBLOCK
 72
     0
 73
     2
 43
0.0208333333333333
 43
0.0
 43
0.0
 43
0.0
 43
0.0
 43
0.0208333333333333
 43
0.0
 43
0.0
 43
0.0
 43
0.0
 43
1.0
 43
0.0
 43
0.0
 43
0.0
 43
0.0
 43
1.0
 77
     0
 78
     2
 47
0.0208333333333333
 47
0.0
 47
0.0
 47
0.0
 47
0.0
 47
0.0208333333333333
 47
0.0
 47
0.0
 47
0.0
 47
0.0
 47
1.0
 47
0.0
 47
0.0
 47
0.0
 47
0.0
 47
1.0
171
     0
172
     2
 49
0.0208333333333333
 49
0.0
 49
0.0
 49
0.0
 49
0.0
 49
0.0208333333333333
 49
0.0
 49
0.0
 49
0.0
 49
0.0
 49
1.0
 49
0.0
 49
0.0
 49
0.0
 49
0.0
 49
1.0
175
     0
176
     2
142
0.0208333333333333
142
0.0
142
0.0
142
0.0
142
0.0
142
0.0208333333333333
142
0.0
142
0.0
142
0.0
142
0.0
142
1.0
142
0.0
142
0.0
142
0.0
142
0.0
142
1.0
179
     0
270
     2
144
0.0208333333333333
144
0.0
144
0.0
144
0.0
144
0.0
144
0.0208333333333333
144
0.0
144
0.0
144
0.0
144
0.0
144
1.0
144
0.0
144
0.0
144
0.0
144
0.0
144
1.0
274
     2
147
0.0208333333333333
147
0.0
147
0.0
147
0.0
147
0.0
147
0.0208333333333333
147
0.0
147
0.0
147
0.0
147
0.0
147
1.0
147
0.0
147
0.0
147
0.0
147
0.0
147
1.0
  0
MATERIAL
  5
9538
102
{ACAD_REACTORS
330
18C
102
}
102
{ACAD_XDICTIONARY
360
B9C4
102
}
330
18C
100
AcDbMaterial
  1
BYLAYER
 72
     0
 73
     2
 43
0.0208333333333333
 43
0.0
 43
0.0
 43
0.0
 43
0.0
 43
0.0208333333333333
 43
0.0
 43
0.0
 43
0.0
 43
0.0
 43
1.0
 43
0.0
 43
0.0
 43
0.0
 43
0.0
 43
1.0
 77
     0
 78
     2
 47
0.0208333333333333
 47
0.0
 47
0.0
 47
0.0
 47
0.0
 47
0.0208333333333333
 47
0.0
 47
0.0
 47
0.0
 47
0.0
 47
1.0
 47
0.0
 47
0.0
 47
0.0
 47
0.0
 47
1.0
171
     0
172
     2
 49
0.0208333333333333
 49
0.0
 49
0.0
 49
0.0
 49
0.0
 49
0.0208333333333333
 49
0.0
 49
0.0
 49
0.0
 49
0.0
 49
1.0
 49
0.0
 49
0.0
 49
0.0
 49
0.0
 49
1.0
175
     0
176
     2
142
0.0208333333333333
142
0.0
142
0.0
142
0.0
142
0.0
142
0.0208333333333333
142
0.0
142
0.0
142
0.0
142
0.0
142
1.0
142
0.0
142
0.0
142
0.0
142
0.0
142
1.0
179
     0
270
     2
144
0.0208333333333333
144
0.0
144
0.0
144
0.0
144
0.0
144
0.0208333333333333
144
0.0
144
0.0
144
0.0
144
0.0
144
1.0
144
0.0
144
0.0
144
0.0
144
0.0
144
1.0
274
     2
147
0.0208333333333333
147
0.0
147
0.0
147
0.0
147
0.0
147
0.0208333333333333
147
0.0
147
0.0
147
0.0
147
0.0
147
1.0
147
0.0
147
0.0
147
0.0
147
0.0
147
1.0
  0
MATERIAL
  5
9548
102
{ACAD_REACTORS
330
18C
102
}
102
{ACAD_XDICTIONARY
360
B9C6
102
}
330
18C
100
AcDbMaterial
  1
GLOBAL
 72
     0
 73
     2
 43
0.0208333333333333
 43
0.0
 43
0.0
 43
0.0
 43
0.0
 43
0.0208333333333333
 43
0.0
 43
0.0
 43
0.0
 43
0.0
 43
1.0
 43
0.0
 43
0.0
 43
0.0
 43
0.0
 43
1.0
 77
     0
 78
     2
 47
0.0208333333333333
 47
0.0
 47
0.0
 47
0.0
 47
0.0
 47
0.0208333333333333
 47
0.0
 47
0.0
 47
0.0
 47
0.0
 47
1.0
 47
0.0
 47
0.0
 47
0.0
 47
0.0
 47
1.0
171
     0
172
     2
 49
0.0208333333333333
 49
0.0
 49
0.0
 49
0.0
 49
0.0
 49
0.0208333333333333
 49
0.0
 49
0.0
 49
0.0
 49
0.0
 49
1.0
 49
0.0
 49
0.0
 49
0.0
 49
0.0
 49
1.0
175
     0
176
     2
142
0.0208333333333333
142
0.0
142
0.0
142
0.0
142
0.0
142
0.0208333333333333
142
0.0
142
0.0
142
0.0
142
0.0
142
1.0
142
0.0
142
0.0
142
0.0
142
0.0
142
1.0
179
     0
270
     2
144
0.0208333333333333
144
0.0
144
0.0
144
0.0
144
0.0
144
0.0208333333333333
144
0.0
144
0.0
144
0.0
144
0.0
144
1.0
144
0.0
144
0.0
144
0.0
144
0.0
144
1.0
274
     2
147
0.0208333333333333
147
0.0
147
0.0
147
0.0
147
0.0
147
0.0208333333333333
147
0.0
147
0.0
147
0.0
147
0.0
147
1.0
147
0.0
147
0.0
147
0.0
147
0.0
147
1.0
  0
ACAD_PROXY_OBJECT
  5
9584
102
{ACAD_REACTORS
330
9583
102
}
330
9583
100
AcDbZombieObject
 90
      499
 91
      511
 93
      610
310
40901902A4063FBFFFFFE000000000000002040AD7A3703D0AD73F4214DD185B99185C990000000000000104090141901A00000000000004100000000000000041025764000000000000300FC0
340
12
340
0
340
F
340
0
 94
        0
1001
ACAD_MLEADERVER
1070
     2
  0
MLINESTYLE
  5
1C
102
{ACAD_REACTORS
330
1B
102
}
330
1B
100
AcDbMlineStyle
  2
STANDARD
 70
     0
  3

 62
   256
 51
90.0
 52
90.0
 71
     2
 49
0.5
 62
   256
  6
BYLAYER
 49
-0.5
 62
   256
  6
BYLAYER
  0
ACAD_PROXY_OBJECT
  5
9562
102
{ACAD_REACTORS
330
9561
102
}
330
9561
100
AcDbZombieObject
 90
      499
 91
      510
 93
       41
310
903313A31580
  0
ACAD_PROXY_OBJECT
  5
9563
102
{ACAD_REACTORS
330
9561
102
}
330
9561
100
AcDbZombieObject
 90
      499
 91
      510
 93
      105
310
903313A324000000000000004000
  0
ACAD_PROXY_OBJECT
  5
9564
102
{ACAD_REACTORS
330
9561
102
}
330
9561
100
AcDbZombieObject
 90
      499
 91
      510
 93
      105
310
903313A344000000000000104000
  0
ACAD_PROXY_OBJECT
  5
9565
102
{ACAD_REACTORS
330
9561
102
}
330
9561
100
AcDbZombieObject
 90
      499
 91
      510
 93
      105
310
903313A354000000000000144000
  0
ACAD_PROXY_OBJECT
  5
9566
102
{ACAD_REACTORS
330
9561
102
}
330
9561
100
AcDbZombieObject
 90
      499
 91
      510
 93
      105
310
903313A384000000000000204000
  0
ACAD_PROXY_OBJECT
  5
9567
102
{ACAD_REACTORS
330
9561
102
}
330
9561
100
AcDbZombieObject
 90
      499
 91
      510
 93
      113
310
904313A31304000000000000244000
  0
ACAD_PROXY_OBJECT
  5
9568
102
{ACAD_REACTORS
330
9561
102
}
330
9561
100
AcDbZombieObject
 90
      499
 91
      510
 93
      113
310
904313A31364000000000000304000
  0
ACAD_PROXY_OBJECT
  5
9569
102
{ACAD_REACTORS
330
9561
102
}
330
9561
100
AcDbZombieObject
 90
      499
 91
      510
 93
      113
310
904313A32304000000000000344000
  0
ACAD_PROXY_OBJECT
  5
956A
102
{ACAD_REACTORS
330
9561
102
}
330
9561
100
AcDbZombieObject
 90
      499
 91
      510
 93
      113
310
904313A333040000000000003E4000
  0
ACAD_PROXY_OBJECT
  5
956B
102
{ACAD_REACTORS
330
9561
102
}
330
9561
100
AcDbZombieObject
 90
      499
 91
      510
 93
      113
310
904313A34304000000000000444000
  0
ACAD_PROXY_OBJECT
  5
956C
102
{ACAD_REACTORS
330
9561
102
}
330
9561
100
AcDbZombieObject
 90
      499
 91
      510
 93
      113
310
904313A35304000000000000494000
  0
ACAD_PROXY_OBJECT
  5
956D
102
{ACAD_REACTORS
330
9561
102
}
330
9561
100
AcDbZombieObject
 90
      499
 91
      510
 93
      121
310
905313A3130304000000000000594000
  0
ACAD_PROXY_OBJECT
  5
956E
102
{ACAD_REACTORS
330
9561
102
}
330
9561
100
AcDbZombieObject
 90
      499
 91
      510
 93
      105
310
903323A310000000000000010100
  0
ACAD_PROXY_OBJECT
  5
956F
102
{ACAD_REACTORS
330
9561
102
}
330
9561
100
AcDbZombieObject
 90
      499
 91
      510
 93
      105
310
903343A310000000000000410100
  0
ACAD_PROXY_OBJECT
  5
9570
102
{ACAD_REACTORS
330
9561
102
}
330
9561
100
AcDbZombieObject
 90
      499
 91
      510
 93
      105
310
903383A310000000000000810100
  0
ACAD_PROXY_OBJECT
  5
9571
102
{ACAD_REACTORS
330
9561
102
}
330
9561
100
AcDbZombieObject
 90
      499
 91
      510
 93
      113
310
90431303A310000000000000910100
  0
ACAD_PROXY_OBJECT
  5
9572
102
{ACAD_REACTORS
330
9561
102
}
330
9561
100
AcDbZombieObject
 90
      499
 91
      510
 93
      121
310
9053130303A310000000000001650100
  0
ACAD_PROXY_OBJECT
  5
9573
102
{ACAD_REACTORS
330
9561
102
}
330
9561
100
AcDbZombieObject
 90
      499
 91
      510
 93
      257
310
90E312F31323822203D2031272D3022000000000000200FC000000000000284000
  0
ACAD_PROXY_OBJECT
  5
9574
102
{ACAD_REACTORS
330
9561
102
}
330
9561
100
AcDbZombieObject
 90
      499
 91
      510
 93
      249
310
90D312F363422203D2031272D3022000000000000240FC000000000000284000
  0
ACAD_PROXY_OBJECT
  5
9575
102
{ACAD_REACTORS
330
9561
102
}
330
9561
100
AcDbZombieObject
 90
      499
 91
      510
 93
      249
310
90D312F333222203D2031272D3022000000000000280FC000000000000284000
  0
ACAD_PROXY_OBJECT
  5
9576
102
{ACAD_REACTORS
330
9561
102
}
330
9561
100
AcDbZombieObject
 90
      499
 91
      510
 93
      249
310
90D312F313622203D2031272D30220000000000002C0FC000000000000284000
  0
ACAD_PROXY_OBJECT
  5
9577
102
{ACAD_REACTORS
330
9561
102
}
330
9561
100
AcDbZombieObject
 90
      499
 91
      510
 93
      249
310
90D332F333222203D2031272D30220000000000002E0FC000000000000284000
  0
ACAD_PROXY_OBJECT
  5
9578
102
{ACAD_REACTORS
330
9561
102
}
330
9561
100
AcDbZombieObject
 90
      499
 91
      510
 93
      241
310
90C312F3822203D2031272D3022000000000000300FC000000000000284000
  0
ACAD_PROXY_OBJECT
  5
9579
102
{ACAD_REACTORS
330
9561
102
}
330
9561
100
AcDbZombieObject
 90
      499
 91
      510
 93
      249
310
90D332F313622203D2031272D3022000000000000320FC000000000000284000
  0
ACAD_PROXY_OBJECT
  5
957A
102
{ACAD_REACTORS
330
9561
102
}
330
9561
100
AcDbZombieObject
 90
      499
 91
      510
 93
      241
310
90C312F3422203D2031272D3022000000000000340FC000000000000284000
  0
ACAD_PROXY_OBJECT
  5
957B
102
{ACAD_REACTORS
330
9561
102
}
330
9561
100
AcDbZombieObject
 90
      499
 91
      510
 93
      241
310
90C332F3822203D2031272D3022000000000000360FC000000000000284000
  0
ACAD_PROXY_OBJECT
  5
957C
102
{ACAD_REACTORS
330
9561
102
}
330
9561
100
AcDbZombieObject
 90
      499
 91
      510
 93
      241
310
90C312F3222203D2031272D3022000000000000380FC000000000000284000
  0
ACAD_PROXY_OBJECT
  5
957D
102
{ACAD_REACTORS
330
9561
102
}
330
9561
100
AcDbZombieObject
 90
      499
 91
      510
 93
      241
310
90C332F3422203D2031272D30220000000000003A0FC000000000000284000
  0
ACAD_PROXY_OBJECT
  5
957E
102
{ACAD_REACTORS
330
9561
102
}
330
9561
100
AcDbZombieObject
 90
      499
 91
      510
 93
      161
310
90A3122203D2031272D30224000000000000284000
  0
ACAD_PROXY_OBJECT
  5
957F
102
{ACAD_REACTORS
330
9561
102
}
330
9561
100
AcDbZombieObject
 90
      499
 91
      510
 93
      257
310
90E312D312F3222203D2031272D30220000000000003E0FC000000000000284000
  0
ACAD_PROXY_OBJECT
  5
9580
102
{ACAD_REACTORS
330
9561
102
}
330
9561
100
AcDbZombieObject
 90
      499
 91
      510
 93
      225
310
90A3322203D2031272D302200000000000002100000000000000284000
  0
ACAD_PROXY_OBJECT
  5
9581
102
{ACAD_REACTORS
330
9561
102
}
330
9561
100
AcDbZombieObject
 90
      499
 91
      510
 93
      225
310
90A3622203D2031272D302200000000000006100000000000000284000
  0
ACAD_PROXY_OBJECT
  5
9582
102
{ACAD_REACTORS
330
9561
102
}
330
9561
100
AcDbZombieObject
 90
      499
 91
      510
 93
      249
310
90D31272D3022203D2031272D30220000000000000A100000000000000284000
  0
ACAD_PROXY_OBJECT
  5
9556
102
{ACAD_REACTORS
330
9550
102
}
330
9550
100
AcDbZombieObject
 90
      499
 91
      509
 93
      436
310
42CC9915DA5C99599C985B595049028333333333333E3BF0000000000000FB0107901411070040501600405405064090741402480A0340
1001
ACAD
1000
AcDbSavedByObjectVersion
1070
     0
  0
ACAD_PROXY_OBJECT
  5
9558
102
{ACAD_REACTORS
330
9550
102
}
330
9550
100
AcDbZombieObject
 90
      499
 91
      509
 93
      500
310
424CD108121A5919195B90640502408333333333333E3BF0000000000000FB01079024090700405020000000000001110200405405064090740C02480A0340
1001
ACAD
1000
AcDbSavedByObjectVersion
1070
     0
  0
ACAD_PROXY_OBJECT
  5
9557
102
{ACAD_REACTORS
330
9550
102
}
330
9550
100
AcDbZombieObject
 90
      499
 91
      509
 93
      436
310
42CCD915DA5C99599C985B595059028333333333333E3BF0000000000000FB0107901411070040501600405405064090741402480A0340
1001
ACAD
1000
AcDbSavedByObjectVersion
1070
     0
  0
ACAD_PROXY_OBJECT
  5
9555
102
{ACAD_REACTORS
330
9550
102
}
330
9550
100
AcDbZombieObject
 90
      499
 91
      509
 93
      388
310
4150985CDA58D07406404333333333333E3BF0000000000000FB0107A41107004050150841D405064090741402480A0350
1001
ACAD
1000
AcDbSavedByObjectVersion
1070
     0
  0
ACAD_PROXY_OBJECT
  5
955C
102
{ACAD_REACTORS
330
9550
102
}
330
9550
100
AcDbZombieObject
 90
      499
 91
      509
 93
      428
310
42109C9A59DA1D195B90C409028333333333333E3BF0000000000000FB010790141107004050150841D405064090741402480A029950
1001
ACAD
1000
AcDbSavedByObjectVersion
1070
     0
  0
ACAD_PROXY_OBJECT
  5
9560
102
{ACAD_REACTORS
330
9550
102
}
330
9550
100
AcDbZombieObject
 90
      499
 91
      509
 93
      452
310
42D0DBDB1BDC90DA185B99D95104090240C333333333333E3BF0000000000000FB0108901411070040501508421405064090741402480A0350
1001
ACAD
1000
AcDbSavedByObjectVersion
1070
     0
  0
ACAD_PROXY_OBJECT
  5
9559
102
{ACAD_REACTORS
330
9550
102
}
330
9550
100
AcDbZombieObject
 90
      499
 91
      509
 93
      500
310
4290DBDB98D95C1D1D585B10940D028333333333333E3BF0000000000000FB0107902409070040501000000000000111010841D405064090740C02480A0340
1001
ACAD
1000
AcDbSavedByObjectVersion
1070
     0
  0
ACAD_PROXY_OBJECT
  5
955B
102
{ACAD_REACTORS
330
9550
102
}
330
9550
100
AcDbZombieObject
 90
      499
 91
      509
 93
      412
310
40D11A5B50B409028333333333333E3BF0000000000000FB010790141107004050150841D405064090741402480A02677FFFFFD0
1001
ACAD
1000
AcDbSavedByObjectVersion
1070
     0
  0
ACAD_PROXY_OBJECT
  5
A211
102
{ACAD_REACTORS
330
9550
102
}
330
9550
100
AcDbZombieObject
 90
      499
 91
      509
 93
      452
310
43115919D950DBDB1BDC93D999916409028333333333333E3BF0000000000000FB010790141107004050150841D405064090741402480A0350
1001
ACAD
1000
AcDbSavedByObjectVersion
1070
     0
  0
ACAD_PROXY_OBJECT
  5
955F
102
{ACAD_REACTORS
330
9550
102
}
330
9550
100
AcDbZombieObject
 90
      499
 91
      509
 93
      444
310
42D19858D95C185D1D195C9B90F409028333333333333E3BF0000000000000FB010790141107004050150841D405064090741402480A0350
1001
ACAD
1000
AcDbSavedByObjectVersion
1070
     0
  0
ACAD_PROXY_OBJECT
  5
9551
102
{ACAD_REACTORS
330
9550
102
}
330
9550
100
AcDbZombieObject
 90
      499
 91
      509
 93
      388
310
41119B185D240901404333333333333E3BF0000000000000F9010740A41107004050150841D405064090741402480A1B50
1001
ACAD
1000
AcDbSavedByObjectVersion
1070
     0
  0
ACAD_PROXY_OBJECT
  5
9552
102
{ACAD_REACTORS
330
9550
102
}
330
9550
100
AcDbZombieObject
 90
      499
 91
      509
 93
      476
310
43519B185D15DA5D1A115919D95CD0140901404333333333333E3BF0000000000000F9010740901411070040501600405405064090741402480A1B50
1001
ACAD
1000
AcDbSavedByObjectVersion
1070
     0
  0
ACAD_PROXY_OBJECT
  5
9553
102
{ACAD_REACTORS
330
9550
102
}
330
9550
100
AcDbZombieObject
 90
      499
 91
      509
 93
      412
310
41D1DBDD5C985D5910240902404333333333333E3BF0000000000000F9010740A411070040501641D405064090741402480A1B50
1001
ACAD
1000
AcDbSavedByObjectVersion
1070
     0
  0
ACAD_PROXY_OBJECT
  5
9554
102
{ACAD_REACTORS
330
9550
102
}
330
9550
100
AcDbZombieObject
 90
      499
 91
      509
 93
      500
310
4411DBDD5C985D5915DA5D1A115919D95CD0340902404333333333333E3BF0000000000000F9010740901411070040501600405405064090741402480A1B50
1001
ACAD
1000
AcDbSavedByObjectVersion
1070
     0
  0
ACAD_PROXY_OBJECT
  5
A260
102
{ACAD_REACTORS
330
9550
102
}
330
9550
100
AcDbZombieObject
 90
      499
 91
      509
 93
      476
310
41921A5919195B90640502408333333333333E3BF0000000000000FB01079024090700405020000000000001110200405405064090740C02480A0340
1001
ACAD
1000
AcDbSavedByObjectVersion
1070
     0
  0
ACAD_PROXY_OBJECT
  5
A20F
102
{ACAD_REACTORS
330
9550
102
}
330
9550
100
AcDbZombieObject
 90
      499
 91
      509
 93
      428
310
42529A5D1D195C93D999914409028333333333333E3BF0000000000000FB010790141107004050150A41D405064090741402480A0350
1001
ACAD
1000
AcDbSavedByObjectVersion
1070
     0
  0
ACAD_PROXY_OBJECT
  5
955E
102
{ACAD_REACTORS
330
9550
102
}
330
9550
100
AcDbZombieObject
 90
      499
 91
      509
 93
      444
310
42D31A5B995C185D1D195C9B90E409028333333333333E3BF0000000000000FB010790141107004050750841D405064090741402483A0350
1001
ACAD
1000
AcDbSavedByObjectVersion
1070
     0
  0
ACAD_PROXY_OBJECT
  5
A266
102
{ACAD_REACTORS
330
9550
102
}
330
9550
100
AcDbZombieObject
 90
      499
 91
      509
 93
      484
310
42135BD9195B1A5B99D0A409028333333333333E3BF0000000000000F901074090290700405010000000000201990108421405064090741402480A1B40
1001
ACAD
1000
AcDbSavedByObjectVersion
1070
     0
  0
ACAD_PROXY_OBJECT
  5
A210
102
{ACAD_REACTORS
330
9550
102
}
330
9550
100
AcDbZombieObject
 90
      499
 91
      509
 93
      444
310
42D3DD995C9A185B99D3D999915409028333333333333E3BF0000000000000FB010790141107004050150941D405064090741402480A0350
1001
ACAD
1000
AcDbSavedByObjectVersion
1070
     0
  0
ACAD_PROXY_OBJECT
  5
955A
102
{ACAD_REACTORS
330
9550
102
}
330
9550
100
AcDbZombieObject
 90
      499
 91
      509
 93
      420
310
425499585B1A5CDD1A58D08409028333333333333E3BF0000000000000FB01079019070040501508421405064090741402480A1B40
1001
ACAD
1000
AcDbSavedByObjectVersion
1070
     0
  0
ACAD_PROXY_OBJECT
  5
A265
102
{ACAD_REACTORS
330
9550
102
}
330
9550
100
AcDbZombieObject
 90
      499
 91
      509
 93
      420
310
4194DA1859195911B40902404333333333333E3BF0000000000000F9010740A41107004050150800405405064090840C02480A0B40
1001
ACAD
1000
AcDbSavedByObjectVersion
1070
     0
  0
ACAD_PROXY_OBJECT
  5
A264
102
{ACAD_REACTORS
330
9550
102
}
330
9550
100
AcDbZombieObject
 90
      499
 91
      509
 93
      516
310
4454DA18591959081DDA5D1A08195919D95CD1A40902404333333333333E3BF0000000000000F901074090142907004050250800405405064090740C02480A0B40
1001
ACAD
1000
AcDbSavedByObjectVersion
1070
     0
  0
ACAD_PROXY_OBJECT
  5
A261
102
{ACAD_REACTORS
330
9550
102
}
330
9550
100
AcDbZombieObject
 90
      499
 91
      509
 93
      532
310
4394DA1859195CC81BD98811DC985E5174090240C333333333333E3BF0000000000000FB01079024090741D01000000000000111010841D405064090740C02480A0340
1001
ACAD
1000
AcDbSavedByObjectVersion
1070
     0
  0
ACAD_PROXY_OBJECT
  5
A262
102
{ACAD_REACTORS
330
9550
102
}
330
9550
100
AcDbZombieObject
 90
      499
 91
      509
 93
      476
310
41D4DAD95D18DA1E51840502408333333333333E3BF0000000000000FB01079024090741D01000000000000111010B41D405064090741802480A0340
1001
ACAD
1000
AcDbSavedByObjectVersion
1070
     0
  0
ACAD_PROXY_OBJECT
  5
955D
102
{ACAD_REACTORS
330
9550
102
}
330
9550
100
AcDbZombieObject
 90
      499
 91
      509
 93
      412
310
41D51A1A58DAD95B90D409028333333333333E3BF0000000000000FB010790141107004050150C41D405064090741402480A0350
1001
ACAD
1000
AcDbSavedByObjectVersion
1070
     0
  0
ACAD_PROXY_OBJECT
  5
A25F
102
{ACAD_REACTORS
330
9550
102
}
330
9550
100
AcDbZombieObject
 90
      499
 91
      509
 93
      420
310
4255DA5C99599C985B595059028333333333333E3BF0000000000000FB0107901411070040501600405405064090740C02480A0340
1001
ACAD
1000
AcDbSavedByObjectVersion
1070
     0
  0
ACAD_PROXY_OBJECT
  5
A263
102
{ACAD_REACTORS
330
9550
102
}
330
9550
100
AcDbZombieObject
 90
      499
 91
      509
 93
      404
310
41560B54985E51940902404000000000000E03F0000000000000FB010740501907004050150841D405064090740C02480A1B40
1001
ACAD
1000
AcDbSavedByObjectVersion
1070
     0
  0
XRECORD
  5
B825
102
{ACAD_REACTORS
330
B824
102
}
330
B824
100
AcDbXrecord
340
18D
  0
XRECORD
  5
B826
102
{ACAD_REACTORS
330
B824
102
}
330
B824
100
AcDbXrecord
340
18C
  0
DICTIONARYVAR
  5
AAE0
102
{ACAD_REACTORS
330
37
102
}
330
37
100
DictionaryVariables
280
     0
  1
1:1
  0
DICTIONARYVAR
  5
9627
102
{ACAD_REACTORS
330
37
102
}
330
37
100
DictionaryVariables
280
     0
  1
Standard
  0
DICTIONARYVAR
  5
29E
102
{ACAD_REACTORS
330
37
102
}
330
37
100
DictionaryVariables
280
     0
  1
Standard
  0
DICTIONARYVAR
  5
38
102
{ACAD_REACTORS
330
37
102
}
330
37
100
DictionaryVariables
280
     0
  1
-1
  0
DICTIONARYVAR
  5
1CE
102
{ACAD_REACTORS
330
37
102
}
330
37
100
DictionaryVariables
280
     0
  1
2
  0
DICTIONARYVAR
  5
704E
102
{ACAD_REACTORS
330
37
102
}
330
37
100
DictionaryVariables
280
     0
  1
1
  0
DICTIONARYVAR
  5
962A
102
{ACAD_REACTORS
330
37
102
}
330
37
100
DictionaryVariables
280
     0
  1
0
  0
DICTIONARYVAR
  5
7052
102
{ACAD_REACTORS
330
37
102
}
330
37
100
DictionaryVariables
280
     0
  1
8
  0
DICTIONARYVAR
  5
7051
102
{ACAD_REACTORS
330
37
102
}
330
37
100
DictionaryVariables
280
     0
  1
1
  0
DICTIONARYVAR
  5
AB30
102
{ACAD_REACTORS
330
37
102
}
330
37
100
DictionaryVariables
280
     0
  1
0
  0
DICTIONARYVAR
  5
704F
102
{ACAD_REACTORS
330
37
102
}
330
37
100
DictionaryVariables
280
     0
  1
8
  0
DICTIONARYVAR
  5
7050
102
{ACAD_REACTORS
330
37
102
}
330
37
100
DictionaryVariables
280
     0
  1
2
  0
DICTIONARYVAR
  5
1CF
102
{ACAD_REACTORS
330
37
102
}
330
37
100
DictionaryVariables
280
     0
  1

  0
DICTIONARYVAR
  5
9629
102
{ACAD_REACTORS
330
37
102
}
330
37
100
DictionaryVariables
280
     0
  1
127
  0
DICTIONARYVAR
  5
B55F
102
{ACAD_REACTORS
330
37
102
}
330
37
100
DictionaryVariables
280
     0
  1
2
  0
DICTIONARY
  5
B9C2
330
9540
100
AcDbDictionary
  3
ACAD_XREC_ROUNDTRIP
360
B9C3
1001
ACAD
1000
TREAT_AS_HARD
1070
     1
  0
DICTIONARY
  5
B9C4
330
9538
100
AcDbDictionary
  3
ACAD_XREC_ROUNDTRIP
360
B9C5
1001
ACAD
1000
TREAT_AS_HARD
1070
     1
  0
DICTIONARY
  5
B9C6
330
9548
100
AcDbDictionary
  3
ACAD_XREC_ROUNDTRIP
360
B9C7
1001
ACAD
1000
TREAT_AS_HARD
1070
     1
  0
XRECORD
  5
B9C3
102
{ACAD_REACTORS
330
B9C2
102
}
330
B9C2
100
AcDbXrecord
102
MATERIAL
148
0.0
149
0.0
149
0.0
 93
        0
 94
      127
282
     0
 72
     0
 77
     0
171
     0
175
     0
179
     0
273
     0
  0
XRECORD
  5
B9C5
102
{ACAD_REACTORS
330
B9C4
102
}
330
B9C4
100
AcDbXrecord
102
MATERIAL
148
0.0
149
0.0
149
0.0
 93
        0
 94
      127
282
     0
 72
     0
 77
     0
171
     0
175
     0
179
     0
273
     0
  0
XRECORD
  5
B9C7
102
{ACAD_REACTORS
330
B9C6
102
}
330
B9C6
100
AcDbXrecord
102
MATERIAL
148
0.0
149
0.0
149
0.0
 93
        0
 94
      127
282
     0
 72
     0
 77
     0
171
     0
175
     0
179
     0
273
     0
  0
ENDSEC
  0
EOF
