  0
SECTION
  2
HEADER
  9
$ACADVER
  1
AC1012
  9
$DWGCODEPAGE
  3
ansi_932
  9
$INSBASE
 10
0.0
 20
0.0
 30
0.0
  9
$EXTMIN
 10
4659.121964282098
 20
237.6128813137811
 30
0.0000000001127424
  9
$EXTMAX
 10
4977.550249664529
 20
477.6115630006784
 30
0.0000000001127424
  9
$LIMMIN
 10
0.0
 20
0.0
  9
$LIMMAX
 10
420.0
 20
297.0
  9
$ORTHOMODE
 70
     0
  9
$REGENMODE
 70
     1
  9
$FILLMODE
 70
     1
  9
$QTEXTMODE
 70
     0
  9
$MIRRTEXT
 70
     0
  9
$DRAGMODE
 70
     2
  9
$LTSCALE
 40
0.5
  9
$OSMODE
 70
 14463
  9
$ATTMODE
 70
     1
  9
$TEXTSIZE
 40
4.0
  9
$TRACEWID
 40
1.0
  9
$TEXTSTYLE
  7
STANDARD
  9
$CLAYER
  8
1TEXT
  9
$CELTYPE
  6
BYLAYER
  9
$CECOLOR
 62
   256
  9
$CELTSCALE
 40
1.0
  9
$DELOBJ
 70
     1
  9
$DISPSILH
 70
     0
  9
$DIMSCALE
 40
1.0
  9
$DIMASZ
 40
2.0
  9
$DIMEXO
 40
0.0
  9
$DIMDLI
 40
7.0
  9
$DIMRND
 40
0.0
  9
$DIMDLE
 40
0.0
  9
$DIMEXE
 40
1.0
  9
$DIMTP
 40
0.0
  9
$DIMTM
 40
0.0
  9
$DIMTXT
 40
3.5
  9
$DIMCEN
 40
0.0
  9
$DIMTSZ
 40
0.0
  9
$DIMTOL
 70
     0
  9
$DIMLIM
 70
     0
  9
$DIMTIH
 70
     0
  9
$DIMTOH
 70
     0
  9
$DIMSE1
 70
     0
  9
$DIMSE2
 70
     0
  9
$DIMTAD
 70
     1
  9
$DIMZIN
 70
     8
  9
$DIMBLK
  1

  9
$DIMASO
 70
     1
  9
$DIMSHO
 70
     1
  9
$DIMPOST
  1
 
  9
$DIMAPOST
  1

  9
$DIMALT
 70
     0
  9
$DIMALTD
 70
     2
  9
$DIMALTF
 40
25.4
  9
$DIMLFAC
 40
1.0
  9
$DIMTOFL
 70
     1
  9
$DIMTVP
 40
0.0
  9
$DIMTIX
 70
     0
  9
$DIMSOXD
 70
     0
  9
$DIMSAH
 70
     1
  9
$DIMBLK1
  1
OPEN30
  9
$DIMBLK2
  1
OPEN30
  9
$DIMSTYLE
  2
NEWX10
  9
$DIMCLRD
 70
   256
  9
$DIMCLRE
 70
   256
  9
$DIMCLRT
 70
   201
  9
$DIMTFAC
 40
0.7
  9
$DIMGAP
 40
0.7
  9
$DIMJUST
 70
     0
  9
$DIMSD1
 70
     0
  9
$DIMSD2
 70
     0
  9
$DIMTOLJ
 70
     1
  9
$DIMTZIN
 70
     8
  9
$DIMALTZ
 70
     0
  9
$DIMALTTZ
 70
     0
  9
$DIMFIT
 70
     2
  9
$DIMUPT
 70
     0
  9
$DIMUNIT
 70
     2
  9
$DIMDEC
 70
     2
  9
$DIMTDEC
 70
     4
  9
$DIMALTU
 70
     2
  9
$DIMALTTD
 70
     2
  9
$DIMTXSTY
  7
STANDARD
  9
$DIMAUNIT
 70
     0
  9
$LUNITS
 70
     2
  9
$LUPREC
 70
     4
  9
$SKETCHINC
 40
1.0
  9
$FILLETRAD
 40
0.0
  9
$AUNITS
 70
     0
  9
$AUPREC
 70
     2
  9
$MENU
  1
acad
  9
$ELEVATION
 40
0.0
  9
$PELEVATION
 40
0.0
  9
$THICKNESS
 40
0.0
  9
$LIMCHECK
 70
     0
  9
$CHAMFERA
 40
10.0
  9
$CHAMFERB
 40
10.0
  9
$CHAMFERC
 40
20.0
  9
$CHAMFERD
 40
0.0
  9
$SKPOLY
 70
     0
  9
$TDCREATE
 40
2451318.621352917
  9
$TDUPDATE
 40
2458159.435893542
  9
$TDINDWG
 40
1.4829709722
  9
$TDUSRTIMER
 40
1.4829709722
  9
$USRTIMER
 70
     1
  9
$ANGBASE
 50
0.0
  9
$ANGDIR
 70
     0
  9
$PDMODE
 70
     0
  9
$PDSIZE
 40
0.0
  9
$PLINEWID
 40
0.0
  9
$COORDS
 70
     2
  9
$SPLFRAME
 70
     0
  9
$SPLINETYPE
 70
     6
  9
$SPLINESEGS
 70
     8
  9
$ATTDIA
 70
     0
  9
$ATTREQ
 70
     1
  9
$HANDLING
 70
     1
  9
$HANDSEED
  5
E68F
  9
$SURFTAB1
 70
     6
  9
$SURFTAB2
 70
     6
  9
$SURFTYPE
 70
     6
  9
$SURFU
 70
     6
  9
$SURFV
 70
     6
  9
$UCSNAME
  2

  9
$UCSORG
 10
0.0
 20
0.0
 30
0.0
  9
$UCSXDIR
 10
1.0
 20
0.0
 30
0.0
  9
$UCSYDIR
 10
0.0
 20
1.0
 30
0.0
  9
$PUCSNAME
  2

  9
$PUCSORG
 10
0.0
 20
0.0
 30
0.0
  9
$PUCSXDIR
 10
1.0
 20
0.0
 30
0.0
  9
$PUCSYDIR
 10
0.0
 20
1.0
 30
0.0
  9
$USERI1
 70
     0
  9
$USERI2
 70
     0
  9
$USERI3
 70
     0
  9
$USERI4
 70
     0
  9
$USERI5
 70
     0
  9
$USERR1
 40
0.0
  9
$USERR2
 40
0.0
  9
$USERR3
 40
0.0
  9
$USERR4
 40
0.0
  9
$USERR5
 40
0.0
  9
$WORLDVIEW
 70
     1
  9
$SHADEDGE
 70
     3
  9
$SHADEDIF
 70
    70
  9
$TILEMODE
 70
     1
  9
$MAXACTVP
 70
    48
  9
$PINSBASE
 10
0.0
 20
0.0
 30
0.0
  9
$PLIMCHECK
 70
     0
  9
$PEXTMIN
 10
1.000000000000000E+20
 20
1.000000000000000E+20
 30
1.000000000000000E+20
  9
$PEXTMAX
 10
-1.000000000000000E+20
 20
-1.000000000000000E+20
 30
-1.000000000000000E+20
  9
$PLIMMIN
 10
0.0
 20
0.0
  9
$PLIMMAX
 10
420.0
 20
297.0
  9
$UNITMODE
 70
     0
  9
$VISRETAIN
 70
     1
  9
$PLINEGEN
 70
     0
  9
$PSLTSCALE
 70
     1
  9
$TREEDEPTH
 70
  3020
  9
$PICKSTYLE
 70
     1
  9
$CMLSTYLE
  2
STANDARD
  9
$CMLJUST
 70
     0
  9
$CMLSCALE
 40
20.0
  9
$SAVEIMAGES
 70
     1
  0
ENDSEC
  0
SECTION
  2
CLASSES
  0
CLASS
  1
DICTIONARYVAR
  2
AcDbDictionaryVar
  3
ObjectDBX Classes
 90
        0
280
     0
281
     0
  0
CLASS
  1
IDBUFFER
  2
AcDbIdBuffer
  3
ObjectDBX Classes
 90
    32768
280
     0
281
     0
  0
CLASS
  1
LWPOLYLINE
  2
AcDbPolyline
  3
ObjectDBX Classes
 90
    32768
280
     0
281
     1
  0
CLASS
  1
ACDBDICTIONARYWDFLT
  2
AcDbDictionaryWithDefault
  3
ObjectDBX Classes
 90
    32768
280
     0
281
     0
  0
CLASS
  1
ACDBPLACEHOLDER
  2
AcDbPlaceHolder
  3
ObjectDBX Classes
 90
        0
280
     0
281
     0
  0
CLASS
  1
LAYOUT
  2
AcDbLayout
  3
ObjectDBX Classes
 90
        0
280
     0
281
     0
  0
CLASS
  1
TABLESTYLE
  2
AcDbTableStyle
  3
ObjectDBX Classes
 90
     4095
280
     0
281
     0
  0
CLASS
  1
SORTENTSTABLE
  2
AcDbSortentsTable
  3
ObjectDBX Classes
 90
    32768
280
     0
281
     0
  0
CLASS
  1
MATERIAL
  2
AcDbMaterial
  3
ObjectDBX Classes
 90
     1153
280
     0
281
     0
  0
CLASS
  1
VISUALSTYLE
  2
AcDbVisualStyle
  3
ObjectDBX Classes
 90
     4095
280
     0
281
     0
  0
CLASS
  1
SCALE
  2
AcDbScale
  3
ObjectDBX Classes
 90
     1153
280
     0
281
     0
  0
CLASS
  1
MLEADERSTYLE
  2
AcDbMLeaderStyle
  3
ACDB_MLEADERSTYLE_CLASS
 90
     4095
280
     0
281
     0
  0
CLASS
  1
CELLSTYLEMAP
  2
AcDbCellStyleMap
  3
ObjectDBX Classes
 90
     1152
280
     0
281
     0
  0
CLASS
  1
SUN
  2
AcDbSun
  3
SCENEOE
 90
     1153
280
     0
281
     0
  0
CLASS
  1
XRECORD
  2
AcDbXrecord
  3
ObjectDBX Classes
 90
    32768
280
     0
281
     0
  0
CLASS
  1
HATCH
  2
AcDbHatch
  3
ObjectDBX Classes
 90
    32768
280
     0
281
     1
  0
ENDSEC
  0
SECTION
  2
TABLES
  0
TABLE
  2
VPORT
  5
8
330
0
100
AcDbSymbolTable
 70
     1
  0
VPORT
  5
952D
330
8
100
AcDbSymbolTableRecord
100
AcDbViewportTableRecord
  2
*ACTIVE
 70
     0
 10
0.0
 20
0.0
 11
1.0
 21
1.0
 12
4818.336106973313
 22
357.6122221572298
 13
0.0
 23
0.0
 14
10.0
 24
10.0
 15
10.0
 25
10.0
 16
0.0
 26
0.0
 36
1.0
 17
0.0
 27
0.0
 37
0.0
 40
257.6827950743529
 41
1.871481028151775
 42
50.0
 43
0.0
 44
0.0
 50
0.0
 51
0.0
 71
    16
 72
   100
 73
     1
 74
     1
 75
     0
 76
     0
 77
     0
 78
     0
1001
ACAD_NAV_VCDISPLAY
1070
     3
  0
ENDTAB
  0
TABLE
  2
LTYPE
  5
5
330
0
100
AcDbSymbolTable
 70
     2
  0
LTYPE
  5
12
330
5
100
AcDbSymbolTableRecord
100
AcDbLinetypeTableRecord
  2
BYBLOCK
 70
     0
  3

 72
    65
 73
     0
 40
0.0
  0
LTYPE
  5
13
330
5
100
AcDbSymbolTableRecord
100
AcDbLinetypeTableRecord
  2
BYLAYER
 70
     0
  3

 72
    65
 73
     0
 40
0.0
  0
LTYPE
  5
14
330
5
100
AcDbSymbolTableRecord
100
AcDbLinetypeTableRecord
  2
CONTINUOUS
 70
     0
  3
Solid line
 72
    65
 73
     0
 40
0.0
  0
LTYPE
  5
9837
330
5
100
AcDbSymbolTableRecord
100
AcDbLinetypeTableRecord
  2
CENTER2
 70
     0
  3
Center (.5x) ___ _ ___ _ ___ _ ___ _ ___ _ ___
 72
    65
 73
     4
 40
28.575
 49
19.05
 74
     0
 49
-3.175
 74
     0
 49
3.175
 74
     0
 49
-3.175
 74
     0
  0
ENDTAB
  0
TABLE
  2
LAYER
  5
2
102
{ACAD_XDICTIONARY
360
96D9
102
}
330
0
100
AcDbSymbolTable
 70
     5
  0
LAYER
  5
E
102
{ACAD_XDICTIONARY
360
9593
102
}
330
2
100
AcDbSymbolTableRecord
100
AcDbLayerTableRecord
  2
0
 70
     0
 62
     7
  6
CONTINUOUS
  0
LAYER
  5
29
102
{ACAD_XDICTIONARY
360
9595
102
}
330
2
100
AcDbSymbolTableRecord
100
AcDbLayerTableRecord
  2
1CENTER
 70
     0
 62
     7
  6
CENTER2
  0
LAYER
  5
31
102
{ACAD_XDICTIONARY
360
9597
102
}
330
2
100
AcDbSymbolTableRecord
100
AcDbLayerTableRecord
  2
1TEXT
 70
     0
 62
     7
  6
CONTINUOUS
  0
LAYER
  5
243
102
{ACAD_XDICTIONARY
360
959D
102
}
330
2
100
AcDbSymbolTableRecord
100
AcDbLayerTableRecord
  2
01
 70
     0
 62
     1
  6
CONTINUOUS
  0
LAYER
  5
24E
102
{ACAD_XDICTIONARY
360
95A3
102
}
330
2
100
AcDbSymbolTableRecord
100
AcDbLayerTableRecord
  2
1DIM
 70
     0
 62
     7
  6
CONTINUOUS
  0
ENDTAB
  0
TABLE
  2
STYLE
  5
3
330
0
100
AcDbSymbolTable
 70
     1
  0
STYLE
  5
F
330
3
100
AcDbSymbolTableRecord
100
AcDbTextStyleTableRecord
  2
STANDARD
 70
     0
 40
0.0
 41
1.0
 50
0.0
 71
     0
 42
4.0
  3
txt.shx
  4
extfont.shx
  0
ENDTAB
  0
TABLE
  2
VIEW
  5
6
330
0
100
AcDbSymbolTable
 70
     0
  0
ENDTAB
  0
TABLE
  2
UCS
  5
7
330
0
100
AcDbSymbolTable
 70
     0
  0
ENDTAB
  0
TABLE
  2
APPID
  5
9
330
0
100
AcDbSymbolTable
 70
    14
  0
APPID
  5
10
330
9
100
AcDbSymbolTableRecord
100
AcDbRegAppTableRecord
  2
ACAD
 70
     0
  0
APPID
  5
21
330
9
100
AcDbSymbolTableRecord
100
AcDbRegAppTableRecord
  2
DRAWINGVARIABLESXDATA
 70
     0
  0
APPID
  5
64
330
9
100
AcDbSymbolTableRecord
100
AcDbRegAppTableRecord
  2
CONTENTTABDATA
 70
     0
  0
APPID
  5
65
330
9
100
AcDbSymbolTableRecord
100
AcDbRegAppTableRecord
  2
CONTENTCURRENTTAB
 70
     0
  0
APPID
  5
66
330
9
100
AcDbSymbolTableRecord
100
AcDbRegAppTableRecord
  2
CONTENTBLOCKDESCRIPTION
 70
     0
  0
APPID
  5
67
330
9
100
AcDbSymbolTableRecord
100
AcDbRegAppTableRecord
  2
CONTENTBLOCKICON
 70
     0
  0
APPID
  5
68
330
9
100
AcDbSymbolTableRecord
100
AcDbRegAppTableRecord
  2
CONTENTLONGBLOCKNAME
 70
     0
  0
APPID
  5
2AE
330
9
100
AcDbSymbolTableRecord
100
AcDbRegAppTableRecord
  2
ACAD_PSEXT
 70
     0
  0
APPID
  5
9585
330
9
100
AcDbSymbolTableRecord
100
AcDbRegAppTableRecord
  2
ACAD_MLEADERVER
 70
     0
  0
APPID
  5
A2E3
330
9
100
AcDbSymbolTableRecord
100
AcDbRegAppTableRecord
  2
ACADANNOTATIVE
 70
     0
  0
APPID
  5
A2E4
330
9
100
AcDbSymbolTableRecord
100
AcDbRegAppTableRecord
  2
ACDBBLOCKREPETAG
 70
     0
  0
APPID
  5
AEB1
330
9
100
AcDbSymbolTableRecord
100
AcDbRegAppTableRecord
  2
ACAD_NAV_VCDISPLAY
 70
     0
  0
APPID
  5
B6A4
330
9
100
AcDbSymbolTableRecord
100
AcDbRegAppTableRecord
  2
ACAECLAYERSTANDARD
 70
     0
  0
APPID
  5
E1EF
330
9
100
AcDbSymbolTableRecord
100
AcDbRegAppTableRecord
  2
ACAD_EXEMPT_FROM_CAD_STAND
 70
     0
  0
ENDTAB
  0
TABLE
  2
DIMSTYLE
  5
A
330
0
100
AcDbSymbolTable
 70
     1
  0
DIMSTYLE
105
48
330
A
100
AcDbSymbolTableRecord
100
AcDbDimStyleTableRecord
  2
NEWX10
 70
     0
  3
 
  4

  5

  6
OPEN30
  7
OPEN30
 40
1.0
 41
2.0
 42
0.0
 43
7.0
 44
1.0
 45
0.0
 46
0.0
 47
0.0
 48
0.0
140
3.5
141
0.0
142
0.0
143
25.4
144
1.0
145
0.0
146
0.7
147
0.7
 71
     0
 72
     0
 73
     0
 74
     0
 75
     0
 76
     0
 77
     1
 78
     8
170
     0
171
     2
172
     1
173
     1
174
     0
175
     0
176
   256
177
   256
178
   201
179
     2
270
     2
271
     2
272
     4
273
     2
274
     2
340
F
275
     0
280
     0
281
     0
282
     0
283
     1
284
     8
285
     0
286
     0
287
     2
288
     0
  0
ENDTAB
  0
TABLE
  2
BLOCK_RECORD
  5
1
330
0
100
AcDbSymbolTable
 70
     8
  0
BLOCK_RECORD
  5
18
102
{ACAD_XDICTIONARY
360
88F
102
}
330
1
100
AcDbSymbolTableRecord
100
AcDbBlockTableRecord
  2
*MODEL_SPACE
  0
BLOCK_RECORD
  5
15
330
1
100
AcDbSymbolTableRecord
100
AcDbBlockTableRecord
  2
*PAPER_SPACE
  0
BLOCK_RECORD
  5
42
330
1
100
AcDbSymbolTableRecord
100
AcDbBlockTableRecord
  2
_OPEN30
  0
BLOCK_RECORD
  5
A333
330
1
100
AcDbSymbolTableRecord
100
AcDbBlockTableRecord
  2
A3WAKUKAWAJUN2017_HYOUDAI_
  0
BLOCK_RECORD
  5
E4EF
330
1
100
AcDbSymbolTableRecord
100
AcDbBlockTableRecord
  2
*X19
  0
BLOCK_RECORD
  5
E53D
330
1
100
AcDbSymbolTableRecord
100
AcDbBlockTableRecord
  2
*X20
  0
BLOCK_RECORD
  5
E58F
330
1
100
AcDbSymbolTableRecord
100
AcDbBlockTableRecord
  2
*X21
  0
BLOCK_RECORD
  5
E5E0
330
1
100
AcDbSymbolTableRecord
100
AcDbBlockTableRecord
  2
*X22
  0
BLOCK_RECORD
  5
E61D
330
1
100
AcDbSymbolTableRecord
100
AcDbBlockTableRecord
  2
*X23
  0
BLOCK_RECORD
  5
E65D
330
1
100
AcDbSymbolTableRecord
100
AcDbBlockTableRecord
  2
*X24
  0
ENDTAB
  0
ENDSEC
  0
SECTION
  2
BLOCKS
  0
BLOCK
  5
19
330
18
100
AcDbEntity
  8
0
100
AcDbBlockBegin
  2
*MODEL_SPACE
 70
     0
 10
0.0
 20
0.0
 30
0.0
  3
*MODEL_SPACE
  1

  0
ENDBLK
  5
1A
330
18
100
AcDbEntity
  8
0
100
AcDbBlockEnd
  0
BLOCK
  5
16
330
15
100
AcDbEntity
 67
     1
  8
0
100
AcDbBlockBegin
  2
*PAPER_SPACE
 70
     0
 10
0.0
 20
0.0
 30
0.0
  3
*PAPER_SPACE
  1

  0
ENDBLK
  5
17
330
15
100
AcDbEntity
 67
     1
  8
0
100
AcDbBlockEnd
  0
BLOCK
  5
43
330
42
100
AcDbEntity
  8
0
100
AcDbBlockBegin
  2
_OPEN30
 70
     0
 10
0.0
 20
0.0
 30
0.0
  3
_OPEN30
  1

  0
LINE
  5
44
330
42
100
AcDbEntity
  8
0
  6
BYBLOCK
 62
     0
100
AcDbLine
 10
-1.0
 20
0.26794919
 30
0.0
 11
0.0
 21
0.0
 31
0.0
  0
LINE
  5
45
330
42
100
AcDbEntity
  8
0
  6
BYBLOCK
 62
     0
100
AcDbLine
 10
0.0
 20
0.0
 30
0.0
 11
-1.0
 21
-0.26794919
 31
0.0
  0
LINE
  5
46
330
42
100
AcDbEntity
  8
0
  6
BYBLOCK
 62
     0
100
AcDbLine
 10
0.0
 20
0.0
 30
0.0
 11
-1.0
 21
0.0
 31
0.0
  0
ENDBLK
  5
47
330
42
100
AcDbEntity
  8
0
100
AcDbBlockEnd
  0
BLOCK
  5
AA56
330
A333
100
AcDbEntity
  8
0
100
AcDbBlockBegin
  2
A3WAKUKAWAJUN2017_HYOUDAI_
 70
     0
 10
0.0
 20
0.0
 30
0.0
  3
A3WAKUKAWAJUN2017_HYOUDAI_
  1

  0
LINE
  5
A335
330
A333
100
AcDbEntity
  8
0
100
AcDbLine
 10
13.26299999998673
 20
-0.0001000000000317
 30
0.0
 11
9.236999999990758
 21
8.999899999990987
 31
0.0
1001
ACAD
1000
ASC_BOUNDS
1002
{
1070
    19
1005
A376
1002
}
  0
LINE
  5
A336
330
A333
100
AcDbEntity
  8
0
100
AcDbLine
 10
5.657999999994331
 20
0.9999999999989768
 30
0.0
 11
9.236999999990758
 21
8.999999999991019
 31
0.0
1001
ACAD
1000
ASC_BOUNDS
1002
{
1070
    19
1005
A376
1002
}
  0
LINE
  5
A337
330
A333
100
AcDbEntity
  8
0
100
AcDbLine
 10
18.59199999998134
 20
-0.2368999999997641
 30
0.0
 11
16.46099999998353
 21
5.432899999994561
 31
0.0
1001
ACAD
1000
ASC_BOUNDS
1002
{
1070
    19
1005
A377
1002
}
  0
LINE
  5
A338
330
A333
100
AcDbEntity
  8
0
100
AcDbLine
 10
18.59199999998134
 20
-0.2368999999997641
 30
0.0
 11
22.38199999997767
 21
8.763099999991255
 31
0.0
1001
ACAD
1000
ASC_BOUNDS
1002
{
1070
    19
1005
A377
1002
}
  0
LINE
  5
A339
330
A333
100
AcDbEntity
  8
0
100
AcDbLine
 10
14.32899999998563
 20
-0.2368999999997641
 30
0.0
 11
16.46099999998353
 21
5.432899999994561
 31
0.0
1001
ACAD
1000
ASC_BOUNDS
1002
{
1070
    19
1005
A377
1002
}
  0
LINE
  5
A33A
330
A333
100
AcDbEntity
  8
0
100
AcDbLine
 10
14.32899999998563
 20
-0.2368999999997641
 30
0.0
 11
10.53899999998941
 21
8.763099999991255
 31
0.0
1001
ACAD
1000
ASC_BOUNDS
1002
{
1070
    19
1005
A377
1002
}
  0
LINE
  5
A33B
330
A333
100
AcDbEntity
  8
0
100
AcDbLine
 10
19.53899999998043
 20
-0.0001000000000317
 30
0.0
 11
23.56599999997638
 21
8.999899999990987
 31
0.0
1001
ACAD
1000
ASC_BOUNDS
1002
{
1070
    19
1005
A378
1002
}
  0
LINE
  5
A33C
330
A333
100
AcDbEntity
  8
0
100
AcDbLine
 10
26.97358892824991
 20
1.383099999991202
 30
0.0
 11
23.56599999997638
 21
8.999899999990987
 31
0.0
1001
ACAD
1000
ASC_BOUNDS
1002
{
1070
    19
1005
A378
1002
}
  0
LINE
  5
A33D
330
A333
100
AcDbEntity
  8
0
100
AcDbLine
 10
5.657999999994331
 20
0.9999999999989768
 30
0.0
 11
3.181999999996833
 21
4.668599999995308
 31
0.0
1001
ACAD
1000
ASC_BOUNDS
1002
{
1070
    19
1005
A376
1002
}
  0
LINE
  5
A33E
330
A333
100
AcDbEntity
  8
0
100
AcDbLine
 10
4.617999999995391
 20
-0.0001000000000317
 30
0.0
 11
1.420999999998571
 21
4.736799999995242
 31
0.0
1001
ACAD
1000
ASC_BOUNDS
1002
{
1070
    19
1005
A376
1002
}
  0
LINE
  5
A33F
330
A333
100
AcDbEntity
  8
0
100
AcDbLine
 10
1.420999999998571
 20
8.763099999991255
 30
0.0
 11
1.420999999998571
 21
0.0
 31
0.0
1001
ACAD
1000
ASC_BOUNDS
1002
{
1070
    19
1005
A37B
1002
}
  0
LINE
  5
A340
330
A333
100
AcDbEntity
  8
0
100
AcDbLine
 10
0.0
 20
8.763099999991255
 30
0.0
 11
0.0
 21
0.0
 31
0.0
1001
ACAD
1000
ASC_BOUNDS
1002
{
1070
    19
1005
A37B
1002
}
  0
LINE
  5
A341
330
A333
100
AcDbEntity
  8
0
100
AcDbLine
 10
6.766999999993232
 20
-0.0001000000000317
 30
0.0
 11
7.826999999992154
 21
2.368399999997621
 31
0.0
1001
ACAD
1000
ASC_BOUNDS
1002
{
1070
    19
1005
A376
1002
}
  0
LINE
  5
A342
330
A333
100
AcDbEntity
  8
0
100
AcDbLine
 10
0.0
 20
0.0
 30
0.0
 11
1.420999999998571
 21
0.0
 31
0.0
1001
ACAD
1000
ASC_BOUNDS
1002
{
1070
    19
1005
A37B
1002
}
  0
LINE
  5
A343
330
A333
100
AcDbEntity
  8
0
100
AcDbLine
 10
4.617999999995391
 20
0.0
 30
0.0
 11
6.766999999993232
 21
0.0
 31
0.0
1001
ACAD
1000
ASC_BOUNDS
1002
{
1070
    19
1005
A376
1002
}
  0
LINE
  5
A344
330
A333
100
AcDbEntity
  8
0
100
AcDbLine
 10
11.70599999998831
 20
-0.0001000000000317
 30
0.0
 11
10.64699999998936
 21
2.368399999997621
 31
0.0
1001
ACAD
1000
ASC_BOUNDS
1002
{
1070
    19
1005
A376
1002
}
  0
LINE
  5
A345
330
A333
100
AcDbEntity
  8
0
100
AcDbLine
 10
7.826999999992154
 20
2.368399999997621
 30
0.0
 11
10.64699999998936
 21
2.368399999997621
 31
0.0
1001
ACAD
1000
ASC_BOUNDS
1002
{
1070
    19
1005
A376
1002
}
  0
LINE
  5
A346
330
A333
100
AcDbEntity
  8
0
100
AcDbLine
 10
11.70599999998831
 20
0.0
 30
0.0
 11
13.26299999998673
 21
0.0
 31
0.0
1001
ACAD
1000
ASC_BOUNDS
1002
{
1070
    19
1005
A376
1002
}
  0
LINE
  5
A347
330
A333
100
AcDbEntity
  8
0
100
AcDbLine
 10
22.15599999997789
 20
2.368399999997621
 30
0.0
 11
24.97599999997499
 21
2.368399999997621
 31
0.0
1001
ACAD
1000
ASC_BOUNDS
1002
{
1070
    19
1005
A378
1002
}
  0
LINE
  5
A348
330
A333
100
AcDbEntity
  8
0
100
AcDbLine
 10
19.53899999998043
 20
0.0
 30
0.0
 11
21.09599999997886
 21
0.0
 31
0.0
1001
ACAD
1000
ASC_BOUNDS
1002
{
1070
    19
1005
A378
1002
}
  0
LINE
  5
A349
330
A333
100
AcDbEntity
  8
0
100
AcDbLine
 10
21.09599999997886
 20
-0.0001000000000317
 30
0.0
 11
22.15599999997789
 21
2.368399999997621
 31
0.0
1001
ACAD
1000
ASC_BOUNDS
1002
{
1070
    19
1005
A378
1002
}
  0
LINE
  5
A34A
330
A333
100
AcDbEntity
  8
0
100
AcDbLine
 10
26.02015566812236
 20
0.0330999999912365
 30
0.0
 11
24.97599999997499
 21
2.368399999997621
 31
0.0
1001
ACAD
1000
ASC_BOUNDS
1002
{
1070
    19
1005
A378
1002
}
  0
LINE
  5
A34B
330
A333
100
AcDbEntity
  8
0
100
AcDbLine
 10
14.32399999998563
 20
3.315799999996671
 30
0.0
 11
16.46099999998353
 21
8.999899999990987
 31
0.0
1001
ACAD
1000
ASC_BOUNDS
1002
{
1070
    19
1005
A377
1002
}
  0
LINE
  5
A34C
330
A333
100
AcDbEntity
  8
0
100
AcDbLine
 10
6.432999999993513
 20
8.763099999991255
 30
0.0
 11
3.181999999996833
 21
4.668599999995308
 31
0.0
1001
ACAD
1000
ASC_BOUNDS
1002
{
1070
    19
1005
A376
1002
}
  0
LINE
  5
A34D
330
A333
100
AcDbEntity
  8
0
100
AcDbLine
 10
4.617999999995391
 20
8.763099999991255
 30
0.0
 11
1.420999999998571
 21
4.736799999995242
 31
0.0
1001
ACAD
1000
ASC_BOUNDS
1002
{
1070
    19
1005
A376
1002
}
  0
LINE
  5
A34E
330
A333
100
AcDbEntity
  8
0
100
AcDbLine
 10
0.0
 20
8.763099999991255
 30
0.0
 11
1.420999999998571
 21
8.763099999991255
 31
0.0
1001
ACAD
1000
ASC_BOUNDS
1002
{
1070
    19
1005
A37B
1002
}
  0
LINE
  5
A34F
330
A333
100
AcDbEntity
  8
0
100
AcDbLine
 10
4.617999999995391
 20
8.763099999991255
 30
0.0
 11
6.432999999993513
 21
8.763099999991255
 31
0.0
1001
ACAD
1000
ASC_BOUNDS
1002
{
1070
    19
1005
A376
1002
}
  0
LINE
  5
A350
330
A333
100
AcDbEntity
  8
0
100
AcDbLine
 10
14.32399999998563
 20
3.315799999996671
 30
0.0
 11
12.02999999998792
 21
8.763099999991255
 31
0.0
1001
ACAD
1000
ASC_BOUNDS
1002
{
1070
    19
1005
A377
1002
}
  0
LINE
  5
A351
330
A333
100
AcDbEntity
  8
0
100
AcDbLine
 10
10.06399999998996
 20
3.670999999996297
 30
0.0
 11
9.236999999990758
 21
5.5200999999945
 31
0.0
1001
ACAD
1000
ASC_BOUNDS
1002
{
1070
    19
1005
A376
1002
}
  0
LINE
  5
A352
330
A333
100
AcDbEntity
  8
0
100
AcDbLine
 10
8.409999999991555
 20
3.670999999996297
 30
0.0
 11
9.236999999990758
 21
5.5200999999945
 31
0.0
1001
ACAD
1000
ASC_BOUNDS
1002
{
1070
    19
1005
A376
1002
}
  0
LINE
  5
A353
330
A333
100
AcDbEntity
  8
0
100
AcDbLine
 10
8.409999999991555
 20
3.670999999996297
 30
0.0
 11
10.06399999998996
 21
3.670999999996297
 31
0.0
1001
ACAD
1000
ASC_BOUNDS
1002
{
1070
    19
1005
A376
1002
}
  0
LINE
  5
A354
330
A333
100
AcDbEntity
  8
0
100
AcDbLine
 10
10.53899999998941
 20
8.763099999991255
 30
0.0
 11
12.02999999998792
 21
8.763099999991255
 31
0.0
1001
ACAD
1000
ASC_BOUNDS
1002
{
1070
    19
1005
A377
1002
}
  0
LINE
  5
A355
330
A333
100
AcDbEntity
  8
0
100
AcDbLine
 10
22.7389999999773
 20
3.670999999996297
 30
0.0
 11
23.56599999997638
 21
5.5200999999945
 31
0.0
1001
ACAD
1000
ASC_BOUNDS
1002
{
1070
    19
1005
A378
1002
}
  0
LINE
  5
A356
330
A333
100
AcDbEntity
  8
0
100
AcDbLine
 10
22.7389999999773
 20
3.670999999996297
 30
0.0
 11
24.39299999997559
 21
3.670999999996297
 31
0.0
1001
ACAD
1000
ASC_BOUNDS
1002
{
1070
    19
1005
A378
1002
}
  0
LINE
  5
A357
330
A333
100
AcDbEntity
  8
0
100
AcDbLine
 10
18.59799999998143
 20
3.315799999996671
 30
0.0
 11
20.89099999997916
 21
8.763099999991255
 31
0.0
1001
ACAD
1000
ASC_BOUNDS
1002
{
1070
    19
1005
A377
1002
}
  0
LINE
  5
A358
330
A333
100
AcDbEntity
  8
0
100
AcDbLine
 10
18.59799999998143
 20
3.315799999996671
 30
0.0
 11
16.46099999998353
 21
8.999899999990987
 31
0.0
1001
ACAD
1000
ASC_BOUNDS
1002
{
1070
    19
1005
A377
1002
}
  0
LINE
  5
A359
330
A333
100
AcDbEntity
  8
0
100
AcDbLine
 10
20.89099999997916
 20
8.763099999991255
 30
0.0
 11
22.38199999997767
 21
8.763099999991255
 31
0.0
1001
ACAD
1000
ASC_BOUNDS
1002
{
1070
    19
1005
A377
1002
}
  0
LINE
  5
A35A
330
A333
100
AcDbEntity
  8
0
100
AcDbLine
 10
24.39299999997559
 20
3.670999999996297
 30
0.0
 11
23.56599999997638
 21
5.5200999999945
 31
0.0
1001
ACAD
1000
ASC_BOUNDS
1002
{
1070
    19
1005
A378
1002
}
  0
LINE
  5
A35B
330
A333
100
AcDbEntity
  8
0
100
AcDbLine
 10
44.99999999995498
 20
-0.2368999999997641
 30
0.0
 11
40.02599999995994
 21
5.341799999994635
 31
0.0
1001
ACAD
1000
ASC_BOUNDS
1002
{
1070
    19
1005
A37A
1002
}
  0
LINE
  5
A35C
330
A333
100
AcDbEntity
  8
0
100
AcDbLine
 10
40.02599999995994
 20
5.341799999994635
 30
0.0
 11
40.02599999995994
 21
0.0
 31
0.0
1001
ACAD
1000
ASC_BOUNDS
1002
{
1070
    19
1005
A37A
1002
}
  0
LINE
  5
A35D
330
A333
100
AcDbEntity
  8
0
100
AcDbLine
 10
38.60499999996136
 20
8.999999999991019
 30
0.0
 11
38.60499999996136
 21
0.0
 31
0.0
1001
ACAD
1000
ASC_BOUNDS
1002
{
1070
    19
1005
A37A
1002
}
  0
LINE
  5
A35E
330
A333
100
AcDbEntity
  8
0
100
AcDbLine
 10
44.99999999995498
 20
8.763099999991255
 30
0.0
 11
44.99999999995498
 21
-0.2368999999997641
 31
0.0
1001
ACAD
1000
ASC_BOUNDS
1002
{
1070
    19
1005
A37A
1002
}
  0
LINE
  5
A35F
330
A333
100
AcDbEntity
  8
0
100
AcDbLine
 10
38.60499999996136
 20
0.0
 30
0.0
 11
40.02599999995994
 21
0.0
 31
0.0
1001
ACAD
1000
ASC_BOUNDS
1002
{
1070
    19
1005
A37A
1002
}
  0
LINE
  5
A360
330
A333
100
AcDbEntity
  8
0
100
AcDbLine
 10
43.57899999995641
 20
3.421199999996588
 30
0.0
 11
38.60499999996136
 21
8.999899999990987
 31
0.0
1001
ACAD
1000
ASC_BOUNDS
1002
{
1070
    19
1005
A37A
1002
}
  0
LINE
  5
A361
330
A333
100
AcDbEntity
  8
0
100
AcDbLine
 10
43.57899999995641
 20
8.763099999991255
 30
0.0
 11
43.57899999995641
 21
3.421199999996588
 31
0.0
1001
ACAD
1000
ASC_BOUNDS
1002
{
1070
    19
1005
A37A
1002
}
  0
LINE
  5
A362
330
A333
100
AcDbEntity
  8
0
100
AcDbLine
 10
43.57899999995641
 20
8.763099999991255
 30
0.0
 11
44.99999999995498
 21
8.763099999991255
 31
0.0
1001
ACAD
1000
ASC_BOUNDS
1002
{
1070
    19
1005
A37A
1002
}
  0
LINE
  5
A363
330
A333
100
AcDbEntity
  8
0
100
AcDbLine
 10
37.67199999996831
 20
8.763099999991255
 30
0.0
 11
36.23199999996837
 21
8.763099999991255
 31
0.0
  0
LINE
  5
A364
330
A333
100
AcDbEntity
  8
0
100
AcDbLine
 10
31.64199999996833
 20
8.763099999991255
 30
0.0
 11
31.64199999996833
 21
2.481619422925121
 31
0.0
  0
LINE
  5
A365
330
A333
100
AcDbEntity
  8
0
100
AcDbLine
 10
37.67199999996831
 20
8.763099999991255
 30
0.0
 11
37.67199999996831
 21
2.481619422925121
 31
0.0
  0
LINE
  5
A366
330
A333
100
AcDbEntity
  8
0
100
AcDbLine
 10
36.23199999996837
 20
8.763099999991255
 30
0.0
 11
36.23199999996837
 21
2.481619422925064
 31
0.0
  0
LINE
  5
A367
330
A333
100
AcDbEntity
  8
0
100
AcDbLine
 10
33.08199999996839
 20
8.763099999991255
 30
0.0
 11
33.08199999996839
 21
2.481619422925121
 31
0.0
  0
ARC
  5
A368
330
A333
100
AcDbEntity
  8
0
100
AcDbCircle
 10
34.65699999996832
 20
3.183099999991214
 30
0.0
 40
3.420000000000007
100
AcDbArc
 50
240.0000000000255
 51
299.9999999999766
  0
ARC
  5
A369
330
A333
100
AcDbEntity
  8
0
100
AcDbCircle
 10
34.65699999996832
 20
3.183099999991214
 30
0.0
 40
1.97999999999999
100
AcDbArc
 50
240.000000000026
 51
299.9999999999703
  0
LINE
  5
A36A
330
A333
100
AcDbEntity
  8
0
100
AcDbLine
 10
33.08199999996828
 20
8.763099999991255
 30
0.0
 11
31.64199999996833
 21
8.763099999991255
 31
0.0
  0
ARC
  5
A36B
330
A333
100
AcDbEntity
  8
0
100
AcDbCircle
 10
35.06199999996829
 20
2.481619422925064
 30
0.0
 40
1.17
100
AcDbArc
 50
299.9999999999699
 51
0.0
  0
ARC
  5
A36C
330
A333
100
AcDbEntity
  8
0
100
AcDbCircle
 10
34.25199999996835
 20
2.481619422925121
 30
0.0
 40
1.17
100
AcDbArc
 50
180.0
 51
240.0000000000238
  0
ARC
  5
A36D
330
A333
100
AcDbEntity
  8
0
100
AcDbCircle
 10
35.06199999996841
 20
2.481619422925121
 30
0.0
 40
2.61
100
AcDbArc
 50
299.9999999999756
 51
0.0
  0
ARC
  5
A36E
330
A333
100
AcDbEntity
  8
0
100
AcDbCircle
 10
34.25199999996835
 20
2.481619422925121
 30
0.0
 40
2.61
100
AcDbArc
 50
180.0
 51
240.0000000000244
  0
LINE
  5
A36F
330
A333
100
AcDbEntity
  8
0
100
AcDbLine
 10
29.30199999996933
 20
8.763099999991255
 30
0.0
 11
30.74199999996927
 21
8.763099999991255
 31
0.0
1001
ACAD
1000
ASC_BOUNDS
1002
{
1070
    19
1005
A378
1002
}
  0
LINE
  5
A370
330
A333
100
AcDbEntity
  8
0
100
AcDbLine
 10
30.74199999996927
 20
8.763099999991255
 30
0.0
 11
30.74199999996927
 21
2.373099999991211
 31
0.0
1001
ACAD
1000
ASC_BOUNDS
1002
{
1070
    19
1005
A378
1002
}
  0
LINE
  5
A371
330
A333
100
AcDbEntity
  8
0
100
AcDbLine
 10
26.02015566812236
 20
0.0330999999912365
 30
0.0
 11
28.40199999996923
 21
0.0330999999912365
 31
0.0
1001
ACAD
1000
ASC_BOUNDS
1002
{
1070
    19
1005
A378
1002
}
  0
LINE
  5
A372
330
A333
100
AcDbEntity
  8
0
100
AcDbLine
 10
29.30199999996933
 20
8.763099999991255
 30
0.0
 11
29.30199999996933
 21
2.283099999991236
 31
0.0
1001
ACAD
1000
ASC_BOUNDS
1002
{
1070
    19
1005
A378
1002
}
  0
LINE
  5
A373
330
A333
100
AcDbEntity
  8
0
100
AcDbLine
 10
26.97358892824991
 20
1.383099999991202
 30
0.0
 11
28.40199999996923
 21
1.383099999991202
 31
0.0
1001
ACAD
1000
ASC_BOUNDS
1002
{
1070
    19
1005
A378
1002
}
  0
ARC
  5
A374
330
A333
100
AcDbEntity
  8
0
100
AcDbCircle
 10
28.40199999996923
 20
2.283099999991236
 30
0.0
 40
0.9
100
AcDbArc
 50
270.0
 51
0.0
1001
ACAD
1000
ASC_BOUNDS
1002
{
1070
    19
1005
A378
1002
}
  0
ARC
  5
A375
330
A333
100
AcDbEntity
  8
0
100
AcDbCircle
 10
28.40199999996923
 20
2.373099999991211
 30
0.0
 40
2.34
100
AcDbArc
 50
270.0
 51
0.0
1001
ACAD
1000
ASC_BOUNDS
1002
{
1070
    19
1005
A378
1002
}
  0
INSERT
  5
A376
330
A333
100
AcDbEntity
  8
0
100
AcDbBlockReference
  2
*X19
 10
0.0
 20
0.0
 30
0.0
1001
ACAD
1000
HATCH
1002
{
1070
    19
1000
ANSI37
1040
0.15
1040
0.0
1000
ASC_BOUNDS
1070
     2
1070
     2
1070
    12
1005
A335
1005
A336
1005
A33D
1005
A34C
1005
A34F
1005
A34D
1005
A33E
1005
A343
1005
A341
1005
A345
1005
A344
1005
A346
1070
     2
1070
     3
1005
A351
1005
A353
1005
A352
1000
ASC_SEEDPOINT
1011
3.614004224891801
1021
2.996669441146025
1031
0.0
1000
R14_HATCH_DATA
1000
A376
1011
1.0
1021
0.0
1031
0.0
1011
0.0
1021
1.0
1031
0.0
1011
0.0
1021
0.0
1031
1.0
1040
0.0
1010
0.0
1020
0.0
1030
1.0
1000
ANSI37
1070
     0
1070
     1
1071
        2
1071
        7
1070
     0
1070
     1
1071
       17
1040
13.26299999998673
1040
-0.0001000000000317
1040
9.236999999990758
1040
8.999899999990987
1040
9.236999999990758
1040
8.999999999991019
1040
5.657999999994331
1040
0.9999999999989768
1040
3.181999999996833
1040
4.668599999995308
1040
6.432999999993513
1040
8.763099999991255
1040
4.617999999995391
1040
8.763099999991255
1040
1.420999999998571
1040
4.736799999995242
1040
4.617999999995391
1040
-0.0001000000000317
1040
4.617999999995391
1040
0.0
1040
6.766999999993232
1040
0.0
1040
6.766999999993232
1040
-0.0001000000000317
1040
7.826999999992154
1040
2.368399999997621
1040
10.64699999998936
1040
2.368399999997621
1040
11.70599999998831
1040
-0.0001000000000317
1040
11.70599999998831
1040
0.0
1040
13.26299999998673
1040
0.0
1071
       12
1005
A335
1005
A336
1005
A33D
1005
A34C
1005
A34F
1005
A34D
1005
A33E
1005
A343
1005
A341
1005
A345
1005
A344
1005
A346
1071
       22
1070
     0
1070
     1
1071
        3
1040
9.236999999990758
1040
5.5200999999945
1040
10.06399999998996
1040
3.670999999996297
1040
8.409999999991555
1040
3.670999999996297
1071
        3
1005
A351
1005
A353
1005
A352
1070
     0
1070
     1
1040
0.0
1040
0.15
1070
     0
1070
     2
1040
0.7853981633974483
1040
49.29960901727088
1040
-10.17736998311392
1040
-0.3367596045400932
1040
0.3367596045400932
1070
     0
1040
2.356194490192345
1040
49.29960901727088
1040
-10.17736998311392
1040
-0.3367596045400932
1040
-0.3367596045400932
1070
     0
1040
0.0110235143455945
1071
        2
1040
3.614004224891801
1040
2.996669441146025
1040
0.0
1040
3.614004224891801
1040
2.996669441146025
1040
0.0
1002
}
  0
INSERT
  5
A377
330
A333
100
AcDbEntity
  8
0
100
AcDbBlockReference
  2
*X20
 10
0.0
 20
0.0
 30
0.0
1001
ACAD
1000
HATCH
1002
{
1070
    19
1000
ANSI37
1040
0.15
1040
0.0
1000
ASC_BOUNDS
1070
     1
1070
     2
1070
    10
1005
A337
1005
A338
1005
A359
1005
A357
1005
A358
1005
A34B
1005
A350
1005
A354
1005
A33A
1005
A339
1000
ASC_SEEDPOINT
1011
14.73245321214324
1021
2.798246178283421
1031
0.0
1000
R14_HATCH_DATA
1000
A377
1011
1.0
1021
0.0
1031
0.0
1011
0.0
1021
1.0
1031
0.0
1011
0.0
1021
0.0
1031
1.0
1040
0.0
1010
0.0
1020
0.0
1030
1.0
1000
ANSI37
1070
     0
1070
     1
1071
        1
1071
        7
1070
     0
1070
     1
1071
       10
1040
16.46099999998353
1040
5.432899999994561
1040
18.59199999998134
1040
-0.2368999999997641
1040
22.38199999997767
1040
8.763099999991255
1040
20.89099999997916
1040
8.763099999991255
1040
18.59799999998143
1040
3.315799999996671
1040
16.46099999998353
1040
8.999899999990987
1040
14.32399999998563
1040
3.315799999996671
1040
12.02999999998792
1040
8.763099999991255
1040
10.53899999998941
1040
8.763099999991255
1040
14.32899999998563
1040
-0.2368999999997641
1071
       10
1005
A337
1005
A338
1005
A359
1005
A357
1005
A358
1005
A34B
1005
A350
1005
A354
1005
A33A
1005
A339
1070
     0
1070
     1
1040
0.0
1040
0.15
1070
     0
1070
     2
1040
0.7853981633974483
1040
49.29960901727088
1040
-10.17736998311392
1040
-0.3367596045400932
1040
0.3367596045400932
1070
     0
1040
2.356194490192345
1040
49.29960901727088
1040
-10.17736998311392
1040
-0.3367596045400932
1040
-0.3367596045400932
1070
     0
1040
0.0110235143455945
1071
        1
1040
14.73245321214324
1040
2.798246178283421
1040
0.0
1002
}
  0
INSERT
  5
A378
330
A333
100
AcDbEntity
  8
0
100
AcDbBlockReference
  2
*X21
 10
0.0
 20
0.0
 30
0.0
1001
ACAD
1000
HATCH
1002
{
1070
    19
1000
ANSI37
1040
0.15
1040
0.0
1000
ASC_BOUNDS
1070
     2
1070
     2
1070
    13
1005
A33B
1005
A348
1005
A349
1005
A347
1005
A34A
1005
A371
1005
A375
1005
A370
1005
A36F
1005
A372
1005
A374
1005
A373
1005
A33C
1070
     2
1070
     3
1005
A355
1005
A35A
1005
A356
1000
ASC_SEEDPOINT
1011
21.97929957367762
1021
3.294304244259308
1031
0.0
1000
R14_HATCH_DATA
1000
A378
1011
1.0
1021
0.0
1031
0.0
1011
0.0
1021
1.0
1031
0.0
1011
0.0
1021
0.0
1031
1.0
1040
0.0
1010
0.0
1020
0.0
1030
1.0
1000
ANSI37
1070
     0
1070
     1
1071
        2
1071
        7
1070
     1
1070
     1
1071
       15
1040
23.56599999997638
1040
8.999899999990987
1040
0.0
1040
19.53899999998043
1040
-0.0001000000000317
1040
0.0
1040
19.53899999998043
1040
0.0
1040
0.0
1040
21.09599999997886
1040
0.0
1040
0.0
1040
21.09599999997886
1040
-0.0001000000000317
1040
0.0
1040
22.15599999997789
1040
2.368399999997621
1040
0.0
1040
24.97599999997499
1040
2.368399999997621
1040
0.0
1040
26.02015566812236
1040
0.0330999999912365
1040
0.0
1040
28.40199999996923
1040
0.0330999999912365
1040
0.414213562373095
1040
30.74199999996923
1040
2.373099999991211
1040
0.0
1040
30.74199999996927
1040
8.763099999991255
1040
0.0
1040
29.30199999996933
1040
8.763099999991255
1040
0.0
1040
29.30199999996933
1040
2.283099999991236
1040
-0.414213562373095
1040
28.40199999996923
1040
1.383099999991237
1040
0.0
1040
26.97358892824991
1040
1.383099999991202
1040
0.0
1071
       13
1005
A33B
1005
A348
1005
A349
1005
A347
1005
A34A
1005
A371
1005
A375
1005
A370
1005
A36F
1005
A372
1005
A374
1005
A373
1005
A33C
1071
       22
1070
     0
1070
     1
1071
        3
1040
22.7389999999773
1040
3.670999999996297
1040
23.56599999997638
1040
5.5200999999945
1040
24.39299999997559
1040
3.670999999996297
1071
        3
1005
A355
1005
A35A
1005
A356
1070
     0
1070
     1
1040
0.0
1040
0.15
1070
     0
1070
     2
1040
0.7853981633974483
1040
49.29960901727088
1040
-10.17736998311392
1040
-0.3367596045400932
1040
0.3367596045400932
1070
     0
1040
2.356194490192345
1040
49.29960901727088
1040
-10.17736998311392
1040
-0.3367596045400932
1040
-0.3367596045400932
1070
     0
1040
0.0110235143455945
1071
        2
1040
21.97929957367762
1040
3.294304244259308
1040
0.0
1040
21.97929957367762
1040
3.294304244259308
1040
0.0
1002
}
  0
INSERT
  5
A379
330
A333
100
AcDbEntity
  8
0
100
AcDbBlockReference
  2
*X22
 10
0.0
 20
0.0
 30
0.0
1001
ACAD
1000
HATCH
1002
{
1070
    19
1000
ANSI37
1040
0.15
1040
0.0
1000
R14_HATCH_DATA
1000
A379
1011
1.0
1021
0.0
1031
0.0
1011
0.0
1021
1.0
1031
0.0
1011
0.0
1021
0.0
1031
1.0
1040
0.0
1010
0.0
1020
0.0
1030
1.0
1000
ANSI37
1070
     0
1070
     1
1071
        1
1071
        7
1070
     1
1070
     1
1071
       12
1040
31.64199999996833
1040
2.481619422925121
1040
0.2679491924310942
1040
32.94699999997067
1040
0.2212931190493919
1040
0.2679491924301353
1040
36.36699999995983
1040
0.2212931190459813
1040
0.2679491924321411
1040
37.67199999996831
1040
2.481619422928361
1040
0.0
1040
37.67199999996831
1040
8.763099999991255
1040
0.0
1040
36.23199999996837
1040
8.763099999991255
1040
0.0
1040
36.23199999996837
1040
2.481619422925064
1040
-0.2679491924310291
1040
35.64699999996708
1040
1.468369700498386
1040
-0.267949192430519
1040
33.66699999997093
1040
1.468369700497703
1040
-0.267949192431809
1040
33.08199999996839
1040
2.481619422926997
1040
0.0
1040
33.08199999996839
1040
8.763099999991255
1040
0.0
1040
31.64199999996833
1040
8.763099999991255
1040
0.0
1071
        0
1070
     0
1070
     1
1040
0.0
1040
0.15
1070
     0
1070
     2
1040
0.7853981633974483
1040
49.29960901727088
1040
-10.17736998311392
1040
-0.3367596045400932
1040
0.3367596045400932
1070
     0
1040
2.356194490192345
1040
49.29960901727088
1040
-10.17736998311392
1040
-0.3367596045400932
1040
-0.3367596045400932
1070
     0
1040
0.0110235143455945
1071
        1
1040
32.30357378967278
1040
3.988785755459219
1040
0.0
1002
}
  0
INSERT
  5
A37A
330
A333
100
AcDbEntity
  8
0
100
AcDbBlockReference
  2
*X23
 10
0.0
 20
0.0
 30
0.0
1001
ACAD
1000
HATCH
1002
{
1070
    19
1000
ANSI37
1040
0.15
1040
0.0
1000
ASC_BOUNDS
1070
     1
1070
     2
1070
     8
1005
A35B
1005
A35E
1005
A362
1005
A361
1005
A360
1005
A35D
1005
A35F
1005
A35C
1000
ASC_SEEDPOINT
1011
39.74896370716704
1021
4.484843821435049
1031
0.0
1000
R14_HATCH_DATA
1000
A37A
1011
1.0
1021
0.0
1031
0.0
1011
0.0
1021
1.0
1031
0.0
1011
0.0
1021
0.0
1031
1.0
1040
0.0
1010
0.0
1020
0.0
1030
1.0
1000
ANSI37
1070
     0
1070
     1
1071
        1
1071
        7
1070
     0
1070
     1
1071
        9
1040
40.02599999995994
1040
5.341799999994635
1040
44.99999999995498
1040
-0.2368999999997641
1040
44.99999999995498
1040
8.763099999991255
1040
43.57899999995641
1040
8.763099999991255
1040
43.57899999995641
1040
3.421199999996588
1040
38.60499999996136
1040
8.999899999990987
1040
38.60499999996136
1040
8.999999999991019
1040
38.60499999996136
1040
0.0
1040
40.02599999995994
1040
0.0
1071
        8
1005
A35B
1005
A35E
1005
A362
1005
A361
1005
A360
1005
A35D
1005
A35F
1005
A35C
1070
     0
1070
     1
1040
0.0
1040
0.15
1070
     0
1070
     2
1040
0.7853981633974483
1040
49.29960901727088
1040
-10.17736998311392
1040
-0.3367596045400932
1040
0.3367596045400932
1070
     0
1040
2.356194490192345
1040
49.29960901727088
1040
-10.17736998311392
1040
-0.3367596045400932
1040
-0.3367596045400932
1070
     0
1040
0.0110235143455945
1071
        1
1040
39.74896370716704
1040
4.484843821435049
1040
0.0
1002
}
  0
INSERT
  5
A37B
330
A333
100
AcDbEntity
  8
0
100
AcDbBlockReference
  2
*X24
 10
0.0
 20
0.0
 30
0.0
1001
ACAD
1000
HATCH
1002
{
1070
    19
1000
ANSI37
1040
0.15
1040
0.0
1000
ASC_BOUNDS
1070
     1
1070
     2
1070
     4
1005
A33F
1005
A34E
1005
A340
1005
A342
1000
ASC_SEEDPOINT
1011
1.079051535452663
1021
4.148538732891836
1031
0.0
1000
R14_HATCH_DATA
1000
A37B
1011
1.0
1021
0.0
1031
0.0
1011
0.0
1021
1.0
1031
0.0
1011
0.0
1021
0.0
1031
1.0
1040
0.0
1010
0.0
1020
0.0
1030
1.0
1000
ANSI37
1070
     0
1070
     1
1071
        1
1071
        7
1070
     0
1070
     1
1071
        4
1040
1.420999999998571
1040
0.0
1040
1.420999999998571
1040
8.763099999991255
1040
0.0
1040
8.763099999991255
1040
0.0
1040
0.0
1071
        4
1005
A33F
1005
A34E
1005
A340
1005
A342
1070
     0
1070
     1
1040
0.0
1040
0.15
1070
     0
1070
     2
1040
0.7853981633974483
1040
49.29960901727088
1040
-10.17736998311392
1040
-0.3367596045400932
1040
0.3367596045400932
1070
     0
1040
2.356194490192345
1040
49.29960901727088
1040
-10.17736998311392
1040
-0.3367596045400932
1040
-0.3367596045400932
1070
     0
1040
0.0053004257112761
1071
        1
1040
1.079051535452663
1040
4.148538732891836
1040
0.0
1002
}
  0
ENDBLK
  5
AA57
330
A333
100
AcDbEntity
  8
0
100
AcDbBlockEnd
  0
BLOCK
  5
E67D
330
E4EF
100
AcDbEntity
  8
0
100
AcDbBlockBegin
  2
*X19
 70
     1
 10
0.0
 20
0.0
 30
0.0
  3
*X19
  1

  0
LINE
  5
E4F0
330
E4EF
100
AcDbEntity
  8
0
  6
CONTINUOUS
100
AcDbLine
 10
3.418023043697893
 20
7.251849696850613
 30
0.0
 11
4.929273346838536
 21
8.763099999991255
 31
0.0
  0
LINE
  5
E4F1
330
E4EF
100
AcDbEntity
  8
0
  6
CONTINUOUS
100
AcDbLine
 10
1.483656411257782
 20
4.643963855330318
 30
0.0
 11
5.60279255591872
 21
8.763099999991255
 31
0.0
  0
LINE
  5
E4F2
330
E4EF
100
AcDbEntity
  8
0
  6
CONTINUOUS
100
AcDbLine
 10
1.755053947328235
 20
4.241842182320584
 30
0.0
 11
6.276311764998907
 21
8.763099999991255
 31
0.0
  0
LINE
  5
E4F3
330
E4EF
100
AcDbEntity
  8
0
  6
CONTINUOUS
100
AcDbLine
 10
2.026451483398688
 20
3.839720509310849
 30
0.0
 11
4.441040904851878
 21
6.254309930764039
 31
0.0
  0
LINE
  5
E4F4
330
E4EF
100
AcDbEntity
  8
0
  6
CONTINUOUS
100
AcDbLine
 10
2.297849019469139
 20
3.437598836301114
 30
0.0
 11
3.321765168359338
 21
4.461514985191313
 31
0.0
  0
LINE
  5
E4F5
330
E4EF
100
AcDbEntity
  8
0
  6
CONTINUOUS
100
AcDbLine
 10
2.569246555539591
 20
3.03547716329138
 30
0.0
 11
3.593163397972743
 21
4.059394005724531
 31
0.0
  0
LINE
  5
E4F6
330
E4EF
100
AcDbEntity
  8
0
  6
CONTINUOUS
100
AcDbLine
 10
2.840644091610043
 20
2.633355490281646
 30
0.0
 11
3.864561627586149
 21
3.657273026257751
 31
0.0
  0
LINE
  5
E4F7
330
E4EF
100
AcDbEntity
  8
0
  6
CONTINUOUS
100
AcDbLine
 10
3.112041627680496
 20
2.231233817271911
 30
0.0
 11
4.135959857199554
 21
3.25515204679097
 31
0.0
  0
LINE
  5
E4F8
330
E4EF
100
AcDbEntity
  8
0
  6
CONTINUOUS
100
AcDbLine
 10
3.383439163750948
 20
1.829112144262177
 30
0.0
 11
4.40735808681296
 21
2.853031067324189
 31
0.0
  0
LINE
  5
E4F9
330
E4EF
100
AcDbEntity
  8
0
  6
CONTINUOUS
100
AcDbLine
 10
3.654836699821399
 20
1.426990471252442
 30
0.0
 11
4.678756316426365
 21
2.450910087857407
 31
0.0
  0
LINE
  5
E4FA
330
E4EF
100
AcDbEntity
  8
0
  6
CONTINUOUS
100
AcDbLine
 10
3.926234235891853
 20
1.024868798242709
 30
0.0
 11
4.95015454603977
 21
2.048789108390626
 31
0.0
  0
LINE
  5
E4FB
330
E4EF
100
AcDbEntity
  8
0
  6
CONTINUOUS
100
AcDbLine
 10
4.197631771962304
 20
0.6227471252329737
 30
0.0
 11
5.221552775653176
 21
1.646668128923846
 31
0.0
  0
LINE
  5
E4FC
330
E4EF
100
AcDbEntity
  8
0
  6
CONTINUOUS
100
AcDbLine
 10
8.715877546767851
 20
7.835069736359266
 30
0.0
 11
9.435953450375058
 21
8.555145639966472
 31
0.0
  0
LINE
  5
E4FD
330
E4EF
100
AcDbEntity
  8
0
  6
CONTINUOUS
100
AcDbLine
 10
8.170620868422267
 20
6.616293848933497
 30
0.0
 11
9.644120833743461
 21
8.08979381425469
 31
0.0
  0
LINE
  5
E4FE
330
E4EF
100
AcDbEntity
  8
0
  6
CONTINUOUS
100
AcDbLine
 10
7.625364190076684
 20
5.397517961507727
 30
0.0
 11
9.852288217111864
 21
7.624441988542907
 31
0.0
  0
LINE
  5
E4FF
330
E4EF
100
AcDbEntity
  8
0
  6
CONTINUOUS
100
AcDbLine
 10
7.080107511731101
 20
4.178742074081957
 30
0.0
 11
10.06045560048027
 21
7.159090162831124
 31
0.0
  0
LINE
  5
E500
330
E4EF
100
AcDbEntity
  8
0
  6
CONTINUOUS
100
AcDbLine
 10
6.534850833385518
 20
2.959966186656187
 30
0.0
 11
10.26862298384867
 21
6.693738337119342
 31
0.0
  0
LINE
  5
E501
330
E4EF
100
AcDbEntity
  8
0
  6
CONTINUOUS
100
AcDbLine
 10
4.469029308032756
 20
0.2206254522232385
 30
0.0
 11
5.492951005266582
 21
1.244547149457064
 31
0.0
  0
LINE
  5
E502
330
E4EF
100
AcDbEntity
  8
0
  6
CONTINUOUS
100
AcDbLine
 10
5.989594155039935
 20
1.741190299230417
 30
0.0
 11
8.806950407233131
 21
4.558546551423613
 31
0.0
  0
LINE
  5
E503
330
E4EF
100
AcDbEntity
  8
0
  6
CONTINUOUS
100
AcDbLine
 10
9.401251593263643
 20
5.152847737454126
 30
0.0
 11
10.47679036721708
 21
6.228386511407559
 31
0.0
  0
LINE
  5
E504
330
E4EF
100
AcDbEntity
  8
0
  6
CONTINUOUS
100
AcDbLine
 10
4.921837203428691
 20
-0.0000858614610131
 30
0.0
 11
8.592923064886001
 21
3.670999999996297
 31
0.0
  0
LINE
  5
E505
330
E4EF
100
AcDbEntity
  8
0
  6
CONTINUOUS
100
AcDbLine
 10
9.609390446785305
 20
4.6874673818956
 30
0.0
 11
10.68495775058548
 21
5.763034685695775
 31
0.0
  0
LINE
  5
E506
330
E4EF
100
AcDbEntity
  8
0
  6
CONTINUOUS
100
AcDbLine
 10
5.595387755019432
 20
-0.0000545189504582
 30
0.0
 11
7.716137258923768
 21
2.120694984953879
 31
0.0
  0
LINE
  5
E507
330
E4EF
100
AcDbEntity
  8
0
  6
CONTINUOUS
100
AcDbLine
 10
6.268938306610172
 20
-0.000023176439905
 30
0.0
 11
7.170485805526503
 21
0.9015243224764267
 31
0.0
  0
LINE
  5
E508
330
E4EF
100
AcDbEntity
  8
0
  6
CONTINUOUS
100
AcDbLine
 10
7.963842273967511
 20
2.368399999997621
 30
0.0
 11
9.266442273966188
 21
3.670999999996297
 31
0.0
  0
LINE
  5
E509
330
E4EF
100
AcDbEntity
  8
0
  6
CONTINUOUS
100
AcDbLine
 10
8.637361483047696
 20
2.368399999997621
 30
0.0
 11
9.939961483046375
 21
3.670999999996297
 31
0.0
  0
LINE
  5
E50A
330
E4EF
100
AcDbEntity
  8
0
  6
CONTINUOUS
100
AcDbLine
 10
9.817529300306965
 20
4.222087026337075
 30
0.0
 11
10.89312513395388
 21
5.297682859983993
 31
0.0
  0
LINE
  5
E50B
330
E4EF
100
AcDbEntity
  8
0
  6
CONTINUOUS
100
AcDbLine
 10
10.02566815382863
 20
3.756706670778549
 30
0.0
 11
11.10129251732229
 21
4.832331034272211
 31
0.0
  0
LINE
  5
E50C
330
E4EF
100
AcDbEntity
  8
0
  6
CONTINUOUS
100
AcDbLine
 10
9.310880692127883
 20
2.368399999997621
 30
0.0
 11
11.30945990069069
 21
4.366979208560428
 31
0.0
  0
LINE
  5
E50D
330
E4EF
100
AcDbEntity
  8
0
  6
CONTINUOUS
100
AcDbLine
 10
9.98439990120807
 20
2.36839999999762
 30
0.0
 11
11.5176272840591
 21
3.901627382848645
 31
0.0
  0
LINE
  5
E50E
330
E4EF
100
AcDbEntity
  8
0
  6
CONTINUOUS
100
AcDbLine
 10
10.65037369446246
 20
2.36085458417182
 30
0.0
 11
11.7257946674275
 21
3.436275557136862
 31
0.0
  0
LINE
  5
E50F
330
E4EF
100
AcDbEntity
  8
0
  6
CONTINUOUS
100
AcDbLine
 10
10.85847197087848
 20
1.895433651507656
 30
0.0
 11
11.9339620507959
 21
2.97092373142508
 31
0.0
  0
LINE
  5
E510
330
E4EF
100
AcDbEntity
  8
0
  6
CONTINUOUS
100
AcDbLine
 10
11.0665702472945
 20
1.430012718843491
 30
0.0
 11
12.14212943416431
 21
2.505571905713296
 31
0.0
  0
LINE
  5
E511
330
E4EF
100
AcDbEntity
  8
0
  6
CONTINUOUS
100
AcDbLine
 10
11.27466852371052
 20
0.9645917861793256
 30
0.0
 11
12.35029681753271
 21
2.040220080001513
 31
0.0
  0
LINE
  5
E512
330
E4EF
100
AcDbEntity
  8
0
  6
CONTINUOUS
100
AcDbLine
 10
11.48276680012654
 20
0.4991708535151611
 30
0.0
 11
12.55846420090111
 21
1.57486825428973
 31
0.0
  0
LINE
  5
E513
330
E4EF
100
AcDbEntity
  8
0
  6
CONTINUOUS
100
AcDbLine
 10
11.69086507654257
 20
0.0337499208509957
 30
0.0
 11
12.76663158426952
 21
1.109516428577947
 31
0.0
  0
LINE
  5
E514
330
E4EF
100
AcDbEntity
  8
0
  6
CONTINUOUS
100
AcDbLine
 10
12.33057447873954
 20
-0.0000598860322123
 30
0.0
 11
12.97479896763792
 21
0.6441646028661663
 31
0.0
  0
LINE
  5
E515
330
E4EF
100
AcDbEntity
  8
0
  6
CONTINUOUS
100
AcDbLine
 10
13.00413694809395
 20
-0.0000166257579952
 30
0.0
 11
13.18296635100632
 21
0.1788127771543824
 31
0.0
  0
LINE
  5
E516
330
E4EF
100
AcDbEntity
  8
0
  6
CONTINUOUS
100
AcDbLine
 10
4.772852165289667
 20
-0.000092794222212
 30
0.0
 11
4.296495091028902
 21
0.4762642800385528
 31
0.0
  0
LINE
  5
E517
330
E4EF
100
AcDbEntity
  8
0
  6
CONTINUOUS
100
AcDbLine
 10
5.446340034776103
 20
-0.0000614546284616
 30
0.0
 11
2.898195908335625
 21
2.548082671812017
 31
0.0
  0
LINE
  5
E518
330
E4EF
100
AcDbEntity
  8
0
  6
CONTINUOUS
100
AcDbLine
 10
6.119827904262539
 20
-0.0000301150347113
 30
0.0
 11
1.499896725642348
 21
4.61990106358548
 31
0.0
  0
LINE
  5
E519
330
E4EF
100
AcDbEntity
  8
0
  6
CONTINUOUS
100
AcDbLine
 10
6.775136745476159
 20
0.0181802528318542
 30
0.0
 11
5.699826040202669
 21
1.093490958105344
 31
0.0
  0
LINE
  5
E51A
330
E4EF
100
AcDbEntity
  8
0
  6
CONTINUOUS
100
AcDbLine
 10
6.983376846288489
 20
0.4834593610997118
 30
0.0
 11
5.908008617934405
 21
1.558827589453796
 31
0.0
  0
LINE
  5
E51B
330
E4EF
100
AcDbEntity
  8
0
  6
CONTINUOUS
100
AcDbLine
 10
5.377063484962296
 20
1.416253513345719
 30
0.0
 11
1.702276957014131
 21
5.091040041293883
 31
0.0
  0
LINE
  5
E51C
330
E4EF
100
AcDbEntity
  8
0
  6
CONTINUOUS
100
AcDbLine
 10
3.978745891735324
 20
3.488090315652877
 30
0.0
 11
2.000373521109399
 21
5.466462686278803
 31
0.0
  0
LINE
  5
E51D
330
E4EF
100
AcDbEntity
  8
0
  6
CONTINUOUS
100
AcDbLine
 10
7.191616947100819
 20
0.948738469367568
 30
0.0
 11
6.11619119566614
 21
2.024164220802247
 31
0.0
  0
LINE
  5
E51E
330
E4EF
100
AcDbEntity
  8
0
  6
CONTINUOUS
100
AcDbLine
 10
7.399857047913149
 20
1.414017577635424
 30
0.0
 11
6.324373773397875
 21
2.489500852150698
 31
0.0
  0
LINE
  5
E51F
330
E4EF
100
AcDbEntity
  8
0
  6
CONTINUOUS
100
AcDbLine
 10
7.608097148725479
 20
1.879296685903281
 30
0.0
 11
6.53255635112961
 21
2.95483748349915
 31
0.0
  0
LINE
  5
E520
330
E4EF
100
AcDbEntity
  8
0
  6
CONTINUOUS
100
AcDbLine
 10
7.816337249537808
 20
2.344575794171138
 30
0.0
 11
6.740738928861345
 21
3.420174114847601
 31
0.0
  0
LINE
  5
E521
330
E4EF
100
AcDbEntity
  8
0
  6
CONTINUOUS
100
AcDbLine
 10
3.310241080789734
 20
4.830114335678653
 30
0.0
 11
2.298470085204666
 21
5.84188533126372
 31
0.0
  0
LINE
  5
E522
330
E4EF
100
AcDbEntity
  8
0
  6
CONTINUOUS
100
AcDbLine
 10
3.60832983563551
 20
5.205544789913063
 30
0.0
 11
2.596566649299935
 21
6.217307976248638
 31
0.0
  0
LINE
  5
E523
330
E4EF
100
AcDbEntity
  8
0
  6
CONTINUOUS
100
AcDbLine
 10
3.906418590481286
 20
5.580975244147473
 30
0.0
 11
2.894663213395203
 21
6.592730621233557
 31
0.0
  0
LINE
  5
E524
330
E4EF
100
AcDbEntity
  8
0
  6
CONTINUOUS
100
AcDbLine
 10
4.204507345327062
 20
5.956405698381884
 30
0.0
 11
3.192759777490472
 21
6.968153266218474
 31
0.0
  0
LINE
  5
E525
330
E4EF
100
AcDbEntity
  8
0
  6
CONTINUOUS
100
AcDbLine
 10
8.466032252791512
 20
2.368399999997621
 30
0.0
 11
6.948921506593081
 21
3.885510746196053
 31
0.0
  0
LINE
  5
E526
330
E4EF
100
AcDbEntity
  8
0
  6
CONTINUOUS
100
AcDbLine
 10
9.139551461871699
 20
2.36839999999762
 30
0.0
 11
7.157104084324816
 21
4.350847377544504
 31
0.0
  0
LINE
  5
E527
330
E4EF
100
AcDbEntity
  8
0
  6
CONTINUOUS
100
AcDbLine
 10
4.502596100172839
 20
6.331836152616295
 30
0.0
 11
3.49085634158574
 21
7.343575911203393
 31
0.0
  0
LINE
  5
E528
330
E4EF
100
AcDbEntity
  8
0
  6
CONTINUOUS
100
AcDbLine
 10
4.800684855018615
 20
6.707266606850705
 30
0.0
 11
3.788952905681008
 21
7.718998556188312
 31
0.0
  0
LINE
  5
E529
330
E4EF
100
AcDbEntity
  8
0
  6
CONTINUOUS
100
AcDbLine
 10
12.18154012887317
 20
-0.0000694579236642
 30
0.0
 11
11.32140332908496
 21
0.8600673418645499
 31
0.0
  0
LINE
  5
E52A
330
E4EF
100
AcDbEntity
  8
0
  6
CONTINUOUS
100
AcDbLine
 10
12.85501608323566
 20
-0.0000262032059659
 30
0.0
 11
10.77672456435345
 21
2.078265315676246
 31
0.0
  0
LINE
  5
E52B
330
E4EF
100
AcDbEntity
  8
0
  6
CONTINUOUS
100
AcDbLine
 10
9.813070670951886
 20
2.36839999999762
 30
0.0
 11
8.51047067095321
 21
3.670999999996297
 31
0.0
  0
LINE
  5
E52C
330
E4EF
100
AcDbEntity
  8
0
  6
CONTINUOUS
100
AcDbLine
 10
10.48658988003207
 20
2.36839999999762
 30
0.0
 11
9.183989880033396
 21
3.670999999996297
 31
0.0
  0
LINE
  5
E52D
330
E4EF
100
AcDbEntity
  8
0
  6
CONTINUOUS
100
AcDbLine
 10
8.441048632286794
 20
3.740422038662712
 30
0.0
 11
7.365286662056551
 21
4.816184008892956
 31
0.0
  0
LINE
  5
E52E
330
E4EF
100
AcDbEntity
  8
0
  6
CONTINUOUS
100
AcDbLine
 10
8.649187485808454
 20
4.205802394221237
 30
0.0
 11
7.573469239788285
 21
5.281520640241407
 31
0.0
  0
LINE
  5
E52F
330
E4EF
100
AcDbEntity
  8
0
  6
CONTINUOUS
100
AcDbLine
 10
5.098773609864391
 20
7.082697061085115
 30
0.0
 11
4.087049469776277
 21
8.09442120117323
 31
0.0
  0
LINE
  5
E530
330
E4EF
100
AcDbEntity
  8
0
  6
CONTINUOUS
100
AcDbLine
 10
5.396862364710167
 20
7.458127515319526
 30
0.0
 11
4.385146033871544
 21
8.469843846158149
 31
0.0
  0
LINE
  5
E531
330
E4EF
100
AcDbEntity
  8
0
  6
CONTINUOUS
100
AcDbLine
 10
13.04801363231285
 20
0.4804954567970334
 30
0.0
 11
9.85750908911358
 21
3.670999999996297
 31
0.0
  0
LINE
  5
E532
330
E4EF
100
AcDbEntity
  8
0
  6
CONTINUOUS
100
AcDbLine
 10
8.857326339330116
 20
4.671182749779763
 30
0.0
 11
7.781651817520021
 21
5.746857271589858
 31
0.0
  0
LINE
  5
E533
330
E4EF
100
AcDbEntity
  8
0
  6
CONTINUOUS
100
AcDbLine
 10
5.694951119555943
 20
7.833557969553937
 30
0.0
 11
4.765409089118624
 21
8.763099999991255
 31
0.0
  0
LINE
  5
E534
330
E4EF
100
AcDbEntity
  8
0
  6
CONTINUOUS
100
AcDbLine
 10
12.50286117236978
 20
1.699167125820288
 30
0.0
 11
9.68611877250287
 21
4.515909525687196
 31
0.0
  0
LINE
  5
E535
330
E4EF
100
AcDbEntity
  8
0
  6
CONTINUOUS
100
AcDbLine
 10
9.065465192851777
 20
5.136563105338288
 30
0.0
 11
7.989834395251757
 21
6.21219390293831
 31
0.0
  0
LINE
  5
E536
330
E4EF
100
AcDbEntity
  8
0
  6
CONTINUOUS
100
AcDbLine
 10
5.993039874401719
 20
8.208988423788346
 30
0.0
 11
5.43892829819881
 21
8.763099999991255
 31
0.0
  0
LINE
  5
E537
330
E4EF
100
AcDbEntity
  8
0
  6
CONTINUOUS
100
AcDbLine
 10
11.95770871242671
 20
2.917838794843543
 30
0.0
 11
8.19801697298349
 21
6.677530534286761
 31
0.0
  0
LINE
  5
E538
330
E4EF
100
AcDbEntity
  8
0
  6
CONTINUOUS
100
AcDbLine
 10
6.291128629247495
 20
8.584418878022756
 30
0.0
 11
6.112447507278997
 21
8.763099999991255
 31
0.0
  0
LINE
  5
E539
330
E4EF
100
AcDbEntity
  8
0
  6
CONTINUOUS
100
AcDbLine
 10
11.41255625248364
 20
4.136510463866797
 30
0.0
 11
8.406199550715227
 21
7.142867165635211
 31
0.0
  0
LINE
  5
E53A
330
E4EF
100
AcDbEntity
  8
0
  6
CONTINUOUS
100
AcDbLine
 10
10.86740379254057
 20
5.355182132890051
 30
0.0
 11
8.614382128446962
 21
7.608203796983664
 31
0.0
  0
LINE
  5
E53B
330
E4EF
100
AcDbEntity
  8
0
  6
CONTINUOUS
100
AcDbLine
 10
10.3222513325975
 20
6.573853801913305
 30
0.0
 11
8.822564706178696
 21
8.073540428332114
 31
0.0
  0
LINE
  5
E53C
330
E4EF
100
AcDbEntity
  8
0
  6
CONTINUOUS
100
AcDbLine
 10
9.777098872654436
 20
7.792525470936562
 30
0.0
 11
9.030747283910433
 21
8.538877059680566
 31
0.0
  0
ENDBLK
  5
E67E
330
E4EF
100
AcDbEntity
  8
0
100
AcDbBlockEnd
  0
BLOCK
  5
E67F
330
E53D
100
AcDbEntity
  8
0
100
AcDbBlockBegin
  2
*X20
 70
     1
 10
0.0
 20
0.0
 30
0.0
  3
*X20
  1

  0
LINE
  5
E53E
330
E53D
100
AcDbEntity
  8
0
  6
CONTINUOUS
100
AcDbLine
 10
10.67292308101235
 20
8.445076852443387
 30
0.0
 11
10.99094622856022
 21
8.763099999991255
 31
0.0
  0
LINE
  5
E53F
330
E53D
100
AcDbEntity
  8
0
  6
CONTINUOUS
100
AcDbLine
 10
10.87250383178748
 20
7.971138394138331
 30
0.0
 11
11.6644654376404
 21
8.763099999991255
 31
0.0
  0
LINE
  5
E540
330
E53D
100
AcDbEntity
  8
0
  6
CONTINUOUS
100
AcDbLine
 10
11.07208458256261
 20
7.497199935833273
 30
0.0
 11
12.12126590876355
 21
8.546381262034211
 31
0.0
  0
LINE
  5
E541
330
E53D
100
AcDbEntity
  8
0
  6
CONTINUOUS
100
AcDbLine
 10
11.27166533333774
 20
7.023261477528216
 30
0.0
 11
12.32085164573666
 21
8.072447789927136
 31
0.0
  0
LINE
  5
E542
330
E53D
100
AcDbEntity
  8
0
  6
CONTINUOUS
100
AcDbLine
 10
11.47124608411287
 20
6.549323019223158
 30
0.0
 11
12.52043738270977
 21
7.59851431782006
 31
0.0
  0
LINE
  5
E543
330
E53D
100
AcDbEntity
  8
0
  6
CONTINUOUS
100
AcDbLine
 10
11.670826834888
 20
6.075384560918101
 30
0.0
 11
12.72002311968288
 21
7.124580845712984
 31
0.0
  0
LINE
  5
E544
330
E53D
100
AcDbEntity
  8
0
  6
CONTINUOUS
100
AcDbLine
 10
11.87040758566313
 20
5.601446102613043
 30
0.0
 11
12.91960885665599
 21
6.650647373605907
 31
0.0
  0
LINE
  5
E545
330
E53D
100
AcDbEntity
  8
0
  6
CONTINUOUS
100
AcDbLine
 10
12.06998833643825
 20
5.127507644307986
 30
0.0
 11
13.1191945936291
 21
6.176713901498832
 31
0.0
  0
LINE
  5
E546
330
E53D
100
AcDbEntity
  8
0
  6
CONTINUOUS
100
AcDbLine
 10
12.26956908721338
 20
4.65356918600293
 30
0.0
 11
13.31878033060221
 21
5.702780429391757
 31
0.0
  0
LINE
  5
E547
330
E53D
100
AcDbEntity
  8
0
  6
CONTINUOUS
100
AcDbLine
 10
12.46914983798851
 20
4.179630727697873
 30
0.0
 11
13.51836606757532
 21
5.228846957284683
 31
0.0
  0
LINE
  5
E548
330
E53D
100
AcDbEntity
  8
0
  6
CONTINUOUS
100
AcDbLine
 10
12.66873058876364
 20
3.705692269392816
 30
0.0
 11
13.71795180454843
 21
4.754913485177607
 31
0.0
  0
LINE
  5
E549
330
E53D
100
AcDbEntity
  8
0
  6
CONTINUOUS
100
AcDbLine
 10
12.86831133953877
 20
3.231753811087759
 30
0.0
 11
13.91753754152154
 21
4.280980013070531
 31
0.0
  0
LINE
  5
E54A
330
E53D
100
AcDbEntity
  8
0
  6
CONTINUOUS
100
AcDbLine
 10
13.0678920903139
 20
2.757815352782702
 30
0.0
 11
14.11712327849465
 21
3.807046540963456
 31
0.0
  0
LINE
  5
E54B
330
E53D
100
AcDbEntity
  8
0
  6
CONTINUOUS
100
AcDbLine
 10
13.26747284108903
 20
2.283876894477644
 30
0.0
 11
14.31670901546777
 21
3.333113068856379
 31
0.0
  0
LINE
  5
E54C
330
E53D
100
AcDbEntity
  8
0
  6
CONTINUOUS
100
AcDbLine
 10
16.36767838827179
 20
8.751678487061342
 30
0.0
 11
16.50332410898388
 21
8.887324207773432
 31
0.0
  0
LINE
  5
E54D
330
E53D
100
AcDbEntity
  8
0
  6
CONTINUOUS
100
AcDbLine
 10
15.96190732182191
 20
7.67238821153127
 30
0.0
 11
16.68735328004734
 21
8.397834169756699
 31
0.0
  0
LINE
  5
E54E
330
E53D
100
AcDbEntity
  8
0
  6
CONTINUOUS
100
AcDbLine
 10
15.55613625537202
 20
6.593097936001196
 30
0.0
 11
16.87138245111079
 21
7.908344131739965
 31
0.0
  0
LINE
  5
E54F
330
E53D
100
AcDbEntity
  8
0
  6
CONTINUOUS
100
AcDbLine
 10
15.15036518892213
 20
5.513807660471122
 30
0.0
 11
17.05541162217424
 21
7.418854093723231
 31
0.0
  0
LINE
  5
E550
330
E53D
100
AcDbEntity
  8
0
  6
CONTINUOUS
100
AcDbLine
 10
14.74459412247225
 20
4.434517384941048
 30
0.0
 11
17.2394407932377
 21
6.929364055706499
 31
0.0
  0
LINE
  5
E551
330
E53D
100
AcDbEntity
  8
0
  6
CONTINUOUS
100
AcDbLine
 10
14.33882305602236
 20
3.355227109410975
 30
0.0
 11
17.42346996430115
 21
6.439874017689766
 31
0.0
  0
LINE
  5
E552
330
E53D
100
AcDbEntity
  8
0
  6
CONTINUOUS
100
AcDbLine
 10
13.46705359186416
 20
1.809938436172586
 30
0.0
 11
16.0819338255367
 21
4.424818669845129
 31
0.0
  0
LINE
  5
E553
330
E53D
100
AcDbEntity
  8
0
  6
CONTINUOUS
100
AcDbLine
 10
16.63283254238972
 20
4.975717386698149
 30
0.0
 11
17.60749913536461
 21
5.950383979673033
 31
0.0
  0
LINE
  5
E554
330
E53D
100
AcDbEntity
  8
0
  6
CONTINUOUS
100
AcDbLine
 10
13.66663434263929
 20
1.335999977867529
 30
0.0
 11
15.67604797733754
 21
3.345413612565779
 31
0.0
  0
LINE
  5
E555
330
E53D
100
AcDbEntity
  8
0
  6
CONTINUOUS
100
AcDbLine
 10
13.86621509341442
 20
0.8620615195624723
 30
0.0
 11
15.27016212913838
 21
2.26600855528643
 31
0.0
  0
LINE
  5
E556
330
E53D
100
AcDbEntity
  8
0
  6
CONTINUOUS
100
AcDbLine
 10
16.81682257348267
 20
4.486188208710908
 30
0.0
 11
17.79152830642806
 21
5.460893941656299
 31
0.0
  0
LINE
  5
E557
330
E53D
100
AcDbEntity
  8
0
  6
CONTINUOUS
100
AcDbLine
 10
17.00081260457561
 20
3.996659030723667
 30
0.0
 11
17.97555747749151
 21
4.971403903639565
 31
0.0
  0
LINE
  5
E558
330
E53D
100
AcDbEntity
  8
0
  6
CONTINUOUS
100
AcDbLine
 10
20.74362343514722
 20
8.412989070375462
 30
0.0
 11
21.09373436476302
 21
8.763099999991256
 31
0.0
  0
LINE
  5
E559
330
E53D
100
AcDbEntity
  8
0
  6
CONTINUOUS
100
AcDbLine
 10
20.25401257174777
 20
7.249858997895826
 30
0.0
 11
21.7672535738432
 21
8.763099999991255
 31
0.0
  0
LINE
  5
E55A
330
E53D
100
AcDbEntity
  8
0
  6
CONTINUOUS
100
AcDbLine
 10
14.06579584418955
 20
0.3881230612574149
 30
0.0
 11
14.86427628093921
 21
1.186603498007082
 31
0.0
  0
LINE
  5
E55B
330
E53D
100
AcDbEntity
  8
0
  6
CONTINUOUS
100
AcDbLine
 10
14.26537659496467
 20
-0.0858153970476412
 30
0.0
 11
14.45839043274005
 21
0.1071984407277329
 31
0.0
  0
LINE
  5
E55C
330
E53D
100
AcDbEntity
  8
0
  6
CONTINUOUS
100
AcDbLine
 10
17.18480263566856
 20
3.507129852736426
 30
0.0
 11
18.15958664855496
 21
4.481913865622833
 31
0.0
  0
LINE
  5
E55D
330
E53D
100
AcDbEntity
  8
0
  6
CONTINUOUS
100
AcDbLine
 10
17.3687926667615
 20
3.017600674749186
 30
0.0
 11
18.34361581961842
 21
3.9924238276061
 31
0.0
  0
LINE
  5
E55E
330
E53D
100
AcDbEntity
  8
0
  6
CONTINUOUS
100
AcDbLine
 10
19.76440170834832
 20
6.086728925416191
 30
0.0
 11
22.33924590259489
 21
8.661573119662755
 31
0.0
  0
LINE
  5
E55F
330
E53D
100
AcDbEntity
  8
0
  6
CONTINUOUS
100
AcDbLine
 10
19.27479084494887
 20
4.923598852936555
 30
0.0
 11
21.84929622842713
 21
7.498104236414807
 31
0.0
  0
LINE
  5
E560
330
E53D
100
AcDbEntity
  8
0
  6
CONTINUOUS
100
AcDbLine
 10
17.55278269785445
 20
2.528071496761945
 30
0.0
 11
18.52764499068187
 21
3.502933789589366
 31
0.0
  0
LINE
  5
E561
330
E53D
100
AcDbEntity
  8
0
  6
CONTINUOUS
100
AcDbLine
 10
18.78517998154942
 20
3.760468780456919
 30
0.0
 11
21.35934655425936
 21
6.33463535316686
 31
0.0
  0
LINE
  5
E562
330
E53D
100
AcDbEntity
  8
0
  6
CONTINUOUS
100
AcDbLine
 10
17.73677272894739
 20
2.038542318774704
 30
0.0
 11
20.8693968800916
 21
5.171166469918914
 31
0.0
  0
LINE
  5
E563
330
E53D
100
AcDbEntity
  8
0
  6
CONTINUOUS
100
AcDbLine
 10
17.92076276004034
 20
1.549013140787464
 30
0.0
 11
20.37944720592384
 21
4.007697586670968
 31
0.0
  0
LINE
  5
E564
330
E53D
100
AcDbEntity
  8
0
  6
CONTINUOUS
100
AcDbLine
 10
18.10475279113329
 20
1.059483962800223
 30
0.0
 11
19.88949753175608
 21
2.84422870342302
 31
0.0
  0
LINE
  5
E565
330
E53D
100
AcDbEntity
  8
0
  6
CONTINUOUS
100
AcDbLine
 10
18.28874282222623
 20
0.5699547848129822
 30
0.0
 11
19.39954785758832
 21
1.680759820175074
 31
0.0
  0
LINE
  5
E566
330
E53D
100
AcDbEntity
  8
0
  6
CONTINUOUS
100
AcDbLine
 10
18.47273285331918
 20
0.0804256068257416
 30
0.0
 11
18.90959818342056
 21
0.517290936927127
 31
0.0
  0
LINE
  5
E567
330
E53D
100
AcDbEntity
  8
0
  6
CONTINUOUS
100
AcDbLine
 10
14.3590401358224
 20
-0.1570118376323384
 30
0.0
 11
14.24903296539946
 21
-0.0470046672093929
 31
0.0
  0
LINE
  5
E568
330
E53D
100
AcDbEntity
  8
0
  6
CONTINUOUS
100
AcDbLine
 10
14.54309291258661
 20
0.332454594683643
 30
0.0
 11
13.75908329123172
 21
1.116464216038529
 31
0.0
  0
LINE
  5
E569
330
E53D
100
AcDbEntity
  8
0
  6
CONTINUOUS
100
AcDbLine
 10
14.72714568935081
 20
0.8219210269996244
 30
0.0
 11
13.26913361706399
 21
2.27993309928645
 31
0.0
  0
LINE
  5
E56A
330
E53D
100
AcDbEntity
  8
0
  6
CONTINUOUS
100
AcDbLine
 10
14.91119846611502
 20
1.311387459315606
 30
0.0
 11
12.77918394289625
 21
3.443401982534371
 31
0.0
  0
LINE
  5
E56B
330
E53D
100
AcDbEntity
  8
0
  6
CONTINUOUS
100
AcDbLine
 10
15.09525124287922
 20
1.800853891631587
 30
0.0
 11
12.28923426872852
 21
4.606870865782293
 31
0.0
  0
LINE
  5
E56C
330
E53D
100
AcDbEntity
  8
0
  6
CONTINUOUS
100
AcDbLine
 10
15.27930401964343
 20
2.290320323947569
 30
0.0
 11
11.79928459456078
 21
5.770339749030213
 31
0.0
  0
LINE
  5
E56D
330
E53D
100
AcDbEntity
  8
0
  6
CONTINUOUS
100
AcDbLine
 10
15.46335679640763
 20
2.77978675626355
 30
0.0
 11
14.48885470994921
 21
3.754288842721972
 31
0.0
  0
LINE
  5
E56E
330
E53D
100
AcDbEntity
  8
0
  6
CONTINUOUS
100
AcDbLine
 10
13.88507249233704
 20
4.358071060334137
 30
0.0
 11
11.30933492039305
 21
6.933808632278135
 31
0.0
  0
LINE
  5
E56F
330
E53D
100
AcDbEntity
  8
0
  6
CONTINUOUS
100
AcDbLine
 10
18.75840522805855
 20
0.1582575336928151
 30
0.0
 11
18.25383727664818
 21
0.6628254851031863
 31
0.0
  0
LINE
  5
E570
330
E53D
100
AcDbEntity
  8
0
  6
CONTINUOUS
100
AcDbLine
 10
15.64740957317184
 20
3.269253188579531
 30
0.0
 11
14.67288388101266
 21
4.243778880738705
 31
0.0
  0
LINE
  5
E571
330
E53D
100
AcDbEntity
  8
0
  6
CONTINUOUS
100
AcDbLine
 10
13.39509276772158
 20
5.521569994029786
 30
0.0
 11
10.81938524622531
 21
8.097277515526056
 31
0.0
  0
LINE
  5
E572
330
E53D
100
AcDbEntity
  8
0
  6
CONTINUOUS
100
AcDbLine
 10
18.95798597883369
 20
0.6321959919978686
 30
0.0
 11
17.84825644852853
 21
1.741925522303024
 31
0.0
  0
LINE
  5
E573
330
E53D
100
AcDbEntity
  8
0
  6
CONTINUOUS
100
AcDbLine
 10
19.15756672960882
 20
1.106134450302922
 30
0.0
 11
17.44267562040888
 21
2.821025559502861
 31
0.0
  0
LINE
  5
E574
330
E53D
100
AcDbEntity
  8
0
  6
CONTINUOUS
100
AcDbLine
 10
15.83146234993604
 20
3.758719620895513
 30
0.0
 11
14.85691305207612
 21
4.733268918755439
 31
0.0
  0
LINE
  5
E575
330
E53D
100
AcDbEntity
  8
0
  6
CONTINUOUS
100
AcDbLine
 10
16.01551512670025
 20
4.248186053211494
 30
0.0
 11
15.04094222313957
 21
5.222758956772172
 31
0.0
  0
LINE
  5
E576
330
E53D
100
AcDbEntity
  8
0
  6
CONTINUOUS
100
AcDbLine
 10
12.90511304310612
 20
6.685068927725435
 30
0.0
 11
10.8270819708403
 21
8.763099999991255
 31
0.0
  0
LINE
  5
E577
330
E53D
100
AcDbEntity
  8
0
  6
CONTINUOUS
100
AcDbLine
 10
12.41513331849066
 20
7.848567861421083
 30
0.0
 11
11.50060117992049
 21
8.763099999991255
 31
0.0
  0
LINE
  5
E578
330
E53D
100
AcDbEntity
  8
0
  6
CONTINUOUS
100
AcDbLine
 10
19.35714748038395
 20
1.580072908607975
 30
0.0
 11
17.03709479228923
 21
3.900125596702697
 31
0.0
  0
LINE
  5
E579
330
E53D
100
AcDbEntity
  8
0
  6
CONTINUOUS
100
AcDbLine
 10
19.55672823115909
 20
2.054011366913028
 30
0.0
 11
16.63151396416958
 21
4.979225633902534
 31
0.0
  0
LINE
  5
E57A
330
E53D
100
AcDbEntity
  8
0
  6
CONTINUOUS
100
AcDbLine
 10
16.19956790346445
 20
4.737652485527476
 30
0.0
 11
15.22497139420302
 21
5.712248994788904
 31
0.0
  0
LINE
  5
E57B
330
E53D
100
AcDbEntity
  8
0
  6
CONTINUOUS
100
AcDbLine
 10
16.38362068022866
 20
5.227118917843457
 30
0.0
 11
15.40900056526648
 21
6.201739032805637
 31
0.0
  0
LINE
  5
E57C
330
E53D
100
AcDbEntity
  8
0
  6
CONTINUOUS
100
AcDbLine
 10
19.75630898193422
 20
2.527949825218081
 30
0.0
 11
18.70774536448286
 21
3.576513442669441
 31
0.0
  0
LINE
  5
E57D
330
E53D
100
AcDbEntity
  8
0
  6
CONTINUOUS
100
AcDbLine
 10
19.95588973270936
 20
3.001888283523134
 30
0.0
 11
18.90726987211446
 21
4.050508144118028
 31
0.0
  0
LINE
  5
E57E
330
E53D
100
AcDbEntity
  8
0
  6
CONTINUOUS
100
AcDbLine
 10
20.15547048348449
 20
3.475826741828186
 30
0.0
 11
19.10679437974606
 21
4.524502845566614
 31
0.0
  0
LINE
  5
E57F
330
E53D
100
AcDbEntity
  8
0
  6
CONTINUOUS
100
AcDbLine
 10
20.35505123425962
 20
3.94976520013324
 30
0.0
 11
19.30631888737766
 21
4.998497547015201
 31
0.0
  0
LINE
  5
E580
330
E53D
100
AcDbEntity
  8
0
  6
CONTINUOUS
100
AcDbLine
 10
20.55463198503475
 20
4.423703658438292
 30
0.0
 11
19.50584339500926
 21
5.472492248463787
 31
0.0
  0
LINE
  5
E581
330
E53D
100
AcDbEntity
  8
0
  6
CONTINUOUS
100
AcDbLine
 10
18.37481191085755
 20
3.909446896294752
 30
0.0
 11
15.59302973632993
 21
6.691229070822371
 31
0.0
  0
LINE
  5
E582
330
E53D
100
AcDbEntity
  8
0
  6
CONTINUOUS
100
AcDbLine
 10
17.96904084440766
 20
4.988737171824825
 30
0.0
 11
15.77705890739338
 21
7.180719108839104
 31
0.0
  0
LINE
  5
E583
330
E53D
100
AcDbEntity
  8
0
  6
CONTINUOUS
100
AcDbLine
 10
17.56326977795777
 20
6.068027447354899
 30
0.0
 11
15.96108807845684
 21
7.670209146855838
 31
0.0
  0
LINE
  5
E584
330
E53D
100
AcDbEntity
  8
0
  6
CONTINUOUS
100
AcDbLine
 10
17.15749871150789
 20
7.147317722884972
 30
0.0
 11
16.14511724952029
 21
8.15969918487257
 31
0.0
  0
LINE
  5
E585
330
E53D
100
AcDbEntity
  8
0
  6
CONTINUOUS
100
AcDbLine
 10
16.751727645058
 20
8.226607998415046
 30
0.0
 11
16.32914642058374
 21
8.649189222889303
 31
0.0
  0
LINE
  5
E586
330
E53D
100
AcDbEntity
  8
0
  6
CONTINUOUS
100
AcDbLine
 10
20.75421273580989
 20
4.897642116743345
 30
0.0
 11
19.70536790264086
 21
5.946486949912374
 31
0.0
  0
LINE
  5
E587
330
E53D
100
AcDbEntity
  8
0
  6
CONTINUOUS
100
AcDbLine
 10
20.95379348658502
 20
5.371580575048398
 30
0.0
 11
19.90489241027246
 21
6.42048165136096
 31
0.0
  0
LINE
  5
E588
330
E53D
100
AcDbEntity
  8
0
  6
CONTINUOUS
100
AcDbLine
 10
21.15337423736015
 20
5.845519033353452
 30
0.0
 11
20.10441691790406
 21
6.894476352809547
 31
0.0
  0
LINE
  5
E589
330
E53D
100
AcDbEntity
  8
0
  6
CONTINUOUS
100
AcDbLine
 10
21.35295498813529
 20
6.319457491658505
 30
0.0
 11
20.30394142553566
 21
7.368471054258134
 31
0.0
  0
LINE
  5
E58A
330
E53D
100
AcDbEntity
  8
0
  6
CONTINUOUS
100
AcDbLine
 10
21.55253573891042
 20
6.793395949963558
 30
0.0
 11
20.50346593316726
 21
7.842465755706721
 31
0.0
  0
LINE
  5
E58B
330
E53D
100
AcDbEntity
  8
0
  6
CONTINUOUS
100
AcDbLine
 10
21.75211648968556
 20
7.267334408268612
 30
0.0
 11
20.70299044079886
 21
8.316460457155308
 31
0.0
  0
LINE
  5
E58C
330
E53D
100
AcDbEntity
  8
0
  6
CONTINUOUS
100
AcDbLine
 10
21.95169724046069
 20
7.741272866573663
 30
0.0
 11
20.9298701070431
 21
8.763099999991256
 31
0.0
  0
LINE
  5
E58D
330
E53D
100
AcDbEntity
  8
0
  6
CONTINUOUS
100
AcDbLine
 10
22.15127799123582
 20
8.215211324878716
 30
0.0
 11
21.60338931612328
 21
8.763099999991256
 31
0.0
  0
LINE
  5
E58E
330
E53D
100
AcDbEntity
  8
0
  6
CONTINUOUS
100
AcDbLine
 10
22.35085874201096
 20
8.689149783183769
 30
0.0
 11
22.27690852520347
 21
8.763099999991255
 31
0.0
  0
ENDBLK
  5
E680
330
E53D
100
AcDbEntity
  8
0
100
AcDbBlockEnd
  0
BLOCK
  5
E681
330
E58F
100
AcDbEntity
  8
0
100
AcDbBlockBegin
  2
*X21
 70
     1
 10
0.0
 20
0.0
 30
0.0
  3
*X21
  1

  0
LINE
  5
E590
330
E58F
100
AcDbEntity
  8
0
  6
CONTINUOUS
100
AcDbLine
 10
23.19462913593892
 20
8.169917934846424
 30
0.0
 11
23.70775465517246
 21
8.683043454079957
 31
0.0
  0
LINE
  5
E591
330
E58F
100
AcDbEntity
  8
0
  6
CONTINUOUS
100
AcDbLine
 10
22.64923161835078
 20
6.951001208178088
 30
0.0
 11
23.9159364069932
 21
8.217705996820516
 31
0.0
  0
LINE
  5
E592
330
E58F
100
AcDbEntity
  8
0
  6
CONTINUOUS
100
AcDbLine
 10
22.10383410076263
 20
5.732084481509751
 30
0.0
 11
24.12411815881395
 21
7.752368539561078
 31
0.0
  0
LINE
  5
E593
330
E58F
100
AcDbEntity
  8
0
  6
CONTINUOUS
100
AcDbLine
 10
21.55843658317447
 20
4.513167754841414
 30
0.0
 11
24.3322999106347
 21
7.287031082301639
 31
0.0
  0
LINE
  5
E594
330
E58F
100
AcDbEntity
  8
0
  6
CONTINUOUS
100
AcDbLine
 10
21.01303906558632
 20
3.294251028173077
 30
0.0
 11
24.54048166245544
 21
6.821693625042199
 31
0.0
  0
LINE
  5
E595
330
E58F
100
AcDbEntity
  8
0
  6
CONTINUOUS
100
AcDbLine
 10
20.46764154799817
 20
2.075334301504738
 30
0.0
 11
23.28571549467848
 21
4.89340824818505
 31
0.0
  0
LINE
  5
E596
330
E58F
100
AcDbEntity
  8
0
  6
CONTINUOUS
100
AcDbLine
 10
19.92224403041002
 20
0.8564175748364002
 30
0.0
 11
22.74075865492779
 21
3.674932199354171
 31
0.0
  0
LINE
  5
E597
330
E58F
100
AcDbEntity
  8
0
  6
CONTINUOUS
100
AcDbLine
 10
23.67305085490148
 20
5.280743608408048
 30
0.0
 11
24.74866341427619
 21
6.356356167782759
 31
0.0
  0
LINE
  5
E598
330
E58F
100
AcDbEntity
  8
0
  6
CONTINUOUS
100
AcDbLine
 10
23.88118970842314
 20
4.815363252849522
 30
0.0
 11
24.95684516609694
 21
5.89101871052332
 31
0.0
  0
LINE
  5
E599
330
E58F
100
AcDbEntity
  8
0
  6
CONTINUOUS
100
AcDbLine
 10
19.73925852647308
 20
-0.0000871381807288
 30
0.0
 11
23.4103456646501
 21
3.670999999996297
 31
0.0
  0
LINE
  5
E59A
330
E58F
100
AcDbEntity
  8
0
  6
CONTINUOUS
100
AcDbLine
 10
24.0893285619448
 20
4.349982897290997
 30
0.0
 11
25.16502691791769
 21
5.42568125326388
 31
0.0
  0
LINE
  5
E59B
330
E58F
100
AcDbEntity
  8
0
  6
CONTINUOUS
100
AcDbLine
 10
20.41282099582748
 20
-0.0000438779065108
 30
0.0
 11
21.64944178675636
 21
1.236576913022366
 31
0.0
  0
LINE
  5
E59C
330
E58F
100
AcDbEntity
  8
0
  6
CONTINUOUS
100
AcDbLine
 10
22.78126487373161
 20
2.36839999999762
 30
0.0
 11
24.08386487373029
 21
3.670999999996297
 31
0.0
  0
LINE
  5
E59D
330
E58F
100
AcDbEntity
  8
0
  6
CONTINUOUS
100
AcDbLine
 10
24.29746741546646
 20
3.884602541732471
 30
0.0
 11
25.37320866973843
 21
4.960343796004441
 31
0.0
  0
LINE
  5
E59E
330
E58F
100
AcDbEntity
  8
0
  6
CONTINUOUS
100
AcDbLine
 10
21.08638346518189
 20
-0.0000006176322938
 30
0.0
 11
21.10379033335899
 21
0.0174062505448083
 31
0.0
  0
LINE
  5
E59F
330
E58F
100
AcDbEntity
  8
0
  6
CONTINUOUS
100
AcDbLine
 10
23.4547840828118
 20
2.36839999999762
 30
0.0
 11
25.58139042155918
 21
4.495006338745002
 31
0.0
  0
LINE
  5
E5A0
330
E58F
100
AcDbEntity
  8
0
  6
CONTINUOUS
100
AcDbLine
 10
29.30199999996933
 20
8.215615917155148
 30
0.0
 11
29.84948408280543
 21
8.763099999991255
 31
0.0
  0
LINE
  5
E5A1
330
E58F
100
AcDbEntity
  8
0
  6
CONTINUOUS
100
AcDbLine
 10
24.12830329189199
 20
2.36839999999762
 30
0.0
 11
25.78957217337993
 21
4.029668881485562
 31
0.0
  0
LINE
  5
E5A2
330
E58F
100
AcDbEntity
  8
0
  6
CONTINUOUS
100
AcDbLine
 10
29.30199999996933
 20
7.54209670807496
 30
0.0
 11
30.52300329188562
 21
8.763099999991255
 31
0.0
  0
LINE
  5
E5A3
330
E58F
100
AcDbEntity
  8
0
  6
CONTINUOUS
100
AcDbLine
 10
24.80182250097217
 20
2.36839999999762
 30
0.0
 11
25.99775392520067
 21
3.564331424226122
 31
0.0
  0
LINE
  5
E5A4
330
E58F
100
AcDbEntity
  8
0
  6
CONTINUOUS
100
AcDbLine
 10
29.30199999996933
 20
6.868577498994774
 30
0.0
 11
30.74199999996926
 21
8.308577498994712
 31
0.0
  0
LINE
  5
E5A5
330
E58F
100
AcDbEntity
  8
0
  6
CONTINUOUS
100
AcDbLine
 10
25.13028238392013
 20
2.023340673865392
 30
0.0
 11
26.20593567702142
 21
3.098993966966683
 31
0.0
  0
LINE
  5
E5A6
330
E58F
100
AcDbEntity
  8
0
  6
CONTINUOUS
100
AcDbLine
 10
25.33838066033617
 20
1.557919741201244
 30
0.0
 11
26.41411742884217
 21
2.633656509707244
 31
0.0
  0
LINE
  5
E5A7
330
E58F
100
AcDbEntity
  8
0
  6
CONTINUOUS
100
AcDbLine
 10
25.54647893675221
 20
1.092498808537098
 30
0.0
 11
26.62229918066291
 21
2.168319052447804
 31
0.0
  0
LINE
  5
E5A8
330
E58F
100
AcDbEntity
  8
0
  6
CONTINUOUS
100
AcDbLine
 10
25.75457721316825
 20
0.62707787587295
 30
0.0
 11
26.83048093248366
 21
1.702981595188365
 31
0.0
  0
LINE
  5
E5A9
330
E58F
100
AcDbEntity
  8
0
  6
CONTINUOUS
100
AcDbLine
 10
29.30199999996933
 20
6.195058289914587
 30
0.0
 11
30.74199999996926
 21
7.635058289914522
 31
0.0
  0
LINE
  5
E5AA
330
E58F
100
AcDbEntity
  8
0
  6
CONTINUOUS
100
AcDbLine
 10
29.30199999996933
 20
5.521539080834401
 30
0.0
 11
30.74199999996926
 21
6.961539080834331
 31
0.0
  0
LINE
  5
E5AB
330
E58F
100
AcDbEntity
  8
0
  6
CONTINUOUS
100
AcDbLine
 10
29.30199999996933
 20
4.848019871754214
 30
0.0
 11
30.74199999996925
 21
6.288019871754143
 31
0.0
  0
LINE
  5
E5AC
330
E58F
100
AcDbEntity
  8
0
  6
CONTINUOUS
100
AcDbLine
 10
29.30199999996933
 20
4.174500662674028
 30
0.0
 11
30.74199999996925
 21
5.614500662673953
 31
0.0
  0
LINE
  5
E5AD
330
E58F
100
AcDbEntity
  8
0
  6
CONTINUOUS
100
AcDbLine
 10
25.96267548958429
 20
0.1616569432088024
 30
0.0
 11
27.18411854636669
 21
1.383099999991207
 31
0.0
  0
LINE
  5
E5AE
330
E58F
100
AcDbEntity
  8
0
  6
CONTINUOUS
100
AcDbLine
 10
29.30199999996933
 20
3.500981453593841
 30
0.0
 11
30.74199999996925
 21
4.940981453593762
 31
0.0
  0
LINE
  5
E5AF
330
E58F
100
AcDbEntity
  8
0
  6
CONTINUOUS
100
AcDbLine
 10
26.50763775544691
 20
0.0330999999912356
 30
0.0
 11
27.85763775544689
 21
1.383099999991223
 31
0.0
  0
LINE
  5
E5B0
330
E58F
100
AcDbEntity
  8
0
  6
CONTINUOUS
100
AcDbLine
 10
29.30199999996933
 20
2.827462244513656
 30
0.0
 11
30.74199999996925
 21
4.267462244513574
 31
0.0
  0
LINE
  5
E5B1
330
E58F
100
AcDbEntity
  8
0
  6
CONTINUOUS
100
AcDbLine
 10
27.18115696452709
 20
0.0330999999912356
 30
0.0
 11
28.55073879889363
 21
1.402681834357775
 31
0.0
  0
LINE
  5
E5B2
330
E58F
100
AcDbEntity
  8
0
  6
CONTINUOUS
100
AcDbLine
 10
29.28241816560272
 20
2.134361201066866
 30
0.0
 11
30.74199999996924
 21
3.593943035433383
 31
0.0
  0
LINE
  5
E5B3
330
E58F
100
AcDbEntity
  8
0
  6
CONTINUOUS
100
AcDbLine
 10
27.85467617360728
 20
0.0330999999912356
 30
0.0
 11
30.74199999996924
 21
2.920423826353195
 31
0.0
  0
LINE
  5
E5B4
330
E58F
100
AcDbEntity
  8
0
  6
CONTINUOUS
100
AcDbLine
 10
28.53897559587887
 20
0.0438802131826428
 30
0.0
 11
30.73121978677781
 21
2.236124404081585
 31
0.0
  0
LINE
  5
E5B5
330
E58F
100
AcDbEntity
  8
0
  6
CONTINUOUS
100
AcDbLine
 10
29.45140055588722
 20
0.2827859641107988
 30
0.0
 11
30.49231403584965
 21
1.323699444073236
 31
0.0
  0
LINE
  5
E5B6
330
E58F
100
AcDbEntity
  8
0
  6
CONTINUOUS
100
AcDbLine
 10
19.59027867740337
 20
-0.0000967065718083
 30
0.0
 11
19.55485265190471
 21
0.035329318926844
 31
0.0
  0
LINE
  5
E5B7
330
E58F
100
AcDbEntity
  8
0
  6
CONTINUOUS
100
AcDbLine
 10
20.26375463176586
 20
-0.0000534518541091
 30
0.0
 11
19.76305575737534
 21
0.5006454225364014
 31
0.0
  0
LINE
  5
E5B8
330
E58F
100
AcDbEntity
  8
0
  6
CONTINUOUS
100
AcDbLine
 10
20.93723058612834
 20
-0.0000101971364099
 30
0.0
 11
19.97125886284597
 21
0.965961526145958
 31
0.0
  0
LINE
  5
E5B9
330
E58F
100
AcDbEntity
  8
0
  6
CONTINUOUS
100
AcDbLine
 10
21.25514828313686
 20
0.355591314935257
 30
0.0
 11
20.1794619683166
 21
1.431277629755512
 31
0.0
  0
LINE
  5
E5BA
330
E58F
100
AcDbEntity
  8
0
  6
CONTINUOUS
100
AcDbLine
 10
21.46338838394921
 20
0.8208704232030986
 30
0.0
 11
20.38766507378723
 21
1.896593733365069
 31
0.0
  0
LINE
  5
E5BB
330
E58F
100
AcDbEntity
  8
0
  6
CONTINUOUS
100
AcDbLine
 10
21.67162848476155
 20
1.28614953147094
 30
0.0
 11
20.59586817925786
 21
2.361909836974626
 31
0.0
  0
LINE
  5
E5BC
330
E58F
100
AcDbEntity
  8
0
  6
CONTINUOUS
100
AcDbLine
 10
21.8798685855739
 20
1.751428639738782
 30
0.0
 11
20.80407128472849
 21
2.827225940584183
 31
0.0
  0
LINE
  5
E5BD
330
E58F
100
AcDbEntity
  8
0
  6
CONTINUOUS
100
AcDbLine
 10
22.08810868638624
 20
2.216707748006623
 30
0.0
 11
21.01227439019912
 21
3.292542044193739
 31
0.0
  0
LINE
  5
E5BE
330
E58F
100
AcDbEntity
  8
0
  6
CONTINUOUS
100
AcDbLine
 10
22.60993564347543
 20
2.36839999999762
 30
0.0
 11
21.22047749566975
 21
3.757858147803296
 31
0.0
  0
LINE
  5
E5BF
330
E58F
100
AcDbEntity
  8
0
  6
CONTINUOUS
100
AcDbLine
 10
23.28345485255561
 20
2.36839999999762
 30
0.0
 11
21.42868060114038
 21
4.223174251412853
 31
0.0
  0
LINE
  5
E5C0
330
E58F
100
AcDbEntity
  8
0
  6
CONTINUOUS
100
AcDbLine
 10
26.29227406164219
 20
0.0330999999912356
 30
0.0
 11
25.80009199592872
 21
0.5252820657046957
 31
0.0
  0
LINE
  5
E5C1
330
E58F
100
AcDbEntity
  8
0
  6
CONTINUOUS
100
AcDbLine
 10
23.9569740616358
 20
2.36839999999762
 30
0.0
 11
21.63688370661101
 21
4.688490355022409
 31
0.0
  0
LINE
  5
E5C2
330
E58F
100
AcDbEntity
  8
0
  6
CONTINUOUS
100
AcDbLine
 10
26.96579327072237
 20
0.0330999999912356
 30
0.0
 11
25.2554132311971
 21
1.743480039516508
 31
0.0
  0
LINE
  5
E5C3
330
E58F
100
AcDbEntity
  8
0
  6
CONTINUOUS
100
AcDbLine
 10
24.63049327071599
 20
2.36839999999762
 30
0.0
 11
23.32789327071731
 21
3.670999999996297
 31
0.0
  0
LINE
  5
E5C4
330
E58F
100
AcDbEntity
  8
0
  6
CONTINUOUS
100
AcDbLine
 10
22.92098674744635
 20
4.077906523267254
 30
0.0
 11
21.84508681208164
 21
5.153806458631966
 31
0.0
  0
LINE
  5
E5C5
330
E58F
100
AcDbEntity
  8
0
  6
CONTINUOUS
100
AcDbLine
 10
27.63931247980256
 20
0.0330999999912356
 30
0.0
 11
24.0014124797975
 21
3.670999999996297
 31
0.0
  0
LINE
  5
E5C6
330
E58F
100
AcDbEntity
  8
0
  6
CONTINUOUS
100
AcDbLine
 10
23.129125600968
 20
4.5432868788258
 30
0.0
 11
22.05328991755227
 21
5.619122562241522
 31
0.0
  0
LINE
  5
E5C7
330
E58F
100
AcDbEntity
  8
0
  6
CONTINUOUS
100
AcDbLine
 10
28.31283168888275
 20
0.0330999999912356
 30
0.0
 11
24.16488385994816
 21
4.181047828925828
 31
0.0
  0
LINE
  5
E5C8
330
E58F
100
AcDbEntity
  8
0
  6
CONTINUOUS
100
AcDbLine
 10
23.33726445448964
 20
5.008667234384345
 30
0.0
 11
22.2614930230229
 21
6.084438665851079
 31
0.0
  0
LINE
  5
E5C9
330
E58F
100
AcDbEntity
  8
0
  6
CONTINUOUS
100
AcDbLine
 10
28.92085740005492
 20
0.0985934978992438
 30
0.0
 11
27.63635089796295
 21
1.383099999991217
 31
0.0
  0
LINE
  5
E5CA
330
E58F
100
AcDbEntity
  8
0
  6
CONTINUOUS
100
AcDbLine
 10
26.43704649509776
 20
2.582404402856405
 30
0.0
 11
23.61992702019732
 21
5.399523877756844
 31
0.0
  0
LINE
  5
E5CB
330
E58F
100
AcDbEntity
  8
0
  6
CONTINUOUS
100
AcDbLine
 10
23.54540330801128
 20
5.47404758994289
 30
0.0
 11
22.46969612849353
 21
6.549754769460635
 31
0.0
  0
LINE
  5
E5CC
330
E58F
100
AcDbEntity
  8
0
  6
CONTINUOUS
100
AcDbLine
 10
29.42225615078443
 20
0.2707139562499279
 30
0.0
 11
28.30987010704312
 21
1.383099999991234
 31
0.0
  0
LINE
  5
E5CD
330
E58F
100
AcDbEntity
  8
0
  6
CONTINUOUS
100
AcDbLine
 10
25.89179548232307
 20
3.801174624711282
 30
0.0
 11
22.67789923396416
 21
7.015070873070191
 31
0.0
  0
LINE
  5
E5CE
330
E58F
100
AcDbEntity
  8
0
  6
CONTINUOUS
100
AcDbLine
 10
29.83624534690007
 20
0.5302439692144705
 30
0.0
 11
28.85811781497101
 21
1.508371501143527
 31
0.0
  0
LINE
  5
E5CF
330
E58F
100
AcDbEntity
  8
0
  6
CONTINUOUS
100
AcDbLine
 10
25.34654446954838
 20
5.01994484656616
 30
0.0
 11
22.88610233943479
 21
7.480386976679748
 31
0.0
  0
LINE
  5
E5D0
330
E58F
100
AcDbEntity
  8
0
  6
CONTINUOUS
100
AcDbLine
 10
30.17865975401872
 20
0.8613487711760022
 30
0.0
 11
29.18888744090175
 21
1.851121084292977
 31
0.0
  0
LINE
  5
E5D1
330
E58F
100
AcDbEntity
  8
0
  6
CONTINUOUS
100
AcDbLine
 10
24.80129345677369
 20
6.238715068421037
 30
0.0
 11
23.09430544490542
 21
7.945703080289305
 31
0.0
  0
LINE
  5
E5D2
330
E58F
100
AcDbEntity
  8
0
  6
CONTINUOUS
100
AcDbLine
 10
30.45496647202376
 20
1.258561262251155
 30
0.0
 11
29.30199999996933
 21
2.411527734305588
 31
0.0
  0
LINE
  5
E5D3
330
E58F
100
AcDbEntity
  8
0
  6
CONTINUOUS
100
AcDbLine
 10
24.256042443999
 20
7.457485290275915
 30
0.0
 11
23.30250855037605
 21
8.411019183898862
 31
0.0
  0
LINE
  5
E5D4
330
E58F
100
AcDbEntity
  8
0
  6
CONTINUOUS
100
AcDbLine
 10
30.64868582078271
 20
1.738361122572387
 30
0.0
 11
29.30199999996933
 21
3.085046943385775
 31
0.0
  0
LINE
  5
E5D5
330
E58F
100
AcDbEntity
  8
0
  6
CONTINUOUS
100
AcDbLine
 10
23.71079143122431
 20
8.676255512130794
 30
0.0
 11
23.51071165584668
 21
8.876335287508416
 31
0.0
  0
LINE
  5
E5D6
330
E58F
100
AcDbEntity
  8
0
  6
CONTINUOUS
100
AcDbLine
 10
30.73802122914428
 20
2.322544923291007
 30
0.0
 11
29.30199999996933
 21
3.758566152465961
 31
0.0
  0
LINE
  5
E5D7
330
E58F
100
AcDbEntity
  8
0
  6
CONTINUOUS
100
AcDbLine
 10
30.74199999996924
 20
2.992085361546236
 30
0.0
 11
29.30199999996933
 21
4.432085361546148
 31
0.0
  0
LINE
  5
E5D8
330
E58F
100
AcDbEntity
  8
0
  6
CONTINUOUS
100
AcDbLine
 10
30.74199999996924
 20
3.665604570626419
 30
0.0
 11
29.30199999996933
 21
5.105604570626333
 31
0.0
  0
LINE
  5
E5D9
330
E58F
100
AcDbEntity
  8
0
  6
CONTINUOUS
100
AcDbLine
 10
30.74199999996925
 20
4.339123779706602
 30
0.0
 11
29.30199999996933
 21
5.77912377970652
 31
0.0
  0
LINE
  5
E5DA
330
E58F
100
AcDbEntity
  8
0
  6
CONTINUOUS
100
AcDbLine
 10
30.74199999996925
 20
5.012642988786785
 30
0.0
 11
29.30199999996933
 21
6.452642988786707
 31
0.0
  0
LINE
  5
E5DB
330
E58F
100
AcDbEntity
  8
0
  6
CONTINUOUS
100
AcDbLine
 10
30.74199999996925
 20
5.68616219786697
 30
0.0
 11
29.30199999996933
 21
7.126162197866894
 31
0.0
  0
LINE
  5
E5DC
330
E58F
100
AcDbEntity
  8
0
  6
CONTINUOUS
100
AcDbLine
 10
30.74199999996925
 20
6.359681406947153
 30
0.0
 11
29.30199999996933
 21
7.799681406947081
 31
0.0
  0
LINE
  5
E5DD
330
E58F
100
AcDbEntity
  8
0
  6
CONTINUOUS
100
AcDbLine
 10
30.74199999996926
 20
7.033200616027337
 30
0.0
 11
29.30199999996933
 21
8.473200616027269
 31
0.0
  0
LINE
  5
E5DE
330
E58F
100
AcDbEntity
  8
0
  6
CONTINUOUS
100
AcDbLine
 10
30.74199999996926
 20
7.706719825107518
 30
0.0
 11
29.68561982508552
 21
8.763099999991255
 31
0.0
  0
LINE
  5
E5DF
330
E58F
100
AcDbEntity
  8
0
  6
CONTINUOUS
100
AcDbLine
 10
30.74199999996926
 20
8.380239034187703
 30
0.0
 11
30.35913903416571
 21
8.763099999991255
 31
0.0
  0
ENDBLK
  5
E682
330
E58F
100
AcDbEntity
  8
0
100
AcDbBlockEnd
  0
BLOCK
  5
E683
330
E5E0
100
AcDbEntity
  8
0
100
AcDbBlockBegin
  2
*X22
 70
     1
 10
0.0
 20
0.0
 30
0.0
  3
*X22
  1

  0
LINE
  5
E5E1
330
E5E0
100
AcDbEntity
  8
0
  6
CONTINUOUS
100
AcDbLine
 10
31.64199999996833
 20
8.535058289913598
 30
0.0
 11
31.87004171004599
 21
8.763099999991255
 31
0.0
  0
LINE
  5
E5E2
330
E5E0
100
AcDbEntity
  8
0
  6
CONTINUOUS
100
AcDbLine
 10
31.64199999996833
 20
7.861539080833412
 30
0.0
 11
32.54356091912618
 21
8.763099999991255
 31
0.0
  0
LINE
  5
E5E3
330
E5E0
100
AcDbEntity
  8
0
  6
CONTINUOUS
100
AcDbLine
 10
31.64199999996833
 20
7.188019871753226
 30
0.0
 11
33.08199999996839
 21
8.628019871753281
 31
0.0
  0
LINE
  5
E5E4
330
E5E0
100
AcDbEntity
  8
0
  6
CONTINUOUS
100
AcDbLine
 10
31.64199999996833
 20
6.51450066267304
 30
0.0
 11
33.08199999996839
 21
7.954500662673095
 31
0.0
  0
LINE
  5
E5E5
330
E5E0
100
AcDbEntity
  8
0
  6
CONTINUOUS
100
AcDbLine
 10
31.64199999996833
 20
5.840981453592853
 30
0.0
 11
33.08199999996839
 21
7.280981453592908
 31
0.0
  0
LINE
  5
E5E6
330
E5E0
100
AcDbEntity
  8
0
  6
CONTINUOUS
100
AcDbLine
 10
31.64199999996833
 20
5.167462244512667
 30
0.0
 11
33.08199999996839
 21
6.607462244512721
 31
0.0
  0
LINE
  5
E5E7
330
E5E0
100
AcDbEntity
  8
0
  6
CONTINUOUS
100
AcDbLine
 10
31.64199999996833
 20
4.493943035432481
 30
0.0
 11
33.08199999996839
 21
5.933943035432535
 31
0.0
  0
LINE
  5
E5E8
330
E5E0
100
AcDbEntity
  8
0
  6
CONTINUOUS
100
AcDbLine
 10
31.64199999996833
 20
3.820423826352293
 30
0.0
 11
33.08199999996839
 21
5.260423826352348
 31
0.0
  0
LINE
  5
E5E9
330
E5E0
100
AcDbEntity
  8
0
  6
CONTINUOUS
100
AcDbLine
 10
31.64199999996833
 20
3.146904617272106
 30
0.0
 11
33.08199999996839
 21
4.586904617272161
 31
0.0
  0
LINE
  5
E5EA
330
E5E0
100
AcDbEntity
  8
0
  6
CONTINUOUS
100
AcDbLine
 10
36.23199999996837
 20
8.410423826352325
 30
0.0
 11
36.5846761736073
 21
8.763099999991255
 31
0.0
  0
LINE
  5
E5EB
330
E5E0
100
AcDbEntity
  8
0
  6
CONTINUOUS
100
AcDbLine
 10
36.23199999996837
 20
7.73690461727214
 30
0.0
 11
37.25819538268748
 21
8.763099999991255
 31
0.0
  0
LINE
  5
E5EC
330
E5E0
100
AcDbEntity
  8
0
  6
CONTINUOUS
100
AcDbLine
 10
31.64257403601376
 20
2.473959444237348
 30
0.0
 11
33.08199999996839
 21
3.913385408191974
 31
0.0
  0
LINE
  5
E5ED
330
E5E0
100
AcDbEntity
  8
0
  6
CONTINUOUS
100
AcDbLine
 10
36.23199999996837
 20
7.063385408191953
 30
0.0
 11
37.67199999996831
 21
8.503385408191894
 31
0.0
  0
LINE
  5
E5EE
330
E5E0
100
AcDbEntity
  8
0
  6
CONTINUOUS
100
AcDbLine
 10
31.72013636841932
 20
1.87800256756272
 30
0.0
 11
33.08199999996839
 21
3.239866199111788
 31
0.0
  0
LINE
  5
E5EF
330
E5E0
100
AcDbEntity
  8
0
  6
CONTINUOUS
100
AcDbLine
 10
36.23199999996837
 20
6.389866199111767
 30
0.0
 11
37.67199999996831
 21
7.829866199111708
 31
0.0
  0
LINE
  5
E5F0
330
E5E0
100
AcDbEntity
  8
0
  6
CONTINUOUS
100
AcDbLine
 10
31.89042734314753
 20
1.374774333210744
 30
0.0
 11
33.08199999996839
 21
2.566346990031601
 31
0.0
  0
LINE
  5
E5F1
330
E5E0
100
AcDbEntity
  8
0
  6
CONTINUOUS
100
AcDbLine
 10
36.23199999996837
 20
5.71634699003158
 30
0.0
 11
37.67199999996831
 21
7.156346990031521
 31
0.0
  0
LINE
  5
E5F2
330
E5E0
100
AcDbEntity
  8
0
  6
CONTINUOUS
100
AcDbLine
 10
32.14210568064475
 20
0.952933461627778
 30
0.0
 11
33.18745552475986
 21
1.998283305742888
 31
0.0
  0
LINE
  5
E5F3
330
E5E0
100
AcDbEntity
  8
0
  6
CONTINUOUS
100
AcDbLine
 10
36.23199999996837
 20
5.042827780951393
 30
0.0
 11
37.67199999996831
 21
6.482827780951334
 31
0.0
  0
LINE
  5
E5F4
330
E5E0
100
AcDbEntity
  8
0
  6
CONTINUOUS
100
AcDbLine
 10
32.45820639400955
 20
0.5955149659123915
 30
0.0
 11
33.47242681921943
 21
1.60973539112227
 31
0.0
  0
LINE
  5
E5F5
330
E5E0
100
AcDbEntity
  8
0
  6
CONTINUOUS
100
AcDbLine
 10
36.23199999996837
 20
4.369308571871207
 30
0.0
 11
37.67199999996831
 21
5.809308571871147
 31
0.0
  0
LINE
  5
E5F6
330
E5E0
100
AcDbEntity
  8
0
  6
CONTINUOUS
100
AcDbLine
 10
32.83432456621412
 20
0.2981139290367771
 30
0.0
 11
33.89722476612215
 21
1.361014128944803
 31
0.0
  0
LINE
  5
E5F7
330
E5E0
100
AcDbEntity
  8
0
  6
CONTINUOUS
100
AcDbLine
 10
36.23199999996837
 20
3.69578936279102
 30
0.0
 11
37.67199999996831
 21
5.135789362790962
 31
0.0
  0
LINE
  5
E5F8
330
E5E0
100
AcDbEntity
  8
0
  6
CONTINUOUS
100
AcDbLine
 10
33.2711633111245
 20
0.0614334648669672
 30
0.0
 11
34.43247338014423
 21
1.222743533886696
 31
0.0
  0
LINE
  5
E5F9
330
E5E0
100
AcDbEntity
  8
0
  6
CONTINUOUS
100
AcDbLine
 10
36.23199999996837
 20
3.022270153710834
 30
0.0
 11
37.67199999996831
 21
4.462270153710775
 31
0.0
  0
LINE
  5
E5FA
330
E5E0
100
AcDbEntity
  8
0
  6
CONTINUOUS
100
AcDbLine
 10
33.76515245874577
 20
-0.1180965965919523
 30
0.0
 11
35.1587445516215
 21
1.27549549628378
 31
0.0
  0
LINE
  5
E5FB
330
E5E0
100
AcDbEntity
  8
0
  6
CONTINUOUS
100
AcDbLine
 10
36.21639478609585
 20
2.333145730758136
 30
0.0
 11
37.67199999996831
 21
3.788750944630588
 31
0.0
  0
LINE
  5
E5FC
330
E5E0
100
AcDbEntity
  8
0
  6
CONTINUOUS
100
AcDbLine
 10
34.34060583368432
 20
-0.2161624307335863
 30
0.0
 11
37.67199999996831
 21
3.115231735550401
 31
0.0
  0
LINE
  5
E5FD
330
E5E0
100
AcDbEntity
  8
0
  6
CONTINUOUS
100
AcDbLine
 10
35.01698193613905
 20
-0.2133055373590427
 30
0.0
 11
37.66876712070525
 21
2.438479647207154
 31
0.0
  0
LINE
  5
E5FE
330
E5E0
100
AcDbEntity
  8
0
  6
CONTINUOUS
100
AcDbLine
 10
35.90743367693304
 20
0.0036269943547609
 30
0.0
 11
37.51723902192366
 21
1.613432339345381
 31
0.0
  0
LINE
  5
E5FF
330
E5E0
100
AcDbEntity
  8
0
  6
CONTINUOUS
100
AcDbLine
 10
32.55309425579761
 20
0.5074718966376706
 30
0.0
 11
32.27784730925847
 21
0.7827188431768102
 31
0.0
  0
LINE
  5
E600
330
E5E0
100
AcDbEntity
  8
0
  6
CONTINUOUS
100
AcDbLine
 10
33.87496468909684
 20
-0.1408793275813673
 30
0.0
 11
31.67993083278052
 21
2.054154528734943
 31
0.0
  0
LINE
  5
E601
330
E5E0
100
AcDbEntity
  8
0
  6
CONTINUOUS
100
AcDbLine
 10
34.64362813207632
 20
-0.2360235614806649
 30
0.0
 11
31.64199999996833
 21
2.765604570627322
 31
0.0
  0
LINE
  5
E602
330
E5E0
100
AcDbEntity
  8
0
  6
CONTINUOUS
100
AcDbLine
 10
35.25801106796118
 20
-0.1768872882853429
 30
0.0
 11
31.64199999996833
 21
3.439123779707508
 31
0.0
  0
LINE
  5
E603
330
E5E0
100
AcDbEntity
  8
0
  6
CONTINUOUS
100
AcDbLine
 10
35.79065650332146
 20
-0.0360135145654361
 30
0.0
 11
34.54143210838231
 21
1.213210880373721
 31
0.0
  0
LINE
  5
E604
330
E5E0
100
AcDbEntity
  8
0
  6
CONTINUOUS
100
AcDbLine
 10
33.08199999996839
 20
2.67264298878764
 30
0.0
 11
31.64199999996833
 21
4.112642988787695
 31
0.0
  0
LINE
  5
E605
330
E5E0
100
AcDbEntity
  8
0
  6
CONTINUOUS
100
AcDbLine
 10
36.25975597779143
 20
0.1684062200447833
 30
0.0
 11
35.15395110240023
 21
1.274211095435983
 31
0.0
  0
LINE
  5
E606
330
E5E0
100
AcDbEntity
  8
0
  6
CONTINUOUS
100
AcDbLine
 10
33.08199999996839
 20
3.346162197867826
 30
0.0
 11
31.64199999996833
 21
4.786162197867881
 31
0.0
  0
LINE
  5
E607
330
E5E0
100
AcDbEntity
  8
0
  6
CONTINUOUS
100
AcDbLine
 10
36.67226329638774
 20
0.4294181105286579
 30
0.0
 11
35.63766478748767
 21
1.464016619428737
 31
0.0
  0
LINE
  5
E608
330
E5E0
100
AcDbEntity
  8
0
  6
CONTINUOUS
100
AcDbLine
 10
33.08199999996839
 20
4.019681406948012
 30
0.0
 11
31.64199999996833
 21
5.459681406948068
 31
0.0
  0
LINE
  5
E609
330
E5E0
100
AcDbEntity
  8
0
  6
CONTINUOUS
100
AcDbLine
 10
37.01677749710036
 20
0.7584231188962329
 30
0.0
 11
35.99563422741351
 21
1.779566388583076
 31
0.0
  0
LINE
  5
E60A
330
E5E0
100
AcDbEntity
  8
0
  6
CONTINUOUS
100
AcDbLine
 10
33.08199999996839
 20
4.693200616028199
 30
0.0
 11
31.64199999996833
 21
6.133200616028255
 31
0.0
  0
LINE
  5
E60B
330
E5E0
100
AcDbEntity
  8
0
  6
CONTINUOUS
100
AcDbLine
 10
37.29859977568887
 20
1.1501200493879
 30
0.0
 11
36.20680593341555
 21
2.241913891661226
 31
0.0
  0
LINE
  5
E60C
330
E5E0
100
AcDbEntity
  8
0
  6
CONTINUOUS
100
AcDbLine
 10
33.08199999996839
 20
5.366719825108386
 30
0.0
 11
31.64199999996833
 21
6.80671982510844
 31
0.0
  0
LINE
  5
E60D
330
E5E0
100
AcDbEntity
  8
0
  6
CONTINUOUS
100
AcDbLine
 10
37.5148623517228
 20
1.607376682434161
 30
0.0
 11
36.23199999996837
 21
2.890239034188594
 31
0.0
  0
LINE
  5
E60E
330
E5E0
100
AcDbEntity
  8
0
  6
CONTINUOUS
100
AcDbLine
 10
33.08199999996839
 20
6.040239034188573
 30
0.0
 11
31.64199999996833
 21
7.480239034188627
 31
0.0
  0
LINE
  5
E60F
330
E5E0
100
AcDbEntity
  8
0
  6
CONTINUOUS
100
AcDbLine
 10
37.64705163358367
 20
2.148706609653477
 30
0.0
 11
36.23199999996837
 21
3.56375824326878
 31
0.0
  0
LINE
  5
E610
330
E5E0
100
AcDbEntity
  8
0
  6
CONTINUOUS
100
AcDbLine
 10
33.08199999996839
 20
6.713758243268758
 30
0.0
 11
31.64199999996833
 21
8.153758243268815
 31
0.0
  0
LINE
  5
E611
330
E5E0
100
AcDbEntity
  8
0
  6
CONTINUOUS
100
AcDbLine
 10
37.67199999996831
 20
2.797277452349026
 30
0.0
 11
36.23199999996837
 21
4.237277452348967
 31
0.0
  0
LINE
  5
E612
330
E5E0
100
AcDbEntity
  8
0
  6
CONTINUOUS
100
AcDbLine
 10
37.67199999996831
 20
3.470796661429213
 30
0.0
 11
36.23199999996837
 21
4.910796661429154
 31
0.0
  0
LINE
  5
E613
330
E5E0
100
AcDbEntity
  8
0
  6
CONTINUOUS
100
AcDbLine
 10
37.67199999996831
 20
4.144315870509399
 30
0.0
 11
36.23199999996837
 21
5.58431587050934
 31
0.0
  0
LINE
  5
E614
330
E5E0
100
AcDbEntity
  8
0
  6
CONTINUOUS
100
AcDbLine
 10
33.08199999996839
 20
7.387277452348945
 30
0.0
 11
31.70617745232608
 21
8.763099999991255
 31
0.0
  0
LINE
  5
E615
330
E5E0
100
AcDbEntity
  8
0
  6
CONTINUOUS
100
AcDbLine
 10
33.08199999996839
 20
8.060796661429132
 30
0.0
 11
32.37969666140626
 21
8.763099999991255
 31
0.0
  0
LINE
  5
E616
330
E5E0
100
AcDbEntity
  8
0
  6
CONTINUOUS
100
AcDbLine
 10
33.08199999996839
 20
8.734315870509318
 30
0.0
 11
33.05321587048645
 21
8.763099999991255
 31
0.0
  0
LINE
  5
E617
330
E5E0
100
AcDbEntity
  8
0
  6
CONTINUOUS
100
AcDbLine
 10
37.67199999996831
 20
4.817835079589585
 30
0.0
 11
36.23199999996837
 21
6.257835079589526
 31
0.0
  0
LINE
  5
E618
330
E5E0
100
AcDbEntity
  8
0
  6
CONTINUOUS
100
AcDbLine
 10
37.67199999996831
 20
5.491354288669771
 30
0.0
 11
36.23199999996837
 21
6.931354288669713
 31
0.0
  0
LINE
  5
E619
330
E5E0
100
AcDbEntity
  8
0
  6
CONTINUOUS
100
AcDbLine
 10
37.67199999996831
 20
6.164873497749958
 30
0.0
 11
36.23199999996837
 21
7.6048734977499
 31
0.0
  0
LINE
  5
E61A
330
E5E0
100
AcDbEntity
  8
0
  6
CONTINUOUS
100
AcDbLine
 10
37.67199999996831
 20
6.838392706830144
 30
0.0
 11
36.23199999996837
 21
8.278392706830086
 31
0.0
  0
LINE
  5
E61B
330
E5E0
100
AcDbEntity
  8
0
  6
CONTINUOUS
100
AcDbLine
 10
37.67199999996831
 20
7.511911915910332
 30
0.0
 11
36.42081191588738
 21
8.763099999991255
 31
0.0
  0
LINE
  5
E61C
330
E5E0
100
AcDbEntity
  8
0
  6
CONTINUOUS
100
AcDbLine
 10
37.67199999996831
 20
8.185431124990519
 30
0.0
 11
37.09433112496757
 21
8.763099999991255
 31
0.0
  0
ENDBLK
  5
E684
330
E5E0
100
AcDbEntity
  8
0
100
AcDbBlockEnd
  0
BLOCK
  5
E685
330
E61D
100
AcDbEntity
  8
0
100
AcDbBlockBegin
  2
*X23
 70
     1
 10
0.0
 20
0.0
 30
0.0
  3
*X23
  1

  0
LINE
  5
E61E
330
E61D
100
AcDbEntity
  8
0
  6
CONTINUOUS
100
AcDbLine
 10
38.60499999996136
 20
8.762866199104765
 30
0.0
 11
38.71672554182345
 21
8.874591740966855
 31
0.0
  0
LINE
  5
E61F
330
E61D
100
AcDbEntity
  8
0
  6
CONTINUOUS
100
AcDbLine
 10
38.60499999996136
 20
8.089346990024577
 30
0.0
 11
39.03418785440363
 21
8.518534844466847
 31
0.0
  0
LINE
  5
E620
330
E61D
100
AcDbEntity
  8
0
  6
CONTINUOUS
100
AcDbLine
 10
38.60499999996136
 20
7.41582778094439
 30
0.0
 11
39.35165016698382
 21
8.16247794796684
 31
0.0
  0
LINE
  5
E621
330
E61D
100
AcDbEntity
  8
0
  6
CONTINUOUS
100
AcDbLine
 10
38.60499999996136
 20
6.742308571864204
 30
0.0
 11
39.66911247956399
 21
7.806421051466834
 31
0.0
  0
LINE
  5
E622
330
E61D
100
AcDbEntity
  8
0
  6
CONTINUOUS
100
AcDbLine
 10
38.60499999996136
 20
6.068789362784018
 30
0.0
 11
39.98657479214418
 21
7.450364154966827
 31
0.0
  0
LINE
  5
E623
330
E61D
100
AcDbEntity
  8
0
  6
CONTINUOUS
100
AcDbLine
 10
38.60499999996136
 20
5.395270153703832
 30
0.0
 11
40.30403710472435
 21
7.09430725846682
 31
0.0
  0
LINE
  5
E624
330
E61D
100
AcDbEntity
  8
0
  6
CONTINUOUS
100
AcDbLine
 10
38.60499999996136
 20
4.721750944623645
 30
0.0
 11
40.62149941730453
 21
6.738250361966813
 31
0.0
  0
LINE
  5
E625
330
E61D
100
AcDbEntity
  8
0
  6
CONTINUOUS
100
AcDbLine
 10
38.60499999996136
 20
4.048231735543458
 30
0.0
 11
40.93896172988471
 21
6.382193465466806
 31
0.0
  0
LINE
  5
E626
330
E61D
100
AcDbEntity
  8
0
  6
CONTINUOUS
100
AcDbLine
 10
38.60499999996136
 20
3.374712526463272
 30
0.0
 11
40.02599999995994
 21
4.795712526461843
 31
0.0
  0
LINE
  5
E627
330
E61D
100
AcDbEntity
  8
0
  6
CONTINUOUS
100
AcDbLine
 10
38.60499999996136
 20
2.701193317383085
 30
0.0
 11
40.02599999995994
 21
4.122193317381657
 31
0.0
  0
LINE
  5
E628
330
E61D
100
AcDbEntity
  8
0
  6
CONTINUOUS
100
AcDbLine
 10
40.28339754687704
 20
5.053110073378947
 30
0.0
 11
41.25642404246489
 21
6.026136568966799
 31
0.0
  0
LINE
  5
E629
330
E61D
100
AcDbEntity
  8
0
  6
CONTINUOUS
100
AcDbLine
 10
40.60085985945722
 20
4.697053176878939
 30
0.0
 11
41.57388635504507
 21
5.670079672466793
 31
0.0
  0
LINE
  5
E62A
330
E61D
100
AcDbEntity
  8
0
  6
CONTINUOUS
100
AcDbLine
 10
43.57899999995641
 20
8.348712526458318
 30
0.0
 11
43.99338747348935
 21
8.763099999991255
 31
0.0
  0
LINE
  5
E62B
330
E61D
100
AcDbEntity
  8
0
  6
CONTINUOUS
100
AcDbLine
 10
43.57899999995641
 20
7.675193317378131
 30
0.0
 11
44.66690668256953
 21
8.763099999991255
 31
0.0
  0
LINE
  5
E62C
330
E61D
100
AcDbEntity
  8
0
  6
CONTINUOUS
100
AcDbLine
 10
38.60499999996136
 20
2.027674108302898
 30
0.0
 11
40.02599999995994
 21
3.44867410830147
 31
0.0
  0
LINE
  5
E62D
330
E61D
100
AcDbEntity
  8
0
  6
CONTINUOUS
100
AcDbLine
 10
38.60499999996136
 20
1.354154899222712
 30
0.0
 11
40.02599999995994
 21
2.775154899221284
 31
0.0
  0
LINE
  5
E62E
330
E61D
100
AcDbEntity
  8
0
  6
CONTINUOUS
100
AcDbLine
 10
38.60499999996136
 20
0.6806356901425255
 30
0.0
 11
40.02599999995994
 21
2.101635690141098
 31
0.0
  0
LINE
  5
E62F
330
E61D
100
AcDbEntity
  8
0
  6
CONTINUOUS
100
AcDbLine
 10
38.60499999996136
 20
0.0071164810623383
 30
0.0
 11
40.02599999995994
 21
1.428116481060911
 31
0.0
  0
LINE
  5
E630
330
E61D
100
AcDbEntity
  8
0
  6
CONTINUOUS
100
AcDbLine
 10
40.9183221720374
 20
4.340996280378933
 30
0.0
 11
41.89134866762525
 21
5.314022775966786
 31
0.0
  0
LINE
  5
E631
330
E61D
100
AcDbEntity
  8
0
  6
CONTINUOUS
100
AcDbLine
 10
41.23578448461758
 20
3.984939383878926
 30
0.0
 11
42.20881098020543
 21
4.957965879466778
 31
0.0
  0
LINE
  5
E632
330
E61D
100
AcDbEntity
  8
0
  6
CONTINUOUS
100
AcDbLine
 10
41.55324679719776
 20
3.628882487378919
 30
0.0
 11
42.52627329278561
 21
4.601908982966772
 31
0.0
  0
LINE
  5
E633
330
E61D
100
AcDbEntity
  8
0
  6
CONTINUOUS
100
AcDbLine
 10
41.87070910977793
 20
3.272825590878912
 30
0.0
 11
42.84373560536579
 21
4.245852086466765
 31
0.0
  0
LINE
  5
E634
330
E61D
100
AcDbEntity
  8
0
  6
CONTINUOUS
100
AcDbLine
 10
43.57899999995641
 20
7.001674108297943
 30
0.0
 11
44.99999999995498
 21
8.422674108296516
 31
0.0
  0
LINE
  5
E635
330
E61D
100
AcDbEntity
  8
0
  6
CONTINUOUS
100
AcDbLine
 10
43.57899999995641
 20
6.328154899217758
 30
0.0
 11
44.99999999995498
 21
7.749154899216329
 31
0.0
  0
LINE
  5
E636
330
E61D
100
AcDbEntity
  8
0
  6
CONTINUOUS
100
AcDbLine
 10
43.57899999995641
 20
5.654635690137571
 30
0.0
 11
44.99999999995498
 21
7.075635690136142
 31
0.0
  0
LINE
  5
E637
330
E61D
100
AcDbEntity
  8
0
  6
CONTINUOUS
100
AcDbLine
 10
43.57899999995641
 20
4.981116481057384
 30
0.0
 11
44.99999999995498
 21
6.402116481055955
 31
0.0
  0
LINE
  5
E638
330
E61D
100
AcDbEntity
  8
0
  6
CONTINUOUS
100
AcDbLine
 10
39.27140272797921
 20
-0.0000000000000009
 30
0.0
 11
40.02599999995994
 21
0.7545972719807246
 31
0.0
  0
LINE
  5
E639
330
E61D
100
AcDbEntity
  8
0
  6
CONTINUOUS
100
AcDbLine
 10
39.9449219370594
 20
-0.0000000000000009
 30
0.0
 11
40.02599999995994
 21
0.0810780629005379
 31
0.0
  0
LINE
  5
E63A
330
E61D
100
AcDbEntity
  8
0
  6
CONTINUOUS
100
AcDbLine
 10
42.18817142235812
 20
2.916768694378905
 30
0.0
 11
43.16119791794597
 21
3.889795189966758
 31
0.0
  0
LINE
  5
E63B
330
E61D
100
AcDbEntity
  8
0
  6
CONTINUOUS
100
AcDbLine
 10
42.50563373493829
 20
2.560711797878898
 30
0.0
 11
43.47866023052615
 21
3.533738293466751
 31
0.0
  0
LINE
  5
E63C
330
E61D
100
AcDbEntity
  8
0
  6
CONTINUOUS
100
AcDbLine
 10
43.57899999995641
 20
4.307597271977198
 30
0.0
 11
44.99999999995498
 21
5.728597271975769
 31
0.0
  0
LINE
  5
E63D
330
E61D
100
AcDbEntity
  8
0
  6
CONTINUOUS
100
AcDbLine
 10
43.57899999995641
 20
3.634078062897011
 30
0.0
 11
44.99999999995498
 21
5.055078062895582
 31
0.0
  0
LINE
  5
E63E
330
E61D
100
AcDbEntity
  8
0
  6
CONTINUOUS
100
AcDbLine
 10
42.82309604751848
 20
2.204654901378891
 30
0.0
 11
44.99999999995498
 21
4.381558853815395
 31
0.0
  0
LINE
  5
E63F
330
E61D
100
AcDbEntity
  8
0
  6
CONTINUOUS
100
AcDbLine
 10
43.14055836009865
 20
1.848598004878885
 30
0.0
 11
44.99999999995498
 21
3.70803964473521
 31
0.0
  0
LINE
  5
E640
330
E61D
100
AcDbEntity
  8
0
  6
CONTINUOUS
100
AcDbLine
 10
43.45802067267883
 20
1.492541108378878
 30
0.0
 11
44.99999999995498
 21
3.034520435655023
 31
0.0
  0
LINE
  5
E641
330
E61D
100
AcDbEntity
  8
0
  6
CONTINUOUS
100
AcDbLine
 10
43.77548298525902
 20
1.136484211878871
 30
0.0
 11
44.99999999995498
 21
2.361001226574837
 31
0.0
  0
LINE
  5
E642
330
E61D
100
AcDbEntity
  8
0
  6
CONTINUOUS
100
AcDbLine
 10
44.09294529783919
 20
0.7804273153788639
 30
0.0
 11
44.99999999995498
 21
1.687482017494649
 31
0.0
  0
LINE
  5
E643
330
E61D
100
AcDbEntity
  8
0
  6
CONTINUOUS
100
AcDbLine
 10
44.41040761041938
 20
0.4243704188788566
 30
0.0
 11
44.99999999995498
 21
1.013962808414463
 31
0.0
  0
LINE
  5
E644
330
E61D
100
AcDbEntity
  8
0
  6
CONTINUOUS
100
AcDbLine
 10
44.72786992299955
 20
0.0683135223788494
 30
0.0
 11
44.99999999995498
 21
0.340443599334276
 31
0.0
  0
LINE
  5
E645
330
E61D
100
AcDbEntity
  8
0
  6
CONTINUOUS
100
AcDbLine
 10
39.12223903415696
 20
-0.0000000000000009
 30
0.0
 11
38.60499999996136
 21
0.5172390341955961
 31
0.0
  0
LINE
  5
E646
330
E61D
100
AcDbEntity
  8
0
  6
CONTINUOUS
100
AcDbLine
 10
39.79575824323715
 20
-0.0000000000000009
 30
0.0
 11
38.60499999996136
 21
1.190758243275783
 31
0.0
  0
LINE
  5
E647
330
E61D
100
AcDbEntity
  8
0
  6
CONTINUOUS
100
AcDbLine
 10
40.02599999995994
 20
0.443277452357397
 30
0.0
 11
38.60499999996136
 21
1.864277452355969
 31
0.0
  0
LINE
  5
E648
330
E61D
100
AcDbEntity
  8
0
  6
CONTINUOUS
100
AcDbLine
 10
40.02599999995994
 20
1.116796661437583
 30
0.0
 11
38.60499999996136
 21
2.537796661436155
 31
0.0
  0
LINE
  5
E649
330
E61D
100
AcDbEntity
  8
0
  6
CONTINUOUS
100
AcDbLine
 10
40.02599999995994
 20
1.79031587051777
 30
0.0
 11
38.60499999996136
 21
3.211315870516341
 31
0.0
  0
LINE
  5
E64A
330
E61D
100
AcDbEntity
  8
0
  6
CONTINUOUS
100
AcDbLine
 10
40.02599999995994
 20
2.463835079597956
 30
0.0
 11
38.60499999996136
 21
3.884835079596527
 31
0.0
  0
LINE
  5
E64B
330
E61D
100
AcDbEntity
  8
0
  6
CONTINUOUS
100
AcDbLine
 10
40.02599999995994
 20
3.137354288678143
 30
0.0
 11
38.60499999996136
 21
4.558354288676714
 31
0.0
  0
LINE
  5
E64C
330
E61D
100
AcDbEntity
  8
0
  6
CONTINUOUS
100
AcDbLine
 10
40.02599999995994
 20
3.810873497758329
 30
0.0
 11
38.60499999996136
 21
5.2318734977569
 31
0.0
  0
LINE
  5
E64D
330
E61D
100
AcDbEntity
  8
0
  6
CONTINUOUS
100
AcDbLine
 10
40.02599999995994
 20
4.484392706838515
 30
0.0
 11
38.60499999996136
 21
5.905392706837086
 31
0.0
  0
LINE
  5
E64E
330
E61D
100
AcDbEntity
  8
0
  6
CONTINUOUS
100
AcDbLine
 10
44.99999999995498
 20
0.183911915923658
 30
0.0
 11
41.53858364506288
 21
3.64532827081576
 31
0.0
  0
LINE
  5
E64F
330
E61D
100
AcDbEntity
  8
0
  6
CONTINUOUS
100
AcDbLine
 10
40.02599999995994
 20
5.157911915918703
 30
0.0
 11
38.60499999996136
 21
6.578911915917274
 31
0.0
  0
LINE
  5
E650
330
E61D
100
AcDbEntity
  8
0
  6
CONTINUOUS
100
AcDbLine
 10
44.99999999995498
 20
0.8574311250038447
 30
0.0
 11
38.60499999996136
 21
7.25243112499746
 31
0.0
  0
LINE
  5
E651
330
E61D
100
AcDbEntity
  8
0
  6
CONTINUOUS
100
AcDbLine
 10
44.99999999995498
 20
1.530950334084031
 30
0.0
 11
38.60499999996136
 21
7.925950334077647
 31
0.0
  0
LINE
  5
E652
330
E61D
100
AcDbEntity
  8
0
  6
CONTINUOUS
100
AcDbLine
 10
44.99999999995498
 20
2.204469543164218
 30
0.0
 11
43.57899999995641
 21
3.625469543162789
 31
0.0
  0
LINE
  5
E653
330
E61D
100
AcDbEntity
  8
0
  6
CONTINUOUS
100
AcDbLine
 10
41.89876730984767
 20
5.305702233271528
 30
0.0
 11
38.60499999996136
 21
8.599469543157834
 31
0.0
  0
LINE
  5
E654
330
E61D
100
AcDbEntity
  8
0
  6
CONTINUOUS
100
AcDbLine
 10
44.99999999995498
 20
2.877988752244405
 30
0.0
 11
43.57899999995641
 21
4.298988752242975
 31
0.0
  0
LINE
  5
E655
330
E61D
100
AcDbEntity
  8
0
  6
CONTINUOUS
100
AcDbLine
 10
44.99999999995498
 20
3.551507961324591
 30
0.0
 11
43.57899999995641
 21
4.972507961323163
 31
0.0
  0
LINE
  5
E656
330
E61D
100
AcDbEntity
  8
0
  6
CONTINUOUS
100
AcDbLine
 10
44.99999999995498
 20
4.225027170404777
 30
0.0
 11
43.57899999995641
 21
5.646027170403348
 31
0.0
  0
LINE
  5
E657
330
E61D
100
AcDbEntity
  8
0
  6
CONTINUOUS
100
AcDbLine
 10
44.99999999995498
 20
4.898546379484964
 30
0.0
 11
43.57899999995641
 21
6.319546379483535
 31
0.0
  0
LINE
  5
E658
330
E61D
100
AcDbEntity
  8
0
  6
CONTINUOUS
100
AcDbLine
 10
44.99999999995498
 20
5.572065588565151
 30
0.0
 11
43.57899999995641
 21
6.993065588563722
 31
0.0
  0
LINE
  5
E659
330
E61D
100
AcDbEntity
  8
0
  6
CONTINUOUS
100
AcDbLine
 10
44.99999999995498
 20
6.245584797645336
 30
0.0
 11
43.57899999995641
 21
7.666584797643908
 31
0.0
  0
LINE
  5
E65A
330
E61D
100
AcDbEntity
  8
0
  6
CONTINUOUS
100
AcDbLine
 10
44.99999999995498
 20
6.919104006725522
 30
0.0
 11
43.57899999995641
 21
8.340104006724093
 31
0.0
  0
LINE
  5
E65B
330
E61D
100
AcDbEntity
  8
0
  6
CONTINUOUS
100
AcDbLine
 10
44.99999999995498
 20
7.592623215805709
 30
0.0
 11
43.82952321576943
 21
8.763099999991255
 31
0.0
  0
LINE
  5
E65C
330
E61D
100
AcDbEntity
  8
0
  6
CONTINUOUS
100
AcDbLine
 10
44.99999999995498
 20
8.266142424885896
 30
0.0
 11
44.50304242484962
 21
8.763099999991255
 31
0.0
  0
ENDBLK
  5
E686
330
E61D
100
AcDbEntity
  8
0
100
AcDbBlockEnd
  0
BLOCK
  5
E687
330
E65D
100
AcDbEntity
  8
0
100
AcDbBlockBegin
  2
*X24
 70
     1
 10
0.0
 20
0.0
 30
0.0
  3
*X24
  1

  0
LINE
  5
E65E
330
E65D
100
AcDbEntity
  8
0
  6
CONTINUOUS
100
AcDbLine
 10
0.0
 20
8.548461116714023
 30
0.0
 11
0.2146388832772324
 21
8.763099999991255
 31
0.0
  0
LINE
  5
E65F
330
E65D
100
AcDbEntity
  8
0
  6
CONTINUOUS
100
AcDbLine
 10
-0.0000000000000002
 20
7.874941907633837
 30
0.0
 11
0.8881580923574184
 21
8.763099999991255
 31
0.0
  0
LINE
  5
E660
330
E65D
100
AcDbEntity
  8
0
  6
CONTINUOUS
100
AcDbLine
 10
0.0
 20
7.20142269855365
 30
0.0
 11
1.420999999998572
 21
8.622422698552223
 31
0.0
  0
LINE
  5
E661
330
E65D
100
AcDbEntity
  8
0
  6
CONTINUOUS
100
AcDbLine
 10
-0.0000000000000001
 20
6.527903489473465
 30
0.0
 11
1.420999999998571
 21
7.948903489472036
 31
0.0
  0
LINE
  5
E662
330
E65D
100
AcDbEntity
  8
0
  6
CONTINUOUS
100
AcDbLine
 10
-0.0000000000000002
 20
5.854384280393278
 30
0.0
 11
1.420999999998571
 21
7.275384280391849
 31
0.0
  0
LINE
  5
E663
330
E65D
100
AcDbEntity
  8
0
  6
CONTINUOUS
100
AcDbLine
 10
-0.0000000000000002
 20
5.180865071313091
 30
0.0
 11
1.420999999998571
 21
6.601865071311663
 31
0.0
  0
LINE
  5
E664
330
E65D
100
AcDbEntity
  8
0
  6
CONTINUOUS
100
AcDbLine
 10
0.0
 20
4.507345862232905
 30
0.0
 11
1.420999999998571
 21
5.928345862231477
 31
0.0
  0
LINE
  5
E665
330
E65D
100
AcDbEntity
  8
0
  6
CONTINUOUS
100
AcDbLine
 10
-0.0000000000000003
 20
3.833826653152718
 30
0.0
 11
1.420999999998571
 21
5.25482665315129
 31
0.0
  0
LINE
  5
E666
330
E65D
100
AcDbEntity
  8
0
  6
CONTINUOUS
100
AcDbLine
 10
-0.0000000000000002
 20
3.160307444072532
 30
0.0
 11
1.420999999998571
 21
4.581307444071103
 31
0.0
  0
LINE
  5
E667
330
E65D
100
AcDbEntity
  8
0
  6
CONTINUOUS
100
AcDbLine
 10
-0.0000000000000001
 20
2.486788234992345
 30
0.0
 11
1.420999999998571
 21
3.907788234990917
 31
0.0
  0
LINE
  5
E668
330
E65D
100
AcDbEntity
  8
0
  6
CONTINUOUS
100
AcDbLine
 10
-0.0000000000000006
 20
1.813269025912159
 30
0.0
 11
1.420999999998571
 21
3.234269025910731
 31
0.0
  0
LINE
  5
E669
330
E65D
100
AcDbEntity
  8
0
  6
CONTINUOUS
100
AcDbLine
 10
0.0
 20
1.139749816831973
 30
0.0
 11
1.420999999998571
 21
2.560749816830544
 31
0.0
  0
LINE
  5
E66A
330
E65D
100
AcDbEntity
  8
0
  6
CONTINUOUS
100
AcDbLine
 10
0.0000000000000002
 20
0.466230607751787
 30
0.0
 11
1.420999999998571
 21
1.887230607750358
 31
0.0
  0
LINE
  5
E66B
330
E65D
100
AcDbEntity
  8
0
  6
CONTINUOUS
100
AcDbLine
 10
0.2072886013284003
 20
-0.0000000000000009
 30
0.0
 11
1.420999999998571
 21
1.213711398670171
 31
0.0
  0
LINE
  5
E66C
330
E65D
100
AcDbEntity
  8
0
  6
CONTINUOUS
100
AcDbLine
 10
0.8808078104085864
 20
-0.0000000000000009
 30
0.0
 11
1.420999999998571
 21
0.5401921895899839
 31
0.0
  0
LINE
  5
E66D
330
E65D
100
AcDbEntity
  8
0
  6
CONTINUOUS
100
AcDbLine
 10
0.0581249075061505
 20
-0.0000000000000009
 30
0.0
 11
-0.0000000000000002
 21
0.0581249075061496
 31
0.0
  0
LINE
  5
E66E
330
E65D
100
AcDbEntity
  8
0
  6
CONTINUOUS
100
AcDbLine
 10
0.7316441165863372
 20
-0.0000000000000009
 30
0.0
 11
-0.0000000000000002
 21
0.7316441165863363
 31
0.0
  0
LINE
  5
E66F
330
E65D
100
AcDbEntity
  8
0
  6
CONTINUOUS
100
AcDbLine
 10
1.405163325666523
 20
-0.0000000000000009
 30
0.0
 11
-0.0000000000000002
 21
1.405163325666523
 31
0.0
  0
LINE
  5
E670
330
E65D
100
AcDbEntity
  8
0
  6
CONTINUOUS
100
AcDbLine
 10
1.420999999998572
 20
0.6576825347481381
 30
0.0
 11
-0.0000000000000001
 21
2.07868253474671
 31
0.0
  0
LINE
  5
E671
330
E65D
100
AcDbEntity
  8
0
  6
CONTINUOUS
100
AcDbLine
 10
1.420999999998571
 20
1.331201743828324
 30
0.0
 11
-0.0000000000000001
 21
2.752201743826896
 31
0.0
  0
LINE
  5
E672
330
E65D
100
AcDbEntity
  8
0
  6
CONTINUOUS
100
AcDbLine
 10
1.420999999998571
 20
2.004720952908511
 30
0.0
 11
-0.0000000000000002
 21
3.425720952907082
 31
0.0
  0
LINE
  5
E673
330
E65D
100
AcDbEntity
  8
0
  6
CONTINUOUS
100
AcDbLine
 10
1.420999999998571
 20
2.678240161988697
 30
0.0
 11
-0.0000000000000001
 21
4.099240161987269
 31
0.0
  0
LINE
  5
E674
330
E65D
100
AcDbEntity
  8
0
  6
CONTINUOUS
100
AcDbLine
 10
1.420999999998572
 20
3.351759371068884
 30
0.0
 11
0.0
 21
4.772759371067455
 31
0.0
  0
LINE
  5
E675
330
E65D
100
AcDbEntity
  8
0
  6
CONTINUOUS
100
AcDbLine
 10
1.420999999998571
 20
4.02527858014907
 30
0.0
 11
-0.0000000000000003
 21
5.446278580147642
 31
0.0
  0
LINE
  5
E676
330
E65D
100
AcDbEntity
  8
0
  6
CONTINUOUS
100
AcDbLine
 10
1.420999999998571
 20
4.698797789229257
 30
0.0
 11
0.0
 21
6.119797789227828
 31
0.0
  0
LINE
  5
E677
330
E65D
100
AcDbEntity
  8
0
  6
CONTINUOUS
100
AcDbLine
 10
1.420999999998571
 20
5.372316998309444
 30
0.0
 11
-0.0000000000000001
 21
6.793316998308015
 31
0.0
  0
LINE
  5
E678
330
E65D
100
AcDbEntity
  8
0
  6
CONTINUOUS
100
AcDbLine
 10
1.420999999998572
 20
6.045836207389629
 30
0.0
 11
-0.0000000000000004
 21
7.466836207388202
 31
0.0
  0
LINE
  5
E679
330
E65D
100
AcDbEntity
  8
0
  6
CONTINUOUS
100
AcDbLine
 10
1.420999999998571
 20
6.719355416469816
 30
0.0
 11
0.0
 21
8.140355416468388
 31
0.0
  0
LINE
  5
E67A
330
E65D
100
AcDbEntity
  8
0
  6
CONTINUOUS
100
AcDbLine
 10
1.420999999998571
 20
7.392874625550003
 30
0.0
 11
0.0507746255573185
 21
8.763099999991255
 31
0.0
  0
LINE
  5
E67B
330
E65D
100
AcDbEntity
  8
0
  6
CONTINUOUS
100
AcDbLine
 10
1.420999999998571
 20
8.06639383463019
 30
0.0
 11
0.7242938346375052
 21
8.763099999991255
 31
0.0
  0
LINE
  5
E67C
330
E65D
100
AcDbEntity
  8
0
  6
CONTINUOUS
100
AcDbLine
 10
1.420999999998571
 20
8.739913043710375
 30
0.0
 11
1.397813043717691
 21
8.763099999991255
 31
0.0
  0
ENDBLK
  5
E688
330
E65D
100
AcDbEntity
  8
0
100
AcDbBlockEnd
  0
ENDSEC
  0
SECTION
  2
ENTITIES
  0
LINE
  5
E2EB
330
18
100
AcDbEntity
  8
01
100
AcDbLine
 10
4787.250249664528
 20
459.1115630006784
 30
0.0000000001127424
 11
4835.250249664528
 21
459.1115630006784
 31
0.0000000001127424
  0
LINE
  5
E2EC
330
18
100
AcDbEntity
  8
01
100
AcDbLine
 10
4786.250249664528
 20
467.6115630006784
 30
0.0000000001127424
 11
4786.250249664528
 21
460.1115630006784
 31
0.0000000001127424
  0
ARC
  5
E2ED
330
18
100
AcDbEntity
  8
01
100
AcDbCircle
 10
4787.250249664528
 20
460.1115630006784
 30
0.0000000001127424
 40
1.0
100
AcDbArc
 50
180.0
 51
270.0
  0
LINE
  5
E2EE
330
18
100
AcDbEntity
  8
01
100
AcDbLine
 10
4836.250249664528
 20
467.6115630006784
 30
0.0000000001127424
 11
4836.250249664528
 21
460.1115630006784
 31
0.0000000001127424
  0
ARC
  5
E2EF
330
18
100
AcDbEntity
  8
01
100
AcDbCircle
 10
4835.250249664528
 20
460.1115630006784
 30
0.0000000001127424
 40
1.0
100
AcDbArc
 50
270.0
 51
0.0
  0
ARC
  5
E2F0
330
18
100
AcDbEntity
  8
01
100
AcDbCircle
 10
4811.250249664528
 20
307.6128813137811
 30
0.0000000001127424
 40
25.0
100
AcDbArc
 50
26.08788767751784
 51
349.6282607284596
  0
LINE
  5
E2F2
330
18
100
AcDbEntity
  8
01
100
AcDbLine
 10
4661.250249664528
 20
332.6128813137811
 30
0.0000000001127424
 11
4661.250249664528
 21
282.6128813137811
 31
0.0000000001127424
  0
LINE
  5
E2F3
330
18
100
AcDbEntity
  8
01
100
AcDbLine
 10
4669.750249664528
 20
283.6128813137811
 30
0.0000000001127424
 11
4669.750249664528
 21
331.6128813137811
 31
0.0000000001127424
  0
LINE
  5
E2F4
330
18
100
AcDbEntity
  8
01
100
AcDbLine
 10
4661.250249664528
 20
282.6128813137811
 30
0.0000000001127424
 11
4668.750249664528
 21
282.6128813137811
 31
0.0000000001127424
  0
ARC
  5
E2F5
330
18
100
AcDbEntity
  8
01
100
AcDbCircle
 10
4668.750249664528
 20
283.6128813137811
 30
0.0000000001127424
 40
1.0
100
AcDbArc
 50
270.0
 51
0.0
  0
LINE
  5
E2F6
330
18
100
AcDbEntity
  8
01
100
AcDbLine
 10
4661.250249664528
 20
332.6128813137811
 30
0.0000000001127424
 11
4668.750249664528
 21
332.6128813137811
 31
0.0000000001127424
  0
ARC
  5
E2F7
330
18
100
AcDbEntity
  8
01
100
AcDbCircle
 10
4668.750249664528
 20
331.6128813137811
 30
0.0000000001127424
 40
1.0
100
AcDbArc
 50
0.0
 51
90.0
  0
LINE
  5
E2F8
330
18
100
AcDbEntity
  8
01
100
AcDbLine
 10
4659.121964282098
 20
307.6128813137811
 30
0.0000000001127424
 11
4681.750249664528
 21
307.6128813137811
 31
0.0000000001127424
  0
LINE
  5
E2F9
330
18
100
AcDbEntity
  8
01
100
AcDbLine
 10
4786.250249664528
 20
467.6115630006784
 30
0.0000000001127424
 11
4836.250249664528
 21
467.6115630006784
 31
0.0000000001127424
  0
LINE
  5
E2FA
330
18
100
AcDbEntity
  8
01
  6
BYBLOCK
100
AcDbLine
 10
4760.251017506846
 20
467.6115630006784
 30
0.0000000001127424
 11
4914.005397661876
 21
467.6115630006784
 31
0.0000000001127424
  0
LINE
  5
E2FC
330
18
100
AcDbEntity
  8
01
100
AcDbLine
 10
4811.250249664528
 20
472.6115630006784
 30
0.0000000001127424
 11
4811.250249664528
 21
446.1115630006784
 31
0.0000000001127424
  0
LINE
  5
E300
330
18
100
AcDbEntity
  8
01
100
AcDbLine
 10
4661.250249664528
 20
427.6128813137811
 30
0.0000000001127424
 11
4661.250249664528
 21
237.6128813137811
 31
0.0000000001127424
  0
LINE
  5
E301
330
18
100
AcDbEntity
  8
1CENTER
100
AcDbLine
 10
4675.750249664528
 20
292.6128813137811
 30
0.0000000001127424
 11
4675.750249664528
 21
300.6128813137811
 31
0.0000000001127424
  0
LINE
  5
E302
330
18
100
AcDbEntity
  8
01
100
AcDbLine
 10
4781.250249664528
 20
307.6128813137811
 30
0.0000000001127424
 11
4841.250249664528
 21
307.6128813137811
 31
0.0000000001127424
  0
LINE
  5
E303
330
18
100
AcDbEntity
  8
01
100
AcDbLine
 10
4811.250249664528
 20
337.6128813137811
 30
0.0000000001127424
 11
4811.250249664528
 21
277.6128813137811
 31
0.0000000001127424
  0
TEXT
  5
E304
330
18
100
AcDbEntity
  8
1TEXT
100
AcDbText
 10
4661.250249664528
 20
467.6115630006784
 30
0.0000000001127424
 40
10.0
  1
JPC
 41
1.0171875
100
AcDbText
  0
LINE
  5
E305
330
18
100
AcDbEntity
  8
1CENTER
100
AcDbLine
 10
4675.750245430146
 20
293.1065346056312
 30
0.0000000001127424
 11
4675.750253463397
 21
301.240206967479
 31
0.0000000001127424
  0
SPLINE
  5
E306
330
18
100
AcDbEntity
  8
01
  6
CONTINUOUS
100
AcDbSpline
210
0.0
220
0.0
230
1.0
 70
     8
 71
     3
 72
    32
 73
    28
 74
     0
 42
0.0000000001
 43
0.0000000001
 40
0.0
 40
0.0
 40
0.0
 40
0.0
 40
0.0034389425528271
 40
0.0205162109902984
 40
0.0385836388944011
 40
0.0577702763535562
 40
0.0781941089328304
 40
0.0999444256244528
 40
0.1236690579202612
 40
0.1537191947118099
 40
0.1850433864977987
 40
0.2179662660651617
 40
0.2526062134097583
 40
0.2890305453852629
 40
0.3272183490167958
 40
0.3668354916475153
 40
0.406540585807683
 40
0.4683366725206307
 40
0.5332170156075082
 40
0.6016395673829087
 40
0.6739343647041283
 40
0.7501767168161867
 40
0.8301419189820602
 40
0.8969574601050001
 40
0.9420376471395239
 40
0.9793396092717627
 40
1.0
 40
1.0
 40
1.0
 40
1.0
 10
4714.965743969249
 20
309.2536692797003
 30
0.0000000001127424
 10
4715.017646045821
 20
309.2937261218731
 30
0.0000000001127424
 10
4715.327285982356
 20
309.5326991820521
 30
0.0000000001127424
 10
4715.815593734363
 20
309.959667030701
 30
0.0000000001127424
 10
4716.442568559773
 20
310.5432916839791
 30
0.0000000001127424
 10
4717.00695921986
 20
311.1311408508545
 30
0.0000000001127424
 10
4717.521683704174
 20
311.7230263720448
 30
0.0000000001127424
 10
4717.985630209023
 20
312.3061161681917
 30
0.0000000001127424
 10
4718.455905199614
 20
312.9442557355687
 30
0.0000000001127424
 10
4718.904065047027
 20
313.6248263532689
 30
0.0000000001127424
 10
4719.308345359256
 20
314.3343834793841
 30
0.0000000001127424
 10
4719.640641556983
 20
315.0324123314158
 30
0.0000000001127424
 10
4719.900522937847
 20
315.7166434333176
 30
0.0000000001127424
 10
4720.088761779156
 20
316.3756479828407
 30
0.0000000001127424
 10
4720.212611906555
 20
316.995101936528
 30
0.0000000001127424
 10
4720.285406237523
 20
317.5224370806063
 30
0.0000000001127424
 10
4720.351936034248
 20
318.0963519740017
 30
0.0000000001127424
 10
4720.387075127502
 20
318.7361129977298
 30
0.0000000001127424
 10
4720.370727649309
 20
319.3896978202565
 30
0.0000000001127424
 10
4720.297564011717
 20
319.9955123031687
 30
0.0000000001127424
 10
4720.164841005752
 20
320.5475959768564
 30
0.0000000001127424
 10
4719.973152652869
 20
321.0402116573396
 30
0.0000000001127424
 10
4719.73283916557
 20
321.4388592803989
 30
0.0000000001127424
 10
4719.505782300958
 20
321.7135546696545
 30
0.0000000001127424
 10
4719.231886660916
 20
321.9348104295905
 30
0.0000000001127424
 10
4719.018182932626
 20
322.0704553015694
 30
0.0000000001127424
 10
4718.828387802447
 20
322.1261994092874
 30
0.0000000001127424
 10
4718.76073627772
 20
322.1460691176317
 30
0.0000000001127424
  0
LINE
  5
E307
330
18
100
AcDbEntity
  8
01
  6
CONTINUOUS
100
AcDbLine
 10
4705.041508376913
 20
303.1597013480032
 30
0.0000000001127424
 11
4711.696064037498
 21
307.0384951319729
 31
0.0000000001127424
  0
SPLINE
  5
E308
330
18
100
AcDbEntity
  8
01
  6
CONTINUOUS
100
AcDbSpline
210
0.0
220
0.0
230
1.0
 70
     8
 71
     3
 72
    37
 73
    33
 74
     0
 42
0.0000000001
 43
0.0000000001
 40
0.0
 40
0.0
 40
0.0
 40
0.0
 40
0.0135983432238075
 40
0.0718316705221778
 40
0.1347347669012348
 40
0.2013242084197011
 40
0.2703945370009918
 40
0.3388788585340123
 40
0.394642521166671
 40
0.4490827925704838
 40
0.5022248820572646
 40
0.5395629985997422
 40
0.5729318342113895
 40
0.602758511572815
 40
0.6297487301002386
 40
0.6502690058767571
 40
0.6745026787240699
 40
0.7025319614050195
 40
0.734575339606175
 40
0.7682163669328556
 40
0.7973432551429531
 40
0.8124660463509278
 40
0.8257485786137784
 40
0.8371240015104597
 40
0.8465264355327604
 40
0.8574731996538242
 40
0.8706089472308869
 40
0.8875756013761386
 40
0.9086169776728399
 40
0.9340617871520894
 40
0.9643400459698721
 40
1.0
 40
1.0
 40
1.0
 40
1.0
 10
4703.476707622095
 20
319.045404312109
 30
0.0000000001127424
 10
4703.477687363066
 20
319.0461189962907
 30
0.0000000001127424
 10
4703.482862731084
 20
319.0498942325694
 30
0.0000000001127424
 10
4703.390079422744
 20
319.021429246779
 30
0.0000000001127424
 10
4703.140563825648
 20
318.9544431686036
 30
0.0000000001127424
 10
4702.697434212259
 20
318.8509822488986
 30
0.0000000001127424
 10
4702.032313559688
 20
318.7217987284803
 30
0.0000000001127424
 10
4701.162096963551
 20
318.5851238586429
 30
0.0000000001127424
 10
4700.10530421853
 20
318.4533933972061
 30
0.0000000001127424
 10
4698.892208036815
 20
318.3344578225688
 30
0.0000000001127424
 10
4697.555605483652
 20
318.2364130081514
 30
0.0000000001127424
 10
4696.205015229198
 20
318.1644570629724
 30
0.0000000001127424
 10
4694.972963706823
 20
318.1165516740748
 30
0.0000000001127424
 10
4693.749896399483
 20
318.0836964437212
 30
0.0000000001127424
 10
4692.606068043076
 20
318.0646314150508
 30
0.0000000001127424
 10
4691.475489261843
 20
318.0549098937054
 30
0.0000000001127424
 10
4690.26453087004
 20
318.0531113316683
 30
0.0000000001127424
 10
4688.779491142173
 20
318.0624791143264
 30
0.0000000001127424
 10
4687.033112466153
 20
318.0879459539556
 30
0.0000000001127424
 10
4685.176365836408
 20
318.1302888303662
 30
0.0000000001127424
 10
4683.595601790127
 20
318.1774910435834
 30
0.0000000001127424
 10
4682.405710215337
 20
318.2183878975411
 30
0.0000000001127424
 10
4681.574337501471
 20
318.249231987088
 30
0.0000000001127424
 10
4680.857080922629
 20
318.2774655044695
 30
0.0000000001127424
 10
4680.18528676164
 20
318.3051409036834
 30
0.0000000001127424
 10
4679.473484144907
 20
318.335699273498
 30
0.0000000001127424
 10
4678.596436666845
 20
318.375082921536
 30
0.0000000001127424
 10
4677.497415831525
 20
318.4270331387024
 30
0.0000000001127424
 10
4676.125985751106
 20
318.4957054405859
 30
0.0000000001127424
 10
4674.45860062069
 20
318.5846643650766
 30
0.0000000001127424
 10
4672.466734434609
 20
318.6975314488018
 30
0.0000000001127424
 10
4671.028213947136
 20
318.7859796821231
 30
0.0000000001127424
 10
4670.250249664528
 20
318.8338132493072
 30
0.0000000001127424
  0
SPLINE
  5
E309
330
18
100
AcDbEntity
  8
01
100
AcDbSpline
210
0.0
220
0.0
230
1.0
 70
     8
 71
     3
 72
    24
 73
    20
 74
     0
 42
0.0000000001
 43
0.0000000001
 40
0.526526920469141
 40
0.526526920469141
 40
0.526526920469141
 40
0.526526920469141
 40
0.556423720398644
 40
0.5885453193469081
 40
0.6145818037212886
 40
0.6369535978596431
 40
0.6580082232264486
 40
0.6798059002279367
 40
0.7156425402905536
 40
0.7508417636429277
 40
0.7768228019574791
 40
0.8020845680997973
 40
0.8266319694809069
 40
0.8504701584914449
 40
0.8736044968856888
 40
0.8971633532401524
 40
0.9308725159476424
 40
0.9768477042474115
 40
1.0
 40
1.0
 40
1.0
 40
1.0
 10
4710.542540124096
 20
321.5996017472226
 30
0.0000000001127424
 10
4710.302501004637
 20
321.5657622906874
 30
0.0000000001127424
 10
4709.782686748932
 20
321.4866101839898
 30
0.0000000001127424
 10
4708.966096693918
 20
321.3394554855313
 30
0.0000000001127424
 10
4708.15691444747
 20
321.1604125242775
 30
0.0000000001127424
 10
4707.456404510488
 20
320.9783941461146
 30
0.0000000001127424
 10
4706.876769674164
 20
320.808408877383
 30
0.0000000001127424
 10
4706.346581327387
 20
320.6387389110832
 30
0.0000000001127424
 10
4705.972537212343
 20
320.5120972108425
 30
0.0000000001127424
 10
4705.528227482013
 20
320.3481025934343
 30
0.0000000001127424
 10
4705.142622367376
 20
320.1941614093494
 30
0.0000000001127424
 10
4704.800750870875
 20
320.0495923343678
 30
0.0000000001127424
 10
4704.467852303739
 20
319.9008499135034
 30
0.0000000001127424
 10
4704.142798214142
 20
319.7479990969141
 30
0.0000000001127424
 10
4703.821704379209
 20
319.5897308792128
 30
0.0000000001127424
 10
4703.450332556888
 20
319.3977063520661
 30
0.0000000001127424
 10
4703.061626247029
 20
319.1873887040765
 30
0.0000000001127424
 10
4702.696196726703
 20
318.9821227824168
 30
0.0000000001127424
 10
4702.467184617471
 20
318.8423658120419
 30
0.0000000001127424
 10
4702.390483488295
 20
318.7955581673559
 30
0.0000000001127424
  0
SPLINE
  5
E30A
330
18
100
AcDbEntity
  8
01
  6
CONTINUOUS
100
AcDbSpline
210
0.0
220
0.0
230
1.0
 70
     8
 71
     3
 72
    10
 73
     6
 74
     0
 42
0.0000000001
 43
0.0000000001
 40
0.0
 40
0.0
 40
0.0
 40
0.0
 40
0.3755758789641178
 40
0.7548884098345175
 40
1.0
 40
1.0
 40
1.0
 40
1.0
 10
4718.433129286092
 20
322.2022551801174
 30
0.0000000001127424
 10
4717.439453870637
 20
322.2326873747124
 30
0.0000000001127424
 10
4715.442216837381
 20
322.2938545376546
 30
0.0000000001127424
 10
4712.791478136512
 20
322.0922789703127
 30
0.0000000001127424
 10
4711.176488523574
 20
321.7361666522156
 30
0.0000000001127424
 10
4710.542540124094
 20
321.5963782397794
 30
0.0000000001127424
  0
SPLINE
  5
E30B
330
18
100
AcDbEntity
  8
01
100
AcDbSpline
210
0.0
220
0.0
230
1.0
 70
     8
 71
     3
 72
    23
 73
    19
 74
     0
 42
0.0000000001
 43
0.0000000001
 40
0.0
 40
0.0
 40
0.0
 40
0.0
 40
0.069718659118877
 40
0.1493645347992145
 40
0.2210601540046424
 40
0.2873002233335767
 40
0.3583611309027636
 40
0.4271956470221741
 40
0.4941182677618902
 40
0.5586420565759636
 40
0.6209204841791047
 40
0.6811771690099505
 40
0.7396823307514967
 40
0.7960033751169716
 40
0.8506674890823346
 40
0.9063397683452181
 40
0.9629661902724469
 40
1.0
 40
1.0
 40
1.0
 40
1.0
 10
4670.250416529733
 20
296.2535355389728
 30
0.0000000001127424
 10
4671.001337583939
 20
296.2611238792433
 30
0.0000000001127424
 10
4672.610103090187
 20
296.2773810610197
 30
0.0000000001127424
 10
4674.991465781179
 20
296.3371871286645
 30
0.0000000001127424
 10
4677.332072994091
 20
296.4314757477905
 30
0.0000000001127424
 10
4679.572777448992
 20
296.5638816696146
 30
0.0000000001127424
 10
4681.768813072815
 20
296.7415769973304
 30
0.0000000001127424
 10
4683.951569163409
 20
296.96605069411
 30
0.0000000001127424
 10
4686.038444724101
 20
297.228323449177
 30
0.0000000001127424
 10
4688.023563708116
 20
297.5250802525943
 30
0.0000000001127424
 10
4689.90056181266
 20
297.8528749657407
 30
0.0000000001127424
 10
4691.670524628074
 20
298.2095192279103
 30
0.0000000001127424
 10
4693.330351935885
 20
298.5922532346131
 30
0.0000000001127424
 10
4694.875593897027
 20
298.9975563398157
 30
0.0000000001127424
 10
4696.331776577007
 20
299.4237875591816
 30
0.0000000001127424
 10
4697.721139688667
 20
299.8750609715416
 30
0.0000000001127424
 10
4698.911008197465
 20
300.294583042557
 30
0.0000000001127424
 10
4699.603451305377
 20
300.5688367275998
 30
0.0000000001127424
 10
4699.877247407016
 20
300.6772782572598
 30
0.0000000001127424
  0
LINE
  5
E30C
330
18
100
AcDbEntity
  8
01
  6
CONTINUOUS
100
AcDbLine
 10
4718.760808862614
 20
322.1448682445234
 30
0.0000000001127424
 11
4718.433130122296
 21
322.2022553695015
 31
0.0000000001127424
  0
SPLINE
  5
E30D
330
18
100
AcDbEntity
  8
01
100
AcDbSpline
210
0.0
220
0.0
230
1.0
 70
     8
 71
     3
 72
    22
 73
    18
 74
     0
 42
0.0000000001
 43
0.0000000001
 40
0.0
 40
0.0
 40
0.0
 40
0.0
 40
0.0217896593545043
 40
0.1149472365396751
 40
0.2102872389541221
 40
0.306841991942229
 40
0.3592669720911547
 40
0.4122265626082194
 40
0.4651820790407289
 40
0.519251698827353
 40
0.5716762080609187
 40
0.6246097201536857
 40
0.6775520621359278
 40
0.73134979645212
 40
0.8252894321334511
 40
0.9199949728252845
 40
1.0
 40
1.0
 40
1.0
 40
1.0
 10
4714.864540604644
 20
309.1966604509653
 30
0.0000000001127424
 10
4714.790205268487
 20
309.1345559227275
 30
0.0000000001127424
 10
4714.39806322856
 20
308.8069352022139
 30
0.0000000001127424
 10
4713.47965138702
 20
308.1482733613129
 30
0.0000000001127424
 10
4712.032074488929
 20
307.2135041260653
 30
0.0000000001127424
 10
4710.503192701062
 20
306.3625594812256
 30
0.0000000001127424
 10
4709.050596621273
 20
305.6443286017429
 30
0.0000000001127424
 10
4707.802389568479
 20
305.0774629211528
 30
0.0000000001127424
 10
4706.435885412483
 20
304.5078268728148
 30
0.0000000001127424
 10
4704.974103297536
 20
303.9502828821869
 30
0.0000000001127424
 10
4703.426432149635
 20
303.4098098738295
 30
0.0000000001127424
 10
4701.818467803522
 20
302.8954127694315
 30
0.0000000001127424
 10
4700.139617103541
 20
302.4029484837647
 30
0.0000000001127424
 10
4697.973946785069
 20
301.8206180924917
 30
0.0000000001127424
 10
4695.287950615492
 20
301.1826343251641
 30
0.0000000001127424
 10
4692.261630167505
 20
300.5565584146734
 30
0.0000000001127424
 10
4690.272988161353
 20
300.2172613580169
 30
0.0000000001127424
 10
4689.362331412389
 20
300.0618874125848
 30
0.0000000001127424
  0
SPLINE
  5
E30E
330
18
100
AcDbEntity
  8
01
  6
CONTINUOUS
100
AcDbSpline
210
0.0
220
0.0
230
1.0
 70
     9
 71
     3
 72
    66
 73
    62
 74
     0
 42
0.0000000001
 43
0.0000000001
 40
0.0
 40
0.0
 40
0.0
 40
0.0
 40
0.03125
 40
0.03125
 40
0.0625
 40
0.0625
 40
0.0937499999999999
 40
0.0937499999999999
 40
0.1249999999999999
 40
0.1249999999999999
 40
0.1562499999999999
 40
0.1562499999999999
 40
0.1874999999999999
 40
0.1874999999999999
 40
0.2187499999999999
 40
0.2187499999999999
 40
0.2499999999999998
 40
0.2499999999999998
 40
0.2812499999999998
 40
0.2812499999999998
 40
0.3124999999999998
 40
0.3124999999999998
 40
0.3437499999999998
 40
0.3437499999999998
 40
0.3749999999999998
 40
0.3749999999999998
 40
0.4062499999999997
 40
0.4062499999999997
 40
0.4374999999999997
 40
0.4374999999999997
 40
0.4687499999999997
 40
0.4687499999999997
 40
0.4999999999999997
 40
0.4999999999999997
 40
0.5312499999999997
 40
0.5312499999999997
 40
0.5624999999999997
 40
0.5624999999999997
 40
0.5937499999999996
 40
0.5937499999999996
 40
0.6249999999999996
 40
0.6249999999999996
 40
0.6562499999999996
 40
0.6562499999999996
 40
0.6874999999999996
 40
0.6874999999999996
 40
0.7187499999999996
 40
0.7187499999999996
 40
0.7499999999999996
 40
0.7499999999999996
 40
0.8124999999999994
 40
0.8124999999999994
 40
0.8437499999999996
 40
0.8437499999999996
 40
0.8749999999999997
 40
0.8749999999999997
 40
0.9062499999999998
 40
0.9062499999999998
 40
0.9374999999999998
 40
0.9374999999999998
 40
1.0
 40
1.0
 40
1.0
 40
1.0
 10
4672.650249664529
 20
297.0772983262896
 30
0.0000000001127424
 10
4672.650249664529
 20
297.0997646302721
 30
0.0000000001127424
 10
4672.67027002432
 20
297.1225553148515
 30
0.0000000001127424
 10
4672.748637234694
 20
297.168950569353
 30
0.0000000001127424
 10
4672.807901078878
 20
297.1928107084868
 30
0.0000000001127424
 10
4672.962778393789
 20
297.2402906559028
 30
0.0000000001127424
 10
4673.057543684447
 20
297.2637954183438
 30
0.0000000001127424
 10
4673.281333844514
 20
297.3105909326059
 30
0.0000000001127424
 10
4673.411695946498
 20
297.3340404276505
 30
0.0000000001127424
 10
4673.696689851076
 20
297.3790046194445
 30
0.0000000001127424
 10
4673.852178137523
 20
297.4007480539449
 30
0.0000000001127424
 10
4674.189679912536
 20
297.4429103096654
 30
0.0000000001127424
 10
4674.370175183684
 20
297.4630907801984
 30
0.0000000001127424
 10
4674.742751840766
 20
297.5005298994647
 30
0.0000000001127424
 10
4674.937239313645
 20
297.5180574571586
 30
0.0000000001127424
 10
4675.338338855253
 20
297.5502260048879
 30
0.0000000001127424
 10
4675.539871978411
 20
297.5644753616607
 30
0.0000000001127424
 10
4675.9448477944
 20
297.5893752065786
 30
0.0000000001127424
 10
4676.150582724369
 20
297.6001090210784
 30
0.0000000001127424
 10
4676.550061760327
 20
297.6170006049615
 30
0.0000000001127424
 10
4676.744054025364
 20
297.6232282467199
 30
0.0000000001127424
 10
4677.12054283789
 20
297.6310606464031
 30
0.0000000001127424
 10
4677.303226322428
 20
297.6325985943167
 30
0.0000000001127424
 10
4677.640740705254
 20
297.6305947782457
 30
0.0000000001127424
 10
4677.797810073151
 20
297.6271203559163
 30
0.0000000001127424
 10
4678.087810758762
 20
297.6148069807823
 30
0.0000000001127424
 10
4678.217027914506
 20
297.6060953167025
 30
0.0000000001127424
 10
4678.441714318875
 20
297.5837432541457
 30
0.0000000001127424
 10
4678.538551540704
 20
297.5699038203866
 30
0.0000000001127424
 10
4678.693817116372
 20
297.537590353455
 30
0.0000000001127424
 10
4678.75207354476
 20
297.5192966075092
 30
0.0000000001127424
 10
4678.830588922677
 20
297.4784054823231
 30
0.0000000001127424
 10
4678.850493516828
 20
297.4555946833689
 30
0.0000000001127424
 10
4678.850001197801
 20
297.4074610526022
 30
0.0000000001127424
 10
4678.830247353227
 20
297.3819699017868
 30
0.0000000001127424
 10
4678.75115230384
 20
297.3282058630748
 30
0.0000000001127424
 10
4678.691896187502
 20
297.3002291342173
 30
0.0000000001127424
 10
4678.538499590173
 20
297.2439794369457
 30
0.0000000001127424
 10
4678.443506356662
 20
297.215331468743
 30
0.0000000001127424
 10
4678.218465178184
 20
297.1581033876673
 30
0.0000000001127424
 10
4678.091141819426
 20
297.1301764675636
 30
0.0000000001127424
 10
4677.80774662724
 20
297.0759800355418
 30
0.0000000001127424
 10
4677.649683526416
 20
297.0494384808462
 30
0.0000000001127424
 10
4677.314122885542
 20
297.0001319271441
 30
0.0000000001127424
 10
4677.136921438416
 20
296.9773178581254
 30
0.0000000001127424
 10
4676.763610710295
 20
296.9355979694164
 30
0.0000000001127424
 10
4676.56642545564
 20
296.9166718835113
 30
0.0000000001127424
 10
4676.169878109047
 20
296.8845818741138
 30
0.0000000001127424
 10
4675.968521696714
 20
296.8711624060461
 30
0.0000000001127424
 10
4675.354905187415
 20
296.838945070891
 30
0.0000000001127424
 10
4674.949968602685
 20
296.8292117754481
 30
0.0000000001127424
 10
4674.382118149528
 20
296.831491947517
 30
0.0000000001127424
 10
4674.203040047637
 20
296.8350134113061
 30
0.0000000001127424
 10
4673.86481801127
 20
296.8471039458418
 30
0.0000000001127424
 10
4673.704459255927
 20
296.8558112252813
 30
0.0000000001127424
 10
4673.416944888072
 20
296.8773748281583
 30
0.0000000001127424
 10
4673.288282953289
 20
296.8902342299925
 30
0.0000000001127424
 10
4673.061448228168
 20
296.9199081389006
 30
0.0000000001127424
 10
4672.964563128954
 20
296.936645887341
 30
0.0000000001127424
 10
4672.732224035969
 20
296.9905097745395
 30
0.0000000001127424
 10
4672.650249664529
 20
297.0323657183262
 30
0.0000000001127424
 10
4672.650249664529
 20
297.0772983262896
 30
0.0000000001127424
  0
LINE
  5
E30F
330
18
100
AcDbEntity
  8
01
  6
CONTINUOUS
100
AcDbLine
 10
4670.250249664528
 20
298.0159646399488
 30
0.0000000001127424
 11
4670.250249664528
 21
296.256694796537
 31
0.0000000001127424
  0
SPLINE
  5
E310
330
18
100
AcDbEntity
  8
01
  6
CONTINUOUS
100
AcDbSpline
210
0.0
220
0.0
230
1.0
 70
     8
 71
     3
 72
    10
 73
     6
 74
     0
 42
0.0000000001
 43
0.0000000001
 40
0.0
 40
0.0
 40
0.0
 40
0.0
 40
0.2985068186552142
 40
0.7042473991515846
 40
0.9999999999999999
 40
0.9999999999999999
 40
0.9999999999999999
 40
0.9999999999999999
 10
4699.956495401967
 20
300.7170977032483
 30
0.0000000001127424
 10
4700.54942690296
 20
300.9565477531332
 30
0.0000000001127424
 10
4701.948290986973
 20
301.5214664227242
 30
0.0000000001127424
 10
4703.632746157572
 20
302.3564312182625
 30
0.0000000001127424
 10
4704.619300417186
 20
302.9291913588995
 30
0.0000000001127424
 10
4705.035236018442
 20
303.1706695453749
 30
0.0000000001127424
  0
LINE
  5
E311
330
18
100
AcDbEntity
  8
01
  6
CONTINUOUS
100
AcDbLine
 10
4670.250249664528
 20
318.8350423522634
 30
0.0000000001127424
 11
4670.250249664528
 21
298.0159646399488
 31
0.0000000001127424
  0
LINE
  5
E312
330
18
100
AcDbEntity
  8
01
  6
CONTINUOUS
100
AcDbLine
 10
4718.771375758091
 20
322.1417354143186
 30
0.0000000001127424
 11
4718.433129286092
 21
322.2022551801174
 31
0.0000000001127424
  0
LINE
  5
E313
330
18
100
AcDbEntity
  8
01
  6
CONTINUOUS
100
AcDbLine
 10
4718.433130122296
 20
322.2022553695015
 30
0.0000000001127424
 11
4718.433129286092
 21
322.2022551801174
 31
0.0000000001127424
  0
SPLINE
  5
E315
330
18
100
AcDbEntity
  8
01
  6
CONTINUOUS
100
AcDbSpline
210
0.0
220
0.0
230
1.0
 70
     8
 71
     3
 72
    47
 73
    43
 74
     0
 42
0.0000000001
 43
0.0000000001
 40
0.0
 40
0.0
 40
0.0
 40
0.0
 40
0.0066743024569154
 40
0.0186567662668553
 40
0.0298690616510375
 40
0.0401218544140354
 40
0.0510008926092058
 40
0.0615767051734688
 40
0.0718390244194155
 40
0.0818037462922168
 40
0.0914994222389653
 40
0.100914049928921
 40
0.1103822590335661
 40
0.1201697739619512
 40
0.1302873832461855
 40
0.1407349598694599
 40
0.1514910398930888
 40
0.1624823805776237
 40
0.1747923582748742
 40
0.1875797963008044
 40
0.2010087085436196
 40
0.2152141094012519
 40
0.2303700490368972
 40
0.2467153420983592
 40
0.264611602799446
 40
0.2847908716927576
 40
0.3080727769457817
 40
0.3324510406327507
 40
0.3581231449891109
 40
0.3854120861778392
 40
0.414780605711564
 40
0.4469456659294817
 40
0.4831289872818031
 40
0.5256989172747059
 40
0.5752576668723557
 40
0.6259340793186023
 40
0.6791940148650116
 40
0.7354702299946915
 40
0.7953293962679295
 40
0.8593939998085178
 40
0.9281274891565265
 40
0.9999999999999999
 40
0.9999999999999999
 40
0.9999999999999999
 40
0.9999999999999999
 10
4799.167151799974
 20
434.9076214274728
 30
0.0000000001127424
 10
4799.205846171117
 20
434.5560246085124
 30
0.0000000001127424
 10
4799.314009060487
 20
433.5732013526217
 30
0.0000000001127424
 10
4799.584622544335
 20
432.0192905278982
 30
0.0000000001127424
 10
4799.95619461777
 20
430.2986824857026
 30
0.0000000001127424
 10
4800.413196906089
 20
428.6631759295633
 30
0.0000000001127424
 10
4800.962506356806
 20
427.097534028665
 30
0.0000000001127424
 10
4801.618324876224
 20
425.5780330123284
 30
0.0000000001127424
 10
4802.359514777336
 20
424.1561979742396
 30
0.0000000001127424
 10
4803.180369493115
 20
422.8358096563747
 30
0.0000000001127424
 10
4804.074990883059
 20
421.6205012960263
 30
0.0000000001127424
 10
4805.04517839701
 20
420.5005844254688
 30
0.0000000001127424
 10
4806.097141802277
 20
419.4517249509377
 30
0.0000000001127424
 10
4807.247250010384
 20
418.4547148475067
 30
0.0000000001127424
 10
4808.503147949926
 20
417.5060161250185
 30
0.0000000001127424
 10
4809.861276081289
 20
416.6115307192285
 30
0.0000000001127424
 10
4811.316164641534
 20
415.7810852692473
 30
0.0000000001127424
 10
4812.904765424174
 20
414.9904741458822
 30
0.0000000001127424
 10
4814.633350384064
 20
414.237412096923
 30
0.0000000001127424
 10
4816.522254942621
 20
413.5271123020184
 30
0.0000000001127424
 10
4818.54238155215
 20
412.8745906172126
 30
0.0000000001127424
 10
4820.714601408133
 20
412.2763126911063
 30
0.0000000001127424
 10
4823.064268370198
 20
411.7282972662397
 30
0.0000000001127424
 10
4825.629125942194
 20
411.2243122206082
 30
0.0000000001127424
 10
4828.476832934773
 20
410.7533095362178
 30
0.0000000001127424
 10
4831.706174647385
 20
410.2954467099748
 30
0.0000000001127424
 10
4835.295554392914
 20
409.8714484492862
 30
0.0000000001127424
 10
4839.193409681773
 20
409.501884268001
 30
0.0000000001127424
 10
4843.319472250596
 20
409.1984779466029
 30
0.0000000001127424
 10
4847.724617991129
 20
408.9587493928984
 30
0.0000000001127424
 10
4852.487933258973
 20
408.7788055639598
 30
0.0000000001127424
 10
4857.737241479411
 20
408.6522734152909
 30
0.0000000001127424
 10
4863.703443546498
 20
408.5687629246954
 30
0.0000000001127424
 10
4870.61196231012
 20
408.5020249742993
 30
0.0000000001127424
 10
4878.308104395477
 20
408.4759988036849
 30
0.0000000001127424
 10
4886.586749408126
 20
408.4922162158073
 30
0.0000000001127424
 10
4895.232847673538
 20
408.5467885916228
 30
0.0000000001127424
 10
4904.378597597017
 20
408.6334613794988
 30
0.0000000001127424
 10
4914.110863735606
 20
408.7432668824854
 30
0.0000000001127424
 10
4924.518274734271
 20
408.8620042936418
 30
0.0000000001127424
 10
4935.57631362561
 20
408.9683908548222
 30
0.0000000001127424
 10
4943.173595662684
 20
409.0064658588472
 30
0.0000000001127424
 10
4947.057041140452
 20
409.0259283720816
 30
0.0000000001127424
  0
SPLINE
  5
E316
330
18
100
AcDbEntity
  8
01
  6
CONTINUOUS
100
AcDbSpline
210
0.0
220
0.0
230
1.0
 70
     8
 71
     3
 72
    23
 73
    19
 74
     0
 42
0.0000000001
 43
0.0000000001
 40
0.0
 40
0.0
 40
0.0
 40
0.0
 40
0.1115720548540402
 40
0.210630833893177
 40
0.2980630310978884
 40
0.3746516276798343
 40
0.4410812772922807
 40
0.5107248519950992
 40
0.5663764291567869
 40
0.608991565849591
 40
0.6471484825799529
 40
0.7243781249045868
 40
0.801058934046868
 40
0.825445636092899
 40
0.8545139148927012
 40
0.8970679636586126
 40
0.9528603644126172
 40
0.9999999999999999
 40
0.9999999999999999
 40
0.9999999999999999
 40
0.9999999999999999
 10
4799.064692528547
 20
458.6115630006789
 30
0.0000000001127424
 10
4799.002536639524
 20
457.728989047655
 30
0.0000000001127424
 10
4798.885195906189
 20
456.0628255272204
 30
0.0000000001127424
 10
4798.757892389009
 20
453.7006798486586
 30
0.0000000001127424
 10
4798.670585603162
 20
451.6136632321131
 30
0.0000000001127424
 10
4798.617258528142
 20
449.7839071268327
 30
0.0000000001127424
 10
4798.587962717675
 20
448.094429966085
 30
0.0000000001127424
 10
4798.580224854959
 20
446.5706786308783
 30
0.0000000001127424
 10
4798.589591213708
 20
445.2360108321741
 30
0.0000000001127424
 10
4798.608801021926
 20
444.1516222825258
 30
0.0000000001127424
 10
4798.639986795317
 20
442.89625462297
 30
0.0000000001127424
 10
4798.687393368376
 20
441.4049225340727
 30
0.0000000001127424
 10
4798.757078879916
 20
440.0388288060503
 30
0.0000000001127424
 10
4798.821717492188
 20
439.0061092317947
 30
0.0000000001127424
 10
4798.874184351826
 20
438.245775071432
 30
0.0000000001127424
 10
4798.95226315827
 20
437.2429968859096
 30
0.0000000001127424
 10
4799.052202598283
 20
436.1007561153247
 30
0.0000000001127424
 10
4799.139694660884
 20
435.2944855989062
 30
0.0000000001127424
 10
4799.179763274063
 20
434.9252390583752
 30
0.0000000001127424
  0
SPLINE
  5
E317
330
18
100
AcDbEntity
  8
01
  6
CONTINUOUS
100
AcDbSpline
210
0.0
220
0.0
230
1.0
 70
     8
 71
     3
 72
    18
 73
    14
 74
     0
 42
0.0000000001
 43
0.0000000001
 40
0.0
 40
0.0
 40
0.0
 40
0.0
 40
0.0321642789817128
 40
0.1285395570417467
 40
0.2176205661970834
 40
0.3005245877216586
 40
0.3844351678528823
 40
0.4682341258732295
 40
0.565125820213042
 40
0.6671716695184081
 40
0.7955862844886047
 40
0.9437932198461165
 40
1.0
 40
1.0
 40
1.0
 40
1.0
 10
4947.057729425217
 20
409.033422220125
 30
0.0000000001127424
 10
4947.105043144779
 20
409.0304538504324
 30
0.0000000001127424
 10
4947.294125093671
 20
409.0185912209085
 30
0.0000000001127424
 10
4947.610914232764
 20
409.0994847379789
 30
0.0000000001127424
 10
4947.972609852851
 20
409.2590638008933
 30
0.0000000001127424
 10
4948.279114535408
 20
409.4816116480429
 30
0.0000000001127424
 10
4948.535153188528
 20
409.7475953128715
 30
0.0000000001127424
 10
4948.756066016849
 20
410.0664213332493
 30
0.0000000001127424
 10
4948.938504767204
 20
410.4365567844966
 30
0.0000000001127424
 10
4949.089926725927
 20
410.8833396630644
 30
0.0000000001127424
 10
4949.202687568783
 20
411.4141972351299
 30
0.0000000001127424
 10
4949.245675359006
 20
411.8849422256726
 30
0.0000000001127424
 10
4949.249263145858
 20
412.1733574281852
 30
0.0000000001127424
 10
4949.250249664528
 20
412.2526617441417
 30
0.0000000001127424
  0
SPLINE
  5
E318
330
18
100
AcDbEntity
  8
01
  6
CONTINUOUS
100
AcDbSpline
210
0.0
220
0.0
230
1.0
 70
     8
 71
     3
 72
    66
 73
    62
 74
     0
 42
0.0000000001
 43
0.0000000001
 40
0.0
 40
0.0
 40
0.0
 40
0.0
 40
0.0340847401515055
 40
0.0735114918780856
 40
0.1104166892433278
 40
0.1447170293867048
 40
0.1763547157727143
 40
0.2053063120641567
 40
0.2315641363375649
 40
0.2532708496923378
 40
0.2727344103709029
 40
0.2900861965312135
 40
0.307202165728259
 40
0.3247436466158497
 40
0.3426877781912984
 40
0.3756597214322097
 40
0.4097123444740638
 40
0.444726369993907
 40
0.4788138635418445
 40
0.5095184771201777
 40
0.5369321886016082
 40
0.5502838478610699
 40
0.564033778530957
 40
0.5797611858242916
 40
0.5973710721463648
 40
0.6124518201772757
 40
0.6282946464200895
 40
0.6417369775807791
 40
0.6519521070602045
 40
0.6578794805264092
 40
0.662523221563438
 40
0.6691588384641219
 40
0.6781662058243323
 40
0.6894538938676495
 40
0.7026453783668932
 40
0.7174265527324251
 40
0.7313882931134011
 40
0.7441583957510147
 40
0.7589874840042792
 40
0.7720573341143425
 40
0.7834748534285348
 40
0.794384288619167
 40
0.8069752946791017
 40
0.8211848484550731
 40
0.8368746537845102
 40
0.8537931305869834
 40
0.8641264557816098
 40
0.8730446493494288
 40
0.8806161093215482
 40
0.8868899270206854
 40
0.8918990137706413
 40
0.8973486060056572
 40
0.9035859502756477
 40
0.9116896286997122
 40
0.9216763342232501
 40
0.9336073191915584
 40
0.9446411099325174
 40
0.9571184836338149
 40
0.971206028634043
 40
0.9871396594961844
 40
1.0
 40
1.0
 40
1.0
 40
1.0
 10
4947.145266449923
 20
426.8808706445498
 30
0.0000000001127424
 10
4945.569147275824
 20
426.951111363614
 30
0.0000000001127424
 10
4942.169887919564
 20
427.1026014446911
 30
0.0000000001127424
 10
4937.064034972017
 20
427.3227806786458
 30
0.0000000001127424
 10
4931.948089497514
 20
427.5319754861875
 30
0.0000000001127424
 10
4927.192183140827
 20
427.7128102870415
 30
0.0000000001127424
 10
4922.804007298283
 20
427.8681679271976
 30
0.0000000001127424
 10
4918.787694539997
 20
428.0001108888514
 30
0.0000000001127424
 10
4915.230632253866
 20
428.1096984483861
 30
0.0000000001127424
 10
4912.112378991856
 20
428.2016946951362
 30
0.0000000001127424
 10
4909.406029059996
 20
428.279282769623
 30
0.0000000001127424
 10
4906.912010037116
 20
428.3494476244859
 30
0.0000000001127424
 10
4904.50696456333
 20
428.4164252157416
 30
0.0000000001127424
 10
4902.074637896474
 20
428.4845986569981
 30
0.0000000001127424
 10
4898.909282742555
 20
428.5752865367181
 30
0.0000000001127424
 10
4894.980799838431
 20
428.6939766980504
 30
0.0000000001127424
 10
4890.263742815628
 20
428.8540761348272
 30
0.0000000001127424
 10
4885.496047822743
 20
429.0431888493267
 30
0.0000000001127424
 10
4880.884446537552
 20
429.2621395450451
 30
0.0000000001127424
 10
4876.626121744273
 20
429.507315742163
 30
0.0000000001127424
 10
4873.327733115761
 20
429.7351591342904
 30
0.0000000001127424
 10
4870.813668457724
 20
429.9335958934944
 30
0.0000000001127424
 10
4868.839705282898
 20
430.1036112061615
 30
0.0000000001127424
 10
4866.671117824609
 20
430.3090312089817
 30
0.0000000001127424
 10
4864.443531453365
 20
430.5441131281773
 30
0.0000000001127424
 10
4862.213468049694
 20
430.8059455254952
 30
0.0000000001127424
 10
4860.177915703936
 20
431.0705094976283
 30
0.0000000001127424
 10
4858.36877149277
 20
431.3297615851316
 30
0.0000000001127424
 10
4857.01608308199
 20
431.5396536060766
 30
0.0000000001127424
 10
4856.066976510544
 20
431.695203012574
 30
0.0000000001127424
 10
4855.282094836885
 20
431.8285239152328
 30
0.0000000001127424
 10
4854.35774855426
 20
431.9916299432289
 30
0.0000000001127424
 10
4853.132706060323
 20
432.2195672498074
 30
0.0000000001127424
 10
4851.613147606538
 20
432.5225854587597
 30
0.0000000001127424
 10
4849.837707537262
 20
432.907822921446
 30
0.0000000001127424
 10
4847.950336729886
 20
433.3594527985369
 30
0.0000000001127424
 10
4846.093279388845
 20
433.8519642870006
 30
0.0000000001127424
 10
4844.247090091846
 20
434.3919357548702
 30
0.0000000001127424
 10
4842.456288788367
 20
434.9722839751348
 30
0.0000000001127424
 10
4840.74440586945
 20
435.5900170274099
 30
0.0000000001127424
 10
4839.22184465264
 20
436.1954611876763
 30
0.0000000001127424
 10
4837.739882758836
 20
436.8408585416573
 30
0.0000000001127424
 10
4836.166228021526
 20
437.5969446690378
 30
0.0000000001127424
 10
4834.434865459332
 20
438.5317519673108
 30
0.0000000001127424
 10
4832.591026562505
 20
439.6731928494037
 30
0.0000000001127424
 10
4830.980186542205
 20
440.8417495063386
 30
0.0000000001127424
 10
4829.695974962952
 20
441.9170289320978
 30
0.0000000001127424
 10
4828.786911980293
 20
442.7632664936527
 30
0.0000000001127424
 10
4828.050477008362
 20
443.5170568015865
 30
0.0000000001127424
 10
4827.466959418039
 20
444.1659708815887
 30
0.0000000001127424
 10
4826.969460097982
 20
444.759331224745
 30
0.0000000001127424
 10
4826.492729069498
 20
445.3671976287324
 30
0.0000000001127424
 10
4825.954793803835
 20
446.108077238463
 30
0.0000000001127424
 10
4825.336255728896
 20
447.0484005165508
 30
0.0000000001127424
 10
4824.642708579937
 20
448.2518425226244
 30
0.0000000001127424
 10
4823.978082619274
 20
449.6241517962389
 30
0.0000000001127424
 10
4823.375056706609
 20
451.1484380464881
 30
0.0000000001127424
 10
4822.85543771969
 20
452.8083723907271
 30
0.0000000001127424
 10
4822.423474635732
 20
454.7255531172182
 30
0.0000000001127424
 10
4822.132967090593
 20
456.6892991078203
 30
0.0000000001127424
 10
4822.074014835904
 20
458.0191045085189
 30
0.0000000001127424
 10
4822.047684808025
 20
458.6130396083163
 30
0.0000000001127424
  0
SPLINE
  5
E319
330
18
100
AcDbEntity
  8
01
  6
CONTINUOUS
100
AcDbSpline
210
0.0
220
0.0
230
1.0
 70
     8
 71
     3
 72
    17
 73
    13
 74
     0
 42
0.0000000001
 43
0.0000000001
 40
0.0
 40
0.0
 40
0.0
 40
0.0
 40
0.1764992969955554
 40
0.3089216350005884
 40
0.4019087122249152
 40
0.4964441536925103
 40
0.6217650631227178
 40
0.7849719298134352
 40
0.8846812851169797
 40
0.9473125423704238
 40
0.973264835980751
 40
1.0
 40
1.0
 40
1.0
 40
1.0
 10
4949.250249664528
 20
423.9820227951327
 30
0.0000000001127424
 10
4949.243218250665
 20
424.217593607571
 30
0.0000000001127424
 10
4949.230911369541
 20
424.6299064143382
 30
0.0000000001127424
 10
4949.121918593805
 20
425.1563113566108
 30
0.0000000001127424
 10
4948.988907013275
 20
425.5625383586139
 30
0.0000000001127424
 10
4948.806233289701
 20
425.9398298457954
 30
0.0000000001127424
 10
4948.497961015301
 20
426.3546933472871
 30
0.0000000001127424
 10
4948.066423951093
 20
426.665782434342
 30
0.0000000001127424
 10
4947.653565246688
 20
426.8139522877136
 30
0.0000000001127424
 10
4947.405186681937
 20
426.8611953096656
 30
0.0000000001127424
 10
4947.2514518255
 20
426.8751511927067
 30
0.0000000001127424
 10
4947.181057742479
 20
426.8791056191781
 30
0.0000000001127424
 10
4947.145337716494
 20
426.8811122113557
 30
0.0000000001127424
  0
SPLINE
  5
E31A
330
18
100
AcDbEntity
  8
01
  6
CONTINUOUS
100
AcDbSpline
210
0.0
220
0.0
230
1.0
 70
    24
 71
     3
 72
    14
 73
    10
 74
     0
 42
0.0000000001
 43
0.0000000001
 40
0.0
 40
0.0
 40
0.0
 40
0.0
 40
0.4999999999999991
 40
0.4999999999999991
 40
0.6249999999999993
 40
0.6249999999999993
 40
0.7499999999999996
 40
0.7499999999999996
 40
1.0
 40
1.0
 40
1.0
 40
1.0
 10
4949.250249664528
 20
423.9820227951327
 30
0.0000000001127424
 10
4949.250249664528
 20
422.1499817699887
 30
0.0000000001127424
 10
4949.250249664528
 20
420.2501962145375
 30
0.0000000001127424
 10
4949.250249664528
 20
417.7937853566254
 30
0.0000000001127424
 10
4949.250249664528
 20
417.2983875112322
 30
0.0000000001127424
 10
4949.250249664528
 20
416.2992401062929
 30
0.0000000001127424
 10
4949.250249664528
 20
415.7948133284817
 30
0.0000000001127424
 10
4949.250249664528
 20
414.281529785454
 30
0.0000000001127424
 10
4949.250249664528
 20
413.2689536521048
 30
0.0000000001127424
 10
4949.250249664528
 20
412.2526617441417
 30
0.0000000001127424
  0
LINE
  5
E31B
330
18
100
AcDbEntity
  8
01
  6
CONTINUOUS
100
AcDbLine
 10
4821.414369350137
 20
458.6115630006789
 30
0.0000000001127424
 11
4799.064756161015
 21
458.6115630006789
 31
0.0000000001127424
  0
SPLINE
  5
E31C
330
18
100
AcDbEntity
  8
01
  6
CONTINUOUS
100
AcDbSpline
210
0.0
220
0.0
230
1.0
 70
    24
 71
     3
 72
    11
 73
     7
 74
     0
 42
0.0000000001
 43
0.0000000001
 40
0.0
 40
0.0
 40
0.0
 40
0.0
 40
0.2919520642780056
 40
0.5837649061459342
 40
0.8755347979816247
 40
1.0
 40
1.0
 40
1.0
 40
1.0
 10
4821.414476043693
 20
458.6115630006789
 30
0.0000000001127424
 10
4821.51092578712
 20
458.6115630006789
 30
0.0000000001127424
 10
4821.703779280238
 20
458.6115630006789
 30
0.0000000001127424
 10
4821.899722618942
 20
458.6115630006789
 30
0.0000000001127424
 10
4822.011029730333
 20
458.6115630006789
 30
0.0000000001127424
 10
4822.018653148423
 20
458.6115630006789
 30
0.0000000001127424
 10
4822.020932750232
 20
458.6115630006789
 30
0.0000000001127424
  0
SPLINE
  5
E31F
330
18
100
AcDbEntity
  8
01
  6
CONTINUOUS
100
AcDbSpline
210
0.0
220
0.0
230
1.0
 70
     8
 71
     3
 72
    14
 73
    10
 74
     0
 42
0.0000000001
 43
0.0000000001
 40
0.0
 40
0.0
 40
0.0
 40
0.0
 40
0.0217502981913376
 40
0.1533391293728499
 40
0.2921405297874716
 40
0.4433369593166887
 40
0.6267626251316842
 40
0.8090963658927475
 40
1.0
 40
1.0
 40
1.0
 40
1.0
 10
4798.934269799998
 20
300.6067531428171
 30
0.0000000001127424
 10
4798.939576471556
 20
300.5760196838623
 30
0.0000000001127424
 10
4798.976988390671
 20
300.3593494664124
 30
0.0000000001127424
 10
4799.133036242493
 20
300.0083630772201
 30
0.0000000001127424
 10
4799.370355755352
 20
299.5743901714909
 30
0.0000000001127424
 10
4799.67885874737
 20
299.1606282768466
 30
0.0000000001127424
 10
4800.093931372581
 20
298.7542365129525
 30
0.0000000001127424
 10
4800.545655217024
 20
298.4266181617463
 30
0.0000000001127424
 10
4800.836122783895
 20
298.2666341451236
 30
0.0000000001127424
 10
4800.984691276334
 20
298.1848054424563
 30
0.0000000001127424
  0
SPLINE
  5
E320
330
18
100
AcDbEntity
  8
01
  6
CONTINUOUS
100
AcDbSpline
210
0.0
220
0.0
230
1.0
 70
     8
 71
     3
 72
    42
 73
    38
 74
     0
 42
0.0000000001
 43
0.0000000001
 40
0.0
 40
0.0
 40
0.0
 40
0.0
 40
0.0045718119968021
 40
0.0196096431485154
 40
0.0369740235853361
 40
0.056193295119521
 40
0.0778059018535491
 40
0.0995843454593546
 40
0.120971561321455
 40
0.1417998247215519
 40
0.1620335052700219
 40
0.1816696719936668
 40
0.200880631667184
 40
0.2200211890945643
 40
0.2395638399181682
 40
0.2594527847282863
 40
0.279625034687864
 40
0.3000000139071861
 40
0.3204913650853494
 40
0.3411869108515108
 40
0.3633080877385307
 40
0.3864621724862684
 40
0.410823797842532
 40
0.4365715479083001
 40
0.4639158511958617
 40
0.4931042159118573
 40
0.525542132488534
 40
0.5592957786365416
 40
0.594746055186268
 40
0.6323139625221538
 40
0.6725864697948436
 40
0.7164389542607829
 40
0.7653070149602361
 40
0.8216265703241947
 40
0.881094512740303
 40
0.943070782875176
 40
1.0
 40
1.0
 40
1.0
 40
1.0
 10
4820.353806304155
 20
296.9396010959022
 30
0.0000000001127424
 10
4820.351990509448
 20
296.9382960068701
 30
0.0000000001127424
 10
4820.344202112578
 20
296.9326981541544
 30
0.0000000001127424
 10
4820.407608521843
 20
296.9748967471855
 30
0.0000000001127424
 10
4820.557029848123
 20
297.0639906387551
 30
0.0000000001127424
 10
4820.80657973713
 20
297.204794886487
 30
0.0000000001127424
 10
4821.164772578359
 20
297.3958654190019
 30
0.0000000001127424
 10
4821.636448963417
 20
297.6357740763083
 30
0.0000000001127424
 10
4822.205001270109
 20
297.9132861576218
 30
0.0000000001127424
 10
4822.861533179845
 20
298.222514679444
 30
0.0000000001127424
 10
4823.600825665513
 20
298.5599290459454
 30
0.0000000001127424
 10
4824.414204430471
 20
298.92071925439
 30
0.0000000001127424
 10
4825.308434906669
 20
299.304085804431
 30
0.0000000001127424
 10
4826.287725562741
 20
299.7109919181071
 30
0.0000000001127424
 10
4827.36036455133
 20
300.1426945581138
 30
0.0000000001127424
 10
4828.530443430012
 20
300.5982186035476
 30
0.0000000001127424
 10
4829.792032557997
 20
301.0722633182704
 30
0.0000000001127424
 10
4831.1372651725
 20
301.5588691655134
 30
0.0000000001127424
 10
4832.562891825911
 20
302.0531446412328
 30
0.0000000001127424
 10
4834.089064763456
 20
302.5596153285605
 30
0.0000000001127424
 10
4835.733668144026
 20
303.0824270378562
 30
0.0000000001127424
 10
4837.520689985245
 20
303.625830003491
 30
0.0000000001127424
 10
4839.447288665634
 20
304.1853340029043
 30
0.0000000001127424
 10
4841.526316407777
 20
304.7606056416457
 30
0.0000000001127424
 10
4843.773917613317
 20
305.350089758057
 30
0.0000000001127424
 10
4846.237702526405
 20
305.9619849577889
 30
0.0000000001127424
 10
4848.910960275697
 20
306.5889202373969
 30
0.0000000001127424
 10
4851.790187079285
 20
307.2237984174349
 30
0.0000000001127424
 10
4854.841627055082
 20
307.8550906481496
 30
0.0000000001127424
 10
4858.103124640083
 20
308.4863444908274
 30
0.0000000001127424
 10
4861.627368589731
 20
309.1222313232092
 30
0.0000000001127424
 10
4865.497292846318
 20
309.7702530388992
 30
0.0000000001127424
 10
4869.850096850751
 20
310.4424866651721
 30
0.0000000001127424
 10
4874.674223056521
 20
311.1245691338913
 30
0.0000000001127424
 10
4879.897952894798
 20
311.7896268799309
 30
0.0000000001127424
 10
4885.151608497241
 20
312.3935635653775
 30
0.0000000001127424
 10
4888.662324855593
 20
312.7381095359324
 30
0.0000000001127424
 10
4890.343175238821
 20
312.9030702355535
 30
0.0000000001127424
  0
SPLINE
  5
E323
330
18
100
AcDbEntity
  8
01
  6
CONTINUOUS
100
AcDbSpline
210
0.0
220
0.0
230
1.0
 70
     8
 71
     3
 72
    81
 73
    77
 74
     0
 42
0.0000000001
 43
0.0000000001
 40
0.0
 40
0.0
 40
0.0
 40
0.0
 40
0.0192259171458884
 40
0.0506624062663249
 40
0.0792371346847584
 40
0.1051516551911855
 40
0.1285856411477858
 40
0.149698712020156
 40
0.1647519433341864
 40
0.177662854723898
 40
0.1876350892514102
 40
0.1948525513542518
 40
0.2024777071118407
 40
0.2119955807999851
 40
0.2216164103633381
 40
0.2325426687863447
 40
0.2440720577914111
 40
0.2553590441149867
 40
0.2663902373342371
 40
0.2771552996116359
 40
0.2891426409957885
 40
0.3023253252355653
 40
0.3140740366302964
 40
0.3238831856763639
 40
0.3320119492966411
 40
0.3393411660477085
 40
0.3459952566770783
 40
0.3571988336287851
 40
0.3711299450773642
 40
0.3872684513050361
 40
0.4043755816483882
 40
0.4206971702340979
 40
0.4373188134589522
 40
0.4536807490331302
 40
0.4695950628689216
 40
0.4864989759215336
 40
0.502695299053938
 40
0.5165037710397414
 40
0.5321371215175767
 40
0.5489650732956721
 40
0.5642151527746087
 40
0.5804228191166017
 40
0.6022968322107353
 40
0.6228534172928347
 40
0.6420557939297121
 40
0.6624038008606107
 40
0.6801890857228557
 40
0.6979159479228478
 40
0.7100891989940686
 40
0.7251399514382313
 40
0.7417743455409247
 40
0.7564659097193087
 40
0.7676225532030284
 40
0.7809755719428927
 40
0.7947681867754891
 40
0.8087697969403781
 40
0.8189314868767197
 40
0.8299852779327594
 40
0.8400481335013061
 40
0.8498121769713162
 40
0.860614432266285
 40
0.870278690953338
 40
0.8779072412593882
 40
0.8870311946901948
 40
0.8972320870092986
 40
0.9058583779753513
 40
0.9127508641885098
 40
0.9206961949062608
 40
0.930608082098133
 40
0.9417818728790572
 40
0.9510763060272798
 40
0.9608330011825984
 40
0.9717255141961852
 40
0.9832096015653969
 40
0.9949871996589064
 40
1.0
 40
1.0
 40
1.0
 40
1.0
 10
4947.059803215883
 20
322.2590002813918
 30
0.0000000001127424
 10
4946.142176252683
 20
322.2631918656484
 30
0.0000000001127424
 10
4943.724128278284
 20
322.2742371511804
 30
0.0000000001127424
 10
4939.942027780957
 20
322.2775261606348
 30
0.0000000001127424
 10
4935.840521843062
 20
322.2723039381344
 30
0.0000000001127424
 10
4932.120816544455
 20
322.2579596007354
 30
0.0000000001127424
 10
4928.757100790433
 20
322.237476654379
 30
0.0000000001127424
 10
4925.911709424799
 20
322.2142023834786
 30
0.0000000001127424
 10
4923.568454729475
 20
322.1910136679753
 30
0.0000000001127424
 10
4921.757154190745
 20
322.1706461308909
 30
0.0000000001127424
 10
4920.320128887207
 20
322.1528855956922
 30
0.0000000001127424
 10
4919.135905015364
 20
322.1372535967271
 30
0.0000000001127424
 10
4917.973111232708
 20
322.1210572829063
 30
0.0000000001127424
 10
4916.695284706975
 20
322.1021723509143
 30
0.0000000001127424
 10
4915.259750501906
 20
322.0795792970707
 30
0.0000000001127424
 10
4913.728000889061
 20
322.0538710445012
 30
0.0000000001127424
 10
4912.116973288288
 20
322.0249946603299
 30
0.0000000001127424
 10
4910.502327363951
 20
321.9942495416431
 30
0.0000000001127424
 10
4908.925411536684
 20
321.9624878732243
 30
0.0000000001127424
 10
4907.317909978651
 20
321.9283608254805
 30
0.0000000001127424
 10
4905.607454056864
 20
321.8899687447624
 30
0.0000000001127424
 10
4903.846785419962
 20
321.8481513499196
 30
0.0000000001127424
 10
4902.190861777946
 20
321.8066817524991
 30
0.0000000001127424
 10
4900.775964466926
 20
321.7696606978038
 30
0.0000000001127424
 10
4899.572003001086
 20
321.7370324601361
 30
0.0000000001127424
 10
4898.51845825365
 20
321.7076298982661
 30
0.0000000001127424
 10
4897.318517265758
 20
321.6732642285583
 30
0.0000000001127424
 10
4895.804223603205
 20
321.6284806178892
 30
0.0000000001127424
 10
4893.838349614998
 20
321.5677543171064
 30
0.0000000001127424
 10
4891.592290142653
 20
321.4948387552136
 30
0.0000000001127424
 10
4889.23358973143
 20
321.4141749003893
 30
0.0000000001127424
 10
4886.85241855984
 20
321.3286108673997
 30
0.0000000001127424
 10
4884.507873290219
 20
321.240385602297
 30
0.0000000001127424
 10
4882.183827719813
 20
321.149029270091
 30
0.0000000001127424
 10
4879.847581792671
 20
321.0534125161444
 30
0.0000000001127424
 10
4877.519830597957
 20
320.9543807105761
 30
0.0000000001127424
 10
4875.295206163551
 20
320.8562038739374
 30
0.0000000001127424
 10
4873.131752944737
 20
320.7577053360665
 30
0.0000000001127424
 10
4870.938747267553
 20
320.6549444460265
 30
0.0000000001127424
 10
4868.681740847403
 20
320.5460187078293
 30
0.0000000001127424
 10
4866.398184277629
 20
320.4328184061765
 30
0.0000000001127424
 10
4863.880371064228
 20
320.3049656578228
 30
0.0000000001127424
 10
4861.114937609266
 20
320.1608384884371
 30
0.0000000001127424
 10
4858.218807626936
 20
320.006080144075
 30
0.0000000001127424
 10
4855.394816448428
 20
319.8526527238005
 30
0.0000000001127424
 10
4852.693882070735
 20
319.7021723688554
 30
0.0000000001127424
 10
4850.072285406418
 20
319.5530759779358
 30
0.0000000001127424
 10
4847.844351321532
 20
319.4244410677102
 30
0.0000000001127424
 10
4845.7527340436
 20
319.3025909129519
 30
0.0000000001127424
 10
4843.722356091866
 20
319.183662712232
 30
0.0000000001127424
 10
4841.589819197674
 20
319.0585018160054
 30
0.0000000001127424
 10
4839.651036492762
 20
318.9451249457529
 30
0.0000000001127424
 10
4837.880825903337
 20
318.8424184926439
 30
0.0000000001127424
 10
4836.167213173733
 20
318.7441328630434
 30
0.0000000001127424
 10
4834.348462872864
 20
318.6417846172158
 30
0.0000000001127424
 10
4832.702286343182
 20
318.5516601676245
 30
0.0000000001127424
 10
4831.200492042064
 20
318.4720579898853
 30
0.0000000001127424
 10
4829.890377620277
 20
318.405035657433
 30
0.0000000001127424
 10
4828.627399181054
 20
318.3432110630692
 30
0.0000000001127424
 10
4827.405274499584
 20
318.2863414916387
 30
0.0000000001127424
 10
4826.228897286611
 20
318.2350350334841
 30
0.0000000001127424
 10
4825.177800579326
 20
318.1927734835422
 30
0.0000000001127424
 10
4824.22735489768
 20
318.1576545699236
 30
0.0000000001127424
 10
4823.286819693622
 20
318.1262243168826
 30
0.0000000001127424
 10
4822.356327898557
 20
318.099479651798
 30
0.0000000001127424
 10
4821.551691284466
 20
318.0805599918926
 30
0.0000000001127424
 10
4820.865189718682
 20
318.0677042783523
 30
0.0000000001127424
 10
4820.177741226392
 20
318.0582925270014
 30
0.0000000001127424
 10
4819.424585097277
 20
318.0532039958589
 30
0.0000000001127424
 10
4818.722217908713
 20
318.0552558270783
 30
0.0000000001127424
 10
4818.13145442392
 20
318.0633215421976
 30
0.0000000001127424
 10
4817.629930661552
 20
318.0757828186161
 30
0.0000000001127424
 10
4817.19174794145
 20
318.0935192632664
 30
0.0000000001127424
 10
4816.88758878945
 20
318.1110904281086
 30
0.0000000001127424
 10
4816.716246348048
 20
318.1264427067704
 30
0.0000000001127424
 10
4816.731815787184
 20
318.1241355458892
 30
0.0000000001127424
 10
4816.736464068171
 20
318.1234467393137
 30
0.0000000001127424
  0
SPLINE
  5
E324
330
18
100
AcDbEntity
  8
01
  6
CONTINUOUS
100
AcDbSpline
210
0.0
220
0.0
230
1.0
 70
     8
 71
     3
 72
    24
 73
    20
 74
     0
 42
0.0000000001
 43
0.0000000001
 40
0.0
 40
0.0
 40
0.0
 40
0.0
 40
0.1215382846956062
 40
0.2250475882836562
 40
0.3115720832742812
 40
0.3658418438738292
 40
0.4129240671102482
 40
0.4596659351767412
 40
0.5094921316798967
 40
0.5646704926487485
 40
0.6232508764519927
 40
0.6763674940499825
 40
0.7236355084939168
 40
0.7530540972243691
 40
0.7891995400927179
 40
0.8339692625521575
 40
0.8874622968926802
 40
0.9497640181202608
 40
1.0
 40
1.0
 40
1.0
 40
1.0
 10
4802.803583436898
 20
314.3025680189903
 30
0.0000000001127424
 10
4802.564155623993
 20
314.031516839199
 30
0.0000000001127424
 10
4802.120816704103
 20
313.5296221936869
 30
0.0000000001127424
 10
4801.622052210552
 20
312.8378701875117
 30
0.0000000001127424
 10
4801.287237342699
 20
312.3065568429356
 30
0.0000000001127424
 10
4801.073619929138
 20
311.9178551961672
 30
0.0000000001127424
 10
4800.922081653242
 20
311.615261885479
 30
0.0000000001127424
 10
4800.620699152614
 20
311.068902857483
 30
0.0000000001127424
 10
4800.229687577488
 20
310.3212916037442
 30
0.0000000001127424
 10
4799.78483264684
 20
309.3683147757279
 30
0.0000000001127424
 10
4799.374424418501
 20
308.3043927080694
 30
0.0000000001127424
 10
4799.071980262463
 20
307.2924282239314
 30
0.0000000001127424
 10
4798.882785433069
 20
306.4603486301826
 30
0.0000000001127424
 10
4798.758513145881
 20
305.747282818777
 30
0.0000000001127424
 10
4798.657014498013
 20
304.9876160737972
 30
0.0000000001127424
 10
4798.587077222678
 20
304.0343831847081
 30
0.0000000001127424
 10
4798.597454792131
 20
302.8733651422403
 30
0.0000000001127424
 10
4798.707159378469
 20
301.6633788881504
 30
0.0000000001127424
 10
4798.910085044509
 20
300.8607229353811
 30
0.0000000001127424
 10
4798.934269799998
 20
300.6067531428171
 30
0.0000000001127424
  0
ARC
  5
E325
330
18
100
AcDbEntity
  8
01
  6
CONTINUOUS
100
AcDbCircle
 10
4947.053409044333
 20
320.0621685606125
 30
0.0000000001127424
 40
2.196841026304872
100
AcDbArc
 50
359.9651533331235
 51
89.83323346737546
  0
SPLINE
  5
E326
330
18
100
AcDbEntity
  8
01
  6
CONTINUOUS
100
AcDbSpline
210
0.0
220
0.0
230
1.0
 70
     9
 71
     3
 72
    66
 73
    62
 74
     0
 42
0.0000000001
 43
0.0000000001
 40
0.0
 40
0.0
 40
0.0
 40
0.0
 40
0.03125
 40
0.03125
 40
0.0625
 40
0.0625
 40
0.0937499999999999
 40
0.0937499999999999
 40
0.1249999999999999
 40
0.1249999999999999
 40
0.1562499999999999
 40
0.1562499999999999
 40
0.1874999999999999
 40
0.1874999999999999
 40
0.2187499999999999
 40
0.2187499999999999
 40
0.2499999999999998
 40
0.2499999999999998
 40
0.2812499999999998
 40
0.2812499999999998
 40
0.3124999999999998
 40
0.3124999999999998
 40
0.3437499999999998
 40
0.3437499999999998
 40
0.3749999999999998
 40
0.3749999999999998
 40
0.4062499999999997
 40
0.4062499999999997
 40
0.4374999999999997
 40
0.4374999999999997
 40
0.4687499999999997
 40
0.4687499999999997
 40
0.4999999999999997
 40
0.4999999999999997
 40
0.5312499999999997
 40
0.5312499999999997
 40
0.5624999999999997
 40
0.5624999999999997
 40
0.5937499999999996
 40
0.5937499999999996
 40
0.6249999999999996
 40
0.6249999999999996
 40
0.6562499999999996
 40
0.6562499999999996
 40
0.6874999999999996
 40
0.6874999999999996
 40
0.7187499999999996
 40
0.7187499999999996
 40
0.7499999999999996
 40
0.7499999999999996
 40
0.8124999999999994
 40
0.8124999999999994
 40
0.8437499999999996
 40
0.8437499999999996
 40
0.8749999999999997
 40
0.8749999999999997
 40
0.9062499999999998
 40
0.9062499999999998
 40
0.9374999999999998
 40
0.9374999999999998
 40
1.0
 40
1.0
 40
1.0
 40
1.0
 10
4811.250249664534
 20
297.0772983262905
 30
0.0000000001127424
 10
4811.04583900543
 20
297.0997646302726
 30
0.0000000001127424
 10
4810.844898471894
 20
297.1225553148515
 30
0.0000000001127424
 10
4810.449682993646
 20
297.1689505693535
 30
0.0000000001127424
 10
4810.253414210589
 20
297.1928107084873
 30
0.0000000001127424
 10
4809.878717661069
 20
297.2402906559032
 30
0.0000000001127424
 10
4809.701014452301
 20
297.2637954183438
 30
0.0000000001127424
 10
4809.364712629183
 20
297.3105909326064
 30
0.0000000001127424
 10
4809.205273595021
 20
297.334040427651
 30
0.0000000001127424
 10
4808.919229992895
 20
297.3790046194449
 30
0.0000000001127424
 10
4808.790845939978
 20
297.4007480539449
 30
0.0000000001127424
 10
4808.563994976095
 20
297.4429103096659
 30
0.0000000001127424
 10
4808.467060808473
 20
297.4630907801984
 30
0.0000000001127424
 10
4808.311594544194
 20
297.5005298994652
 30
0.0000000001127424
 10
4808.251772039684
 20
297.5180574571596
 30
0.0000000001127424
 10
4808.170934256432
 20
297.5502260048879
 30
0.0000000001127424
 10
4808.150775056208
 20
297.5644753616612
 30
0.0000000001127424
 10
4808.149744353084
 20
297.589375206579
 30
0.0000000001127424
 10
4808.169473396958
 20
297.6001090210789
 30
0.0000000001127424
 10
4808.248292039738
 20
297.617000604962
 30
0.0000000001127424
 10
4808.306813309164
 20
297.6232282467208
 30
0.0000000001127424
 10
4808.462103092927
 20
297.6310606464035
 30
0.0000000001127424
 10
4808.559627822115
 20
297.6325985943176
 30
0.0000000001127424
 10
4808.785046625468
 20
297.6305947782462
 30
0.0000000001127424
 10
4808.913678050396
 20
297.6271203559172
 30
0.0000000001127424
 10
4809.203818950907
 20
297.6148069807828
 30
0.0000000001127424
 10
4809.361862382014
 20
297.6060953167025
 30
0.0000000001127424
 10
4809.698792453474
 20
297.5837432541457
 30
0.0000000001127424
 10
4809.880268361486
 20
297.5699038203875
 30
0.0000000001127424
 10
4810.256827911282
 20
297.5375903534555
 30
0.0000000001127424
 10
4810.450257979016
 20
297.5192966075097
 30
0.0000000001127424
 10
4810.847207037095
 20
297.4784054823235
 30
0.0000000001127424
 10
4811.05227034673
 20
297.4555946833698
 30
0.0000000001127424
 10
4811.455793299732
 20
297.4074610526027
 30
0.0000000001127424
 10
4811.656104276626
 20
297.3819699017872
 30
0.0000000001127424
 10
4812.053796226915
 20
297.3282058630753
 30
0.0000000001127424
 10
4812.248766622572
 20
297.3002291342177
 30
0.0000000001127424
 10
4812.619914854919
 20
297.2439794369466
 30
0.0000000001127424
 10
4812.798673251992
 20
297.215331468743
 30
0.0000000001127424
 10
4813.136823117666
 20
297.1581033876678
 30
0.0000000001127424
 10
4813.292465363101
 20
297.1301764675641
 30
0.0000000001127424
 10
4813.57772196056
 20
297.0759800355422
 30
0.0000000001127424
 10
4813.708515094913
 20
297.0494384808467
 30
0.0000000001127424
 10
4813.934503465963
 20
297.0001319271446
 30
0.0000000001127424
 10
4814.030199765443
 20
296.9773178581258
 30
0.0000000001127424
 10
4814.186928156123
 20
296.9355979694169
 30
0.0000000001127424
 10
4814.247714597122
 20
296.9166718835118
 30
0.0000000001127424
 10
4814.328374241713
 20
296.8845818741147
 30
0.0000000001127424
 10
4814.349313116069
 20
296.8711624060466
 30
0.0000000001127424
 10
4814.352031502628
 20
296.8389450708914
 30
0.0000000001127424
 10
4814.273011793645
 20
296.8292117754486
 30
0.0000000001127424
 10
4814.039532963958
 20
296.8314919475179
 30
0.0000000001127424
 10
4813.944202556009
 20
296.835013411307
 30
0.0000000001127424
 10
4813.719335985621
 20
296.8471039458423
 30
0.0000000001127424
 10
4813.588193306056
 20
296.8558112252817
 30
0.0000000001127424
 10
4813.301329303901
 20
296.8773748281592
 30
0.0000000001127424
 10
4813.145042213607
 20
296.8902342299925
 30
0.0000000001127424
 10
4812.806484135011
 20
296.9199081389015
 30
0.0000000001127424
 10
4812.625298249682
 20
296.9366458873415
 30
0.0000000001127424
 10
4812.06557392479
 20
296.99050977454
 30
0.0000000001127424
 10
4811.659070982741
 20
297.0323657183267
 30
0.0000000001127424
 10
4811.250249664534
 20
297.0772983262905
 30
0.0000000001127424
  0
LINE
  5
E327
330
18
100
AcDbEntity
  8
01
  6
CONTINUOUS
100
AcDbLine
 10
4801.555168792205
 20
298.0159646399497
 30
0.0000000001127424
 11
4818.481746520415
 21
296.2566947965374
 31
0.0000000001127424
  0
SPLINE
  5
E328
330
18
100
AcDbEntity
  8
01
100
AcDbSpline
210
0.0
220
0.0
230
1.0
 70
     8
 71
     3
 72
    67
 73
    63
 74
     0
 42
0.0000000001
 43
0.0000000001
 40
0.0
 40
0.0
 40
0.0
 40
0.0
 40
0.1249999999999994
 40
0.1249999999999994
 40
0.2499999999999988
 40
0.2499999999999988
 40
0.3749999999999982
 40
0.3749999999999982
 40
0.4374999999999981
 40
0.4374999999999981
 40
0.4999999999999979
 40
0.4999999999999979
 40
0.5624999999999977
 40
0.5624999999999977
 40
0.6249999999999976
 40
0.6249999999999976
 40
0.6562499999999973
 40
0.6562499999999973
 40
0.6874999999999972
 40
0.6874999999999972
 40
0.7031249999999971
 40
0.7031249999999971
 40
0.7187499999999971
 40
0.7187499999999971
 40
0.7499999999999969
 40
0.7499999999999969
 40
0.7656249999999969
 40
0.7656249999999969
 40
0.7734374999999969
 40
0.7734374999999969
 40
0.7812499999999968
 40
0.7812499999999968
 40
0.7968749999999969
 40
0.7968749999999969
 40
0.8046874999999969
 40
0.8046874999999969
 40
0.812499999999997
 40
0.812499999999997
 40
0.8437499999999976
 40
0.8437499999999976
 40
0.8515624999999976
 40
0.8515624999999976
 40
0.8593749999999977
 40
0.8593749999999977
 40
0.8749999999999979
 40
0.8749999999999979
 40
0.9062499999999984
 40
0.9062499999999984
 40
0.9218749999999987
 40
0.9218749999999987
 40
0.937499999999999
 40
0.937499999999999
 40
0.9687499999999994
 40
0.9687499999999994
 40
0.9843749999999998
 40
0.9843749999999998
 40
0.9921874999999999
 40
0.9921874999999999
 40
0.99609375
 40
0.998046875
 40
0.998046875
 40
1.0
 40
1.0
 40
1.0
 40
1.0
 10
4947.053565578658
 20
319.6027187126206
 30
0.0000000001127424
 10
4939.383653724738
 20
319.6143898101841
 30
0.0000000001127424
 10
4931.713584396461
 20
319.5681455500194
 30
0.0000000001127424
 10
4916.377697762442
 20
319.3313196571967
 30
0.0000000001127424
 10
4908.711535453131
 20
319.1410292944502
 30
0.0000000001127424
 10
4893.383282840164
 20
318.5732811759176
 30
0.0000000001127424
 10
4885.722680374224
 20
318.1965177962434
 30
0.0000000001127424
 10
4874.246841748638
 20
317.438818215182
 30
0.0000000001127424
 10
4870.423794257123
 20
317.1538872645065
 30
0.0000000001127424
 10
4862.783164317031
 20
316.5051645599083
 30
0.0000000001127424
 10
4858.962599721993
 20
316.1411511746237
 30
0.0000000001127424
 10
4851.344356261747
 20
315.3156451337413
 30
0.0000000001127424
 10
4847.548024724398
 20
314.8545528287837
 30
0.0000000001127424
 10
4839.99328634371
 20
313.8069481170578
 30
0.0000000001127424
 10
4836.234566636133
 20
313.2208828753191
 30
0.0000000001127424
 10
4830.641962236899
 20
312.2127750183658
 30
0.0000000001127424
 10
4828.78544129486
 20
311.8550649427721
 30
0.0000000001127424
 10
4825.092952349932
 20
311.086934567672
 30
0.0000000001127424
 10
4823.256915313771
 20
310.6765958862338
 30
0.0000000001127424
 10
4820.524450079939
 20
310.0114177522355
 30
0.0000000001127424
 10
4819.614272464602
 20
309.7805526602101
 30
0.0000000001127424
 10
4817.822171976472
 20
309.3050634540555
 30
0.0000000001127424
 10
4816.939741109966
 20
309.0603845003943
 30
0.0000000001127424
 10
4814.34056183873
 20
308.3045818163023
 30
0.0000000001127424
 10
4812.671116785414
 20
307.771622523162
 30
0.0000000001127424
 10
4810.302607910767
 20
306.9255308767392
 30
0.0000000001127424
 10
4809.535892566947
 20
306.6357385615656
 30
0.0000000001127424
 10
4808.427268326976
 20
306.1892402758758
 30
0.0000000001127424
 10
4808.065029807783
 20
306.038541737305
 30
0.0000000001127424
 10
4807.36688097993
 20
305.7381954998878
 30
0.0000000001127424
 10
4807.029522840526
 20
305.5879746454671
 30
0.0000000001127424
 10
4806.053540114848
 20
305.1378019813624
 30
0.0000000001127424
 10
4805.451063353008
 20
304.8383334669802
 30
0.0000000001127424
 10
4804.622539824886
 20
304.3927705367046
 30
0.0000000001127424
 10
4804.358884354799
 20
304.2448579366151
 30
0.0000000001127424
 10
4803.856909870545
 20
303.9507137621717
 30
0.0000000001127424
 10
4803.618697828519
 20
303.8044805821032
 30
0.0000000001127424
 10
4802.507006314419
 20
303.0894930856825
 30
0.0000000001127424
 10
4801.855300411871
 20
302.5603537949683
 30
0.0000000001127424
 10
4801.260674865441
 20
301.9547888532175
 30
0.0000000001127424
 10
4801.152783898876
 20
301.8364218799793
 30
0.0000000001127424
 10
4800.958840049614
 20
301.6073781210393
 30
0.0000000001127424
 10
4800.872460491563
 20
301.4963847084741
 30
0.0000000001127424
 10
4800.641266343061
 20
301.1733628376446
 30
0.0000000001127424
 10
4800.524254829163
 20
300.9712754245475
 30
0.0000000001127424
 10
4800.259811974701
 20
300.4005114967417
 30
0.0000000001127424
 10
4800.197631722383
 20
300.0671636464745
 30
0.0000000001127424
 10
4800.209896898654
 20
299.624885364582
 30
0.0000000001127424
 10
4800.232004988683
 20
299.4869967224045
 30
0.0000000001127424
 10
4800.304574431638
 20
299.229605767403
 30
0.0000000001127424
 10
4800.354988927158
 20
299.1101188809048
 30
0.0000000001127424
 10
4800.539505231925
 20
298.776462126717
 30
0.0000000001127424
 10
4800.706426664032
 20
298.5869805714424
 30
0.0000000001127424
 10
4800.997729538103
 20
298.3436537957314
 30
0.0000000001127424
 10
4801.101781573616
 20
298.269393249283
 30
0.0000000001127424
 10
4801.266096050802
 20
298.1674469572572
 30
0.0000000001127424
 10
4801.32224542998
 20
298.1350403355195
 30
0.0000000001127424
 10
4801.408303792367
 20
298.0887014597665
 30
0.0000000001127424
 10
4801.45179193586
 20
298.0660998952126
 30
0.0000000001127424
 10
4801.495928240369
 20
298.044333802286
 30
0.0000000001127424
 10
4801.525492217254
 20
298.0300069801342
 30
0.0000000001127424
 10
4801.540581193235
 20
298.0228317867218
 30
0.0000000001127424
 10
4801.555168792205
 20
298.0159646399497
 30
0.0000000001127424
  0
SPLINE
  5
E32A
330
18
100
AcDbEntity
  8
01
  6
CONTINUOUS
100
AcDbSpline
210
0.0
220
0.0
230
1.0
 70
     8
 71
     3
 72
    10
 73
     6
 74
     0
 42
0.0000000001
 43
0.0000000001
 40
0.0
 40
0.0
 40
0.0
 40
0.0
 40
0.4248260867684437
 40
0.861984986519285
 40
0.9999999999999999
 40
0.9999999999999999
 40
0.9999999999999999
 40
0.9999999999999999
 10
4801.555168792205
 20
298.0159646399497
 30
0.0000000001127424
 10
4801.471775153972
 20
298.0292442320765
 30
0.0000000001127424
 10
4801.302566938263
 20
298.0561889263804
 30
0.0000000001127424
 10
4801.112171727992
 20
298.1219187327019
 30
0.0000000001127424
 10
4801.014095324223
 20
298.1808260880639
 30
0.0000000001127424
 10
4800.990561544479
 20
298.1949611161958
 30
0.0000000001127424
  0
SPLINE
  5
E32B
330
18
100
AcDbEntity
  8
01
  6
CONTINUOUS
100
AcDbSpline
210
0.0
220
0.0
230
1.0
 70
     8
 71
     3
 72
    11
 73
     7
 74
     0
 42
0.0000000001
 43
0.0000000001
 40
0.0
 40
0.0
 40
0.0
 40
0.0
 40
0.005717777830057
 40
0.3580578362688207
 40
0.7106053629018207
 40
1.0
 40
1.0
 40
1.0
 40
1.0
 10
4820.622433128547
 20
297.0997987636979
 30
0.0000000001127424
 10
4820.620049371577
 20
297.0959339984133
 30
0.0000000001127424
 10
4820.470774095786
 20
296.8539152392682
 30
0.0000000001127424
 10
4819.968064088118
 20
296.5352261053399
 30
0.0000000001127424
 10
4819.228982553364
 20
296.2374411561323
 30
0.0000000001127424
 10
4818.713935456136
 20
296.2507121055573
 30
0.0000000001127424
 10
4818.481746520415
 20
296.2566947965374
 30
0.0000000001127424
  0
SPLINE
  5
E32D
330
18
100
AcDbEntity
  8
01
100
AcDbSpline
210
0.0
220
0.0
230
1.0
 70
     8
 71
     3
 72
    11
 73
     7
 74
     0
 42
0.0000000001
 43
0.0000000001
 40
0.6262241522388758
 40
0.6262241522388758
 40
0.6262241522388758
 40
0.6262241522388758
 40
0.6754835395013947
 40
0.8344782558290633
 40
0.9532633432007325
 40
1.0
 40
1.0
 40
1.0
 40
1.0
 10
4911.507984845573
 20
314.4769445510533
 30
0.0000000001127424
 10
4910.576958740765
 20
314.4256162596207
 30
0.0000000001127424
 10
4906.641506092272
 20
314.198832224331
 30
0.0000000001127424
 10
4900.46634202944
 20
313.7749239556447
 30
0.0000000001127424
 10
4894.344927430351
 20
313.2825420753043
 30
0.0000000001127424
 10
4891.230028501875
 20
312.9745070375006
 30
0.0000000001127424
 10
4890.35050682384
 20
312.8875303812547
 30
0.0000000001127424
  0
SPLINE
  5
E32F
330
18
100
AcDbEntity
  8
01
  6
CONTINUOUS
100
AcDbSpline
210
0.0
220
0.0
230
1.0
 70
     8
 71
     3
 72
     9
 73
     5
 74
     0
 42
0.0000000001
 43
0.0000000001
 40
0.0
 40
0.0
 40
0.0
 40
0.0
 40
0.3612577681931599
 40
1.0
 40
1.0
 40
1.0
 40
1.0
 10
4926.709133903434
 20
315.0076017621031
 30
0.0000000001127424
 10
4929.159099496649
 20
315.0591446403009
 30
0.0000000001127424
 10
4935.940865340658
 20
315.2018208198488
 30
0.0000000001127424
 10
4942.722944326089
 20
315.2403387429295
 30
0.0000000001127424
 10
4947.054944593535
 20
315.2649417670823
 30
0.0000000001127424
  0
ARC
  5
E330
330
18
100
AcDbEntity
  8
01
  6
CONTINUOUS
100
AcDbCircle
 10
4813.161878309858
 20
304.7350423524499
 30
0.0000000001127424
 40
14.10000000000001
100
AcDbArc
 50
71.08751453519993
 51
140.4633797068556
  0
SPLINE
  5
E333
330
18
100
AcDbEntity
  8
01
100
AcDbSpline
210
0.0
220
0.0
230
1.0
 70
     8
 71
     3
 72
    14
 73
    10
 74
     0
 42
0.0000000001
 43
0.0000000001
 40
0.0
 40
0.0
 40
0.0
 40
0.0
 40
0.2500000000000156
 40
0.2500000000000156
 40
0.3750000000000129
 40
0.3750000000000129
 40
0.5000000000000102
 40
0.5000000000000102
 40
1.0
 40
1.0
 40
1.0
 40
1.0
 10
4947.05400853129
 20
319.6027188630396
 30
0.0000000001127424
 10
4947.384126773264
 20
319.6028485251031
 30
0.0000000001127424
 10
4947.710331930222
 20
319.6208325723405
 30
0.0000000001127424
 10
4948.132978968927
 20
319.6660829944494
 30
0.0000000001127424
 10
4948.264510422085
 20
319.6842582497188
 30
0.0000000001127424
 10
4948.499431211393
 20
319.7238409298384
 30
0.0000000001127424
 10
4948.604603167578
 20
319.7454231813476
 30
0.0000000001127424
 10
4949.075201493452
 20
319.8603716449911
 30
0.0000000001127424
 10
4949.250249664534
 20
319.9665041982739
 30
0.0000000001127424
 10
4949.250249664534
 20
320.0608031358097
 30
0.0000000001127424
  0
LINE
  5
E334
330
18
100
AcDbEntity
  8
01
  6
CONTINUOUS
100
AcDbLine
 10
4949.250249664534
 20
320.0608031358097
 30
0.0000000001127424
 11
4949.250249664534
 21
317.7371455540674
 31
0.0000000001127424
  0
SPLINE
  5
E335
330
18
100
AcDbEntity
  8
01
  6
CONTINUOUS
100
AcDbSpline
210
0.0
220
0.0
230
1.0
 70
    24
 71
     3
 72
     8
 73
     4
 74
     0
 42
0.0000000001
 43
0.0000000001
 40
0.0
 40
0.0
 40
0.0
 40
0.0
 40
1.0
 40
1.0
 40
1.0
 40
1.0
 10
4949.250249664534
 20
317.7371455540674
 30
0.0000000001127424
 10
4949.250249664534
 20
317.6873883272788
 30
0.0000000001127424
 10
4949.250249664534
 20
317.6591199513377
 30
0.0000000001127424
 10
4949.250249664534
 20
317.657688021673
 30
0.0000000001127424
  0
SPLINE
  5
E336
330
18
100
AcDbEntity
  8
01
  6
CONTINUOUS
100
AcDbSpline
210
0.0
220
0.0
230
1.0
 70
     8
 71
     3
 72
    20
 73
    16
 74
     0
 42
0.0000000001
 43
0.0000000001
 40
0.0
 40
0.0
 40
0.0
 40
0.0
 40
0.0411136951085361
 40
0.0824563906409511
 40
0.1240593322001912
 40
0.1659531816011356
 40
0.2081679653277647
 40
0.2507330292852176
 40
0.3717349283783851
 40
0.5003306286103507
 40
0.6181033645984665
 40
0.7499831385590575
 40
0.8147424254334976
 40
0.8980845965846934
 40
1.0
 40
1.0
 40
1.0
 40
1.0
 10
4947.05495284322
 20
315.2649352844724
 30
0.0000000001127424
 10
4947.104154651946
 20
315.2660029312824
 30
0.0000000001127424
 10
4947.202832320051
 20
315.2681441716218
 30
0.0000000001127424
 10
4947.350481176165
 20
315.2840912348411
 30
0.0000000001127424
 10
4947.497458757753
 20
315.3094497488378
 30
0.0000000001127424
 10
4947.643060406569
 20
315.3451618546783
 30
0.0000000001127424
 10
4947.786590710967
 20
315.3909637992551
 30
0.0000000001127424
 10
4948.013273193693
 20
315.4809409479121
 30
0.0000000001127424
 10
4948.315061216796
 20
315.6500787808186
 30
0.0000000001127424
 10
4948.640363659698
 20
315.9299738504697
 30
0.0000000001127424
 10
4948.909595869498
 20
316.2714354408927
 30
0.0000000001127424
 10
4949.073768010977
 20
316.5898695168094
 30
0.0000000001127424
 10
4949.174190985788
 20
316.8876680220642
 30
0.0000000001127424
 10
4949.236313792622
 20
317.161479754523
 30
0.0000000001127424
 10
4949.24530393455
 20
317.3683160724381
 30
0.0000000001127424
 10
4949.250249664534
 20
317.4821025496208
 30
0.0000000001127424
  0
LINE
  5
E337
330
18
100
AcDbEntity
  8
01
  6
CONTINUOUS
100
AcDbLine
 10
4949.250249664534
 20
317.657688021673
 30
0.0000000001127424
 11
4949.250249664534
 21
317.4821025496208
 31
0.0000000001127424
  0
LINE
  5
E491
330
18
100
AcDbEntity
  8
01
100
AcDbLine
 10
4811.250249664528
 20
332.6128813137811
 30
0.0000000001127424
 11
4774.950249664528
 21
332.6128813137811
 31
0.0000000001127424
1001
ACAD
1000
DSTYLE
1002
{
1070
     3
1000
φ<>
1070
    40
1040
1.3
1070
    45
1040
0.5
1002
}
  0
LINE
  5
E492
330
18
100
AcDbEntity
  8
01
100
AcDbLine
 10
4811.250249664528
 20
282.6128813137821
 30
0.0000000001127424
 11
4774.950249664528
 21
282.6128813137821
 31
0.0000000001127424
1001
ACAD
1000
DSTYLE
1002
{
1070
     3
1000
φ<>
1070
    40
1040
1.3
1070
    45
1040
0.5
1002
}
  0
LINE
  5
E493
330
18
100
AcDbEntity
  8
01
100
AcDbLine
 10
4776.250249664528
 20
330.0128813137811
 30
0.0000000001127424
 11
4776.250249664528
 21
285.2128813137821
 31
0.0000000001127424
1001
ACAD
1000
DSTYLE
1002
{
1070
     3
1000
φ<>
1070
    40
1040
1.3
1070
    45
1040
0.5
1002
}
  0
LINE
  5
E497
330
18
100
AcDbEntity
  8
01
100
AcDbLine
 10
4689.362331412389
 20
300.0618874125848
 30
0.0000000001127424
 11
4688.807485299184
 21
299.9641769622385
 31
0.0000000001127424
  0
LINE
  5
E498
330
18
100
AcDbEntity
  8
01
100
AcDbLine
 10
4688.807485299184
 20
299.9641769622385
 30
0.0000000001127424
 11
4685.498961120411
 21
299.4662700985227
 31
0.0000000001127424
  0
LINE
  5
E499
330
18
100
AcDbEntity
  8
01
100
AcDbLine
 10
4685.498961120411
 20
299.4662700985227
 30
0.0000000001127424
 11
4680.419028384345
 21
298.8425933073713
 31
0.0000000001127424
  0
LINE
  5
E49A
330
18
100
AcDbEntity
  8
01
100
AcDbLine
 10
4680.419028384345
 20
298.8425933073713
 30
0.0000000001127424
 11
4675.333030624276
 21
298.3660178202326
 31
0.0000000001127424
  0
LINE
  5
E49B
330
18
100
AcDbEntity
  8
01
100
AcDbLine
 10
4675.333030624276
 20
298.3660178202326
 30
0.0000000001127424
 11
4670.250309119052
 21
298.0159680780371
 31
0.0000000001127424
  0
LINE
  5
E49C
330
18
100
AcDbEntity
  8
01
100
AcDbLine
 10
4670.250309119052
 20
298.0159680780371
 30
0.0000000001127424
 11
4670.250249664528
 21
298.0159646399488
 31
0.0000000001127424
  0
LINE
  5
E49D
330
18
100
AcDbEntity
  8
01
100
AcDbLine
 10
4670.250249664528
 20
298.0159646399488
 30
0.0000000001127424
 11
4670.250249664528
 21
298.0159646399488
 31
0.0000000001127424
  0
SPLINE
  5
E49E
330
18
100
AcDbEntity
  8
01
  6
CONTINUOUS
100
AcDbSpline
210
0.0
220
0.0
230
1.0
 70
    24
 71
     3
 72
     8
 73
     4
 74
     0
 42
0.000000001
 43
0.0000000001
 40
-0.2264715834859641
 40
-0.2264715834859641
 40
-0.2264715834859641
 40
-0.2264715834859641
 40
-0.0000003988614003
 40
-0.0000003988614003
 40
-0.0000003988614003
 40
-0.0000003988614003
 10
4911.507984845591
 20
314.4769445510042
 30
0.0000000001127424
 10
4912.500905656326
 20
314.5237041445216
 30
0.0000000001127424
 10
4913.493826467061
 20
314.5704637380391
 30
0.0000000001127424
 10
4914.486747277796
 20
314.6172233315565
 30
0.0000000001127424
  0
SPLINE
  5
E49F
330
18
100
AcDbEntity
  8
01
  6
CONTINUOUS
100
AcDbSpline
210
0.0
220
0.0
230
1.0
 70
    24
 71
     3
 72
     8
 73
     4
 74
     0
 42
0.000000001
 43
0.0000000001
 40
-0.0000003988614003
 40
-0.0000003988614003
 40
-0.0000003988614003
 40
-0.0000003988614003
 40
0.0
 40
0.0
 40
0.0
 40
0.0
 10
4914.486747277796
 20
314.6172233315565
 30
0.0000000001127424
 10
4914.48674902653
 20
314.6172234139099
 30
0.0000000001127424
 10
4914.486750775263
 20
314.6172234962628
 30
0.0000000001127424
 10
4914.486752523997
 20
314.6172235786157
 30
0.0000000001127424
  0
SPLINE
  5
E4A0
330
18
100
AcDbEntity
  8
01
  6
CONTINUOUS
100
AcDbSpline
210
0.0
220
0.0
230
1.0
 70
     8
 71
     3
 72
    21
 73
    17
 74
     0
 42
0.000000001
 43
0.0000000001
 40
0.0
 40
0.0
 40
0.0
 40
0.0
 40
0.0015786753960711
 40
0.0597170774458389
 40
0.1217321320360659
 40
0.1874758574866885
 40
0.2588300874574483
 40
0.3447939707055894
 40
0.4404886217478673
 40
0.5254582679705536
 40
0.5903706866197719
 40
0.6590335981918499
 40
0.7370930506247472
 40
0.8316471562510515
 40
0.9346015596276531
 40
1.0
 40
1.0
 40
1.0
 40
1.0
 10
4914.486752523997
 20
314.6172235786157
 30
0.0000000001127424
 10
4914.493673934217
 20
314.6175495282828
 30
0.0000000001127424
 10
4914.755492412641
 20
314.6298793343676
 30
0.0000000001127424
 10
4915.299700558464
 20
314.6541580935568
 30
0.0000000001127424
 10
4916.085081073757
 20
314.6885502913142
 30
0.0000000001127424
 10
4916.92779110687
 20
314.723806272094
 30
0.0000000001127424
 10
4917.868279946905
 20
314.7614596233875
 30
0.0000000001127424
 10
4918.918420607411
 20
314.801268886682
 30
0.0000000001127424
 10
4920.013445891887
 20
314.840168521077
 30
0.0000000001127424
 10
4921.01614669574
 20
314.8734139463013
 30
0.0000000001127424
 10
4921.897719842196
 20
314.9009283696291
 30
0.0000000001127424
 10
4922.746845416195
 20
314.9259652683859
 30
0.0000000001127424
 10
4923.710051772887
 20
314.9525519431086
 30
0.0000000001127424
 10
4924.791802112384
 20
314.9799416836117
 30
0.0000000001127424
 10
4925.813728199423
 20
315.0035098843841
 30
0.0000000001127424
 10
4926.458426073252
 20
315.0164822217225
 30
0.0000000001127424
 10
4926.708865771928
 20
315.0215214631812
 30
0.0000000001127424
  0
LINE
  5
E4A1
330
18
100
AcDbEntity
  8
01
  6
BYBLOCK
100
AcDbLine
 10
4775.553581770529
 20
330.0128813137811
 30
0.0000000001127424
 11
4776.250249664528
 21
332.6128813137811
 31
0.0000000001127424
  0
LINE
  5
E4A2
330
18
100
AcDbEntity
  8
01
  6
BYBLOCK
100
AcDbLine
 10
4776.250249664528
 20
332.6128813137811
 30
0.0000000001127424
 11
4776.946917558528
 21
330.0128813137811
 31
0.0000000001127424
  0
LINE
  5
E4A3
330
18
100
AcDbEntity
  8
01
  6
BYBLOCK
100
AcDbLine
 10
4776.250249664528
 20
332.6128813137811
 30
0.0000000001127424
 11
4776.250249664528
 21
330.0128813137811
 31
0.0000000001127424
  0
LINE
  5
E4A4
330
18
100
AcDbEntity
  8
01
  6
BYBLOCK
100
AcDbLine
 10
4776.946917558528
 20
285.2128813137821
 30
0.0000000001127424
 11
4776.250249664528
 21
282.6128813137821
 31
0.0000000001127424
  0
LINE
  5
E4A5
330
18
100
AcDbEntity
  8
01
  6
BYBLOCK
100
AcDbLine
 10
4776.250249664528
 20
282.6128813137821
 30
0.0000000001127424
 11
4775.553581770529
 21
285.2128813137821
 31
0.0000000001127424
  0
LINE
  5
E4A6
330
18
100
AcDbEntity
  8
01
  6
BYBLOCK
100
AcDbLine
 10
4776.250249664528
 20
282.6128813137821
 30
0.0000000001127424
 11
4776.250249664528
 21
285.2128813137821
 31
0.0000000001127424
  0
TEXT
  5
E4A7
330
18
100
AcDbEntity
  8
01
  6
CONTINUOUS
100
AcDbText
 10
4775.340249664529
 20
299.4133784071819
 30
0.0000000001127424
 40
4.55
  1
φ50
 50
90.0
100
AcDbText
1001
ACAD
1000
DSTYLE
1002
{
1070
     3
1000
φ<>
1070
    40
1040
1.3
1070
    45
1040
0.5
1002
}
  0
LINE
  5
E4A8
330
18
100
AcDbEntity
  8
1DIM
100
AcDbLine
 10
4947.145337716494
 20
426.8811122113557
 30
0.0000000001127424
 11
4967.550249664529
 21
426.8811122113557
 31
0.0000000001127424
1001
ACAD
1000
DSTYLE
1002
{
1070
    40
1040
1.3
1070
    45
1040
0.5
1002
}
  0
LINE
  5
E4A9
330
18
100
AcDbEntity
  8
1DIM
100
AcDbLine
 10
4914.005397661876
 20
467.6115630006784
 30
0.0000000001127424
 11
4967.550249664529
 21
467.6115630006784
 31
0.0000000001127424
1001
ACAD
1000
DSTYLE
1002
{
1070
    40
1040
1.3
1070
    45
1040
0.5
1002
}
  0
LINE
  5
E4AA
330
18
100
AcDbEntity
  8
1DIM
100
AcDbLine
 10
4966.250249664528
 20
429.4811122113557
 30
0.0000000001127424
 11
4966.250249664528
 21
465.0115630006784
 31
0.0000000001127424
1001
ACAD
1000
DSTYLE
1002
{
1070
    40
1040
1.3
1070
    45
1040
0.5
1002
}
  0
LINE
  5
E4AE
330
18
100
AcDbEntity
  8
1DIM
100
AcDbLine
 10
4946.250249664528
 20
408.4997128205773
 30
0.0000000001127424
 11
4977.550249664529
 21
408.4997128205773
 31
0.0000000001127424
1001
ACAD
1000
DSTYLE
1002
{
1070
    40
1040
1.3
1070
    45
1040
0.5
1002
}
  0
LINE
  5
E4AF
330
18
100
AcDbEntity
  8
1DIM
100
AcDbLine
 10
4914.005397661876
 20
467.6115630006784
 30
0.0000000001127424
 11
4977.550249664529
 21
467.6115630006784
 31
0.0000000001127424
1001
ACAD
1000
DSTYLE
1002
{
1070
    40
1040
1.3
1070
    45
1040
0.5
1002
}
  0
LINE
  5
E4B0
330
18
100
AcDbEntity
  8
1DIM
100
AcDbLine
 10
4976.250249664528
 20
411.0997128205773
 30
0.0000000001127424
 11
4976.250249664528
 21
465.0115630006784
 31
0.0000000001127424
1001
ACAD
1000
DSTYLE
1002
{
1070
    40
1040
1.3
1070
    45
1040
0.5
1002
}
  0
LINE
  5
E4B4
330
18
100
AcDbEntity
  8
1DIM
100
AcDbLine
 10
4947.054944593535
 20
315.2649417670823
 30
0.0000000001127424
 11
4967.550249664529
 21
315.2649417670823
 31
0.0000000001127424
1001
ACAD
1000
DSTYLE
1002
{
1070
    40
1040
1.3
1070
    45
1040
0.5
1002
}
  0
LINE
  5
E4B5
330
18
100
AcDbEntity
  8
1DIM
100
AcDbLine
 10
4947.059803216218
 20
322.2590002813918
 30
0.0000000001127424
 11
4967.550249664529
 21
322.2590002813918
 31
0.0000000001127424
1001
ACAD
1000
DSTYLE
1002
{
1070
    40
1040
1.3
1070
    45
1040
0.5
1002
}
  0
LINE
  5
E4B6
330
18
100
AcDbEntity
  8
1DIM
100
AcDbLine
 10
4966.250249664528
 20
312.6649417670823
 30
0.0000000001127424
 11
4966.250249664528
 21
310.0649417670823
 31
0.0000000001127424
1001
ACAD
1000
DSTYLE
1002
{
1070
    40
1040
1.3
1070
    45
1040
0.5
1002
}
  0
LINE
  5
E4B7
330
18
100
AcDbEntity
  8
1DIM
100
AcDbLine
 10
4966.250249664528
 20
324.8590002813918
 30
0.0000000001127424
 11
4966.250249664528
 21
327.4590002813918
 31
0.0000000001127424
1001
ACAD
1000
DSTYLE
1002
{
1070
    40
1040
1.3
1070
    45
1040
0.5
1002
}
  0
LINE
  5
E4B8
330
18
100
AcDbEntity
  8
1DIM
100
AcDbLine
 10
4966.250249664528
 20
315.2649417670823
 30
0.0000000001127424
 11
4966.250249664528
 21
322.2590002813918
 31
0.0000000001127424
1001
ACAD
1000
DSTYLE
1002
{
1070
    40
1040
1.3
1070
    45
1040
0.5
1002
}
  0
LINE
  5
E4BC
330
18
100
AcDbEntity
  8
1DIM
100
AcDbLine
 10
4811.250249664528
 20
446.1115630006784
 30
0.0000000001127424
 11
4811.250249664528
 21
381.3115630006784
 31
0.0000000001127424
1001
ACAD
1000
DSTYLE
1002
{
1070
    40
1040
1.3
1002
}
  0
LINE
  5
E4BD
330
18
100
AcDbEntity
  8
1DIM
100
AcDbLine
 10
4949.250249664528
 20
412.2526617422504
 30
0.0000000001127424
 11
4949.250249664528
 21
381.3115630006784
 31
0.0000000001127424
1001
ACAD
1000
DSTYLE
1002
{
1070
    40
1040
1.3
1002
}
  0
LINE
  5
E4BE
330
18
100
AcDbEntity
  8
1DIM
100
AcDbLine
 10
4813.850249664529
 20
382.6115630006784
 30
0.0000000001127424
 11
4946.650249664528
 21
382.6115630006784
 31
0.0000000001127424
1001
ACAD
1000
DSTYLE
1002
{
1070
    40
1040
1.3
1002
}
  0
LINE
  5
E4C2
330
18
100
AcDbEntity
  8
1DIM
100
AcDbLine
 10
4798.582864091768
 20
446.1695438523611
 30
0.0000000001127424
 11
4798.582864091768
 21
371.3115630006784
 31
0.0000000001127424
1001
ACAD
1000
DSTYLE
1002
{
1070
    40
1040
1.3
1002
}
  0
LINE
  5
E4C3
330
18
100
AcDbEntity
  8
1DIM
100
AcDbLine
 10
4949.250249664528
 20
412.2526521600635
 30
0.0000000001127424
 11
4949.250249664528
 21
371.3115630006784
 31
0.0000000001127424
1001
ACAD
1000
DSTYLE
1002
{
1070
    40
1040
1.3
1002
}
  0
LINE
  5
E4C4
330
18
100
AcDbEntity
  8
1DIM
100
AcDbLine
 10
4801.182864091768
 20
372.6115630006784
 30
0.0000000001127424
 11
4946.650249664528
 21
372.6115630006784
 31
0.0000000001127424
1001
ACAD
1000
DSTYLE
1002
{
1070
    40
1040
1.3
1002
}
  0
LINE
  5
E4C8
330
18
100
AcDbEntity
  8
0
  6
BYBLOCK
100
AcDbLine
 10
4966.946917558528
 20
429.4811122113557
 30
0.0000000001127424
 11
4966.250249664528
 21
426.8811122113557
 31
0.0000000001127424
  0
LINE
  5
E4C9
330
18
100
AcDbEntity
  8
0
  6
BYBLOCK
100
AcDbLine
 10
4966.250249664528
 20
426.8811122113557
 30
0.0000000001127424
 11
4965.553581770529
 21
429.4811122113557
 31
0.0000000001127424
  0
LINE
  5
E4CA
330
18
100
AcDbEntity
  8
0
  6
BYBLOCK
100
AcDbLine
 10
4966.250249664528
 20
426.8811122113557
 30
0.0000000001127424
 11
4966.250249664528
 21
429.4811122113557
 31
0.0000000001127424
  0
LINE
  5
E4CB
330
18
100
AcDbEntity
  8
0
  6
BYBLOCK
100
AcDbLine
 10
4965.553581770529
 20
465.0115630006784
 30
0.0000000001127424
 11
4966.250249664528
 21
467.6115630006784
 31
0.0000000001127424
  0
LINE
  5
E4CC
330
18
100
AcDbEntity
  8
0
  6
BYBLOCK
100
AcDbLine
 10
4966.250249664528
 20
467.6115630006784
 30
0.0000000001127424
 11
4966.946917558528
 21
465.0115630006784
 31
0.0000000001127424
  0
LINE
  5
E4CD
330
18
100
AcDbEntity
  8
0
  6
BYBLOCK
100
AcDbLine
 10
4966.250249664528
 20
467.6115630006784
 30
0.0000000001127424
 11
4966.250249664528
 21
465.0115630006784
 31
0.0000000001127424
  0
TEXT
  5
E4CE
330
18
100
AcDbEntity
  8
1DIM
  6
CONTINUOUS
100
AcDbText
 10
4965.340249664529
 20
440.8005042726845
 30
0.0000000001127424
 40
4.55
  1
40.5
 50
90.0
100
AcDbText
1001
ACAD
1000
DSTYLE
1002
{
1070
    40
1040
1.3
1070
    45
1040
0.5
1002
}
  0
LINE
  5
E4CF
330
18
100
AcDbEntity
  8
0
  6
BYBLOCK
100
AcDbLine
 10
4976.946917558528
 20
411.0997128205773
 30
0.0000000001127424
 11
4976.250249664528
 21
408.4997128205773
 31
0.0000000001127424
  0
LINE
  5
E4D0
330
18
100
AcDbEntity
  8
0
  6
BYBLOCK
100
AcDbLine
 10
4976.250249664528
 20
408.4997128205773
 30
0.0000000001127424
 11
4975.553581770529
 21
411.0997128205773
 31
0.0000000001127424
  0
LINE
  5
E4D1
330
18
100
AcDbEntity
  8
0
  6
BYBLOCK
100
AcDbLine
 10
4976.250249664528
 20
408.4997128205773
 30
0.0000000001127424
 11
4976.250249664528
 21
411.0997128205773
 31
0.0000000001127424
  0
LINE
  5
E4D2
330
18
100
AcDbEntity
  8
0
  6
BYBLOCK
100
AcDbLine
 10
4975.553581770529
 20
465.0115630006784
 30
0.0000000001127424
 11
4976.250249664528
 21
467.6115630006784
 31
0.0000000001127424
  0
LINE
  5
E4D3
330
18
100
AcDbEntity
  8
0
  6
BYBLOCK
100
AcDbLine
 10
4976.250249664528
 20
467.6115630006784
 30
0.0000000001127424
 11
4976.946917558528
 21
465.0115630006784
 31
0.0000000001127424
  0
LINE
  5
E4D4
330
18
100
AcDbEntity
  8
0
  6
BYBLOCK
100
AcDbLine
 10
4976.250249664528
 20
467.6115630006784
 30
0.0000000001127424
 11
4976.250249664528
 21
465.0115630006784
 31
0.0000000001127424
  0
TEXT
  5
E4D5
330
18
100
AcDbEntity
  8
1DIM
  6
CONTINUOUS
100
AcDbText
 10
4975.340249664528
 20
434.2471193921101
 30
0.0000000001127424
 40
4.55
  1
59
 50
90.0
100
AcDbText
1001
ACAD
1000
DSTYLE
1002
{
1070
    40
1040
1.3
1070
    45
1040
0.5
1002
}
  0
LINE
  5
E4D6
330
18
100
AcDbEntity
  8
0
  6
BYBLOCK
100
AcDbLine
 10
4965.553581770529
 20
312.6649417670823
 30
0.0000000001127424
 11
4966.250249664528
 21
315.2649417670823
 31
0.0000000001127424
  0
LINE
  5
E4D7
330
18
100
AcDbEntity
  8
0
  6
BYBLOCK
100
AcDbLine
 10
4966.250249664528
 20
315.2649417670823
 30
0.0000000001127424
 11
4966.946917558528
 21
312.6649417670823
 31
0.0000000001127424
  0
LINE
  5
E4D8
330
18
100
AcDbEntity
  8
0
  6
BYBLOCK
100
AcDbLine
 10
4966.250249664528
 20
315.2649417670823
 30
0.0000000001127424
 11
4966.250249664528
 21
312.6649417670823
 31
0.0000000001127424
  0
LINE
  5
E4D9
330
18
100
AcDbEntity
  8
0
  6
BYBLOCK
100
AcDbLine
 10
4966.946917558528
 20
324.8590002813918
 30
0.0000000001127424
 11
4966.250249664528
 21
322.2590002813918
 31
0.0000000001127424
  0
LINE
  5
E4DA
330
18
100
AcDbEntity
  8
0
  6
BYBLOCK
100
AcDbLine
 10
4966.250249664528
 20
322.2590002813918
 30
0.0000000001127424
 11
4965.553581770529
 21
324.8590002813918
 31
0.0000000001127424
  0
LINE
  5
E4DB
330
18
100
AcDbEntity
  8
0
  6
BYBLOCK
100
AcDbLine
 10
4966.250249664528
 20
322.2590002813918
 30
0.0000000001127424
 11
4966.250249664528
 21
324.8590002813918
 31
0.0000000001127424
  0
TEXT
  5
E4DC
330
18
100
AcDbEntity
  8
1DIM
  6
CONTINUOUS
100
AcDbText
 10
4965.340249664529
 20
317.2453043575715
 30
0.0000000001127424
 40
4.55
  1
7
 50
90.0
100
AcDbText
1001
ACAD
1000
DSTYLE
1002
{
1070
    40
1040
1.3
1070
    45
1040
0.5
1002
}
  0
LINE
  5
E4DD
330
18
100
AcDbEntity
  8
0
  6
BYBLOCK
100
AcDbLine
 10
4813.850249664529
 20
381.9148951066784
 30
0.0000000001127424
 11
4811.250249664528
 21
382.6115630006784
 31
0.0000000001127424
  0
LINE
  5
E4DE
330
18
100
AcDbEntity
  8
0
  6
BYBLOCK
100
AcDbLine
 10
4811.250249664528
 20
382.6115630006784
 30
0.0000000001127424
 11
4813.850249664529
 21
383.3082308946784
 31
0.0000000001127424
  0
LINE
  5
E4DF
330
18
100
AcDbEntity
  8
0
  6
BYBLOCK
100
AcDbLine
 10
4811.250249664528
 20
382.6115630006784
 30
0.0000000001127424
 11
4813.850249664529
 21
382.6115630006784
 31
0.0000000001127424
  0
LINE
  5
E4E0
330
18
100
AcDbEntity
  8
0
  6
BYBLOCK
100
AcDbLine
 10
4946.650249664528
 20
383.3082308946784
 30
0.0000000001127424
 11
4949.250249664528
 21
382.6115630006784
 31
0.0000000001127424
  0
LINE
  5
E4E1
330
18
100
AcDbEntity
  8
0
  6
BYBLOCK
100
AcDbLine
 10
4949.250249664528
 20
382.6115630006784
 30
0.0000000001127424
 11
4946.650249664528
 21
381.9148951066784
 31
0.0000000001127424
  0
LINE
  5
E4E2
330
18
100
AcDbEntity
  8
0
  6
BYBLOCK
100
AcDbLine
 10
4949.250249664528
 20
382.6115630006784
 30
0.0000000001127424
 11
4946.650249664528
 21
382.6115630006784
 31
0.0000000001127424
  0
TEXT
  5
E4E3
330
18
100
AcDbEntity
  8
1DIM
  6
CONTINUOUS
100
AcDbText
 10
4871.47300524444
 20
383.5215630006784
 30
0.0000000001127424
 40
4.55
  1
138
100
AcDbText
1001
ACAD
1000
DSTYLE
1002
{
1070
    40
1040
1.3
1002
}
  0
LINE
  5
E4E4
330
18
100
AcDbEntity
  8
0
  6
BYBLOCK
100
AcDbLine
 10
4801.182864091768
 20
371.9148951066784
 30
0.0000000001127424
 11
4798.582864091768
 21
372.6115630006784
 31
0.0000000001127424
  0
LINE
  5
E4E5
330
18
100
AcDbEntity
  8
0
  6
BYBLOCK
100
AcDbLine
 10
4798.582864091768
 20
372.6115630006784
 30
0.0000000001127424
 11
4801.182864091768
 21
373.3082308946784
 31
0.0000000001127424
  0
LINE
  5
E4E6
330
18
100
AcDbEntity
  8
0
  6
BYBLOCK
100
AcDbLine
 10
4798.582864091768
 20
372.6115630006784
 30
0.0000000001127424
 11
4801.182864091768
 21
372.6115630006784
 31
0.0000000001127424
  0
LINE
  5
E4E7
330
18
100
AcDbEntity
  8
0
  6
BYBLOCK
100
AcDbLine
 10
4946.650249664528
 20
373.3082308946784
 30
0.0000000001127424
 11
4949.250249664528
 21
372.6115630006784
 31
0.0000000001127424
  0
LINE
  5
E4E8
330
18
100
AcDbEntity
  8
0
  6
BYBLOCK
100
AcDbLine
 10
4949.250249664528
 20
372.6115630006784
 30
0.0000000001127424
 11
4946.650249664528
 21
371.9148951066784
 31
0.0000000001127424
  0
LINE
  5
E4E9
330
18
100
AcDbEntity
  8
0
  6
BYBLOCK
100
AcDbLine
 10
4949.250249664528
 20
372.6115630006784
 30
0.0000000001127424
 11
4946.650249664528
 21
372.6115630006784
 31
0.0000000001127424
  0
TEXT
  5
E4EA
330
18
100
AcDbEntity
  8
1DIM
  6
CONTINUOUS
100
AcDbText
 10
4868.536202853746
 20
373.5215630006784
 30
0.0000000001127424
 40
4.55
  1
150.5
100
AcDbText
1001
ACAD
1000
DSTYLE
1002
{
1070
    40
1040
1.3
1002
}
  0
VIEWPORT
  5
57
330
15
100
AcDbEntity
 67
     1
  8
0
100
AcDbViewport
 68
     1
 10
0.0
 20
0.0
 30
0.0
 40
555.8298653610772
 41
297.0
 68
     1
 69
     1
1001
ACAD
1000
MVIEW
1002
{
1070
    16
1010
0.0
1020
0.0
1030
0.0
1010
0.0
1020
0.0
1030
1.0
1040
0.0
1040
297.0
1040
5.728000000000009
1040
25.339
1040
50.0
1040
0.0
1040
0.0
1070
    16
1070
   100
1070
     0
1070
     1
1070
     0
1070
     0
1070
     0
1070
     0
1040
0.0
1040
0.0
1040
0.0
1040
10.0
1040
10.0
1040
10.0
1040
10.0
1070
     0
1002
{
1002
}
1002
}
  0
ENDSEC
  0
SECTION
  2
OBJECTS
  0
DICTIONARY
  5
C
330
0
100
AcDbDictionary
  3
ACAD_CIP_PREVIOUS_PRODUCT_INFO
350
AEA8
  3
ACAD_COLOR
350
18D
  3
ACAD_GROUP
350
D
  3
ACAD_LAYOUT
350
18E
  3
ACAD_MATERIAL
350
18C
  3
ACAD_MLEADERSTYLE
350
9583
  3
ACAD_MLINESTYLE
350
1B
  3
ACAD_PLOTSETTINGS
350
18F
  3
ACAD_SCALELIST
350
9561
  3
ACAD_VISUALSTYLE
350
9550
  3
ACDBHEADERROUNDTRIPXREC
350
E4EB
  3
ACDBVARIABLEDICTIONARY
350
37
  3
CONTENTDICTIONARY
350
D8
  3
DRAWINGVARIABLESDICT
350
20
  3
DWGPROPS
350
E4EE
1001
ACAD
1000
TREAT_AS_HARD
1070
     0
  0
DICTIONARY
  5
96D9
330
2
100
AcDbDictionary
  3
ACAD_LAYERSTATES
360
96DA
1001
ACAD
1000
TREAT_AS_HARD
1070
     1
  0
DICTIONARY
  5
9593
330
E
100
AcDbDictionary
  3
ADSK_XREC_LAYER_RECONCILED
360
9594
1001
ACAD
1000
TREAT_AS_HARD
1070
     1
  0
DICTIONARY
  5
9595
330
29
100
AcDbDictionary
  3
ADSK_XREC_LAYER_RECONCILED
360
9596
1001
ACAD
1000
TREAT_AS_HARD
1070
     1
  0
DICTIONARY
  5
9597
330
31
100
AcDbDictionary
  3
ADSK_XREC_LAYER_RECONCILED
360
9598
1001
ACAD
1000
TREAT_AS_HARD
1070
     1
  0
DICTIONARY
  5
959D
330
243
100
AcDbDictionary
  3
ADSK_XREC_LAYER_RECONCILED
360
959E
1001
ACAD
1000
TREAT_AS_HARD
1070
     1
  0
DICTIONARY
  5
95A3
330
24E
100
AcDbDictionary
  3
ADSK_XREC_LAYER_RECONCILED
360
95A4
1001
ACAD
1000
TREAT_AS_HARD
1070
     1
  0
DICTIONARY
  5
88F
330
18
100
AcDbDictionary
  3
ACAD_SORTENTS
360
890
1001
ACAD
1000
TREAT_AS_HARD
1070
     1
  0
XRECORD
  5
AEA8
102
{ACAD_REACTORS
330
C
102
}
330
C
100
AcDbXrecord
300
ACDLT
300
2012
300
ACDLT_F_S
  0
DICTIONARY
  5
18D
102
{ACAD_REACTORS
330
C
102
}
330
C
100
AcDbDictionary
1001
ACAD
1000
TREAT_AS_HARD
1070
     0
  0
DICTIONARY
  5
D
102
{ACAD_REACTORS
330
C
102
}
330
C
100
AcDbDictionary
1001
ACAD
1000
TREAT_AS_HARD
1070
     0
  0
DICTIONARY
  5
18E
102
{ACAD_REACTORS
330
C
102
}
330
C
100
AcDbDictionary
1001
ACAD
1000
TREAT_AS_HARD
1070
     0
  0
DICTIONARY
  5
18C
102
{ACAD_REACTORS
330
C
102
}
330
C
100
AcDbDictionary
  3
BYBLOCK
350
9540
  3
BYLAYER
350
9538
  3
GLOBAL
350
9548
1001
ACAD
1000
TREAT_AS_HARD
1070
     0
  0
DICTIONARY
  5
9583
102
{ACAD_REACTORS
330
C
102
}
330
C
100
AcDbDictionary
  3
STANDARD
350
9584
1001
ACAD
1000
TREAT_AS_HARD
1070
     0
  0
DICTIONARY
  5
1B
102
{ACAD_REACTORS
330
C
102
}
330
C
100
AcDbDictionary
  3
STANDARD
350
1C
1001
ACAD
1000
TREAT_AS_HARD
1070
     0
  0
DICTIONARY
  5
18F
102
{ACAD_REACTORS
330
C
102
}
330
C
100
AcDbDictionary
1001
ACAD
1000
TREAT_AS_HARD
1070
     0
  0
DICTIONARY
  5
9561
102
{ACAD_REACTORS
330
C
102
}
330
C
100
AcDbDictionary
  3
A0
350
9562
  3
A1
350
9563
  3
A2
350
9564
  3
A3
350
9565
  3
A4
350
9566
  3
A5
350
9567
  3
A6
350
9568
  3
A7
350
9569
  3
A8
350
956A
  3
A9
350
956B
  3
B0
350
956C
  3
B1
350
956D
  3
B2
350
956E
  3
B3
350
956F
  3
B4
350
9570
  3
B5
350
9571
  3
B6
350
9572
  3
B7
350
9573
  3
B8
350
9574
  3
B9
350
9575
  3
C0
350
9576
  3
C1
350
9577
  3
C2
350
9578
  3
C3
350
9579
  3
C4
350
957A
  3
C5
350
957B
  3
C6
350
957C
  3
C7
350
957D
  3
C8
350
957E
  3
C9
350
957F
  3
D0
350
9580
  3
D1
350
9581
  3
D2
350
9582
1001
ACAD
1000
TREAT_AS_HARD
1070
     0
  0
DICTIONARY
  5
9550
102
{ACAD_REACTORS
330
C
102
}
330
C
100
AcDbDictionary
  3
2DWIREFRAME
350
9556
  3
3D_HIDDEN
350
9558
  3
3DWIREFRAME
350
9557
  3
BASIC
350
9555
  3
BRIGHTEN
350
955C
  3
COLORCHANGE
350
9560
  3
CONCEPTUAL
350
9559
  3
DIM
350
955B
  3
EDGECOLOROFF
350
A211
  3
FACEPATTERN
350
955F
  3
FLAT
350
9551
  3
FLATWITHEDGES
350
9552
  3
GOURAUD
350
9553
  3
GOURAUDWITHEDGES
350
9554
  3
HIDDEN
350
A260
  3
JITTEROFF
350
A20F
  3
LINEPATTERN
350
955E
  3
MODELING
350
A266
  3
OVERHANGOFF
350
A210
  3
REALISTIC
350
955A
  3
SHADED
350
A265
  3
SHADED_WITH_EDGES
350
A264
  3
SHADES_OF_GRAY
350
A261
  3
SKETCHY
350
A262
  3
THICKEN
350
955D
  3
WIREFRAME
350
A25F
  3
X-RAY
350
A263
1001
ACAD
1000
TREAT_AS_HARD
1070
     0
  0
DICTIONARY
  5
E4EB
102
{ACAD_REACTORS
330
C
102
}
330
C
100
AcDbDictionary
  3
COLORDICT
350
E4EC
  3
MATERIALDICT
350
E4ED
1001
ACAD
1000
TREAT_AS_HARD
1070
     0
  0
DICTIONARY
  5
37
102
{ACAD_REACTORS
330
C
102
}
330
C
100
AcDbDictionary
  3
CANNOSCALE
350
AAE0
  3
CMLEADERSTYLE
350
9627
  3
CTABLESTYLE
350
29E
  3
DIMADEC
350
38
  3
DIMASSOC
350
1CE
  3
HIDETEXT
350
704E
  3
INDEXCTL
350
962A
  3
INTERSECTIONCOLOR
350
7052
  3
INTERSECTIONDISPLAY
350
7051
  3
MSLTSCALE
350
AB30
  3
OBSCOLOR
350
704F
  3
OBSLTYPE
350
7050
  3
PROJECTNAME
350
1CF
  3
SORTENTS
350
9629
  3
XCLIPFRAME
350
E3F8
1001
ACAD
1000
TREAT_AS_HARD
1070
     0
  0
DICTIONARY
  5
D8
102
{ACAD_REACTORS
330
C
102
}
330
C
100
AcDbDictionary
1001
ACAD
1000
TREAT_AS_HARD
1070
     0
  0
DICTIONARY
  5
20
102
{ACAD_REACTORS
330
C
102
}
330
C
100
AcDbDictionary
1001
DRAWINGVARIABLESXDATA
1000
POLARANG
1000
0.261799387799149410000000
1000
POLARMODE
1000
1
1000
POLARSTYLE
1000
1
1001
ACAD
1000
TREAT_AS_HARD
1070
     0
  0
XRECORD
  5
E4EE
102
{ACAD_REACTORS
330
C
102
}
330
C
100
AcDbXrecord
  1
DWGPROPS COOKIE
  2

  3

  4

  6

  7

  8
3684
  9

300
=
301
=
302
=
303
=
304
=
305
=
306
=
307
=
308
=
309
=
 40
0.0
 41
2451318.246352917
 42
2458159.060893542
  1

 90
        0
  0
DICTIONARY
  5
96DA
102
{ACAD_REACTORS
330
96D9
102
}
330
96D9
100
AcDbDictionary
1001
ACAD
1000
TREAT_AS_HARD
1070
     0
  0
ACAD_PROXY_OBJECT
  5
9594
102
{ACAD_REACTORS
330
9593
102
}
330
9593
100
AcDbZombieObject
 90
      499
 91
      514
 93
       34
310
40C8804040
  0
ACAD_PROXY_OBJECT
  5
9596
102
{ACAD_REACTORS
330
9595
102
}
330
9595
100
AcDbZombieObject
 90
      499
 91
      514
 93
       34
310
40C8804040
  0
ACAD_PROXY_OBJECT
  5
9598
102
{ACAD_REACTORS
330
9597
102
}
330
9597
100
AcDbZombieObject
 90
      499
 91
      514
 93
       34
310
40C8804040
  0
ACAD_PROXY_OBJECT
  5
959E
102
{ACAD_REACTORS
330
959D
102
}
330
959D
100
AcDbZombieObject
 90
      499
 91
      514
 93
       34
310
40C8804040
  0
ACAD_PROXY_OBJECT
  5
95A4
102
{ACAD_REACTORS
330
95A3
102
}
330
95A3
100
AcDbZombieObject
 90
      499
 91
      514
 93
       34
310
40C8804040
  0
SORTENTSTABLE
  5
890
102
{ACAD_REACTORS
330
88F
102
}
330
88F
100
AcDbSortentsTable
330
18
331
E2F2
  5
E300
331
E2F3
  5
E301
331
E2F4
  5
E302
331
E2F5
  5
E303
331
E2F6
  5
E304
331
E2F7
  5
E305
331
E2F8
  5
E306
331
E2F9
  5
E307
331
E2FA
  5
E308
331
E2FC
  5
E309
331
0
  5
E30A
331
0
  5
E30B
331
0
  5
E30C
331
E300
  5
E499
331
E301
  5
E49A
331
E302
  5
E49B
331
E303
  5
E49C
331
E304
  5
E49D
331
E305
  5
E49E
331
E306
  5
E49F
331
E307
  5
E4A0
331
E308
  5
E4A1
331
E309
  5
E4A2
331
E30A
  5
E4A3
331
E30B
  5
E4A4
331
E30C
  5
E4A5
331
E30D
  5
E4A6
331
E30E
  5
E4A7
331
E30F
  5
E4A8
331
E310
  5
E4A9
331
E311
  5
E4AD
331
E312
  5
E4AE
331
E313
  5
E4AF
331
E315
  5
E4BA
331
E316
  5
E4BB
331
E317
  5
E4BC
331
E318
  5
E4BD
331
E319
  5
E4BE
331
E31A
  5
E4BF
331
E31B
  5
E4C0
331
E31C
  5
E4C1
331
0
  5
E491
331
0
  5
E492
331
E31F
  5
E4D6
331
E320
  5
E4D7
331
E323
  5
E4DB
331
E324
  5
E4DC
331
E325
  5
E4DD
331
E326
  5
E4DE
331
E327
  5
E4DF
331
E328
  5
E4E0
331
E32A
  5
E4E1
331
E32B
  5
E4E2
331
E32D
  5
E4E3
331
E32F
  5
E4E4
331
E330
  5
E4E5
331
E333
  5
E4E6
331
E334
  5
E4E7
331
E335
  5
E4E8
331
E336
  5
E4E9
331
E337
  5
E4EA
331
E491
  5
E2F2
331
E492
  5
E2F3
331
E493
  5
E2F4
331
0
  5
E2F5
331
0
  5
E2F6
331
0
  5
E2F7
331
E497
  5
E4B3
331
E498
  5
E4B4
331
E499
  5
E4B5
331
E49A
  5
E4B6
331
E49B
  5
E4B7
331
E49C
  5
E4B8
331
E49D
  5
E4B9
331
E49E
  5
E4D8
331
E49F
  5
E4D9
331
E4A0
  5
E4DA
331
E4A1
  5
E2F8
331
E4A2
  5
E2F9
331
E4A3
  5
E2FA
331
E4A4
  5
E2FC
331
E4A5
  5
E2FD
331
E4A6
  5
E2FE
331
E4A7
  5
E2FF
331
E4A8
  5
E30D
331
E4A9
  5
E30E
331
E4AA
  5
E30F
331
0
  5
E310
331
0
  5
E311
331
0
  5
E312
331
E4AE
  5
E31E
331
E4AF
  5
E324
331
E4B0
  5
E325
331
0
  5
E317
331
0
  5
E318
331
0
  5
E319
331
E4B4
  5
E330
331
E4B5
  5
E333
331
E4B6
  5
E334
331
E4B7
  5
E335
331
E4B8
  5
E336
331
0
  5
E31F
331
0
  5
E320
331
0
  5
E323
331
E4BC
  5
E4C2
331
E4BD
  5
E4C3
331
E4BE
  5
E4C4
331
0
  5
E4AA
331
0
  5
E4AB
331
0
  5
E4AC
331
E4C2
  5
E4CC
331
E4C3
  5
E4CD
331
E4C4
  5
E4CE
331
0
  5
E4B0
331
0
  5
E4B1
331
0
  5
E4B2
331
E4C8
  5
E313
331
E4C9
  5
E315
331
E4CA
  5
E316
331
E4CB
  5
E31A
331
E4CC
  5
E31B
331
E4CD
  5
E31C
331
E4CE
  5
E31D
331
E4CF
  5
E326
331
E4D0
  5
E327
331
E4D1
  5
E328
331
E4D2
  5
E32A
331
E4D3
  5
E32B
331
E4D4
  5
E32D
331
E4D5
  5
E32F
331
E4D6
  5
E337
331
E4D7
  5
E493
331
E4D8
  5
E494
331
E4D9
  5
E495
331
E4DA
  5
E496
331
E4DB
  5
E497
331
E4DC
  5
E498
331
E4DD
  5
E4C5
331
E4DE
  5
E4C6
331
E4DF
  5
E4C7
331
E4E0
  5
E4C8
331
E4E1
  5
E4C9
331
E4E2
  5
E4CA
331
E4E3
  5
E4CB
331
E4E4
  5
E4CF
331
E4E5
  5
E4D0
331
E4E6
  5
E4D1
331
E4E7
  5
E4D2
331
E4E8
  5
E4D3
331
E4E9
  5
E4D4
331
E4EA
  5
E4D5
  0
MATERIAL
  5
9540
102
{ACAD_REACTORS
330
18C
102
}
102
{ACAD_XDICTIONARY
360
E689
102
}
330
18C
100
AcDbMaterial
  1
BYBLOCK
 72
     0
 73
     2
 43
0.0208333333333333
 43
0.0
 43
0.0
 43
0.0
 43
0.0
 43
0.0208333333333333
 43
0.0
 43
0.0
 43
0.0
 43
0.0
 43
1.0
 43
0.0
 43
0.0
 43
0.0
 43
0.0
 43
1.0
 77
     0
 78
     2
 47
0.0208333333333333
 47
0.0
 47
0.0
 47
0.0
 47
0.0
 47
0.0208333333333333
 47
0.0
 47
0.0
 47
0.0
 47
0.0
 47
1.0
 47
0.0
 47
0.0
 47
0.0
 47
0.0
 47
1.0
171
     0
172
     2
 49
0.0208333333333333
 49
0.0
 49
0.0
 49
0.0
 49
0.0
 49
0.0208333333333333
 49
0.0
 49
0.0
 49
0.0
 49
0.0
 49
1.0
 49
0.0
 49
0.0
 49
0.0
 49
0.0
 49
1.0
175
     0
176
     2
142
0.0208333333333333
142
0.0
142
0.0
142
0.0
142
0.0
142
0.0208333333333333
142
0.0
142
0.0
142
0.0
142
0.0
142
1.0
142
0.0
142
0.0
142
0.0
142
0.0
142
1.0
179
     0
270
     2
144
0.0208333333333333
144
0.0
144
0.0
144
0.0
144
0.0
144
0.0208333333333333
144
0.0
144
0.0
144
0.0
144
0.0
144
1.0
144
0.0
144
0.0
144
0.0
144
0.0
144
1.0
274
     2
147
0.0208333333333333
147
0.0
147
0.0
147
0.0
147
0.0
147
0.0208333333333333
147
0.0
147
0.0
147
0.0
147
0.0
147
1.0
147
0.0
147
0.0
147
0.0
147
0.0
147
1.0
  0
MATERIAL
  5
9538
102
{ACAD_REACTORS
330
18C
102
}
102
{ACAD_XDICTIONARY
360
E68B
102
}
330
18C
100
AcDbMaterial
  1
BYLAYER
 72
     0
 73
     2
 43
0.0208333333333333
 43
0.0
 43
0.0
 43
0.0
 43
0.0
 43
0.0208333333333333
 43
0.0
 43
0.0
 43
0.0
 43
0.0
 43
1.0
 43
0.0
 43
0.0
 43
0.0
 43
0.0
 43
1.0
 77
     0
 78
     2
 47
0.0208333333333333
 47
0.0
 47
0.0
 47
0.0
 47
0.0
 47
0.0208333333333333
 47
0.0
 47
0.0
 47
0.0
 47
0.0
 47
1.0
 47
0.0
 47
0.0
 47
0.0
 47
0.0
 47
1.0
171
     0
172
     2
 49
0.0208333333333333
 49
0.0
 49
0.0
 49
0.0
 49
0.0
 49
0.0208333333333333
 49
0.0
 49
0.0
 49
0.0
 49
0.0
 49
1.0
 49
0.0
 49
0.0
 49
0.0
 49
0.0
 49
1.0
175
     0
176
     2
142
0.0208333333333333
142
0.0
142
0.0
142
0.0
142
0.0
142
0.0208333333333333
142
0.0
142
0.0
142
0.0
142
0.0
142
1.0
142
0.0
142
0.0
142
0.0
142
0.0
142
1.0
179
     0
270
     2
144
0.0208333333333333
144
0.0
144
0.0
144
0.0
144
0.0
144
0.0208333333333333
144
0.0
144
0.0
144
0.0
144
0.0
144
1.0
144
0.0
144
0.0
144
0.0
144
0.0
144
1.0
274
     2
147
0.0208333333333333
147
0.0
147
0.0
147
0.0
147
0.0
147
0.0208333333333333
147
0.0
147
0.0
147
0.0
147
0.0
147
1.0
147
0.0
147
0.0
147
0.0
147
0.0
147
1.0
  0
MATERIAL
  5
9548
102
{ACAD_REACTORS
330
18C
102
}
102
{ACAD_XDICTIONARY
360
E68D
102
}
330
18C
100
AcDbMaterial
  1
GLOBAL
 72
     0
 73
     2
 43
0.0208333333333333
 43
0.0
 43
0.0
 43
0.0
 43
0.0
 43
0.0208333333333333
 43
0.0
 43
0.0
 43
0.0
 43
0.0
 43
1.0
 43
0.0
 43
0.0
 43
0.0
 43
0.0
 43
1.0
 77
     0
 78
     2
 47
0.0208333333333333
 47
0.0
 47
0.0
 47
0.0
 47
0.0
 47
0.0208333333333333
 47
0.0
 47
0.0
 47
0.0
 47
0.0
 47
1.0
 47
0.0
 47
0.0
 47
0.0
 47
0.0
 47
1.0
171
     0
172
     2
 49
0.0208333333333333
 49
0.0
 49
0.0
 49
0.0
 49
0.0
 49
0.0208333333333333
 49
0.0
 49
0.0
 49
0.0
 49
0.0
 49
1.0
 49
0.0
 49
0.0
 49
0.0
 49
0.0
 49
1.0
175
     0
176
     2
142
0.0208333333333333
142
0.0
142
0.0
142
0.0
142
0.0
142
0.0208333333333333
142
0.0
142
0.0
142
0.0
142
0.0
142
1.0
142
0.0
142
0.0
142
0.0
142
0.0
142
1.0
179
     0
270
     2
144
0.0208333333333333
144
0.0
144
0.0
144
0.0
144
0.0
144
0.0208333333333333
144
0.0
144
0.0
144
0.0
144
0.0
144
1.0
144
0.0
144
0.0
144
0.0
144
0.0
144
1.0
274
     2
147
0.0208333333333333
147
0.0
147
0.0
147
0.0
147
0.0
147
0.0208333333333333
147
0.0
147
0.0
147
0.0
147
0.0
147
1.0
147
0.0
147
0.0
147
0.0
147
0.0
147
1.0
  0
ACAD_PROXY_OBJECT
  5
9584
102
{ACAD_REACTORS
330
9583
102
}
330
9583
100
AcDbZombieObject
 90
      499
 91
      511
 93
      610
310
40901902A4063FBFFFFFE000000000000002040AD7A3703D0AD73F4214DD185B99185C990000000000000104090141901A00000000000004100000000000000041025764000000000000300FC0
340
12
340
0
340
F
340
0
 94
        0
1001
ACAD_MLEADERVER
1070
     2
  0
MLINESTYLE
  5
1C
102
{ACAD_REACTORS
330
1B
102
}
330
1B
100
AcDbMlineStyle
  2
STANDARD
 70
     0
  3

 62
   256
 51
90.0
 52
90.0
 71
     2
 49
0.5
 62
   256
  6
BYLAYER
 49
-0.5
 62
   256
  6
BYLAYER
  0
ACAD_PROXY_OBJECT
  5
9562
102
{ACAD_REACTORS
330
9561
102
}
330
9561
100
AcDbZombieObject
 90
      499
 91
      510
 93
       41
310
903313A31580
  0
ACAD_PROXY_OBJECT
  5
9563
102
{ACAD_REACTORS
330
9561
102
}
330
9561
100
AcDbZombieObject
 90
      499
 91
      510
 93
      105
310
903313A324000000000000004000
  0
ACAD_PROXY_OBJECT
  5
9564
102
{ACAD_REACTORS
330
9561
102
}
330
9561
100
AcDbZombieObject
 90
      499
 91
      510
 93
      105
310
903313A344000000000000104000
  0
ACAD_PROXY_OBJECT
  5
9565
102
{ACAD_REACTORS
330
9561
102
}
330
9561
100
AcDbZombieObject
 90
      499
 91
      510
 93
      105
310
903313A354000000000000144000
  0
ACAD_PROXY_OBJECT
  5
9566
102
{ACAD_REACTORS
330
9561
102
}
330
9561
100
AcDbZombieObject
 90
      499
 91
      510
 93
      105
310
903313A384000000000000204000
  0
ACAD_PROXY_OBJECT
  5
9567
102
{ACAD_REACTORS
330
9561
102
}
330
9561
100
AcDbZombieObject
 90
      499
 91
      510
 93
      113
310
904313A31304000000000000244000
  0
ACAD_PROXY_OBJECT
  5
9568
102
{ACAD_REACTORS
330
9561
102
}
330
9561
100
AcDbZombieObject
 90
      499
 91
      510
 93
      113
310
904313A31364000000000000304000
  0
ACAD_PROXY_OBJECT
  5
9569
102
{ACAD_REACTORS
330
9561
102
}
330
9561
100
AcDbZombieObject
 90
      499
 91
      510
 93
      113
310
904313A32304000000000000344000
  0
ACAD_PROXY_OBJECT
  5
956A
102
{ACAD_REACTORS
330
9561
102
}
330
9561
100
AcDbZombieObject
 90
      499
 91
      510
 93
      113
310
904313A333040000000000003E4000
  0
ACAD_PROXY_OBJECT
  5
956B
102
{ACAD_REACTORS
330
9561
102
}
330
9561
100
AcDbZombieObject
 90
      499
 91
      510
 93
      113
310
904313A34304000000000000444000
  0
ACAD_PROXY_OBJECT
  5
956C
102
{ACAD_REACTORS
330
9561
102
}
330
9561
100
AcDbZombieObject
 90
      499
 91
      510
 93
      113
310
904313A35304000000000000494000
  0
ACAD_PROXY_OBJECT
  5
956D
102
{ACAD_REACTORS
330
9561
102
}
330
9561
100
AcDbZombieObject
 90
      499
 91
      510
 93
      121
310
905313A3130304000000000000594000
  0
ACAD_PROXY_OBJECT
  5
956E
102
{ACAD_REACTORS
330
9561
102
}
330
9561
100
AcDbZombieObject
 90
      499
 91
      510
 93
      105
310
903323A310000000000000010100
  0
ACAD_PROXY_OBJECT
  5
956F
102
{ACAD_REACTORS
330
9561
102
}
330
9561
100
AcDbZombieObject
 90
      499
 91
      510
 93
      105
310
903343A310000000000000410100
  0
ACAD_PROXY_OBJECT
  5
9570
102
{ACAD_REACTORS
330
9561
102
}
330
9561
100
AcDbZombieObject
 90
      499
 91
      510
 93
      105
310
903383A310000000000000810100
  0
ACAD_PROXY_OBJECT
  5
9571
102
{ACAD_REACTORS
330
9561
102
}
330
9561
100
AcDbZombieObject
 90
      499
 91
      510
 93
      113
310
90431303A310000000000000910100
  0
ACAD_PROXY_OBJECT
  5
9572
102
{ACAD_REACTORS
330
9561
102
}
330
9561
100
AcDbZombieObject
 90
      499
 91
      510
 93
      121
310
9053130303A310000000000001650100
  0
ACAD_PROXY_OBJECT
  5
9573
102
{ACAD_REACTORS
330
9561
102
}
330
9561
100
AcDbZombieObject
 90
      499
 91
      510
 93
      257
310
90E312F31323822203D2031272D3022000000000000200FC000000000000284000
  0
ACAD_PROXY_OBJECT
  5
9574
102
{ACAD_REACTORS
330
9561
102
}
330
9561
100
AcDbZombieObject
 90
      499
 91
      510
 93
      249
310
90D312F363422203D2031272D3022000000000000240FC000000000000284000
  0
ACAD_PROXY_OBJECT
  5
9575
102
{ACAD_REACTORS
330
9561
102
}
330
9561
100
AcDbZombieObject
 90
      499
 91
      510
 93
      249
310
90D312F333222203D2031272D3022000000000000280FC000000000000284000
  0
ACAD_PROXY_OBJECT
  5
9576
102
{ACAD_REACTORS
330
9561
102
}
330
9561
100
AcDbZombieObject
 90
      499
 91
      510
 93
      249
310
90D312F313622203D2031272D30220000000000002C0FC000000000000284000
  0
ACAD_PROXY_OBJECT
  5
9577
102
{ACAD_REACTORS
330
9561
102
}
330
9561
100
AcDbZombieObject
 90
      499
 91
      510
 93
      249
310
90D332F333222203D2031272D30220000000000002E0FC000000000000284000
  0
ACAD_PROXY_OBJECT
  5
9578
102
{ACAD_REACTORS
330
9561
102
}
330
9561
100
AcDbZombieObject
 90
      499
 91
      510
 93
      241
310
90C312F3822203D2031272D3022000000000000300FC000000000000284000
  0
ACAD_PROXY_OBJECT
  5
9579
102
{ACAD_REACTORS
330
9561
102
}
330
9561
100
AcDbZombieObject
 90
      499
 91
      510
 93
      249
310
90D332F313622203D2031272D3022000000000000320FC000000000000284000
  0
ACAD_PROXY_OBJECT
  5
957A
102
{ACAD_REACTORS
330
9561
102
}
330
9561
100
AcDbZombieObject
 90
      499
 91
      510
 93
      241
310
90C312F3422203D2031272D3022000000000000340FC000000000000284000
  0
ACAD_PROXY_OBJECT
  5
957B
102
{ACAD_REACTORS
330
9561
102
}
330
9561
100
AcDbZombieObject
 90
      499
 91
      510
 93
      241
310
90C332F3822203D2031272D3022000000000000360FC000000000000284000
  0
ACAD_PROXY_OBJECT
  5
957C
102
{ACAD_REACTORS
330
9561
102
}
330
9561
100
AcDbZombieObject
 90
      499
 91
      510
 93
      241
310
90C312F3222203D2031272D3022000000000000380FC000000000000284000
  0
ACAD_PROXY_OBJECT
  5
957D
102
{ACAD_REACTORS
330
9561
102
}
330
9561
100
AcDbZombieObject
 90
      499
 91
      510
 93
      241
310
90C332F3422203D2031272D30220000000000003A0FC000000000000284000
  0
ACAD_PROXY_OBJECT
  5
957E
102
{ACAD_REACTORS
330
9561
102
}
330
9561
100
AcDbZombieObject
 90
      499
 91
      510
 93
      161
310
90A3122203D2031272D30224000000000000284000
  0
ACAD_PROXY_OBJECT
  5
957F
102
{ACAD_REACTORS
330
9561
102
}
330
9561
100
AcDbZombieObject
 90
      499
 91
      510
 93
      257
310
90E312D312F3222203D2031272D30220000000000003E0FC000000000000284000
  0
ACAD_PROXY_OBJECT
  5
9580
102
{ACAD_REACTORS
330
9561
102
}
330
9561
100
AcDbZombieObject
 90
      499
 91
      510
 93
      225
310
90A3322203D2031272D302200000000000002100000000000000284000
  0
ACAD_PROXY_OBJECT
  5
9581
102
{ACAD_REACTORS
330
9561
102
}
330
9561
100
AcDbZombieObject
 90
      499
 91
      510
 93
      225
310
90A3622203D2031272D302200000000000006100000000000000284000
  0
ACAD_PROXY_OBJECT
  5
9582
102
{ACAD_REACTORS
330
9561
102
}
330
9561
100
AcDbZombieObject
 90
      499
 91
      510
 93
      249
310
90D31272D3022203D2031272D30220000000000000A100000000000000284000
  0
ACAD_PROXY_OBJECT
  5
9556
102
{ACAD_REACTORS
330
9550
102
}
330
9550
100
AcDbZombieObject
 90
      499
 91
      509
 93
      436
310
42CC9915DA5C99599C985B595049028333333333333E3BF0000000000000FB0107901411070040501600405405064090741402480A0340
1001
ACAD
1000
AcDbSavedByObjectVersion
1070
     0
  0
ACAD_PROXY_OBJECT
  5
9558
102
{ACAD_REACTORS
330
9550
102
}
330
9550
100
AcDbZombieObject
 90
      499
 91
      509
 93
      500
310
424CD108121A5919195B90640502408333333333333E3BF0000000000000FB01079024090700405020000000000001110200405405064090740C02480A0340
1001
ACAD
1000
AcDbSavedByObjectVersion
1070
     0
  0
ACAD_PROXY_OBJECT
  5
9557
102
{ACAD_REACTORS
330
9550
102
}
330
9550
100
AcDbZombieObject
 90
      499
 91
      509
 93
      436
310
42CCD915DA5C99599C985B595059028333333333333E3BF0000000000000FB0107901411070040501600405405064090741402480A0340
1001
ACAD
1000
AcDbSavedByObjectVersion
1070
     0
  0
ACAD_PROXY_OBJECT
  5
9555
102
{ACAD_REACTORS
330
9550
102
}
330
9550
100
AcDbZombieObject
 90
      499
 91
      509
 93
      388
310
4150985CDA58D07406404333333333333E3BF0000000000000FB0107A41107004050150841D405064090741402480A0350
1001
ACAD
1000
AcDbSavedByObjectVersion
1070
     0
  0
ACAD_PROXY_OBJECT
  5
955C
102
{ACAD_REACTORS
330
9550
102
}
330
9550
100
AcDbZombieObject
 90
      499
 91
      509
 93
      428
310
42109C9A59DA1D195B90C409028333333333333E3BF0000000000000FB010790141107004050150841D405064090741402480A029950
1001
ACAD
1000
AcDbSavedByObjectVersion
1070
     0
  0
ACAD_PROXY_OBJECT
  5
9560
102
{ACAD_REACTORS
330
9550
102
}
330
9550
100
AcDbZombieObject
 90
      499
 91
      509
 93
      452
310
42D0DBDB1BDC90DA185B99D95104090240C333333333333E3BF0000000000000FB0108901411070040501508421405064090741402480A0350
1001
ACAD
1000
AcDbSavedByObjectVersion
1070
     0
  0
ACAD_PROXY_OBJECT
  5
9559
102
{ACAD_REACTORS
330
9550
102
}
330
9550
100
AcDbZombieObject
 90
      499
 91
      509
 93
      500
310
4290DBDB98D95C1D1D585B10940D028333333333333E3BF0000000000000FB0107902409070040501000000000000111010841D405064090740C02480A0340
1001
ACAD
1000
AcDbSavedByObjectVersion
1070
     0
  0
ACAD_PROXY_OBJECT
  5
955B
102
{ACAD_REACTORS
330
9550
102
}
330
9550
100
AcDbZombieObject
 90
      499
 91
      509
 93
      412
310
40D11A5B50B409028333333333333E3BF0000000000000FB010790141107004050150841D405064090741402480A02677FFFFFD0
1001
ACAD
1000
AcDbSavedByObjectVersion
1070
     0
  0
ACAD_PROXY_OBJECT
  5
A211
102
{ACAD_REACTORS
330
9550
102
}
330
9550
100
AcDbZombieObject
 90
      499
 91
      509
 93
      452
310
43115919D950DBDB1BDC93D999916409028333333333333E3BF0000000000000FB010790141107004050150841D405064090741402480A0350
1001
ACAD
1000
AcDbSavedByObjectVersion
1070
     0
  0
ACAD_PROXY_OBJECT
  5
955F
102
{ACAD_REACTORS
330
9550
102
}
330
9550
100
AcDbZombieObject
 90
      499
 91
      509
 93
      444
310
42D19858D95C185D1D195C9B90F409028333333333333E3BF0000000000000FB010790141107004050150841D405064090741402480A0350
1001
ACAD
1000
AcDbSavedByObjectVersion
1070
     0
  0
ACAD_PROXY_OBJECT
  5
9551
102
{ACAD_REACTORS
330
9550
102
}
330
9550
100
AcDbZombieObject
 90
      499
 91
      509
 93
      388
310
41119B185D240901404333333333333E3BF0000000000000F9010740A41107004050150841D405064090741402480A1B50
1001
ACAD
1000
AcDbSavedByObjectVersion
1070
     0
  0
ACAD_PROXY_OBJECT
  5
9552
102
{ACAD_REACTORS
330
9550
102
}
330
9550
100
AcDbZombieObject
 90
      499
 91
      509
 93
      476
310
43519B185D15DA5D1A115919D95CD0140901404333333333333E3BF0000000000000F9010740901411070040501600405405064090741402480A1B50
1001
ACAD
1000
AcDbSavedByObjectVersion
1070
     0
  0
ACAD_PROXY_OBJECT
  5
9553
102
{ACAD_REACTORS
330
9550
102
}
330
9550
100
AcDbZombieObject
 90
      499
 91
      509
 93
      412
310
41D1DBDD5C985D5910240902404333333333333E3BF0000000000000F9010740A411070040501641D405064090741402480A1B50
1001
ACAD
1000
AcDbSavedByObjectVersion
1070
     0
  0
ACAD_PROXY_OBJECT
  5
9554
102
{ACAD_REACTORS
330
9550
102
}
330
9550
100
AcDbZombieObject
 90
      499
 91
      509
 93
      500
310
4411DBDD5C985D5915DA5D1A115919D95CD0340902404333333333333E3BF0000000000000F9010740901411070040501600405405064090741402480A1B50
1001
ACAD
1000
AcDbSavedByObjectVersion
1070
     0
  0
ACAD_PROXY_OBJECT
  5
A260
102
{ACAD_REACTORS
330
9550
102
}
330
9550
100
AcDbZombieObject
 90
      499
 91
      509
 93
      476
310
41921A5919195B90640502408333333333333E3BF0000000000000FB01079024090700405020000000000001110200405405064090740C02480A0340
1001
ACAD
1000
AcDbSavedByObjectVersion
1070
     0
  0
ACAD_PROXY_OBJECT
  5
A20F
102
{ACAD_REACTORS
330
9550
102
}
330
9550
100
AcDbZombieObject
 90
      499
 91
      509
 93
      428
310
42529A5D1D195C93D999914409028333333333333E3BF0000000000000FB010790141107004050150A41D405064090741402480A0350
1001
ACAD
1000
AcDbSavedByObjectVersion
1070
     0
  0
ACAD_PROXY_OBJECT
  5
955E
102
{ACAD_REACTORS
330
9550
102
}
330
9550
100
AcDbZombieObject
 90
      499
 91
      509
 93
      444
310
42D31A5B995C185D1D195C9B90E409028333333333333E3BF0000000000000FB010790141107004050750841D405064090741402483A0350
1001
ACAD
1000
AcDbSavedByObjectVersion
1070
     0
  0
ACAD_PROXY_OBJECT
  5
A266
102
{ACAD_REACTORS
330
9550
102
}
330
9550
100
AcDbZombieObject
 90
      499
 91
      509
 93
      484
310
42135BD9195B1A5B99D0A409028333333333333E3BF0000000000000F901074090290700405010000000000201990108421405064090741402480A1B40
1001
ACAD
1000
AcDbSavedByObjectVersion
1070
     0
  0
ACAD_PROXY_OBJECT
  5
A210
102
{ACAD_REACTORS
330
9550
102
}
330
9550
100
AcDbZombieObject
 90
      499
 91
      509
 93
      444
310
42D3DD995C9A185B99D3D999915409028333333333333E3BF0000000000000FB010790141107004050150941D405064090741402480A0350
1001
ACAD
1000
AcDbSavedByObjectVersion
1070
     0
  0
ACAD_PROXY_OBJECT
  5
955A
102
{ACAD_REACTORS
330
9550
102
}
330
9550
100
AcDbZombieObject
 90
      499
 91
      509
 93
      420
310
425499585B1A5CDD1A58D08409028333333333333E3BF0000000000000FB01079019070040501508421405064090741402480A1B40
1001
ACAD
1000
AcDbSavedByObjectVersion
1070
     0
  0
ACAD_PROXY_OBJECT
  5
A265
102
{ACAD_REACTORS
330
9550
102
}
330
9550
100
AcDbZombieObject
 90
      499
 91
      509
 93
      420
310
4194DA1859195911B40902404333333333333E3BF0000000000000F9010740A41107004050150800405405064090840C02480A0B40
1001
ACAD
1000
AcDbSavedByObjectVersion
1070
     0
  0
ACAD_PROXY_OBJECT
  5
A264
102
{ACAD_REACTORS
330
9550
102
}
330
9550
100
AcDbZombieObject
 90
      499
 91
      509
 93
      516
310
4454DA18591959081DDA5D1A08195919D95CD1A40902404333333333333E3BF0000000000000F901074090142907004050250800405405064090740C02480A0B40
1001
ACAD
1000
AcDbSavedByObjectVersion
1070
     0
  0
ACAD_PROXY_OBJECT
  5
A261
102
{ACAD_REACTORS
330
9550
102
}
330
9550
100
AcDbZombieObject
 90
      499
 91
      509
 93
      532
310
4394DA1859195CC81BD98811DC985E5174090240C333333333333E3BF0000000000000FB01079024090741D01000000000000111010841D405064090740C02480A0340
1001
ACAD
1000
AcDbSavedByObjectVersion
1070
     0
  0
ACAD_PROXY_OBJECT
  5
A262
102
{ACAD_REACTORS
330
9550
102
}
330
9550
100
AcDbZombieObject
 90
      499
 91
      509
 93
      476
310
41D4DAD95D18DA1E51840502408333333333333E3BF0000000000000FB01079024090741D01000000000000111010B41D405064090741802480A0340
1001
ACAD
1000
AcDbSavedByObjectVersion
1070
     0
  0
ACAD_PROXY_OBJECT
  5
955D
102
{ACAD_REACTORS
330
9550
102
}
330
9550
100
AcDbZombieObject
 90
      499
 91
      509
 93
      412
310
41D51A1A58DAD95B90D409028333333333333E3BF0000000000000FB010790141107004050150C41D405064090741402480A0350
1001
ACAD
1000
AcDbSavedByObjectVersion
1070
     0
  0
ACAD_PROXY_OBJECT
  5
A25F
102
{ACAD_REACTORS
330
9550
102
}
330
9550
100
AcDbZombieObject
 90
      499
 91
      509
 93
      420
310
4255DA5C99599C985B595059028333333333333E3BF0000000000000FB0107901411070040501600405405064090740C02480A0340
1001
ACAD
1000
AcDbSavedByObjectVersion
1070
     0
  0
ACAD_PROXY_OBJECT
  5
A263
102
{ACAD_REACTORS
330
9550
102
}
330
9550
100
AcDbZombieObject
 90
      499
 91
      509
 93
      404
310
41560B54985E51940902404000000000000E03F0000000000000FB010740501907004050150841D405064090740C02480A1B40
1001
ACAD
1000
AcDbSavedByObjectVersion
1070
     0
  0
XRECORD
  5
E4EC
102
{ACAD_REACTORS
330
E4EB
102
}
330
E4EB
100
AcDbXrecord
340
18D
  0
XRECORD
  5
E4ED
102
{ACAD_REACTORS
330
E4EB
102
}
330
E4EB
100
AcDbXrecord
340
18C
  0
DICTIONARYVAR
  5
AAE0
102
{ACAD_REACTORS
330
37
102
}
330
37
100
DictionaryVariables
280
     0
  1
1:1
  0
DICTIONARYVAR
  5
9627
102
{ACAD_REACTORS
330
37
102
}
330
37
100
DictionaryVariables
280
     0
  1
Standard
  0
DICTIONARYVAR
  5
29E
102
{ACAD_REACTORS
330
37
102
}
330
37
100
DictionaryVariables
280
     0
  1
Standard
  0
DICTIONARYVAR
  5
38
102
{ACAD_REACTORS
330
37
102
}
330
37
100
DictionaryVariables
280
     0
  1
-1
  0
DICTIONARYVAR
  5
1CE
102
{ACAD_REACTORS
330
37
102
}
330
37
100
DictionaryVariables
280
     0
  1
2
  0
DICTIONARYVAR
  5
704E
102
{ACAD_REACTORS
330
37
102
}
330
37
100
DictionaryVariables
280
     0
  1
1
  0
DICTIONARYVAR
  5
962A
102
{ACAD_REACTORS
330
37
102
}
330
37
100
DictionaryVariables
280
     0
  1
0
  0
DICTIONARYVAR
  5
7052
102
{ACAD_REACTORS
330
37
102
}
330
37
100
DictionaryVariables
280
     0
  1
8
  0
DICTIONARYVAR
  5
7051
102
{ACAD_REACTORS
330
37
102
}
330
37
100
DictionaryVariables
280
     0
  1
1
  0
DICTIONARYVAR
  5
AB30
102
{ACAD_REACTORS
330
37
102
}
330
37
100
DictionaryVariables
280
     0
  1
0
  0
DICTIONARYVAR
  5
704F
102
{ACAD_REACTORS
330
37
102
}
330
37
100
DictionaryVariables
280
     0
  1
8
  0
DICTIONARYVAR
  5
7050
102
{ACAD_REACTORS
330
37
102
}
330
37
100
DictionaryVariables
280
     0
  1
2
  0
DICTIONARYVAR
  5
1CF
102
{ACAD_REACTORS
330
37
102
}
330
37
100
DictionaryVariables
280
     0
  1

  0
DICTIONARYVAR
  5
9629
102
{ACAD_REACTORS
330
37
102
}
330
37
100
DictionaryVariables
280
     0
  1
127
  0
DICTIONARYVAR
  5
E3F8
102
{ACAD_REACTORS
330
37
102
}
330
37
100
DictionaryVariables
280
     0
  1
2
  0
DICTIONARY
  5
E689
330
9540
100
AcDbDictionary
  3
ACAD_XREC_ROUNDTRIP
360
E68A
1001
ACAD
1000
TREAT_AS_HARD
1070
     1
  0
DICTIONARY
  5
E68B
330
9538
100
AcDbDictionary
  3
ACAD_XREC_ROUNDTRIP
360
E68C
1001
ACAD
1000
TREAT_AS_HARD
1070
     1
  0
DICTIONARY
  5
E68D
330
9548
100
AcDbDictionary
  3
ACAD_XREC_ROUNDTRIP
360
E68E
1001
ACAD
1000
TREAT_AS_HARD
1070
     1
  0
XRECORD
  5
E68A
102
{ACAD_REACTORS
330
E689
102
}
330
E689
100
AcDbXrecord
102
MATERIAL
148
0.0
149
0.0
149
0.0
 93
        0
 94
      127
282
     0
 72
     0
 77
     0
171
     0
175
     0
179
     0
273
     0
  0
XRECORD
  5
E68C
102
{ACAD_REACTORS
330
E68B
102
}
330
E68B
100
AcDbXrecord
102
MATERIAL
148
0.0
149
0.0
149
0.0
 93
        0
 94
      127
282
     0
 72
     0
 77
     0
171
     0
175
     0
179
     0
273
     0
  0
XRECORD
  5
E68E
102
{ACAD_REACTORS
330
E68D
102
}
330
E68D
100
AcDbXrecord
102
MATERIAL
148
0.0
149
0.0
149
0.0
 93
        0
 94
      127
282
     0
 72
     0
 77
     0
171
     0
175
     0
179
     0
273
     0
  0
ENDSEC
  0
EOF
