  0
SECTION
  2
HEADER
  9
$ACADVER
  1
AC1012
  9
$DWGCODEPAGE
  3
ansi_932
  9
$INSBASE
 10
0.0
 20
0.0
 30
0.0
  9
$EXTMIN
 10
2456.005797762492
 20
-182.4071376381569
 30
0.0
  9
$EXTMAX
 10
4166.258851941227
 20
904.681187725116
 30
0.0
  9
$LIMMIN
 10
0.0
 20
0.0
  9
$LIMMAX
 10
420.0
 20
297.0
  9
$ORTHOMODE
 70
     0
  9
$REGENMODE
 70
     1
  9
$FILLMODE
 70
     1
  9
$QTEXTMODE
 70
     0
  9
$MIRRTEXT
 70
     0
  9
$DRAGMODE
 70
     2
  9
$LTSCALE
 40
0.5
  9
$OSMODE
 70
  2175
  9
$ATTMODE
 70
     1
  9
$TEXTSIZE
 40
4.0
  9
$TRACEWID
 40
1.0
  9
$TEXTSTYLE
  7
STANDARD
  9
$CLAYER
  8
1TEXT
  9
$CELTYPE
  6
BYLAYER
  9
$CECOLOR
 62
   256
  9
$CELTSCALE
 40
1.0
  9
$DELOBJ
 70
     1
  9
$DISPSILH
 70
     0
  9
$DIMSCALE
 40
5.0
  9
$DIMASZ
 40
2.0
  9
$DIMEXO
 40
0.0
  9
$DIMDLI
 40
7.0
  9
$DIMRND
 40
0.0
  9
$DIMDLE
 40
0.0
  9
$DIMEXE
 40
1.0
  9
$DIMTP
 40
0.0
  9
$DIMTM
 40
0.0
  9
$DIMTXT
 40
3.5
  9
$DIMCEN
 40
0.0
  9
$DIMTSZ
 40
0.0
  9
$DIMTOL
 70
     0
  9
$DIMLIM
 70
     0
  9
$DIMTIH
 70
     0
  9
$DIMTOH
 70
     0
  9
$DIMSE1
 70
     0
  9
$DIMSE2
 70
     0
  9
$DIMTAD
 70
     1
  9
$DIMZIN
 70
     8
  9
$DIMBLK
  1

  9
$DIMASO
 70
     1
  9
$DIMSHO
 70
     1
  9
$DIMPOST
  1
 
  9
$DIMAPOST
  1

  9
$DIMALT
 70
     0
  9
$DIMALTD
 70
     2
  9
$DIMALTF
 40
25.4
  9
$DIMLFAC
 40
1.0
  9
$DIMTOFL
 70
     1
  9
$DIMTVP
 40
0.0
  9
$DIMTIX
 70
     0
  9
$DIMSOXD
 70
     0
  9
$DIMSAH
 70
     1
  9
$DIMBLK1
  1
OPEN30
  9
$DIMBLK2
  1
OPEN30
  9
$DIMSTYLE
  2
NEWX10
  9
$DIMCLRD
 70
   256
  9
$DIMCLRE
 70
   256
  9
$DIMCLRT
 70
   201
  9
$DIMTFAC
 40
0.7
  9
$DIMGAP
 40
0.7
  9
$DIMJUST
 70
     0
  9
$DIMSD1
 70
     0
  9
$DIMSD2
 70
     0
  9
$DIMTOLJ
 70
     1
  9
$DIMTZIN
 70
     8
  9
$DIMALTZ
 70
     0
  9
$DIMALTTZ
 70
     0
  9
$DIMFIT
 70
     2
  9
$DIMUPT
 70
     0
  9
$DIMUNIT
 70
     2
  9
$DIMDEC
 70
     2
  9
$DIMTDEC
 70
     4
  9
$DIMALTU
 70
     2
  9
$DIMALTTD
 70
     2
  9
$DIMTXSTY
  7
STANDARD
  9
$DIMAUNIT
 70
     0
  9
$LUNITS
 70
     2
  9
$LUPREC
 70
     4
  9
$SKETCHINC
 40
1.0
  9
$FILLETRAD
 40
0.0
  9
$AUNITS
 70
     0
  9
$AUPREC
 70
     2
  9
$MENU
  1
acad
  9
$ELEVATION
 40
0.0
  9
$PELEVATION
 40
0.0
  9
$THICKNESS
 40
0.0
  9
$LIMCHECK
 70
     0
  9
$CHAMFERA
 40
1.0
  9
$CHAMFERB
 40
1.0
  9
$CHAMFERC
 40
20.0
  9
$CHAMFERD
 40
0.0
  9
$SKPOLY
 70
     0
  9
$TDCREATE
 40
2453033.732663484
  9
$TDUPDATE
 40
2459111.672076389
  9
$TDINDWG
 40
2.6268416435
  9
$TDUSRTIMER
 40
2.6268416435
  9
$USRTIMER
 70
     1
  9
$ANGBASE
 50
0.0
  9
$ANGDIR
 70
     0
  9
$PDMODE
 70
     0
  9
$PDSIZE
 40
0.0
  9
$PLINEWID
 40
0.0
  9
$COORDS
 70
     2
  9
$SPLFRAME
 70
     0
  9
$SPLINETYPE
 70
     6
  9
$SPLINESEGS
 70
     8
  9
$ATTDIA
 70
     0
  9
$ATTREQ
 70
     1
  9
$HANDLING
 70
     1
  9
$HANDSEED
  5
23B5C
  9
$SURFTAB1
 70
     6
  9
$SURFTAB2
 70
     6
  9
$SURFTYPE
 70
     6
  9
$SURFU
 70
     6
  9
$SURFV
 70
     6
  9
$UCSNAME
  2

  9
$UCSORG
 10
0.0
 20
0.0
 30
0.0
  9
$UCSXDIR
 10
1.0
 20
0.0
 30
0.0
  9
$UCSYDIR
 10
0.0
 20
1.0
 30
0.0
  9
$PUCSNAME
  2

  9
$PUCSORG
 10
0.0
 20
0.0
 30
0.0
  9
$PUCSXDIR
 10
1.0
 20
0.0
 30
0.0
  9
$PUCSYDIR
 10
0.0
 20
1.0
 30
0.0
  9
$USERI1
 70
     0
  9
$USERI2
 70
     0
  9
$USERI3
 70
     0
  9
$USERI4
 70
     0
  9
$USERI5
 70
     0
  9
$USERR1
 40
0.0
  9
$USERR2
 40
0.0
  9
$USERR3
 40
0.0
  9
$USERR4
 40
0.0
  9
$USERR5
 40
0.0
  9
$WORLDVIEW
 70
     1
  9
$SHADEDGE
 70
     3
  9
$SHADEDIF
 70
    70
  9
$TILEMODE
 70
     1
  9
$MAXACTVP
 70
    48
  9
$PINSBASE
 10
0.0
 20
0.0
 30
0.0
  9
$PLIMCHECK
 70
     0
  9
$PEXTMIN
 10
1.000000000000000E+20
 20
1.000000000000000E+20
 30
1.000000000000000E+20
  9
$PEXTMAX
 10
-1.000000000000000E+20
 20
-1.000000000000000E+20
 30
-1.000000000000000E+20
  9
$PLIMMIN
 10
0.0
 20
0.0
  9
$PLIMMAX
 10
420.0
 20
297.0
  9
$UNITMODE
 70
     0
  9
$VISRETAIN
 70
     1
  9
$PLINEGEN
 70
     0
  9
$PSLTSCALE
 70
     1
  9
$TREEDEPTH
 70
  3020
  9
$PICKSTYLE
 70
     1
  9
$CMLSTYLE
  2
STANDARD
  9
$CMLJUST
 70
     0
  9
$CMLSCALE
 40
20.0
  9
$SAVEIMAGES
 70
     1
  0
ENDSEC
  0
SECTION
  2
CLASSES
  0
CLASS
  1
DICTIONARYVAR
  2
AcDbDictionaryVar
  3
ObjectDBX Classes
 90
        0
280
     0
281
     0
  0
CLASS
  1
IDBUFFER
  2
AcDbIdBuffer
  3
ObjectDBX Classes
 90
    32768
280
     0
281
     0
  0
CLASS
  1
LWPOLYLINE
  2
AcDbPolyline
  3
ObjectDBX Classes
 90
    32768
280
     0
281
     1
  0
CLASS
  1
ACDBDICTIONARYWDFLT
  2
AcDbDictionaryWithDefault
  3
ObjectDBX Classes
 90
    32768
280
     0
281
     0
  0
CLASS
  1
ACDBPLACEHOLDER
  2
AcDbPlaceHolder
  3
ObjectDBX Classes
 90
        0
280
     0
281
     0
  0
CLASS
  1
LAYOUT
  2
AcDbLayout
  3
ObjectDBX Classes
 90
        0
280
     0
281
     0
  0
CLASS
  1
TABLESTYLE
  2
AcDbTableStyle
  3
ObjectDBX Classes
 90
     4095
280
     0
281
     0
  0
CLASS
  1
SORTENTSTABLE
  2
AcDbSortentsTable
  3
ObjectDBX Classes
 90
    32768
280
     0
281
     0
  0
CLASS
  1
DIMASSOC
  2
AcDbDimAssoc
  3
"AcDbDimAssoc|Product Desc:     AcDim ARX App For Dimension|Company:          Autodesk, Inc.|WEB Address:      www.autodesk.com"
 90
        0
280
     0
281
     0
  0
CLASS
  1
MATERIAL
  2
AcDbMaterial
  3
ObjectDBX Classes
 90
     1153
280
     0
281
     0
  0
CLASS
  1
VISUALSTYLE
  2
AcDbVisualStyle
  3
ObjectDBX Classes
 90
     4095
280
     0
281
     0
  0
CLASS
  1
SCALE
  2
AcDbScale
  3
ObjectDBX Classes
 90
     1153
280
     0
281
     0
  0
CLASS
  1
MLEADERSTYLE
  2
AcDbMLeaderStyle
  3
ACDB_MLEADERSTYLE_CLASS
 90
     4095
280
     0
281
     0
  0
CLASS
  1
CELLSTYLEMAP
  2
AcDbCellStyleMap
  3
ObjectDBX Classes
 90
     1152
280
     0
281
     0
  0
CLASS
  1
EXACXREFPANELOBJECT
  2
ExAcXREFPanelObject
  3
EXAC_ESW
 90
     1025
280
     1
281
     0
  0
CLASS
  1
NPOCOLLECTION
  2
AcDbImpNonPersistentObjectsCollection
  3
ObjectDBX Classes
 90
     1153
280
     1
281
     0
  0
CLASS
  1
SUN
  2
AcDbSun
  3
SCENEOE
 90
     1153
280
     0
281
     0
  0
CLASS
  1
MULTILEADER
  2
AcDbMLeader
  3
ACDB_MLEADER_CLASS
 90
     1025
280
     0
281
     1
  0
CLASS
  1
XRECORD
  2
AcDbXrecord
  3
ObjectDBX Classes
 90
    32768
280
     0
281
     0
  0
CLASS
  1
HATCH
  2
AcDbHatch
  3
ObjectDBX Classes
 90
    32768
280
     0
281
     1
  0
ENDSEC
  0
SECTION
  2
TABLES
  0
TABLE
  2
VPORT
  5
8
330
0
100
AcDbSymbolTable
 70
     1
  0
VPORT
  5
19DC2
330
8
100
AcDbSymbolTableRecord
100
AcDbViewportTableRecord
  2
*ACTIVE
 70
     0
 10
0.0
 20
0.0
 11
1.0
 21
1.0
 12
3311.132324851859
 22
361.1370250434795
 13
0.0
 23
0.0
 14
10.0
 24
10.0
 15
10.0
 25
10.0
 16
0.0
 26
0.0
 36
1.0
 17
0.0
 27
0.0
 37
0.0
 40
1167.18957039004
 41
1.803066037735849
 42
50.0
 43
0.0
 44
0.0
 50
0.0
 51
0.0
 71
    16
 72
   100
 73
     1
 74
     1
 75
     0
 76
     0
 77
     0
 78
     0
  0
ENDTAB
  0
TABLE
  2
LTYPE
  5
5
330
0
100
AcDbSymbolTable
 70
     3
  0
LTYPE
  5
12
330
5
100
AcDbSymbolTableRecord
100
AcDbLinetypeTableRecord
  2
BYBLOCK
 70
     0
  3

 72
    65
 73
     0
 40
0.0
  0
LTYPE
  5
13
330
5
100
AcDbSymbolTableRecord
100
AcDbLinetypeTableRecord
  2
BYLAYER
 70
     0
  3

 72
    65
 73
     0
 40
0.0
  0
LTYPE
  5
14
330
5
100
AcDbSymbolTableRecord
100
AcDbLinetypeTableRecord
  2
CONTINUOUS
 70
     0
  3
Solid line
 72
    65
 73
     0
 40
0.0
  0
LTYPE
  5
26
330
5
100
AcDbSymbolTableRecord
100
AcDbLinetypeTableRecord
  2
CENTER2
 70
     0
  3
Center (.5x) ___ _ ___ _ ___ _ ___ _ ___ _ ___
 72
    65
 73
     4
 40
28.575
 49
19.05
 74
     0
 49
-3.175
 74
     0
 49
3.175
 74
     0
 49
-3.175
 74
     0
  0
LTYPE
  5
FF
330
5
100
AcDbSymbolTableRecord
100
AcDbLinetypeTableRecord
  2
HIDDEN
 70
     0
  3
Hidden __ __ __ __ __ __ __ __ __ __ __ __ __ _
 72
    65
 73
     2
 40
9.524999999999999
 49
6.35
 74
     0
 49
-3.175
 74
     0
  0
ENDTAB
  0
TABLE
  2
LAYER
  5
2
102
{ACAD_XDICTIONARY
360
18FE8
102
}
330
0
100
AcDbSymbolTable
 70
     6
  0
LAYER
  5
E
102
{ACAD_XDICTIONARY
360
1A20A
102
}
330
2
100
AcDbSymbolTableRecord
100
AcDbLayerTableRecord
  2
0
 70
     0
 62
     7
  6
CONTINUOUS
  0
LAYER
  5
29
102
{ACAD_XDICTIONARY
360
1A20C
102
}
330
2
100
AcDbSymbolTableRecord
100
AcDbLayerTableRecord
  2
1CENTER
 70
     0
 62
     7
  6
CENTER2
  0
LAYER
  5
31
102
{ACAD_XDICTIONARY
360
1A20E
102
}
330
2
100
AcDbSymbolTableRecord
100
AcDbLayerTableRecord
  2
1TEXT
 70
     0
 62
     7
  6
CONTINUOUS
  0
LAYER
  5
101
102
{ACAD_XDICTIONARY
360
1A218
102
}
330
2
100
AcDbSymbolTableRecord
100
AcDbLayerTableRecord
  2
1DIM
 70
     0
 62
     7
  6
CONTINUOUS
  0
LAYER
  5
102
102
{ACAD_XDICTIONARY
360
1A21A
102
}
330
2
100
AcDbSymbolTableRecord
100
AcDbLayerTableRecord
  2
1HIDDEN
 70
     0
 62
     7
  6
HIDDEN
  0
LAYER
  5
25F
102
{ACAD_XDICTIONARY
360
1A220
102
}
330
2
100
AcDbSymbolTableRecord
100
AcDbLayerTableRecord
  2
01
 70
     0
 62
     1
  6
CONTINUOUS
  0
ENDTAB
  0
TABLE
  2
STYLE
  5
3
330
0
100
AcDbSymbolTable
 70
     1
  0
STYLE
  5
F
330
3
100
AcDbSymbolTableRecord
100
AcDbTextStyleTableRecord
  2
STANDARD
 70
     0
 40
0.0
 41
1.0
 50
0.0
 71
     0
 42
4.0
  3
txt.shx
  4
extfont.shx
  0
ENDTAB
  0
TABLE
  2
VIEW
  5
6
330
0
100
AcDbSymbolTable
 70
     0
  0
ENDTAB
  0
TABLE
  2
UCS
  5
7
330
0
100
AcDbSymbolTable
 70
     0
  0
ENDTAB
  0
TABLE
  2
APPID
  5
9
330
0
100
AcDbSymbolTable
 70
    17
  0
APPID
  5
10
330
9
100
AcDbSymbolTableRecord
100
AcDbRegAppTableRecord
  2
ACAD
 70
     0
  0
APPID
  5
21
330
9
100
AcDbSymbolTableRecord
100
AcDbRegAppTableRecord
  2
DRAWINGVARIABLESXDATA
 70
     0
  0
APPID
  5
64
330
9
100
AcDbSymbolTableRecord
100
AcDbRegAppTableRecord
  2
CONTENTTABDATA
 70
     0
  0
APPID
  5
65
330
9
100
AcDbSymbolTableRecord
100
AcDbRegAppTableRecord
  2
CONTENTCURRENTTAB
 70
     0
  0
APPID
  5
66
330
9
100
AcDbSymbolTableRecord
100
AcDbRegAppTableRecord
  2
CONTENTBLOCKDESCRIPTION
 70
     0
  0
APPID
  5
67
330
9
100
AcDbSymbolTableRecord
100
AcDbRegAppTableRecord
  2
CONTENTBLOCKICON
 70
     0
  0
APPID
  5
68
330
9
100
AcDbSymbolTableRecord
100
AcDbRegAppTableRecord
  2
CONTENTLONGBLOCKNAME
 70
     0
  0
APPID
  5
5A9
330
9
100
AcDbSymbolTableRecord
100
AcDbRegAppTableRecord
  2
ACAD_PSEXT
 70
     0
  0
APPID
  5
18AC
330
9
100
AcDbSymbolTableRecord
100
AcDbRegAppTableRecord
  2
ACAD_DSTYLE_DIMTEXT_FILL
 70
     0
  0
APPID
  5
19E1A
330
9
100
AcDbSymbolTableRecord
100
AcDbRegAppTableRecord
  2
ACAD_MLEADERVER
 70
     0
  0
APPID
  5
1A2FA
330
9
100
AcDbSymbolTableRecord
100
AcDbRegAppTableRecord
  2
ACAD_DSTYLE_DIMRADIAL_EXTE
 70
     0
  0
APPID
  5
1DBC1
330
9
100
AcDbSymbolTableRecord
100
AcDbRegAppTableRecord
  2
ACADANNOTATIVE
 70
     0
  0
APPID
  5
1E991
330
9
100
AcDbSymbolTableRecord
100
AcDbRegAppTableRecord
  2
ACAD_EXEMPT_FROM_CAD_STAND
 70
     0
  0
APPID
  5
1FBF7
330
9
100
AcDbSymbolTableRecord
100
AcDbRegAppTableRecord
  2
ACDBBLOCKREPETAG
 70
     0
  0
APPID
  5
20360
330
9
100
AcDbSymbolTableRecord
100
AcDbRegAppTableRecord
  2
ACAD_OBJECT_CHANGE_GUID
 70
     0
  0
APPID
  5
20453
330
9
100
AcDbSymbolTableRecord
100
AcDbRegAppTableRecord
  2
ACLAYERTOOLS
 70
     0
  0
APPID
  5
20454
330
9
100
AcDbSymbolTableRecord
100
AcDbRegAppTableRecord
  2
ACAD_NAV_VCDISPLAY
 70
     0
  0
ENDTAB
  0
TABLE
  2
DIMSTYLE
  5
A
330
0
100
AcDbSymbolTable
 70
     2
  0
DIMSTYLE
105
48
330
A
100
AcDbSymbolTableRecord
100
AcDbDimStyleTableRecord
  2
NEWX10
 70
     0
  3
 
  4

  5

  6
OPEN30
  7
OPEN30
 40
1.0
 41
2.0
 42
0.0
 43
7.0
 44
1.0
 45
0.0
 46
0.0
 47
0.0
 48
0.0
140
3.5
141
0.0
142
0.0
143
25.4
144
1.0
145
0.0
146
0.7
147
0.7
 71
     0
 72
     0
 73
     0
 74
     0
 75
     0
 76
     0
 77
     1
 78
     8
170
     0
171
     2
172
     1
173
     1
174
     0
175
     0
176
   256
177
   256
178
   201
179
     2
270
     2
271
     2
272
     4
273
     2
274
     2
340
F
275
     0
280
     0
281
     0
282
     0
283
     1
284
     8
285
     0
286
     0
287
     2
288
     0
  0
DIMSTYLE
105
208CA
330
A
100
AcDbSymbolTableRecord
100
AcDbDimStyleTableRecord
  2
ISO-25
 70
     0
  3

  4

  5

  6

  7

 40
1.0
 41
2.5
 42
0.625
 43
3.75
 44
1.25
 45
0.0
 46
0.0
 47
0.0
 48
0.0
140
2.5
141
2.5
142
0.0
143
0.03937007874016
144
1.0
145
0.0
146
1.0
147
0.625
 71
     0
 72
     0
 73
     0
 74
     0
 75
     0
 76
     0
 77
     1
 78
     8
170
     0
171
     3
172
     1
173
     0
174
     0
175
     0
176
     0
177
     0
178
     0
270
     2
271
     2
272
     2
273
     2
274
     3
340
F
275
     0
280
     0
281
     0
282
     0
283
     0
284
     8
285
     0
286
     0
287
     3
288
     0
  0
ENDTAB
  0
TABLE
  2
BLOCK_RECORD
  5
1
330
0
100
AcDbSymbolTable
 70
    10
  0
BLOCK_RECORD
  5
18
102
{ACAD_XDICTIONARY
360
6E9
102
}
330
1
100
AcDbSymbolTableRecord
100
AcDbBlockTableRecord
  2
*MODEL_SPACE
  0
BLOCK_RECORD
  5
15
102
{ACAD_XDICTIONARY
360
59B
102
}
330
1
100
AcDbSymbolTableRecord
100
AcDbBlockTableRecord
  2
*PAPER_SPACE
  0
BLOCK_RECORD
  5
42
330
1
100
AcDbSymbolTableRecord
100
AcDbBlockTableRecord
  2
_OPEN30
  0
BLOCK_RECORD
  5
6F0
330
1
100
AcDbSymbolTableRecord
100
AcDbBlockTableRecord
  2
_OPEN
  0
BLOCK_RECORD
  5
1FC46
330
1
100
AcDbSymbolTableRecord
100
AcDbBlockTableRecord
  2
A3WAKUKAWAJUN2017_HYOUDAI_
  0
BLOCK_RECORD
  5
20460
102
{ACAD_XDICTIONARY
360
20461
102
}
330
1
100
AcDbSymbolTableRecord
100
AcDbBlockTableRecord
  2
NOCIRCLE
1001
ACADANNOTATIVE
1000
AnnotativeData
1002
{
1070
     1
1070
     0
1002
}
  0
BLOCK_RECORD
  5
239BC
330
1
100
AcDbSymbolTableRecord
100
AcDbBlockTableRecord
  2
*X186
  0
BLOCK_RECORD
  5
23A0A
330
1
100
AcDbSymbolTableRecord
100
AcDbBlockTableRecord
  2
*X187
  0
BLOCK_RECORD
  5
23A5C
330
1
100
AcDbSymbolTableRecord
100
AcDbBlockTableRecord
  2
*X188
  0
BLOCK_RECORD
  5
23AAD
330
1
100
AcDbSymbolTableRecord
100
AcDbBlockTableRecord
  2
*X189
  0
BLOCK_RECORD
  5
23AEA
330
1
100
AcDbSymbolTableRecord
100
AcDbBlockTableRecord
  2
*X190
  0
BLOCK_RECORD
  5
23B2A
330
1
100
AcDbSymbolTableRecord
100
AcDbBlockTableRecord
  2
*X191
  0
ENDTAB
  0
ENDSEC
  0
SECTION
  2
BLOCKS
  0
BLOCK
  5
19
330
18
100
AcDbEntity
  8
0
100
AcDbBlockBegin
  2
*MODEL_SPACE
 70
     0
 10
0.0
 20
0.0
 30
0.0
  3
*MODEL_SPACE
  1

  0
ENDBLK
  5
1A
330
18
100
AcDbEntity
  8
0
100
AcDbBlockEnd
  0
BLOCK
  5
16
330
15
100
AcDbEntity
 67
     1
  8
0
100
AcDbBlockBegin
  2
*PAPER_SPACE
 70
     0
 10
0.0
 20
0.0
 30
0.0
  3
*PAPER_SPACE
  1

  0
ENDBLK
  5
17
330
15
100
AcDbEntity
 67
     1
  8
0
100
AcDbBlockEnd
  0
BLOCK
  5
43
330
42
100
AcDbEntity
  8
0
100
AcDbBlockBegin
  2
_OPEN30
 70
     0
 10
0.0
 20
0.0
 30
0.0
  3
_OPEN30
  1

  0
LINE
  5
44
330
42
100
AcDbEntity
  8
0
  6
BYBLOCK
 62
     0
100
AcDbLine
 10
-1.0
 20
0.26794919
 30
0.0
 11
0.0
 21
0.0
 31
0.0
  0
LINE
  5
45
330
42
100
AcDbEntity
  8
0
  6
BYBLOCK
 62
     0
100
AcDbLine
 10
0.0
 20
0.0
 30
0.0
 11
-1.0
 21
-0.26794919
 31
0.0
  0
LINE
  5
46
330
42
100
AcDbEntity
  8
0
  6
BYBLOCK
 62
     0
100
AcDbLine
 10
0.0
 20
0.0
 30
0.0
 11
-1.0
 21
0.0
 31
0.0
  0
ENDBLK
  5
47
330
42
100
AcDbEntity
  8
0
100
AcDbBlockEnd
  0
BLOCK
  5
6F1
330
6F0
100
AcDbEntity
  8
0
100
AcDbBlockBegin
  2
_OPEN
 70
     0
 10
0.0
 20
0.0
 30
0.0
  3
_OPEN
  1
a3waku.dwg
  0
LINE
  5
6F2
330
6F0
100
AcDbEntity
  8
0
  6
BYBLOCK
 62
     0
100
AcDbLine
 10
-1.0
 20
0.1666666666666667
 30
0.0
 11
0.0
 21
0.0
 31
0.0
  0
LINE
  5
6F3
330
6F0
100
AcDbEntity
  8
0
  6
BYBLOCK
 62
     0
100
AcDbLine
 10
0.0
 20
0.0
 30
0.0
 11
-1.0
 21
-0.1666666666666667
 31
0.0
  0
LINE
  5
6F4
330
6F0
100
AcDbEntity
  8
0
  6
BYBLOCK
 62
     0
100
AcDbLine
 10
0.0
 20
0.0
 30
0.0
 11
-1.0
 21
0.0
 31
0.0
  0
ENDBLK
  5
6F5
330
6F0
100
AcDbEntity
  8
0
100
AcDbBlockEnd
  0
BLOCK
  5
20345
330
1FC46
100
AcDbEntity
  8
0
100
AcDbBlockBegin
  2
A3WAKUKAWAJUN2017_HYOUDAI_
 70
     0
 10
0.0
 20
0.0
 30
0.0
  3
A3WAKUKAWAJUN2017_HYOUDAI_
  1

  0
LINE
  5
1FC48
330
1FC46
100
AcDbEntity
  8
0
100
AcDbLine
 10
13.26299999998673
 20
-0.0001000000000317
 30
0.0
 11
9.236999999990758
 21
8.999899999990987
 31
0.0
1001
ACAD
1000
ASC_BOUNDS
1002
{
1070
    19
1005
1FC89
1002
}
  0
LINE
  5
1FC49
330
1FC46
100
AcDbEntity
  8
0
100
AcDbLine
 10
5.657999999994331
 20
0.9999999999989768
 30
0.0
 11
9.236999999990758
 21
8.999999999991019
 31
0.0
1001
ACAD
1000
ASC_BOUNDS
1002
{
1070
    19
1005
1FC89
1002
}
  0
LINE
  5
1FC4A
330
1FC46
100
AcDbEntity
  8
0
100
AcDbLine
 10
18.59199999998134
 20
-0.2368999999997641
 30
0.0
 11
16.46099999998353
 21
5.432899999994561
 31
0.0
1001
ACAD
1000
ASC_BOUNDS
1002
{
1070
    19
1005
1FC8A
1002
}
  0
LINE
  5
1FC4B
330
1FC46
100
AcDbEntity
  8
0
100
AcDbLine
 10
18.59199999998134
 20
-0.2368999999997641
 30
0.0
 11
22.38199999997767
 21
8.763099999991255
 31
0.0
1001
ACAD
1000
ASC_BOUNDS
1002
{
1070
    19
1005
1FC8A
1002
}
  0
LINE
  5
1FC4C
330
1FC46
100
AcDbEntity
  8
0
100
AcDbLine
 10
14.32899999998563
 20
-0.2368999999997641
 30
0.0
 11
16.46099999998353
 21
5.432899999994561
 31
0.0
1001
ACAD
1000
ASC_BOUNDS
1002
{
1070
    19
1005
1FC8A
1002
}
  0
LINE
  5
1FC4D
330
1FC46
100
AcDbEntity
  8
0
100
AcDbLine
 10
14.32899999998563
 20
-0.2368999999997641
 30
0.0
 11
10.53899999998941
 21
8.763099999991255
 31
0.0
1001
ACAD
1000
ASC_BOUNDS
1002
{
1070
    19
1005
1FC8A
1002
}
  0
LINE
  5
1FC4E
330
1FC46
100
AcDbEntity
  8
0
100
AcDbLine
 10
19.53899999998043
 20
-0.0001000000000317
 30
0.0
 11
23.56599999997638
 21
8.999899999990987
 31
0.0
1001
ACAD
1000
ASC_BOUNDS
1002
{
1070
    19
1005
1FC8B
1002
}
  0
LINE
  5
1FC4F
330
1FC46
100
AcDbEntity
  8
0
100
AcDbLine
 10
26.97358892824991
 20
1.383099999991202
 30
0.0
 11
23.56599999997638
 21
8.999899999990987
 31
0.0
1001
ACAD
1000
ASC_BOUNDS
1002
{
1070
    19
1005
1FC8B
1002
}
  0
LINE
  5
1FC50
330
1FC46
100
AcDbEntity
  8
0
100
AcDbLine
 10
5.657999999994331
 20
0.9999999999989768
 30
0.0
 11
3.181999999996833
 21
4.668599999995308
 31
0.0
1001
ACAD
1000
ASC_BOUNDS
1002
{
1070
    19
1005
1FC89
1002
}
  0
LINE
  5
1FC51
330
1FC46
100
AcDbEntity
  8
0
100
AcDbLine
 10
4.617999999995391
 20
-0.0001000000000317
 30
0.0
 11
1.420999999998571
 21
4.736799999995242
 31
0.0
1001
ACAD
1000
ASC_BOUNDS
1002
{
1070
    19
1005
1FC89
1002
}
  0
LINE
  5
1FC52
330
1FC46
100
AcDbEntity
  8
0
100
AcDbLine
 10
1.420999999998571
 20
8.763099999991255
 30
0.0
 11
1.420999999998571
 21
0.0
 31
0.0
1001
ACAD
1000
ASC_BOUNDS
1002
{
1070
    19
1005
1FC8E
1002
}
  0
LINE
  5
1FC53
330
1FC46
100
AcDbEntity
  8
0
100
AcDbLine
 10
0.0
 20
8.763099999991255
 30
0.0
 11
0.0
 21
0.0
 31
0.0
1001
ACAD
1000
ASC_BOUNDS
1002
{
1070
    19
1005
1FC8E
1002
}
  0
LINE
  5
1FC54
330
1FC46
100
AcDbEntity
  8
0
100
AcDbLine
 10
6.766999999993232
 20
-0.0001000000000317
 30
0.0
 11
7.826999999992154
 21
2.368399999997621
 31
0.0
1001
ACAD
1000
ASC_BOUNDS
1002
{
1070
    19
1005
1FC89
1002
}
  0
LINE
  5
1FC55
330
1FC46
100
AcDbEntity
  8
0
100
AcDbLine
 10
0.0
 20
0.0
 30
0.0
 11
1.420999999998571
 21
0.0
 31
0.0
1001
ACAD
1000
ASC_BOUNDS
1002
{
1070
    19
1005
1FC8E
1002
}
  0
LINE
  5
1FC56
330
1FC46
100
AcDbEntity
  8
0
100
AcDbLine
 10
4.617999999995391
 20
0.0
 30
0.0
 11
6.766999999993232
 21
0.0
 31
0.0
1001
ACAD
1000
ASC_BOUNDS
1002
{
1070
    19
1005
1FC89
1002
}
  0
LINE
  5
1FC57
330
1FC46
100
AcDbEntity
  8
0
100
AcDbLine
 10
11.70599999998831
 20
-0.0001000000000317
 30
0.0
 11
10.64699999998936
 21
2.368399999997621
 31
0.0
1001
ACAD
1000
ASC_BOUNDS
1002
{
1070
    19
1005
1FC89
1002
}
  0
LINE
  5
1FC58
330
1FC46
100
AcDbEntity
  8
0
100
AcDbLine
 10
7.826999999992154
 20
2.368399999997621
 30
0.0
 11
10.64699999998936
 21
2.368399999997621
 31
0.0
1001
ACAD
1000
ASC_BOUNDS
1002
{
1070
    19
1005
1FC89
1002
}
  0
LINE
  5
1FC59
330
1FC46
100
AcDbEntity
  8
0
100
AcDbLine
 10
11.70599999998831
 20
0.0
 30
0.0
 11
13.26299999998673
 21
0.0
 31
0.0
1001
ACAD
1000
ASC_BOUNDS
1002
{
1070
    19
1005
1FC89
1002
}
  0
LINE
  5
1FC5A
330
1FC46
100
AcDbEntity
  8
0
100
AcDbLine
 10
22.15599999997789
 20
2.368399999997621
 30
0.0
 11
24.97599999997499
 21
2.368399999997621
 31
0.0
1001
ACAD
1000
ASC_BOUNDS
1002
{
1070
    19
1005
1FC8B
1002
}
  0
LINE
  5
1FC5B
330
1FC46
100
AcDbEntity
  8
0
100
AcDbLine
 10
19.53899999998043
 20
0.0
 30
0.0
 11
21.09599999997886
 21
0.0
 31
0.0
1001
ACAD
1000
ASC_BOUNDS
1002
{
1070
    19
1005
1FC8B
1002
}
  0
LINE
  5
1FC5C
330
1FC46
100
AcDbEntity
  8
0
100
AcDbLine
 10
21.09599999997886
 20
-0.0001000000000317
 30
0.0
 11
22.15599999997789
 21
2.368399999997621
 31
0.0
1001
ACAD
1000
ASC_BOUNDS
1002
{
1070
    19
1005
1FC8B
1002
}
  0
LINE
  5
1FC5D
330
1FC46
100
AcDbEntity
  8
0
100
AcDbLine
 10
26.02015566812236
 20
0.0330999999912365
 30
0.0
 11
24.97599999997499
 21
2.368399999997621
 31
0.0
1001
ACAD
1000
ASC_BOUNDS
1002
{
1070
    19
1005
1FC8B
1002
}
  0
LINE
  5
1FC5E
330
1FC46
100
AcDbEntity
  8
0
100
AcDbLine
 10
14.32399999998563
 20
3.315799999996671
 30
0.0
 11
16.46099999998353
 21
8.999899999990987
 31
0.0
1001
ACAD
1000
ASC_BOUNDS
1002
{
1070
    19
1005
1FC8A
1002
}
  0
LINE
  5
1FC5F
330
1FC46
100
AcDbEntity
  8
0
100
AcDbLine
 10
6.432999999993513
 20
8.763099999991255
 30
0.0
 11
3.181999999996833
 21
4.668599999995308
 31
0.0
1001
ACAD
1000
ASC_BOUNDS
1002
{
1070
    19
1005
1FC89
1002
}
  0
LINE
  5
1FC60
330
1FC46
100
AcDbEntity
  8
0
100
AcDbLine
 10
4.617999999995391
 20
8.763099999991255
 30
0.0
 11
1.420999999998571
 21
4.736799999995242
 31
0.0
1001
ACAD
1000
ASC_BOUNDS
1002
{
1070
    19
1005
1FC89
1002
}
  0
LINE
  5
1FC61
330
1FC46
100
AcDbEntity
  8
0
100
AcDbLine
 10
0.0
 20
8.763099999991255
 30
0.0
 11
1.420999999998571
 21
8.763099999991255
 31
0.0
1001
ACAD
1000
ASC_BOUNDS
1002
{
1070
    19
1005
1FC8E
1002
}
  0
LINE
  5
1FC62
330
1FC46
100
AcDbEntity
  8
0
100
AcDbLine
 10
4.617999999995391
 20
8.763099999991255
 30
0.0
 11
6.432999999993513
 21
8.763099999991255
 31
0.0
1001
ACAD
1000
ASC_BOUNDS
1002
{
1070
    19
1005
1FC89
1002
}
  0
LINE
  5
1FC63
330
1FC46
100
AcDbEntity
  8
0
100
AcDbLine
 10
14.32399999998563
 20
3.315799999996671
 30
0.0
 11
12.02999999998792
 21
8.763099999991255
 31
0.0
1001
ACAD
1000
ASC_BOUNDS
1002
{
1070
    19
1005
1FC8A
1002
}
  0
LINE
  5
1FC64
330
1FC46
100
AcDbEntity
  8
0
100
AcDbLine
 10
10.06399999998996
 20
3.670999999996297
 30
0.0
 11
9.236999999990758
 21
5.5200999999945
 31
0.0
1001
ACAD
1000
ASC_BOUNDS
1002
{
1070
    19
1005
1FC89
1002
}
  0
LINE
  5
1FC65
330
1FC46
100
AcDbEntity
  8
0
100
AcDbLine
 10
8.409999999991555
 20
3.670999999996297
 30
0.0
 11
9.236999999990758
 21
5.5200999999945
 31
0.0
1001
ACAD
1000
ASC_BOUNDS
1002
{
1070
    19
1005
1FC89
1002
}
  0
LINE
  5
1FC66
330
1FC46
100
AcDbEntity
  8
0
100
AcDbLine
 10
8.409999999991555
 20
3.670999999996297
 30
0.0
 11
10.06399999998996
 21
3.670999999996297
 31
0.0
1001
ACAD
1000
ASC_BOUNDS
1002
{
1070
    19
1005
1FC89
1002
}
  0
LINE
  5
1FC67
330
1FC46
100
AcDbEntity
  8
0
100
AcDbLine
 10
10.53899999998941
 20
8.763099999991255
 30
0.0
 11
12.02999999998792
 21
8.763099999991255
 31
0.0
1001
ACAD
1000
ASC_BOUNDS
1002
{
1070
    19
1005
1FC8A
1002
}
  0
LINE
  5
1FC68
330
1FC46
100
AcDbEntity
  8
0
100
AcDbLine
 10
22.7389999999773
 20
3.670999999996297
 30
0.0
 11
23.56599999997638
 21
5.5200999999945
 31
0.0
1001
ACAD
1000
ASC_BOUNDS
1002
{
1070
    19
1005
1FC8B
1002
}
  0
LINE
  5
1FC69
330
1FC46
100
AcDbEntity
  8
0
100
AcDbLine
 10
22.7389999999773
 20
3.670999999996297
 30
0.0
 11
24.39299999997559
 21
3.670999999996297
 31
0.0
1001
ACAD
1000
ASC_BOUNDS
1002
{
1070
    19
1005
1FC8B
1002
}
  0
LINE
  5
1FC6A
330
1FC46
100
AcDbEntity
  8
0
100
AcDbLine
 10
18.59799999998143
 20
3.315799999996671
 30
0.0
 11
20.89099999997916
 21
8.763099999991255
 31
0.0
1001
ACAD
1000
ASC_BOUNDS
1002
{
1070
    19
1005
1FC8A
1002
}
  0
LINE
  5
1FC6B
330
1FC46
100
AcDbEntity
  8
0
100
AcDbLine
 10
18.59799999998143
 20
3.315799999996671
 30
0.0
 11
16.46099999998353
 21
8.999899999990987
 31
0.0
1001
ACAD
1000
ASC_BOUNDS
1002
{
1070
    19
1005
1FC8A
1002
}
  0
LINE
  5
1FC6C
330
1FC46
100
AcDbEntity
  8
0
100
AcDbLine
 10
20.89099999997916
 20
8.763099999991255
 30
0.0
 11
22.38199999997767
 21
8.763099999991255
 31
0.0
1001
ACAD
1000
ASC_BOUNDS
1002
{
1070
    19
1005
1FC8A
1002
}
  0
LINE
  5
1FC6D
330
1FC46
100
AcDbEntity
  8
0
100
AcDbLine
 10
24.39299999997559
 20
3.670999999996297
 30
0.0
 11
23.56599999997638
 21
5.5200999999945
 31
0.0
1001
ACAD
1000
ASC_BOUNDS
1002
{
1070
    19
1005
1FC8B
1002
}
  0
LINE
  5
1FC6E
330
1FC46
100
AcDbEntity
  8
0
100
AcDbLine
 10
44.99999999995498
 20
-0.2368999999997641
 30
0.0
 11
40.02599999995994
 21
5.341799999994635
 31
0.0
1001
ACAD
1000
ASC_BOUNDS
1002
{
1070
    19
1005
1FC8D
1002
}
  0
LINE
  5
1FC6F
330
1FC46
100
AcDbEntity
  8
0
100
AcDbLine
 10
40.02599999995994
 20
5.341799999994635
 30
0.0
 11
40.02599999995994
 21
0.0
 31
0.0
1001
ACAD
1000
ASC_BOUNDS
1002
{
1070
    19
1005
1FC8D
1002
}
  0
LINE
  5
1FC70
330
1FC46
100
AcDbEntity
  8
0
100
AcDbLine
 10
38.60499999996136
 20
8.999999999991019
 30
0.0
 11
38.60499999996136
 21
0.0
 31
0.0
1001
ACAD
1000
ASC_BOUNDS
1002
{
1070
    19
1005
1FC8D
1002
}
  0
LINE
  5
1FC71
330
1FC46
100
AcDbEntity
  8
0
100
AcDbLine
 10
44.99999999995498
 20
8.763099999991255
 30
0.0
 11
44.99999999995498
 21
-0.2368999999997641
 31
0.0
1001
ACAD
1000
ASC_BOUNDS
1002
{
1070
    19
1005
1FC8D
1002
}
  0
LINE
  5
1FC72
330
1FC46
100
AcDbEntity
  8
0
100
AcDbLine
 10
38.60499999996136
 20
0.0
 30
0.0
 11
40.02599999995994
 21
0.0
 31
0.0
1001
ACAD
1000
ASC_BOUNDS
1002
{
1070
    19
1005
1FC8D
1002
}
  0
LINE
  5
1FC73
330
1FC46
100
AcDbEntity
  8
0
100
AcDbLine
 10
43.57899999995641
 20
3.421199999996588
 30
0.0
 11
38.60499999996136
 21
8.999899999990987
 31
0.0
1001
ACAD
1000
ASC_BOUNDS
1002
{
1070
    19
1005
1FC8D
1002
}
  0
LINE
  5
1FC74
330
1FC46
100
AcDbEntity
  8
0
100
AcDbLine
 10
43.57899999995641
 20
8.763099999991255
 30
0.0
 11
43.57899999995641
 21
3.421199999996588
 31
0.0
1001
ACAD
1000
ASC_BOUNDS
1002
{
1070
    19
1005
1FC8D
1002
}
  0
LINE
  5
1FC75
330
1FC46
100
AcDbEntity
  8
0
100
AcDbLine
 10
43.57899999995641
 20
8.763099999991255
 30
0.0
 11
44.99999999995498
 21
8.763099999991255
 31
0.0
1001
ACAD
1000
ASC_BOUNDS
1002
{
1070
    19
1005
1FC8D
1002
}
  0
LINE
  5
1FC76
330
1FC46
100
AcDbEntity
  8
0
100
AcDbLine
 10
37.67199999996831
 20
8.763099999991255
 30
0.0
 11
36.23199999996837
 21
8.763099999991255
 31
0.0
  0
LINE
  5
1FC77
330
1FC46
100
AcDbEntity
  8
0
100
AcDbLine
 10
31.64199999996833
 20
8.763099999991255
 30
0.0
 11
31.64199999996833
 21
2.481619422925121
 31
0.0
  0
LINE
  5
1FC78
330
1FC46
100
AcDbEntity
  8
0
100
AcDbLine
 10
37.67199999996831
 20
8.763099999991255
 30
0.0
 11
37.67199999996831
 21
2.481619422925121
 31
0.0
  0
LINE
  5
1FC79
330
1FC46
100
AcDbEntity
  8
0
100
AcDbLine
 10
36.23199999996837
 20
8.763099999991255
 30
0.0
 11
36.23199999996837
 21
2.481619422925064
 31
0.0
  0
LINE
  5
1FC7A
330
1FC46
100
AcDbEntity
  8
0
100
AcDbLine
 10
33.08199999996839
 20
8.763099999991255
 30
0.0
 11
33.08199999996839
 21
2.481619422925121
 31
0.0
  0
ARC
  5
1FC7B
330
1FC46
100
AcDbEntity
  8
0
100
AcDbCircle
 10
34.65699999996832
 20
3.183099999991214
 30
0.0
 40
3.420000000000007
100
AcDbArc
 50
240.0000000000255
 51
299.9999999999766
  0
ARC
  5
1FC7C
330
1FC46
100
AcDbEntity
  8
0
100
AcDbCircle
 10
34.65699999996832
 20
3.183099999991214
 30
0.0
 40
1.97999999999999
100
AcDbArc
 50
240.000000000026
 51
299.9999999999703
  0
LINE
  5
1FC7D
330
1FC46
100
AcDbEntity
  8
0
100
AcDbLine
 10
33.08199999996828
 20
8.763099999991255
 30
0.0
 11
31.64199999996833
 21
8.763099999991255
 31
0.0
  0
ARC
  5
1FC7E
330
1FC46
100
AcDbEntity
  8
0
100
AcDbCircle
 10
35.06199999996829
 20
2.481619422925064
 30
0.0
 40
1.17
100
AcDbArc
 50
299.9999999999699
 51
0.0
  0
ARC
  5
1FC7F
330
1FC46
100
AcDbEntity
  8
0
100
AcDbCircle
 10
34.25199999996835
 20
2.481619422925121
 30
0.0
 40
1.17
100
AcDbArc
 50
180.0
 51
240.0000000000238
  0
ARC
  5
1FC80
330
1FC46
100
AcDbEntity
  8
0
100
AcDbCircle
 10
35.06199999996841
 20
2.481619422925121
 30
0.0
 40
2.61
100
AcDbArc
 50
299.9999999999756
 51
0.0
  0
ARC
  5
1FC81
330
1FC46
100
AcDbEntity
  8
0
100
AcDbCircle
 10
34.25199999996835
 20
2.481619422925121
 30
0.0
 40
2.61
100
AcDbArc
 50
180.0
 51
240.0000000000244
  0
LINE
  5
1FC82
330
1FC46
100
AcDbEntity
  8
0
100
AcDbLine
 10
29.30199999996933
 20
8.763099999991255
 30
0.0
 11
30.74199999996927
 21
8.763099999991255
 31
0.0
1001
ACAD
1000
ASC_BOUNDS
1002
{
1070
    19
1005
1FC8B
1002
}
  0
LINE
  5
1FC83
330
1FC46
100
AcDbEntity
  8
0
100
AcDbLine
 10
30.74199999996927
 20
8.763099999991255
 30
0.0
 11
30.74199999996927
 21
2.373099999991211
 31
0.0
1001
ACAD
1000
ASC_BOUNDS
1002
{
1070
    19
1005
1FC8B
1002
}
  0
LINE
  5
1FC84
330
1FC46
100
AcDbEntity
  8
0
100
AcDbLine
 10
26.02015566812236
 20
0.0330999999912365
 30
0.0
 11
28.40199999996923
 21
0.0330999999912365
 31
0.0
1001
ACAD
1000
ASC_BOUNDS
1002
{
1070
    19
1005
1FC8B
1002
}
  0
LINE
  5
1FC85
330
1FC46
100
AcDbEntity
  8
0
100
AcDbLine
 10
29.30199999996933
 20
8.763099999991255
 30
0.0
 11
29.30199999996933
 21
2.283099999991236
 31
0.0
1001
ACAD
1000
ASC_BOUNDS
1002
{
1070
    19
1005
1FC8B
1002
}
  0
LINE
  5
1FC86
330
1FC46
100
AcDbEntity
  8
0
100
AcDbLine
 10
26.97358892824991
 20
1.383099999991202
 30
0.0
 11
28.40199999996923
 21
1.383099999991202
 31
0.0
1001
ACAD
1000
ASC_BOUNDS
1002
{
1070
    19
1005
1FC8B
1002
}
  0
ARC
  5
1FC87
330
1FC46
100
AcDbEntity
  8
0
100
AcDbCircle
 10
28.40199999996923
 20
2.283099999991236
 30
0.0
 40
0.9
100
AcDbArc
 50
270.0
 51
0.0
1001
ACAD
1000
ASC_BOUNDS
1002
{
1070
    19
1005
1FC8B
1002
}
  0
ARC
  5
1FC88
330
1FC46
100
AcDbEntity
  8
0
100
AcDbCircle
 10
28.40199999996923
 20
2.373099999991211
 30
0.0
 40
2.34
100
AcDbArc
 50
270.0
 51
0.0
1001
ACAD
1000
ASC_BOUNDS
1002
{
1070
    19
1005
1FC8B
1002
}
  0
INSERT
  5
1FC89
330
1FC46
100
AcDbEntity
  8
0
100
AcDbBlockReference
  2
*X186
 10
0.0
 20
0.0
 30
0.0
1001
ACAD
1000
HATCH
1002
{
1070
    19
1000
ANSI37
1040
0.15
1040
0.0
1000
ASC_BOUNDS
1070
     2
1070
     2
1070
    12
1005
1FC48
1005
1FC49
1005
1FC50
1005
1FC5F
1005
1FC62
1005
1FC60
1005
1FC51
1005
1FC56
1005
1FC54
1005
1FC58
1005
1FC57
1005
1FC59
1070
     2
1070
     3
1005
1FC64
1005
1FC66
1005
1FC65
1000
ASC_SEEDPOINT
1011
3.614004224891801
1021
2.996669441146025
1031
0.0
1000
R14_HATCH_DATA
1000
1FC89
1011
1.0
1021
0.0
1031
0.0
1011
0.0
1021
1.0
1031
0.0
1011
0.0
1021
0.0
1031
1.0
1040
0.0
1010
0.0
1020
0.0
1030
1.0
1000
ANSI37
1070
     0
1070
     1
1071
        2
1071
        7
1070
     0
1070
     1
1071
       17
1040
13.26299999998673
1040
-0.0001000000000317
1040
9.236999999990758
1040
8.999899999990987
1040
9.236999999990758
1040
8.999999999991019
1040
5.657999999994331
1040
0.9999999999989768
1040
3.181999999996833
1040
4.668599999995308
1040
6.432999999993513
1040
8.763099999991255
1040
4.617999999995391
1040
8.763099999991255
1040
1.420999999998571
1040
4.736799999995242
1040
4.617999999995391
1040
-0.0001000000000317
1040
4.617999999995391
1040
0.0
1040
6.766999999993232
1040
0.0
1040
6.766999999993232
1040
-0.0001000000000317
1040
7.826999999992154
1040
2.368399999997621
1040
10.64699999998936
1040
2.368399999997621
1040
11.70599999998831
1040
-0.0001000000000317
1040
11.70599999998831
1040
0.0
1040
13.26299999998673
1040
0.0
1071
       12
1005
1FC48
1005
1FC49
1005
1FC50
1005
1FC5F
1005
1FC62
1005
1FC60
1005
1FC51
1005
1FC56
1005
1FC54
1005
1FC58
1005
1FC57
1005
1FC59
1071
       22
1070
     0
1070
     1
1071
        3
1040
9.236999999990758
1040
5.5200999999945
1040
10.06399999998996
1040
3.670999999996297
1040
8.409999999991555
1040
3.670999999996297
1071
        3
1005
1FC64
1005
1FC66
1005
1FC65
1070
     0
1070
     1
1040
0.0
1040
0.15
1070
     0
1070
     2
1040
0.7853981633974483
1040
49.29960901727088
1040
-10.17736998311392
1040
-0.3367596045400932
1040
0.3367596045400932
1070
     0
1040
2.356194490192345
1040
49.29960901727088
1040
-10.17736998311392
1040
-0.3367596045400932
1040
-0.3367596045400932
1070
     0
1040
0.0110235143455945
1071
        2
1040
3.614004224891801
1040
2.996669441146025
1040
0.0
1040
3.614004224891801
1040
2.996669441146025
1040
0.0
1002
}
  0
INSERT
  5
1FC8A
330
1FC46
100
AcDbEntity
  8
0
100
AcDbBlockReference
  2
*X187
 10
0.0
 20
0.0
 30
0.0
1001
ACAD
1000
HATCH
1002
{
1070
    19
1000
ANSI37
1040
0.15
1040
0.0
1000
ASC_BOUNDS
1070
     1
1070
     2
1070
    10
1005
1FC4A
1005
1FC4B
1005
1FC6C
1005
1FC6A
1005
1FC6B
1005
1FC5E
1005
1FC63
1005
1FC67
1005
1FC4D
1005
1FC4C
1000
ASC_SEEDPOINT
1011
14.73245321214324
1021
2.798246178283421
1031
0.0
1000
R14_HATCH_DATA
1000
1FC8A
1011
1.0
1021
0.0
1031
0.0
1011
0.0
1021
1.0
1031
0.0
1011
0.0
1021
0.0
1031
1.0
1040
0.0
1010
0.0
1020
0.0
1030
1.0
1000
ANSI37
1070
     0
1070
     1
1071
        1
1071
        7
1070
     0
1070
     1
1071
       10
1040
16.46099999998353
1040
5.432899999994561
1040
18.59199999998134
1040
-0.2368999999997641
1040
22.38199999997767
1040
8.763099999991255
1040
20.89099999997916
1040
8.763099999991255
1040
18.59799999998143
1040
3.315799999996671
1040
16.46099999998353
1040
8.999899999990987
1040
14.32399999998563
1040
3.315799999996671
1040
12.02999999998792
1040
8.763099999991255
1040
10.53899999998941
1040
8.763099999991255
1040
14.32899999998563
1040
-0.2368999999997641
1071
       10
1005
1FC4A
1005
1FC4B
1005
1FC6C
1005
1FC6A
1005
1FC6B
1005
1FC5E
1005
1FC63
1005
1FC67
1005
1FC4D
1005
1FC4C
1070
     0
1070
     1
1040
0.0
1040
0.15
1070
     0
1070
     2
1040
0.7853981633974483
1040
49.29960901727088
1040
-10.17736998311392
1040
-0.3367596045400932
1040
0.3367596045400932
1070
     0
1040
2.356194490192345
1040
49.29960901727088
1040
-10.17736998311392
1040
-0.3367596045400932
1040
-0.3367596045400932
1070
     0
1040
0.0110235143455945
1071
        1
1040
14.73245321214324
1040
2.798246178283421
1040
0.0
1002
}
  0
INSERT
  5
1FC8B
330
1FC46
100
AcDbEntity
  8
0
100
AcDbBlockReference
  2
*X188
 10
0.0
 20
0.0
 30
0.0
1001
ACAD
1000
HATCH
1002
{
1070
    19
1000
ANSI37
1040
0.15
1040
0.0
1000
ASC_BOUNDS
1070
     2
1070
     2
1070
    13
1005
1FC4E
1005
1FC5B
1005
1FC5C
1005
1FC5A
1005
1FC5D
1005
1FC84
1005
1FC88
1005
1FC83
1005
1FC82
1005
1FC85
1005
1FC87
1005
1FC86
1005
1FC4F
1070
     2
1070
     3
1005
1FC68
1005
1FC6D
1005
1FC69
1000
ASC_SEEDPOINT
1011
21.97929957367762
1021
3.294304244259308
1031
0.0
1000
R14_HATCH_DATA
1000
1FC8B
1011
1.0
1021
0.0
1031
0.0
1011
0.0
1021
1.0
1031
0.0
1011
0.0
1021
0.0
1031
1.0
1040
0.0
1010
0.0
1020
0.0
1030
1.0
1000
ANSI37
1070
     0
1070
     1
1071
        2
1071
        7
1070
     1
1070
     1
1071
       15
1040
23.56599999997638
1040
8.999899999990987
1040
0.0
1040
19.53899999998043
1040
-0.0001000000000317
1040
0.0
1040
19.53899999998043
1040
0.0
1040
0.0
1040
21.09599999997886
1040
0.0
1040
0.0
1040
21.09599999997886
1040
-0.0001000000000317
1040
0.0
1040
22.15599999997789
1040
2.368399999997621
1040
0.0
1040
24.97599999997499
1040
2.368399999997621
1040
0.0
1040
26.02015566812236
1040
0.0330999999912365
1040
0.0
1040
28.40199999996923
1040
0.0330999999912365
1040
0.414213562373095
1040
30.74199999996923
1040
2.373099999991211
1040
0.0
1040
30.74199999996927
1040
8.763099999991255
1040
0.0
1040
29.30199999996933
1040
8.763099999991255
1040
0.0
1040
29.30199999996933
1040
2.283099999991236
1040
-0.414213562373095
1040
28.40199999996923
1040
1.383099999991237
1040
0.0
1040
26.97358892824991
1040
1.383099999991202
1040
0.0
1071
       13
1005
1FC4E
1005
1FC5B
1005
1FC5C
1005
1FC5A
1005
1FC5D
1005
1FC84
1005
1FC88
1005
1FC83
1005
1FC82
1005
1FC85
1005
1FC87
1005
1FC86
1005
1FC4F
1071
       22
1070
     0
1070
     1
1071
        3
1040
22.7389999999773
1040
3.670999999996297
1040
23.56599999997638
1040
5.5200999999945
1040
24.39299999997559
1040
3.670999999996297
1071
        3
1005
1FC68
1005
1FC6D
1005
1FC69
1070
     0
1070
     1
1040
0.0
1040
0.15
1070
     0
1070
     2
1040
0.7853981633974483
1040
49.29960901727088
1040
-10.17736998311392
1040
-0.3367596045400932
1040
0.3367596045400932
1070
     0
1040
2.356194490192345
1040
49.29960901727088
1040
-10.17736998311392
1040
-0.3367596045400932
1040
-0.3367596045400932
1070
     0
1040
0.0110235143455945
1071
        2
1040
21.97929957367762
1040
3.294304244259308
1040
0.0
1040
21.97929957367762
1040
3.294304244259308
1040
0.0
1002
}
  0
INSERT
  5
1FC8C
330
1FC46
100
AcDbEntity
  8
0
100
AcDbBlockReference
  2
*X189
 10
0.0
 20
0.0
 30
0.0
1001
ACAD
1000
HATCH
1002
{
1070
    19
1000
ANSI37
1040
0.15
1040
0.0
1000
R14_HATCH_DATA
1000
1FC8C
1011
1.0
1021
0.0
1031
0.0
1011
0.0
1021
1.0
1031
0.0
1011
0.0
1021
0.0
1031
1.0
1040
0.0
1010
0.0
1020
0.0
1030
1.0
1000
ANSI37
1070
     0
1070
     1
1071
        1
1071
        7
1070
     1
1070
     1
1071
       12
1040
31.64199999996833
1040
2.481619422925121
1040
0.2679491924310942
1040
32.94699999997067
1040
0.2212931190493919
1040
0.2679491924301353
1040
36.36699999995983
1040
0.2212931190459813
1040
0.2679491924321411
1040
37.67199999996831
1040
2.481619422928361
1040
0.0
1040
37.67199999996831
1040
8.763099999991255
1040
0.0
1040
36.23199999996837
1040
8.763099999991255
1040
0.0
1040
36.23199999996837
1040
2.481619422925064
1040
-0.2679491924310291
1040
35.64699999996708
1040
1.468369700498386
1040
-0.267949192430519
1040
33.66699999997093
1040
1.468369700497703
1040
-0.267949192431809
1040
33.08199999996839
1040
2.481619422926997
1040
0.0
1040
33.08199999996839
1040
8.763099999991255
1040
0.0
1040
31.64199999996833
1040
8.763099999991255
1040
0.0
1071
        0
1070
     0
1070
     1
1040
0.0
1040
0.15
1070
     0
1070
     2
1040
0.7853981633974483
1040
49.29960901727088
1040
-10.17736998311392
1040
-0.3367596045400932
1040
0.3367596045400932
1070
     0
1040
2.356194490192345
1040
49.29960901727088
1040
-10.17736998311392
1040
-0.3367596045400932
1040
-0.3367596045400932
1070
     0
1040
0.0110235143455945
1071
        1
1040
32.30357378967278
1040
3.988785755459219
1040
0.0
1002
}
  0
INSERT
  5
1FC8D
330
1FC46
100
AcDbEntity
  8
0
100
AcDbBlockReference
  2
*X190
 10
0.0
 20
0.0
 30
0.0
1001
ACAD
1000
HATCH
1002
{
1070
    19
1000
ANSI37
1040
0.15
1040
0.0
1000
ASC_BOUNDS
1070
     1
1070
     2
1070
     8
1005
1FC6E
1005
1FC71
1005
1FC75
1005
1FC74
1005
1FC73
1005
1FC70
1005
1FC72
1005
1FC6F
1000
ASC_SEEDPOINT
1011
39.74896370716704
1021
4.484843821435049
1031
0.0
1000
R14_HATCH_DATA
1000
1FC8D
1011
1.0
1021
0.0
1031
0.0
1011
0.0
1021
1.0
1031
0.0
1011
0.0
1021
0.0
1031
1.0
1040
0.0
1010
0.0
1020
0.0
1030
1.0
1000
ANSI37
1070
     0
1070
     1
1071
        1
1071
        7
1070
     0
1070
     1
1071
        9
1040
40.02599999995994
1040
5.341799999994635
1040
44.99999999995498
1040
-0.2368999999997641
1040
44.99999999995498
1040
8.763099999991255
1040
43.57899999995641
1040
8.763099999991255
1040
43.57899999995641
1040
3.421199999996588
1040
38.60499999996136
1040
8.999899999990987
1040
38.60499999996136
1040
8.999999999991019
1040
38.60499999996136
1040
0.0
1040
40.02599999995994
1040
0.0
1071
        8
1005
1FC6E
1005
1FC71
1005
1FC75
1005
1FC74
1005
1FC73
1005
1FC70
1005
1FC72
1005
1FC6F
1070
     0
1070
     1
1040
0.0
1040
0.15
1070
     0
1070
     2
1040
0.7853981633974483
1040
49.29960901727088
1040
-10.17736998311392
1040
-0.3367596045400932
1040
0.3367596045400932
1070
     0
1040
2.356194490192345
1040
49.29960901727088
1040
-10.17736998311392
1040
-0.3367596045400932
1040
-0.3367596045400932
1070
     0
1040
0.0110235143455945
1071
        1
1040
39.74896370716704
1040
4.484843821435049
1040
0.0
1002
}
  0
INSERT
  5
1FC8E
330
1FC46
100
AcDbEntity
  8
0
100
AcDbBlockReference
  2
*X191
 10
0.0
 20
0.0
 30
0.0
1001
ACAD
1000
HATCH
1002
{
1070
    19
1000
ANSI37
1040
0.15
1040
0.0
1000
ASC_BOUNDS
1070
     1
1070
     2
1070
     4
1005
1FC52
1005
1FC61
1005
1FC53
1005
1FC55
1000
ASC_SEEDPOINT
1011
1.079051535452663
1021
4.148538732891836
1031
0.0
1000
R14_HATCH_DATA
1000
1FC8E
1011
1.0
1021
0.0
1031
0.0
1011
0.0
1021
1.0
1031
0.0
1011
0.0
1021
0.0
1031
1.0
1040
0.0
1010
0.0
1020
0.0
1030
1.0
1000
ANSI37
1070
     0
1070
     1
1071
        1
1071
        7
1070
     0
1070
     1
1071
        4
1040
1.420999999998571
1040
0.0
1040
1.420999999998571
1040
8.763099999991255
1040
0.0
1040
8.763099999991255
1040
0.0
1040
0.0
1071
        4
1005
1FC52
1005
1FC61
1005
1FC53
1005
1FC55
1070
     0
1070
     1
1040
0.0
1040
0.15
1070
     0
1070
     2
1040
0.7853981633974483
1040
49.29960901727088
1040
-10.17736998311392
1040
-0.3367596045400932
1040
0.3367596045400932
1070
     0
1040
2.356194490192345
1040
49.29960901727088
1040
-10.17736998311392
1040
-0.3367596045400932
1040
-0.3367596045400932
1070
     0
1040
0.0053004257112761
1071
        1
1040
1.079051535452663
1040
4.148538732891836
1040
0.0
1002
}
  0
ENDBLK
  5
20346
330
1FC46
100
AcDbEntity
  8
0
100
AcDbBlockEnd
  0
BLOCK
  5
20588
330
20460
100
AcDbEntity
  8
0
100
AcDbBlockBegin
  2
NOCIRCLE
 70
     2
 10
0.0
 20
0.0
 30
0.0
  3
NOCIRCLE
  1

  0
CIRCLE
  5
20464
330
20460
100
AcDbEntity
  8
0
  6
BYBLOCK
 62
     0
100
AcDbCircle
 10
0.0
 20
0.0
 30
0.0
 40
4.2
  0
ATTDEF
  5
20465
330
20460
100
AcDbEntity
  8
1TEXT
100
AcDbText
 10
-1.904761904761876
 20
-2.0
 30
0.0
 40
4.0
  1
0
 72
     4
 11
0.0
 21
0.0
 31
0.0
100
AcDbAttributeDefinition
  3
NO.
  2
NO
 70
     0
  0
ENDBLK
  5
20589
330
20460
100
AcDbEntity
  8
0
100
AcDbBlockEnd
  0
BLOCK
  5
23B4A
330
239BC
100
AcDbEntity
  8
0
100
AcDbBlockBegin
  2
*X186
 70
     1
 10
0.0
 20
0.0
 30
0.0
  3
*X186
  1

  0
LINE
  5
239BD
330
239BC
100
AcDbEntity
  8
0
  6
CONTINUOUS
100
AcDbLine
 10
3.418023043697893
 20
7.251849696850613
 30
0.0
 11
4.929273346838536
 21
8.763099999991255
 31
0.0
  0
LINE
  5
239BE
330
239BC
100
AcDbEntity
  8
0
  6
CONTINUOUS
100
AcDbLine
 10
1.483656411257782
 20
4.643963855330318
 30
0.0
 11
5.60279255591872
 21
8.763099999991255
 31
0.0
  0
LINE
  5
239BF
330
239BC
100
AcDbEntity
  8
0
  6
CONTINUOUS
100
AcDbLine
 10
1.755053947328235
 20
4.241842182320584
 30
0.0
 11
6.276311764998907
 21
8.763099999991255
 31
0.0
  0
LINE
  5
239C0
330
239BC
100
AcDbEntity
  8
0
  6
CONTINUOUS
100
AcDbLine
 10
2.026451483398688
 20
3.839720509310849
 30
0.0
 11
4.441040904851878
 21
6.254309930764039
 31
0.0
  0
LINE
  5
239C1
330
239BC
100
AcDbEntity
  8
0
  6
CONTINUOUS
100
AcDbLine
 10
2.297849019469139
 20
3.437598836301114
 30
0.0
 11
3.321765168359338
 21
4.461514985191313
 31
0.0
  0
LINE
  5
239C2
330
239BC
100
AcDbEntity
  8
0
  6
CONTINUOUS
100
AcDbLine
 10
2.569246555539591
 20
3.03547716329138
 30
0.0
 11
3.593163397972743
 21
4.059394005724531
 31
0.0
  0
LINE
  5
239C3
330
239BC
100
AcDbEntity
  8
0
  6
CONTINUOUS
100
AcDbLine
 10
2.840644091610043
 20
2.633355490281646
 30
0.0
 11
3.864561627586149
 21
3.657273026257751
 31
0.0
  0
LINE
  5
239C4
330
239BC
100
AcDbEntity
  8
0
  6
CONTINUOUS
100
AcDbLine
 10
3.112041627680496
 20
2.231233817271911
 30
0.0
 11
4.135959857199554
 21
3.25515204679097
 31
0.0
  0
LINE
  5
239C5
330
239BC
100
AcDbEntity
  8
0
  6
CONTINUOUS
100
AcDbLine
 10
3.383439163750948
 20
1.829112144262177
 30
0.0
 11
4.40735808681296
 21
2.853031067324189
 31
0.0
  0
LINE
  5
239C6
330
239BC
100
AcDbEntity
  8
0
  6
CONTINUOUS
100
AcDbLine
 10
3.654836699821399
 20
1.426990471252442
 30
0.0
 11
4.678756316426365
 21
2.450910087857407
 31
0.0
  0
LINE
  5
239C7
330
239BC
100
AcDbEntity
  8
0
  6
CONTINUOUS
100
AcDbLine
 10
3.926234235891853
 20
1.024868798242709
 30
0.0
 11
4.95015454603977
 21
2.048789108390626
 31
0.0
  0
LINE
  5
239C8
330
239BC
100
AcDbEntity
  8
0
  6
CONTINUOUS
100
AcDbLine
 10
4.197631771962304
 20
0.6227471252329737
 30
0.0
 11
5.221552775653176
 21
1.646668128923846
 31
0.0
  0
LINE
  5
239C9
330
239BC
100
AcDbEntity
  8
0
  6
CONTINUOUS
100
AcDbLine
 10
8.715877546767851
 20
7.835069736359266
 30
0.0
 11
9.435953450375058
 21
8.555145639966472
 31
0.0
  0
LINE
  5
239CA
330
239BC
100
AcDbEntity
  8
0
  6
CONTINUOUS
100
AcDbLine
 10
8.170620868422267
 20
6.616293848933497
 30
0.0
 11
9.644120833743461
 21
8.08979381425469
 31
0.0
  0
LINE
  5
239CB
330
239BC
100
AcDbEntity
  8
0
  6
CONTINUOUS
100
AcDbLine
 10
7.625364190076684
 20
5.397517961507727
 30
0.0
 11
9.852288217111864
 21
7.624441988542907
 31
0.0
  0
LINE
  5
239CC
330
239BC
100
AcDbEntity
  8
0
  6
CONTINUOUS
100
AcDbLine
 10
7.080107511731101
 20
4.178742074081957
 30
0.0
 11
10.06045560048027
 21
7.159090162831124
 31
0.0
  0
LINE
  5
239CD
330
239BC
100
AcDbEntity
  8
0
  6
CONTINUOUS
100
AcDbLine
 10
6.534850833385518
 20
2.959966186656187
 30
0.0
 11
10.26862298384867
 21
6.693738337119342
 31
0.0
  0
LINE
  5
239CE
330
239BC
100
AcDbEntity
  8
0
  6
CONTINUOUS
100
AcDbLine
 10
4.469029308032756
 20
0.2206254522232385
 30
0.0
 11
5.492951005266582
 21
1.244547149457064
 31
0.0
  0
LINE
  5
239CF
330
239BC
100
AcDbEntity
  8
0
  6
CONTINUOUS
100
AcDbLine
 10
5.989594155039935
 20
1.741190299230417
 30
0.0
 11
8.806950407233131
 21
4.558546551423613
 31
0.0
  0
LINE
  5
239D0
330
239BC
100
AcDbEntity
  8
0
  6
CONTINUOUS
100
AcDbLine
 10
9.401251593263643
 20
5.152847737454126
 30
0.0
 11
10.47679036721708
 21
6.228386511407559
 31
0.0
  0
LINE
  5
239D1
330
239BC
100
AcDbEntity
  8
0
  6
CONTINUOUS
100
AcDbLine
 10
4.921837203428691
 20
-0.0000858614610131
 30
0.0
 11
8.592923064886001
 21
3.670999999996297
 31
0.0
  0
LINE
  5
239D2
330
239BC
100
AcDbEntity
  8
0
  6
CONTINUOUS
100
AcDbLine
 10
9.609390446785305
 20
4.6874673818956
 30
0.0
 11
10.68495775058548
 21
5.763034685695775
 31
0.0
  0
LINE
  5
239D3
330
239BC
100
AcDbEntity
  8
0
  6
CONTINUOUS
100
AcDbLine
 10
5.595387755019432
 20
-0.0000545189504582
 30
0.0
 11
7.716137258923768
 21
2.120694984953879
 31
0.0
  0
LINE
  5
239D4
330
239BC
100
AcDbEntity
  8
0
  6
CONTINUOUS
100
AcDbLine
 10
6.268938306610172
 20
-0.000023176439905
 30
0.0
 11
7.170485805526503
 21
0.9015243224764267
 31
0.0
  0
LINE
  5
239D5
330
239BC
100
AcDbEntity
  8
0
  6
CONTINUOUS
100
AcDbLine
 10
7.963842273967511
 20
2.368399999997621
 30
0.0
 11
9.266442273966188
 21
3.670999999996297
 31
0.0
  0
LINE
  5
239D6
330
239BC
100
AcDbEntity
  8
0
  6
CONTINUOUS
100
AcDbLine
 10
8.637361483047696
 20
2.368399999997621
 30
0.0
 11
9.939961483046375
 21
3.670999999996297
 31
0.0
  0
LINE
  5
239D7
330
239BC
100
AcDbEntity
  8
0
  6
CONTINUOUS
100
AcDbLine
 10
9.817529300306965
 20
4.222087026337075
 30
0.0
 11
10.89312513395388
 21
5.297682859983993
 31
0.0
  0
LINE
  5
239D8
330
239BC
100
AcDbEntity
  8
0
  6
CONTINUOUS
100
AcDbLine
 10
10.02566815382863
 20
3.756706670778549
 30
0.0
 11
11.10129251732229
 21
4.832331034272211
 31
0.0
  0
LINE
  5
239D9
330
239BC
100
AcDbEntity
  8
0
  6
CONTINUOUS
100
AcDbLine
 10
9.310880692127883
 20
2.368399999997621
 30
0.0
 11
11.30945990069069
 21
4.366979208560428
 31
0.0
  0
LINE
  5
239DA
330
239BC
100
AcDbEntity
  8
0
  6
CONTINUOUS
100
AcDbLine
 10
9.98439990120807
 20
2.36839999999762
 30
0.0
 11
11.5176272840591
 21
3.901627382848645
 31
0.0
  0
LINE
  5
239DB
330
239BC
100
AcDbEntity
  8
0
  6
CONTINUOUS
100
AcDbLine
 10
10.65037369446246
 20
2.36085458417182
 30
0.0
 11
11.7257946674275
 21
3.436275557136862
 31
0.0
  0
LINE
  5
239DC
330
239BC
100
AcDbEntity
  8
0
  6
CONTINUOUS
100
AcDbLine
 10
10.85847197087848
 20
1.895433651507656
 30
0.0
 11
11.9339620507959
 21
2.97092373142508
 31
0.0
  0
LINE
  5
239DD
330
239BC
100
AcDbEntity
  8
0
  6
CONTINUOUS
100
AcDbLine
 10
11.0665702472945
 20
1.430012718843491
 30
0.0
 11
12.14212943416431
 21
2.505571905713296
 31
0.0
  0
LINE
  5
239DE
330
239BC
100
AcDbEntity
  8
0
  6
CONTINUOUS
100
AcDbLine
 10
11.27466852371052
 20
0.9645917861793256
 30
0.0
 11
12.35029681753271
 21
2.040220080001513
 31
0.0
  0
LINE
  5
239DF
330
239BC
100
AcDbEntity
  8
0
  6
CONTINUOUS
100
AcDbLine
 10
11.48276680012654
 20
0.4991708535151611
 30
0.0
 11
12.55846420090111
 21
1.57486825428973
 31
0.0
  0
LINE
  5
239E0
330
239BC
100
AcDbEntity
  8
0
  6
CONTINUOUS
100
AcDbLine
 10
11.69086507654257
 20
0.0337499208509957
 30
0.0
 11
12.76663158426952
 21
1.109516428577947
 31
0.0
  0
LINE
  5
239E1
330
239BC
100
AcDbEntity
  8
0
  6
CONTINUOUS
100
AcDbLine
 10
12.33057447873954
 20
-0.0000598860322123
 30
0.0
 11
12.97479896763792
 21
0.6441646028661663
 31
0.0
  0
LINE
  5
239E2
330
239BC
100
AcDbEntity
  8
0
  6
CONTINUOUS
100
AcDbLine
 10
13.00413694809395
 20
-0.0000166257579952
 30
0.0
 11
13.18296635100632
 21
0.1788127771543824
 31
0.0
  0
LINE
  5
239E3
330
239BC
100
AcDbEntity
  8
0
  6
CONTINUOUS
100
AcDbLine
 10
4.772852165289667
 20
-0.000092794222212
 30
0.0
 11
4.296495091028902
 21
0.4762642800385528
 31
0.0
  0
LINE
  5
239E4
330
239BC
100
AcDbEntity
  8
0
  6
CONTINUOUS
100
AcDbLine
 10
5.446340034776103
 20
-0.0000614546284616
 30
0.0
 11
2.898195908335625
 21
2.548082671812017
 31
0.0
  0
LINE
  5
239E5
330
239BC
100
AcDbEntity
  8
0
  6
CONTINUOUS
100
AcDbLine
 10
6.119827904262539
 20
-0.0000301150347113
 30
0.0
 11
1.499896725642348
 21
4.61990106358548
 31
0.0
  0
LINE
  5
239E6
330
239BC
100
AcDbEntity
  8
0
  6
CONTINUOUS
100
AcDbLine
 10
6.775136745476159
 20
0.0181802528318542
 30
0.0
 11
5.699826040202669
 21
1.093490958105344
 31
0.0
  0
LINE
  5
239E7
330
239BC
100
AcDbEntity
  8
0
  6
CONTINUOUS
100
AcDbLine
 10
6.983376846288489
 20
0.4834593610997118
 30
0.0
 11
5.908008617934405
 21
1.558827589453796
 31
0.0
  0
LINE
  5
239E8
330
239BC
100
AcDbEntity
  8
0
  6
CONTINUOUS
100
AcDbLine
 10
5.377063484962296
 20
1.416253513345719
 30
0.0
 11
1.702276957014131
 21
5.091040041293883
 31
0.0
  0
LINE
  5
239E9
330
239BC
100
AcDbEntity
  8
0
  6
CONTINUOUS
100
AcDbLine
 10
3.978745891735324
 20
3.488090315652877
 30
0.0
 11
2.000373521109399
 21
5.466462686278803
 31
0.0
  0
LINE
  5
239EA
330
239BC
100
AcDbEntity
  8
0
  6
CONTINUOUS
100
AcDbLine
 10
7.191616947100819
 20
0.948738469367568
 30
0.0
 11
6.11619119566614
 21
2.024164220802247
 31
0.0
  0
LINE
  5
239EB
330
239BC
100
AcDbEntity
  8
0
  6
CONTINUOUS
100
AcDbLine
 10
7.399857047913149
 20
1.414017577635424
 30
0.0
 11
6.324373773397875
 21
2.489500852150698
 31
0.0
  0
LINE
  5
239EC
330
239BC
100
AcDbEntity
  8
0
  6
CONTINUOUS
100
AcDbLine
 10
7.608097148725479
 20
1.879296685903281
 30
0.0
 11
6.53255635112961
 21
2.95483748349915
 31
0.0
  0
LINE
  5
239ED
330
239BC
100
AcDbEntity
  8
0
  6
CONTINUOUS
100
AcDbLine
 10
7.816337249537808
 20
2.344575794171138
 30
0.0
 11
6.740738928861345
 21
3.420174114847601
 31
0.0
  0
LINE
  5
239EE
330
239BC
100
AcDbEntity
  8
0
  6
CONTINUOUS
100
AcDbLine
 10
3.310241080789734
 20
4.830114335678653
 30
0.0
 11
2.298470085204666
 21
5.84188533126372
 31
0.0
  0
LINE
  5
239EF
330
239BC
100
AcDbEntity
  8
0
  6
CONTINUOUS
100
AcDbLine
 10
3.60832983563551
 20
5.205544789913063
 30
0.0
 11
2.596566649299935
 21
6.217307976248638
 31
0.0
  0
LINE
  5
239F0
330
239BC
100
AcDbEntity
  8
0
  6
CONTINUOUS
100
AcDbLine
 10
3.906418590481286
 20
5.580975244147473
 30
0.0
 11
2.894663213395203
 21
6.592730621233557
 31
0.0
  0
LINE
  5
239F1
330
239BC
100
AcDbEntity
  8
0
  6
CONTINUOUS
100
AcDbLine
 10
4.204507345327062
 20
5.956405698381884
 30
0.0
 11
3.192759777490472
 21
6.968153266218474
 31
0.0
  0
LINE
  5
239F2
330
239BC
100
AcDbEntity
  8
0
  6
CONTINUOUS
100
AcDbLine
 10
8.466032252791512
 20
2.368399999997621
 30
0.0
 11
6.948921506593081
 21
3.885510746196053
 31
0.0
  0
LINE
  5
239F3
330
239BC
100
AcDbEntity
  8
0
  6
CONTINUOUS
100
AcDbLine
 10
9.139551461871699
 20
2.36839999999762
 30
0.0
 11
7.157104084324816
 21
4.350847377544504
 31
0.0
  0
LINE
  5
239F4
330
239BC
100
AcDbEntity
  8
0
  6
CONTINUOUS
100
AcDbLine
 10
4.502596100172839
 20
6.331836152616295
 30
0.0
 11
3.49085634158574
 21
7.343575911203393
 31
0.0
  0
LINE
  5
239F5
330
239BC
100
AcDbEntity
  8
0
  6
CONTINUOUS
100
AcDbLine
 10
4.800684855018615
 20
6.707266606850705
 30
0.0
 11
3.788952905681008
 21
7.718998556188312
 31
0.0
  0
LINE
  5
239F6
330
239BC
100
AcDbEntity
  8
0
  6
CONTINUOUS
100
AcDbLine
 10
12.18154012887317
 20
-0.0000694579236642
 30
0.0
 11
11.32140332908496
 21
0.8600673418645499
 31
0.0
  0
LINE
  5
239F7
330
239BC
100
AcDbEntity
  8
0
  6
CONTINUOUS
100
AcDbLine
 10
12.85501608323566
 20
-0.0000262032059659
 30
0.0
 11
10.77672456435345
 21
2.078265315676246
 31
0.0
  0
LINE
  5
239F8
330
239BC
100
AcDbEntity
  8
0
  6
CONTINUOUS
100
AcDbLine
 10
9.813070670951886
 20
2.36839999999762
 30
0.0
 11
8.51047067095321
 21
3.670999999996297
 31
0.0
  0
LINE
  5
239F9
330
239BC
100
AcDbEntity
  8
0
  6
CONTINUOUS
100
AcDbLine
 10
10.48658988003207
 20
2.36839999999762
 30
0.0
 11
9.183989880033396
 21
3.670999999996297
 31
0.0
  0
LINE
  5
239FA
330
239BC
100
AcDbEntity
  8
0
  6
CONTINUOUS
100
AcDbLine
 10
8.441048632286794
 20
3.740422038662712
 30
0.0
 11
7.365286662056551
 21
4.816184008892956
 31
0.0
  0
LINE
  5
239FB
330
239BC
100
AcDbEntity
  8
0
  6
CONTINUOUS
100
AcDbLine
 10
8.649187485808454
 20
4.205802394221237
 30
0.0
 11
7.573469239788285
 21
5.281520640241407
 31
0.0
  0
LINE
  5
239FC
330
239BC
100
AcDbEntity
  8
0
  6
CONTINUOUS
100
AcDbLine
 10
5.098773609864391
 20
7.082697061085115
 30
0.0
 11
4.087049469776277
 21
8.09442120117323
 31
0.0
  0
LINE
  5
239FD
330
239BC
100
AcDbEntity
  8
0
  6
CONTINUOUS
100
AcDbLine
 10
5.396862364710167
 20
7.458127515319526
 30
0.0
 11
4.385146033871544
 21
8.469843846158149
 31
0.0
  0
LINE
  5
239FE
330
239BC
100
AcDbEntity
  8
0
  6
CONTINUOUS
100
AcDbLine
 10
13.04801363231285
 20
0.4804954567970334
 30
0.0
 11
9.85750908911358
 21
3.670999999996297
 31
0.0
  0
LINE
  5
239FF
330
239BC
100
AcDbEntity
  8
0
  6
CONTINUOUS
100
AcDbLine
 10
8.857326339330116
 20
4.671182749779763
 30
0.0
 11
7.781651817520021
 21
5.746857271589858
 31
0.0
  0
LINE
  5
23A00
330
239BC
100
AcDbEntity
  8
0
  6
CONTINUOUS
100
AcDbLine
 10
5.694951119555943
 20
7.833557969553937
 30
0.0
 11
4.765409089118624
 21
8.763099999991255
 31
0.0
  0
LINE
  5
23A01
330
239BC
100
AcDbEntity
  8
0
  6
CONTINUOUS
100
AcDbLine
 10
12.50286117236978
 20
1.699167125820288
 30
0.0
 11
9.68611877250287
 21
4.515909525687196
 31
0.0
  0
LINE
  5
23A02
330
239BC
100
AcDbEntity
  8
0
  6
CONTINUOUS
100
AcDbLine
 10
9.065465192851777
 20
5.136563105338288
 30
0.0
 11
7.989834395251757
 21
6.21219390293831
 31
0.0
  0
LINE
  5
23A03
330
239BC
100
AcDbEntity
  8
0
  6
CONTINUOUS
100
AcDbLine
 10
5.993039874401719
 20
8.208988423788346
 30
0.0
 11
5.43892829819881
 21
8.763099999991255
 31
0.0
  0
LINE
  5
23A04
330
239BC
100
AcDbEntity
  8
0
  6
CONTINUOUS
100
AcDbLine
 10
11.95770871242671
 20
2.917838794843543
 30
0.0
 11
8.19801697298349
 21
6.677530534286761
 31
0.0
  0
LINE
  5
23A05
330
239BC
100
AcDbEntity
  8
0
  6
CONTINUOUS
100
AcDbLine
 10
6.291128629247495
 20
8.584418878022756
 30
0.0
 11
6.112447507278997
 21
8.763099999991255
 31
0.0
  0
LINE
  5
23A06
330
239BC
100
AcDbEntity
  8
0
  6
CONTINUOUS
100
AcDbLine
 10
11.41255625248364
 20
4.136510463866797
 30
0.0
 11
8.406199550715227
 21
7.142867165635211
 31
0.0
  0
LINE
  5
23A07
330
239BC
100
AcDbEntity
  8
0
  6
CONTINUOUS
100
AcDbLine
 10
10.86740379254057
 20
5.355182132890051
 30
0.0
 11
8.614382128446962
 21
7.608203796983664
 31
0.0
  0
LINE
  5
23A08
330
239BC
100
AcDbEntity
  8
0
  6
CONTINUOUS
100
AcDbLine
 10
10.3222513325975
 20
6.573853801913305
 30
0.0
 11
8.822564706178696
 21
8.073540428332114
 31
0.0
  0
LINE
  5
23A09
330
239BC
100
AcDbEntity
  8
0
  6
CONTINUOUS
100
AcDbLine
 10
9.777098872654436
 20
7.792525470936562
 30
0.0
 11
9.030747283910433
 21
8.538877059680566
 31
0.0
  0
ENDBLK
  5
23B4B
330
239BC
100
AcDbEntity
  8
0
100
AcDbBlockEnd
  0
BLOCK
  5
23B4C
330
23A0A
100
AcDbEntity
  8
0
100
AcDbBlockBegin
  2
*X187
 70
     1
 10
0.0
 20
0.0
 30
0.0
  3
*X187
  1

  0
LINE
  5
23A0B
330
23A0A
100
AcDbEntity
  8
0
  6
CONTINUOUS
100
AcDbLine
 10
10.67292308101235
 20
8.445076852443387
 30
0.0
 11
10.99094622856022
 21
8.763099999991255
 31
0.0
  0
LINE
  5
23A0C
330
23A0A
100
AcDbEntity
  8
0
  6
CONTINUOUS
100
AcDbLine
 10
10.87250383178748
 20
7.971138394138331
 30
0.0
 11
11.6644654376404
 21
8.763099999991255
 31
0.0
  0
LINE
  5
23A0D
330
23A0A
100
AcDbEntity
  8
0
  6
CONTINUOUS
100
AcDbLine
 10
11.07208458256261
 20
7.497199935833273
 30
0.0
 11
12.12126590876355
 21
8.546381262034211
 31
0.0
  0
LINE
  5
23A0E
330
23A0A
100
AcDbEntity
  8
0
  6
CONTINUOUS
100
AcDbLine
 10
11.27166533333774
 20
7.023261477528216
 30
0.0
 11
12.32085164573666
 21
8.072447789927136
 31
0.0
  0
LINE
  5
23A0F
330
23A0A
100
AcDbEntity
  8
0
  6
CONTINUOUS
100
AcDbLine
 10
11.47124608411287
 20
6.549323019223158
 30
0.0
 11
12.52043738270977
 21
7.59851431782006
 31
0.0
  0
LINE
  5
23A10
330
23A0A
100
AcDbEntity
  8
0
  6
CONTINUOUS
100
AcDbLine
 10
11.670826834888
 20
6.075384560918101
 30
0.0
 11
12.72002311968288
 21
7.124580845712984
 31
0.0
  0
LINE
  5
23A11
330
23A0A
100
AcDbEntity
  8
0
  6
CONTINUOUS
100
AcDbLine
 10
11.87040758566313
 20
5.601446102613043
 30
0.0
 11
12.91960885665599
 21
6.650647373605907
 31
0.0
  0
LINE
  5
23A12
330
23A0A
100
AcDbEntity
  8
0
  6
CONTINUOUS
100
AcDbLine
 10
12.06998833643825
 20
5.127507644307986
 30
0.0
 11
13.1191945936291
 21
6.176713901498832
 31
0.0
  0
LINE
  5
23A13
330
23A0A
100
AcDbEntity
  8
0
  6
CONTINUOUS
100
AcDbLine
 10
12.26956908721338
 20
4.65356918600293
 30
0.0
 11
13.31878033060221
 21
5.702780429391757
 31
0.0
  0
LINE
  5
23A14
330
23A0A
100
AcDbEntity
  8
0
  6
CONTINUOUS
100
AcDbLine
 10
12.46914983798851
 20
4.179630727697873
 30
0.0
 11
13.51836606757532
 21
5.228846957284683
 31
0.0
  0
LINE
  5
23A15
330
23A0A
100
AcDbEntity
  8
0
  6
CONTINUOUS
100
AcDbLine
 10
12.66873058876364
 20
3.705692269392816
 30
0.0
 11
13.71795180454843
 21
4.754913485177607
 31
0.0
  0
LINE
  5
23A16
330
23A0A
100
AcDbEntity
  8
0
  6
CONTINUOUS
100
AcDbLine
 10
12.86831133953877
 20
3.231753811087759
 30
0.0
 11
13.91753754152154
 21
4.280980013070531
 31
0.0
  0
LINE
  5
23A17
330
23A0A
100
AcDbEntity
  8
0
  6
CONTINUOUS
100
AcDbLine
 10
13.0678920903139
 20
2.757815352782702
 30
0.0
 11
14.11712327849465
 21
3.807046540963456
 31
0.0
  0
LINE
  5
23A18
330
23A0A
100
AcDbEntity
  8
0
  6
CONTINUOUS
100
AcDbLine
 10
13.26747284108903
 20
2.283876894477644
 30
0.0
 11
14.31670901546777
 21
3.333113068856379
 31
0.0
  0
LINE
  5
23A19
330
23A0A
100
AcDbEntity
  8
0
  6
CONTINUOUS
100
AcDbLine
 10
16.36767838827179
 20
8.751678487061342
 30
0.0
 11
16.50332410898388
 21
8.887324207773432
 31
0.0
  0
LINE
  5
23A1A
330
23A0A
100
AcDbEntity
  8
0
  6
CONTINUOUS
100
AcDbLine
 10
15.96190732182191
 20
7.67238821153127
 30
0.0
 11
16.68735328004734
 21
8.397834169756699
 31
0.0
  0
LINE
  5
23A1B
330
23A0A
100
AcDbEntity
  8
0
  6
CONTINUOUS
100
AcDbLine
 10
15.55613625537202
 20
6.593097936001196
 30
0.0
 11
16.87138245111079
 21
7.908344131739965
 31
0.0
  0
LINE
  5
23A1C
330
23A0A
100
AcDbEntity
  8
0
  6
CONTINUOUS
100
AcDbLine
 10
15.15036518892213
 20
5.513807660471122
 30
0.0
 11
17.05541162217424
 21
7.418854093723231
 31
0.0
  0
LINE
  5
23A1D
330
23A0A
100
AcDbEntity
  8
0
  6
CONTINUOUS
100
AcDbLine
 10
14.74459412247225
 20
4.434517384941048
 30
0.0
 11
17.2394407932377
 21
6.929364055706499
 31
0.0
  0
LINE
  5
23A1E
330
23A0A
100
AcDbEntity
  8
0
  6
CONTINUOUS
100
AcDbLine
 10
14.33882305602236
 20
3.355227109410975
 30
0.0
 11
17.42346996430115
 21
6.439874017689766
 31
0.0
  0
LINE
  5
23A1F
330
23A0A
100
AcDbEntity
  8
0
  6
CONTINUOUS
100
AcDbLine
 10
13.46705359186416
 20
1.809938436172586
 30
0.0
 11
16.0819338255367
 21
4.424818669845129
 31
0.0
  0
LINE
  5
23A20
330
23A0A
100
AcDbEntity
  8
0
  6
CONTINUOUS
100
AcDbLine
 10
16.63283254238972
 20
4.975717386698149
 30
0.0
 11
17.60749913536461
 21
5.950383979673033
 31
0.0
  0
LINE
  5
23A21
330
23A0A
100
AcDbEntity
  8
0
  6
CONTINUOUS
100
AcDbLine
 10
13.66663434263929
 20
1.335999977867529
 30
0.0
 11
15.67604797733754
 21
3.345413612565779
 31
0.0
  0
LINE
  5
23A22
330
23A0A
100
AcDbEntity
  8
0
  6
CONTINUOUS
100
AcDbLine
 10
13.86621509341442
 20
0.8620615195624723
 30
0.0
 11
15.27016212913838
 21
2.26600855528643
 31
0.0
  0
LINE
  5
23A23
330
23A0A
100
AcDbEntity
  8
0
  6
CONTINUOUS
100
AcDbLine
 10
16.81682257348267
 20
4.486188208710908
 30
0.0
 11
17.79152830642806
 21
5.460893941656299
 31
0.0
  0
LINE
  5
23A24
330
23A0A
100
AcDbEntity
  8
0
  6
CONTINUOUS
100
AcDbLine
 10
17.00081260457561
 20
3.996659030723667
 30
0.0
 11
17.97555747749151
 21
4.971403903639565
 31
0.0
  0
LINE
  5
23A25
330
23A0A
100
AcDbEntity
  8
0
  6
CONTINUOUS
100
AcDbLine
 10
20.74362343514722
 20
8.412989070375462
 30
0.0
 11
21.09373436476302
 21
8.763099999991256
 31
0.0
  0
LINE
  5
23A26
330
23A0A
100
AcDbEntity
  8
0
  6
CONTINUOUS
100
AcDbLine
 10
20.25401257174777
 20
7.249858997895826
 30
0.0
 11
21.7672535738432
 21
8.763099999991255
 31
0.0
  0
LINE
  5
23A27
330
23A0A
100
AcDbEntity
  8
0
  6
CONTINUOUS
100
AcDbLine
 10
14.06579584418955
 20
0.3881230612574149
 30
0.0
 11
14.86427628093921
 21
1.186603498007082
 31
0.0
  0
LINE
  5
23A28
330
23A0A
100
AcDbEntity
  8
0
  6
CONTINUOUS
100
AcDbLine
 10
14.26537659496467
 20
-0.0858153970476412
 30
0.0
 11
14.45839043274005
 21
0.1071984407277329
 31
0.0
  0
LINE
  5
23A29
330
23A0A
100
AcDbEntity
  8
0
  6
CONTINUOUS
100
AcDbLine
 10
17.18480263566856
 20
3.507129852736426
 30
0.0
 11
18.15958664855496
 21
4.481913865622833
 31
0.0
  0
LINE
  5
23A2A
330
23A0A
100
AcDbEntity
  8
0
  6
CONTINUOUS
100
AcDbLine
 10
17.3687926667615
 20
3.017600674749186
 30
0.0
 11
18.34361581961842
 21
3.9924238276061
 31
0.0
  0
LINE
  5
23A2B
330
23A0A
100
AcDbEntity
  8
0
  6
CONTINUOUS
100
AcDbLine
 10
19.76440170834832
 20
6.086728925416191
 30
0.0
 11
22.33924590259489
 21
8.661573119662755
 31
0.0
  0
LINE
  5
23A2C
330
23A0A
100
AcDbEntity
  8
0
  6
CONTINUOUS
100
AcDbLine
 10
19.27479084494887
 20
4.923598852936555
 30
0.0
 11
21.84929622842713
 21
7.498104236414807
 31
0.0
  0
LINE
  5
23A2D
330
23A0A
100
AcDbEntity
  8
0
  6
CONTINUOUS
100
AcDbLine
 10
17.55278269785445
 20
2.528071496761945
 30
0.0
 11
18.52764499068187
 21
3.502933789589366
 31
0.0
  0
LINE
  5
23A2E
330
23A0A
100
AcDbEntity
  8
0
  6
CONTINUOUS
100
AcDbLine
 10
18.78517998154942
 20
3.760468780456919
 30
0.0
 11
21.35934655425936
 21
6.33463535316686
 31
0.0
  0
LINE
  5
23A2F
330
23A0A
100
AcDbEntity
  8
0
  6
CONTINUOUS
100
AcDbLine
 10
17.73677272894739
 20
2.038542318774704
 30
0.0
 11
20.8693968800916
 21
5.171166469918914
 31
0.0
  0
LINE
  5
23A30
330
23A0A
100
AcDbEntity
  8
0
  6
CONTINUOUS
100
AcDbLine
 10
17.92076276004034
 20
1.549013140787464
 30
0.0
 11
20.37944720592384
 21
4.007697586670968
 31
0.0
  0
LINE
  5
23A31
330
23A0A
100
AcDbEntity
  8
0
  6
CONTINUOUS
100
AcDbLine
 10
18.10475279113329
 20
1.059483962800223
 30
0.0
 11
19.88949753175608
 21
2.84422870342302
 31
0.0
  0
LINE
  5
23A32
330
23A0A
100
AcDbEntity
  8
0
  6
CONTINUOUS
100
AcDbLine
 10
18.28874282222623
 20
0.5699547848129822
 30
0.0
 11
19.39954785758832
 21
1.680759820175074
 31
0.0
  0
LINE
  5
23A33
330
23A0A
100
AcDbEntity
  8
0
  6
CONTINUOUS
100
AcDbLine
 10
18.47273285331918
 20
0.0804256068257416
 30
0.0
 11
18.90959818342056
 21
0.517290936927127
 31
0.0
  0
LINE
  5
23A34
330
23A0A
100
AcDbEntity
  8
0
  6
CONTINUOUS
100
AcDbLine
 10
14.3590401358224
 20
-0.1570118376323384
 30
0.0
 11
14.24903296539946
 21
-0.0470046672093929
 31
0.0
  0
LINE
  5
23A35
330
23A0A
100
AcDbEntity
  8
0
  6
CONTINUOUS
100
AcDbLine
 10
14.54309291258661
 20
0.332454594683643
 30
0.0
 11
13.75908329123172
 21
1.116464216038529
 31
0.0
  0
LINE
  5
23A36
330
23A0A
100
AcDbEntity
  8
0
  6
CONTINUOUS
100
AcDbLine
 10
14.72714568935081
 20
0.8219210269996244
 30
0.0
 11
13.26913361706399
 21
2.27993309928645
 31
0.0
  0
LINE
  5
23A37
330
23A0A
100
AcDbEntity
  8
0
  6
CONTINUOUS
100
AcDbLine
 10
14.91119846611502
 20
1.311387459315606
 30
0.0
 11
12.77918394289625
 21
3.443401982534371
 31
0.0
  0
LINE
  5
23A38
330
23A0A
100
AcDbEntity
  8
0
  6
CONTINUOUS
100
AcDbLine
 10
15.09525124287922
 20
1.800853891631587
 30
0.0
 11
12.28923426872852
 21
4.606870865782293
 31
0.0
  0
LINE
  5
23A39
330
23A0A
100
AcDbEntity
  8
0
  6
CONTINUOUS
100
AcDbLine
 10
15.27930401964343
 20
2.290320323947569
 30
0.0
 11
11.79928459456078
 21
5.770339749030213
 31
0.0
  0
LINE
  5
23A3A
330
23A0A
100
AcDbEntity
  8
0
  6
CONTINUOUS
100
AcDbLine
 10
15.46335679640763
 20
2.77978675626355
 30
0.0
 11
14.48885470994921
 21
3.754288842721972
 31
0.0
  0
LINE
  5
23A3B
330
23A0A
100
AcDbEntity
  8
0
  6
CONTINUOUS
100
AcDbLine
 10
13.88507249233704
 20
4.358071060334137
 30
0.0
 11
11.30933492039305
 21
6.933808632278135
 31
0.0
  0
LINE
  5
23A3C
330
23A0A
100
AcDbEntity
  8
0
  6
CONTINUOUS
100
AcDbLine
 10
18.75840522805855
 20
0.1582575336928151
 30
0.0
 11
18.25383727664818
 21
0.6628254851031863
 31
0.0
  0
LINE
  5
23A3D
330
23A0A
100
AcDbEntity
  8
0
  6
CONTINUOUS
100
AcDbLine
 10
15.64740957317184
 20
3.269253188579531
 30
0.0
 11
14.67288388101266
 21
4.243778880738705
 31
0.0
  0
LINE
  5
23A3E
330
23A0A
100
AcDbEntity
  8
0
  6
CONTINUOUS
100
AcDbLine
 10
13.39509276772158
 20
5.521569994029786
 30
0.0
 11
10.81938524622531
 21
8.097277515526056
 31
0.0
  0
LINE
  5
23A3F
330
23A0A
100
AcDbEntity
  8
0
  6
CONTINUOUS
100
AcDbLine
 10
18.95798597883369
 20
0.6321959919978686
 30
0.0
 11
17.84825644852853
 21
1.741925522303024
 31
0.0
  0
LINE
  5
23A40
330
23A0A
100
AcDbEntity
  8
0
  6
CONTINUOUS
100
AcDbLine
 10
19.15756672960882
 20
1.106134450302922
 30
0.0
 11
17.44267562040888
 21
2.821025559502861
 31
0.0
  0
LINE
  5
23A41
330
23A0A
100
AcDbEntity
  8
0
  6
CONTINUOUS
100
AcDbLine
 10
15.83146234993604
 20
3.758719620895513
 30
0.0
 11
14.85691305207612
 21
4.733268918755439
 31
0.0
  0
LINE
  5
23A42
330
23A0A
100
AcDbEntity
  8
0
  6
CONTINUOUS
100
AcDbLine
 10
16.01551512670025
 20
4.248186053211494
 30
0.0
 11
15.04094222313957
 21
5.222758956772172
 31
0.0
  0
LINE
  5
23A43
330
23A0A
100
AcDbEntity
  8
0
  6
CONTINUOUS
100
AcDbLine
 10
12.90511304310612
 20
6.685068927725435
 30
0.0
 11
10.8270819708403
 21
8.763099999991255
 31
0.0
  0
LINE
  5
23A44
330
23A0A
100
AcDbEntity
  8
0
  6
CONTINUOUS
100
AcDbLine
 10
12.41513331849066
 20
7.848567861421083
 30
0.0
 11
11.50060117992049
 21
8.763099999991255
 31
0.0
  0
LINE
  5
23A45
330
23A0A
100
AcDbEntity
  8
0
  6
CONTINUOUS
100
AcDbLine
 10
19.35714748038395
 20
1.580072908607975
 30
0.0
 11
17.03709479228923
 21
3.900125596702697
 31
0.0
  0
LINE
  5
23A46
330
23A0A
100
AcDbEntity
  8
0
  6
CONTINUOUS
100
AcDbLine
 10
19.55672823115909
 20
2.054011366913028
 30
0.0
 11
16.63151396416958
 21
4.979225633902534
 31
0.0
  0
LINE
  5
23A47
330
23A0A
100
AcDbEntity
  8
0
  6
CONTINUOUS
100
AcDbLine
 10
16.19956790346445
 20
4.737652485527476
 30
0.0
 11
15.22497139420302
 21
5.712248994788904
 31
0.0
  0
LINE
  5
23A48
330
23A0A
100
AcDbEntity
  8
0
  6
CONTINUOUS
100
AcDbLine
 10
16.38362068022866
 20
5.227118917843457
 30
0.0
 11
15.40900056526648
 21
6.201739032805637
 31
0.0
  0
LINE
  5
23A49
330
23A0A
100
AcDbEntity
  8
0
  6
CONTINUOUS
100
AcDbLine
 10
19.75630898193422
 20
2.527949825218081
 30
0.0
 11
18.70774536448286
 21
3.576513442669441
 31
0.0
  0
LINE
  5
23A4A
330
23A0A
100
AcDbEntity
  8
0
  6
CONTINUOUS
100
AcDbLine
 10
19.95588973270936
 20
3.001888283523134
 30
0.0
 11
18.90726987211446
 21
4.050508144118028
 31
0.0
  0
LINE
  5
23A4B
330
23A0A
100
AcDbEntity
  8
0
  6
CONTINUOUS
100
AcDbLine
 10
20.15547048348449
 20
3.475826741828186
 30
0.0
 11
19.10679437974606
 21
4.524502845566614
 31
0.0
  0
LINE
  5
23A4C
330
23A0A
100
AcDbEntity
  8
0
  6
CONTINUOUS
100
AcDbLine
 10
20.35505123425962
 20
3.94976520013324
 30
0.0
 11
19.30631888737766
 21
4.998497547015201
 31
0.0
  0
LINE
  5
23A4D
330
23A0A
100
AcDbEntity
  8
0
  6
CONTINUOUS
100
AcDbLine
 10
20.55463198503475
 20
4.423703658438292
 30
0.0
 11
19.50584339500926
 21
5.472492248463787
 31
0.0
  0
LINE
  5
23A4E
330
23A0A
100
AcDbEntity
  8
0
  6
CONTINUOUS
100
AcDbLine
 10
18.37481191085755
 20
3.909446896294752
 30
0.0
 11
15.59302973632993
 21
6.691229070822371
 31
0.0
  0
LINE
  5
23A4F
330
23A0A
100
AcDbEntity
  8
0
  6
CONTINUOUS
100
AcDbLine
 10
17.96904084440766
 20
4.988737171824825
 30
0.0
 11
15.77705890739338
 21
7.180719108839104
 31
0.0
  0
LINE
  5
23A50
330
23A0A
100
AcDbEntity
  8
0
  6
CONTINUOUS
100
AcDbLine
 10
17.56326977795777
 20
6.068027447354899
 30
0.0
 11
15.96108807845684
 21
7.670209146855838
 31
0.0
  0
LINE
  5
23A51
330
23A0A
100
AcDbEntity
  8
0
  6
CONTINUOUS
100
AcDbLine
 10
17.15749871150789
 20
7.147317722884972
 30
0.0
 11
16.14511724952029
 21
8.15969918487257
 31
0.0
  0
LINE
  5
23A52
330
23A0A
100
AcDbEntity
  8
0
  6
CONTINUOUS
100
AcDbLine
 10
16.751727645058
 20
8.226607998415046
 30
0.0
 11
16.32914642058374
 21
8.649189222889303
 31
0.0
  0
LINE
  5
23A53
330
23A0A
100
AcDbEntity
  8
0
  6
CONTINUOUS
100
AcDbLine
 10
20.75421273580989
 20
4.897642116743345
 30
0.0
 11
19.70536790264086
 21
5.946486949912374
 31
0.0
  0
LINE
  5
23A54
330
23A0A
100
AcDbEntity
  8
0
  6
CONTINUOUS
100
AcDbLine
 10
20.95379348658502
 20
5.371580575048398
 30
0.0
 11
19.90489241027246
 21
6.42048165136096
 31
0.0
  0
LINE
  5
23A55
330
23A0A
100
AcDbEntity
  8
0
  6
CONTINUOUS
100
AcDbLine
 10
21.15337423736015
 20
5.845519033353452
 30
0.0
 11
20.10441691790406
 21
6.894476352809547
 31
0.0
  0
LINE
  5
23A56
330
23A0A
100
AcDbEntity
  8
0
  6
CONTINUOUS
100
AcDbLine
 10
21.35295498813529
 20
6.319457491658505
 30
0.0
 11
20.30394142553566
 21
7.368471054258134
 31
0.0
  0
LINE
  5
23A57
330
23A0A
100
AcDbEntity
  8
0
  6
CONTINUOUS
100
AcDbLine
 10
21.55253573891042
 20
6.793395949963558
 30
0.0
 11
20.50346593316726
 21
7.842465755706721
 31
0.0
  0
LINE
  5
23A58
330
23A0A
100
AcDbEntity
  8
0
  6
CONTINUOUS
100
AcDbLine
 10
21.75211648968556
 20
7.267334408268612
 30
0.0
 11
20.70299044079886
 21
8.316460457155308
 31
0.0
  0
LINE
  5
23A59
330
23A0A
100
AcDbEntity
  8
0
  6
CONTINUOUS
100
AcDbLine
 10
21.95169724046069
 20
7.741272866573663
 30
0.0
 11
20.9298701070431
 21
8.763099999991256
 31
0.0
  0
LINE
  5
23A5A
330
23A0A
100
AcDbEntity
  8
0
  6
CONTINUOUS
100
AcDbLine
 10
22.15127799123582
 20
8.215211324878716
 30
0.0
 11
21.60338931612328
 21
8.763099999991256
 31
0.0
  0
LINE
  5
23A5B
330
23A0A
100
AcDbEntity
  8
0
  6
CONTINUOUS
100
AcDbLine
 10
22.35085874201096
 20
8.689149783183769
 30
0.0
 11
22.27690852520347
 21
8.763099999991255
 31
0.0
  0
ENDBLK
  5
23B4D
330
23A0A
100
AcDbEntity
  8
0
100
AcDbBlockEnd
  0
BLOCK
  5
23B4E
330
23A5C
100
AcDbEntity
  8
0
100
AcDbBlockBegin
  2
*X188
 70
     1
 10
0.0
 20
0.0
 30
0.0
  3
*X188
  1

  0
LINE
  5
23A5D
330
23A5C
100
AcDbEntity
  8
0
  6
CONTINUOUS
100
AcDbLine
 10
23.19462913593892
 20
8.169917934846424
 30
0.0
 11
23.70775465517246
 21
8.683043454079957
 31
0.0
  0
LINE
  5
23A5E
330
23A5C
100
AcDbEntity
  8
0
  6
CONTINUOUS
100
AcDbLine
 10
22.64923161835078
 20
6.951001208178088
 30
0.0
 11
23.9159364069932
 21
8.217705996820516
 31
0.0
  0
LINE
  5
23A5F
330
23A5C
100
AcDbEntity
  8
0
  6
CONTINUOUS
100
AcDbLine
 10
22.10383410076263
 20
5.732084481509751
 30
0.0
 11
24.12411815881395
 21
7.752368539561078
 31
0.0
  0
LINE
  5
23A60
330
23A5C
100
AcDbEntity
  8
0
  6
CONTINUOUS
100
AcDbLine
 10
21.55843658317447
 20
4.513167754841414
 30
0.0
 11
24.3322999106347
 21
7.287031082301639
 31
0.0
  0
LINE
  5
23A61
330
23A5C
100
AcDbEntity
  8
0
  6
CONTINUOUS
100
AcDbLine
 10
21.01303906558632
 20
3.294251028173077
 30
0.0
 11
24.54048166245544
 21
6.821693625042199
 31
0.0
  0
LINE
  5
23A62
330
23A5C
100
AcDbEntity
  8
0
  6
CONTINUOUS
100
AcDbLine
 10
20.46764154799817
 20
2.075334301504738
 30
0.0
 11
23.28571549467848
 21
4.89340824818505
 31
0.0
  0
LINE
  5
23A63
330
23A5C
100
AcDbEntity
  8
0
  6
CONTINUOUS
100
AcDbLine
 10
19.92224403041002
 20
0.8564175748364002
 30
0.0
 11
22.74075865492779
 21
3.674932199354171
 31
0.0
  0
LINE
  5
23A64
330
23A5C
100
AcDbEntity
  8
0
  6
CONTINUOUS
100
AcDbLine
 10
23.67305085490148
 20
5.280743608408048
 30
0.0
 11
24.74866341427619
 21
6.356356167782759
 31
0.0
  0
LINE
  5
23A65
330
23A5C
100
AcDbEntity
  8
0
  6
CONTINUOUS
100
AcDbLine
 10
23.88118970842314
 20
4.815363252849522
 30
0.0
 11
24.95684516609694
 21
5.89101871052332
 31
0.0
  0
LINE
  5
23A66
330
23A5C
100
AcDbEntity
  8
0
  6
CONTINUOUS
100
AcDbLine
 10
19.73925852647308
 20
-0.0000871381807288
 30
0.0
 11
23.4103456646501
 21
3.670999999996297
 31
0.0
  0
LINE
  5
23A67
330
23A5C
100
AcDbEntity
  8
0
  6
CONTINUOUS
100
AcDbLine
 10
24.0893285619448
 20
4.349982897290997
 30
0.0
 11
25.16502691791769
 21
5.42568125326388
 31
0.0
  0
LINE
  5
23A68
330
23A5C
100
AcDbEntity
  8
0
  6
CONTINUOUS
100
AcDbLine
 10
20.41282099582748
 20
-0.0000438779065108
 30
0.0
 11
21.64944178675636
 21
1.236576913022366
 31
0.0
  0
LINE
  5
23A69
330
23A5C
100
AcDbEntity
  8
0
  6
CONTINUOUS
100
AcDbLine
 10
22.78126487373161
 20
2.36839999999762
 30
0.0
 11
24.08386487373029
 21
3.670999999996297
 31
0.0
  0
LINE
  5
23A6A
330
23A5C
100
AcDbEntity
  8
0
  6
CONTINUOUS
100
AcDbLine
 10
24.29746741546646
 20
3.884602541732471
 30
0.0
 11
25.37320866973843
 21
4.960343796004441
 31
0.0
  0
LINE
  5
23A6B
330
23A5C
100
AcDbEntity
  8
0
  6
CONTINUOUS
100
AcDbLine
 10
21.08638346518189
 20
-0.0000006176322938
 30
0.0
 11
21.10379033335899
 21
0.0174062505448083
 31
0.0
  0
LINE
  5
23A6C
330
23A5C
100
AcDbEntity
  8
0
  6
CONTINUOUS
100
AcDbLine
 10
23.4547840828118
 20
2.36839999999762
 30
0.0
 11
25.58139042155918
 21
4.495006338745002
 31
0.0
  0
LINE
  5
23A6D
330
23A5C
100
AcDbEntity
  8
0
  6
CONTINUOUS
100
AcDbLine
 10
29.30199999996933
 20
8.215615917155148
 30
0.0
 11
29.84948408280543
 21
8.763099999991255
 31
0.0
  0
LINE
  5
23A6E
330
23A5C
100
AcDbEntity
  8
0
  6
CONTINUOUS
100
AcDbLine
 10
24.12830329189199
 20
2.36839999999762
 30
0.0
 11
25.78957217337993
 21
4.029668881485562
 31
0.0
  0
LINE
  5
23A6F
330
23A5C
100
AcDbEntity
  8
0
  6
CONTINUOUS
100
AcDbLine
 10
29.30199999996933
 20
7.54209670807496
 30
0.0
 11
30.52300329188562
 21
8.763099999991255
 31
0.0
  0
LINE
  5
23A70
330
23A5C
100
AcDbEntity
  8
0
  6
CONTINUOUS
100
AcDbLine
 10
24.80182250097217
 20
2.36839999999762
 30
0.0
 11
25.99775392520067
 21
3.564331424226122
 31
0.0
  0
LINE
  5
23A71
330
23A5C
100
AcDbEntity
  8
0
  6
CONTINUOUS
100
AcDbLine
 10
29.30199999996933
 20
6.868577498994774
 30
0.0
 11
30.74199999996926
 21
8.308577498994712
 31
0.0
  0
LINE
  5
23A72
330
23A5C
100
AcDbEntity
  8
0
  6
CONTINUOUS
100
AcDbLine
 10
25.13028238392013
 20
2.023340673865392
 30
0.0
 11
26.20593567702142
 21
3.098993966966683
 31
0.0
  0
LINE
  5
23A73
330
23A5C
100
AcDbEntity
  8
0
  6
CONTINUOUS
100
AcDbLine
 10
25.33838066033617
 20
1.557919741201244
 30
0.0
 11
26.41411742884217
 21
2.633656509707244
 31
0.0
  0
LINE
  5
23A74
330
23A5C
100
AcDbEntity
  8
0
  6
CONTINUOUS
100
AcDbLine
 10
25.54647893675221
 20
1.092498808537098
 30
0.0
 11
26.62229918066291
 21
2.168319052447804
 31
0.0
  0
LINE
  5
23A75
330
23A5C
100
AcDbEntity
  8
0
  6
CONTINUOUS
100
AcDbLine
 10
25.75457721316825
 20
0.62707787587295
 30
0.0
 11
26.83048093248366
 21
1.702981595188365
 31
0.0
  0
LINE
  5
23A76
330
23A5C
100
AcDbEntity
  8
0
  6
CONTINUOUS
100
AcDbLine
 10
29.30199999996933
 20
6.195058289914587
 30
0.0
 11
30.74199999996926
 21
7.635058289914522
 31
0.0
  0
LINE
  5
23A77
330
23A5C
100
AcDbEntity
  8
0
  6
CONTINUOUS
100
AcDbLine
 10
29.30199999996933
 20
5.521539080834401
 30
0.0
 11
30.74199999996926
 21
6.961539080834331
 31
0.0
  0
LINE
  5
23A78
330
23A5C
100
AcDbEntity
  8
0
  6
CONTINUOUS
100
AcDbLine
 10
29.30199999996933
 20
4.848019871754214
 30
0.0
 11
30.74199999996925
 21
6.288019871754143
 31
0.0
  0
LINE
  5
23A79
330
23A5C
100
AcDbEntity
  8
0
  6
CONTINUOUS
100
AcDbLine
 10
29.30199999996933
 20
4.174500662674028
 30
0.0
 11
30.74199999996925
 21
5.614500662673953
 31
0.0
  0
LINE
  5
23A7A
330
23A5C
100
AcDbEntity
  8
0
  6
CONTINUOUS
100
AcDbLine
 10
25.96267548958429
 20
0.1616569432088024
 30
0.0
 11
27.18411854636669
 21
1.383099999991207
 31
0.0
  0
LINE
  5
23A7B
330
23A5C
100
AcDbEntity
  8
0
  6
CONTINUOUS
100
AcDbLine
 10
29.30199999996933
 20
3.500981453593841
 30
0.0
 11
30.74199999996925
 21
4.940981453593762
 31
0.0
  0
LINE
  5
23A7C
330
23A5C
100
AcDbEntity
  8
0
  6
CONTINUOUS
100
AcDbLine
 10
26.50763775544691
 20
0.0330999999912356
 30
0.0
 11
27.85763775544689
 21
1.383099999991223
 31
0.0
  0
LINE
  5
23A7D
330
23A5C
100
AcDbEntity
  8
0
  6
CONTINUOUS
100
AcDbLine
 10
29.30199999996933
 20
2.827462244513656
 30
0.0
 11
30.74199999996925
 21
4.267462244513574
 31
0.0
  0
LINE
  5
23A7E
330
23A5C
100
AcDbEntity
  8
0
  6
CONTINUOUS
100
AcDbLine
 10
27.18115696452709
 20
0.0330999999912356
 30
0.0
 11
28.55073879889363
 21
1.402681834357775
 31
0.0
  0
LINE
  5
23A7F
330
23A5C
100
AcDbEntity
  8
0
  6
CONTINUOUS
100
AcDbLine
 10
29.28241816560272
 20
2.134361201066866
 30
0.0
 11
30.74199999996924
 21
3.593943035433383
 31
0.0
  0
LINE
  5
23A80
330
23A5C
100
AcDbEntity
  8
0
  6
CONTINUOUS
100
AcDbLine
 10
27.85467617360728
 20
0.0330999999912356
 30
0.0
 11
30.74199999996924
 21
2.920423826353195
 31
0.0
  0
LINE
  5
23A81
330
23A5C
100
AcDbEntity
  8
0
  6
CONTINUOUS
100
AcDbLine
 10
28.53897559587887
 20
0.0438802131826428
 30
0.0
 11
30.73121978677781
 21
2.236124404081585
 31
0.0
  0
LINE
  5
23A82
330
23A5C
100
AcDbEntity
  8
0
  6
CONTINUOUS
100
AcDbLine
 10
29.45140055588722
 20
0.2827859641107988
 30
0.0
 11
30.49231403584965
 21
1.323699444073236
 31
0.0
  0
LINE
  5
23A83
330
23A5C
100
AcDbEntity
  8
0
  6
CONTINUOUS
100
AcDbLine
 10
19.59027867740337
 20
-0.0000967065718083
 30
0.0
 11
19.55485265190471
 21
0.035329318926844
 31
0.0
  0
LINE
  5
23A84
330
23A5C
100
AcDbEntity
  8
0
  6
CONTINUOUS
100
AcDbLine
 10
20.26375463176586
 20
-0.0000534518541091
 30
0.0
 11
19.76305575737534
 21
0.5006454225364014
 31
0.0
  0
LINE
  5
23A85
330
23A5C
100
AcDbEntity
  8
0
  6
CONTINUOUS
100
AcDbLine
 10
20.93723058612834
 20
-0.0000101971364099
 30
0.0
 11
19.97125886284597
 21
0.965961526145958
 31
0.0
  0
LINE
  5
23A86
330
23A5C
100
AcDbEntity
  8
0
  6
CONTINUOUS
100
AcDbLine
 10
21.25514828313686
 20
0.355591314935257
 30
0.0
 11
20.1794619683166
 21
1.431277629755512
 31
0.0
  0
LINE
  5
23A87
330
23A5C
100
AcDbEntity
  8
0
  6
CONTINUOUS
100
AcDbLine
 10
21.46338838394921
 20
0.8208704232030986
 30
0.0
 11
20.38766507378723
 21
1.896593733365069
 31
0.0
  0
LINE
  5
23A88
330
23A5C
100
AcDbEntity
  8
0
  6
CONTINUOUS
100
AcDbLine
 10
21.67162848476155
 20
1.28614953147094
 30
0.0
 11
20.59586817925786
 21
2.361909836974626
 31
0.0
  0
LINE
  5
23A89
330
23A5C
100
AcDbEntity
  8
0
  6
CONTINUOUS
100
AcDbLine
 10
21.8798685855739
 20
1.751428639738782
 30
0.0
 11
20.80407128472849
 21
2.827225940584183
 31
0.0
  0
LINE
  5
23A8A
330
23A5C
100
AcDbEntity
  8
0
  6
CONTINUOUS
100
AcDbLine
 10
22.08810868638624
 20
2.216707748006623
 30
0.0
 11
21.01227439019912
 21
3.292542044193739
 31
0.0
  0
LINE
  5
23A8B
330
23A5C
100
AcDbEntity
  8
0
  6
CONTINUOUS
100
AcDbLine
 10
22.60993564347543
 20
2.36839999999762
 30
0.0
 11
21.22047749566975
 21
3.757858147803296
 31
0.0
  0
LINE
  5
23A8C
330
23A5C
100
AcDbEntity
  8
0
  6
CONTINUOUS
100
AcDbLine
 10
23.28345485255561
 20
2.36839999999762
 30
0.0
 11
21.42868060114038
 21
4.223174251412853
 31
0.0
  0
LINE
  5
23A8D
330
23A5C
100
AcDbEntity
  8
0
  6
CONTINUOUS
100
AcDbLine
 10
26.29227406164219
 20
0.0330999999912356
 30
0.0
 11
25.80009199592872
 21
0.5252820657046957
 31
0.0
  0
LINE
  5
23A8E
330
23A5C
100
AcDbEntity
  8
0
  6
CONTINUOUS
100
AcDbLine
 10
23.9569740616358
 20
2.36839999999762
 30
0.0
 11
21.63688370661101
 21
4.688490355022409
 31
0.0
  0
LINE
  5
23A8F
330
23A5C
100
AcDbEntity
  8
0
  6
CONTINUOUS
100
AcDbLine
 10
26.96579327072237
 20
0.0330999999912356
 30
0.0
 11
25.2554132311971
 21
1.743480039516508
 31
0.0
  0
LINE
  5
23A90
330
23A5C
100
AcDbEntity
  8
0
  6
CONTINUOUS
100
AcDbLine
 10
24.63049327071599
 20
2.36839999999762
 30
0.0
 11
23.32789327071731
 21
3.670999999996297
 31
0.0
  0
LINE
  5
23A91
330
23A5C
100
AcDbEntity
  8
0
  6
CONTINUOUS
100
AcDbLine
 10
22.92098674744635
 20
4.077906523267254
 30
0.0
 11
21.84508681208164
 21
5.153806458631966
 31
0.0
  0
LINE
  5
23A92
330
23A5C
100
AcDbEntity
  8
0
  6
CONTINUOUS
100
AcDbLine
 10
27.63931247980256
 20
0.0330999999912356
 30
0.0
 11
24.0014124797975
 21
3.670999999996297
 31
0.0
  0
LINE
  5
23A93
330
23A5C
100
AcDbEntity
  8
0
  6
CONTINUOUS
100
AcDbLine
 10
23.129125600968
 20
4.5432868788258
 30
0.0
 11
22.05328991755227
 21
5.619122562241522
 31
0.0
  0
LINE
  5
23A94
330
23A5C
100
AcDbEntity
  8
0
  6
CONTINUOUS
100
AcDbLine
 10
28.31283168888275
 20
0.0330999999912356
 30
0.0
 11
24.16488385994816
 21
4.181047828925828
 31
0.0
  0
LINE
  5
23A95
330
23A5C
100
AcDbEntity
  8
0
  6
CONTINUOUS
100
AcDbLine
 10
23.33726445448964
 20
5.008667234384345
 30
0.0
 11
22.2614930230229
 21
6.084438665851079
 31
0.0
  0
LINE
  5
23A96
330
23A5C
100
AcDbEntity
  8
0
  6
CONTINUOUS
100
AcDbLine
 10
28.92085740005492
 20
0.0985934978992438
 30
0.0
 11
27.63635089796295
 21
1.383099999991217
 31
0.0
  0
LINE
  5
23A97
330
23A5C
100
AcDbEntity
  8
0
  6
CONTINUOUS
100
AcDbLine
 10
26.43704649509776
 20
2.582404402856405
 30
0.0
 11
23.61992702019732
 21
5.399523877756844
 31
0.0
  0
LINE
  5
23A98
330
23A5C
100
AcDbEntity
  8
0
  6
CONTINUOUS
100
AcDbLine
 10
23.54540330801128
 20
5.47404758994289
 30
0.0
 11
22.46969612849353
 21
6.549754769460635
 31
0.0
  0
LINE
  5
23A99
330
23A5C
100
AcDbEntity
  8
0
  6
CONTINUOUS
100
AcDbLine
 10
29.42225615078443
 20
0.2707139562499279
 30
0.0
 11
28.30987010704312
 21
1.383099999991234
 31
0.0
  0
LINE
  5
23A9A
330
23A5C
100
AcDbEntity
  8
0
  6
CONTINUOUS
100
AcDbLine
 10
25.89179548232307
 20
3.801174624711282
 30
0.0
 11
22.67789923396416
 21
7.015070873070191
 31
0.0
  0
LINE
  5
23A9B
330
23A5C
100
AcDbEntity
  8
0
  6
CONTINUOUS
100
AcDbLine
 10
29.83624534690007
 20
0.5302439692144705
 30
0.0
 11
28.85811781497101
 21
1.508371501143527
 31
0.0
  0
LINE
  5
23A9C
330
23A5C
100
AcDbEntity
  8
0
  6
CONTINUOUS
100
AcDbLine
 10
25.34654446954838
 20
5.01994484656616
 30
0.0
 11
22.88610233943479
 21
7.480386976679748
 31
0.0
  0
LINE
  5
23A9D
330
23A5C
100
AcDbEntity
  8
0
  6
CONTINUOUS
100
AcDbLine
 10
30.17865975401872
 20
0.8613487711760022
 30
0.0
 11
29.18888744090175
 21
1.851121084292977
 31
0.0
  0
LINE
  5
23A9E
330
23A5C
100
AcDbEntity
  8
0
  6
CONTINUOUS
100
AcDbLine
 10
24.80129345677369
 20
6.238715068421037
 30
0.0
 11
23.09430544490542
 21
7.945703080289305
 31
0.0
  0
LINE
  5
23A9F
330
23A5C
100
AcDbEntity
  8
0
  6
CONTINUOUS
100
AcDbLine
 10
30.45496647202376
 20
1.258561262251155
 30
0.0
 11
29.30199999996933
 21
2.411527734305588
 31
0.0
  0
LINE
  5
23AA0
330
23A5C
100
AcDbEntity
  8
0
  6
CONTINUOUS
100
AcDbLine
 10
24.256042443999
 20
7.457485290275915
 30
0.0
 11
23.30250855037605
 21
8.411019183898862
 31
0.0
  0
LINE
  5
23AA1
330
23A5C
100
AcDbEntity
  8
0
  6
CONTINUOUS
100
AcDbLine
 10
30.64868582078271
 20
1.738361122572387
 30
0.0
 11
29.30199999996933
 21
3.085046943385775
 31
0.0
  0
LINE
  5
23AA2
330
23A5C
100
AcDbEntity
  8
0
  6
CONTINUOUS
100
AcDbLine
 10
23.71079143122431
 20
8.676255512130794
 30
0.0
 11
23.51071165584668
 21
8.876335287508416
 31
0.0
  0
LINE
  5
23AA3
330
23A5C
100
AcDbEntity
  8
0
  6
CONTINUOUS
100
AcDbLine
 10
30.73802122914428
 20
2.322544923291007
 30
0.0
 11
29.30199999996933
 21
3.758566152465961
 31
0.0
  0
LINE
  5
23AA4
330
23A5C
100
AcDbEntity
  8
0
  6
CONTINUOUS
100
AcDbLine
 10
30.74199999996924
 20
2.992085361546236
 30
0.0
 11
29.30199999996933
 21
4.432085361546148
 31
0.0
  0
LINE
  5
23AA5
330
23A5C
100
AcDbEntity
  8
0
  6
CONTINUOUS
100
AcDbLine
 10
30.74199999996924
 20
3.665604570626419
 30
0.0
 11
29.30199999996933
 21
5.105604570626333
 31
0.0
  0
LINE
  5
23AA6
330
23A5C
100
AcDbEntity
  8
0
  6
CONTINUOUS
100
AcDbLine
 10
30.74199999996925
 20
4.339123779706602
 30
0.0
 11
29.30199999996933
 21
5.77912377970652
 31
0.0
  0
LINE
  5
23AA7
330
23A5C
100
AcDbEntity
  8
0
  6
CONTINUOUS
100
AcDbLine
 10
30.74199999996925
 20
5.012642988786785
 30
0.0
 11
29.30199999996933
 21
6.452642988786707
 31
0.0
  0
LINE
  5
23AA8
330
23A5C
100
AcDbEntity
  8
0
  6
CONTINUOUS
100
AcDbLine
 10
30.74199999996925
 20
5.68616219786697
 30
0.0
 11
29.30199999996933
 21
7.126162197866894
 31
0.0
  0
LINE
  5
23AA9
330
23A5C
100
AcDbEntity
  8
0
  6
CONTINUOUS
100
AcDbLine
 10
30.74199999996925
 20
6.359681406947153
 30
0.0
 11
29.30199999996933
 21
7.799681406947081
 31
0.0
  0
LINE
  5
23AAA
330
23A5C
100
AcDbEntity
  8
0
  6
CONTINUOUS
100
AcDbLine
 10
30.74199999996926
 20
7.033200616027337
 30
0.0
 11
29.30199999996933
 21
8.473200616027269
 31
0.0
  0
LINE
  5
23AAB
330
23A5C
100
AcDbEntity
  8
0
  6
CONTINUOUS
100
AcDbLine
 10
30.74199999996926
 20
7.706719825107518
 30
0.0
 11
29.68561982508552
 21
8.763099999991255
 31
0.0
  0
LINE
  5
23AAC
330
23A5C
100
AcDbEntity
  8
0
  6
CONTINUOUS
100
AcDbLine
 10
30.74199999996926
 20
8.380239034187703
 30
0.0
 11
30.35913903416571
 21
8.763099999991255
 31
0.0
  0
ENDBLK
  5
23B4F
330
23A5C
100
AcDbEntity
  8
0
100
AcDbBlockEnd
  0
BLOCK
  5
23B50
330
23AAD
100
AcDbEntity
  8
0
100
AcDbBlockBegin
  2
*X189
 70
     1
 10
0.0
 20
0.0
 30
0.0
  3
*X189
  1

  0
LINE
  5
23AAE
330
23AAD
100
AcDbEntity
  8
0
  6
CONTINUOUS
100
AcDbLine
 10
31.64199999996833
 20
8.535058289913598
 30
0.0
 11
31.87004171004599
 21
8.763099999991255
 31
0.0
  0
LINE
  5
23AAF
330
23AAD
100
AcDbEntity
  8
0
  6
CONTINUOUS
100
AcDbLine
 10
31.64199999996833
 20
7.861539080833412
 30
0.0
 11
32.54356091912618
 21
8.763099999991255
 31
0.0
  0
LINE
  5
23AB0
330
23AAD
100
AcDbEntity
  8
0
  6
CONTINUOUS
100
AcDbLine
 10
31.64199999996833
 20
7.188019871753226
 30
0.0
 11
33.08199999996839
 21
8.628019871753281
 31
0.0
  0
LINE
  5
23AB1
330
23AAD
100
AcDbEntity
  8
0
  6
CONTINUOUS
100
AcDbLine
 10
31.64199999996833
 20
6.51450066267304
 30
0.0
 11
33.08199999996839
 21
7.954500662673095
 31
0.0
  0
LINE
  5
23AB2
330
23AAD
100
AcDbEntity
  8
0
  6
CONTINUOUS
100
AcDbLine
 10
31.64199999996833
 20
5.840981453592853
 30
0.0
 11
33.08199999996839
 21
7.280981453592908
 31
0.0
  0
LINE
  5
23AB3
330
23AAD
100
AcDbEntity
  8
0
  6
CONTINUOUS
100
AcDbLine
 10
31.64199999996833
 20
5.167462244512667
 30
0.0
 11
33.08199999996839
 21
6.607462244512721
 31
0.0
  0
LINE
  5
23AB4
330
23AAD
100
AcDbEntity
  8
0
  6
CONTINUOUS
100
AcDbLine
 10
31.64199999996833
 20
4.493943035432481
 30
0.0
 11
33.08199999996839
 21
5.933943035432535
 31
0.0
  0
LINE
  5
23AB5
330
23AAD
100
AcDbEntity
  8
0
  6
CONTINUOUS
100
AcDbLine
 10
31.64199999996833
 20
3.820423826352293
 30
0.0
 11
33.08199999996839
 21
5.260423826352348
 31
0.0
  0
LINE
  5
23AB6
330
23AAD
100
AcDbEntity
  8
0
  6
CONTINUOUS
100
AcDbLine
 10
31.64199999996833
 20
3.146904617272106
 30
0.0
 11
33.08199999996839
 21
4.586904617272161
 31
0.0
  0
LINE
  5
23AB7
330
23AAD
100
AcDbEntity
  8
0
  6
CONTINUOUS
100
AcDbLine
 10
36.23199999996837
 20
8.410423826352325
 30
0.0
 11
36.5846761736073
 21
8.763099999991255
 31
0.0
  0
LINE
  5
23AB8
330
23AAD
100
AcDbEntity
  8
0
  6
CONTINUOUS
100
AcDbLine
 10
36.23199999996837
 20
7.73690461727214
 30
0.0
 11
37.25819538268748
 21
8.763099999991255
 31
0.0
  0
LINE
  5
23AB9
330
23AAD
100
AcDbEntity
  8
0
  6
CONTINUOUS
100
AcDbLine
 10
31.64257403601376
 20
2.473959444237348
 30
0.0
 11
33.08199999996839
 21
3.913385408191974
 31
0.0
  0
LINE
  5
23ABA
330
23AAD
100
AcDbEntity
  8
0
  6
CONTINUOUS
100
AcDbLine
 10
36.23199999996837
 20
7.063385408191953
 30
0.0
 11
37.67199999996831
 21
8.503385408191894
 31
0.0
  0
LINE
  5
23ABB
330
23AAD
100
AcDbEntity
  8
0
  6
CONTINUOUS
100
AcDbLine
 10
31.72013636841932
 20
1.87800256756272
 30
0.0
 11
33.08199999996839
 21
3.239866199111788
 31
0.0
  0
LINE
  5
23ABC
330
23AAD
100
AcDbEntity
  8
0
  6
CONTINUOUS
100
AcDbLine
 10
36.23199999996837
 20
6.389866199111767
 30
0.0
 11
37.67199999996831
 21
7.829866199111708
 31
0.0
  0
LINE
  5
23ABD
330
23AAD
100
AcDbEntity
  8
0
  6
CONTINUOUS
100
AcDbLine
 10
31.89042734314753
 20
1.374774333210744
 30
0.0
 11
33.08199999996839
 21
2.566346990031601
 31
0.0
  0
LINE
  5
23ABE
330
23AAD
100
AcDbEntity
  8
0
  6
CONTINUOUS
100
AcDbLine
 10
36.23199999996837
 20
5.71634699003158
 30
0.0
 11
37.67199999996831
 21
7.156346990031521
 31
0.0
  0
LINE
  5
23ABF
330
23AAD
100
AcDbEntity
  8
0
  6
CONTINUOUS
100
AcDbLine
 10
32.14210568064475
 20
0.952933461627778
 30
0.0
 11
33.18745552475986
 21
1.998283305742888
 31
0.0
  0
LINE
  5
23AC0
330
23AAD
100
AcDbEntity
  8
0
  6
CONTINUOUS
100
AcDbLine
 10
36.23199999996837
 20
5.042827780951393
 30
0.0
 11
37.67199999996831
 21
6.482827780951334
 31
0.0
  0
LINE
  5
23AC1
330
23AAD
100
AcDbEntity
  8
0
  6
CONTINUOUS
100
AcDbLine
 10
32.45820639400955
 20
0.5955149659123915
 30
0.0
 11
33.47242681921943
 21
1.60973539112227
 31
0.0
  0
LINE
  5
23AC2
330
23AAD
100
AcDbEntity
  8
0
  6
CONTINUOUS
100
AcDbLine
 10
36.23199999996837
 20
4.369308571871207
 30
0.0
 11
37.67199999996831
 21
5.809308571871147
 31
0.0
  0
LINE
  5
23AC3
330
23AAD
100
AcDbEntity
  8
0
  6
CONTINUOUS
100
AcDbLine
 10
32.83432456621412
 20
0.2981139290367771
 30
0.0
 11
33.89722476612215
 21
1.361014128944803
 31
0.0
  0
LINE
  5
23AC4
330
23AAD
100
AcDbEntity
  8
0
  6
CONTINUOUS
100
AcDbLine
 10
36.23199999996837
 20
3.69578936279102
 30
0.0
 11
37.67199999996831
 21
5.135789362790962
 31
0.0
  0
LINE
  5
23AC5
330
23AAD
100
AcDbEntity
  8
0
  6
CONTINUOUS
100
AcDbLine
 10
33.2711633111245
 20
0.0614334648669672
 30
0.0
 11
34.43247338014423
 21
1.222743533886696
 31
0.0
  0
LINE
  5
23AC6
330
23AAD
100
AcDbEntity
  8
0
  6
CONTINUOUS
100
AcDbLine
 10
36.23199999996837
 20
3.022270153710834
 30
0.0
 11
37.67199999996831
 21
4.462270153710775
 31
0.0
  0
LINE
  5
23AC7
330
23AAD
100
AcDbEntity
  8
0
  6
CONTINUOUS
100
AcDbLine
 10
33.76515245874577
 20
-0.1180965965919523
 30
0.0
 11
35.1587445516215
 21
1.27549549628378
 31
0.0
  0
LINE
  5
23AC8
330
23AAD
100
AcDbEntity
  8
0
  6
CONTINUOUS
100
AcDbLine
 10
36.21639478609585
 20
2.333145730758136
 30
0.0
 11
37.67199999996831
 21
3.788750944630588
 31
0.0
  0
LINE
  5
23AC9
330
23AAD
100
AcDbEntity
  8
0
  6
CONTINUOUS
100
AcDbLine
 10
34.34060583368432
 20
-0.2161624307335863
 30
0.0
 11
37.67199999996831
 21
3.115231735550401
 31
0.0
  0
LINE
  5
23ACA
330
23AAD
100
AcDbEntity
  8
0
  6
CONTINUOUS
100
AcDbLine
 10
35.01698193613905
 20
-0.2133055373590427
 30
0.0
 11
37.66876712070525
 21
2.438479647207154
 31
0.0
  0
LINE
  5
23ACB
330
23AAD
100
AcDbEntity
  8
0
  6
CONTINUOUS
100
AcDbLine
 10
35.90743367693304
 20
0.0036269943547609
 30
0.0
 11
37.51723902192366
 21
1.613432339345381
 31
0.0
  0
LINE
  5
23ACC
330
23AAD
100
AcDbEntity
  8
0
  6
CONTINUOUS
100
AcDbLine
 10
32.55309425579761
 20
0.5074718966376706
 30
0.0
 11
32.27784730925847
 21
0.7827188431768102
 31
0.0
  0
LINE
  5
23ACD
330
23AAD
100
AcDbEntity
  8
0
  6
CONTINUOUS
100
AcDbLine
 10
33.87496468909684
 20
-0.1408793275813673
 30
0.0
 11
31.67993083278052
 21
2.054154528734943
 31
0.0
  0
LINE
  5
23ACE
330
23AAD
100
AcDbEntity
  8
0
  6
CONTINUOUS
100
AcDbLine
 10
34.64362813207632
 20
-0.2360235614806649
 30
0.0
 11
31.64199999996833
 21
2.765604570627322
 31
0.0
  0
LINE
  5
23ACF
330
23AAD
100
AcDbEntity
  8
0
  6
CONTINUOUS
100
AcDbLine
 10
35.25801106796118
 20
-0.1768872882853429
 30
0.0
 11
31.64199999996833
 21
3.439123779707508
 31
0.0
  0
LINE
  5
23AD0
330
23AAD
100
AcDbEntity
  8
0
  6
CONTINUOUS
100
AcDbLine
 10
35.79065650332146
 20
-0.0360135145654361
 30
0.0
 11
34.54143210838231
 21
1.213210880373721
 31
0.0
  0
LINE
  5
23AD1
330
23AAD
100
AcDbEntity
  8
0
  6
CONTINUOUS
100
AcDbLine
 10
33.08199999996839
 20
2.67264298878764
 30
0.0
 11
31.64199999996833
 21
4.112642988787695
 31
0.0
  0
LINE
  5
23AD2
330
23AAD
100
AcDbEntity
  8
0
  6
CONTINUOUS
100
AcDbLine
 10
36.25975597779143
 20
0.1684062200447833
 30
0.0
 11
35.15395110240023
 21
1.274211095435983
 31
0.0
  0
LINE
  5
23AD3
330
23AAD
100
AcDbEntity
  8
0
  6
CONTINUOUS
100
AcDbLine
 10
33.08199999996839
 20
3.346162197867826
 30
0.0
 11
31.64199999996833
 21
4.786162197867881
 31
0.0
  0
LINE
  5
23AD4
330
23AAD
100
AcDbEntity
  8
0
  6
CONTINUOUS
100
AcDbLine
 10
36.67226329638774
 20
0.4294181105286579
 30
0.0
 11
35.63766478748767
 21
1.464016619428737
 31
0.0
  0
LINE
  5
23AD5
330
23AAD
100
AcDbEntity
  8
0
  6
CONTINUOUS
100
AcDbLine
 10
33.08199999996839
 20
4.019681406948012
 30
0.0
 11
31.64199999996833
 21
5.459681406948068
 31
0.0
  0
LINE
  5
23AD6
330
23AAD
100
AcDbEntity
  8
0
  6
CONTINUOUS
100
AcDbLine
 10
37.01677749710036
 20
0.7584231188962329
 30
0.0
 11
35.99563422741351
 21
1.779566388583076
 31
0.0
  0
LINE
  5
23AD7
330
23AAD
100
AcDbEntity
  8
0
  6
CONTINUOUS
100
AcDbLine
 10
33.08199999996839
 20
4.693200616028199
 30
0.0
 11
31.64199999996833
 21
6.133200616028255
 31
0.0
  0
LINE
  5
23AD8
330
23AAD
100
AcDbEntity
  8
0
  6
CONTINUOUS
100
AcDbLine
 10
37.29859977568887
 20
1.1501200493879
 30
0.0
 11
36.20680593341555
 21
2.241913891661226
 31
0.0
  0
LINE
  5
23AD9
330
23AAD
100
AcDbEntity
  8
0
  6
CONTINUOUS
100
AcDbLine
 10
33.08199999996839
 20
5.366719825108386
 30
0.0
 11
31.64199999996833
 21
6.80671982510844
 31
0.0
  0
LINE
  5
23ADA
330
23AAD
100
AcDbEntity
  8
0
  6
CONTINUOUS
100
AcDbLine
 10
37.5148623517228
 20
1.607376682434161
 30
0.0
 11
36.23199999996837
 21
2.890239034188594
 31
0.0
  0
LINE
  5
23ADB
330
23AAD
100
AcDbEntity
  8
0
  6
CONTINUOUS
100
AcDbLine
 10
33.08199999996839
 20
6.040239034188573
 30
0.0
 11
31.64199999996833
 21
7.480239034188627
 31
0.0
  0
LINE
  5
23ADC
330
23AAD
100
AcDbEntity
  8
0
  6
CONTINUOUS
100
AcDbLine
 10
37.64705163358367
 20
2.148706609653477
 30
0.0
 11
36.23199999996837
 21
3.56375824326878
 31
0.0
  0
LINE
  5
23ADD
330
23AAD
100
AcDbEntity
  8
0
  6
CONTINUOUS
100
AcDbLine
 10
33.08199999996839
 20
6.713758243268758
 30
0.0
 11
31.64199999996833
 21
8.153758243268815
 31
0.0
  0
LINE
  5
23ADE
330
23AAD
100
AcDbEntity
  8
0
  6
CONTINUOUS
100
AcDbLine
 10
37.67199999996831
 20
2.797277452349026
 30
0.0
 11
36.23199999996837
 21
4.237277452348967
 31
0.0
  0
LINE
  5
23ADF
330
23AAD
100
AcDbEntity
  8
0
  6
CONTINUOUS
100
AcDbLine
 10
37.67199999996831
 20
3.470796661429213
 30
0.0
 11
36.23199999996837
 21
4.910796661429154
 31
0.0
  0
LINE
  5
23AE0
330
23AAD
100
AcDbEntity
  8
0
  6
CONTINUOUS
100
AcDbLine
 10
37.67199999996831
 20
4.144315870509399
 30
0.0
 11
36.23199999996837
 21
5.58431587050934
 31
0.0
  0
LINE
  5
23AE1
330
23AAD
100
AcDbEntity
  8
0
  6
CONTINUOUS
100
AcDbLine
 10
33.08199999996839
 20
7.387277452348945
 30
0.0
 11
31.70617745232608
 21
8.763099999991255
 31
0.0
  0
LINE
  5
23AE2
330
23AAD
100
AcDbEntity
  8
0
  6
CONTINUOUS
100
AcDbLine
 10
33.08199999996839
 20
8.060796661429132
 30
0.0
 11
32.37969666140626
 21
8.763099999991255
 31
0.0
  0
LINE
  5
23AE3
330
23AAD
100
AcDbEntity
  8
0
  6
CONTINUOUS
100
AcDbLine
 10
33.08199999996839
 20
8.734315870509318
 30
0.0
 11
33.05321587048645
 21
8.763099999991255
 31
0.0
  0
LINE
  5
23AE4
330
23AAD
100
AcDbEntity
  8
0
  6
CONTINUOUS
100
AcDbLine
 10
37.67199999996831
 20
4.817835079589585
 30
0.0
 11
36.23199999996837
 21
6.257835079589526
 31
0.0
  0
LINE
  5
23AE5
330
23AAD
100
AcDbEntity
  8
0
  6
CONTINUOUS
100
AcDbLine
 10
37.67199999996831
 20
5.491354288669771
 30
0.0
 11
36.23199999996837
 21
6.931354288669713
 31
0.0
  0
LINE
  5
23AE6
330
23AAD
100
AcDbEntity
  8
0
  6
CONTINUOUS
100
AcDbLine
 10
37.67199999996831
 20
6.164873497749958
 30
0.0
 11
36.23199999996837
 21
7.6048734977499
 31
0.0
  0
LINE
  5
23AE7
330
23AAD
100
AcDbEntity
  8
0
  6
CONTINUOUS
100
AcDbLine
 10
37.67199999996831
 20
6.838392706830144
 30
0.0
 11
36.23199999996837
 21
8.278392706830086
 31
0.0
  0
LINE
  5
23AE8
330
23AAD
100
AcDbEntity
  8
0
  6
CONTINUOUS
100
AcDbLine
 10
37.67199999996831
 20
7.511911915910332
 30
0.0
 11
36.42081191588738
 21
8.763099999991255
 31
0.0
  0
LINE
  5
23AE9
330
23AAD
100
AcDbEntity
  8
0
  6
CONTINUOUS
100
AcDbLine
 10
37.67199999996831
 20
8.185431124990519
 30
0.0
 11
37.09433112496757
 21
8.763099999991255
 31
0.0
  0
ENDBLK
  5
23B51
330
23AAD
100
AcDbEntity
  8
0
100
AcDbBlockEnd
  0
BLOCK
  5
23B52
330
23AEA
100
AcDbEntity
  8
0
100
AcDbBlockBegin
  2
*X190
 70
     1
 10
0.0
 20
0.0
 30
0.0
  3
*X190
  1

  0
LINE
  5
23AEB
330
23AEA
100
AcDbEntity
  8
0
  6
CONTINUOUS
100
AcDbLine
 10
38.60499999996136
 20
8.762866199104765
 30
0.0
 11
38.71672554182345
 21
8.874591740966855
 31
0.0
  0
LINE
  5
23AEC
330
23AEA
100
AcDbEntity
  8
0
  6
CONTINUOUS
100
AcDbLine
 10
38.60499999996136
 20
8.089346990024577
 30
0.0
 11
39.03418785440363
 21
8.518534844466847
 31
0.0
  0
LINE
  5
23AED
330
23AEA
100
AcDbEntity
  8
0
  6
CONTINUOUS
100
AcDbLine
 10
38.60499999996136
 20
7.41582778094439
 30
0.0
 11
39.35165016698382
 21
8.16247794796684
 31
0.0
  0
LINE
  5
23AEE
330
23AEA
100
AcDbEntity
  8
0
  6
CONTINUOUS
100
AcDbLine
 10
38.60499999996136
 20
6.742308571864204
 30
0.0
 11
39.66911247956399
 21
7.806421051466834
 31
0.0
  0
LINE
  5
23AEF
330
23AEA
100
AcDbEntity
  8
0
  6
CONTINUOUS
100
AcDbLine
 10
38.60499999996136
 20
6.068789362784018
 30
0.0
 11
39.98657479214418
 21
7.450364154966827
 31
0.0
  0
LINE
  5
23AF0
330
23AEA
100
AcDbEntity
  8
0
  6
CONTINUOUS
100
AcDbLine
 10
38.60499999996136
 20
5.395270153703832
 30
0.0
 11
40.30403710472435
 21
7.09430725846682
 31
0.0
  0
LINE
  5
23AF1
330
23AEA
100
AcDbEntity
  8
0
  6
CONTINUOUS
100
AcDbLine
 10
38.60499999996136
 20
4.721750944623645
 30
0.0
 11
40.62149941730453
 21
6.738250361966813
 31
0.0
  0
LINE
  5
23AF2
330
23AEA
100
AcDbEntity
  8
0
  6
CONTINUOUS
100
AcDbLine
 10
38.60499999996136
 20
4.048231735543458
 30
0.0
 11
40.93896172988471
 21
6.382193465466806
 31
0.0
  0
LINE
  5
23AF3
330
23AEA
100
AcDbEntity
  8
0
  6
CONTINUOUS
100
AcDbLine
 10
38.60499999996136
 20
3.374712526463272
 30
0.0
 11
40.02599999995994
 21
4.795712526461843
 31
0.0
  0
LINE
  5
23AF4
330
23AEA
100
AcDbEntity
  8
0
  6
CONTINUOUS
100
AcDbLine
 10
38.60499999996136
 20
2.701193317383085
 30
0.0
 11
40.02599999995994
 21
4.122193317381657
 31
0.0
  0
LINE
  5
23AF5
330
23AEA
100
AcDbEntity
  8
0
  6
CONTINUOUS
100
AcDbLine
 10
40.28339754687704
 20
5.053110073378947
 30
0.0
 11
41.25642404246489
 21
6.026136568966799
 31
0.0
  0
LINE
  5
23AF6
330
23AEA
100
AcDbEntity
  8
0
  6
CONTINUOUS
100
AcDbLine
 10
40.60085985945722
 20
4.697053176878939
 30
0.0
 11
41.57388635504507
 21
5.670079672466793
 31
0.0
  0
LINE
  5
23AF7
330
23AEA
100
AcDbEntity
  8
0
  6
CONTINUOUS
100
AcDbLine
 10
43.57899999995641
 20
8.348712526458318
 30
0.0
 11
43.99338747348935
 21
8.763099999991255
 31
0.0
  0
LINE
  5
23AF8
330
23AEA
100
AcDbEntity
  8
0
  6
CONTINUOUS
100
AcDbLine
 10
43.57899999995641
 20
7.675193317378131
 30
0.0
 11
44.66690668256953
 21
8.763099999991255
 31
0.0
  0
LINE
  5
23AF9
330
23AEA
100
AcDbEntity
  8
0
  6
CONTINUOUS
100
AcDbLine
 10
38.60499999996136
 20
2.027674108302898
 30
0.0
 11
40.02599999995994
 21
3.44867410830147
 31
0.0
  0
LINE
  5
23AFA
330
23AEA
100
AcDbEntity
  8
0
  6
CONTINUOUS
100
AcDbLine
 10
38.60499999996136
 20
1.354154899222712
 30
0.0
 11
40.02599999995994
 21
2.775154899221284
 31
0.0
  0
LINE
  5
23AFB
330
23AEA
100
AcDbEntity
  8
0
  6
CONTINUOUS
100
AcDbLine
 10
38.60499999996136
 20
0.6806356901425255
 30
0.0
 11
40.02599999995994
 21
2.101635690141098
 31
0.0
  0
LINE
  5
23AFC
330
23AEA
100
AcDbEntity
  8
0
  6
CONTINUOUS
100
AcDbLine
 10
38.60499999996136
 20
0.0071164810623383
 30
0.0
 11
40.02599999995994
 21
1.428116481060911
 31
0.0
  0
LINE
  5
23AFD
330
23AEA
100
AcDbEntity
  8
0
  6
CONTINUOUS
100
AcDbLine
 10
40.9183221720374
 20
4.340996280378933
 30
0.0
 11
41.89134866762525
 21
5.314022775966786
 31
0.0
  0
LINE
  5
23AFE
330
23AEA
100
AcDbEntity
  8
0
  6
CONTINUOUS
100
AcDbLine
 10
41.23578448461758
 20
3.984939383878926
 30
0.0
 11
42.20881098020543
 21
4.957965879466778
 31
0.0
  0
LINE
  5
23AFF
330
23AEA
100
AcDbEntity
  8
0
  6
CONTINUOUS
100
AcDbLine
 10
41.55324679719776
 20
3.628882487378919
 30
0.0
 11
42.52627329278561
 21
4.601908982966772
 31
0.0
  0
LINE
  5
23B00
330
23AEA
100
AcDbEntity
  8
0
  6
CONTINUOUS
100
AcDbLine
 10
41.87070910977793
 20
3.272825590878912
 30
0.0
 11
42.84373560536579
 21
4.245852086466765
 31
0.0
  0
LINE
  5
23B01
330
23AEA
100
AcDbEntity
  8
0
  6
CONTINUOUS
100
AcDbLine
 10
43.57899999995641
 20
7.001674108297943
 30
0.0
 11
44.99999999995498
 21
8.422674108296516
 31
0.0
  0
LINE
  5
23B02
330
23AEA
100
AcDbEntity
  8
0
  6
CONTINUOUS
100
AcDbLine
 10
43.57899999995641
 20
6.328154899217758
 30
0.0
 11
44.99999999995498
 21
7.749154899216329
 31
0.0
  0
LINE
  5
23B03
330
23AEA
100
AcDbEntity
  8
0
  6
CONTINUOUS
100
AcDbLine
 10
43.57899999995641
 20
5.654635690137571
 30
0.0
 11
44.99999999995498
 21
7.075635690136142
 31
0.0
  0
LINE
  5
23B04
330
23AEA
100
AcDbEntity
  8
0
  6
CONTINUOUS
100
AcDbLine
 10
43.57899999995641
 20
4.981116481057384
 30
0.0
 11
44.99999999995498
 21
6.402116481055955
 31
0.0
  0
LINE
  5
23B05
330
23AEA
100
AcDbEntity
  8
0
  6
CONTINUOUS
100
AcDbLine
 10
39.27140272797921
 20
-0.0000000000000009
 30
0.0
 11
40.02599999995994
 21
0.7545972719807246
 31
0.0
  0
LINE
  5
23B06
330
23AEA
100
AcDbEntity
  8
0
  6
CONTINUOUS
100
AcDbLine
 10
39.9449219370594
 20
-0.0000000000000009
 30
0.0
 11
40.02599999995994
 21
0.0810780629005379
 31
0.0
  0
LINE
  5
23B07
330
23AEA
100
AcDbEntity
  8
0
  6
CONTINUOUS
100
AcDbLine
 10
42.18817142235812
 20
2.916768694378905
 30
0.0
 11
43.16119791794597
 21
3.889795189966758
 31
0.0
  0
LINE
  5
23B08
330
23AEA
100
AcDbEntity
  8
0
  6
CONTINUOUS
100
AcDbLine
 10
42.50563373493829
 20
2.560711797878898
 30
0.0
 11
43.47866023052615
 21
3.533738293466751
 31
0.0
  0
LINE
  5
23B09
330
23AEA
100
AcDbEntity
  8
0
  6
CONTINUOUS
100
AcDbLine
 10
43.57899999995641
 20
4.307597271977198
 30
0.0
 11
44.99999999995498
 21
5.728597271975769
 31
0.0
  0
LINE
  5
23B0A
330
23AEA
100
AcDbEntity
  8
0
  6
CONTINUOUS
100
AcDbLine
 10
43.57899999995641
 20
3.634078062897011
 30
0.0
 11
44.99999999995498
 21
5.055078062895582
 31
0.0
  0
LINE
  5
23B0B
330
23AEA
100
AcDbEntity
  8
0
  6
CONTINUOUS
100
AcDbLine
 10
42.82309604751848
 20
2.204654901378891
 30
0.0
 11
44.99999999995498
 21
4.381558853815395
 31
0.0
  0
LINE
  5
23B0C
330
23AEA
100
AcDbEntity
  8
0
  6
CONTINUOUS
100
AcDbLine
 10
43.14055836009865
 20
1.848598004878885
 30
0.0
 11
44.99999999995498
 21
3.70803964473521
 31
0.0
  0
LINE
  5
23B0D
330
23AEA
100
AcDbEntity
  8
0
  6
CONTINUOUS
100
AcDbLine
 10
43.45802067267883
 20
1.492541108378878
 30
0.0
 11
44.99999999995498
 21
3.034520435655023
 31
0.0
  0
LINE
  5
23B0E
330
23AEA
100
AcDbEntity
  8
0
  6
CONTINUOUS
100
AcDbLine
 10
43.77548298525902
 20
1.136484211878871
 30
0.0
 11
44.99999999995498
 21
2.361001226574837
 31
0.0
  0
LINE
  5
23B0F
330
23AEA
100
AcDbEntity
  8
0
  6
CONTINUOUS
100
AcDbLine
 10
44.09294529783919
 20
0.7804273153788639
 30
0.0
 11
44.99999999995498
 21
1.687482017494649
 31
0.0
  0
LINE
  5
23B10
330
23AEA
100
AcDbEntity
  8
0
  6
CONTINUOUS
100
AcDbLine
 10
44.41040761041938
 20
0.4243704188788566
 30
0.0
 11
44.99999999995498
 21
1.013962808414463
 31
0.0
  0
LINE
  5
23B11
330
23AEA
100
AcDbEntity
  8
0
  6
CONTINUOUS
100
AcDbLine
 10
44.72786992299955
 20
0.0683135223788494
 30
0.0
 11
44.99999999995498
 21
0.340443599334276
 31
0.0
  0
LINE
  5
23B12
330
23AEA
100
AcDbEntity
  8
0
  6
CONTINUOUS
100
AcDbLine
 10
39.12223903415696
 20
-0.0000000000000009
 30
0.0
 11
38.60499999996136
 21
0.5172390341955961
 31
0.0
  0
LINE
  5
23B13
330
23AEA
100
AcDbEntity
  8
0
  6
CONTINUOUS
100
AcDbLine
 10
39.79575824323715
 20
-0.0000000000000009
 30
0.0
 11
38.60499999996136
 21
1.190758243275783
 31
0.0
  0
LINE
  5
23B14
330
23AEA
100
AcDbEntity
  8
0
  6
CONTINUOUS
100
AcDbLine
 10
40.02599999995994
 20
0.443277452357397
 30
0.0
 11
38.60499999996136
 21
1.864277452355969
 31
0.0
  0
LINE
  5
23B15
330
23AEA
100
AcDbEntity
  8
0
  6
CONTINUOUS
100
AcDbLine
 10
40.02599999995994
 20
1.116796661437583
 30
0.0
 11
38.60499999996136
 21
2.537796661436155
 31
0.0
  0
LINE
  5
23B16
330
23AEA
100
AcDbEntity
  8
0
  6
CONTINUOUS
100
AcDbLine
 10
40.02599999995994
 20
1.79031587051777
 30
0.0
 11
38.60499999996136
 21
3.211315870516341
 31
0.0
  0
LINE
  5
23B17
330
23AEA
100
AcDbEntity
  8
0
  6
CONTINUOUS
100
AcDbLine
 10
40.02599999995994
 20
2.463835079597956
 30
0.0
 11
38.60499999996136
 21
3.884835079596527
 31
0.0
  0
LINE
  5
23B18
330
23AEA
100
AcDbEntity
  8
0
  6
CONTINUOUS
100
AcDbLine
 10
40.02599999995994
 20
3.137354288678143
 30
0.0
 11
38.60499999996136
 21
4.558354288676714
 31
0.0
  0
LINE
  5
23B19
330
23AEA
100
AcDbEntity
  8
0
  6
CONTINUOUS
100
AcDbLine
 10
40.02599999995994
 20
3.810873497758329
 30
0.0
 11
38.60499999996136
 21
5.2318734977569
 31
0.0
  0
LINE
  5
23B1A
330
23AEA
100
AcDbEntity
  8
0
  6
CONTINUOUS
100
AcDbLine
 10
40.02599999995994
 20
4.484392706838515
 30
0.0
 11
38.60499999996136
 21
5.905392706837086
 31
0.0
  0
LINE
  5
23B1B
330
23AEA
100
AcDbEntity
  8
0
  6
CONTINUOUS
100
AcDbLine
 10
44.99999999995498
 20
0.183911915923658
 30
0.0
 11
41.53858364506288
 21
3.64532827081576
 31
0.0
  0
LINE
  5
23B1C
330
23AEA
100
AcDbEntity
  8
0
  6
CONTINUOUS
100
AcDbLine
 10
40.02599999995994
 20
5.157911915918703
 30
0.0
 11
38.60499999996136
 21
6.578911915917274
 31
0.0
  0
LINE
  5
23B1D
330
23AEA
100
AcDbEntity
  8
0
  6
CONTINUOUS
100
AcDbLine
 10
44.99999999995498
 20
0.8574311250038447
 30
0.0
 11
38.60499999996136
 21
7.25243112499746
 31
0.0
  0
LINE
  5
23B1E
330
23AEA
100
AcDbEntity
  8
0
  6
CONTINUOUS
100
AcDbLine
 10
44.99999999995498
 20
1.530950334084031
 30
0.0
 11
38.60499999996136
 21
7.925950334077647
 31
0.0
  0
LINE
  5
23B1F
330
23AEA
100
AcDbEntity
  8
0
  6
CONTINUOUS
100
AcDbLine
 10
44.99999999995498
 20
2.204469543164218
 30
0.0
 11
43.57899999995641
 21
3.625469543162789
 31
0.0
  0
LINE
  5
23B20
330
23AEA
100
AcDbEntity
  8
0
  6
CONTINUOUS
100
AcDbLine
 10
41.89876730984767
 20
5.305702233271528
 30
0.0
 11
38.60499999996136
 21
8.599469543157834
 31
0.0
  0
LINE
  5
23B21
330
23AEA
100
AcDbEntity
  8
0
  6
CONTINUOUS
100
AcDbLine
 10
44.99999999995498
 20
2.877988752244405
 30
0.0
 11
43.57899999995641
 21
4.298988752242975
 31
0.0
  0
LINE
  5
23B22
330
23AEA
100
AcDbEntity
  8
0
  6
CONTINUOUS
100
AcDbLine
 10
44.99999999995498
 20
3.551507961324591
 30
0.0
 11
43.57899999995641
 21
4.972507961323163
 31
0.0
  0
LINE
  5
23B23
330
23AEA
100
AcDbEntity
  8
0
  6
CONTINUOUS
100
AcDbLine
 10
44.99999999995498
 20
4.225027170404777
 30
0.0
 11
43.57899999995641
 21
5.646027170403348
 31
0.0
  0
LINE
  5
23B24
330
23AEA
100
AcDbEntity
  8
0
  6
CONTINUOUS
100
AcDbLine
 10
44.99999999995498
 20
4.898546379484964
 30
0.0
 11
43.57899999995641
 21
6.319546379483535
 31
0.0
  0
LINE
  5
23B25
330
23AEA
100
AcDbEntity
  8
0
  6
CONTINUOUS
100
AcDbLine
 10
44.99999999995498
 20
5.572065588565151
 30
0.0
 11
43.57899999995641
 21
6.993065588563722
 31
0.0
  0
LINE
  5
23B26
330
23AEA
100
AcDbEntity
  8
0
  6
CONTINUOUS
100
AcDbLine
 10
44.99999999995498
 20
6.245584797645336
 30
0.0
 11
43.57899999995641
 21
7.666584797643908
 31
0.0
  0
LINE
  5
23B27
330
23AEA
100
AcDbEntity
  8
0
  6
CONTINUOUS
100
AcDbLine
 10
44.99999999995498
 20
6.919104006725522
 30
0.0
 11
43.57899999995641
 21
8.340104006724093
 31
0.0
  0
LINE
  5
23B28
330
23AEA
100
AcDbEntity
  8
0
  6
CONTINUOUS
100
AcDbLine
 10
44.99999999995498
 20
7.592623215805709
 30
0.0
 11
43.82952321576943
 21
8.763099999991255
 31
0.0
  0
LINE
  5
23B29
330
23AEA
100
AcDbEntity
  8
0
  6
CONTINUOUS
100
AcDbLine
 10
44.99999999995498
 20
8.266142424885896
 30
0.0
 11
44.50304242484962
 21
8.763099999991255
 31
0.0
  0
ENDBLK
  5
23B53
330
23AEA
100
AcDbEntity
  8
0
100
AcDbBlockEnd
  0
BLOCK
  5
23B54
330
23B2A
100
AcDbEntity
  8
0
100
AcDbBlockBegin
  2
*X191
 70
     1
 10
0.0
 20
0.0
 30
0.0
  3
*X191
  1

  0
LINE
  5
23B2B
330
23B2A
100
AcDbEntity
  8
0
  6
CONTINUOUS
100
AcDbLine
 10
0.0
 20
8.548461116714023
 30
0.0
 11
0.2146388832772324
 21
8.763099999991255
 31
0.0
  0
LINE
  5
23B2C
330
23B2A
100
AcDbEntity
  8
0
  6
CONTINUOUS
100
AcDbLine
 10
-0.0000000000000002
 20
7.874941907633837
 30
0.0
 11
0.8881580923574184
 21
8.763099999991255
 31
0.0
  0
LINE
  5
23B2D
330
23B2A
100
AcDbEntity
  8
0
  6
CONTINUOUS
100
AcDbLine
 10
0.0
 20
7.20142269855365
 30
0.0
 11
1.420999999998572
 21
8.622422698552223
 31
0.0
  0
LINE
  5
23B2E
330
23B2A
100
AcDbEntity
  8
0
  6
CONTINUOUS
100
AcDbLine
 10
-0.0000000000000001
 20
6.527903489473465
 30
0.0
 11
1.420999999998571
 21
7.948903489472036
 31
0.0
  0
LINE
  5
23B2F
330
23B2A
100
AcDbEntity
  8
0
  6
CONTINUOUS
100
AcDbLine
 10
-0.0000000000000002
 20
5.854384280393278
 30
0.0
 11
1.420999999998571
 21
7.275384280391849
 31
0.0
  0
LINE
  5
23B30
330
23B2A
100
AcDbEntity
  8
0
  6
CONTINUOUS
100
AcDbLine
 10
-0.0000000000000002
 20
5.180865071313091
 30
0.0
 11
1.420999999998571
 21
6.601865071311663
 31
0.0
  0
LINE
  5
23B31
330
23B2A
100
AcDbEntity
  8
0
  6
CONTINUOUS
100
AcDbLine
 10
0.0
 20
4.507345862232905
 30
0.0
 11
1.420999999998571
 21
5.928345862231477
 31
0.0
  0
LINE
  5
23B32
330
23B2A
100
AcDbEntity
  8
0
  6
CONTINUOUS
100
AcDbLine
 10
-0.0000000000000003
 20
3.833826653152718
 30
0.0
 11
1.420999999998571
 21
5.25482665315129
 31
0.0
  0
LINE
  5
23B33
330
23B2A
100
AcDbEntity
  8
0
  6
CONTINUOUS
100
AcDbLine
 10
-0.0000000000000002
 20
3.160307444072532
 30
0.0
 11
1.420999999998571
 21
4.581307444071103
 31
0.0
  0
LINE
  5
23B34
330
23B2A
100
AcDbEntity
  8
0
  6
CONTINUOUS
100
AcDbLine
 10
-0.0000000000000001
 20
2.486788234992345
 30
0.0
 11
1.420999999998571
 21
3.907788234990917
 31
0.0
  0
LINE
  5
23B35
330
23B2A
100
AcDbEntity
  8
0
  6
CONTINUOUS
100
AcDbLine
 10
-0.0000000000000006
 20
1.813269025912159
 30
0.0
 11
1.420999999998571
 21
3.234269025910731
 31
0.0
  0
LINE
  5
23B36
330
23B2A
100
AcDbEntity
  8
0
  6
CONTINUOUS
100
AcDbLine
 10
0.0
 20
1.139749816831973
 30
0.0
 11
1.420999999998571
 21
2.560749816830544
 31
0.0
  0
LINE
  5
23B37
330
23B2A
100
AcDbEntity
  8
0
  6
CONTINUOUS
100
AcDbLine
 10
0.0000000000000002
 20
0.466230607751787
 30
0.0
 11
1.420999999998571
 21
1.887230607750358
 31
0.0
  0
LINE
  5
23B38
330
23B2A
100
AcDbEntity
  8
0
  6
CONTINUOUS
100
AcDbLine
 10
0.2072886013284003
 20
-0.0000000000000009
 30
0.0
 11
1.420999999998571
 21
1.213711398670171
 31
0.0
  0
LINE
  5
23B39
330
23B2A
100
AcDbEntity
  8
0
  6
CONTINUOUS
100
AcDbLine
 10
0.8808078104085864
 20
-0.0000000000000009
 30
0.0
 11
1.420999999998571
 21
0.5401921895899839
 31
0.0
  0
LINE
  5
23B3A
330
23B2A
100
AcDbEntity
  8
0
  6
CONTINUOUS
100
AcDbLine
 10
0.0581249075061505
 20
-0.0000000000000009
 30
0.0
 11
-0.0000000000000002
 21
0.0581249075061496
 31
0.0
  0
LINE
  5
23B3B
330
23B2A
100
AcDbEntity
  8
0
  6
CONTINUOUS
100
AcDbLine
 10
0.7316441165863372
 20
-0.0000000000000009
 30
0.0
 11
-0.0000000000000002
 21
0.7316441165863363
 31
0.0
  0
LINE
  5
23B3C
330
23B2A
100
AcDbEntity
  8
0
  6
CONTINUOUS
100
AcDbLine
 10
1.405163325666523
 20
-0.0000000000000009
 30
0.0
 11
-0.0000000000000002
 21
1.405163325666523
 31
0.0
  0
LINE
  5
23B3D
330
23B2A
100
AcDbEntity
  8
0
  6
CONTINUOUS
100
AcDbLine
 10
1.420999999998572
 20
0.6576825347481381
 30
0.0
 11
-0.0000000000000001
 21
2.07868253474671
 31
0.0
  0
LINE
  5
23B3E
330
23B2A
100
AcDbEntity
  8
0
  6
CONTINUOUS
100
AcDbLine
 10
1.420999999998571
 20
1.331201743828324
 30
0.0
 11
-0.0000000000000001
 21
2.752201743826896
 31
0.0
  0
LINE
  5
23B3F
330
23B2A
100
AcDbEntity
  8
0
  6
CONTINUOUS
100
AcDbLine
 10
1.420999999998571
 20
2.004720952908511
 30
0.0
 11
-0.0000000000000002
 21
3.425720952907082
 31
0.0
  0
LINE
  5
23B40
330
23B2A
100
AcDbEntity
  8
0
  6
CONTINUOUS
100
AcDbLine
 10
1.420999999998571
 20
2.678240161988697
 30
0.0
 11
-0.0000000000000001
 21
4.099240161987269
 31
0.0
  0
LINE
  5
23B41
330
23B2A
100
AcDbEntity
  8
0
  6
CONTINUOUS
100
AcDbLine
 10
1.420999999998572
 20
3.351759371068884
 30
0.0
 11
0.0
 21
4.772759371067455
 31
0.0
  0
LINE
  5
23B42
330
23B2A
100
AcDbEntity
  8
0
  6
CONTINUOUS
100
AcDbLine
 10
1.420999999998571
 20
4.02527858014907
 30
0.0
 11
-0.0000000000000003
 21
5.446278580147642
 31
0.0
  0
LINE
  5
23B43
330
23B2A
100
AcDbEntity
  8
0
  6
CONTINUOUS
100
AcDbLine
 10
1.420999999998571
 20
4.698797789229257
 30
0.0
 11
0.0
 21
6.119797789227828
 31
0.0
  0
LINE
  5
23B44
330
23B2A
100
AcDbEntity
  8
0
  6
CONTINUOUS
100
AcDbLine
 10
1.420999999998571
 20
5.372316998309444
 30
0.0
 11
-0.0000000000000001
 21
6.793316998308015
 31
0.0
  0
LINE
  5
23B45
330
23B2A
100
AcDbEntity
  8
0
  6
CONTINUOUS
100
AcDbLine
 10
1.420999999998572
 20
6.045836207389629
 30
0.0
 11
-0.0000000000000004
 21
7.466836207388202
 31
0.0
  0
LINE
  5
23B46
330
23B2A
100
AcDbEntity
  8
0
  6
CONTINUOUS
100
AcDbLine
 10
1.420999999998571
 20
6.719355416469816
 30
0.0
 11
0.0
 21
8.140355416468388
 31
0.0
  0
LINE
  5
23B47
330
23B2A
100
AcDbEntity
  8
0
  6
CONTINUOUS
100
AcDbLine
 10
1.420999999998571
 20
7.392874625550003
 30
0.0
 11
0.0507746255573185
 21
8.763099999991255
 31
0.0
  0
LINE
  5
23B48
330
23B2A
100
AcDbEntity
  8
0
  6
CONTINUOUS
100
AcDbLine
 10
1.420999999998571
 20
8.06639383463019
 30
0.0
 11
0.7242938346375052
 21
8.763099999991255
 31
0.0
  0
LINE
  5
23B49
330
23B2A
100
AcDbEntity
  8
0
  6
CONTINUOUS
100
AcDbLine
 10
1.420999999998571
 20
8.739913043710375
 30
0.0
 11
1.397813043717691
 21
8.763099999991255
 31
0.0
  0
ENDBLK
  5
23B55
330
23B2A
100
AcDbEntity
  8
0
100
AcDbBlockEnd
  0
ENDSEC
  0
SECTION
  2
ENTITIES
  0
LINE
  5
227AF
102
{ACAD_REACTORS
330
22916
102
}
330
18
100
AcDbEntity
  8
01
100
AcDbLine
 10
3593.005890834288
 20
819.1811877247914
 30
0.0
 11
3590.005890834288
 21
808.581194705068
 31
0.0
  0
LINE
  5
227B0
102
{ACAD_REACTORS
330
22916
102
}
330
18
100
AcDbEntity
  8
01
100
AcDbLine
 10
3590.005890834288
 20
808.581194705068
 30
0.0
 11
3590.005890834288
 21
749.1811947052842
 31
0.0
  0
LINE
  5
227B1
102
{ACAD_REACTORS
330
22916
102
}
330
18
100
AcDbEntity
  8
01
100
AcDbLine
 10
3593.005890834288
 20
819.1811877247914
 30
0.0
 11
3596.005890834288
 21
808.5811807443007
 31
0.0
  0
LINE
  5
227B2
102
{ACAD_REACTORS
330
22916
102
}
330
18
100
AcDbEntity
  8
01
100
AcDbLine
 10
3584.005797762492
 20
749.1812086662704
 30
0.0
 11
3602.005797762492
 21
749.1811667839617
 31
0.0
  0
LINE
  5
227B3
102
{ACAD_REACTORS
330
22916
102
}
330
18
100
AcDbEntity
  8
01
100
AcDbLine
 10
3596.005890834288
 20
808.5811807443007
 30
0.0
 11
3596.005890834288
 21
749.1811807445148
 31
0.0
  0
LINE
  5
227B4
102
{ACAD_REACTORS
330
22916
102
}
330
18
100
AcDbEntity
  8
1CENTER
100
AcDbLine
 10
3593.005797762492
 20
822.0427775597221
 30
0.0
 11
3593.005797762492
 21
741.8406349064984
 31
0.0
  0
LINE
  5
227B5
102
{ACAD_REACTORS
330
22916
102
}
330
18
100
AcDbEntity
  8
01
100
AcDbLine
 10
3590.817150134503
 20
814.9811928174357
 30
0.0
 11
3594.741820312253
 21
816.5811836855377
 31
0.0
  0
LINE
  5
227B6
102
{ACAD_REACTORS
330
22916
102
}
330
18
100
AcDbEntity
  8
01
100
AcDbLine
 10
3594.741820312253
 20
816.5811836855377
 30
0.0
 11
3593.565267162169
 21
817.2047233980419
 31
0.0
  0
LINE
  5
227B7
102
{ACAD_REACTORS
330
22916
102
}
330
18
100
AcDbEntity
  8
01
100
AcDbLine
 10
3589.005890834288
 20
770.1811970318557
 30
0.0
 11
3597.005890834288
 21
771.7811784174922
 31
0.0
  0
LINE
  5
227B8
102
{ACAD_REACTORS
330
22916
102
}
330
18
100
AcDbEntity
  8
01
100
AcDbLine
 10
3589.005890834288
 20
792.5811970318645
 30
0.0
 11
3597.005890834288
 21
794.1811784175096
 31
0.0
  0
LINE
  5
227B9
102
{ACAD_REACTORS
330
22916
102
}
330
18
100
AcDbEntity
  8
01
100
AcDbLine
 10
3589.005890834288
 20
798.9811970318646
 30
0.0
 11
3597.005890834288
 21
800.5811784175097
 31
0.0
  0
LINE
  5
227BA
102
{ACAD_REACTORS
330
22916
102
}
330
18
100
AcDbEntity
  8
01
100
AcDbLine
 10
3597.005890834288
 20
800.5811784175097
 30
0.0
 11
3596.005890834288
 21
800.7811807443042
 31
0.0
  0
LINE
  5
227BB
102
{ACAD_REACTORS
330
22916
102
}
330
18
100
AcDbEntity
  8
01
100
AcDbLine
 10
3590.005890834288
 20
801.9811947050702
 30
0.0
 11
3589.005890834288
 21
802.1811970318646
 31
0.0
  0
LINE
  5
227BC
102
{ACAD_REACTORS
330
22916
102
}
330
18
100
AcDbEntity
  8
01
100
AcDbLine
 10
3597.005890834288
 20
794.1811784175096
 30
0.0
 11
3596.005890834288
 21
794.3811807443041
 31
0.0
  0
LINE
  5
227BD
102
{ACAD_REACTORS
330
22916
102
}
330
18
100
AcDbEntity
  8
01
100
AcDbLine
 10
3597.005890834288
 20
797.3811784175099
 30
0.0
 11
3596.005890834288
 21
797.5811807443041
 31
0.0
  0
LINE
  5
227BE
102
{ACAD_REACTORS
330
22916
102
}
330
18
100
AcDbEntity
  8
01
100
AcDbLine
 10
3590.005890834288
 20
798.7811947050703
 30
0.0
 11
3589.005890834288
 21
798.9811970318646
 31
0.0
  0
LINE
  5
227BF
102
{ACAD_REACTORS
330
22916
102
}
330
18
100
AcDbEntity
  8
01
100
AcDbLine
 10
3590.005890834288
 20
795.5811947050705
 30
0.0
 11
3589.005890834288
 21
795.7811970318647
 31
0.0
  0
LINE
  5
227C0
102
{ACAD_REACTORS
330
22916
102
}
330
18
100
AcDbEntity
  8
01
100
AcDbLine
 10
3589.005890834288
 20
795.7811970318647
 30
0.0
 11
3597.005890834288
 21
797.3811784175099
 31
0.0
  0
LINE
  5
227C1
102
{ACAD_REACTORS
330
22916
102
}
330
18
100
AcDbEntity
  8
01
100
AcDbLine
 10
3595.647448521067
 20
813.3811815783264
 30
0.0
 11
3594.54394959346
 21
813.7467098635824
 31
0.0
  0
LINE
  5
227C2
102
{ACAD_REACTORS
330
22916
102
}
330
18
100
AcDbEntity
  8
01
100
AcDbLine
 10
3597.005890834288
 20
806.9811784175098
 30
0.0
 11
3596.005890834288
 21
807.181180744304
 31
0.0
  0
LINE
  5
227C3
102
{ACAD_REACTORS
330
22916
102
}
330
18
100
AcDbEntity
  8
01
100
AcDbLine
 10
3597.005890834288
 20
803.7811784175098
 30
0.0
 11
3596.005890834288
 21
803.9811807443037
 31
0.0
  0
LINE
  5
227C4
102
{ACAD_REACTORS
330
22916
102
}
330
18
100
AcDbEntity
  8
01
100
AcDbLine
 10
3596.55307672988
 20
810.1811794711151
 30
0.0
 11
3595.479889259339
 21
810.4397208663748
 31
0.0
  0
LINE
  5
227C5
102
{ACAD_REACTORS
330
22916
102
}
330
18
100
AcDbEntity
  8
01
100
AcDbLine
 10
3590.847720028706
 20
811.5556558999441
 30
0.0
 11
3589.911523118406
 21
811.7811949246442
 31
0.0
  0
LINE
  5
227C6
102
{ACAD_REACTORS
330
22916
102
}
330
18
100
AcDbEntity
  8
01
100
AcDbLine
 10
3590.005890834288
 20
805.1811947050704
 30
0.0
 11
3589.005890834288
 21
805.3811970318646
 31
0.0
  0
LINE
  5
227C7
102
{ACAD_REACTORS
330
22916
102
}
330
18
100
AcDbEntity
  8
01
100
AcDbLine
 10
3590.005890834288
 20
808.3811947050702
 30
0.0
 11
3589.005890834288
 21
808.5811970318645
 31
0.0
  0
LINE
  5
227C8
102
{ACAD_REACTORS
330
22916
102
}
330
18
100
AcDbEntity
  8
01
100
AcDbLine
 10
3591.731493815765
 20
814.6783212245549
 30
0.0
 11
3590.817150134503
 21
814.9811928174357
 31
0.0
  0
LINE
  5
227C9
102
{ACAD_REACTORS
330
22916
102
}
330
18
100
AcDbEntity
  8
01
100
AcDbLine
 10
3589.911523118406
 20
811.7811949246442
 30
0.0
 11
3595.647448521067
 21
813.3811815783264
 31
0.0
  0
LINE
  5
227CA
102
{ACAD_REACTORS
330
22916
102
}
330
18
100
AcDbEntity
  8
01
100
AcDbLine
 10
3589.005890834288
 20
805.3811970318646
 30
0.0
 11
3597.005890834288
 21
806.9811784175098
 31
0.0
  0
LINE
  5
227CB
102
{ACAD_REACTORS
330
22916
102
}
330
18
100
AcDbEntity
  8
01
100
AcDbLine
 10
3589.005890834288
 20
808.5811970318645
 30
0.0
 11
3596.55307672988
 21
810.1811794711151
 31
0.0
  0
LINE
  5
227CC
102
{ACAD_REACTORS
330
22916
102
}
330
18
100
AcDbEntity
  8
01
100
AcDbLine
 10
3589.005890834288
 20
802.1811970318646
 30
0.0
 11
3597.005890834288
 21
803.7811784175098
 31
0.0
  0
LINE
  5
227CD
102
{ACAD_REACTORS
330
22916
102
}
330
18
100
AcDbEntity
  8
01
100
AcDbLine
 10
3589.005890834288
 20
776.5811970318558
 30
0.0
 11
3597.005890834288
 21
778.1811784174923
 31
0.0
  0
LINE
  5
227CE
102
{ACAD_REACTORS
330
22916
102
}
330
18
100
AcDbEntity
  8
01
100
AcDbLine
 10
3597.005890834288
 20
778.1811784174923
 30
0.0
 11
3596.005890834288
 21
778.3811807442877
 31
0.0
  0
LINE
  5
227CF
102
{ACAD_REACTORS
330
22916
102
}
330
18
100
AcDbEntity
  8
01
100
AcDbLine
 10
3590.005890834288
 20
779.5811947050692
 30
0.0
 11
3589.005890834288
 21
779.7811970318645
 31
0.0
  0
LINE
  5
227D0
102
{ACAD_REACTORS
330
22916
102
}
330
18
100
AcDbEntity
  8
01
100
AcDbLine
 10
3597.005890834288
 20
774.9811784174921
 30
0.0
 11
3596.005890834288
 21
775.1811807442874
 31
0.0
  0
LINE
  5
227D1
102
{ACAD_REACTORS
330
22916
102
}
330
18
100
AcDbEntity
  8
01
100
AcDbLine
 10
3597.005890834288
 20
771.7811784174922
 30
0.0
 11
3596.005890834288
 21
771.9811807442876
 31
0.0
  0
LINE
  5
227D2
102
{ACAD_REACTORS
330
22916
102
}
330
18
100
AcDbEntity
  8
01
100
AcDbLine
 10
3590.005890834288
 20
776.3811947050605
 30
0.0
 11
3589.005890834288
 21
776.5811970318558
 31
0.0
  0
LINE
  5
227D3
102
{ACAD_REACTORS
330
22916
102
}
330
18
100
AcDbEntity
  8
01
100
AcDbLine
 10
3590.005890834288
 20
773.1811947050602
 30
0.0
 11
3589.005890834288
 21
773.3811970318555
 31
0.0
  0
LINE
  5
227D4
102
{ACAD_REACTORS
330
22916
102
}
330
18
100
AcDbEntity
  8
01
100
AcDbLine
 10
3589.005890834288
 20
773.3811970318555
 30
0.0
 11
3597.005890834288
 21
774.9811784174921
 31
0.0
  0
LINE
  5
227D5
102
{ACAD_REACTORS
330
22916
102
}
330
18
100
AcDbEntity
  8
01
100
AcDbLine
 10
3597.005890834288
 20
787.7811784175011
 30
0.0
 11
3596.005890834288
 21
787.9811807442965
 31
0.0
  0
LINE
  5
227D6
102
{ACAD_REACTORS
330
22916
102
}
330
18
100
AcDbEntity
  8
01
100
AcDbLine
 10
3597.005890834288
 20
790.9811784175098
 30
0.0
 11
3596.005890834288
 21
791.181180744304
 31
0.0
  0
LINE
  5
227D7
102
{ACAD_REACTORS
330
22916
102
}
330
18
100
AcDbEntity
  8
01
100
AcDbLine
 10
3597.005890834288
 20
781.381178417501
 30
0.0
 11
3596.005890834288
 21
781.5811807442964
 31
0.0
  0
LINE
  5
227D8
102
{ACAD_REACTORS
330
22916
102
}
330
18
100
AcDbEntity
  8
01
100
AcDbLine
 10
3597.005890834288
 20
784.5811784175008
 30
0.0
 11
3596.005890834288
 21
784.7811807442962
 31
0.0
  0
LINE
  5
227D9
102
{ACAD_REACTORS
330
22916
102
}
330
18
100
AcDbEntity
  8
01
100
AcDbLine
 10
3590.005890834288
 20
792.3811947050702
 30
0.0
 11
3589.005890834288
 21
792.5811970318645
 31
0.0
  0
LINE
  5
227DA
102
{ACAD_REACTORS
330
22916
102
}
330
18
100
AcDbEntity
  8
01
100
AcDbLine
 10
3590.005890834288
 20
789.1811947050691
 30
0.0
 11
3589.005890834288
 21
789.3811970318646
 31
0.0
  0
LINE
  5
227DB
102
{ACAD_REACTORS
330
22916
102
}
330
18
100
AcDbEntity
  8
01
100
AcDbLine
 10
3590.005890834288
 20
782.781194705069
 30
0.0
 11
3589.005890834288
 21
782.9811970318643
 31
0.0
  0
LINE
  5
227DC
102
{ACAD_REACTORS
330
22916
102
}
330
18
100
AcDbEntity
  8
01
100
AcDbLine
 10
3590.005890834288
 20
785.9811947050692
 30
0.0
 11
3589.005890834288
 21
786.1811970318646
 31
0.0
  0
LINE
  5
227DD
102
{ACAD_REACTORS
330
22916
102
}
330
18
100
AcDbEntity
  8
01
100
AcDbLine
 10
3589.005890834288
 20
786.1811970318646
 30
0.0
 11
3597.005890834288
 21
787.7811784175011
 31
0.0
  0
LINE
  5
227DE
102
{ACAD_REACTORS
330
22916
102
}
330
18
100
AcDbEntity
  8
01
100
AcDbLine
 10
3589.005890834288
 20
789.3811970318646
 30
0.0
 11
3597.005890834288
 21
790.9811784175098
 31
0.0
  0
LINE
  5
227DF
102
{ACAD_REACTORS
330
22916
102
}
330
18
100
AcDbEntity
  8
01
100
AcDbLine
 10
3589.005890834288
 20
782.9811970318643
 30
0.0
 11
3597.005890834288
 21
784.5811784175008
 31
0.0
  0
LINE
  5
227E0
102
{ACAD_REACTORS
330
22916
102
}
330
18
100
AcDbEntity
  8
01
100
AcDbLine
 10
3589.005890834288
 20
779.7811970318645
 30
0.0
 11
3597.005890834288
 21
781.381178417501
 31
0.0
  0
LINE
  5
227E1
102
{ACAD_REACTORS
330
22916
102
}
330
18
100
AcDbEntity
  8
01
100
AcDbLine
 10
3590.005890834288
 20
760.381194705052
 30
0.0
 11
3589.005890834288
 21
760.5811970318474
 31
0.0
  0
LINE
  5
227E2
102
{ACAD_REACTORS
330
22916
102
}
330
18
100
AcDbEntity
  8
01
100
AcDbLine
 10
3589.005890834288
 20
760.5811970318474
 30
0.0
 11
3597.005890834288
 21
762.1811784174839
 31
0.0
  0
LINE
  5
227E3
102
{ACAD_REACTORS
330
22916
102
}
330
18
100
AcDbEntity
  8
01
100
AcDbLine
 10
3597.005890834288
 20
762.1811784174839
 30
0.0
 11
3596.005890834288
 21
762.3811807442793
 31
0.0
  0
LINE
  5
227E4
102
{ACAD_REACTORS
330
22916
102
}
330
18
100
AcDbEntity
  8
01
100
AcDbLine
 10
3590.005890834288
 20
763.5811947050519
 30
0.0
 11
3589.005890834288
 21
763.7811970318472
 31
0.0
  0
LINE
  5
227E5
102
{ACAD_REACTORS
330
22916
102
}
330
18
100
AcDbEntity
  8
01
100
AcDbLine
 10
3590.005890834288
 20
766.7811947050517
 30
0.0
 11
3589.005890834288
 21
766.981197031847
 31
0.0
  0
LINE
  5
227E6
102
{ACAD_REACTORS
330
22916
102
}
330
18
100
AcDbEntity
  8
01
100
AcDbLine
 10
3589.005890834288
 20
766.981197031847
 30
0.0
 11
3597.005890834288
 21
768.5811784174836
 31
0.0
  0
LINE
  5
227E7
102
{ACAD_REACTORS
330
22916
102
}
330
18
100
AcDbEntity
  8
01
100
AcDbLine
 10
3597.005890834288
 20
765.3811784174837
 30
0.0
 11
3596.005890834288
 21
765.5811807442791
 31
0.0
  0
LINE
  5
227E8
102
{ACAD_REACTORS
330
22916
102
}
330
18
100
AcDbEntity
  8
01
100
AcDbLine
 10
3597.005890834288
 20
768.5811784174836
 30
0.0
 11
3596.005890834288
 21
768.7811807442789
 31
0.0
  0
LINE
  5
227E9
102
{ACAD_REACTORS
330
22916
102
}
330
18
100
AcDbEntity
  8
01
100
AcDbLine
 10
3589.005890834288
 20
763.7811970318472
 30
0.0
 11
3597.005890834288
 21
765.3811784174837
 31
0.0
  0
LINE
  5
227EA
102
{ACAD_REACTORS
330
22916
102
}
330
18
100
AcDbEntity
  8
01
100
AcDbLine
 10
3590.005890834288
 20
769.9811947050604
 30
0.0
 11
3589.005890834288
 21
770.1811970318557
 31
0.0
  0
LINE
  5
227EB
102
{ACAD_REACTORS
330
22916
102
}
330
18
100
AcDbEntity
  8
01
100
AcDbLine
 10
3590.005890834288
 20
757.1811947050522
 30
0.0
 11
3589.005890834288
 21
757.3811970318476
 31
0.0
  0
LINE
  5
227EC
102
{ACAD_REACTORS
330
22916
102
}
330
18
100
AcDbEntity
  8
01
100
AcDbLine
 10
3589.005890834288
 20
757.3811970318476
 30
0.0
 11
3597.005890834288
 21
758.9811784174841
 31
0.0
  0
LINE
  5
227ED
102
{ACAD_REACTORS
330
22916
102
}
330
18
100
AcDbEntity
  8
01
100
AcDbLine
 10
3597.005890834288
 20
758.9811784174841
 30
0.0
 11
3596.005890834288
 21
759.1811807442795
 31
0.0
  0
LINE
  5
227EE
102
{ACAD_REACTORS
330
22916
102
}
330
18
100
AcDbEntity
  8
01
100
AcDbLine
 10
3590.005890834288
 20
753.9811947050524
 30
0.0
 11
3589.005890834288
 21
754.1811970318478
 31
0.0
  0
LINE
  5
227EF
102
{ACAD_REACTORS
330
22916
102
}
330
18
100
AcDbEntity
  8
01
100
AcDbLine
 10
3589.005890834288
 20
754.1811970318478
 30
0.0
 11
3597.005890834288
 21
755.7811784174843
 31
0.0
  0
LINE
  5
227F0
102
{ACAD_REACTORS
330
22916
102
}
330
18
100
AcDbEntity
  8
01
100
AcDbLine
 10
3597.005890834288
 20
755.7811784174843
 30
0.0
 11
3596.005890834288
 21
755.9811807442796
 31
0.0
  0
LINE
  5
227F1
102
{ACAD_REACTORS
330
22916
102
}
330
18
100
AcDbEntity
  8
01
100
AcDbLine
 10
3590.005890834288
 20
750.7811947050526
 30
0.0
 11
3589.005890834288
 21
750.981197031848
 31
0.0
  0
LINE
  5
227F2
102
{ACAD_REACTORS
330
22916
102
}
330
18
100
AcDbEntity
  8
01
100
AcDbLine
 10
3589.005890834288
 20
750.981197031848
 30
0.0
 11
3597.005890834288
 21
752.5811784174845
 31
0.0
  0
LINE
  5
227F3
102
{ACAD_REACTORS
330
22916
102
}
330
18
100
AcDbEntity
  8
01
100
AcDbLine
 10
3597.005890834288
 20
752.5811784174845
 30
0.0
 11
3596.005890834288
 21
752.7811807442798
 31
0.0
  0
ARC
  5
227F4
102
{ACAD_REACTORS
330
22916
102
}
330
18
100
AcDbEntity
  8
01
100
AcDbCircle
 10
3593.005810792544
 20
754.7811877251451
 30
0.0
 40
10.60000000004382
100
AcDbArc
 50
211.8906584864501
 51
328.1090748824922
  0
LINE
  5
2280A
330
18
100
AcDbEntity
  8
01
100
AcDbLine
 10
3640.005797762492
 20
569.598540620825
 30
0.0
 11
3640.005797762492
 21
-30.40145937917404
 31
0.0
  0
LINE
  5
2280B
330
18
100
AcDbEntity
  8
01
100
AcDbLine
 10
3656.005797762492
 20
569.598540620825
 30
0.0
 11
3656.005797762492
 21
-30.40145937917404
 31
0.0
  0
LINE
  5
2280C
330
18
100
AcDbEntity
  8
01
100
AcDbLine
 10
3656.005797762492
 20
569.598540620825
 30
0.0
 11
3640.005797762492
 21
569.598540620825
 31
0.0
  0
LINE
  5
2280D
330
18
100
AcDbEntity
  8
01
100
AcDbLine
 10
3656.005797762492
 20
-30.40145937917404
 30
0.0
 11
3640.005797762492
 21
-30.40145937917404
 31
0.0
  0
LINE
  5
2280F
330
18
100
AcDbEntity
  8
01
100
AcDbLine
 10
3640.005797762492
 20
553.5985406208214
 30
0.0
 11
3640.005797762492
 21
-14.40145937917768
 31
0.0
  0
LINE
  5
22810
330
18
100
AcDbEntity
  8
1HIDDEN
100
AcDbLine
 10
3610.005797762492
 20
548.598540620825
 30
0.0
 11
3610.005797762492
 21
524.598540620825
 31
0.0
  0
LINE
  5
22811
330
18
100
AcDbEntity
  8
01
100
AcDbLine
 10
3640.005797762492
 20
553.5985406208287
 30
0.0
 11
3640.005797762492
 21
-14.4014593791704
 31
0.0
  0
LINE
  5
22812
330
18
100
AcDbEntity
  8
1HIDDEN
100
AcDbLine
 10
3629.505797762492
 20
539.5985406208255
 30
0.0
 11
3620.505797762492
 21
539.5985406208255
 31
0.0
  0
LINE
  5
22813
330
18
100
AcDbEntity
  8
1HIDDEN
100
AcDbLine
 10
3629.505797762492
 20
533.5985406208255
 30
0.0
 11
3620.505797762492
 21
533.5985406208255
 31
0.0
  0
ARC
  5
22814
330
18
100
AcDbEntity
  8
1HIDDEN
100
AcDbCircle
 10
3629.505797762492
 20
536.5985406208255
 30
0.0
 40
2.999999999999999
100
AcDbArc
 50
270.0
 51
90.0
  0
ARC
  5
22815
330
18
100
AcDbEntity
  8
1HIDDEN
100
AcDbCircle
 10
3620.505797762492
 20
536.5985406208255
 30
0.0
 40
2.999999999999999
100
AcDbArc
 50
90.0
 51
270.0
  0
LINE
  5
22818
330
18
100
AcDbEntity
  8
1HIDDEN
100
AcDbLine
 10
3640.005797762492
 20
551.598540620825
 30
0.0
 11
3613.005797762492
 21
551.598540620825
 31
0.0
  0
LINE
  5
22819
330
18
100
AcDbEntity
  8
1HIDDEN
100
AcDbLine
 10
3640.005797762492
 20
521.598540620825
 30
0.0
 11
3613.005797762492
 21
521.598540620825
 31
0.0
  0
ARC
  5
2281A
330
18
100
AcDbEntity
  8
1HIDDEN
100
AcDbCircle
 10
3613.005797762492
 20
524.598540620825
 30
0.0
 40
3.0
100
AcDbArc
 50
180.0
 51
270.0
  0
ARC
  5
2281B
330
18
100
AcDbEntity
  8
1HIDDEN
100
AcDbCircle
 10
3613.005797762492
 20
548.598540620825
 30
0.0
 40
3.0
100
AcDbArc
 50
90.0
 51
180.0
  0
LINE
  5
2281C
330
18
100
AcDbEntity
  8
1HIDDEN
100
AcDbLine
 10
3610.005797762492
 20
-9.401459379166766
 30
0.0
 11
3610.005797762492
 21
14.59854062083323
 31
0.0
  0
LINE
  5
2281D
330
18
100
AcDbEntity
  8
1HIDDEN
100
AcDbLine
 10
3629.505797762492
 20
-0.4014593791672212
 30
0.0
 11
3620.505797762492
 21
-0.4014593791672212
 31
0.0
  0
LINE
  5
2281E
330
18
100
AcDbEntity
  8
1HIDDEN
100
AcDbLine
 10
3629.505797762492
 20
5.598540620832779
 30
0.0
 11
3620.505797762492
 21
5.598540620832779
 31
0.0
  0
ARC
  5
2281F
330
18
100
AcDbEntity
  8
1HIDDEN
100
AcDbCircle
 10
3629.505797762492
 20
2.598540620832779
 30
0.0
 40
2.999999999999999
100
AcDbArc
 50
270.0
 51
90.0
  0
ARC
  5
22820
330
18
100
AcDbEntity
  8
1HIDDEN
100
AcDbCircle
 10
3620.505797762492
 20
2.598540620832779
 30
0.0
 40
2.999999999999999
100
AcDbArc
 50
90.0
 51
270.0
  0
LINE
  5
22823
330
18
100
AcDbEntity
  8
1HIDDEN
100
AcDbLine
 10
3640.005797762492
 20
-12.40145937916677
 30
0.0
 11
3613.005797762492
 21
-12.40145937916677
 31
0.0
  0
LINE
  5
22824
330
18
100
AcDbEntity
  8
1HIDDEN
100
AcDbLine
 10
3640.005797762492
 20
17.59854062083323
 30
0.0
 11
3613.005797762492
 21
17.59854062083323
 31
0.0
  0
ARC
  5
22825
330
18
100
AcDbEntity
  8
1HIDDEN
100
AcDbCircle
 10
3613.005797762492
 20
14.59854062083323
 30
0.0
 40
3.0
100
AcDbArc
 50
90.0
 51
180.0
  0
ARC
  5
22826
330
18
100
AcDbEntity
  8
1HIDDEN
100
AcDbCircle
 10
3613.005797762492
 20
-9.401459379166766
 30
0.0
 40
3.0
100
AcDbArc
 50
180.0
 51
270.0
  0
LINE
  5
22827
330
18
100
AcDbEntity
  8
01
100
AcDbLine
 10
3656.005797762492
 20
-30.40145937917404
 30
0.0
 11
3640.005797762492
 21
-30.40145937917404
 31
0.0
  0
LINE
  5
22829
330
18
100
AcDbEntity
  8
01
100
AcDbLine
 10
3640.005797762492
 20
-30.40145937917404
 30
0.0
 11
2456.005797762492
 21
-30.40145937917404
 31
0.0
  0
LINE
  5
2282A
330
18
100
AcDbEntity
  8
01
100
AcDbLine
 10
3640.005797762492
 20
569.598540620825
 30
0.0
 11
2472.005797762492
 21
569.598540620825
 31
0.0
  0
LINE
  5
2282B
330
18
100
AcDbEntity
  8
01
100
AcDbLine
 10
3640.005797762492
 20
553.5985406208287
 30
0.0
 11
2472.005797762492
 21
553.5985406208287
 31
0.0
  0
LINE
  5
2282C
330
18
100
AcDbEntity
  8
01
100
AcDbLine
 10
3640.005797762492
 20
-14.4014593791704
 30
0.0
 11
2472.005797762492
 21
-14.4014593791704
 31
0.0
  0
LINE
  5
2282F
330
18
100
AcDbEntity
  8
1HIDDEN
100
AcDbLine
 10
2504.005797762492
 20
553.5985406208214
 30
0.0
 11
2504.005797762492
 21
-14.40145937917768
 31
0.0
  0
LINE
  5
22830
330
18
100
AcDbEntity
  8
1HIDDEN
100
AcDbLine
 10
2534.005797762492
 20
553.5985406208287
 30
0.0
 11
2534.005797762492
 21
-14.4014593791704
 31
0.0
  0
LINE
  5
22836
330
18
100
AcDbEntity
  8
1HIDDEN
100
AcDbLine
 10
2514.505797762492
 20
5.598540620829141
 30
0.0
 11
2523.505797762492
 21
5.598540620829141
 31
0.0
  0
ARC
  5
22837
330
18
100
AcDbEntity
  8
1HIDDEN
100
AcDbCircle
 10
2514.505797762492
 20
2.598540620829141
 30
0.0
 40
2.999999999999999
100
AcDbArc
 50
90.0
 51
270.0
  0
ARC
  5
22838
330
18
100
AcDbEntity
  8
1HIDDEN
100
AcDbCircle
 10
2523.505797762492
 20
2.598540620829141
 30
0.0
 40
2.999999999999999
100
AcDbArc
 50
270.0
 51
90.0
  0
LINE
  5
22839
330
18
100
AcDbEntity
  8
1CENTER
100
AcDbLine
 10
2509.095307743497
 20
2.598540620829141
 30
0.0
 11
2528.916287781488
 21
2.598540620829141
 31
0.0
  0
LINE
  5
2283A
330
18
100
AcDbEntity
  8
1CENTER
100
AcDbLine
 10
2519.005797762492
 20
-2.583072792846991
 30
0.0
 11
2519.005797762492
 21
7.780154034506182
 31
0.0
  0
LINE
  5
2283B
330
18
100
AcDbEntity
  8
01
100
AcDbLine
 10
2472.005797762492
 20
-14.40145937916313
 30
0.0
 11
2472.005797762492
 21
-30.40145937917404
 31
0.0
  0
LINE
  5
2283C
330
18
100
AcDbEntity
  8
01
100
AcDbLine
 10
2472.005797762492
 20
553.5985406208287
 30
0.0
 11
2472.005797762492
 21
569.598540620825
 31
0.0
  0
LINE
  5
2283D
330
18
100
AcDbEntity
  8
1HIDDEN
100
AcDbLine
 10
2504.005797762492
 20
553.5985406208287
 30
0.0
 11
2504.005797762492
 21
-14.4014593791704
 31
0.0
  0
LINE
  5
2283E
330
18
100
AcDbEntity
  8
1HIDDEN
100
AcDbLine
 10
2514.505797762492
 20
539.5985406208291
 30
0.0
 11
2523.505797762492
 21
539.5985406208291
 31
0.0
  0
LINE
  5
2283F
330
18
100
AcDbEntity
  8
1HIDDEN
100
AcDbLine
 10
2514.505797762492
 20
533.5985406208291
 30
0.0
 11
2523.505797762492
 21
533.5985406208291
 31
0.0
  0
ARC
  5
22840
330
18
100
AcDbEntity
  8
1HIDDEN
100
AcDbCircle
 10
2514.505797762492
 20
536.5985406208291
 30
0.0
 40
2.999999999999999
100
AcDbArc
 50
90.0
 51
270.0
  0
ARC
  5
22841
330
18
100
AcDbEntity
  8
1HIDDEN
100
AcDbCircle
 10
2523.505797762492
 20
536.5985406208291
 30
0.0
 40
2.999999999999999
100
AcDbArc
 50
270.0
 51
90.0
  0
LINE
  5
22842
330
18
100
AcDbEntity
  8
1CENTER
100
AcDbLine
 10
2509.194511684158
 20
536.5985406208291
 30
0.0
 11
2529.01549172215
 21
536.5985406208291
 31
0.0
  0
LINE
  5
22843
330
18
100
AcDbEntity
  8
1CENTER
100
AcDbLine
 10
2519.005797762492
 20
541.7801540345052
 30
0.0
 11
2519.005797762492
 21
531.4169272071521
 31
0.0
  0
LINE
  5
22844
330
18
100
AcDbEntity
  8
1HIDDEN
100
AcDbLine
 10
3608.005797762492
 20
553.5985406208214
 30
0.0
 11
3608.005797762492
 21
-14.40145937917768
 31
0.0
  0
LINE
  5
22845
330
18
100
AcDbEntity
  8
1HIDDEN
100
AcDbLine
 10
3578.005797762492
 20
553.5985406208287
 30
0.0
 11
3578.005797762492
 21
-14.4014593791704
 31
0.0
  0
LINE
  5
22846
330
18
100
AcDbEntity
  8
1HIDDEN
100
AcDbLine
 10
3597.505797762492
 20
-0.4014593791708592
 30
0.0
 11
3588.505797762492
 21
-0.4014593791708592
 31
0.0
  0
LINE
  5
22847
330
18
100
AcDbEntity
  8
1HIDDEN
100
AcDbLine
 10
3597.505797762492
 20
5.598540620829141
 30
0.0
 11
3588.505797762492
 21
5.598540620829141
 31
0.0
  0
ARC
  5
22848
330
18
100
AcDbEntity
  8
1HIDDEN
100
AcDbCircle
 10
3597.505797762492
 20
2.598540620829141
 30
0.0
 40
2.999999999999999
100
AcDbArc
 50
270.0
 51
90.0
  0
ARC
  5
22849
330
18
100
AcDbEntity
  8
1HIDDEN
100
AcDbCircle
 10
3588.505797762492
 20
2.598540620829141
 30
0.0
 40
2.999999999999999
100
AcDbArc
 50
90.0
 51
270.0
  0
LINE
  5
2284A
330
18
100
AcDbEntity
  8
1CENTER
100
AcDbLine
 10
3602.916287781488
 20
2.598540620829141
 30
0.0
 11
3583.095307743497
 21
2.598540620829141
 31
0.0
  0
LINE
  5
2284B
330
18
100
AcDbEntity
  8
1CENTER
100
AcDbLine
 10
3593.005797762492
 20
-2.583072792846991
 30
0.0
 11
3593.005797762492
 21
7.780154034506182
 31
0.0
  0
LINE
  5
2284C
330
18
100
AcDbEntity
  8
1HIDDEN
100
AcDbLine
 10
3608.005797762492
 20
553.5985406208287
 30
0.0
 11
3608.005797762492
 21
-14.4014593791704
 31
0.0
  0
LINE
  5
2284D
330
18
100
AcDbEntity
  8
1HIDDEN
100
AcDbLine
 10
3597.505797762492
 20
539.5985406208291
 30
0.0
 11
3588.505797762492
 21
539.5985406208291
 31
0.0
  0
LINE
  5
2284E
330
18
100
AcDbEntity
  8
1HIDDEN
100
AcDbLine
 10
3597.505797762492
 20
533.5985406208291
 30
0.0
 11
3588.505797762492
 21
533.5985406208291
 31
0.0
  0
ARC
  5
2284F
330
18
100
AcDbEntity
  8
1HIDDEN
100
AcDbCircle
 10
3597.505797762492
 20
536.5985406208291
 30
0.0
 40
2.999999999999999
100
AcDbArc
 50
270.0
 51
90.0
  0
ARC
  5
22850
330
18
100
AcDbEntity
  8
1HIDDEN
100
AcDbCircle
 10
3588.505797762492
 20
536.5985406208291
 30
0.0
 40
2.999999999999999
100
AcDbArc
 50
90.0
 51
270.0
  0
LINE
  5
22851
330
18
100
AcDbEntity
  8
1CENTER
100
AcDbLine
 10
3602.916287781488
 20
536.5985406208291
 30
0.0
 11
3583.095307743497
 21
536.5985406208291
 31
0.0
  0
LINE
  5
22852
330
18
100
AcDbEntity
  8
1CENTER
100
AcDbLine
 10
3593.005797762492
 20
541.7801540345052
 30
0.0
 11
3593.005797762492
 21
531.4169272071521
 31
0.0
  0
LINE
  5
22853
330
18
100
AcDbEntity
  8
01
100
AcDbLine
 10
3640.005797762492
 20
-14.40145937916313
 30
0.0
 11
3640.005797762492
 21
-30.40145937917404
 31
0.0
  0
LINE
  5
22854
330
18
100
AcDbEntity
  8
01
100
AcDbLine
 10
3640.005797762492
 20
553.5985406208287
 30
0.0
 11
3640.005797762492
 21
569.598540620825
 31
0.0
  0
LINE
  5
22858
330
18
100
AcDbEntity
  8
01
100
AcDbLine
 10
2472.005797762492
 20
569.598540620825
 30
0.0
 11
2472.005797762492
 21
-30.40145937917404
 31
0.0
  0
LINE
  5
22859
330
18
100
AcDbEntity
  8
01
100
AcDbLine
 10
2456.005797762492
 20
569.598540620825
 30
0.0
 11
2456.005797762492
 21
-30.40145937917404
 31
0.0
  0
LINE
  5
2285A
330
18
100
AcDbEntity
  8
01
100
AcDbLine
 10
2456.005797762492
 20
569.598540620825
 30
0.0
 11
2472.005797762492
 21
569.598540620825
 31
0.0
  0
LINE
  5
2285B
330
18
100
AcDbEntity
  8
01
100
AcDbLine
 10
2472.005797762492
 20
553.5985406208214
 30
0.0
 11
2472.005797762492
 21
-14.40145937917768
 31
0.0
  0
LINE
  5
2285C
330
18
100
AcDbEntity
  8
1HIDDEN
100
AcDbLine
 10
2502.005797762492
 20
548.598540620825
 30
0.0
 11
2502.005797762492
 21
524.598540620825
 31
0.0
  0
LINE
  5
2285D
330
18
100
AcDbEntity
  8
01
100
AcDbLine
 10
2472.005797762492
 20
553.5985406208287
 30
0.0
 11
2472.005797762492
 21
-14.4014593791704
 31
0.0
  0
LINE
  5
2285E
330
18
100
AcDbEntity
  8
1HIDDEN
100
AcDbLine
 10
2482.505797762492
 20
539.5985406208255
 30
0.0
 11
2491.505797762492
 21
539.5985406208255
 31
0.0
  0
LINE
  5
2285F
330
18
100
AcDbEntity
  8
1HIDDEN
100
AcDbLine
 10
2482.505797762492
 20
533.5985406208255
 30
0.0
 11
2491.505797762492
 21
533.5985406208255
 31
0.0
  0
ARC
  5
22860
330
18
100
AcDbEntity
  8
1HIDDEN
100
AcDbCircle
 10
2482.505797762492
 20
536.5985406208255
 30
0.0
 40
2.999999999999999
100
AcDbArc
 50
90.0
 51
270.0
  0
ARC
  5
22861
330
18
100
AcDbEntity
  8
1HIDDEN
100
AcDbCircle
 10
2491.505797762492
 20
536.5985406208255
 30
0.0
 40
2.999999999999999
100
AcDbArc
 50
270.0
 51
90.0
  0
LINE
  5
22864
330
18
100
AcDbEntity
  8
1HIDDEN
100
AcDbLine
 10
2472.005797762492
 20
551.598540620825
 30
0.0
 11
2499.005797762492
 21
551.598540620825
 31
0.0
  0
LINE
  5
22865
330
18
100
AcDbEntity
  8
1HIDDEN
100
AcDbLine
 10
2472.005797762492
 20
521.598540620825
 30
0.0
 11
2499.005797762492
 21
521.598540620825
 31
0.0
  0
ARC
  5
22866
330
18
100
AcDbEntity
  8
1HIDDEN
100
AcDbCircle
 10
2499.005797762492
 20
524.598540620825
 30
0.0
 40
3.0
100
AcDbArc
 50
270.0
 51
0.0
  0
ARC
  5
22867
330
18
100
AcDbEntity
  8
1HIDDEN
100
AcDbCircle
 10
2499.005797762492
 20
548.598540620825
 30
0.0
 40
3.0
100
AcDbArc
 50
0.0
 51
90.0
  0
LINE
  5
22868
330
18
100
AcDbEntity
  8
1HIDDEN
100
AcDbLine
 10
2502.005797762492
 20
-9.401459379166766
 30
0.0
 11
2502.005797762492
 21
14.59854062083323
 31
0.0
  0
LINE
  5
22869
330
18
100
AcDbEntity
  8
1HIDDEN
100
AcDbLine
 10
2482.505797762492
 20
-0.4014593791672212
 30
0.0
 11
2491.505797762492
 21
-0.4014593791672212
 31
0.0
  0
LINE
  5
2286A
330
18
100
AcDbEntity
  8
1HIDDEN
100
AcDbLine
 10
2482.505797762492
 20
5.598540620832779
 30
0.0
 11
2491.505797762492
 21
5.598540620832779
 31
0.0
  0
ARC
  5
2286B
330
18
100
AcDbEntity
  8
1HIDDEN
100
AcDbCircle
 10
2482.505797762492
 20
2.598540620832779
 30
0.0
 40
2.999999999999999
100
AcDbArc
 50
90.0
 51
270.0
  0
ARC
  5
2286C
330
18
100
AcDbEntity
  8
1HIDDEN
100
AcDbCircle
 10
2491.505797762492
 20
2.598540620832779
 30
0.0
 40
2.999999999999999
100
AcDbArc
 50
270.0
 51
90.0
  0
LINE
  5
2286F
330
18
100
AcDbEntity
  8
1HIDDEN
100
AcDbLine
 10
2472.005797762492
 20
-12.40145937916677
 30
0.0
 11
2499.005797762492
 21
-12.40145937916677
 31
0.0
  0
LINE
  5
22870
330
18
100
AcDbEntity
  8
1HIDDEN
100
AcDbLine
 10
2472.005797762492
 20
17.59854062083323
 30
0.0
 11
2499.005797762492
 21
17.59854062083323
 31
0.0
  0
ARC
  5
22871
330
18
100
AcDbEntity
  8
1HIDDEN
100
AcDbCircle
 10
2499.005797762492
 20
14.59854062083323
 30
0.0
 40
3.0
100
AcDbArc
 50
0.0
 51
90.0
  0
ARC
  5
22872
330
18
100
AcDbEntity
  8
1HIDDEN
100
AcDbCircle
 10
2499.005797762492
 20
-9.401459379166766
 30
0.0
 40
3.0
100
AcDbArc
 50
270.0
 51
0.0
  0
LINE
  5
22873
330
18
100
AcDbEntity
  8
01
100
AcDbLine
 10
2472.005797762492
 20
553.5985406208287
 30
0.0
 11
2472.005797762492
 21
569.598540620825
 31
0.0
  0
LINE
  5
22880
330
18
100
AcDbEntity
  8
01
100
AcDbLine
 10
3638.505797762492
 20
552.0985406208287
 30
0.0
 11
2473.505797762492
 21
552.0985406208287
 31
0.0
  0
LINE
  5
22881
330
18
100
AcDbEntity
  8
01
100
AcDbLine
 10
2473.505797762492
 20
552.0985406208287
 30
0.0
 11
2473.505797762492
 21
-12.9014593791704
 31
0.0
  0
LINE
  5
22882
330
18
100
AcDbEntity
  8
01
100
AcDbLine
 10
3638.505797762492
 20
-12.9014593791704
 30
0.0
 11
2473.505797762492
 21
-12.9014593791704
 31
0.0
  0
LINE
  5
22883
330
18
100
AcDbEntity
  8
01
100
AcDbLine
 10
3638.505797762492
 20
552.0985406208287
 30
0.0
 11
3638.505797762492
 21
-12.9014593791704
 31
0.0
  0
LINE
  5
22892
330
18
100
AcDbEntity
  8
01
100
AcDbLine
 10
3640.688428483865
 20
750.681187725116
 30
0.0
 11
3640.688428483865
 21
734.681187725116
 31
0.0
  0
LINE
  5
22895
330
18
100
AcDbEntity
  8
01
100
AcDbLine
 10
3056.688428483865
 20
750.681187725116
 30
0.0
 11
3640.688428483865
 21
750.681187725116
 31
0.0
  0
LINE
  5
22896
330
18
100
AcDbEntity
  8
01
100
AcDbLine
 10
3056.688428483865
 20
734.681187725116
 30
0.0
 11
3640.688428483865
 21
734.681187725116
 31
0.0
  0
LINE
  5
22897
330
18
100
AcDbEntity
  8
01
100
AcDbLine
 10
2472.688428483865
 20
750.681187725116
 30
0.0
 11
2472.688428483865
 21
734.681187725116
 31
0.0
  0
LINE
  5
22898
330
18
100
AcDbEntity
  8
01
100
AcDbLine
 10
3056.688428483865
 20
750.681187725116
 30
0.0
 11
2472.688428483865
 21
750.681187725116
 31
0.0
  0
LINE
  5
22899
330
18
100
AcDbEntity
  8
01
100
AcDbLine
 10
3056.688428483865
 20
734.681187725116
 30
0.0
 11
2472.688428483865
 21
734.681187725116
 31
0.0
  0
LINE
  5
2289A
330
18
100
AcDbEntity
  8
01
100
AcDbLine
 10
2472.688428483865
 20
750.681187725116
 30
0.0
 11
2472.688428483865
 21
734.681187725116
 31
0.0
  0
LINE
  5
228A0
330
18
100
AcDbEntity
  8
01
100
AcDbLine
 10
3640.688428483865
 20
734.681187725116
 30
0.0
 11
3610.052126261578
 21
734.681187725116
 31
0.0
  0
LINE
  5
22995
102
{ACAD_REACTORS
330
229DB
102
}
330
18
100
AcDbEntity
  8
01
100
AcDbLine
 10
3629.505890834288
 20
819.1811667836372
 30
0.0
 11
3626.505890834288
 21
808.5811737639139
 31
0.0
  0
LINE
  5
22996
102
{ACAD_REACTORS
330
229DB
102
}
330
18
100
AcDbEntity
  8
01
100
AcDbLine
 10
3626.505890834288
 20
808.5811737639139
 30
0.0
 11
3626.505890834288
 21
749.18117376413
 31
0.0
  0
LINE
  5
22997
102
{ACAD_REACTORS
330
229DB
102
}
330
18
100
AcDbEntity
  8
01
100
AcDbLine
 10
3629.505890834288
 20
819.1811667836372
 30
0.0
 11
3632.505890834288
 21
808.5811598031465
 31
0.0
  0
LINE
  5
22998
102
{ACAD_REACTORS
330
229DB
102
}
330
18
100
AcDbEntity
  8
01
100
AcDbLine
 10
3620.505797762492
 20
749.1811877251163
 30
0.0
 11
3638.505797762492
 21
749.1811458428075
 31
0.0
  0
LINE
  5
22999
102
{ACAD_REACTORS
330
229DB
102
}
330
18
100
AcDbEntity
  8
01
100
AcDbLine
 10
3632.505890834288
 20
808.5811598031465
 30
0.0
 11
3632.505890834288
 21
749.1811598033606
 31
0.0
  0
LINE
  5
2299A
102
{ACAD_REACTORS
330
229DB
102
}
330
18
100
AcDbEntity
  8
1CENTER
100
AcDbLine
 10
3629.505797762492
 20
822.042756618568
 30
0.0
 11
3629.505797762492
 21
741.8406139653442
 31
0.0
  0
LINE
  5
2299B
102
{ACAD_REACTORS
330
229DB
102
}
330
18
100
AcDbEntity
  8
01
100
AcDbLine
 10
3627.317150134502
 20
814.9811718762816
 30
0.0
 11
3631.241820312252
 21
816.5811627443835
 31
0.0
  0
LINE
  5
2299C
102
{ACAD_REACTORS
330
229DB
102
}
330
18
100
AcDbEntity
  8
01
100
AcDbLine
 10
3631.241820312252
 20
816.5811627443835
 30
0.0
 11
3630.065267162168
 21
817.2047024568877
 31
0.0
  0
LINE
  5
2299D
102
{ACAD_REACTORS
330
229DB
102
}
330
18
100
AcDbEntity
  8
01
100
AcDbLine
 10
3625.505890834288
 20
770.1811760907016
 30
0.0
 11
3633.505890834288
 21
771.7811574763381
 31
0.0
  0
LINE
  5
2299E
102
{ACAD_REACTORS
330
229DB
102
}
330
18
100
AcDbEntity
  8
01
100
AcDbLine
 10
3625.505890834288
 20
792.5811760907103
 30
0.0
 11
3633.505890834288
 21
794.1811574763555
 31
0.0
  0
LINE
  5
2299F
102
{ACAD_REACTORS
330
229DB
102
}
330
18
100
AcDbEntity
  8
01
100
AcDbLine
 10
3625.505890834288
 20
798.9811760907104
 30
0.0
 11
3633.505890834288
 21
800.5811574763555
 31
0.0
  0
LINE
  5
229A0
102
{ACAD_REACTORS
330
229DB
102
}
330
18
100
AcDbEntity
  8
01
100
AcDbLine
 10
3633.505890834288
 20
800.5811574763555
 30
0.0
 11
3632.505890834288
 21
800.78115980315
 31
0.0
  0
LINE
  5
229A1
102
{ACAD_REACTORS
330
229DB
102
}
330
18
100
AcDbEntity
  8
01
100
AcDbLine
 10
3626.505890834288
 20
801.981173763916
 30
0.0
 11
3625.505890834288
 21
802.1811760907104
 31
0.0
  0
LINE
  5
229A2
102
{ACAD_REACTORS
330
229DB
102
}
330
18
100
AcDbEntity
  8
01
100
AcDbLine
 10
3633.505890834288
 20
794.1811574763555
 30
0.0
 11
3632.505890834288
 21
794.3811598031499
 31
0.0
  0
LINE
  5
229A3
102
{ACAD_REACTORS
330
229DB
102
}
330
18
100
AcDbEntity
  8
01
100
AcDbLine
 10
3633.505890834288
 20
797.3811574763557
 30
0.0
 11
3632.505890834288
 21
797.58115980315
 31
0.0
  0
LINE
  5
229A4
102
{ACAD_REACTORS
330
229DB
102
}
330
18
100
AcDbEntity
  8
01
100
AcDbLine
 10
3626.505890834288
 20
798.7811737639162
 30
0.0
 11
3625.505890834288
 21
798.9811760907104
 31
0.0
  0
LINE
  5
229A5
102
{ACAD_REACTORS
330
229DB
102
}
330
18
100
AcDbEntity
  8
01
100
AcDbLine
 10
3626.505890834288
 20
795.5811737639164
 30
0.0
 11
3625.505890834288
 21
795.7811760907106
 31
0.0
  0
LINE
  5
229A6
102
{ACAD_REACTORS
330
229DB
102
}
330
18
100
AcDbEntity
  8
01
100
AcDbLine
 10
3625.505890834288
 20
795.7811760907106
 30
0.0
 11
3633.505890834288
 21
797.3811574763557
 31
0.0
  0
LINE
  5
229A7
102
{ACAD_REACTORS
330
229DB
102
}
330
18
100
AcDbEntity
  8
01
100
AcDbLine
 10
3632.147448521067
 20
813.3811606371722
 30
0.0
 11
3631.04394959346
 21
813.7466889224282
 31
0.0
  0
LINE
  5
229A8
102
{ACAD_REACTORS
330
229DB
102
}
330
18
100
AcDbEntity
  8
01
100
AcDbLine
 10
3633.505890834288
 20
806.9811574763556
 30
0.0
 11
3632.505890834288
 21
807.1811598031499
 31
0.0
  0
LINE
  5
229A9
102
{ACAD_REACTORS
330
229DB
102
}
330
18
100
AcDbEntity
  8
01
100
AcDbLine
 10
3633.505890834288
 20
803.7811574763556
 30
0.0
 11
3632.505890834288
 21
803.9811598031496
 31
0.0
  0
LINE
  5
229AA
102
{ACAD_REACTORS
330
229DB
102
}
330
18
100
AcDbEntity
  8
01
100
AcDbLine
 10
3633.05307672988
 20
810.181158529961
 30
0.0
 11
3631.979889259338
 21
810.4396999252207
 31
0.0
  0
LINE
  5
229AB
102
{ACAD_REACTORS
330
229DB
102
}
330
18
100
AcDbEntity
  8
01
100
AcDbLine
 10
3627.347720028705
 20
811.5556349587899
 30
0.0
 11
3626.411523118405
 21
811.78117398349
 31
0.0
  0
LINE
  5
229AC
102
{ACAD_REACTORS
330
229DB
102
}
330
18
100
AcDbEntity
  8
01
100
AcDbLine
 10
3626.505890834288
 20
805.1811737639163
 30
0.0
 11
3625.505890834288
 21
805.3811760907105
 31
0.0
  0
LINE
  5
229AD
102
{ACAD_REACTORS
330
229DB
102
}
330
18
100
AcDbEntity
  8
01
100
AcDbLine
 10
3626.505890834288
 20
808.3811737639161
 30
0.0
 11
3625.505890834288
 21
808.5811760907103
 31
0.0
  0
LINE
  5
229AE
102
{ACAD_REACTORS
330
229DB
102
}
330
18
100
AcDbEntity
  8
01
100
AcDbLine
 10
3628.231493815764
 20
814.6783002834007
 30
0.0
 11
3627.317150134502
 21
814.9811718762816
 31
0.0
  0
LINE
  5
229AF
102
{ACAD_REACTORS
330
229DB
102
}
330
18
100
AcDbEntity
  8
01
100
AcDbLine
 10
3626.411523118405
 20
811.78117398349
 30
0.0
 11
3632.147448521067
 21
813.3811606371722
 31
0.0
  0
LINE
  5
229B0
102
{ACAD_REACTORS
330
229DB
102
}
330
18
100
AcDbEntity
  8
01
100
AcDbLine
 10
3625.505890834288
 20
805.3811760907105
 30
0.0
 11
3633.505890834288
 21
806.9811574763556
 31
0.0
  0
LINE
  5
229B1
102
{ACAD_REACTORS
330
229DB
102
}
330
18
100
AcDbEntity
  8
01
100
AcDbLine
 10
3625.505890834288
 20
808.5811760907103
 30
0.0
 11
3633.05307672988
 21
810.181158529961
 31
0.0
  0
LINE
  5
229B2
102
{ACAD_REACTORS
330
229DB
102
}
330
18
100
AcDbEntity
  8
01
100
AcDbLine
 10
3625.505890834288
 20
802.1811760907104
 30
0.0
 11
3633.505890834288
 21
803.7811574763556
 31
0.0
  0
LINE
  5
229B3
102
{ACAD_REACTORS
330
229DB
102
}
330
18
100
AcDbEntity
  8
01
100
AcDbLine
 10
3625.505890834288
 20
776.5811760907017
 30
0.0
 11
3633.505890834288
 21
778.1811574763382
 31
0.0
  0
LINE
  5
229B4
102
{ACAD_REACTORS
330
229DB
102
}
330
18
100
AcDbEntity
  8
01
100
AcDbLine
 10
3633.505890834288
 20
778.1811574763382
 30
0.0
 11
3632.505890834288
 21
778.3811598031335
 31
0.0
  0
LINE
  5
229B5
102
{ACAD_REACTORS
330
229DB
102
}
330
18
100
AcDbEntity
  8
01
100
AcDbLine
 10
3626.505890834288
 20
779.581173763915
 30
0.0
 11
3625.505890834288
 21
779.7811760907103
 31
0.0
  0
LINE
  5
229B6
102
{ACAD_REACTORS
330
229DB
102
}
330
18
100
AcDbEntity
  8
01
100
AcDbLine
 10
3633.505890834288
 20
774.9811574763379
 30
0.0
 11
3632.505890834288
 21
775.1811598031333
 31
0.0
  0
LINE
  5
229B7
102
{ACAD_REACTORS
330
229DB
102
}
330
18
100
AcDbEntity
  8
01
100
AcDbLine
 10
3633.505890834288
 20
771.7811574763381
 30
0.0
 11
3632.505890834288
 21
771.9811598031334
 31
0.0
  0
LINE
  5
229B8
102
{ACAD_REACTORS
330
229DB
102
}
330
18
100
AcDbEntity
  8
01
100
AcDbLine
 10
3626.505890834288
 20
776.3811737639063
 30
0.0
 11
3625.505890834288
 21
776.5811760907017
 31
0.0
  0
LINE
  5
229B9
102
{ACAD_REACTORS
330
229DB
102
}
330
18
100
AcDbEntity
  8
01
100
AcDbLine
 10
3626.505890834288
 20
773.181173763906
 30
0.0
 11
3625.505890834288
 21
773.3811760907014
 31
0.0
  0
LINE
  5
229BA
102
{ACAD_REACTORS
330
229DB
102
}
330
18
100
AcDbEntity
  8
01
100
AcDbLine
 10
3625.505890834288
 20
773.3811760907014
 30
0.0
 11
3633.505890834288
 21
774.9811574763379
 31
0.0
  0
LINE
  5
229BB
102
{ACAD_REACTORS
330
229DB
102
}
330
18
100
AcDbEntity
  8
01
100
AcDbLine
 10
3633.505890834288
 20
787.781157476347
 30
0.0
 11
3632.505890834288
 21
787.9811598031423
 31
0.0
  0
LINE
  5
229BC
102
{ACAD_REACTORS
330
229DB
102
}
330
18
100
AcDbEntity
  8
01
100
AcDbLine
 10
3633.505890834288
 20
790.9811574763556
 30
0.0
 11
3632.505890834288
 21
791.1811598031499
 31
0.0
  0
LINE
  5
229BD
102
{ACAD_REACTORS
330
229DB
102
}
330
18
100
AcDbEntity
  8
01
100
AcDbLine
 10
3633.505890834288
 20
781.3811574763469
 30
0.0
 11
3632.505890834288
 21
781.5811598031422
 31
0.0
  0
LINE
  5
229BE
102
{ACAD_REACTORS
330
229DB
102
}
330
18
100
AcDbEntity
  8
01
100
AcDbLine
 10
3633.505890834288
 20
784.5811574763467
 30
0.0
 11
3632.505890834288
 21
784.781159803142
 31
0.0
  0
LINE
  5
229BF
102
{ACAD_REACTORS
330
229DB
102
}
330
18
100
AcDbEntity
  8
01
100
AcDbLine
 10
3626.505890834288
 20
792.3811737639161
 30
0.0
 11
3625.505890834288
 21
792.5811760907103
 31
0.0
  0
LINE
  5
229C0
102
{ACAD_REACTORS
330
229DB
102
}
330
18
100
AcDbEntity
  8
01
100
AcDbLine
 10
3626.505890834288
 20
789.1811737639149
 30
0.0
 11
3625.505890834288
 21
789.3811760907105
 31
0.0
  0
LINE
  5
229C1
102
{ACAD_REACTORS
330
229DB
102
}
330
18
100
AcDbEntity
  8
01
100
AcDbLine
 10
3626.505890834288
 20
782.7811737639148
 30
0.0
 11
3625.505890834288
 21
782.9811760907102
 31
0.0
  0
LINE
  5
229C2
102
{ACAD_REACTORS
330
229DB
102
}
330
18
100
AcDbEntity
  8
01
100
AcDbLine
 10
3626.505890834288
 20
785.9811737639151
 30
0.0
 11
3625.505890834288
 21
786.1811760907104
 31
0.0
  0
LINE
  5
229C3
102
{ACAD_REACTORS
330
229DB
102
}
330
18
100
AcDbEntity
  8
01
100
AcDbLine
 10
3625.505890834288
 20
786.1811760907104
 30
0.0
 11
3633.505890834288
 21
787.781157476347
 31
0.0
  0
LINE
  5
229C4
102
{ACAD_REACTORS
330
229DB
102
}
330
18
100
AcDbEntity
  8
01
100
AcDbLine
 10
3625.505890834288
 20
789.3811760907105
 30
0.0
 11
3633.505890834288
 21
790.9811574763556
 31
0.0
  0
LINE
  5
229C5
102
{ACAD_REACTORS
330
229DB
102
}
330
18
100
AcDbEntity
  8
01
100
AcDbLine
 10
3625.505890834288
 20
782.9811760907102
 30
0.0
 11
3633.505890834288
 21
784.5811574763467
 31
0.0
  0
LINE
  5
229C6
102
{ACAD_REACTORS
330
229DB
102
}
330
18
100
AcDbEntity
  8
01
100
AcDbLine
 10
3625.505890834288
 20
779.7811760907103
 30
0.0
 11
3633.505890834288
 21
781.3811574763469
 31
0.0
  0
LINE
  5
229C7
102
{ACAD_REACTORS
330
229DB
102
}
330
18
100
AcDbEntity
  8
01
100
AcDbLine
 10
3626.505890834288
 20
760.3811737638979
 30
0.0
 11
3625.505890834288
 21
760.5811760906932
 31
0.0
  0
LINE
  5
229C8
102
{ACAD_REACTORS
330
229DB
102
}
330
18
100
AcDbEntity
  8
01
100
AcDbLine
 10
3625.505890834288
 20
760.5811760906932
 30
0.0
 11
3633.505890834288
 21
762.1811574763298
 31
0.0
  0
LINE
  5
229C9
102
{ACAD_REACTORS
330
229DB
102
}
330
18
100
AcDbEntity
  8
01
100
AcDbLine
 10
3633.505890834288
 20
762.1811574763298
 30
0.0
 11
3632.505890834288
 21
762.3811598031251
 31
0.0
  0
LINE
  5
229CA
102
{ACAD_REACTORS
330
229DB
102
}
330
18
100
AcDbEntity
  8
01
100
AcDbLine
 10
3626.505890834288
 20
763.5811737638977
 30
0.0
 11
3625.505890834288
 21
763.7811760906931
 31
0.0
  0
LINE
  5
229CB
102
{ACAD_REACTORS
330
229DB
102
}
330
18
100
AcDbEntity
  8
01
100
AcDbLine
 10
3626.505890834288
 20
766.7811737638975
 30
0.0
 11
3625.505890834288
 21
766.9811760906929
 31
0.0
  0
LINE
  5
229CC
102
{ACAD_REACTORS
330
229DB
102
}
330
18
100
AcDbEntity
  8
01
100
AcDbLine
 10
3625.505890834288
 20
766.9811760906929
 30
0.0
 11
3633.505890834288
 21
768.5811574763294
 31
0.0
  0
LINE
  5
229CD
102
{ACAD_REACTORS
330
229DB
102
}
330
18
100
AcDbEntity
  8
01
100
AcDbLine
 10
3633.505890834288
 20
765.3811574763296
 30
0.0
 11
3632.505890834288
 21
765.5811598031249
 31
0.0
  0
LINE
  5
229CE
102
{ACAD_REACTORS
330
229DB
102
}
330
18
100
AcDbEntity
  8
01
100
AcDbLine
 10
3633.505890834288
 20
768.5811574763294
 30
0.0
 11
3632.505890834288
 21
768.7811598031248
 31
0.0
  0
LINE
  5
229CF
102
{ACAD_REACTORS
330
229DB
102
}
330
18
100
AcDbEntity
  8
01
100
AcDbLine
 10
3625.505890834288
 20
763.7811760906931
 30
0.0
 11
3633.505890834288
 21
765.3811574763296
 31
0.0
  0
LINE
  5
229D0
102
{ACAD_REACTORS
330
229DB
102
}
330
18
100
AcDbEntity
  8
01
100
AcDbLine
 10
3626.505890834288
 20
769.9811737639062
 30
0.0
 11
3625.505890834288
 21
770.1811760907016
 31
0.0
  0
LINE
  5
229D1
102
{ACAD_REACTORS
330
229DB
102
}
330
18
100
AcDbEntity
  8
01
100
AcDbLine
 10
3626.505890834288
 20
757.1811737638981
 30
0.0
 11
3625.505890834288
 21
757.3811760906934
 31
0.0
  0
LINE
  5
229D2
102
{ACAD_REACTORS
330
229DB
102
}
330
18
100
AcDbEntity
  8
01
100
AcDbLine
 10
3625.505890834288
 20
757.3811760906934
 30
0.0
 11
3633.505890834288
 21
758.9811574763299
 31
0.0
  0
LINE
  5
229D3
102
{ACAD_REACTORS
330
229DB
102
}
330
18
100
AcDbEntity
  8
01
100
AcDbLine
 10
3633.505890834288
 20
758.9811574763299
 30
0.0
 11
3632.505890834288
 21
759.1811598031253
 31
0.0
  0
LINE
  5
229D4
102
{ACAD_REACTORS
330
229DB
102
}
330
18
100
AcDbEntity
  8
01
100
AcDbLine
 10
3626.505890834288
 20
753.9811737638983
 30
0.0
 11
3625.505890834288
 21
754.1811760906936
 31
0.0
  0
LINE
  5
229D5
102
{ACAD_REACTORS
330
229DB
102
}
330
18
100
AcDbEntity
  8
01
100
AcDbLine
 10
3625.505890834288
 20
754.1811760906936
 30
0.0
 11
3633.505890834288
 21
755.7811574763301
 31
0.0
  0
LINE
  5
229D6
102
{ACAD_REACTORS
330
229DB
102
}
330
18
100
AcDbEntity
  8
01
100
AcDbLine
 10
3633.505890834288
 20
755.7811574763301
 30
0.0
 11
3632.505890834288
 21
755.9811598031255
 31
0.0
  0
LINE
  5
229D7
102
{ACAD_REACTORS
330
229DB
102
}
330
18
100
AcDbEntity
  8
01
100
AcDbLine
 10
3626.505890834288
 20
750.7811737638984
 30
0.0
 11
3625.505890834288
 21
750.9811760906938
 31
0.0
  0
LINE
  5
229D8
102
{ACAD_REACTORS
330
229DB
102
}
330
18
100
AcDbEntity
  8
01
100
AcDbLine
 10
3625.505890834288
 20
750.9811760906938
 30
0.0
 11
3633.505890834288
 21
752.5811574763303
 31
0.0
  0
LINE
  5
229D9
102
{ACAD_REACTORS
330
229DB
102
}
330
18
100
AcDbEntity
  8
01
100
AcDbLine
 10
3633.505890834288
 20
752.5811574763303
 30
0.0
 11
3632.505890834288
 21
752.7811598031257
 31
0.0
  0
ARC
  5
229DA
102
{ACAD_REACTORS
330
229DB
102
}
330
18
100
AcDbEntity
  8
01
100
AcDbCircle
 10
3629.505810792543
 20
754.7811667839909
 30
0.0
 40
10.60000000004382
100
AcDbArc
 50
211.8906584864501
 51
328.1090748824922
  0
LINE
  5
22A9D
102
{ACAD_REACTORS
330
22B2A
102
}
330
18
100
AcDbEntity
  8
01
100
AcDbLine
 10
2482.505890834288
 20
819.1811936679529
 30
0.0
 11
2479.505890834288
 21
808.5812006482296
 31
0.0
  0
LINE
  5
22A9E
102
{ACAD_REACTORS
330
22B2A
102
}
330
18
100
AcDbEntity
  8
01
100
AcDbLine
 10
2479.505890834288
 20
808.5812006482296
 30
0.0
 11
2479.505890834288
 21
749.1812006484457
 31
0.0
  0
LINE
  5
22A9F
102
{ACAD_REACTORS
330
22B2A
102
}
330
18
100
AcDbEntity
  8
01
100
AcDbLine
 10
2482.505890834288
 20
819.1811936679529
 30
0.0
 11
2485.505890834288
 21
808.5811866874623
 31
0.0
  0
LINE
  5
22AA0
102
{ACAD_REACTORS
330
22B2A
102
}
330
18
100
AcDbEntity
  8
01
100
AcDbLine
 10
2473.505797762492
 20
749.181214609432
 30
0.0
 11
2491.505797762492
 21
749.1811727271232
 31
0.0
  0
LINE
  5
22AA1
102
{ACAD_REACTORS
330
22B2A
102
}
330
18
100
AcDbEntity
  8
01
100
AcDbLine
 10
2485.505890834288
 20
808.5811866874623
 30
0.0
 11
2485.505890834288
 21
749.1811866876764
 31
0.0
  0
LINE
  5
22AA2
102
{ACAD_REACTORS
330
22B2A
102
}
330
18
100
AcDbEntity
  8
1CENTER
100
AcDbLine
 10
2482.505797762492
 20
822.0427835028837
 30
0.0
 11
2482.505797762492
 21
741.84064084966
 31
0.0
  0
LINE
  5
22AA3
102
{ACAD_REACTORS
330
22B2A
102
}
330
18
100
AcDbEntity
  8
01
100
AcDbLine
 10
2480.317150134503
 20
814.9811987605973
 30
0.0
 11
2484.241820312253
 21
816.5811896286992
 31
0.0
  0
LINE
  5
22AA4
102
{ACAD_REACTORS
330
22B2A
102
}
330
18
100
AcDbEntity
  8
01
100
AcDbLine
 10
2484.241820312253
 20
816.5811896286992
 30
0.0
 11
2483.065267162169
 21
817.2047293412035
 31
0.0
  0
LINE
  5
22AA5
102
{ACAD_REACTORS
330
22B2A
102
}
330
18
100
AcDbEntity
  8
01
100
AcDbLine
 10
2478.505890834288
 20
770.1812029750173
 30
0.0
 11
2486.505890834288
 21
771.7811843606538
 31
0.0
  0
LINE
  5
22AA6
102
{ACAD_REACTORS
330
22B2A
102
}
330
18
100
AcDbEntity
  8
01
100
AcDbLine
 10
2478.505890834288
 20
792.581202975026
 30
0.0
 11
2486.505890834288
 21
794.1811843606712
 31
0.0
  0
LINE
  5
22AA7
102
{ACAD_REACTORS
330
22B2A
102
}
330
18
100
AcDbEntity
  8
01
100
AcDbLine
 10
2478.505890834288
 20
798.9812029750261
 30
0.0
 11
2486.505890834288
 21
800.5811843606713
 31
0.0
  0
LINE
  5
22AA8
102
{ACAD_REACTORS
330
22B2A
102
}
330
18
100
AcDbEntity
  8
01
100
AcDbLine
 10
2486.505890834288
 20
800.5811843606713
 30
0.0
 11
2485.505890834288
 21
800.7811866874657
 31
0.0
  0
LINE
  5
22AA9
102
{ACAD_REACTORS
330
22B2A
102
}
330
18
100
AcDbEntity
  8
01
100
AcDbLine
 10
2479.505890834288
 20
801.9812006482317
 30
0.0
 11
2478.505890834288
 21
802.1812029750262
 31
0.0
  0
LINE
  5
22AAA
102
{ACAD_REACTORS
330
22B2A
102
}
330
18
100
AcDbEntity
  8
01
100
AcDbLine
 10
2486.505890834288
 20
794.1811843606712
 30
0.0
 11
2485.505890834288
 21
794.3811866874656
 31
0.0
  0
LINE
  5
22AAB
102
{ACAD_REACTORS
330
22B2A
102
}
330
18
100
AcDbEntity
  8
01
100
AcDbLine
 10
2486.505890834288
 20
797.3811843606715
 30
0.0
 11
2485.505890834288
 21
797.5811866874657
 31
0.0
  0
LINE
  5
22AAC
102
{ACAD_REACTORS
330
22B2A
102
}
330
18
100
AcDbEntity
  8
01
100
AcDbLine
 10
2479.505890834288
 20
798.7812006482319
 30
0.0
 11
2478.505890834288
 21
798.9812029750261
 31
0.0
  0
LINE
  5
22AAD
102
{ACAD_REACTORS
330
22B2A
102
}
330
18
100
AcDbEntity
  8
01
100
AcDbLine
 10
2479.505890834288
 20
795.5812006482321
 30
0.0
 11
2478.505890834288
 21
795.7812029750263
 31
0.0
  0
LINE
  5
22AAE
102
{ACAD_REACTORS
330
22B2A
102
}
330
18
100
AcDbEntity
  8
01
100
AcDbLine
 10
2478.505890834288
 20
795.7812029750263
 30
0.0
 11
2486.505890834288
 21
797.3811843606715
 31
0.0
  0
LINE
  5
22AAF
102
{ACAD_REACTORS
330
22B2A
102
}
330
18
100
AcDbEntity
  8
01
100
AcDbLine
 10
2485.147448521067
 20
813.381187521488
 30
0.0
 11
2484.04394959346
 21
813.746715806744
 31
0.0
  0
LINE
  5
22AB0
102
{ACAD_REACTORS
330
22B2A
102
}
330
18
100
AcDbEntity
  8
01
100
AcDbLine
 10
2486.505890834288
 20
806.9811843606714
 30
0.0
 11
2485.505890834288
 21
807.1811866874656
 31
0.0
  0
LINE
  5
22AB1
102
{ACAD_REACTORS
330
22B2A
102
}
330
18
100
AcDbEntity
  8
01
100
AcDbLine
 10
2486.505890834288
 20
803.7811843606713
 30
0.0
 11
2485.505890834288
 21
803.9811866874653
 31
0.0
  0
LINE
  5
22AB2
102
{ACAD_REACTORS
330
22B2A
102
}
330
18
100
AcDbEntity
  8
01
100
AcDbLine
 10
2486.05307672988
 20
810.1811854142767
 30
0.0
 11
2484.979889259339
 21
810.4397268095364
 31
0.0
  0
LINE
  5
22AB3
102
{ACAD_REACTORS
330
22B2A
102
}
330
18
100
AcDbEntity
  8
01
100
AcDbLine
 10
2480.347720028706
 20
811.5556618431057
 30
0.0
 11
2479.411523118406
 21
811.7812008678058
 31
0.0
  0
LINE
  5
22AB4
102
{ACAD_REACTORS
330
22B2A
102
}
330
18
100
AcDbEntity
  8
01
100
AcDbLine
 10
2479.505890834288
 20
805.181200648232
 30
0.0
 11
2478.505890834288
 21
805.3812029750262
 31
0.0
  0
LINE
  5
22AB5
102
{ACAD_REACTORS
330
22B2A
102
}
330
18
100
AcDbEntity
  8
01
100
AcDbLine
 10
2479.505890834288
 20
808.3812006482318
 30
0.0
 11
2478.505890834288
 21
808.581202975026
 31
0.0
  0
LINE
  5
22AB6
102
{ACAD_REACTORS
330
22B2A
102
}
330
18
100
AcDbEntity
  8
01
100
AcDbLine
 10
2481.231493815765
 20
814.6783271677165
 30
0.0
 11
2480.317150134503
 21
814.9811987605973
 31
0.0
  0
LINE
  5
22AB7
102
{ACAD_REACTORS
330
22B2A
102
}
330
18
100
AcDbEntity
  8
01
100
AcDbLine
 10
2479.411523118406
 20
811.7812008678058
 30
0.0
 11
2485.147448521067
 21
813.381187521488
 31
0.0
  0
LINE
  5
22AB8
102
{ACAD_REACTORS
330
22B2A
102
}
330
18
100
AcDbEntity
  8
01
100
AcDbLine
 10
2478.505890834288
 20
805.3812029750262
 30
0.0
 11
2486.505890834288
 21
806.9811843606714
 31
0.0
  0
LINE
  5
22AB9
102
{ACAD_REACTORS
330
22B2A
102
}
330
18
100
AcDbEntity
  8
01
100
AcDbLine
 10
2478.505890834288
 20
808.581202975026
 30
0.0
 11
2486.05307672988
 21
810.1811854142767
 31
0.0
  0
LINE
  5
22ABA
102
{ACAD_REACTORS
330
22B2A
102
}
330
18
100
AcDbEntity
  8
01
100
AcDbLine
 10
2478.505890834288
 20
802.1812029750262
 30
0.0
 11
2486.505890834288
 21
803.7811843606713
 31
0.0
  0
LINE
  5
22ABB
102
{ACAD_REACTORS
330
22B2A
102
}
330
18
100
AcDbEntity
  8
01
100
AcDbLine
 10
2478.505890834288
 20
776.5812029750174
 30
0.0
 11
2486.505890834288
 21
778.1811843606539
 31
0.0
  0
LINE
  5
22ABC
102
{ACAD_REACTORS
330
22B2A
102
}
330
18
100
AcDbEntity
  8
01
100
AcDbLine
 10
2486.505890834288
 20
778.1811843606539
 30
0.0
 11
2485.505890834288
 21
778.3811866874493
 31
0.0
  0
LINE
  5
22ABD
102
{ACAD_REACTORS
330
22B2A
102
}
330
18
100
AcDbEntity
  8
01
100
AcDbLine
 10
2479.505890834288
 20
779.5812006482307
 30
0.0
 11
2478.505890834288
 21
779.7812029750261
 31
0.0
  0
LINE
  5
22ABE
102
{ACAD_REACTORS
330
22B2A
102
}
330
18
100
AcDbEntity
  8
01
100
AcDbLine
 10
2486.505890834288
 20
774.9811843606536
 30
0.0
 11
2485.505890834288
 21
775.181186687449
 31
0.0
  0
LINE
  5
22ABF
102
{ACAD_REACTORS
330
22B2A
102
}
330
18
100
AcDbEntity
  8
01
100
AcDbLine
 10
2486.505890834288
 20
771.7811843606538
 30
0.0
 11
2485.505890834288
 21
771.9811866874492
 31
0.0
  0
LINE
  5
22AC0
102
{ACAD_REACTORS
330
22B2A
102
}
330
18
100
AcDbEntity
  8
01
100
AcDbLine
 10
2479.505890834288
 20
776.381200648222
 30
0.0
 11
2478.505890834288
 21
776.5812029750174
 31
0.0
  0
LINE
  5
22AC1
102
{ACAD_REACTORS
330
22B2A
102
}
330
18
100
AcDbEntity
  8
01
100
AcDbLine
 10
2479.505890834288
 20
773.1812006482218
 30
0.0
 11
2478.505890834288
 21
773.3812029750171
 31
0.0
  0
LINE
  5
22AC2
102
{ACAD_REACTORS
330
22B2A
102
}
330
18
100
AcDbEntity
  8
01
100
AcDbLine
 10
2478.505890834288
 20
773.3812029750171
 30
0.0
 11
2486.505890834288
 21
774.9811843606536
 31
0.0
  0
LINE
  5
22AC3
102
{ACAD_REACTORS
330
22B2A
102
}
330
18
100
AcDbEntity
  8
01
100
AcDbLine
 10
2486.505890834288
 20
787.7811843606627
 30
0.0
 11
2485.505890834288
 21
787.981186687458
 31
0.0
  0
LINE
  5
22AC4
102
{ACAD_REACTORS
330
22B2A
102
}
330
18
100
AcDbEntity
  8
01
100
AcDbLine
 10
2486.505890834288
 20
790.9811843606714
 30
0.0
 11
2485.505890834288
 21
791.1811866874656
 31
0.0
  0
LINE
  5
22AC5
102
{ACAD_REACTORS
330
22B2A
102
}
330
18
100
AcDbEntity
  8
01
100
AcDbLine
 10
2486.505890834288
 20
781.3811843606626
 30
0.0
 11
2485.505890834288
 21
781.581186687458
 31
0.0
  0
LINE
  5
22AC6
102
{ACAD_REACTORS
330
22B2A
102
}
330
18
100
AcDbEntity
  8
01
100
AcDbLine
 10
2486.505890834288
 20
784.5811843606624
 30
0.0
 11
2485.505890834288
 21
784.7811866874578
 31
0.0
  0
LINE
  5
22AC7
102
{ACAD_REACTORS
330
22B2A
102
}
330
18
100
AcDbEntity
  8
01
100
AcDbLine
 10
2479.505890834288
 20
792.3812006482318
 30
0.0
 11
2478.505890834288
 21
792.581202975026
 31
0.0
  0
LINE
  5
22AC8
102
{ACAD_REACTORS
330
22B2A
102
}
330
18
100
AcDbEntity
  8
01
100
AcDbLine
 10
2479.505890834288
 20
789.1812006482306
 30
0.0
 11
2478.505890834288
 21
789.3812029750262
 31
0.0
  0
LINE
  5
22AC9
102
{ACAD_REACTORS
330
22B2A
102
}
330
18
100
AcDbEntity
  8
01
100
AcDbLine
 10
2479.505890834288
 20
782.7812006482305
 30
0.0
 11
2478.505890834288
 21
782.9812029750259
 31
0.0
  0
LINE
  5
22ACA
102
{ACAD_REACTORS
330
22B2A
102
}
330
18
100
AcDbEntity
  8
01
100
AcDbLine
 10
2479.505890834288
 20
785.9812006482308
 30
0.0
 11
2478.505890834288
 21
786.1812029750262
 31
0.0
  0
LINE
  5
22ACB
102
{ACAD_REACTORS
330
22B2A
102
}
330
18
100
AcDbEntity
  8
01
100
AcDbLine
 10
2478.505890834288
 20
786.1812029750262
 30
0.0
 11
2486.505890834288
 21
787.7811843606627
 31
0.0
  0
LINE
  5
22ACC
102
{ACAD_REACTORS
330
22B2A
102
}
330
18
100
AcDbEntity
  8
01
100
AcDbLine
 10
2478.505890834288
 20
789.3812029750262
 30
0.0
 11
2486.505890834288
 21
790.9811843606714
 31
0.0
  0
LINE
  5
22ACD
102
{ACAD_REACTORS
330
22B2A
102
}
330
18
100
AcDbEntity
  8
01
100
AcDbLine
 10
2478.505890834288
 20
782.9812029750259
 30
0.0
 11
2486.505890834288
 21
784.5811843606624
 31
0.0
  0
LINE
  5
22ACE
102
{ACAD_REACTORS
330
22B2A
102
}
330
18
100
AcDbEntity
  8
01
100
AcDbLine
 10
2478.505890834288
 20
779.7812029750261
 30
0.0
 11
2486.505890834288
 21
781.3811843606626
 31
0.0
  0
LINE
  5
22ACF
102
{ACAD_REACTORS
330
22B2A
102
}
330
18
100
AcDbEntity
  8
01
100
AcDbLine
 10
2479.505890834288
 20
760.3812006482136
 30
0.0
 11
2478.505890834288
 21
760.581202975009
 31
0.0
  0
LINE
  5
22AD0
102
{ACAD_REACTORS
330
22B2A
102
}
330
18
100
AcDbEntity
  8
01
100
AcDbLine
 10
2478.505890834288
 20
760.581202975009
 30
0.0
 11
2486.505890834288
 21
762.1811843606455
 31
0.0
  0
LINE
  5
22AD1
102
{ACAD_REACTORS
330
22B2A
102
}
330
18
100
AcDbEntity
  8
01
100
AcDbLine
 10
2486.505890834288
 20
762.1811843606455
 30
0.0
 11
2485.505890834288
 21
762.3811866874408
 31
0.0
  0
LINE
  5
22AD2
102
{ACAD_REACTORS
330
22B2A
102
}
330
18
100
AcDbEntity
  8
01
100
AcDbLine
 10
2479.505890834288
 20
763.5812006482134
 30
0.0
 11
2478.505890834288
 21
763.7812029750088
 31
0.0
  0
LINE
  5
22AD3
102
{ACAD_REACTORS
330
22B2A
102
}
330
18
100
AcDbEntity
  8
01
100
AcDbLine
 10
2479.505890834288
 20
766.7812006482133
 30
0.0
 11
2478.505890834288
 21
766.9812029750086
 31
0.0
  0
LINE
  5
22AD4
102
{ACAD_REACTORS
330
22B2A
102
}
330
18
100
AcDbEntity
  8
01
100
AcDbLine
 10
2478.505890834288
 20
766.9812029750086
 30
0.0
 11
2486.505890834288
 21
768.5811843606451
 31
0.0
  0
LINE
  5
22AD5
102
{ACAD_REACTORS
330
22B2A
102
}
330
18
100
AcDbEntity
  8
01
100
AcDbLine
 10
2486.505890834288
 20
765.3811843606453
 30
0.0
 11
2485.505890834288
 21
765.5811866874407
 31
0.0
  0
LINE
  5
22AD6
102
{ACAD_REACTORS
330
22B2A
102
}
330
18
100
AcDbEntity
  8
01
100
AcDbLine
 10
2486.505890834288
 20
768.5811843606451
 30
0.0
 11
2485.505890834288
 21
768.7811866874405
 31
0.0
  0
LINE
  5
22AD7
102
{ACAD_REACTORS
330
22B2A
102
}
330
18
100
AcDbEntity
  8
01
100
AcDbLine
 10
2478.505890834288
 20
763.7812029750088
 30
0.0
 11
2486.505890834288
 21
765.3811843606453
 31
0.0
  0
LINE
  5
22AD8
102
{ACAD_REACTORS
330
22B2A
102
}
330
18
100
AcDbEntity
  8
01
100
AcDbLine
 10
2479.505890834288
 20
769.9812006482219
 30
0.0
 11
2478.505890834288
 21
770.1812029750173
 31
0.0
  0
LINE
  5
22AD9
102
{ACAD_REACTORS
330
22B2A
102
}
330
18
100
AcDbEntity
  8
01
100
AcDbLine
 10
2479.505890834288
 20
757.1812006482138
 30
0.0
 11
2478.505890834288
 21
757.3812029750092
 31
0.0
  0
LINE
  5
22ADA
102
{ACAD_REACTORS
330
22B2A
102
}
330
18
100
AcDbEntity
  8
01
100
AcDbLine
 10
2478.505890834288
 20
757.3812029750092
 30
0.0
 11
2486.505890834288
 21
758.9811843606457
 31
0.0
  0
LINE
  5
22ADB
102
{ACAD_REACTORS
330
22B2A
102
}
330
18
100
AcDbEntity
  8
01
100
AcDbLine
 10
2486.505890834288
 20
758.9811843606457
 30
0.0
 11
2485.505890834288
 21
759.181186687441
 31
0.0
  0
LINE
  5
22ADC
102
{ACAD_REACTORS
330
22B2A
102
}
330
18
100
AcDbEntity
  8
01
100
AcDbLine
 10
2479.505890834288
 20
753.981200648214
 30
0.0
 11
2478.505890834288
 21
754.1812029750093
 31
0.0
  0
LINE
  5
22ADD
102
{ACAD_REACTORS
330
22B2A
102
}
330
18
100
AcDbEntity
  8
01
100
AcDbLine
 10
2478.505890834288
 20
754.1812029750093
 30
0.0
 11
2486.505890834288
 21
755.7811843606459
 31
0.0
  0
LINE
  5
22ADE
102
{ACAD_REACTORS
330
22B2A
102
}
330
18
100
AcDbEntity
  8
01
100
AcDbLine
 10
2486.505890834288
 20
755.7811843606459
 30
0.0
 11
2485.505890834288
 21
755.9811866874412
 31
0.0
  0
LINE
  5
22ADF
102
{ACAD_REACTORS
330
22B2A
102
}
330
18
100
AcDbEntity
  8
01
100
AcDbLine
 10
2479.505890834288
 20
750.7812006482142
 30
0.0
 11
2478.505890834288
 21
750.9812029750095
 31
0.0
  0
LINE
  5
22AE0
102
{ACAD_REACTORS
330
22B2A
102
}
330
18
100
AcDbEntity
  8
01
100
AcDbLine
 10
2478.505890834288
 20
750.9812029750095
 30
0.0
 11
2486.505890834288
 21
752.581184360646
 31
0.0
  0
LINE
  5
22AE1
102
{ACAD_REACTORS
330
22B2A
102
}
330
18
100
AcDbEntity
  8
01
100
AcDbLine
 10
2486.505890834288
 20
752.581184360646
 30
0.0
 11
2485.505890834288
 21
752.7811866874414
 31
0.0
  0
ARC
  5
22AE2
102
{ACAD_REACTORS
330
22B2A
102
}
330
18
100
AcDbEntity
  8
01
100
AcDbCircle
 10
2482.505810792544
 20
754.7811936683066
 30
0.0
 40
10.60000000004382
100
AcDbArc
 50
211.8906584864501
 51
328.1090748824922
  0
LINE
  5
22AE3
102
{ACAD_REACTORS
330
22B29
102
}
330
18
100
AcDbEntity
  8
01
100
AcDbLine
 10
2519.005890834288
 20
819.1811877247914
 30
0.0
 11
2516.005890834288
 21
808.581194705068
 31
0.0
  0
LINE
  5
22AE4
102
{ACAD_REACTORS
330
22B29
102
}
330
18
100
AcDbEntity
  8
01
100
AcDbLine
 10
2516.005890834288
 20
808.581194705068
 30
0.0
 11
2516.005890834288
 21
749.1811947052842
 31
0.0
  0
LINE
  5
22AE5
102
{ACAD_REACTORS
330
22B29
102
}
330
18
100
AcDbEntity
  8
01
100
AcDbLine
 10
2519.005890834288
 20
819.1811877247914
 30
0.0
 11
2522.005890834288
 21
808.5811807443007
 31
0.0
  0
LINE
  5
22AE6
102
{ACAD_REACTORS
330
22B29
102
}
330
18
100
AcDbEntity
  8
01
100
AcDbLine
 10
2510.005797762492
 20
749.1812086662704
 30
0.0
 11
2528.005797762492
 21
749.1811667839617
 31
0.0
  0
LINE
  5
22AE7
102
{ACAD_REACTORS
330
22B29
102
}
330
18
100
AcDbEntity
  8
01
100
AcDbLine
 10
2522.005890834288
 20
808.5811807443007
 30
0.0
 11
2522.005890834288
 21
749.1811807445148
 31
0.0
  0
LINE
  5
22AE8
102
{ACAD_REACTORS
330
22B29
102
}
330
18
100
AcDbEntity
  8
1CENTER
100
AcDbLine
 10
2519.005797762492
 20
822.0427775597221
 30
0.0
 11
2519.005797762492
 21
741.8406349064984
 31
0.0
  0
LINE
  5
22AE9
102
{ACAD_REACTORS
330
22B29
102
}
330
18
100
AcDbEntity
  8
01
100
AcDbLine
 10
2516.817150134503
 20
814.9811928174357
 30
0.0
 11
2520.741820312253
 21
816.5811836855377
 31
0.0
  0
LINE
  5
22AEA
102
{ACAD_REACTORS
330
22B29
102
}
330
18
100
AcDbEntity
  8
01
100
AcDbLine
 10
2520.741820312253
 20
816.5811836855377
 30
0.0
 11
2519.565267162169
 21
817.2047233980419
 31
0.0
  0
LINE
  5
22AEB
102
{ACAD_REACTORS
330
22B29
102
}
330
18
100
AcDbEntity
  8
01
100
AcDbLine
 10
2515.005890834288
 20
770.1811970318557
 30
0.0
 11
2523.005890834288
 21
771.7811784174922
 31
0.0
  0
LINE
  5
22AEC
102
{ACAD_REACTORS
330
22B29
102
}
330
18
100
AcDbEntity
  8
01
100
AcDbLine
 10
2515.005890834288
 20
792.5811970318645
 30
0.0
 11
2523.005890834288
 21
794.1811784175096
 31
0.0
  0
LINE
  5
22AED
102
{ACAD_REACTORS
330
22B29
102
}
330
18
100
AcDbEntity
  8
01
100
AcDbLine
 10
2515.005890834288
 20
798.9811970318646
 30
0.0
 11
2523.005890834288
 21
800.5811784175097
 31
0.0
  0
LINE
  5
22AEE
102
{ACAD_REACTORS
330
22B29
102
}
330
18
100
AcDbEntity
  8
01
100
AcDbLine
 10
2523.005890834288
 20
800.5811784175097
 30
0.0
 11
2522.005890834288
 21
800.7811807443042
 31
0.0
  0
LINE
  5
22AEF
102
{ACAD_REACTORS
330
22B29
102
}
330
18
100
AcDbEntity
  8
01
100
AcDbLine
 10
2516.005890834288
 20
801.9811947050702
 30
0.0
 11
2515.005890834288
 21
802.1811970318646
 31
0.0
  0
LINE
  5
22AF0
102
{ACAD_REACTORS
330
22B29
102
}
330
18
100
AcDbEntity
  8
01
100
AcDbLine
 10
2523.005890834288
 20
794.1811784175096
 30
0.0
 11
2522.005890834288
 21
794.3811807443041
 31
0.0
  0
LINE
  5
22AF1
102
{ACAD_REACTORS
330
22B29
102
}
330
18
100
AcDbEntity
  8
01
100
AcDbLine
 10
2523.005890834288
 20
797.3811784175099
 30
0.0
 11
2522.005890834288
 21
797.5811807443041
 31
0.0
  0
LINE
  5
22AF2
102
{ACAD_REACTORS
330
22B29
102
}
330
18
100
AcDbEntity
  8
01
100
AcDbLine
 10
2516.005890834288
 20
798.7811947050703
 30
0.0
 11
2515.005890834288
 21
798.9811970318646
 31
0.0
  0
LINE
  5
22AF3
102
{ACAD_REACTORS
330
22B29
102
}
330
18
100
AcDbEntity
  8
01
100
AcDbLine
 10
2516.005890834288
 20
795.5811947050705
 30
0.0
 11
2515.005890834288
 21
795.7811970318647
 31
0.0
  0
LINE
  5
22AF4
102
{ACAD_REACTORS
330
22B29
102
}
330
18
100
AcDbEntity
  8
01
100
AcDbLine
 10
2515.005890834288
 20
795.7811970318647
 30
0.0
 11
2523.005890834288
 21
797.3811784175099
 31
0.0
  0
LINE
  5
22AF5
102
{ACAD_REACTORS
330
22B29
102
}
330
18
100
AcDbEntity
  8
01
100
AcDbLine
 10
2521.647448521067
 20
813.3811815783264
 30
0.0
 11
2520.54394959346
 21
813.7467098635824
 31
0.0
  0
LINE
  5
22AF6
102
{ACAD_REACTORS
330
22B29
102
}
330
18
100
AcDbEntity
  8
01
100
AcDbLine
 10
2523.005890834288
 20
806.9811784175098
 30
0.0
 11
2522.005890834288
 21
807.181180744304
 31
0.0
  0
LINE
  5
22AF7
102
{ACAD_REACTORS
330
22B29
102
}
330
18
100
AcDbEntity
  8
01
100
AcDbLine
 10
2523.005890834288
 20
803.7811784175098
 30
0.0
 11
2522.005890834288
 21
803.9811807443037
 31
0.0
  0
LINE
  5
22AF8
102
{ACAD_REACTORS
330
22B29
102
}
330
18
100
AcDbEntity
  8
01
100
AcDbLine
 10
2522.55307672988
 20
810.1811794711151
 30
0.0
 11
2521.479889259339
 21
810.4397208663748
 31
0.0
  0
LINE
  5
22AF9
102
{ACAD_REACTORS
330
22B29
102
}
330
18
100
AcDbEntity
  8
01
100
AcDbLine
 10
2516.847720028706
 20
811.5556558999441
 30
0.0
 11
2515.911523118406
 21
811.7811949246442
 31
0.0
  0
LINE
  5
22AFA
102
{ACAD_REACTORS
330
22B29
102
}
330
18
100
AcDbEntity
  8
01
100
AcDbLine
 10
2516.005890834288
 20
805.1811947050704
 30
0.0
 11
2515.005890834288
 21
805.3811970318646
 31
0.0
  0
LINE
  5
22AFB
102
{ACAD_REACTORS
330
22B29
102
}
330
18
100
AcDbEntity
  8
01
100
AcDbLine
 10
2516.005890834288
 20
808.3811947050702
 30
0.0
 11
2515.005890834288
 21
808.5811970318645
 31
0.0
  0
LINE
  5
22AFC
102
{ACAD_REACTORS
330
22B29
102
}
330
18
100
AcDbEntity
  8
01
100
AcDbLine
 10
2517.731493815765
 20
814.6783212245549
 30
0.0
 11
2516.817150134503
 21
814.9811928174357
 31
0.0
  0
LINE
  5
22AFD
102
{ACAD_REACTORS
330
22B29
102
}
330
18
100
AcDbEntity
  8
01
100
AcDbLine
 10
2515.911523118406
 20
811.7811949246442
 30
0.0
 11
2521.647448521067
 21
813.3811815783264
 31
0.0
  0
LINE
  5
22AFE
102
{ACAD_REACTORS
330
22B29
102
}
330
18
100
AcDbEntity
  8
01
100
AcDbLine
 10
2515.005890834288
 20
805.3811970318646
 30
0.0
 11
2523.005890834288
 21
806.9811784175098
 31
0.0
  0
LINE
  5
22AFF
102
{ACAD_REACTORS
330
22B29
102
}
330
18
100
AcDbEntity
  8
01
100
AcDbLine
 10
2515.005890834288
 20
808.5811970318645
 30
0.0
 11
2522.55307672988
 21
810.1811794711151
 31
0.0
  0
LINE
  5
22B00
102
{ACAD_REACTORS
330
22B29
102
}
330
18
100
AcDbEntity
  8
01
100
AcDbLine
 10
2515.005890834288
 20
802.1811970318646
 30
0.0
 11
2523.005890834288
 21
803.7811784175098
 31
0.0
  0
LINE
  5
22B01
102
{ACAD_REACTORS
330
22B29
102
}
330
18
100
AcDbEntity
  8
01
100
AcDbLine
 10
2515.005890834288
 20
776.5811970318558
 30
0.0
 11
2523.005890834288
 21
778.1811784174923
 31
0.0
  0
LINE
  5
22B02
102
{ACAD_REACTORS
330
22B29
102
}
330
18
100
AcDbEntity
  8
01
100
AcDbLine
 10
2523.005890834288
 20
778.1811784174923
 30
0.0
 11
2522.005890834288
 21
778.3811807442877
 31
0.0
  0
LINE
  5
22B03
102
{ACAD_REACTORS
330
22B29
102
}
330
18
100
AcDbEntity
  8
01
100
AcDbLine
 10
2516.005890834288
 20
779.5811947050692
 30
0.0
 11
2515.005890834288
 21
779.7811970318645
 31
0.0
  0
LINE
  5
22B04
102
{ACAD_REACTORS
330
22B29
102
}
330
18
100
AcDbEntity
  8
01
100
AcDbLine
 10
2523.005890834288
 20
774.9811784174921
 30
0.0
 11
2522.005890834288
 21
775.1811807442874
 31
0.0
  0
LINE
  5
22B05
102
{ACAD_REACTORS
330
22B29
102
}
330
18
100
AcDbEntity
  8
01
100
AcDbLine
 10
2523.005890834288
 20
771.7811784174922
 30
0.0
 11
2522.005890834288
 21
771.9811807442876
 31
0.0
  0
LINE
  5
22B06
102
{ACAD_REACTORS
330
22B29
102
}
330
18
100
AcDbEntity
  8
01
100
AcDbLine
 10
2516.005890834288
 20
776.3811947050605
 30
0.0
 11
2515.005890834288
 21
776.5811970318558
 31
0.0
  0
LINE
  5
22B07
102
{ACAD_REACTORS
330
22B29
102
}
330
18
100
AcDbEntity
  8
01
100
AcDbLine
 10
2516.005890834288
 20
773.1811947050602
 30
0.0
 11
2515.005890834288
 21
773.3811970318555
 31
0.0
  0
LINE
  5
22B08
102
{ACAD_REACTORS
330
22B29
102
}
330
18
100
AcDbEntity
  8
01
100
AcDbLine
 10
2515.005890834288
 20
773.3811970318555
 30
0.0
 11
2523.005890834288
 21
774.9811784174921
 31
0.0
  0
LINE
  5
22B09
102
{ACAD_REACTORS
330
22B29
102
}
330
18
100
AcDbEntity
  8
01
100
AcDbLine
 10
2523.005890834288
 20
787.7811784175011
 30
0.0
 11
2522.005890834288
 21
787.9811807442965
 31
0.0
  0
LINE
  5
22B0A
102
{ACAD_REACTORS
330
22B29
102
}
330
18
100
AcDbEntity
  8
01
100
AcDbLine
 10
2523.005890834288
 20
790.9811784175098
 30
0.0
 11
2522.005890834288
 21
791.181180744304
 31
0.0
  0
LINE
  5
22B0B
102
{ACAD_REACTORS
330
22B29
102
}
330
18
100
AcDbEntity
  8
01
100
AcDbLine
 10
2523.005890834288
 20
781.381178417501
 30
0.0
 11
2522.005890834288
 21
781.5811807442964
 31
0.0
  0
LINE
  5
22B0C
102
{ACAD_REACTORS
330
22B29
102
}
330
18
100
AcDbEntity
  8
01
100
AcDbLine
 10
2523.005890834288
 20
784.5811784175008
 30
0.0
 11
2522.005890834288
 21
784.7811807442962
 31
0.0
  0
LINE
  5
22B0D
102
{ACAD_REACTORS
330
22B29
102
}
330
18
100
AcDbEntity
  8
01
100
AcDbLine
 10
2516.005890834288
 20
792.3811947050702
 30
0.0
 11
2515.005890834288
 21
792.5811970318645
 31
0.0
  0
LINE
  5
22B0E
102
{ACAD_REACTORS
330
22B29
102
}
330
18
100
AcDbEntity
  8
01
100
AcDbLine
 10
2516.005890834288
 20
789.1811947050691
 30
0.0
 11
2515.005890834288
 21
789.3811970318646
 31
0.0
  0
LINE
  5
22B0F
102
{ACAD_REACTORS
330
22B29
102
}
330
18
100
AcDbEntity
  8
01
100
AcDbLine
 10
2516.005890834288
 20
782.781194705069
 30
0.0
 11
2515.005890834288
 21
782.9811970318643
 31
0.0
  0
LINE
  5
22B10
102
{ACAD_REACTORS
330
22B29
102
}
330
18
100
AcDbEntity
  8
01
100
AcDbLine
 10
2516.005890834288
 20
785.9811947050692
 30
0.0
 11
2515.005890834288
 21
786.1811970318646
 31
0.0
  0
LINE
  5
22B11
102
{ACAD_REACTORS
330
22B29
102
}
330
18
100
AcDbEntity
  8
01
100
AcDbLine
 10
2515.005890834288
 20
786.1811970318646
 30
0.0
 11
2523.005890834288
 21
787.7811784175011
 31
0.0
  0
LINE
  5
22B12
102
{ACAD_REACTORS
330
22B29
102
}
330
18
100
AcDbEntity
  8
01
100
AcDbLine
 10
2515.005890834288
 20
789.3811970318646
 30
0.0
 11
2523.005890834288
 21
790.9811784175098
 31
0.0
  0
LINE
  5
22B13
102
{ACAD_REACTORS
330
22B29
102
}
330
18
100
AcDbEntity
  8
01
100
AcDbLine
 10
2515.005890834288
 20
782.9811970318643
 30
0.0
 11
2523.005890834288
 21
784.5811784175008
 31
0.0
  0
LINE
  5
22B14
102
{ACAD_REACTORS
330
22B29
102
}
330
18
100
AcDbEntity
  8
01
100
AcDbLine
 10
2515.005890834288
 20
779.7811970318645
 30
0.0
 11
2523.005890834288
 21
781.381178417501
 31
0.0
  0
LINE
  5
22B15
102
{ACAD_REACTORS
330
22B29
102
}
330
18
100
AcDbEntity
  8
01
100
AcDbLine
 10
2516.005890834288
 20
760.381194705052
 30
0.0
 11
2515.005890834288
 21
760.5811970318474
 31
0.0
  0
LINE
  5
22B16
102
{ACAD_REACTORS
330
22B29
102
}
330
18
100
AcDbEntity
  8
01
100
AcDbLine
 10
2515.005890834288
 20
760.5811970318474
 30
0.0
 11
2523.005890834288
 21
762.1811784174839
 31
0.0
  0
LINE
  5
22B17
102
{ACAD_REACTORS
330
22B29
102
}
330
18
100
AcDbEntity
  8
01
100
AcDbLine
 10
2523.005890834288
 20
762.1811784174839
 30
0.0
 11
2522.005890834288
 21
762.3811807442793
 31
0.0
  0
LINE
  5
22B18
102
{ACAD_REACTORS
330
22B29
102
}
330
18
100
AcDbEntity
  8
01
100
AcDbLine
 10
2516.005890834288
 20
763.5811947050519
 30
0.0
 11
2515.005890834288
 21
763.7811970318472
 31
0.0
  0
LINE
  5
22B19
102
{ACAD_REACTORS
330
22B29
102
}
330
18
100
AcDbEntity
  8
01
100
AcDbLine
 10
2516.005890834288
 20
766.7811947050517
 30
0.0
 11
2515.005890834288
 21
766.981197031847
 31
0.0
  0
LINE
  5
22B1A
102
{ACAD_REACTORS
330
22B29
102
}
330
18
100
AcDbEntity
  8
01
100
AcDbLine
 10
2515.005890834288
 20
766.981197031847
 30
0.0
 11
2523.005890834288
 21
768.5811784174836
 31
0.0
  0
LINE
  5
22B1B
102
{ACAD_REACTORS
330
22B29
102
}
330
18
100
AcDbEntity
  8
01
100
AcDbLine
 10
2523.005890834288
 20
765.3811784174837
 30
0.0
 11
2522.005890834288
 21
765.5811807442791
 31
0.0
  0
LINE
  5
22B1C
102
{ACAD_REACTORS
330
22B29
102
}
330
18
100
AcDbEntity
  8
01
100
AcDbLine
 10
2523.005890834288
 20
768.5811784174836
 30
0.0
 11
2522.005890834288
 21
768.7811807442789
 31
0.0
  0
LINE
  5
22B1D
102
{ACAD_REACTORS
330
22B29
102
}
330
18
100
AcDbEntity
  8
01
100
AcDbLine
 10
2515.005890834288
 20
763.7811970318472
 30
0.0
 11
2523.005890834288
 21
765.3811784174837
 31
0.0
  0
LINE
  5
22B1E
102
{ACAD_REACTORS
330
22B29
102
}
330
18
100
AcDbEntity
  8
01
100
AcDbLine
 10
2516.005890834288
 20
769.9811947050604
 30
0.0
 11
2515.005890834288
 21
770.1811970318557
 31
0.0
  0
LINE
  5
22B1F
102
{ACAD_REACTORS
330
22B29
102
}
330
18
100
AcDbEntity
  8
01
100
AcDbLine
 10
2516.005890834288
 20
757.1811947050522
 30
0.0
 11
2515.005890834288
 21
757.3811970318476
 31
0.0
  0
LINE
  5
22B20
102
{ACAD_REACTORS
330
22B29
102
}
330
18
100
AcDbEntity
  8
01
100
AcDbLine
 10
2515.005890834288
 20
757.3811970318476
 30
0.0
 11
2523.005890834288
 21
758.9811784174841
 31
0.0
  0
LINE
  5
22B21
102
{ACAD_REACTORS
330
22B29
102
}
330
18
100
AcDbEntity
  8
01
100
AcDbLine
 10
2523.005890834288
 20
758.9811784174841
 30
0.0
 11
2522.005890834288
 21
759.1811807442795
 31
0.0
  0
LINE
  5
22B22
102
{ACAD_REACTORS
330
22B29
102
}
330
18
100
AcDbEntity
  8
01
100
AcDbLine
 10
2516.005890834288
 20
753.9811947050524
 30
0.0
 11
2515.005890834288
 21
754.1811970318478
 31
0.0
  0
LINE
  5
22B23
102
{ACAD_REACTORS
330
22B29
102
}
330
18
100
AcDbEntity
  8
01
100
AcDbLine
 10
2515.005890834288
 20
754.1811970318478
 30
0.0
 11
2523.005890834288
 21
755.7811784174843
 31
0.0
  0
LINE
  5
22B24
102
{ACAD_REACTORS
330
22B29
102
}
330
18
100
AcDbEntity
  8
01
100
AcDbLine
 10
2523.005890834288
 20
755.7811784174843
 30
0.0
 11
2522.005890834288
 21
755.9811807442796
 31
0.0
  0
LINE
  5
22B25
102
{ACAD_REACTORS
330
22B29
102
}
330
18
100
AcDbEntity
  8
01
100
AcDbLine
 10
2516.005890834288
 20
750.7811947050526
 30
0.0
 11
2515.005890834288
 21
750.981197031848
 31
0.0
  0
LINE
  5
22B26
102
{ACAD_REACTORS
330
22B29
102
}
330
18
100
AcDbEntity
  8
01
100
AcDbLine
 10
2515.005890834288
 20
750.981197031848
 30
0.0
 11
2523.005890834288
 21
752.5811784174845
 31
0.0
  0
LINE
  5
22B27
102
{ACAD_REACTORS
330
22B29
102
}
330
18
100
AcDbEntity
  8
01
100
AcDbLine
 10
2523.005890834288
 20
752.5811784174845
 30
0.0
 11
2522.005890834288
 21
752.7811807442798
 31
0.0
  0
ARC
  5
22B28
102
{ACAD_REACTORS
330
22B29
102
}
330
18
100
AcDbEntity
  8
01
100
AcDbCircle
 10
2519.005810792544
 20
754.7811877251451
 30
0.0
 40
10.60000000004382
100
AcDbArc
 50
211.8906584864501
 51
328.1090748824922
  0
LINE
  5
22CFD
330
18
100
AcDbEntity
  8
01
100
AcDbLine
 10
3864.956506099464
 20
-30.40145937917544
 30
0.0
 11
3864.956506099464
 21
553.598540620825
 31
0.0
  0
LINE
  5
22CFE
330
18
100
AcDbEntity
  8
01
100
AcDbLine
 10
3848.956506099464
 20
-30.40145937917544
 30
0.0
 11
3848.956506099464
 21
553.598540620825
 31
0.0
  0
LINE
  5
22D5E
102
{ACAD_REACTORS
330
22E3B
102
}
330
18
100
AcDbEntity
  8
01
100
AcDbLine
 10
3933.456506099139
 20
536.5984475490294
 30
0.0
 11
3922.856513079416
 21
539.5984475490294
 31
0.0
  0
LINE
  5
22D5F
102
{ACAD_REACTORS
330
22E3B
102
}
330
18
100
AcDbEntity
  8
01
100
AcDbLine
 10
3922.856513079416
 20
539.5984475490294
 30
0.0
 11
3863.456513079632
 21
539.5984475490294
 31
0.0
  0
LINE
  5
22D60
102
{ACAD_REACTORS
330
22E3B
102
}
330
18
100
AcDbEntity
  8
01
100
AcDbLine
 10
3933.456506099139
 20
536.5984475490294
 30
0.0
 11
3922.856499118649
 21
533.5984475490294
 31
0.0
  0
LINE
  5
22D61
102
{ACAD_REACTORS
330
22E3B
102
}
330
18
100
AcDbEntity
  8
01
100
AcDbLine
 10
3863.456527040618
 20
545.5985406208255
 30
0.0
 11
3863.45648515831
 21
527.5985406208255
 31
0.0
  0
LINE
  5
22D62
102
{ACAD_REACTORS
330
22E3B
102
}
330
18
100
AcDbEntity
  8
01
100
AcDbLine
 10
3922.856499118649
 20
533.5984475490294
 30
0.0
 11
3863.456499118863
 21
533.5984475490294
 31
0.0
  0
LINE
  5
22D63
102
{ACAD_REACTORS
330
22E3B
102
}
330
18
100
AcDbEntity
  8
1CENTER
100
AcDbLine
 10
3936.31809593407
 20
536.5985406208255
 30
0.0
 11
3856.115953280846
 21
536.5985406208255
 31
0.0
  0
LINE
  5
22D64
102
{ACAD_REACTORS
330
22E3B
102
}
330
18
100
AcDbEntity
  8
01
100
AcDbLine
 10
3929.256511191784
 20
538.7871882488151
 30
0.0
 11
3930.856502059886
 21
534.862518071065
 31
0.0
  0
LINE
  5
22D65
102
{ACAD_REACTORS
330
22E3B
102
}
330
18
100
AcDbEntity
  8
01
100
AcDbLine
 10
3930.856502059886
 20
534.862518071065
 30
0.0
 11
3931.48004177239
 21
536.0390712211491
 31
0.0
  0
LINE
  5
22D66
102
{ACAD_REACTORS
330
22E3B
102
}
330
18
100
AcDbEntity
  8
01
100
AcDbLine
 10
3884.456515406204
 20
540.5984475490294
 30
0.0
 11
3886.05649679184
 21
532.5984475490294
 31
0.0
  0
LINE
  5
22D67
102
{ACAD_REACTORS
330
22E3B
102
}
330
18
100
AcDbEntity
  8
01
100
AcDbLine
 10
3906.856515406213
 20
540.5984475490294
 30
0.0
 11
3908.456496791858
 21
532.5984475490294
 31
0.0
  0
LINE
  5
22D68
102
{ACAD_REACTORS
330
22E3B
102
}
330
18
100
AcDbEntity
  8
01
100
AcDbLine
 10
3913.256515406213
 20
540.5984475490294
 30
0.0
 11
3914.856496791858
 21
532.5984475490294
 31
0.0
  0
LINE
  5
22D69
102
{ACAD_REACTORS
330
22E3B
102
}
330
18
100
AcDbEntity
  8
01
100
AcDbLine
 10
3914.856496791858
 20
532.5984475490294
 30
0.0
 11
3915.056499118652
 21
533.5984475490294
 31
0.0
  0
LINE
  5
22D6A
102
{ACAD_REACTORS
330
22E3B
102
}
330
18
100
AcDbEntity
  8
01
100
AcDbLine
 10
3916.256513079418
 20
539.5984475490294
 30
0.0
 11
3916.456515406212
 21
540.5984475490294
 31
0.0
  0
LINE
  5
22D6B
102
{ACAD_REACTORS
330
22E3B
102
}
330
18
100
AcDbEntity
  8
01
100
AcDbLine
 10
3908.456496791858
 20
532.5984475490294
 30
0.0
 11
3908.656499118652
 21
533.5984475490294
 31
0.0
  0
LINE
  5
22D6C
102
{ACAD_REACTORS
330
22E3B
102
}
330
18
100
AcDbEntity
  8
01
100
AcDbLine
 10
3911.656496791858
 20
532.5984475490294
 30
0.0
 11
3911.856499118652
 21
533.5984475490294
 31
0.0
  0
LINE
  5
22D6D
102
{ACAD_REACTORS
330
22E3B
102
}
330
18
100
AcDbEntity
  8
01
100
AcDbLine
 10
3913.056513079418
 20
539.5984475490294
 30
0.0
 11
3913.256515406213
 21
540.5984475490294
 31
0.0
  0
LINE
  5
22D6E
102
{ACAD_REACTORS
330
22E3B
102
}
330
18
100
AcDbEntity
  8
01
100
AcDbLine
 10
3909.856513079419
 20
539.5984475490294
 30
0.0
 11
3910.056515406213
 21
540.5984475490294
 31
0.0
  0
LINE
  5
22D6F
102
{ACAD_REACTORS
330
22E3B
102
}
330
18
100
AcDbEntity
  8
01
100
AcDbLine
 10
3910.056515406213
 20
540.5984475490294
 30
0.0
 11
3911.656496791858
 21
532.5984475490294
 31
0.0
  0
LINE
  5
22D70
102
{ACAD_REACTORS
330
22E3B
102
}
330
18
100
AcDbEntity
  8
01
100
AcDbLine
 10
3927.656499952674
 20
533.9568898622509
 30
0.0
 11
3928.02202823793
 21
535.0603887898577
 31
0.0
  0
LINE
  5
22D71
102
{ACAD_REACTORS
330
22E3B
102
}
330
18
100
AcDbEntity
  8
01
100
AcDbLine
 10
3921.256496791858
 20
532.5984475490294
 30
0.0
 11
3921.456499118652
 21
533.5984475490294
 31
0.0
  0
LINE
  5
22D72
102
{ACAD_REACTORS
330
22E3B
102
}
330
18
100
AcDbEntity
  8
01
100
AcDbLine
 10
3918.056496791858
 20
532.5984475490294
 30
0.0
 11
3918.256499118652
 21
533.5984475490294
 31
0.0
  0
LINE
  5
22D73
102
{ACAD_REACTORS
330
22E3B
102
}
330
18
100
AcDbEntity
  8
01
100
AcDbLine
 10
3924.456497845463
 20
533.0512616534378
 30
0.0
 11
3924.715039240723
 21
534.1244491239794
 31
0.0
  0
LINE
  5
22D74
102
{ACAD_REACTORS
330
22E3B
102
}
330
18
100
AcDbEntity
  8
01
100
AcDbLine
 10
3925.830974274292
 20
538.7566183546122
 30
0.0
 11
3926.056513298992
 21
539.6928152649124
 31
0.0
  0
LINE
  5
22D75
102
{ACAD_REACTORS
330
22E3B
102
}
330
18
100
AcDbEntity
  8
01
100
AcDbLine
 10
3919.456513079419
 20
539.5984475490294
 30
0.0
 11
3919.656515406213
 21
540.5984475490294
 31
0.0
  0
LINE
  5
22D76
102
{ACAD_REACTORS
330
22E3B
102
}
330
18
100
AcDbEntity
  8
01
100
AcDbLine
 10
3922.656513079418
 20
539.5984475490294
 30
0.0
 11
3922.856515406213
 21
540.5984475490294
 31
0.0
  0
LINE
  5
22D77
102
{ACAD_REACTORS
330
22E3B
102
}
330
18
100
AcDbEntity
  8
01
100
AcDbLine
 10
3928.953639598903
 20
537.8728445675532
 30
0.0
 11
3929.256511191784
 21
538.7871882488151
 31
0.0
  0
LINE
  5
22D78
102
{ACAD_REACTORS
330
22E3B
102
}
330
18
100
AcDbEntity
  8
01
100
AcDbLine
 10
3926.056513298992
 20
539.6928152649124
 30
0.0
 11
3927.656499952674
 21
533.9568898622509
 31
0.0
  0
LINE
  5
22D79
102
{ACAD_REACTORS
330
22E3B
102
}
330
18
100
AcDbEntity
  8
01
100
AcDbLine
 10
3919.656515406213
 20
540.5984475490294
 30
0.0
 11
3921.256496791858
 21
532.5984475490294
 31
0.0
  0
LINE
  5
22D7A
102
{ACAD_REACTORS
330
22E3B
102
}
330
18
100
AcDbEntity
  8
01
100
AcDbLine
 10
3922.856515406213
 20
540.5984475490294
 30
0.0
 11
3924.456497845463
 21
533.0512616534378
 31
0.0
  0
LINE
  5
22D7B
102
{ACAD_REACTORS
330
22E3B
102
}
330
18
100
AcDbEntity
  8
01
100
AcDbLine
 10
3916.456515406212
 20
540.5984475490294
 30
0.0
 11
3918.056496791858
 21
532.5984475490294
 31
0.0
  0
LINE
  5
22D7C
102
{ACAD_REACTORS
330
22E3B
102
}
330
18
100
AcDbEntity
  8
01
100
AcDbLine
 10
3890.856515406204
 20
540.5984475490294
 30
0.0
 11
3892.45649679184
 21
532.5984475490294
 31
0.0
  0
LINE
  5
22D7D
102
{ACAD_REACTORS
330
22E3B
102
}
330
18
100
AcDbEntity
  8
01
100
AcDbLine
 10
3892.45649679184
 20
532.5984475490294
 30
0.0
 11
3892.656499118636
 21
533.5984475490294
 31
0.0
  0
LINE
  5
22D7E
102
{ACAD_REACTORS
330
22E3B
102
}
330
18
100
AcDbEntity
  8
01
100
AcDbLine
 10
3893.856513079417
 20
539.5984475490294
 30
0.0
 11
3894.056515406212
 21
540.5984475490294
 31
0.0
  0
LINE
  5
22D7F
102
{ACAD_REACTORS
330
22E3B
102
}
330
18
100
AcDbEntity
  8
01
100
AcDbLine
 10
3889.25649679184
 20
532.5984475490294
 30
0.0
 11
3889.456499118635
 21
533.5984475490294
 31
0.0
  0
LINE
  5
22D80
102
{ACAD_REACTORS
330
22E3B
102
}
330
18
100
AcDbEntity
  8
01
100
AcDbLine
 10
3886.05649679184
 20
532.5984475490294
 30
0.0
 11
3886.256499118635
 21
533.5984475490294
 31
0.0
  0
LINE
  5
22D81
102
{ACAD_REACTORS
330
22E3B
102
}
330
18
100
AcDbEntity
  8
01
100
AcDbLine
 10
3890.656513079408
 20
539.5984475490294
 30
0.0
 11
3890.856515406204
 21
540.5984475490294
 31
0.0
  0
LINE
  5
22D82
102
{ACAD_REACTORS
330
22E3B
102
}
330
18
100
AcDbEntity
  8
01
100
AcDbLine
 10
3887.456513079408
 20
539.5984475490294
 30
0.0
 11
3887.656515406204
 21
540.5984475490294
 31
0.0
  0
LINE
  5
22D83
102
{ACAD_REACTORS
330
22E3B
102
}
330
18
100
AcDbEntity
  8
01
100
AcDbLine
 10
3887.656515406204
 20
540.5984475490294
 30
0.0
 11
3889.25649679184
 21
532.5984475490294
 31
0.0
  0
LINE
  5
22D84
102
{ACAD_REACTORS
330
22E3B
102
}
330
18
100
AcDbEntity
  8
01
100
AcDbLine
 10
3902.056496791849
 20
532.5984475490294
 30
0.0
 11
3902.256499118645
 21
533.5984475490294
 31
0.0
  0
LINE
  5
22D85
102
{ACAD_REACTORS
330
22E3B
102
}
330
18
100
AcDbEntity
  8
01
100
AcDbLine
 10
3905.256496791858
 20
532.5984475490294
 30
0.0
 11
3905.456499118652
 21
533.5984475490294
 31
0.0
  0
LINE
  5
22D86
102
{ACAD_REACTORS
330
22E3B
102
}
330
18
100
AcDbEntity
  8
01
100
AcDbLine
 10
3895.656496791849
 20
532.5984475490294
 30
0.0
 11
3895.856499118644
 21
533.5984475490294
 31
0.0
  0
LINE
  5
22D87
102
{ACAD_REACTORS
330
22E3B
102
}
330
18
100
AcDbEntity
  8
01
100
AcDbLine
 10
3898.856496791849
 20
532.5984475490294
 30
0.0
 11
3899.056499118644
 21
533.5984475490294
 31
0.0
  0
LINE
  5
22D88
102
{ACAD_REACTORS
330
22E3B
102
}
330
18
100
AcDbEntity
  8
01
100
AcDbLine
 10
3906.656513079418
 20
539.5984475490294
 30
0.0
 11
3906.856515406213
 21
540.5984475490294
 31
0.0
  0
LINE
  5
22D89
102
{ACAD_REACTORS
330
22E3B
102
}
330
18
100
AcDbEntity
  8
01
100
AcDbLine
 10
3903.456513079417
 20
539.5984475490294
 30
0.0
 11
3903.656515406213
 21
540.5984475490294
 31
0.0
  0
LINE
  5
22D8A
102
{ACAD_REACTORS
330
22E3B
102
}
330
18
100
AcDbEntity
  8
01
100
AcDbLine
 10
3897.056513079417
 20
539.5984475490294
 30
0.0
 11
3897.256515406212
 21
540.5984475490294
 31
0.0
  0
LINE
  5
22D8B
102
{ACAD_REACTORS
330
22E3B
102
}
330
18
100
AcDbEntity
  8
01
100
AcDbLine
 10
3900.256513079417
 20
539.5984475490294
 30
0.0
 11
3900.456515406212
 21
540.5984475490294
 31
0.0
  0
LINE
  5
22D8C
102
{ACAD_REACTORS
330
22E3B
102
}
330
18
100
AcDbEntity
  8
01
100
AcDbLine
 10
3900.456515406212
 20
540.5984475490294
 30
0.0
 11
3902.056496791849
 21
532.5984475490294
 31
0.0
  0
LINE
  5
22D8D
102
{ACAD_REACTORS
330
22E3B
102
}
330
18
100
AcDbEntity
  8
01
100
AcDbLine
 10
3903.656515406213
 20
540.5984475490294
 30
0.0
 11
3905.256496791858
 21
532.5984475490294
 31
0.0
  0
LINE
  5
22D8E
102
{ACAD_REACTORS
330
22E3B
102
}
330
18
100
AcDbEntity
  8
01
100
AcDbLine
 10
3897.256515406212
 20
540.5984475490294
 30
0.0
 11
3898.856496791849
 21
532.5984475490294
 31
0.0
  0
LINE
  5
22D8F
102
{ACAD_REACTORS
330
22E3B
102
}
330
18
100
AcDbEntity
  8
01
100
AcDbLine
 10
3894.056515406212
 20
540.5984475490294
 30
0.0
 11
3895.656496791849
 21
532.5984475490294
 31
0.0
  0
LINE
  5
22D90
102
{ACAD_REACTORS
330
22E3B
102
}
330
18
100
AcDbEntity
  8
01
100
AcDbLine
 10
3874.6565130794
 20
539.5984475490294
 30
0.0
 11
3874.856515406195
 21
540.5984475490294
 31
0.0
  0
LINE
  5
22D91
102
{ACAD_REACTORS
330
22E3B
102
}
330
18
100
AcDbEntity
  8
01
100
AcDbLine
 10
3874.856515406195
 20
540.5984475490294
 30
0.0
 11
3876.456496791832
 21
532.5984475490294
 31
0.0
  0
LINE
  5
22D92
102
{ACAD_REACTORS
330
22E3B
102
}
330
18
100
AcDbEntity
  8
01
100
AcDbLine
 10
3876.456496791832
 20
532.5984475490294
 30
0.0
 11
3876.656499118627
 21
533.5984475490294
 31
0.0
  0
LINE
  5
22D93
102
{ACAD_REACTORS
330
22E3B
102
}
330
18
100
AcDbEntity
  8
01
100
AcDbLine
 10
3877.8565130794
 20
539.5984475490294
 30
0.0
 11
3878.056515406195
 21
540.5984475490294
 31
0.0
  0
LINE
  5
22D94
102
{ACAD_REACTORS
330
22E3B
102
}
330
18
100
AcDbEntity
  8
01
100
AcDbLine
 10
3881.0565130794
 20
539.5984475490294
 30
0.0
 11
3881.256515406195
 21
540.5984475490294
 31
0.0
  0
LINE
  5
22D95
102
{ACAD_REACTORS
330
22E3B
102
}
330
18
100
AcDbEntity
  8
01
100
AcDbLine
 10
3881.256515406195
 20
540.5984475490294
 30
0.0
 11
3882.856496791831
 21
532.5984475490294
 31
0.0
  0
LINE
  5
22D96
102
{ACAD_REACTORS
330
22E3B
102
}
330
18
100
AcDbEntity
  8
01
100
AcDbLine
 10
3879.656496791832
 20
532.5984475490294
 30
0.0
 11
3879.856499118627
 21
533.5984475490294
 31
0.0
  0
LINE
  5
22D97
102
{ACAD_REACTORS
330
22E3B
102
}
330
18
100
AcDbEntity
  8
01
100
AcDbLine
 10
3882.856496791831
 20
532.5984475490294
 30
0.0
 11
3883.056499118627
 21
533.5984475490294
 31
0.0
  0
LINE
  5
22D98
102
{ACAD_REACTORS
330
22E3B
102
}
330
18
100
AcDbEntity
  8
01
100
AcDbLine
 10
3878.056515406195
 20
540.5984475490294
 30
0.0
 11
3879.656496791832
 21
532.5984475490294
 31
0.0
  0
LINE
  5
22D99
102
{ACAD_REACTORS
330
22E3B
102
}
330
18
100
AcDbEntity
  8
01
100
AcDbLine
 10
3884.256513079408
 20
539.5984475490294
 30
0.0
 11
3884.456515406204
 21
540.5984475490294
 31
0.0
  0
LINE
  5
22D9A
102
{ACAD_REACTORS
330
22E3B
102
}
330
18
100
AcDbEntity
  8
01
100
AcDbLine
 10
3871.4565130794
 20
539.5984475490294
 30
0.0
 11
3871.656515406195
 21
540.5984475490294
 31
0.0
  0
LINE
  5
22D9B
102
{ACAD_REACTORS
330
22E3B
102
}
330
18
100
AcDbEntity
  8
01
100
AcDbLine
 10
3871.656515406195
 20
540.5984475490294
 30
0.0
 11
3873.256496791832
 21
532.5984475490294
 31
0.0
  0
LINE
  5
22D9C
102
{ACAD_REACTORS
330
22E3B
102
}
330
18
100
AcDbEntity
  8
01
100
AcDbLine
 10
3873.256496791832
 20
532.5984475490294
 30
0.0
 11
3873.456499118628
 21
533.5984475490294
 31
0.0
  0
LINE
  5
22D9D
102
{ACAD_REACTORS
330
22E3B
102
}
330
18
100
AcDbEntity
  8
01
100
AcDbLine
 10
3868.256513079401
 20
539.5984475490294
 30
0.0
 11
3868.456515406196
 21
540.5984475490294
 31
0.0
  0
LINE
  5
22D9E
102
{ACAD_REACTORS
330
22E3B
102
}
330
18
100
AcDbEntity
  8
01
100
AcDbLine
 10
3868.456515406196
 20
540.5984475490294
 30
0.0
 11
3870.056496791832
 21
532.5984475490294
 31
0.0
  0
LINE
  5
22D9F
102
{ACAD_REACTORS
330
22E3B
102
}
330
18
100
AcDbEntity
  8
01
100
AcDbLine
 10
3870.056496791832
 20
532.5984475490294
 30
0.0
 11
3870.256499118628
 21
533.5984475490294
 31
0.0
  0
LINE
  5
22DA0
102
{ACAD_REACTORS
330
22E3B
102
}
330
18
100
AcDbEntity
  8
01
100
AcDbLine
 10
3865.056513079401
 20
539.5984475490294
 30
0.0
 11
3865.256515406196
 21
540.5984475490294
 31
0.0
  0
LINE
  5
22DA1
102
{ACAD_REACTORS
330
22E3B
102
}
330
18
100
AcDbEntity
  8
01
100
AcDbLine
 10
3865.256515406196
 20
540.5984475490294
 30
0.0
 11
3866.856496791832
 21
532.5984475490294
 31
0.0
  0
LINE
  5
22DA2
102
{ACAD_REACTORS
330
22E3B
102
}
330
18
100
AcDbEntity
  8
01
100
AcDbLine
 10
3866.856496791832
 20
532.5984475490294
 30
0.0
 11
3867.056499118628
 21
533.5984475490294
 31
0.0
  0
ARC
  5
22DA3
102
{ACAD_REACTORS
330
22E3B
102
}
330
18
100
AcDbEntity
  8
01
100
AcDbCircle
 10
3869.056506099493
 20
536.5985275907741
 30
0.0
 40
10.60000000004382
100
AcDbArc
 50
121.8906584864515
 51
238.1090748824925
  0
LINE
  5
22E3C
102
{ACAD_REACTORS
330
22EC8
102
}
330
18
100
AcDbEntity
  8
01
100
AcDbLine
 10
3933.456506099139
 20
2.598633692628852
 30
0.0
 11
3922.856513079416
 21
-0.4013663073711484
 31
0.0
  0
LINE
  5
22E3D
102
{ACAD_REACTORS
330
22EC8
102
}
330
18
100
AcDbEntity
  8
01
100
AcDbLine
 10
3922.856513079416
 20
-0.4013663073711484
 30
0.0
 11
3863.456513079632
 21
-0.4013663073711484
 31
0.0
  0
LINE
  5
22E3E
102
{ACAD_REACTORS
330
22EC8
102
}
330
18
100
AcDbEntity
  8
01
100
AcDbLine
 10
3933.456506099139
 20
2.598633692628852
 30
0.0
 11
3922.856499118649
 21
5.598633692628852
 31
0.0
  0
LINE
  5
22E3F
102
{ACAD_REACTORS
330
22EC8
102
}
330
18
100
AcDbEntity
  8
01
100
AcDbLine
 10
3863.456527040618
 20
-6.401459379167221
 30
0.0
 11
3863.45648515831
 21
11.59854062083278
 31
0.0
  0
LINE
  5
22E40
102
{ACAD_REACTORS
330
22EC8
102
}
330
18
100
AcDbEntity
  8
01
100
AcDbLine
 10
3922.856499118649
 20
5.598633692628852
 30
0.0
 11
3863.456499118863
 21
5.598633692628852
 31
0.0
  0
LINE
  5
22E41
102
{ACAD_REACTORS
330
22EC8
102
}
330
18
100
AcDbEntity
  8
1CENTER
100
AcDbLine
 10
3936.31809593407
 20
2.598540620832779
 30
0.0
 11
3856.115953280846
 21
2.598540620832779
 31
0.0
  0
LINE
  5
22E42
102
{ACAD_REACTORS
330
22EC8
102
}
330
18
100
AcDbEntity
  8
01
100
AcDbLine
 10
3929.256511191784
 20
0.4098929928431119
 30
0.0
 11
3930.856502059886
 21
4.33456317059327
 31
0.0
  0
LINE
  5
22E43
102
{ACAD_REACTORS
330
22EC8
102
}
330
18
100
AcDbEntity
  8
01
100
AcDbLine
 10
3930.856502059886
 20
4.33456317059327
 30
0.0
 11
3931.48004177239
 21
3.158010020509124
 31
0.0
  0
LINE
  5
22E44
102
{ACAD_REACTORS
330
22EC8
102
}
330
18
100
AcDbEntity
  8
01
100
AcDbLine
 10
3884.456515406204
 20
-1.401366307371148
 30
0.0
 11
3886.05649679184
 21
6.598633692628852
 31
0.0
  0
LINE
  5
22E45
102
{ACAD_REACTORS
330
22EC8
102
}
330
18
100
AcDbEntity
  8
01
100
AcDbLine
 10
3906.856515406213
 20
-1.401366307371148
 30
0.0
 11
3908.456496791858
 21
6.598633692628852
 31
0.0
  0
LINE
  5
22E46
102
{ACAD_REACTORS
330
22EC8
102
}
330
18
100
AcDbEntity
  8
01
100
AcDbLine
 10
3913.256515406213
 20
-1.401366307371148
 30
0.0
 11
3914.856496791858
 21
6.598633692628852
 31
0.0
  0
LINE
  5
22E47
102
{ACAD_REACTORS
330
22EC8
102
}
330
18
100
AcDbEntity
  8
01
100
AcDbLine
 10
3914.856496791858
 20
6.598633692628852
 30
0.0
 11
3915.056499118652
 21
5.598633692628852
 31
0.0
  0
LINE
  5
22E48
102
{ACAD_REACTORS
330
22EC8
102
}
330
18
100
AcDbEntity
  8
01
100
AcDbLine
 10
3916.256513079418
 20
-0.4013663073711484
 30
0.0
 11
3916.456515406212
 21
-1.401366307371148
 31
0.0
  0
LINE
  5
22E49
102
{ACAD_REACTORS
330
22EC8
102
}
330
18
100
AcDbEntity
  8
01
100
AcDbLine
 10
3908.456496791858
 20
6.598633692628852
 30
0.0
 11
3908.656499118652
 21
5.598633692628852
 31
0.0
  0
LINE
  5
22E4A
102
{ACAD_REACTORS
330
22EC8
102
}
330
18
100
AcDbEntity
  8
01
100
AcDbLine
 10
3911.656496791858
 20
6.598633692628852
 30
0.0
 11
3911.856499118652
 21
5.598633692628852
 31
0.0
  0
LINE
  5
22E4B
102
{ACAD_REACTORS
330
22EC8
102
}
330
18
100
AcDbEntity
  8
01
100
AcDbLine
 10
3913.056513079418
 20
-0.4013663073711484
 30
0.0
 11
3913.256515406213
 21
-1.401366307371148
 31
0.0
  0
LINE
  5
22E4C
102
{ACAD_REACTORS
330
22EC8
102
}
330
18
100
AcDbEntity
  8
01
100
AcDbLine
 10
3909.856513079419
 20
-0.4013663073711484
 30
0.0
 11
3910.056515406213
 21
-1.401366307371148
 31
0.0
  0
LINE
  5
22E4D
102
{ACAD_REACTORS
330
22EC8
102
}
330
18
100
AcDbEntity
  8
01
100
AcDbLine
 10
3910.056515406213
 20
-1.401366307371148
 30
0.0
 11
3911.656496791858
 21
6.598633692628852
 31
0.0
  0
LINE
  5
22E4E
102
{ACAD_REACTORS
330
22EC8
102
}
330
18
100
AcDbEntity
  8
01
100
AcDbLine
 10
3927.656499952674
 20
5.240191379407321
 30
0.0
 11
3928.02202823793
 21
4.136692451800542
 31
0.0
  0
LINE
  5
22E4F
102
{ACAD_REACTORS
330
22EC8
102
}
330
18
100
AcDbEntity
  8
01
100
AcDbLine
 10
3921.256496791858
 20
6.598633692628852
 30
0.0
 11
3921.456499118652
 21
5.598633692628852
 31
0.0
  0
LINE
  5
22E50
102
{ACAD_REACTORS
330
22EC8
102
}
330
18
100
AcDbEntity
  8
01
100
AcDbLine
 10
3918.056496791858
 20
6.598633692628852
 30
0.0
 11
3918.256499118652
 21
5.598633692628852
 31
0.0
  0
LINE
  5
22E51
102
{ACAD_REACTORS
330
22EC8
102
}
330
18
100
AcDbEntity
  8
01
100
AcDbLine
 10
3924.456497845463
 20
6.145819588220462
 30
0.0
 11
3924.715039240723
 21
5.072632117678864
 31
0.0
  0
LINE
  5
22E52
102
{ACAD_REACTORS
330
22EC8
102
}
330
18
100
AcDbEntity
  8
01
100
AcDbLine
 10
3925.830974274292
 20
0.4404628870460385
 30
0.0
 11
3926.056513298992
 21
-0.4957340232541299
 31
0.0
  0
LINE
  5
22E53
102
{ACAD_REACTORS
330
22EC8
102
}
330
18
100
AcDbEntity
  8
01
100
AcDbLine
 10
3919.456513079419
 20
-0.4013663073711484
 30
0.0
 11
3919.656515406213
 21
-1.401366307371148
 31
0.0
  0
LINE
  5
22E54
102
{ACAD_REACTORS
330
22EC8
102
}
330
18
100
AcDbEntity
  8
01
100
AcDbLine
 10
3922.656513079418
 20
-0.4013663073711484
 30
0.0
 11
3922.856515406213
 21
-1.401366307371148
 31
0.0
  0
LINE
  5
22E55
102
{ACAD_REACTORS
330
22EC8
102
}
330
18
100
AcDbEntity
  8
01
100
AcDbLine
 10
3928.953639598903
 20
1.324236674105038
 30
0.0
 11
3929.256511191784
 21
0.4098929928431119
 31
0.0
  0
LINE
  5
22E56
102
{ACAD_REACTORS
330
22EC8
102
}
330
18
100
AcDbEntity
  8
01
100
AcDbLine
 10
3926.056513298992
 20
-0.4957340232541299
 30
0.0
 11
3927.656499952674
 21
5.240191379407321
 31
0.0
  0
LINE
  5
22E57
102
{ACAD_REACTORS
330
22EC8
102
}
330
18
100
AcDbEntity
  8
01
100
AcDbLine
 10
3919.656515406213
 20
-1.401366307371148
 30
0.0
 11
3921.256496791858
 21
6.598633692628852
 31
0.0
  0
LINE
  5
22E58
102
{ACAD_REACTORS
330
22EC8
102
}
330
18
100
AcDbEntity
  8
01
100
AcDbLine
 10
3922.856515406213
 20
-1.401366307371148
 30
0.0
 11
3924.456497845463
 21
6.145819588220462
 31
0.0
  0
LINE
  5
22E59
102
{ACAD_REACTORS
330
22EC8
102
}
330
18
100
AcDbEntity
  8
01
100
AcDbLine
 10
3916.456515406212
 20
-1.401366307371148
 30
0.0
 11
3918.056496791858
 21
6.598633692628852
 31
0.0
  0
LINE
  5
22E5A
102
{ACAD_REACTORS
330
22EC8
102
}
330
18
100
AcDbEntity
  8
01
100
AcDbLine
 10
3890.856515406204
 20
-1.401366307371148
 30
0.0
 11
3892.45649679184
 21
6.598633692628852
 31
0.0
  0
LINE
  5
22E5B
102
{ACAD_REACTORS
330
22EC8
102
}
330
18
100
AcDbEntity
  8
01
100
AcDbLine
 10
3892.45649679184
 20
6.598633692628852
 30
0.0
 11
3892.656499118636
 21
5.598633692628852
 31
0.0
  0
LINE
  5
22E5C
102
{ACAD_REACTORS
330
22EC8
102
}
330
18
100
AcDbEntity
  8
01
100
AcDbLine
 10
3893.856513079417
 20
-0.4013663073711484
 30
0.0
 11
3894.056515406212
 21
-1.401366307371148
 31
0.0
  0
LINE
  5
22E5D
102
{ACAD_REACTORS
330
22EC8
102
}
330
18
100
AcDbEntity
  8
01
100
AcDbLine
 10
3889.25649679184
 20
6.598633692628852
 30
0.0
 11
3889.456499118635
 21
5.598633692628852
 31
0.0
  0
LINE
  5
22E5E
102
{ACAD_REACTORS
330
22EC8
102
}
330
18
100
AcDbEntity
  8
01
100
AcDbLine
 10
3886.05649679184
 20
6.598633692628852
 30
0.0
 11
3886.256499118635
 21
5.598633692628852
 31
0.0
  0
LINE
  5
22E5F
102
{ACAD_REACTORS
330
22EC8
102
}
330
18
100
AcDbEntity
  8
01
100
AcDbLine
 10
3890.656513079408
 20
-0.4013663073711484
 30
0.0
 11
3890.856515406204
 21
-1.401366307371148
 31
0.0
  0
LINE
  5
22E60
102
{ACAD_REACTORS
330
22EC8
102
}
330
18
100
AcDbEntity
  8
01
100
AcDbLine
 10
3887.456513079408
 20
-0.4013663073711484
 30
0.0
 11
3887.656515406204
 21
-1.401366307371148
 31
0.0
  0
LINE
  5
22E61
102
{ACAD_REACTORS
330
22EC8
102
}
330
18
100
AcDbEntity
  8
01
100
AcDbLine
 10
3887.656515406204
 20
-1.401366307371148
 30
0.0
 11
3889.25649679184
 21
6.598633692628852
 31
0.0
  0
LINE
  5
22E62
102
{ACAD_REACTORS
330
22EC8
102
}
330
18
100
AcDbEntity
  8
01
100
AcDbLine
 10
3902.056496791849
 20
6.598633692628852
 30
0.0
 11
3902.256499118645
 21
5.598633692628852
 31
0.0
  0
LINE
  5
22E63
102
{ACAD_REACTORS
330
22EC8
102
}
330
18
100
AcDbEntity
  8
01
100
AcDbLine
 10
3905.256496791858
 20
6.598633692628852
 30
0.0
 11
3905.456499118652
 21
5.598633692628852
 31
0.0
  0
LINE
  5
22E64
102
{ACAD_REACTORS
330
22EC8
102
}
330
18
100
AcDbEntity
  8
01
100
AcDbLine
 10
3895.656496791849
 20
6.598633692628852
 30
0.0
 11
3895.856499118644
 21
5.598633692628852
 31
0.0
  0
LINE
  5
22E65
102
{ACAD_REACTORS
330
22EC8
102
}
330
18
100
AcDbEntity
  8
01
100
AcDbLine
 10
3898.856496791849
 20
6.598633692628852
 30
0.0
 11
3899.056499118644
 21
5.598633692628852
 31
0.0
  0
LINE
  5
22E66
102
{ACAD_REACTORS
330
22EC8
102
}
330
18
100
AcDbEntity
  8
01
100
AcDbLine
 10
3906.656513079418
 20
-0.4013663073711484
 30
0.0
 11
3906.856515406213
 21
-1.401366307371148
 31
0.0
  0
LINE
  5
22E67
102
{ACAD_REACTORS
330
22EC8
102
}
330
18
100
AcDbEntity
  8
01
100
AcDbLine
 10
3903.456513079417
 20
-0.4013663073711484
 30
0.0
 11
3903.656515406213
 21
-1.401366307371148
 31
0.0
  0
LINE
  5
22E68
102
{ACAD_REACTORS
330
22EC8
102
}
330
18
100
AcDbEntity
  8
01
100
AcDbLine
 10
3897.056513079417
 20
-0.4013663073711484
 30
0.0
 11
3897.256515406212
 21
-1.401366307371148
 31
0.0
  0
LINE
  5
22E69
102
{ACAD_REACTORS
330
22EC8
102
}
330
18
100
AcDbEntity
  8
01
100
AcDbLine
 10
3900.256513079417
 20
-0.4013663073711484
 30
0.0
 11
3900.456515406212
 21
-1.401366307371148
 31
0.0
  0
LINE
  5
22E6A
102
{ACAD_REACTORS
330
22EC8
102
}
330
18
100
AcDbEntity
  8
01
100
AcDbLine
 10
3900.456515406212
 20
-1.401366307371148
 30
0.0
 11
3902.056496791849
 21
6.598633692628852
 31
0.0
  0
LINE
  5
22E6B
102
{ACAD_REACTORS
330
22EC8
102
}
330
18
100
AcDbEntity
  8
01
100
AcDbLine
 10
3903.656515406213
 20
-1.401366307371148
 30
0.0
 11
3905.256496791858
 21
6.598633692628852
 31
0.0
  0
LINE
  5
22E6C
102
{ACAD_REACTORS
330
22EC8
102
}
330
18
100
AcDbEntity
  8
01
100
AcDbLine
 10
3897.256515406212
 20
-1.401366307371148
 30
0.0
 11
3898.856496791849
 21
6.598633692628852
 31
0.0
  0
LINE
  5
22E6D
102
{ACAD_REACTORS
330
22EC8
102
}
330
18
100
AcDbEntity
  8
01
100
AcDbLine
 10
3894.056515406212
 20
-1.401366307371148
 30
0.0
 11
3895.656496791849
 21
6.598633692628852
 31
0.0
  0
LINE
  5
22E6E
102
{ACAD_REACTORS
330
22EC8
102
}
330
18
100
AcDbEntity
  8
01
100
AcDbLine
 10
3874.6565130794
 20
-0.4013663073711484
 30
0.0
 11
3874.856515406195
 21
-1.401366307371148
 31
0.0
  0
LINE
  5
22E6F
102
{ACAD_REACTORS
330
22EC8
102
}
330
18
100
AcDbEntity
  8
01
100
AcDbLine
 10
3874.856515406195
 20
-1.401366307371148
 30
0.0
 11
3876.456496791832
 21
6.598633692628852
 31
0.0
  0
LINE
  5
22E70
102
{ACAD_REACTORS
330
22EC8
102
}
330
18
100
AcDbEntity
  8
01
100
AcDbLine
 10
3876.456496791832
 20
6.598633692628852
 30
0.0
 11
3876.656499118627
 21
5.598633692628852
 31
0.0
  0
LINE
  5
22E71
102
{ACAD_REACTORS
330
22EC8
102
}
330
18
100
AcDbEntity
  8
01
100
AcDbLine
 10
3877.8565130794
 20
-0.4013663073711484
 30
0.0
 11
3878.056515406195
 21
-1.401366307371148
 31
0.0
  0
LINE
  5
22E72
102
{ACAD_REACTORS
330
22EC8
102
}
330
18
100
AcDbEntity
  8
01
100
AcDbLine
 10
3881.0565130794
 20
-0.4013663073711484
 30
0.0
 11
3881.256515406195
 21
-1.401366307371148
 31
0.0
  0
LINE
  5
22E73
102
{ACAD_REACTORS
330
22EC8
102
}
330
18
100
AcDbEntity
  8
01
100
AcDbLine
 10
3881.256515406195
 20
-1.401366307371148
 30
0.0
 11
3882.856496791831
 21
6.598633692628852
 31
0.0
  0
LINE
  5
22E74
102
{ACAD_REACTORS
330
22EC8
102
}
330
18
100
AcDbEntity
  8
01
100
AcDbLine
 10
3879.656496791832
 20
6.598633692628852
 30
0.0
 11
3879.856499118627
 21
5.598633692628852
 31
0.0
  0
LINE
  5
22E75
102
{ACAD_REACTORS
330
22EC8
102
}
330
18
100
AcDbEntity
  8
01
100
AcDbLine
 10
3882.856496791831
 20
6.598633692628852
 30
0.0
 11
3883.056499118627
 21
5.598633692628852
 31
0.0
  0
LINE
  5
22E76
102
{ACAD_REACTORS
330
22EC8
102
}
330
18
100
AcDbEntity
  8
01
100
AcDbLine
 10
3878.056515406195
 20
-1.401366307371148
 30
0.0
 11
3879.656496791832
 21
6.598633692628852
 31
0.0
  0
LINE
  5
22E77
102
{ACAD_REACTORS
330
22EC8
102
}
330
18
100
AcDbEntity
  8
01
100
AcDbLine
 10
3884.256513079408
 20
-0.4013663073711484
 30
0.0
 11
3884.456515406204
 21
-1.401366307371148
 31
0.0
  0
LINE
  5
22E78
102
{ACAD_REACTORS
330
22EC8
102
}
330
18
100
AcDbEntity
  8
01
100
AcDbLine
 10
3871.4565130794
 20
-0.4013663073711484
 30
0.0
 11
3871.656515406195
 21
-1.401366307371148
 31
0.0
  0
LINE
  5
22E79
102
{ACAD_REACTORS
330
22EC8
102
}
330
18
100
AcDbEntity
  8
01
100
AcDbLine
 10
3871.656515406195
 20
-1.401366307371148
 30
0.0
 11
3873.256496791832
 21
6.598633692628852
 31
0.0
  0
LINE
  5
22E7A
102
{ACAD_REACTORS
330
22EC8
102
}
330
18
100
AcDbEntity
  8
01
100
AcDbLine
 10
3873.256496791832
 20
6.598633692628852
 30
0.0
 11
3873.456499118628
 21
5.598633692628852
 31
0.0
  0
LINE
  5
22E7B
102
{ACAD_REACTORS
330
22EC8
102
}
330
18
100
AcDbEntity
  8
01
100
AcDbLine
 10
3868.256513079401
 20
-0.4013663073711484
 30
0.0
 11
3868.456515406196
 21
-1.401366307371148
 31
0.0
  0
LINE
  5
22E7C
102
{ACAD_REACTORS
330
22EC8
102
}
330
18
100
AcDbEntity
  8
01
100
AcDbLine
 10
3868.456515406196
 20
-1.401366307371148
 30
0.0
 11
3870.056496791832
 21
6.598633692628852
 31
0.0
  0
LINE
  5
22E7D
102
{ACAD_REACTORS
330
22EC8
102
}
330
18
100
AcDbEntity
  8
01
100
AcDbLine
 10
3870.056496791832
 20
6.598633692628852
 30
0.0
 11
3870.256499118628
 21
5.598633692628852
 31
0.0
  0
LINE
  5
22E7E
102
{ACAD_REACTORS
330
22EC8
102
}
330
18
100
AcDbEntity
  8
01
100
AcDbLine
 10
3865.056513079401
 20
-0.4013663073711484
 30
0.0
 11
3865.256515406196
 21
-1.401366307371148
 31
0.0
  0
LINE
  5
22E7F
102
{ACAD_REACTORS
330
22EC8
102
}
330
18
100
AcDbEntity
  8
01
100
AcDbLine
 10
3865.256515406196
 20
-1.401366307371148
 30
0.0
 11
3866.856496791832
 21
6.598633692628852
 31
0.0
  0
LINE
  5
22E80
102
{ACAD_REACTORS
330
22EC8
102
}
330
18
100
AcDbEntity
  8
01
100
AcDbLine
 10
3866.856496791832
 20
6.598633692628852
 30
0.0
 11
3867.056499118628
 21
5.598633692628852
 31
0.0
  0
ARC
  5
22E81
102
{ACAD_REACTORS
330
22EC8
102
}
330
18
100
AcDbEntity
  8
01
100
AcDbCircle
 10
3869.056506099493
 20
2.598553650884156
 30
0.0
 40
10.60000000004382
100
AcDbArc
 50
121.8909251175075
 51
238.1093415135484
  0
LINE
  5
22F2D
330
18
100
AcDbEntity
  8
01
100
AcDbLine
 10
3864.956506099464
 20
610.6359501823636
 30
0.0
 11
3864.956506099464
 21
-86.24636039555537
 31
0.0
  0
LINE
  5
22F35
330
18
100
AcDbEntity
  8
01
100
AcDbLine
 10
3877.456506099464
 20
610.6359501823636
 30
0.0
 11
3877.456506099464
 21
-86.24636039555537
 31
0.0
  0
LINE
  5
22F58
330
18
100
AcDbEntity
  8
01
100
AcDbLine
 10
3886.456506099464
 20
610.6359501823636
 30
0.0
 11
3886.456506099464
 21
-86.24636039555537
 31
0.0
  0
LINE
  5
23163
330
18
100
AcDbEntity
  8
1DIM
100
AcDbLine
 10
3699.314407496781
 20
839.681187725116
 30
0.0
 11
3874.314407496781
 21
839.681187725116
 31
0.0
  0
LINE
  5
23164
330
18
100
AcDbEntity
  8
1DIM
100
AcDbLine
 10
3699.314407496781
 20
734.681187725116
 30
0.0
 11
3699.314407496781
 21
839.681187725116
 31
0.0
  0
TEXT
  5
23165
330
18
100
AcDbEntity
  8
1TEXT
100
AcDbText
 10
3699.314407496781
 20
864.681187725116
 30
0.0
 40
40.0
  1
K-KG-34-T2-X
100
AcDbText
  0
LINE
  5
23166
330
18
100
AcDbEntity
  8
1DIM
100
AcDbLine
 10
3699.314407496781
 20
839.681187725116
 30
0.0
 11
3874.314407496781
 21
839.681187725116
 31
0.0
  0
LINE
  5
23167
330
18
100
AcDbEntity
  8
1DIM
100
AcDbLine
 10
3699.314407496781
 20
769.681187725116
 30
0.0
 11
3874.314407496781
 21
769.681187725116
 31
0.0
  0
LINE
  5
23168
330
18
100
AcDbEntity
  8
1DIM
100
AcDbLine
 10
3699.314407496781
 20
804.681187725116
 30
0.0
 11
3874.314407496781
 21
804.681187725116
 31
0.0
  0
LINE
  5
23169
330
18
100
AcDbEntity
  8
1DIM
100
AcDbLine
 10
3699.314407496781
 20
734.681187725116
 30
0.0
 11
3874.314407496781
 21
734.681187725116
 31
0.0
  0
LINE
  5
2316A
330
18
100
AcDbEntity
  8
1DIM
100
AcDbLine
 10
3874.314407496781
 20
839.681187725116
 30
0.0
 11
3874.314407496781
 21
734.681187725116
 31
0.0
  0
TEXT
  5
2316B
330
18
100
AcDbEntity
  8
1TEXT
100
AcDbText
 10
3926.981074163445
 20
812.181187725116
 30
0.0
 40
20.0
  1
コード
 72
     1
 11
3961.314407496778
 21
812.181187725116
 31
0.0
100
AcDbText
  0
LINE
  5
2316C
330
18
100
AcDbEntity
  8
1DIM
100
AcDbLine
 10
3874.314407496781
 20
734.681187725116
 30
0.0
 11
3874.314407496781
 21
839.681187725116
 31
0.0
  0
LINE
  5
2316D
330
18
100
AcDbEntity
  8
1DIM
100
AcDbLine
 10
4049.31440749678
 20
734.681187725116
 30
0.0
 11
4049.31440749678
 21
839.681187725116
 31
0.0
  0
TEXT
  5
2316E
330
18
100
AcDbEntity
  8
1TEXT
100
AcDbText
 10
3739.981074163446
 20
812.181187725116
 30
0.0
 40
20.0
  1
表面処理
 72
     1
 11
3786.314407496779
 21
812.181187725116
 31
0.0
100
AcDbText
  0
TEXT
  5
2316F
330
18
100
AcDbEntity
  8
1TEXT
100
AcDbText
 10
3741.647740830113
 20
778.0047444274941
 30
0.0
 40
20.0
  1
ホワイト
 72
     1
 11
3786.314407496779
 21
778.0047444274941
 31
0.0
100
AcDbText
  0
TEXT
  5
23170
330
18
100
AcDbEntity
  8
1TEXT
100
AcDbText
 10
3741.314407496779
 20
743.0047444274941
 30
0.0
 40
20.0
  1
ブラック
 72
     1
 11
3786.314407496779
 21
743.0047444274941
 31
0.0
100
AcDbText
  0
LINE
  5
23171
330
18
100
AcDbEntity
  8
1DIM
100
AcDbLine
 10
3699.314407496781
 20
734.681187725116
 30
0.0
 11
3699.314407496781
 21
839.681187725116
 31
0.0
  0
TEXT
  5
23172
330
18
100
AcDbEntity
  8
1TEXT
100
AcDbText
 10
3894.397101485962
 20
776.1094028068698
 30
0.0
 40
20.0
  1
K-KG-34-T2-067
 41
0.5
 72
     1
 11
3961.966545930406
 21
776.1094028068698
 31
0.0
100
AcDbText
  0
TEXT
  5
23173
330
18
100
AcDbEntity
  8
1TEXT
100
AcDbText
 10
3894.397101485962
 20
741.1094028068698
 30
0.0
 40
20.0
  1
K-KG-34-T2-068
 41
0.5
 72
     1
 11
3961.966545930406
 21
741.1094028068698
 31
0.0
100
AcDbText
  0
LINE
  5
23174
330
18
100
AcDbEntity
  8
1DIM
100
AcDbLine
 10
3874.31440749678
 20
804.681187725116
 30
0.0
 11
4049.31440749678
 21
804.681187725116
 31
0.0
  0
LINE
  5
23175
330
18
100
AcDbEntity
  8
1DIM
100
AcDbLine
 10
3874.31440749678
 20
839.681187725116
 30
0.0
 11
4049.31440749678
 21
839.681187725116
 31
0.0
  0
LINE
  5
23176
330
18
100
AcDbEntity
  8
1DIM
100
AcDbLine
 10
3874.31440749678
 20
769.681187725116
 30
0.0
 11
4049.31440749678
 21
769.681187725116
 31
0.0
  0
LINE
  5
23177
330
18
100
AcDbEntity
  8
1DIM
100
AcDbLine
 10
3874.31440749678
 20
734.681187725116
 30
0.0
 11
4049.31440749678
 21
734.681187725116
 31
0.0
  0
LINE
  5
2317D
330
18
100
AcDbEntity
  8
1DIM
100
AcDbLine
 10
3874.314407496781
 20
839.681187725116
 30
0.0
 11
3874.314407496781
 21
734.681187725116
 31
0.0
  0
LINE
  5
2317E
330
18
100
AcDbEntity
  8
1DIM
100
AcDbLine
 10
3874.314407496781
 20
734.681187725116
 30
0.0
 11
3874.314407496781
 21
839.681187725116
 31
0.0
  0
LINE
  5
232D8
330
18
100
AcDbEntity
  8
1CENTER
100
AcDbLine
 10
3625.0058
 20
536.5985
 30
0.0
 11
3634.0058
 21
536.5985
 31
0.0
  0
LINE
  5
232D9
330
18
100
AcDbEntity
  8
1CENTER
100
AcDbLine
 10
3629.5058
 20
532.0985
 30
0.0
 11
3629.5058
 21
541.0985
 31
0.0
  0
LINE
  5
232DA
330
18
100
AcDbEntity
  8
1CENTER
100
AcDbLine
 10
3625.0058
 20
2.59858124165828
 30
0.0
 11
3634.0058
 21
2.59858124165828
 31
0.0
  0
LINE
  5
232DB
330
18
100
AcDbEntity
  8
1CENTER
100
AcDbLine
 10
3629.5058
 20
7.09858124165828
 30
0.0
 11
3629.5058
 21
-1.90141875834172
 31
0.0
  0
LINE
  5
232DC
330
18
100
AcDbEntity
  8
1CENTER
100
AcDbLine
 10
2487.005797762492
 20
536.5984593791744
 30
0.0
 11
2478.005797762492
 21
536.5984593791744
 31
0.0
  0
LINE
  5
232DD
330
18
100
AcDbEntity
  8
1CENTER
100
AcDbLine
 10
2482.505797762492
 20
532.0984593791744
 30
0.0
 11
2482.505797762492
 21
541.0984593791744
 31
0.0
  0
LINE
  5
232DE
330
18
100
AcDbEntity
  8
1CENTER
100
AcDbLine
 10
2487.005797762492
 20
2.598540620832777
 30
0.0
 11
2478.005797762492
 21
2.598540620832777
 31
0.0
  0
LINE
  5
232DF
330
18
100
AcDbEntity
  8
1CENTER
100
AcDbLine
 10
2482.505797762492
 20
7.098540620832777
 30
0.0
 11
2482.505797762492
 21
-1.901459379167223
 31
0.0
  0
LINE
  5
23929
330
18
100
AcDbEntity
  8
01
100
AcDbLine
 10
3656.688428483865
 20
750.681187725116
 30
0.0
 11
3656.688428483865
 21
734.681187725116
 31
0.0
  0
LINE
  5
2392A
330
18
100
AcDbEntity
  8
01
100
AcDbLine
 10
3656.688428483865
 20
734.681187725116
 30
0.0
 11
3640.688428483865
 21
734.681187725116
 31
0.0
  0
LINE
  5
2392B
330
18
100
AcDbEntity
  8
01
100
AcDbLine
 10
3640.688428483865
 20
734.681187725116
 30
0.0
 11
3640.688428483865
 21
750.681187725116
 31
0.0
  0
LINE
  5
2392C
330
18
100
AcDbEntity
  8
01
100
AcDbLine
 10
3640.688428483865
 20
750.681187725116
 30
0.0
 11
3656.688428483865
 21
750.681187725116
 31
0.0
  0
LINE
  5
2392D
330
18
100
AcDbEntity
  8
01
100
AcDbLine
 10
2456.688428483865
 20
750.681187725116
 30
0.0
 11
2456.688428483865
 21
734.681187725116
 31
0.0
  0
LINE
  5
2392E
330
18
100
AcDbEntity
  8
01
100
AcDbLine
 10
2456.688428483865
 20
734.681187725116
 30
0.0
 11
2472.688428483865
 21
734.681187725116
 31
0.0
  0
LINE
  5
2392F
330
18
100
AcDbEntity
  8
01
100
AcDbLine
 10
2472.688428483865
 20
734.681187725116
 30
0.0
 11
2472.688428483865
 21
750.681187725116
 31
0.0
  0
LINE
  5
23930
330
18
100
AcDbEntity
  8
01
100
AcDbLine
 10
2472.688428483865
 20
750.681187725116
 30
0.0
 11
2456.688428483865
 21
750.681187725116
 31
0.0
  0
LINE
  5
23931
330
18
100
AcDbEntity
  8
01
100
AcDbLine
 10
3864.956506099464
 20
553.598540620825
 30
0.0
 11
3864.956506099464
 21
569.598540620825
 31
0.0
  0
LINE
  5
23932
330
18
100
AcDbEntity
  8
01
100
AcDbLine
 10
3864.956506099464
 20
569.598540620825
 30
0.0
 11
3848.956506099464
 21
569.598540620825
 31
0.0
  0
LINE
  5
23933
330
18
100
AcDbEntity
  8
01
100
AcDbLine
 10
3848.956506099464
 20
569.598540620825
 30
0.0
 11
3848.956506099464
 21
-30.40145937917544
 31
0.0
  0
LINE
  5
23934
330
18
100
AcDbEntity
  8
01
100
AcDbLine
 10
3848.956506099464
 20
-30.40145937917544
 30
0.0
 11
3864.956506099464
 21
-30.40145937917544
 31
0.0
  0
LINE
  5
23935
330
18
100
AcDbEntity
  8
1DIM
100
AcDbLine
 10
3656.005797762492
 20
-30.40145937917404
 30
0.0
 11
3656.005797762492
 21
-182.4071376381569
 31
0.0
1001
ACAD
1000
DSTYLE
1002
{
1070
    40
1040
5.0
1002
}
  0
LINE
  5
23936
330
18
100
AcDbEntity
  8
1DIM
100
AcDbLine
 10
2456.005797762492
 20
-30.40145937917407
 30
0.0
 11
2456.005797762492
 21
-182.4071376381569
 31
0.0
1001
ACAD
1000
DSTYLE
1002
{
1070
    40
1040
5.0
1002
}
  0
LINE
  5
23937
330
18
100
AcDbEntity
  8
1DIM
100
AcDbLine
 10
3646.005797762492
 20
-177.4071376381569
 30
0.0
 11
2466.005797762492
 21
-177.4071376381569
 31
0.0
1001
ACAD
1000
DSTYLE
1002
{
1070
    40
1040
5.0
1002
}
  0
LINE
  5
2393B
330
18
100
AcDbEntity
  8
1DIM
100
AcDbLine
 10
3593.005797762492
 20
-2.583072792846991
 30
0.0
 11
3593.005797762492
 21
-141.5909834548716
 31
0.0
1001
ACAD
1000
DSTYLE
1002
{
1070
    40
1040
5.0
1002
}
  0
LINE
  5
2393C
330
18
100
AcDbEntity
  8
1DIM
100
AcDbLine
 10
3629.5058
 20
-1.90141875834172
 30
0.0
 11
3629.5058
 21
-141.5909834548716
 31
0.0
1001
ACAD
1000
DSTYLE
1002
{
1070
    40
1040
5.0
1002
}
  0
LINE
  5
2393D
330
18
100
AcDbEntity
  8
1DIM
100
AcDbLine
 10
3593.005797762492
 20
-136.5909834548716
 30
0.0
 11
3506.005797762492
 21
-136.5909834548716
 31
0.0
1001
ACAD
1000
DSTYLE
1002
{
1070
    40
1040
5.0
1002
}
  0
LINE
  5
2393E
330
18
100
AcDbEntity
  8
1DIM
100
AcDbLine
 10
3603.005797762492
 20
-136.5909834548716
 30
0.0
 11
3619.5058
 21
-136.5909834548716
 31
0.0
1001
ACAD
1000
DSTYLE
1002
{
1070
    40
1040
5.0
1002
}
  0
LINE
  5
23942
330
18
100
AcDbEntity
  8
1DIM
100
AcDbLine
 10
3593.005797762492
 20
-2.583072792846991
 30
0.0
 11
3593.005797762492
 21
-93.27211009504904
 31
0.0
1001
ACAD
1000
DSTYLE
1002
{
1070
    40
1040
5.0
1002
}
  0
LINE
  5
23943
330
18
100
AcDbEntity
  8
1DIM
100
AcDbLine
 10
2519.005797762492
 20
-2.583072792846991
 30
0.0
 11
2519.005797762492
 21
-93.27211009504904
 31
0.0
1001
ACAD
1000
DSTYLE
1002
{
1070
    40
1040
5.0
1002
}
  0
LINE
  5
23944
330
18
100
AcDbEntity
  8
1DIM
100
AcDbLine
 10
3583.005797762492
 20
-88.27211009504904
 30
0.0
 11
2529.005797762492
 21
-88.27211009504904
 31
0.0
1001
ACAD
1000
DSTYLE
1002
{
1070
    40
1040
5.0
1002
}
  0
TEXT
  5
23948
330
18
100
AcDbEntity
  8
1DIM
  6
CONTINUOUS
100
AcDbText
 10
3916.853550737562
 20
688.1640850108469
 30
0.0
 40
17.5
  1
PB
100
AcDbText
  0
SOLID
  5
23949
330
18
100
AcDbEntity
  8
1DIM
100
AcDbTrace
 10
3875.935121491831
 20
608.3396166119405
 30
0.0
 11
3870.639240504019
 21
599.6948828195841
 31
0.0
 12
3872.845160208482
 22
609.5899167273197
 32
0.0
 13
3872.845160208482
 23
609.5899167273197
 33
0.0
1001
ACAD
1000
DSTYLE
1002
{
1070
    41
1040
10.0
1070
    45
1040
0.5
1002
}
  0
LINE
  5
2394A
330
18
100
AcDbEntity
  8
1DIM
100
AcDbLine
 10
3874.390140850157
 20
608.9647666696301
 30
0.0
 11
3906.153550737562
 21
687.4640850108468
 31
0.0
1001
ACAD
1000
DSTYLE
1002
{
1070
    41
1040
10.0
1070
    45
1040
0.5
1002
}
  0
LINE
  5
2394B
330
18
100
AcDbEntity
  8
1DIM
100
AcDbLine
 10
3906.153550737562
 20
687.4640850108468
 30
0.0
 11
3946.020217404228
 21
687.4640850108468
 31
0.0
1001
ACAD
1000
DSTYLE
1002
{
1070
    41
1040
10.0
1070
    45
1040
0.5
1002
}
  0
TEXT
  5
2394C
330
18
100
AcDbEntity
  8
1DIM
  6
CONTINUOUS
100
AcDbText
 10
3938.996021343421
 20
655.641052614956
 30
0.0
 40
17.5
  1
合板9mm以上
100
AcDbText
1001
ACADANNOTATIVE
1000
AnnotativeData
1002
{
1070
     1
1070
     0
1002
}
  0
SOLID
  5
2394D
330
18
100
AcDbEntity
  8
1DIM
100
AcDbTrace
 10
3887.44501776162
 20
590.6431655773008
 30
0.0
 11
3881.867341021166
 21
582.1775114409227
 31
0.0
 12
3884.397904163851
 22
591.9945388911574
 32
0.0
 13
3884.397904163851
 23
591.9945388911574
 33
0.0
1001
ACAD
1000
DSTYLE
1002
{
1070
    41
1040
10.0
1070
    45
1040
0.5
1002
}
  0
LINE
  5
2394E
330
18
100
AcDbEntity
  8
1DIM
100
AcDbLine
 10
3885.921460962736
 20
591.3188522342291
 30
0.0
 11
3914.137456528606
 21
654.941052614956
 31
0.0
1001
ACAD
1000
DSTYLE
1002
{
1070
    41
1040
10.0
1070
    45
1040
0.5
1002
}
  0
LINE
  5
2394F
330
18
100
AcDbEntity
  8
1DIM
100
AcDbLine
 10
3914.137456528606
 20
654.941052614956
 30
0.0
 11
4072.004123195273
 21
654.941052614956
 31
0.0
1001
ACAD
1000
DSTYLE
1002
{
1070
    41
1040
10.0
1070
    45
1040
0.5
1002
}
  0
LINE
  5
23950
330
18
100
AcDbEntity
  8
1DIM
100
AcDbLine
 10
3864.956506099464
 20
536.5985406208255
 30
0.0
 11
4025.742711216365
 21
536.5985406208255
 31
0.0
1001
ACAD
1000
DSTYLE
1002
{
1070
    40
1040
5.0
1002
}
  0
LINE
  5
23951
330
18
100
AcDbEntity
  8
1DIM
100
AcDbLine
 10
3864.956506099464
 20
569.598540620825
 30
0.0
 11
4025.742711216365
 21
569.598540620825
 31
0.0
1001
ACAD
1000
DSTYLE
1002
{
1070
    40
1040
5.0
1002
}
  0
LINE
  5
23952
330
18
100
AcDbEntity
  8
1DIM
100
AcDbLine
 10
4020.742711216365
 20
569.598540620825
 30
0.0
 11
4020.742711216365
 21
614.931873954158
 31
0.0
1001
ACAD
1000
DSTYLE
1002
{
1070
    40
1040
5.0
1002
}
  0
LINE
  5
23953
330
18
100
AcDbEntity
  8
1DIM
100
AcDbLine
 10
4020.742711216365
 20
546.5985406208255
 30
0.0
 11
4020.742711216365
 21
559.598540620825
 31
0.0
1001
ACAD
1000
DSTYLE
1002
{
1070
    40
1040
5.0
1002
}
  0
TEXT
  5
23957
330
18
100
AcDbEntity
  8
1DIM
  6
CONTINUOUS
100
AcDbText
 10
2974.121522430724
 20
617.0104135599743
 30
0.0
 40
17.5
  1
材質：ガラス（鏡）
100
AcDbText
1001
ACADANNOTATIVE
1000
AnnotativeData
1002
{
1070
     1
1070
     0
1002
}
  0
SOLID
  5
23958
330
18
100
AcDbEntity
  8
1DIM
100
AcDbTrace
 10
2896.582811431565
 20
485.1964353714139
 30
0.0
 11
2890.392344529322
 21
477.1679923523714
 31
0.0
 12
2893.644372241484
 22
486.7701844738147
 32
0.0
 13
2893.644372241484
 23
486.7701844738147
 33
0.0
1001
ACAD
1000
DSTYLE
1002
{
1070
    41
1040
10.0
1070
    45
1040
0.5
1002
}
  0
LINE
  5
23959
330
18
100
AcDbEntity
  8
1DIM
100
AcDbLine
 10
2895.113591836525
 20
485.9833099226143
 30
0.0
 11
2965.28818909739
 21
617.0104135599743
 31
0.0
1001
ACAD
1000
DSTYLE
1002
{
1070
    41
1040
10.0
1070
    45
1040
0.5
1002
}
  0
LINE
  5
2395A
330
18
100
AcDbEntity
  8
1DIM
100
AcDbLine
 10
2965.28818909739
 20
617.0104135599743
 30
0.0
 11
3146.904855764057
 21
617.0104135599743
 31
0.0
1001
ACAD
1000
DSTYLE
1002
{
1070
    41
1040
10.0
1070
    45
1040
0.5
1002
}
  0
LINE
  5
2395B
330
18
100
AcDbEntity
  8
1DIM
100
AcDbLine
 10
3864.956506099464
 20
-30.40145937917544
 30
0.0
 11
3864.956506099464
 21
-90.72520248101264
 31
0.0
1001
ACAD
1000
DSTYLE
1002
{
1070
    40
1040
5.0
1002
}
  0
LINE
  5
2395C
330
18
100
AcDbEntity
  8
1DIM
100
AcDbLine
 10
3848.956506099464
 20
-30.40145937917544
 30
0.0
 11
3848.956506099464
 21
-90.72520248101264
 31
0.0
1001
ACAD
1000
DSTYLE
1002
{
1070
    40
1040
5.0
1002
}
  0
LINE
  5
2395D
330
18
100
AcDbEntity
  8
1DIM
100
AcDbLine
 10
3838.956506099464
 20
-85.72520248101264
 30
0.0
 11
3796.123172766131
 21
-85.72520248101264
 31
0.0
1001
ACAD
1000
DSTYLE
1002
{
1070
    40
1040
5.0
1002
}
  0
LINE
  5
2395E
330
18
100
AcDbEntity
  8
1DIM
100
AcDbLine
 10
3864.956506099464
 20
-85.72520248101264
 30
0.0
 11
3848.956506099464
 21
-85.72520248101264
 31
0.0
1001
ACAD
1000
DSTYLE
1002
{
1070
    40
1040
5.0
1002
}
  0
LINE
  5
2395F
330
18
100
AcDbEntity
  8
1DIM
100
AcDbLine
 10
3874.956506099464
 20
-85.72520248101264
 30
0.0
 11
3884.956506099464
 21
-85.72520248101264
 31
0.0
1001
ACAD
1000
DSTYLE
1002
{
1070
    40
1040
5.0
1002
}
  0
LINE
  5
23963
330
18
100
AcDbEntity
  8
1DIM
100
AcDbLine
 10
3933.456506099139
 20
536.5984475490294
 30
0.0
 11
4025.742711216365
 21
536.5984475490294
 31
0.0
1001
ACAD
1000
DSTYLE
1002
{
1070
    40
1040
5.0
1002
}
  0
LINE
  5
23964
330
18
100
AcDbEntity
  8
1DIM
100
AcDbLine
 10
3936.31809593407
 20
2.598540620832779
 30
0.0
 11
4025.742711216365
 21
2.598540620832773
 31
0.0
1001
ACAD
1000
DSTYLE
1002
{
1070
    40
1040
5.0
1002
}
  0
LINE
  5
23965
330
18
100
AcDbEntity
  8
1DIM
100
AcDbLine
 10
4020.742711216365
 20
526.5984475490294
 30
0.0
 11
4020.742711216365
 21
12.59854062083277
 31
0.0
1001
ACAD
1000
DSTYLE
1002
{
1070
    40
1040
5.0
1002
}
  0
LINE
  5
23969
330
18
100
AcDbEntity
  8
1DIM
100
AcDbLine
 10
3656.005797762492
 20
569.598540620825
 30
0.0
 11
3780.64714182023
 21
569.598540620825
 31
0.0
1001
ACAD
1000
DSTYLE
1002
{
1070
    40
1040
5.0
1002
}
  0
LINE
  5
2396A
330
18
100
AcDbEntity
  8
1DIM
100
AcDbLine
 10
3656.005797762492
 20
-30.40145937917404
 30
0.0
 11
3780.64714182023
 21
-30.40145937917404
 31
0.0
1001
ACAD
1000
DSTYLE
1002
{
1070
    40
1040
5.0
1002
}
  0
LINE
  5
2396B
330
18
100
AcDbEntity
  8
1DIM
100
AcDbLine
 10
3775.64714182023
 20
559.598540620825
 30
0.0
 11
3775.64714182023
 21
-20.40145937917404
 31
0.0
1001
ACAD
1000
DSTYLE
1002
{
1070
    40
1040
5.0
1002
}
  0
TEXT
  5
2396F
330
18
100
AcDbEntity
  8
1DIM
  6
CONTINUOUS
100
AcDbText
 10
2729.318159775125
 20
646.177080226641
 30
0.0
 40
17.5
  1
材質：ステンレス
100
AcDbText
1001
ACADANNOTATIVE
1000
AnnotativeData
1002
{
1070
     1
1070
     0
1002
}
  0
TEXT
  5
23970
330
18
100
AcDbEntity
  8
1DIM
  6
CONTINUOUS
100
AcDbText
 10
2729.901493108458
 20
617.0104135599744
 30
0.0
 40
17.5
  1
仕上げ：各種仕上げ
100
AcDbText
1001
ACADANNOTATIVE
1000
AnnotativeData
1002
{
1070
     1
1070
     0
1002
}
  0
SOLID
  5
23971
330
18
100
AcDbEntity
  8
1DIM
100
AcDbTrace
 10
2696.565230194831
 20
568.8185928543502
 30
0.0
 11
2690.374763292588
 21
560.7901498353077
 31
0.0
 12
2693.62679100475
 22
570.392341956751
 32
0.0
 13
2693.62679100475
 23
570.392341956751
 33
0.0
1001
ACAD
1000
DSTYLE
1002
{
1070
    41
1040
10.0
1070
    45
1040
0.5
1002
}
  0
LINE
  5
23972
330
18
100
AcDbEntity
  8
1DIM
100
AcDbLine
 10
2695.096010599791
 20
569.6054674055506
 30
0.0
 11
2720.484826441792
 21
617.0104135599743
 31
0.0
1001
ACAD
1000
DSTYLE
1002
{
1070
    41
1040
10.0
1070
    45
1040
0.5
1002
}
  0
LINE
  5
23973
330
18
100
AcDbEntity
  8
1DIM
100
AcDbLine
 10
2720.484826441792
 20
617.0104135599743
 30
0.0
 11
2916.101493108459
 21
617.0104135599743
 31
0.0
1001
ACAD
1000
DSTYLE
1002
{
1070
    41
1040
10.0
1070
    45
1040
0.5
1002
}
  0
TEXT
  5
23974
330
18
100
AcDbEntity
  8
1DIM
  6
CONTINUOUS
100
AcDbText
 10
2500.459053019252
 20
646.1770802266409
 30
0.0
 40
17.5
  1
材質：ステンレス
100
AcDbText
1001
ACADANNOTATIVE
1000
AnnotativeData
1002
{
1070
     1
1070
     0
1002
}
  0
TEXT
  5
23975
330
18
100
AcDbEntity
  8
1DIM
  6
CONTINUOUS
100
AcDbText
 10
2501.042386352585
 20
617.0104135599743
 30
0.0
 40
17.5
  1
仕上げ：各種仕上げ
100
AcDbText
1001
ACADANNOTATIVE
1000
AnnotativeData
1002
{
1070
     1
1070
     0
1002
}
  0
SOLID
  5
23976
330
18
100
AcDbEntity
  8
1DIM
100
AcDbTrace
 10
2467.706123438958
 20
568.8185928543501
 30
0.0
 11
2461.515656536715
 21
560.7901498353076
 31
0.0
 12
2464.767684248877
 22
570.3923419567509
 32
0.0
 13
2464.767684248877
 23
570.3923419567509
 33
0.0
1001
ACAD
1000
DSTYLE
1002
{
1070
    41
1040
10.0
1070
    45
1040
0.5
1002
}
  0
LINE
  5
23977
330
18
100
AcDbEntity
  8
1DIM
100
AcDbLine
 10
2466.236903843917
 20
569.6054674055505
 30
0.0
 11
2491.625719685918
 21
617.0104135599743
 31
0.0
1001
ACAD
1000
DSTYLE
1002
{
1070
    41
1040
10.0
1070
    45
1040
0.5
1002
}
  0
LINE
  5
23978
330
18
100
AcDbEntity
  8
1DIM
100
AcDbLine
 10
2491.625719685918
 20
617.0104135599743
 30
0.0
 11
2687.242386352585
 21
617.0104135599743
 31
0.0
1001
ACAD
1000
DSTYLE
1002
{
1070
    41
1040
10.0
1070
    45
1040
0.5
1002
}
  0
LINE
  5
23979
330
18
100
AcDbEntity
  8
1DIM
100
AcDbLine
 10
2482.505797762492
 20
-1.901459379167223
 30
0.0
 11
2482.505797762492
 21
-133.755490477603
 31
0.0
1001
ACAD
1000
DSTYLE
1002
{
1070
    40
1040
5.0
1002
}
  0
LINE
  5
2397A
330
18
100
AcDbEntity
  8
1DIM
100
AcDbLine
 10
2519.005797762492
 20
-2.583072792846991
 30
0.0
 11
2519.005797762492
 21
-133.755490477603
 31
0.0
1001
ACAD
1000
DSTYLE
1002
{
1070
    40
1040
5.0
1002
}
  0
LINE
  5
2397B
330
18
100
AcDbEntity
  8
1DIM
100
AcDbLine
 10
2519.005797762492
 20
-128.755490477603
 30
0.0
 11
2606.005797762492
 21
-128.755490477603
 31
0.0
1001
ACAD
1000
DSTYLE
1002
{
1070
    40
1040
5.0
1002
}
  0
LINE
  5
2397C
330
18
100
AcDbEntity
  8
1DIM
100
AcDbLine
 10
2492.505797762492
 20
-128.755490477603
 30
0.0
 11
2509.005797762492
 21
-128.755490477603
 31
0.0
1001
ACAD
1000
DSTYLE
1002
{
1070
    40
1040
5.0
1002
}
  0
LINE
  5
23980
330
18
100
AcDbEntity
  8
0
  6
BYBLOCK
100
AcDbLine
 10
3646.005797762492
 20
-174.7276457381569
 30
0.0
 11
3656.005797762492
 21
-177.4071376381569
 31
0.0
  0
LINE
  5
23981
330
18
100
AcDbEntity
  8
0
  6
BYBLOCK
100
AcDbLine
 10
3656.005797762492
 20
-177.4071376381569
 30
0.0
 11
3646.005797762492
 21
-180.0866295381568
 31
0.0
  0
LINE
  5
23982
330
18
100
AcDbEntity
  8
0
  6
BYBLOCK
100
AcDbLine
 10
3656.005797762492
 20
-177.4071376381569
 30
0.0
 11
3646.005797762492
 21
-177.4071376381569
 31
0.0
  0
LINE
  5
23983
330
18
100
AcDbEntity
  8
0
  6
BYBLOCK
100
AcDbLine
 10
2466.005797762492
 20
-180.0866295381568
 30
0.0
 11
2456.005797762492
 21
-177.4071376381569
 31
0.0
  0
LINE
  5
23984
330
18
100
AcDbEntity
  8
0
  6
BYBLOCK
100
AcDbLine
 10
2456.005797762492
 20
-177.4071376381569
 30
0.0
 11
2466.005797762492
 21
-174.7276457381569
 31
0.0
  0
LINE
  5
23985
330
18
100
AcDbEntity
  8
0
  6
BYBLOCK
100
AcDbLine
 10
2456.005797762492
 20
-177.4071376381569
 30
0.0
 11
2466.005797762492
 21
-177.4071376381569
 31
0.0
  0
TEXT
  5
23986
330
18
100
AcDbEntity
  8
1DIM
  6
CONTINUOUS
100
AcDbText
 10
3029.391214429159
 20
-173.9071376381569
 30
0.0
 40
17.5
  1
1200
100
AcDbText
1001
ACAD
1000
DSTYLE
1002
{
1070
    40
1040
5.0
1002
}
  0
LINE
  5
23987
330
18
100
AcDbEntity
  8
0
  6
BYBLOCK
100
AcDbLine
 10
3603.005797762492
 20
-139.2704753548716
 30
0.0
 11
3593.005797762492
 21
-136.5909834548716
 31
0.0
  0
LINE
  5
23988
330
18
100
AcDbEntity
  8
0
  6
BYBLOCK
100
AcDbLine
 10
3593.005797762492
 20
-136.5909834548716
 30
0.0
 11
3603.005797762492
 21
-133.9114915548716
 31
0.0
  0
LINE
  5
23989
330
18
100
AcDbEntity
  8
0
  6
BYBLOCK
100
AcDbLine
 10
3593.005797762492
 20
-136.5909834548716
 30
0.0
 11
3603.005797762492
 21
-136.5909834548716
 31
0.0
  0
LINE
  5
2398A
330
18
100
AcDbEntity
  8
0
  6
BYBLOCK
100
AcDbLine
 10
3619.5058
 20
-133.9114915548716
 30
0.0
 11
3629.5058
 21
-136.5909834548716
 31
0.0
  0
LINE
  5
2398B
330
18
100
AcDbEntity
  8
0
  6
BYBLOCK
100
AcDbLine
 10
3629.5058
 20
-136.5909834548716
 30
0.0
 11
3619.5058
 21
-139.2704753548716
 31
0.0
  0
LINE
  5
2398C
330
18
100
AcDbEntity
  8
0
  6
BYBLOCK
100
AcDbLine
 10
3629.5058
 20
-136.5909834548716
 30
0.0
 11
3619.5058
 21
-136.5909834548716
 31
0.0
  0
TEXT
  5
2398D
330
18
100
AcDbEntity
  8
1DIM
  6
CONTINUOUS
100
AcDbText
 10
3509.445033873604
 20
-133.0909834548716
 30
0.0
 40
17.5
  1
P36.5
100
AcDbText
1001
ACAD
1000
DSTYLE
1002
{
1070
    40
1040
5.0
1002
}
  0
LINE
  5
2398E
330
18
100
AcDbEntity
  8
0
  6
BYBLOCK
100
AcDbLine
 10
3583.005797762492
 20
-85.59261819504904
 30
0.0
 11
3593.005797762492
 21
-88.27211009504904
 31
0.0
  0
LINE
  5
2398F
330
18
100
AcDbEntity
  8
0
  6
BYBLOCK
100
AcDbLine
 10
3593.005797762492
 20
-88.27211009504904
 30
0.0
 11
3583.005797762492
 21
-90.95160199504905
 31
0.0
  0
LINE
  5
23990
330
18
100
AcDbEntity
  8
0
  6
BYBLOCK
100
AcDbLine
 10
3593.005797762492
 20
-88.27211009504904
 30
0.0
 11
3583.005797762492
 21
-88.27211009504904
 31
0.0
  0
LINE
  5
23991
330
18
100
AcDbEntity
  8
0
  6
BYBLOCK
100
AcDbLine
 10
2529.005797762492
 20
-90.95160199504905
 30
0.0
 11
2519.005797762492
 21
-88.27211009504904
 31
0.0
  0
LINE
  5
23992
330
18
100
AcDbEntity
  8
0
  6
BYBLOCK
100
AcDbLine
 10
2519.005797762492
 20
-88.27211009504904
 30
0.0
 11
2529.005797762492
 21
-85.59261819504904
 31
0.0
  0
LINE
  5
23993
330
18
100
AcDbEntity
  8
0
  6
BYBLOCK
100
AcDbLine
 10
2519.005797762492
 20
-88.27211009504904
 30
0.0
 11
2529.005797762492
 21
-88.27211009504904
 31
0.0
  0
TEXT
  5
23994
330
18
100
AcDbEntity
  8
1DIM
  6
CONTINUOUS
100
AcDbText
 10
3019.547464429159
 20
-84.77211009504904
 30
0.0
 40
17.5
  1
P1074
100
AcDbText
1001
ACAD
1000
DSTYLE
1002
{
1070
    40
1040
5.0
1002
}
  0
LINE
  5
23995
330
18
100
AcDbEntity
  8
0
  6
BYBLOCK
100
AcDbLine
 10
4023.422203116364
 20
546.5985406208255
 30
0.0
 11
4020.742711216365
 21
536.5985406208255
 31
0.0
  0
LINE
  5
23996
330
18
100
AcDbEntity
  8
0
  6
BYBLOCK
100
AcDbLine
 10
4020.742711216365
 20
536.5985406208255
 30
0.0
 11
4018.063219316365
 21
546.5985406208255
 31
0.0
  0
LINE
  5
23997
330
18
100
AcDbEntity
  8
0
  6
BYBLOCK
100
AcDbLine
 10
4020.742711216365
 20
536.5985406208255
 30
0.0
 11
4020.742711216365
 21
546.5985406208255
 31
0.0
  0
LINE
  5
23998
330
18
100
AcDbEntity
  8
0
  6
BYBLOCK
100
AcDbLine
 10
4018.063219316365
 20
559.598540620825
 30
0.0
 11
4020.742711216365
 21
569.598540620825
 31
0.0
  0
LINE
  5
23999
330
18
100
AcDbEntity
  8
0
  6
BYBLOCK
100
AcDbLine
 10
4020.742711216365
 20
569.598540620825
 30
0.0
 11
4023.422203116364
 21
559.598540620825
 31
0.0
  0
LINE
  5
2399A
330
18
100
AcDbEntity
  8
0
  6
BYBLOCK
100
AcDbLine
 10
4020.742711216365
 20
569.598540620825
 30
0.0
 11
4020.742711216365
 21
559.598540620825
 31
0.0
  0
TEXT
  5
2399B
330
18
100
AcDbEntity
  8
1DIM
  6
CONTINUOUS
100
AcDbText
 10
4017.242711216364
 20
582.6818739541582
 30
0.0
 40
17.5
  1
33
 50
90.0
100
AcDbText
1001
ACAD
1000
DSTYLE
1002
{
1070
    40
1040
5.0
1002
}
  0
LINE
  5
2399C
330
18
100
AcDbEntity
  8
0
  6
BYBLOCK
100
AcDbLine
 10
3874.956506099464
 20
-88.40469438101265
 30
0.0
 11
3864.956506099464
 21
-85.72520248101264
 31
0.0
  0
LINE
  5
2399D
330
18
100
AcDbEntity
  8
0
  6
BYBLOCK
100
AcDbLine
 10
3864.956506099464
 20
-85.72520248101264
 30
0.0
 11
3874.956506099464
 21
-83.04571058101264
 31
0.0
  0
LINE
  5
2399E
330
18
100
AcDbEntity
  8
0
  6
BYBLOCK
100
AcDbLine
 10
3864.956506099464
 20
-85.72520248101264
 30
0.0
 11
3874.956506099464
 21
-85.72520248101264
 31
0.0
  0
LINE
  5
2399F
330
18
100
AcDbEntity
  8
0
  6
BYBLOCK
100
AcDbLine
 10
3838.956506099464
 20
-83.04571058101264
 30
0.0
 11
3848.956506099464
 21
-85.72520248101264
 31
0.0
  0
LINE
  5
239A0
330
18
100
AcDbEntity
  8
0
  6
BYBLOCK
100
AcDbLine
 10
3848.956506099464
 20
-85.72520248101264
 30
0.0
 11
3838.956506099464
 21
-88.40469438101265
 31
0.0
  0
LINE
  5
239A1
330
18
100
AcDbEntity
  8
0
  6
BYBLOCK
100
AcDbLine
 10
3848.956506099464
 20
-85.72520248101264
 30
0.0
 11
3838.956506099464
 21
-85.72520248101264
 31
0.0
  0
TEXT
  5
239A2
330
18
100
AcDbEntity
  8
1DIM
  6
CONTINUOUS
100
AcDbText
 10
3800.873172766131
 20
-82.22520248101264
 30
0.0
 40
17.5
  1
16
100
AcDbText
1001
ACAD
1000
DSTYLE
1002
{
1070
    40
1040
5.0
1002
}
  0
LINE
  5
239A3
330
18
100
AcDbEntity
  8
0
  6
BYBLOCK
100
AcDbLine
 10
4018.063219316365
 20
526.5984475490294
 30
0.0
 11
4020.742711216365
 21
536.5984475490294
 31
0.0
  0
LINE
  5
239A4
330
18
100
AcDbEntity
  8
0
  6
BYBLOCK
100
AcDbLine
 10
4020.742711216365
 20
536.5984475490294
 30
0.0
 11
4023.422203116364
 21
526.5984475490294
 31
0.0
  0
LINE
  5
239A5
330
18
100
AcDbEntity
  8
0
  6
BYBLOCK
100
AcDbLine
 10
4020.742711216365
 20
536.5984475490294
 30
0.0
 11
4020.742711216365
 21
526.5984475490294
 31
0.0
  0
LINE
  5
239A6
330
18
100
AcDbEntity
  8
0
  6
BYBLOCK
100
AcDbLine
 10
4023.422203116364
 20
12.59854062083277
 30
0.0
 11
4020.742711216365
 21
2.598540620832773
 31
0.0
  0
LINE
  5
239A7
330
18
100
AcDbEntity
  8
0
  6
BYBLOCK
100
AcDbLine
 10
4020.742711216365
 20
2.598540620832773
 30
0.0
 11
4018.063219316365
 21
12.59854062083277
 31
0.0
  0
LINE
  5
239A8
330
18
100
AcDbEntity
  8
0
  6
BYBLOCK
100
AcDbLine
 10
4020.742711216365
 20
2.598540620832773
 30
0.0
 11
4020.742711216365
 21
12.59854062083277
 31
0.0
  0
TEXT
  5
239A9
330
18
100
AcDbEntity
  8
1DIM
  6
CONTINUOUS
100
AcDbText
 10
4017.242711216364
 20
237.454396862709
 30
0.0
 40
17.5
  1
P534
 50
90.0
100
AcDbText
1001
ACAD
1000
DSTYLE
1002
{
1070
    40
1040
5.0
1002
}
  0
LINE
  5
239AA
330
18
100
AcDbEntity
  8
0
  6
BYBLOCK
100
AcDbLine
 10
3772.96764992023
 20
559.598540620825
 30
0.0
 11
3775.64714182023
 21
569.598540620825
 31
0.0
  0
LINE
  5
239AB
330
18
100
AcDbEntity
  8
0
  6
BYBLOCK
100
AcDbLine
 10
3775.64714182023
 20
569.598540620825
 30
0.0
 11
3778.326633720229
 21
559.598540620825
 31
0.0
  0
LINE
  5
239AC
330
18
100
AcDbEntity
  8
0
  6
BYBLOCK
100
AcDbLine
 10
3775.64714182023
 20
569.598540620825
 30
0.0
 11
3775.64714182023
 21
559.598540620825
 31
0.0
  0
LINE
  5
239AD
330
18
100
AcDbEntity
  8
0
  6
BYBLOCK
100
AcDbLine
 10
3778.326633720229
 20
-20.40145937917404
 30
0.0
 11
3775.64714182023
 21
-30.40145937917404
 31
0.0
  0
LINE
  5
239AE
330
18
100
AcDbEntity
  8
0
  6
BYBLOCK
100
AcDbLine
 10
3775.64714182023
 20
-30.40145937917404
 30
0.0
 11
3772.96764992023
 21
-20.40145937917404
 31
0.0
  0
LINE
  5
239AF
330
18
100
AcDbEntity
  8
0
  6
BYBLOCK
100
AcDbLine
 10
3775.64714182023
 20
-30.40145937917404
 30
0.0
 11
3775.64714182023
 21
-20.40145937917404
 31
0.0
  0
TEXT
  5
239B0
330
18
100
AcDbEntity
  8
1DIM
  6
CONTINUOUS
100
AcDbText
 10
3772.14714182023
 20
248.7565267319369
 30
0.0
 40
17.5
  1
600
 50
90.0
100
AcDbText
1001
ACAD
1000
DSTYLE
1002
{
1070
    40
1040
5.0
1002
}
  0
LINE
  5
239B1
330
18
100
AcDbEntity
  8
0
  6
BYBLOCK
100
AcDbLine
 10
2492.505797762492
 20
-131.434982377603
 30
0.0
 11
2482.505797762492
 21
-128.755490477603
 31
0.0
  0
LINE
  5
239B2
330
18
100
AcDbEntity
  8
0
  6
BYBLOCK
100
AcDbLine
 10
2482.505797762492
 20
-128.755490477603
 30
0.0
 11
2492.505797762492
 21
-126.075998577603
 31
0.0
  0
LINE
  5
239B3
330
18
100
AcDbEntity
  8
0
  6
BYBLOCK
100
AcDbLine
 10
2482.505797762492
 20
-128.755490477603
 30
0.0
 11
2492.505797762492
 21
-128.755490477603
 31
0.0
  0
LINE
  5
239B4
330
18
100
AcDbEntity
  8
0
  6
BYBLOCK
100
AcDbLine
 10
2509.005797762492
 20
-126.075998577603
 30
0.0
 11
2519.005797762492
 21
-128.755490477603
 31
0.0
  0
LINE
  5
239B5
330
18
100
AcDbEntity
  8
0
  6
BYBLOCK
100
AcDbLine
 10
2519.005797762492
 20
-128.755490477603
 30
0.0
 11
2509.005797762492
 21
-131.434982377603
 31
0.0
  0
LINE
  5
239B6
330
18
100
AcDbEntity
  8
0
  6
BYBLOCK
100
AcDbLine
 10
2519.005797762492
 20
-128.755490477603
 30
0.0
 11
2509.005797762492
 21
-128.755490477603
 31
0.0
  0
TEXT
  5
239B7
330
18
100
AcDbEntity
  8
1DIM
  6
CONTINUOUS
100
AcDbText
 10
2532.445033873604
 20
-125.255490477603
 30
0.0
 40
17.5
  1
P36.5
100
AcDbText
1001
ACAD
1000
DSTYLE
1002
{
1070
    40
1040
5.0
1002
}
  0
VIEWPORT
  5
57
330
15
100
AcDbEntity
 67
     1
  8
0
100
AcDbViewport
 68
     1
 10
0.0
 20
0.0
 30
0.0
 40
535.5106132075472
 41
297.0
 68
     1
 69
     1
1001
ACAD
1000
MVIEW
1002
{
1070
    16
1010
0.0
1020
0.0
1030
0.0
1010
0.0
1020
0.0
1030
1.0
1040
0.0
1040
297.0
1040
-4.171999999925362
1040
12.83903210976956
1040
50.0
1040
0.0
1040
0.0
1070
    16
1070
   100
1070
     0
1070
     1
1070
     0
1070
     0
1070
     0
1070
     0
1040
0.0
1040
0.0
1040
0.0
1040
10.0
1040
10.0
1040
10.0
1040
10.0
1070
     0
1002
{
1002
}
1002
}
  0
ENDSEC
  0
SECTION
  2
OBJECTS
  0
DICTIONARY
  5
C
330
0
100
AcDbDictionary
  3
ACAD_COLOR
350
2D0
  3
ACAD_GROUP
350
D
  3
ACAD_LAYOUT
350
2D1
  3
ACAD_MATERIAL
350
2CF
  3
ACAD_MLEADERSTYLE
350
19E18
  3
ACAD_MLINESTYLE
350
1B
  3
ACAD_PLOTSETTINGS
350
2D2
  3
ACAD_SCALELIST
350
19DF6
  3
ACAD_VISUALSTYLE
350
19DE5
  3
ACDBHEADERROUNDTRIPXREC
350
239B8
  3
ACDBVARIABLEDICTIONARY
350
37
  3
CONTENTDICTIONARY
350
D8
  3
DRAWINGVARIABLESDICT
350
20
  3
DWGPROPS
350
239BB
1001
ACAD
1000
TREAT_AS_HARD
1070
     0
  0
DICTIONARY
  5
18FE8
330
2
100
AcDbDictionary
  3
ACAD_LAYERSTATES
360
18FE9
1001
ACAD
1000
TREAT_AS_HARD
1070
     1
  0
DICTIONARY
  5
1A20A
330
E
100
AcDbDictionary
  3
ADSK_XREC_LAYER_RECONCILED
360
1A20B
1001
ACAD
1000
TREAT_AS_HARD
1070
     1
  0
DICTIONARY
  5
1A20C
330
29
100
AcDbDictionary
  3
ADSK_XREC_LAYER_RECONCILED
360
1A20D
1001
ACAD
1000
TREAT_AS_HARD
1070
     1
  0
DICTIONARY
  5
1A20E
330
31
100
AcDbDictionary
  3
ADSK_XREC_LAYER_RECONCILED
360
1A20F
1001
ACAD
1000
TREAT_AS_HARD
1070
     1
  0
DICTIONARY
  5
1A218
330
101
100
AcDbDictionary
  3
ADSK_XREC_LAYER_RECONCILED
360
1A219
1001
ACAD
1000
TREAT_AS_HARD
1070
     1
  0
DICTIONARY
  5
1A21A
330
102
100
AcDbDictionary
  3
ADSK_XREC_LAYER_RECONCILED
360
1A21B
1001
ACAD
1000
TREAT_AS_HARD
1070
     1
  0
DICTIONARY
  5
1A220
330
25F
100
AcDbDictionary
  3
ADSK_XREC_LAYER_RECONCILED
360
1A221
1001
ACAD
1000
TREAT_AS_HARD
1070
     1
  0
DICTIONARY
  5
6E9
330
18
100
AcDbDictionary
  3
ACAD_SORTENTS
360
6EA
1001
ACAD
1000
TREAT_AS_HARD
1070
     1
  0
DICTIONARY
  5
59B
330
15
100
AcDbDictionary
  3
ACAD_SORTENTS
360
59C
1001
ACAD
1000
TREAT_AS_HARD
1070
     1
  0
DICTIONARY
  5
20461
330
20460
100
AcDbDictionary
  3
ACAD_SORTENTS
360
20462
1001
ACAD
1000
TREAT_AS_HARD
1070
     1
  0
DICTIONARY
  5
2D0
102
{ACAD_REACTORS
330
C
102
}
330
C
100
AcDbDictionary
1001
ACAD
1000
TREAT_AS_HARD
1070
     0
  0
DICTIONARY
  5
D
102
{ACAD_REACTORS
330
C
102
}
330
C
100
AcDbDictionary
  3
*A1
350
22916
  3
*A2
350
229DB
  3
*A3
350
22B29
  3
*A4
350
22B2A
  3
*A5
350
22E3B
  3
*A6
350
22EC8
1001
ACAD
1000
TREAT_AS_HARD
1070
     0
  0
DICTIONARY
  5
2D1
102
{ACAD_REACTORS
330
C
102
}
330
C
100
AcDbDictionary
1001
ACAD
1000
TREAT_AS_HARD
1070
     0
  0
DICTIONARY
  5
2CF
102
{ACAD_REACTORS
330
C
102
}
330
C
100
AcDbDictionary
  3
BYBLOCK
350
19DD5
  3
BYLAYER
350
19DCD
  3
GLOBAL
350
19DDD
1001
ACAD
1000
TREAT_AS_HARD
1070
     0
  0
DICTIONARY
  5
19E18
102
{ACAD_REACTORS
330
C
102
}
330
C
100
AcDbDictionary
  3
BALLOONS10
350
20F62
  3
BALLOONS5
350
20459
  3
STANDARD
350
19E19
1001
ACAD
1000
TREAT_AS_HARD
1070
     0
  0
DICTIONARY
  5
1B
102
{ACAD_REACTORS
330
C
102
}
330
C
100
AcDbDictionary
  3
STANDARD
350
1C
1001
ACAD
1000
TREAT_AS_HARD
1070
     0
  0
DICTIONARY
  5
2D2
102
{ACAD_REACTORS
330
C
102
}
330
C
100
AcDbDictionary
1001
ACAD
1000
TREAT_AS_HARD
1070
     0
  0
DICTIONARY
  5
19DF6
102
{ACAD_REACTORS
330
C
102
}
330
C
100
AcDbDictionary
  3
A0
350
19DF7
  3
A1
350
19DF8
  3
A2
350
19DF9
  3
A3
350
19DFA
  3
A4
350
19DFB
  3
A5
350
19DFC
  3
A6
350
19DFD
  3
A7
350
19DFE
  3
A8
350
19DFF
  3
A9
350
19E00
  3
B0
350
19E01
  3
B1
350
19E02
  3
B2
350
19E03
  3
B3
350
19E04
  3
B4
350
19E05
  3
B5
350
19E06
  3
B6
350
19E07
  3
B7
350
19E08
  3
B8
350
19E09
  3
B9
350
19E0A
  3
C0
350
19E0B
  3
C1
350
19E0C
  3
C2
350
19E0D
  3
C3
350
19E0E
  3
C4
350
19E0F
  3
C5
350
19E10
  3
C6
350
19E11
  3
C7
350
19E12
  3
C8
350
19E13
  3
C9
350
19E14
  3
D0
350
19E15
  3
D1
350
19E16
  3
D2
350
19E17
1001
ACAD
1000
TREAT_AS_HARD
1070
     0
  0
DICTIONARY
  5
19DE5
102
{ACAD_REACTORS
330
C
102
}
330
C
100
AcDbDictionary
  3
2DWIREFRAME
350
19DEB
  3
3D_HIDDEN
350
19DED
  3
3DWIREFRAME
350
19DEC
  3
BASIC
350
19DEA
  3
BRIGHTEN
350
19DF1
  3
COLORCHANGE
350
19DF5
  3
CONCEPTUAL
350
19DEE
  3
DIM
350
19DF0
  3
EDGECOLOROFF
350
1E02A
  3
FACEPATTERN
350
19DF4
  3
FLAT
350
19DE6
  3
FLATWITHEDGES
350
19DE7
  3
GOURAUD
350
19DE8
  3
GOURAUDWITHEDGES
350
19DE9
  3
HIDDEN
350
1FBC7
  3
JITTEROFF
350
1E028
  3
LINEPATTERN
350
19DF3
  3
MODELING
350
1FBCD
  3
OVERHANGOFF
350
1E029
  3
REALISTIC
350
19DEF
  3
SHADED
350
1FBCC
  3
SHADED_WITH_EDGES
350
1FBCB
  3
SHADES_OF_GRAY
350
1FBC8
  3
SKETCHY
350
1FBC9
  3
THICKEN
350
19DF2
  3
WIREFRAME
350
1FBC6
  3
X-RAY
350
1FBCA
1001
ACAD
1000
TREAT_AS_HARD
1070
     0
  0
DICTIONARY
  5
239B8
102
{ACAD_REACTORS
330
C
102
}
330
C
100
AcDbDictionary
  3
COLORDICT
350
239B9
  3
MATERIALDICT
350
239BA
1001
ACAD
1000
TREAT_AS_HARD
1070
     0
  0
DICTIONARY
  5
37
102
{ACAD_REACTORS
330
C
102
}
330
C
100
AcDbDictionary
  3
CANNOSCALE
350
20376
  3
CMLEADERSTYLE
350
1AC19
  3
CTABLESTYLE
350
4F1
  3
DIMADEC
350
38
  3
DIMASSOC
350
408
  3
HIDETEXT
350
1891
  3
INDEXCTL
350
1AC1C
  3
INTERSECTIONCOLOR
350
1895
  3
INTERSECTIONDISPLAY
350
1894
  3
MSLTSCALE
350
203CC
  3
OBSCOLOR
350
1892
  3
OBSLTYPE
350
1893
  3
PROJECTNAME
350
409
  3
SORTENTS
350
1AC1B
  3
XCLIPFRAME
350
1FBC5
1001
ACAD
1000
TREAT_AS_HARD
1070
     0
  0
DICTIONARY
  5
D8
102
{ACAD_REACTORS
330
C
102
}
330
C
100
AcDbDictionary
1001
CONTENTTABDATA
1070
    11
1000
Child
1000
D:\ACLT\TABset\CHILDREN.dwg
1070
     0
1070
     0
1070
     1
1000
PK
1000
D:\ACLT\TABset\PK.dwg
1070
     0
1070
     0
1070
     1
1000
Lev1
1000
D:\ACLT\TABset\Lever01.dwg
1070
     0
1070
     0
1070
     1
1000
Lev2
1000
D:\ACLT\TABset\Lever02.dwg
1070
     0
1070
     0
1070
     1
1000
L3
1000
D:\Aclt\TABset\Lever03.dwg
1070
     0
1070
     0
1070
     1
1000
Form
1000
D:\ACLT\FORMAT
1070
     1
1070
     0
1070
     1
1000
Jnt
1000
D:\ACLT\TABset\JOINTPARTS.dwg
1070
     0
1070
     0
1070
     1
1000
ISO
1000
D:\ACLT\TABset\Isome01.dwg
1070
     0
1070
     0
1070
     1
1000
R
1000
D:\ACLT\TABset\REGION.dwg
1070
     0
1070
     0
1070
     1
1000
std
1000
D:\ACLT\TABset\std_sym_all.dwg
1070
     0
1070
     0
1070
     1
1000
丸
1000
D:\Aclt\TABset\MARU.dwg
1070
     0
1070
     0
1070
     1
1001
CONTENTCURRENTTAB
1070
     0
1001
ACAD
1000
TREAT_AS_HARD
1070
     0
  0
DICTIONARY
  5
20
102
{ACAD_REACTORS
330
C
102
}
330
C
100
AcDbDictionary
1001
DRAWINGVARIABLESXDATA
1000
POLARANG
1000
0.261799387799149410000000
1000
POLARMODE
1000
1
1000
POLARSTYLE
1000
1
1001
ACAD
1000
TREAT_AS_HARD
1070
     0
  0
XRECORD
  5
239BB
102
{ACAD_REACTORS
330
C
102
}
330
C
100
AcDbXrecord
  1
DWGPROPS COOKIE
  2

  3

  4

  6

  7

  8
3684
  9

300
=
301
=
302
=
303
=
304
=
305
=
306
=
307
=
308
=
309
=
 40
0.0
 41
2453033.357663484
 42
2459111.297076389
  1

 90
        0
  0
DICTIONARY
  5
18FE9
102
{ACAD_REACTORS
330
18FE8
102
}
330
18FE8
100
AcDbDictionary
1001
ACAD
1000
TREAT_AS_HARD
1070
     0
  0
ACAD_PROXY_OBJECT
  5
1A20B
102
{ACAD_REACTORS
330
1A20A
102
}
330
1A20A
100
AcDbZombieObject
 90
      499
 91
      518
 93
       34
310
40C8804040
  0
ACAD_PROXY_OBJECT
  5
1A20D
102
{ACAD_REACTORS
330
1A20C
102
}
330
1A20C
100
AcDbZombieObject
 90
      499
 91
      518
 93
       34
310
40C8804040
  0
ACAD_PROXY_OBJECT
  5
1A20F
102
{ACAD_REACTORS
330
1A20E
102
}
330
1A20E
100
AcDbZombieObject
 90
      499
 91
      518
 93
       34
310
40C8804040
  0
ACAD_PROXY_OBJECT
  5
1A219
102
{ACAD_REACTORS
330
1A218
102
}
330
1A218
100
AcDbZombieObject
 90
      499
 91
      518
 93
       34
310
40C8804040
  0
ACAD_PROXY_OBJECT
  5
1A21B
102
{ACAD_REACTORS
330
1A21A
102
}
330
1A21A
100
AcDbZombieObject
 90
      499
 91
      518
 93
       34
310
40C8804040
  0
ACAD_PROXY_OBJECT
  5
1A221
102
{ACAD_REACTORS
330
1A220
102
}
330
1A220
100
AcDbZombieObject
 90
      499
 91
      518
 93
       34
310
40C8804040
  0
SORTENTSTABLE
  5
6EA
102
{ACAD_REACTORS
330
6E9
102
}
330
6E9
100
AcDbSortentsTable
330
18
331
0
  5
99AB
331
0
  5
AB53
331
0
  5
AB54
331
0
  5
ECB5
331
228A0
  5
22998
331
22995
  5
2299D
331
22996
  5
2299E
331
22997
  5
2299F
331
22998
  5
229A0
331
22999
  5
229A1
331
2299A
  5
229A2
331
2299B
  5
229A3
331
2299C
  5
229A4
331
2299D
  5
229A5
331
2299E
  5
229A6
331
2299F
  5
229A7
331
229A0
  5
229A8
331
229A1
  5
229A9
331
229A2
  5
229AA
331
229A3
  5
229AB
331
229A4
  5
229AC
331
229A5
  5
229AD
331
229A6
  5
229AE
331
229A7
  5
229AF
331
229A8
  5
229B0
331
229A9
  5
229B1
331
229AA
  5
229B2
331
229AB
  5
229B3
331
229AC
  5
229B4
331
229AD
  5
229B5
331
229AE
  5
229B6
331
229AF
  5
229B7
331
229B0
  5
229B8
331
229B1
  5
229B9
331
229B2
  5
229BA
331
229B3
  5
229BB
331
229B4
  5
229BC
331
229B5
  5
229BD
331
229B6
  5
229BE
331
229B7
  5
229BF
331
229B8
  5
229C0
331
229B9
  5
229C1
331
229BA
  5
229C2
331
229BB
  5
229C3
331
229BC
  5
229C4
331
229BD
  5
229C5
331
229BE
  5
229C6
331
229BF
  5
229C7
331
229C0
  5
229C8
331
229C1
  5
229C9
331
229C2
  5
229CA
331
229C3
  5
229CB
331
229C4
  5
229CC
331
229C5
  5
229CD
331
229C6
  5
229CE
331
229C7
  5
229CF
331
229C8
  5
229D0
331
229C9
  5
229D1
331
229CA
  5
229D2
331
229CB
  5
229D3
331
229CC
  5
229D4
331
229CD
  5
229D5
331
229CE
  5
229D6
331
229CF
  5
229D7
331
229D0
  5
229D8
331
229D1
  5
229D9
331
229D2
  5
229DA
331
229D3
  5
22A9D
331
229D4
  5
22A9E
331
229D5
  5
22A9F
331
229D6
  5
22AA0
331
229D7
  5
22AA1
331
229D8
  5
22AA2
331
229D9
  5
22AA3
331
229DA
  5
22AA4
331
22A9D
  5
22AA5
331
22A9E
  5
22AA6
331
22A9F
  5
22AA7
331
22AA0
  5
22AA8
331
22AA1
  5
22AA9
331
22AA2
  5
22AAA
331
22AA3
  5
22AAB
331
22AA4
  5
22AAC
331
22AA5
  5
22AAD
331
22AA6
  5
22AAE
331
22AA7
  5
22AAF
331
22AA8
  5
22AB0
331
22AA9
  5
22AB1
331
22AAA
  5
22AB2
331
22AAB
  5
22AB3
331
22AAC
  5
22AB4
331
22AAD
  5
22AB5
331
22AAE
  5
22AB6
331
22AAF
  5
22AB7
331
22AB0
  5
22AB8
331
22AB1
  5
22AB9
331
22AB2
  5
22ABA
331
22AB3
  5
22ABB
331
22AB4
  5
22ABC
331
22AB5
  5
22ABD
331
22AB6
  5
22ABE
331
22AB7
  5
22ABF
331
22AB8
  5
22AC0
331
22AB9
  5
22AC1
331
22ABA
  5
22AC2
331
22ABB
  5
22AC3
331
22ABC
  5
22AC4
331
22ABD
  5
22AC5
331
22ABE
  5
22AC6
331
22ABF
  5
22AC7
331
22AC0
  5
22AC8
331
22AC1
  5
22AC9
331
22AC2
  5
22ACA
331
22AC3
  5
22ACB
331
22AC4
  5
22ACC
331
22AC5
  5
22ACD
331
22AC6
  5
22ACE
331
22AC7
  5
22ACF
331
22AC8
  5
22AD0
331
22AC9
  5
22AD1
331
22ACA
  5
22AD2
331
22ACB
  5
22AD3
331
22ACC
  5
22AD4
331
22ACD
  5
22AD5
331
22ACE
  5
22AD6
331
22ACF
  5
22AD7
331
22AD0
  5
22AD8
331
22AD1
  5
22AD9
331
22AD2
  5
22ADA
331
22AD3
  5
22ADB
331
22AD4
  5
22ADC
331
22AD5
  5
22ADD
331
22AD6
  5
22ADE
331
22AD7
  5
22ADF
331
22AD8
  5
22AE0
331
22AD9
  5
22AE1
331
22ADA
  5
22AE2
331
22ADB
  5
22AE3
331
22ADC
  5
22AE4
331
22ADD
  5
22AE5
331
22ADE
  5
22AE6
331
22ADF
  5
22AE7
331
22AE0
  5
22AE8
331
22AE1
  5
22AE9
331
22AE2
  5
22AEA
331
22AE3
  5
22AEB
331
22AE4
  5
22AEC
331
22AE5
  5
22AED
331
22AE6
  5
22AEE
331
22AE7
  5
22AEF
331
22AE8
  5
22AF0
331
22AE9
  5
22AF1
331
22AEA
  5
22AF2
331
22AEB
  5
22AF3
331
22AEC
  5
22AF4
331
22AED
  5
22AF5
331
22AEE
  5
22AF6
331
22AEF
  5
22AF7
331
22AF0
  5
22AF8
331
22AF1
  5
22AF9
331
22AF2
  5
22AFA
331
22AF3
  5
22AFB
331
22AF4
  5
22AFC
331
22AF5
  5
22AFD
331
22AF6
  5
22AFE
331
22AF7
  5
22AFF
331
22AF8
  5
22B00
331
22AF9
  5
22B01
331
22AFA
  5
22B02
331
22AFB
  5
22B03
331
22AFC
  5
22B04
331
22AFD
  5
22B05
331
22AFE
  5
22B06
331
22AFF
  5
22B07
331
22B00
  5
22B08
331
22B01
  5
22B09
331
22B02
  5
22B0A
331
22B03
  5
22B0B
331
22B04
  5
22B0C
331
22B05
  5
22B0D
331
22B06
  5
22B0E
331
22B07
  5
22B0F
331
22B08
  5
22B10
331
22B09
  5
22B11
331
22B0A
  5
22B12
331
22B0B
  5
22B13
331
22B0C
  5
22B14
331
22B0D
  5
22B15
331
22B0E
  5
22B16
331
22B0F
  5
22B17
331
22B10
  5
22B18
331
22B11
  5
22B19
331
22B12
  5
22B1A
331
22B13
  5
22B1B
331
22B14
  5
22B1C
331
22B15
  5
22B1D
331
22B16
  5
22B1E
331
22B17
  5
22B1F
331
22B18
  5
22B20
331
22B19
  5
22B21
331
22B1A
  5
22B22
331
22B1B
  5
22B23
331
22B1C
  5
22B24
331
22B1D
  5
22B25
331
22B1E
  5
22B26
331
22B1F
  5
22B27
331
22B20
  5
22B28
331
22B21
  5
22CFD
331
22B22
  5
22CFE
331
22B23
  5
22D5E
331
22B24
  5
22D5F
331
22B25
  5
22D60
331
22B26
  5
22D61
331
22B27
  5
22D62
331
22B28
  5
22D63
331
22CFD
  5
22D64
331
22CFE
  5
22D65
331
22D5E
  5
22D6A
331
22D5F
  5
22D6B
331
22D60
  5
22D6C
331
22D61
  5
22D6D
331
22D62
  5
22D6E
331
22D63
  5
22D6F
331
22D64
  5
22D70
331
22D65
  5
22D71
331
22D66
  5
22D72
331
22D67
  5
22D73
331
22D68
  5
22D74
331
22D69
  5
22D75
331
22D6A
  5
22D76
331
22D6B
  5
22D77
331
22D6C
  5
22D78
331
22D6D
  5
22D79
331
22D6E
  5
22D7A
331
22D6F
  5
22D7B
331
22D70
  5
22D7C
331
22D71
  5
22D7D
331
22D72
  5
22D7E
331
22D73
  5
22D7F
331
22D74
  5
22D80
331
22D75
  5
22D81
331
22D76
  5
22D82
331
22D77
  5
22D83
331
22D78
  5
22D84
331
22D79
  5
22D85
331
22D7A
  5
22D86
331
22D7B
  5
22D87
331
22D7C
  5
22D88
331
22D7D
  5
22D89
331
22D7E
  5
22D8A
331
22D7F
  5
22D8B
331
22D80
  5
22D8C
331
22D81
  5
22D8D
331
22D82
  5
22D8E
331
22D83
  5
22D8F
331
22D84
  5
22D90
331
22D85
  5
22D91
331
22D86
  5
22D92
331
22D87
  5
22D93
331
22D88
  5
22D94
331
22D89
  5
22D95
331
22D8A
  5
22D96
331
22D8B
  5
22D97
331
22D8C
  5
22D98
331
22D8D
  5
22D99
331
22D8E
  5
22D9A
331
22D8F
  5
22D9B
331
22D90
  5
22D9C
331
22D91
  5
22D9D
331
22D92
  5
22D9E
331
22D93
  5
22D9F
331
22D94
  5
22DA0
331
22D95
  5
22DA1
331
22D96
  5
22DA2
331
22D97
  5
22DA3
331
22D98
  5
22DFA
331
22D99
  5
22E09
331
22D9A
  5
22E27
331
22D9B
  5
22E3C
331
22D9C
  5
22E3D
331
22D9D
  5
22E3E
331
22D9E
  5
22E3F
331
22D9F
  5
22E40
331
22DA0
  5
22E41
331
22DA1
  5
22E42
331
22DA2
  5
22E43
331
22DA3
  5
22E44
331
0
  5
22E45
331
0
  5
22E46
331
0
  5
22E47
331
22E3C
  5
22E70
331
22E3D
  5
22E71
331
22E3E
  5
22E72
331
22E3F
  5
22E73
331
22E40
  5
22E74
331
22E41
  5
22E75
331
22E42
  5
22E76
331
22E43
  5
22E77
331
22E44
  5
22E78
331
22E45
  5
22E79
331
22E46
  5
22E7A
331
22E47
  5
22E7B
331
22E48
  5
22E7C
331
22E49
  5
22E7D
331
22E4A
  5
22E7E
331
22E4B
  5
22E7F
331
22E4C
  5
22E80
331
22E4D
  5
22E81
331
22E4E
  5
22F2D
331
22E4F
  5
22F2E
331
22E50
  5
22F2F
331
22E51
  5
22F30
331
22E52
  5
22F34
331
22E53
  5
22F35
331
22E54
  5
22F37
331
22E55
  5
22F3F
331
22E56
  5
22F43
331
22E57
  5
22F58
331
22E58
  5
22F5A
331
22E59
  5
22F7D
331
22E5A
  5
22FAD
331
22E5B
  5
23165
331
22E5C
  5
23169
331
22E5D
  5
2316F
331
22E5E
  5
23170
331
22E5F
  5
23171
331
22E60
  5
23172
331
22E61
  5
23173
331
22E62
  5
23174
331
22E63
  5
23175
331
22E64
  5
23176
331
22E65
  5
23177
331
22E66
  5
2317D
331
22E67
  5
2317E
331
22E68
  5
23245
331
22E69
  5
23249
331
22E6A
  5
232D8
331
22E6B
  5
232D9
331
22E6C
  5
232DA
331
22E6D
  5
232DB
331
22E6E
  5
232DC
331
22E6F
  5
232DD
331
22E70
  5
232DE
331
22E71
  5
232DF
331
22E72
  5
23773
331
22E73
  5
23929
331
22E74
  5
2392C
331
22E75
  5
2392D
331
22E76
  5
2392E
331
22E77
  5
2392F
331
22E78
  5
23930
331
22E79
  5
23931
331
22E7A
  5
23932
331
22E7B
  5
23937
331
22E7C
  5
23938
331
22E7D
  5
23939
331
22E7E
  5
2393A
331
22E7F
  5
2393B
331
22E80
  5
2393C
331
22E81
  5
2393D
331
22F2D
  5
2393E
331
0
  5
22FF3
331
0
  5
22FF7
331
0
  5
23163
331
0
  5
23164
331
22F35
  5
23950
331
0
  5
23166
331
0
  5
23167
331
0
  5
23168
331
22F58
  5
23960
331
0
  5
2316A
331
0
  5
2316B
331
0
  5
2316C
331
0
  5
2316D
331
0
  5
2316E
331
23163
  5
23989
331
23164
  5
2398A
331
23165
  5
2398B
331
23166
  5
2398C
331
23167
  5
2398D
331
23168
  5
2398E
331
23169
  5
2398F
331
2316A
  5
23990
331
2316B
  5
23991
331
2316C
  5
23992
331
2316D
  5
23993
331
2316E
  5
23994
331
2316F
  5
23995
331
23170
  5
23996
331
23171
  5
23997
331
23172
  5
23998
331
23173
  5
23999
331
23174
  5
2399A
331
23175
  5
2399B
331
23176
  5
2399C
331
23177
  5
2399D
331
2317D
  5
2399E
331
2317E
  5
2399F
331
0
  5
2392A
331
0
  5
2392B
331
232D8
  5
239A5
331
232D9
  5
239A6
331
232DA
  5
239A7
331
232DB
  5
239A8
331
232DC
  5
239A9
331
232DD
  5
239AA
331
232DE
  5
239AB
331
232DF
  5
239AC
331
0
  5
23934
331
23929
  5
228A0
331
2392A
  5
22995
331
2392B
  5
22996
331
2392C
  5
22997
331
2392D
  5
22999
331
2392E
  5
2299A
331
2392F
  5
2299B
331
23930
  5
2299C
331
23931
  5
22D66
331
23932
  5
22D67
331
23933
  5
22D68
331
23934
  5
22D69
331
23935
  5
22E48
331
23936
  5
22E49
331
23937
  5
22E4A
331
0
  5
22E4B
331
0
  5
22E4C
331
0
  5
22E4D
331
2393B
  5
22E5B
331
2393C
  5
22E5C
331
2393D
  5
22E5D
331
2393E
  5
22E5E
331
0
  5
22E52
331
0
  5
22E53
331
0
  5
22E54
331
23942
  5
22E66
331
23943
  5
22E67
331
23944
  5
22E68
331
0
  5
22E58
331
0
  5
22E59
331
0
  5
22E5A
331
23948
  5
2393F
331
23949
  5
23940
331
2394A
  5
23944
331
2394B
  5
23945
331
2394C
  5
23946
331
2394D
  5
2394A
331
2394E
  5
2394B
331
2394F
  5
2394C
331
23950
  5
23951
331
23951
  5
23952
331
23952
  5
23953
331
23953
  5
23954
331
0
  5
23933
331
0
  5
23935
331
0
  5
23936
331
23957
  5
2395C
331
23958
  5
2395D
331
23959
  5
2395E
331
2395A
  5
2395F
331
2395B
  5
23961
331
2395C
  5
23962
331
2395D
  5
23963
331
2395E
  5
23964
331
2395F
  5
23965
331
0
  5
23941
331
0
  5
23942
331
0
  5
23943
331
23963
  5
2396D
331
23964
  5
2396E
331
23965
  5
2396F
331
0
  5
23947
331
0
  5
23948
331
0
  5
23949
331
23969
  5
23977
331
2396A
  5
23978
331
2396B
  5
23979
331
0
  5
2394D
331
0
  5
2394E
331
0
  5
2394F
331
2396F
  5
23984
331
23970
  5
23985
331
23971
  5
23986
331
23972
  5
23987
331
23973
  5
23988
331
23974
  5
239A0
331
23975
  5
239A1
331
23976
  5
239A2
331
23977
  5
239A3
331
23978
  5
239A4
331
23979
  5
239AD
331
2397A
  5
239AE
331
2397B
  5
239AF
331
2397C
  5
239B0
331
23980
  5
22E4E
331
23981
  5
22E4F
331
23982
  5
22E50
331
23983
  5
22E51
331
23984
  5
22E55
331
23985
  5
22E56
331
23986
  5
22E57
331
23987
  5
22E5F
331
23988
  5
22E60
331
23989
  5
22E61
331
2398A
  5
22E62
331
2398B
  5
22E63
331
2398C
  5
22E64
331
2398D
  5
22E65
331
2398E
  5
22E69
331
2398F
  5
22E6A
331
23990
  5
22E6B
331
23991
  5
22E6C
331
23992
  5
22E6D
331
23993
  5
22E6E
331
23994
  5
22E6F
331
23995
  5
23955
331
23996
  5
23956
331
23997
  5
23957
331
23998
  5
23958
331
23999
  5
23959
331
2399A
  5
2395A
331
2399B
  5
2395B
331
2399C
  5
23966
331
2399D
  5
23967
331
2399E
  5
23968
331
2399F
  5
23969
331
239A0
  5
2396A
331
239A1
  5
2396B
331
239A2
  5
2396C
331
239A3
  5
23970
331
239A4
  5
23971
331
239A5
  5
23972
331
239A6
  5
23973
331
239A7
  5
23974
331
239A8
  5
23975
331
239A9
  5
23976
331
239AA
  5
2397A
331
239AB
  5
2397B
331
239AC
  5
2397C
331
239AD
  5
23980
331
239AE
  5
23981
331
239AF
  5
23982
331
239B0
  5
23983
  0
SORTENTSTABLE
  5
59C
102
{ACAD_REACTORS
330
59B
102
}
330
59B
100
AcDbSortentsTable
330
15
331
57
  5
57
331
0
  5
70
  0
SORTENTSTABLE
  5
20462
102
{ACAD_REACTORS
330
20461
102
}
330
20461
100
AcDbSortentsTable
330
20460
331
20464
  5
20465
331
20465
  5
20464
  0
GROUP
  5
22916
102
{ACAD_REACTORS
330
D
102
}
330
D
100
AcDbGroup
300

 70
     1
 71
     1
340
227E9
340
227F4
340
227F3
340
227F2
340
227F1
340
227F0
340
227EF
340
227EE
340
227ED
340
227EC
340
227EB
340
227EA
340
227E8
340
227E7
340
227E6
340
227E5
340
227E4
340
227E3
340
227E2
340
227E1
340
227E0
340
227DF
340
227DE
340
227DD
340
227DC
340
227DB
340
227DA
340
227D9
340
227D8
340
227D7
340
227D6
340
227D5
340
227D4
340
227D3
340
227D2
340
227D1
340
227D0
340
227CF
340
227CE
340
227CD
340
227CC
340
227CB
340
227CA
340
227C9
340
227C8
340
227C7
340
227C6
340
227C5
340
227C4
340
227C3
340
227C2
340
227C1
340
227C0
340
227BF
340
227BE
340
227BD
340
227BC
340
227BB
340
227BA
340
227B9
340
227B8
340
227B7
340
227B6
340
227B5
340
227B4
340
227B3
340
227B2
340
227B1
340
227B0
340
227AF
  0
GROUP
  5
229DB
102
{ACAD_REACTORS
330
D
102
}
330
D
100
AcDbGroup
300

 70
     1
 71
     1
340
229DA
340
229D9
340
229D8
340
229D7
340
229D6
340
229D5
340
229D4
340
229D3
340
229D2
340
229D1
340
229D0
340
229CF
340
229CE
340
229CD
340
229CC
340
229CB
340
229CA
340
229C9
340
229C8
340
229C7
340
229C6
340
229C5
340
229C4
340
229C3
340
229C2
340
229C1
340
229C0
340
229BF
340
229BE
340
229BD
340
229BC
340
229BB
340
229BA
340
229B9
340
229B8
340
229B7
340
229B6
340
229B5
340
229B4
340
229B3
340
229B2
340
229B1
340
229B0
340
229AF
340
229AE
340
229AD
340
229AC
340
229AB
340
229AA
340
229A9
340
229A8
340
229A7
340
229A6
340
229A5
340
229A4
340
229A3
340
229A2
340
229A1
340
229A0
340
2299F
340
2299E
340
2299D
340
2299C
340
2299B
340
2299A
340
22999
340
22998
340
22997
340
22996
340
22995
  0
GROUP
  5
22B29
102
{ACAD_REACTORS
330
D
102
}
330
D
100
AcDbGroup
300

 70
     1
 71
     1
340
22B28
340
22B27
340
22B26
340
22B25
340
22B24
340
22B23
340
22B22
340
22B21
340
22B20
340
22B1F
340
22B1E
340
22B1D
340
22B1C
340
22B1B
340
22B1A
340
22B19
340
22B18
340
22B17
340
22B16
340
22B15
340
22B14
340
22B13
340
22B12
340
22B11
340
22B10
340
22B0F
340
22B0E
340
22B0D
340
22B0C
340
22B0B
340
22B0A
340
22B09
340
22B08
340
22B07
340
22B06
340
22B05
340
22B04
340
22B03
340
22B02
340
22B01
340
22B00
340
22AFF
340
22AFE
340
22AFD
340
22AFC
340
22AFB
340
22AFA
340
22AF9
340
22AF8
340
22AF7
340
22AF6
340
22AF5
340
22AF4
340
22AF3
340
22AF2
340
22AF1
340
22AF0
340
22AEF
340
22AEE
340
22AED
340
22AEC
340
22AEB
340
22AEA
340
22AE9
340
22AE8
340
22AE7
340
22AE6
340
22AE5
340
22AE4
340
22AE3
  0
GROUP
  5
22B2A
102
{ACAD_REACTORS
330
D
102
}
330
D
100
AcDbGroup
300

 70
     1
 71
     1
340
22AE2
340
22AE1
340
22AE0
340
22ADF
340
22ADE
340
22ADD
340
22ADC
340
22ADB
340
22ADA
340
22AD9
340
22AD8
340
22AD7
340
22AD6
340
22AD5
340
22AD4
340
22AD3
340
22AD2
340
22AD1
340
22AD0
340
22ACF
340
22ACE
340
22ACD
340
22ACC
340
22ACB
340
22ACA
340
22AC9
340
22AC8
340
22AC7
340
22AC6
340
22AC5
340
22AC4
340
22AC3
340
22AC2
340
22AC1
340
22AC0
340
22ABF
340
22ABE
340
22ABD
340
22ABC
340
22ABB
340
22ABA
340
22AB9
340
22AB8
340
22AB7
340
22AB6
340
22AB5
340
22AB4
340
22AB3
340
22AB2
340
22AB1
340
22AB0
340
22AAF
340
22AAE
340
22AAD
340
22AAC
340
22AAB
340
22AAA
340
22AA9
340
22AA8
340
22AA7
340
22AA6
340
22AA5
340
22AA4
340
22AA3
340
22AA2
340
22AA1
340
22AA0
340
22A9F
340
22A9E
340
22A9D
  0
GROUP
  5
22E3B
102
{ACAD_REACTORS
330
D
102
}
330
D
100
AcDbGroup
300

 70
     1
 71
     1
340
22DA3
340
22DA2
340
22DA1
340
22DA0
340
22D9F
340
22D9E
340
22D9D
340
22D9C
340
22D9B
340
22D9A
340
22D99
340
22D98
340
22D97
340
22D96
340
22D95
340
22D94
340
22D93
340
22D92
340
22D91
340
22D90
340
22D8F
340
22D8E
340
22D8D
340
22D8C
340
22D8B
340
22D8A
340
22D89
340
22D88
340
22D87
340
22D86
340
22D85
340
22D84
340
22D83
340
22D82
340
22D81
340
22D80
340
22D7F
340
22D7E
340
22D7D
340
22D7C
340
22D7B
340
22D7A
340
22D79
340
22D78
340
22D77
340
22D76
340
22D75
340
22D74
340
22D73
340
22D72
340
22D71
340
22D70
340
22D6F
340
22D6E
340
22D6D
340
22D6C
340
22D6B
340
22D6A
340
22D69
340
22D68
340
22D67
340
22D66
340
22D65
340
22D64
340
22D63
340
22D62
340
22D61
340
22D60
340
22D5F
340
22D5E
  0
GROUP
  5
22EC8
102
{ACAD_REACTORS
330
D
102
}
330
D
100
AcDbGroup
300

 70
     1
 71
     1
340
22E81
340
22E80
340
22E7F
340
22E7E
340
22E7D
340
22E7C
340
22E7B
340
22E7A
340
22E79
340
22E78
340
22E77
340
22E76
340
22E75
340
22E74
340
22E73
340
22E72
340
22E71
340
22E70
340
22E6F
340
22E6E
340
22E6D
340
22E6C
340
22E6B
340
22E6A
340
22E69
340
22E68
340
22E67
340
22E66
340
22E65
340
22E64
340
22E63
340
22E62
340
22E61
340
22E60
340
22E5F
340
22E5E
340
22E5D
340
22E5C
340
22E5B
340
22E5A
340
22E59
340
22E58
340
22E57
340
22E56
340
22E55
340
22E54
340
22E53
340
22E52
340
22E51
340
22E50
340
22E4F
340
22E4E
340
22E4D
340
22E4C
340
22E4B
340
22E4A
340
22E49
340
22E48
340
22E47
340
22E46
340
22E45
340
22E44
340
22E43
340
22E42
340
22E41
340
22E40
340
22E3F
340
22E3E
340
22E3D
340
22E3C
  0
MATERIAL
  5
19DD5
102
{ACAD_REACTORS
330
2CF
102
}
102
{ACAD_XDICTIONARY
360
23B56
102
}
330
2CF
100
AcDbMaterial
  1
BYBLOCK
 72
     0
 73
     2
 43
0.0208333333333333
 43
0.0
 43
0.0
 43
0.0
 43
0.0
 43
0.0208333333333333
 43
0.0
 43
0.0
 43
0.0
 43
0.0
 43
1.0
 43
0.0
 43
0.0
 43
0.0
 43
0.0
 43
1.0
 77
     0
 78
     2
 47
0.0208333333333333
 47
0.0
 47
0.0
 47
0.0
 47
0.0
 47
0.0208333333333333
 47
0.0
 47
0.0
 47
0.0
 47
0.0
 47
1.0
 47
0.0
 47
0.0
 47
0.0
 47
0.0
 47
1.0
171
     0
172
     2
 49
0.0208333333333333
 49
0.0
 49
0.0
 49
0.0
 49
0.0
 49
0.0208333333333333
 49
0.0
 49
0.0
 49
0.0
 49
0.0
 49
1.0
 49
0.0
 49
0.0
 49
0.0
 49
0.0
 49
1.0
175
     0
176
     2
142
0.0208333333333333
142
0.0
142
0.0
142
0.0
142
0.0
142
0.0208333333333333
142
0.0
142
0.0
142
0.0
142
0.0
142
1.0
142
0.0
142
0.0
142
0.0
142
0.0
142
1.0
179
     0
270
     2
144
0.0208333333333333
144
0.0
144
0.0
144
0.0
144
0.0
144
0.0208333333333333
144
0.0
144
0.0
144
0.0
144
0.0
144
1.0
144
0.0
144
0.0
144
0.0
144
0.0
144
1.0
274
     2
147
0.0208333333333333
147
0.0
147
0.0
147
0.0
147
0.0
147
0.0208333333333333
147
0.0
147
0.0
147
0.0
147
0.0
147
1.0
147
0.0
147
0.0
147
0.0
147
0.0
147
1.0
  0
MATERIAL
  5
19DCD
102
{ACAD_REACTORS
330
2CF
102
}
102
{ACAD_XDICTIONARY
360
23B58
102
}
330
2CF
100
AcDbMaterial
  1
BYLAYER
 72
     0
 73
     2
 43
0.0208333333333333
 43
0.0
 43
0.0
 43
0.0
 43
0.0
 43
0.0208333333333333
 43
0.0
 43
0.0
 43
0.0
 43
0.0
 43
1.0
 43
0.0
 43
0.0
 43
0.0
 43
0.0
 43
1.0
 77
     0
 78
     2
 47
0.0208333333333333
 47
0.0
 47
0.0
 47
0.0
 47
0.0
 47
0.0208333333333333
 47
0.0
 47
0.0
 47
0.0
 47
0.0
 47
1.0
 47
0.0
 47
0.0
 47
0.0
 47
0.0
 47
1.0
171
     0
172
     2
 49
0.0208333333333333
 49
0.0
 49
0.0
 49
0.0
 49
0.0
 49
0.0208333333333333
 49
0.0
 49
0.0
 49
0.0
 49
0.0
 49
1.0
 49
0.0
 49
0.0
 49
0.0
 49
0.0
 49
1.0
175
     0
176
     2
142
0.0208333333333333
142
0.0
142
0.0
142
0.0
142
0.0
142
0.0208333333333333
142
0.0
142
0.0
142
0.0
142
0.0
142
1.0
142
0.0
142
0.0
142
0.0
142
0.0
142
1.0
179
     0
270
     2
144
0.0208333333333333
144
0.0
144
0.0
144
0.0
144
0.0
144
0.0208333333333333
144
0.0
144
0.0
144
0.0
144
0.0
144
1.0
144
0.0
144
0.0
144
0.0
144
0.0
144
1.0
274
     2
147
0.0208333333333333
147
0.0
147
0.0
147
0.0
147
0.0
147
0.0208333333333333
147
0.0
147
0.0
147
0.0
147
0.0
147
1.0
147
0.0
147
0.0
147
0.0
147
0.0
147
1.0
  0
MATERIAL
  5
19DDD
102
{ACAD_REACTORS
330
2CF
102
}
102
{ACAD_XDICTIONARY
360
23B5A
102
}
330
2CF
100
AcDbMaterial
  1
GLOBAL
 72
     0
 73
     2
 43
0.0208333333333333
 43
0.0
 43
0.0
 43
0.0
 43
0.0
 43
0.0208333333333333
 43
0.0
 43
0.0
 43
0.0
 43
0.0
 43
1.0
 43
0.0
 43
0.0
 43
0.0
 43
0.0
 43
1.0
 77
     0
 78
     2
 47
0.0208333333333333
 47
0.0
 47
0.0
 47
0.0
 47
0.0
 47
0.0208333333333333
 47
0.0
 47
0.0
 47
0.0
 47
0.0
 47
1.0
 47
0.0
 47
0.0
 47
0.0
 47
0.0
 47
1.0
171
     0
172
     2
 49
0.0208333333333333
 49
0.0
 49
0.0
 49
0.0
 49
0.0
 49
0.0208333333333333
 49
0.0
 49
0.0
 49
0.0
 49
0.0
 49
1.0
 49
0.0
 49
0.0
 49
0.0
 49
0.0
 49
1.0
175
     0
176
     2
142
0.0208333333333333
142
0.0
142
0.0
142
0.0
142
0.0
142
0.0208333333333333
142
0.0
142
0.0
142
0.0
142
0.0
142
1.0
142
0.0
142
0.0
142
0.0
142
0.0
142
1.0
179
     0
270
     2
144
0.0208333333333333
144
0.0
144
0.0
144
0.0
144
0.0
144
0.0208333333333333
144
0.0
144
0.0
144
0.0
144
0.0
144
1.0
144
0.0
144
0.0
144
0.0
144
0.0
144
1.0
274
     2
147
0.0208333333333333
147
0.0
147
0.0
147
0.0
147
0.0
147
0.0208333333333333
147
0.0
147
0.0
147
0.0
147
0.0
147
1.0
147
0.0
147
0.0
147
0.0
147
0.0
147
1.0
  0
ACAD_PROXY_OBJECT
  5
20F62
102
{ACAD_REACTORS
330
19E18
102
}
330
19E18
100
AcDbZombieObject
 90
      499
 91
      512
 93
      610
310
40501902A4063FBFFFFFE0000000000000020000000000000020408000000000000004090140501A00000000000004100000000000000041025750100000000000009100000000000000039000
340
12
340
6F0
340
F
340
20460
 94
        0
1001
ACAD_MLEADERVER
1070
     2
  0
ACAD_PROXY_OBJECT
  5
20459
102
{ACAD_REACTORS
330
19E18
102
}
330
19E18
100
AcDbZombieObject
 90
      499
 91
      512
 93
      610
310
40501902A4063FBFFFFFE0000000000000020000000000000020408000000000000004090140501A00000000000004100000000000000041025750100000000000005100000000000000039000
340
12
340
6F0
340
F
340
20460
 94
        0
1001
ACAD_MLEADERVER
1070
     2
  0
ACAD_PROXY_OBJECT
  5
19E19
102
{ACAD_REACTORS
330
19E18
102
}
330
19E18
100
AcDbZombieObject
 90
      499
 91
      512
 93
      610
310
40901902A4063FBFFFFFE000000000000002040AD7A3703D0AD73F4214DD185B99185C990000000000000104090141901A00000000000004100000000000000041025764000000000000300FC0
340
12
340
0
340
F
340
0
 94
        0
1001
ACAD_MLEADERVER
1070
     2
  0
MLINESTYLE
  5
1C
102
{ACAD_REACTORS
330
1B
102
}
330
1B
100
AcDbMlineStyle
  2
STANDARD
 70
     0
  3

 62
   256
 51
90.0
 52
90.0
 71
     2
 49
0.5
 62
   256
  6
BYLAYER
 49
-0.5
 62
   256
  6
BYLAYER
  0
ACAD_PROXY_OBJECT
  5
19DF7
102
{ACAD_REACTORS
330
19DF6
102
}
330
19DF6
100
AcDbZombieObject
 90
      499
 91
      511
 93
       41
310
903313A31580
  0
ACAD_PROXY_OBJECT
  5
19DF8
102
{ACAD_REACTORS
330
19DF6
102
}
330
19DF6
100
AcDbZombieObject
 90
      499
 91
      511
 93
      105
310
903313A324000000000000004000
  0
ACAD_PROXY_OBJECT
  5
19DF9
102
{ACAD_REACTORS
330
19DF6
102
}
330
19DF6
100
AcDbZombieObject
 90
      499
 91
      511
 93
      105
310
903313A344000000000000104000
  0
ACAD_PROXY_OBJECT
  5
19DFA
102
{ACAD_REACTORS
330
19DF6
102
}
330
19DF6
100
AcDbZombieObject
 90
      499
 91
      511
 93
      105
310
903313A354000000000000144000
  0
ACAD_PROXY_OBJECT
  5
19DFB
102
{ACAD_REACTORS
330
19DF6
102
}
330
19DF6
100
AcDbZombieObject
 90
      499
 91
      511
 93
      105
310
903313A384000000000000204000
  0
ACAD_PROXY_OBJECT
  5
19DFC
102
{ACAD_REACTORS
330
19DF6
102
}
330
19DF6
100
AcDbZombieObject
 90
      499
 91
      511
 93
      113
310
904313A31304000000000000244000
  0
ACAD_PROXY_OBJECT
  5
19DFD
102
{ACAD_REACTORS
330
19DF6
102
}
330
19DF6
100
AcDbZombieObject
 90
      499
 91
      511
 93
      113
310
904313A31364000000000000304000
  0
ACAD_PROXY_OBJECT
  5
19DFE
102
{ACAD_REACTORS
330
19DF6
102
}
330
19DF6
100
AcDbZombieObject
 90
      499
 91
      511
 93
      113
310
904313A32304000000000000344000
  0
ACAD_PROXY_OBJECT
  5
19DFF
102
{ACAD_REACTORS
330
19DF6
102
}
330
19DF6
100
AcDbZombieObject
 90
      499
 91
      511
 93
      113
310
904313A333040000000000003E4000
  0
ACAD_PROXY_OBJECT
  5
19E00
102
{ACAD_REACTORS
330
19DF6
102
}
330
19DF6
100
AcDbZombieObject
 90
      499
 91
      511
 93
      113
310
904313A34304000000000000444000
  0
ACAD_PROXY_OBJECT
  5
19E01
102
{ACAD_REACTORS
330
19DF6
102
}
330
19DF6
100
AcDbZombieObject
 90
      499
 91
      511
 93
      113
310
904313A35304000000000000494000
  0
ACAD_PROXY_OBJECT
  5
19E02
102
{ACAD_REACTORS
330
19DF6
102
}
330
19DF6
100
AcDbZombieObject
 90
      499
 91
      511
 93
      121
310
905313A3130304000000000000594000
  0
ACAD_PROXY_OBJECT
  5
19E03
102
{ACAD_REACTORS
330
19DF6
102
}
330
19DF6
100
AcDbZombieObject
 90
      499
 91
      511
 93
      105
310
903323A310000000000000010100
  0
ACAD_PROXY_OBJECT
  5
19E04
102
{ACAD_REACTORS
330
19DF6
102
}
330
19DF6
100
AcDbZombieObject
 90
      499
 91
      511
 93
      105
310
903343A310000000000000410100
  0
ACAD_PROXY_OBJECT
  5
19E05
102
{ACAD_REACTORS
330
19DF6
102
}
330
19DF6
100
AcDbZombieObject
 90
      499
 91
      511
 93
      105
310
903383A310000000000000810100
  0
ACAD_PROXY_OBJECT
  5
19E06
102
{ACAD_REACTORS
330
19DF6
102
}
330
19DF6
100
AcDbZombieObject
 90
      499
 91
      511
 93
      113
310
90431303A310000000000000910100
  0
ACAD_PROXY_OBJECT
  5
19E07
102
{ACAD_REACTORS
330
19DF6
102
}
330
19DF6
100
AcDbZombieObject
 90
      499
 91
      511
 93
      121
310
9053130303A310000000000001650100
  0
ACAD_PROXY_OBJECT
  5
19E08
102
{ACAD_REACTORS
330
19DF6
102
}
330
19DF6
100
AcDbZombieObject
 90
      499
 91
      511
 93
      257
310
90E312F31323822203D2031272D3022000000000000200FC000000000000284000
  0
ACAD_PROXY_OBJECT
  5
19E09
102
{ACAD_REACTORS
330
19DF6
102
}
330
19DF6
100
AcDbZombieObject
 90
      499
 91
      511
 93
      249
310
90D312F363422203D2031272D3022000000000000240FC000000000000284000
  0
ACAD_PROXY_OBJECT
  5
19E0A
102
{ACAD_REACTORS
330
19DF6
102
}
330
19DF6
100
AcDbZombieObject
 90
      499
 91
      511
 93
      249
310
90D312F333222203D2031272D3022000000000000280FC000000000000284000
  0
ACAD_PROXY_OBJECT
  5
19E0B
102
{ACAD_REACTORS
330
19DF6
102
}
330
19DF6
100
AcDbZombieObject
 90
      499
 91
      511
 93
      249
310
90D312F313622203D2031272D30220000000000002C0FC000000000000284000
  0
ACAD_PROXY_OBJECT
  5
19E0C
102
{ACAD_REACTORS
330
19DF6
102
}
330
19DF6
100
AcDbZombieObject
 90
      499
 91
      511
 93
      249
310
90D332F333222203D2031272D30220000000000002E0FC000000000000284000
  0
ACAD_PROXY_OBJECT
  5
19E0D
102
{ACAD_REACTORS
330
19DF6
102
}
330
19DF6
100
AcDbZombieObject
 90
      499
 91
      511
 93
      241
310
90C312F3822203D2031272D3022000000000000300FC000000000000284000
  0
ACAD_PROXY_OBJECT
  5
19E0E
102
{ACAD_REACTORS
330
19DF6
102
}
330
19DF6
100
AcDbZombieObject
 90
      499
 91
      511
 93
      249
310
90D332F313622203D2031272D3022000000000000320FC000000000000284000
  0
ACAD_PROXY_OBJECT
  5
19E0F
102
{ACAD_REACTORS
330
19DF6
102
}
330
19DF6
100
AcDbZombieObject
 90
      499
 91
      511
 93
      241
310
90C312F3422203D2031272D3022000000000000340FC000000000000284000
  0
ACAD_PROXY_OBJECT
  5
19E10
102
{ACAD_REACTORS
330
19DF6
102
}
330
19DF6
100
AcDbZombieObject
 90
      499
 91
      511
 93
      241
310
90C332F3822203D2031272D3022000000000000360FC000000000000284000
  0
ACAD_PROXY_OBJECT
  5
19E11
102
{ACAD_REACTORS
330
19DF6
102
}
330
19DF6
100
AcDbZombieObject
 90
      499
 91
      511
 93
      241
310
90C312F3222203D2031272D3022000000000000380FC000000000000284000
  0
ACAD_PROXY_OBJECT
  5
19E12
102
{ACAD_REACTORS
330
19DF6
102
}
330
19DF6
100
AcDbZombieObject
 90
      499
 91
      511
 93
      241
310
90C332F3422203D2031272D30220000000000003A0FC000000000000284000
  0
ACAD_PROXY_OBJECT
  5
19E13
102
{ACAD_REACTORS
330
19DF6
102
}
330
19DF6
100
AcDbZombieObject
 90
      499
 91
      511
 93
      161
310
90A3122203D2031272D30224000000000000284000
  0
ACAD_PROXY_OBJECT
  5
19E14
102
{ACAD_REACTORS
330
19DF6
102
}
330
19DF6
100
AcDbZombieObject
 90
      499
 91
      511
 93
      257
310
90E312D312F3222203D2031272D30220000000000003E0FC000000000000284000
  0
ACAD_PROXY_OBJECT
  5
19E15
102
{ACAD_REACTORS
330
19DF6
102
}
330
19DF6
100
AcDbZombieObject
 90
      499
 91
      511
 93
      225
310
90A3322203D2031272D302200000000000002100000000000000284000
  0
ACAD_PROXY_OBJECT
  5
19E16
102
{ACAD_REACTORS
330
19DF6
102
}
330
19DF6
100
AcDbZombieObject
 90
      499
 91
      511
 93
      225
310
90A3622203D2031272D302200000000000006100000000000000284000
  0
ACAD_PROXY_OBJECT
  5
19E17
102
{ACAD_REACTORS
330
19DF6
102
}
330
19DF6
100
AcDbZombieObject
 90
      499
 91
      511
 93
      249
310
90D31272D3022203D2031272D30220000000000000A100000000000000284000
  0
ACAD_PROXY_OBJECT
  5
19DEB
102
{ACAD_REACTORS
330
19DE5
102
}
330
19DE5
100
AcDbZombieObject
 90
      499
 91
      510
 93
      436
310
42CC9915DA5C99599C985B595049028333333333333E3BF0000000000000FB0107901411070040501600405405064090741402480A0340
1001
ACAD
1000
AcDbSavedByObjectVersion
1070
     0
  0
ACAD_PROXY_OBJECT
  5
19DED
102
{ACAD_REACTORS
330
19DE5
102
}
330
19DE5
100
AcDbZombieObject
 90
      499
 91
      510
 93
      500
310
424CD108121A5919195B90640502408333333333333E3BF0000000000000FB01079024090700405020000000000001110200405405064090740C02480A0340
1001
ACAD
1000
AcDbSavedByObjectVersion
1070
     0
  0
ACAD_PROXY_OBJECT
  5
19DEC
102
{ACAD_REACTORS
330
19DE5
102
}
330
19DE5
100
AcDbZombieObject
 90
      499
 91
      510
 93
      436
310
42CCD915DA5C99599C985B595059028333333333333E3BF0000000000000FB0107901411070040501600405405064090741402480A0340
1001
ACAD
1000
AcDbSavedByObjectVersion
1070
     0
  0
ACAD_PROXY_OBJECT
  5
19DEA
102
{ACAD_REACTORS
330
19DE5
102
}
330
19DE5
100
AcDbZombieObject
 90
      499
 91
      510
 93
      388
310
4150985CDA58D07406404333333333333E3BF0000000000000FB0107A41107004050150841D405064090741402480A0350
1001
ACAD
1000
AcDbSavedByObjectVersion
1070
     0
  0
ACAD_PROXY_OBJECT
  5
19DF1
102
{ACAD_REACTORS
330
19DE5
102
}
330
19DE5
100
AcDbZombieObject
 90
      499
 91
      510
 93
      428
310
42109C9A59DA1D195B90C409028333333333333E3BF0000000000000FB010790141107004050150841D405064090741402480A029950
1001
ACAD
1000
AcDbSavedByObjectVersion
1070
     0
  0
ACAD_PROXY_OBJECT
  5
19DF5
102
{ACAD_REACTORS
330
19DE5
102
}
330
19DE5
100
AcDbZombieObject
 90
      499
 91
      510
 93
      452
310
42D0DBDB1BDC90DA185B99D95104090240C333333333333E3BF0000000000000FB0108901411070040501508421405064090741402480A0350
1001
ACAD
1000
AcDbSavedByObjectVersion
1070
     0
  0
ACAD_PROXY_OBJECT
  5
19DEE
102
{ACAD_REACTORS
330
19DE5
102
}
330
19DE5
100
AcDbZombieObject
 90
      499
 91
      510
 93
      500
310
4290DBDB98D95C1D1D585B10940D028333333333333E3BF0000000000000FB0107902409070040501000000000000111010841D405064090740C02480A0340
1001
ACAD
1000
AcDbSavedByObjectVersion
1070
     0
  0
ACAD_PROXY_OBJECT
  5
19DF0
102
{ACAD_REACTORS
330
19DE5
102
}
330
19DE5
100
AcDbZombieObject
 90
      499
 91
      510
 93
      412
310
40D11A5B50B409028333333333333E3BF0000000000000FB010790141107004050150841D405064090741402480A02677FFFFFD0
1001
ACAD
1000
AcDbSavedByObjectVersion
1070
     0
  0
ACAD_PROXY_OBJECT
  5
1E02A
102
{ACAD_REACTORS
330
19DE5
102
}
330
19DE5
100
AcDbZombieObject
 90
      499
 91
      510
 93
      452
310
43115919D950DBDB1BDC93D999916409028333333333333E3BF0000000000000FB010790141107004050150841D405064090741402480A0350
1001
ACAD
1000
AcDbSavedByObjectVersion
1070
     0
  0
ACAD_PROXY_OBJECT
  5
19DF4
102
{ACAD_REACTORS
330
19DE5
102
}
330
19DE5
100
AcDbZombieObject
 90
      499
 91
      510
 93
      444
310
42D19858D95C185D1D195C9B90F409028333333333333E3BF0000000000000FB010790141107004050150841D405064090741402480A0350
1001
ACAD
1000
AcDbSavedByObjectVersion
1070
     0
  0
ACAD_PROXY_OBJECT
  5
19DE6
102
{ACAD_REACTORS
330
19DE5
102
}
330
19DE5
100
AcDbZombieObject
 90
      499
 91
      510
 93
      388
310
41119B185D240901404333333333333E3BF0000000000000F9010740A41107004050150841D405064090741402480A1B50
1001
ACAD
1000
AcDbSavedByObjectVersion
1070
     0
  0
ACAD_PROXY_OBJECT
  5
19DE7
102
{ACAD_REACTORS
330
19DE5
102
}
330
19DE5
100
AcDbZombieObject
 90
      499
 91
      510
 93
      476
310
43519B185D15DA5D1A115919D95CD0140901404333333333333E3BF0000000000000F9010740901411070040501600405405064090741402480A1B50
1001
ACAD
1000
AcDbSavedByObjectVersion
1070
     0
  0
ACAD_PROXY_OBJECT
  5
19DE8
102
{ACAD_REACTORS
330
19DE5
102
}
330
19DE5
100
AcDbZombieObject
 90
      499
 91
      510
 93
      412
310
41D1DBDD5C985D5910240902404333333333333E3BF0000000000000F9010740A411070040501641D405064090741402480A1B50
1001
ACAD
1000
AcDbSavedByObjectVersion
1070
     0
  0
ACAD_PROXY_OBJECT
  5
19DE9
102
{ACAD_REACTORS
330
19DE5
102
}
330
19DE5
100
AcDbZombieObject
 90
      499
 91
      510
 93
      500
310
4411DBDD5C985D5915DA5D1A115919D95CD0340902404333333333333E3BF0000000000000F9010740901411070040501600405405064090741402480A1B50
1001
ACAD
1000
AcDbSavedByObjectVersion
1070
     0
  0
ACAD_PROXY_OBJECT
  5
1FBC7
102
{ACAD_REACTORS
330
19DE5
102
}
330
19DE5
100
AcDbZombieObject
 90
      499
 91
      510
 93
      476
310
41921A5919195B90640502408333333333333E33F0000000000000F901079024090700405020000000000001110200405405064090740C02480A0340
1001
ACAD
1000
AcDbSavedByObjectVersion
1070
     0
  0
ACAD_PROXY_OBJECT
  5
1E028
102
{ACAD_REACTORS
330
19DE5
102
}
330
19DE5
100
AcDbZombieObject
 90
      499
 91
      510
 93
      428
310
42529A5D1D195C93D999914409028333333333333E3BF0000000000000FB010790141107004050150A41D405064090741402480A0350
1001
ACAD
1000
AcDbSavedByObjectVersion
1070
     0
  0
ACAD_PROXY_OBJECT
  5
19DF3
102
{ACAD_REACTORS
330
19DE5
102
}
330
19DE5
100
AcDbZombieObject
 90
      499
 91
      510
 93
      444
310
42D31A5B995C185D1D195C9B90E409028333333333333E3BF0000000000000FB010790141107004050750841D405064090741402483A0350
1001
ACAD
1000
AcDbSavedByObjectVersion
1070
     0
  0
ACAD_PROXY_OBJECT
  5
1FBCD
102
{ACAD_REACTORS
330
19DE5
102
}
330
19DE5
100
AcDbZombieObject
 90
      499
 91
      510
 93
      484
310
42135BD9195B1A5B99D0A409038333333333333E33F0000000000000F901074090290700405010000000000201990108421405064090741402480A1B40
1001
ACAD
1000
AcDbSavedByObjectVersion
1070
     0
  0
ACAD_PROXY_OBJECT
  5
1E029
102
{ACAD_REACTORS
330
19DE5
102
}
330
19DE5
100
AcDbZombieObject
 90
      499
 91
      510
 93
      444
310
42D3DD995C9A185B99D3D999915409028333333333333E3BF0000000000000FB010790141107004050150941D405064090741402480A0350
1001
ACAD
1000
AcDbSavedByObjectVersion
1070
     0
  0
ACAD_PROXY_OBJECT
  5
19DEF
102
{ACAD_REACTORS
330
19DE5
102
}
330
19DE5
100
AcDbZombieObject
 90
      499
 91
      510
 93
      420
310
425499585B1A5CDD1A58D08409028333333333333E3BF0000000000000FB01079019070040501508421405064090741402480A1B40
1001
ACAD
1000
AcDbSavedByObjectVersion
1070
     0
  0
ACAD_PROXY_OBJECT
  5
1FBCC
102
{ACAD_REACTORS
330
19DE5
102
}
330
19DE5
100
AcDbZombieObject
 90
      499
 91
      510
 93
      420
310
4194DA1859195911B40902404333333333333E33F0000000000000F9010740A41107004050150800405405064090840C02480A0B40
1001
ACAD
1000
AcDbSavedByObjectVersion
1070
     0
  0
ACAD_PROXY_OBJECT
  5
1FBCB
102
{ACAD_REACTORS
330
19DE5
102
}
330
19DE5
100
AcDbZombieObject
 90
      499
 91
      510
 93
      516
310
4454DA18591959081DDA5D1A08195919D95CD1A40902404333333333333E33F0000000000000F901074090142907004050250800405405064090740C02480A0B40
1001
ACAD
1000
AcDbSavedByObjectVersion
1070
     0
  0
ACAD_PROXY_OBJECT
  5
1FBC8
102
{ACAD_REACTORS
330
19DE5
102
}
330
19DE5
100
AcDbZombieObject
 90
      499
 91
      510
 93
      532
310
4394DA1859195CC81BD98811DC985E5174090240C333333333333E33F0000000000000F901079024090741D01000000000000111010841D405064090740C02480A0340
1001
ACAD
1000
AcDbSavedByObjectVersion
1070
     0
  0
ACAD_PROXY_OBJECT
  5
1FBC9
102
{ACAD_REACTORS
330
19DE5
102
}
330
19DE5
100
AcDbZombieObject
 90
      499
 91
      510
 93
      476
310
41D4DAD95D18DA1E51840502408333333333333E33F0000000000000F901079024090741D01000000000000111010B41D405064090741802480A0340
1001
ACAD
1000
AcDbSavedByObjectVersion
1070
     0
  0
ACAD_PROXY_OBJECT
  5
19DF2
102
{ACAD_REACTORS
330
19DE5
102
}
330
19DE5
100
AcDbZombieObject
 90
      499
 91
      510
 93
      412
310
41D51A1A58DAD95B90D409028333333333333E3BF0000000000000FB010790141107004050150C41D405064090741402480A0350
1001
ACAD
1000
AcDbSavedByObjectVersion
1070
     0
  0
ACAD_PROXY_OBJECT
  5
1FBC6
102
{ACAD_REACTORS
330
19DE5
102
}
330
19DE5
100
AcDbZombieObject
 90
      499
 91
      510
 93
      420
310
4255DA5C99599C985B595059028333333333333E33F0000000000000F90107901411070040501600405405064090740C02480A0340
1001
ACAD
1000
AcDbSavedByObjectVersion
1070
     0
  0
ACAD_PROXY_OBJECT
  5
1FBCA
102
{ACAD_REACTORS
330
19DE5
102
}
330
19DE5
100
AcDbZombieObject
 90
      499
 91
      510
 93
      404
310
41560B54985E51940902404000000000000E03F0000000000000F9010740501907004050150841D405064090740C02480A1B40
1001
ACAD
1000
AcDbSavedByObjectVersion
1070
     0
  0
XRECORD
  5
239B9
102
{ACAD_REACTORS
330
239B8
102
}
330
239B8
100
AcDbXrecord
340
2D0
  0
XRECORD
  5
239BA
102
{ACAD_REACTORS
330
239B8
102
}
330
239B8
100
AcDbXrecord
340
2CF
  0
DICTIONARYVAR
  5
20376
102
{ACAD_REACTORS
330
37
102
}
330
37
100
DictionaryVariables
280
     0
  1
1:1
  0
DICTIONARYVAR
  5
1AC19
102
{ACAD_REACTORS
330
37
102
}
330
37
100
DictionaryVariables
280
     0
  1
Standard
  0
DICTIONARYVAR
  5
4F1
102
{ACAD_REACTORS
330
37
102
}
330
37
100
DictionaryVariables
280
     0
  1
Standard
  0
DICTIONARYVAR
  5
38
102
{ACAD_REACTORS
330
37
102
}
330
37
100
DictionaryVariables
280
     0
  1
-1
  0
DICTIONARYVAR
  5
408
102
{ACAD_REACTORS
330
37
102
}
330
37
100
DictionaryVariables
280
     0
  1
2
  0
DICTIONARYVAR
  5
1891
102
{ACAD_REACTORS
330
37
102
}
330
37
100
DictionaryVariables
280
     0
  1
1
  0
DICTIONARYVAR
  5
1AC1C
102
{ACAD_REACTORS
330
37
102
}
330
37
100
DictionaryVariables
280
     0
  1
0
  0
DICTIONARYVAR
  5
1895
102
{ACAD_REACTORS
330
37
102
}
330
37
100
DictionaryVariables
280
     0
  1
8
  0
DICTIONARYVAR
  5
1894
102
{ACAD_REACTORS
330
37
102
}
330
37
100
DictionaryVariables
280
     0
  1
1
  0
DICTIONARYVAR
  5
203CC
102
{ACAD_REACTORS
330
37
102
}
330
37
100
DictionaryVariables
280
     0
  1
0
  0
DICTIONARYVAR
  5
1892
102
{ACAD_REACTORS
330
37
102
}
330
37
100
DictionaryVariables
280
     0
  1
8
  0
DICTIONARYVAR
  5
1893
102
{ACAD_REACTORS
330
37
102
}
330
37
100
DictionaryVariables
280
     0
  1
2
  0
DICTIONARYVAR
  5
409
102
{ACAD_REACTORS
330
37
102
}
330
37
100
DictionaryVariables
280
     0
  1

  0
DICTIONARYVAR
  5
1AC1B
102
{ACAD_REACTORS
330
37
102
}
330
37
100
DictionaryVariables
280
     0
  1
127
  0
DICTIONARYVAR
  5
1FBC5
102
{ACAD_REACTORS
330
37
102
}
330
37
100
DictionaryVariables
280
     0
  1
2
  0
DICTIONARY
  5
23B56
330
19DD5
100
AcDbDictionary
  3
ACAD_XREC_ROUNDTRIP
360
23B57
1001
ACAD
1000
TREAT_AS_HARD
1070
     1
  0
DICTIONARY
  5
23B58
330
19DCD
100
AcDbDictionary
  3
ACAD_XREC_ROUNDTRIP
360
23B59
1001
ACAD
1000
TREAT_AS_HARD
1070
     1
  0
DICTIONARY
  5
23B5A
330
19DDD
100
AcDbDictionary
  3
ACAD_XREC_ROUNDTRIP
360
23B5B
1001
ACAD
1000
TREAT_AS_HARD
1070
     1
  0
XRECORD
  5
23B57
102
{ACAD_REACTORS
330
23B56
102
}
330
23B56
100
AcDbXrecord
102
MATERIAL
148
0.0
149
0.0
149
0.0
 93
        0
 94
      127
282
     0
 72
     0
 77
     0
171
     0
175
     0
179
     0
273
     0
  0
XRECORD
  5
23B59
102
{ACAD_REACTORS
330
23B58
102
}
330
23B58
100
AcDbXrecord
102
MATERIAL
148
0.0
149
0.0
149
0.0
 93
        0
 94
      127
282
     0
 72
     0
 77
     0
171
     0
175
     0
179
     0
273
     0
  0
XRECORD
  5
23B5B
102
{ACAD_REACTORS
330
23B5A
102
}
330
23B5A
100
AcDbXrecord
102
MATERIAL
148
0.0
149
0.0
149
0.0
 93
        0
 94
      127
282
     0
 72
     0
 77
     0
171
     0
175
     0
179
     0
273
     0
  0
ENDSEC
  0
EOF
