  0
SECTION
  2
HEADER
  9
$ACADVER
  1
AC1012
  9
$DWGCODEPAGE
  3
ansi_932
  9
$INSBASE
 10
0.0
 20
0.0
 30
0.0
  9
$EXTMIN
 10
401.2162416153722
 20
-699.1394132509195
 30
0.0
  9
$EXTMAX
 10
751.5824386439108
 20
-480.025441490976
 30
0.0
  9
$LIMMIN
 10
0.0
 20
0.0
  9
$LIMMAX
 10
420.0
 20
297.0
  9
$ORTHOMODE
 70
     0
  9
$REGENMODE
 70
     1
  9
$FILLMODE
 70
     1
  9
$QTEXTMODE
 70
     0
  9
$MIRRTEXT
 70
     0
  9
$DRAGMODE
 70
     2
  9
$LTSCALE
 40
0.5
  9
$OSMODE
 70
  2175
  9
$ATTMODE
 70
     1
  9
$TEXTSIZE
 40
4.0
  9
$TRACEWID
 40
1.0
  9
$TEXTSTYLE
  7
STANDARD
  9
$CLAYER
  8
1TEXT
  9
$CELTYPE
  6
BYLAYER
  9
$CECOLOR
 62
   256
  9
$CELTSCALE
 40
1.0
  9
$DELOBJ
 70
     1
  9
$DISPSILH
 70
     0
  9
$DIMSCALE
 40
1.0
  9
$DIMASZ
 40
2.0
  9
$DIMEXO
 40
0.0
  9
$DIMDLI
 40
7.0
  9
$DIMRND
 40
0.0
  9
$DIMDLE
 40
0.0
  9
$DIMEXE
 40
1.0
  9
$DIMTP
 40
0.0
  9
$DIMTM
 40
0.0
  9
$DIMTXT
 40
3.5
  9
$DIMCEN
 40
0.0
  9
$DIMTSZ
 40
0.0
  9
$DIMTOL
 70
     0
  9
$DIMLIM
 70
     0
  9
$DIMTIH
 70
     0
  9
$DIMTOH
 70
     0
  9
$DIMSE1
 70
     0
  9
$DIMSE2
 70
     0
  9
$DIMTAD
 70
     1
  9
$DIMZIN
 70
     8
  9
$DIMBLK
  1

  9
$DIMASO
 70
     1
  9
$DIMSHO
 70
     1
  9
$DIMPOST
  1
 
  9
$DIMAPOST
  1

  9
$DIMALT
 70
     0
  9
$DIMALTD
 70
     2
  9
$DIMALTF
 40
25.4
  9
$DIMLFAC
 40
1.0
  9
$DIMTOFL
 70
     1
  9
$DIMTVP
 40
0.0
  9
$DIMTIX
 70
     0
  9
$DIMSOXD
 70
     0
  9
$DIMSAH
 70
     1
  9
$DIMBLK1
  1
OPEN30
  9
$DIMBLK2
  1
OPEN30
  9
$DIMSTYLE
  2
NEWX10
  9
$DIMCLRD
 70
   256
  9
$DIMCLRE
 70
   256
  9
$DIMCLRT
 70
   201
  9
$DIMTFAC
 40
0.7
  9
$DIMGAP
 40
0.7
  9
$DIMJUST
 70
     0
  9
$DIMSD1
 70
     0
  9
$DIMSD2
 70
     0
  9
$DIMTOLJ
 70
     1
  9
$DIMTZIN
 70
     8
  9
$DIMALTZ
 70
     0
  9
$DIMALTTZ
 70
     0
  9
$DIMFIT
 70
     2
  9
$DIMUPT
 70
     0
  9
$DIMUNIT
 70
     2
  9
$DIMDEC
 70
     2
  9
$DIMTDEC
 70
     4
  9
$DIMALTU
 70
     2
  9
$DIMALTTD
 70
     2
  9
$DIMTXSTY
  7
STANDARD
  9
$DIMAUNIT
 70
     0
  9
$LUNITS
 70
     2
  9
$LUPREC
 70
     4
  9
$SKETCHINC
 40
1.0
  9
$FILLETRAD
 40
0.0
  9
$AUNITS
 70
     0
  9
$AUPREC
 70
     2
  9
$MENU
  1
acad
  9
$ELEVATION
 40
0.0
  9
$PELEVATION
 40
0.0
  9
$THICKNESS
 40
0.0
  9
$LIMCHECK
 70
     0
  9
$CHAMFERA
 40
1.0
  9
$CHAMFERB
 40
1.0
  9
$CHAMFERC
 40
20.0
  9
$CHAMFERD
 40
0.0
  9
$SKPOLY
 70
     0
  9
$TDCREATE
 40
2453033.732663484
  9
$TDUPDATE
 40
2459111.637195972
  9
$TDINDWG
 40
2.4325275347
  9
$TDUSRTIMER
 40
2.4325275347
  9
$USRTIMER
 70
     1
  9
$ANGBASE
 50
0.0
  9
$ANGDIR
 70
     0
  9
$PDMODE
 70
     0
  9
$PDSIZE
 40
0.0
  9
$PLINEWID
 40
0.0
  9
$COORDS
 70
     2
  9
$SPLFRAME
 70
     0
  9
$SPLINETYPE
 70
     6
  9
$SPLINESEGS
 70
     8
  9
$ATTDIA
 70
     0
  9
$ATTREQ
 70
     1
  9
$HANDLING
 70
     1
  9
$HANDSEED
  5
213D1
  9
$SURFTAB1
 70
     6
  9
$SURFTAB2
 70
     6
  9
$SURFTYPE
 70
     6
  9
$SURFU
 70
     6
  9
$SURFV
 70
     6
  9
$UCSNAME
  2

  9
$UCSORG
 10
0.0
 20
0.0
 30
0.0
  9
$UCSXDIR
 10
1.0
 20
0.0
 30
0.0
  9
$UCSYDIR
 10
0.0
 20
1.0
 30
0.0
  9
$PUCSNAME
  2

  9
$PUCSORG
 10
0.0
 20
0.0
 30
0.0
  9
$PUCSXDIR
 10
1.0
 20
0.0
 30
0.0
  9
$PUCSYDIR
 10
0.0
 20
1.0
 30
0.0
  9
$USERI1
 70
     0
  9
$USERI2
 70
     0
  9
$USERI3
 70
     0
  9
$USERI4
 70
     0
  9
$USERI5
 70
     0
  9
$USERR1
 40
0.0
  9
$USERR2
 40
0.0
  9
$USERR3
 40
0.0
  9
$USERR4
 40
0.0
  9
$USERR5
 40
0.0
  9
$WORLDVIEW
 70
     1
  9
$SHADEDGE
 70
     3
  9
$SHADEDIF
 70
    70
  9
$TILEMODE
 70
     1
  9
$MAXACTVP
 70
    48
  9
$PINSBASE
 10
0.0
 20
0.0
 30
0.0
  9
$PLIMCHECK
 70
     0
  9
$PEXTMIN
 10
1.000000000000000E+20
 20
1.000000000000000E+20
 30
1.000000000000000E+20
  9
$PEXTMAX
 10
-1.000000000000000E+20
 20
-1.000000000000000E+20
 30
-1.000000000000000E+20
  9
$PLIMMIN
 10
0.0
 20
0.0
  9
$PLIMMAX
 10
420.0
 20
297.0
  9
$UNITMODE
 70
     0
  9
$VISRETAIN
 70
     1
  9
$PLINEGEN
 70
     0
  9
$PSLTSCALE
 70
     1
  9
$TREEDEPTH
 70
  3020
  9
$PICKSTYLE
 70
     1
  9
$CMLSTYLE
  2
STANDARD
  9
$CMLJUST
 70
     0
  9
$CMLSCALE
 40
20.0
  9
$SAVEIMAGES
 70
     1
  0
ENDSEC
  0
SECTION
  2
CLASSES
  0
CLASS
  1
DICTIONARYVAR
  2
AcDbDictionaryVar
  3
ObjectDBX Classes
 90
        0
280
     0
281
     0
  0
CLASS
  1
IDBUFFER
  2
AcDbIdBuffer
  3
ObjectDBX Classes
 90
    32768
280
     0
281
     0
  0
CLASS
  1
LWPOLYLINE
  2
AcDbPolyline
  3
ObjectDBX Classes
 90
    32768
280
     0
281
     1
  0
CLASS
  1
ACDBDICTIONARYWDFLT
  2
AcDbDictionaryWithDefault
  3
ObjectDBX Classes
 90
    32768
280
     0
281
     0
  0
CLASS
  1
ACDBPLACEHOLDER
  2
AcDbPlaceHolder
  3
ObjectDBX Classes
 90
        0
280
     0
281
     0
  0
CLASS
  1
LAYOUT
  2
AcDbLayout
  3
ObjectDBX Classes
 90
        0
280
     0
281
     0
  0
CLASS
  1
TABLESTYLE
  2
AcDbTableStyle
  3
ObjectDBX Classes
 90
     4095
280
     0
281
     0
  0
CLASS
  1
SORTENTSTABLE
  2
AcDbSortentsTable
  3
ObjectDBX Classes
 90
    32768
280
     0
281
     0
  0
CLASS
  1
DIMASSOC
  2
AcDbDimAssoc
  3
"AcDbDimAssoc|Product Desc:     AcDim ARX App For Dimension|Company:          Autodesk, Inc.|WEB Address:      www.autodesk.com"
 90
        0
280
     0
281
     0
  0
CLASS
  1
MATERIAL
  2
AcDbMaterial
  3
ObjectDBX Classes
 90
     1153
280
     0
281
     0
  0
CLASS
  1
VISUALSTYLE
  2
AcDbVisualStyle
  3
ObjectDBX Classes
 90
     4095
280
     0
281
     0
  0
CLASS
  1
SCALE
  2
AcDbScale
  3
ObjectDBX Classes
 90
     1153
280
     0
281
     0
  0
CLASS
  1
MLEADERSTYLE
  2
AcDbMLeaderStyle
  3
ACDB_MLEADERSTYLE_CLASS
 90
     4095
280
     0
281
     0
  0
CLASS
  1
CELLSTYLEMAP
  2
AcDbCellStyleMap
  3
ObjectDBX Classes
 90
     1152
280
     0
281
     0
  0
CLASS
  1
EXACXREFPANELOBJECT
  2
ExAcXREFPanelObject
  3
EXAC_ESW
 90
     1025
280
     1
281
     0
  0
CLASS
  1
NPOCOLLECTION
  2
AcDbImpNonPersistentObjectsCollection
  3
ObjectDBX Classes
 90
     1153
280
     1
281
     0
  0
CLASS
  1
SUN
  2
AcDbSun
  3
SCENEOE
 90
     1153
280
     0
281
     0
  0
CLASS
  1
XRECORD
  2
AcDbXrecord
  3
ObjectDBX Classes
 90
    32768
280
     0
281
     0
  0
CLASS
  1
HATCH
  2
AcDbHatch
  3
ObjectDBX Classes
 90
    32768
280
     0
281
     1
  0
ENDSEC
  0
SECTION
  2
TABLES
  0
TABLE
  2
VPORT
  5
8
330
0
100
AcDbSymbolTable
 70
     1
  0
VPORT
  5
19DC2
330
8
100
AcDbSymbolTableRecord
100
AcDbViewportTableRecord
  2
*ACTIVE
 70
     0
 10
0.0
 20
0.0
 11
1.0
 21
1.0
 12
576.3993401296415
 22
-589.5824273709477
 13
0.0
 23
0.0
 14
10.0
 24
10.0
 15
10.0
 25
10.0
 16
0.0
 26
0.0
 36
1.0
 17
0.0
 27
0.0
 37
0.0
 40
235.2592117843603
 41
1.803066037735849
 42
50.0
 43
0.0
 44
0.0
 50
0.0
 51
0.0
 71
    16
 72
   100
 73
     1
 74
     1
 75
     0
 76
     0
 77
     0
 78
     0
1001
ACAD_NAV_VCDISPLAY
1070
     3
  0
ENDTAB
  0
TABLE
  2
LTYPE
  5
5
330
0
100
AcDbSymbolTable
 70
     3
  0
LTYPE
  5
12
330
5
100
AcDbSymbolTableRecord
100
AcDbLinetypeTableRecord
  2
BYBLOCK
 70
     0
  3

 72
    65
 73
     0
 40
0.0
  0
LTYPE
  5
13
330
5
100
AcDbSymbolTableRecord
100
AcDbLinetypeTableRecord
  2
BYLAYER
 70
     0
  3

 72
    65
 73
     0
 40
0.0
  0
LTYPE
  5
14
330
5
100
AcDbSymbolTableRecord
100
AcDbLinetypeTableRecord
  2
CONTINUOUS
 70
     0
  3
Solid line
 72
    65
 73
     0
 40
0.0
  0
LTYPE
  5
26
330
5
100
AcDbSymbolTableRecord
100
AcDbLinetypeTableRecord
  2
CENTER2
 70
     0
  3
Center (.5x) ___ _ ___ _ ___ _ ___ _ ___ _ ___
 72
    65
 73
     4
 40
28.575
 49
19.05
 74
     0
 49
-3.175
 74
     0
 49
3.175
 74
     0
 49
-3.175
 74
     0
  0
LTYPE
  5
100
330
5
100
AcDbSymbolTableRecord
100
AcDbLinetypeTableRecord
  2
PHANTOM2
 70
     0
  3
Phantom (0.5x) ___ _ _ ___ _ _ ___ _ _ ___ _ _
 72
    65
 73
     6
 40
31.75
 49
15.875
 74
     0
 49
-3.175
 74
     0
 49
3.175
 74
     0
 49
-3.175
 74
     0
 49
3.175
 74
     0
 49
-3.175
 74
     0
  0
ENDTAB
  0
TABLE
  2
LAYER
  5
2
102
{ACAD_XDICTIONARY
360
18FE8
102
}
330
0
100
AcDbSymbolTable
 70
     6
  0
LAYER
  5
E
102
{ACAD_XDICTIONARY
360
1A20A
102
}
330
2
100
AcDbSymbolTableRecord
100
AcDbLayerTableRecord
  2
0
 70
     0
 62
     7
  6
CONTINUOUS
  0
LAYER
  5
29
102
{ACAD_XDICTIONARY
360
1A20C
102
}
330
2
100
AcDbSymbolTableRecord
100
AcDbLayerTableRecord
  2
1CENTER
 70
     0
 62
     7
  6
CENTER2
  0
LAYER
  5
31
102
{ACAD_XDICTIONARY
360
1A20E
102
}
330
2
100
AcDbSymbolTableRecord
100
AcDbLayerTableRecord
  2
1TEXT
 70
     0
 62
     7
  6
CONTINUOUS
  0
LAYER
  5
101
102
{ACAD_XDICTIONARY
360
1A218
102
}
330
2
100
AcDbSymbolTableRecord
100
AcDbLayerTableRecord
  2
1DIM
 70
     0
 62
     7
  6
CONTINUOUS
  0
LAYER
  5
103
102
{ACAD_XDICTIONARY
360
1A21C
102
}
330
2
100
AcDbSymbolTableRecord
100
AcDbLayerTableRecord
  2
1PHANTOM
 70
     0
 62
     7
  6
PHANTOM2
  0
LAYER
  5
25F
102
{ACAD_XDICTIONARY
360
1A220
102
}
330
2
100
AcDbSymbolTableRecord
100
AcDbLayerTableRecord
  2
01
 70
     0
 62
     1
  6
CONTINUOUS
  0
ENDTAB
  0
TABLE
  2
STYLE
  5
3
330
0
100
AcDbSymbolTable
 70
     1
  0
STYLE
  5
F
330
3
100
AcDbSymbolTableRecord
100
AcDbTextStyleTableRecord
  2
STANDARD
 70
     0
 40
0.0
 41
1.0
 50
0.0
 71
     0
 42
4.0
  3
txt.shx
  4
extfont.shx
  0
ENDTAB
  0
TABLE
  2
VIEW
  5
6
330
0
100
AcDbSymbolTable
 70
     0
  0
ENDTAB
  0
TABLE
  2
UCS
  5
7
330
0
100
AcDbSymbolTable
 70
     0
  0
ENDTAB
  0
TABLE
  2
APPID
  5
9
330
0
100
AcDbSymbolTable
 70
    20
  0
APPID
  5
10
330
9
100
AcDbSymbolTableRecord
100
AcDbRegAppTableRecord
  2
ACAD
 70
     0
  0
APPID
  5
21
330
9
100
AcDbSymbolTableRecord
100
AcDbRegAppTableRecord
  2
DRAWINGVARIABLESXDATA
 70
     0
  0
APPID
  5
64
330
9
100
AcDbSymbolTableRecord
100
AcDbRegAppTableRecord
  2
CONTENTTABDATA
 70
     0
  0
APPID
  5
65
330
9
100
AcDbSymbolTableRecord
100
AcDbRegAppTableRecord
  2
CONTENTCURRENTTAB
 70
     0
  0
APPID
  5
66
330
9
100
AcDbSymbolTableRecord
100
AcDbRegAppTableRecord
  2
CONTENTBLOCKDESCRIPTION
 70
     0
  0
APPID
  5
67
330
9
100
AcDbSymbolTableRecord
100
AcDbRegAppTableRecord
  2
CONTENTBLOCKICON
 70
     0
  0
APPID
  5
68
330
9
100
AcDbSymbolTableRecord
100
AcDbRegAppTableRecord
  2
CONTENTLONGBLOCKNAME
 70
     0
  0
APPID
  5
5A9
330
9
100
AcDbSymbolTableRecord
100
AcDbRegAppTableRecord
  2
ACAD_PSEXT
 70
     0
  0
APPID
  5
18AC
330
9
100
AcDbSymbolTableRecord
100
AcDbRegAppTableRecord
  2
ACAD_DSTYLE_DIMTEXT_FILL
 70
     0
  0
APPID
  5
19E1A
330
9
100
AcDbSymbolTableRecord
100
AcDbRegAppTableRecord
  2
ACAD_MLEADERVER
 70
     0
  0
APPID
  5
1A2FA
330
9
100
AcDbSymbolTableRecord
100
AcDbRegAppTableRecord
  2
ACAD_DSTYLE_DIMRADIAL_EXTE
 70
     0
  0
APPID
  5
1DBC1
330
9
100
AcDbSymbolTableRecord
100
AcDbRegAppTableRecord
  2
ACADANNOTATIVE
 70
     0
  0
APPID
  5
1E991
330
9
100
AcDbSymbolTableRecord
100
AcDbRegAppTableRecord
  2
ACAD_EXEMPT_FROM_CAD_STAND
 70
     0
  0
APPID
  5
1F584
330
9
100
AcDbSymbolTableRecord
100
AcDbRegAppTableRecord
  2
ACDBBLOCKREPETAG
 70
     0
  0
APPID
  5
1FE5A
330
9
100
AcDbSymbolTableRecord
100
AcDbRegAppTableRecord
  2
ACAD_OBJECT_CHANGE_GUID
 70
     0
  0
APPID
  5
1FF6C
330
9
100
AcDbSymbolTableRecord
100
AcDbRegAppTableRecord
  2
ACLAYERTOOLS
 70
     0
  0
APPID
  5
1FF6D
330
9
100
AcDbSymbolTableRecord
100
AcDbRegAppTableRecord
  2
ACAD_NAV_VCDISPLAY
 70
     0
  0
APPID
  5
1FF6E
330
9
100
AcDbSymbolTableRecord
100
AcDbRegAppTableRecord
  2
ACAD_SPLINE_DATA
 70
     0
  0
APPID
  5
1FF6F
330
9
100
AcDbSymbolTableRecord
100
AcDbRegAppTableRecord
  2
GRADIENTCOLOR1ACI
 70
     0
  0
APPID
  5
1FF70
330
9
100
AcDbSymbolTableRecord
100
AcDbRegAppTableRecord
  2
GRADIENTCOLOR2ACI
 70
     0
  0
ENDTAB
  0
TABLE
  2
DIMSTYLE
  5
A
330
0
100
AcDbSymbolTable
 70
     1
  0
DIMSTYLE
105
48
330
A
100
AcDbSymbolTableRecord
100
AcDbDimStyleTableRecord
  2
NEWX10
 70
     0
  3
 
  4

  5

  6
OPEN30
  7
OPEN30
 40
1.0
 41
2.0
 42
0.0
 43
7.0
 44
1.0
 45
0.0
 46
0.0
 47
0.0
 48
0.0
140
3.5
141
0.0
142
0.0
143
25.4
144
1.0
145
0.0
146
0.7
147
0.7
 71
     0
 72
     0
 73
     0
 74
     0
 75
     0
 76
     0
 77
     1
 78
     8
170
     0
171
     2
172
     1
173
     1
174
     0
175
     0
176
   256
177
   256
178
   201
179
     2
270
     2
271
     2
272
     4
273
     2
274
     2
340
F
275
     0
280
     0
281
     0
282
     0
283
     1
284
     8
285
     0
286
     0
287
     2
288
     0
  0
ENDTAB
  0
TABLE
  2
BLOCK_RECORD
  5
1
330
0
100
AcDbSymbolTable
 70
     8
  0
BLOCK_RECORD
  5
18
102
{ACAD_XDICTIONARY
360
6E9
102
}
330
1
100
AcDbSymbolTableRecord
100
AcDbBlockTableRecord
  2
*MODEL_SPACE
  0
BLOCK_RECORD
  5
15
102
{ACAD_XDICTIONARY
360
59B
102
}
330
1
100
AcDbSymbolTableRecord
100
AcDbBlockTableRecord
  2
*PAPER_SPACE
  0
BLOCK_RECORD
  5
42
330
1
100
AcDbSymbolTableRecord
100
AcDbBlockTableRecord
  2
_OPEN30
  0
BLOCK_RECORD
  5
1F5D3
330
1
100
AcDbSymbolTableRecord
100
AcDbBlockTableRecord
  2
A3WAKUKAWAJUN2017_HYOUDAI_
  0
BLOCK_RECORD
  5
21231
330
1
100
AcDbSymbolTableRecord
100
AcDbBlockTableRecord
  2
*X47
  0
BLOCK_RECORD
  5
2127F
330
1
100
AcDbSymbolTableRecord
100
AcDbBlockTableRecord
  2
*X48
  0
BLOCK_RECORD
  5
212D1
330
1
100
AcDbSymbolTableRecord
100
AcDbBlockTableRecord
  2
*X49
  0
BLOCK_RECORD
  5
21322
330
1
100
AcDbSymbolTableRecord
100
AcDbBlockTableRecord
  2
*X50
  0
BLOCK_RECORD
  5
2135F
330
1
100
AcDbSymbolTableRecord
100
AcDbBlockTableRecord
  2
*X51
  0
BLOCK_RECORD
  5
2139F
330
1
100
AcDbSymbolTableRecord
100
AcDbBlockTableRecord
  2
*X52
  0
ENDTAB
  0
ENDSEC
  0
SECTION
  2
BLOCKS
  0
BLOCK
  5
19
330
18
100
AcDbEntity
  8
0
100
AcDbBlockBegin
  2
*MODEL_SPACE
 70
     0
 10
0.0
 20
0.0
 30
0.0
  3
*MODEL_SPACE
  1

  0
ENDBLK
  5
1A
330
18
100
AcDbEntity
  8
0
100
AcDbBlockEnd
  0
BLOCK
  5
16
330
15
100
AcDbEntity
 67
     1
  8
0
100
AcDbBlockBegin
  2
*PAPER_SPACE
 70
     0
 10
0.0
 20
0.0
 30
0.0
  3
*PAPER_SPACE
  1

  0
ENDBLK
  5
17
330
15
100
AcDbEntity
 67
     1
  8
0
100
AcDbBlockEnd
  0
BLOCK
  5
43
330
42
100
AcDbEntity
  8
0
100
AcDbBlockBegin
  2
_OPEN30
 70
     0
 10
0.0
 20
0.0
 30
0.0
  3
_OPEN30
  1

  0
LINE
  5
44
330
42
100
AcDbEntity
  8
0
  6
BYBLOCK
 62
     0
100
AcDbLine
 10
-1.0
 20
0.26794919
 30
0.0
 11
0.0
 21
0.0
 31
0.0
  0
LINE
  5
45
330
42
100
AcDbEntity
  8
0
  6
BYBLOCK
 62
     0
100
AcDbLine
 10
0.0
 20
0.0
 30
0.0
 11
-1.0
 21
-0.26794919
 31
0.0
  0
LINE
  5
46
330
42
100
AcDbEntity
  8
0
  6
BYBLOCK
 62
     0
100
AcDbLine
 10
0.0
 20
0.0
 30
0.0
 11
-1.0
 21
0.0
 31
0.0
  0
ENDBLK
  5
47
330
42
100
AcDbEntity
  8
0
100
AcDbBlockEnd
  0
BLOCK
  5
1FCDF
330
1F5D3
100
AcDbEntity
  8
0
100
AcDbBlockBegin
  2
A3WAKUKAWAJUN2017_HYOUDAI_
 70
     0
 10
0.0
 20
0.0
 30
0.0
  3
A3WAKUKAWAJUN2017_HYOUDAI_
  1

  0
LINE
  5
1F5D5
330
1F5D3
100
AcDbEntity
  8
0
100
AcDbLine
 10
13.26299999998673
 20
-0.0001000000000317
 30
0.0
 11
9.236999999990758
 21
8.999899999990987
 31
0.0
1001
ACAD
1000
ASC_BOUNDS
1002
{
1070
    19
1005
1F616
1002
}
  0
LINE
  5
1F5D6
330
1F5D3
100
AcDbEntity
  8
0
100
AcDbLine
 10
5.657999999994331
 20
0.9999999999989768
 30
0.0
 11
9.236999999990758
 21
8.999999999991019
 31
0.0
1001
ACAD
1000
ASC_BOUNDS
1002
{
1070
    19
1005
1F616
1002
}
  0
LINE
  5
1F5D7
330
1F5D3
100
AcDbEntity
  8
0
100
AcDbLine
 10
18.59199999998134
 20
-0.2368999999997641
 30
0.0
 11
16.46099999998353
 21
5.432899999994561
 31
0.0
1001
ACAD
1000
ASC_BOUNDS
1002
{
1070
    19
1005
1F617
1002
}
  0
LINE
  5
1F5D8
330
1F5D3
100
AcDbEntity
  8
0
100
AcDbLine
 10
18.59199999998134
 20
-0.2368999999997641
 30
0.0
 11
22.38199999997767
 21
8.763099999991255
 31
0.0
1001
ACAD
1000
ASC_BOUNDS
1002
{
1070
    19
1005
1F617
1002
}
  0
LINE
  5
1F5D9
330
1F5D3
100
AcDbEntity
  8
0
100
AcDbLine
 10
14.32899999998563
 20
-0.2368999999997641
 30
0.0
 11
16.46099999998353
 21
5.432899999994561
 31
0.0
1001
ACAD
1000
ASC_BOUNDS
1002
{
1070
    19
1005
1F617
1002
}
  0
LINE
  5
1F5DA
330
1F5D3
100
AcDbEntity
  8
0
100
AcDbLine
 10
14.32899999998563
 20
-0.2368999999997641
 30
0.0
 11
10.53899999998941
 21
8.763099999991255
 31
0.0
1001
ACAD
1000
ASC_BOUNDS
1002
{
1070
    19
1005
1F617
1002
}
  0
LINE
  5
1F5DB
330
1F5D3
100
AcDbEntity
  8
0
100
AcDbLine
 10
19.53899999998043
 20
-0.0001000000000317
 30
0.0
 11
23.56599999997638
 21
8.999899999990987
 31
0.0
1001
ACAD
1000
ASC_BOUNDS
1002
{
1070
    19
1005
1F618
1002
}
  0
LINE
  5
1F5DC
330
1F5D3
100
AcDbEntity
  8
0
100
AcDbLine
 10
26.97358892824991
 20
1.383099999991202
 30
0.0
 11
23.56599999997638
 21
8.999899999990987
 31
0.0
1001
ACAD
1000
ASC_BOUNDS
1002
{
1070
    19
1005
1F618
1002
}
  0
LINE
  5
1F5DD
330
1F5D3
100
AcDbEntity
  8
0
100
AcDbLine
 10
5.657999999994331
 20
0.9999999999989768
 30
0.0
 11
3.181999999996833
 21
4.668599999995308
 31
0.0
1001
ACAD
1000
ASC_BOUNDS
1002
{
1070
    19
1005
1F616
1002
}
  0
LINE
  5
1F5DE
330
1F5D3
100
AcDbEntity
  8
0
100
AcDbLine
 10
4.617999999995391
 20
-0.0001000000000317
 30
0.0
 11
1.420999999998571
 21
4.736799999995242
 31
0.0
1001
ACAD
1000
ASC_BOUNDS
1002
{
1070
    19
1005
1F616
1002
}
  0
LINE
  5
1F5DF
330
1F5D3
100
AcDbEntity
  8
0
100
AcDbLine
 10
1.420999999998571
 20
8.763099999991255
 30
0.0
 11
1.420999999998571
 21
0.0
 31
0.0
1001
ACAD
1000
ASC_BOUNDS
1002
{
1070
    19
1005
1F61B
1002
}
  0
LINE
  5
1F5E0
330
1F5D3
100
AcDbEntity
  8
0
100
AcDbLine
 10
0.0
 20
8.763099999991255
 30
0.0
 11
0.0
 21
0.0
 31
0.0
1001
ACAD
1000
ASC_BOUNDS
1002
{
1070
    19
1005
1F61B
1002
}
  0
LINE
  5
1F5E1
330
1F5D3
100
AcDbEntity
  8
0
100
AcDbLine
 10
6.766999999993232
 20
-0.0001000000000317
 30
0.0
 11
7.826999999992154
 21
2.368399999997621
 31
0.0
1001
ACAD
1000
ASC_BOUNDS
1002
{
1070
    19
1005
1F616
1002
}
  0
LINE
  5
1F5E2
330
1F5D3
100
AcDbEntity
  8
0
100
AcDbLine
 10
0.0
 20
0.0
 30
0.0
 11
1.420999999998571
 21
0.0
 31
0.0
1001
ACAD
1000
ASC_BOUNDS
1002
{
1070
    19
1005
1F61B
1002
}
  0
LINE
  5
1F5E3
330
1F5D3
100
AcDbEntity
  8
0
100
AcDbLine
 10
4.617999999995391
 20
0.0
 30
0.0
 11
6.766999999993232
 21
0.0
 31
0.0
1001
ACAD
1000
ASC_BOUNDS
1002
{
1070
    19
1005
1F616
1002
}
  0
LINE
  5
1F5E4
330
1F5D3
100
AcDbEntity
  8
0
100
AcDbLine
 10
11.70599999998831
 20
-0.0001000000000317
 30
0.0
 11
10.64699999998936
 21
2.368399999997621
 31
0.0
1001
ACAD
1000
ASC_BOUNDS
1002
{
1070
    19
1005
1F616
1002
}
  0
LINE
  5
1F5E5
330
1F5D3
100
AcDbEntity
  8
0
100
AcDbLine
 10
7.826999999992154
 20
2.368399999997621
 30
0.0
 11
10.64699999998936
 21
2.368399999997621
 31
0.0
1001
ACAD
1000
ASC_BOUNDS
1002
{
1070
    19
1005
1F616
1002
}
  0
LINE
  5
1F5E6
330
1F5D3
100
AcDbEntity
  8
0
100
AcDbLine
 10
11.70599999998831
 20
0.0
 30
0.0
 11
13.26299999998673
 21
0.0
 31
0.0
1001
ACAD
1000
ASC_BOUNDS
1002
{
1070
    19
1005
1F616
1002
}
  0
LINE
  5
1F5E7
330
1F5D3
100
AcDbEntity
  8
0
100
AcDbLine
 10
22.15599999997789
 20
2.368399999997621
 30
0.0
 11
24.97599999997499
 21
2.368399999997621
 31
0.0
1001
ACAD
1000
ASC_BOUNDS
1002
{
1070
    19
1005
1F618
1002
}
  0
LINE
  5
1F5E8
330
1F5D3
100
AcDbEntity
  8
0
100
AcDbLine
 10
19.53899999998043
 20
0.0
 30
0.0
 11
21.09599999997886
 21
0.0
 31
0.0
1001
ACAD
1000
ASC_BOUNDS
1002
{
1070
    19
1005
1F618
1002
}
  0
LINE
  5
1F5E9
330
1F5D3
100
AcDbEntity
  8
0
100
AcDbLine
 10
21.09599999997886
 20
-0.0001000000000317
 30
0.0
 11
22.15599999997789
 21
2.368399999997621
 31
0.0
1001
ACAD
1000
ASC_BOUNDS
1002
{
1070
    19
1005
1F618
1002
}
  0
LINE
  5
1F5EA
330
1F5D3
100
AcDbEntity
  8
0
100
AcDbLine
 10
26.02015566812236
 20
0.0330999999912365
 30
0.0
 11
24.97599999997499
 21
2.368399999997621
 31
0.0
1001
ACAD
1000
ASC_BOUNDS
1002
{
1070
    19
1005
1F618
1002
}
  0
LINE
  5
1F5EB
330
1F5D3
100
AcDbEntity
  8
0
100
AcDbLine
 10
14.32399999998563
 20
3.315799999996671
 30
0.0
 11
16.46099999998353
 21
8.999899999990987
 31
0.0
1001
ACAD
1000
ASC_BOUNDS
1002
{
1070
    19
1005
1F617
1002
}
  0
LINE
  5
1F5EC
330
1F5D3
100
AcDbEntity
  8
0
100
AcDbLine
 10
6.432999999993513
 20
8.763099999991255
 30
0.0
 11
3.181999999996833
 21
4.668599999995308
 31
0.0
1001
ACAD
1000
ASC_BOUNDS
1002
{
1070
    19
1005
1F616
1002
}
  0
LINE
  5
1F5ED
330
1F5D3
100
AcDbEntity
  8
0
100
AcDbLine
 10
4.617999999995391
 20
8.763099999991255
 30
0.0
 11
1.420999999998571
 21
4.736799999995242
 31
0.0
1001
ACAD
1000
ASC_BOUNDS
1002
{
1070
    19
1005
1F616
1002
}
  0
LINE
  5
1F5EE
330
1F5D3
100
AcDbEntity
  8
0
100
AcDbLine
 10
0.0
 20
8.763099999991255
 30
0.0
 11
1.420999999998571
 21
8.763099999991255
 31
0.0
1001
ACAD
1000
ASC_BOUNDS
1002
{
1070
    19
1005
1F61B
1002
}
  0
LINE
  5
1F5EF
330
1F5D3
100
AcDbEntity
  8
0
100
AcDbLine
 10
4.617999999995391
 20
8.763099999991255
 30
0.0
 11
6.432999999993513
 21
8.763099999991255
 31
0.0
1001
ACAD
1000
ASC_BOUNDS
1002
{
1070
    19
1005
1F616
1002
}
  0
LINE
  5
1F5F0
330
1F5D3
100
AcDbEntity
  8
0
100
AcDbLine
 10
14.32399999998563
 20
3.315799999996671
 30
0.0
 11
12.02999999998792
 21
8.763099999991255
 31
0.0
1001
ACAD
1000
ASC_BOUNDS
1002
{
1070
    19
1005
1F617
1002
}
  0
LINE
  5
1F5F1
330
1F5D3
100
AcDbEntity
  8
0
100
AcDbLine
 10
10.06399999998996
 20
3.670999999996297
 30
0.0
 11
9.236999999990758
 21
5.5200999999945
 31
0.0
1001
ACAD
1000
ASC_BOUNDS
1002
{
1070
    19
1005
1F616
1002
}
  0
LINE
  5
1F5F2
330
1F5D3
100
AcDbEntity
  8
0
100
AcDbLine
 10
8.409999999991555
 20
3.670999999996297
 30
0.0
 11
9.236999999990758
 21
5.5200999999945
 31
0.0
1001
ACAD
1000
ASC_BOUNDS
1002
{
1070
    19
1005
1F616
1002
}
  0
LINE
  5
1F5F3
330
1F5D3
100
AcDbEntity
  8
0
100
AcDbLine
 10
8.409999999991555
 20
3.670999999996297
 30
0.0
 11
10.06399999998996
 21
3.670999999996297
 31
0.0
1001
ACAD
1000
ASC_BOUNDS
1002
{
1070
    19
1005
1F616
1002
}
  0
LINE
  5
1F5F4
330
1F5D3
100
AcDbEntity
  8
0
100
AcDbLine
 10
10.53899999998941
 20
8.763099999991255
 30
0.0
 11
12.02999999998792
 21
8.763099999991255
 31
0.0
1001
ACAD
1000
ASC_BOUNDS
1002
{
1070
    19
1005
1F617
1002
}
  0
LINE
  5
1F5F5
330
1F5D3
100
AcDbEntity
  8
0
100
AcDbLine
 10
22.7389999999773
 20
3.670999999996297
 30
0.0
 11
23.56599999997638
 21
5.5200999999945
 31
0.0
1001
ACAD
1000
ASC_BOUNDS
1002
{
1070
    19
1005
1F618
1002
}
  0
LINE
  5
1F5F6
330
1F5D3
100
AcDbEntity
  8
0
100
AcDbLine
 10
22.7389999999773
 20
3.670999999996297
 30
0.0
 11
24.39299999997559
 21
3.670999999996297
 31
0.0
1001
ACAD
1000
ASC_BOUNDS
1002
{
1070
    19
1005
1F618
1002
}
  0
LINE
  5
1F5F7
330
1F5D3
100
AcDbEntity
  8
0
100
AcDbLine
 10
18.59799999998143
 20
3.315799999996671
 30
0.0
 11
20.89099999997916
 21
8.763099999991255
 31
0.0
1001
ACAD
1000
ASC_BOUNDS
1002
{
1070
    19
1005
1F617
1002
}
  0
LINE
  5
1F5F8
330
1F5D3
100
AcDbEntity
  8
0
100
AcDbLine
 10
18.59799999998143
 20
3.315799999996671
 30
0.0
 11
16.46099999998353
 21
8.999899999990987
 31
0.0
1001
ACAD
1000
ASC_BOUNDS
1002
{
1070
    19
1005
1F617
1002
}
  0
LINE
  5
1F5F9
330
1F5D3
100
AcDbEntity
  8
0
100
AcDbLine
 10
20.89099999997916
 20
8.763099999991255
 30
0.0
 11
22.38199999997767
 21
8.763099999991255
 31
0.0
1001
ACAD
1000
ASC_BOUNDS
1002
{
1070
    19
1005
1F617
1002
}
  0
LINE
  5
1F5FA
330
1F5D3
100
AcDbEntity
  8
0
100
AcDbLine
 10
24.39299999997559
 20
3.670999999996297
 30
0.0
 11
23.56599999997638
 21
5.5200999999945
 31
0.0
1001
ACAD
1000
ASC_BOUNDS
1002
{
1070
    19
1005
1F618
1002
}
  0
LINE
  5
1F5FB
330
1F5D3
100
AcDbEntity
  8
0
100
AcDbLine
 10
44.99999999995498
 20
-0.2368999999997641
 30
0.0
 11
40.02599999995994
 21
5.341799999994635
 31
0.0
1001
ACAD
1000
ASC_BOUNDS
1002
{
1070
    19
1005
1F61A
1002
}
  0
LINE
  5
1F5FC
330
1F5D3
100
AcDbEntity
  8
0
100
AcDbLine
 10
40.02599999995994
 20
5.341799999994635
 30
0.0
 11
40.02599999995994
 21
0.0
 31
0.0
1001
ACAD
1000
ASC_BOUNDS
1002
{
1070
    19
1005
1F61A
1002
}
  0
LINE
  5
1F5FD
330
1F5D3
100
AcDbEntity
  8
0
100
AcDbLine
 10
38.60499999996136
 20
8.999999999991019
 30
0.0
 11
38.60499999996136
 21
0.0
 31
0.0
1001
ACAD
1000
ASC_BOUNDS
1002
{
1070
    19
1005
1F61A
1002
}
  0
LINE
  5
1F5FE
330
1F5D3
100
AcDbEntity
  8
0
100
AcDbLine
 10
44.99999999995498
 20
8.763099999991255
 30
0.0
 11
44.99999999995498
 21
-0.2368999999997641
 31
0.0
1001
ACAD
1000
ASC_BOUNDS
1002
{
1070
    19
1005
1F61A
1002
}
  0
LINE
  5
1F5FF
330
1F5D3
100
AcDbEntity
  8
0
100
AcDbLine
 10
38.60499999996136
 20
0.0
 30
0.0
 11
40.02599999995994
 21
0.0
 31
0.0
1001
ACAD
1000
ASC_BOUNDS
1002
{
1070
    19
1005
1F61A
1002
}
  0
LINE
  5
1F600
330
1F5D3
100
AcDbEntity
  8
0
100
AcDbLine
 10
43.57899999995641
 20
3.421199999996588
 30
0.0
 11
38.60499999996136
 21
8.999899999990987
 31
0.0
1001
ACAD
1000
ASC_BOUNDS
1002
{
1070
    19
1005
1F61A
1002
}
  0
LINE
  5
1F601
330
1F5D3
100
AcDbEntity
  8
0
100
AcDbLine
 10
43.57899999995641
 20
8.763099999991255
 30
0.0
 11
43.57899999995641
 21
3.421199999996588
 31
0.0
1001
ACAD
1000
ASC_BOUNDS
1002
{
1070
    19
1005
1F61A
1002
}
  0
LINE
  5
1F602
330
1F5D3
100
AcDbEntity
  8
0
100
AcDbLine
 10
43.57899999995641
 20
8.763099999991255
 30
0.0
 11
44.99999999995498
 21
8.763099999991255
 31
0.0
1001
ACAD
1000
ASC_BOUNDS
1002
{
1070
    19
1005
1F61A
1002
}
  0
LINE
  5
1F603
330
1F5D3
100
AcDbEntity
  8
0
100
AcDbLine
 10
37.67199999996831
 20
8.763099999991255
 30
0.0
 11
36.23199999996837
 21
8.763099999991255
 31
0.0
  0
LINE
  5
1F604
330
1F5D3
100
AcDbEntity
  8
0
100
AcDbLine
 10
31.64199999996833
 20
8.763099999991255
 30
0.0
 11
31.64199999996833
 21
2.481619422925121
 31
0.0
  0
LINE
  5
1F605
330
1F5D3
100
AcDbEntity
  8
0
100
AcDbLine
 10
37.67199999996831
 20
8.763099999991255
 30
0.0
 11
37.67199999996831
 21
2.481619422925121
 31
0.0
  0
LINE
  5
1F606
330
1F5D3
100
AcDbEntity
  8
0
100
AcDbLine
 10
36.23199999996837
 20
8.763099999991255
 30
0.0
 11
36.23199999996837
 21
2.481619422925064
 31
0.0
  0
LINE
  5
1F607
330
1F5D3
100
AcDbEntity
  8
0
100
AcDbLine
 10
33.08199999996839
 20
8.763099999991255
 30
0.0
 11
33.08199999996839
 21
2.481619422925121
 31
0.0
  0
ARC
  5
1F608
330
1F5D3
100
AcDbEntity
  8
0
100
AcDbCircle
 10
34.65699999996832
 20
3.183099999991214
 30
0.0
 40
3.420000000000007
100
AcDbArc
 50
240.0000000000255
 51
299.9999999999766
  0
ARC
  5
1F609
330
1F5D3
100
AcDbEntity
  8
0
100
AcDbCircle
 10
34.65699999996832
 20
3.183099999991214
 30
0.0
 40
1.97999999999999
100
AcDbArc
 50
240.000000000026
 51
299.9999999999703
  0
LINE
  5
1F60A
330
1F5D3
100
AcDbEntity
  8
0
100
AcDbLine
 10
33.08199999996828
 20
8.763099999991255
 30
0.0
 11
31.64199999996833
 21
8.763099999991255
 31
0.0
  0
ARC
  5
1F60B
330
1F5D3
100
AcDbEntity
  8
0
100
AcDbCircle
 10
35.06199999996829
 20
2.481619422925064
 30
0.0
 40
1.17
100
AcDbArc
 50
299.9999999999699
 51
0.0
  0
ARC
  5
1F60C
330
1F5D3
100
AcDbEntity
  8
0
100
AcDbCircle
 10
34.25199999996835
 20
2.481619422925121
 30
0.0
 40
1.17
100
AcDbArc
 50
180.0
 51
240.0000000000238
  0
ARC
  5
1F60D
330
1F5D3
100
AcDbEntity
  8
0
100
AcDbCircle
 10
35.06199999996841
 20
2.481619422925121
 30
0.0
 40
2.61
100
AcDbArc
 50
299.9999999999756
 51
0.0
  0
ARC
  5
1F60E
330
1F5D3
100
AcDbEntity
  8
0
100
AcDbCircle
 10
34.25199999996835
 20
2.481619422925121
 30
0.0
 40
2.61
100
AcDbArc
 50
180.0
 51
240.0000000000244
  0
LINE
  5
1F60F
330
1F5D3
100
AcDbEntity
  8
0
100
AcDbLine
 10
29.30199999996933
 20
8.763099999991255
 30
0.0
 11
30.74199999996927
 21
8.763099999991255
 31
0.0
1001
ACAD
1000
ASC_BOUNDS
1002
{
1070
    19
1005
1F618
1002
}
  0
LINE
  5
1F610
330
1F5D3
100
AcDbEntity
  8
0
100
AcDbLine
 10
30.74199999996927
 20
8.763099999991255
 30
0.0
 11
30.74199999996927
 21
2.373099999991211
 31
0.0
1001
ACAD
1000
ASC_BOUNDS
1002
{
1070
    19
1005
1F618
1002
}
  0
LINE
  5
1F611
330
1F5D3
100
AcDbEntity
  8
0
100
AcDbLine
 10
26.02015566812236
 20
0.0330999999912365
 30
0.0
 11
28.40199999996923
 21
0.0330999999912365
 31
0.0
1001
ACAD
1000
ASC_BOUNDS
1002
{
1070
    19
1005
1F618
1002
}
  0
LINE
  5
1F612
330
1F5D3
100
AcDbEntity
  8
0
100
AcDbLine
 10
29.30199999996933
 20
8.763099999991255
 30
0.0
 11
29.30199999996933
 21
2.283099999991236
 31
0.0
1001
ACAD
1000
ASC_BOUNDS
1002
{
1070
    19
1005
1F618
1002
}
  0
LINE
  5
1F613
330
1F5D3
100
AcDbEntity
  8
0
100
AcDbLine
 10
26.97358892824991
 20
1.383099999991202
 30
0.0
 11
28.40199999996923
 21
1.383099999991202
 31
0.0
1001
ACAD
1000
ASC_BOUNDS
1002
{
1070
    19
1005
1F618
1002
}
  0
ARC
  5
1F614
330
1F5D3
100
AcDbEntity
  8
0
100
AcDbCircle
 10
28.40199999996923
 20
2.283099999991236
 30
0.0
 40
0.9
100
AcDbArc
 50
270.0
 51
0.0
1001
ACAD
1000
ASC_BOUNDS
1002
{
1070
    19
1005
1F618
1002
}
  0
ARC
  5
1F615
330
1F5D3
100
AcDbEntity
  8
0
100
AcDbCircle
 10
28.40199999996923
 20
2.373099999991211
 30
0.0
 40
2.34
100
AcDbArc
 50
270.0
 51
0.0
1001
ACAD
1000
ASC_BOUNDS
1002
{
1070
    19
1005
1F618
1002
}
  0
INSERT
  5
1F616
330
1F5D3
100
AcDbEntity
  8
0
100
AcDbBlockReference
  2
*X47
 10
0.0
 20
0.0
 30
0.0
1001
ACAD
1000
HATCH
1002
{
1070
    19
1000
ANSI37
1040
0.15
1040
0.0
1000
ASC_BOUNDS
1070
     2
1070
     2
1070
    12
1005
1F5D5
1005
1F5D6
1005
1F5DD
1005
1F5EC
1005
1F5EF
1005
1F5ED
1005
1F5DE
1005
1F5E3
1005
1F5E1
1005
1F5E5
1005
1F5E4
1005
1F5E6
1070
     2
1070
     3
1005
1F5F1
1005
1F5F3
1005
1F5F2
1000
ASC_SEEDPOINT
1011
3.614004224891801
1021
2.996669441146025
1031
0.0
1000
R14_HATCH_DATA
1000
1F616
1011
1.0
1021
0.0
1031
0.0
1011
0.0
1021
1.0
1031
0.0
1011
0.0
1021
0.0
1031
1.0
1040
0.0
1010
0.0
1020
0.0
1030
1.0
1000
ANSI37
1070
     0
1070
     1
1071
        2
1071
        7
1070
     0
1070
     1
1071
       17
1040
13.26299999998673
1040
-0.0001000000000317
1040
9.236999999990758
1040
8.999899999990987
1040
9.236999999990758
1040
8.999999999991019
1040
5.657999999994331
1040
0.9999999999989768
1040
3.181999999996833
1040
4.668599999995308
1040
6.432999999993513
1040
8.763099999991255
1040
4.617999999995391
1040
8.763099999991255
1040
1.420999999998571
1040
4.736799999995242
1040
4.617999999995391
1040
-0.0001000000000317
1040
4.617999999995391
1040
0.0
1040
6.766999999993232
1040
0.0
1040
6.766999999993232
1040
-0.0001000000000317
1040
7.826999999992154
1040
2.368399999997621
1040
10.64699999998936
1040
2.368399999997621
1040
11.70599999998831
1040
-0.0001000000000317
1040
11.70599999998831
1040
0.0
1040
13.26299999998673
1040
0.0
1071
       12
1005
1F5D5
1005
1F5D6
1005
1F5DD
1005
1F5EC
1005
1F5EF
1005
1F5ED
1005
1F5DE
1005
1F5E3
1005
1F5E1
1005
1F5E5
1005
1F5E4
1005
1F5E6
1071
       22
1070
     0
1070
     1
1071
        3
1040
9.236999999990758
1040
5.5200999999945
1040
10.06399999998996
1040
3.670999999996297
1040
8.409999999991555
1040
3.670999999996297
1071
        3
1005
1F5F1
1005
1F5F3
1005
1F5F2
1070
     0
1070
     1
1040
0.0
1040
0.15
1070
     0
1070
     2
1040
0.7853981633974483
1040
49.29960901727088
1040
-10.17736998311392
1040
-0.3367596045400932
1040
0.3367596045400932
1070
     0
1040
2.356194490192345
1040
49.29960901727088
1040
-10.17736998311392
1040
-0.3367596045400932
1040
-0.3367596045400932
1070
     0
1040
0.0110235143455945
1071
        2
1040
3.614004224891801
1040
2.996669441146025
1040
0.0
1040
3.614004224891801
1040
2.996669441146025
1040
0.0
1002
}
  0
INSERT
  5
1F617
330
1F5D3
100
AcDbEntity
  8
0
100
AcDbBlockReference
  2
*X48
 10
0.0
 20
0.0
 30
0.0
1001
ACAD
1000
HATCH
1002
{
1070
    19
1000
ANSI37
1040
0.15
1040
0.0
1000
ASC_BOUNDS
1070
     1
1070
     2
1070
    10
1005
1F5D7
1005
1F5D8
1005
1F5F9
1005
1F5F7
1005
1F5F8
1005
1F5EB
1005
1F5F0
1005
1F5F4
1005
1F5DA
1005
1F5D9
1000
ASC_SEEDPOINT
1011
14.73245321214324
1021
2.798246178283421
1031
0.0
1000
R14_HATCH_DATA
1000
1F617
1011
1.0
1021
0.0
1031
0.0
1011
0.0
1021
1.0
1031
0.0
1011
0.0
1021
0.0
1031
1.0
1040
0.0
1010
0.0
1020
0.0
1030
1.0
1000
ANSI37
1070
     0
1070
     1
1071
        1
1071
        7
1070
     0
1070
     1
1071
       10
1040
16.46099999998353
1040
5.432899999994561
1040
18.59199999998134
1040
-0.2368999999997641
1040
22.38199999997767
1040
8.763099999991255
1040
20.89099999997916
1040
8.763099999991255
1040
18.59799999998143
1040
3.315799999996671
1040
16.46099999998353
1040
8.999899999990987
1040
14.32399999998563
1040
3.315799999996671
1040
12.02999999998792
1040
8.763099999991255
1040
10.53899999998941
1040
8.763099999991255
1040
14.32899999998563
1040
-0.2368999999997641
1071
       10
1005
1F5D7
1005
1F5D8
1005
1F5F9
1005
1F5F7
1005
1F5F8
1005
1F5EB
1005
1F5F0
1005
1F5F4
1005
1F5DA
1005
1F5D9
1070
     0
1070
     1
1040
0.0
1040
0.15
1070
     0
1070
     2
1040
0.7853981633974483
1040
49.29960901727088
1040
-10.17736998311392
1040
-0.3367596045400932
1040
0.3367596045400932
1070
     0
1040
2.356194490192345
1040
49.29960901727088
1040
-10.17736998311392
1040
-0.3367596045400932
1040
-0.3367596045400932
1070
     0
1040
0.0110235143455945
1071
        1
1040
14.73245321214324
1040
2.798246178283421
1040
0.0
1002
}
  0
INSERT
  5
1F618
330
1F5D3
100
AcDbEntity
  8
0
100
AcDbBlockReference
  2
*X49
 10
0.0
 20
0.0
 30
0.0
1001
ACAD
1000
HATCH
1002
{
1070
    19
1000
ANSI37
1040
0.15
1040
0.0
1000
ASC_BOUNDS
1070
     2
1070
     2
1070
    13
1005
1F5DB
1005
1F5E8
1005
1F5E9
1005
1F5E7
1005
1F5EA
1005
1F611
1005
1F615
1005
1F610
1005
1F60F
1005
1F612
1005
1F614
1005
1F613
1005
1F5DC
1070
     2
1070
     3
1005
1F5F5
1005
1F5FA
1005
1F5F6
1000
ASC_SEEDPOINT
1011
21.97929957367762
1021
3.294304244259308
1031
0.0
1000
R14_HATCH_DATA
1000
1F618
1011
1.0
1021
0.0
1031
0.0
1011
0.0
1021
1.0
1031
0.0
1011
0.0
1021
0.0
1031
1.0
1040
0.0
1010
0.0
1020
0.0
1030
1.0
1000
ANSI37
1070
     0
1070
     1
1071
        2
1071
        7
1070
     1
1070
     1
1071
       15
1040
23.56599999997638
1040
8.999899999990987
1040
0.0
1040
19.53899999998043
1040
-0.0001000000000317
1040
0.0
1040
19.53899999998043
1040
0.0
1040
0.0
1040
21.09599999997886
1040
0.0
1040
0.0
1040
21.09599999997886
1040
-0.0001000000000317
1040
0.0
1040
22.15599999997789
1040
2.368399999997621
1040
0.0
1040
24.97599999997499
1040
2.368399999997621
1040
0.0
1040
26.02015566812236
1040
0.0330999999912365
1040
0.0
1040
28.40199999996923
1040
0.0330999999912365
1040
0.414213562373095
1040
30.74199999996923
1040
2.373099999991211
1040
0.0
1040
30.74199999996927
1040
8.763099999991255
1040
0.0
1040
29.30199999996933
1040
8.763099999991255
1040
0.0
1040
29.30199999996933
1040
2.283099999991236
1040
-0.414213562373095
1040
28.40199999996923
1040
1.383099999991237
1040
0.0
1040
26.97358892824991
1040
1.383099999991202
1040
0.0
1071
       13
1005
1F5DB
1005
1F5E8
1005
1F5E9
1005
1F5E7
1005
1F5EA
1005
1F611
1005
1F615
1005
1F610
1005
1F60F
1005
1F612
1005
1F614
1005
1F613
1005
1F5DC
1071
       22
1070
     0
1070
     1
1071
        3
1040
22.7389999999773
1040
3.670999999996297
1040
23.56599999997638
1040
5.5200999999945
1040
24.39299999997559
1040
3.670999999996297
1071
        3
1005
1F5F5
1005
1F5FA
1005
1F5F6
1070
     0
1070
     1
1040
0.0
1040
0.15
1070
     0
1070
     2
1040
0.7853981633974483
1040
49.29960901727088
1040
-10.17736998311392
1040
-0.3367596045400932
1040
0.3367596045400932
1070
     0
1040
2.356194490192345
1040
49.29960901727088
1040
-10.17736998311392
1040
-0.3367596045400932
1040
-0.3367596045400932
1070
     0
1040
0.0110235143455945
1071
        2
1040
21.97929957367762
1040
3.294304244259308
1040
0.0
1040
21.97929957367762
1040
3.294304244259308
1040
0.0
1002
}
  0
INSERT
  5
1F619
330
1F5D3
100
AcDbEntity
  8
0
100
AcDbBlockReference
  2
*X50
 10
0.0
 20
0.0
 30
0.0
1001
ACAD
1000
HATCH
1002
{
1070
    19
1000
ANSI37
1040
0.15
1040
0.0
1000
R14_HATCH_DATA
1000
1F619
1011
1.0
1021
0.0
1031
0.0
1011
0.0
1021
1.0
1031
0.0
1011
0.0
1021
0.0
1031
1.0
1040
0.0
1010
0.0
1020
0.0
1030
1.0
1000
ANSI37
1070
     0
1070
     1
1071
        1
1071
        7
1070
     1
1070
     1
1071
       12
1040
31.64199999996833
1040
2.481619422925121
1040
0.2679491924310942
1040
32.94699999997067
1040
0.2212931190493919
1040
0.2679491924301353
1040
36.36699999995983
1040
0.2212931190459813
1040
0.2679491924321411
1040
37.67199999996831
1040
2.481619422928361
1040
0.0
1040
37.67199999996831
1040
8.763099999991255
1040
0.0
1040
36.23199999996837
1040
8.763099999991255
1040
0.0
1040
36.23199999996837
1040
2.481619422925064
1040
-0.2679491924310291
1040
35.64699999996708
1040
1.468369700498386
1040
-0.267949192430519
1040
33.66699999997093
1040
1.468369700497703
1040
-0.267949192431809
1040
33.08199999996839
1040
2.481619422926997
1040
0.0
1040
33.08199999996839
1040
8.763099999991255
1040
0.0
1040
31.64199999996833
1040
8.763099999991255
1040
0.0
1071
        0
1070
     0
1070
     1
1040
0.0
1040
0.15
1070
     0
1070
     2
1040
0.7853981633974483
1040
49.29960901727088
1040
-10.17736998311392
1040
-0.3367596045400932
1040
0.3367596045400932
1070
     0
1040
2.356194490192345
1040
49.29960901727088
1040
-10.17736998311392
1040
-0.3367596045400932
1040
-0.3367596045400932
1070
     0
1040
0.0110235143455945
1071
        1
1040
32.30357378967278
1040
3.988785755459219
1040
0.0
1002
}
  0
INSERT
  5
1F61A
330
1F5D3
100
AcDbEntity
  8
0
100
AcDbBlockReference
  2
*X51
 10
0.0
 20
0.0
 30
0.0
1001
ACAD
1000
HATCH
1002
{
1070
    19
1000
ANSI37
1040
0.15
1040
0.0
1000
ASC_BOUNDS
1070
     1
1070
     2
1070
     8
1005
1F5FB
1005
1F5FE
1005
1F602
1005
1F601
1005
1F600
1005
1F5FD
1005
1F5FF
1005
1F5FC
1000
ASC_SEEDPOINT
1011
39.74896370716704
1021
4.484843821435049
1031
0.0
1000
R14_HATCH_DATA
1000
1F61A
1011
1.0
1021
0.0
1031
0.0
1011
0.0
1021
1.0
1031
0.0
1011
0.0
1021
0.0
1031
1.0
1040
0.0
1010
0.0
1020
0.0
1030
1.0
1000
ANSI37
1070
     0
1070
     1
1071
        1
1071
        7
1070
     0
1070
     1
1071
        9
1040
40.02599999995994
1040
5.341799999994635
1040
44.99999999995498
1040
-0.2368999999997641
1040
44.99999999995498
1040
8.763099999991255
1040
43.57899999995641
1040
8.763099999991255
1040
43.57899999995641
1040
3.421199999996588
1040
38.60499999996136
1040
8.999899999990987
1040
38.60499999996136
1040
8.999999999991019
1040
38.60499999996136
1040
0.0
1040
40.02599999995994
1040
0.0
1071
        8
1005
1F5FB
1005
1F5FE
1005
1F602
1005
1F601
1005
1F600
1005
1F5FD
1005
1F5FF
1005
1F5FC
1070
     0
1070
     1
1040
0.0
1040
0.15
1070
     0
1070
     2
1040
0.7853981633974483
1040
49.29960901727088
1040
-10.17736998311392
1040
-0.3367596045400932
1040
0.3367596045400932
1070
     0
1040
2.356194490192345
1040
49.29960901727088
1040
-10.17736998311392
1040
-0.3367596045400932
1040
-0.3367596045400932
1070
     0
1040
0.0110235143455945
1071
        1
1040
39.74896370716704
1040
4.484843821435049
1040
0.0
1002
}
  0
INSERT
  5
1F61B
330
1F5D3
100
AcDbEntity
  8
0
100
AcDbBlockReference
  2
*X52
 10
0.0
 20
0.0
 30
0.0
1001
ACAD
1000
HATCH
1002
{
1070
    19
1000
ANSI37
1040
0.15
1040
0.0
1000
ASC_BOUNDS
1070
     1
1070
     2
1070
     4
1005
1F5DF
1005
1F5EE
1005
1F5E0
1005
1F5E2
1000
ASC_SEEDPOINT
1011
1.079051535452663
1021
4.148538732891836
1031
0.0
1000
R14_HATCH_DATA
1000
1F61B
1011
1.0
1021
0.0
1031
0.0
1011
0.0
1021
1.0
1031
0.0
1011
0.0
1021
0.0
1031
1.0
1040
0.0
1010
0.0
1020
0.0
1030
1.0
1000
ANSI37
1070
     0
1070
     1
1071
        1
1071
        7
1070
     0
1070
     1
1071
        4
1040
1.420999999998571
1040
0.0
1040
1.420999999998571
1040
8.763099999991255
1040
0.0
1040
8.763099999991255
1040
0.0
1040
0.0
1071
        4
1005
1F5DF
1005
1F5EE
1005
1F5E0
1005
1F5E2
1070
     0
1070
     1
1040
0.0
1040
0.15
1070
     0
1070
     2
1040
0.7853981633974483
1040
49.29960901727088
1040
-10.17736998311392
1040
-0.3367596045400932
1040
0.3367596045400932
1070
     0
1040
2.356194490192345
1040
49.29960901727088
1040
-10.17736998311392
1040
-0.3367596045400932
1040
-0.3367596045400932
1070
     0
1040
0.0053004257112761
1071
        1
1040
1.079051535452663
1040
4.148538732891836
1040
0.0
1002
}
  0
ENDBLK
  5
1FCE0
330
1F5D3
100
AcDbEntity
  8
0
100
AcDbBlockEnd
  0
BLOCK
  5
213BF
330
21231
100
AcDbEntity
  8
0
100
AcDbBlockBegin
  2
*X47
 70
     1
 10
0.0
 20
0.0
 30
0.0
  3
*X47
  1

  0
LINE
  5
21232
330
21231
100
AcDbEntity
  8
0
  6
CONTINUOUS
100
AcDbLine
 10
3.418023043697893
 20
7.251849696850613
 30
0.0
 11
4.929273346838536
 21
8.763099999991255
 31
0.0
  0
LINE
  5
21233
330
21231
100
AcDbEntity
  8
0
  6
CONTINUOUS
100
AcDbLine
 10
1.483656411257782
 20
4.643963855330318
 30
0.0
 11
5.60279255591872
 21
8.763099999991255
 31
0.0
  0
LINE
  5
21234
330
21231
100
AcDbEntity
  8
0
  6
CONTINUOUS
100
AcDbLine
 10
1.755053947328235
 20
4.241842182320584
 30
0.0
 11
6.276311764998907
 21
8.763099999991255
 31
0.0
  0
LINE
  5
21235
330
21231
100
AcDbEntity
  8
0
  6
CONTINUOUS
100
AcDbLine
 10
2.026451483398688
 20
3.839720509310849
 30
0.0
 11
4.441040904851878
 21
6.254309930764039
 31
0.0
  0
LINE
  5
21236
330
21231
100
AcDbEntity
  8
0
  6
CONTINUOUS
100
AcDbLine
 10
2.297849019469139
 20
3.437598836301114
 30
0.0
 11
3.321765168359338
 21
4.461514985191313
 31
0.0
  0
LINE
  5
21237
330
21231
100
AcDbEntity
  8
0
  6
CONTINUOUS
100
AcDbLine
 10
2.569246555539591
 20
3.03547716329138
 30
0.0
 11
3.593163397972743
 21
4.059394005724531
 31
0.0
  0
LINE
  5
21238
330
21231
100
AcDbEntity
  8
0
  6
CONTINUOUS
100
AcDbLine
 10
2.840644091610043
 20
2.633355490281646
 30
0.0
 11
3.864561627586149
 21
3.657273026257751
 31
0.0
  0
LINE
  5
21239
330
21231
100
AcDbEntity
  8
0
  6
CONTINUOUS
100
AcDbLine
 10
3.112041627680496
 20
2.231233817271911
 30
0.0
 11
4.135959857199554
 21
3.25515204679097
 31
0.0
  0
LINE
  5
2123A
330
21231
100
AcDbEntity
  8
0
  6
CONTINUOUS
100
AcDbLine
 10
3.383439163750948
 20
1.829112144262177
 30
0.0
 11
4.40735808681296
 21
2.853031067324189
 31
0.0
  0
LINE
  5
2123B
330
21231
100
AcDbEntity
  8
0
  6
CONTINUOUS
100
AcDbLine
 10
3.654836699821399
 20
1.426990471252442
 30
0.0
 11
4.678756316426365
 21
2.450910087857407
 31
0.0
  0
LINE
  5
2123C
330
21231
100
AcDbEntity
  8
0
  6
CONTINUOUS
100
AcDbLine
 10
3.926234235891853
 20
1.024868798242709
 30
0.0
 11
4.95015454603977
 21
2.048789108390626
 31
0.0
  0
LINE
  5
2123D
330
21231
100
AcDbEntity
  8
0
  6
CONTINUOUS
100
AcDbLine
 10
4.197631771962304
 20
0.6227471252329737
 30
0.0
 11
5.221552775653176
 21
1.646668128923846
 31
0.0
  0
LINE
  5
2123E
330
21231
100
AcDbEntity
  8
0
  6
CONTINUOUS
100
AcDbLine
 10
8.715877546767851
 20
7.835069736359266
 30
0.0
 11
9.435953450375058
 21
8.555145639966472
 31
0.0
  0
LINE
  5
2123F
330
21231
100
AcDbEntity
  8
0
  6
CONTINUOUS
100
AcDbLine
 10
8.170620868422267
 20
6.616293848933497
 30
0.0
 11
9.644120833743461
 21
8.08979381425469
 31
0.0
  0
LINE
  5
21240
330
21231
100
AcDbEntity
  8
0
  6
CONTINUOUS
100
AcDbLine
 10
7.625364190076684
 20
5.397517961507727
 30
0.0
 11
9.852288217111864
 21
7.624441988542907
 31
0.0
  0
LINE
  5
21241
330
21231
100
AcDbEntity
  8
0
  6
CONTINUOUS
100
AcDbLine
 10
7.080107511731101
 20
4.178742074081957
 30
0.0
 11
10.06045560048027
 21
7.159090162831124
 31
0.0
  0
LINE
  5
21242
330
21231
100
AcDbEntity
  8
0
  6
CONTINUOUS
100
AcDbLine
 10
6.534850833385518
 20
2.959966186656187
 30
0.0
 11
10.26862298384867
 21
6.693738337119342
 31
0.0
  0
LINE
  5
21243
330
21231
100
AcDbEntity
  8
0
  6
CONTINUOUS
100
AcDbLine
 10
4.469029308032756
 20
0.2206254522232385
 30
0.0
 11
5.492951005266582
 21
1.244547149457064
 31
0.0
  0
LINE
  5
21244
330
21231
100
AcDbEntity
  8
0
  6
CONTINUOUS
100
AcDbLine
 10
5.989594155039935
 20
1.741190299230417
 30
0.0
 11
8.806950407233131
 21
4.558546551423613
 31
0.0
  0
LINE
  5
21245
330
21231
100
AcDbEntity
  8
0
  6
CONTINUOUS
100
AcDbLine
 10
9.401251593263643
 20
5.152847737454126
 30
0.0
 11
10.47679036721708
 21
6.228386511407559
 31
0.0
  0
LINE
  5
21246
330
21231
100
AcDbEntity
  8
0
  6
CONTINUOUS
100
AcDbLine
 10
4.921837203428691
 20
-0.0000858614610131
 30
0.0
 11
8.592923064886001
 21
3.670999999996297
 31
0.0
  0
LINE
  5
21247
330
21231
100
AcDbEntity
  8
0
  6
CONTINUOUS
100
AcDbLine
 10
9.609390446785305
 20
4.6874673818956
 30
0.0
 11
10.68495775058548
 21
5.763034685695775
 31
0.0
  0
LINE
  5
21248
330
21231
100
AcDbEntity
  8
0
  6
CONTINUOUS
100
AcDbLine
 10
5.595387755019432
 20
-0.0000545189504582
 30
0.0
 11
7.716137258923768
 21
2.120694984953879
 31
0.0
  0
LINE
  5
21249
330
21231
100
AcDbEntity
  8
0
  6
CONTINUOUS
100
AcDbLine
 10
6.268938306610172
 20
-0.000023176439905
 30
0.0
 11
7.170485805526503
 21
0.9015243224764267
 31
0.0
  0
LINE
  5
2124A
330
21231
100
AcDbEntity
  8
0
  6
CONTINUOUS
100
AcDbLine
 10
7.963842273967511
 20
2.368399999997621
 30
0.0
 11
9.266442273966188
 21
3.670999999996297
 31
0.0
  0
LINE
  5
2124B
330
21231
100
AcDbEntity
  8
0
  6
CONTINUOUS
100
AcDbLine
 10
8.637361483047696
 20
2.368399999997621
 30
0.0
 11
9.939961483046375
 21
3.670999999996297
 31
0.0
  0
LINE
  5
2124C
330
21231
100
AcDbEntity
  8
0
  6
CONTINUOUS
100
AcDbLine
 10
9.817529300306965
 20
4.222087026337075
 30
0.0
 11
10.89312513395388
 21
5.297682859983993
 31
0.0
  0
LINE
  5
2124D
330
21231
100
AcDbEntity
  8
0
  6
CONTINUOUS
100
AcDbLine
 10
10.02566815382863
 20
3.756706670778549
 30
0.0
 11
11.10129251732229
 21
4.832331034272211
 31
0.0
  0
LINE
  5
2124E
330
21231
100
AcDbEntity
  8
0
  6
CONTINUOUS
100
AcDbLine
 10
9.310880692127883
 20
2.368399999997621
 30
0.0
 11
11.30945990069069
 21
4.366979208560428
 31
0.0
  0
LINE
  5
2124F
330
21231
100
AcDbEntity
  8
0
  6
CONTINUOUS
100
AcDbLine
 10
9.98439990120807
 20
2.36839999999762
 30
0.0
 11
11.5176272840591
 21
3.901627382848645
 31
0.0
  0
LINE
  5
21250
330
21231
100
AcDbEntity
  8
0
  6
CONTINUOUS
100
AcDbLine
 10
10.65037369446246
 20
2.36085458417182
 30
0.0
 11
11.7257946674275
 21
3.436275557136862
 31
0.0
  0
LINE
  5
21251
330
21231
100
AcDbEntity
  8
0
  6
CONTINUOUS
100
AcDbLine
 10
10.85847197087848
 20
1.895433651507656
 30
0.0
 11
11.9339620507959
 21
2.97092373142508
 31
0.0
  0
LINE
  5
21252
330
21231
100
AcDbEntity
  8
0
  6
CONTINUOUS
100
AcDbLine
 10
11.0665702472945
 20
1.430012718843491
 30
0.0
 11
12.14212943416431
 21
2.505571905713296
 31
0.0
  0
LINE
  5
21253
330
21231
100
AcDbEntity
  8
0
  6
CONTINUOUS
100
AcDbLine
 10
11.27466852371052
 20
0.9645917861793256
 30
0.0
 11
12.35029681753271
 21
2.040220080001513
 31
0.0
  0
LINE
  5
21254
330
21231
100
AcDbEntity
  8
0
  6
CONTINUOUS
100
AcDbLine
 10
11.48276680012654
 20
0.4991708535151611
 30
0.0
 11
12.55846420090111
 21
1.57486825428973
 31
0.0
  0
LINE
  5
21255
330
21231
100
AcDbEntity
  8
0
  6
CONTINUOUS
100
AcDbLine
 10
11.69086507654257
 20
0.0337499208509957
 30
0.0
 11
12.76663158426952
 21
1.109516428577947
 31
0.0
  0
LINE
  5
21256
330
21231
100
AcDbEntity
  8
0
  6
CONTINUOUS
100
AcDbLine
 10
12.33057447873954
 20
-0.0000598860322123
 30
0.0
 11
12.97479896763792
 21
0.6441646028661663
 31
0.0
  0
LINE
  5
21257
330
21231
100
AcDbEntity
  8
0
  6
CONTINUOUS
100
AcDbLine
 10
13.00413694809395
 20
-0.0000166257579952
 30
0.0
 11
13.18296635100632
 21
0.1788127771543824
 31
0.0
  0
LINE
  5
21258
330
21231
100
AcDbEntity
  8
0
  6
CONTINUOUS
100
AcDbLine
 10
4.772852165289667
 20
-0.000092794222212
 30
0.0
 11
4.296495091028902
 21
0.4762642800385528
 31
0.0
  0
LINE
  5
21259
330
21231
100
AcDbEntity
  8
0
  6
CONTINUOUS
100
AcDbLine
 10
5.446340034776103
 20
-0.0000614546284616
 30
0.0
 11
2.898195908335625
 21
2.548082671812017
 31
0.0
  0
LINE
  5
2125A
330
21231
100
AcDbEntity
  8
0
  6
CONTINUOUS
100
AcDbLine
 10
6.119827904262539
 20
-0.0000301150347113
 30
0.0
 11
1.499896725642348
 21
4.61990106358548
 31
0.0
  0
LINE
  5
2125B
330
21231
100
AcDbEntity
  8
0
  6
CONTINUOUS
100
AcDbLine
 10
6.775136745476159
 20
0.0181802528318542
 30
0.0
 11
5.699826040202669
 21
1.093490958105344
 31
0.0
  0
LINE
  5
2125C
330
21231
100
AcDbEntity
  8
0
  6
CONTINUOUS
100
AcDbLine
 10
6.983376846288489
 20
0.4834593610997118
 30
0.0
 11
5.908008617934405
 21
1.558827589453796
 31
0.0
  0
LINE
  5
2125D
330
21231
100
AcDbEntity
  8
0
  6
CONTINUOUS
100
AcDbLine
 10
5.377063484962296
 20
1.416253513345719
 30
0.0
 11
1.702276957014131
 21
5.091040041293883
 31
0.0
  0
LINE
  5
2125E
330
21231
100
AcDbEntity
  8
0
  6
CONTINUOUS
100
AcDbLine
 10
3.978745891735324
 20
3.488090315652877
 30
0.0
 11
2.000373521109399
 21
5.466462686278803
 31
0.0
  0
LINE
  5
2125F
330
21231
100
AcDbEntity
  8
0
  6
CONTINUOUS
100
AcDbLine
 10
7.191616947100819
 20
0.948738469367568
 30
0.0
 11
6.11619119566614
 21
2.024164220802247
 31
0.0
  0
LINE
  5
21260
330
21231
100
AcDbEntity
  8
0
  6
CONTINUOUS
100
AcDbLine
 10
7.399857047913149
 20
1.414017577635424
 30
0.0
 11
6.324373773397875
 21
2.489500852150698
 31
0.0
  0
LINE
  5
21261
330
21231
100
AcDbEntity
  8
0
  6
CONTINUOUS
100
AcDbLine
 10
7.608097148725479
 20
1.879296685903281
 30
0.0
 11
6.53255635112961
 21
2.95483748349915
 31
0.0
  0
LINE
  5
21262
330
21231
100
AcDbEntity
  8
0
  6
CONTINUOUS
100
AcDbLine
 10
7.816337249537808
 20
2.344575794171138
 30
0.0
 11
6.740738928861345
 21
3.420174114847601
 31
0.0
  0
LINE
  5
21263
330
21231
100
AcDbEntity
  8
0
  6
CONTINUOUS
100
AcDbLine
 10
3.310241080789734
 20
4.830114335678653
 30
0.0
 11
2.298470085204666
 21
5.84188533126372
 31
0.0
  0
LINE
  5
21264
330
21231
100
AcDbEntity
  8
0
  6
CONTINUOUS
100
AcDbLine
 10
3.60832983563551
 20
5.205544789913063
 30
0.0
 11
2.596566649299935
 21
6.217307976248638
 31
0.0
  0
LINE
  5
21265
330
21231
100
AcDbEntity
  8
0
  6
CONTINUOUS
100
AcDbLine
 10
3.906418590481286
 20
5.580975244147473
 30
0.0
 11
2.894663213395203
 21
6.592730621233557
 31
0.0
  0
LINE
  5
21266
330
21231
100
AcDbEntity
  8
0
  6
CONTINUOUS
100
AcDbLine
 10
4.204507345327062
 20
5.956405698381884
 30
0.0
 11
3.192759777490472
 21
6.968153266218474
 31
0.0
  0
LINE
  5
21267
330
21231
100
AcDbEntity
  8
0
  6
CONTINUOUS
100
AcDbLine
 10
8.466032252791512
 20
2.368399999997621
 30
0.0
 11
6.948921506593081
 21
3.885510746196053
 31
0.0
  0
LINE
  5
21268
330
21231
100
AcDbEntity
  8
0
  6
CONTINUOUS
100
AcDbLine
 10
9.139551461871699
 20
2.36839999999762
 30
0.0
 11
7.157104084324816
 21
4.350847377544504
 31
0.0
  0
LINE
  5
21269
330
21231
100
AcDbEntity
  8
0
  6
CONTINUOUS
100
AcDbLine
 10
4.502596100172839
 20
6.331836152616295
 30
0.0
 11
3.49085634158574
 21
7.343575911203393
 31
0.0
  0
LINE
  5
2126A
330
21231
100
AcDbEntity
  8
0
  6
CONTINUOUS
100
AcDbLine
 10
4.800684855018615
 20
6.707266606850705
 30
0.0
 11
3.788952905681008
 21
7.718998556188312
 31
0.0
  0
LINE
  5
2126B
330
21231
100
AcDbEntity
  8
0
  6
CONTINUOUS
100
AcDbLine
 10
12.18154012887317
 20
-0.0000694579236642
 30
0.0
 11
11.32140332908496
 21
0.8600673418645499
 31
0.0
  0
LINE
  5
2126C
330
21231
100
AcDbEntity
  8
0
  6
CONTINUOUS
100
AcDbLine
 10
12.85501608323566
 20
-0.0000262032059659
 30
0.0
 11
10.77672456435345
 21
2.078265315676246
 31
0.0
  0
LINE
  5
2126D
330
21231
100
AcDbEntity
  8
0
  6
CONTINUOUS
100
AcDbLine
 10
9.813070670951886
 20
2.36839999999762
 30
0.0
 11
8.51047067095321
 21
3.670999999996297
 31
0.0
  0
LINE
  5
2126E
330
21231
100
AcDbEntity
  8
0
  6
CONTINUOUS
100
AcDbLine
 10
10.48658988003207
 20
2.36839999999762
 30
0.0
 11
9.183989880033396
 21
3.670999999996297
 31
0.0
  0
LINE
  5
2126F
330
21231
100
AcDbEntity
  8
0
  6
CONTINUOUS
100
AcDbLine
 10
8.441048632286794
 20
3.740422038662712
 30
0.0
 11
7.365286662056551
 21
4.816184008892956
 31
0.0
  0
LINE
  5
21270
330
21231
100
AcDbEntity
  8
0
  6
CONTINUOUS
100
AcDbLine
 10
8.649187485808454
 20
4.205802394221237
 30
0.0
 11
7.573469239788285
 21
5.281520640241407
 31
0.0
  0
LINE
  5
21271
330
21231
100
AcDbEntity
  8
0
  6
CONTINUOUS
100
AcDbLine
 10
5.098773609864391
 20
7.082697061085115
 30
0.0
 11
4.087049469776277
 21
8.09442120117323
 31
0.0
  0
LINE
  5
21272
330
21231
100
AcDbEntity
  8
0
  6
CONTINUOUS
100
AcDbLine
 10
5.396862364710167
 20
7.458127515319526
 30
0.0
 11
4.385146033871544
 21
8.469843846158149
 31
0.0
  0
LINE
  5
21273
330
21231
100
AcDbEntity
  8
0
  6
CONTINUOUS
100
AcDbLine
 10
13.04801363231285
 20
0.4804954567970334
 30
0.0
 11
9.85750908911358
 21
3.670999999996297
 31
0.0
  0
LINE
  5
21274
330
21231
100
AcDbEntity
  8
0
  6
CONTINUOUS
100
AcDbLine
 10
8.857326339330116
 20
4.671182749779763
 30
0.0
 11
7.781651817520021
 21
5.746857271589858
 31
0.0
  0
LINE
  5
21275
330
21231
100
AcDbEntity
  8
0
  6
CONTINUOUS
100
AcDbLine
 10
5.694951119555943
 20
7.833557969553937
 30
0.0
 11
4.765409089118624
 21
8.763099999991255
 31
0.0
  0
LINE
  5
21276
330
21231
100
AcDbEntity
  8
0
  6
CONTINUOUS
100
AcDbLine
 10
12.50286117236978
 20
1.699167125820288
 30
0.0
 11
9.68611877250287
 21
4.515909525687196
 31
0.0
  0
LINE
  5
21277
330
21231
100
AcDbEntity
  8
0
  6
CONTINUOUS
100
AcDbLine
 10
9.065465192851777
 20
5.136563105338288
 30
0.0
 11
7.989834395251757
 21
6.21219390293831
 31
0.0
  0
LINE
  5
21278
330
21231
100
AcDbEntity
  8
0
  6
CONTINUOUS
100
AcDbLine
 10
5.993039874401719
 20
8.208988423788346
 30
0.0
 11
5.43892829819881
 21
8.763099999991255
 31
0.0
  0
LINE
  5
21279
330
21231
100
AcDbEntity
  8
0
  6
CONTINUOUS
100
AcDbLine
 10
11.95770871242671
 20
2.917838794843543
 30
0.0
 11
8.19801697298349
 21
6.677530534286761
 31
0.0
  0
LINE
  5
2127A
330
21231
100
AcDbEntity
  8
0
  6
CONTINUOUS
100
AcDbLine
 10
6.291128629247495
 20
8.584418878022756
 30
0.0
 11
6.112447507278997
 21
8.763099999991255
 31
0.0
  0
LINE
  5
2127B
330
21231
100
AcDbEntity
  8
0
  6
CONTINUOUS
100
AcDbLine
 10
11.41255625248364
 20
4.136510463866797
 30
0.0
 11
8.406199550715227
 21
7.142867165635211
 31
0.0
  0
LINE
  5
2127C
330
21231
100
AcDbEntity
  8
0
  6
CONTINUOUS
100
AcDbLine
 10
10.86740379254057
 20
5.355182132890051
 30
0.0
 11
8.614382128446962
 21
7.608203796983664
 31
0.0
  0
LINE
  5
2127D
330
21231
100
AcDbEntity
  8
0
  6
CONTINUOUS
100
AcDbLine
 10
10.3222513325975
 20
6.573853801913305
 30
0.0
 11
8.822564706178696
 21
8.073540428332114
 31
0.0
  0
LINE
  5
2127E
330
21231
100
AcDbEntity
  8
0
  6
CONTINUOUS
100
AcDbLine
 10
9.777098872654436
 20
7.792525470936562
 30
0.0
 11
9.030747283910433
 21
8.538877059680566
 31
0.0
  0
ENDBLK
  5
213C0
330
21231
100
AcDbEntity
  8
0
100
AcDbBlockEnd
  0
BLOCK
  5
213C1
330
2127F
100
AcDbEntity
  8
0
100
AcDbBlockBegin
  2
*X48
 70
     1
 10
0.0
 20
0.0
 30
0.0
  3
*X48
  1

  0
LINE
  5
21280
330
2127F
100
AcDbEntity
  8
0
  6
CONTINUOUS
100
AcDbLine
 10
10.67292308101235
 20
8.445076852443387
 30
0.0
 11
10.99094622856022
 21
8.763099999991255
 31
0.0
  0
LINE
  5
21281
330
2127F
100
AcDbEntity
  8
0
  6
CONTINUOUS
100
AcDbLine
 10
10.87250383178748
 20
7.971138394138331
 30
0.0
 11
11.6644654376404
 21
8.763099999991255
 31
0.0
  0
LINE
  5
21282
330
2127F
100
AcDbEntity
  8
0
  6
CONTINUOUS
100
AcDbLine
 10
11.07208458256261
 20
7.497199935833273
 30
0.0
 11
12.12126590876355
 21
8.546381262034211
 31
0.0
  0
LINE
  5
21283
330
2127F
100
AcDbEntity
  8
0
  6
CONTINUOUS
100
AcDbLine
 10
11.27166533333774
 20
7.023261477528216
 30
0.0
 11
12.32085164573666
 21
8.072447789927136
 31
0.0
  0
LINE
  5
21284
330
2127F
100
AcDbEntity
  8
0
  6
CONTINUOUS
100
AcDbLine
 10
11.47124608411287
 20
6.549323019223158
 30
0.0
 11
12.52043738270977
 21
7.59851431782006
 31
0.0
  0
LINE
  5
21285
330
2127F
100
AcDbEntity
  8
0
  6
CONTINUOUS
100
AcDbLine
 10
11.670826834888
 20
6.075384560918101
 30
0.0
 11
12.72002311968288
 21
7.124580845712984
 31
0.0
  0
LINE
  5
21286
330
2127F
100
AcDbEntity
  8
0
  6
CONTINUOUS
100
AcDbLine
 10
11.87040758566313
 20
5.601446102613043
 30
0.0
 11
12.91960885665599
 21
6.650647373605907
 31
0.0
  0
LINE
  5
21287
330
2127F
100
AcDbEntity
  8
0
  6
CONTINUOUS
100
AcDbLine
 10
12.06998833643825
 20
5.127507644307986
 30
0.0
 11
13.1191945936291
 21
6.176713901498832
 31
0.0
  0
LINE
  5
21288
330
2127F
100
AcDbEntity
  8
0
  6
CONTINUOUS
100
AcDbLine
 10
12.26956908721338
 20
4.65356918600293
 30
0.0
 11
13.31878033060221
 21
5.702780429391757
 31
0.0
  0
LINE
  5
21289
330
2127F
100
AcDbEntity
  8
0
  6
CONTINUOUS
100
AcDbLine
 10
12.46914983798851
 20
4.179630727697873
 30
0.0
 11
13.51836606757532
 21
5.228846957284683
 31
0.0
  0
LINE
  5
2128A
330
2127F
100
AcDbEntity
  8
0
  6
CONTINUOUS
100
AcDbLine
 10
12.66873058876364
 20
3.705692269392816
 30
0.0
 11
13.71795180454843
 21
4.754913485177607
 31
0.0
  0
LINE
  5
2128B
330
2127F
100
AcDbEntity
  8
0
  6
CONTINUOUS
100
AcDbLine
 10
12.86831133953877
 20
3.231753811087759
 30
0.0
 11
13.91753754152154
 21
4.280980013070531
 31
0.0
  0
LINE
  5
2128C
330
2127F
100
AcDbEntity
  8
0
  6
CONTINUOUS
100
AcDbLine
 10
13.0678920903139
 20
2.757815352782702
 30
0.0
 11
14.11712327849465
 21
3.807046540963456
 31
0.0
  0
LINE
  5
2128D
330
2127F
100
AcDbEntity
  8
0
  6
CONTINUOUS
100
AcDbLine
 10
13.26747284108903
 20
2.283876894477644
 30
0.0
 11
14.31670901546777
 21
3.333113068856379
 31
0.0
  0
LINE
  5
2128E
330
2127F
100
AcDbEntity
  8
0
  6
CONTINUOUS
100
AcDbLine
 10
16.36767838827179
 20
8.751678487061342
 30
0.0
 11
16.50332410898388
 21
8.887324207773432
 31
0.0
  0
LINE
  5
2128F
330
2127F
100
AcDbEntity
  8
0
  6
CONTINUOUS
100
AcDbLine
 10
15.96190732182191
 20
7.67238821153127
 30
0.0
 11
16.68735328004734
 21
8.397834169756699
 31
0.0
  0
LINE
  5
21290
330
2127F
100
AcDbEntity
  8
0
  6
CONTINUOUS
100
AcDbLine
 10
15.55613625537202
 20
6.593097936001196
 30
0.0
 11
16.87138245111079
 21
7.908344131739965
 31
0.0
  0
LINE
  5
21291
330
2127F
100
AcDbEntity
  8
0
  6
CONTINUOUS
100
AcDbLine
 10
15.15036518892213
 20
5.513807660471122
 30
0.0
 11
17.05541162217424
 21
7.418854093723231
 31
0.0
  0
LINE
  5
21292
330
2127F
100
AcDbEntity
  8
0
  6
CONTINUOUS
100
AcDbLine
 10
14.74459412247225
 20
4.434517384941048
 30
0.0
 11
17.2394407932377
 21
6.929364055706499
 31
0.0
  0
LINE
  5
21293
330
2127F
100
AcDbEntity
  8
0
  6
CONTINUOUS
100
AcDbLine
 10
14.33882305602236
 20
3.355227109410975
 30
0.0
 11
17.42346996430115
 21
6.439874017689766
 31
0.0
  0
LINE
  5
21294
330
2127F
100
AcDbEntity
  8
0
  6
CONTINUOUS
100
AcDbLine
 10
13.46705359186416
 20
1.809938436172586
 30
0.0
 11
16.0819338255367
 21
4.424818669845129
 31
0.0
  0
LINE
  5
21295
330
2127F
100
AcDbEntity
  8
0
  6
CONTINUOUS
100
AcDbLine
 10
16.63283254238972
 20
4.975717386698149
 30
0.0
 11
17.60749913536461
 21
5.950383979673033
 31
0.0
  0
LINE
  5
21296
330
2127F
100
AcDbEntity
  8
0
  6
CONTINUOUS
100
AcDbLine
 10
13.66663434263929
 20
1.335999977867529
 30
0.0
 11
15.67604797733754
 21
3.345413612565779
 31
0.0
  0
LINE
  5
21297
330
2127F
100
AcDbEntity
  8
0
  6
CONTINUOUS
100
AcDbLine
 10
13.86621509341442
 20
0.8620615195624723
 30
0.0
 11
15.27016212913838
 21
2.26600855528643
 31
0.0
  0
LINE
  5
21298
330
2127F
100
AcDbEntity
  8
0
  6
CONTINUOUS
100
AcDbLine
 10
16.81682257348267
 20
4.486188208710908
 30
0.0
 11
17.79152830642806
 21
5.460893941656299
 31
0.0
  0
LINE
  5
21299
330
2127F
100
AcDbEntity
  8
0
  6
CONTINUOUS
100
AcDbLine
 10
17.00081260457561
 20
3.996659030723667
 30
0.0
 11
17.97555747749151
 21
4.971403903639565
 31
0.0
  0
LINE
  5
2129A
330
2127F
100
AcDbEntity
  8
0
  6
CONTINUOUS
100
AcDbLine
 10
20.74362343514722
 20
8.412989070375462
 30
0.0
 11
21.09373436476302
 21
8.763099999991256
 31
0.0
  0
LINE
  5
2129B
330
2127F
100
AcDbEntity
  8
0
  6
CONTINUOUS
100
AcDbLine
 10
20.25401257174777
 20
7.249858997895826
 30
0.0
 11
21.7672535738432
 21
8.763099999991255
 31
0.0
  0
LINE
  5
2129C
330
2127F
100
AcDbEntity
  8
0
  6
CONTINUOUS
100
AcDbLine
 10
14.06579584418955
 20
0.3881230612574149
 30
0.0
 11
14.86427628093921
 21
1.186603498007082
 31
0.0
  0
LINE
  5
2129D
330
2127F
100
AcDbEntity
  8
0
  6
CONTINUOUS
100
AcDbLine
 10
14.26537659496467
 20
-0.0858153970476412
 30
0.0
 11
14.45839043274005
 21
0.1071984407277329
 31
0.0
  0
LINE
  5
2129E
330
2127F
100
AcDbEntity
  8
0
  6
CONTINUOUS
100
AcDbLine
 10
17.18480263566856
 20
3.507129852736426
 30
0.0
 11
18.15958664855496
 21
4.481913865622833
 31
0.0
  0
LINE
  5
2129F
330
2127F
100
AcDbEntity
  8
0
  6
CONTINUOUS
100
AcDbLine
 10
17.3687926667615
 20
3.017600674749186
 30
0.0
 11
18.34361581961842
 21
3.9924238276061
 31
0.0
  0
LINE
  5
212A0
330
2127F
100
AcDbEntity
  8
0
  6
CONTINUOUS
100
AcDbLine
 10
19.76440170834832
 20
6.086728925416191
 30
0.0
 11
22.33924590259489
 21
8.661573119662755
 31
0.0
  0
LINE
  5
212A1
330
2127F
100
AcDbEntity
  8
0
  6
CONTINUOUS
100
AcDbLine
 10
19.27479084494887
 20
4.923598852936555
 30
0.0
 11
21.84929622842713
 21
7.498104236414807
 31
0.0
  0
LINE
  5
212A2
330
2127F
100
AcDbEntity
  8
0
  6
CONTINUOUS
100
AcDbLine
 10
17.55278269785445
 20
2.528071496761945
 30
0.0
 11
18.52764499068187
 21
3.502933789589366
 31
0.0
  0
LINE
  5
212A3
330
2127F
100
AcDbEntity
  8
0
  6
CONTINUOUS
100
AcDbLine
 10
18.78517998154942
 20
3.760468780456919
 30
0.0
 11
21.35934655425936
 21
6.33463535316686
 31
0.0
  0
LINE
  5
212A4
330
2127F
100
AcDbEntity
  8
0
  6
CONTINUOUS
100
AcDbLine
 10
17.73677272894739
 20
2.038542318774704
 30
0.0
 11
20.8693968800916
 21
5.171166469918914
 31
0.0
  0
LINE
  5
212A5
330
2127F
100
AcDbEntity
  8
0
  6
CONTINUOUS
100
AcDbLine
 10
17.92076276004034
 20
1.549013140787464
 30
0.0
 11
20.37944720592384
 21
4.007697586670968
 31
0.0
  0
LINE
  5
212A6
330
2127F
100
AcDbEntity
  8
0
  6
CONTINUOUS
100
AcDbLine
 10
18.10475279113329
 20
1.059483962800223
 30
0.0
 11
19.88949753175608
 21
2.84422870342302
 31
0.0
  0
LINE
  5
212A7
330
2127F
100
AcDbEntity
  8
0
  6
CONTINUOUS
100
AcDbLine
 10
18.28874282222623
 20
0.5699547848129822
 30
0.0
 11
19.39954785758832
 21
1.680759820175074
 31
0.0
  0
LINE
  5
212A8
330
2127F
100
AcDbEntity
  8
0
  6
CONTINUOUS
100
AcDbLine
 10
18.47273285331918
 20
0.0804256068257416
 30
0.0
 11
18.90959818342056
 21
0.517290936927127
 31
0.0
  0
LINE
  5
212A9
330
2127F
100
AcDbEntity
  8
0
  6
CONTINUOUS
100
AcDbLine
 10
14.3590401358224
 20
-0.1570118376323384
 30
0.0
 11
14.24903296539946
 21
-0.0470046672093929
 31
0.0
  0
LINE
  5
212AA
330
2127F
100
AcDbEntity
  8
0
  6
CONTINUOUS
100
AcDbLine
 10
14.54309291258661
 20
0.332454594683643
 30
0.0
 11
13.75908329123172
 21
1.116464216038529
 31
0.0
  0
LINE
  5
212AB
330
2127F
100
AcDbEntity
  8
0
  6
CONTINUOUS
100
AcDbLine
 10
14.72714568935081
 20
0.8219210269996244
 30
0.0
 11
13.26913361706399
 21
2.27993309928645
 31
0.0
  0
LINE
  5
212AC
330
2127F
100
AcDbEntity
  8
0
  6
CONTINUOUS
100
AcDbLine
 10
14.91119846611502
 20
1.311387459315606
 30
0.0
 11
12.77918394289625
 21
3.443401982534371
 31
0.0
  0
LINE
  5
212AD
330
2127F
100
AcDbEntity
  8
0
  6
CONTINUOUS
100
AcDbLine
 10
15.09525124287922
 20
1.800853891631587
 30
0.0
 11
12.28923426872852
 21
4.606870865782293
 31
0.0
  0
LINE
  5
212AE
330
2127F
100
AcDbEntity
  8
0
  6
CONTINUOUS
100
AcDbLine
 10
15.27930401964343
 20
2.290320323947569
 30
0.0
 11
11.79928459456078
 21
5.770339749030213
 31
0.0
  0
LINE
  5
212AF
330
2127F
100
AcDbEntity
  8
0
  6
CONTINUOUS
100
AcDbLine
 10
15.46335679640763
 20
2.77978675626355
 30
0.0
 11
14.48885470994921
 21
3.754288842721972
 31
0.0
  0
LINE
  5
212B0
330
2127F
100
AcDbEntity
  8
0
  6
CONTINUOUS
100
AcDbLine
 10
13.88507249233704
 20
4.358071060334137
 30
0.0
 11
11.30933492039305
 21
6.933808632278135
 31
0.0
  0
LINE
  5
212B1
330
2127F
100
AcDbEntity
  8
0
  6
CONTINUOUS
100
AcDbLine
 10
18.75840522805855
 20
0.1582575336928151
 30
0.0
 11
18.25383727664818
 21
0.6628254851031863
 31
0.0
  0
LINE
  5
212B2
330
2127F
100
AcDbEntity
  8
0
  6
CONTINUOUS
100
AcDbLine
 10
15.64740957317184
 20
3.269253188579531
 30
0.0
 11
14.67288388101266
 21
4.243778880738705
 31
0.0
  0
LINE
  5
212B3
330
2127F
100
AcDbEntity
  8
0
  6
CONTINUOUS
100
AcDbLine
 10
13.39509276772158
 20
5.521569994029786
 30
0.0
 11
10.81938524622531
 21
8.097277515526056
 31
0.0
  0
LINE
  5
212B4
330
2127F
100
AcDbEntity
  8
0
  6
CONTINUOUS
100
AcDbLine
 10
18.95798597883369
 20
0.6321959919978686
 30
0.0
 11
17.84825644852853
 21
1.741925522303024
 31
0.0
  0
LINE
  5
212B5
330
2127F
100
AcDbEntity
  8
0
  6
CONTINUOUS
100
AcDbLine
 10
19.15756672960882
 20
1.106134450302922
 30
0.0
 11
17.44267562040888
 21
2.821025559502861
 31
0.0
  0
LINE
  5
212B6
330
2127F
100
AcDbEntity
  8
0
  6
CONTINUOUS
100
AcDbLine
 10
15.83146234993604
 20
3.758719620895513
 30
0.0
 11
14.85691305207612
 21
4.733268918755439
 31
0.0
  0
LINE
  5
212B7
330
2127F
100
AcDbEntity
  8
0
  6
CONTINUOUS
100
AcDbLine
 10
16.01551512670025
 20
4.248186053211494
 30
0.0
 11
15.04094222313957
 21
5.222758956772172
 31
0.0
  0
LINE
  5
212B8
330
2127F
100
AcDbEntity
  8
0
  6
CONTINUOUS
100
AcDbLine
 10
12.90511304310612
 20
6.685068927725435
 30
0.0
 11
10.8270819708403
 21
8.763099999991255
 31
0.0
  0
LINE
  5
212B9
330
2127F
100
AcDbEntity
  8
0
  6
CONTINUOUS
100
AcDbLine
 10
12.41513331849066
 20
7.848567861421083
 30
0.0
 11
11.50060117992049
 21
8.763099999991255
 31
0.0
  0
LINE
  5
212BA
330
2127F
100
AcDbEntity
  8
0
  6
CONTINUOUS
100
AcDbLine
 10
19.35714748038395
 20
1.580072908607975
 30
0.0
 11
17.03709479228923
 21
3.900125596702697
 31
0.0
  0
LINE
  5
212BB
330
2127F
100
AcDbEntity
  8
0
  6
CONTINUOUS
100
AcDbLine
 10
19.55672823115909
 20
2.054011366913028
 30
0.0
 11
16.63151396416958
 21
4.979225633902534
 31
0.0
  0
LINE
  5
212BC
330
2127F
100
AcDbEntity
  8
0
  6
CONTINUOUS
100
AcDbLine
 10
16.19956790346445
 20
4.737652485527476
 30
0.0
 11
15.22497139420302
 21
5.712248994788904
 31
0.0
  0
LINE
  5
212BD
330
2127F
100
AcDbEntity
  8
0
  6
CONTINUOUS
100
AcDbLine
 10
16.38362068022866
 20
5.227118917843457
 30
0.0
 11
15.40900056526648
 21
6.201739032805637
 31
0.0
  0
LINE
  5
212BE
330
2127F
100
AcDbEntity
  8
0
  6
CONTINUOUS
100
AcDbLine
 10
19.75630898193422
 20
2.527949825218081
 30
0.0
 11
18.70774536448286
 21
3.576513442669441
 31
0.0
  0
LINE
  5
212BF
330
2127F
100
AcDbEntity
  8
0
  6
CONTINUOUS
100
AcDbLine
 10
19.95588973270936
 20
3.001888283523134
 30
0.0
 11
18.90726987211446
 21
4.050508144118028
 31
0.0
  0
LINE
  5
212C0
330
2127F
100
AcDbEntity
  8
0
  6
CONTINUOUS
100
AcDbLine
 10
20.15547048348449
 20
3.475826741828186
 30
0.0
 11
19.10679437974606
 21
4.524502845566614
 31
0.0
  0
LINE
  5
212C1
330
2127F
100
AcDbEntity
  8
0
  6
CONTINUOUS
100
AcDbLine
 10
20.35505123425962
 20
3.94976520013324
 30
0.0
 11
19.30631888737766
 21
4.998497547015201
 31
0.0
  0
LINE
  5
212C2
330
2127F
100
AcDbEntity
  8
0
  6
CONTINUOUS
100
AcDbLine
 10
20.55463198503475
 20
4.423703658438292
 30
0.0
 11
19.50584339500926
 21
5.472492248463787
 31
0.0
  0
LINE
  5
212C3
330
2127F
100
AcDbEntity
  8
0
  6
CONTINUOUS
100
AcDbLine
 10
18.37481191085755
 20
3.909446896294752
 30
0.0
 11
15.59302973632993
 21
6.691229070822371
 31
0.0
  0
LINE
  5
212C4
330
2127F
100
AcDbEntity
  8
0
  6
CONTINUOUS
100
AcDbLine
 10
17.96904084440766
 20
4.988737171824825
 30
0.0
 11
15.77705890739338
 21
7.180719108839104
 31
0.0
  0
LINE
  5
212C5
330
2127F
100
AcDbEntity
  8
0
  6
CONTINUOUS
100
AcDbLine
 10
17.56326977795777
 20
6.068027447354899
 30
0.0
 11
15.96108807845684
 21
7.670209146855838
 31
0.0
  0
LINE
  5
212C6
330
2127F
100
AcDbEntity
  8
0
  6
CONTINUOUS
100
AcDbLine
 10
17.15749871150789
 20
7.147317722884972
 30
0.0
 11
16.14511724952029
 21
8.15969918487257
 31
0.0
  0
LINE
  5
212C7
330
2127F
100
AcDbEntity
  8
0
  6
CONTINUOUS
100
AcDbLine
 10
16.751727645058
 20
8.226607998415046
 30
0.0
 11
16.32914642058374
 21
8.649189222889303
 31
0.0
  0
LINE
  5
212C8
330
2127F
100
AcDbEntity
  8
0
  6
CONTINUOUS
100
AcDbLine
 10
20.75421273580989
 20
4.897642116743345
 30
0.0
 11
19.70536790264086
 21
5.946486949912374
 31
0.0
  0
LINE
  5
212C9
330
2127F
100
AcDbEntity
  8
0
  6
CONTINUOUS
100
AcDbLine
 10
20.95379348658502
 20
5.371580575048398
 30
0.0
 11
19.90489241027246
 21
6.42048165136096
 31
0.0
  0
LINE
  5
212CA
330
2127F
100
AcDbEntity
  8
0
  6
CONTINUOUS
100
AcDbLine
 10
21.15337423736015
 20
5.845519033353452
 30
0.0
 11
20.10441691790406
 21
6.894476352809547
 31
0.0
  0
LINE
  5
212CB
330
2127F
100
AcDbEntity
  8
0
  6
CONTINUOUS
100
AcDbLine
 10
21.35295498813529
 20
6.319457491658505
 30
0.0
 11
20.30394142553566
 21
7.368471054258134
 31
0.0
  0
LINE
  5
212CC
330
2127F
100
AcDbEntity
  8
0
  6
CONTINUOUS
100
AcDbLine
 10
21.55253573891042
 20
6.793395949963558
 30
0.0
 11
20.50346593316726
 21
7.842465755706721
 31
0.0
  0
LINE
  5
212CD
330
2127F
100
AcDbEntity
  8
0
  6
CONTINUOUS
100
AcDbLine
 10
21.75211648968556
 20
7.267334408268612
 30
0.0
 11
20.70299044079886
 21
8.316460457155308
 31
0.0
  0
LINE
  5
212CE
330
2127F
100
AcDbEntity
  8
0
  6
CONTINUOUS
100
AcDbLine
 10
21.95169724046069
 20
7.741272866573663
 30
0.0
 11
20.9298701070431
 21
8.763099999991256
 31
0.0
  0
LINE
  5
212CF
330
2127F
100
AcDbEntity
  8
0
  6
CONTINUOUS
100
AcDbLine
 10
22.15127799123582
 20
8.215211324878716
 30
0.0
 11
21.60338931612328
 21
8.763099999991256
 31
0.0
  0
LINE
  5
212D0
330
2127F
100
AcDbEntity
  8
0
  6
CONTINUOUS
100
AcDbLine
 10
22.35085874201096
 20
8.689149783183769
 30
0.0
 11
22.27690852520347
 21
8.763099999991255
 31
0.0
  0
ENDBLK
  5
213C2
330
2127F
100
AcDbEntity
  8
0
100
AcDbBlockEnd
  0
BLOCK
  5
213C3
330
212D1
100
AcDbEntity
  8
0
100
AcDbBlockBegin
  2
*X49
 70
     1
 10
0.0
 20
0.0
 30
0.0
  3
*X49
  1

  0
LINE
  5
212D2
330
212D1
100
AcDbEntity
  8
0
  6
CONTINUOUS
100
AcDbLine
 10
23.19462913593892
 20
8.169917934846424
 30
0.0
 11
23.70775465517246
 21
8.683043454079957
 31
0.0
  0
LINE
  5
212D3
330
212D1
100
AcDbEntity
  8
0
  6
CONTINUOUS
100
AcDbLine
 10
22.64923161835078
 20
6.951001208178088
 30
0.0
 11
23.9159364069932
 21
8.217705996820516
 31
0.0
  0
LINE
  5
212D4
330
212D1
100
AcDbEntity
  8
0
  6
CONTINUOUS
100
AcDbLine
 10
22.10383410076263
 20
5.732084481509751
 30
0.0
 11
24.12411815881395
 21
7.752368539561078
 31
0.0
  0
LINE
  5
212D5
330
212D1
100
AcDbEntity
  8
0
  6
CONTINUOUS
100
AcDbLine
 10
21.55843658317447
 20
4.513167754841414
 30
0.0
 11
24.3322999106347
 21
7.287031082301639
 31
0.0
  0
LINE
  5
212D6
330
212D1
100
AcDbEntity
  8
0
  6
CONTINUOUS
100
AcDbLine
 10
21.01303906558632
 20
3.294251028173077
 30
0.0
 11
24.54048166245544
 21
6.821693625042199
 31
0.0
  0
LINE
  5
212D7
330
212D1
100
AcDbEntity
  8
0
  6
CONTINUOUS
100
AcDbLine
 10
20.46764154799817
 20
2.075334301504738
 30
0.0
 11
23.28571549467848
 21
4.89340824818505
 31
0.0
  0
LINE
  5
212D8
330
212D1
100
AcDbEntity
  8
0
  6
CONTINUOUS
100
AcDbLine
 10
19.92224403041002
 20
0.8564175748364002
 30
0.0
 11
22.74075865492779
 21
3.674932199354171
 31
0.0
  0
LINE
  5
212D9
330
212D1
100
AcDbEntity
  8
0
  6
CONTINUOUS
100
AcDbLine
 10
23.67305085490148
 20
5.280743608408048
 30
0.0
 11
24.74866341427619
 21
6.356356167782759
 31
0.0
  0
LINE
  5
212DA
330
212D1
100
AcDbEntity
  8
0
  6
CONTINUOUS
100
AcDbLine
 10
23.88118970842314
 20
4.815363252849522
 30
0.0
 11
24.95684516609694
 21
5.89101871052332
 31
0.0
  0
LINE
  5
212DB
330
212D1
100
AcDbEntity
  8
0
  6
CONTINUOUS
100
AcDbLine
 10
19.73925852647308
 20
-0.0000871381807288
 30
0.0
 11
23.4103456646501
 21
3.670999999996297
 31
0.0
  0
LINE
  5
212DC
330
212D1
100
AcDbEntity
  8
0
  6
CONTINUOUS
100
AcDbLine
 10
24.0893285619448
 20
4.349982897290997
 30
0.0
 11
25.16502691791769
 21
5.42568125326388
 31
0.0
  0
LINE
  5
212DD
330
212D1
100
AcDbEntity
  8
0
  6
CONTINUOUS
100
AcDbLine
 10
20.41282099582748
 20
-0.0000438779065108
 30
0.0
 11
21.64944178675636
 21
1.236576913022366
 31
0.0
  0
LINE
  5
212DE
330
212D1
100
AcDbEntity
  8
0
  6
CONTINUOUS
100
AcDbLine
 10
22.78126487373161
 20
2.36839999999762
 30
0.0
 11
24.08386487373029
 21
3.670999999996297
 31
0.0
  0
LINE
  5
212DF
330
212D1
100
AcDbEntity
  8
0
  6
CONTINUOUS
100
AcDbLine
 10
24.29746741546646
 20
3.884602541732471
 30
0.0
 11
25.37320866973843
 21
4.960343796004441
 31
0.0
  0
LINE
  5
212E0
330
212D1
100
AcDbEntity
  8
0
  6
CONTINUOUS
100
AcDbLine
 10
21.08638346518189
 20
-0.0000006176322938
 30
0.0
 11
21.10379033335899
 21
0.0174062505448083
 31
0.0
  0
LINE
  5
212E1
330
212D1
100
AcDbEntity
  8
0
  6
CONTINUOUS
100
AcDbLine
 10
23.4547840828118
 20
2.36839999999762
 30
0.0
 11
25.58139042155918
 21
4.495006338745002
 31
0.0
  0
LINE
  5
212E2
330
212D1
100
AcDbEntity
  8
0
  6
CONTINUOUS
100
AcDbLine
 10
29.30199999996933
 20
8.215615917155148
 30
0.0
 11
29.84948408280543
 21
8.763099999991255
 31
0.0
  0
LINE
  5
212E3
330
212D1
100
AcDbEntity
  8
0
  6
CONTINUOUS
100
AcDbLine
 10
24.12830329189199
 20
2.36839999999762
 30
0.0
 11
25.78957217337993
 21
4.029668881485562
 31
0.0
  0
LINE
  5
212E4
330
212D1
100
AcDbEntity
  8
0
  6
CONTINUOUS
100
AcDbLine
 10
29.30199999996933
 20
7.54209670807496
 30
0.0
 11
30.52300329188562
 21
8.763099999991255
 31
0.0
  0
LINE
  5
212E5
330
212D1
100
AcDbEntity
  8
0
  6
CONTINUOUS
100
AcDbLine
 10
24.80182250097217
 20
2.36839999999762
 30
0.0
 11
25.99775392520067
 21
3.564331424226122
 31
0.0
  0
LINE
  5
212E6
330
212D1
100
AcDbEntity
  8
0
  6
CONTINUOUS
100
AcDbLine
 10
29.30199999996933
 20
6.868577498994774
 30
0.0
 11
30.74199999996926
 21
8.308577498994712
 31
0.0
  0
LINE
  5
212E7
330
212D1
100
AcDbEntity
  8
0
  6
CONTINUOUS
100
AcDbLine
 10
25.13028238392013
 20
2.023340673865392
 30
0.0
 11
26.20593567702142
 21
3.098993966966683
 31
0.0
  0
LINE
  5
212E8
330
212D1
100
AcDbEntity
  8
0
  6
CONTINUOUS
100
AcDbLine
 10
25.33838066033617
 20
1.557919741201244
 30
0.0
 11
26.41411742884217
 21
2.633656509707244
 31
0.0
  0
LINE
  5
212E9
330
212D1
100
AcDbEntity
  8
0
  6
CONTINUOUS
100
AcDbLine
 10
25.54647893675221
 20
1.092498808537098
 30
0.0
 11
26.62229918066291
 21
2.168319052447804
 31
0.0
  0
LINE
  5
212EA
330
212D1
100
AcDbEntity
  8
0
  6
CONTINUOUS
100
AcDbLine
 10
25.75457721316825
 20
0.62707787587295
 30
0.0
 11
26.83048093248366
 21
1.702981595188365
 31
0.0
  0
LINE
  5
212EB
330
212D1
100
AcDbEntity
  8
0
  6
CONTINUOUS
100
AcDbLine
 10
29.30199999996933
 20
6.195058289914587
 30
0.0
 11
30.74199999996926
 21
7.635058289914522
 31
0.0
  0
LINE
  5
212EC
330
212D1
100
AcDbEntity
  8
0
  6
CONTINUOUS
100
AcDbLine
 10
29.30199999996933
 20
5.521539080834401
 30
0.0
 11
30.74199999996926
 21
6.961539080834331
 31
0.0
  0
LINE
  5
212ED
330
212D1
100
AcDbEntity
  8
0
  6
CONTINUOUS
100
AcDbLine
 10
29.30199999996933
 20
4.848019871754214
 30
0.0
 11
30.74199999996925
 21
6.288019871754143
 31
0.0
  0
LINE
  5
212EE
330
212D1
100
AcDbEntity
  8
0
  6
CONTINUOUS
100
AcDbLine
 10
29.30199999996933
 20
4.174500662674028
 30
0.0
 11
30.74199999996925
 21
5.614500662673953
 31
0.0
  0
LINE
  5
212EF
330
212D1
100
AcDbEntity
  8
0
  6
CONTINUOUS
100
AcDbLine
 10
25.96267548958429
 20
0.1616569432088024
 30
0.0
 11
27.18411854636669
 21
1.383099999991207
 31
0.0
  0
LINE
  5
212F0
330
212D1
100
AcDbEntity
  8
0
  6
CONTINUOUS
100
AcDbLine
 10
29.30199999996933
 20
3.500981453593841
 30
0.0
 11
30.74199999996925
 21
4.940981453593762
 31
0.0
  0
LINE
  5
212F1
330
212D1
100
AcDbEntity
  8
0
  6
CONTINUOUS
100
AcDbLine
 10
26.50763775544691
 20
0.0330999999912356
 30
0.0
 11
27.85763775544689
 21
1.383099999991223
 31
0.0
  0
LINE
  5
212F2
330
212D1
100
AcDbEntity
  8
0
  6
CONTINUOUS
100
AcDbLine
 10
29.30199999996933
 20
2.827462244513656
 30
0.0
 11
30.74199999996925
 21
4.267462244513574
 31
0.0
  0
LINE
  5
212F3
330
212D1
100
AcDbEntity
  8
0
  6
CONTINUOUS
100
AcDbLine
 10
27.18115696452709
 20
0.0330999999912356
 30
0.0
 11
28.55073879889363
 21
1.402681834357775
 31
0.0
  0
LINE
  5
212F4
330
212D1
100
AcDbEntity
  8
0
  6
CONTINUOUS
100
AcDbLine
 10
29.28241816560272
 20
2.134361201066866
 30
0.0
 11
30.74199999996924
 21
3.593943035433383
 31
0.0
  0
LINE
  5
212F5
330
212D1
100
AcDbEntity
  8
0
  6
CONTINUOUS
100
AcDbLine
 10
27.85467617360728
 20
0.0330999999912356
 30
0.0
 11
30.74199999996924
 21
2.920423826353195
 31
0.0
  0
LINE
  5
212F6
330
212D1
100
AcDbEntity
  8
0
  6
CONTINUOUS
100
AcDbLine
 10
28.53897559587887
 20
0.0438802131826428
 30
0.0
 11
30.73121978677781
 21
2.236124404081585
 31
0.0
  0
LINE
  5
212F7
330
212D1
100
AcDbEntity
  8
0
  6
CONTINUOUS
100
AcDbLine
 10
29.45140055588722
 20
0.2827859641107988
 30
0.0
 11
30.49231403584965
 21
1.323699444073236
 31
0.0
  0
LINE
  5
212F8
330
212D1
100
AcDbEntity
  8
0
  6
CONTINUOUS
100
AcDbLine
 10
19.59027867740337
 20
-0.0000967065718083
 30
0.0
 11
19.55485265190471
 21
0.035329318926844
 31
0.0
  0
LINE
  5
212F9
330
212D1
100
AcDbEntity
  8
0
  6
CONTINUOUS
100
AcDbLine
 10
20.26375463176586
 20
-0.0000534518541091
 30
0.0
 11
19.76305575737534
 21
0.5006454225364014
 31
0.0
  0
LINE
  5
212FA
330
212D1
100
AcDbEntity
  8
0
  6
CONTINUOUS
100
AcDbLine
 10
20.93723058612834
 20
-0.0000101971364099
 30
0.0
 11
19.97125886284597
 21
0.965961526145958
 31
0.0
  0
LINE
  5
212FB
330
212D1
100
AcDbEntity
  8
0
  6
CONTINUOUS
100
AcDbLine
 10
21.25514828313686
 20
0.355591314935257
 30
0.0
 11
20.1794619683166
 21
1.431277629755512
 31
0.0
  0
LINE
  5
212FC
330
212D1
100
AcDbEntity
  8
0
  6
CONTINUOUS
100
AcDbLine
 10
21.46338838394921
 20
0.8208704232030986
 30
0.0
 11
20.38766507378723
 21
1.896593733365069
 31
0.0
  0
LINE
  5
212FD
330
212D1
100
AcDbEntity
  8
0
  6
CONTINUOUS
100
AcDbLine
 10
21.67162848476155
 20
1.28614953147094
 30
0.0
 11
20.59586817925786
 21
2.361909836974626
 31
0.0
  0
LINE
  5
212FE
330
212D1
100
AcDbEntity
  8
0
  6
CONTINUOUS
100
AcDbLine
 10
21.8798685855739
 20
1.751428639738782
 30
0.0
 11
20.80407128472849
 21
2.827225940584183
 31
0.0
  0
LINE
  5
212FF
330
212D1
100
AcDbEntity
  8
0
  6
CONTINUOUS
100
AcDbLine
 10
22.08810868638624
 20
2.216707748006623
 30
0.0
 11
21.01227439019912
 21
3.292542044193739
 31
0.0
  0
LINE
  5
21300
330
212D1
100
AcDbEntity
  8
0
  6
CONTINUOUS
100
AcDbLine
 10
22.60993564347543
 20
2.36839999999762
 30
0.0
 11
21.22047749566975
 21
3.757858147803296
 31
0.0
  0
LINE
  5
21301
330
212D1
100
AcDbEntity
  8
0
  6
CONTINUOUS
100
AcDbLine
 10
23.28345485255561
 20
2.36839999999762
 30
0.0
 11
21.42868060114038
 21
4.223174251412853
 31
0.0
  0
LINE
  5
21302
330
212D1
100
AcDbEntity
  8
0
  6
CONTINUOUS
100
AcDbLine
 10
26.29227406164219
 20
0.0330999999912356
 30
0.0
 11
25.80009199592872
 21
0.5252820657046957
 31
0.0
  0
LINE
  5
21303
330
212D1
100
AcDbEntity
  8
0
  6
CONTINUOUS
100
AcDbLine
 10
23.9569740616358
 20
2.36839999999762
 30
0.0
 11
21.63688370661101
 21
4.688490355022409
 31
0.0
  0
LINE
  5
21304
330
212D1
100
AcDbEntity
  8
0
  6
CONTINUOUS
100
AcDbLine
 10
26.96579327072237
 20
0.0330999999912356
 30
0.0
 11
25.2554132311971
 21
1.743480039516508
 31
0.0
  0
LINE
  5
21305
330
212D1
100
AcDbEntity
  8
0
  6
CONTINUOUS
100
AcDbLine
 10
24.63049327071599
 20
2.36839999999762
 30
0.0
 11
23.32789327071731
 21
3.670999999996297
 31
0.0
  0
LINE
  5
21306
330
212D1
100
AcDbEntity
  8
0
  6
CONTINUOUS
100
AcDbLine
 10
22.92098674744635
 20
4.077906523267254
 30
0.0
 11
21.84508681208164
 21
5.153806458631966
 31
0.0
  0
LINE
  5
21307
330
212D1
100
AcDbEntity
  8
0
  6
CONTINUOUS
100
AcDbLine
 10
27.63931247980256
 20
0.0330999999912356
 30
0.0
 11
24.0014124797975
 21
3.670999999996297
 31
0.0
  0
LINE
  5
21308
330
212D1
100
AcDbEntity
  8
0
  6
CONTINUOUS
100
AcDbLine
 10
23.129125600968
 20
4.5432868788258
 30
0.0
 11
22.05328991755227
 21
5.619122562241522
 31
0.0
  0
LINE
  5
21309
330
212D1
100
AcDbEntity
  8
0
  6
CONTINUOUS
100
AcDbLine
 10
28.31283168888275
 20
0.0330999999912356
 30
0.0
 11
24.16488385994816
 21
4.181047828925828
 31
0.0
  0
LINE
  5
2130A
330
212D1
100
AcDbEntity
  8
0
  6
CONTINUOUS
100
AcDbLine
 10
23.33726445448964
 20
5.008667234384345
 30
0.0
 11
22.2614930230229
 21
6.084438665851079
 31
0.0
  0
LINE
  5
2130B
330
212D1
100
AcDbEntity
  8
0
  6
CONTINUOUS
100
AcDbLine
 10
28.92085740005492
 20
0.0985934978992438
 30
0.0
 11
27.63635089796295
 21
1.383099999991217
 31
0.0
  0
LINE
  5
2130C
330
212D1
100
AcDbEntity
  8
0
  6
CONTINUOUS
100
AcDbLine
 10
26.43704649509776
 20
2.582404402856405
 30
0.0
 11
23.61992702019732
 21
5.399523877756844
 31
0.0
  0
LINE
  5
2130D
330
212D1
100
AcDbEntity
  8
0
  6
CONTINUOUS
100
AcDbLine
 10
23.54540330801128
 20
5.47404758994289
 30
0.0
 11
22.46969612849353
 21
6.549754769460635
 31
0.0
  0
LINE
  5
2130E
330
212D1
100
AcDbEntity
  8
0
  6
CONTINUOUS
100
AcDbLine
 10
29.42225615078443
 20
0.2707139562499279
 30
0.0
 11
28.30987010704312
 21
1.383099999991234
 31
0.0
  0
LINE
  5
2130F
330
212D1
100
AcDbEntity
  8
0
  6
CONTINUOUS
100
AcDbLine
 10
25.89179548232307
 20
3.801174624711282
 30
0.0
 11
22.67789923396416
 21
7.015070873070191
 31
0.0
  0
LINE
  5
21310
330
212D1
100
AcDbEntity
  8
0
  6
CONTINUOUS
100
AcDbLine
 10
29.83624534690007
 20
0.5302439692144705
 30
0.0
 11
28.85811781497101
 21
1.508371501143527
 31
0.0
  0
LINE
  5
21311
330
212D1
100
AcDbEntity
  8
0
  6
CONTINUOUS
100
AcDbLine
 10
25.34654446954838
 20
5.01994484656616
 30
0.0
 11
22.88610233943479
 21
7.480386976679748
 31
0.0
  0
LINE
  5
21312
330
212D1
100
AcDbEntity
  8
0
  6
CONTINUOUS
100
AcDbLine
 10
30.17865975401872
 20
0.8613487711760022
 30
0.0
 11
29.18888744090175
 21
1.851121084292977
 31
0.0
  0
LINE
  5
21313
330
212D1
100
AcDbEntity
  8
0
  6
CONTINUOUS
100
AcDbLine
 10
24.80129345677369
 20
6.238715068421037
 30
0.0
 11
23.09430544490542
 21
7.945703080289305
 31
0.0
  0
LINE
  5
21314
330
212D1
100
AcDbEntity
  8
0
  6
CONTINUOUS
100
AcDbLine
 10
30.45496647202376
 20
1.258561262251155
 30
0.0
 11
29.30199999996933
 21
2.411527734305588
 31
0.0
  0
LINE
  5
21315
330
212D1
100
AcDbEntity
  8
0
  6
CONTINUOUS
100
AcDbLine
 10
24.256042443999
 20
7.457485290275915
 30
0.0
 11
23.30250855037605
 21
8.411019183898862
 31
0.0
  0
LINE
  5
21316
330
212D1
100
AcDbEntity
  8
0
  6
CONTINUOUS
100
AcDbLine
 10
30.64868582078271
 20
1.738361122572387
 30
0.0
 11
29.30199999996933
 21
3.085046943385775
 31
0.0
  0
LINE
  5
21317
330
212D1
100
AcDbEntity
  8
0
  6
CONTINUOUS
100
AcDbLine
 10
23.71079143122431
 20
8.676255512130794
 30
0.0
 11
23.51071165584668
 21
8.876335287508416
 31
0.0
  0
LINE
  5
21318
330
212D1
100
AcDbEntity
  8
0
  6
CONTINUOUS
100
AcDbLine
 10
30.73802122914428
 20
2.322544923291007
 30
0.0
 11
29.30199999996933
 21
3.758566152465961
 31
0.0
  0
LINE
  5
21319
330
212D1
100
AcDbEntity
  8
0
  6
CONTINUOUS
100
AcDbLine
 10
30.74199999996924
 20
2.992085361546236
 30
0.0
 11
29.30199999996933
 21
4.432085361546148
 31
0.0
  0
LINE
  5
2131A
330
212D1
100
AcDbEntity
  8
0
  6
CONTINUOUS
100
AcDbLine
 10
30.74199999996924
 20
3.665604570626419
 30
0.0
 11
29.30199999996933
 21
5.105604570626333
 31
0.0
  0
LINE
  5
2131B
330
212D1
100
AcDbEntity
  8
0
  6
CONTINUOUS
100
AcDbLine
 10
30.74199999996925
 20
4.339123779706602
 30
0.0
 11
29.30199999996933
 21
5.77912377970652
 31
0.0
  0
LINE
  5
2131C
330
212D1
100
AcDbEntity
  8
0
  6
CONTINUOUS
100
AcDbLine
 10
30.74199999996925
 20
5.012642988786785
 30
0.0
 11
29.30199999996933
 21
6.452642988786707
 31
0.0
  0
LINE
  5
2131D
330
212D1
100
AcDbEntity
  8
0
  6
CONTINUOUS
100
AcDbLine
 10
30.74199999996925
 20
5.68616219786697
 30
0.0
 11
29.30199999996933
 21
7.126162197866894
 31
0.0
  0
LINE
  5
2131E
330
212D1
100
AcDbEntity
  8
0
  6
CONTINUOUS
100
AcDbLine
 10
30.74199999996925
 20
6.359681406947153
 30
0.0
 11
29.30199999996933
 21
7.799681406947081
 31
0.0
  0
LINE
  5
2131F
330
212D1
100
AcDbEntity
  8
0
  6
CONTINUOUS
100
AcDbLine
 10
30.74199999996926
 20
7.033200616027337
 30
0.0
 11
29.30199999996933
 21
8.473200616027269
 31
0.0
  0
LINE
  5
21320
330
212D1
100
AcDbEntity
  8
0
  6
CONTINUOUS
100
AcDbLine
 10
30.74199999996926
 20
7.706719825107518
 30
0.0
 11
29.68561982508552
 21
8.763099999991255
 31
0.0
  0
LINE
  5
21321
330
212D1
100
AcDbEntity
  8
0
  6
CONTINUOUS
100
AcDbLine
 10
30.74199999996926
 20
8.380239034187703
 30
0.0
 11
30.35913903416571
 21
8.763099999991255
 31
0.0
  0
ENDBLK
  5
213C4
330
212D1
100
AcDbEntity
  8
0
100
AcDbBlockEnd
  0
BLOCK
  5
213C5
330
21322
100
AcDbEntity
  8
0
100
AcDbBlockBegin
  2
*X50
 70
     1
 10
0.0
 20
0.0
 30
0.0
  3
*X50
  1

  0
LINE
  5
21323
330
21322
100
AcDbEntity
  8
0
  6
CONTINUOUS
100
AcDbLine
 10
31.64199999996833
 20
8.535058289913598
 30
0.0
 11
31.87004171004599
 21
8.763099999991255
 31
0.0
  0
LINE
  5
21324
330
21322
100
AcDbEntity
  8
0
  6
CONTINUOUS
100
AcDbLine
 10
31.64199999996833
 20
7.861539080833412
 30
0.0
 11
32.54356091912618
 21
8.763099999991255
 31
0.0
  0
LINE
  5
21325
330
21322
100
AcDbEntity
  8
0
  6
CONTINUOUS
100
AcDbLine
 10
31.64199999996833
 20
7.188019871753226
 30
0.0
 11
33.08199999996839
 21
8.628019871753281
 31
0.0
  0
LINE
  5
21326
330
21322
100
AcDbEntity
  8
0
  6
CONTINUOUS
100
AcDbLine
 10
31.64199999996833
 20
6.51450066267304
 30
0.0
 11
33.08199999996839
 21
7.954500662673095
 31
0.0
  0
LINE
  5
21327
330
21322
100
AcDbEntity
  8
0
  6
CONTINUOUS
100
AcDbLine
 10
31.64199999996833
 20
5.840981453592853
 30
0.0
 11
33.08199999996839
 21
7.280981453592908
 31
0.0
  0
LINE
  5
21328
330
21322
100
AcDbEntity
  8
0
  6
CONTINUOUS
100
AcDbLine
 10
31.64199999996833
 20
5.167462244512667
 30
0.0
 11
33.08199999996839
 21
6.607462244512721
 31
0.0
  0
LINE
  5
21329
330
21322
100
AcDbEntity
  8
0
  6
CONTINUOUS
100
AcDbLine
 10
31.64199999996833
 20
4.493943035432481
 30
0.0
 11
33.08199999996839
 21
5.933943035432535
 31
0.0
  0
LINE
  5
2132A
330
21322
100
AcDbEntity
  8
0
  6
CONTINUOUS
100
AcDbLine
 10
31.64199999996833
 20
3.820423826352293
 30
0.0
 11
33.08199999996839
 21
5.260423826352348
 31
0.0
  0
LINE
  5
2132B
330
21322
100
AcDbEntity
  8
0
  6
CONTINUOUS
100
AcDbLine
 10
31.64199999996833
 20
3.146904617272106
 30
0.0
 11
33.08199999996839
 21
4.586904617272161
 31
0.0
  0
LINE
  5
2132C
330
21322
100
AcDbEntity
  8
0
  6
CONTINUOUS
100
AcDbLine
 10
36.23199999996837
 20
8.410423826352325
 30
0.0
 11
36.5846761736073
 21
8.763099999991255
 31
0.0
  0
LINE
  5
2132D
330
21322
100
AcDbEntity
  8
0
  6
CONTINUOUS
100
AcDbLine
 10
36.23199999996837
 20
7.73690461727214
 30
0.0
 11
37.25819538268748
 21
8.763099999991255
 31
0.0
  0
LINE
  5
2132E
330
21322
100
AcDbEntity
  8
0
  6
CONTINUOUS
100
AcDbLine
 10
31.64257403601376
 20
2.473959444237348
 30
0.0
 11
33.08199999996839
 21
3.913385408191974
 31
0.0
  0
LINE
  5
2132F
330
21322
100
AcDbEntity
  8
0
  6
CONTINUOUS
100
AcDbLine
 10
36.23199999996837
 20
7.063385408191953
 30
0.0
 11
37.67199999996831
 21
8.503385408191894
 31
0.0
  0
LINE
  5
21330
330
21322
100
AcDbEntity
  8
0
  6
CONTINUOUS
100
AcDbLine
 10
31.72013636841932
 20
1.87800256756272
 30
0.0
 11
33.08199999996839
 21
3.239866199111788
 31
0.0
  0
LINE
  5
21331
330
21322
100
AcDbEntity
  8
0
  6
CONTINUOUS
100
AcDbLine
 10
36.23199999996837
 20
6.389866199111767
 30
0.0
 11
37.67199999996831
 21
7.829866199111708
 31
0.0
  0
LINE
  5
21332
330
21322
100
AcDbEntity
  8
0
  6
CONTINUOUS
100
AcDbLine
 10
31.89042734314753
 20
1.374774333210744
 30
0.0
 11
33.08199999996839
 21
2.566346990031601
 31
0.0
  0
LINE
  5
21333
330
21322
100
AcDbEntity
  8
0
  6
CONTINUOUS
100
AcDbLine
 10
36.23199999996837
 20
5.71634699003158
 30
0.0
 11
37.67199999996831
 21
7.156346990031521
 31
0.0
  0
LINE
  5
21334
330
21322
100
AcDbEntity
  8
0
  6
CONTINUOUS
100
AcDbLine
 10
32.14210568064475
 20
0.952933461627778
 30
0.0
 11
33.18745552475986
 21
1.998283305742888
 31
0.0
  0
LINE
  5
21335
330
21322
100
AcDbEntity
  8
0
  6
CONTINUOUS
100
AcDbLine
 10
36.23199999996837
 20
5.042827780951393
 30
0.0
 11
37.67199999996831
 21
6.482827780951334
 31
0.0
  0
LINE
  5
21336
330
21322
100
AcDbEntity
  8
0
  6
CONTINUOUS
100
AcDbLine
 10
32.45820639400955
 20
0.5955149659123915
 30
0.0
 11
33.47242681921943
 21
1.60973539112227
 31
0.0
  0
LINE
  5
21337
330
21322
100
AcDbEntity
  8
0
  6
CONTINUOUS
100
AcDbLine
 10
36.23199999996837
 20
4.369308571871207
 30
0.0
 11
37.67199999996831
 21
5.809308571871147
 31
0.0
  0
LINE
  5
21338
330
21322
100
AcDbEntity
  8
0
  6
CONTINUOUS
100
AcDbLine
 10
32.83432456621412
 20
0.2981139290367771
 30
0.0
 11
33.89722476612215
 21
1.361014128944803
 31
0.0
  0
LINE
  5
21339
330
21322
100
AcDbEntity
  8
0
  6
CONTINUOUS
100
AcDbLine
 10
36.23199999996837
 20
3.69578936279102
 30
0.0
 11
37.67199999996831
 21
5.135789362790962
 31
0.0
  0
LINE
  5
2133A
330
21322
100
AcDbEntity
  8
0
  6
CONTINUOUS
100
AcDbLine
 10
33.2711633111245
 20
0.0614334648669672
 30
0.0
 11
34.43247338014423
 21
1.222743533886696
 31
0.0
  0
LINE
  5
2133B
330
21322
100
AcDbEntity
  8
0
  6
CONTINUOUS
100
AcDbLine
 10
36.23199999996837
 20
3.022270153710834
 30
0.0
 11
37.67199999996831
 21
4.462270153710775
 31
0.0
  0
LINE
  5
2133C
330
21322
100
AcDbEntity
  8
0
  6
CONTINUOUS
100
AcDbLine
 10
33.76515245874577
 20
-0.1180965965919523
 30
0.0
 11
35.1587445516215
 21
1.27549549628378
 31
0.0
  0
LINE
  5
2133D
330
21322
100
AcDbEntity
  8
0
  6
CONTINUOUS
100
AcDbLine
 10
36.21639478609585
 20
2.333145730758136
 30
0.0
 11
37.67199999996831
 21
3.788750944630588
 31
0.0
  0
LINE
  5
2133E
330
21322
100
AcDbEntity
  8
0
  6
CONTINUOUS
100
AcDbLine
 10
34.34060583368432
 20
-0.2161624307335863
 30
0.0
 11
37.67199999996831
 21
3.115231735550401
 31
0.0
  0
LINE
  5
2133F
330
21322
100
AcDbEntity
  8
0
  6
CONTINUOUS
100
AcDbLine
 10
35.01698193613905
 20
-0.2133055373590427
 30
0.0
 11
37.66876712070525
 21
2.438479647207154
 31
0.0
  0
LINE
  5
21340
330
21322
100
AcDbEntity
  8
0
  6
CONTINUOUS
100
AcDbLine
 10
35.90743367693304
 20
0.0036269943547609
 30
0.0
 11
37.51723902192366
 21
1.613432339345381
 31
0.0
  0
LINE
  5
21341
330
21322
100
AcDbEntity
  8
0
  6
CONTINUOUS
100
AcDbLine
 10
32.55309425579761
 20
0.5074718966376706
 30
0.0
 11
32.27784730925847
 21
0.7827188431768102
 31
0.0
  0
LINE
  5
21342
330
21322
100
AcDbEntity
  8
0
  6
CONTINUOUS
100
AcDbLine
 10
33.87496468909684
 20
-0.1408793275813673
 30
0.0
 11
31.67993083278052
 21
2.054154528734943
 31
0.0
  0
LINE
  5
21343
330
21322
100
AcDbEntity
  8
0
  6
CONTINUOUS
100
AcDbLine
 10
34.64362813207632
 20
-0.2360235614806649
 30
0.0
 11
31.64199999996833
 21
2.765604570627322
 31
0.0
  0
LINE
  5
21344
330
21322
100
AcDbEntity
  8
0
  6
CONTINUOUS
100
AcDbLine
 10
35.25801106796118
 20
-0.1768872882853429
 30
0.0
 11
31.64199999996833
 21
3.439123779707508
 31
0.0
  0
LINE
  5
21345
330
21322
100
AcDbEntity
  8
0
  6
CONTINUOUS
100
AcDbLine
 10
35.79065650332146
 20
-0.0360135145654361
 30
0.0
 11
34.54143210838231
 21
1.213210880373721
 31
0.0
  0
LINE
  5
21346
330
21322
100
AcDbEntity
  8
0
  6
CONTINUOUS
100
AcDbLine
 10
33.08199999996839
 20
2.67264298878764
 30
0.0
 11
31.64199999996833
 21
4.112642988787695
 31
0.0
  0
LINE
  5
21347
330
21322
100
AcDbEntity
  8
0
  6
CONTINUOUS
100
AcDbLine
 10
36.25975597779143
 20
0.1684062200447833
 30
0.0
 11
35.15395110240023
 21
1.274211095435983
 31
0.0
  0
LINE
  5
21348
330
21322
100
AcDbEntity
  8
0
  6
CONTINUOUS
100
AcDbLine
 10
33.08199999996839
 20
3.346162197867826
 30
0.0
 11
31.64199999996833
 21
4.786162197867881
 31
0.0
  0
LINE
  5
21349
330
21322
100
AcDbEntity
  8
0
  6
CONTINUOUS
100
AcDbLine
 10
36.67226329638774
 20
0.4294181105286579
 30
0.0
 11
35.63766478748767
 21
1.464016619428737
 31
0.0
  0
LINE
  5
2134A
330
21322
100
AcDbEntity
  8
0
  6
CONTINUOUS
100
AcDbLine
 10
33.08199999996839
 20
4.019681406948012
 30
0.0
 11
31.64199999996833
 21
5.459681406948068
 31
0.0
  0
LINE
  5
2134B
330
21322
100
AcDbEntity
  8
0
  6
CONTINUOUS
100
AcDbLine
 10
37.01677749710036
 20
0.7584231188962329
 30
0.0
 11
35.99563422741351
 21
1.779566388583076
 31
0.0
  0
LINE
  5
2134C
330
21322
100
AcDbEntity
  8
0
  6
CONTINUOUS
100
AcDbLine
 10
33.08199999996839
 20
4.693200616028199
 30
0.0
 11
31.64199999996833
 21
6.133200616028255
 31
0.0
  0
LINE
  5
2134D
330
21322
100
AcDbEntity
  8
0
  6
CONTINUOUS
100
AcDbLine
 10
37.29859977568887
 20
1.1501200493879
 30
0.0
 11
36.20680593341555
 21
2.241913891661226
 31
0.0
  0
LINE
  5
2134E
330
21322
100
AcDbEntity
  8
0
  6
CONTINUOUS
100
AcDbLine
 10
33.08199999996839
 20
5.366719825108386
 30
0.0
 11
31.64199999996833
 21
6.80671982510844
 31
0.0
  0
LINE
  5
2134F
330
21322
100
AcDbEntity
  8
0
  6
CONTINUOUS
100
AcDbLine
 10
37.5148623517228
 20
1.607376682434161
 30
0.0
 11
36.23199999996837
 21
2.890239034188594
 31
0.0
  0
LINE
  5
21350
330
21322
100
AcDbEntity
  8
0
  6
CONTINUOUS
100
AcDbLine
 10
33.08199999996839
 20
6.040239034188573
 30
0.0
 11
31.64199999996833
 21
7.480239034188627
 31
0.0
  0
LINE
  5
21351
330
21322
100
AcDbEntity
  8
0
  6
CONTINUOUS
100
AcDbLine
 10
37.64705163358367
 20
2.148706609653477
 30
0.0
 11
36.23199999996837
 21
3.56375824326878
 31
0.0
  0
LINE
  5
21352
330
21322
100
AcDbEntity
  8
0
  6
CONTINUOUS
100
AcDbLine
 10
33.08199999996839
 20
6.713758243268758
 30
0.0
 11
31.64199999996833
 21
8.153758243268815
 31
0.0
  0
LINE
  5
21353
330
21322
100
AcDbEntity
  8
0
  6
CONTINUOUS
100
AcDbLine
 10
37.67199999996831
 20
2.797277452349026
 30
0.0
 11
36.23199999996837
 21
4.237277452348967
 31
0.0
  0
LINE
  5
21354
330
21322
100
AcDbEntity
  8
0
  6
CONTINUOUS
100
AcDbLine
 10
37.67199999996831
 20
3.470796661429213
 30
0.0
 11
36.23199999996837
 21
4.910796661429154
 31
0.0
  0
LINE
  5
21355
330
21322
100
AcDbEntity
  8
0
  6
CONTINUOUS
100
AcDbLine
 10
37.67199999996831
 20
4.144315870509399
 30
0.0
 11
36.23199999996837
 21
5.58431587050934
 31
0.0
  0
LINE
  5
21356
330
21322
100
AcDbEntity
  8
0
  6
CONTINUOUS
100
AcDbLine
 10
33.08199999996839
 20
7.387277452348945
 30
0.0
 11
31.70617745232608
 21
8.763099999991255
 31
0.0
  0
LINE
  5
21357
330
21322
100
AcDbEntity
  8
0
  6
CONTINUOUS
100
AcDbLine
 10
33.08199999996839
 20
8.060796661429132
 30
0.0
 11
32.37969666140626
 21
8.763099999991255
 31
0.0
  0
LINE
  5
21358
330
21322
100
AcDbEntity
  8
0
  6
CONTINUOUS
100
AcDbLine
 10
33.08199999996839
 20
8.734315870509318
 30
0.0
 11
33.05321587048645
 21
8.763099999991255
 31
0.0
  0
LINE
  5
21359
330
21322
100
AcDbEntity
  8
0
  6
CONTINUOUS
100
AcDbLine
 10
37.67199999996831
 20
4.817835079589585
 30
0.0
 11
36.23199999996837
 21
6.257835079589526
 31
0.0
  0
LINE
  5
2135A
330
21322
100
AcDbEntity
  8
0
  6
CONTINUOUS
100
AcDbLine
 10
37.67199999996831
 20
5.491354288669771
 30
0.0
 11
36.23199999996837
 21
6.931354288669713
 31
0.0
  0
LINE
  5
2135B
330
21322
100
AcDbEntity
  8
0
  6
CONTINUOUS
100
AcDbLine
 10
37.67199999996831
 20
6.164873497749958
 30
0.0
 11
36.23199999996837
 21
7.6048734977499
 31
0.0
  0
LINE
  5
2135C
330
21322
100
AcDbEntity
  8
0
  6
CONTINUOUS
100
AcDbLine
 10
37.67199999996831
 20
6.838392706830144
 30
0.0
 11
36.23199999996837
 21
8.278392706830086
 31
0.0
  0
LINE
  5
2135D
330
21322
100
AcDbEntity
  8
0
  6
CONTINUOUS
100
AcDbLine
 10
37.67199999996831
 20
7.511911915910332
 30
0.0
 11
36.42081191588738
 21
8.763099999991255
 31
0.0
  0
LINE
  5
2135E
330
21322
100
AcDbEntity
  8
0
  6
CONTINUOUS
100
AcDbLine
 10
37.67199999996831
 20
8.185431124990519
 30
0.0
 11
37.09433112496757
 21
8.763099999991255
 31
0.0
  0
ENDBLK
  5
213C6
330
21322
100
AcDbEntity
  8
0
100
AcDbBlockEnd
  0
BLOCK
  5
213C7
330
2135F
100
AcDbEntity
  8
0
100
AcDbBlockBegin
  2
*X51
 70
     1
 10
0.0
 20
0.0
 30
0.0
  3
*X51
  1

  0
LINE
  5
21360
330
2135F
100
AcDbEntity
  8
0
  6
CONTINUOUS
100
AcDbLine
 10
38.60499999996136
 20
8.762866199104765
 30
0.0
 11
38.71672554182345
 21
8.874591740966855
 31
0.0
  0
LINE
  5
21361
330
2135F
100
AcDbEntity
  8
0
  6
CONTINUOUS
100
AcDbLine
 10
38.60499999996136
 20
8.089346990024577
 30
0.0
 11
39.03418785440363
 21
8.518534844466847
 31
0.0
  0
LINE
  5
21362
330
2135F
100
AcDbEntity
  8
0
  6
CONTINUOUS
100
AcDbLine
 10
38.60499999996136
 20
7.41582778094439
 30
0.0
 11
39.35165016698382
 21
8.16247794796684
 31
0.0
  0
LINE
  5
21363
330
2135F
100
AcDbEntity
  8
0
  6
CONTINUOUS
100
AcDbLine
 10
38.60499999996136
 20
6.742308571864204
 30
0.0
 11
39.66911247956399
 21
7.806421051466834
 31
0.0
  0
LINE
  5
21364
330
2135F
100
AcDbEntity
  8
0
  6
CONTINUOUS
100
AcDbLine
 10
38.60499999996136
 20
6.068789362784018
 30
0.0
 11
39.98657479214418
 21
7.450364154966827
 31
0.0
  0
LINE
  5
21365
330
2135F
100
AcDbEntity
  8
0
  6
CONTINUOUS
100
AcDbLine
 10
38.60499999996136
 20
5.395270153703832
 30
0.0
 11
40.30403710472435
 21
7.09430725846682
 31
0.0
  0
LINE
  5
21366
330
2135F
100
AcDbEntity
  8
0
  6
CONTINUOUS
100
AcDbLine
 10
38.60499999996136
 20
4.721750944623645
 30
0.0
 11
40.62149941730453
 21
6.738250361966813
 31
0.0
  0
LINE
  5
21367
330
2135F
100
AcDbEntity
  8
0
  6
CONTINUOUS
100
AcDbLine
 10
38.60499999996136
 20
4.048231735543458
 30
0.0
 11
40.93896172988471
 21
6.382193465466806
 31
0.0
  0
LINE
  5
21368
330
2135F
100
AcDbEntity
  8
0
  6
CONTINUOUS
100
AcDbLine
 10
38.60499999996136
 20
3.374712526463272
 30
0.0
 11
40.02599999995994
 21
4.795712526461843
 31
0.0
  0
LINE
  5
21369
330
2135F
100
AcDbEntity
  8
0
  6
CONTINUOUS
100
AcDbLine
 10
38.60499999996136
 20
2.701193317383085
 30
0.0
 11
40.02599999995994
 21
4.122193317381657
 31
0.0
  0
LINE
  5
2136A
330
2135F
100
AcDbEntity
  8
0
  6
CONTINUOUS
100
AcDbLine
 10
40.28339754687704
 20
5.053110073378947
 30
0.0
 11
41.25642404246489
 21
6.026136568966799
 31
0.0
  0
LINE
  5
2136B
330
2135F
100
AcDbEntity
  8
0
  6
CONTINUOUS
100
AcDbLine
 10
40.60085985945722
 20
4.697053176878939
 30
0.0
 11
41.57388635504507
 21
5.670079672466793
 31
0.0
  0
LINE
  5
2136C
330
2135F
100
AcDbEntity
  8
0
  6
CONTINUOUS
100
AcDbLine
 10
43.57899999995641
 20
8.348712526458318
 30
0.0
 11
43.99338747348935
 21
8.763099999991255
 31
0.0
  0
LINE
  5
2136D
330
2135F
100
AcDbEntity
  8
0
  6
CONTINUOUS
100
AcDbLine
 10
43.57899999995641
 20
7.675193317378131
 30
0.0
 11
44.66690668256953
 21
8.763099999991255
 31
0.0
  0
LINE
  5
2136E
330
2135F
100
AcDbEntity
  8
0
  6
CONTINUOUS
100
AcDbLine
 10
38.60499999996136
 20
2.027674108302898
 30
0.0
 11
40.02599999995994
 21
3.44867410830147
 31
0.0
  0
LINE
  5
2136F
330
2135F
100
AcDbEntity
  8
0
  6
CONTINUOUS
100
AcDbLine
 10
38.60499999996136
 20
1.354154899222712
 30
0.0
 11
40.02599999995994
 21
2.775154899221284
 31
0.0
  0
LINE
  5
21370
330
2135F
100
AcDbEntity
  8
0
  6
CONTINUOUS
100
AcDbLine
 10
38.60499999996136
 20
0.6806356901425255
 30
0.0
 11
40.02599999995994
 21
2.101635690141098
 31
0.0
  0
LINE
  5
21371
330
2135F
100
AcDbEntity
  8
0
  6
CONTINUOUS
100
AcDbLine
 10
38.60499999996136
 20
0.0071164810623383
 30
0.0
 11
40.02599999995994
 21
1.428116481060911
 31
0.0
  0
LINE
  5
21372
330
2135F
100
AcDbEntity
  8
0
  6
CONTINUOUS
100
AcDbLine
 10
40.9183221720374
 20
4.340996280378933
 30
0.0
 11
41.89134866762525
 21
5.314022775966786
 31
0.0
  0
LINE
  5
21373
330
2135F
100
AcDbEntity
  8
0
  6
CONTINUOUS
100
AcDbLine
 10
41.23578448461758
 20
3.984939383878926
 30
0.0
 11
42.20881098020543
 21
4.957965879466778
 31
0.0
  0
LINE
  5
21374
330
2135F
100
AcDbEntity
  8
0
  6
CONTINUOUS
100
AcDbLine
 10
41.55324679719776
 20
3.628882487378919
 30
0.0
 11
42.52627329278561
 21
4.601908982966772
 31
0.0
  0
LINE
  5
21375
330
2135F
100
AcDbEntity
  8
0
  6
CONTINUOUS
100
AcDbLine
 10
41.87070910977793
 20
3.272825590878912
 30
0.0
 11
42.84373560536579
 21
4.245852086466765
 31
0.0
  0
LINE
  5
21376
330
2135F
100
AcDbEntity
  8
0
  6
CONTINUOUS
100
AcDbLine
 10
43.57899999995641
 20
7.001674108297943
 30
0.0
 11
44.99999999995498
 21
8.422674108296516
 31
0.0
  0
LINE
  5
21377
330
2135F
100
AcDbEntity
  8
0
  6
CONTINUOUS
100
AcDbLine
 10
43.57899999995641
 20
6.328154899217758
 30
0.0
 11
44.99999999995498
 21
7.749154899216329
 31
0.0
  0
LINE
  5
21378
330
2135F
100
AcDbEntity
  8
0
  6
CONTINUOUS
100
AcDbLine
 10
43.57899999995641
 20
5.654635690137571
 30
0.0
 11
44.99999999995498
 21
7.075635690136142
 31
0.0
  0
LINE
  5
21379
330
2135F
100
AcDbEntity
  8
0
  6
CONTINUOUS
100
AcDbLine
 10
43.57899999995641
 20
4.981116481057384
 30
0.0
 11
44.99999999995498
 21
6.402116481055955
 31
0.0
  0
LINE
  5
2137A
330
2135F
100
AcDbEntity
  8
0
  6
CONTINUOUS
100
AcDbLine
 10
39.27140272797921
 20
-0.0000000000000009
 30
0.0
 11
40.02599999995994
 21
0.7545972719807246
 31
0.0
  0
LINE
  5
2137B
330
2135F
100
AcDbEntity
  8
0
  6
CONTINUOUS
100
AcDbLine
 10
39.9449219370594
 20
-0.0000000000000009
 30
0.0
 11
40.02599999995994
 21
0.0810780629005379
 31
0.0
  0
LINE
  5
2137C
330
2135F
100
AcDbEntity
  8
0
  6
CONTINUOUS
100
AcDbLine
 10
42.18817142235812
 20
2.916768694378905
 30
0.0
 11
43.16119791794597
 21
3.889795189966758
 31
0.0
  0
LINE
  5
2137D
330
2135F
100
AcDbEntity
  8
0
  6
CONTINUOUS
100
AcDbLine
 10
42.50563373493829
 20
2.560711797878898
 30
0.0
 11
43.47866023052615
 21
3.533738293466751
 31
0.0
  0
LINE
  5
2137E
330
2135F
100
AcDbEntity
  8
0
  6
CONTINUOUS
100
AcDbLine
 10
43.57899999995641
 20
4.307597271977198
 30
0.0
 11
44.99999999995498
 21
5.728597271975769
 31
0.0
  0
LINE
  5
2137F
330
2135F
100
AcDbEntity
  8
0
  6
CONTINUOUS
100
AcDbLine
 10
43.57899999995641
 20
3.634078062897011
 30
0.0
 11
44.99999999995498
 21
5.055078062895582
 31
0.0
  0
LINE
  5
21380
330
2135F
100
AcDbEntity
  8
0
  6
CONTINUOUS
100
AcDbLine
 10
42.82309604751848
 20
2.204654901378891
 30
0.0
 11
44.99999999995498
 21
4.381558853815395
 31
0.0
  0
LINE
  5
21381
330
2135F
100
AcDbEntity
  8
0
  6
CONTINUOUS
100
AcDbLine
 10
43.14055836009865
 20
1.848598004878885
 30
0.0
 11
44.99999999995498
 21
3.70803964473521
 31
0.0
  0
LINE
  5
21382
330
2135F
100
AcDbEntity
  8
0
  6
CONTINUOUS
100
AcDbLine
 10
43.45802067267883
 20
1.492541108378878
 30
0.0
 11
44.99999999995498
 21
3.034520435655023
 31
0.0
  0
LINE
  5
21383
330
2135F
100
AcDbEntity
  8
0
  6
CONTINUOUS
100
AcDbLine
 10
43.77548298525902
 20
1.136484211878871
 30
0.0
 11
44.99999999995498
 21
2.361001226574837
 31
0.0
  0
LINE
  5
21384
330
2135F
100
AcDbEntity
  8
0
  6
CONTINUOUS
100
AcDbLine
 10
44.09294529783919
 20
0.7804273153788639
 30
0.0
 11
44.99999999995498
 21
1.687482017494649
 31
0.0
  0
LINE
  5
21385
330
2135F
100
AcDbEntity
  8
0
  6
CONTINUOUS
100
AcDbLine
 10
44.41040761041938
 20
0.4243704188788566
 30
0.0
 11
44.99999999995498
 21
1.013962808414463
 31
0.0
  0
LINE
  5
21386
330
2135F
100
AcDbEntity
  8
0
  6
CONTINUOUS
100
AcDbLine
 10
44.72786992299955
 20
0.0683135223788494
 30
0.0
 11
44.99999999995498
 21
0.340443599334276
 31
0.0
  0
LINE
  5
21387
330
2135F
100
AcDbEntity
  8
0
  6
CONTINUOUS
100
AcDbLine
 10
39.12223903415696
 20
-0.0000000000000009
 30
0.0
 11
38.60499999996136
 21
0.5172390341955961
 31
0.0
  0
LINE
  5
21388
330
2135F
100
AcDbEntity
  8
0
  6
CONTINUOUS
100
AcDbLine
 10
39.79575824323715
 20
-0.0000000000000009
 30
0.0
 11
38.60499999996136
 21
1.190758243275783
 31
0.0
  0
LINE
  5
21389
330
2135F
100
AcDbEntity
  8
0
  6
CONTINUOUS
100
AcDbLine
 10
40.02599999995994
 20
0.443277452357397
 30
0.0
 11
38.60499999996136
 21
1.864277452355969
 31
0.0
  0
LINE
  5
2138A
330
2135F
100
AcDbEntity
  8
0
  6
CONTINUOUS
100
AcDbLine
 10
40.02599999995994
 20
1.116796661437583
 30
0.0
 11
38.60499999996136
 21
2.537796661436155
 31
0.0
  0
LINE
  5
2138B
330
2135F
100
AcDbEntity
  8
0
  6
CONTINUOUS
100
AcDbLine
 10
40.02599999995994
 20
1.79031587051777
 30
0.0
 11
38.60499999996136
 21
3.211315870516341
 31
0.0
  0
LINE
  5
2138C
330
2135F
100
AcDbEntity
  8
0
  6
CONTINUOUS
100
AcDbLine
 10
40.02599999995994
 20
2.463835079597956
 30
0.0
 11
38.60499999996136
 21
3.884835079596527
 31
0.0
  0
LINE
  5
2138D
330
2135F
100
AcDbEntity
  8
0
  6
CONTINUOUS
100
AcDbLine
 10
40.02599999995994
 20
3.137354288678143
 30
0.0
 11
38.60499999996136
 21
4.558354288676714
 31
0.0
  0
LINE
  5
2138E
330
2135F
100
AcDbEntity
  8
0
  6
CONTINUOUS
100
AcDbLine
 10
40.02599999995994
 20
3.810873497758329
 30
0.0
 11
38.60499999996136
 21
5.2318734977569
 31
0.0
  0
LINE
  5
2138F
330
2135F
100
AcDbEntity
  8
0
  6
CONTINUOUS
100
AcDbLine
 10
40.02599999995994
 20
4.484392706838515
 30
0.0
 11
38.60499999996136
 21
5.905392706837086
 31
0.0
  0
LINE
  5
21390
330
2135F
100
AcDbEntity
  8
0
  6
CONTINUOUS
100
AcDbLine
 10
44.99999999995498
 20
0.183911915923658
 30
0.0
 11
41.53858364506288
 21
3.64532827081576
 31
0.0
  0
LINE
  5
21391
330
2135F
100
AcDbEntity
  8
0
  6
CONTINUOUS
100
AcDbLine
 10
40.02599999995994
 20
5.157911915918703
 30
0.0
 11
38.60499999996136
 21
6.578911915917274
 31
0.0
  0
LINE
  5
21392
330
2135F
100
AcDbEntity
  8
0
  6
CONTINUOUS
100
AcDbLine
 10
44.99999999995498
 20
0.8574311250038447
 30
0.0
 11
38.60499999996136
 21
7.25243112499746
 31
0.0
  0
LINE
  5
21393
330
2135F
100
AcDbEntity
  8
0
  6
CONTINUOUS
100
AcDbLine
 10
44.99999999995498
 20
1.530950334084031
 30
0.0
 11
38.60499999996136
 21
7.925950334077647
 31
0.0
  0
LINE
  5
21394
330
2135F
100
AcDbEntity
  8
0
  6
CONTINUOUS
100
AcDbLine
 10
44.99999999995498
 20
2.204469543164218
 30
0.0
 11
43.57899999995641
 21
3.625469543162789
 31
0.0
  0
LINE
  5
21395
330
2135F
100
AcDbEntity
  8
0
  6
CONTINUOUS
100
AcDbLine
 10
41.89876730984767
 20
5.305702233271528
 30
0.0
 11
38.60499999996136
 21
8.599469543157834
 31
0.0
  0
LINE
  5
21396
330
2135F
100
AcDbEntity
  8
0
  6
CONTINUOUS
100
AcDbLine
 10
44.99999999995498
 20
2.877988752244405
 30
0.0
 11
43.57899999995641
 21
4.298988752242975
 31
0.0
  0
LINE
  5
21397
330
2135F
100
AcDbEntity
  8
0
  6
CONTINUOUS
100
AcDbLine
 10
44.99999999995498
 20
3.551507961324591
 30
0.0
 11
43.57899999995641
 21
4.972507961323163
 31
0.0
  0
LINE
  5
21398
330
2135F
100
AcDbEntity
  8
0
  6
CONTINUOUS
100
AcDbLine
 10
44.99999999995498
 20
4.225027170404777
 30
0.0
 11
43.57899999995641
 21
5.646027170403348
 31
0.0
  0
LINE
  5
21399
330
2135F
100
AcDbEntity
  8
0
  6
CONTINUOUS
100
AcDbLine
 10
44.99999999995498
 20
4.898546379484964
 30
0.0
 11
43.57899999995641
 21
6.319546379483535
 31
0.0
  0
LINE
  5
2139A
330
2135F
100
AcDbEntity
  8
0
  6
CONTINUOUS
100
AcDbLine
 10
44.99999999995498
 20
5.572065588565151
 30
0.0
 11
43.57899999995641
 21
6.993065588563722
 31
0.0
  0
LINE
  5
2139B
330
2135F
100
AcDbEntity
  8
0
  6
CONTINUOUS
100
AcDbLine
 10
44.99999999995498
 20
6.245584797645336
 30
0.0
 11
43.57899999995641
 21
7.666584797643908
 31
0.0
  0
LINE
  5
2139C
330
2135F
100
AcDbEntity
  8
0
  6
CONTINUOUS
100
AcDbLine
 10
44.99999999995498
 20
6.919104006725522
 30
0.0
 11
43.57899999995641
 21
8.340104006724093
 31
0.0
  0
LINE
  5
2139D
330
2135F
100
AcDbEntity
  8
0
  6
CONTINUOUS
100
AcDbLine
 10
44.99999999995498
 20
7.592623215805709
 30
0.0
 11
43.82952321576943
 21
8.763099999991255
 31
0.0
  0
LINE
  5
2139E
330
2135F
100
AcDbEntity
  8
0
  6
CONTINUOUS
100
AcDbLine
 10
44.99999999995498
 20
8.266142424885896
 30
0.0
 11
44.50304242484962
 21
8.763099999991255
 31
0.0
  0
ENDBLK
  5
213C8
330
2135F
100
AcDbEntity
  8
0
100
AcDbBlockEnd
  0
BLOCK
  5
213C9
330
2139F
100
AcDbEntity
  8
0
100
AcDbBlockBegin
  2
*X52
 70
     1
 10
0.0
 20
0.0
 30
0.0
  3
*X52
  1

  0
LINE
  5
213A0
330
2139F
100
AcDbEntity
  8
0
  6
CONTINUOUS
100
AcDbLine
 10
0.0
 20
8.548461116714023
 30
0.0
 11
0.2146388832772324
 21
8.763099999991255
 31
0.0
  0
LINE
  5
213A1
330
2139F
100
AcDbEntity
  8
0
  6
CONTINUOUS
100
AcDbLine
 10
-0.0000000000000002
 20
7.874941907633837
 30
0.0
 11
0.8881580923574184
 21
8.763099999991255
 31
0.0
  0
LINE
  5
213A2
330
2139F
100
AcDbEntity
  8
0
  6
CONTINUOUS
100
AcDbLine
 10
0.0
 20
7.20142269855365
 30
0.0
 11
1.420999999998572
 21
8.622422698552223
 31
0.0
  0
LINE
  5
213A3
330
2139F
100
AcDbEntity
  8
0
  6
CONTINUOUS
100
AcDbLine
 10
-0.0000000000000001
 20
6.527903489473465
 30
0.0
 11
1.420999999998571
 21
7.948903489472036
 31
0.0
  0
LINE
  5
213A4
330
2139F
100
AcDbEntity
  8
0
  6
CONTINUOUS
100
AcDbLine
 10
-0.0000000000000002
 20
5.854384280393278
 30
0.0
 11
1.420999999998571
 21
7.275384280391849
 31
0.0
  0
LINE
  5
213A5
330
2139F
100
AcDbEntity
  8
0
  6
CONTINUOUS
100
AcDbLine
 10
-0.0000000000000002
 20
5.180865071313091
 30
0.0
 11
1.420999999998571
 21
6.601865071311663
 31
0.0
  0
LINE
  5
213A6
330
2139F
100
AcDbEntity
  8
0
  6
CONTINUOUS
100
AcDbLine
 10
0.0
 20
4.507345862232905
 30
0.0
 11
1.420999999998571
 21
5.928345862231477
 31
0.0
  0
LINE
  5
213A7
330
2139F
100
AcDbEntity
  8
0
  6
CONTINUOUS
100
AcDbLine
 10
-0.0000000000000003
 20
3.833826653152718
 30
0.0
 11
1.420999999998571
 21
5.25482665315129
 31
0.0
  0
LINE
  5
213A8
330
2139F
100
AcDbEntity
  8
0
  6
CONTINUOUS
100
AcDbLine
 10
-0.0000000000000002
 20
3.160307444072532
 30
0.0
 11
1.420999999998571
 21
4.581307444071103
 31
0.0
  0
LINE
  5
213A9
330
2139F
100
AcDbEntity
  8
0
  6
CONTINUOUS
100
AcDbLine
 10
-0.0000000000000001
 20
2.486788234992345
 30
0.0
 11
1.420999999998571
 21
3.907788234990917
 31
0.0
  0
LINE
  5
213AA
330
2139F
100
AcDbEntity
  8
0
  6
CONTINUOUS
100
AcDbLine
 10
-0.0000000000000006
 20
1.813269025912159
 30
0.0
 11
1.420999999998571
 21
3.234269025910731
 31
0.0
  0
LINE
  5
213AB
330
2139F
100
AcDbEntity
  8
0
  6
CONTINUOUS
100
AcDbLine
 10
0.0
 20
1.139749816831973
 30
0.0
 11
1.420999999998571
 21
2.560749816830544
 31
0.0
  0
LINE
  5
213AC
330
2139F
100
AcDbEntity
  8
0
  6
CONTINUOUS
100
AcDbLine
 10
0.0000000000000002
 20
0.466230607751787
 30
0.0
 11
1.420999999998571
 21
1.887230607750358
 31
0.0
  0
LINE
  5
213AD
330
2139F
100
AcDbEntity
  8
0
  6
CONTINUOUS
100
AcDbLine
 10
0.2072886013284003
 20
-0.0000000000000009
 30
0.0
 11
1.420999999998571
 21
1.213711398670171
 31
0.0
  0
LINE
  5
213AE
330
2139F
100
AcDbEntity
  8
0
  6
CONTINUOUS
100
AcDbLine
 10
0.8808078104085864
 20
-0.0000000000000009
 30
0.0
 11
1.420999999998571
 21
0.5401921895899839
 31
0.0
  0
LINE
  5
213AF
330
2139F
100
AcDbEntity
  8
0
  6
CONTINUOUS
100
AcDbLine
 10
0.0581249075061505
 20
-0.0000000000000009
 30
0.0
 11
-0.0000000000000002
 21
0.0581249075061496
 31
0.0
  0
LINE
  5
213B0
330
2139F
100
AcDbEntity
  8
0
  6
CONTINUOUS
100
AcDbLine
 10
0.7316441165863372
 20
-0.0000000000000009
 30
0.0
 11
-0.0000000000000002
 21
0.7316441165863363
 31
0.0
  0
LINE
  5
213B1
330
2139F
100
AcDbEntity
  8
0
  6
CONTINUOUS
100
AcDbLine
 10
1.405163325666523
 20
-0.0000000000000009
 30
0.0
 11
-0.0000000000000002
 21
1.405163325666523
 31
0.0
  0
LINE
  5
213B2
330
2139F
100
AcDbEntity
  8
0
  6
CONTINUOUS
100
AcDbLine
 10
1.420999999998572
 20
0.6576825347481381
 30
0.0
 11
-0.0000000000000001
 21
2.07868253474671
 31
0.0
  0
LINE
  5
213B3
330
2139F
100
AcDbEntity
  8
0
  6
CONTINUOUS
100
AcDbLine
 10
1.420999999998571
 20
1.331201743828324
 30
0.0
 11
-0.0000000000000001
 21
2.752201743826896
 31
0.0
  0
LINE
  5
213B4
330
2139F
100
AcDbEntity
  8
0
  6
CONTINUOUS
100
AcDbLine
 10
1.420999999998571
 20
2.004720952908511
 30
0.0
 11
-0.0000000000000002
 21
3.425720952907082
 31
0.0
  0
LINE
  5
213B5
330
2139F
100
AcDbEntity
  8
0
  6
CONTINUOUS
100
AcDbLine
 10
1.420999999998571
 20
2.678240161988697
 30
0.0
 11
-0.0000000000000001
 21
4.099240161987269
 31
0.0
  0
LINE
  5
213B6
330
2139F
100
AcDbEntity
  8
0
  6
CONTINUOUS
100
AcDbLine
 10
1.420999999998572
 20
3.351759371068884
 30
0.0
 11
0.0
 21
4.772759371067455
 31
0.0
  0
LINE
  5
213B7
330
2139F
100
AcDbEntity
  8
0
  6
CONTINUOUS
100
AcDbLine
 10
1.420999999998571
 20
4.02527858014907
 30
0.0
 11
-0.0000000000000003
 21
5.446278580147642
 31
0.0
  0
LINE
  5
213B8
330
2139F
100
AcDbEntity
  8
0
  6
CONTINUOUS
100
AcDbLine
 10
1.420999999998571
 20
4.698797789229257
 30
0.0
 11
0.0
 21
6.119797789227828
 31
0.0
  0
LINE
  5
213B9
330
2139F
100
AcDbEntity
  8
0
  6
CONTINUOUS
100
AcDbLine
 10
1.420999999998571
 20
5.372316998309444
 30
0.0
 11
-0.0000000000000001
 21
6.793316998308015
 31
0.0
  0
LINE
  5
213BA
330
2139F
100
AcDbEntity
  8
0
  6
CONTINUOUS
100
AcDbLine
 10
1.420999999998572
 20
6.045836207389629
 30
0.0
 11
-0.0000000000000004
 21
7.466836207388202
 31
0.0
  0
LINE
  5
213BB
330
2139F
100
AcDbEntity
  8
0
  6
CONTINUOUS
100
AcDbLine
 10
1.420999999998571
 20
6.719355416469816
 30
0.0
 11
0.0
 21
8.140355416468388
 31
0.0
  0
LINE
  5
213BC
330
2139F
100
AcDbEntity
  8
0
  6
CONTINUOUS
100
AcDbLine
 10
1.420999999998571
 20
7.392874625550003
 30
0.0
 11
0.0507746255573185
 21
8.763099999991255
 31
0.0
  0
LINE
  5
213BD
330
2139F
100
AcDbEntity
  8
0
  6
CONTINUOUS
100
AcDbLine
 10
1.420999999998571
 20
8.06639383463019
 30
0.0
 11
0.7242938346375052
 21
8.763099999991255
 31
0.0
  0
LINE
  5
213BE
330
2139F
100
AcDbEntity
  8
0
  6
CONTINUOUS
100
AcDbLine
 10
1.420999999998571
 20
8.739913043710375
 30
0.0
 11
1.397813043717691
 21
8.763099999991255
 31
0.0
  0
ENDBLK
  5
213CA
330
2139F
100
AcDbEntity
  8
0
100
AcDbBlockEnd
  0
ENDSEC
  0
SECTION
  2
ENTITIES
  0
TEXT
  5
1DB9B
330
18
100
AcDbEntity
  8
1TEXT
100
AcDbText
 10
424.6083149505305
 20
-488.025441490976
 30
0.0
 40
8.0
  1
K-SE-061-XCS
100
AcDbText
  0
LINE
  5
1EE56
330
18
100
AcDbEntity
  8
1DIM
100
AcDbLine
 10
425.2888999443437
 20
-494.2091615583173
 30
0.0
 11
460.2888999443437
 21
-494.2091615583173
 31
0.0
  0
LINE
  5
1EE57
330
18
100
AcDbEntity
  8
1DIM
100
AcDbLine
 10
425.2888999443437
 20
-508.2091615583173
 30
0.0
 11
460.2888999443437
 21
-508.2091615583173
 31
0.0
  0
LINE
  5
1EE58
330
18
100
AcDbEntity
  8
1DIM
100
AcDbLine
 10
425.2888999443437
 20
-501.2091615583173
 30
0.0
 11
460.2888999443437
 21
-501.2091615583173
 31
0.0
  0
LINE
  5
1EE5B
330
18
100
AcDbEntity
  8
1DIM
100
AcDbLine
 10
460.2888999443437
 20
-494.2091615583173
 30
0.0
 11
460.2888999443437
 21
-508.2091615583173
 31
0.0
  0
TEXT
  5
1EE5D
330
18
100
AcDbEntity
  8
1TEXT
100
AcDbText
 10
470.8222332776766
 20
-499.7091615583173
 30
0.0
 40
4.0
  1
コード
 72
     1
 11
477.6888999443433
 21
-499.7091615583173
 31
0.0
100
AcDbText
  0
LINE
  5
1EE5E
330
18
100
AcDbEntity
  8
1DIM
100
AcDbLine
 10
460.2888999443437
 20
-508.2091615583173
 30
0.0
 11
460.2888999443437
 21
-494.2091615583173
 31
0.0
  0
LINE
  5
1EE5F
330
18
100
AcDbEntity
  8
1DIM
100
AcDbLine
 10
495.2888999443437
 20
-508.2091615583173
 30
0.0
 11
495.2888999443437
 21
-494.2091615583173
 31
0.0
  0
TEXT
  5
1EE62
330
18
100
AcDbEntity
  8
1TEXT
100
AcDbText
 10
433.4222332776767
 20
-499.7091615583173
 30
0.0
 40
4.0
  1
表面処理
 72
     1
 11
442.6888999443433
 21
-499.7091615583173
 31
0.0
100
AcDbText
  0
TEXT
  5
1EE63
330
18
100
AcDbEntity
  8
1TEXT
100
AcDbText
 10
433.2222332776767
 20
-506.5444502178417
 30
0.0
 40
4.0
  1
クローム
 72
     1
 11
442.6888999443433
 21
-506.5444502178417
 31
0.0
100
AcDbText
  0
LINE
  5
1EE65
330
18
100
AcDbEntity
  8
1DIM
100
AcDbLine
 10
425.2888999443437
 20
-508.2091615583173
 30
0.0
 11
425.2888999443437
 21
-494.2091615583173
 31
0.0
  0
TEXT
  5
1EE71
330
18
100
AcDbEntity
  8
1TEXT
100
AcDbText
 10
463.1632054998997
 20
-506.9235185419666
 30
0.0
 40
4.0
  1
K-SE-061-XCS
 41
0.65
 72
     1
 11
477.6888999443442
 21
-506.9235185419666
 31
0.0
100
AcDbText
  0
LINE
  5
20422
330
18
100
AcDbEntity
  8
01
100
AcDbLine
 10
599.0135319860779
 20
-672.405335754918
 30
0.0
 11
599.0135319860706
 21
-687.4050414675155
 31
0.0
  0
LINE
  5
20426
330
18
100
AcDbEntity
  8
01
100
AcDbLine
 10
599.0135319860779
 20
-672.405335754918
 30
0.0
 11
519.0189512446404
 21
-672.405335754918
 31
0.0
  0
LINE
  5
20427
330
18
100
AcDbEntity
  8
01
100
AcDbLine
 10
519.0189512446404
 20
-672.405335754918
 30
0.0
 11
439.0189512446402
 21
-672.405335754918
 31
0.0
  0
LINE
  5
20428
330
18
100
AcDbEntity
  8
01
100
AcDbLine
 10
599.0189512446086
 20
-687.4050414675155
 30
0.0
 11
519.0189512446402
 21
-687.4050414675155
 31
0.0
  0
LINE
  5
20429
330
18
100
AcDbEntity
  8
01
100
AcDbLine
 10
519.0189512446402
 20
-687.4050414675155
 30
0.0
 11
439.0189512446407
 21
-687.4050414675155
 31
0.0
  0
LINE
  5
2042A
330
18
100
AcDbEntity
  8
01
100
AcDbLine
 10
402.2162416153787
 20
-687.7053357549182
 30
0.0
 11
439.0189512446404
 21
-687.7053357549182
 31
0.0
  0
LINE
  5
2042B
330
18
100
AcDbEntity
  8
01
100
AcDbLine
 10
418.8162416153791
 20
-672.1053357549179
 30
0.0
 11
439.0189512446404
 21
-672.1053357549179
 31
0.0
  0
LINE
  5
2042D
330
18
100
AcDbEntity
  8
01
100
AcDbLine
 10
416.8162416153791
 20
-616.9053357549171
 30
0.0
 11
401.2162416153787
 21
-616.9053357549171
 31
0.0
  0
LINE
  5
2042F
330
18
100
AcDbEntity
  8
01
100
AcDbLine
 10
401.2162416153787
 20
-616.9053357549171
 30
0.0
 11
401.2162416153787
 21
-686.7053357549182
 31
0.0
  0
ARC
  5
20430
330
18
100
AcDbEntity
  8
01
100
AcDbCircle
 10
402.2162416153787
 20
-686.7053357549182
 30
0.0
 40
1.0
100
AcDbArc
 50
180.0
 51
270.0
  0
LINE
  5
20431
330
18
100
AcDbEntity
  8
01
100
AcDbLine
 10
416.8162416153791
 20
-616.9053357549171
 30
0.0
 11
416.8162416153791
 21
-670.1053357549179
 31
0.0
  0
ARC
  5
20432
330
18
100
AcDbEntity
  8
01
100
AcDbCircle
 10
418.8162416153791
 20
-670.1053357549179
 30
0.0
 40
2.0
100
AcDbArc
 50
180.0
 51
270.0
  0
LINE
  5
20435
330
18
100
AcDbEntity
  8
01
100
AcDbLine
 10
401.2162416153787
 20
-687.7053357549182
 30
0.0
 11
416.8162416153791
 21
-672.1053357549179
 31
0.0
  0
LINE
  5
20443
330
18
100
AcDbEntity
  8
01
100
AcDbLine
 10
599.0135319861022
 20
-672.405335754918
 30
0.0
 11
599.0135319861017
 21
-687.4050414675155
 31
0.0
  0
LINE
  5
20444
330
18
100
AcDbEntity
  8
01
100
AcDbLine
 10
635.8162416153637
 20
-687.7053357549182
 30
0.0
 11
599.013531986102
 21
-687.7053357549182
 31
0.0
  0
LINE
  5
20445
330
18
100
AcDbEntity
  8
01
100
AcDbLine
 10
619.2162416153633
 20
-672.1053357549179
 30
0.0
 11
599.013531986102
 21
-672.1053357549179
 31
0.0
  0
LINE
  5
20446
330
18
100
AcDbEntity
  8
01
100
AcDbLine
 10
599.0135319861056
 20
-672.1053357549179
 30
0.0
 11
599.0135319860979
 21
-687.7053357549182
 31
0.0
  0
LINE
  5
20447
330
18
100
AcDbEntity
  8
01
100
AcDbLine
 10
621.2162416153633
 20
-616.9053357549171
 30
0.0
 11
636.8162416153637
 21
-616.9053357549171
 31
0.0
  0
LINE
  5
20448
330
18
100
AcDbEntity
  8
01
100
AcDbLine
 10
636.8162416153637
 20
-616.9053357549171
 30
0.0
 11
636.8162416153637
 21
-686.7053357549182
 31
0.0
  0
ARC
  5
20449
330
18
100
AcDbEntity
  8
01
100
AcDbCircle
 10
635.8162416153637
 20
-686.7053357549182
 30
0.0
 40
1.0
100
AcDbArc
 50
270.0
 51
0.0
  0
LINE
  5
2044A
330
18
100
AcDbEntity
  8
01
100
AcDbLine
 10
621.2162416153633
 20
-616.9053357549171
 30
0.0
 11
621.2162416153633
 21
-670.1053357549179
 31
0.0
  0
ARC
  5
2044B
330
18
100
AcDbEntity
  8
01
100
AcDbCircle
 10
619.2162416153633
 20
-670.1053357549179
 30
0.0
 40
2.0
100
AcDbArc
 50
270.0
 51
0.0
  0
LINE
  5
2044C
330
18
100
AcDbEntity
  8
01
100
AcDbLine
 10
599.013531986102
 20
-687.7053357549182
 30
0.0
 11
599.013531986102
 21
-672.1053357549179
 31
0.0
  0
LINE
  5
2044D
330
18
100
AcDbEntity
  8
01
100
AcDbLine
 10
599.013531986102
 20
-672.4053357549185
 30
0.0
 11
599.013531986102
 21
-687.4053357549185
 31
0.0
  0
LINE
  5
2044E
330
18
100
AcDbEntity
  8
01
100
AcDbLine
 10
636.8162416153637
 20
-687.7053357549182
 30
0.0
 11
621.2162416153633
 21
-672.1053357549179
 31
0.0
  0
LINE
  5
2056D
330
18
100
AcDbEntity
  8
01
100
AcDbLine
 10
692.4162416153412
 20
-627.6035383520566
 30
0.0
 11
692.4162416153305
 21
-679.9053357549283
 31
0.0
  0
LINE
  5
2056E
330
18
100
AcDbEntity
  8
01
100
AcDbLine
 10
676.816241615356
 20
-616.9053357549274
 30
0.0
 11
676.8162416153292
 21
-679.9053357549283
 31
0.0
  0
LINE
  5
2056F
330
18
100
AcDbEntity
  8
01
100
AcDbLine
 10
727.816241615356
 20
-616.9053357549274
 30
0.0
 11
727.8162416153535
 21
-622.922638491812
 31
0.0
  0
LINE
  5
20570
330
18
100
AcDbEntity
  8
01
100
AcDbLine
 10
727.816241615356
 20
-616.9053357549274
 30
0.0
 11
676.816241615356
 21
-616.9053357549274
 31
0.0
  0
ARC
  5
20572
330
18
100
AcDbEntity
  8
01
100
AcDbCircle
 10
684.6162416153298
 20
-679.9053357549283
 30
0.0
 40
7.8
100
AcDbArc
 50
179.9999999999739
 51
359.999999999987
  0
LINE
  5
20578
330
18
100
AcDbEntity
  8
01
100
AcDbLine
 10
726.8336940217908
 20
-623.922486186968
 30
0.0
 11
687.6162416153296
 21
-624.6070293650421
 31
0.0
  0
ARC
  5
20579
330
18
100
AcDbEntity
  8
01
100
AcDbCircle
 10
726.8162416153535
 20
-622.9226384918115
 30
0.0
 40
1.0
100
AcDbArc
 50
271.0000000000018
 51
359.999999999974
  0
LINE
  5
2057C
330
18
100
AcDbEntity
  8
01
100
AcDbLine
 10
687.6162416153298
 20
-624.6070293650421
 30
0.0
 11
684.6162416153298
 21
-627.6070293650421
 31
0.0
  0
LINE
  5
2057D
330
18
100
AcDbEntity
  8
01
100
AcDbLine
 10
692.433392047382
 20
-627.5863879200158
 30
0.0
 11
684.6368830603559
 21
-627.5863879200158
 31
0.0
  0
LINE
  5
2057E
330
18
100
AcDbEntity
  8
01
100
AcDbLine
 10
695.5512568077457
 20
-624.4685231596522
 30
0.0
 11
692.4162416153412
 21
-627.6035383520566
 31
0.0
  0
LINE
  5
205B3
330
18
100
AcDbEntity
  8
01
100
AcDbLine
 10
439.0189512446404
 20
-672.1053357549179
 30
0.0
 11
439.0189512446404
 21
-687.7053357549182
 31
0.0
  0
LINE
  5
20696
330
18
100
AcDbEntity
  8
01
100
AcDbLine
 10
671.816241615356
 20
-616.9053357549274
 30
0.0
 11
741.8390531680643
 21
-616.9053357549274
 31
0.0
  0
LINE
  5
20698
330
18
100
AcDbEntity
  8
01
100
AcDbLine
 10
671.8162416153637
 20
-598.9053357549274
 30
0.0
 11
671.816241615356
 21
-616.9053357549274
 31
0.0
  0
LINE
  5
20759
330
18
100
AcDbEntity
  8
01
100
AcDbLine
 10
671.816241615356
 20
-598.9053357549274
 30
0.0
 11
741.8390531680643
 21
-598.9053357549274
 31
0.0
  0
LINE
  5
207E0
102
{ACAD_REACTORS
330
20817
330
20818
102
}
330
18
100
AcDbEntity
  8
1PHANTOM
100
AcDbLine
 10
701.3162414684577
 20
-625.3766225079892
 30
0.0
 11
700.3162417684578
 21
-624.3766225079892
 31
0.0
  0
LINE
  5
207E1
102
{ACAD_REACTORS
330
20817
330
20818
102
}
330
18
100
AcDbEntity
  8
1PHANTOM
100
AcDbLine
 10
704.6162416184577
 20
-625.3766225079892
 30
0.0
 11
704.6162416184577
 21
-624.3766225079892
 31
0.0
  0
LINE
  5
207E2
102
{ACAD_REACTORS
330
20817
330
20818
102
}
330
18
100
AcDbEntity
  8
1PHANTOM
100
AcDbLine
 10
704.6162416184577
 20
-624.3766225079892
 30
0.0
 11
697.0162416184578
 21
-624.3766225079892
 31
0.0
  0
LINE
  5
207E3
102
{ACAD_REACTORS
330
20817
330
20818
102
}
330
18
100
AcDbEntity
  8
1PHANTOM
100
AcDbLine
 10
704.6162416184577
 20
-625.3766225079892
 30
0.0
 11
697.0162416184578
 21
-625.3766225079892
 31
0.0
  0
LINE
  5
207E4
102
{ACAD_REACTORS
330
20817
330
20818
102
}
330
18
100
AcDbEntity
  8
1PHANTOM
100
AcDbLine
 10
697.0162416184578
 20
-625.3766225079892
 30
0.0
 11
697.0162416184578
 21
-624.3766225079892
 31
0.0
  0
LINE
  5
207E5
102
{ACAD_REACTORS
330
20818
102
}
330
18
100
AcDbEntity
  8
1PHANTOM
100
AcDbLine
 10
700.8162881512513
 20
-603.3764580812581
 30
0.0
 11
699.3162881512513
 21
-608.6764545911198
 31
0.0
  0
LINE
  5
207E6
102
{ACAD_REACTORS
330
20818
102
}
330
18
100
AcDbEntity
  8
1PHANTOM
100
AcDbLine
 10
699.3162881512513
 20
-608.6764545911198
 30
0.0
 11
699.3162881512516
 21
-625.376622507989
 31
0.0
  0
LINE
  5
207E7
102
{ACAD_REACTORS
330
20818
102
}
330
18
100
AcDbEntity
  8
1PHANTOM
100
AcDbLine
 10
700.8162881512513
 20
-603.3764580812581
 30
0.0
 11
702.3162881512515
 21
-608.6764615715034
 31
0.0
  0
LINE
  5
207E8
102
{ACAD_REACTORS
330
20818
102
}
330
18
100
AcDbEntity
  8
1PHANTOM
100
AcDbLine
 10
697.3162416153535
 20
-625.376614364207
 30
0.0
 11
704.3162416153534
 21
-625.3766306517714
 31
0.0
  0
LINE
  5
207E9
102
{ACAD_REACTORS
330
20818
102
}
330
18
100
AcDbEntity
  8
1PHANTOM
100
AcDbLine
 10
702.3162881512515
 20
-608.6764615715034
 30
0.0
 11
702.3162881512515
 21
-625.376622507989
 31
0.0
  0
LINE
  5
207EA
102
{ACAD_REACTORS
330
20818
102
}
330
18
100
AcDbEntity
  8
1PHANTOM
100
AcDbLine
 10
697.3162416153535
 20
-625.376614364207
 30
0.0
 11
697.3162416153534
 21
-626.4766178544023
 31
0.0
  0
ARC
  5
207EB
102
{ACAD_REACTORS
330
20818
102
}
330
18
100
AcDbEntity
  8
1PHANTOM
100
AcDbCircle
 10
698.8162416153534
 20
-626.4766178544023
 30
0.0
 40
1.5
100
AcDbArc
 50
180.0
 51
269.9998666844684
  0
LINE
  5
207EC
102
{ACAD_REACTORS
330
20818
102
}
330
18
100
AcDbEntity
  8
1PHANTOM
100
AcDbLine
 10
704.3162416153534
 20
-625.3766306517714
 30
0.0
 11
704.3162416153534
 21
-626.476627161582
 31
0.0
  0
LINE
  5
207ED
102
{ACAD_REACTORS
330
20818
102
}
330
18
100
AcDbEntity
  8
1PHANTOM
100
AcDbLine
 10
698.816238125161
 20
-627.9766178543982
 30
0.0
 11
702.816238125161
 21
-627.9766271615779
 31
0.0
  0
ARC
  5
207EE
102
{ACAD_REACTORS
330
20818
102
}
330
18
100
AcDbEntity
  8
1PHANTOM
100
AcDbCircle
 10
702.8162416153534
 20
-626.476627161582
 30
0.0
 40
1.5
100
AcDbArc
 50
269.9998666844684
 51
0.0
  0
LINE
  5
207EF
102
{ACAD_REACTORS
330
20818
102
}
330
18
100
AcDbEntity
  8
1CENTER
100
AcDbLine
 10
700.8162416153534
 20
-601.9456631637927
 30
0.0
 11
700.8162416153534
 21
-629.1599310844734
 31
0.0
  0
LINE
  5
207F0
102
{ACAD_REACTORS
330
20818
102
}
330
18
100
AcDbEntity
  8
1PHANTOM
100
AcDbLine
 10
699.7219178013584
 20
-605.4764555349359
 30
0.0
 11
701.6842528902338
 21
-604.6764601008849
 31
0.0
  0
LINE
  5
207F1
102
{ACAD_REACTORS
330
20818
102
}
330
18
100
AcDbEntity
  8
1PHANTOM
100
AcDbLine
 10
701.6842528902338
 20
-604.6764601008849
 30
0.0
 11
701.0959763151914
 21
-604.3646902446328
 31
0.0
  0
LINE
  5
207F2
102
{ACAD_REACTORS
330
20818
102
}
330
18
100
AcDbEntity
  8
1PHANTOM
100
AcDbLine
 10
698.8162881512513
 20
-616.6764534277215
 30
0.0
 11
702.8162881512513
 21
-615.876462734899
 31
0.0
  0
LINE
  5
207F3
102
{ACAD_REACTORS
330
20818
102
}
330
18
100
AcDbEntity
  8
1PHANTOM
100
AcDbLine
 10
698.8162881512513
 20
-613.4764534277215
 30
0.0
 11
702.8162881512513
 21
-612.6764627348989
 31
0.0
  0
LINE
  5
207F4
102
{ACAD_REACTORS
330
20818
102
}
330
18
100
AcDbEntity
  8
1PHANTOM
100
AcDbLine
 10
702.8162881512513
 20
-612.6764627348989
 30
0.0
 11
702.3162881512513
 21
-612.5764615715017
 31
0.0
  0
LINE
  5
207F5
102
{ACAD_REACTORS
330
20818
102
}
330
18
100
AcDbEntity
  8
1PHANTOM
100
AcDbLine
 10
699.3162881512513
 20
-611.9764545911187
 30
0.0
 11
698.8162881512513
 21
-611.8764534277215
 31
0.0
  0
LINE
  5
207F6
102
{ACAD_REACTORS
330
20818
102
}
330
18
100
AcDbEntity
  8
1PHANTOM
100
AcDbLine
 10
702.8162881512513
 20
-615.876462734899
 30
0.0
 11
702.3162881512513
 21
-615.7764615715017
 31
0.0
  0
LINE
  5
207F7
102
{ACAD_REACTORS
330
20818
102
}
330
18
100
AcDbEntity
  8
1PHANTOM
100
AcDbLine
 10
702.8162881512513
 20
-614.2764627348988
 30
0.0
 11
702.3162881512513
 21
-614.1764615715017
 31
0.0
  0
LINE
  5
207F8
102
{ACAD_REACTORS
330
20818
102
}
330
18
100
AcDbEntity
  8
1PHANTOM
100
AcDbLine
 10
699.3162881512513
 20
-613.5764545911186
 30
0.0
 11
698.8162881512513
 21
-613.4764534277215
 31
0.0
  0
LINE
  5
207F9
102
{ACAD_REACTORS
330
20818
102
}
330
18
100
AcDbEntity
  8
1PHANTOM
100
AcDbLine
 10
699.3162881512513
 20
-615.1764545911185
 30
0.0
 11
698.8162881512513
 21
-615.0764534277214
 31
0.0
  0
LINE
  5
207FA
102
{ACAD_REACTORS
330
20818
102
}
330
18
100
AcDbEntity
  8
1PHANTOM
100
AcDbLine
 10
698.8162881512513
 20
-615.0764534277214
 30
0.0
 11
702.8162881512513
 21
-614.2764627348988
 31
0.0
  0
LINE
  5
207FB
102
{ACAD_REACTORS
330
20818
102
}
330
18
100
AcDbEntity
  8
1PHANTOM
100
AcDbLine
 10
702.1370669946406
 20
-606.2764611544906
 30
0.0
 11
701.5853175308373
 21
-606.0936970118626
 31
0.0
  0
LINE
  5
207FC
102
{ACAD_REACTORS
330
20818
102
}
330
18
100
AcDbEntity
  8
1PHANTOM
100
AcDbLine
 10
702.8162881512513
 20
-609.4764627348989
 30
0.0
 11
702.3162881512513
 21
-609.3764615715017
 31
0.0
  0
LINE
  5
207FD
102
{ACAD_REACTORS
330
20818
102
}
330
18
100
AcDbEntity
  8
1PHANTOM
100
AcDbLine
 10
702.8162881512513
 20
-611.0764627348989
 30
0.0
 11
702.3162881512513
 21
-610.9764615715019
 31
0.0
  0
LINE
  5
207FE
102
{ACAD_REACTORS
330
20818
102
}
330
18
100
AcDbEntity
  8
1PHANTOM
100
AcDbLine
 10
702.5898810990474
 20
-607.8764622080962
 30
0.0
 11
702.0532873637762
 21
-607.7471915104663
 31
0.0
  0
LINE
  5
207FF
102
{ACAD_REACTORS
330
20818
102
}
330
18
100
AcDbEntity
  8
1PHANTOM
100
AcDbLine
 10
699.73720274846
 20
-607.1892239936817
 30
0.0
 11
699.2691042933101
 21
-607.0764544813317
 31
0.0
  0
LINE
  5
20800
102
{ACAD_REACTORS
330
20818
102
}
330
18
100
AcDbEntity
  8
1PHANTOM
100
AcDbLine
 10
699.3162881512513
 20
-610.3764545911185
 30
0.0
 11
698.8162881512513
 21
-610.2764534277214
 31
0.0
  0
LINE
  5
20801
102
{ACAD_REACTORS
330
20818
102
}
330
18
100
AcDbEntity
  8
1PHANTOM
100
AcDbLine
 10
699.3162881512513
 20
-608.7764545911186
 30
0.0
 11
698.8162881512513
 21
-608.6764534277215
 31
0.0
  0
LINE
  5
20802
102
{ACAD_REACTORS
330
20818
102
}
330
18
100
AcDbEntity
  8
1PHANTOM
100
AcDbLine
 10
700.1790896419894
 20
-605.6278913313763
 30
0.0
 11
699.7219178013584
 21
-605.4764555349359
 31
0.0
  0
LINE
  5
20803
102
{ACAD_REACTORS
330
20818
102
}
330
18
100
AcDbEntity
  8
1PHANTOM
100
AcDbLine
 10
699.2691042933101
 20
-607.0764544813317
 30
0.0
 11
702.1370669946406
 21
-606.2764611544906
 31
0.0
  0
LINE
  5
20804
102
{ACAD_REACTORS
330
20818
102
}
330
18
100
AcDbEntity
  8
1PHANTOM
100
AcDbLine
 10
698.8162881512513
 20
-610.2764534277214
 30
0.0
 11
702.8162881512513
 21
-609.4764627348989
 31
0.0
  0
LINE
  5
20805
102
{ACAD_REACTORS
330
20818
102
}
330
18
100
AcDbEntity
  8
1PHANTOM
100
AcDbLine
 10
698.8162881512513
 20
-608.6764534277215
 30
0.0
 11
702.5898810990474
 21
-607.8764622080962
 31
0.0
  0
LINE
  5
20806
102
{ACAD_REACTORS
330
20818
102
}
330
18
100
AcDbEntity
  8
1PHANTOM
100
AcDbLine
 10
698.8162881512513
 20
-611.8764534277215
 30
0.0
 11
702.8162881512513
 21
-611.0764627348989
 31
0.0
  0
LINE
  5
20807
102
{ACAD_REACTORS
330
20818
102
}
330
18
100
AcDbEntity
  8
1PHANTOM
100
AcDbLine
 10
702.8162881512513
 20
-617.4764627348989
 30
0.0
 11
702.3162881512513
 21
-617.3764615715017
 31
0.0
  0
LINE
  5
20808
102
{ACAD_REACTORS
330
20818
102
}
330
18
100
AcDbEntity
  8
1PHANTOM
100
AcDbLine
 10
699.3162881512513
 20
-616.7764545911186
 30
0.0
 11
698.8162881512513
 21
-616.6764534277215
 31
0.0
  0
LINE
  5
20809
102
{ACAD_REACTORS
330
20818
102
}
330
18
100
AcDbEntity
  8
1PHANTOM
100
AcDbLine
 10
699.3162881512513
 20
-618.3764545911192
 30
0.0
 11
698.8162881512513
 21
-618.2764534277214
 31
0.0
  0
LINE
  5
2080A
102
{ACAD_REACTORS
330
20818
102
}
330
18
100
AcDbEntity
  8
1PHANTOM
100
AcDbLine
 10
698.8162881512513
 20
-618.2764534277214
 30
0.0
 11
702.8162881512513
 21
-617.4764627348989
 31
0.0
  0
LINE
  5
2080B
102
{ACAD_REACTORS
330
20818
102
}
330
18
100
AcDbEntity
  8
1PHANTOM
100
AcDbLine
 10
702.8162881512512
 20
-619.0764627348989
 30
0.0
 11
702.3162881512512
 21
-618.9764615715018
 31
0.0
  0
LINE
  5
2080C
102
{ACAD_REACTORS
330
20818
102
}
330
18
100
AcDbEntity
  8
1PHANTOM
100
AcDbLine
 10
699.3162881512512
 20
-619.9764545911192
 30
0.0
 11
698.8162881512512
 21
-619.8764534277215
 31
0.0
  0
LINE
  5
2080D
102
{ACAD_REACTORS
330
20818
102
}
330
18
100
AcDbEntity
  8
1PHANTOM
100
AcDbLine
 10
698.8162881512512
 20
-619.8764534277215
 30
0.0
 11
702.8162881512512
 21
-619.0764627348989
 31
0.0
  0
LINE
  5
2080E
102
{ACAD_REACTORS
330
20818
102
}
330
18
100
AcDbEntity
  8
1PHANTOM
100
AcDbLine
 10
702.8162881512515
 20
-620.676462734899
 30
0.0
 11
702.3162881512515
 21
-620.5764615715019
 31
0.0
  0
LINE
  5
2080F
102
{ACAD_REACTORS
330
20818
102
}
330
18
100
AcDbEntity
  8
1PHANTOM
100
AcDbLine
 10
699.3162881512515
 20
-621.5764545911194
 30
0.0
 11
698.8162881512515
 21
-621.4764534277216
 31
0.0
  0
LINE
  5
20810
102
{ACAD_REACTORS
330
20818
102
}
330
18
100
AcDbEntity
  8
1PHANTOM
100
AcDbLine
 10
698.8162881512515
 20
-621.4764534277216
 30
0.0
 11
702.8162881512515
 21
-620.676462734899
 31
0.0
  0
LINE
  5
20811
102
{ACAD_REACTORS
330
20818
102
}
330
18
100
AcDbEntity
  8
1PHANTOM
100
AcDbLine
 10
702.8162881512515
 20
-622.276462734899
 30
0.0
 11
702.3162881512515
 21
-622.1764615715019
 31
0.0
  0
LINE
  5
20812
102
{ACAD_REACTORS
330
20818
102
}
330
18
100
AcDbEntity
  8
1PHANTOM
100
AcDbLine
 10
699.3162881512515
 20
-623.1764545911194
 30
0.0
 11
698.8162881512515
 21
-623.0764534277216
 31
0.0
  0
LINE
  5
20813
102
{ACAD_REACTORS
330
20818
102
}
330
18
100
AcDbEntity
  8
1PHANTOM
100
AcDbLine
 10
698.8162881512515
 20
-623.0764534277216
 30
0.0
 11
702.8162881512515
 21
-622.276462734899
 31
0.0
  0
LINE
  5
20814
102
{ACAD_REACTORS
330
20818
102
}
330
18
100
AcDbEntity
  8
1PHANTOM
100
AcDbLine
 10
702.8162881512513
 20
-623.8764627348991
 30
0.0
 11
702.3162881512513
 21
-623.776461571502
 31
0.0
  0
LINE
  5
20815
102
{ACAD_REACTORS
330
20818
102
}
330
18
100
AcDbEntity
  8
1PHANTOM
100
AcDbLine
 10
699.3162881512513
 20
-624.7764545911194
 30
0.0
 11
698.8162881512513
 21
-624.6764534277216
 31
0.0
  0
LINE
  5
20816
102
{ACAD_REACTORS
330
20818
102
}
330
18
100
AcDbEntity
  8
1PHANTOM
100
AcDbLine
 10
698.8162881512513
 20
-624.6764534277216
 30
0.0
 11
702.8162881512513
 21
-623.8764627348991
 31
0.0
  0
LINE
  5
20819
102
{ACAD_REACTORS
330
20850
330
20851
102
}
330
18
100
AcDbEntity
  8
1PHANTOM
100
AcDbLine
 10
721.3162414684581
 20
-625.0275212094348
 30
0.0
 11
720.3162417684581
 21
-624.0275212094348
 31
0.0
  0
LINE
  5
2081A
102
{ACAD_REACTORS
330
20850
330
20851
102
}
330
18
100
AcDbEntity
  8
1PHANTOM
100
AcDbLine
 10
724.616241618458
 20
-625.0275212094348
 30
0.0
 11
724.616241618458
 21
-624.0275212094348
 31
0.0
  0
LINE
  5
2081B
102
{ACAD_REACTORS
330
20850
330
20851
102
}
330
18
100
AcDbEntity
  8
1PHANTOM
100
AcDbLine
 10
724.616241618458
 20
-624.0275212094348
 30
0.0
 11
717.0162416184581
 21
-624.0275212094348
 31
0.0
  0
LINE
  5
2081C
102
{ACAD_REACTORS
330
20850
330
20851
102
}
330
18
100
AcDbEntity
  8
1PHANTOM
100
AcDbLine
 10
724.616241618458
 20
-625.0275212094348
 30
0.0
 11
717.0162416184581
 21
-625.0275212094348
 31
0.0
  0
LINE
  5
2081D
102
{ACAD_REACTORS
330
20850
330
20851
102
}
330
18
100
AcDbEntity
  8
1PHANTOM
100
AcDbLine
 10
717.0162416184581
 20
-625.0275212094348
 30
0.0
 11
717.0162416184581
 21
-624.0275212094348
 31
0.0
  0
LINE
  5
2081E
102
{ACAD_REACTORS
330
20851
102
}
330
18
100
AcDbEntity
  8
1PHANTOM
100
AcDbLine
 10
720.8162881512517
 20
-603.0273567827037
 30
0.0
 11
719.3162881512517
 21
-608.3273532925654
 31
0.0
  0
LINE
  5
2081F
102
{ACAD_REACTORS
330
20851
102
}
330
18
100
AcDbEntity
  8
1PHANTOM
100
AcDbLine
 10
719.3162881512517
 20
-608.3273532925654
 30
0.0
 11
719.3162881512519
 21
-625.0275212094347
 31
0.0
  0
LINE
  5
20820
102
{ACAD_REACTORS
330
20851
102
}
330
18
100
AcDbEntity
  8
1PHANTOM
100
AcDbLine
 10
720.8162881512517
 20
-603.0273567827037
 30
0.0
 11
722.3162881512518
 21
-608.327360272949
 31
0.0
  0
LINE
  5
20821
102
{ACAD_REACTORS
330
20851
102
}
330
18
100
AcDbEntity
  8
1PHANTOM
100
AcDbLine
 10
717.3162416153539
 20
-625.0275130656526
 30
0.0
 11
724.3162416153538
 21
-625.027529353217
 31
0.0
  0
LINE
  5
20822
102
{ACAD_REACTORS
330
20851
102
}
330
18
100
AcDbEntity
  8
1PHANTOM
100
AcDbLine
 10
722.3162881512518
 20
-608.327360272949
 30
0.0
 11
722.3162881512518
 21
-625.0275212094347
 31
0.0
  0
LINE
  5
20823
102
{ACAD_REACTORS
330
20851
102
}
330
18
100
AcDbEntity
  8
1PHANTOM
100
AcDbLine
 10
717.3162416153539
 20
-625.0275130656526
 30
0.0
 11
717.3162416153538
 21
-626.1275165558479
 31
0.0
  0
ARC
  5
20824
102
{ACAD_REACTORS
330
20851
102
}
330
18
100
AcDbEntity
  8
1PHANTOM
100
AcDbCircle
 10
718.8162416153538
 20
-626.1275165558479
 30
0.0
 40
1.5
100
AcDbArc
 50
180.0
 51
269.9998666844684
  0
LINE
  5
20825
102
{ACAD_REACTORS
330
20851
102
}
330
18
100
AcDbEntity
  8
1PHANTOM
100
AcDbLine
 10
724.3162416153538
 20
-625.027529353217
 30
0.0
 11
724.3162416153538
 21
-626.1275258630276
 31
0.0
  0
LINE
  5
20826
102
{ACAD_REACTORS
330
20851
102
}
330
18
100
AcDbEntity
  8
1PHANTOM
100
AcDbLine
 10
718.8162381251614
 20
-627.6275165558438
 30
0.0
 11
722.8162381251614
 21
-627.6275258630235
 31
0.0
  0
ARC
  5
20827
102
{ACAD_REACTORS
330
20851
102
}
330
18
100
AcDbEntity
  8
1PHANTOM
100
AcDbCircle
 10
722.8162416153538
 20
-626.1275258630276
 30
0.0
 40
1.5
100
AcDbArc
 50
269.9998666844684
 51
0.0
  0
LINE
  5
20828
102
{ACAD_REACTORS
330
20851
102
}
330
18
100
AcDbEntity
  8
1CENTER
100
AcDbLine
 10
720.8162416153538
 20
-601.5965618652383
 30
0.0
 11
720.8162416153538
 21
-628.810829785919
 31
0.0
  0
LINE
  5
20829
102
{ACAD_REACTORS
330
20851
102
}
330
18
100
AcDbEntity
  8
1PHANTOM
100
AcDbLine
 10
719.7219178013587
 20
-605.1273542363815
 30
0.0
 11
721.6842528902341
 21
-604.3273588023305
 31
0.0
  0
LINE
  5
2082A
102
{ACAD_REACTORS
330
20851
102
}
330
18
100
AcDbEntity
  8
1PHANTOM
100
AcDbLine
 10
721.6842528902341
 20
-604.3273588023305
 30
0.0
 11
721.0959763151917
 21
-604.0155889460784
 31
0.0
  0
LINE
  5
2082B
102
{ACAD_REACTORS
330
20851
102
}
330
18
100
AcDbEntity
  8
1PHANTOM
100
AcDbLine
 10
718.8162881512517
 20
-616.3273521291671
 30
0.0
 11
722.8162881512517
 21
-615.5273614363446
 31
0.0
  0
LINE
  5
2082C
102
{ACAD_REACTORS
330
20851
102
}
330
18
100
AcDbEntity
  8
1PHANTOM
100
AcDbLine
 10
718.8162881512517
 20
-613.1273521291671
 30
0.0
 11
722.8162881512517
 21
-612.3273614363445
 31
0.0
  0
LINE
  5
2082D
102
{ACAD_REACTORS
330
20851
102
}
330
18
100
AcDbEntity
  8
1PHANTOM
100
AcDbLine
 10
722.8162881512517
 20
-612.3273614363445
 30
0.0
 11
722.3162881512517
 21
-612.2273602729473
 31
0.0
  0
LINE
  5
2082E
102
{ACAD_REACTORS
330
20851
102
}
330
18
100
AcDbEntity
  8
1PHANTOM
100
AcDbLine
 10
719.3162881512517
 20
-611.6273532925643
 30
0.0
 11
718.8162881512517
 21
-611.5273521291671
 31
0.0
  0
LINE
  5
2082F
102
{ACAD_REACTORS
330
20851
102
}
330
18
100
AcDbEntity
  8
1PHANTOM
100
AcDbLine
 10
722.8162881512517
 20
-615.5273614363446
 30
0.0
 11
722.3162881512517
 21
-615.4273602729473
 31
0.0
  0
LINE
  5
20830
102
{ACAD_REACTORS
330
20851
102
}
330
18
100
AcDbEntity
  8
1PHANTOM
100
AcDbLine
 10
722.8162881512517
 20
-613.9273614363444
 30
0.0
 11
722.3162881512517
 21
-613.8273602729473
 31
0.0
  0
LINE
  5
20831
102
{ACAD_REACTORS
330
20851
102
}
330
18
100
AcDbEntity
  8
1PHANTOM
100
AcDbLine
 10
719.3162881512517
 20
-613.2273532925642
 30
0.0
 11
718.8162881512517
 21
-613.1273521291671
 31
0.0
  0
LINE
  5
20832
102
{ACAD_REACTORS
330
20851
102
}
330
18
100
AcDbEntity
  8
1PHANTOM
100
AcDbLine
 10
719.3162881512517
 20
-614.8273532925641
 30
0.0
 11
718.8162881512517
 21
-614.727352129167
 31
0.0
  0
LINE
  5
20833
102
{ACAD_REACTORS
330
20851
102
}
330
18
100
AcDbEntity
  8
1PHANTOM
100
AcDbLine
 10
718.8162881512517
 20
-614.727352129167
 30
0.0
 11
722.8162881512517
 21
-613.9273614363444
 31
0.0
  0
LINE
  5
20834
102
{ACAD_REACTORS
330
20851
102
}
330
18
100
AcDbEntity
  8
1PHANTOM
100
AcDbLine
 10
722.1370669946409
 20
-605.9273598559362
 30
0.0
 11
721.5853175308376
 21
-605.7445957133082
 31
0.0
  0
LINE
  5
20835
102
{ACAD_REACTORS
330
20851
102
}
330
18
100
AcDbEntity
  8
1PHANTOM
100
AcDbLine
 10
722.8162881512517
 20
-609.1273614363445
 30
0.0
 11
722.3162881512517
 21
-609.0273602729474
 31
0.0
  0
LINE
  5
20836
102
{ACAD_REACTORS
330
20851
102
}
330
18
100
AcDbEntity
  8
1PHANTOM
100
AcDbLine
 10
722.8162881512517
 20
-610.7273614363445
 30
0.0
 11
722.3162881512517
 21
-610.6273602729475
 31
0.0
  0
LINE
  5
20837
102
{ACAD_REACTORS
330
20851
102
}
330
18
100
AcDbEntity
  8
1PHANTOM
100
AcDbLine
 10
722.5898810990477
 20
-607.5273609095418
 30
0.0
 11
722.0532873637766
 21
-607.398090211912
 31
0.0
  0
LINE
  5
20838
102
{ACAD_REACTORS
330
20851
102
}
330
18
100
AcDbEntity
  8
1PHANTOM
100
AcDbLine
 10
719.7372027484604
 20
-606.8401226951273
 30
0.0
 11
719.2691042933104
 21
-606.7273531827773
 31
0.0
  0
LINE
  5
20839
102
{ACAD_REACTORS
330
20851
102
}
330
18
100
AcDbEntity
  8
1PHANTOM
100
AcDbLine
 10
719.3162881512517
 20
-610.0273532925642
 30
0.0
 11
718.8162881512517
 21
-609.927352129167
 31
0.0
  0
LINE
  5
2083A
102
{ACAD_REACTORS
330
20851
102
}
330
18
100
AcDbEntity
  8
1PHANTOM
100
AcDbLine
 10
719.3162881512517
 20
-608.4273532925642
 30
0.0
 11
718.8162881512517
 21
-608.3273521291671
 31
0.0
  0
LINE
  5
2083B
102
{ACAD_REACTORS
330
20851
102
}
330
18
100
AcDbEntity
  8
1PHANTOM
100
AcDbLine
 10
720.1790896419898
 20
-605.2787900328219
 30
0.0
 11
719.7219178013587
 21
-605.1273542363815
 31
0.0
  0
LINE
  5
2083C
102
{ACAD_REACTORS
330
20851
102
}
330
18
100
AcDbEntity
  8
1PHANTOM
100
AcDbLine
 10
719.2691042933104
 20
-606.7273531827773
 30
0.0
 11
722.1370669946409
 21
-605.9273598559362
 31
0.0
  0
LINE
  5
2083D
102
{ACAD_REACTORS
330
20851
102
}
330
18
100
AcDbEntity
  8
1PHANTOM
100
AcDbLine
 10
718.8162881512517
 20
-609.927352129167
 30
0.0
 11
722.8162881512517
 21
-609.1273614363445
 31
0.0
  0
LINE
  5
2083E
102
{ACAD_REACTORS
330
20851
102
}
330
18
100
AcDbEntity
  8
1PHANTOM
100
AcDbLine
 10
718.8162881512517
 20
-608.3273521291671
 30
0.0
 11
722.5898810990477
 21
-607.5273609095418
 31
0.0
  0
LINE
  5
2083F
102
{ACAD_REACTORS
330
20851
102
}
330
18
100
AcDbEntity
  8
1PHANTOM
100
AcDbLine
 10
718.8162881512517
 20
-611.5273521291671
 30
0.0
 11
722.8162881512517
 21
-610.7273614363445
 31
0.0
  0
LINE
  5
20840
102
{ACAD_REACTORS
330
20851
102
}
330
18
100
AcDbEntity
  8
1PHANTOM
100
AcDbLine
 10
722.8162881512517
 20
-617.1273614363445
 30
0.0
 11
722.3162881512517
 21
-617.0273602729474
 31
0.0
  0
LINE
  5
20841
102
{ACAD_REACTORS
330
20851
102
}
330
18
100
AcDbEntity
  8
1PHANTOM
100
AcDbLine
 10
719.3162881512517
 20
-616.4273532925642
 30
0.0
 11
718.8162881512517
 21
-616.3273521291671
 31
0.0
  0
LINE
  5
20842
102
{ACAD_REACTORS
330
20851
102
}
330
18
100
AcDbEntity
  8
1PHANTOM
100
AcDbLine
 10
719.3162881512517
 20
-618.0273532925648
 30
0.0
 11
718.8162881512517
 21
-617.927352129167
 31
0.0
  0
LINE
  5
20843
102
{ACAD_REACTORS
330
20851
102
}
330
18
100
AcDbEntity
  8
1PHANTOM
100
AcDbLine
 10
718.8162881512517
 20
-617.927352129167
 30
0.0
 11
722.8162881512517
 21
-617.1273614363445
 31
0.0
  0
LINE
  5
20844
102
{ACAD_REACTORS
330
20851
102
}
330
18
100
AcDbEntity
  8
1PHANTOM
100
AcDbLine
 10
722.8162881512516
 20
-618.7273614363445
 30
0.0
 11
722.3162881512516
 21
-618.6273602729474
 31
0.0
  0
LINE
  5
20845
102
{ACAD_REACTORS
330
20851
102
}
330
18
100
AcDbEntity
  8
1PHANTOM
100
AcDbLine
 10
719.3162881512516
 20
-619.6273532925649
 30
0.0
 11
718.8162881512516
 21
-619.5273521291671
 31
0.0
  0
LINE
  5
20846
102
{ACAD_REACTORS
330
20851
102
}
330
18
100
AcDbEntity
  8
1PHANTOM
100
AcDbLine
 10
718.8162881512516
 20
-619.5273521291671
 30
0.0
 11
722.8162881512516
 21
-618.7273614363445
 31
0.0
  0
LINE
  5
20847
102
{ACAD_REACTORS
330
20851
102
}
330
18
100
AcDbEntity
  8
1PHANTOM
100
AcDbLine
 10
722.8162881512518
 20
-620.3273614363446
 30
0.0
 11
722.3162881512518
 21
-620.2273602729475
 31
0.0
  0
LINE
  5
20848
102
{ACAD_REACTORS
330
20851
102
}
330
18
100
AcDbEntity
  8
1PHANTOM
100
AcDbLine
 10
719.3162881512518
 20
-621.227353292565
 30
0.0
 11
718.8162881512518
 21
-621.1273521291672
 31
0.0
  0
LINE
  5
20849
102
{ACAD_REACTORS
330
20851
102
}
330
18
100
AcDbEntity
  8
1PHANTOM
100
AcDbLine
 10
718.8162881512518
 20
-621.1273521291672
 30
0.0
 11
722.8162881512518
 21
-620.3273614363446
 31
0.0
  0
LINE
  5
2084A
102
{ACAD_REACTORS
330
20851
102
}
330
18
100
AcDbEntity
  8
1PHANTOM
100
AcDbLine
 10
722.8162881512518
 20
-621.9273614363447
 30
0.0
 11
722.3162881512518
 21
-621.8273602729475
 31
0.0
  0
LINE
  5
2084B
102
{ACAD_REACTORS
330
20851
102
}
330
18
100
AcDbEntity
  8
1PHANTOM
100
AcDbLine
 10
719.3162881512518
 20
-622.827353292565
 30
0.0
 11
718.8162881512518
 21
-622.7273521291672
 31
0.0
  0
LINE
  5
2084C
102
{ACAD_REACTORS
330
20851
102
}
330
18
100
AcDbEntity
  8
1PHANTOM
100
AcDbLine
 10
718.8162881512518
 20
-622.7273521291672
 30
0.0
 11
722.8162881512518
 21
-621.9273614363447
 31
0.0
  0
LINE
  5
2084D
102
{ACAD_REACTORS
330
20851
102
}
330
18
100
AcDbEntity
  8
1PHANTOM
100
AcDbLine
 10
722.8162881512517
 20
-623.5273614363447
 30
0.0
 11
722.3162881512517
 21
-623.4273602729476
 31
0.0
  0
LINE
  5
2084E
102
{ACAD_REACTORS
330
20851
102
}
330
18
100
AcDbEntity
  8
1PHANTOM
100
AcDbLine
 10
719.3162881512517
 20
-624.427353292565
 30
0.0
 11
718.8162881512517
 21
-624.3273521291673
 31
0.0
  0
LINE
  5
2084F
102
{ACAD_REACTORS
330
20851
102
}
330
18
100
AcDbEntity
  8
1PHANTOM
100
AcDbLine
 10
718.8162881512517
 20
-624.3273521291673
 30
0.0
 11
722.8162881512517
 21
-623.5273614363447
 31
0.0
  0
LINE
  5
20881
330
18
100
AcDbEntity
  8
01
100
AcDbLine
 10
629.0162416153721
 20
-571.9053357549186
 30
0.0
 11
599.0162416153721
 21
-571.9053357549186
 31
0.0
  0
ARC
  5
20885
330
18
100
AcDbEntity
  8
01
100
AcDbCircle
 10
629.0162416153721
 20
-564.1053357549184
 30
0.0
 40
7.8
100
AcDbArc
 50
179.9999999999599
 51
0.0
  0
LINE
  5
20886
330
18
100
AcDbEntity
  8
01
100
AcDbLine
 10
621.2565417237054
 20
-556.3053357549073
 30
0.0
 11
599.0162416153721
 21
-556.3053357549073
 31
0.0
  0
LINE
  5
20888
330
18
100
AcDbEntity
  8
01
100
AcDbLine
 10
439.0162416153967
 20
-556.605335754913
 30
0.0
 11
519.0162416153726
 21
-556.6053357549129
 31
0.0
  0
LINE
  5
20889
330
18
100
AcDbEntity
  8
01
100
AcDbLine
 10
519.0162416153726
 20
-556.605335754913
 30
0.0
 11
599.0162416153726
 21
-556.605335754913
 31
0.0
  0
LINE
  5
2088A
330
18
100
AcDbEntity
  8
01
100
AcDbLine
 10
439.0162416154039
 20
-571.6050414675104
 30
0.0
 11
519.0162416153726
 21
-571.6050414675104
 31
0.0
  0
LINE
  5
2088B
330
18
100
AcDbEntity
  8
01
100
AcDbLine
 10
519.0162416153726
 20
-571.6050414675104
 30
0.0
 11
599.0162416153721
 21
-571.6050414675104
 31
0.0
  0
LINE
  5
2088F
330
18
100
AcDbEntity
  8
01
100
AcDbLine
 10
403.9322039335095
 20
-520.9053357549168
 30
0.0
 11
414.0967882842592
 21
-520.905335754917
 31
0.0
  0
ARC
  5
20890
330
18
100
AcDbEntity
  8
01
100
AcDbCircle
 10
414.0967882842592
 20
-522.905335754917
 30
0.0
 40
2.0
100
AcDbArc
 50
1.000000000001775
 51
90.0
  0
LINE
  5
20891
330
18
100
AcDbEntity
  8
01
100
AcDbLine
 10
409.0162416153726
 20
-571.9053357549169
 30
0.0
 11
439.0162416153726
 21
-571.9053357549172
 31
0.0
  0
LINE
  5
20892
330
18
100
AcDbEntity
  8
01
100
AcDbLine
 10
439.0162416153726
 20
-571.9053357549172
 30
0.0
 11
439.0162416153726
 21
-556.305335754906
 31
0.0
  0
ARC
  5
20895
330
18
100
AcDbEntity
  8
01
100
AcDbCircle
 10
409.0162416153726
 20
-564.1053357549167
 30
0.0
 40
7.8
100
AcDbArc
 50
180.0
 51
270.0
  0
LINE
  5
20896
330
18
100
AcDbEntity
  8
01
100
AcDbLine
 10
416.6800921089496
 20
-556.3053357549059
 30
0.0
 11
439.0162416153726
 21
-556.305335754906
 31
0.0
  0
LINE
  5
208C0
330
18
100
AcDbEntity
  8
01
100
AcDbLine
 10
401.2162416153722
 20
-564.1053357549107
 30
0.0
 11
401.938059779578
 21
-522.752400823195
 31
0.0
  0
ARC
  5
208C1
330
18
100
AcDbEntity
  8
01
100
AcDbCircle
 10
403.9322039335095
 20
-522.9053357549168
 30
0.0
 40
2.0
100
AcDbArc
 50
90.0
 51
178.9999999999982
  0
LINE
  5
208C3
330
18
100
AcDbEntity
  8
01
100
AcDbLine
 10
636.8843061107659
 20
-564.6277134491859
 30
0.0
 11
636.3407053687554
 21
-522.8792962208672
 31
0.0
  0
LINE
  5
208C4
330
18
100
AcDbEntity
  8
01
100
AcDbLine
 10
634.3408748902732
 20
-520.9053357549184
 30
0.0
 11
623.6916083404537
 21
-520.9053357549184
 31
0.0
  0
ARC
  5
208C5
330
18
100
AcDbEntity
  8
01
100
AcDbCircle
 10
634.3408748902732
 20
-522.9053357549184
 30
0.0
 40
2.0
100
AcDbArc
 50
0.7459987780661748
 51
90.0
  0
CIRCLE
  5
208CB
330
18
100
AcDbEntity
  8
01
100
AcDbCircle
 10
409.016241615381
 20
-547.9053357549125
 30
0.0
 40
2.5
  0
CIRCLE
  5
208CC
330
18
100
AcDbEntity
  8
01
100
AcDbCircle
 10
409.016241615381
 20
-527.9053357549125
 30
0.0
 40
2.5
  0
CIRCLE
  5
208CD
330
18
100
AcDbEntity
  8
01
100
AcDbCircle
 10
629.0162416153637
 20
-547.9053357549138
 30
0.0
 40
2.5
  0
CIRCLE
  5
208CE
330
18
100
AcDbEntity
  8
01
100
AcDbCircle
 10
629.0162416153635
 20
-527.9053357549184
 30
0.0
 40
2.5
  0
LINE
  5
208CF
330
18
100
AcDbEntity
  8
01
100
AcDbLine
 10
416.8162416153898
 20
-564.105335754913
 30
0.0
 11
416.096483674572
 21
-522.8704309420424
 31
0.0
  0
LINE
  5
208D0
330
18
100
AcDbEntity
  8
01
100
AcDbLine
 10
621.1549789323666
 20
-564.105335754913
 30
0.0
 11
621.6917778619716
 21
-522.8792962208672
 31
0.0
  0
ARC
  5
208D1
330
18
100
AcDbEntity
  8
01
100
AcDbCircle
 10
623.6916083404537
 20
-522.9053357549184
 30
0.0
 40
2.0
100
AcDbArc
 50
90.0
 51
179.2540012219338
  0
LINE
  5
2093C
330
18
100
AcDbEntity
  8
01
100
AcDbLine
 10
599.0162416153721
 20
-556.3053357549073
 30
0.0
 11
599.0162416153721
 21
-571.9053357549186
 31
0.0
  0
ARC
  5
20988
330
18
100
AcDbEntity
  8
01
100
AcDbCircle
 10
409.0162416153894
 20
-564.1053357549167
 30
0.0
 40
7.8
100
AcDbArc
 50
270.0
 51
0.0
  0
LINE
  5
2098A
102
{ACAD_REACTORS
330
209C1
330
209C2
102
}
330
18
100
AcDbEntity
  8
1PHANTOM
100
AcDbLine
 10
629.5162414684655
 20
-625.0275212094143
 30
0.0
 11
628.5162417684655
 21
-624.0275212094143
 31
0.0
  0
LINE
  5
2098B
102
{ACAD_REACTORS
330
209C1
330
209C2
102
}
330
18
100
AcDbEntity
  8
1PHANTOM
100
AcDbLine
 10
632.8162416184655
 20
-625.0275212094143
 30
0.0
 11
632.8162416184655
 21
-624.0275212094143
 31
0.0
  0
LINE
  5
2098C
102
{ACAD_REACTORS
330
209C1
330
209C2
102
}
330
18
100
AcDbEntity
  8
1PHANTOM
100
AcDbLine
 10
632.8162416184655
 20
-624.0275212094143
 30
0.0
 11
625.2162416184656
 21
-624.0275212094143
 31
0.0
  0
LINE
  5
2098D
102
{ACAD_REACTORS
330
209C1
330
209C2
102
}
330
18
100
AcDbEntity
  8
1PHANTOM
100
AcDbLine
 10
632.8162416184655
 20
-625.0275212094143
 30
0.0
 11
625.2162416184656
 21
-625.0275212094143
 31
0.0
  0
LINE
  5
2098E
102
{ACAD_REACTORS
330
209C1
330
209C2
102
}
330
18
100
AcDbEntity
  8
1PHANTOM
100
AcDbLine
 10
625.2162416184656
 20
-625.0275212094143
 30
0.0
 11
625.2162416184656
 21
-624.0275212094143
 31
0.0
  0
LINE
  5
2098F
102
{ACAD_REACTORS
330
209C2
102
}
330
18
100
AcDbEntity
  8
1PHANTOM
100
AcDbLine
 10
629.0162881512591
 20
-603.0273567826832
 30
0.0
 11
627.5162881512591
 21
-608.3273532925449
 31
0.0
  0
LINE
  5
20990
102
{ACAD_REACTORS
330
209C2
102
}
330
18
100
AcDbEntity
  8
1PHANTOM
100
AcDbLine
 10
627.5162881512591
 20
-608.3273532925449
 30
0.0
 11
627.5162881512593
 21
-625.0275212094142
 31
0.0
  0
LINE
  5
20991
102
{ACAD_REACTORS
330
209C2
102
}
330
18
100
AcDbEntity
  8
1PHANTOM
100
AcDbLine
 10
629.0162881512591
 20
-603.0273567826832
 30
0.0
 11
630.5162881512592
 21
-608.3273602729286
 31
0.0
  0
LINE
  5
20992
102
{ACAD_REACTORS
330
209C2
102
}
330
18
100
AcDbEntity
  8
1PHANTOM
100
AcDbLine
 10
625.5162416153613
 20
-625.0275130656321
 30
0.0
 11
632.5162416153612
 21
-625.0275293531965
 31
0.0
  0
LINE
  5
20993
102
{ACAD_REACTORS
330
209C2
102
}
330
18
100
AcDbEntity
  8
1PHANTOM
100
AcDbLine
 10
630.5162881512592
 20
-608.3273602729286
 30
0.0
 11
630.5162881512592
 21
-625.0275212094142
 31
0.0
  0
LINE
  5
20994
102
{ACAD_REACTORS
330
209C2
102
}
330
18
100
AcDbEntity
  8
1PHANTOM
100
AcDbLine
 10
625.5162416153613
 20
-625.0275130656321
 30
0.0
 11
625.5162416153612
 21
-626.1275165558275
 31
0.0
  0
ARC
  5
20995
102
{ACAD_REACTORS
330
209C2
102
}
330
18
100
AcDbEntity
  8
1PHANTOM
100
AcDbCircle
 10
627.0162416153612
 20
-626.1275165558275
 30
0.0
 40
1.5
100
AcDbArc
 50
180.0
 51
269.9998666844684
  0
LINE
  5
20996
102
{ACAD_REACTORS
330
209C2
102
}
330
18
100
AcDbEntity
  8
1PHANTOM
100
AcDbLine
 10
632.5162416153612
 20
-625.0275293531965
 30
0.0
 11
632.5162416153612
 21
-626.1275258630071
 31
0.0
  0
LINE
  5
20997
102
{ACAD_REACTORS
330
209C2
102
}
330
18
100
AcDbEntity
  8
1PHANTOM
100
AcDbLine
 10
627.0162381251688
 20
-627.6275165558234
 30
0.0
 11
631.0162381251688
 21
-627.627525863003
 31
0.0
  0
ARC
  5
20998
102
{ACAD_REACTORS
330
209C2
102
}
330
18
100
AcDbEntity
  8
1PHANTOM
100
AcDbCircle
 10
631.0162416153612
 20
-626.1275258630071
 30
0.0
 40
1.5
100
AcDbArc
 50
269.9998666844684
 51
0.0
  0
LINE
  5
20999
102
{ACAD_REACTORS
330
209C2
102
}
330
18
100
AcDbEntity
  8
1CENTER
100
AcDbLine
 10
629.0162416153612
 20
-601.5965618652178
 30
0.0
 11
629.0162416153612
 21
-628.8108297858986
 31
0.0
  0
LINE
  5
2099A
102
{ACAD_REACTORS
330
209C2
102
}
330
18
100
AcDbEntity
  8
1PHANTOM
100
AcDbLine
 10
627.9219178013661
 20
-605.127354236361
 30
0.0
 11
629.8842528902416
 21
-604.3273588023101
 31
0.0
  0
LINE
  5
2099B
102
{ACAD_REACTORS
330
209C2
102
}
330
18
100
AcDbEntity
  8
1PHANTOM
100
AcDbLine
 10
629.8842528902416
 20
-604.3273588023101
 30
0.0
 11
629.2959763151991
 21
-604.015588946058
 31
0.0
  0
LINE
  5
2099C
102
{ACAD_REACTORS
330
209C2
102
}
330
18
100
AcDbEntity
  8
1PHANTOM
100
AcDbLine
 10
627.0162881512591
 20
-616.3273521291467
 30
0.0
 11
631.0162881512591
 21
-615.5273614363241
 31
0.0
  0
LINE
  5
2099D
102
{ACAD_REACTORS
330
209C2
102
}
330
18
100
AcDbEntity
  8
1PHANTOM
100
AcDbLine
 10
627.0162881512591
 20
-613.1273521291466
 30
0.0
 11
631.0162881512591
 21
-612.327361436324
 31
0.0
  0
LINE
  5
2099E
102
{ACAD_REACTORS
330
209C2
102
}
330
18
100
AcDbEntity
  8
1PHANTOM
100
AcDbLine
 10
631.0162881512591
 20
-612.327361436324
 30
0.0
 11
630.5162881512591
 21
-612.2273602729268
 31
0.0
  0
LINE
  5
2099F
102
{ACAD_REACTORS
330
209C2
102
}
330
18
100
AcDbEntity
  8
1PHANTOM
100
AcDbLine
 10
627.5162881512591
 20
-611.6273532925438
 30
0.0
 11
627.0162881512591
 21
-611.5273521291466
 31
0.0
  0
LINE
  5
209A0
102
{ACAD_REACTORS
330
209C2
102
}
330
18
100
AcDbEntity
  8
1PHANTOM
100
AcDbLine
 10
631.0162881512591
 20
-615.5273614363241
 30
0.0
 11
630.5162881512591
 21
-615.4273602729269
 31
0.0
  0
LINE
  5
209A1
102
{ACAD_REACTORS
330
209C2
102
}
330
18
100
AcDbEntity
  8
1PHANTOM
100
AcDbLine
 10
631.0162881512591
 20
-613.927361436324
 30
0.0
 11
630.5162881512591
 21
-613.8273602729269
 31
0.0
  0
LINE
  5
209A2
102
{ACAD_REACTORS
330
209C2
102
}
330
18
100
AcDbEntity
  8
1PHANTOM
100
AcDbLine
 10
627.5162881512591
 20
-613.2273532925437
 30
0.0
 11
627.0162881512591
 21
-613.1273521291466
 31
0.0
  0
LINE
  5
209A3
102
{ACAD_REACTORS
330
209C2
102
}
330
18
100
AcDbEntity
  8
1PHANTOM
100
AcDbLine
 10
627.5162881512591
 20
-614.8273532925436
 30
0.0
 11
627.0162881512591
 21
-614.7273521291465
 31
0.0
  0
LINE
  5
209A4
102
{ACAD_REACTORS
330
209C2
102
}
330
18
100
AcDbEntity
  8
1PHANTOM
100
AcDbLine
 10
627.0162881512591
 20
-614.7273521291465
 30
0.0
 11
631.0162881512591
 21
-613.927361436324
 31
0.0
  0
LINE
  5
209A5
102
{ACAD_REACTORS
330
209C2
102
}
330
18
100
AcDbEntity
  8
1PHANTOM
100
AcDbLine
 10
630.3370669946484
 20
-605.9273598559157
 30
0.0
 11
629.7853175308451
 21
-605.7445957132877
 31
0.0
  0
LINE
  5
209A6
102
{ACAD_REACTORS
330
209C2
102
}
330
18
100
AcDbEntity
  8
1PHANTOM
100
AcDbLine
 10
631.0162881512591
 20
-609.127361436324
 30
0.0
 11
630.5162881512591
 21
-609.0273602729269
 31
0.0
  0
LINE
  5
209A7
102
{ACAD_REACTORS
330
209C2
102
}
330
18
100
AcDbEntity
  8
1PHANTOM
100
AcDbLine
 10
631.0162881512591
 20
-610.727361436324
 30
0.0
 11
630.5162881512591
 21
-610.627360272927
 31
0.0
  0
LINE
  5
209A8
102
{ACAD_REACTORS
330
209C2
102
}
330
18
100
AcDbEntity
  8
1PHANTOM
100
AcDbLine
 10
630.7898810990552
 20
-607.5273609095213
 30
0.0
 11
630.253287363784
 21
-607.3980902118915
 31
0.0
  0
LINE
  5
209A9
102
{ACAD_REACTORS
330
209C2
102
}
330
18
100
AcDbEntity
  8
1PHANTOM
100
AcDbLine
 10
627.9372027484678
 20
-606.8401226951069
 30
0.0
 11
627.4691042933179
 21
-606.7273531827568
 31
0.0
  0
LINE
  5
209AA
102
{ACAD_REACTORS
330
209C2
102
}
330
18
100
AcDbEntity
  8
1PHANTOM
100
AcDbLine
 10
627.5162881512591
 20
-610.0273532925437
 30
0.0
 11
627.0162881512591
 21
-609.9273521291466
 31
0.0
  0
LINE
  5
209AB
102
{ACAD_REACTORS
330
209C2
102
}
330
18
100
AcDbEntity
  8
1PHANTOM
100
AcDbLine
 10
627.5162881512591
 20
-608.4273532925438
 30
0.0
 11
627.0162881512591
 21
-608.3273521291467
 31
0.0
  0
LINE
  5
209AC
102
{ACAD_REACTORS
330
209C2
102
}
330
18
100
AcDbEntity
  8
1PHANTOM
100
AcDbLine
 10
628.3790896419972
 20
-605.2787900328015
 30
0.0
 11
627.9219178013661
 21
-605.127354236361
 31
0.0
  0
LINE
  5
209AD
102
{ACAD_REACTORS
330
209C2
102
}
330
18
100
AcDbEntity
  8
1PHANTOM
100
AcDbLine
 10
627.4691042933179
 20
-606.7273531827568
 30
0.0
 11
630.3370669946484
 21
-605.9273598559157
 31
0.0
  0
LINE
  5
209AE
102
{ACAD_REACTORS
330
209C2
102
}
330
18
100
AcDbEntity
  8
1PHANTOM
100
AcDbLine
 10
627.0162881512591
 20
-609.9273521291466
 30
0.0
 11
631.0162881512591
 21
-609.127361436324
 31
0.0
  0
LINE
  5
209AF
102
{ACAD_REACTORS
330
209C2
102
}
330
18
100
AcDbEntity
  8
1PHANTOM
100
AcDbLine
 10
627.0162881512591
 20
-608.3273521291467
 30
0.0
 11
630.7898810990552
 21
-607.5273609095213
 31
0.0
  0
LINE
  5
209B0
102
{ACAD_REACTORS
330
209C2
102
}
330
18
100
AcDbEntity
  8
1PHANTOM
100
AcDbLine
 10
627.0162881512591
 20
-611.5273521291466
 30
0.0
 11
631.0162881512591
 21
-610.727361436324
 31
0.0
  0
LINE
  5
209B1
102
{ACAD_REACTORS
330
209C2
102
}
330
18
100
AcDbEntity
  8
1PHANTOM
100
AcDbLine
 10
631.0162881512591
 20
-617.127361436324
 30
0.0
 11
630.5162881512591
 21
-617.0273602729269
 31
0.0
  0
LINE
  5
209B2
102
{ACAD_REACTORS
330
209C2
102
}
330
18
100
AcDbEntity
  8
1PHANTOM
100
AcDbLine
 10
627.5162881512591
 20
-616.4273532925438
 30
0.0
 11
627.0162881512591
 21
-616.3273521291467
 31
0.0
  0
LINE
  5
209B3
102
{ACAD_REACTORS
330
209C2
102
}
330
18
100
AcDbEntity
  8
1PHANTOM
100
AcDbLine
 10
627.5162881512591
 20
-618.0273532925444
 30
0.0
 11
627.0162881512591
 21
-617.9273521291466
 31
0.0
  0
LINE
  5
209B4
102
{ACAD_REACTORS
330
209C2
102
}
330
18
100
AcDbEntity
  8
1PHANTOM
100
AcDbLine
 10
627.0162881512591
 20
-617.9273521291466
 30
0.0
 11
631.0162881512591
 21
-617.127361436324
 31
0.0
  0
LINE
  5
209B5
102
{ACAD_REACTORS
330
209C2
102
}
330
18
100
AcDbEntity
  8
1PHANTOM
100
AcDbLine
 10
631.016288151259
 20
-618.727361436324
 30
0.0
 11
630.516288151259
 21
-618.6273602729269
 31
0.0
  0
LINE
  5
209B6
102
{ACAD_REACTORS
330
209C2
102
}
330
18
100
AcDbEntity
  8
1PHANTOM
100
AcDbLine
 10
627.516288151259
 20
-619.6273532925444
 30
0.0
 11
627.016288151259
 21
-619.5273521291466
 31
0.0
  0
LINE
  5
209B7
102
{ACAD_REACTORS
330
209C2
102
}
330
18
100
AcDbEntity
  8
1PHANTOM
100
AcDbLine
 10
627.016288151259
 20
-619.5273521291466
 30
0.0
 11
631.016288151259
 21
-618.727361436324
 31
0.0
  0
LINE
  5
209B8
102
{ACAD_REACTORS
330
209C2
102
}
330
18
100
AcDbEntity
  8
1PHANTOM
100
AcDbLine
 10
631.0162881512592
 20
-620.3273614363242
 30
0.0
 11
630.5162881512592
 21
-620.2273602729271
 31
0.0
  0
LINE
  5
209B9
102
{ACAD_REACTORS
330
209C2
102
}
330
18
100
AcDbEntity
  8
1PHANTOM
100
AcDbLine
 10
627.5162881512592
 20
-621.2273532925445
 30
0.0
 11
627.0162881512592
 21
-621.1273521291467
 31
0.0
  0
LINE
  5
209BA
102
{ACAD_REACTORS
330
209C2
102
}
330
18
100
AcDbEntity
  8
1PHANTOM
100
AcDbLine
 10
627.0162881512592
 20
-621.1273521291467
 30
0.0
 11
631.0162881512592
 21
-620.3273614363242
 31
0.0
  0
LINE
  5
209BB
102
{ACAD_REACTORS
330
209C2
102
}
330
18
100
AcDbEntity
  8
1PHANTOM
100
AcDbLine
 10
631.0162881512592
 20
-621.9273614363242
 30
0.0
 11
630.5162881512592
 21
-621.8273602729271
 31
0.0
  0
LINE
  5
209BC
102
{ACAD_REACTORS
330
209C2
102
}
330
18
100
AcDbEntity
  8
1PHANTOM
100
AcDbLine
 10
627.5162881512592
 20
-622.8273532925446
 30
0.0
 11
627.0162881512592
 21
-622.7273521291468
 31
0.0
  0
LINE
  5
209BD
102
{ACAD_REACTORS
330
209C2
102
}
330
18
100
AcDbEntity
  8
1PHANTOM
100
AcDbLine
 10
627.0162881512592
 20
-622.7273521291468
 30
0.0
 11
631.0162881512592
 21
-621.9273614363242
 31
0.0
  0
LINE
  5
209BE
102
{ACAD_REACTORS
330
209C2
102
}
330
18
100
AcDbEntity
  8
1PHANTOM
100
AcDbLine
 10
631.0162881512591
 20
-623.5273614363242
 30
0.0
 11
630.5162881512591
 21
-623.4273602729271
 31
0.0
  0
LINE
  5
209BF
102
{ACAD_REACTORS
330
209C2
102
}
330
18
100
AcDbEntity
  8
1PHANTOM
100
AcDbLine
 10
627.5162881512591
 20
-624.4273532925446
 30
0.0
 11
627.0162881512591
 21
-624.3273521291468
 31
0.0
  0
LINE
  5
209C0
102
{ACAD_REACTORS
330
209C2
102
}
330
18
100
AcDbEntity
  8
1PHANTOM
100
AcDbLine
 10
627.0162881512591
 20
-624.3273521291468
 30
0.0
 11
631.0162881512591
 21
-623.5273614363242
 31
0.0
  0
LINE
  5
209C4
102
{ACAD_REACTORS
330
209FB
330
209FC
102
}
330
18
100
AcDbEntity
  8
1PHANTOM
100
AcDbLine
 10
409.516241468481
 20
-625.0275212094143
 30
0.0
 11
408.516241768481
 21
-624.0275212094143
 31
0.0
  0
LINE
  5
209C5
102
{ACAD_REACTORS
330
209FB
330
209FC
102
}
330
18
100
AcDbEntity
  8
1PHANTOM
100
AcDbLine
 10
412.8162416184809
 20
-625.0275212094143
 30
0.0
 11
412.8162416184809
 21
-624.0275212094143
 31
0.0
  0
LINE
  5
209C6
102
{ACAD_REACTORS
330
209FB
330
209FC
102
}
330
18
100
AcDbEntity
  8
1PHANTOM
100
AcDbLine
 10
412.8162416184809
 20
-624.0275212094143
 30
0.0
 11
405.216241618481
 21
-624.0275212094143
 31
0.0
  0
LINE
  5
209C7
102
{ACAD_REACTORS
330
209FB
330
209FC
102
}
330
18
100
AcDbEntity
  8
1PHANTOM
100
AcDbLine
 10
412.8162416184809
 20
-625.0275212094143
 30
0.0
 11
405.216241618481
 21
-625.0275212094143
 31
0.0
  0
LINE
  5
209C8
102
{ACAD_REACTORS
330
209FB
330
209FC
102
}
330
18
100
AcDbEntity
  8
1PHANTOM
100
AcDbLine
 10
405.216241618481
 20
-625.0275212094143
 30
0.0
 11
405.216241618481
 21
-624.0275212094143
 31
0.0
  0
LINE
  5
209C9
102
{ACAD_REACTORS
330
209FC
102
}
330
18
100
AcDbEntity
  8
1PHANTOM
100
AcDbLine
 10
409.0162881512746
 20
-603.0273567826832
 30
0.0
 11
407.5162881512746
 21
-608.3273532925449
 31
0.0
  0
LINE
  5
209CA
102
{ACAD_REACTORS
330
209FC
102
}
330
18
100
AcDbEntity
  8
1PHANTOM
100
AcDbLine
 10
407.5162881512746
 20
-608.3273532925449
 30
0.0
 11
407.5162881512748
 21
-625.0275212094142
 31
0.0
  0
LINE
  5
209CB
102
{ACAD_REACTORS
330
209FC
102
}
330
18
100
AcDbEntity
  8
1PHANTOM
100
AcDbLine
 10
409.0162881512746
 20
-603.0273567826832
 30
0.0
 11
410.5162881512747
 21
-608.3273602729286
 31
0.0
  0
LINE
  5
209CC
102
{ACAD_REACTORS
330
209FC
102
}
330
18
100
AcDbEntity
  8
1PHANTOM
100
AcDbLine
 10
405.5162416153768
 20
-625.0275130656321
 30
0.0
 11
412.5162416153767
 21
-625.0275293531965
 31
0.0
  0
LINE
  5
209CD
102
{ACAD_REACTORS
330
209FC
102
}
330
18
100
AcDbEntity
  8
1PHANTOM
100
AcDbLine
 10
410.5162881512747
 20
-608.3273602729286
 30
0.0
 11
410.5162881512747
 21
-625.0275212094142
 31
0.0
  0
LINE
  5
209CE
102
{ACAD_REACTORS
330
209FC
102
}
330
18
100
AcDbEntity
  8
1PHANTOM
100
AcDbLine
 10
405.5162416153768
 20
-625.0275130656321
 30
0.0
 11
405.5162416153767
 21
-626.1275165558275
 31
0.0
  0
ARC
  5
209CF
102
{ACAD_REACTORS
330
209FC
102
}
330
18
100
AcDbEntity
  8
1PHANTOM
100
AcDbCircle
 10
407.0162416153767
 20
-626.1275165558275
 30
0.0
 40
1.5
100
AcDbArc
 50
180.0
 51
269.9998666844684
  0
LINE
  5
209D0
102
{ACAD_REACTORS
330
209FC
102
}
330
18
100
AcDbEntity
  8
1PHANTOM
100
AcDbLine
 10
412.5162416153767
 20
-625.0275293531965
 30
0.0
 11
412.5162416153767
 21
-626.1275258630071
 31
0.0
  0
LINE
  5
209D1
102
{ACAD_REACTORS
330
209FC
102
}
330
18
100
AcDbEntity
  8
1PHANTOM
100
AcDbLine
 10
407.0162381251843
 20
-627.6275165558234
 30
0.0
 11
411.0162381251843
 21
-627.627525863003
 31
0.0
  0
ARC
  5
209D2
102
{ACAD_REACTORS
330
209FC
102
}
330
18
100
AcDbEntity
  8
1PHANTOM
100
AcDbCircle
 10
411.0162416153767
 20
-626.1275258630071
 30
0.0
 40
1.5
100
AcDbArc
 50
269.9998666844684
 51
0.0
  0
LINE
  5
209D3
102
{ACAD_REACTORS
330
209FC
102
}
330
18
100
AcDbEntity
  8
1CENTER
100
AcDbLine
 10
409.0162416153767
 20
-601.5965618652178
 30
0.0
 11
409.0162416153767
 21
-628.8108297858986
 31
0.0
  0
LINE
  5
209D4
102
{ACAD_REACTORS
330
209FC
102
}
330
18
100
AcDbEntity
  8
1PHANTOM
100
AcDbLine
 10
407.9219178013816
 20
-605.127354236361
 30
0.0
 11
409.884252890257
 21
-604.3273588023101
 31
0.0
  0
LINE
  5
209D5
102
{ACAD_REACTORS
330
209FC
102
}
330
18
100
AcDbEntity
  8
1PHANTOM
100
AcDbLine
 10
409.884252890257
 20
-604.3273588023101
 30
0.0
 11
409.2959763152146
 21
-604.015588946058
 31
0.0
  0
LINE
  5
209D6
102
{ACAD_REACTORS
330
209FC
102
}
330
18
100
AcDbEntity
  8
1PHANTOM
100
AcDbLine
 10
407.0162881512746
 20
-616.3273521291467
 30
0.0
 11
411.0162881512746
 21
-615.5273614363241
 31
0.0
  0
LINE
  5
209D7
102
{ACAD_REACTORS
330
209FC
102
}
330
18
100
AcDbEntity
  8
1PHANTOM
100
AcDbLine
 10
407.0162881512746
 20
-613.1273521291466
 30
0.0
 11
411.0162881512746
 21
-612.327361436324
 31
0.0
  0
LINE
  5
209D8
102
{ACAD_REACTORS
330
209FC
102
}
330
18
100
AcDbEntity
  8
1PHANTOM
100
AcDbLine
 10
411.0162881512746
 20
-612.327361436324
 30
0.0
 11
410.5162881512746
 21
-612.2273602729268
 31
0.0
  0
LINE
  5
209D9
102
{ACAD_REACTORS
330
209FC
102
}
330
18
100
AcDbEntity
  8
1PHANTOM
100
AcDbLine
 10
407.5162881512746
 20
-611.6273532925438
 30
0.0
 11
407.0162881512746
 21
-611.5273521291466
 31
0.0
  0
LINE
  5
209DA
102
{ACAD_REACTORS
330
209FC
102
}
330
18
100
AcDbEntity
  8
1PHANTOM
100
AcDbLine
 10
411.0162881512746
 20
-615.5273614363241
 30
0.0
 11
410.5162881512746
 21
-615.4273602729269
 31
0.0
  0
LINE
  5
209DB
102
{ACAD_REACTORS
330
209FC
102
}
330
18
100
AcDbEntity
  8
1PHANTOM
100
AcDbLine
 10
411.0162881512746
 20
-613.927361436324
 30
0.0
 11
410.5162881512746
 21
-613.8273602729269
 31
0.0
  0
LINE
  5
209DC
102
{ACAD_REACTORS
330
209FC
102
}
330
18
100
AcDbEntity
  8
1PHANTOM
100
AcDbLine
 10
407.5162881512746
 20
-613.2273532925437
 30
0.0
 11
407.0162881512746
 21
-613.1273521291466
 31
0.0
  0
LINE
  5
209DD
102
{ACAD_REACTORS
330
209FC
102
}
330
18
100
AcDbEntity
  8
1PHANTOM
100
AcDbLine
 10
407.5162881512746
 20
-614.8273532925436
 30
0.0
 11
407.0162881512746
 21
-614.7273521291465
 31
0.0
  0
LINE
  5
209DE
102
{ACAD_REACTORS
330
209FC
102
}
330
18
100
AcDbEntity
  8
1PHANTOM
100
AcDbLine
 10
407.0162881512746
 20
-614.7273521291465
 30
0.0
 11
411.0162881512746
 21
-613.927361436324
 31
0.0
  0
LINE
  5
209DF
102
{ACAD_REACTORS
330
209FC
102
}
330
18
100
AcDbEntity
  8
1PHANTOM
100
AcDbLine
 10
410.3370669946638
 20
-605.9273598559157
 30
0.0
 11
409.7853175308605
 21
-605.7445957132877
 31
0.0
  0
LINE
  5
209E0
102
{ACAD_REACTORS
330
209FC
102
}
330
18
100
AcDbEntity
  8
1PHANTOM
100
AcDbLine
 10
411.0162881512746
 20
-609.127361436324
 30
0.0
 11
410.5162881512746
 21
-609.0273602729269
 31
0.0
  0
LINE
  5
209E1
102
{ACAD_REACTORS
330
209FC
102
}
330
18
100
AcDbEntity
  8
1PHANTOM
100
AcDbLine
 10
411.0162881512746
 20
-610.727361436324
 30
0.0
 11
410.5162881512746
 21
-610.627360272927
 31
0.0
  0
LINE
  5
209E2
102
{ACAD_REACTORS
330
209FC
102
}
330
18
100
AcDbEntity
  8
1PHANTOM
100
AcDbLine
 10
410.7898810990706
 20
-607.5273609095213
 30
0.0
 11
410.2532873637995
 21
-607.3980902118915
 31
0.0
  0
LINE
  5
209E3
102
{ACAD_REACTORS
330
209FC
102
}
330
18
100
AcDbEntity
  8
1PHANTOM
100
AcDbLine
 10
407.9372027484833
 20
-606.8401226951069
 30
0.0
 11
407.4691042933333
 21
-606.7273531827568
 31
0.0
  0
LINE
  5
209E4
102
{ACAD_REACTORS
330
209FC
102
}
330
18
100
AcDbEntity
  8
1PHANTOM
100
AcDbLine
 10
407.5162881512746
 20
-610.0273532925437
 30
0.0
 11
407.0162881512746
 21
-609.9273521291466
 31
0.0
  0
LINE
  5
209E5
102
{ACAD_REACTORS
330
209FC
102
}
330
18
100
AcDbEntity
  8
1PHANTOM
100
AcDbLine
 10
407.5162881512746
 20
-608.4273532925438
 30
0.0
 11
407.0162881512746
 21
-608.3273521291467
 31
0.0
  0
LINE
  5
209E6
102
{ACAD_REACTORS
330
209FC
102
}
330
18
100
AcDbEntity
  8
1PHANTOM
100
AcDbLine
 10
408.3790896420127
 20
-605.2787900328015
 30
0.0
 11
407.9219178013816
 21
-605.127354236361
 31
0.0
  0
LINE
  5
209E7
102
{ACAD_REACTORS
330
209FC
102
}
330
18
100
AcDbEntity
  8
1PHANTOM
100
AcDbLine
 10
407.4691042933333
 20
-606.7273531827568
 30
0.0
 11
410.3370669946638
 21
-605.9273598559157
 31
0.0
  0
LINE
  5
209E8
102
{ACAD_REACTORS
330
209FC
102
}
330
18
100
AcDbEntity
  8
1PHANTOM
100
AcDbLine
 10
407.0162881512746
 20
-609.9273521291466
 30
0.0
 11
411.0162881512746
 21
-609.127361436324
 31
0.0
  0
LINE
  5
209E9
102
{ACAD_REACTORS
330
209FC
102
}
330
18
100
AcDbEntity
  8
1PHANTOM
100
AcDbLine
 10
407.0162881512746
 20
-608.3273521291467
 30
0.0
 11
410.7898810990706
 21
-607.5273609095213
 31
0.0
  0
LINE
  5
209EA
102
{ACAD_REACTORS
330
209FC
102
}
330
18
100
AcDbEntity
  8
1PHANTOM
100
AcDbLine
 10
407.0162881512746
 20
-611.5273521291466
 30
0.0
 11
411.0162881512746
 21
-610.727361436324
 31
0.0
  0
LINE
  5
209EB
102
{ACAD_REACTORS
330
209FC
102
}
330
18
100
AcDbEntity
  8
1PHANTOM
100
AcDbLine
 10
411.0162881512746
 20
-617.127361436324
 30
0.0
 11
410.5162881512746
 21
-617.0273602729269
 31
0.0
  0
LINE
  5
209EC
102
{ACAD_REACTORS
330
209FC
102
}
330
18
100
AcDbEntity
  8
1PHANTOM
100
AcDbLine
 10
407.5162881512746
 20
-616.4273532925438
 30
0.0
 11
407.0162881512746
 21
-616.3273521291467
 31
0.0
  0
LINE
  5
209ED
102
{ACAD_REACTORS
330
209FC
102
}
330
18
100
AcDbEntity
  8
1PHANTOM
100
AcDbLine
 10
407.5162881512746
 20
-618.0273532925444
 30
0.0
 11
407.0162881512746
 21
-617.9273521291466
 31
0.0
  0
LINE
  5
209EE
102
{ACAD_REACTORS
330
209FC
102
}
330
18
100
AcDbEntity
  8
1PHANTOM
100
AcDbLine
 10
407.0162881512746
 20
-617.9273521291466
 30
0.0
 11
411.0162881512746
 21
-617.127361436324
 31
0.0
  0
LINE
  5
209EF
102
{ACAD_REACTORS
330
209FC
102
}
330
18
100
AcDbEntity
  8
1PHANTOM
100
AcDbLine
 10
411.0162881512745
 20
-618.727361436324
 30
0.0
 11
410.5162881512745
 21
-618.6273602729269
 31
0.0
  0
LINE
  5
209F0
102
{ACAD_REACTORS
330
209FC
102
}
330
18
100
AcDbEntity
  8
1PHANTOM
100
AcDbLine
 10
407.5162881512745
 20
-619.6273532925444
 30
0.0
 11
407.0162881512745
 21
-619.5273521291466
 31
0.0
  0
LINE
  5
209F1
102
{ACAD_REACTORS
330
209FC
102
}
330
18
100
AcDbEntity
  8
1PHANTOM
100
AcDbLine
 10
407.0162881512745
 20
-619.5273521291466
 30
0.0
 11
411.0162881512745
 21
-618.727361436324
 31
0.0
  0
LINE
  5
209F2
102
{ACAD_REACTORS
330
209FC
102
}
330
18
100
AcDbEntity
  8
1PHANTOM
100
AcDbLine
 10
411.0162881512747
 20
-620.3273614363242
 30
0.0
 11
410.5162881512747
 21
-620.2273602729271
 31
0.0
  0
LINE
  5
209F3
102
{ACAD_REACTORS
330
209FC
102
}
330
18
100
AcDbEntity
  8
1PHANTOM
100
AcDbLine
 10
407.5162881512747
 20
-621.2273532925445
 30
0.0
 11
407.0162881512747
 21
-621.1273521291467
 31
0.0
  0
LINE
  5
209F4
102
{ACAD_REACTORS
330
209FC
102
}
330
18
100
AcDbEntity
  8
1PHANTOM
100
AcDbLine
 10
407.0162881512747
 20
-621.1273521291467
 30
0.0
 11
411.0162881512747
 21
-620.3273614363242
 31
0.0
  0
LINE
  5
209F5
102
{ACAD_REACTORS
330
209FC
102
}
330
18
100
AcDbEntity
  8
1PHANTOM
100
AcDbLine
 10
411.0162881512747
 20
-621.9273614363242
 30
0.0
 11
410.5162881512747
 21
-621.8273602729271
 31
0.0
  0
LINE
  5
209F6
102
{ACAD_REACTORS
330
209FC
102
}
330
18
100
AcDbEntity
  8
1PHANTOM
100
AcDbLine
 10
407.5162881512747
 20
-622.8273532925446
 30
0.0
 11
407.0162881512747
 21
-622.7273521291468
 31
0.0
  0
LINE
  5
209F7
102
{ACAD_REACTORS
330
209FC
102
}
330
18
100
AcDbEntity
  8
1PHANTOM
100
AcDbLine
 10
407.0162881512747
 20
-622.7273521291468
 30
0.0
 11
411.0162881512747
 21
-621.9273614363242
 31
0.0
  0
LINE
  5
209F8
102
{ACAD_REACTORS
330
209FC
102
}
330
18
100
AcDbEntity
  8
1PHANTOM
100
AcDbLine
 10
411.0162881512746
 20
-623.5273614363242
 30
0.0
 11
410.5162881512746
 21
-623.4273602729271
 31
0.0
  0
LINE
  5
209F9
102
{ACAD_REACTORS
330
209FC
102
}
330
18
100
AcDbEntity
  8
1PHANTOM
100
AcDbLine
 10
407.5162881512746
 20
-624.4273532925446
 30
0.0
 11
407.0162881512746
 21
-624.3273521291468
 31
0.0
  0
LINE
  5
209FA
102
{ACAD_REACTORS
330
209FC
102
}
330
18
100
AcDbEntity
  8
1PHANTOM
100
AcDbLine
 10
407.0162881512746
 20
-624.3273521291468
 30
0.0
 11
411.0162881512746
 21
-623.5273614363242
 31
0.0
  0
LINE
  5
21029
330
18
100
AcDbEntity
  8
1DIM
100
AcDbLine
 10
460.2888999443437
 20
-508.2091615583173
 30
0.0
 11
495.2888999443437
 21
-508.2091615583173
 31
0.0
  0
LINE
  5
2102A
330
18
100
AcDbEntity
  8
1DIM
100
AcDbLine
 10
460.2888999443437
 20
-501.2091615583173
 30
0.0
 11
495.2888999443437
 21
-501.2091615583173
 31
0.0
  0
LINE
  5
2102B
330
18
100
AcDbEntity
  8
1DIM
100
AcDbLine
 10
460.2888999443437
 20
-494.2091615583173
 30
0.0
 11
495.2888999443437
 21
-494.2091615583173
 31
0.0
  0
SOLID
  5
2118E
330
18
100
AcDbEntity
  8
1DIM
100
AcDbTrace
 10
619.7281054121739
 20
-633.6540425101427
 30
0.0
 11
621.2162416153633
 21
-632.2768853833528
 31
0.0
 12
620.2551907615756
 22
-634.0622403529723
 32
0.0
 13
620.2551907615756
 23
-634.0622403529723
 33
0.0
1001
ACAD
1000
DSTYLE
1002
{
1070
    45
1040
0.5
1002
}
  0
LINE
  5
2118F
330
18
100
AcDbEntity
  8
1DIM
100
AcDbLine
 10
619.9916480868748
 20
-633.8581414315576
 30
0.0
 11
614.807722625075
 21
-640.5518837217285
 31
0.0
1001
ACAD
1000
DSTYLE
1002
{
1070
    45
1040
0.5
1002
}
  0
LINE
  5
21190
330
18
100
AcDbEntity
  8
1DIM
100
AcDbLine
 10
614.807722625075
 20
-640.5518837217285
 30
0.0
 11
567.5410559584084
 21
-640.5518837217285
 31
0.0
1001
ACAD
1000
DSTYLE
1002
{
1070
    45
1040
0.5
1002
}
  0
TEXT
  5
21191
330
18
100
AcDbEntity
  8
1DIM
  6
CONTINUOUS
100
AcDbText
 10
567.3077226250749
 20
-634.018550388395
 30
0.0
 40
3.5
  1
材質：亜鉛ダイキャスト
100
AcDbText
  0
TEXT
  5
21192
330
18
100
AcDbEntity
  8
1DIM
  6
CONTINUOUS
100
AcDbText
 10
579.207722625075
 20
-639.8518837217284
 30
0.0
 40
3.5
  1
仕上げ：クローム
100
AcDbText
  0
LINE
  5
21193
330
18
100
AcDbEntity
  8
1DIM
100
AcDbLine
 10
551.1252448686155
 20
-672.405335754918
 30
0.0
 11
550.1252448686155
 21
-672.405335754918
 31
0.0
1001
ACAD
1000
DSTYLE
1002
{
1070
     3
1000
φ<>
1070
    40
1040
1.0
1002
}
  0
LINE
  5
21194
330
18
100
AcDbEntity
  8
1DIM
100
AcDbLine
 10
551.1252448686155
 20
-687.4050414675155
 30
0.0
 11
550.1252448686155
 21
-687.4050414675155
 31
0.0
1001
ACAD
1000
DSTYLE
1002
{
1070
     3
1000
φ<>
1070
    40
1040
1.0
1002
}
  0
LINE
  5
21195
330
18
100
AcDbEntity
  8
1DIM
100
AcDbLine
 10
551.1252448686155
 20
-674.405335754918
 30
0.0
 11
551.1252448686155
 21
-685.4050414675155
 31
0.0
1001
ACAD
1000
DSTYLE
1002
{
1070
     3
1000
φ<>
1070
    40
1040
1.0
1002
}
  0
SOLID
  5
21199
330
18
100
AcDbEntity
  8
1DIM
100
AcDbTrace
 10
449.8131617276669
 20
-670.8393612570151
 30
0.0
 11
448.525204048615
 21
-672.405335754918
 31
0.0
 12
449.2356587727226
 22
-670.5062925231553
 32
0.0
 13
449.2356587727226
 23
-670.5062925231553
 33
0.0
1001
ACAD
1000
DSTYLE
1002
{
1070
    45
1040
0.5
1002
}
  0
LINE
  5
2119A
330
18
100
AcDbEntity
  8
1DIM
100
AcDbLine
 10
449.5244102501948
 20
-670.6728268900852
 30
0.0
 11
455.5932881792078
 21
-660.1500891458836
 31
0.0
1001
ACAD
1000
DSTYLE
1002
{
1070
    45
1040
0.5
1002
}
  0
LINE
  5
2119B
330
18
100
AcDbEntity
  8
1DIM
100
AcDbLine
 10
455.5932881792078
 20
-660.1500891458836
 30
0.0
 11
490.6099548458745
 21
-660.1500891458836
 31
0.0
1001
ACAD
1000
DSTYLE
1002
{
1070
    45
1040
0.5
1002
}
  0
TEXT
  5
2119C
330
18
100
AcDbEntity
  8
1DIM
  6
CONTINUOUS
100
AcDbText
 10
458.0599548458745
 20
-653.6167558125502
 30
0.0
 40
3.5
  1
材質：ステンレス
100
AcDbText
  0
TEXT
  5
2119D
330
18
100
AcDbEntity
  8
1DIM
  6
CONTINUOUS
100
AcDbText
 10
458.1766215125411
 20
-659.4500891458836
 30
0.0
 40
3.5
  1
仕上げ：鏡面
100
AcDbText
  0
LINE
  5
2119E
330
18
100
AcDbEntity
  8
1DIM
100
AcDbLine
 10
741.8390531680643
 20
-598.9053357549274
 30
0.0
 11
751.5824386439108
 21
-598.9053357549274
 31
0.0
  0
LINE
  5
2119F
330
18
100
AcDbEntity
  8
1DIM
100
AcDbLine
 10
741.8390531680643
 20
-616.9053357549274
 30
0.0
 11
751.5824386439108
 21
-616.9053357549274
 31
0.0
  0
LINE
  5
211A0
330
18
100
AcDbEntity
  8
1DIM
100
AcDbLine
 10
750.5824386439108
 20
-600.9053357549274
 30
0.0
 11
750.5824386439108
 21
-614.9053357549274
 31
0.0
  0
LINE
  5
211A1
330
18
100
AcDbEntity
  8
1DIM
100
AcDbLine
 10
750.5824386439108
 20
-616.9053357549274
 30
0.0
 11
750.5824386439108
 21
-678.6386690882607
 31
0.0
  0
SOLID
  5
211A5
330
18
100
AcDbEntity
  8
1DIM
100
AcDbTrace
 10
673.9994536097746
 20
-597.2262488529797
 30
0.0
 11
674.8540961362839
 21
-599.0649161048208
 31
0.0
 12
673.4493259889888
 22
-597.6028176319471
 32
0.0
 13
673.4493259889888
 23
-597.6028176319471
 33
0.0
1001
ACAD
1000
DSTYLE
1002
{
1070
    45
1040
0.5
1002
}
  0
LINE
  5
211A6
330
18
100
AcDbEntity
  8
1DIM
100
AcDbLine
 10
673.7243897993817
 20
-597.4145332424634
 30
0.0
 11
663.7214437539681
 21
-582.8012747458313
 31
0.0
1001
ACAD
1000
DSTYLE
1002
{
1070
    45
1040
0.5
1002
}
  0
LINE
  5
211A7
330
18
100
AcDbEntity
  8
1DIM
100
AcDbLine
 10
663.7214437539681
 20
-582.8012747458313
 30
0.0
 11
632.7881104206348
 21
-582.8012747458313
 31
0.0
1001
ACAD
1000
DSTYLE
1002
{
1070
    45
1040
0.5
1002
}
  0
TEXT
  5
211A8
330
18
100
AcDbEntity
  8
1DIM
  6
CONTINUOUS
100
AcDbText
 10
632.321443753968
 20
-582.1012747458312
 30
0.0
 40
3.5
  1
カウンター棚板
100
AcDbText
  0
LINE
  5
211A9
330
18
100
AcDbEntity
  8
1DIM
100
AcDbLine
 10
700.8162416153534
 20
-629.1599310844734
 30
0.0
 11
700.8162416153534
 21
-641.4366535711151
 31
0.0
  0
LINE
  5
211AA
330
18
100
AcDbEntity
  8
1DIM
100
AcDbLine
 10
720.8162416153538
 20
-628.810829785919
 30
0.0
 11
720.8162416153538
 21
-641.4366535711151
 31
0.0
  0
LINE
  5
211AB
330
18
100
AcDbEntity
  8
1DIM
100
AcDbLine
 10
702.8162416153534
 20
-640.4366535711151
 30
0.0
 11
718.8162416153538
 21
-640.4366535711151
 31
0.0
  0
LINE
  5
211AF
330
18
100
AcDbEntity
  8
1DIM
100
AcDbLine
 10
676.816241615356
 20
-616.9053357549274
 30
0.0
 11
676.816241615356
 21
-641.4366535711151
 31
0.0
  0
LINE
  5
211B0
330
18
100
AcDbEntity
  8
1DIM
100
AcDbLine
 10
700.8162416153534
 20
-629.1599310844734
 30
0.0
 11
700.8162416153534
 21
-641.4366535711151
 31
0.0
  0
LINE
  5
211B1
330
18
100
AcDbEntity
  8
1DIM
100
AcDbLine
 10
678.816241615356
 20
-640.4366535711151
 30
0.0
 11
698.8162416153534
 21
-640.4366535711151
 31
0.0
  0
LINE
  5
211B5
330
18
100
AcDbEntity
  8
1DIM
100
AcDbLine
 10
676.816241615356
 20
-616.9053357549274
 30
0.0
 11
654.7199240466607
 21
-616.9053357549274
 31
0.0
1001
ACAD
1000
DSTYLE
1002
{
1070
    45
1040
0.5
1002
}
  0
LINE
  5
211B6
330
18
100
AcDbEntity
  8
1DIM
100
AcDbLine
 10
684.6162416153298
 20
-687.7053357549282
 30
0.0
 11
654.7199240466607
 21
-687.7053357549282
 31
0.0
1001
ACAD
1000
DSTYLE
1002
{
1070
    45
1040
0.5
1002
}
  0
LINE
  5
211B7
330
18
100
AcDbEntity
  8
1DIM
100
AcDbLine
 10
655.7199240466607
 20
-618.9053357549274
 30
0.0
 11
655.7199240466607
 21
-685.7053357549282
 31
0.0
1001
ACAD
1000
DSTYLE
1002
{
1070
    45
1040
0.5
1002
}
  0
LINE
  5
211BB
330
18
100
AcDbEntity
  8
1DIM
100
AcDbLine
 10
401.2162416153787
 20
-616.9053357549171
 30
0.0
 11
401.2162416153787
 21
-587.424487935355
 31
0.0
  0
LINE
  5
211BC
330
18
100
AcDbEntity
  8
1DIM
100
AcDbLine
 10
636.8162416153637
 20
-616.9053357549171
 30
0.0
 11
636.8162416153637
 21
-587.424487935355
 31
0.0
  0
LINE
  5
211BD
330
18
100
AcDbEntity
  8
1DIM
100
AcDbLine
 10
403.2162416153787
 20
-588.424487935355
 30
0.0
 11
634.8162416153637
 21
-588.424487935355
 31
0.0
  0
LINE
  5
211C1
330
18
100
AcDbEntity
  8
1DIM
100
AcDbLine
 10
409.0162416153789
 20
-600.757168826261
 30
0.0
 11
409.0162416153789
 21
-594.5889266885665
 31
0.0
1001
ACAD
1000
DSTYLE
1002
{
1070
    40
1040
1.0
1002
}
  0
LINE
  5
211C2
330
18
100
AcDbEntity
  8
1DIM
100
AcDbLine
 10
629.0162416153635
 20
-600.757168826261
 30
0.0
 11
629.0162416153635
 21
-594.5889266885665
 31
0.0
1001
ACAD
1000
DSTYLE
1002
{
1070
    40
1040
1.0
1002
}
  0
LINE
  5
211C3
330
18
100
AcDbEntity
  8
1DIM
100
AcDbLine
 10
411.0162416153789
 20
-595.5889266885665
 30
0.0
 11
627.0162416153635
 21
-595.5889266885665
 31
0.0
1001
ACAD
1000
DSTYLE
1002
{
1070
    40
1040
1.0
1002
}
  0
LINE
  5
211C7
330
18
100
AcDbEntity
  8
1DIM
100
AcDbLine
 10
621.2162416153633
 20
-616.9053357549171
 30
0.0
 11
550.1252448686155
 21
-616.9053357549171
 31
0.0
1001
ACAD
1000
DSTYLE
1002
{
1070
    40
1040
1.0
1002
}
  0
LINE
  5
211C8
330
18
100
AcDbEntity
  8
1DIM
100
AcDbLine
 10
533.7509893842503
 20
-672.405335754918
 30
0.0
 11
552.1252448686155
 21
-672.405335754918
 31
0.0
1001
ACAD
1000
DSTYLE
1002
{
1070
    40
1040
1.0
1002
}
  0
LINE
  5
211C9
330
18
100
AcDbEntity
  8
1DIM
100
AcDbLine
 10
551.1252448686155
 20
-618.9053357549171
 30
0.0
 11
551.1252448686155
 21
-670.405335754918
 31
0.0
1001
ACAD
1000
DSTYLE
1002
{
1070
    40
1040
1.0
1002
}
  0
LINE
  5
211CD
330
18
100
AcDbEntity
  8
1DIM
100
AcDbLine
 10
416.8162416153791
 20
-616.9053357549171
 30
0.0
 11
416.8162416153791
 21
-601.5661755742212
 31
0.0
  0
LINE
  5
211CE
330
18
100
AcDbEntity
  8
1DIM
100
AcDbLine
 10
621.2162416153633
 20
-616.9053357549171
 30
0.0
 11
621.2162416153633
 21
-601.5661755742212
 31
0.0
  0
LINE
  5
211CF
330
18
100
AcDbEntity
  8
1DIM
100
AcDbLine
 10
418.8162416153791
 20
-602.5661755742212
 30
0.0
 11
619.2162416153633
 21
-602.5661755742212
 31
0.0
  0
LINE
  5
211D3
330
18
100
AcDbEntity
  8
1DIM
100
AcDbLine
 10
676.8162416153292
 20
-679.9053357549283
 30
0.0
 11
676.8162416153292
 21
-699.1394132509195
 31
0.0
1001
ACAD
1000
DSTYLE
1002
{
1070
     3
1000
φ<>
1002
}
  0
LINE
  5
211D4
330
18
100
AcDbEntity
  8
1DIM
100
AcDbLine
 10
692.4162416153298
 20
-679.9053357549301
 30
0.0
 11
692.4162416153298
 21
-699.1394132509195
 31
0.0
1001
ACAD
1000
DSTYLE
1002
{
1070
     3
1000
φ<>
1002
}
  0
LINE
  5
211D5
330
18
100
AcDbEntity
  8
1DIM
100
AcDbLine
 10
678.8162416153292
 20
-698.1394132509195
 30
0.0
 11
690.4162416153298
 21
-698.1394132509195
 31
0.0
1001
ACAD
1000
DSTYLE
1002
{
1070
     3
1000
φ<>
1002
}
  0
LINE
  5
211D6
330
18
100
AcDbEntity
  8
1DIM
100
AcDbLine
 10
692.4162416153298
 20
-698.1394132509195
 30
0.0
 11
710.4829082819965
 21
-698.1394132509195
 31
0.0
1001
ACAD
1000
DSTYLE
1002
{
1070
     3
1000
φ<>
1002
}
  0
LINE
  5
211DA
330
18
100
AcDbEntity
  8
1DIM
100
AcDbLine
 10
676.816241615356
 20
-616.9053357549274
 30
0.0
 11
676.816241615356
 21
-587.424487935355
 31
0.0
  0
LINE
  5
211DB
330
18
100
AcDbEntity
  8
1DIM
100
AcDbLine
 10
727.816241615356
 20
-616.9053357549274
 30
0.0
 11
727.816241615356
 21
-587.424487935355
 31
0.0
  0
LINE
  5
211DC
330
18
100
AcDbEntity
  8
1DIM
100
AcDbLine
 10
678.816241615356
 20
-588.424487935355
 30
0.0
 11
725.816241615356
 21
-588.424487935355
 31
0.0
  0
LINE
  5
211E0
330
18
100
AcDbEntity
  8
0
  6
BYBLOCK
100
AcDbLine
 10
550.5893464886154
 20
-674.405335754918
 30
0.0
 11
551.1252448686155
 21
-672.405335754918
 31
0.0
  0
LINE
  5
211E1
330
18
100
AcDbEntity
  8
0
  6
BYBLOCK
100
AcDbLine
 10
551.1252448686155
 20
-672.405335754918
 30
0.0
 11
551.6611432486155
 21
-674.405335754918
 31
0.0
  0
LINE
  5
211E2
330
18
100
AcDbEntity
  8
0
  6
BYBLOCK
100
AcDbLine
 10
551.1252448686155
 20
-672.405335754918
 30
0.0
 11
551.1252448686155
 21
-674.405335754918
 31
0.0
  0
LINE
  5
211E3
330
18
100
AcDbEntity
  8
0
  6
BYBLOCK
100
AcDbLine
 10
551.6611432486155
 20
-685.4050414675155
 30
0.0
 11
551.1252448686155
 21
-687.4050414675155
 31
0.0
  0
LINE
  5
211E4
330
18
100
AcDbEntity
  8
0
  6
BYBLOCK
100
AcDbLine
 10
551.1252448686155
 20
-687.4050414675155
 30
0.0
 11
550.5893464886154
 21
-685.4050414675155
 31
0.0
  0
LINE
  5
211E5
330
18
100
AcDbEntity
  8
0
  6
BYBLOCK
100
AcDbLine
 10
551.1252448686155
 20
-687.4050414675155
 30
0.0
 11
551.1252448686155
 21
-685.4050414675155
 31
0.0
  0
TEXT
  5
211E6
330
18
100
AcDbEntity
  8
1DIM
  6
CONTINUOUS
100
AcDbText
 10
550.4252448686157
 20
-684.8051886112166
 30
0.0
 40
3.5
  1
φ15
 50
90.0
100
AcDbText
1001
ACAD
1000
DSTYLE
1002
{
1070
     3
1000
φ<>
1070
    40
1040
1.0
1002
}
  0
LINE
  5
211E7
330
18
100
AcDbEntity
  8
0
  6
BYBLOCK
100
AcDbLine
 10
750.0465402639107
 20
-600.9053357549274
 30
0.0
 11
750.5824386439108
 21
-598.9053357549274
 31
0.0
  0
LINE
  5
211E8
330
18
100
AcDbEntity
  8
0
  6
BYBLOCK
100
AcDbLine
 10
750.5824386439108
 20
-598.9053357549274
 30
0.0
 11
751.1183370239108
 21
-600.9053357549274
 31
0.0
  0
LINE
  5
211E9
330
18
100
AcDbEntity
  8
0
  6
BYBLOCK
100
AcDbLine
 10
750.5824386439108
 20
-598.9053357549274
 30
0.0
 11
750.5824386439108
 21
-600.9053357549274
 31
0.0
  0
LINE
  5
211EA
330
18
100
AcDbEntity
  8
0
  6
BYBLOCK
100
AcDbLine
 10
751.1183370239108
 20
-614.9053357549274
 30
0.0
 11
750.5824386439108
 21
-616.9053357549274
 31
0.0
  0
LINE
  5
211EB
330
18
100
AcDbEntity
  8
0
  6
BYBLOCK
100
AcDbLine
 10
750.5824386439108
 20
-616.9053357549274
 30
0.0
 11
750.0465402639107
 21
-614.9053357549274
 31
0.0
  0
LINE
  5
211EC
330
18
100
AcDbEntity
  8
0
  6
BYBLOCK
100
AcDbLine
 10
750.5824386439108
 20
-616.9053357549274
 30
0.0
 11
750.5824386439108
 21
-614.9053357549274
 31
0.0
  0
TEXT
  5
211ED
330
18
100
AcDbEntity
  8
1DIM
  6
CONTINUOUS
100
AcDbText
 10
748.9657719772442
 20
-677.5011690882606
 30
0.0
 40
3.5
  1
18ｍｍ以上(推奨30ｍｍ以上)
 50
90.0
100
AcDbText
  0
LINE
  5
211EE
330
18
100
AcDbEntity
  8
0
  6
BYBLOCK
100
AcDbLine
 10
702.8162416153534
 20
-640.9725519511152
 30
0.0
 11
700.8162416153534
 21
-640.4366535711151
 31
0.0
  0
LINE
  5
211EF
330
18
100
AcDbEntity
  8
0
  6
BYBLOCK
100
AcDbLine
 10
700.8162416153534
 20
-640.4366535711151
 30
0.0
 11
702.8162416153534
 21
-639.9007551911151
 31
0.0
  0
LINE
  5
211F0
330
18
100
AcDbEntity
  8
0
  6
BYBLOCK
100
AcDbLine
 10
700.8162416153534
 20
-640.4366535711151
 30
0.0
 11
702.8162416153534
 21
-640.4366535711151
 31
0.0
  0
LINE
  5
211F1
330
18
100
AcDbEntity
  8
0
  6
BYBLOCK
100
AcDbLine
 10
718.8162416153538
 20
-639.9007551911151
 30
0.0
 11
720.8162416153538
 21
-640.4366535711151
 31
0.0
  0
LINE
  5
211F2
330
18
100
AcDbEntity
  8
0
  6
BYBLOCK
100
AcDbLine
 10
720.8162416153538
 20
-640.4366535711151
 30
0.0
 11
718.8162416153538
 21
-640.9725519511152
 31
0.0
  0
LINE
  5
211F3
330
18
100
AcDbEntity
  8
0
  6
BYBLOCK
100
AcDbLine
 10
720.8162416153538
 20
-640.4366535711151
 30
0.0
 11
718.8162416153538
 21
-640.4366535711151
 31
0.0
  0
TEXT
  5
211F4
330
18
100
AcDbEntity
  8
1DIM
  6
CONTINUOUS
100
AcDbText
 10
706.368324948687
 20
-639.7366535711151
 30
0.0
 40
3.5
  1
P20
100
AcDbText
  0
LINE
  5
211F5
330
18
100
AcDbEntity
  8
0
  6
BYBLOCK
100
AcDbLine
 10
678.816241615356
 20
-640.9725519511152
 30
0.0
 11
676.816241615356
 21
-640.4366535711151
 31
0.0
  0
LINE
  5
211F6
330
18
100
AcDbEntity
  8
0
  6
BYBLOCK
100
AcDbLine
 10
676.816241615356
 20
-640.4366535711151
 30
0.0
 11
678.816241615356
 21
-639.9007551911151
 31
0.0
  0
LINE
  5
211F7
330
18
100
AcDbEntity
  8
0
  6
BYBLOCK
100
AcDbLine
 10
676.816241615356
 20
-640.4366535711151
 30
0.0
 11
678.816241615356
 21
-640.4366535711151
 31
0.0
  0
LINE
  5
211F8
330
18
100
AcDbEntity
  8
0
  6
BYBLOCK
100
AcDbLine
 10
698.8162416153534
 20
-639.9007551911151
 30
0.0
 11
700.8162416153534
 21
-640.4366535711151
 31
0.0
  0
LINE
  5
211F9
330
18
100
AcDbEntity
  8
0
  6
BYBLOCK
100
AcDbLine
 10
700.8162416153534
 20
-640.4366535711151
 30
0.0
 11
698.8162416153534
 21
-640.9725519511152
 31
0.0
  0
LINE
  5
211FA
330
18
100
AcDbEntity
  8
0
  6
BYBLOCK
100
AcDbLine
 10
700.8162416153534
 20
-640.4366535711151
 30
0.0
 11
698.8162416153534
 21
-640.4366535711151
 31
0.0
  0
TEXT
  5
211FB
330
18
100
AcDbEntity
  8
1DIM
  6
CONTINUOUS
100
AcDbText
 10
685.8995749486882
 20
-639.7366535711151
 30
0.0
 40
3.5
  1
24
100
AcDbText
  0
LINE
  5
211FC
330
18
100
AcDbEntity
  8
0
  6
BYBLOCK
100
AcDbLine
 10
655.1840256666607
 20
-618.9053357549274
 30
0.0
 11
655.7199240466607
 21
-616.9053357549274
 31
0.0
  0
LINE
  5
211FD
330
18
100
AcDbEntity
  8
0
  6
BYBLOCK
100
AcDbLine
 10
655.7199240466607
 20
-616.9053357549274
 30
0.0
 11
656.2558224266608
 21
-618.9053357549274
 31
0.0
  0
LINE
  5
211FE
330
18
100
AcDbEntity
  8
0
  6
BYBLOCK
100
AcDbLine
 10
655.7199240466607
 20
-616.9053357549274
 30
0.0
 11
655.7199240466607
 21
-618.9053357549274
 31
0.0
  0
LINE
  5
211FF
330
18
100
AcDbEntity
  8
0
  6
BYBLOCK
100
AcDbLine
 10
656.2558224266608
 20
-685.7053357549282
 30
0.0
 11
655.7199240466607
 21
-687.7053357549282
 31
0.0
  0
LINE
  5
21200
330
18
100
AcDbEntity
  8
0
  6
BYBLOCK
100
AcDbLine
 10
655.7199240466607
 20
-687.7053357549282
 30
0.0
 11
655.1840256666607
 21
-685.7053357549282
 31
0.0
  0
LINE
  5
21201
330
18
100
AcDbEntity
  8
0
  6
BYBLOCK
100
AcDbLine
 10
655.7199240466607
 20
-687.7053357549282
 30
0.0
 11
655.7199240466607
 21
-685.7053357549282
 31
0.0
  0
TEXT
  5
21202
330
18
100
AcDbEntity
  8
1DIM
  6
CONTINUOUS
100
AcDbText
 10
655.0199240466607
 20
-654.638669088261
 30
0.0
 40
3.5
  1
71
 50
90.0
100
AcDbText
1001
ACAD
1000
DSTYLE
1002
{
1070
    45
1040
0.5
1002
}
  0
LINE
  5
21203
330
18
100
AcDbEntity
  8
0
  6
BYBLOCK
100
AcDbLine
 10
403.2162416153787
 20
-588.9603863153551
 30
0.0
 11
401.2162416153787
 21
-588.424487935355
 31
0.0
  0
LINE
  5
21204
330
18
100
AcDbEntity
  8
0
  6
BYBLOCK
100
AcDbLine
 10
401.2162416153787
 20
-588.424487935355
 30
0.0
 11
403.2162416153787
 21
-587.888589555355
 31
0.0
  0
LINE
  5
21205
330
18
100
AcDbEntity
  8
0
  6
BYBLOCK
100
AcDbLine
 10
401.2162416153787
 20
-588.424487935355
 30
0.0
 11
403.2162416153787
 21
-588.424487935355
 31
0.0
  0
LINE
  5
21206
330
18
100
AcDbEntity
  8
0
  6
BYBLOCK
100
AcDbLine
 10
634.8162416153637
 20
-587.888589555355
 30
0.0
 11
636.8162416153637
 21
-588.424487935355
 31
0.0
  0
LINE
  5
21207
330
18
100
AcDbEntity
  8
0
  6
BYBLOCK
100
AcDbLine
 10
636.8162416153637
 20
-588.424487935355
 30
0.0
 11
634.8162416153637
 21
-588.9603863153551
 31
0.0
  0
LINE
  5
21208
330
18
100
AcDbEntity
  8
0
  6
BYBLOCK
100
AcDbLine
 10
636.8162416153637
 20
-588.424487935355
 30
0.0
 11
634.8162416153637
 21
-588.424487935355
 31
0.0
  0
TEXT
  5
21209
330
18
100
AcDbEntity
  8
1DIM
  6
CONTINUOUS
100
AcDbText
 10
512.0040888375934
 20
-587.7244879353551
 30
0.0
 40
3.5
  1
235.6
100
AcDbText
  0
LINE
  5
2120A
330
18
100
AcDbEntity
  8
0
  6
BYBLOCK
100
AcDbLine
 10
411.0162416153789
 20
-596.1248250685666
 30
0.0
 11
409.0162416153789
 21
-595.5889266885665
 31
0.0
  0
LINE
  5
2120B
330
18
100
AcDbEntity
  8
0
  6
BYBLOCK
100
AcDbLine
 10
409.0162416153789
 20
-595.5889266885665
 30
0.0
 11
411.0162416153789
 21
-595.0530283085665
 31
0.0
  0
LINE
  5
2120C
330
18
100
AcDbEntity
  8
0
  6
BYBLOCK
100
AcDbLine
 10
409.0162416153789
 20
-595.5889266885665
 30
0.0
 11
411.0162416153789
 21
-595.5889266885665
 31
0.0
  0
LINE
  5
2120D
330
18
100
AcDbEntity
  8
0
  6
BYBLOCK
100
AcDbLine
 10
627.0162416153635
 20
-595.0530283085665
 30
0.0
 11
629.0162416153635
 21
-595.5889266885665
 31
0.0
  0
LINE
  5
2120E
330
18
100
AcDbEntity
  8
0
  6
BYBLOCK
100
AcDbLine
 10
629.0162416153635
 20
-595.5889266885665
 30
0.0
 11
627.0162416153635
 21
-596.1248250685666
 31
0.0
  0
LINE
  5
2120F
330
18
100
AcDbEntity
  8
0
  6
BYBLOCK
100
AcDbLine
 10
629.0162416153635
 20
-595.5889266885665
 30
0.0
 11
627.0162416153635
 21
-595.5889266885665
 31
0.0
  0
TEXT
  5
21210
330
18
100
AcDbEntity
  8
1DIM
  6
CONTINUOUS
100
AcDbText
 10
512.8183249487046
 20
-594.8889266885665
 30
0.0
 40
3.5
  1
P220
100
AcDbText
1001
ACAD
1000
DSTYLE
1002
{
1070
    40
1040
1.0
1002
}
  0
LINE
  5
21211
330
18
100
AcDbEntity
  8
0
  6
BYBLOCK
100
AcDbLine
 10
550.5893464886154
 20
-618.9053357549171
 30
0.0
 11
551.1252448686155
 21
-616.9053357549171
 31
0.0
  0
LINE
  5
21212
330
18
100
AcDbEntity
  8
0
  6
BYBLOCK
100
AcDbLine
 10
551.1252448686155
 20
-616.9053357549171
 30
0.0
 11
551.6611432486155
 21
-618.9053357549171
 31
0.0
  0
LINE
  5
21213
330
18
100
AcDbEntity
  8
0
  6
BYBLOCK
100
AcDbLine
 10
551.1252448686155
 20
-616.9053357549171
 30
0.0
 11
551.1252448686155
 21
-618.9053357549171
 31
0.0
  0
LINE
  5
21214
330
18
100
AcDbEntity
  8
0
  6
BYBLOCK
100
AcDbLine
 10
551.6611432486155
 20
-670.405335754918
 30
0.0
 11
551.1252448686155
 21
-672.405335754918
 31
0.0
  0
LINE
  5
21215
330
18
100
AcDbEntity
  8
0
  6
BYBLOCK
100
AcDbLine
 10
551.1252448686155
 20
-672.405335754918
 30
0.0
 11
550.5893464886154
 21
-670.405335754918
 31
0.0
  0
LINE
  5
21216
330
18
100
AcDbEntity
  8
0
  6
BYBLOCK
100
AcDbLine
 10
551.1252448686155
 20
-672.405335754918
 30
0.0
 11
551.1252448686155
 21
-670.405335754918
 31
0.0
  0
TEXT
  5
21217
330
18
100
AcDbEntity
  8
1DIM
  6
CONTINUOUS
100
AcDbText
 10
550.4252448686156
 20
-649.929641310473
 30
0.0
 40
3.5
  1
55.5
 50
90.0
100
AcDbText
1001
ACAD
1000
DSTYLE
1002
{
1070
    40
1040
1.0
1002
}
  0
LINE
  5
21218
330
18
100
AcDbEntity
  8
0
  6
BYBLOCK
100
AcDbLine
 10
418.8162416153791
 20
-603.1020739542213
 30
0.0
 11
416.8162416153791
 21
-602.5661755742212
 31
0.0
  0
LINE
  5
21219
330
18
100
AcDbEntity
  8
0
  6
BYBLOCK
100
AcDbLine
 10
416.8162416153791
 20
-602.5661755742212
 30
0.0
 11
418.8162416153791
 21
-602.0302771942212
 31
0.0
  0
LINE
  5
2121A
330
18
100
AcDbEntity
  8
0
  6
BYBLOCK
100
AcDbLine
 10
416.8162416153791
 20
-602.5661755742212
 30
0.0
 11
418.8162416153791
 21
-602.5661755742212
 31
0.0
  0
LINE
  5
2121B
330
18
100
AcDbEntity
  8
0
  6
BYBLOCK
100
AcDbLine
 10
619.2162416153633
 20
-602.0302771942212
 30
0.0
 11
621.2162416153633
 21
-602.5661755742212
 31
0.0
  0
LINE
  5
2121C
330
18
100
AcDbEntity
  8
0
  6
BYBLOCK
100
AcDbLine
 10
621.2162416153633
 20
-602.5661755742212
 30
0.0
 11
619.2162416153633
 21
-603.1020739542213
 31
0.0
  0
LINE
  5
2121D
330
18
100
AcDbEntity
  8
0
  6
BYBLOCK
100
AcDbLine
 10
621.2162416153633
 20
-602.5661755742212
 30
0.0
 11
619.2162416153633
 21
-602.5661755742212
 31
0.0
  0
TEXT
  5
2121E
330
18
100
AcDbEntity
  8
1DIM
  6
CONTINUOUS
100
AcDbText
 10
512.3079082820378
 20
-601.8661755742213
 30
0.0
 40
3.5
  1
204.5
100
AcDbText
  0
LINE
  5
2121F
330
18
100
AcDbEntity
  8
0
  6
BYBLOCK
100
AcDbLine
 10
678.8162416153292
 20
-698.6753116309195
 30
0.0
 11
676.8162416153292
 21
-698.1394132509195
 31
0.0
  0
LINE
  5
21220
330
18
100
AcDbEntity
  8
0
  6
BYBLOCK
100
AcDbLine
 10
676.8162416153292
 20
-698.1394132509195
 30
0.0
 11
678.8162416153292
 21
-697.6035148709194
 31
0.0
  0
LINE
  5
21221
330
18
100
AcDbEntity
  8
0
  6
BYBLOCK
100
AcDbLine
 10
676.8162416153292
 20
-698.1394132509195
 30
0.0
 11
678.8162416153292
 21
-698.1394132509195
 31
0.0
  0
LINE
  5
21222
330
18
100
AcDbEntity
  8
0
  6
BYBLOCK
100
AcDbLine
 10
690.4162416153298
 20
-697.6035148709194
 30
0.0
 11
692.4162416153298
 21
-698.1394132509195
 31
0.0
  0
LINE
  5
21223
330
18
100
AcDbEntity
  8
0
  6
BYBLOCK
100
AcDbLine
 10
692.4162416153298
 20
-698.1394132509195
 30
0.0
 11
690.4162416153298
 21
-698.6753116309195
 31
0.0
  0
LINE
  5
21224
330
18
100
AcDbEntity
  8
0
  6
BYBLOCK
100
AcDbLine
 10
692.4162416153298
 20
-698.1394132509195
 30
0.0
 11
690.4162416153298
 21
-698.1394132509195
 31
0.0
  0
TEXT
  5
21225
330
18
100
AcDbEntity
  8
1DIM
  6
CONTINUOUS
100
AcDbText
 10
695.204088837552
 20
-697.4394132509193
 30
0.0
 40
3.5
  1
φ15.5
100
AcDbText
1001
ACAD
1000
DSTYLE
1002
{
1070
     3
1000
φ<>
1002
}
  0
LINE
  5
21226
330
18
100
AcDbEntity
  8
0
  6
BYBLOCK
100
AcDbLine
 10
678.816241615356
 20
-588.9603863153551
 30
0.0
 11
676.816241615356
 21
-588.424487935355
 31
0.0
  0
LINE
  5
21227
330
18
100
AcDbEntity
  8
0
  6
BYBLOCK
100
AcDbLine
 10
676.816241615356
 20
-588.424487935355
 30
0.0
 11
678.816241615356
 21
-587.888589555355
 31
0.0
  0
LINE
  5
21228
330
18
100
AcDbEntity
  8
0
  6
BYBLOCK
100
AcDbLine
 10
676.816241615356
 20
-588.424487935355
 30
0.0
 11
678.816241615356
 21
-588.424487935355
 31
0.0
  0
LINE
  5
21229
330
18
100
AcDbEntity
  8
0
  6
BYBLOCK
100
AcDbLine
 10
725.816241615356
 20
-587.888589555355
 30
0.0
 11
727.816241615356
 21
-588.424487935355
 31
0.0
  0
LINE
  5
2122A
330
18
100
AcDbEntity
  8
0
  6
BYBLOCK
100
AcDbLine
 10
727.816241615356
 20
-588.424487935355
 30
0.0
 11
725.816241615356
 21
-588.9603863153551
 31
0.0
  0
LINE
  5
2122B
330
18
100
AcDbEntity
  8
0
  6
BYBLOCK
100
AcDbLine
 10
727.816241615356
 20
-588.424487935355
 30
0.0
 11
725.816241615356
 21
-588.424487935355
 31
0.0
  0
TEXT
  5
2122C
330
18
100
AcDbEntity
  8
1DIM
  6
CONTINUOUS
100
AcDbText
 10
699.970755504245
 20
-587.7244879353551
 30
0.0
 40
3.5
  1
51
100
AcDbText
  0
VIEWPORT
  5
57
330
15
100
AcDbEntity
 67
     1
  8
0
100
AcDbViewport
 68
     1
 10
0.0
 20
0.0
 30
0.0
 40
535.5106132075472
 41
297.0
 68
     1
 69
     1
1001
ACAD
1000
MVIEW
1002
{
1070
    16
1010
0.0
1020
0.0
1030
0.0
1010
0.0
1020
0.0
1030
1.0
1040
0.0
1040
297.0
1040
-4.171999999925333
1040
12.83903210976956
1040
50.0
1040
0.0
1040
0.0
1070
    16
1070
   100
1070
     0
1070
     1
1070
     0
1070
     0
1070
     0
1070
     0
1040
0.0
1040
0.0
1040
0.0
1040
10.0
1040
10.0
1040
10.0
1040
10.0
1070
     0
1002
{
1002
}
1002
}
  0
ENDSEC
  0
SECTION
  2
OBJECTS
  0
DICTIONARY
  5
C
330
0
100
AcDbDictionary
  3
ACAD_CIP_PREVIOUS_PRODUCT_INFO
350
1FEDA
  3
ACAD_COLOR
350
2D0
  3
ACAD_GROUP
350
D
  3
ACAD_LAYOUT
350
2D1
  3
ACAD_MATERIAL
350
2CF
  3
ACAD_MLEADERSTYLE
350
19E18
  3
ACAD_MLINESTYLE
350
1B
  3
ACAD_PLOTSETTINGS
350
2D2
  3
ACAD_SCALELIST
350
19DF6
  3
ACAD_VISUALSTYLE
350
19DE5
  3
ACDBHEADERROUNDTRIPXREC
350
2122D
  3
ACDBVARIABLEDICTIONARY
350
37
  3
CONTENTDICTIONARY
350
D8
  3
DRAWINGVARIABLESDICT
350
20
  3
DWGPROPS
350
21230
1001
ACAD
1000
TREAT_AS_HARD
1070
     0
  0
DICTIONARY
  5
18FE8
330
2
100
AcDbDictionary
  3
ACAD_LAYERSTATES
360
18FE9
1001
ACAD
1000
TREAT_AS_HARD
1070
     1
  0
DICTIONARY
  5
1A20A
330
E
100
AcDbDictionary
  3
ADSK_XREC_LAYER_RECONCILED
360
1A20B
1001
ACAD
1000
TREAT_AS_HARD
1070
     1
  0
DICTIONARY
  5
1A20C
330
29
100
AcDbDictionary
  3
ADSK_XREC_LAYER_RECONCILED
360
1A20D
1001
ACAD
1000
TREAT_AS_HARD
1070
     1
  0
DICTIONARY
  5
1A20E
330
31
100
AcDbDictionary
  3
ADSK_XREC_LAYER_RECONCILED
360
1A20F
1001
ACAD
1000
TREAT_AS_HARD
1070
     1
  0
DICTIONARY
  5
1A218
330
101
100
AcDbDictionary
  3
ADSK_XREC_LAYER_RECONCILED
360
1A219
1001
ACAD
1000
TREAT_AS_HARD
1070
     1
  0
DICTIONARY
  5
1A21C
330
103
100
AcDbDictionary
  3
ADSK_XREC_LAYER_RECONCILED
360
1A21D
1001
ACAD
1000
TREAT_AS_HARD
1070
     1
  0
DICTIONARY
  5
1A220
330
25F
100
AcDbDictionary
  3
ADSK_XREC_LAYER_RECONCILED
360
1A221
1001
ACAD
1000
TREAT_AS_HARD
1070
     1
  0
DICTIONARY
  5
6E9
330
18
100
AcDbDictionary
  3
ACAD_SORTENTS
360
6EA
1001
ACAD
1000
TREAT_AS_HARD
1070
     1
  0
DICTIONARY
  5
59B
330
15
100
AcDbDictionary
  3
ACAD_SORTENTS
360
59C
1001
ACAD
1000
TREAT_AS_HARD
1070
     1
  0
XRECORD
  5
1FEDA
102
{ACAD_REACTORS
330
C
102
}
330
C
100
AcDbXrecord
300
ACDLT
300
2012
300
ACDLT_F_S
  0
DICTIONARY
  5
2D0
102
{ACAD_REACTORS
330
C
102
}
330
C
100
AcDbDictionary
1001
ACAD
1000
TREAT_AS_HARD
1070
     0
  0
DICTIONARY
  5
D
102
{ACAD_REACTORS
330
C
102
}
330
C
100
AcDbDictionary
  3
*A1
350
20817
  3
*A2
350
20818
  3
*A3
350
20850
  3
*A4
350
20851
  3
*A5
350
209C1
  3
*A6
350
209C2
  3
*A7
350
209FB
  3
*A8
350
209FC
1001
ACAD
1000
TREAT_AS_HARD
1070
     0
  0
DICTIONARY
  5
2D1
102
{ACAD_REACTORS
330
C
102
}
330
C
100
AcDbDictionary
1001
ACAD
1000
TREAT_AS_HARD
1070
     0
  0
DICTIONARY
  5
2CF
102
{ACAD_REACTORS
330
C
102
}
330
C
100
AcDbDictionary
  3
BYBLOCK
350
19DD5
  3
BYLAYER
350
19DCD
  3
GLOBAL
350
19DDD
1001
ACAD
1000
TREAT_AS_HARD
1070
     0
  0
DICTIONARY
  5
19E18
102
{ACAD_REACTORS
330
C
102
}
330
C
100
AcDbDictionary
  3
STANDARD
350
19E19
1001
ACAD
1000
TREAT_AS_HARD
1070
     0
  0
DICTIONARY
  5
1B
102
{ACAD_REACTORS
330
C
102
}
330
C
100
AcDbDictionary
  3
STANDARD
350
1C
1001
ACAD
1000
TREAT_AS_HARD
1070
     0
  0
DICTIONARY
  5
2D2
102
{ACAD_REACTORS
330
C
102
}
330
C
100
AcDbDictionary
1001
ACAD
1000
TREAT_AS_HARD
1070
     0
  0
DICTIONARY
  5
19DF6
102
{ACAD_REACTORS
330
C
102
}
330
C
100
AcDbDictionary
  3
A0
350
19DF7
  3
A1
350
19DF8
  3
A2
350
19DF9
  3
A3
350
19DFA
  3
A4
350
19DFB
  3
A5
350
19DFC
  3
A6
350
19DFD
  3
A7
350
19DFE
  3
A8
350
19DFF
  3
A9
350
19E00
  3
B0
350
19E01
  3
B1
350
19E02
  3
B2
350
19E03
  3
B3
350
19E04
  3
B4
350
19E05
  3
B5
350
19E06
  3
B6
350
19E07
  3
B7
350
19E08
  3
B8
350
19E09
  3
B9
350
19E0A
  3
C0
350
19E0B
  3
C1
350
19E0C
  3
C2
350
19E0D
  3
C3
350
19E0E
  3
C4
350
19E0F
  3
C5
350
19E10
  3
C6
350
19E11
  3
C7
350
19E12
  3
C8
350
19E13
  3
C9
350
19E14
  3
D0
350
19E15
  3
D1
350
19E16
  3
D2
350
19E17
1001
ACAD
1000
TREAT_AS_HARD
1070
     0
  0
DICTIONARY
  5
19DE5
102
{ACAD_REACTORS
330
C
102
}
330
C
100
AcDbDictionary
  3
2DWIREFRAME
350
19DEB
  3
3D_HIDDEN
350
19DED
  3
3DWIREFRAME
350
19DEC
  3
BASIC
350
19DEA
  3
BRIGHTEN
350
19DF1
  3
COLORCHANGE
350
19DF5
  3
CONCEPTUAL
350
19DEE
  3
DIM
350
19DF0
  3
EDGECOLOROFF
350
1E02A
  3
FACEPATTERN
350
19DF4
  3
FLAT
350
19DE6
  3
FLATWITHEDGES
350
19DE7
  3
GOURAUD
350
19DE8
  3
GOURAUDWITHEDGES
350
19DE9
  3
HIDDEN
350
1F554
  3
JITTEROFF
350
1E028
  3
LINEPATTERN
350
19DF3
  3
MODELING
350
1F55A
  3
OVERHANGOFF
350
1E029
  3
REALISTIC
350
19DEF
  3
SHADED
350
1F559
  3
SHADED_WITH_EDGES
350
1F558
  3
SHADES_OF_GRAY
350
1F555
  3
SKETCHY
350
1F556
  3
THICKEN
350
19DF2
  3
WIREFRAME
350
1F553
  3
X-RAY
350
1F557
1001
ACAD
1000
TREAT_AS_HARD
1070
     0
  0
DICTIONARY
  5
2122D
102
{ACAD_REACTORS
330
C
102
}
330
C
100
AcDbDictionary
  3
COLORDICT
350
2122E
  3
MATERIALDICT
350
2122F
1001
ACAD
1000
TREAT_AS_HARD
1070
     0
  0
DICTIONARY
  5
37
102
{ACAD_REACTORS
330
C
102
}
330
C
100
AcDbDictionary
  3
CANNOSCALE
350
1FD1B
  3
CMLEADERSTYLE
350
1AC19
  3
CTABLESTYLE
350
4F1
  3
DIMADEC
350
38
  3
DIMASSOC
350
408
  3
HIDETEXT
350
1891
  3
INDEXCTL
350
1AC1C
  3
INTERSECTIONCOLOR
350
1895
  3
INTERSECTIONDISPLAY
350
1894
  3
MSLTSCALE
350
1FD71
  3
OBSCOLOR
350
1892
  3
OBSLTYPE
350
1893
  3
PROJECTNAME
350
409
  3
SORTENTS
350
1AC1B
  3
XCLIPFRAME
350
20FBD
1001
ACAD
1000
TREAT_AS_HARD
1070
     0
  0
DICTIONARY
  5
D8
102
{ACAD_REACTORS
330
C
102
}
330
C
100
AcDbDictionary
1001
CONTENTTABDATA
1070
    11
1000
Child
1000
D:\ACLT\TABset\CHILDREN.dwg
1070
     0
1070
     0
1070
     1
1000
PK
1000
D:\ACLT\TABset\PK.dwg
1070
     0
1070
     0
1070
     1
1000
Lev1
1000
D:\ACLT\TABset\Lever01.dwg
1070
     0
1070
     0
1070
     1
1000
Lev2
1000
D:\ACLT\TABset\Lever02.dwg
1070
     0
1070
     0
1070
     1
1000
L3
1000
D:\Aclt\TABset\Lever03.dwg
1070
     0
1070
     0
1070
     1
1000
Form
1000
D:\ACLT\FORMAT
1070
     1
1070
     0
1070
     1
1000
Jnt
1000
D:\ACLT\TABset\JOINTPARTS.dwg
1070
     0
1070
     0
1070
     1
1000
ISO
1000
D:\ACLT\TABset\Isome01.dwg
1070
     0
1070
     0
1070
     1
1000
R
1000
D:\ACLT\TABset\REGION.dwg
1070
     0
1070
     0
1070
     1
1000
std
1000
D:\ACLT\TABset\std_sym_all.dwg
1070
     0
1070
     0
1070
     1
1000
丸
1000
D:\Aclt\TABset\MARU.dwg
1070
     0
1070
     0
1070
     1
1001
CONTENTCURRENTTAB
1070
     0
1001
ACAD
1000
TREAT_AS_HARD
1070
     0
  0
DICTIONARY
  5
20
102
{ACAD_REACTORS
330
C
102
}
330
C
100
AcDbDictionary
1001
DRAWINGVARIABLESXDATA
1000
POLARANG
1000
0.261799387799149410000000
1000
POLARMODE
1000
1
1000
POLARSTYLE
1000
1
1001
ACAD
1000
TREAT_AS_HARD
1070
     0
  0
XRECORD
  5
21230
102
{ACAD_REACTORS
330
C
102
}
330
C
100
AcDbXrecord
  1
DWGPROPS COOKIE
  2

  3

  4

  6

  7

  8
3684
  9

300
=
301
=
302
=
303
=
304
=
305
=
306
=
307
=
308
=
309
=
 40
0.0
 41
2453033.357663484
 42
2459111.262195972
  1

 90
        0
  0
DICTIONARY
  5
18FE9
102
{ACAD_REACTORS
330
18FE8
102
}
330
18FE8
100
AcDbDictionary
1001
ACAD
1000
TREAT_AS_HARD
1070
     0
  0
ACAD_PROXY_OBJECT
  5
1A20B
102
{ACAD_REACTORS
330
1A20A
102
}
330
1A20A
100
AcDbZombieObject
 90
      499
 91
      517
 93
       34
310
40C8804040
  0
ACAD_PROXY_OBJECT
  5
1A20D
102
{ACAD_REACTORS
330
1A20C
102
}
330
1A20C
100
AcDbZombieObject
 90
      499
 91
      517
 93
       34
310
40C8804040
  0
ACAD_PROXY_OBJECT
  5
1A20F
102
{ACAD_REACTORS
330
1A20E
102
}
330
1A20E
100
AcDbZombieObject
 90
      499
 91
      517
 93
       34
310
40C8804040
  0
ACAD_PROXY_OBJECT
  5
1A219
102
{ACAD_REACTORS
330
1A218
102
}
330
1A218
100
AcDbZombieObject
 90
      499
 91
      517
 93
       34
310
40C8804040
  0
ACAD_PROXY_OBJECT
  5
1A21D
102
{ACAD_REACTORS
330
1A21C
102
}
330
1A21C
100
AcDbZombieObject
 90
      499
 91
      517
 93
       34
310
40C8804040
  0
ACAD_PROXY_OBJECT
  5
1A221
102
{ACAD_REACTORS
330
1A220
102
}
330
1A220
100
AcDbZombieObject
 90
      499
 91
      517
 93
       34
310
40C8804040
  0
SORTENTSTABLE
  5
6EA
102
{ACAD_REACTORS
330
6E9
102
}
330
6E9
100
AcDbSortentsTable
330
18
331
0
  5
99AB
331
0
  5
AB53
331
0
  5
AB54
331
0
  5
ECB5
331
1DB9B
  5
1EE65
331
1EE56
  5
1EE66
331
1EE57
  5
1EE67
331
1EE58
  5
1EE69
331
1EE5B
  5
1EE6A
331
1EE5D
  5
1EE71
331
1EE5E
  5
1F077
331
1EE5F
  5
2042B
331
1EE62
  5
2042D
331
1EE63
  5
2042F
331
1EE65
  5
20430
331
1EE71
  5
20431
331
20422
  5
20432
331
20426
  5
20435
331
20427
  5
20437
331
20428
  5
20438
331
20429
  5
20439
331
2042A
  5
2043A
331
2042B
  5
2043B
331
2042D
  5
2043C
331
2042F
  5
20449
331
20430
  5
2044A
331
20431
  5
2044B
331
20432
  5
2044C
331
20435
  5
2044D
331
20443
  5
2044E
331
20444
  5
20450
331
20445
  5
20499
331
20446
  5
2049A
331
20447
  5
2049B
331
20448
  5
2049C
331
20449
  5
2049D
331
2044A
  5
20573
331
2044B
  5
20574
331
2044C
  5
20575
331
2044D
  5
20576
331
2044E
  5
20578
331
2056D
  5
2057A
331
2056E
  5
205AE
331
2056F
  5
205B2
331
20570
  5
205B3
331
20572
  5
205C6
331
20578
  5
2063F
331
20579
  5
20697
331
2057C
  5
206C2
331
2057D
  5
207E0
331
2057E
  5
207E1
331
205B3
  5
207E2
331
0
  5
20681
331
0
  5
20688
331
0
  5
20696
331
20696
  5
207F8
331
20698
  5
205AF
331
20759
  5
207F9
331
207E0
  5
20809
331
207E1
  5
2080A
331
207E2
  5
2080B
331
207E3
  5
2080C
331
207E4
  5
2080D
331
207E5
  5
2080E
331
207E6
  5
2080F
331
207E7
  5
20810
331
207E8
  5
20811
331
207E9
  5
20812
331
207EA
  5
20813
331
207EB
  5
20814
331
207EC
  5
20815
331
207ED
  5
20816
331
207EE
  5
20819
331
207EF
  5
2081A
331
207F0
  5
2081B
331
207F1
  5
2081C
331
207F2
  5
2081D
331
207F3
  5
2081E
331
207F4
  5
2081F
331
207F5
  5
20820
331
207F6
  5
20821
331
207F7
  5
20822
331
207F8
  5
20823
331
207F9
  5
20824
331
207FA
  5
20825
331
207FB
  5
20826
331
207FC
  5
20827
331
207FD
  5
20828
331
207FE
  5
20829
331
207FF
  5
2082A
331
20800
  5
2082B
331
20801
  5
2082C
331
20802
  5
2082D
331
20803
  5
2082E
331
20804
  5
2082F
331
20805
  5
20830
331
20806
  5
20831
331
20807
  5
20832
331
20808
  5
20833
331
20809
  5
20834
331
2080A
  5
20835
331
2080B
  5
20836
331
2080C
  5
20837
331
2080D
  5
20838
331
2080E
  5
20839
331
2080F
  5
2083A
331
20810
  5
2083B
331
20811
  5
2083C
331
20812
  5
2083D
331
20813
  5
2083E
331
20814
  5
2083F
331
20815
  5
20840
331
20816
  5
20841
331
20819
  5
20842
331
2081A
  5
20843
331
2081B
  5
20844
331
2081C
  5
20845
331
2081D
  5
20846
331
2081E
  5
20847
331
2081F
  5
20848
331
20820
  5
20849
331
20821
  5
2084A
331
20822
  5
2084B
331
20823
  5
2084C
331
20824
  5
2084D
331
20825
  5
2084E
331
20826
  5
2084F
331
20827
  5
20881
331
20828
  5
20885
331
20829
  5
20886
331
2082A
  5
20888
331
2082B
  5
20889
331
2082C
  5
2088A
331
2082D
  5
2088B
331
2082E
  5
2088F
331
2082F
  5
20890
331
20830
  5
20891
331
20831
  5
20892
331
20832
  5
20895
331
20833
  5
20896
331
20834
  5
208C0
331
20835
  5
208C1
331
20836
  5
208C3
331
20837
  5
208C4
331
20838
  5
208C5
331
20839
  5
208CB
331
2083A
  5
208CC
331
2083B
  5
208CD
331
2083C
  5
208CE
331
2083D
  5
208CF
331
2083E
  5
208D0
331
2083F
  5
208D1
331
20840
  5
2093C
331
20841
  5
20988
331
20842
  5
2098A
331
20843
  5
2098B
331
20844
  5
2098C
331
20845
  5
20990
331
20846
  5
20991
331
20847
  5
20992
331
20848
  5
20996
331
20849
  5
20997
331
2084A
  5
20998
331
2084B
  5
20999
331
2084C
  5
2099A
331
2084D
  5
2099B
331
2084E
  5
2099C
331
2084F
  5
2099D
331
20881
  5
209B2
331
20885
  5
209B6
331
20886
  5
209B7
331
20888
  5
209B8
331
20889
  5
209B9
331
2088A
  5
209BA
331
2088B
  5
209BB
331
2088F
  5
209BC
331
20890
  5
209BD
331
20891
  5
209BE
331
20892
  5
209BF
331
20895
  5
209C0
331
20896
  5
209C4
331
208C0
  5
209C5
331
208C1
  5
209C6
331
208C3
  5
209C7
331
208C4
  5
209C8
331
208C5
  5
209C9
331
208CB
  5
209CA
331
208CC
  5
209CB
331
208CD
  5
209CC
331
208CE
  5
209CD
331
208CF
  5
209CE
331
208D0
  5
209CF
331
208D1
  5
209D0
331
2093C
  5
209D1
331
20988
  5
209DC
331
2098A
  5
209DD
331
2098B
  5
209DE
331
2098C
  5
209DF
331
2098D
  5
209E0
331
2098E
  5
209E1
331
2098F
  5
209E2
331
20990
  5
209E3
331
20991
  5
209E4
331
20992
  5
209E5
331
20993
  5
209E6
331
20994
  5
209E7
331
20995
  5
209E8
331
20996
  5
209E9
331
20997
  5
209EA
331
20998
  5
209EB
331
20999
  5
209EC
331
2099A
  5
209ED
331
2099B
  5
209EE
331
2099C
  5
209EF
331
2099D
  5
209F0
331
2099E
  5
209F1
331
2099F
  5
209F2
331
209A0
  5
209F3
331
209A1
  5
209F4
331
209A2
  5
209F5
331
209A3
  5
209F6
331
209A4
  5
209F7
331
209A5
  5
209F8
331
209A6
  5
209F9
331
209A7
  5
209FA
331
209A8
  5
21029
331
209A9
  5
2102A
331
209AA
  5
2102B
331
209AB
  5
2118E
331
209AC
  5
2118F
331
209AD
  5
21190
331
209AE
  5
21191
331
209AF
  5
21192
331
209B0
  5
21193
331
209B1
  5
21194
331
209B2
  5
21195
331
209B3
  5
21196
331
209B4
  5
21197
331
209B5
  5
21198
331
209B6
  5
21199
331
209B7
  5
2119A
331
209B8
  5
2119B
331
209B9
  5
2119C
331
209BA
  5
2119D
331
209BB
  5
2119E
331
209BC
  5
2119F
331
209BD
  5
211A0
331
209BE
  5
211A1
331
209BF
  5
211A2
331
209C0
  5
211A3
331
209C4
  5
211A4
331
209C5
  5
211A5
331
209C6
  5
211A6
331
209C7
  5
211A7
331
209C8
  5
211A8
331
209C9
  5
211A9
331
209CA
  5
211AA
331
209CB
  5
211AB
331
209CC
  5
211AC
331
209CD
  5
211AD
331
209CE
  5
211AE
331
209CF
  5
211AF
331
209D0
  5
211B0
331
209D1
  5
211B1
331
209D2
  5
211B2
331
209D3
  5
211B3
331
209D4
  5
211B4
331
209D5
  5
211B5
331
209D6
  5
211B6
331
209D7
  5
211B7
331
209D8
  5
211B8
331
209D9
  5
211B9
331
209DA
  5
211BA
331
209DB
  5
211BE
331
209DC
  5
211BF
331
209DD
  5
211C0
331
209DE
  5
211C4
331
209DF
  5
211C5
331
209E0
  5
211C6
331
209E1
  5
211CA
331
209E2
  5
211CB
331
209E3
  5
211CC
331
209E4
  5
211D0
331
209E5
  5
211D1
331
209E6
  5
211D2
331
209E7
  5
211D3
331
209E8
  5
211D7
331
209E9
  5
211D8
331
209EA
  5
211D9
331
209EB
  5
211DD
331
209EC
  5
211DE
331
209ED
  5
211DF
331
209EE
  5
211E0
331
209EF
  5
211E1
331
209F0
  5
211E2
331
209F1
  5
211E3
331
209F2
  5
211E4
331
209F3
  5
211E5
331
209F4
  5
211E6
331
209F5
  5
211E7
331
209F6
  5
211E8
331
209F7
  5
211E9
331
209F8
  5
211EA
331
209F9
  5
211EB
331
209FA
  5
211EC
331
21029
  5
2122A
331
2102A
  5
2122B
331
2102B
  5
2122C
331
2118E
  5
1DB9F
331
2118F
  5
1EE5E
331
21190
  5
1EE5F
331
21191
  5
1EE60
331
21192
  5
1EE64
331
21193
  5
207E3
331
21194
  5
207E4
331
21195
  5
207E5
331
0
  5
207E6
331
0
  5
207E7
331
0
  5
207E8
331
21199
  5
207F0
331
2119A
  5
207F1
331
2119B
  5
207F2
331
2119C
  5
207F3
331
2119D
  5
207F7
331
2119E
  5
207FA
331
2119F
  5
207FB
331
211A0
  5
207FC
331
211A1
  5
207FD
331
0
  5
207F4
331
0
  5
207F5
331
0
  5
207F6
331
211A5
  5
20805
331
211A6
  5
20806
331
211A7
  5
20807
331
211A8
  5
20808
331
211A9
  5
2099E
331
211AA
  5
2099F
331
211AB
  5
209A0
331
0
  5
2098D
331
0
  5
2098E
331
0
  5
2098F
331
211AF
  5
209A8
331
211B0
  5
209A9
331
211B1
  5
209AA
331
0
  5
20993
331
0
  5
20994
331
0
  5
20995
331
211B5
  5
209D2
331
211B6
  5
209D3
331
211B7
  5
209D4
331
0
  5
209B3
331
0
  5
209B4
331
0
  5
209B5
331
211BB
  5
211ED
331
211BC
  5
211EE
331
211BD
  5
211EF
331
0
  5
211BB
331
0
  5
211BC
331
0
  5
211BD
331
211C1
  5
211F7
331
211C2
  5
211F8
331
211C3
  5
211F9
331
0
  5
211C1
331
0
  5
211C2
331
0
  5
211C3
331
211C7
  5
21201
331
211C8
  5
21202
331
211C9
  5
21203
331
0
  5
211C7
331
0
  5
211C8
331
0
  5
211C9
331
211CD
  5
2120B
331
211CE
  5
2120C
331
211CF
  5
2120D
331
0
  5
211CD
331
0
  5
211CE
331
0
  5
211CF
331
211D3
  5
21215
331
211D4
  5
21216
331
211D5
  5
21217
331
211D6
  5
21218
331
0
  5
211D4
331
0
  5
211D5
331
0
  5
211D6
331
211DA
  5
21220
331
211DB
  5
21221
331
211DC
  5
21222
331
0
  5
211DA
331
0
  5
211DB
331
0
  5
211DC
331
211E0
  5
207E9
331
211E1
  5
207EA
331
211E2
  5
207EB
331
211E3
  5
207EC
331
211E4
  5
207ED
331
211E5
  5
207EE
331
211E6
  5
207EF
331
211E7
  5
207FE
331
211E8
  5
207FF
331
211E9
  5
20800
331
211EA
  5
20801
331
211EB
  5
20802
331
211EC
  5
20803
331
211ED
  5
20804
331
211EE
  5
209A1
331
211EF
  5
209A2
331
211F0
  5
209A3
331
211F1
  5
209A4
331
211F2
  5
209A5
331
211F3
  5
209A6
331
211F4
  5
209A7
331
211F5
  5
209AB
331
211F6
  5
209AC
331
211F7
  5
209AD
331
211F8
  5
209AE
331
211F9
  5
209AF
331
211FA
  5
209B0
331
211FB
  5
209B1
331
211FC
  5
209D5
331
211FD
  5
209D6
331
211FE
  5
209D7
331
211FF
  5
209D8
331
21200
  5
209D9
331
21201
  5
209DA
331
21202
  5
209DB
331
21203
  5
211F0
331
21204
  5
211F1
331
21205
  5
211F2
331
21206
  5
211F3
331
21207
  5
211F4
331
21208
  5
211F5
331
21209
  5
211F6
331
2120A
  5
211FA
331
2120B
  5
211FB
331
2120C
  5
211FC
331
2120D
  5
211FD
331
2120E
  5
211FE
331
2120F
  5
211FF
331
21210
  5
21200
331
21211
  5
21204
331
21212
  5
21205
331
21213
  5
21206
331
21214
  5
21207
331
21215
  5
21208
331
21216
  5
21209
331
21217
  5
2120A
331
21218
  5
2120E
331
21219
  5
2120F
331
2121A
  5
21210
331
2121B
  5
21211
331
2121C
  5
21212
331
2121D
  5
21213
331
2121E
  5
21214
331
2121F
  5
21219
331
21220
  5
2121A
331
21221
  5
2121B
331
21222
  5
2121C
331
21223
  5
2121D
331
21224
  5
2121E
331
21225
  5
2121F
331
21226
  5
21223
331
21227
  5
21224
331
21228
  5
21225
331
21229
  5
21226
331
2122A
  5
21227
331
2122B
  5
21228
331
2122C
  5
21229
  0
SORTENTSTABLE
  5
59C
102
{ACAD_REACTORS
330
59B
102
}
330
59B
100
AcDbSortentsTable
330
15
331
57
  5
57
331
0
  5
70
  0
GROUP
  5
20817
102
{ACAD_REACTORS
330
D
102
}
330
D
100
AcDbGroup
300

 70
     1
 71
     1
340
207E4
340
207E3
340
207E2
340
207E1
340
207E0
  0
GROUP
  5
20818
102
{ACAD_REACTORS
330
D
102
}
330
D
100
AcDbGroup
300

 70
     1
 71
     1
340
20816
340
20815
340
20814
340
20813
340
20812
340
20811
340
20810
340
2080F
340
2080E
340
2080D
340
2080C
340
2080B
340
2080A
340
20809
340
20808
340
20807
340
20806
340
20805
340
20804
340
20803
340
20802
340
20801
340
20800
340
207FF
340
207FE
340
207FD
340
207FC
340
207FB
340
207FA
340
207F9
340
207F8
340
207F7
340
207F6
340
207F5
340
207F4
340
207F3
340
207F2
340
207F1
340
207F0
340
207EF
340
207EE
340
207ED
340
207EC
340
207EB
340
207EA
340
207E9
340
207E8
340
207E7
340
207E6
340
207E5
340
207E4
340
207E3
340
207E2
340
207E1
340
207E0
  0
GROUP
  5
20850
102
{ACAD_REACTORS
330
D
102
}
330
D
100
AcDbGroup
300

 70
     1
 71
     1
340
2081D
340
2081C
340
2081B
340
2081A
340
20819
  0
GROUP
  5
20851
102
{ACAD_REACTORS
330
D
102
}
330
D
100
AcDbGroup
300

 70
     1
 71
     1
340
2084F
340
2084E
340
2084D
340
2084C
340
2084B
340
2084A
340
20849
340
20848
340
20847
340
20846
340
20845
340
20844
340
20843
340
20842
340
20841
340
20840
340
2083F
340
2083E
340
2083D
340
2083C
340
2083B
340
2083A
340
20839
340
20838
340
20837
340
20836
340
20835
340
20834
340
20833
340
20832
340
20831
340
20830
340
2082F
340
2082E
340
2082D
340
2082C
340
2082B
340
2082A
340
20829
340
20828
340
20827
340
20826
340
20825
340
20824
340
20823
340
20822
340
20821
340
20820
340
2081F
340
2081E
340
2081D
340
2081C
340
2081B
340
2081A
340
20819
  0
GROUP
  5
209C1
102
{ACAD_REACTORS
330
D
102
}
330
D
100
AcDbGroup
300

 70
     1
 71
     1
340
2098E
340
2098D
340
2098C
340
2098B
340
2098A
  0
GROUP
  5
209C2
102
{ACAD_REACTORS
330
D
102
}
330
D
100
AcDbGroup
300

 70
     1
 71
     1
340
209C0
340
209BF
340
209BE
340
209BD
340
209BC
340
209BB
340
209BA
340
209B9
340
209B8
340
209B7
340
209B6
340
209B5
340
209B4
340
209B3
340
209B2
340
209B1
340
209B0
340
209AF
340
209AE
340
209AD
340
209AC
340
209AB
340
209AA
340
209A9
340
209A8
340
209A7
340
209A6
340
209A5
340
209A4
340
209A3
340
209A2
340
209A1
340
209A0
340
2099F
340
2099E
340
2099D
340
2099C
340
2099B
340
2099A
340
20999
340
20998
340
20997
340
20996
340
20995
340
20994
340
20993
340
20992
340
20991
340
20990
340
2098F
340
2098E
340
2098D
340
2098C
340
2098B
340
2098A
  0
GROUP
  5
209FB
102
{ACAD_REACTORS
330
D
102
}
330
D
100
AcDbGroup
300

 70
     1
 71
     1
340
209C8
340
209C7
340
209C6
340
209C5
340
209C4
  0
GROUP
  5
209FC
102
{ACAD_REACTORS
330
D
102
}
330
D
100
AcDbGroup
300

 70
     1
 71
     1
340
209FA
340
209F9
340
209F8
340
209F7
340
209F6
340
209F5
340
209F4
340
209F3
340
209F2
340
209F1
340
209F0
340
209EF
340
209EE
340
209ED
340
209EC
340
209EB
340
209EA
340
209E9
340
209E8
340
209E7
340
209E6
340
209E5
340
209E4
340
209E3
340
209E2
340
209E1
340
209E0
340
209DF
340
209DE
340
209DD
340
209DC
340
209DB
340
209DA
340
209D9
340
209D8
340
209D7
340
209D6
340
209D5
340
209D4
340
209D3
340
209D2
340
209D1
340
209D0
340
209CF
340
209CE
340
209CD
340
209CC
340
209CB
340
209CA
340
209C9
340
209C8
340
209C7
340
209C6
340
209C5
340
209C4
  0
MATERIAL
  5
19DD5
102
{ACAD_REACTORS
330
2CF
102
}
102
{ACAD_XDICTIONARY
360
213CB
102
}
330
2CF
100
AcDbMaterial
  1
BYBLOCK
 72
     0
 73
     2
 43
0.0208333333333333
 43
0.0
 43
0.0
 43
0.0
 43
0.0
 43
0.0208333333333333
 43
0.0
 43
0.0
 43
0.0
 43
0.0
 43
1.0
 43
0.0
 43
0.0
 43
0.0
 43
0.0
 43
1.0
 77
     0
 78
     2
 47
0.0208333333333333
 47
0.0
 47
0.0
 47
0.0
 47
0.0
 47
0.0208333333333333
 47
0.0
 47
0.0
 47
0.0
 47
0.0
 47
1.0
 47
0.0
 47
0.0
 47
0.0
 47
0.0
 47
1.0
171
     0
172
     2
 49
0.0208333333333333
 49
0.0
 49
0.0
 49
0.0
 49
0.0
 49
0.0208333333333333
 49
0.0
 49
0.0
 49
0.0
 49
0.0
 49
1.0
 49
0.0
 49
0.0
 49
0.0
 49
0.0
 49
1.0
175
     0
176
     2
142
0.0208333333333333
142
0.0
142
0.0
142
0.0
142
0.0
142
0.0208333333333333
142
0.0
142
0.0
142
0.0
142
0.0
142
1.0
142
0.0
142
0.0
142
0.0
142
0.0
142
1.0
179
     0
270
     2
144
0.0208333333333333
144
0.0
144
0.0
144
0.0
144
0.0
144
0.0208333333333333
144
0.0
144
0.0
144
0.0
144
0.0
144
1.0
144
0.0
144
0.0
144
0.0
144
0.0
144
1.0
274
     2
147
0.0208333333333333
147
0.0
147
0.0
147
0.0
147
0.0
147
0.0208333333333333
147
0.0
147
0.0
147
0.0
147
0.0
147
1.0
147
0.0
147
0.0
147
0.0
147
0.0
147
1.0
  0
MATERIAL
  5
19DCD
102
{ACAD_REACTORS
330
2CF
102
}
102
{ACAD_XDICTIONARY
360
213CD
102
}
330
2CF
100
AcDbMaterial
  1
BYLAYER
 72
     0
 73
     2
 43
0.0208333333333333
 43
0.0
 43
0.0
 43
0.0
 43
0.0
 43
0.0208333333333333
 43
0.0
 43
0.0
 43
0.0
 43
0.0
 43
1.0
 43
0.0
 43
0.0
 43
0.0
 43
0.0
 43
1.0
 77
     0
 78
     2
 47
0.0208333333333333
 47
0.0
 47
0.0
 47
0.0
 47
0.0
 47
0.0208333333333333
 47
0.0
 47
0.0
 47
0.0
 47
0.0
 47
1.0
 47
0.0
 47
0.0
 47
0.0
 47
0.0
 47
1.0
171
     0
172
     2
 49
0.0208333333333333
 49
0.0
 49
0.0
 49
0.0
 49
0.0
 49
0.0208333333333333
 49
0.0
 49
0.0
 49
0.0
 49
0.0
 49
1.0
 49
0.0
 49
0.0
 49
0.0
 49
0.0
 49
1.0
175
     0
176
     2
142
0.0208333333333333
142
0.0
142
0.0
142
0.0
142
0.0
142
0.0208333333333333
142
0.0
142
0.0
142
0.0
142
0.0
142
1.0
142
0.0
142
0.0
142
0.0
142
0.0
142
1.0
179
     0
270
     2
144
0.0208333333333333
144
0.0
144
0.0
144
0.0
144
0.0
144
0.0208333333333333
144
0.0
144
0.0
144
0.0
144
0.0
144
1.0
144
0.0
144
0.0
144
0.0
144
0.0
144
1.0
274
     2
147
0.0208333333333333
147
0.0
147
0.0
147
0.0
147
0.0
147
0.0208333333333333
147
0.0
147
0.0
147
0.0
147
0.0
147
1.0
147
0.0
147
0.0
147
0.0
147
0.0
147
1.0
  0
MATERIAL
  5
19DDD
102
{ACAD_REACTORS
330
2CF
102
}
102
{ACAD_XDICTIONARY
360
213CF
102
}
330
2CF
100
AcDbMaterial
  1
GLOBAL
 72
     0
 73
     2
 43
0.0208333333333333
 43
0.0
 43
0.0
 43
0.0
 43
0.0
 43
0.0208333333333333
 43
0.0
 43
0.0
 43
0.0
 43
0.0
 43
1.0
 43
0.0
 43
0.0
 43
0.0
 43
0.0
 43
1.0
 77
     0
 78
     2
 47
0.0208333333333333
 47
0.0
 47
0.0
 47
0.0
 47
0.0
 47
0.0208333333333333
 47
0.0
 47
0.0
 47
0.0
 47
0.0
 47
1.0
 47
0.0
 47
0.0
 47
0.0
 47
0.0
 47
1.0
171
     0
172
     2
 49
0.0208333333333333
 49
0.0
 49
0.0
 49
0.0
 49
0.0
 49
0.0208333333333333
 49
0.0
 49
0.0
 49
0.0
 49
0.0
 49
1.0
 49
0.0
 49
0.0
 49
0.0
 49
0.0
 49
1.0
175
     0
176
     2
142
0.0208333333333333
142
0.0
142
0.0
142
0.0
142
0.0
142
0.0208333333333333
142
0.0
142
0.0
142
0.0
142
0.0
142
1.0
142
0.0
142
0.0
142
0.0
142
0.0
142
1.0
179
     0
270
     2
144
0.0208333333333333
144
0.0
144
0.0
144
0.0
144
0.0
144
0.0208333333333333
144
0.0
144
0.0
144
0.0
144
0.0
144
1.0
144
0.0
144
0.0
144
0.0
144
0.0
144
1.0
274
     2
147
0.0208333333333333
147
0.0
147
0.0
147
0.0
147
0.0
147
0.0208333333333333
147
0.0
147
0.0
147
0.0
147
0.0
147
1.0
147
0.0
147
0.0
147
0.0
147
0.0
147
1.0
  0
ACAD_PROXY_OBJECT
  5
19E19
102
{ACAD_REACTORS
330
19E18
102
}
330
19E18
100
AcDbZombieObject
 90
      499
 91
      512
 93
      610
310
40901902A4063FBFFFFFE000000000000002040AD7A3703D0AD73F4214DD185B99185C990000000000000104090141901A00000000000004100000000000000041025764000000000000300FC0
340
12
340
0
340
F
340
0
 94
        0
1001
ACAD_MLEADERVER
1070
     2
  0
MLINESTYLE
  5
1C
102
{ACAD_REACTORS
330
1B
102
}
330
1B
100
AcDbMlineStyle
  2
STANDARD
 70
     0
  3

 62
   256
 51
90.0
 52
90.0
 71
     2
 49
0.5
 62
   256
  6
BYLAYER
 49
-0.5
 62
   256
  6
BYLAYER
  0
ACAD_PROXY_OBJECT
  5
19DF7
102
{ACAD_REACTORS
330
19DF6
102
}
330
19DF6
100
AcDbZombieObject
 90
      499
 91
      511
 93
       41
310
903313A31580
  0
ACAD_PROXY_OBJECT
  5
19DF8
102
{ACAD_REACTORS
330
19DF6
102
}
330
19DF6
100
AcDbZombieObject
 90
      499
 91
      511
 93
      105
310
903313A324000000000000004000
  0
ACAD_PROXY_OBJECT
  5
19DF9
102
{ACAD_REACTORS
330
19DF6
102
}
330
19DF6
100
AcDbZombieObject
 90
      499
 91
      511
 93
      105
310
903313A344000000000000104000
  0
ACAD_PROXY_OBJECT
  5
19DFA
102
{ACAD_REACTORS
330
19DF6
102
}
330
19DF6
100
AcDbZombieObject
 90
      499
 91
      511
 93
      105
310
903313A354000000000000144000
  0
ACAD_PROXY_OBJECT
  5
19DFB
102
{ACAD_REACTORS
330
19DF6
102
}
330
19DF6
100
AcDbZombieObject
 90
      499
 91
      511
 93
      105
310
903313A384000000000000204000
  0
ACAD_PROXY_OBJECT
  5
19DFC
102
{ACAD_REACTORS
330
19DF6
102
}
330
19DF6
100
AcDbZombieObject
 90
      499
 91
      511
 93
      113
310
904313A31304000000000000244000
  0
ACAD_PROXY_OBJECT
  5
19DFD
102
{ACAD_REACTORS
330
19DF6
102
}
330
19DF6
100
AcDbZombieObject
 90
      499
 91
      511
 93
      113
310
904313A31364000000000000304000
  0
ACAD_PROXY_OBJECT
  5
19DFE
102
{ACAD_REACTORS
330
19DF6
102
}
330
19DF6
100
AcDbZombieObject
 90
      499
 91
      511
 93
      113
310
904313A32304000000000000344000
  0
ACAD_PROXY_OBJECT
  5
19DFF
102
{ACAD_REACTORS
330
19DF6
102
}
330
19DF6
100
AcDbZombieObject
 90
      499
 91
      511
 93
      113
310
904313A333040000000000003E4000
  0
ACAD_PROXY_OBJECT
  5
19E00
102
{ACAD_REACTORS
330
19DF6
102
}
330
19DF6
100
AcDbZombieObject
 90
      499
 91
      511
 93
      113
310
904313A34304000000000000444000
  0
ACAD_PROXY_OBJECT
  5
19E01
102
{ACAD_REACTORS
330
19DF6
102
}
330
19DF6
100
AcDbZombieObject
 90
      499
 91
      511
 93
      113
310
904313A35304000000000000494000
  0
ACAD_PROXY_OBJECT
  5
19E02
102
{ACAD_REACTORS
330
19DF6
102
}
330
19DF6
100
AcDbZombieObject
 90
      499
 91
      511
 93
      121
310
905313A3130304000000000000594000
  0
ACAD_PROXY_OBJECT
  5
19E03
102
{ACAD_REACTORS
330
19DF6
102
}
330
19DF6
100
AcDbZombieObject
 90
      499
 91
      511
 93
      105
310
903323A310000000000000010100
  0
ACAD_PROXY_OBJECT
  5
19E04
102
{ACAD_REACTORS
330
19DF6
102
}
330
19DF6
100
AcDbZombieObject
 90
      499
 91
      511
 93
      105
310
903343A310000000000000410100
  0
ACAD_PROXY_OBJECT
  5
19E05
102
{ACAD_REACTORS
330
19DF6
102
}
330
19DF6
100
AcDbZombieObject
 90
      499
 91
      511
 93
      105
310
903383A310000000000000810100
  0
ACAD_PROXY_OBJECT
  5
19E06
102
{ACAD_REACTORS
330
19DF6
102
}
330
19DF6
100
AcDbZombieObject
 90
      499
 91
      511
 93
      113
310
90431303A310000000000000910100
  0
ACAD_PROXY_OBJECT
  5
19E07
102
{ACAD_REACTORS
330
19DF6
102
}
330
19DF6
100
AcDbZombieObject
 90
      499
 91
      511
 93
      121
310
9053130303A310000000000001650100
  0
ACAD_PROXY_OBJECT
  5
19E08
102
{ACAD_REACTORS
330
19DF6
102
}
330
19DF6
100
AcDbZombieObject
 90
      499
 91
      511
 93
      257
310
90E312F31323822203D2031272D3022000000000000200FC000000000000284000
  0
ACAD_PROXY_OBJECT
  5
19E09
102
{ACAD_REACTORS
330
19DF6
102
}
330
19DF6
100
AcDbZombieObject
 90
      499
 91
      511
 93
      249
310
90D312F363422203D2031272D3022000000000000240FC000000000000284000
  0
ACAD_PROXY_OBJECT
  5
19E0A
102
{ACAD_REACTORS
330
19DF6
102
}
330
19DF6
100
AcDbZombieObject
 90
      499
 91
      511
 93
      249
310
90D312F333222203D2031272D3022000000000000280FC000000000000284000
  0
ACAD_PROXY_OBJECT
  5
19E0B
102
{ACAD_REACTORS
330
19DF6
102
}
330
19DF6
100
AcDbZombieObject
 90
      499
 91
      511
 93
      249
310
90D312F313622203D2031272D30220000000000002C0FC000000000000284000
  0
ACAD_PROXY_OBJECT
  5
19E0C
102
{ACAD_REACTORS
330
19DF6
102
}
330
19DF6
100
AcDbZombieObject
 90
      499
 91
      511
 93
      249
310
90D332F333222203D2031272D30220000000000002E0FC000000000000284000
  0
ACAD_PROXY_OBJECT
  5
19E0D
102
{ACAD_REACTORS
330
19DF6
102
}
330
19DF6
100
AcDbZombieObject
 90
      499
 91
      511
 93
      241
310
90C312F3822203D2031272D3022000000000000300FC000000000000284000
  0
ACAD_PROXY_OBJECT
  5
19E0E
102
{ACAD_REACTORS
330
19DF6
102
}
330
19DF6
100
AcDbZombieObject
 90
      499
 91
      511
 93
      249
310
90D332F313622203D2031272D3022000000000000320FC000000000000284000
  0
ACAD_PROXY_OBJECT
  5
19E0F
102
{ACAD_REACTORS
330
19DF6
102
}
330
19DF6
100
AcDbZombieObject
 90
      499
 91
      511
 93
      241
310
90C312F3422203D2031272D3022000000000000340FC000000000000284000
  0
ACAD_PROXY_OBJECT
  5
19E10
102
{ACAD_REACTORS
330
19DF6
102
}
330
19DF6
100
AcDbZombieObject
 90
      499
 91
      511
 93
      241
310
90C332F3822203D2031272D3022000000000000360FC000000000000284000
  0
ACAD_PROXY_OBJECT
  5
19E11
102
{ACAD_REACTORS
330
19DF6
102
}
330
19DF6
100
AcDbZombieObject
 90
      499
 91
      511
 93
      241
310
90C312F3222203D2031272D3022000000000000380FC000000000000284000
  0
ACAD_PROXY_OBJECT
  5
19E12
102
{ACAD_REACTORS
330
19DF6
102
}
330
19DF6
100
AcDbZombieObject
 90
      499
 91
      511
 93
      241
310
90C332F3422203D2031272D30220000000000003A0FC000000000000284000
  0
ACAD_PROXY_OBJECT
  5
19E13
102
{ACAD_REACTORS
330
19DF6
102
}
330
19DF6
100
AcDbZombieObject
 90
      499
 91
      511
 93
      161
310
90A3122203D2031272D30224000000000000284000
  0
ACAD_PROXY_OBJECT
  5
19E14
102
{ACAD_REACTORS
330
19DF6
102
}
330
19DF6
100
AcDbZombieObject
 90
      499
 91
      511
 93
      257
310
90E312D312F3222203D2031272D30220000000000003E0FC000000000000284000
  0
ACAD_PROXY_OBJECT
  5
19E15
102
{ACAD_REACTORS
330
19DF6
102
}
330
19DF6
100
AcDbZombieObject
 90
      499
 91
      511
 93
      225
310
90A3322203D2031272D302200000000000002100000000000000284000
  0
ACAD_PROXY_OBJECT
  5
19E16
102
{ACAD_REACTORS
330
19DF6
102
}
330
19DF6
100
AcDbZombieObject
 90
      499
 91
      511
 93
      225
310
90A3622203D2031272D302200000000000006100000000000000284000
  0
ACAD_PROXY_OBJECT
  5
19E17
102
{ACAD_REACTORS
330
19DF6
102
}
330
19DF6
100
AcDbZombieObject
 90
      499
 91
      511
 93
      249
310
90D31272D3022203D2031272D30220000000000000A100000000000000284000
  0
ACAD_PROXY_OBJECT
  5
19DEB
102
{ACAD_REACTORS
330
19DE5
102
}
330
19DE5
100
AcDbZombieObject
 90
      499
 91
      510
 93
      436
310
42CC9915DA5C99599C985B595049028333333333333E3BF0000000000000FB0107901411070040501600405405064090741402480A0340
1001
ACAD
1000
AcDbSavedByObjectVersion
1070
     0
  0
ACAD_PROXY_OBJECT
  5
19DED
102
{ACAD_REACTORS
330
19DE5
102
}
330
19DE5
100
AcDbZombieObject
 90
      499
 91
      510
 93
      500
310
424CD108121A5919195B90640502408333333333333E3BF0000000000000FB01079024090700405020000000000001110200405405064090740C02480A0340
1001
ACAD
1000
AcDbSavedByObjectVersion
1070
     0
  0
ACAD_PROXY_OBJECT
  5
19DEC
102
{ACAD_REACTORS
330
19DE5
102
}
330
19DE5
100
AcDbZombieObject
 90
      499
 91
      510
 93
      436
310
42CCD915DA5C99599C985B595059028333333333333E3BF0000000000000FB0107901411070040501600405405064090741402480A0340
1001
ACAD
1000
AcDbSavedByObjectVersion
1070
     0
  0
ACAD_PROXY_OBJECT
  5
19DEA
102
{ACAD_REACTORS
330
19DE5
102
}
330
19DE5
100
AcDbZombieObject
 90
      499
 91
      510
 93
      388
310
4150985CDA58D07406404333333333333E3BF0000000000000FB0107A41107004050150841D405064090741402480A0350
1001
ACAD
1000
AcDbSavedByObjectVersion
1070
     0
  0
ACAD_PROXY_OBJECT
  5
19DF1
102
{ACAD_REACTORS
330
19DE5
102
}
330
19DE5
100
AcDbZombieObject
 90
      499
 91
      510
 93
      428
310
42109C9A59DA1D195B90C409028333333333333E3BF0000000000000FB010790141107004050150841D405064090741402480A029950
1001
ACAD
1000
AcDbSavedByObjectVersion
1070
     0
  0
ACAD_PROXY_OBJECT
  5
19DF5
102
{ACAD_REACTORS
330
19DE5
102
}
330
19DE5
100
AcDbZombieObject
 90
      499
 91
      510
 93
      452
310
42D0DBDB1BDC90DA185B99D95104090240C333333333333E3BF0000000000000FB0108901411070040501508421405064090741402480A0350
1001
ACAD
1000
AcDbSavedByObjectVersion
1070
     0
  0
ACAD_PROXY_OBJECT
  5
19DEE
102
{ACAD_REACTORS
330
19DE5
102
}
330
19DE5
100
AcDbZombieObject
 90
      499
 91
      510
 93
      500
310
4290DBDB98D95C1D1D585B10940D028333333333333E3BF0000000000000FB0107902409070040501000000000000111010841D405064090740C02480A0340
1001
ACAD
1000
AcDbSavedByObjectVersion
1070
     0
  0
ACAD_PROXY_OBJECT
  5
19DF0
102
{ACAD_REACTORS
330
19DE5
102
}
330
19DE5
100
AcDbZombieObject
 90
      499
 91
      510
 93
      412
310
40D11A5B50B409028333333333333E3BF0000000000000FB010790141107004050150841D405064090741402480A02677FFFFFD0
1001
ACAD
1000
AcDbSavedByObjectVersion
1070
     0
  0
ACAD_PROXY_OBJECT
  5
1E02A
102
{ACAD_REACTORS
330
19DE5
102
}
330
19DE5
100
AcDbZombieObject
 90
      499
 91
      510
 93
      452
310
43115919D950DBDB1BDC93D999916409028333333333333E3BF0000000000000FB010790141107004050150841D405064090741402480A0350
1001
ACAD
1000
AcDbSavedByObjectVersion
1070
     0
  0
ACAD_PROXY_OBJECT
  5
19DF4
102
{ACAD_REACTORS
330
19DE5
102
}
330
19DE5
100
AcDbZombieObject
 90
      499
 91
      510
 93
      444
310
42D19858D95C185D1D195C9B90F409028333333333333E3BF0000000000000FB010790141107004050150841D405064090741402480A0350
1001
ACAD
1000
AcDbSavedByObjectVersion
1070
     0
  0
ACAD_PROXY_OBJECT
  5
19DE6
102
{ACAD_REACTORS
330
19DE5
102
}
330
19DE5
100
AcDbZombieObject
 90
      499
 91
      510
 93
      388
310
41119B185D240901404333333333333E3BF0000000000000F9010740A41107004050150841D405064090741402480A1B50
1001
ACAD
1000
AcDbSavedByObjectVersion
1070
     0
  0
ACAD_PROXY_OBJECT
  5
19DE7
102
{ACAD_REACTORS
330
19DE5
102
}
330
19DE5
100
AcDbZombieObject
 90
      499
 91
      510
 93
      476
310
43519B185D15DA5D1A115919D95CD0140901404333333333333E3BF0000000000000F9010740901411070040501600405405064090741402480A1B50
1001
ACAD
1000
AcDbSavedByObjectVersion
1070
     0
  0
ACAD_PROXY_OBJECT
  5
19DE8
102
{ACAD_REACTORS
330
19DE5
102
}
330
19DE5
100
AcDbZombieObject
 90
      499
 91
      510
 93
      412
310
41D1DBDD5C985D5910240902404333333333333E3BF0000000000000F9010740A411070040501641D405064090741402480A1B50
1001
ACAD
1000
AcDbSavedByObjectVersion
1070
     0
  0
ACAD_PROXY_OBJECT
  5
19DE9
102
{ACAD_REACTORS
330
19DE5
102
}
330
19DE5
100
AcDbZombieObject
 90
      499
 91
      510
 93
      500
310
4411DBDD5C985D5915DA5D1A115919D95CD0340902404333333333333E3BF0000000000000F9010740901411070040501600405405064090741402480A1B50
1001
ACAD
1000
AcDbSavedByObjectVersion
1070
     0
  0
ACAD_PROXY_OBJECT
  5
1F554
102
{ACAD_REACTORS
330
19DE5
102
}
330
19DE5
100
AcDbZombieObject
 90
      499
 91
      510
 93
      476
310
41921A5919195B90640502408333333333333E3BF0000000000000FB01079024090700405020000000000001110200405405064090740C02480A0340
1001
ACAD
1000
AcDbSavedByObjectVersion
1070
     0
  0
ACAD_PROXY_OBJECT
  5
1E028
102
{ACAD_REACTORS
330
19DE5
102
}
330
19DE5
100
AcDbZombieObject
 90
      499
 91
      510
 93
      428
310
42529A5D1D195C93D999914409028333333333333E3BF0000000000000FB010790141107004050150A41D405064090741402480A0350
1001
ACAD
1000
AcDbSavedByObjectVersion
1070
     0
  0
ACAD_PROXY_OBJECT
  5
19DF3
102
{ACAD_REACTORS
330
19DE5
102
}
330
19DE5
100
AcDbZombieObject
 90
      499
 91
      510
 93
      444
310
42D31A5B995C185D1D195C9B90E409028333333333333E3BF0000000000000FB010790141107004050750841D405064090741402483A0350
1001
ACAD
1000
AcDbSavedByObjectVersion
1070
     0
  0
ACAD_PROXY_OBJECT
  5
1F55A
102
{ACAD_REACTORS
330
19DE5
102
}
330
19DE5
100
AcDbZombieObject
 90
      499
 91
      510
 93
      484
310
42135BD9195B1A5B99D0A409028333333333333E3BF0000000000000F901074090290700405010000000000201990108421405064090741402480A1B40
1001
ACAD
1000
AcDbSavedByObjectVersion
1070
     0
  0
ACAD_PROXY_OBJECT
  5
1E029
102
{ACAD_REACTORS
330
19DE5
102
}
330
19DE5
100
AcDbZombieObject
 90
      499
 91
      510
 93
      444
310
42D3DD995C9A185B99D3D999915409028333333333333E3BF0000000000000FB010790141107004050150941D405064090741402480A0350
1001
ACAD
1000
AcDbSavedByObjectVersion
1070
     0
  0
ACAD_PROXY_OBJECT
  5
19DEF
102
{ACAD_REACTORS
330
19DE5
102
}
330
19DE5
100
AcDbZombieObject
 90
      499
 91
      510
 93
      420
310
425499585B1A5CDD1A58D08409028333333333333E3BF0000000000000FB01079019070040501508421405064090741402480A1B40
1001
ACAD
1000
AcDbSavedByObjectVersion
1070
     0
  0
ACAD_PROXY_OBJECT
  5
1F559
102
{ACAD_REACTORS
330
19DE5
102
}
330
19DE5
100
AcDbZombieObject
 90
      499
 91
      510
 93
      420
310
4194DA1859195911B40902404333333333333E3BF0000000000000F9010740A41107004050150800405405064090840C02480A0B40
1001
ACAD
1000
AcDbSavedByObjectVersion
1070
     0
  0
ACAD_PROXY_OBJECT
  5
1F558
102
{ACAD_REACTORS
330
19DE5
102
}
330
19DE5
100
AcDbZombieObject
 90
      499
 91
      510
 93
      516
310
4454DA18591959081DDA5D1A08195919D95CD1A40902404333333333333E3BF0000000000000F901074090142907004050250800405405064090740C02480A0B40
1001
ACAD
1000
AcDbSavedByObjectVersion
1070
     0
  0
ACAD_PROXY_OBJECT
  5
1F555
102
{ACAD_REACTORS
330
19DE5
102
}
330
19DE5
100
AcDbZombieObject
 90
      499
 91
      510
 93
      532
310
4394DA1859195CC81BD98811DC985E5174090240C333333333333E3BF0000000000000FB01079024090741D01000000000000111010841D405064090740C02480A0340
1001
ACAD
1000
AcDbSavedByObjectVersion
1070
     0
  0
ACAD_PROXY_OBJECT
  5
1F556
102
{ACAD_REACTORS
330
19DE5
102
}
330
19DE5
100
AcDbZombieObject
 90
      499
 91
      510
 93
      476
310
41D4DAD95D18DA1E51840502408333333333333E3BF0000000000000FB01079024090741D01000000000000111010B41D405064090741802480A0340
1001
ACAD
1000
AcDbSavedByObjectVersion
1070
     0
  0
ACAD_PROXY_OBJECT
  5
19DF2
102
{ACAD_REACTORS
330
19DE5
102
}
330
19DE5
100
AcDbZombieObject
 90
      499
 91
      510
 93
      412
310
41D51A1A58DAD95B90D409028333333333333E3BF0000000000000FB010790141107004050150C41D405064090741402480A0350
1001
ACAD
1000
AcDbSavedByObjectVersion
1070
     0
  0
ACAD_PROXY_OBJECT
  5
1F553
102
{ACAD_REACTORS
330
19DE5
102
}
330
19DE5
100
AcDbZombieObject
 90
      499
 91
      510
 93
      420
310
4255DA5C99599C985B595059028333333333333E3BF0000000000000FB0107901411070040501600405405064090740C02480A0340
1001
ACAD
1000
AcDbSavedByObjectVersion
1070
     0
  0
ACAD_PROXY_OBJECT
  5
1F557
102
{ACAD_REACTORS
330
19DE5
102
}
330
19DE5
100
AcDbZombieObject
 90
      499
 91
      510
 93
      404
310
41560B54985E51940902404000000000000E03F0000000000000FB010740501907004050150841D405064090740C02480A1B40
1001
ACAD
1000
AcDbSavedByObjectVersion
1070
     0
  0
XRECORD
  5
2122E
102
{ACAD_REACTORS
330
2122D
102
}
330
2122D
100
AcDbXrecord
340
2D0
  0
XRECORD
  5
2122F
102
{ACAD_REACTORS
330
2122D
102
}
330
2122D
100
AcDbXrecord
340
2CF
  0
DICTIONARYVAR
  5
1FD1B
102
{ACAD_REACTORS
330
37
102
}
330
37
100
DictionaryVariables
280
     0
  1
1:1
  0
DICTIONARYVAR
  5
1AC19
102
{ACAD_REACTORS
330
37
102
}
330
37
100
DictionaryVariables
280
     0
  1
Standard
  0
DICTIONARYVAR
  5
4F1
102
{ACAD_REACTORS
330
37
102
}
330
37
100
DictionaryVariables
280
     0
  1
Standard
  0
DICTIONARYVAR
  5
38
102
{ACAD_REACTORS
330
37
102
}
330
37
100
DictionaryVariables
280
     0
  1
-1
  0
DICTIONARYVAR
  5
408
102
{ACAD_REACTORS
330
37
102
}
330
37
100
DictionaryVariables
280
     0
  1
2
  0
DICTIONARYVAR
  5
1891
102
{ACAD_REACTORS
330
37
102
}
330
37
100
DictionaryVariables
280
     0
  1
1
  0
DICTIONARYVAR
  5
1AC1C
102
{ACAD_REACTORS
330
37
102
}
330
37
100
DictionaryVariables
280
     0
  1
0
  0
DICTIONARYVAR
  5
1895
102
{ACAD_REACTORS
330
37
102
}
330
37
100
DictionaryVariables
280
     0
  1
8
  0
DICTIONARYVAR
  5
1894
102
{ACAD_REACTORS
330
37
102
}
330
37
100
DictionaryVariables
280
     0
  1
1
  0
DICTIONARYVAR
  5
1FD71
102
{ACAD_REACTORS
330
37
102
}
330
37
100
DictionaryVariables
280
     0
  1
0
  0
DICTIONARYVAR
  5
1892
102
{ACAD_REACTORS
330
37
102
}
330
37
100
DictionaryVariables
280
     0
  1
8
  0
DICTIONARYVAR
  5
1893
102
{ACAD_REACTORS
330
37
102
}
330
37
100
DictionaryVariables
280
     0
  1
2
  0
DICTIONARYVAR
  5
409
102
{ACAD_REACTORS
330
37
102
}
330
37
100
DictionaryVariables
280
     0
  1

  0
DICTIONARYVAR
  5
1AC1B
102
{ACAD_REACTORS
330
37
102
}
330
37
100
DictionaryVariables
280
     0
  1
127
  0
DICTIONARYVAR
  5
20FBD
102
{ACAD_REACTORS
330
37
102
}
330
37
100
DictionaryVariables
280
     0
  1
2
  0
DICTIONARY
  5
213CB
330
19DD5
100
AcDbDictionary
  3
ACAD_XREC_ROUNDTRIP
360
213CC
1001
ACAD
1000
TREAT_AS_HARD
1070
     1
  0
DICTIONARY
  5
213CD
330
19DCD
100
AcDbDictionary
  3
ACAD_XREC_ROUNDTRIP
360
213CE
1001
ACAD
1000
TREAT_AS_HARD
1070
     1
  0
DICTIONARY
  5
213CF
330
19DDD
100
AcDbDictionary
  3
ACAD_XREC_ROUNDTRIP
360
213D0
1001
ACAD
1000
TREAT_AS_HARD
1070
     1
  0
XRECORD
  5
213CC
102
{ACAD_REACTORS
330
213CB
102
}
330
213CB
100
AcDbXrecord
102
MATERIAL
148
0.0
149
0.0
149
0.0
 93
        0
 94
      127
282
     0
 72
     0
 77
     0
171
     0
175
     0
179
     0
273
     0
  0
XRECORD
  5
213CE
102
{ACAD_REACTORS
330
213CD
102
}
330
213CD
100
AcDbXrecord
102
MATERIAL
148
0.0
149
0.0
149
0.0
 93
        0
 94
      127
282
     0
 72
     0
 77
     0
171
     0
175
     0
179
     0
273
     0
  0
XRECORD
  5
213D0
102
{ACAD_REACTORS
330
213CF
102
}
330
213CF
100
AcDbXrecord
102
MATERIAL
148
0.0
149
0.0
149
0.0
 93
        0
 94
      127
282
     0
 72
     0
 77
     0
171
     0
175
     0
179
     0
273
     0
  0
ENDSEC
  0
EOF
