  0
SECTION
  2
HEADER
  9
$ACADVER
  1
AC1012
  9
$DWGCODEPAGE
  3
ansi_932
  9
$INSBASE
 10
0.0
 20
0.0
 30
0.0
  9
$EXTMIN
 10
226.2162416153581
 20
-703.5574428832454
 30
0.0
  9
$EXTMAX
 10
736.5824386439142
 20
-473.5509092340513
 30
0.0
  9
$LIMMIN
 10
0.0
 20
0.0
  9
$LIMMAX
 10
420.0
 20
297.0
  9
$ORTHOMODE
 70
     0
  9
$REGENMODE
 70
     1
  9
$FILLMODE
 70
     1
  9
$QTEXTMODE
 70
     0
  9
$MIRRTEXT
 70
     0
  9
$DRAGMODE
 70
     2
  9
$LTSCALE
 40
0.5
  9
$OSMODE
 70
  2175
  9
$ATTMODE
 70
     1
  9
$TEXTSIZE
 40
4.0
  9
$TRACEWID
 40
1.0
  9
$TEXTSTYLE
  7
STANDARD
  9
$CLAYER
  8
1TEXT
  9
$CELTYPE
  6
BYLAYER
  9
$CECOLOR
 62
   256
  9
$CELTSCALE
 40
1.0
  9
$DELOBJ
 70
     1
  9
$DISPSILH
 70
     0
  9
$DIMSCALE
 40
1.0
  9
$DIMASZ
 40
2.0
  9
$DIMEXO
 40
0.0
  9
$DIMDLI
 40
7.0
  9
$DIMRND
 40
0.0
  9
$DIMDLE
 40
0.0
  9
$DIMEXE
 40
1.0
  9
$DIMTP
 40
0.0
  9
$DIMTM
 40
0.0
  9
$DIMTXT
 40
3.5
  9
$DIMCEN
 40
0.0
  9
$DIMTSZ
 40
0.0
  9
$DIMTOL
 70
     0
  9
$DIMLIM
 70
     0
  9
$DIMTIH
 70
     0
  9
$DIMTOH
 70
     0
  9
$DIMSE1
 70
     0
  9
$DIMSE2
 70
     0
  9
$DIMTAD
 70
     1
  9
$DIMZIN
 70
     8
  9
$DIMBLK
  1

  9
$DIMASO
 70
     1
  9
$DIMSHO
 70
     1
  9
$DIMPOST
  1
 
  9
$DIMAPOST
  1

  9
$DIMALT
 70
     0
  9
$DIMALTD
 70
     2
  9
$DIMALTF
 40
25.4
  9
$DIMLFAC
 40
1.0
  9
$DIMTOFL
 70
     1
  9
$DIMTVP
 40
0.0
  9
$DIMTIX
 70
     0
  9
$DIMSOXD
 70
     0
  9
$DIMSAH
 70
     1
  9
$DIMBLK1
  1
OPEN30
  9
$DIMBLK2
  1
OPEN30
  9
$DIMSTYLE
  2
NEWX10
  9
$DIMCLRD
 70
   256
  9
$DIMCLRE
 70
   256
  9
$DIMCLRT
 70
   201
  9
$DIMTFAC
 40
0.7
  9
$DIMGAP
 40
0.7
  9
$DIMJUST
 70
     0
  9
$DIMSD1
 70
     0
  9
$DIMSD2
 70
     0
  9
$DIMTOLJ
 70
     1
  9
$DIMTZIN
 70
     8
  9
$DIMALTZ
 70
     0
  9
$DIMALTTZ
 70
     0
  9
$DIMFIT
 70
     2
  9
$DIMUPT
 70
     0
  9
$DIMUNIT
 70
     2
  9
$DIMDEC
 70
     2
  9
$DIMTDEC
 70
     4
  9
$DIMALTU
 70
     2
  9
$DIMALTTD
 70
     2
  9
$DIMTXSTY
  7
STANDARD
  9
$DIMAUNIT
 70
     0
  9
$LUNITS
 70
     2
  9
$LUPREC
 70
     4
  9
$SKETCHINC
 40
1.0
  9
$FILLETRAD
 40
0.0
  9
$AUNITS
 70
     0
  9
$AUPREC
 70
     2
  9
$MENU
  1
acad
  9
$ELEVATION
 40
0.0
  9
$PELEVATION
 40
0.0
  9
$THICKNESS
 40
0.0
  9
$LIMCHECK
 70
     0
  9
$CHAMFERA
 40
1.0
  9
$CHAMFERB
 40
1.0
  9
$CHAMFERC
 40
20.0
  9
$CHAMFERD
 40
0.0
  9
$SKPOLY
 70
     0
  9
$TDCREATE
 40
2453033.732663484
  9
$TDUPDATE
 40
2459111.636276042
  9
$TDINDWG
 40
2.3852055093
  9
$TDUSRTIMER
 40
2.3852055093
  9
$USRTIMER
 70
     1
  9
$ANGBASE
 50
0.0
  9
$ANGDIR
 70
     0
  9
$PDMODE
 70
     0
  9
$PDSIZE
 40
0.0
  9
$PLINEWID
 40
0.0
  9
$COORDS
 70
     2
  9
$SPLFRAME
 70
     0
  9
$SPLINETYPE
 70
     6
  9
$SPLINESEGS
 70
     8
  9
$ATTDIA
 70
     0
  9
$ATTREQ
 70
     1
  9
$HANDLING
 70
     1
  9
$HANDSEED
  5
2222B
  9
$SURFTAB1
 70
     6
  9
$SURFTAB2
 70
     6
  9
$SURFTYPE
 70
     6
  9
$SURFU
 70
     6
  9
$SURFV
 70
     6
  9
$UCSNAME
  2

  9
$UCSORG
 10
0.0
 20
0.0
 30
0.0
  9
$UCSXDIR
 10
1.0
 20
0.0
 30
0.0
  9
$UCSYDIR
 10
0.0
 20
1.0
 30
0.0
  9
$PUCSNAME
  2

  9
$PUCSORG
 10
0.0
 20
0.0
 30
0.0
  9
$PUCSXDIR
 10
1.0
 20
0.0
 30
0.0
  9
$PUCSYDIR
 10
0.0
 20
1.0
 30
0.0
  9
$USERI1
 70
     0
  9
$USERI2
 70
     0
  9
$USERI3
 70
     0
  9
$USERI4
 70
     0
  9
$USERI5
 70
     0
  9
$USERR1
 40
0.0
  9
$USERR2
 40
0.0
  9
$USERR3
 40
0.0
  9
$USERR4
 40
0.0
  9
$USERR5
 40
0.0
  9
$WORLDVIEW
 70
     1
  9
$SHADEDGE
 70
     3
  9
$SHADEDIF
 70
    70
  9
$TILEMODE
 70
     1
  9
$MAXACTVP
 70
    48
  9
$PINSBASE
 10
0.0
 20
0.0
 30
0.0
  9
$PLIMCHECK
 70
     0
  9
$PEXTMIN
 10
1.000000000000000E+20
 20
1.000000000000000E+20
 30
1.000000000000000E+20
  9
$PEXTMAX
 10
-1.000000000000000E+20
 20
-1.000000000000000E+20
 30
-1.000000000000000E+20
  9
$PLIMMIN
 10
0.0
 20
0.0
  9
$PLIMMAX
 10
420.0
 20
297.0
  9
$UNITMODE
 70
     0
  9
$VISRETAIN
 70
     1
  9
$PLINEGEN
 70
     0
  9
$PSLTSCALE
 70
     1
  9
$TREEDEPTH
 70
  3020
  9
$PICKSTYLE
 70
     1
  9
$CMLSTYLE
  2
STANDARD
  9
$CMLJUST
 70
     0
  9
$CMLSCALE
 40
20.0
  9
$SAVEIMAGES
 70
     1
  0
ENDSEC
  0
SECTION
  2
CLASSES
  0
CLASS
  1
DICTIONARYVAR
  2
AcDbDictionaryVar
  3
ObjectDBX Classes
 90
        0
280
     0
281
     0
  0
CLASS
  1
IDBUFFER
  2
AcDbIdBuffer
  3
ObjectDBX Classes
 90
    32768
280
     0
281
     0
  0
CLASS
  1
LWPOLYLINE
  2
AcDbPolyline
  3
ObjectDBX Classes
 90
    32768
280
     0
281
     1
  0
CLASS
  1
ACDBDICTIONARYWDFLT
  2
AcDbDictionaryWithDefault
  3
ObjectDBX Classes
 90
    32768
280
     0
281
     0
  0
CLASS
  1
ACDBPLACEHOLDER
  2
AcDbPlaceHolder
  3
ObjectDBX Classes
 90
        0
280
     0
281
     0
  0
CLASS
  1
LAYOUT
  2
AcDbLayout
  3
ObjectDBX Classes
 90
        0
280
     0
281
     0
  0
CLASS
  1
TABLESTYLE
  2
AcDbTableStyle
  3
ObjectDBX Classes
 90
     4095
280
     0
281
     0
  0
CLASS
  1
SORTENTSTABLE
  2
AcDbSortentsTable
  3
ObjectDBX Classes
 90
    32768
280
     0
281
     0
  0
CLASS
  1
DIMASSOC
  2
AcDbDimAssoc
  3
"AcDbDimAssoc|Product Desc:     AcDim ARX App For Dimension|Company:          Autodesk, Inc.|WEB Address:      www.autodesk.com"
 90
        0
280
     0
281
     0
  0
CLASS
  1
MATERIAL
  2
AcDbMaterial
  3
ObjectDBX Classes
 90
     1153
280
     0
281
     0
  0
CLASS
  1
VISUALSTYLE
  2
AcDbVisualStyle
  3
ObjectDBX Classes
 90
     4095
280
     0
281
     0
  0
CLASS
  1
SCALE
  2
AcDbScale
  3
ObjectDBX Classes
 90
     1153
280
     0
281
     0
  0
CLASS
  1
MLEADERSTYLE
  2
AcDbMLeaderStyle
  3
ACDB_MLEADERSTYLE_CLASS
 90
     4095
280
     0
281
     0
  0
CLASS
  1
CELLSTYLEMAP
  2
AcDbCellStyleMap
  3
ObjectDBX Classes
 90
     1152
280
     0
281
     0
  0
CLASS
  1
EXACXREFPANELOBJECT
  2
ExAcXREFPanelObject
  3
EXAC_ESW
 90
     1025
280
     1
281
     0
  0
CLASS
  1
NPOCOLLECTION
  2
AcDbImpNonPersistentObjectsCollection
  3
ObjectDBX Classes
 90
     1153
280
     1
281
     0
  0
CLASS
  1
SUN
  2
AcDbSun
  3
SCENEOE
 90
     1153
280
     0
281
     0
  0
CLASS
  1
XRECORD
  2
AcDbXrecord
  3
ObjectDBX Classes
 90
    32768
280
     0
281
     0
  0
CLASS
  1
HATCH
  2
AcDbHatch
  3
ObjectDBX Classes
 90
    32768
280
     0
281
     1
  0
ENDSEC
  0
SECTION
  2
TABLES
  0
TABLE
  2
VPORT
  5
8
330
0
100
AcDbSymbolTable
 70
     1
  0
VPORT
  5
19DC2
330
8
100
AcDbSymbolTableRecord
100
AcDbViewportTableRecord
  2
*ACTIVE
 70
     0
 10
0.0
 20
0.0
 11
1.0
 21
1.0
 12
481.3993401296361
 22
-588.5541760586483
 13
0.0
 23
0.0
 14
10.0
 24
10.0
 15
10.0
 25
10.0
 16
0.0
 26
0.0
 36
1.0
 17
0.0
 27
0.0
 37
0.0
 40
303.9112910273794
 41
1.803066037735849
 42
50.0
 43
0.0
 44
0.0
 50
0.0
 51
0.0
 71
    16
 72
   100
 73
     1
 74
     1
 75
     0
 76
     0
 77
     0
 78
     0
1001
ACAD_NAV_VCDISPLAY
1070
     3
  0
ENDTAB
  0
TABLE
  2
LTYPE
  5
5
330
0
100
AcDbSymbolTable
 70
     3
  0
LTYPE
  5
12
330
5
100
AcDbSymbolTableRecord
100
AcDbLinetypeTableRecord
  2
BYBLOCK
 70
     0
  3

 72
    65
 73
     0
 40
0.0
  0
LTYPE
  5
13
330
5
100
AcDbSymbolTableRecord
100
AcDbLinetypeTableRecord
  2
BYLAYER
 70
     0
  3

 72
    65
 73
     0
 40
0.0
  0
LTYPE
  5
14
330
5
100
AcDbSymbolTableRecord
100
AcDbLinetypeTableRecord
  2
CONTINUOUS
 70
     0
  3
Solid line
 72
    65
 73
     0
 40
0.0
  0
LTYPE
  5
26
330
5
100
AcDbSymbolTableRecord
100
AcDbLinetypeTableRecord
  2
CENTER2
 70
     0
  3
Center (.5x) ___ _ ___ _ ___ _ ___ _ ___ _ ___
 72
    65
 73
     4
 40
28.575
 49
19.05
 74
     0
 49
-3.175
 74
     0
 49
3.175
 74
     0
 49
-3.175
 74
     0
  0
LTYPE
  5
100
330
5
100
AcDbSymbolTableRecord
100
AcDbLinetypeTableRecord
  2
PHANTOM2
 70
     0
  3
Phantom (0.5x) ___ _ _ ___ _ _ ___ _ _ ___ _ _
 72
    65
 73
     6
 40
31.75
 49
15.875
 74
     0
 49
-3.175
 74
     0
 49
3.175
 74
     0
 49
-3.175
 74
     0
 49
3.175
 74
     0
 49
-3.175
 74
     0
  0
ENDTAB
  0
TABLE
  2
LAYER
  5
2
102
{ACAD_XDICTIONARY
360
18FE8
102
}
330
0
100
AcDbSymbolTable
 70
     7
  0
LAYER
  5
E
102
{ACAD_XDICTIONARY
360
1A20A
102
}
330
2
100
AcDbSymbolTableRecord
100
AcDbLayerTableRecord
  2
0
 70
     0
 62
     7
  6
CONTINUOUS
  0
LAYER
  5
29
102
{ACAD_XDICTIONARY
360
1A20C
102
}
330
2
100
AcDbSymbolTableRecord
100
AcDbLayerTableRecord
  2
1CENTER
 70
     0
 62
     7
  6
CENTER2
  0
LAYER
  5
31
102
{ACAD_XDICTIONARY
360
1A20E
102
}
330
2
100
AcDbSymbolTableRecord
100
AcDbLayerTableRecord
  2
1TEXT
 70
     0
 62
     7
  6
CONTINUOUS
  0
LAYER
  5
101
102
{ACAD_XDICTIONARY
360
1A218
102
}
330
2
100
AcDbSymbolTableRecord
100
AcDbLayerTableRecord
  2
1DIM
 70
     0
 62
     7
  6
CONTINUOUS
  0
LAYER
  5
103
102
{ACAD_XDICTIONARY
360
1A21C
102
}
330
2
100
AcDbSymbolTableRecord
100
AcDbLayerTableRecord
  2
1PHANTOM
 70
     0
 62
     7
  6
PHANTOM2
  0
LAYER
  5
25F
102
{ACAD_XDICTIONARY
360
1A220
102
}
330
2
100
AcDbSymbolTableRecord
100
AcDbLayerTableRecord
  2
01
 70
     0
 62
     1
  6
CONTINUOUS
  0
LAYER
  5
26A
102
{ACAD_XDICTIONARY
360
1A236
102
}
330
2
100
AcDbSymbolTableRecord
100
AcDbLayerTableRecord
  2
1DIM1
 70
     0
 62
     7
  6
CONTINUOUS
  0
ENDTAB
  0
TABLE
  2
STYLE
  5
3
330
0
100
AcDbSymbolTable
 70
     1
  0
STYLE
  5
F
330
3
100
AcDbSymbolTableRecord
100
AcDbTextStyleTableRecord
  2
STANDARD
 70
     0
 40
0.0
 41
1.0
 50
0.0
 71
     0
 42
4.0
  3
txt.shx
  4
extfont.shx
  0
ENDTAB
  0
TABLE
  2
VIEW
  5
6
330
0
100
AcDbSymbolTable
 70
     0
  0
ENDTAB
  0
TABLE
  2
UCS
  5
7
330
0
100
AcDbSymbolTable
 70
     0
  0
ENDTAB
  0
TABLE
  2
APPID
  5
9
330
0
100
AcDbSymbolTable
 70
    20
  0
APPID
  5
10
330
9
100
AcDbSymbolTableRecord
100
AcDbRegAppTableRecord
  2
ACAD
 70
     0
  0
APPID
  5
21
330
9
100
AcDbSymbolTableRecord
100
AcDbRegAppTableRecord
  2
DRAWINGVARIABLESXDATA
 70
     0
  0
APPID
  5
64
330
9
100
AcDbSymbolTableRecord
100
AcDbRegAppTableRecord
  2
CONTENTTABDATA
 70
     0
  0
APPID
  5
65
330
9
100
AcDbSymbolTableRecord
100
AcDbRegAppTableRecord
  2
CONTENTCURRENTTAB
 70
     0
  0
APPID
  5
66
330
9
100
AcDbSymbolTableRecord
100
AcDbRegAppTableRecord
  2
CONTENTBLOCKDESCRIPTION
 70
     0
  0
APPID
  5
67
330
9
100
AcDbSymbolTableRecord
100
AcDbRegAppTableRecord
  2
CONTENTBLOCKICON
 70
     0
  0
APPID
  5
68
330
9
100
AcDbSymbolTableRecord
100
AcDbRegAppTableRecord
  2
CONTENTLONGBLOCKNAME
 70
     0
  0
APPID
  5
5A9
330
9
100
AcDbSymbolTableRecord
100
AcDbRegAppTableRecord
  2
ACAD_PSEXT
 70
     0
  0
APPID
  5
18AC
330
9
100
AcDbSymbolTableRecord
100
AcDbRegAppTableRecord
  2
ACAD_DSTYLE_DIMTEXT_FILL
 70
     0
  0
APPID
  5
19E1A
330
9
100
AcDbSymbolTableRecord
100
AcDbRegAppTableRecord
  2
ACAD_MLEADERVER
 70
     0
  0
APPID
  5
1A2FA
330
9
100
AcDbSymbolTableRecord
100
AcDbRegAppTableRecord
  2
ACAD_DSTYLE_DIMRADIAL_EXTE
 70
     0
  0
APPID
  5
1DBC1
330
9
100
AcDbSymbolTableRecord
100
AcDbRegAppTableRecord
  2
ACADANNOTATIVE
 70
     0
  0
APPID
  5
1E991
330
9
100
AcDbSymbolTableRecord
100
AcDbRegAppTableRecord
  2
ACAD_EXEMPT_FROM_CAD_STAND
 70
     0
  0
APPID
  5
202C7
330
9
100
AcDbSymbolTableRecord
100
AcDbRegAppTableRecord
  2
ACDBBLOCKREPETAG
 70
     0
  0
APPID
  5
20AA7
330
9
100
AcDbSymbolTableRecord
100
AcDbRegAppTableRecord
  2
ACAD_OBJECT_CHANGE_GUID
 70
     0
  0
APPID
  5
20B32
330
9
100
AcDbSymbolTableRecord
100
AcDbRegAppTableRecord
  2
ACAD_NAV_VCDISPLAY
 70
     0
  0
APPID
  5
20BBB
330
9
100
AcDbSymbolTableRecord
100
AcDbRegAppTableRecord
  2
ACLAYERTOOLS
 70
     0
  0
APPID
  5
20BBC
330
9
100
AcDbSymbolTableRecord
100
AcDbRegAppTableRecord
  2
ACAD_SPLINE_DATA
 70
     0
  0
APPID
  5
20BBD
330
9
100
AcDbSymbolTableRecord
100
AcDbRegAppTableRecord
  2
GRADIENTCOLOR1ACI
 70
     0
  0
APPID
  5
20BBE
330
9
100
AcDbSymbolTableRecord
100
AcDbRegAppTableRecord
  2
GRADIENTCOLOR2ACI
 70
     0
  0
ENDTAB
  0
TABLE
  2
DIMSTYLE
  5
A
330
0
100
AcDbSymbolTable
 70
     1
  0
DIMSTYLE
105
48
330
A
100
AcDbSymbolTableRecord
100
AcDbDimStyleTableRecord
  2
NEWX10
 70
     0
  3
 
  4

  5

  6
OPEN30
  7
OPEN30
 40
1.0
 41
2.0
 42
0.0
 43
7.0
 44
1.0
 45
0.0
 46
0.0
 47
0.0
 48
0.0
140
3.5
141
0.0
142
0.0
143
25.4
144
1.0
145
0.0
146
0.7
147
0.7
 71
     0
 72
     0
 73
     0
 74
     0
 75
     0
 76
     0
 77
     1
 78
     8
170
     0
171
     2
172
     1
173
     1
174
     0
175
     0
176
   256
177
   256
178
   201
179
     2
270
     2
271
     2
272
     4
273
     2
274
     2
340
F
275
     0
280
     0
281
     0
282
     0
283
     1
284
     8
285
     0
286
     0
287
     2
288
     0
  0
ENDTAB
  0
TABLE
  2
BLOCK_RECORD
  5
1
330
0
100
AcDbSymbolTable
 70
     8
  0
BLOCK_RECORD
  5
18
102
{ACAD_XDICTIONARY
360
6E9
102
}
330
1
100
AcDbSymbolTableRecord
100
AcDbBlockTableRecord
  2
*MODEL_SPACE
  0
BLOCK_RECORD
  5
15
102
{ACAD_XDICTIONARY
360
59B
102
}
330
1
100
AcDbSymbolTableRecord
100
AcDbBlockTableRecord
  2
*PAPER_SPACE
  0
BLOCK_RECORD
  5
42
330
1
100
AcDbSymbolTableRecord
100
AcDbBlockTableRecord
  2
_OPEN30
  0
BLOCK_RECORD
  5
20316
330
1
100
AcDbSymbolTableRecord
100
AcDbBlockTableRecord
  2
A3WAKUKAWAJUN2017_HYOUDAI_
  0
BLOCK_RECORD
  5
2208B
330
1
100
AcDbSymbolTableRecord
100
AcDbBlockTableRecord
  2
*X47
  0
BLOCK_RECORD
  5
220D9
330
1
100
AcDbSymbolTableRecord
100
AcDbBlockTableRecord
  2
*X48
  0
BLOCK_RECORD
  5
2212B
330
1
100
AcDbSymbolTableRecord
100
AcDbBlockTableRecord
  2
*X49
  0
BLOCK_RECORD
  5
2217C
330
1
100
AcDbSymbolTableRecord
100
AcDbBlockTableRecord
  2
*X50
  0
BLOCK_RECORD
  5
221B9
330
1
100
AcDbSymbolTableRecord
100
AcDbBlockTableRecord
  2
*X51
  0
BLOCK_RECORD
  5
221F9
330
1
100
AcDbSymbolTableRecord
100
AcDbBlockTableRecord
  2
*X52
  0
ENDTAB
  0
ENDSEC
  0
SECTION
  2
BLOCKS
  0
BLOCK
  5
19
330
18
100
AcDbEntity
  8
0
100
AcDbBlockBegin
  2
*MODEL_SPACE
 70
     0
 10
0.0
 20
0.0
 30
0.0
  3
*MODEL_SPACE
  1

  0
ENDBLK
  5
1A
330
18
100
AcDbEntity
  8
0
100
AcDbBlockEnd
  0
BLOCK
  5
16
330
15
100
AcDbEntity
 67
     1
  8
0
100
AcDbBlockBegin
  2
*PAPER_SPACE
 70
     0
 10
0.0
 20
0.0
 30
0.0
  3
*PAPER_SPACE
  1

  0
ENDBLK
  5
17
330
15
100
AcDbEntity
 67
     1
  8
0
100
AcDbBlockEnd
  0
BLOCK
  5
43
330
42
100
AcDbEntity
  8
0
100
AcDbBlockBegin
  2
_OPEN30
 70
     0
 10
0.0
 20
0.0
 30
0.0
  3
_OPEN30
  1

  0
LINE
  5
44
330
42
100
AcDbEntity
  8
0
  6
BYBLOCK
 62
     0
100
AcDbLine
 10
-1.0
 20
0.26794919
 30
0.0
 11
0.0
 21
0.0
 31
0.0
  0
LINE
  5
45
330
42
100
AcDbEntity
  8
0
  6
BYBLOCK
 62
     0
100
AcDbLine
 10
0.0
 20
0.0
 30
0.0
 11
-1.0
 21
-0.26794919
 31
0.0
  0
LINE
  5
46
330
42
100
AcDbEntity
  8
0
  6
BYBLOCK
 62
     0
100
AcDbLine
 10
0.0
 20
0.0
 30
0.0
 11
-1.0
 21
0.0
 31
0.0
  0
ENDBLK
  5
47
330
42
100
AcDbEntity
  8
0
100
AcDbBlockEnd
  0
BLOCK
  5
20A15
330
20316
100
AcDbEntity
  8
0
100
AcDbBlockBegin
  2
A3WAKUKAWAJUN2017_HYOUDAI_
 70
     0
 10
0.0
 20
0.0
 30
0.0
  3
A3WAKUKAWAJUN2017_HYOUDAI_
  1

  0
LINE
  5
20318
330
20316
100
AcDbEntity
  8
0
100
AcDbLine
 10
13.26299999998673
 20
-0.0001000000000317
 30
0.0
 11
9.236999999990758
 21
8.999899999990987
 31
0.0
1001
ACAD
1000
ASC_BOUNDS
1002
{
1070
    19
1005
20359
1002
}
  0
LINE
  5
20319
330
20316
100
AcDbEntity
  8
0
100
AcDbLine
 10
5.657999999994331
 20
0.9999999999989768
 30
0.0
 11
9.236999999990758
 21
8.999999999991019
 31
0.0
1001
ACAD
1000
ASC_BOUNDS
1002
{
1070
    19
1005
20359
1002
}
  0
LINE
  5
2031A
330
20316
100
AcDbEntity
  8
0
100
AcDbLine
 10
18.59199999998134
 20
-0.2368999999997641
 30
0.0
 11
16.46099999998353
 21
5.432899999994561
 31
0.0
1001
ACAD
1000
ASC_BOUNDS
1002
{
1070
    19
1005
2035A
1002
}
  0
LINE
  5
2031B
330
20316
100
AcDbEntity
  8
0
100
AcDbLine
 10
18.59199999998134
 20
-0.2368999999997641
 30
0.0
 11
22.38199999997767
 21
8.763099999991255
 31
0.0
1001
ACAD
1000
ASC_BOUNDS
1002
{
1070
    19
1005
2035A
1002
}
  0
LINE
  5
2031C
330
20316
100
AcDbEntity
  8
0
100
AcDbLine
 10
14.32899999998563
 20
-0.2368999999997641
 30
0.0
 11
16.46099999998353
 21
5.432899999994561
 31
0.0
1001
ACAD
1000
ASC_BOUNDS
1002
{
1070
    19
1005
2035A
1002
}
  0
LINE
  5
2031D
330
20316
100
AcDbEntity
  8
0
100
AcDbLine
 10
14.32899999998563
 20
-0.2368999999997641
 30
0.0
 11
10.53899999998941
 21
8.763099999991255
 31
0.0
1001
ACAD
1000
ASC_BOUNDS
1002
{
1070
    19
1005
2035A
1002
}
  0
LINE
  5
2031E
330
20316
100
AcDbEntity
  8
0
100
AcDbLine
 10
19.53899999998043
 20
-0.0001000000000317
 30
0.0
 11
23.56599999997638
 21
8.999899999990987
 31
0.0
1001
ACAD
1000
ASC_BOUNDS
1002
{
1070
    19
1005
2035B
1002
}
  0
LINE
  5
2031F
330
20316
100
AcDbEntity
  8
0
100
AcDbLine
 10
26.97358892824991
 20
1.383099999991202
 30
0.0
 11
23.56599999997638
 21
8.999899999990987
 31
0.0
1001
ACAD
1000
ASC_BOUNDS
1002
{
1070
    19
1005
2035B
1002
}
  0
LINE
  5
20320
330
20316
100
AcDbEntity
  8
0
100
AcDbLine
 10
5.657999999994331
 20
0.9999999999989768
 30
0.0
 11
3.181999999996833
 21
4.668599999995308
 31
0.0
1001
ACAD
1000
ASC_BOUNDS
1002
{
1070
    19
1005
20359
1002
}
  0
LINE
  5
20321
330
20316
100
AcDbEntity
  8
0
100
AcDbLine
 10
4.617999999995391
 20
-0.0001000000000317
 30
0.0
 11
1.420999999998571
 21
4.736799999995242
 31
0.0
1001
ACAD
1000
ASC_BOUNDS
1002
{
1070
    19
1005
20359
1002
}
  0
LINE
  5
20322
330
20316
100
AcDbEntity
  8
0
100
AcDbLine
 10
1.420999999998571
 20
8.763099999991255
 30
0.0
 11
1.420999999998571
 21
0.0
 31
0.0
1001
ACAD
1000
ASC_BOUNDS
1002
{
1070
    19
1005
2035E
1002
}
  0
LINE
  5
20323
330
20316
100
AcDbEntity
  8
0
100
AcDbLine
 10
0.0
 20
8.763099999991255
 30
0.0
 11
0.0
 21
0.0
 31
0.0
1001
ACAD
1000
ASC_BOUNDS
1002
{
1070
    19
1005
2035E
1002
}
  0
LINE
  5
20324
330
20316
100
AcDbEntity
  8
0
100
AcDbLine
 10
6.766999999993232
 20
-0.0001000000000317
 30
0.0
 11
7.826999999992154
 21
2.368399999997621
 31
0.0
1001
ACAD
1000
ASC_BOUNDS
1002
{
1070
    19
1005
20359
1002
}
  0
LINE
  5
20325
330
20316
100
AcDbEntity
  8
0
100
AcDbLine
 10
0.0
 20
0.0
 30
0.0
 11
1.420999999998571
 21
0.0
 31
0.0
1001
ACAD
1000
ASC_BOUNDS
1002
{
1070
    19
1005
2035E
1002
}
  0
LINE
  5
20326
330
20316
100
AcDbEntity
  8
0
100
AcDbLine
 10
4.617999999995391
 20
0.0
 30
0.0
 11
6.766999999993232
 21
0.0
 31
0.0
1001
ACAD
1000
ASC_BOUNDS
1002
{
1070
    19
1005
20359
1002
}
  0
LINE
  5
20327
330
20316
100
AcDbEntity
  8
0
100
AcDbLine
 10
11.70599999998831
 20
-0.0001000000000317
 30
0.0
 11
10.64699999998936
 21
2.368399999997621
 31
0.0
1001
ACAD
1000
ASC_BOUNDS
1002
{
1070
    19
1005
20359
1002
}
  0
LINE
  5
20328
330
20316
100
AcDbEntity
  8
0
100
AcDbLine
 10
7.826999999992154
 20
2.368399999997621
 30
0.0
 11
10.64699999998936
 21
2.368399999997621
 31
0.0
1001
ACAD
1000
ASC_BOUNDS
1002
{
1070
    19
1005
20359
1002
}
  0
LINE
  5
20329
330
20316
100
AcDbEntity
  8
0
100
AcDbLine
 10
11.70599999998831
 20
0.0
 30
0.0
 11
13.26299999998673
 21
0.0
 31
0.0
1001
ACAD
1000
ASC_BOUNDS
1002
{
1070
    19
1005
20359
1002
}
  0
LINE
  5
2032A
330
20316
100
AcDbEntity
  8
0
100
AcDbLine
 10
22.15599999997789
 20
2.368399999997621
 30
0.0
 11
24.97599999997499
 21
2.368399999997621
 31
0.0
1001
ACAD
1000
ASC_BOUNDS
1002
{
1070
    19
1005
2035B
1002
}
  0
LINE
  5
2032B
330
20316
100
AcDbEntity
  8
0
100
AcDbLine
 10
19.53899999998043
 20
0.0
 30
0.0
 11
21.09599999997886
 21
0.0
 31
0.0
1001
ACAD
1000
ASC_BOUNDS
1002
{
1070
    19
1005
2035B
1002
}
  0
LINE
  5
2032C
330
20316
100
AcDbEntity
  8
0
100
AcDbLine
 10
21.09599999997886
 20
-0.0001000000000317
 30
0.0
 11
22.15599999997789
 21
2.368399999997621
 31
0.0
1001
ACAD
1000
ASC_BOUNDS
1002
{
1070
    19
1005
2035B
1002
}
  0
LINE
  5
2032D
330
20316
100
AcDbEntity
  8
0
100
AcDbLine
 10
26.02015566812236
 20
0.0330999999912365
 30
0.0
 11
24.97599999997499
 21
2.368399999997621
 31
0.0
1001
ACAD
1000
ASC_BOUNDS
1002
{
1070
    19
1005
2035B
1002
}
  0
LINE
  5
2032E
330
20316
100
AcDbEntity
  8
0
100
AcDbLine
 10
14.32399999998563
 20
3.315799999996671
 30
0.0
 11
16.46099999998353
 21
8.999899999990987
 31
0.0
1001
ACAD
1000
ASC_BOUNDS
1002
{
1070
    19
1005
2035A
1002
}
  0
LINE
  5
2032F
330
20316
100
AcDbEntity
  8
0
100
AcDbLine
 10
6.432999999993513
 20
8.763099999991255
 30
0.0
 11
3.181999999996833
 21
4.668599999995308
 31
0.0
1001
ACAD
1000
ASC_BOUNDS
1002
{
1070
    19
1005
20359
1002
}
  0
LINE
  5
20330
330
20316
100
AcDbEntity
  8
0
100
AcDbLine
 10
4.617999999995391
 20
8.763099999991255
 30
0.0
 11
1.420999999998571
 21
4.736799999995242
 31
0.0
1001
ACAD
1000
ASC_BOUNDS
1002
{
1070
    19
1005
20359
1002
}
  0
LINE
  5
20331
330
20316
100
AcDbEntity
  8
0
100
AcDbLine
 10
0.0
 20
8.763099999991255
 30
0.0
 11
1.420999999998571
 21
8.763099999991255
 31
0.0
1001
ACAD
1000
ASC_BOUNDS
1002
{
1070
    19
1005
2035E
1002
}
  0
LINE
  5
20332
330
20316
100
AcDbEntity
  8
0
100
AcDbLine
 10
4.617999999995391
 20
8.763099999991255
 30
0.0
 11
6.432999999993513
 21
8.763099999991255
 31
0.0
1001
ACAD
1000
ASC_BOUNDS
1002
{
1070
    19
1005
20359
1002
}
  0
LINE
  5
20333
330
20316
100
AcDbEntity
  8
0
100
AcDbLine
 10
14.32399999998563
 20
3.315799999996671
 30
0.0
 11
12.02999999998792
 21
8.763099999991255
 31
0.0
1001
ACAD
1000
ASC_BOUNDS
1002
{
1070
    19
1005
2035A
1002
}
  0
LINE
  5
20334
330
20316
100
AcDbEntity
  8
0
100
AcDbLine
 10
10.06399999998996
 20
3.670999999996297
 30
0.0
 11
9.236999999990758
 21
5.5200999999945
 31
0.0
1001
ACAD
1000
ASC_BOUNDS
1002
{
1070
    19
1005
20359
1002
}
  0
LINE
  5
20335
330
20316
100
AcDbEntity
  8
0
100
AcDbLine
 10
8.409999999991555
 20
3.670999999996297
 30
0.0
 11
9.236999999990758
 21
5.5200999999945
 31
0.0
1001
ACAD
1000
ASC_BOUNDS
1002
{
1070
    19
1005
20359
1002
}
  0
LINE
  5
20336
330
20316
100
AcDbEntity
  8
0
100
AcDbLine
 10
8.409999999991555
 20
3.670999999996297
 30
0.0
 11
10.06399999998996
 21
3.670999999996297
 31
0.0
1001
ACAD
1000
ASC_BOUNDS
1002
{
1070
    19
1005
20359
1002
}
  0
LINE
  5
20337
330
20316
100
AcDbEntity
  8
0
100
AcDbLine
 10
10.53899999998941
 20
8.763099999991255
 30
0.0
 11
12.02999999998792
 21
8.763099999991255
 31
0.0
1001
ACAD
1000
ASC_BOUNDS
1002
{
1070
    19
1005
2035A
1002
}
  0
LINE
  5
20338
330
20316
100
AcDbEntity
  8
0
100
AcDbLine
 10
22.7389999999773
 20
3.670999999996297
 30
0.0
 11
23.56599999997638
 21
5.5200999999945
 31
0.0
1001
ACAD
1000
ASC_BOUNDS
1002
{
1070
    19
1005
2035B
1002
}
  0
LINE
  5
20339
330
20316
100
AcDbEntity
  8
0
100
AcDbLine
 10
22.7389999999773
 20
3.670999999996297
 30
0.0
 11
24.39299999997559
 21
3.670999999996297
 31
0.0
1001
ACAD
1000
ASC_BOUNDS
1002
{
1070
    19
1005
2035B
1002
}
  0
LINE
  5
2033A
330
20316
100
AcDbEntity
  8
0
100
AcDbLine
 10
18.59799999998143
 20
3.315799999996671
 30
0.0
 11
20.89099999997916
 21
8.763099999991255
 31
0.0
1001
ACAD
1000
ASC_BOUNDS
1002
{
1070
    19
1005
2035A
1002
}
  0
LINE
  5
2033B
330
20316
100
AcDbEntity
  8
0
100
AcDbLine
 10
18.59799999998143
 20
3.315799999996671
 30
0.0
 11
16.46099999998353
 21
8.999899999990987
 31
0.0
1001
ACAD
1000
ASC_BOUNDS
1002
{
1070
    19
1005
2035A
1002
}
  0
LINE
  5
2033C
330
20316
100
AcDbEntity
  8
0
100
AcDbLine
 10
20.89099999997916
 20
8.763099999991255
 30
0.0
 11
22.38199999997767
 21
8.763099999991255
 31
0.0
1001
ACAD
1000
ASC_BOUNDS
1002
{
1070
    19
1005
2035A
1002
}
  0
LINE
  5
2033D
330
20316
100
AcDbEntity
  8
0
100
AcDbLine
 10
24.39299999997559
 20
3.670999999996297
 30
0.0
 11
23.56599999997638
 21
5.5200999999945
 31
0.0
1001
ACAD
1000
ASC_BOUNDS
1002
{
1070
    19
1005
2035B
1002
}
  0
LINE
  5
2033E
330
20316
100
AcDbEntity
  8
0
100
AcDbLine
 10
44.99999999995498
 20
-0.2368999999997641
 30
0.0
 11
40.02599999995994
 21
5.341799999994635
 31
0.0
1001
ACAD
1000
ASC_BOUNDS
1002
{
1070
    19
1005
2035D
1002
}
  0
LINE
  5
2033F
330
20316
100
AcDbEntity
  8
0
100
AcDbLine
 10
40.02599999995994
 20
5.341799999994635
 30
0.0
 11
40.02599999995994
 21
0.0
 31
0.0
1001
ACAD
1000
ASC_BOUNDS
1002
{
1070
    19
1005
2035D
1002
}
  0
LINE
  5
20340
330
20316
100
AcDbEntity
  8
0
100
AcDbLine
 10
38.60499999996136
 20
8.999999999991019
 30
0.0
 11
38.60499999996136
 21
0.0
 31
0.0
1001
ACAD
1000
ASC_BOUNDS
1002
{
1070
    19
1005
2035D
1002
}
  0
LINE
  5
20341
330
20316
100
AcDbEntity
  8
0
100
AcDbLine
 10
44.99999999995498
 20
8.763099999991255
 30
0.0
 11
44.99999999995498
 21
-0.2368999999997641
 31
0.0
1001
ACAD
1000
ASC_BOUNDS
1002
{
1070
    19
1005
2035D
1002
}
  0
LINE
  5
20342
330
20316
100
AcDbEntity
  8
0
100
AcDbLine
 10
38.60499999996136
 20
0.0
 30
0.0
 11
40.02599999995994
 21
0.0
 31
0.0
1001
ACAD
1000
ASC_BOUNDS
1002
{
1070
    19
1005
2035D
1002
}
  0
LINE
  5
20343
330
20316
100
AcDbEntity
  8
0
100
AcDbLine
 10
43.57899999995641
 20
3.421199999996588
 30
0.0
 11
38.60499999996136
 21
8.999899999990987
 31
0.0
1001
ACAD
1000
ASC_BOUNDS
1002
{
1070
    19
1005
2035D
1002
}
  0
LINE
  5
20344
330
20316
100
AcDbEntity
  8
0
100
AcDbLine
 10
43.57899999995641
 20
8.763099999991255
 30
0.0
 11
43.57899999995641
 21
3.421199999996588
 31
0.0
1001
ACAD
1000
ASC_BOUNDS
1002
{
1070
    19
1005
2035D
1002
}
  0
LINE
  5
20345
330
20316
100
AcDbEntity
  8
0
100
AcDbLine
 10
43.57899999995641
 20
8.763099999991255
 30
0.0
 11
44.99999999995498
 21
8.763099999991255
 31
0.0
1001
ACAD
1000
ASC_BOUNDS
1002
{
1070
    19
1005
2035D
1002
}
  0
LINE
  5
20346
330
20316
100
AcDbEntity
  8
0
100
AcDbLine
 10
37.67199999996831
 20
8.763099999991255
 30
0.0
 11
36.23199999996837
 21
8.763099999991255
 31
0.0
  0
LINE
  5
20347
330
20316
100
AcDbEntity
  8
0
100
AcDbLine
 10
31.64199999996833
 20
8.763099999991255
 30
0.0
 11
31.64199999996833
 21
2.481619422925121
 31
0.0
  0
LINE
  5
20348
330
20316
100
AcDbEntity
  8
0
100
AcDbLine
 10
37.67199999996831
 20
8.763099999991255
 30
0.0
 11
37.67199999996831
 21
2.481619422925121
 31
0.0
  0
LINE
  5
20349
330
20316
100
AcDbEntity
  8
0
100
AcDbLine
 10
36.23199999996837
 20
8.763099999991255
 30
0.0
 11
36.23199999996837
 21
2.481619422925064
 31
0.0
  0
LINE
  5
2034A
330
20316
100
AcDbEntity
  8
0
100
AcDbLine
 10
33.08199999996839
 20
8.763099999991255
 30
0.0
 11
33.08199999996839
 21
2.481619422925121
 31
0.0
  0
ARC
  5
2034B
330
20316
100
AcDbEntity
  8
0
100
AcDbCircle
 10
34.65699999996832
 20
3.183099999991214
 30
0.0
 40
3.420000000000007
100
AcDbArc
 50
240.0000000000255
 51
299.9999999999766
  0
ARC
  5
2034C
330
20316
100
AcDbEntity
  8
0
100
AcDbCircle
 10
34.65699999996832
 20
3.183099999991214
 30
0.0
 40
1.97999999999999
100
AcDbArc
 50
240.000000000026
 51
299.9999999999703
  0
LINE
  5
2034D
330
20316
100
AcDbEntity
  8
0
100
AcDbLine
 10
33.08199999996828
 20
8.763099999991255
 30
0.0
 11
31.64199999996833
 21
8.763099999991255
 31
0.0
  0
ARC
  5
2034E
330
20316
100
AcDbEntity
  8
0
100
AcDbCircle
 10
35.06199999996829
 20
2.481619422925064
 30
0.0
 40
1.17
100
AcDbArc
 50
299.9999999999699
 51
0.0
  0
ARC
  5
2034F
330
20316
100
AcDbEntity
  8
0
100
AcDbCircle
 10
34.25199999996835
 20
2.481619422925121
 30
0.0
 40
1.17
100
AcDbArc
 50
180.0
 51
240.0000000000238
  0
ARC
  5
20350
330
20316
100
AcDbEntity
  8
0
100
AcDbCircle
 10
35.06199999996841
 20
2.481619422925121
 30
0.0
 40
2.61
100
AcDbArc
 50
299.9999999999756
 51
0.0
  0
ARC
  5
20351
330
20316
100
AcDbEntity
  8
0
100
AcDbCircle
 10
34.25199999996835
 20
2.481619422925121
 30
0.0
 40
2.61
100
AcDbArc
 50
180.0
 51
240.0000000000244
  0
LINE
  5
20352
330
20316
100
AcDbEntity
  8
0
100
AcDbLine
 10
29.30199999996933
 20
8.763099999991255
 30
0.0
 11
30.74199999996927
 21
8.763099999991255
 31
0.0
1001
ACAD
1000
ASC_BOUNDS
1002
{
1070
    19
1005
2035B
1002
}
  0
LINE
  5
20353
330
20316
100
AcDbEntity
  8
0
100
AcDbLine
 10
30.74199999996927
 20
8.763099999991255
 30
0.0
 11
30.74199999996927
 21
2.373099999991211
 31
0.0
1001
ACAD
1000
ASC_BOUNDS
1002
{
1070
    19
1005
2035B
1002
}
  0
LINE
  5
20354
330
20316
100
AcDbEntity
  8
0
100
AcDbLine
 10
26.02015566812236
 20
0.0330999999912365
 30
0.0
 11
28.40199999996923
 21
0.0330999999912365
 31
0.0
1001
ACAD
1000
ASC_BOUNDS
1002
{
1070
    19
1005
2035B
1002
}
  0
LINE
  5
20355
330
20316
100
AcDbEntity
  8
0
100
AcDbLine
 10
29.30199999996933
 20
8.763099999991255
 30
0.0
 11
29.30199999996933
 21
2.283099999991236
 31
0.0
1001
ACAD
1000
ASC_BOUNDS
1002
{
1070
    19
1005
2035B
1002
}
  0
LINE
  5
20356
330
20316
100
AcDbEntity
  8
0
100
AcDbLine
 10
26.97358892824991
 20
1.383099999991202
 30
0.0
 11
28.40199999996923
 21
1.383099999991202
 31
0.0
1001
ACAD
1000
ASC_BOUNDS
1002
{
1070
    19
1005
2035B
1002
}
  0
ARC
  5
20357
330
20316
100
AcDbEntity
  8
0
100
AcDbCircle
 10
28.40199999996923
 20
2.283099999991236
 30
0.0
 40
0.9
100
AcDbArc
 50
270.0
 51
0.0
1001
ACAD
1000
ASC_BOUNDS
1002
{
1070
    19
1005
2035B
1002
}
  0
ARC
  5
20358
330
20316
100
AcDbEntity
  8
0
100
AcDbCircle
 10
28.40199999996923
 20
2.373099999991211
 30
0.0
 40
2.34
100
AcDbArc
 50
270.0
 51
0.0
1001
ACAD
1000
ASC_BOUNDS
1002
{
1070
    19
1005
2035B
1002
}
  0
INSERT
  5
20359
330
20316
100
AcDbEntity
  8
0
100
AcDbBlockReference
  2
*X47
 10
0.0
 20
0.0
 30
0.0
1001
ACAD
1000
HATCH
1002
{
1070
    19
1000
ANSI37
1040
0.15
1040
0.0
1000
ASC_BOUNDS
1070
     2
1070
     2
1070
    12
1005
20318
1005
20319
1005
20320
1005
2032F
1005
20332
1005
20330
1005
20321
1005
20326
1005
20324
1005
20328
1005
20327
1005
20329
1070
     2
1070
     3
1005
20334
1005
20336
1005
20335
1000
ASC_SEEDPOINT
1011
3.614004224891801
1021
2.996669441146025
1031
0.0
1000
R14_HATCH_DATA
1000
20359
1011
1.0
1021
0.0
1031
0.0
1011
0.0
1021
1.0
1031
0.0
1011
0.0
1021
0.0
1031
1.0
1040
0.0
1010
0.0
1020
0.0
1030
1.0
1000
ANSI37
1070
     0
1070
     1
1071
        2
1071
        7
1070
     0
1070
     1
1071
       17
1040
13.26299999998673
1040
-0.0001000000000317
1040
9.236999999990758
1040
8.999899999990987
1040
9.236999999990758
1040
8.999999999991019
1040
5.657999999994331
1040
0.9999999999989768
1040
3.181999999996833
1040
4.668599999995308
1040
6.432999999993513
1040
8.763099999991255
1040
4.617999999995391
1040
8.763099999991255
1040
1.420999999998571
1040
4.736799999995242
1040
4.617999999995391
1040
-0.0001000000000317
1040
4.617999999995391
1040
0.0
1040
6.766999999993232
1040
0.0
1040
6.766999999993232
1040
-0.0001000000000317
1040
7.826999999992154
1040
2.368399999997621
1040
10.64699999998936
1040
2.368399999997621
1040
11.70599999998831
1040
-0.0001000000000317
1040
11.70599999998831
1040
0.0
1040
13.26299999998673
1040
0.0
1071
       12
1005
20318
1005
20319
1005
20320
1005
2032F
1005
20332
1005
20330
1005
20321
1005
20326
1005
20324
1005
20328
1005
20327
1005
20329
1071
       22
1070
     0
1070
     1
1071
        3
1040
9.236999999990758
1040
5.5200999999945
1040
10.06399999998996
1040
3.670999999996297
1040
8.409999999991555
1040
3.670999999996297
1071
        3
1005
20334
1005
20336
1005
20335
1070
     0
1070
     1
1040
0.0
1040
0.15
1070
     0
1070
     2
1040
0.7853981633974483
1040
49.29960901727088
1040
-10.17736998311392
1040
-0.3367596045400932
1040
0.3367596045400932
1070
     0
1040
2.356194490192345
1040
49.29960901727088
1040
-10.17736998311392
1040
-0.3367596045400932
1040
-0.3367596045400932
1070
     0
1040
0.0110235143455945
1071
        2
1040
3.614004224891801
1040
2.996669441146025
1040
0.0
1040
3.614004224891801
1040
2.996669441146025
1040
0.0
1002
}
  0
INSERT
  5
2035A
330
20316
100
AcDbEntity
  8
0
100
AcDbBlockReference
  2
*X48
 10
0.0
 20
0.0
 30
0.0
1001
ACAD
1000
HATCH
1002
{
1070
    19
1000
ANSI37
1040
0.15
1040
0.0
1000
ASC_BOUNDS
1070
     1
1070
     2
1070
    10
1005
2031A
1005
2031B
1005
2033C
1005
2033A
1005
2033B
1005
2032E
1005
20333
1005
20337
1005
2031D
1005
2031C
1000
ASC_SEEDPOINT
1011
14.73245321214324
1021
2.798246178283421
1031
0.0
1000
R14_HATCH_DATA
1000
2035A
1011
1.0
1021
0.0
1031
0.0
1011
0.0
1021
1.0
1031
0.0
1011
0.0
1021
0.0
1031
1.0
1040
0.0
1010
0.0
1020
0.0
1030
1.0
1000
ANSI37
1070
     0
1070
     1
1071
        1
1071
        7
1070
     0
1070
     1
1071
       10
1040
16.46099999998353
1040
5.432899999994561
1040
18.59199999998134
1040
-0.2368999999997641
1040
22.38199999997767
1040
8.763099999991255
1040
20.89099999997916
1040
8.763099999991255
1040
18.59799999998143
1040
3.315799999996671
1040
16.46099999998353
1040
8.999899999990987
1040
14.32399999998563
1040
3.315799999996671
1040
12.02999999998792
1040
8.763099999991255
1040
10.53899999998941
1040
8.763099999991255
1040
14.32899999998563
1040
-0.2368999999997641
1071
       10
1005
2031A
1005
2031B
1005
2033C
1005
2033A
1005
2033B
1005
2032E
1005
20333
1005
20337
1005
2031D
1005
2031C
1070
     0
1070
     1
1040
0.0
1040
0.15
1070
     0
1070
     2
1040
0.7853981633974483
1040
49.29960901727088
1040
-10.17736998311392
1040
-0.3367596045400932
1040
0.3367596045400932
1070
     0
1040
2.356194490192345
1040
49.29960901727088
1040
-10.17736998311392
1040
-0.3367596045400932
1040
-0.3367596045400932
1070
     0
1040
0.0110235143455945
1071
        1
1040
14.73245321214324
1040
2.798246178283421
1040
0.0
1002
}
  0
INSERT
  5
2035B
330
20316
100
AcDbEntity
  8
0
100
AcDbBlockReference
  2
*X49
 10
0.0
 20
0.0
 30
0.0
1001
ACAD
1000
HATCH
1002
{
1070
    19
1000
ANSI37
1040
0.15
1040
0.0
1000
ASC_BOUNDS
1070
     2
1070
     2
1070
    13
1005
2031E
1005
2032B
1005
2032C
1005
2032A
1005
2032D
1005
20354
1005
20358
1005
20353
1005
20352
1005
20355
1005
20357
1005
20356
1005
2031F
1070
     2
1070
     3
1005
20338
1005
2033D
1005
20339
1000
ASC_SEEDPOINT
1011
21.97929957367762
1021
3.294304244259308
1031
0.0
1000
R14_HATCH_DATA
1000
2035B
1011
1.0
1021
0.0
1031
0.0
1011
0.0
1021
1.0
1031
0.0
1011
0.0
1021
0.0
1031
1.0
1040
0.0
1010
0.0
1020
0.0
1030
1.0
1000
ANSI37
1070
     0
1070
     1
1071
        2
1071
        7
1070
     1
1070
     1
1071
       15
1040
23.56599999997638
1040
8.999899999990987
1040
0.0
1040
19.53899999998043
1040
-0.0001000000000317
1040
0.0
1040
19.53899999998043
1040
0.0
1040
0.0
1040
21.09599999997886
1040
0.0
1040
0.0
1040
21.09599999997886
1040
-0.0001000000000317
1040
0.0
1040
22.15599999997789
1040
2.368399999997621
1040
0.0
1040
24.97599999997499
1040
2.368399999997621
1040
0.0
1040
26.02015566812236
1040
0.0330999999912365
1040
0.0
1040
28.40199999996923
1040
0.0330999999912365
1040
0.414213562373095
1040
30.74199999996923
1040
2.373099999991211
1040
0.0
1040
30.74199999996927
1040
8.763099999991255
1040
0.0
1040
29.30199999996933
1040
8.763099999991255
1040
0.0
1040
29.30199999996933
1040
2.283099999991236
1040
-0.414213562373095
1040
28.40199999996923
1040
1.383099999991237
1040
0.0
1040
26.97358892824991
1040
1.383099999991202
1040
0.0
1071
       13
1005
2031E
1005
2032B
1005
2032C
1005
2032A
1005
2032D
1005
20354
1005
20358
1005
20353
1005
20352
1005
20355
1005
20357
1005
20356
1005
2031F
1071
       22
1070
     0
1070
     1
1071
        3
1040
22.7389999999773
1040
3.670999999996297
1040
23.56599999997638
1040
5.5200999999945
1040
24.39299999997559
1040
3.670999999996297
1071
        3
1005
20338
1005
2033D
1005
20339
1070
     0
1070
     1
1040
0.0
1040
0.15
1070
     0
1070
     2
1040
0.7853981633974483
1040
49.29960901727088
1040
-10.17736998311392
1040
-0.3367596045400932
1040
0.3367596045400932
1070
     0
1040
2.356194490192345
1040
49.29960901727088
1040
-10.17736998311392
1040
-0.3367596045400932
1040
-0.3367596045400932
1070
     0
1040
0.0110235143455945
1071
        2
1040
21.97929957367762
1040
3.294304244259308
1040
0.0
1040
21.97929957367762
1040
3.294304244259308
1040
0.0
1002
}
  0
INSERT
  5
2035C
330
20316
100
AcDbEntity
  8
0
100
AcDbBlockReference
  2
*X50
 10
0.0
 20
0.0
 30
0.0
1001
ACAD
1000
HATCH
1002
{
1070
    19
1000
ANSI37
1040
0.15
1040
0.0
1000
R14_HATCH_DATA
1000
2035C
1011
1.0
1021
0.0
1031
0.0
1011
0.0
1021
1.0
1031
0.0
1011
0.0
1021
0.0
1031
1.0
1040
0.0
1010
0.0
1020
0.0
1030
1.0
1000
ANSI37
1070
     0
1070
     1
1071
        1
1071
        7
1070
     1
1070
     1
1071
       12
1040
31.64199999996833
1040
2.481619422925121
1040
0.2679491924310942
1040
32.94699999997067
1040
0.2212931190493919
1040
0.2679491924301353
1040
36.36699999995983
1040
0.2212931190459813
1040
0.2679491924321411
1040
37.67199999996831
1040
2.481619422928361
1040
0.0
1040
37.67199999996831
1040
8.763099999991255
1040
0.0
1040
36.23199999996837
1040
8.763099999991255
1040
0.0
1040
36.23199999996837
1040
2.481619422925064
1040
-0.2679491924310291
1040
35.64699999996708
1040
1.468369700498386
1040
-0.267949192430519
1040
33.66699999997093
1040
1.468369700497703
1040
-0.267949192431809
1040
33.08199999996839
1040
2.481619422926997
1040
0.0
1040
33.08199999996839
1040
8.763099999991255
1040
0.0
1040
31.64199999996833
1040
8.763099999991255
1040
0.0
1071
        0
1070
     0
1070
     1
1040
0.0
1040
0.15
1070
     0
1070
     2
1040
0.7853981633974483
1040
49.29960901727088
1040
-10.17736998311392
1040
-0.3367596045400932
1040
0.3367596045400932
1070
     0
1040
2.356194490192345
1040
49.29960901727088
1040
-10.17736998311392
1040
-0.3367596045400932
1040
-0.3367596045400932
1070
     0
1040
0.0110235143455945
1071
        1
1040
32.30357378967278
1040
3.988785755459219
1040
0.0
1002
}
  0
INSERT
  5
2035D
330
20316
100
AcDbEntity
  8
0
100
AcDbBlockReference
  2
*X51
 10
0.0
 20
0.0
 30
0.0
1001
ACAD
1000
HATCH
1002
{
1070
    19
1000
ANSI37
1040
0.15
1040
0.0
1000
ASC_BOUNDS
1070
     1
1070
     2
1070
     8
1005
2033E
1005
20341
1005
20345
1005
20344
1005
20343
1005
20340
1005
20342
1005
2033F
1000
ASC_SEEDPOINT
1011
39.74896370716704
1021
4.484843821435049
1031
0.0
1000
R14_HATCH_DATA
1000
2035D
1011
1.0
1021
0.0
1031
0.0
1011
0.0
1021
1.0
1031
0.0
1011
0.0
1021
0.0
1031
1.0
1040
0.0
1010
0.0
1020
0.0
1030
1.0
1000
ANSI37
1070
     0
1070
     1
1071
        1
1071
        7
1070
     0
1070
     1
1071
        9
1040
40.02599999995994
1040
5.341799999994635
1040
44.99999999995498
1040
-0.2368999999997641
1040
44.99999999995498
1040
8.763099999991255
1040
43.57899999995641
1040
8.763099999991255
1040
43.57899999995641
1040
3.421199999996588
1040
38.60499999996136
1040
8.999899999990987
1040
38.60499999996136
1040
8.999999999991019
1040
38.60499999996136
1040
0.0
1040
40.02599999995994
1040
0.0
1071
        8
1005
2033E
1005
20341
1005
20345
1005
20344
1005
20343
1005
20340
1005
20342
1005
2033F
1070
     0
1070
     1
1040
0.0
1040
0.15
1070
     0
1070
     2
1040
0.7853981633974483
1040
49.29960901727088
1040
-10.17736998311392
1040
-0.3367596045400932
1040
0.3367596045400932
1070
     0
1040
2.356194490192345
1040
49.29960901727088
1040
-10.17736998311392
1040
-0.3367596045400932
1040
-0.3367596045400932
1070
     0
1040
0.0110235143455945
1071
        1
1040
39.74896370716704
1040
4.484843821435049
1040
0.0
1002
}
  0
INSERT
  5
2035E
330
20316
100
AcDbEntity
  8
0
100
AcDbBlockReference
  2
*X52
 10
0.0
 20
0.0
 30
0.0
1001
ACAD
1000
HATCH
1002
{
1070
    19
1000
ANSI37
1040
0.15
1040
0.0
1000
ASC_BOUNDS
1070
     1
1070
     2
1070
     4
1005
20322
1005
20331
1005
20323
1005
20325
1000
ASC_SEEDPOINT
1011
1.079051535452663
1021
4.148538732891836
1031
0.0
1000
R14_HATCH_DATA
1000
2035E
1011
1.0
1021
0.0
1031
0.0
1011
0.0
1021
1.0
1031
0.0
1011
0.0
1021
0.0
1031
1.0
1040
0.0
1010
0.0
1020
0.0
1030
1.0
1000
ANSI37
1070
     0
1070
     1
1071
        1
1071
        7
1070
     0
1070
     1
1071
        4
1040
1.420999999998571
1040
0.0
1040
1.420999999998571
1040
8.763099999991255
1040
0.0
1040
8.763099999991255
1040
0.0
1040
0.0
1071
        4
1005
20322
1005
20331
1005
20323
1005
20325
1070
     0
1070
     1
1040
0.0
1040
0.15
1070
     0
1070
     2
1040
0.7853981633974483
1040
49.29960901727088
1040
-10.17736998311392
1040
-0.3367596045400932
1040
0.3367596045400932
1070
     0
1040
2.356194490192345
1040
49.29960901727088
1040
-10.17736998311392
1040
-0.3367596045400932
1040
-0.3367596045400932
1070
     0
1040
0.0053004257112761
1071
        1
1040
1.079051535452663
1040
4.148538732891836
1040
0.0
1002
}
  0
ENDBLK
  5
20A16
330
20316
100
AcDbEntity
  8
0
100
AcDbBlockEnd
  0
BLOCK
  5
22219
330
2208B
100
AcDbEntity
  8
0
100
AcDbBlockBegin
  2
*X47
 70
     1
 10
0.0
 20
0.0
 30
0.0
  3
*X47
  1

  0
LINE
  5
2208C
330
2208B
100
AcDbEntity
  8
0
  6
CONTINUOUS
100
AcDbLine
 10
3.418023043697893
 20
7.251849696850613
 30
0.0
 11
4.929273346838536
 21
8.763099999991255
 31
0.0
  0
LINE
  5
2208D
330
2208B
100
AcDbEntity
  8
0
  6
CONTINUOUS
100
AcDbLine
 10
1.483656411257782
 20
4.643963855330318
 30
0.0
 11
5.60279255591872
 21
8.763099999991255
 31
0.0
  0
LINE
  5
2208E
330
2208B
100
AcDbEntity
  8
0
  6
CONTINUOUS
100
AcDbLine
 10
1.755053947328235
 20
4.241842182320584
 30
0.0
 11
6.276311764998907
 21
8.763099999991255
 31
0.0
  0
LINE
  5
2208F
330
2208B
100
AcDbEntity
  8
0
  6
CONTINUOUS
100
AcDbLine
 10
2.026451483398688
 20
3.839720509310849
 30
0.0
 11
4.441040904851878
 21
6.254309930764039
 31
0.0
  0
LINE
  5
22090
330
2208B
100
AcDbEntity
  8
0
  6
CONTINUOUS
100
AcDbLine
 10
2.297849019469139
 20
3.437598836301114
 30
0.0
 11
3.321765168359338
 21
4.461514985191313
 31
0.0
  0
LINE
  5
22091
330
2208B
100
AcDbEntity
  8
0
  6
CONTINUOUS
100
AcDbLine
 10
2.569246555539591
 20
3.03547716329138
 30
0.0
 11
3.593163397972743
 21
4.059394005724531
 31
0.0
  0
LINE
  5
22092
330
2208B
100
AcDbEntity
  8
0
  6
CONTINUOUS
100
AcDbLine
 10
2.840644091610043
 20
2.633355490281646
 30
0.0
 11
3.864561627586149
 21
3.657273026257751
 31
0.0
  0
LINE
  5
22093
330
2208B
100
AcDbEntity
  8
0
  6
CONTINUOUS
100
AcDbLine
 10
3.112041627680496
 20
2.231233817271911
 30
0.0
 11
4.135959857199554
 21
3.25515204679097
 31
0.0
  0
LINE
  5
22094
330
2208B
100
AcDbEntity
  8
0
  6
CONTINUOUS
100
AcDbLine
 10
3.383439163750948
 20
1.829112144262177
 30
0.0
 11
4.40735808681296
 21
2.853031067324189
 31
0.0
  0
LINE
  5
22095
330
2208B
100
AcDbEntity
  8
0
  6
CONTINUOUS
100
AcDbLine
 10
3.654836699821399
 20
1.426990471252442
 30
0.0
 11
4.678756316426365
 21
2.450910087857407
 31
0.0
  0
LINE
  5
22096
330
2208B
100
AcDbEntity
  8
0
  6
CONTINUOUS
100
AcDbLine
 10
3.926234235891853
 20
1.024868798242709
 30
0.0
 11
4.95015454603977
 21
2.048789108390626
 31
0.0
  0
LINE
  5
22097
330
2208B
100
AcDbEntity
  8
0
  6
CONTINUOUS
100
AcDbLine
 10
4.197631771962304
 20
0.6227471252329737
 30
0.0
 11
5.221552775653176
 21
1.646668128923846
 31
0.0
  0
LINE
  5
22098
330
2208B
100
AcDbEntity
  8
0
  6
CONTINUOUS
100
AcDbLine
 10
8.715877546767851
 20
7.835069736359266
 30
0.0
 11
9.435953450375058
 21
8.555145639966472
 31
0.0
  0
LINE
  5
22099
330
2208B
100
AcDbEntity
  8
0
  6
CONTINUOUS
100
AcDbLine
 10
8.170620868422267
 20
6.616293848933497
 30
0.0
 11
9.644120833743461
 21
8.08979381425469
 31
0.0
  0
LINE
  5
2209A
330
2208B
100
AcDbEntity
  8
0
  6
CONTINUOUS
100
AcDbLine
 10
7.625364190076684
 20
5.397517961507727
 30
0.0
 11
9.852288217111864
 21
7.624441988542907
 31
0.0
  0
LINE
  5
2209B
330
2208B
100
AcDbEntity
  8
0
  6
CONTINUOUS
100
AcDbLine
 10
7.080107511731101
 20
4.178742074081957
 30
0.0
 11
10.06045560048027
 21
7.159090162831124
 31
0.0
  0
LINE
  5
2209C
330
2208B
100
AcDbEntity
  8
0
  6
CONTINUOUS
100
AcDbLine
 10
6.534850833385518
 20
2.959966186656187
 30
0.0
 11
10.26862298384867
 21
6.693738337119342
 31
0.0
  0
LINE
  5
2209D
330
2208B
100
AcDbEntity
  8
0
  6
CONTINUOUS
100
AcDbLine
 10
4.469029308032756
 20
0.2206254522232385
 30
0.0
 11
5.492951005266582
 21
1.244547149457064
 31
0.0
  0
LINE
  5
2209E
330
2208B
100
AcDbEntity
  8
0
  6
CONTINUOUS
100
AcDbLine
 10
5.989594155039935
 20
1.741190299230417
 30
0.0
 11
8.806950407233131
 21
4.558546551423613
 31
0.0
  0
LINE
  5
2209F
330
2208B
100
AcDbEntity
  8
0
  6
CONTINUOUS
100
AcDbLine
 10
9.401251593263643
 20
5.152847737454126
 30
0.0
 11
10.47679036721708
 21
6.228386511407559
 31
0.0
  0
LINE
  5
220A0
330
2208B
100
AcDbEntity
  8
0
  6
CONTINUOUS
100
AcDbLine
 10
4.921837203428691
 20
-0.0000858614610131
 30
0.0
 11
8.592923064886001
 21
3.670999999996297
 31
0.0
  0
LINE
  5
220A1
330
2208B
100
AcDbEntity
  8
0
  6
CONTINUOUS
100
AcDbLine
 10
9.609390446785305
 20
4.6874673818956
 30
0.0
 11
10.68495775058548
 21
5.763034685695775
 31
0.0
  0
LINE
  5
220A2
330
2208B
100
AcDbEntity
  8
0
  6
CONTINUOUS
100
AcDbLine
 10
5.595387755019432
 20
-0.0000545189504582
 30
0.0
 11
7.716137258923768
 21
2.120694984953879
 31
0.0
  0
LINE
  5
220A3
330
2208B
100
AcDbEntity
  8
0
  6
CONTINUOUS
100
AcDbLine
 10
6.268938306610172
 20
-0.000023176439905
 30
0.0
 11
7.170485805526503
 21
0.9015243224764267
 31
0.0
  0
LINE
  5
220A4
330
2208B
100
AcDbEntity
  8
0
  6
CONTINUOUS
100
AcDbLine
 10
7.963842273967511
 20
2.368399999997621
 30
0.0
 11
9.266442273966188
 21
3.670999999996297
 31
0.0
  0
LINE
  5
220A5
330
2208B
100
AcDbEntity
  8
0
  6
CONTINUOUS
100
AcDbLine
 10
8.637361483047696
 20
2.368399999997621
 30
0.0
 11
9.939961483046375
 21
3.670999999996297
 31
0.0
  0
LINE
  5
220A6
330
2208B
100
AcDbEntity
  8
0
  6
CONTINUOUS
100
AcDbLine
 10
9.817529300306965
 20
4.222087026337075
 30
0.0
 11
10.89312513395388
 21
5.297682859983993
 31
0.0
  0
LINE
  5
220A7
330
2208B
100
AcDbEntity
  8
0
  6
CONTINUOUS
100
AcDbLine
 10
10.02566815382863
 20
3.756706670778549
 30
0.0
 11
11.10129251732229
 21
4.832331034272211
 31
0.0
  0
LINE
  5
220A8
330
2208B
100
AcDbEntity
  8
0
  6
CONTINUOUS
100
AcDbLine
 10
9.310880692127883
 20
2.368399999997621
 30
0.0
 11
11.30945990069069
 21
4.366979208560428
 31
0.0
  0
LINE
  5
220A9
330
2208B
100
AcDbEntity
  8
0
  6
CONTINUOUS
100
AcDbLine
 10
9.98439990120807
 20
2.36839999999762
 30
0.0
 11
11.5176272840591
 21
3.901627382848645
 31
0.0
  0
LINE
  5
220AA
330
2208B
100
AcDbEntity
  8
0
  6
CONTINUOUS
100
AcDbLine
 10
10.65037369446246
 20
2.36085458417182
 30
0.0
 11
11.7257946674275
 21
3.436275557136862
 31
0.0
  0
LINE
  5
220AB
330
2208B
100
AcDbEntity
  8
0
  6
CONTINUOUS
100
AcDbLine
 10
10.85847197087848
 20
1.895433651507656
 30
0.0
 11
11.9339620507959
 21
2.97092373142508
 31
0.0
  0
LINE
  5
220AC
330
2208B
100
AcDbEntity
  8
0
  6
CONTINUOUS
100
AcDbLine
 10
11.0665702472945
 20
1.430012718843491
 30
0.0
 11
12.14212943416431
 21
2.505571905713296
 31
0.0
  0
LINE
  5
220AD
330
2208B
100
AcDbEntity
  8
0
  6
CONTINUOUS
100
AcDbLine
 10
11.27466852371052
 20
0.9645917861793256
 30
0.0
 11
12.35029681753271
 21
2.040220080001513
 31
0.0
  0
LINE
  5
220AE
330
2208B
100
AcDbEntity
  8
0
  6
CONTINUOUS
100
AcDbLine
 10
11.48276680012654
 20
0.4991708535151611
 30
0.0
 11
12.55846420090111
 21
1.57486825428973
 31
0.0
  0
LINE
  5
220AF
330
2208B
100
AcDbEntity
  8
0
  6
CONTINUOUS
100
AcDbLine
 10
11.69086507654257
 20
0.0337499208509957
 30
0.0
 11
12.76663158426952
 21
1.109516428577947
 31
0.0
  0
LINE
  5
220B0
330
2208B
100
AcDbEntity
  8
0
  6
CONTINUOUS
100
AcDbLine
 10
12.33057447873954
 20
-0.0000598860322123
 30
0.0
 11
12.97479896763792
 21
0.6441646028661663
 31
0.0
  0
LINE
  5
220B1
330
2208B
100
AcDbEntity
  8
0
  6
CONTINUOUS
100
AcDbLine
 10
13.00413694809395
 20
-0.0000166257579952
 30
0.0
 11
13.18296635100632
 21
0.1788127771543824
 31
0.0
  0
LINE
  5
220B2
330
2208B
100
AcDbEntity
  8
0
  6
CONTINUOUS
100
AcDbLine
 10
4.772852165289667
 20
-0.000092794222212
 30
0.0
 11
4.296495091028902
 21
0.4762642800385528
 31
0.0
  0
LINE
  5
220B3
330
2208B
100
AcDbEntity
  8
0
  6
CONTINUOUS
100
AcDbLine
 10
5.446340034776103
 20
-0.0000614546284616
 30
0.0
 11
2.898195908335625
 21
2.548082671812017
 31
0.0
  0
LINE
  5
220B4
330
2208B
100
AcDbEntity
  8
0
  6
CONTINUOUS
100
AcDbLine
 10
6.119827904262539
 20
-0.0000301150347113
 30
0.0
 11
1.499896725642348
 21
4.61990106358548
 31
0.0
  0
LINE
  5
220B5
330
2208B
100
AcDbEntity
  8
0
  6
CONTINUOUS
100
AcDbLine
 10
6.775136745476159
 20
0.0181802528318542
 30
0.0
 11
5.699826040202669
 21
1.093490958105344
 31
0.0
  0
LINE
  5
220B6
330
2208B
100
AcDbEntity
  8
0
  6
CONTINUOUS
100
AcDbLine
 10
6.983376846288489
 20
0.4834593610997118
 30
0.0
 11
5.908008617934405
 21
1.558827589453796
 31
0.0
  0
LINE
  5
220B7
330
2208B
100
AcDbEntity
  8
0
  6
CONTINUOUS
100
AcDbLine
 10
5.377063484962296
 20
1.416253513345719
 30
0.0
 11
1.702276957014131
 21
5.091040041293883
 31
0.0
  0
LINE
  5
220B8
330
2208B
100
AcDbEntity
  8
0
  6
CONTINUOUS
100
AcDbLine
 10
3.978745891735324
 20
3.488090315652877
 30
0.0
 11
2.000373521109399
 21
5.466462686278803
 31
0.0
  0
LINE
  5
220B9
330
2208B
100
AcDbEntity
  8
0
  6
CONTINUOUS
100
AcDbLine
 10
7.191616947100819
 20
0.948738469367568
 30
0.0
 11
6.11619119566614
 21
2.024164220802247
 31
0.0
  0
LINE
  5
220BA
330
2208B
100
AcDbEntity
  8
0
  6
CONTINUOUS
100
AcDbLine
 10
7.399857047913149
 20
1.414017577635424
 30
0.0
 11
6.324373773397875
 21
2.489500852150698
 31
0.0
  0
LINE
  5
220BB
330
2208B
100
AcDbEntity
  8
0
  6
CONTINUOUS
100
AcDbLine
 10
7.608097148725479
 20
1.879296685903281
 30
0.0
 11
6.53255635112961
 21
2.95483748349915
 31
0.0
  0
LINE
  5
220BC
330
2208B
100
AcDbEntity
  8
0
  6
CONTINUOUS
100
AcDbLine
 10
7.816337249537808
 20
2.344575794171138
 30
0.0
 11
6.740738928861345
 21
3.420174114847601
 31
0.0
  0
LINE
  5
220BD
330
2208B
100
AcDbEntity
  8
0
  6
CONTINUOUS
100
AcDbLine
 10
3.310241080789734
 20
4.830114335678653
 30
0.0
 11
2.298470085204666
 21
5.84188533126372
 31
0.0
  0
LINE
  5
220BE
330
2208B
100
AcDbEntity
  8
0
  6
CONTINUOUS
100
AcDbLine
 10
3.60832983563551
 20
5.205544789913063
 30
0.0
 11
2.596566649299935
 21
6.217307976248638
 31
0.0
  0
LINE
  5
220BF
330
2208B
100
AcDbEntity
  8
0
  6
CONTINUOUS
100
AcDbLine
 10
3.906418590481286
 20
5.580975244147473
 30
0.0
 11
2.894663213395203
 21
6.592730621233557
 31
0.0
  0
LINE
  5
220C0
330
2208B
100
AcDbEntity
  8
0
  6
CONTINUOUS
100
AcDbLine
 10
4.204507345327062
 20
5.956405698381884
 30
0.0
 11
3.192759777490472
 21
6.968153266218474
 31
0.0
  0
LINE
  5
220C1
330
2208B
100
AcDbEntity
  8
0
  6
CONTINUOUS
100
AcDbLine
 10
8.466032252791512
 20
2.368399999997621
 30
0.0
 11
6.948921506593081
 21
3.885510746196053
 31
0.0
  0
LINE
  5
220C2
330
2208B
100
AcDbEntity
  8
0
  6
CONTINUOUS
100
AcDbLine
 10
9.139551461871699
 20
2.36839999999762
 30
0.0
 11
7.157104084324816
 21
4.350847377544504
 31
0.0
  0
LINE
  5
220C3
330
2208B
100
AcDbEntity
  8
0
  6
CONTINUOUS
100
AcDbLine
 10
4.502596100172839
 20
6.331836152616295
 30
0.0
 11
3.49085634158574
 21
7.343575911203393
 31
0.0
  0
LINE
  5
220C4
330
2208B
100
AcDbEntity
  8
0
  6
CONTINUOUS
100
AcDbLine
 10
4.800684855018615
 20
6.707266606850705
 30
0.0
 11
3.788952905681008
 21
7.718998556188312
 31
0.0
  0
LINE
  5
220C5
330
2208B
100
AcDbEntity
  8
0
  6
CONTINUOUS
100
AcDbLine
 10
12.18154012887317
 20
-0.0000694579236642
 30
0.0
 11
11.32140332908496
 21
0.8600673418645499
 31
0.0
  0
LINE
  5
220C6
330
2208B
100
AcDbEntity
  8
0
  6
CONTINUOUS
100
AcDbLine
 10
12.85501608323566
 20
-0.0000262032059659
 30
0.0
 11
10.77672456435345
 21
2.078265315676246
 31
0.0
  0
LINE
  5
220C7
330
2208B
100
AcDbEntity
  8
0
  6
CONTINUOUS
100
AcDbLine
 10
9.813070670951886
 20
2.36839999999762
 30
0.0
 11
8.51047067095321
 21
3.670999999996297
 31
0.0
  0
LINE
  5
220C8
330
2208B
100
AcDbEntity
  8
0
  6
CONTINUOUS
100
AcDbLine
 10
10.48658988003207
 20
2.36839999999762
 30
0.0
 11
9.183989880033396
 21
3.670999999996297
 31
0.0
  0
LINE
  5
220C9
330
2208B
100
AcDbEntity
  8
0
  6
CONTINUOUS
100
AcDbLine
 10
8.441048632286794
 20
3.740422038662712
 30
0.0
 11
7.365286662056551
 21
4.816184008892956
 31
0.0
  0
LINE
  5
220CA
330
2208B
100
AcDbEntity
  8
0
  6
CONTINUOUS
100
AcDbLine
 10
8.649187485808454
 20
4.205802394221237
 30
0.0
 11
7.573469239788285
 21
5.281520640241407
 31
0.0
  0
LINE
  5
220CB
330
2208B
100
AcDbEntity
  8
0
  6
CONTINUOUS
100
AcDbLine
 10
5.098773609864391
 20
7.082697061085115
 30
0.0
 11
4.087049469776277
 21
8.09442120117323
 31
0.0
  0
LINE
  5
220CC
330
2208B
100
AcDbEntity
  8
0
  6
CONTINUOUS
100
AcDbLine
 10
5.396862364710167
 20
7.458127515319526
 30
0.0
 11
4.385146033871544
 21
8.469843846158149
 31
0.0
  0
LINE
  5
220CD
330
2208B
100
AcDbEntity
  8
0
  6
CONTINUOUS
100
AcDbLine
 10
13.04801363231285
 20
0.4804954567970334
 30
0.0
 11
9.85750908911358
 21
3.670999999996297
 31
0.0
  0
LINE
  5
220CE
330
2208B
100
AcDbEntity
  8
0
  6
CONTINUOUS
100
AcDbLine
 10
8.857326339330116
 20
4.671182749779763
 30
0.0
 11
7.781651817520021
 21
5.746857271589858
 31
0.0
  0
LINE
  5
220CF
330
2208B
100
AcDbEntity
  8
0
  6
CONTINUOUS
100
AcDbLine
 10
5.694951119555943
 20
7.833557969553937
 30
0.0
 11
4.765409089118624
 21
8.763099999991255
 31
0.0
  0
LINE
  5
220D0
330
2208B
100
AcDbEntity
  8
0
  6
CONTINUOUS
100
AcDbLine
 10
12.50286117236978
 20
1.699167125820288
 30
0.0
 11
9.68611877250287
 21
4.515909525687196
 31
0.0
  0
LINE
  5
220D1
330
2208B
100
AcDbEntity
  8
0
  6
CONTINUOUS
100
AcDbLine
 10
9.065465192851777
 20
5.136563105338288
 30
0.0
 11
7.989834395251757
 21
6.21219390293831
 31
0.0
  0
LINE
  5
220D2
330
2208B
100
AcDbEntity
  8
0
  6
CONTINUOUS
100
AcDbLine
 10
5.993039874401719
 20
8.208988423788346
 30
0.0
 11
5.43892829819881
 21
8.763099999991255
 31
0.0
  0
LINE
  5
220D3
330
2208B
100
AcDbEntity
  8
0
  6
CONTINUOUS
100
AcDbLine
 10
11.95770871242671
 20
2.917838794843543
 30
0.0
 11
8.19801697298349
 21
6.677530534286761
 31
0.0
  0
LINE
  5
220D4
330
2208B
100
AcDbEntity
  8
0
  6
CONTINUOUS
100
AcDbLine
 10
6.291128629247495
 20
8.584418878022756
 30
0.0
 11
6.112447507278997
 21
8.763099999991255
 31
0.0
  0
LINE
  5
220D5
330
2208B
100
AcDbEntity
  8
0
  6
CONTINUOUS
100
AcDbLine
 10
11.41255625248364
 20
4.136510463866797
 30
0.0
 11
8.406199550715227
 21
7.142867165635211
 31
0.0
  0
LINE
  5
220D6
330
2208B
100
AcDbEntity
  8
0
  6
CONTINUOUS
100
AcDbLine
 10
10.86740379254057
 20
5.355182132890051
 30
0.0
 11
8.614382128446962
 21
7.608203796983664
 31
0.0
  0
LINE
  5
220D7
330
2208B
100
AcDbEntity
  8
0
  6
CONTINUOUS
100
AcDbLine
 10
10.3222513325975
 20
6.573853801913305
 30
0.0
 11
8.822564706178696
 21
8.073540428332114
 31
0.0
  0
LINE
  5
220D8
330
2208B
100
AcDbEntity
  8
0
  6
CONTINUOUS
100
AcDbLine
 10
9.777098872654436
 20
7.792525470936562
 30
0.0
 11
9.030747283910433
 21
8.538877059680566
 31
0.0
  0
ENDBLK
  5
2221A
330
2208B
100
AcDbEntity
  8
0
100
AcDbBlockEnd
  0
BLOCK
  5
2221B
330
220D9
100
AcDbEntity
  8
0
100
AcDbBlockBegin
  2
*X48
 70
     1
 10
0.0
 20
0.0
 30
0.0
  3
*X48
  1

  0
LINE
  5
220DA
330
220D9
100
AcDbEntity
  8
0
  6
CONTINUOUS
100
AcDbLine
 10
10.67292308101235
 20
8.445076852443387
 30
0.0
 11
10.99094622856022
 21
8.763099999991255
 31
0.0
  0
LINE
  5
220DB
330
220D9
100
AcDbEntity
  8
0
  6
CONTINUOUS
100
AcDbLine
 10
10.87250383178748
 20
7.971138394138331
 30
0.0
 11
11.6644654376404
 21
8.763099999991255
 31
0.0
  0
LINE
  5
220DC
330
220D9
100
AcDbEntity
  8
0
  6
CONTINUOUS
100
AcDbLine
 10
11.07208458256261
 20
7.497199935833273
 30
0.0
 11
12.12126590876355
 21
8.546381262034211
 31
0.0
  0
LINE
  5
220DD
330
220D9
100
AcDbEntity
  8
0
  6
CONTINUOUS
100
AcDbLine
 10
11.27166533333774
 20
7.023261477528216
 30
0.0
 11
12.32085164573666
 21
8.072447789927136
 31
0.0
  0
LINE
  5
220DE
330
220D9
100
AcDbEntity
  8
0
  6
CONTINUOUS
100
AcDbLine
 10
11.47124608411287
 20
6.549323019223158
 30
0.0
 11
12.52043738270977
 21
7.59851431782006
 31
0.0
  0
LINE
  5
220DF
330
220D9
100
AcDbEntity
  8
0
  6
CONTINUOUS
100
AcDbLine
 10
11.670826834888
 20
6.075384560918101
 30
0.0
 11
12.72002311968288
 21
7.124580845712984
 31
0.0
  0
LINE
  5
220E0
330
220D9
100
AcDbEntity
  8
0
  6
CONTINUOUS
100
AcDbLine
 10
11.87040758566313
 20
5.601446102613043
 30
0.0
 11
12.91960885665599
 21
6.650647373605907
 31
0.0
  0
LINE
  5
220E1
330
220D9
100
AcDbEntity
  8
0
  6
CONTINUOUS
100
AcDbLine
 10
12.06998833643825
 20
5.127507644307986
 30
0.0
 11
13.1191945936291
 21
6.176713901498832
 31
0.0
  0
LINE
  5
220E2
330
220D9
100
AcDbEntity
  8
0
  6
CONTINUOUS
100
AcDbLine
 10
12.26956908721338
 20
4.65356918600293
 30
0.0
 11
13.31878033060221
 21
5.702780429391757
 31
0.0
  0
LINE
  5
220E3
330
220D9
100
AcDbEntity
  8
0
  6
CONTINUOUS
100
AcDbLine
 10
12.46914983798851
 20
4.179630727697873
 30
0.0
 11
13.51836606757532
 21
5.228846957284683
 31
0.0
  0
LINE
  5
220E4
330
220D9
100
AcDbEntity
  8
0
  6
CONTINUOUS
100
AcDbLine
 10
12.66873058876364
 20
3.705692269392816
 30
0.0
 11
13.71795180454843
 21
4.754913485177607
 31
0.0
  0
LINE
  5
220E5
330
220D9
100
AcDbEntity
  8
0
  6
CONTINUOUS
100
AcDbLine
 10
12.86831133953877
 20
3.231753811087759
 30
0.0
 11
13.91753754152154
 21
4.280980013070531
 31
0.0
  0
LINE
  5
220E6
330
220D9
100
AcDbEntity
  8
0
  6
CONTINUOUS
100
AcDbLine
 10
13.0678920903139
 20
2.757815352782702
 30
0.0
 11
14.11712327849465
 21
3.807046540963456
 31
0.0
  0
LINE
  5
220E7
330
220D9
100
AcDbEntity
  8
0
  6
CONTINUOUS
100
AcDbLine
 10
13.26747284108903
 20
2.283876894477644
 30
0.0
 11
14.31670901546777
 21
3.333113068856379
 31
0.0
  0
LINE
  5
220E8
330
220D9
100
AcDbEntity
  8
0
  6
CONTINUOUS
100
AcDbLine
 10
16.36767838827179
 20
8.751678487061342
 30
0.0
 11
16.50332410898388
 21
8.887324207773432
 31
0.0
  0
LINE
  5
220E9
330
220D9
100
AcDbEntity
  8
0
  6
CONTINUOUS
100
AcDbLine
 10
15.96190732182191
 20
7.67238821153127
 30
0.0
 11
16.68735328004734
 21
8.397834169756699
 31
0.0
  0
LINE
  5
220EA
330
220D9
100
AcDbEntity
  8
0
  6
CONTINUOUS
100
AcDbLine
 10
15.55613625537202
 20
6.593097936001196
 30
0.0
 11
16.87138245111079
 21
7.908344131739965
 31
0.0
  0
LINE
  5
220EB
330
220D9
100
AcDbEntity
  8
0
  6
CONTINUOUS
100
AcDbLine
 10
15.15036518892213
 20
5.513807660471122
 30
0.0
 11
17.05541162217424
 21
7.418854093723231
 31
0.0
  0
LINE
  5
220EC
330
220D9
100
AcDbEntity
  8
0
  6
CONTINUOUS
100
AcDbLine
 10
14.74459412247225
 20
4.434517384941048
 30
0.0
 11
17.2394407932377
 21
6.929364055706499
 31
0.0
  0
LINE
  5
220ED
330
220D9
100
AcDbEntity
  8
0
  6
CONTINUOUS
100
AcDbLine
 10
14.33882305602236
 20
3.355227109410975
 30
0.0
 11
17.42346996430115
 21
6.439874017689766
 31
0.0
  0
LINE
  5
220EE
330
220D9
100
AcDbEntity
  8
0
  6
CONTINUOUS
100
AcDbLine
 10
13.46705359186416
 20
1.809938436172586
 30
0.0
 11
16.0819338255367
 21
4.424818669845129
 31
0.0
  0
LINE
  5
220EF
330
220D9
100
AcDbEntity
  8
0
  6
CONTINUOUS
100
AcDbLine
 10
16.63283254238972
 20
4.975717386698149
 30
0.0
 11
17.60749913536461
 21
5.950383979673033
 31
0.0
  0
LINE
  5
220F0
330
220D9
100
AcDbEntity
  8
0
  6
CONTINUOUS
100
AcDbLine
 10
13.66663434263929
 20
1.335999977867529
 30
0.0
 11
15.67604797733754
 21
3.345413612565779
 31
0.0
  0
LINE
  5
220F1
330
220D9
100
AcDbEntity
  8
0
  6
CONTINUOUS
100
AcDbLine
 10
13.86621509341442
 20
0.8620615195624723
 30
0.0
 11
15.27016212913838
 21
2.26600855528643
 31
0.0
  0
LINE
  5
220F2
330
220D9
100
AcDbEntity
  8
0
  6
CONTINUOUS
100
AcDbLine
 10
16.81682257348267
 20
4.486188208710908
 30
0.0
 11
17.79152830642806
 21
5.460893941656299
 31
0.0
  0
LINE
  5
220F3
330
220D9
100
AcDbEntity
  8
0
  6
CONTINUOUS
100
AcDbLine
 10
17.00081260457561
 20
3.996659030723667
 30
0.0
 11
17.97555747749151
 21
4.971403903639565
 31
0.0
  0
LINE
  5
220F4
330
220D9
100
AcDbEntity
  8
0
  6
CONTINUOUS
100
AcDbLine
 10
20.74362343514722
 20
8.412989070375462
 30
0.0
 11
21.09373436476302
 21
8.763099999991256
 31
0.0
  0
LINE
  5
220F5
330
220D9
100
AcDbEntity
  8
0
  6
CONTINUOUS
100
AcDbLine
 10
20.25401257174777
 20
7.249858997895826
 30
0.0
 11
21.7672535738432
 21
8.763099999991255
 31
0.0
  0
LINE
  5
220F6
330
220D9
100
AcDbEntity
  8
0
  6
CONTINUOUS
100
AcDbLine
 10
14.06579584418955
 20
0.3881230612574149
 30
0.0
 11
14.86427628093921
 21
1.186603498007082
 31
0.0
  0
LINE
  5
220F7
330
220D9
100
AcDbEntity
  8
0
  6
CONTINUOUS
100
AcDbLine
 10
14.26537659496467
 20
-0.0858153970476412
 30
0.0
 11
14.45839043274005
 21
0.1071984407277329
 31
0.0
  0
LINE
  5
220F8
330
220D9
100
AcDbEntity
  8
0
  6
CONTINUOUS
100
AcDbLine
 10
17.18480263566856
 20
3.507129852736426
 30
0.0
 11
18.15958664855496
 21
4.481913865622833
 31
0.0
  0
LINE
  5
220F9
330
220D9
100
AcDbEntity
  8
0
  6
CONTINUOUS
100
AcDbLine
 10
17.3687926667615
 20
3.017600674749186
 30
0.0
 11
18.34361581961842
 21
3.9924238276061
 31
0.0
  0
LINE
  5
220FA
330
220D9
100
AcDbEntity
  8
0
  6
CONTINUOUS
100
AcDbLine
 10
19.76440170834832
 20
6.086728925416191
 30
0.0
 11
22.33924590259489
 21
8.661573119662755
 31
0.0
  0
LINE
  5
220FB
330
220D9
100
AcDbEntity
  8
0
  6
CONTINUOUS
100
AcDbLine
 10
19.27479084494887
 20
4.923598852936555
 30
0.0
 11
21.84929622842713
 21
7.498104236414807
 31
0.0
  0
LINE
  5
220FC
330
220D9
100
AcDbEntity
  8
0
  6
CONTINUOUS
100
AcDbLine
 10
17.55278269785445
 20
2.528071496761945
 30
0.0
 11
18.52764499068187
 21
3.502933789589366
 31
0.0
  0
LINE
  5
220FD
330
220D9
100
AcDbEntity
  8
0
  6
CONTINUOUS
100
AcDbLine
 10
18.78517998154942
 20
3.760468780456919
 30
0.0
 11
21.35934655425936
 21
6.33463535316686
 31
0.0
  0
LINE
  5
220FE
330
220D9
100
AcDbEntity
  8
0
  6
CONTINUOUS
100
AcDbLine
 10
17.73677272894739
 20
2.038542318774704
 30
0.0
 11
20.8693968800916
 21
5.171166469918914
 31
0.0
  0
LINE
  5
220FF
330
220D9
100
AcDbEntity
  8
0
  6
CONTINUOUS
100
AcDbLine
 10
17.92076276004034
 20
1.549013140787464
 30
0.0
 11
20.37944720592384
 21
4.007697586670968
 31
0.0
  0
LINE
  5
22100
330
220D9
100
AcDbEntity
  8
0
  6
CONTINUOUS
100
AcDbLine
 10
18.10475279113329
 20
1.059483962800223
 30
0.0
 11
19.88949753175608
 21
2.84422870342302
 31
0.0
  0
LINE
  5
22101
330
220D9
100
AcDbEntity
  8
0
  6
CONTINUOUS
100
AcDbLine
 10
18.28874282222623
 20
0.5699547848129822
 30
0.0
 11
19.39954785758832
 21
1.680759820175074
 31
0.0
  0
LINE
  5
22102
330
220D9
100
AcDbEntity
  8
0
  6
CONTINUOUS
100
AcDbLine
 10
18.47273285331918
 20
0.0804256068257416
 30
0.0
 11
18.90959818342056
 21
0.517290936927127
 31
0.0
  0
LINE
  5
22103
330
220D9
100
AcDbEntity
  8
0
  6
CONTINUOUS
100
AcDbLine
 10
14.3590401358224
 20
-0.1570118376323384
 30
0.0
 11
14.24903296539946
 21
-0.0470046672093929
 31
0.0
  0
LINE
  5
22104
330
220D9
100
AcDbEntity
  8
0
  6
CONTINUOUS
100
AcDbLine
 10
14.54309291258661
 20
0.332454594683643
 30
0.0
 11
13.75908329123172
 21
1.116464216038529
 31
0.0
  0
LINE
  5
22105
330
220D9
100
AcDbEntity
  8
0
  6
CONTINUOUS
100
AcDbLine
 10
14.72714568935081
 20
0.8219210269996244
 30
0.0
 11
13.26913361706399
 21
2.27993309928645
 31
0.0
  0
LINE
  5
22106
330
220D9
100
AcDbEntity
  8
0
  6
CONTINUOUS
100
AcDbLine
 10
14.91119846611502
 20
1.311387459315606
 30
0.0
 11
12.77918394289625
 21
3.443401982534371
 31
0.0
  0
LINE
  5
22107
330
220D9
100
AcDbEntity
  8
0
  6
CONTINUOUS
100
AcDbLine
 10
15.09525124287922
 20
1.800853891631587
 30
0.0
 11
12.28923426872852
 21
4.606870865782293
 31
0.0
  0
LINE
  5
22108
330
220D9
100
AcDbEntity
  8
0
  6
CONTINUOUS
100
AcDbLine
 10
15.27930401964343
 20
2.290320323947569
 30
0.0
 11
11.79928459456078
 21
5.770339749030213
 31
0.0
  0
LINE
  5
22109
330
220D9
100
AcDbEntity
  8
0
  6
CONTINUOUS
100
AcDbLine
 10
15.46335679640763
 20
2.77978675626355
 30
0.0
 11
14.48885470994921
 21
3.754288842721972
 31
0.0
  0
LINE
  5
2210A
330
220D9
100
AcDbEntity
  8
0
  6
CONTINUOUS
100
AcDbLine
 10
13.88507249233704
 20
4.358071060334137
 30
0.0
 11
11.30933492039305
 21
6.933808632278135
 31
0.0
  0
LINE
  5
2210B
330
220D9
100
AcDbEntity
  8
0
  6
CONTINUOUS
100
AcDbLine
 10
18.75840522805855
 20
0.1582575336928151
 30
0.0
 11
18.25383727664818
 21
0.6628254851031863
 31
0.0
  0
LINE
  5
2210C
330
220D9
100
AcDbEntity
  8
0
  6
CONTINUOUS
100
AcDbLine
 10
15.64740957317184
 20
3.269253188579531
 30
0.0
 11
14.67288388101266
 21
4.243778880738705
 31
0.0
  0
LINE
  5
2210D
330
220D9
100
AcDbEntity
  8
0
  6
CONTINUOUS
100
AcDbLine
 10
13.39509276772158
 20
5.521569994029786
 30
0.0
 11
10.81938524622531
 21
8.097277515526056
 31
0.0
  0
LINE
  5
2210E
330
220D9
100
AcDbEntity
  8
0
  6
CONTINUOUS
100
AcDbLine
 10
18.95798597883369
 20
0.6321959919978686
 30
0.0
 11
17.84825644852853
 21
1.741925522303024
 31
0.0
  0
LINE
  5
2210F
330
220D9
100
AcDbEntity
  8
0
  6
CONTINUOUS
100
AcDbLine
 10
19.15756672960882
 20
1.106134450302922
 30
0.0
 11
17.44267562040888
 21
2.821025559502861
 31
0.0
  0
LINE
  5
22110
330
220D9
100
AcDbEntity
  8
0
  6
CONTINUOUS
100
AcDbLine
 10
15.83146234993604
 20
3.758719620895513
 30
0.0
 11
14.85691305207612
 21
4.733268918755439
 31
0.0
  0
LINE
  5
22111
330
220D9
100
AcDbEntity
  8
0
  6
CONTINUOUS
100
AcDbLine
 10
16.01551512670025
 20
4.248186053211494
 30
0.0
 11
15.04094222313957
 21
5.222758956772172
 31
0.0
  0
LINE
  5
22112
330
220D9
100
AcDbEntity
  8
0
  6
CONTINUOUS
100
AcDbLine
 10
12.90511304310612
 20
6.685068927725435
 30
0.0
 11
10.8270819708403
 21
8.763099999991255
 31
0.0
  0
LINE
  5
22113
330
220D9
100
AcDbEntity
  8
0
  6
CONTINUOUS
100
AcDbLine
 10
12.41513331849066
 20
7.848567861421083
 30
0.0
 11
11.50060117992049
 21
8.763099999991255
 31
0.0
  0
LINE
  5
22114
330
220D9
100
AcDbEntity
  8
0
  6
CONTINUOUS
100
AcDbLine
 10
19.35714748038395
 20
1.580072908607975
 30
0.0
 11
17.03709479228923
 21
3.900125596702697
 31
0.0
  0
LINE
  5
22115
330
220D9
100
AcDbEntity
  8
0
  6
CONTINUOUS
100
AcDbLine
 10
19.55672823115909
 20
2.054011366913028
 30
0.0
 11
16.63151396416958
 21
4.979225633902534
 31
0.0
  0
LINE
  5
22116
330
220D9
100
AcDbEntity
  8
0
  6
CONTINUOUS
100
AcDbLine
 10
16.19956790346445
 20
4.737652485527476
 30
0.0
 11
15.22497139420302
 21
5.712248994788904
 31
0.0
  0
LINE
  5
22117
330
220D9
100
AcDbEntity
  8
0
  6
CONTINUOUS
100
AcDbLine
 10
16.38362068022866
 20
5.227118917843457
 30
0.0
 11
15.40900056526648
 21
6.201739032805637
 31
0.0
  0
LINE
  5
22118
330
220D9
100
AcDbEntity
  8
0
  6
CONTINUOUS
100
AcDbLine
 10
19.75630898193422
 20
2.527949825218081
 30
0.0
 11
18.70774536448286
 21
3.576513442669441
 31
0.0
  0
LINE
  5
22119
330
220D9
100
AcDbEntity
  8
0
  6
CONTINUOUS
100
AcDbLine
 10
19.95588973270936
 20
3.001888283523134
 30
0.0
 11
18.90726987211446
 21
4.050508144118028
 31
0.0
  0
LINE
  5
2211A
330
220D9
100
AcDbEntity
  8
0
  6
CONTINUOUS
100
AcDbLine
 10
20.15547048348449
 20
3.475826741828186
 30
0.0
 11
19.10679437974606
 21
4.524502845566614
 31
0.0
  0
LINE
  5
2211B
330
220D9
100
AcDbEntity
  8
0
  6
CONTINUOUS
100
AcDbLine
 10
20.35505123425962
 20
3.94976520013324
 30
0.0
 11
19.30631888737766
 21
4.998497547015201
 31
0.0
  0
LINE
  5
2211C
330
220D9
100
AcDbEntity
  8
0
  6
CONTINUOUS
100
AcDbLine
 10
20.55463198503475
 20
4.423703658438292
 30
0.0
 11
19.50584339500926
 21
5.472492248463787
 31
0.0
  0
LINE
  5
2211D
330
220D9
100
AcDbEntity
  8
0
  6
CONTINUOUS
100
AcDbLine
 10
18.37481191085755
 20
3.909446896294752
 30
0.0
 11
15.59302973632993
 21
6.691229070822371
 31
0.0
  0
LINE
  5
2211E
330
220D9
100
AcDbEntity
  8
0
  6
CONTINUOUS
100
AcDbLine
 10
17.96904084440766
 20
4.988737171824825
 30
0.0
 11
15.77705890739338
 21
7.180719108839104
 31
0.0
  0
LINE
  5
2211F
330
220D9
100
AcDbEntity
  8
0
  6
CONTINUOUS
100
AcDbLine
 10
17.56326977795777
 20
6.068027447354899
 30
0.0
 11
15.96108807845684
 21
7.670209146855838
 31
0.0
  0
LINE
  5
22120
330
220D9
100
AcDbEntity
  8
0
  6
CONTINUOUS
100
AcDbLine
 10
17.15749871150789
 20
7.147317722884972
 30
0.0
 11
16.14511724952029
 21
8.15969918487257
 31
0.0
  0
LINE
  5
22121
330
220D9
100
AcDbEntity
  8
0
  6
CONTINUOUS
100
AcDbLine
 10
16.751727645058
 20
8.226607998415046
 30
0.0
 11
16.32914642058374
 21
8.649189222889303
 31
0.0
  0
LINE
  5
22122
330
220D9
100
AcDbEntity
  8
0
  6
CONTINUOUS
100
AcDbLine
 10
20.75421273580989
 20
4.897642116743345
 30
0.0
 11
19.70536790264086
 21
5.946486949912374
 31
0.0
  0
LINE
  5
22123
330
220D9
100
AcDbEntity
  8
0
  6
CONTINUOUS
100
AcDbLine
 10
20.95379348658502
 20
5.371580575048398
 30
0.0
 11
19.90489241027246
 21
6.42048165136096
 31
0.0
  0
LINE
  5
22124
330
220D9
100
AcDbEntity
  8
0
  6
CONTINUOUS
100
AcDbLine
 10
21.15337423736015
 20
5.845519033353452
 30
0.0
 11
20.10441691790406
 21
6.894476352809547
 31
0.0
  0
LINE
  5
22125
330
220D9
100
AcDbEntity
  8
0
  6
CONTINUOUS
100
AcDbLine
 10
21.35295498813529
 20
6.319457491658505
 30
0.0
 11
20.30394142553566
 21
7.368471054258134
 31
0.0
  0
LINE
  5
22126
330
220D9
100
AcDbEntity
  8
0
  6
CONTINUOUS
100
AcDbLine
 10
21.55253573891042
 20
6.793395949963558
 30
0.0
 11
20.50346593316726
 21
7.842465755706721
 31
0.0
  0
LINE
  5
22127
330
220D9
100
AcDbEntity
  8
0
  6
CONTINUOUS
100
AcDbLine
 10
21.75211648968556
 20
7.267334408268612
 30
0.0
 11
20.70299044079886
 21
8.316460457155308
 31
0.0
  0
LINE
  5
22128
330
220D9
100
AcDbEntity
  8
0
  6
CONTINUOUS
100
AcDbLine
 10
21.95169724046069
 20
7.741272866573663
 30
0.0
 11
20.9298701070431
 21
8.763099999991256
 31
0.0
  0
LINE
  5
22129
330
220D9
100
AcDbEntity
  8
0
  6
CONTINUOUS
100
AcDbLine
 10
22.15127799123582
 20
8.215211324878716
 30
0.0
 11
21.60338931612328
 21
8.763099999991256
 31
0.0
  0
LINE
  5
2212A
330
220D9
100
AcDbEntity
  8
0
  6
CONTINUOUS
100
AcDbLine
 10
22.35085874201096
 20
8.689149783183769
 30
0.0
 11
22.27690852520347
 21
8.763099999991255
 31
0.0
  0
ENDBLK
  5
2221C
330
220D9
100
AcDbEntity
  8
0
100
AcDbBlockEnd
  0
BLOCK
  5
2221D
330
2212B
100
AcDbEntity
  8
0
100
AcDbBlockBegin
  2
*X49
 70
     1
 10
0.0
 20
0.0
 30
0.0
  3
*X49
  1

  0
LINE
  5
2212C
330
2212B
100
AcDbEntity
  8
0
  6
CONTINUOUS
100
AcDbLine
 10
23.19462913593892
 20
8.169917934846424
 30
0.0
 11
23.70775465517246
 21
8.683043454079957
 31
0.0
  0
LINE
  5
2212D
330
2212B
100
AcDbEntity
  8
0
  6
CONTINUOUS
100
AcDbLine
 10
22.64923161835078
 20
6.951001208178088
 30
0.0
 11
23.9159364069932
 21
8.217705996820516
 31
0.0
  0
LINE
  5
2212E
330
2212B
100
AcDbEntity
  8
0
  6
CONTINUOUS
100
AcDbLine
 10
22.10383410076263
 20
5.732084481509751
 30
0.0
 11
24.12411815881395
 21
7.752368539561078
 31
0.0
  0
LINE
  5
2212F
330
2212B
100
AcDbEntity
  8
0
  6
CONTINUOUS
100
AcDbLine
 10
21.55843658317447
 20
4.513167754841414
 30
0.0
 11
24.3322999106347
 21
7.287031082301639
 31
0.0
  0
LINE
  5
22130
330
2212B
100
AcDbEntity
  8
0
  6
CONTINUOUS
100
AcDbLine
 10
21.01303906558632
 20
3.294251028173077
 30
0.0
 11
24.54048166245544
 21
6.821693625042199
 31
0.0
  0
LINE
  5
22131
330
2212B
100
AcDbEntity
  8
0
  6
CONTINUOUS
100
AcDbLine
 10
20.46764154799817
 20
2.075334301504738
 30
0.0
 11
23.28571549467848
 21
4.89340824818505
 31
0.0
  0
LINE
  5
22132
330
2212B
100
AcDbEntity
  8
0
  6
CONTINUOUS
100
AcDbLine
 10
19.92224403041002
 20
0.8564175748364002
 30
0.0
 11
22.74075865492779
 21
3.674932199354171
 31
0.0
  0
LINE
  5
22133
330
2212B
100
AcDbEntity
  8
0
  6
CONTINUOUS
100
AcDbLine
 10
23.67305085490148
 20
5.280743608408048
 30
0.0
 11
24.74866341427619
 21
6.356356167782759
 31
0.0
  0
LINE
  5
22134
330
2212B
100
AcDbEntity
  8
0
  6
CONTINUOUS
100
AcDbLine
 10
23.88118970842314
 20
4.815363252849522
 30
0.0
 11
24.95684516609694
 21
5.89101871052332
 31
0.0
  0
LINE
  5
22135
330
2212B
100
AcDbEntity
  8
0
  6
CONTINUOUS
100
AcDbLine
 10
19.73925852647308
 20
-0.0000871381807288
 30
0.0
 11
23.4103456646501
 21
3.670999999996297
 31
0.0
  0
LINE
  5
22136
330
2212B
100
AcDbEntity
  8
0
  6
CONTINUOUS
100
AcDbLine
 10
24.0893285619448
 20
4.349982897290997
 30
0.0
 11
25.16502691791769
 21
5.42568125326388
 31
0.0
  0
LINE
  5
22137
330
2212B
100
AcDbEntity
  8
0
  6
CONTINUOUS
100
AcDbLine
 10
20.41282099582748
 20
-0.0000438779065108
 30
0.0
 11
21.64944178675636
 21
1.236576913022366
 31
0.0
  0
LINE
  5
22138
330
2212B
100
AcDbEntity
  8
0
  6
CONTINUOUS
100
AcDbLine
 10
22.78126487373161
 20
2.36839999999762
 30
0.0
 11
24.08386487373029
 21
3.670999999996297
 31
0.0
  0
LINE
  5
22139
330
2212B
100
AcDbEntity
  8
0
  6
CONTINUOUS
100
AcDbLine
 10
24.29746741546646
 20
3.884602541732471
 30
0.0
 11
25.37320866973843
 21
4.960343796004441
 31
0.0
  0
LINE
  5
2213A
330
2212B
100
AcDbEntity
  8
0
  6
CONTINUOUS
100
AcDbLine
 10
21.08638346518189
 20
-0.0000006176322938
 30
0.0
 11
21.10379033335899
 21
0.0174062505448083
 31
0.0
  0
LINE
  5
2213B
330
2212B
100
AcDbEntity
  8
0
  6
CONTINUOUS
100
AcDbLine
 10
23.4547840828118
 20
2.36839999999762
 30
0.0
 11
25.58139042155918
 21
4.495006338745002
 31
0.0
  0
LINE
  5
2213C
330
2212B
100
AcDbEntity
  8
0
  6
CONTINUOUS
100
AcDbLine
 10
29.30199999996933
 20
8.215615917155148
 30
0.0
 11
29.84948408280543
 21
8.763099999991255
 31
0.0
  0
LINE
  5
2213D
330
2212B
100
AcDbEntity
  8
0
  6
CONTINUOUS
100
AcDbLine
 10
24.12830329189199
 20
2.36839999999762
 30
0.0
 11
25.78957217337993
 21
4.029668881485562
 31
0.0
  0
LINE
  5
2213E
330
2212B
100
AcDbEntity
  8
0
  6
CONTINUOUS
100
AcDbLine
 10
29.30199999996933
 20
7.54209670807496
 30
0.0
 11
30.52300329188562
 21
8.763099999991255
 31
0.0
  0
LINE
  5
2213F
330
2212B
100
AcDbEntity
  8
0
  6
CONTINUOUS
100
AcDbLine
 10
24.80182250097217
 20
2.36839999999762
 30
0.0
 11
25.99775392520067
 21
3.564331424226122
 31
0.0
  0
LINE
  5
22140
330
2212B
100
AcDbEntity
  8
0
  6
CONTINUOUS
100
AcDbLine
 10
29.30199999996933
 20
6.868577498994774
 30
0.0
 11
30.74199999996926
 21
8.308577498994712
 31
0.0
  0
LINE
  5
22141
330
2212B
100
AcDbEntity
  8
0
  6
CONTINUOUS
100
AcDbLine
 10
25.13028238392013
 20
2.023340673865392
 30
0.0
 11
26.20593567702142
 21
3.098993966966683
 31
0.0
  0
LINE
  5
22142
330
2212B
100
AcDbEntity
  8
0
  6
CONTINUOUS
100
AcDbLine
 10
25.33838066033617
 20
1.557919741201244
 30
0.0
 11
26.41411742884217
 21
2.633656509707244
 31
0.0
  0
LINE
  5
22143
330
2212B
100
AcDbEntity
  8
0
  6
CONTINUOUS
100
AcDbLine
 10
25.54647893675221
 20
1.092498808537098
 30
0.0
 11
26.62229918066291
 21
2.168319052447804
 31
0.0
  0
LINE
  5
22144
330
2212B
100
AcDbEntity
  8
0
  6
CONTINUOUS
100
AcDbLine
 10
25.75457721316825
 20
0.62707787587295
 30
0.0
 11
26.83048093248366
 21
1.702981595188365
 31
0.0
  0
LINE
  5
22145
330
2212B
100
AcDbEntity
  8
0
  6
CONTINUOUS
100
AcDbLine
 10
29.30199999996933
 20
6.195058289914587
 30
0.0
 11
30.74199999996926
 21
7.635058289914522
 31
0.0
  0
LINE
  5
22146
330
2212B
100
AcDbEntity
  8
0
  6
CONTINUOUS
100
AcDbLine
 10
29.30199999996933
 20
5.521539080834401
 30
0.0
 11
30.74199999996926
 21
6.961539080834331
 31
0.0
  0
LINE
  5
22147
330
2212B
100
AcDbEntity
  8
0
  6
CONTINUOUS
100
AcDbLine
 10
29.30199999996933
 20
4.848019871754214
 30
0.0
 11
30.74199999996925
 21
6.288019871754143
 31
0.0
  0
LINE
  5
22148
330
2212B
100
AcDbEntity
  8
0
  6
CONTINUOUS
100
AcDbLine
 10
29.30199999996933
 20
4.174500662674028
 30
0.0
 11
30.74199999996925
 21
5.614500662673953
 31
0.0
  0
LINE
  5
22149
330
2212B
100
AcDbEntity
  8
0
  6
CONTINUOUS
100
AcDbLine
 10
25.96267548958429
 20
0.1616569432088024
 30
0.0
 11
27.18411854636669
 21
1.383099999991207
 31
0.0
  0
LINE
  5
2214A
330
2212B
100
AcDbEntity
  8
0
  6
CONTINUOUS
100
AcDbLine
 10
29.30199999996933
 20
3.500981453593841
 30
0.0
 11
30.74199999996925
 21
4.940981453593762
 31
0.0
  0
LINE
  5
2214B
330
2212B
100
AcDbEntity
  8
0
  6
CONTINUOUS
100
AcDbLine
 10
26.50763775544691
 20
0.0330999999912356
 30
0.0
 11
27.85763775544689
 21
1.383099999991223
 31
0.0
  0
LINE
  5
2214C
330
2212B
100
AcDbEntity
  8
0
  6
CONTINUOUS
100
AcDbLine
 10
29.30199999996933
 20
2.827462244513656
 30
0.0
 11
30.74199999996925
 21
4.267462244513574
 31
0.0
  0
LINE
  5
2214D
330
2212B
100
AcDbEntity
  8
0
  6
CONTINUOUS
100
AcDbLine
 10
27.18115696452709
 20
0.0330999999912356
 30
0.0
 11
28.55073879889363
 21
1.402681834357775
 31
0.0
  0
LINE
  5
2214E
330
2212B
100
AcDbEntity
  8
0
  6
CONTINUOUS
100
AcDbLine
 10
29.28241816560272
 20
2.134361201066866
 30
0.0
 11
30.74199999996924
 21
3.593943035433383
 31
0.0
  0
LINE
  5
2214F
330
2212B
100
AcDbEntity
  8
0
  6
CONTINUOUS
100
AcDbLine
 10
27.85467617360728
 20
0.0330999999912356
 30
0.0
 11
30.74199999996924
 21
2.920423826353195
 31
0.0
  0
LINE
  5
22150
330
2212B
100
AcDbEntity
  8
0
  6
CONTINUOUS
100
AcDbLine
 10
28.53897559587887
 20
0.0438802131826428
 30
0.0
 11
30.73121978677781
 21
2.236124404081585
 31
0.0
  0
LINE
  5
22151
330
2212B
100
AcDbEntity
  8
0
  6
CONTINUOUS
100
AcDbLine
 10
29.45140055588722
 20
0.2827859641107988
 30
0.0
 11
30.49231403584965
 21
1.323699444073236
 31
0.0
  0
LINE
  5
22152
330
2212B
100
AcDbEntity
  8
0
  6
CONTINUOUS
100
AcDbLine
 10
19.59027867740337
 20
-0.0000967065718083
 30
0.0
 11
19.55485265190471
 21
0.035329318926844
 31
0.0
  0
LINE
  5
22153
330
2212B
100
AcDbEntity
  8
0
  6
CONTINUOUS
100
AcDbLine
 10
20.26375463176586
 20
-0.0000534518541091
 30
0.0
 11
19.76305575737534
 21
0.5006454225364014
 31
0.0
  0
LINE
  5
22154
330
2212B
100
AcDbEntity
  8
0
  6
CONTINUOUS
100
AcDbLine
 10
20.93723058612834
 20
-0.0000101971364099
 30
0.0
 11
19.97125886284597
 21
0.965961526145958
 31
0.0
  0
LINE
  5
22155
330
2212B
100
AcDbEntity
  8
0
  6
CONTINUOUS
100
AcDbLine
 10
21.25514828313686
 20
0.355591314935257
 30
0.0
 11
20.1794619683166
 21
1.431277629755512
 31
0.0
  0
LINE
  5
22156
330
2212B
100
AcDbEntity
  8
0
  6
CONTINUOUS
100
AcDbLine
 10
21.46338838394921
 20
0.8208704232030986
 30
0.0
 11
20.38766507378723
 21
1.896593733365069
 31
0.0
  0
LINE
  5
22157
330
2212B
100
AcDbEntity
  8
0
  6
CONTINUOUS
100
AcDbLine
 10
21.67162848476155
 20
1.28614953147094
 30
0.0
 11
20.59586817925786
 21
2.361909836974626
 31
0.0
  0
LINE
  5
22158
330
2212B
100
AcDbEntity
  8
0
  6
CONTINUOUS
100
AcDbLine
 10
21.8798685855739
 20
1.751428639738782
 30
0.0
 11
20.80407128472849
 21
2.827225940584183
 31
0.0
  0
LINE
  5
22159
330
2212B
100
AcDbEntity
  8
0
  6
CONTINUOUS
100
AcDbLine
 10
22.08810868638624
 20
2.216707748006623
 30
0.0
 11
21.01227439019912
 21
3.292542044193739
 31
0.0
  0
LINE
  5
2215A
330
2212B
100
AcDbEntity
  8
0
  6
CONTINUOUS
100
AcDbLine
 10
22.60993564347543
 20
2.36839999999762
 30
0.0
 11
21.22047749566975
 21
3.757858147803296
 31
0.0
  0
LINE
  5
2215B
330
2212B
100
AcDbEntity
  8
0
  6
CONTINUOUS
100
AcDbLine
 10
23.28345485255561
 20
2.36839999999762
 30
0.0
 11
21.42868060114038
 21
4.223174251412853
 31
0.0
  0
LINE
  5
2215C
330
2212B
100
AcDbEntity
  8
0
  6
CONTINUOUS
100
AcDbLine
 10
26.29227406164219
 20
0.0330999999912356
 30
0.0
 11
25.80009199592872
 21
0.5252820657046957
 31
0.0
  0
LINE
  5
2215D
330
2212B
100
AcDbEntity
  8
0
  6
CONTINUOUS
100
AcDbLine
 10
23.9569740616358
 20
2.36839999999762
 30
0.0
 11
21.63688370661101
 21
4.688490355022409
 31
0.0
  0
LINE
  5
2215E
330
2212B
100
AcDbEntity
  8
0
  6
CONTINUOUS
100
AcDbLine
 10
26.96579327072237
 20
0.0330999999912356
 30
0.0
 11
25.2554132311971
 21
1.743480039516508
 31
0.0
  0
LINE
  5
2215F
330
2212B
100
AcDbEntity
  8
0
  6
CONTINUOUS
100
AcDbLine
 10
24.63049327071599
 20
2.36839999999762
 30
0.0
 11
23.32789327071731
 21
3.670999999996297
 31
0.0
  0
LINE
  5
22160
330
2212B
100
AcDbEntity
  8
0
  6
CONTINUOUS
100
AcDbLine
 10
22.92098674744635
 20
4.077906523267254
 30
0.0
 11
21.84508681208164
 21
5.153806458631966
 31
0.0
  0
LINE
  5
22161
330
2212B
100
AcDbEntity
  8
0
  6
CONTINUOUS
100
AcDbLine
 10
27.63931247980256
 20
0.0330999999912356
 30
0.0
 11
24.0014124797975
 21
3.670999999996297
 31
0.0
  0
LINE
  5
22162
330
2212B
100
AcDbEntity
  8
0
  6
CONTINUOUS
100
AcDbLine
 10
23.129125600968
 20
4.5432868788258
 30
0.0
 11
22.05328991755227
 21
5.619122562241522
 31
0.0
  0
LINE
  5
22163
330
2212B
100
AcDbEntity
  8
0
  6
CONTINUOUS
100
AcDbLine
 10
28.31283168888275
 20
0.0330999999912356
 30
0.0
 11
24.16488385994816
 21
4.181047828925828
 31
0.0
  0
LINE
  5
22164
330
2212B
100
AcDbEntity
  8
0
  6
CONTINUOUS
100
AcDbLine
 10
23.33726445448964
 20
5.008667234384345
 30
0.0
 11
22.2614930230229
 21
6.084438665851079
 31
0.0
  0
LINE
  5
22165
330
2212B
100
AcDbEntity
  8
0
  6
CONTINUOUS
100
AcDbLine
 10
28.92085740005492
 20
0.0985934978992438
 30
0.0
 11
27.63635089796295
 21
1.383099999991217
 31
0.0
  0
LINE
  5
22166
330
2212B
100
AcDbEntity
  8
0
  6
CONTINUOUS
100
AcDbLine
 10
26.43704649509776
 20
2.582404402856405
 30
0.0
 11
23.61992702019732
 21
5.399523877756844
 31
0.0
  0
LINE
  5
22167
330
2212B
100
AcDbEntity
  8
0
  6
CONTINUOUS
100
AcDbLine
 10
23.54540330801128
 20
5.47404758994289
 30
0.0
 11
22.46969612849353
 21
6.549754769460635
 31
0.0
  0
LINE
  5
22168
330
2212B
100
AcDbEntity
  8
0
  6
CONTINUOUS
100
AcDbLine
 10
29.42225615078443
 20
0.2707139562499279
 30
0.0
 11
28.30987010704312
 21
1.383099999991234
 31
0.0
  0
LINE
  5
22169
330
2212B
100
AcDbEntity
  8
0
  6
CONTINUOUS
100
AcDbLine
 10
25.89179548232307
 20
3.801174624711282
 30
0.0
 11
22.67789923396416
 21
7.015070873070191
 31
0.0
  0
LINE
  5
2216A
330
2212B
100
AcDbEntity
  8
0
  6
CONTINUOUS
100
AcDbLine
 10
29.83624534690007
 20
0.5302439692144705
 30
0.0
 11
28.85811781497101
 21
1.508371501143527
 31
0.0
  0
LINE
  5
2216B
330
2212B
100
AcDbEntity
  8
0
  6
CONTINUOUS
100
AcDbLine
 10
25.34654446954838
 20
5.01994484656616
 30
0.0
 11
22.88610233943479
 21
7.480386976679748
 31
0.0
  0
LINE
  5
2216C
330
2212B
100
AcDbEntity
  8
0
  6
CONTINUOUS
100
AcDbLine
 10
30.17865975401872
 20
0.8613487711760022
 30
0.0
 11
29.18888744090175
 21
1.851121084292977
 31
0.0
  0
LINE
  5
2216D
330
2212B
100
AcDbEntity
  8
0
  6
CONTINUOUS
100
AcDbLine
 10
24.80129345677369
 20
6.238715068421037
 30
0.0
 11
23.09430544490542
 21
7.945703080289305
 31
0.0
  0
LINE
  5
2216E
330
2212B
100
AcDbEntity
  8
0
  6
CONTINUOUS
100
AcDbLine
 10
30.45496647202376
 20
1.258561262251155
 30
0.0
 11
29.30199999996933
 21
2.411527734305588
 31
0.0
  0
LINE
  5
2216F
330
2212B
100
AcDbEntity
  8
0
  6
CONTINUOUS
100
AcDbLine
 10
24.256042443999
 20
7.457485290275915
 30
0.0
 11
23.30250855037605
 21
8.411019183898862
 31
0.0
  0
LINE
  5
22170
330
2212B
100
AcDbEntity
  8
0
  6
CONTINUOUS
100
AcDbLine
 10
30.64868582078271
 20
1.738361122572387
 30
0.0
 11
29.30199999996933
 21
3.085046943385775
 31
0.0
  0
LINE
  5
22171
330
2212B
100
AcDbEntity
  8
0
  6
CONTINUOUS
100
AcDbLine
 10
23.71079143122431
 20
8.676255512130794
 30
0.0
 11
23.51071165584668
 21
8.876335287508416
 31
0.0
  0
LINE
  5
22172
330
2212B
100
AcDbEntity
  8
0
  6
CONTINUOUS
100
AcDbLine
 10
30.73802122914428
 20
2.322544923291007
 30
0.0
 11
29.30199999996933
 21
3.758566152465961
 31
0.0
  0
LINE
  5
22173
330
2212B
100
AcDbEntity
  8
0
  6
CONTINUOUS
100
AcDbLine
 10
30.74199999996924
 20
2.992085361546236
 30
0.0
 11
29.30199999996933
 21
4.432085361546148
 31
0.0
  0
LINE
  5
22174
330
2212B
100
AcDbEntity
  8
0
  6
CONTINUOUS
100
AcDbLine
 10
30.74199999996924
 20
3.665604570626419
 30
0.0
 11
29.30199999996933
 21
5.105604570626333
 31
0.0
  0
LINE
  5
22175
330
2212B
100
AcDbEntity
  8
0
  6
CONTINUOUS
100
AcDbLine
 10
30.74199999996925
 20
4.339123779706602
 30
0.0
 11
29.30199999996933
 21
5.77912377970652
 31
0.0
  0
LINE
  5
22176
330
2212B
100
AcDbEntity
  8
0
  6
CONTINUOUS
100
AcDbLine
 10
30.74199999996925
 20
5.012642988786785
 30
0.0
 11
29.30199999996933
 21
6.452642988786707
 31
0.0
  0
LINE
  5
22177
330
2212B
100
AcDbEntity
  8
0
  6
CONTINUOUS
100
AcDbLine
 10
30.74199999996925
 20
5.68616219786697
 30
0.0
 11
29.30199999996933
 21
7.126162197866894
 31
0.0
  0
LINE
  5
22178
330
2212B
100
AcDbEntity
  8
0
  6
CONTINUOUS
100
AcDbLine
 10
30.74199999996925
 20
6.359681406947153
 30
0.0
 11
29.30199999996933
 21
7.799681406947081
 31
0.0
  0
LINE
  5
22179
330
2212B
100
AcDbEntity
  8
0
  6
CONTINUOUS
100
AcDbLine
 10
30.74199999996926
 20
7.033200616027337
 30
0.0
 11
29.30199999996933
 21
8.473200616027269
 31
0.0
  0
LINE
  5
2217A
330
2212B
100
AcDbEntity
  8
0
  6
CONTINUOUS
100
AcDbLine
 10
30.74199999996926
 20
7.706719825107518
 30
0.0
 11
29.68561982508552
 21
8.763099999991255
 31
0.0
  0
LINE
  5
2217B
330
2212B
100
AcDbEntity
  8
0
  6
CONTINUOUS
100
AcDbLine
 10
30.74199999996926
 20
8.380239034187703
 30
0.0
 11
30.35913903416571
 21
8.763099999991255
 31
0.0
  0
ENDBLK
  5
2221E
330
2212B
100
AcDbEntity
  8
0
100
AcDbBlockEnd
  0
BLOCK
  5
2221F
330
2217C
100
AcDbEntity
  8
0
100
AcDbBlockBegin
  2
*X50
 70
     1
 10
0.0
 20
0.0
 30
0.0
  3
*X50
  1

  0
LINE
  5
2217D
330
2217C
100
AcDbEntity
  8
0
  6
CONTINUOUS
100
AcDbLine
 10
31.64199999996833
 20
8.535058289913598
 30
0.0
 11
31.87004171004599
 21
8.763099999991255
 31
0.0
  0
LINE
  5
2217E
330
2217C
100
AcDbEntity
  8
0
  6
CONTINUOUS
100
AcDbLine
 10
31.64199999996833
 20
7.861539080833412
 30
0.0
 11
32.54356091912618
 21
8.763099999991255
 31
0.0
  0
LINE
  5
2217F
330
2217C
100
AcDbEntity
  8
0
  6
CONTINUOUS
100
AcDbLine
 10
31.64199999996833
 20
7.188019871753226
 30
0.0
 11
33.08199999996839
 21
8.628019871753281
 31
0.0
  0
LINE
  5
22180
330
2217C
100
AcDbEntity
  8
0
  6
CONTINUOUS
100
AcDbLine
 10
31.64199999996833
 20
6.51450066267304
 30
0.0
 11
33.08199999996839
 21
7.954500662673095
 31
0.0
  0
LINE
  5
22181
330
2217C
100
AcDbEntity
  8
0
  6
CONTINUOUS
100
AcDbLine
 10
31.64199999996833
 20
5.840981453592853
 30
0.0
 11
33.08199999996839
 21
7.280981453592908
 31
0.0
  0
LINE
  5
22182
330
2217C
100
AcDbEntity
  8
0
  6
CONTINUOUS
100
AcDbLine
 10
31.64199999996833
 20
5.167462244512667
 30
0.0
 11
33.08199999996839
 21
6.607462244512721
 31
0.0
  0
LINE
  5
22183
330
2217C
100
AcDbEntity
  8
0
  6
CONTINUOUS
100
AcDbLine
 10
31.64199999996833
 20
4.493943035432481
 30
0.0
 11
33.08199999996839
 21
5.933943035432535
 31
0.0
  0
LINE
  5
22184
330
2217C
100
AcDbEntity
  8
0
  6
CONTINUOUS
100
AcDbLine
 10
31.64199999996833
 20
3.820423826352293
 30
0.0
 11
33.08199999996839
 21
5.260423826352348
 31
0.0
  0
LINE
  5
22185
330
2217C
100
AcDbEntity
  8
0
  6
CONTINUOUS
100
AcDbLine
 10
31.64199999996833
 20
3.146904617272106
 30
0.0
 11
33.08199999996839
 21
4.586904617272161
 31
0.0
  0
LINE
  5
22186
330
2217C
100
AcDbEntity
  8
0
  6
CONTINUOUS
100
AcDbLine
 10
36.23199999996837
 20
8.410423826352325
 30
0.0
 11
36.5846761736073
 21
8.763099999991255
 31
0.0
  0
LINE
  5
22187
330
2217C
100
AcDbEntity
  8
0
  6
CONTINUOUS
100
AcDbLine
 10
36.23199999996837
 20
7.73690461727214
 30
0.0
 11
37.25819538268748
 21
8.763099999991255
 31
0.0
  0
LINE
  5
22188
330
2217C
100
AcDbEntity
  8
0
  6
CONTINUOUS
100
AcDbLine
 10
31.64257403601376
 20
2.473959444237348
 30
0.0
 11
33.08199999996839
 21
3.913385408191974
 31
0.0
  0
LINE
  5
22189
330
2217C
100
AcDbEntity
  8
0
  6
CONTINUOUS
100
AcDbLine
 10
36.23199999996837
 20
7.063385408191953
 30
0.0
 11
37.67199999996831
 21
8.503385408191894
 31
0.0
  0
LINE
  5
2218A
330
2217C
100
AcDbEntity
  8
0
  6
CONTINUOUS
100
AcDbLine
 10
31.72013636841932
 20
1.87800256756272
 30
0.0
 11
33.08199999996839
 21
3.239866199111788
 31
0.0
  0
LINE
  5
2218B
330
2217C
100
AcDbEntity
  8
0
  6
CONTINUOUS
100
AcDbLine
 10
36.23199999996837
 20
6.389866199111767
 30
0.0
 11
37.67199999996831
 21
7.829866199111708
 31
0.0
  0
LINE
  5
2218C
330
2217C
100
AcDbEntity
  8
0
  6
CONTINUOUS
100
AcDbLine
 10
31.89042734314753
 20
1.374774333210744
 30
0.0
 11
33.08199999996839
 21
2.566346990031601
 31
0.0
  0
LINE
  5
2218D
330
2217C
100
AcDbEntity
  8
0
  6
CONTINUOUS
100
AcDbLine
 10
36.23199999996837
 20
5.71634699003158
 30
0.0
 11
37.67199999996831
 21
7.156346990031521
 31
0.0
  0
LINE
  5
2218E
330
2217C
100
AcDbEntity
  8
0
  6
CONTINUOUS
100
AcDbLine
 10
32.14210568064475
 20
0.952933461627778
 30
0.0
 11
33.18745552475986
 21
1.998283305742888
 31
0.0
  0
LINE
  5
2218F
330
2217C
100
AcDbEntity
  8
0
  6
CONTINUOUS
100
AcDbLine
 10
36.23199999996837
 20
5.042827780951393
 30
0.0
 11
37.67199999996831
 21
6.482827780951334
 31
0.0
  0
LINE
  5
22190
330
2217C
100
AcDbEntity
  8
0
  6
CONTINUOUS
100
AcDbLine
 10
32.45820639400955
 20
0.5955149659123915
 30
0.0
 11
33.47242681921943
 21
1.60973539112227
 31
0.0
  0
LINE
  5
22191
330
2217C
100
AcDbEntity
  8
0
  6
CONTINUOUS
100
AcDbLine
 10
36.23199999996837
 20
4.369308571871207
 30
0.0
 11
37.67199999996831
 21
5.809308571871147
 31
0.0
  0
LINE
  5
22192
330
2217C
100
AcDbEntity
  8
0
  6
CONTINUOUS
100
AcDbLine
 10
32.83432456621412
 20
0.2981139290367771
 30
0.0
 11
33.89722476612215
 21
1.361014128944803
 31
0.0
  0
LINE
  5
22193
330
2217C
100
AcDbEntity
  8
0
  6
CONTINUOUS
100
AcDbLine
 10
36.23199999996837
 20
3.69578936279102
 30
0.0
 11
37.67199999996831
 21
5.135789362790962
 31
0.0
  0
LINE
  5
22194
330
2217C
100
AcDbEntity
  8
0
  6
CONTINUOUS
100
AcDbLine
 10
33.2711633111245
 20
0.0614334648669672
 30
0.0
 11
34.43247338014423
 21
1.222743533886696
 31
0.0
  0
LINE
  5
22195
330
2217C
100
AcDbEntity
  8
0
  6
CONTINUOUS
100
AcDbLine
 10
36.23199999996837
 20
3.022270153710834
 30
0.0
 11
37.67199999996831
 21
4.462270153710775
 31
0.0
  0
LINE
  5
22196
330
2217C
100
AcDbEntity
  8
0
  6
CONTINUOUS
100
AcDbLine
 10
33.76515245874577
 20
-0.1180965965919523
 30
0.0
 11
35.1587445516215
 21
1.27549549628378
 31
0.0
  0
LINE
  5
22197
330
2217C
100
AcDbEntity
  8
0
  6
CONTINUOUS
100
AcDbLine
 10
36.21639478609585
 20
2.333145730758136
 30
0.0
 11
37.67199999996831
 21
3.788750944630588
 31
0.0
  0
LINE
  5
22198
330
2217C
100
AcDbEntity
  8
0
  6
CONTINUOUS
100
AcDbLine
 10
34.34060583368432
 20
-0.2161624307335863
 30
0.0
 11
37.67199999996831
 21
3.115231735550401
 31
0.0
  0
LINE
  5
22199
330
2217C
100
AcDbEntity
  8
0
  6
CONTINUOUS
100
AcDbLine
 10
35.01698193613905
 20
-0.2133055373590427
 30
0.0
 11
37.66876712070525
 21
2.438479647207154
 31
0.0
  0
LINE
  5
2219A
330
2217C
100
AcDbEntity
  8
0
  6
CONTINUOUS
100
AcDbLine
 10
35.90743367693304
 20
0.0036269943547609
 30
0.0
 11
37.51723902192366
 21
1.613432339345381
 31
0.0
  0
LINE
  5
2219B
330
2217C
100
AcDbEntity
  8
0
  6
CONTINUOUS
100
AcDbLine
 10
32.55309425579761
 20
0.5074718966376706
 30
0.0
 11
32.27784730925847
 21
0.7827188431768102
 31
0.0
  0
LINE
  5
2219C
330
2217C
100
AcDbEntity
  8
0
  6
CONTINUOUS
100
AcDbLine
 10
33.87496468909684
 20
-0.1408793275813673
 30
0.0
 11
31.67993083278052
 21
2.054154528734943
 31
0.0
  0
LINE
  5
2219D
330
2217C
100
AcDbEntity
  8
0
  6
CONTINUOUS
100
AcDbLine
 10
34.64362813207632
 20
-0.2360235614806649
 30
0.0
 11
31.64199999996833
 21
2.765604570627322
 31
0.0
  0
LINE
  5
2219E
330
2217C
100
AcDbEntity
  8
0
  6
CONTINUOUS
100
AcDbLine
 10
35.25801106796118
 20
-0.1768872882853429
 30
0.0
 11
31.64199999996833
 21
3.439123779707508
 31
0.0
  0
LINE
  5
2219F
330
2217C
100
AcDbEntity
  8
0
  6
CONTINUOUS
100
AcDbLine
 10
35.79065650332146
 20
-0.0360135145654361
 30
0.0
 11
34.54143210838231
 21
1.213210880373721
 31
0.0
  0
LINE
  5
221A0
330
2217C
100
AcDbEntity
  8
0
  6
CONTINUOUS
100
AcDbLine
 10
33.08199999996839
 20
2.67264298878764
 30
0.0
 11
31.64199999996833
 21
4.112642988787695
 31
0.0
  0
LINE
  5
221A1
330
2217C
100
AcDbEntity
  8
0
  6
CONTINUOUS
100
AcDbLine
 10
36.25975597779143
 20
0.1684062200447833
 30
0.0
 11
35.15395110240023
 21
1.274211095435983
 31
0.0
  0
LINE
  5
221A2
330
2217C
100
AcDbEntity
  8
0
  6
CONTINUOUS
100
AcDbLine
 10
33.08199999996839
 20
3.346162197867826
 30
0.0
 11
31.64199999996833
 21
4.786162197867881
 31
0.0
  0
LINE
  5
221A3
330
2217C
100
AcDbEntity
  8
0
  6
CONTINUOUS
100
AcDbLine
 10
36.67226329638774
 20
0.4294181105286579
 30
0.0
 11
35.63766478748767
 21
1.464016619428737
 31
0.0
  0
LINE
  5
221A4
330
2217C
100
AcDbEntity
  8
0
  6
CONTINUOUS
100
AcDbLine
 10
33.08199999996839
 20
4.019681406948012
 30
0.0
 11
31.64199999996833
 21
5.459681406948068
 31
0.0
  0
LINE
  5
221A5
330
2217C
100
AcDbEntity
  8
0
  6
CONTINUOUS
100
AcDbLine
 10
37.01677749710036
 20
0.7584231188962329
 30
0.0
 11
35.99563422741351
 21
1.779566388583076
 31
0.0
  0
LINE
  5
221A6
330
2217C
100
AcDbEntity
  8
0
  6
CONTINUOUS
100
AcDbLine
 10
33.08199999996839
 20
4.693200616028199
 30
0.0
 11
31.64199999996833
 21
6.133200616028255
 31
0.0
  0
LINE
  5
221A7
330
2217C
100
AcDbEntity
  8
0
  6
CONTINUOUS
100
AcDbLine
 10
37.29859977568887
 20
1.1501200493879
 30
0.0
 11
36.20680593341555
 21
2.241913891661226
 31
0.0
  0
LINE
  5
221A8
330
2217C
100
AcDbEntity
  8
0
  6
CONTINUOUS
100
AcDbLine
 10
33.08199999996839
 20
5.366719825108386
 30
0.0
 11
31.64199999996833
 21
6.80671982510844
 31
0.0
  0
LINE
  5
221A9
330
2217C
100
AcDbEntity
  8
0
  6
CONTINUOUS
100
AcDbLine
 10
37.5148623517228
 20
1.607376682434161
 30
0.0
 11
36.23199999996837
 21
2.890239034188594
 31
0.0
  0
LINE
  5
221AA
330
2217C
100
AcDbEntity
  8
0
  6
CONTINUOUS
100
AcDbLine
 10
33.08199999996839
 20
6.040239034188573
 30
0.0
 11
31.64199999996833
 21
7.480239034188627
 31
0.0
  0
LINE
  5
221AB
330
2217C
100
AcDbEntity
  8
0
  6
CONTINUOUS
100
AcDbLine
 10
37.64705163358367
 20
2.148706609653477
 30
0.0
 11
36.23199999996837
 21
3.56375824326878
 31
0.0
  0
LINE
  5
221AC
330
2217C
100
AcDbEntity
  8
0
  6
CONTINUOUS
100
AcDbLine
 10
33.08199999996839
 20
6.713758243268758
 30
0.0
 11
31.64199999996833
 21
8.153758243268815
 31
0.0
  0
LINE
  5
221AD
330
2217C
100
AcDbEntity
  8
0
  6
CONTINUOUS
100
AcDbLine
 10
37.67199999996831
 20
2.797277452349026
 30
0.0
 11
36.23199999996837
 21
4.237277452348967
 31
0.0
  0
LINE
  5
221AE
330
2217C
100
AcDbEntity
  8
0
  6
CONTINUOUS
100
AcDbLine
 10
37.67199999996831
 20
3.470796661429213
 30
0.0
 11
36.23199999996837
 21
4.910796661429154
 31
0.0
  0
LINE
  5
221AF
330
2217C
100
AcDbEntity
  8
0
  6
CONTINUOUS
100
AcDbLine
 10
37.67199999996831
 20
4.144315870509399
 30
0.0
 11
36.23199999996837
 21
5.58431587050934
 31
0.0
  0
LINE
  5
221B0
330
2217C
100
AcDbEntity
  8
0
  6
CONTINUOUS
100
AcDbLine
 10
33.08199999996839
 20
7.387277452348945
 30
0.0
 11
31.70617745232608
 21
8.763099999991255
 31
0.0
  0
LINE
  5
221B1
330
2217C
100
AcDbEntity
  8
0
  6
CONTINUOUS
100
AcDbLine
 10
33.08199999996839
 20
8.060796661429132
 30
0.0
 11
32.37969666140626
 21
8.763099999991255
 31
0.0
  0
LINE
  5
221B2
330
2217C
100
AcDbEntity
  8
0
  6
CONTINUOUS
100
AcDbLine
 10
33.08199999996839
 20
8.734315870509318
 30
0.0
 11
33.05321587048645
 21
8.763099999991255
 31
0.0
  0
LINE
  5
221B3
330
2217C
100
AcDbEntity
  8
0
  6
CONTINUOUS
100
AcDbLine
 10
37.67199999996831
 20
4.817835079589585
 30
0.0
 11
36.23199999996837
 21
6.257835079589526
 31
0.0
  0
LINE
  5
221B4
330
2217C
100
AcDbEntity
  8
0
  6
CONTINUOUS
100
AcDbLine
 10
37.67199999996831
 20
5.491354288669771
 30
0.0
 11
36.23199999996837
 21
6.931354288669713
 31
0.0
  0
LINE
  5
221B5
330
2217C
100
AcDbEntity
  8
0
  6
CONTINUOUS
100
AcDbLine
 10
37.67199999996831
 20
6.164873497749958
 30
0.0
 11
36.23199999996837
 21
7.6048734977499
 31
0.0
  0
LINE
  5
221B6
330
2217C
100
AcDbEntity
  8
0
  6
CONTINUOUS
100
AcDbLine
 10
37.67199999996831
 20
6.838392706830144
 30
0.0
 11
36.23199999996837
 21
8.278392706830086
 31
0.0
  0
LINE
  5
221B7
330
2217C
100
AcDbEntity
  8
0
  6
CONTINUOUS
100
AcDbLine
 10
37.67199999996831
 20
7.511911915910332
 30
0.0
 11
36.42081191588738
 21
8.763099999991255
 31
0.0
  0
LINE
  5
221B8
330
2217C
100
AcDbEntity
  8
0
  6
CONTINUOUS
100
AcDbLine
 10
37.67199999996831
 20
8.185431124990519
 30
0.0
 11
37.09433112496757
 21
8.763099999991255
 31
0.0
  0
ENDBLK
  5
22220
330
2217C
100
AcDbEntity
  8
0
100
AcDbBlockEnd
  0
BLOCK
  5
22221
330
221B9
100
AcDbEntity
  8
0
100
AcDbBlockBegin
  2
*X51
 70
     1
 10
0.0
 20
0.0
 30
0.0
  3
*X51
  1

  0
LINE
  5
221BA
330
221B9
100
AcDbEntity
  8
0
  6
CONTINUOUS
100
AcDbLine
 10
38.60499999996136
 20
8.762866199104765
 30
0.0
 11
38.71672554182345
 21
8.874591740966855
 31
0.0
  0
LINE
  5
221BB
330
221B9
100
AcDbEntity
  8
0
  6
CONTINUOUS
100
AcDbLine
 10
38.60499999996136
 20
8.089346990024577
 30
0.0
 11
39.03418785440363
 21
8.518534844466847
 31
0.0
  0
LINE
  5
221BC
330
221B9
100
AcDbEntity
  8
0
  6
CONTINUOUS
100
AcDbLine
 10
38.60499999996136
 20
7.41582778094439
 30
0.0
 11
39.35165016698382
 21
8.16247794796684
 31
0.0
  0
LINE
  5
221BD
330
221B9
100
AcDbEntity
  8
0
  6
CONTINUOUS
100
AcDbLine
 10
38.60499999996136
 20
6.742308571864204
 30
0.0
 11
39.66911247956399
 21
7.806421051466834
 31
0.0
  0
LINE
  5
221BE
330
221B9
100
AcDbEntity
  8
0
  6
CONTINUOUS
100
AcDbLine
 10
38.60499999996136
 20
6.068789362784018
 30
0.0
 11
39.98657479214418
 21
7.450364154966827
 31
0.0
  0
LINE
  5
221BF
330
221B9
100
AcDbEntity
  8
0
  6
CONTINUOUS
100
AcDbLine
 10
38.60499999996136
 20
5.395270153703832
 30
0.0
 11
40.30403710472435
 21
7.09430725846682
 31
0.0
  0
LINE
  5
221C0
330
221B9
100
AcDbEntity
  8
0
  6
CONTINUOUS
100
AcDbLine
 10
38.60499999996136
 20
4.721750944623645
 30
0.0
 11
40.62149941730453
 21
6.738250361966813
 31
0.0
  0
LINE
  5
221C1
330
221B9
100
AcDbEntity
  8
0
  6
CONTINUOUS
100
AcDbLine
 10
38.60499999996136
 20
4.048231735543458
 30
0.0
 11
40.93896172988471
 21
6.382193465466806
 31
0.0
  0
LINE
  5
221C2
330
221B9
100
AcDbEntity
  8
0
  6
CONTINUOUS
100
AcDbLine
 10
38.60499999996136
 20
3.374712526463272
 30
0.0
 11
40.02599999995994
 21
4.795712526461843
 31
0.0
  0
LINE
  5
221C3
330
221B9
100
AcDbEntity
  8
0
  6
CONTINUOUS
100
AcDbLine
 10
38.60499999996136
 20
2.701193317383085
 30
0.0
 11
40.02599999995994
 21
4.122193317381657
 31
0.0
  0
LINE
  5
221C4
330
221B9
100
AcDbEntity
  8
0
  6
CONTINUOUS
100
AcDbLine
 10
40.28339754687704
 20
5.053110073378947
 30
0.0
 11
41.25642404246489
 21
6.026136568966799
 31
0.0
  0
LINE
  5
221C5
330
221B9
100
AcDbEntity
  8
0
  6
CONTINUOUS
100
AcDbLine
 10
40.60085985945722
 20
4.697053176878939
 30
0.0
 11
41.57388635504507
 21
5.670079672466793
 31
0.0
  0
LINE
  5
221C6
330
221B9
100
AcDbEntity
  8
0
  6
CONTINUOUS
100
AcDbLine
 10
43.57899999995641
 20
8.348712526458318
 30
0.0
 11
43.99338747348935
 21
8.763099999991255
 31
0.0
  0
LINE
  5
221C7
330
221B9
100
AcDbEntity
  8
0
  6
CONTINUOUS
100
AcDbLine
 10
43.57899999995641
 20
7.675193317378131
 30
0.0
 11
44.66690668256953
 21
8.763099999991255
 31
0.0
  0
LINE
  5
221C8
330
221B9
100
AcDbEntity
  8
0
  6
CONTINUOUS
100
AcDbLine
 10
38.60499999996136
 20
2.027674108302898
 30
0.0
 11
40.02599999995994
 21
3.44867410830147
 31
0.0
  0
LINE
  5
221C9
330
221B9
100
AcDbEntity
  8
0
  6
CONTINUOUS
100
AcDbLine
 10
38.60499999996136
 20
1.354154899222712
 30
0.0
 11
40.02599999995994
 21
2.775154899221284
 31
0.0
  0
LINE
  5
221CA
330
221B9
100
AcDbEntity
  8
0
  6
CONTINUOUS
100
AcDbLine
 10
38.60499999996136
 20
0.6806356901425255
 30
0.0
 11
40.02599999995994
 21
2.101635690141098
 31
0.0
  0
LINE
  5
221CB
330
221B9
100
AcDbEntity
  8
0
  6
CONTINUOUS
100
AcDbLine
 10
38.60499999996136
 20
0.0071164810623383
 30
0.0
 11
40.02599999995994
 21
1.428116481060911
 31
0.0
  0
LINE
  5
221CC
330
221B9
100
AcDbEntity
  8
0
  6
CONTINUOUS
100
AcDbLine
 10
40.9183221720374
 20
4.340996280378933
 30
0.0
 11
41.89134866762525
 21
5.314022775966786
 31
0.0
  0
LINE
  5
221CD
330
221B9
100
AcDbEntity
  8
0
  6
CONTINUOUS
100
AcDbLine
 10
41.23578448461758
 20
3.984939383878926
 30
0.0
 11
42.20881098020543
 21
4.957965879466778
 31
0.0
  0
LINE
  5
221CE
330
221B9
100
AcDbEntity
  8
0
  6
CONTINUOUS
100
AcDbLine
 10
41.55324679719776
 20
3.628882487378919
 30
0.0
 11
42.52627329278561
 21
4.601908982966772
 31
0.0
  0
LINE
  5
221CF
330
221B9
100
AcDbEntity
  8
0
  6
CONTINUOUS
100
AcDbLine
 10
41.87070910977793
 20
3.272825590878912
 30
0.0
 11
42.84373560536579
 21
4.245852086466765
 31
0.0
  0
LINE
  5
221D0
330
221B9
100
AcDbEntity
  8
0
  6
CONTINUOUS
100
AcDbLine
 10
43.57899999995641
 20
7.001674108297943
 30
0.0
 11
44.99999999995498
 21
8.422674108296516
 31
0.0
  0
LINE
  5
221D1
330
221B9
100
AcDbEntity
  8
0
  6
CONTINUOUS
100
AcDbLine
 10
43.57899999995641
 20
6.328154899217758
 30
0.0
 11
44.99999999995498
 21
7.749154899216329
 31
0.0
  0
LINE
  5
221D2
330
221B9
100
AcDbEntity
  8
0
  6
CONTINUOUS
100
AcDbLine
 10
43.57899999995641
 20
5.654635690137571
 30
0.0
 11
44.99999999995498
 21
7.075635690136142
 31
0.0
  0
LINE
  5
221D3
330
221B9
100
AcDbEntity
  8
0
  6
CONTINUOUS
100
AcDbLine
 10
43.57899999995641
 20
4.981116481057384
 30
0.0
 11
44.99999999995498
 21
6.402116481055955
 31
0.0
  0
LINE
  5
221D4
330
221B9
100
AcDbEntity
  8
0
  6
CONTINUOUS
100
AcDbLine
 10
39.27140272797921
 20
-0.0000000000000009
 30
0.0
 11
40.02599999995994
 21
0.7545972719807246
 31
0.0
  0
LINE
  5
221D5
330
221B9
100
AcDbEntity
  8
0
  6
CONTINUOUS
100
AcDbLine
 10
39.9449219370594
 20
-0.0000000000000009
 30
0.0
 11
40.02599999995994
 21
0.0810780629005379
 31
0.0
  0
LINE
  5
221D6
330
221B9
100
AcDbEntity
  8
0
  6
CONTINUOUS
100
AcDbLine
 10
42.18817142235812
 20
2.916768694378905
 30
0.0
 11
43.16119791794597
 21
3.889795189966758
 31
0.0
  0
LINE
  5
221D7
330
221B9
100
AcDbEntity
  8
0
  6
CONTINUOUS
100
AcDbLine
 10
42.50563373493829
 20
2.560711797878898
 30
0.0
 11
43.47866023052615
 21
3.533738293466751
 31
0.0
  0
LINE
  5
221D8
330
221B9
100
AcDbEntity
  8
0
  6
CONTINUOUS
100
AcDbLine
 10
43.57899999995641
 20
4.307597271977198
 30
0.0
 11
44.99999999995498
 21
5.728597271975769
 31
0.0
  0
LINE
  5
221D9
330
221B9
100
AcDbEntity
  8
0
  6
CONTINUOUS
100
AcDbLine
 10
43.57899999995641
 20
3.634078062897011
 30
0.0
 11
44.99999999995498
 21
5.055078062895582
 31
0.0
  0
LINE
  5
221DA
330
221B9
100
AcDbEntity
  8
0
  6
CONTINUOUS
100
AcDbLine
 10
42.82309604751848
 20
2.204654901378891
 30
0.0
 11
44.99999999995498
 21
4.381558853815395
 31
0.0
  0
LINE
  5
221DB
330
221B9
100
AcDbEntity
  8
0
  6
CONTINUOUS
100
AcDbLine
 10
43.14055836009865
 20
1.848598004878885
 30
0.0
 11
44.99999999995498
 21
3.70803964473521
 31
0.0
  0
LINE
  5
221DC
330
221B9
100
AcDbEntity
  8
0
  6
CONTINUOUS
100
AcDbLine
 10
43.45802067267883
 20
1.492541108378878
 30
0.0
 11
44.99999999995498
 21
3.034520435655023
 31
0.0
  0
LINE
  5
221DD
330
221B9
100
AcDbEntity
  8
0
  6
CONTINUOUS
100
AcDbLine
 10
43.77548298525902
 20
1.136484211878871
 30
0.0
 11
44.99999999995498
 21
2.361001226574837
 31
0.0
  0
LINE
  5
221DE
330
221B9
100
AcDbEntity
  8
0
  6
CONTINUOUS
100
AcDbLine
 10
44.09294529783919
 20
0.7804273153788639
 30
0.0
 11
44.99999999995498
 21
1.687482017494649
 31
0.0
  0
LINE
  5
221DF
330
221B9
100
AcDbEntity
  8
0
  6
CONTINUOUS
100
AcDbLine
 10
44.41040761041938
 20
0.4243704188788566
 30
0.0
 11
44.99999999995498
 21
1.013962808414463
 31
0.0
  0
LINE
  5
221E0
330
221B9
100
AcDbEntity
  8
0
  6
CONTINUOUS
100
AcDbLine
 10
44.72786992299955
 20
0.0683135223788494
 30
0.0
 11
44.99999999995498
 21
0.340443599334276
 31
0.0
  0
LINE
  5
221E1
330
221B9
100
AcDbEntity
  8
0
  6
CONTINUOUS
100
AcDbLine
 10
39.12223903415696
 20
-0.0000000000000009
 30
0.0
 11
38.60499999996136
 21
0.5172390341955961
 31
0.0
  0
LINE
  5
221E2
330
221B9
100
AcDbEntity
  8
0
  6
CONTINUOUS
100
AcDbLine
 10
39.79575824323715
 20
-0.0000000000000009
 30
0.0
 11
38.60499999996136
 21
1.190758243275783
 31
0.0
  0
LINE
  5
221E3
330
221B9
100
AcDbEntity
  8
0
  6
CONTINUOUS
100
AcDbLine
 10
40.02599999995994
 20
0.443277452357397
 30
0.0
 11
38.60499999996136
 21
1.864277452355969
 31
0.0
  0
LINE
  5
221E4
330
221B9
100
AcDbEntity
  8
0
  6
CONTINUOUS
100
AcDbLine
 10
40.02599999995994
 20
1.116796661437583
 30
0.0
 11
38.60499999996136
 21
2.537796661436155
 31
0.0
  0
LINE
  5
221E5
330
221B9
100
AcDbEntity
  8
0
  6
CONTINUOUS
100
AcDbLine
 10
40.02599999995994
 20
1.79031587051777
 30
0.0
 11
38.60499999996136
 21
3.211315870516341
 31
0.0
  0
LINE
  5
221E6
330
221B9
100
AcDbEntity
  8
0
  6
CONTINUOUS
100
AcDbLine
 10
40.02599999995994
 20
2.463835079597956
 30
0.0
 11
38.60499999996136
 21
3.884835079596527
 31
0.0
  0
LINE
  5
221E7
330
221B9
100
AcDbEntity
  8
0
  6
CONTINUOUS
100
AcDbLine
 10
40.02599999995994
 20
3.137354288678143
 30
0.0
 11
38.60499999996136
 21
4.558354288676714
 31
0.0
  0
LINE
  5
221E8
330
221B9
100
AcDbEntity
  8
0
  6
CONTINUOUS
100
AcDbLine
 10
40.02599999995994
 20
3.810873497758329
 30
0.0
 11
38.60499999996136
 21
5.2318734977569
 31
0.0
  0
LINE
  5
221E9
330
221B9
100
AcDbEntity
  8
0
  6
CONTINUOUS
100
AcDbLine
 10
40.02599999995994
 20
4.484392706838515
 30
0.0
 11
38.60499999996136
 21
5.905392706837086
 31
0.0
  0
LINE
  5
221EA
330
221B9
100
AcDbEntity
  8
0
  6
CONTINUOUS
100
AcDbLine
 10
44.99999999995498
 20
0.183911915923658
 30
0.0
 11
41.53858364506288
 21
3.64532827081576
 31
0.0
  0
LINE
  5
221EB
330
221B9
100
AcDbEntity
  8
0
  6
CONTINUOUS
100
AcDbLine
 10
40.02599999995994
 20
5.157911915918703
 30
0.0
 11
38.60499999996136
 21
6.578911915917274
 31
0.0
  0
LINE
  5
221EC
330
221B9
100
AcDbEntity
  8
0
  6
CONTINUOUS
100
AcDbLine
 10
44.99999999995498
 20
0.8574311250038447
 30
0.0
 11
38.60499999996136
 21
7.25243112499746
 31
0.0
  0
LINE
  5
221ED
330
221B9
100
AcDbEntity
  8
0
  6
CONTINUOUS
100
AcDbLine
 10
44.99999999995498
 20
1.530950334084031
 30
0.0
 11
38.60499999996136
 21
7.925950334077647
 31
0.0
  0
LINE
  5
221EE
330
221B9
100
AcDbEntity
  8
0
  6
CONTINUOUS
100
AcDbLine
 10
44.99999999995498
 20
2.204469543164218
 30
0.0
 11
43.57899999995641
 21
3.625469543162789
 31
0.0
  0
LINE
  5
221EF
330
221B9
100
AcDbEntity
  8
0
  6
CONTINUOUS
100
AcDbLine
 10
41.89876730984767
 20
5.305702233271528
 30
0.0
 11
38.60499999996136
 21
8.599469543157834
 31
0.0
  0
LINE
  5
221F0
330
221B9
100
AcDbEntity
  8
0
  6
CONTINUOUS
100
AcDbLine
 10
44.99999999995498
 20
2.877988752244405
 30
0.0
 11
43.57899999995641
 21
4.298988752242975
 31
0.0
  0
LINE
  5
221F1
330
221B9
100
AcDbEntity
  8
0
  6
CONTINUOUS
100
AcDbLine
 10
44.99999999995498
 20
3.551507961324591
 30
0.0
 11
43.57899999995641
 21
4.972507961323163
 31
0.0
  0
LINE
  5
221F2
330
221B9
100
AcDbEntity
  8
0
  6
CONTINUOUS
100
AcDbLine
 10
44.99999999995498
 20
4.225027170404777
 30
0.0
 11
43.57899999995641
 21
5.646027170403348
 31
0.0
  0
LINE
  5
221F3
330
221B9
100
AcDbEntity
  8
0
  6
CONTINUOUS
100
AcDbLine
 10
44.99999999995498
 20
4.898546379484964
 30
0.0
 11
43.57899999995641
 21
6.319546379483535
 31
0.0
  0
LINE
  5
221F4
330
221B9
100
AcDbEntity
  8
0
  6
CONTINUOUS
100
AcDbLine
 10
44.99999999995498
 20
5.572065588565151
 30
0.0
 11
43.57899999995641
 21
6.993065588563722
 31
0.0
  0
LINE
  5
221F5
330
221B9
100
AcDbEntity
  8
0
  6
CONTINUOUS
100
AcDbLine
 10
44.99999999995498
 20
6.245584797645336
 30
0.0
 11
43.57899999995641
 21
7.666584797643908
 31
0.0
  0
LINE
  5
221F6
330
221B9
100
AcDbEntity
  8
0
  6
CONTINUOUS
100
AcDbLine
 10
44.99999999995498
 20
6.919104006725522
 30
0.0
 11
43.57899999995641
 21
8.340104006724093
 31
0.0
  0
LINE
  5
221F7
330
221B9
100
AcDbEntity
  8
0
  6
CONTINUOUS
100
AcDbLine
 10
44.99999999995498
 20
7.592623215805709
 30
0.0
 11
43.82952321576943
 21
8.763099999991255
 31
0.0
  0
LINE
  5
221F8
330
221B9
100
AcDbEntity
  8
0
  6
CONTINUOUS
100
AcDbLine
 10
44.99999999995498
 20
8.266142424885896
 30
0.0
 11
44.50304242484962
 21
8.763099999991255
 31
0.0
  0
ENDBLK
  5
22222
330
221B9
100
AcDbEntity
  8
0
100
AcDbBlockEnd
  0
BLOCK
  5
22223
330
221F9
100
AcDbEntity
  8
0
100
AcDbBlockBegin
  2
*X52
 70
     1
 10
0.0
 20
0.0
 30
0.0
  3
*X52
  1

  0
LINE
  5
221FA
330
221F9
100
AcDbEntity
  8
0
  6
CONTINUOUS
100
AcDbLine
 10
0.0
 20
8.548461116714023
 30
0.0
 11
0.2146388832772324
 21
8.763099999991255
 31
0.0
  0
LINE
  5
221FB
330
221F9
100
AcDbEntity
  8
0
  6
CONTINUOUS
100
AcDbLine
 10
-0.0000000000000002
 20
7.874941907633837
 30
0.0
 11
0.8881580923574184
 21
8.763099999991255
 31
0.0
  0
LINE
  5
221FC
330
221F9
100
AcDbEntity
  8
0
  6
CONTINUOUS
100
AcDbLine
 10
0.0
 20
7.20142269855365
 30
0.0
 11
1.420999999998572
 21
8.622422698552223
 31
0.0
  0
LINE
  5
221FD
330
221F9
100
AcDbEntity
  8
0
  6
CONTINUOUS
100
AcDbLine
 10
-0.0000000000000001
 20
6.527903489473465
 30
0.0
 11
1.420999999998571
 21
7.948903489472036
 31
0.0
  0
LINE
  5
221FE
330
221F9
100
AcDbEntity
  8
0
  6
CONTINUOUS
100
AcDbLine
 10
-0.0000000000000002
 20
5.854384280393278
 30
0.0
 11
1.420999999998571
 21
7.275384280391849
 31
0.0
  0
LINE
  5
221FF
330
221F9
100
AcDbEntity
  8
0
  6
CONTINUOUS
100
AcDbLine
 10
-0.0000000000000002
 20
5.180865071313091
 30
0.0
 11
1.420999999998571
 21
6.601865071311663
 31
0.0
  0
LINE
  5
22200
330
221F9
100
AcDbEntity
  8
0
  6
CONTINUOUS
100
AcDbLine
 10
0.0
 20
4.507345862232905
 30
0.0
 11
1.420999999998571
 21
5.928345862231477
 31
0.0
  0
LINE
  5
22201
330
221F9
100
AcDbEntity
  8
0
  6
CONTINUOUS
100
AcDbLine
 10
-0.0000000000000003
 20
3.833826653152718
 30
0.0
 11
1.420999999998571
 21
5.25482665315129
 31
0.0
  0
LINE
  5
22202
330
221F9
100
AcDbEntity
  8
0
  6
CONTINUOUS
100
AcDbLine
 10
-0.0000000000000002
 20
3.160307444072532
 30
0.0
 11
1.420999999998571
 21
4.581307444071103
 31
0.0
  0
LINE
  5
22203
330
221F9
100
AcDbEntity
  8
0
  6
CONTINUOUS
100
AcDbLine
 10
-0.0000000000000001
 20
2.486788234992345
 30
0.0
 11
1.420999999998571
 21
3.907788234990917
 31
0.0
  0
LINE
  5
22204
330
221F9
100
AcDbEntity
  8
0
  6
CONTINUOUS
100
AcDbLine
 10
-0.0000000000000006
 20
1.813269025912159
 30
0.0
 11
1.420999999998571
 21
3.234269025910731
 31
0.0
  0
LINE
  5
22205
330
221F9
100
AcDbEntity
  8
0
  6
CONTINUOUS
100
AcDbLine
 10
0.0
 20
1.139749816831973
 30
0.0
 11
1.420999999998571
 21
2.560749816830544
 31
0.0
  0
LINE
  5
22206
330
221F9
100
AcDbEntity
  8
0
  6
CONTINUOUS
100
AcDbLine
 10
0.0000000000000002
 20
0.466230607751787
 30
0.0
 11
1.420999999998571
 21
1.887230607750358
 31
0.0
  0
LINE
  5
22207
330
221F9
100
AcDbEntity
  8
0
  6
CONTINUOUS
100
AcDbLine
 10
0.2072886013284003
 20
-0.0000000000000009
 30
0.0
 11
1.420999999998571
 21
1.213711398670171
 31
0.0
  0
LINE
  5
22208
330
221F9
100
AcDbEntity
  8
0
  6
CONTINUOUS
100
AcDbLine
 10
0.8808078104085864
 20
-0.0000000000000009
 30
0.0
 11
1.420999999998571
 21
0.5401921895899839
 31
0.0
  0
LINE
  5
22209
330
221F9
100
AcDbEntity
  8
0
  6
CONTINUOUS
100
AcDbLine
 10
0.0581249075061505
 20
-0.0000000000000009
 30
0.0
 11
-0.0000000000000002
 21
0.0581249075061496
 31
0.0
  0
LINE
  5
2220A
330
221F9
100
AcDbEntity
  8
0
  6
CONTINUOUS
100
AcDbLine
 10
0.7316441165863372
 20
-0.0000000000000009
 30
0.0
 11
-0.0000000000000002
 21
0.7316441165863363
 31
0.0
  0
LINE
  5
2220B
330
221F9
100
AcDbEntity
  8
0
  6
CONTINUOUS
100
AcDbLine
 10
1.405163325666523
 20
-0.0000000000000009
 30
0.0
 11
-0.0000000000000002
 21
1.405163325666523
 31
0.0
  0
LINE
  5
2220C
330
221F9
100
AcDbEntity
  8
0
  6
CONTINUOUS
100
AcDbLine
 10
1.420999999998572
 20
0.6576825347481381
 30
0.0
 11
-0.0000000000000001
 21
2.07868253474671
 31
0.0
  0
LINE
  5
2220D
330
221F9
100
AcDbEntity
  8
0
  6
CONTINUOUS
100
AcDbLine
 10
1.420999999998571
 20
1.331201743828324
 30
0.0
 11
-0.0000000000000001
 21
2.752201743826896
 31
0.0
  0
LINE
  5
2220E
330
221F9
100
AcDbEntity
  8
0
  6
CONTINUOUS
100
AcDbLine
 10
1.420999999998571
 20
2.004720952908511
 30
0.0
 11
-0.0000000000000002
 21
3.425720952907082
 31
0.0
  0
LINE
  5
2220F
330
221F9
100
AcDbEntity
  8
0
  6
CONTINUOUS
100
AcDbLine
 10
1.420999999998571
 20
2.678240161988697
 30
0.0
 11
-0.0000000000000001
 21
4.099240161987269
 31
0.0
  0
LINE
  5
22210
330
221F9
100
AcDbEntity
  8
0
  6
CONTINUOUS
100
AcDbLine
 10
1.420999999998572
 20
3.351759371068884
 30
0.0
 11
0.0
 21
4.772759371067455
 31
0.0
  0
LINE
  5
22211
330
221F9
100
AcDbEntity
  8
0
  6
CONTINUOUS
100
AcDbLine
 10
1.420999999998571
 20
4.02527858014907
 30
0.0
 11
-0.0000000000000003
 21
5.446278580147642
 31
0.0
  0
LINE
  5
22212
330
221F9
100
AcDbEntity
  8
0
  6
CONTINUOUS
100
AcDbLine
 10
1.420999999998571
 20
4.698797789229257
 30
0.0
 11
0.0
 21
6.119797789227828
 31
0.0
  0
LINE
  5
22213
330
221F9
100
AcDbEntity
  8
0
  6
CONTINUOUS
100
AcDbLine
 10
1.420999999998571
 20
5.372316998309444
 30
0.0
 11
-0.0000000000000001
 21
6.793316998308015
 31
0.0
  0
LINE
  5
22214
330
221F9
100
AcDbEntity
  8
0
  6
CONTINUOUS
100
AcDbLine
 10
1.420999999998572
 20
6.045836207389629
 30
0.0
 11
-0.0000000000000004
 21
7.466836207388202
 31
0.0
  0
LINE
  5
22215
330
221F9
100
AcDbEntity
  8
0
  6
CONTINUOUS
100
AcDbLine
 10
1.420999999998571
 20
6.719355416469816
 30
0.0
 11
0.0
 21
8.140355416468388
 31
0.0
  0
LINE
  5
22216
330
221F9
100
AcDbEntity
  8
0
  6
CONTINUOUS
100
AcDbLine
 10
1.420999999998571
 20
7.392874625550003
 30
0.0
 11
0.0507746255573185
 21
8.763099999991255
 31
0.0
  0
LINE
  5
22217
330
221F9
100
AcDbEntity
  8
0
  6
CONTINUOUS
100
AcDbLine
 10
1.420999999998571
 20
8.06639383463019
 30
0.0
 11
0.7242938346375052
 21
8.763099999991255
 31
0.0
  0
LINE
  5
22218
330
221F9
100
AcDbEntity
  8
0
  6
CONTINUOUS
100
AcDbLine
 10
1.420999999998571
 20
8.739913043710375
 30
0.0
 11
1.397813043717691
 21
8.763099999991255
 31
0.0
  0
ENDBLK
  5
22224
330
221F9
100
AcDbEntity
  8
0
100
AcDbBlockEnd
  0
ENDSEC
  0
SECTION
  2
ENTITIES
  0
TEXT
  5
1DB9B
330
18
100
AcDbEntity
  8
1TEXT
100
AcDbText
 10
513.3706615454182
 20
-481.5509092340513
 30
0.0
 40
8.0
  1
K-SE-061-X
100
AcDbText
  0
LINE
  5
21226
330
18
100
AcDbEntity
  8
1DIM
100
AcDbLine
 10
513.3706615454182
 20
-486.5509092340513
 30
0.0
 11
548.3706615454182
 21
-486.5509092340513
 31
0.0
  0
LINE
  5
21227
330
18
100
AcDbEntity
  8
1DIM
100
AcDbLine
 10
513.3706615454182
 20
-500.5509092340513
 30
0.0
 11
548.3706615454182
 21
-500.5509092340513
 31
0.0
  0
LINE
  5
21228
330
18
100
AcDbEntity
  8
1DIM
100
AcDbLine
 10
513.3706615454182
 20
-493.5509092340513
 30
0.0
 11
548.3706615454182
 21
-493.5509092340513
 31
0.0
  0
LINE
  5
21229
330
18
100
AcDbEntity
  8
1DIM
100
AcDbLine
 10
548.3706615454182
 20
-486.5509092340513
 30
0.0
 11
548.3706615454182
 21
-500.5509092340513
 31
0.0
  0
TEXT
  5
2122A
330
18
100
AcDbEntity
  8
1TEXT
100
AcDbText
 10
558.9039948787512
 20
-492.0509092340513
 30
0.0
 40
4.0
  1
コード
 72
     1
 11
565.7706615454179
 21
-492.0509092340513
 31
0.0
100
AcDbText
  0
LINE
  5
2122B
330
18
100
AcDbEntity
  8
1DIM
100
AcDbLine
 10
548.3706615454182
 20
-500.5509092340513
 30
0.0
 11
548.3706615454182
 21
-486.5509092340513
 31
0.0
  0
LINE
  5
2122C
330
18
100
AcDbEntity
  8
1DIM
100
AcDbLine
 10
583.3706615454182
 20
-500.5509092340513
 30
0.0
 11
583.3706615454182
 21
-486.5509092340513
 31
0.0
  0
TEXT
  5
2122D
330
18
100
AcDbEntity
  8
1TEXT
100
AcDbText
 10
521.5039948787512
 20
-492.0509092340513
 30
0.0
 40
4.0
  1
表面処理
 72
     1
 11
530.7706615454179
 21
-492.0509092340513
 31
0.0
100
AcDbText
  0
TEXT
  5
2122E
330
18
100
AcDbEntity
  8
1TEXT
100
AcDbText
 10
521.3039948787512
 20
-498.8861978935757
 30
0.0
 40
4.0
  1
クローム
 72
     1
 11
530.7706615454179
 21
-498.8861978935757
 31
0.0
100
AcDbText
  0
LINE
  5
2122F
330
18
100
AcDbEntity
  8
1DIM
100
AcDbLine
 10
513.3706615454182
 20
-500.5509092340513
 30
0.0
 11
513.3706615454182
 21
-486.5509092340513
 31
0.0
  0
TEXT
  5
21230
330
18
100
AcDbEntity
  8
1TEXT
100
AcDbText
 10
551.5276059898632
 20
-499.2652662177006
 30
0.0
 40
4.0
  1
K-SE-061-XC
 41
0.7
 72
     1
 11
565.7706615454188
 21
-499.2652662177006
 31
0.0
100
AcDbText
  0
LINE
  5
21231
330
18
100
AcDbEntity
  8
01
100
AcDbLine
 10
584.0135319860813
 20
-681.3213303512673
 30
0.0
 11
584.013531986074
 21
-696.3210360638648
 31
0.0
  0
LINE
  5
21232
330
18
100
AcDbEntity
  8
01
100
AcDbLine
 10
584.0135319860813
 20
-681.3213303512673
 30
0.0
 11
264.0189512446264
 21
-681.3213303512671
 31
0.0
  0
LINE
  5
21234
330
18
100
AcDbEntity
  8
01
100
AcDbLine
 10
584.018951244612
 20
-696.3210360638648
 30
0.0
 11
264.0189512446264
 21
-696.3210360638648
 31
0.0
  0
LINE
  5
21236
330
18
100
AcDbEntity
  8
01
100
AcDbLine
 10
227.2162416153647
 20
-696.6213303512675
 30
0.0
 11
264.0189512446264
 21
-696.6213303512675
 31
0.0
  0
LINE
  5
21237
330
18
100
AcDbEntity
  8
01
100
AcDbLine
 10
243.816241615365
 20
-681.0213303512671
 30
0.0
 11
264.0189512446264
 21
-681.0213303512671
 31
0.0
  0
LINE
  5
21238
330
18
100
AcDbEntity
  8
01
100
AcDbLine
 10
241.816241615365
 20
-625.8213303512664
 30
0.0
 11
226.2162416153647
 21
-625.8213303512664
 31
0.0
  0
LINE
  5
21239
330
18
100
AcDbEntity
  8
01
100
AcDbLine
 10
226.2162416153647
 20
-625.8213303512664
 30
0.0
 11
226.2162416153647
 21
-695.6213303512675
 31
0.0
  0
ARC
  5
2123A
330
18
100
AcDbEntity
  8
01
100
AcDbCircle
 10
227.2162416153647
 20
-695.6213303512675
 30
0.0
 40
1.0
100
AcDbArc
 50
180.0
 51
270.0
  0
LINE
  5
2123B
330
18
100
AcDbEntity
  8
01
100
AcDbLine
 10
241.816241615365
 20
-625.8213303512664
 30
0.0
 11
241.816241615365
 21
-679.0213303512671
 31
0.0
  0
ARC
  5
2123C
330
18
100
AcDbEntity
  8
01
100
AcDbCircle
 10
243.816241615365
 20
-679.0213303512671
 30
0.0
 40
2.0
100
AcDbArc
 50
180.0
 51
270.0
  0
LINE
  5
2123D
330
18
100
AcDbEntity
  8
01
100
AcDbLine
 10
226.2162416153647
 20
-696.6213303512675
 30
0.0
 11
241.816241615365
 21
-681.0213303512671
 31
0.0
  0
LINE
  5
21240
330
18
100
AcDbEntity
  8
01
100
AcDbLine
 10
584.0135319861056
 20
-681.3213303512673
 30
0.0
 11
584.0135319861051
 21
-696.3210360638648
 31
0.0
  0
LINE
  5
21241
330
18
100
AcDbEntity
  8
01
100
AcDbLine
 10
620.8162416153671
 20
-696.6213303512675
 30
0.0
 11
584.0135319861054
 21
-696.6213303512675
 31
0.0
  0
LINE
  5
21242
330
18
100
AcDbEntity
  8
01
100
AcDbLine
 10
604.2162416153667
 20
-681.0213303512671
 30
0.0
 11
584.0135319861054
 21
-681.0213303512671
 31
0.0
  0
LINE
  5
21243
330
18
100
AcDbEntity
  8
01
100
AcDbLine
 10
584.013531986109
 20
-681.0213303512671
 30
0.0
 11
584.0135319861013
 21
-696.6213303512675
 31
0.0
  0
LINE
  5
21244
330
18
100
AcDbEntity
  8
01
100
AcDbLine
 10
606.2162416153667
 20
-625.8213303512664
 30
0.0
 11
621.8162416153671
 21
-625.8213303512664
 31
0.0
  0
LINE
  5
21245
330
18
100
AcDbEntity
  8
01
100
AcDbLine
 10
621.8162416153671
 20
-625.8213303512664
 30
0.0
 11
621.8162416153671
 21
-695.6213303512675
 31
0.0
  0
ARC
  5
21246
330
18
100
AcDbEntity
  8
01
100
AcDbCircle
 10
620.8162416153671
 20
-695.6213303512675
 30
0.0
 40
1.0
100
AcDbArc
 50
270.0
 51
0.0
  0
LINE
  5
21247
330
18
100
AcDbEntity
  8
01
100
AcDbLine
 10
606.2162416153667
 20
-625.8213303512664
 30
0.0
 11
606.2162416153667
 21
-679.0213303512671
 31
0.0
  0
ARC
  5
21248
330
18
100
AcDbEntity
  8
01
100
AcDbCircle
 10
604.2162416153667
 20
-679.0213303512671
 30
0.0
 40
2.0
100
AcDbArc
 50
270.0
 51
0.0
  0
LINE
  5
21249
330
18
100
AcDbEntity
  8
01
100
AcDbLine
 10
584.0135319861054
 20
-696.6213303512675
 30
0.0
 11
584.0135319861054
 21
-681.0213303512671
 31
0.0
  0
LINE
  5
2124A
330
18
100
AcDbEntity
  8
01
100
AcDbLine
 10
584.0135319861054
 20
-681.3213303512678
 30
0.0
 11
584.0135319861054
 21
-696.3213303512678
 31
0.0
  0
LINE
  5
2124B
330
18
100
AcDbEntity
  8
01
100
AcDbLine
 10
621.8162416153671
 20
-696.6213303512675
 30
0.0
 11
606.2162416153667
 21
-681.0213303512671
 31
0.0
  0
LINE
  5
2124C
330
18
100
AcDbEntity
  8
01
100
AcDbLine
 10
677.4162416153446
 20
-636.5195329484059
 30
0.0
 11
677.4162416153339
 21
-688.8213303512775
 31
0.0
  0
LINE
  5
2124D
330
18
100
AcDbEntity
  8
01
100
AcDbLine
 10
661.8162416153594
 20
-625.8213303512766
 30
0.0
 11
661.8162416153326
 21
-688.8213303512775
 31
0.0
  0
LINE
  5
2124E
330
18
100
AcDbEntity
  8
01
100
AcDbLine
 10
656.8162416153671
 20
-607.8213303512766
 30
0.0
 11
656.8162416153594
 21
-625.8213303512766
 31
0.0
  0
LINE
  5
2124F
330
18
100
AcDbEntity
  8
01
100
AcDbLine
 10
712.8162416153594
 20
-625.8213303512766
 30
0.0
 11
712.816241615357
 21
-631.8386330881613
 31
0.0
  0
LINE
  5
21250
330
18
100
AcDbEntity
  8
01
100
AcDbLine
 10
712.8162416153594
 20
-625.8213303512766
 30
0.0
 11
661.8162416153594
 21
-625.8213303512766
 31
0.0
  0
ARC
  5
21251
330
18
100
AcDbEntity
  8
01
100
AcDbCircle
 10
669.6162416153333
 20
-688.8213303512775
 30
0.0
 40
7.8
100
AcDbArc
 50
179.9999999999739
 51
359.999999999987
  0
LINE
  5
21254
330
18
100
AcDbEntity
  8
01
100
AcDbLine
 10
711.8336940217943
 20
-632.8384807833172
 30
0.0
 11
672.616241615333
 21
-633.5230239613913
 31
0.0
  0
ARC
  5
21255
330
18
100
AcDbEntity
  8
01
100
AcDbCircle
 10
711.816241615357
 20
-631.8386330881608
 30
0.0
 40
1.0
100
AcDbArc
 50
271.0000000000018
 51
359.999999999974
  0
LINE
  5
21256
330
18
100
AcDbEntity
  8
01
100
AcDbLine
 10
672.6162416153333
 20
-633.5230239613913
 30
0.0
 11
669.6162416153333
 21
-636.5230239613913
 31
0.0
  0
LINE
  5
21257
330
18
100
AcDbEntity
  8
01
100
AcDbLine
 10
677.4333920473854
 20
-636.5023825163651
 30
0.0
 11
669.6368830603593
 21
-636.5023825163651
 31
0.0
  0
LINE
  5
21258
330
18
100
AcDbEntity
  8
01
100
AcDbLine
 10
680.5512568077492
 20
-633.3845177560015
 30
0.0
 11
677.4162416153446
 21
-636.5195329484059
 31
0.0
  0
LINE
  5
21259
330
18
100
AcDbEntity
  8
01
100
AcDbLine
 10
264.0189512446264
 20
-681.0213303512671
 30
0.0
 11
264.0189512446264
 21
-696.6213303512675
 31
0.0
  0
LINE
  5
2125D
330
18
100
AcDbEntity
  8
01
100
AcDbLine
 10
656.8162416153594
 20
-625.8213303512766
 30
0.0
 11
726.8390531680677
 21
-625.8213303512766
 31
0.0
  0
LINE
  5
2125E
330
18
100
AcDbEntity
  8
01
100
AcDbLine
 10
656.8162416153594
 20
-607.8213303512766
 30
0.0
 11
726.8390531680677
 21
-607.8213303512766
 31
0.0
  0
LINE
  5
21262
330
18
100
AcDbEntity
  8
1PHANTOM
100
AcDbLine
 10
686.3162414684612
 20
-634.2926171043384
 30
0.0
 11
685.3162417684612
 21
-633.2926171043384
 31
0.0
  0
LINE
  5
21263
330
18
100
AcDbEntity
  8
1PHANTOM
100
AcDbLine
 10
689.6162416184611
 20
-634.2926171043384
 30
0.0
 11
689.6162416184611
 21
-633.2926171043384
 31
0.0
  0
LINE
  5
21264
330
18
100
AcDbEntity
  8
1PHANTOM
100
AcDbLine
 10
689.6162416184611
 20
-633.2926171043384
 30
0.0
 11
682.0162416184612
 21
-633.2926171043384
 31
0.0
  0
LINE
  5
21265
330
18
100
AcDbEntity
  8
1PHANTOM
100
AcDbLine
 10
689.6162416184611
 20
-634.2926171043384
 30
0.0
 11
682.0162416184612
 21
-634.2926171043384
 31
0.0
  0
LINE
  5
21266
330
18
100
AcDbEntity
  8
1PHANTOM
100
AcDbLine
 10
682.0162416184612
 20
-634.2926171043384
 30
0.0
 11
682.0162416184612
 21
-633.2926171043384
 31
0.0
  0
LINE
  5
21267
330
18
100
AcDbEntity
  8
1PHANTOM
100
AcDbLine
 10
685.8162881512548
 20
-612.2924526776073
 30
0.0
 11
684.3162881512548
 21
-617.5924491874689
 31
0.0
  0
LINE
  5
21268
330
18
100
AcDbEntity
  8
1PHANTOM
100
AcDbLine
 10
684.3162881512548
 20
-617.5924491874689
 30
0.0
 11
684.316288151255
 21
-634.2926171043382
 31
0.0
  0
LINE
  5
21269
330
18
100
AcDbEntity
  8
1PHANTOM
100
AcDbLine
 10
685.8162881512548
 20
-612.2924526776073
 30
0.0
 11
687.3162881512549
 21
-617.5924561678526
 31
0.0
  0
LINE
  5
2126A
330
18
100
AcDbEntity
  8
1PHANTOM
100
AcDbLine
 10
682.316241615357
 20
-634.2926089605562
 30
0.0
 11
689.3162416153568
 21
-634.2926252481207
 31
0.0
  0
LINE
  5
2126B
330
18
100
AcDbEntity
  8
1PHANTOM
100
AcDbLine
 10
687.3162881512549
 20
-617.5924561678526
 30
0.0
 11
687.3162881512549
 21
-634.2926171043382
 31
0.0
  0
LINE
  5
2126C
330
18
100
AcDbEntity
  8
1PHANTOM
100
AcDbLine
 10
682.316241615357
 20
-634.2926089605562
 30
0.0
 11
682.3162416153568
 21
-635.3926124507516
 31
0.0
  0
ARC
  5
2126D
330
18
100
AcDbEntity
  8
1PHANTOM
100
AcDbCircle
 10
683.8162416153568
 20
-635.3926124507516
 30
0.0
 40
1.5
100
AcDbArc
 50
180.0
 51
269.9998666844684
  0
LINE
  5
2126E
330
18
100
AcDbEntity
  8
1PHANTOM
100
AcDbLine
 10
689.3162416153568
 20
-634.2926252481207
 30
0.0
 11
689.3162416153568
 21
-635.3926217579312
 31
0.0
  0
LINE
  5
2126F
330
18
100
AcDbEntity
  8
1PHANTOM
100
AcDbLine
 10
683.8162381251644
 20
-636.8926124507475
 30
0.0
 11
687.8162381251644
 21
-636.8926217579271
 31
0.0
  0
ARC
  5
21270
330
18
100
AcDbEntity
  8
1PHANTOM
100
AcDbCircle
 10
687.8162416153568
 20
-635.3926217579312
 30
0.0
 40
1.5
100
AcDbArc
 50
269.9998666844684
 51
0.0
  0
LINE
  5
21271
330
18
100
AcDbEntity
  8
1CENTER
100
AcDbLine
 10
685.8162416153568
 20
-610.861657760142
 30
0.0
 11
685.8162416153568
 21
-638.0759256808228
 31
0.0
  0
LINE
  5
21272
330
18
100
AcDbEntity
  8
1PHANTOM
100
AcDbLine
 10
684.7219178013618
 20
-614.3924501312852
 30
0.0
 11
686.6842528902372
 21
-613.5924546972342
 31
0.0
  0
LINE
  5
21273
330
18
100
AcDbEntity
  8
1PHANTOM
100
AcDbLine
 10
686.6842528902372
 20
-613.5924546972342
 30
0.0
 11
686.0959763151948
 21
-613.2806848409821
 31
0.0
  0
LINE
  5
21274
330
18
100
AcDbEntity
  8
1PHANTOM
100
AcDbLine
 10
683.8162881512548
 20
-625.5924480240708
 30
0.0
 11
687.8162881512548
 21
-624.7924573312482
 31
0.0
  0
LINE
  5
21275
330
18
100
AcDbEntity
  8
1PHANTOM
100
AcDbLine
 10
683.8162881512548
 20
-622.3924480240707
 30
0.0
 11
687.8162881512548
 21
-621.5924573312482
 31
0.0
  0
LINE
  5
21276
330
18
100
AcDbEntity
  8
1PHANTOM
100
AcDbLine
 10
687.8162881512548
 20
-621.5924573312482
 30
0.0
 11
687.3162881512548
 21
-621.4924561678508
 31
0.0
  0
LINE
  5
21277
330
18
100
AcDbEntity
  8
1PHANTOM
100
AcDbLine
 10
684.3162881512548
 20
-620.892449187468
 30
0.0
 11
683.8162881512548
 21
-620.7924480240708
 31
0.0
  0
LINE
  5
21278
330
18
100
AcDbEntity
  8
1PHANTOM
100
AcDbLine
 10
687.8162881512548
 20
-624.7924573312482
 30
0.0
 11
687.3162881512548
 21
-624.6924561678511
 31
0.0
  0
LINE
  5
21279
330
18
100
AcDbEntity
  8
1PHANTOM
100
AcDbLine
 10
687.8162881512548
 20
-623.1924573312481
 30
0.0
 11
687.3162881512548
 21
-623.092456167851
 31
0.0
  0
LINE
  5
2127A
330
18
100
AcDbEntity
  8
1PHANTOM
100
AcDbLine
 10
684.3162881512548
 20
-622.4924491874679
 30
0.0
 11
683.8162881512548
 21
-622.3924480240707
 31
0.0
  0
LINE
  5
2127B
330
18
100
AcDbEntity
  8
1PHANTOM
100
AcDbLine
 10
684.3162881512548
 20
-624.0924491874678
 30
0.0
 11
683.8162881512548
 21
-623.9924480240707
 31
0.0
  0
LINE
  5
2127C
330
18
100
AcDbEntity
  8
1PHANTOM
100
AcDbLine
 10
683.8162881512548
 20
-623.9924480240707
 30
0.0
 11
687.8162881512548
 21
-623.1924573312481
 31
0.0
  0
LINE
  5
2127D
330
18
100
AcDbEntity
  8
1PHANTOM
100
AcDbLine
 10
687.137066994644
 20
-615.1924557508398
 30
0.0
 11
686.5853175308407
 21
-615.0096916082118
 31
0.0
  0
LINE
  5
2127E
330
18
100
AcDbEntity
  8
1PHANTOM
100
AcDbLine
 10
687.8162881512548
 20
-618.3924573312481
 30
0.0
 11
687.3162881512548
 21
-618.292456167851
 31
0.0
  0
LINE
  5
2127F
330
18
100
AcDbEntity
  8
1PHANTOM
100
AcDbLine
 10
687.8162881512548
 20
-619.9924573312483
 30
0.0
 11
687.3162881512548
 21
-619.8924561678512
 31
0.0
  0
LINE
  5
21280
330
18
100
AcDbEntity
  8
1PHANTOM
100
AcDbLine
 10
687.5898810990508
 20
-616.7924568044455
 30
0.0
 11
687.0532873637796
 21
-616.6631861068156
 31
0.0
  0
LINE
  5
21281
330
18
100
AcDbEntity
  8
1PHANTOM
100
AcDbLine
 10
684.7372027484635
 20
-616.105218590031
 30
0.0
 11
684.2691042933135
 21
-615.9924490776809
 31
0.0
  0
LINE
  5
21282
330
18
100
AcDbEntity
  8
1PHANTOM
100
AcDbLine
 10
684.3162881512548
 20
-619.2924491874678
 30
0.0
 11
683.8162881512548
 21
-619.1924480240707
 31
0.0
  0
LINE
  5
21283
330
18
100
AcDbEntity
  8
1PHANTOM
100
AcDbLine
 10
684.3162881512548
 20
-617.6924491874679
 30
0.0
 11
683.8162881512548
 21
-617.5924480240708
 31
0.0
  0
LINE
  5
21284
330
18
100
AcDbEntity
  8
1PHANTOM
100
AcDbLine
 10
685.1790896419928
 20
-614.5438859277256
 30
0.0
 11
684.7219178013618
 21
-614.3924501312852
 31
0.0
  0
LINE
  5
21285
330
18
100
AcDbEntity
  8
1PHANTOM
100
AcDbLine
 10
684.2691042933135
 20
-615.9924490776809
 30
0.0
 11
687.137066994644
 21
-615.1924557508398
 31
0.0
  0
LINE
  5
21286
330
18
100
AcDbEntity
  8
1PHANTOM
100
AcDbLine
 10
683.8162881512548
 20
-619.1924480240707
 30
0.0
 11
687.8162881512548
 21
-618.3924573312481
 31
0.0
  0
LINE
  5
21287
330
18
100
AcDbEntity
  8
1PHANTOM
100
AcDbLine
 10
683.8162881512548
 20
-617.5924480240708
 30
0.0
 11
687.5898810990508
 21
-616.7924568044455
 31
0.0
  0
LINE
  5
21288
330
18
100
AcDbEntity
  8
1PHANTOM
100
AcDbLine
 10
683.8162881512548
 20
-620.7924480240708
 30
0.0
 11
687.8162881512548
 21
-619.9924573312483
 31
0.0
  0
LINE
  5
21289
330
18
100
AcDbEntity
  8
1PHANTOM
100
AcDbLine
 10
687.8162881512548
 20
-626.3924573312481
 30
0.0
 11
687.3162881512548
 21
-626.292456167851
 31
0.0
  0
LINE
  5
2128A
330
18
100
AcDbEntity
  8
1PHANTOM
100
AcDbLine
 10
684.3162881512548
 20
-625.6924491874679
 30
0.0
 11
683.8162881512548
 21
-625.5924480240708
 31
0.0
  0
LINE
  5
2128B
330
18
100
AcDbEntity
  8
1PHANTOM
100
AcDbLine
 10
684.3162881512548
 20
-627.2924491874685
 30
0.0
 11
683.8162881512548
 21
-627.1924480240707
 31
0.0
  0
LINE
  5
2128C
330
18
100
AcDbEntity
  8
1PHANTOM
100
AcDbLine
 10
683.8162881512548
 20
-627.1924480240707
 30
0.0
 11
687.8162881512548
 21
-626.3924573312481
 31
0.0
  0
LINE
  5
2128D
330
18
100
AcDbEntity
  8
1PHANTOM
100
AcDbLine
 10
687.8162881512546
 20
-627.9924573312483
 30
0.0
 11
687.3162881512546
 21
-627.8924561678509
 31
0.0
  0
LINE
  5
2128E
330
18
100
AcDbEntity
  8
1PHANTOM
100
AcDbLine
 10
684.3162881512546
 20
-628.8924491874686
 30
0.0
 11
683.8162881512546
 21
-628.7924480240708
 31
0.0
  0
LINE
  5
2128F
330
18
100
AcDbEntity
  8
1PHANTOM
100
AcDbLine
 10
683.8162881512546
 20
-628.7924480240708
 30
0.0
 11
687.8162881512546
 21
-627.9924573312483
 31
0.0
  0
LINE
  5
21290
330
18
100
AcDbEntity
  8
1PHANTOM
100
AcDbLine
 10
687.8162881512549
 20
-629.5924573312482
 30
0.0
 11
687.3162881512549
 21
-629.4924561678513
 31
0.0
  0
LINE
  5
21291
330
18
100
AcDbEntity
  8
1PHANTOM
100
AcDbLine
 10
684.3162881512549
 20
-630.4924491874685
 30
0.0
 11
683.8162881512549
 21
-630.3924480240707
 31
0.0
  0
LINE
  5
21292
330
18
100
AcDbEntity
  8
1PHANTOM
100
AcDbLine
 10
683.8162881512549
 20
-630.3924480240707
 30
0.0
 11
687.8162881512549
 21
-629.5924573312482
 31
0.0
  0
LINE
  5
21293
330
18
100
AcDbEntity
  8
1PHANTOM
100
AcDbLine
 10
687.8162881512549
 20
-631.1924573312483
 30
0.0
 11
687.3162881512549
 21
-631.0924561678512
 31
0.0
  0
LINE
  5
21294
330
18
100
AcDbEntity
  8
1PHANTOM
100
AcDbLine
 10
684.3162881512549
 20
-632.0924491874687
 30
0.0
 11
683.8162881512549
 21
-631.9924480240709
 31
0.0
  0
LINE
  5
21295
330
18
100
AcDbEntity
  8
1PHANTOM
100
AcDbLine
 10
683.8162881512549
 20
-631.9924480240709
 30
0.0
 11
687.8162881512549
 21
-631.1924573312483
 31
0.0
  0
LINE
  5
21296
330
18
100
AcDbEntity
  8
1PHANTOM
100
AcDbLine
 10
687.8162881512548
 20
-632.7924573312484
 30
0.0
 11
687.3162881512548
 21
-632.6924561678511
 31
0.0
  0
LINE
  5
21297
330
18
100
AcDbEntity
  8
1PHANTOM
100
AcDbLine
 10
684.3162881512548
 20
-633.6924491874688
 30
0.0
 11
683.8162881512548
 21
-633.592448024071
 31
0.0
  0
LINE
  5
21298
330
18
100
AcDbEntity
  8
1PHANTOM
100
AcDbLine
 10
683.8162881512548
 20
-633.592448024071
 30
0.0
 11
687.8162881512548
 21
-632.7924573312484
 31
0.0
  0
LINE
  5
21299
330
18
100
AcDbEntity
  8
1PHANTOM
100
AcDbLine
 10
706.3162414684615
 20
-633.943515805784
 30
0.0
 11
705.3162417684615
 21
-632.943515805784
 31
0.0
  0
LINE
  5
2129A
330
18
100
AcDbEntity
  8
1PHANTOM
100
AcDbLine
 10
709.6162416184615
 20
-633.943515805784
 30
0.0
 11
709.6162416184615
 21
-632.943515805784
 31
0.0
  0
LINE
  5
2129B
330
18
100
AcDbEntity
  8
1PHANTOM
100
AcDbLine
 10
709.6162416184615
 20
-632.943515805784
 30
0.0
 11
702.0162416184615
 21
-632.943515805784
 31
0.0
  0
LINE
  5
2129C
330
18
100
AcDbEntity
  8
1PHANTOM
100
AcDbLine
 10
709.6162416184615
 20
-633.943515805784
 30
0.0
 11
702.0162416184615
 21
-633.943515805784
 31
0.0
  0
LINE
  5
2129D
330
18
100
AcDbEntity
  8
1PHANTOM
100
AcDbLine
 10
702.0162416184615
 20
-633.943515805784
 30
0.0
 11
702.0162416184615
 21
-632.943515805784
 31
0.0
  0
LINE
  5
2129E
330
18
100
AcDbEntity
  8
1PHANTOM
100
AcDbLine
 10
705.8162881512551
 20
-611.943351379053
 30
0.0
 11
704.3162881512551
 21
-617.2433478889147
 31
0.0
  0
LINE
  5
2129F
330
18
100
AcDbEntity
  8
1PHANTOM
100
AcDbLine
 10
704.3162881512551
 20
-617.2433478889147
 30
0.0
 11
704.3162881512553
 21
-633.943515805784
 31
0.0
  0
LINE
  5
212A0
330
18
100
AcDbEntity
  8
1PHANTOM
100
AcDbLine
 10
705.8162881512551
 20
-611.943351379053
 30
0.0
 11
707.3162881512552
 21
-617.2433548692984
 31
0.0
  0
LINE
  5
212A1
330
18
100
AcDbEntity
  8
1PHANTOM
100
AcDbLine
 10
702.3162416153573
 20
-633.9435076620018
 30
0.0
 11
709.3162416153572
 21
-633.9435239495663
 31
0.0
  0
LINE
  5
212A2
330
18
100
AcDbEntity
  8
1PHANTOM
100
AcDbLine
 10
707.3162881512552
 20
-617.2433548692984
 30
0.0
 11
707.3162881512552
 21
-633.943515805784
 31
0.0
  0
LINE
  5
212A3
330
18
100
AcDbEntity
  8
1PHANTOM
100
AcDbLine
 10
702.3162416153573
 20
-633.9435076620018
 30
0.0
 11
702.3162416153572
 21
-635.0435111521972
 31
0.0
  0
ARC
  5
212A4
330
18
100
AcDbEntity
  8
1PHANTOM
100
AcDbCircle
 10
703.8162416153572
 20
-635.0435111521972
 30
0.0
 40
1.5
100
AcDbArc
 50
180.0
 51
269.9998666844684
  0
LINE
  5
212A5
330
18
100
AcDbEntity
  8
1PHANTOM
100
AcDbLine
 10
709.3162416153572
 20
-633.9435239495663
 30
0.0
 11
709.3162416153572
 21
-635.0435204593769
 31
0.0
  0
LINE
  5
212A6
330
18
100
AcDbEntity
  8
1PHANTOM
100
AcDbLine
 10
703.8162381251648
 20
-636.5435111521931
 30
0.0
 11
707.8162381251648
 21
-636.5435204593728
 31
0.0
  0
ARC
  5
212A7
330
18
100
AcDbEntity
  8
1PHANTOM
100
AcDbCircle
 10
707.8162416153572
 20
-635.0435204593769
 30
0.0
 40
1.5
100
AcDbArc
 50
269.9998666844684
 51
0.0
  0
LINE
  5
212A8
330
18
100
AcDbEntity
  8
1CENTER
100
AcDbLine
 10
705.8162416153572
 20
-610.5125564615876
 30
0.0
 11
705.8162416153572
 21
-637.7268243822682
 31
0.0
  0
LINE
  5
212A9
330
18
100
AcDbEntity
  8
1PHANTOM
100
AcDbLine
 10
704.7219178013621
 20
-614.0433488327308
 30
0.0
 11
706.6842528902375
 21
-613.2433533986798
 31
0.0
  0
LINE
  5
212AA
330
18
100
AcDbEntity
  8
1PHANTOM
100
AcDbLine
 10
706.6842528902375
 20
-613.2433533986798
 30
0.0
 11
706.0959763151951
 21
-612.9315835424277
 31
0.0
  0
LINE
  5
212AB
330
18
100
AcDbEntity
  8
1PHANTOM
100
AcDbLine
 10
703.8162881512551
 20
-625.2433467255164
 30
0.0
 11
707.8162881512551
 21
-624.4433560326938
 31
0.0
  0
LINE
  5
212AC
330
18
100
AcDbEntity
  8
1PHANTOM
100
AcDbLine
 10
703.8162881512551
 20
-622.0433467255164
 30
0.0
 11
707.8162881512551
 21
-621.2433560326938
 31
0.0
  0
LINE
  5
212AD
330
18
100
AcDbEntity
  8
1PHANTOM
100
AcDbLine
 10
707.8162881512551
 20
-621.2433560326938
 30
0.0
 11
707.3162881512551
 21
-621.1433548692967
 31
0.0
  0
LINE
  5
212AE
330
18
100
AcDbEntity
  8
1PHANTOM
100
AcDbLine
 10
704.3162881512551
 20
-620.5433478889136
 30
0.0
 11
703.8162881512551
 21
-620.4433467255162
 31
0.0
  0
LINE
  5
212AF
330
18
100
AcDbEntity
  8
1PHANTOM
100
AcDbLine
 10
707.8162881512551
 20
-624.4433560326938
 30
0.0
 11
707.3162881512551
 21
-624.3433548692965
 31
0.0
  0
LINE
  5
212B0
330
18
100
AcDbEntity
  8
1PHANTOM
100
AcDbLine
 10
707.8162881512551
 20
-622.8433560326937
 30
0.0
 11
707.3162881512551
 21
-622.7433548692966
 31
0.0
  0
LINE
  5
212B1
330
18
100
AcDbEntity
  8
1PHANTOM
100
AcDbLine
 10
704.3162881512551
 20
-622.1433478889135
 30
0.0
 11
703.8162881512551
 21
-622.0433467255164
 31
0.0
  0
LINE
  5
212B2
330
18
100
AcDbEntity
  8
1PHANTOM
100
AcDbLine
 10
704.3162881512551
 20
-623.7433478889134
 30
0.0
 11
703.8162881512551
 21
-623.6433467255163
 31
0.0
  0
LINE
  5
212B3
330
18
100
AcDbEntity
  8
1PHANTOM
100
AcDbLine
 10
703.8162881512551
 20
-623.6433467255163
 30
0.0
 11
707.8162881512551
 21
-622.8433560326937
 31
0.0
  0
LINE
  5
212B4
330
18
100
AcDbEntity
  8
1PHANTOM
100
AcDbLine
 10
707.1370669946443
 20
-614.8433544522854
 30
0.0
 11
706.585317530841
 21
-614.6605903096574
 31
0.0
  0
LINE
  5
212B5
330
18
100
AcDbEntity
  8
1PHANTOM
100
AcDbLine
 10
707.8162881512551
 20
-618.0433560326937
 30
0.0
 11
707.3162881512551
 21
-617.9433548692966
 31
0.0
  0
LINE
  5
212B6
330
18
100
AcDbEntity
  8
1PHANTOM
100
AcDbLine
 10
707.8162881512551
 20
-619.6433560326936
 30
0.0
 11
707.3162881512551
 21
-619.5433548692968
 31
0.0
  0
LINE
  5
212B7
330
18
100
AcDbEntity
  8
1PHANTOM
100
AcDbLine
 10
707.5898810990511
 20
-616.4433555058911
 30
0.0
 11
707.05328736378
 21
-616.3140848082612
 31
0.0
  0
LINE
  5
212B8
330
18
100
AcDbEntity
  8
1PHANTOM
100
AcDbLine
 10
704.7372027484638
 20
-615.7561172914766
 30
0.0
 11
704.2691042933138
 21
-615.6433477791265
 31
0.0
  0
LINE
  5
212B9
330
18
100
AcDbEntity
  8
1PHANTOM
100
AcDbLine
 10
704.3162881512551
 20
-618.9433478889134
 30
0.0
 11
703.8162881512551
 21
-618.8433467255163
 31
0.0
  0
LINE
  5
212BA
330
18
100
AcDbEntity
  8
1PHANTOM
100
AcDbLine
 10
704.3162881512551
 20
-617.3433478889135
 30
0.0
 11
703.8162881512551
 21
-617.2433467255164
 31
0.0
  0
LINE
  5
212BB
330
18
100
AcDbEntity
  8
1PHANTOM
100
AcDbLine
 10
705.1790896419932
 20
-614.1947846291712
 30
0.0
 11
704.7219178013621
 21
-614.0433488327308
 31
0.0
  0
LINE
  5
212BC
330
18
100
AcDbEntity
  8
1PHANTOM
100
AcDbLine
 10
704.2691042933138
 20
-615.6433477791265
 30
0.0
 11
707.1370669946443
 21
-614.8433544522854
 31
0.0
  0
LINE
  5
212BD
330
18
100
AcDbEntity
  8
1PHANTOM
100
AcDbLine
 10
703.8162881512551
 20
-618.8433467255163
 30
0.0
 11
707.8162881512551
 21
-618.0433560326937
 31
0.0
  0
LINE
  5
212BE
330
18
100
AcDbEntity
  8
1PHANTOM
100
AcDbLine
 10
703.8162881512551
 20
-617.2433467255164
 30
0.0
 11
707.5898810990511
 21
-616.4433555058911
 31
0.0
  0
LINE
  5
212BF
330
18
100
AcDbEntity
  8
1PHANTOM
100
AcDbLine
 10
703.8162881512551
 20
-620.4433467255162
 30
0.0
 11
707.8162881512551
 21
-619.6433560326936
 31
0.0
  0
LINE
  5
212C0
330
18
100
AcDbEntity
  8
1PHANTOM
100
AcDbLine
 10
707.8162881512551
 20
-626.0433560326937
 30
0.0
 11
707.3162881512551
 21
-625.9433548692966
 31
0.0
  0
LINE
  5
212C1
330
18
100
AcDbEntity
  8
1PHANTOM
100
AcDbLine
 10
704.3162881512551
 20
-625.3433478889135
 30
0.0
 11
703.8162881512551
 21
-625.2433467255164
 31
0.0
  0
LINE
  5
212C2
330
18
100
AcDbEntity
  8
1PHANTOM
100
AcDbLine
 10
704.3162881512551
 20
-626.9433478889141
 30
0.0
 11
703.8162881512551
 21
-626.8433467255163
 31
0.0
  0
LINE
  5
212C3
330
18
100
AcDbEntity
  8
1PHANTOM
100
AcDbLine
 10
703.8162881512551
 20
-626.8433467255163
 30
0.0
 11
707.8162881512551
 21
-626.0433560326937
 31
0.0
  0
LINE
  5
212C4
330
18
100
AcDbEntity
  8
1PHANTOM
100
AcDbLine
 10
707.816288151255
 20
-627.6433560326936
 30
0.0
 11
707.316288151255
 21
-627.5433548692968
 31
0.0
  0
LINE
  5
212C5
330
18
100
AcDbEntity
  8
1PHANTOM
100
AcDbLine
 10
704.316288151255
 20
-628.543347888914
 30
0.0
 11
703.816288151255
 21
-628.4433467255162
 31
0.0
  0
LINE
  5
212C6
330
18
100
AcDbEntity
  8
1PHANTOM
100
AcDbLine
 10
703.816288151255
 20
-628.4433467255162
 30
0.0
 11
707.816288151255
 21
-627.6433560326936
 31
0.0
  0
LINE
  5
212C7
330
18
100
AcDbEntity
  8
1PHANTOM
100
AcDbLine
 10
707.8162881512552
 20
-629.243356032694
 30
0.0
 11
707.3162881512552
 21
-629.1433548692967
 31
0.0
  0
LINE
  5
212C8
330
18
100
AcDbEntity
  8
1PHANTOM
100
AcDbLine
 10
704.3162881512552
 20
-630.1433478889144
 30
0.0
 11
703.8162881512552
 21
-630.0433467255166
 31
0.0
  0
LINE
  5
212C9
330
18
100
AcDbEntity
  8
1PHANTOM
100
AcDbLine
 10
703.8162881512552
 20
-630.0433467255166
 30
0.0
 11
707.8162881512552
 21
-629.243356032694
 31
0.0
  0
LINE
  5
212CA
330
18
100
AcDbEntity
  8
1PHANTOM
100
AcDbLine
 10
707.8162881512552
 20
-630.8433560326939
 30
0.0
 11
707.3162881512552
 21
-630.7433548692968
 31
0.0
  0
LINE
  5
212CB
330
18
100
AcDbEntity
  8
1PHANTOM
100
AcDbLine
 10
704.3162881512552
 20
-631.7433478889143
 30
0.0
 11
703.8162881512552
 21
-631.6433467255165
 31
0.0
  0
LINE
  5
212CC
330
18
100
AcDbEntity
  8
1PHANTOM
100
AcDbLine
 10
703.8162881512552
 20
-631.6433467255165
 30
0.0
 11
707.8162881512552
 21
-630.8433560326939
 31
0.0
  0
LINE
  5
212CD
330
18
100
AcDbEntity
  8
1PHANTOM
100
AcDbLine
 10
707.8162881512551
 20
-632.4433560326938
 30
0.0
 11
707.3162881512551
 21
-632.343354869297
 31
0.0
  0
LINE
  5
212CE
330
18
100
AcDbEntity
  8
1PHANTOM
100
AcDbLine
 10
704.3162881512551
 20
-633.3433478889142
 30
0.0
 11
703.8162881512551
 21
-633.2433467255164
 31
0.0
  0
LINE
  5
212CF
330
18
100
AcDbEntity
  8
1PHANTOM
100
AcDbLine
 10
703.8162881512551
 20
-633.2433467255164
 30
0.0
 11
707.8162881512551
 21
-632.4433560326938
 31
0.0
  0
LINE
  5
212D4
330
18
100
AcDbEntity
  8
01
100
AcDbLine
 10
614.0162416153755
 20
-558.8989734471686
 30
0.0
 11
584.0162416153755
 21
-558.8989734471686
 31
0.0
  0
ARC
  5
212D5
330
18
100
AcDbEntity
  8
01
100
AcDbCircle
 10
614.0162416153755
 20
-551.0989734471684
 30
0.0
 40
7.8
100
AcDbArc
 50
179.9999999999608
 51
0.0
  0
LINE
  5
212D6
330
18
100
AcDbEntity
  8
01
100
AcDbLine
 10
606.2565417237088
 20
-543.2989734471573
 30
0.0
 11
584.0162416153755
 21
-543.2989734471573
 31
0.0
  0
LINE
  5
212D8
330
18
100
AcDbEntity
  8
01
100
AcDbLine
 10
264.0162416153585
 20
-543.598973447163
 30
0.0
 11
584.016241615376
 21
-543.598973447163
 31
0.0
  0
LINE
  5
212DA
330
18
100
AcDbEntity
  8
01
100
AcDbLine
 10
264.0162416153585
 20
-558.5986791597604
 30
0.0
 11
584.0162416153755
 21
-558.5986791597604
 31
0.0
  0
LINE
  5
212DD
330
18
100
AcDbEntity
  8
01
100
AcDbLine
 10
228.9322039334954
 20
-507.8989734471667
 30
0.0
 11
239.0967882842451
 21
-507.8989734471669
 31
0.0
  0
ARC
  5
212DE
330
18
100
AcDbEntity
  8
01
100
AcDbCircle
 10
239.0967882842451
 20
-509.8989734471669
 30
0.0
 40
2.0
100
AcDbArc
 50
1.000000000001776
 51
90.0
  0
LINE
  5
212DF
330
18
100
AcDbEntity
  8
01
100
AcDbLine
 10
234.0162416153585
 20
-558.8989734471668
 30
0.0
 11
264.0162416153585
 21
-558.8989734471672
 31
0.0
  0
LINE
  5
212E0
330
18
100
AcDbEntity
  8
01
100
AcDbLine
 10
264.0162416153585
 20
-558.8989734471672
 30
0.0
 11
264.0162416153585
 21
-543.298973447156
 31
0.0
  0
ARC
  5
212E1
330
18
100
AcDbEntity
  8
01
100
AcDbCircle
 10
234.0162416153585
 20
-551.0989734471666
 30
0.0
 40
7.8
100
AcDbArc
 50
180.0
 51
270.0
  0
LINE
  5
212E2
330
18
100
AcDbEntity
  8
01
100
AcDbLine
 10
241.6800921089355
 20
-543.2989734471557
 30
0.0
 11
264.0162416153585
 21
-543.298973447156
 31
0.0
  0
LINE
  5
212E3
330
18
100
AcDbEntity
  8
01
100
AcDbLine
 10
226.2162416153581
 20
-551.0989734471607
 30
0.0
 11
226.9380597795639
 21
-509.7460385154449
 31
0.0
  0
ARC
  5
212E4
330
18
100
AcDbEntity
  8
01
100
AcDbCircle
 10
228.9322039334954
 20
-509.8989734471667
 30
0.0
 40
2.0
100
AcDbArc
 50
90.0
 51
178.9999999999982
  0
LINE
  5
212E5
330
18
100
AcDbEntity
  8
01
100
AcDbLine
 10
621.8843061107693
 20
-551.6213511414358
 30
0.0
 11
621.3407053687588
 21
-509.8729339131171
 31
0.0
  0
LINE
  5
212E6
330
18
100
AcDbEntity
  8
01
100
AcDbLine
 10
619.3408748902766
 20
-507.8989734471683
 30
0.0
 11
608.6916083404572
 21
-507.8989734471683
 31
0.0
  0
ARC
  5
212E7
330
18
100
AcDbEntity
  8
01
100
AcDbCircle
 10
619.3408748902766
 20
-509.8989734471683
 30
0.0
 40
2.0
100
AcDbArc
 50
0.7459987780661873
 51
90.0
  0
CIRCLE
  5
212E9
330
18
100
AcDbEntity
  8
01
100
AcDbCircle
 10
234.0162416153669
 20
-534.8989734471622
 30
0.0
 40
2.5
  0
CIRCLE
  5
212EA
330
18
100
AcDbEntity
  8
01
100
AcDbCircle
 10
234.0162416153669
 20
-514.8989734471623
 30
0.0
 40
2.5
  0
CIRCLE
  5
212EB
330
18
100
AcDbEntity
  8
01
100
AcDbCircle
 10
614.0162416153671
 20
-534.8989734471636
 30
0.0
 40
2.5
  0
CIRCLE
  5
212EC
330
18
100
AcDbEntity
  8
01
100
AcDbCircle
 10
614.0162416153669
 20
-514.8989734471683
 30
0.0
 40
2.5
  0
LINE
  5
212ED
330
18
100
AcDbEntity
  8
01
100
AcDbLine
 10
241.8162416153757
 20
-551.098973447163
 30
0.0
 11
241.0964836745579
 21
-509.8640686342923
 31
0.0
  0
LINE
  5
212EE
330
18
100
AcDbEntity
  8
01
100
AcDbLine
 10
606.15497893237
 20
-551.098973447163
 30
0.0
 11
606.691777861975
 21
-509.8729339131171
 31
0.0
  0
ARC
  5
212EF
330
18
100
AcDbEntity
  8
01
100
AcDbCircle
 10
608.6916083404572
 20
-509.8989734471683
 30
0.0
 40
2.0
100
AcDbArc
 50
90.0
 51
179.2540012219338
  0
LINE
  5
212F0
330
18
100
AcDbEntity
  8
01
100
AcDbLine
 10
584.0162416153755
 20
-543.2989734471573
 30
0.0
 11
584.0162416153755
 21
-558.8989734471686
 31
0.0
  0
ARC
  5
212F2
330
18
100
AcDbEntity
  8
01
100
AcDbCircle
 10
234.0162416153753
 20
-551.0989734471666
 30
0.0
 40
7.8
100
AcDbArc
 50
270.0
 51
0.0
  0
LINE
  5
212F4
330
18
100
AcDbEntity
  8
1PHANTOM
100
AcDbLine
 10
614.5162414684689
 20
-633.9435158057636
 30
0.0
 11
613.516241768469
 21
-632.9435158057636
 31
0.0
  0
LINE
  5
212F5
330
18
100
AcDbEntity
  8
1PHANTOM
100
AcDbLine
 10
617.8162416184689
 20
-633.9435158057636
 30
0.0
 11
617.8162416184689
 21
-632.9435158057636
 31
0.0
  0
LINE
  5
212F6
330
18
100
AcDbEntity
  8
1PHANTOM
100
AcDbLine
 10
617.8162416184689
 20
-632.9435158057636
 30
0.0
 11
610.216241618469
 21
-632.9435158057636
 31
0.0
  0
LINE
  5
212F7
330
18
100
AcDbEntity
  8
1PHANTOM
100
AcDbLine
 10
617.8162416184689
 20
-633.9435158057636
 30
0.0
 11
610.216241618469
 21
-633.9435158057636
 31
0.0
  0
LINE
  5
212F8
330
18
100
AcDbEntity
  8
1PHANTOM
100
AcDbLine
 10
610.216241618469
 20
-633.9435158057636
 30
0.0
 11
610.216241618469
 21
-632.9435158057636
 31
0.0
  0
LINE
  5
212F9
330
18
100
AcDbEntity
  8
1PHANTOM
100
AcDbLine
 10
614.0162881512625
 20
-611.9433513790325
 30
0.0
 11
612.5162881512625
 21
-617.2433478888943
 31
0.0
  0
LINE
  5
212FA
330
18
100
AcDbEntity
  8
1PHANTOM
100
AcDbLine
 10
612.5162881512625
 20
-617.2433478888943
 30
0.0
 11
612.5162881512628
 21
-633.9435158057636
 31
0.0
  0
LINE
  5
212FB
330
18
100
AcDbEntity
  8
1PHANTOM
100
AcDbLine
 10
614.0162881512625
 20
-611.9433513790325
 30
0.0
 11
615.5162881512626
 21
-617.2433548692779
 31
0.0
  0
LINE
  5
212FC
330
18
100
AcDbEntity
  8
1PHANTOM
100
AcDbLine
 10
610.5162416153647
 20
-633.9435076619814
 30
0.0
 11
617.5162416153646
 21
-633.9435239495458
 31
0.0
  0
LINE
  5
212FD
330
18
100
AcDbEntity
  8
1PHANTOM
100
AcDbLine
 10
615.5162881512626
 20
-617.2433548692779
 30
0.0
 11
615.5162881512626
 21
-633.9435158057636
 31
0.0
  0
LINE
  5
212FE
330
18
100
AcDbEntity
  8
1PHANTOM
100
AcDbLine
 10
610.5162416153647
 20
-633.9435076619814
 30
0.0
 11
610.5162416153646
 21
-635.0435111521767
 31
0.0
  0
ARC
  5
212FF
330
18
100
AcDbEntity
  8
1PHANTOM
100
AcDbCircle
 10
612.0162416153646
 20
-635.0435111521767
 30
0.0
 40
1.5
100
AcDbArc
 50
180.0
 51
269.9998666844684
  0
LINE
  5
21300
330
18
100
AcDbEntity
  8
1PHANTOM
100
AcDbLine
 10
617.5162416153646
 20
-633.9435239495458
 30
0.0
 11
617.5162416153646
 21
-635.0435204593564
 31
0.0
  0
LINE
  5
21301
330
18
100
AcDbEntity
  8
1PHANTOM
100
AcDbLine
 10
612.0162381251722
 20
-636.5435111521726
 30
0.0
 11
616.0162381251722
 21
-636.5435204593523
 31
0.0
  0
ARC
  5
21302
330
18
100
AcDbEntity
  8
1PHANTOM
100
AcDbCircle
 10
616.0162416153646
 20
-635.0435204593564
 30
0.0
 40
1.5
100
AcDbArc
 50
269.9998666844684
 51
0.0
  0
LINE
  5
21303
330
18
100
AcDbEntity
  8
1CENTER
100
AcDbLine
 10
614.0162416153646
 20
-610.5125564615671
 30
0.0
 11
614.0162416153646
 21
-637.7268243822477
 31
0.0
  0
LINE
  5
21304
330
18
100
AcDbEntity
  8
1PHANTOM
100
AcDbLine
 10
612.9219178013695
 20
-614.0433488327103
 30
0.0
 11
614.884252890245
 21
-613.2433533986593
 31
0.0
  0
LINE
  5
21305
330
18
100
AcDbEntity
  8
1PHANTOM
100
AcDbLine
 10
614.884252890245
 20
-613.2433533986593
 30
0.0
 11
614.2959763152026
 21
-612.9315835424072
 31
0.0
  0
LINE
  5
21306
330
18
100
AcDbEntity
  8
1PHANTOM
100
AcDbLine
 10
612.0162881512625
 20
-625.2433467254959
 30
0.0
 11
616.0162881512625
 21
-624.4433560326734
 31
0.0
  0
LINE
  5
21307
330
18
100
AcDbEntity
  8
1PHANTOM
100
AcDbLine
 10
612.0162881512625
 20
-622.0433467254959
 30
0.0
 11
616.0162881512625
 21
-621.2433560326733
 31
0.0
  0
LINE
  5
21308
330
18
100
AcDbEntity
  8
1PHANTOM
100
AcDbLine
 10
616.0162881512625
 20
-621.2433560326733
 30
0.0
 11
615.5162881512625
 21
-621.1433548692762
 31
0.0
  0
LINE
  5
21309
330
18
100
AcDbEntity
  8
1PHANTOM
100
AcDbLine
 10
612.5162881512625
 20
-620.5433478888931
 30
0.0
 11
612.0162881512625
 21
-620.4433467254958
 31
0.0
  0
LINE
  5
2130A
330
18
100
AcDbEntity
  8
1PHANTOM
100
AcDbLine
 10
616.0162881512625
 20
-624.4433560326734
 30
0.0
 11
615.5162881512625
 21
-624.343354869276
 31
0.0
  0
LINE
  5
2130B
330
18
100
AcDbEntity
  8
1PHANTOM
100
AcDbLine
 10
616.0162881512625
 20
-622.8433560326732
 30
0.0
 11
615.5162881512625
 21
-622.7433548692761
 31
0.0
  0
LINE
  5
2130C
330
18
100
AcDbEntity
  8
1PHANTOM
100
AcDbLine
 10
612.5162881512625
 20
-622.143347888893
 30
0.0
 11
612.0162881512625
 21
-622.0433467254959
 31
0.0
  0
LINE
  5
2130D
330
18
100
AcDbEntity
  8
1PHANTOM
100
AcDbLine
 10
612.5162881512625
 20
-623.7433478888929
 30
0.0
 11
612.0162881512625
 21
-623.6433467254958
 31
0.0
  0
LINE
  5
2130E
330
18
100
AcDbEntity
  8
1PHANTOM
100
AcDbLine
 10
612.0162881512625
 20
-623.6433467254958
 30
0.0
 11
616.0162881512625
 21
-622.8433560326732
 31
0.0
  0
LINE
  5
2130F
330
18
100
AcDbEntity
  8
1PHANTOM
100
AcDbLine
 10
615.3370669946518
 20
-614.843354452265
 30
0.0
 11
614.7853175308485
 21
-614.660590309637
 31
0.0
  0
LINE
  5
21310
330
18
100
AcDbEntity
  8
1PHANTOM
100
AcDbLine
 10
616.0162881512625
 20
-618.0433560326733
 30
0.0
 11
615.5162881512625
 21
-617.9433548692762
 31
0.0
  0
LINE
  5
21311
330
18
100
AcDbEntity
  8
1PHANTOM
100
AcDbLine
 10
616.0162881512625
 20
-619.6433560326732
 30
0.0
 11
615.5162881512625
 21
-619.5433548692763
 31
0.0
  0
LINE
  5
21312
330
18
100
AcDbEntity
  8
1PHANTOM
100
AcDbLine
 10
615.7898810990586
 20
-616.4433555058706
 30
0.0
 11
615.2532873637874
 21
-616.3140848082408
 31
0.0
  0
LINE
  5
21313
330
18
100
AcDbEntity
  8
1PHANTOM
100
AcDbLine
 10
612.9372027484712
 20
-615.7561172914561
 30
0.0
 11
612.4691042933213
 21
-615.6433477791061
 31
0.0
  0
LINE
  5
21314
330
18
100
AcDbEntity
  8
1PHANTOM
100
AcDbLine
 10
612.5162881512625
 20
-618.943347888893
 30
0.0
 11
612.0162881512625
 21
-618.8433467254958
 31
0.0
  0
LINE
  5
21315
330
18
100
AcDbEntity
  8
1PHANTOM
100
AcDbLine
 10
612.5162881512625
 20
-617.343347888893
 30
0.0
 11
612.0162881512625
 21
-617.2433467254959
 31
0.0
  0
LINE
  5
21316
330
18
100
AcDbEntity
  8
1PHANTOM
100
AcDbLine
 10
613.3790896420006
 20
-614.1947846291507
 30
0.0
 11
612.9219178013695
 21
-614.0433488327103
 31
0.0
  0
LINE
  5
21317
330
18
100
AcDbEntity
  8
1PHANTOM
100
AcDbLine
 10
612.4691042933213
 20
-615.6433477791061
 30
0.0
 11
615.3370669946518
 21
-614.843354452265
 31
0.0
  0
LINE
  5
21318
330
18
100
AcDbEntity
  8
1PHANTOM
100
AcDbLine
 10
612.0162881512625
 20
-618.8433467254958
 30
0.0
 11
616.0162881512625
 21
-618.0433560326733
 31
0.0
  0
LINE
  5
21319
330
18
100
AcDbEntity
  8
1PHANTOM
100
AcDbLine
 10
612.0162881512625
 20
-617.2433467254959
 30
0.0
 11
615.7898810990586
 21
-616.4433555058706
 31
0.0
  0
LINE
  5
2131A
330
18
100
AcDbEntity
  8
1PHANTOM
100
AcDbLine
 10
612.0162881512625
 20
-620.4433467254958
 30
0.0
 11
616.0162881512625
 21
-619.6433560326732
 31
0.0
  0
LINE
  5
2131B
330
18
100
AcDbEntity
  8
1PHANTOM
100
AcDbLine
 10
616.0162881512625
 20
-626.0433560326733
 30
0.0
 11
615.5162881512625
 21
-625.9433548692762
 31
0.0
  0
LINE
  5
2131C
330
18
100
AcDbEntity
  8
1PHANTOM
100
AcDbLine
 10
612.5162881512625
 20
-625.343347888893
 30
0.0
 11
612.0162881512625
 21
-625.2433467254959
 31
0.0
  0
LINE
  5
2131D
330
18
100
AcDbEntity
  8
1PHANTOM
100
AcDbLine
 10
612.5162881512625
 20
-626.9433478888936
 30
0.0
 11
612.0162881512625
 21
-626.8433467254958
 31
0.0
  0
LINE
  5
2131E
330
18
100
AcDbEntity
  8
1PHANTOM
100
AcDbLine
 10
612.0162881512625
 20
-626.8433467254958
 30
0.0
 11
616.0162881512625
 21
-626.0433560326733
 31
0.0
  0
LINE
  5
2131F
330
18
100
AcDbEntity
  8
1PHANTOM
100
AcDbLine
 10
616.0162881512624
 20
-627.6433560326732
 30
0.0
 11
615.5162881512624
 21
-627.5433548692763
 31
0.0
  0
LINE
  5
21320
330
18
100
AcDbEntity
  8
1PHANTOM
100
AcDbLine
 10
612.5162881512624
 20
-628.5433478888935
 30
0.0
 11
612.0162881512624
 21
-628.4433467254958
 31
0.0
  0
LINE
  5
21321
330
18
100
AcDbEntity
  8
1PHANTOM
100
AcDbLine
 10
612.0162881512624
 20
-628.4433467254958
 30
0.0
 11
616.0162881512624
 21
-627.6433560326732
 31
0.0
  0
LINE
  5
21322
330
18
100
AcDbEntity
  8
1PHANTOM
100
AcDbLine
 10
616.0162881512626
 20
-629.2433560326735
 30
0.0
 11
615.5162881512626
 21
-629.1433548692762
 31
0.0
  0
LINE
  5
21323
330
18
100
AcDbEntity
  8
1PHANTOM
100
AcDbLine
 10
612.5162881512626
 20
-630.1433478888939
 30
0.0
 11
612.0162881512626
 21
-630.0433467254961
 31
0.0
  0
LINE
  5
21324
330
18
100
AcDbEntity
  8
1PHANTOM
100
AcDbLine
 10
612.0162881512626
 20
-630.0433467254961
 30
0.0
 11
616.0162881512626
 21
-629.2433560326735
 31
0.0
  0
LINE
  5
21325
330
18
100
AcDbEntity
  8
1PHANTOM
100
AcDbLine
 10
616.0162881512626
 20
-630.8433560326735
 30
0.0
 11
615.5162881512626
 21
-630.7433548692763
 31
0.0
  0
LINE
  5
21326
330
18
100
AcDbEntity
  8
1PHANTOM
100
AcDbLine
 10
612.5162881512626
 20
-631.7433478888938
 30
0.0
 11
612.0162881512626
 21
-631.643346725496
 31
0.0
  0
LINE
  5
21327
330
18
100
AcDbEntity
  8
1PHANTOM
100
AcDbLine
 10
612.0162881512626
 20
-631.643346725496
 30
0.0
 11
616.0162881512626
 21
-630.8433560326735
 31
0.0
  0
LINE
  5
21328
330
18
100
AcDbEntity
  8
1PHANTOM
100
AcDbLine
 10
616.0162881512625
 20
-632.4433560326734
 30
0.0
 11
615.5162881512625
 21
-632.3433548692765
 31
0.0
  0
LINE
  5
21329
330
18
100
AcDbEntity
  8
1PHANTOM
100
AcDbLine
 10
612.5162881512625
 20
-633.3433478888937
 30
0.0
 11
612.0162881512625
 21
-633.2433467254959
 31
0.0
  0
LINE
  5
2132A
330
18
100
AcDbEntity
  8
1PHANTOM
100
AcDbLine
 10
612.0162881512625
 20
-633.2433467254959
 30
0.0
 11
616.0162881512625
 21
-632.4433560326734
 31
0.0
  0
LINE
  5
2132C
330
18
100
AcDbEntity
  8
1PHANTOM
100
AcDbLine
 10
234.5162414684669
 20
-633.9435158057636
 30
0.0
 11
233.5162417684669
 21
-632.9435158057636
 31
0.0
  0
LINE
  5
2132D
330
18
100
AcDbEntity
  8
1PHANTOM
100
AcDbLine
 10
237.8162416184668
 20
-633.9435158057636
 30
0.0
 11
237.8162416184668
 21
-632.9435158057636
 31
0.0
  0
LINE
  5
2132E
330
18
100
AcDbEntity
  8
1PHANTOM
100
AcDbLine
 10
237.8162416184668
 20
-632.9435158057636
 30
0.0
 11
230.2162416184669
 21
-632.9435158057636
 31
0.0
  0
LINE
  5
2132F
330
18
100
AcDbEntity
  8
1PHANTOM
100
AcDbLine
 10
237.8162416184668
 20
-633.9435158057636
 30
0.0
 11
230.2162416184669
 21
-633.9435158057636
 31
0.0
  0
LINE
  5
21330
330
18
100
AcDbEntity
  8
1PHANTOM
100
AcDbLine
 10
230.2162416184669
 20
-633.9435158057636
 30
0.0
 11
230.2162416184669
 21
-632.9435158057636
 31
0.0
  0
LINE
  5
21331
330
18
100
AcDbEntity
  8
1PHANTOM
100
AcDbLine
 10
234.0162881512605
 20
-611.9433513790325
 30
0.0
 11
232.5162881512605
 21
-617.2433478888943
 31
0.0
  0
LINE
  5
21332
330
18
100
AcDbEntity
  8
1PHANTOM
100
AcDbLine
 10
232.5162881512605
 20
-617.2433478888943
 30
0.0
 11
232.5162881512607
 21
-633.9435158057636
 31
0.0
  0
LINE
  5
21333
330
18
100
AcDbEntity
  8
1PHANTOM
100
AcDbLine
 10
234.0162881512605
 20
-611.9433513790325
 30
0.0
 11
235.5162881512606
 21
-617.2433548692779
 31
0.0
  0
LINE
  5
21334
330
18
100
AcDbEntity
  8
1PHANTOM
100
AcDbLine
 10
230.5162416153627
 20
-633.9435076619814
 30
0.0
 11
237.5162416153626
 21
-633.9435239495458
 31
0.0
  0
LINE
  5
21335
330
18
100
AcDbEntity
  8
1PHANTOM
100
AcDbLine
 10
235.5162881512606
 20
-617.2433548692779
 30
0.0
 11
235.5162881512606
 21
-633.9435158057636
 31
0.0
  0
LINE
  5
21336
330
18
100
AcDbEntity
  8
1PHANTOM
100
AcDbLine
 10
230.5162416153627
 20
-633.9435076619814
 30
0.0
 11
230.5162416153626
 21
-635.0435111521767
 31
0.0
  0
ARC
  5
21337
330
18
100
AcDbEntity
  8
1PHANTOM
100
AcDbCircle
 10
232.0162416153626
 20
-635.0435111521767
 30
0.0
 40
1.5
100
AcDbArc
 50
180.0
 51
269.9998666844684
  0
LINE
  5
21338
330
18
100
AcDbEntity
  8
1PHANTOM
100
AcDbLine
 10
237.5162416153626
 20
-633.9435239495458
 30
0.0
 11
237.5162416153626
 21
-635.0435204593564
 31
0.0
  0
LINE
  5
21339
330
18
100
AcDbEntity
  8
1PHANTOM
100
AcDbLine
 10
232.0162381251702
 20
-636.5435111521726
 30
0.0
 11
236.0162381251702
 21
-636.5435204593523
 31
0.0
  0
ARC
  5
2133A
330
18
100
AcDbEntity
  8
1PHANTOM
100
AcDbCircle
 10
236.0162416153626
 20
-635.0435204593564
 30
0.0
 40
1.5
100
AcDbArc
 50
269.9998666844684
 51
0.0
  0
LINE
  5
2133B
330
18
100
AcDbEntity
  8
1CENTER
100
AcDbLine
 10
234.0162416153626
 20
-610.5125564615671
 30
0.0
 11
234.0162416153626
 21
-637.7268243822477
 31
0.0
  0
LINE
  5
2133C
330
18
100
AcDbEntity
  8
1PHANTOM
100
AcDbLine
 10
232.9219178013675
 20
-614.0433488327103
 30
0.0
 11
234.8842528902429
 21
-613.2433533986593
 31
0.0
  0
LINE
  5
2133D
330
18
100
AcDbEntity
  8
1PHANTOM
100
AcDbLine
 10
234.8842528902429
 20
-613.2433533986593
 30
0.0
 11
234.2959763152005
 21
-612.9315835424072
 31
0.0
  0
LINE
  5
2133E
330
18
100
AcDbEntity
  8
1PHANTOM
100
AcDbLine
 10
232.0162881512605
 20
-625.2433467254959
 30
0.0
 11
236.0162881512605
 21
-624.4433560326734
 31
0.0
  0
LINE
  5
2133F
330
18
100
AcDbEntity
  8
1PHANTOM
100
AcDbLine
 10
232.0162881512605
 20
-622.0433467254959
 30
0.0
 11
236.0162881512605
 21
-621.2433560326733
 31
0.0
  0
LINE
  5
21340
330
18
100
AcDbEntity
  8
1PHANTOM
100
AcDbLine
 10
236.0162881512605
 20
-621.2433560326733
 30
0.0
 11
235.5162881512605
 21
-621.1433548692762
 31
0.0
  0
LINE
  5
21341
330
18
100
AcDbEntity
  8
1PHANTOM
100
AcDbLine
 10
232.5162881512605
 20
-620.5433478888931
 30
0.0
 11
232.0162881512605
 21
-620.4433467254958
 31
0.0
  0
LINE
  5
21342
330
18
100
AcDbEntity
  8
1PHANTOM
100
AcDbLine
 10
236.0162881512605
 20
-624.4433560326734
 30
0.0
 11
235.5162881512605
 21
-624.343354869276
 31
0.0
  0
LINE
  5
21343
330
18
100
AcDbEntity
  8
1PHANTOM
100
AcDbLine
 10
236.0162881512605
 20
-622.8433560326732
 30
0.0
 11
235.5162881512605
 21
-622.7433548692761
 31
0.0
  0
LINE
  5
21344
330
18
100
AcDbEntity
  8
1PHANTOM
100
AcDbLine
 10
232.5162881512605
 20
-622.143347888893
 30
0.0
 11
232.0162881512605
 21
-622.0433467254959
 31
0.0
  0
LINE
  5
21345
330
18
100
AcDbEntity
  8
1PHANTOM
100
AcDbLine
 10
232.5162881512605
 20
-623.7433478888929
 30
0.0
 11
232.0162881512605
 21
-623.6433467254958
 31
0.0
  0
LINE
  5
21346
330
18
100
AcDbEntity
  8
1PHANTOM
100
AcDbLine
 10
232.0162881512605
 20
-623.6433467254958
 30
0.0
 11
236.0162881512605
 21
-622.8433560326732
 31
0.0
  0
LINE
  5
21347
330
18
100
AcDbEntity
  8
1PHANTOM
100
AcDbLine
 10
235.3370669946497
 20
-614.843354452265
 30
0.0
 11
234.7853175308464
 21
-614.660590309637
 31
0.0
  0
LINE
  5
21348
330
18
100
AcDbEntity
  8
1PHANTOM
100
AcDbLine
 10
236.0162881512605
 20
-618.0433560326733
 30
0.0
 11
235.5162881512605
 21
-617.9433548692762
 31
0.0
  0
LINE
  5
21349
330
18
100
AcDbEntity
  8
1PHANTOM
100
AcDbLine
 10
236.0162881512605
 20
-619.6433560326732
 30
0.0
 11
235.5162881512605
 21
-619.5433548692763
 31
0.0
  0
LINE
  5
2134A
330
18
100
AcDbEntity
  8
1PHANTOM
100
AcDbLine
 10
235.7898810990565
 20
-616.4433555058706
 30
0.0
 11
235.2532873637854
 21
-616.3140848082408
 31
0.0
  0
LINE
  5
2134B
330
18
100
AcDbEntity
  8
1PHANTOM
100
AcDbLine
 10
232.9372027484692
 20
-615.7561172914561
 30
0.0
 11
232.4691042933192
 21
-615.6433477791061
 31
0.0
  0
LINE
  5
2134C
330
18
100
AcDbEntity
  8
1PHANTOM
100
AcDbLine
 10
232.5162881512605
 20
-618.943347888893
 30
0.0
 11
232.0162881512605
 21
-618.8433467254958
 31
0.0
  0
LINE
  5
2134D
330
18
100
AcDbEntity
  8
1PHANTOM
100
AcDbLine
 10
232.5162881512605
 20
-617.343347888893
 30
0.0
 11
232.0162881512605
 21
-617.2433467254959
 31
0.0
  0
LINE
  5
2134E
330
18
100
AcDbEntity
  8
1PHANTOM
100
AcDbLine
 10
233.3790896419986
 20
-614.1947846291507
 30
0.0
 11
232.9219178013675
 21
-614.0433488327103
 31
0.0
  0
LINE
  5
2134F
330
18
100
AcDbEntity
  8
1PHANTOM
100
AcDbLine
 10
232.4691042933192
 20
-615.6433477791061
 30
0.0
 11
235.3370669946497
 21
-614.843354452265
 31
0.0
  0
LINE
  5
21350
330
18
100
AcDbEntity
  8
1PHANTOM
100
AcDbLine
 10
232.0162881512605
 20
-618.8433467254958
 30
0.0
 11
236.0162881512605
 21
-618.0433560326733
 31
0.0
  0
LINE
  5
21351
330
18
100
AcDbEntity
  8
1PHANTOM
100
AcDbLine
 10
232.0162881512605
 20
-617.2433467254959
 30
0.0
 11
235.7898810990565
 21
-616.4433555058706
 31
0.0
  0
LINE
  5
21352
330
18
100
AcDbEntity
  8
1PHANTOM
100
AcDbLine
 10
232.0162881512605
 20
-620.4433467254958
 30
0.0
 11
236.0162881512605
 21
-619.6433560326732
 31
0.0
  0
LINE
  5
21353
330
18
100
AcDbEntity
  8
1PHANTOM
100
AcDbLine
 10
236.0162881512605
 20
-626.0433560326733
 30
0.0
 11
235.5162881512605
 21
-625.9433548692762
 31
0.0
  0
LINE
  5
21354
330
18
100
AcDbEntity
  8
1PHANTOM
100
AcDbLine
 10
232.5162881512605
 20
-625.343347888893
 30
0.0
 11
232.0162881512605
 21
-625.2433467254959
 31
0.0
  0
LINE
  5
21355
330
18
100
AcDbEntity
  8
1PHANTOM
100
AcDbLine
 10
232.5162881512605
 20
-626.9433478888936
 30
0.0
 11
232.0162881512605
 21
-626.8433467254958
 31
0.0
  0
LINE
  5
21356
330
18
100
AcDbEntity
  8
1PHANTOM
100
AcDbLine
 10
232.0162881512605
 20
-626.8433467254958
 30
0.0
 11
236.0162881512605
 21
-626.0433560326733
 31
0.0
  0
LINE
  5
21357
330
18
100
AcDbEntity
  8
1PHANTOM
100
AcDbLine
 10
236.0162881512604
 20
-627.6433560326732
 30
0.0
 11
235.5162881512604
 21
-627.5433548692763
 31
0.0
  0
LINE
  5
21358
330
18
100
AcDbEntity
  8
1PHANTOM
100
AcDbLine
 10
232.5162881512604
 20
-628.5433478888935
 30
0.0
 11
232.0162881512604
 21
-628.4433467254958
 31
0.0
  0
LINE
  5
21359
330
18
100
AcDbEntity
  8
1PHANTOM
100
AcDbLine
 10
232.0162881512604
 20
-628.4433467254958
 30
0.0
 11
236.0162881512604
 21
-627.6433560326732
 31
0.0
  0
LINE
  5
2135A
330
18
100
AcDbEntity
  8
1PHANTOM
100
AcDbLine
 10
236.0162881512606
 20
-629.2433560326735
 30
0.0
 11
235.5162881512606
 21
-629.1433548692762
 31
0.0
  0
LINE
  5
2135B
330
18
100
AcDbEntity
  8
1PHANTOM
100
AcDbLine
 10
232.5162881512606
 20
-630.1433478888939
 30
0.0
 11
232.0162881512606
 21
-630.0433467254961
 31
0.0
  0
LINE
  5
2135C
330
18
100
AcDbEntity
  8
1PHANTOM
100
AcDbLine
 10
232.0162881512606
 20
-630.0433467254961
 30
0.0
 11
236.0162881512606
 21
-629.2433560326735
 31
0.0
  0
LINE
  5
2135D
330
18
100
AcDbEntity
  8
1PHANTOM
100
AcDbLine
 10
236.0162881512606
 20
-630.8433560326735
 30
0.0
 11
235.5162881512606
 21
-630.7433548692763
 31
0.0
  0
LINE
  5
2135E
330
18
100
AcDbEntity
  8
1PHANTOM
100
AcDbLine
 10
232.5162881512606
 20
-631.7433478888938
 30
0.0
 11
232.0162881512606
 21
-631.643346725496
 31
0.0
  0
LINE
  5
2135F
330
18
100
AcDbEntity
  8
1PHANTOM
100
AcDbLine
 10
232.0162881512606
 20
-631.643346725496
 30
0.0
 11
236.0162881512606
 21
-630.8433560326735
 31
0.0
  0
LINE
  5
21360
330
18
100
AcDbEntity
  8
1PHANTOM
100
AcDbLine
 10
236.0162881512605
 20
-632.4433560326734
 30
0.0
 11
235.5162881512605
 21
-632.3433548692765
 31
0.0
  0
LINE
  5
21361
330
18
100
AcDbEntity
  8
1PHANTOM
100
AcDbLine
 10
232.5162881512605
 20
-633.3433478888937
 30
0.0
 11
232.0162881512605
 21
-633.2433467254959
 31
0.0
  0
LINE
  5
21362
330
18
100
AcDbEntity
  8
1PHANTOM
100
AcDbLine
 10
232.0162881512605
 20
-633.2433467254959
 30
0.0
 11
236.0162881512605
 21
-632.4433560326734
 31
0.0
  0
LINE
  5
21E82
330
18
100
AcDbEntity
  8
1DIM
100
AcDbLine
 10
548.3706615454182
 20
-486.5509092340513
 30
0.0
 11
583.3706615454182
 21
-486.5509092340513
 31
0.0
  0
LINE
  5
21E83
330
18
100
AcDbEntity
  8
1DIM
100
AcDbLine
 10
548.3706615454182
 20
-493.5509092340513
 30
0.0
 11
583.3706615454182
 21
-493.5509092340513
 31
0.0
  0
LINE
  5
21E84
330
18
100
AcDbEntity
  8
1DIM
100
AcDbLine
 10
548.3706615454182
 20
-500.5509092340513
 30
0.0
 11
583.3706615454182
 21
-500.5509092340513
 31
0.0
  0
SOLID
  5
21FE8
330
18
100
AcDbEntity
  8
1DIM
100
AcDbTrace
 10
604.7281054121773
 20
-642.5700371064919
 30
0.0
 11
606.2162416153667
 21
-641.192879979702
 31
0.0
 12
605.255190761579
 22
-642.9782349493214
 32
0.0
 13
605.255190761579
 23
-642.9782349493214
 33
0.0
1001
ACAD
1000
DSTYLE
1002
{
1070
    45
1040
0.5
1002
}
  0
LINE
  5
21FE9
330
18
100
AcDbEntity
  8
1DIM
100
AcDbLine
 10
604.9916480868782
 20
-642.7741360279067
 30
0.0
 11
599.8077226250784
 21
-649.4678783180777
 31
0.0
1001
ACAD
1000
DSTYLE
1002
{
1070
    45
1040
0.5
1002
}
  0
LINE
  5
21FEA
330
18
100
AcDbEntity
  8
1DIM
100
AcDbLine
 10
599.8077226250784
 20
-649.4678783180777
 30
0.0
 11
552.5410559584118
 21
-649.4678783180777
 31
0.0
1001
ACAD
1000
DSTYLE
1002
{
1070
    45
1040
0.5
1002
}
  0
TEXT
  5
21FEB
330
18
100
AcDbEntity
  8
1DIM
  6
CONTINUOUS
100
AcDbText
 10
552.3077226250783
 20
-642.9345449847443
 30
0.0
 40
3.5
  1
材質：亜鉛ダイキャスト
100
AcDbText
  0
TEXT
  5
21FEC
330
18
100
AcDbEntity
  8
1DIM
  6
CONTINUOUS
100
AcDbText
 10
564.2077226250784
 20
-648.7678783180777
 30
0.0
 40
3.5
  1
仕上げ：クローム
100
AcDbText
  0
LINE
  5
21FED
330
18
100
AcDbEntity
  8
1DIM
100
AcDbLine
 10
536.1252448686189
 20
-681.3213303512673
 30
0.0
 11
535.1252448686189
 21
-681.3213303512673
 31
0.0
1001
ACAD
1000
DSTYLE
1002
{
1070
     3
1000
φ<>
1070
    40
1040
1.0
1002
}
  0
LINE
  5
21FEE
330
18
100
AcDbEntity
  8
1DIM
100
AcDbLine
 10
536.1252448686189
 20
-696.3210360638648
 30
0.0
 11
535.1252448686189
 21
-696.3210360638648
 31
0.0
1001
ACAD
1000
DSTYLE
1002
{
1070
     3
1000
φ<>
1070
    40
1040
1.0
1002
}
  0
LINE
  5
21FEF
330
18
100
AcDbEntity
  8
1DIM
100
AcDbLine
 10
536.1252448686189
 20
-683.3213303512673
 30
0.0
 11
536.1252448686189
 21
-694.3210360638648
 31
0.0
1001
ACAD
1000
DSTYLE
1002
{
1070
     3
1000
φ<>
1070
    40
1040
1.0
1002
}
  0
SOLID
  5
21FF3
330
18
100
AcDbEntity
  8
1DIM
100
AcDbTrace
 10
543.8706908730062
 20
-679.7553558533643
 30
0.0
 11
542.5827331939543
 21
-681.3213303512673
 31
0.0
 12
543.2931879180619
 22
-679.4222871195044
 32
0.0
 13
543.2931879180619
 23
-679.4222871195044
 33
0.0
1001
ACAD
1000
DSTYLE
1002
{
1070
    45
1040
0.5
1002
}
  0
LINE
  5
21FF4
330
18
100
AcDbEntity
  8
1DIM
100
AcDbLine
 10
543.581939395534
 20
-679.5888214864344
 30
0.0
 11
549.650817324547
 21
-669.0660837422329
 31
0.0
1001
ACAD
1000
DSTYLE
1002
{
1070
    45
1040
0.5
1002
}
  0
LINE
  5
21FF5
330
18
100
AcDbEntity
  8
1DIM
100
AcDbLine
 10
549.650817324547
 20
-669.0660837422329
 30
0.0
 11
584.6674839912137
 21
-669.0660837422329
 31
0.0
1001
ACAD
1000
DSTYLE
1002
{
1070
    45
1040
0.5
1002
}
  0
TEXT
  5
21FF6
330
18
100
AcDbEntity
  8
1DIM
  6
CONTINUOUS
100
AcDbText
 10
552.1174839912137
 20
-662.5327504088995
 30
0.0
 40
3.5
  1
材質：ステンレス
100
AcDbText
  0
TEXT
  5
21FF7
330
18
100
AcDbEntity
  8
1DIM
  6
CONTINUOUS
100
AcDbText
 10
552.2341506578804
 20
-668.3660837422328
 30
0.0
 40
3.5
  1
仕上げ：鏡面
100
AcDbText
  0
LINE
  5
21FF8
330
18
100
AcDbEntity
  8
1DIM
100
AcDbLine
 10
726.8390531680677
 20
-607.8213303512766
 30
0.0
 11
736.5824386439142
 21
-607.8213303512766
 31
0.0
  0
LINE
  5
21FF9
330
18
100
AcDbEntity
  8
1DIM
100
AcDbLine
 10
726.8390531680677
 20
-625.8213303512766
 30
0.0
 11
736.5824386439142
 21
-625.8213303512766
 31
0.0
  0
LINE
  5
21FFA
330
18
100
AcDbEntity
  8
1DIM
100
AcDbLine
 10
735.5824386439142
 20
-609.8213303512766
 30
0.0
 11
735.5824386439142
 21
-623.8213303512766
 31
0.0
  0
LINE
  5
21FFB
330
18
100
AcDbEntity
  8
1DIM
100
AcDbLine
 10
735.5824386439142
 20
-625.8213303512766
 30
0.0
 11
735.5824386439142
 21
-687.55466368461
 31
0.0
  0
SOLID
  5
21FFF
330
18
100
AcDbEntity
  8
1DIM
100
AcDbTrace
 10
659.4577137510437
 20
-605.7988868737916
 30
0.0
 11
659.6020518662083
 21
-607.8213303512766
 31
0.0
 12
658.8095881970034
 22
-605.9550205045198
 32
0.0
 13
658.8095881970034
 23
-605.9550205045198
 33
0.0
1001
ACAD
1000
DSTYLE
1002
{
1070
    45
1040
0.5
1002
}
  0
LINE
  5
22000
330
18
100
AcDbEntity
  8
1DIM
100
AcDbLine
 10
659.1336509740236
 20
-605.8769536891557
 30
0.0
 11
650.595230363916
 21
-570.4331574823821
 31
0.0
1001
ACAD
1000
DSTYLE
1002
{
1070
    45
1040
0.5
1002
}
  0
LINE
  5
22001
330
18
100
AcDbEntity
  8
1DIM
100
AcDbLine
 10
650.595230363916
 20
-570.4331574823821
 30
0.0
 11
619.6618970305827
 21
-570.4331574823821
 31
0.0
1001
ACAD
1000
DSTYLE
1002
{
1070
    45
1040
0.5
1002
}
  0
TEXT
  5
22002
330
18
100
AcDbEntity
  8
1DIM
  6
CONTINUOUS
100
AcDbText
 10
618.9618970305826
 20
-569.733157482382
 30
0.0
 40
3.5
  1
カウンター棚板
100
AcDbText
  0
LINE
  5
22003
330
18
100
AcDbEntity
  8
1DIM
100
AcDbLine
 10
685.8162416153568
 20
-638.0759256808228
 30
0.0
 11
685.8162416153568
 21
-650.3526481674644
 31
0.0
  0
LINE
  5
22004
330
18
100
AcDbEntity
  8
1DIM
100
AcDbLine
 10
705.8162416153572
 20
-637.7268243822682
 30
0.0
 11
705.8162416153572
 21
-650.3526481674644
 31
0.0
  0
LINE
  5
22005
330
18
100
AcDbEntity
  8
1DIM
100
AcDbLine
 10
687.8162416153568
 20
-649.3526481674644
 30
0.0
 11
703.8162416153572
 21
-649.3526481674644
 31
0.0
  0
LINE
  5
22009
330
18
100
AcDbEntity
  8
1DIM
100
AcDbLine
 10
661.8162416153594
 20
-625.8213303512766
 30
0.0
 11
661.8162416153594
 21
-650.3526481674644
 31
0.0
  0
LINE
  5
2200A
330
18
100
AcDbEntity
  8
1DIM
100
AcDbLine
 10
685.8162416153568
 20
-638.0759256808228
 30
0.0
 11
685.8162416153568
 21
-650.3526481674644
 31
0.0
  0
LINE
  5
2200B
330
18
100
AcDbEntity
  8
1DIM
100
AcDbLine
 10
663.8162416153594
 20
-649.3526481674644
 30
0.0
 11
683.8162416153568
 21
-649.3526481674644
 31
0.0
  0
LINE
  5
2200F
330
18
100
AcDbEntity
  8
1DIM
100
AcDbLine
 10
656.8162416153594
 20
-625.8213303512766
 30
0.0
 11
639.7199240466641
 21
-625.8213303512766
 31
0.0
1001
ACAD
1000
DSTYLE
1002
{
1070
    45
1040
0.5
1002
}
  0
LINE
  5
22010
330
18
100
AcDbEntity
  8
1DIM
100
AcDbLine
 10
669.6162416153333
 20
-696.6213303512775
 30
0.0
 11
639.7199240466641
 21
-696.6213303512775
 31
0.0
1001
ACAD
1000
DSTYLE
1002
{
1070
    45
1040
0.5
1002
}
  0
LINE
  5
22011
330
18
100
AcDbEntity
  8
1DIM
100
AcDbLine
 10
640.7199240466641
 20
-627.8213303512766
 30
0.0
 11
640.7199240466641
 21
-694.6213303512775
 31
0.0
1001
ACAD
1000
DSTYLE
1002
{
1070
    45
1040
0.5
1002
}
  0
LINE
  5
22015
330
18
100
AcDbEntity
  8
1DIM
100
AcDbLine
 10
606.2162416153667
 20
-625.8213303512664
 30
0.0
 11
535.1252448686189
 21
-625.8213303512664
 31
0.0
1001
ACAD
1000
DSTYLE
1002
{
1070
    40
1040
1.0
1002
}
  0
LINE
  5
22016
330
18
100
AcDbEntity
  8
1DIM
100
AcDbLine
 10
518.7509893842537
 20
-681.3213303512673
 30
0.0
 11
537.1252448686189
 21
-681.3213303512673
 31
0.0
1001
ACAD
1000
DSTYLE
1002
{
1070
    40
1040
1.0
1002
}
  0
LINE
  5
22017
330
18
100
AcDbEntity
  8
1DIM
100
AcDbLine
 10
536.1252448686189
 20
-627.8213303512664
 30
0.0
 11
536.1252448686189
 21
-679.3213303512673
 31
0.0
1001
ACAD
1000
DSTYLE
1002
{
1070
    40
1040
1.0
1002
}
  0
LINE
  5
2201B
330
18
100
AcDbEntity
  8
1DIM
100
AcDbLine
 10
661.8162416153326
 20
-688.8213303512775
 30
0.0
 11
661.8162416153326
 21
-703.5574428832454
 31
0.0
1001
ACAD
1000
DSTYLE
1002
{
1070
     3
1000
φ<>
1002
}
  0
LINE
  5
2201C
330
18
100
AcDbEntity
  8
1DIM
100
AcDbLine
 10
677.4162416153332
 20
-688.8213303512794
 30
0.0
 11
677.4162416153332
 21
-703.5574428832454
 31
0.0
1001
ACAD
1000
DSTYLE
1002
{
1070
     3
1000
φ<>
1002
}
  0
LINE
  5
2201D
330
18
100
AcDbEntity
  8
1DIM
100
AcDbLine
 10
677.4162416153332
 20
-702.5574428832454
 30
0.0
 11
695.3662416153333
 21
-702.5574428832454
 31
0.0
1001
ACAD
1000
DSTYLE
1002
{
1070
     3
1000
φ<>
1002
}
  0
LINE
  5
2201E
330
18
100
AcDbEntity
  8
1DIM
100
AcDbLine
 10
663.8162416153326
 20
-702.5574428832454
 30
0.0
 11
675.4162416153332
 21
-702.5574428832454
 31
0.0
1001
ACAD
1000
DSTYLE
1002
{
1070
     3
1000
φ<>
1002
}
  0
LINE
  5
22022
330
18
100
AcDbEntity
  8
1DIM
100
AcDbLine
 10
661.8162416153594
 20
-625.8213303512766
 30
0.0
 11
661.8162416153594
 21
-596.3404825317043
 31
0.0
  0
LINE
  5
22023
330
18
100
AcDbEntity
  8
1DIM
100
AcDbLine
 10
712.8162416153594
 20
-625.8213303512766
 30
0.0
 11
712.8162416153594
 21
-596.3404825317043
 31
0.0
  0
LINE
  5
22024
330
18
100
AcDbEntity
  8
1DIM
100
AcDbLine
 10
663.8162416153594
 20
-597.3404825317043
 30
0.0
 11
710.8162416153594
 21
-597.3404825317043
 31
0.0
  0
LINE
  5
22028
330
18
100
AcDbEntity
  8
1DIM1
100
AcDbLine
 10
234.0162416153626
 20
-610.5125564615671
 30
0.0
 11
234.0162416153626
 21
-592.9600233992426
 31
0.0
1001
ACAD
1000
DSTYLE
1002
{
1070
    40
1040
3.0
1070
    45
1040
0.5
1002
}
  0
LINE
  5
22029
330
18
100
AcDbEntity
  8
1DIM1
100
AcDbLine
 10
614.0162416153669
 20
-609.6731634226103
 30
0.0
 11
614.0162416153669
 21
-592.9600233992426
 31
0.0
1001
ACAD
1000
DSTYLE
1002
{
1070
    40
1040
3.0
1070
    45
1040
0.5
1002
}
  0
LINE
  5
2202A
330
18
100
AcDbEntity
  8
1DIM1
100
AcDbLine
 10
240.0162416153626
 20
-595.9600233992426
 30
0.0
 11
608.0162416153669
 21
-595.9600233992426
 31
0.0
1001
ACAD
1000
DSTYLE
1002
{
1070
    40
1040
3.0
1070
    45
1040
0.5
1002
}
  0
LINE
  5
2202E
330
18
100
AcDbEntity
  8
1DIM1
100
AcDbLine
 10
226.2162416153647
 20
-625.8213303512664
 30
0.0
 11
226.2162416153647
 21
-574.3698959876679
 31
0.0
1001
ACAD
1000
DSTYLE
1002
{
1070
    40
1040
3.0
1070
    45
1040
0.5
1002
}
  0
LINE
  5
2202F
330
18
100
AcDbEntity
  8
1DIM1
100
AcDbLine
 10
621.8162416153671
 20
-625.8213303512664
 30
0.0
 11
621.8162416153671
 21
-574.3698959876679
 31
0.0
1001
ACAD
1000
DSTYLE
1002
{
1070
    40
1040
3.0
1070
    45
1040
0.5
1002
}
  0
LINE
  5
22030
330
18
100
AcDbEntity
  8
1DIM1
100
AcDbLine
 10
232.2162416153647
 20
-577.3698959876679
 30
0.0
 11
615.8162416153671
 21
-577.3698959876679
 31
0.0
1001
ACAD
1000
DSTYLE
1002
{
1070
    40
1040
3.0
1070
    45
1040
0.5
1002
}
  0
LINE
  5
22034
330
18
100
AcDbEntity
  8
1DIM1
100
AcDbLine
 10
241.816241615365
 20
-625.8213303512664
 30
0.0
 11
241.816241615365
 21
-609.9819688443054
 31
0.0
1001
ACAD
1000
DSTYLE
1002
{
1070
    40
1040
3.0
1070
    45
1040
0.5
1002
}
  0
LINE
  5
22035
330
18
100
AcDbEntity
  8
1DIM1
100
AcDbLine
 10
606.2162416153667
 20
-625.8213303512664
 30
0.0
 11
606.2162416153667
 21
-609.9819688443054
 31
0.0
1001
ACAD
1000
DSTYLE
1002
{
1070
    40
1040
3.0
1070
    45
1040
0.5
1002
}
  0
LINE
  5
22036
330
18
100
AcDbEntity
  8
1DIM1
100
AcDbLine
 10
247.816241615365
 20
-612.9819688443054
 30
0.0
 11
600.2162416153667
 21
-612.9819688443054
 31
0.0
1001
ACAD
1000
DSTYLE
1002
{
1070
    40
1040
3.0
1070
    45
1040
0.5
1002
}
  0
LINE
  5
2203A
330
18
100
AcDbEntity
  8
0
  6
BYBLOCK
100
AcDbLine
 10
535.5893464886188
 20
-683.3213303512673
 30
0.0
 11
536.1252448686189
 21
-681.3213303512673
 31
0.0
  0
LINE
  5
2203B
330
18
100
AcDbEntity
  8
0
  6
BYBLOCK
100
AcDbLine
 10
536.1252448686189
 20
-681.3213303512673
 30
0.0
 11
536.6611432486189
 21
-683.3213303512673
 31
0.0
  0
LINE
  5
2203C
330
18
100
AcDbEntity
  8
0
  6
BYBLOCK
100
AcDbLine
 10
536.1252448686189
 20
-681.3213303512673
 30
0.0
 11
536.1252448686189
 21
-683.3213303512673
 31
0.0
  0
LINE
  5
2203D
330
18
100
AcDbEntity
  8
0
  6
BYBLOCK
100
AcDbLine
 10
536.6611432486189
 20
-694.3210360638648
 30
0.0
 11
536.1252448686189
 21
-696.3210360638648
 31
0.0
  0
LINE
  5
2203E
330
18
100
AcDbEntity
  8
0
  6
BYBLOCK
100
AcDbLine
 10
536.1252448686189
 20
-696.3210360638648
 30
0.0
 11
535.5893464886188
 21
-694.3210360638648
 31
0.0
  0
LINE
  5
2203F
330
18
100
AcDbEntity
  8
0
  6
BYBLOCK
100
AcDbLine
 10
536.1252448686189
 20
-696.3210360638648
 30
0.0
 11
536.1252448686189
 21
-694.3210360638648
 31
0.0
  0
TEXT
  5
22040
330
18
100
AcDbEntity
  8
1DIM
  6
CONTINUOUS
100
AcDbText
 10
535.4252448686191
 20
-693.7211832075659
 30
0.0
 40
3.5
  1
φ15
 50
90.0
100
AcDbText
1001
ACAD
1000
DSTYLE
1002
{
1070
     3
1000
φ<>
1070
    40
1040
1.0
1002
}
  0
LINE
  5
22041
330
18
100
AcDbEntity
  8
0
  6
BYBLOCK
100
AcDbLine
 10
735.0465402639142
 20
-609.8213303512766
 30
0.0
 11
735.5824386439142
 21
-607.8213303512766
 31
0.0
  0
LINE
  5
22042
330
18
100
AcDbEntity
  8
0
  6
BYBLOCK
100
AcDbLine
 10
735.5824386439142
 20
-607.8213303512766
 30
0.0
 11
736.1183370239143
 21
-609.8213303512766
 31
0.0
  0
LINE
  5
22043
330
18
100
AcDbEntity
  8
0
  6
BYBLOCK
100
AcDbLine
 10
735.5824386439142
 20
-607.8213303512766
 30
0.0
 11
735.5824386439142
 21
-609.8213303512766
 31
0.0
  0
LINE
  5
22044
330
18
100
AcDbEntity
  8
0
  6
BYBLOCK
100
AcDbLine
 10
736.1183370239143
 20
-623.8213303512766
 30
0.0
 11
735.5824386439142
 21
-625.8213303512766
 31
0.0
  0
LINE
  5
22045
330
18
100
AcDbEntity
  8
0
  6
BYBLOCK
100
AcDbLine
 10
735.5824386439142
 20
-625.8213303512766
 30
0.0
 11
735.0465402639142
 21
-623.8213303512766
 31
0.0
  0
LINE
  5
22046
330
18
100
AcDbEntity
  8
0
  6
BYBLOCK
100
AcDbLine
 10
735.5824386439142
 20
-625.8213303512766
 30
0.0
 11
735.5824386439142
 21
-623.8213303512766
 31
0.0
  0
TEXT
  5
22047
330
18
100
AcDbEntity
  8
1DIM
  6
CONTINUOUS
100
AcDbText
 10
733.9657719772476
 20
-686.4171636846098
 30
0.0
 40
3.5
  1
18ｍｍ以上(推奨30ｍｍ以上)
 50
90.0
100
AcDbText
  0
LINE
  5
22048
330
18
100
AcDbEntity
  8
0
  6
BYBLOCK
100
AcDbLine
 10
687.8162416153568
 20
-649.8885465474644
 30
0.0
 11
685.8162416153568
 21
-649.3526481674644
 31
0.0
  0
LINE
  5
22049
330
18
100
AcDbEntity
  8
0
  6
BYBLOCK
100
AcDbLine
 10
685.8162416153568
 20
-649.3526481674644
 30
0.0
 11
687.8162416153568
 21
-648.8167497874643
 31
0.0
  0
LINE
  5
2204A
330
18
100
AcDbEntity
  8
0
  6
BYBLOCK
100
AcDbLine
 10
685.8162416153568
 20
-649.3526481674644
 30
0.0
 11
687.8162416153568
 21
-649.3526481674644
 31
0.0
  0
LINE
  5
2204B
330
18
100
AcDbEntity
  8
0
  6
BYBLOCK
100
AcDbLine
 10
703.8162416153572
 20
-648.8167497874643
 30
0.0
 11
705.8162416153572
 21
-649.3526481674644
 31
0.0
  0
LINE
  5
2204C
330
18
100
AcDbEntity
  8
0
  6
BYBLOCK
100
AcDbLine
 10
705.8162416153572
 20
-649.3526481674644
 30
0.0
 11
703.8162416153572
 21
-649.8885465474644
 31
0.0
  0
LINE
  5
2204D
330
18
100
AcDbEntity
  8
0
  6
BYBLOCK
100
AcDbLine
 10
705.8162416153572
 20
-649.3526481674644
 30
0.0
 11
703.8162416153572
 21
-649.3526481674644
 31
0.0
  0
TEXT
  5
2204E
330
18
100
AcDbEntity
  8
1DIM
  6
CONTINUOUS
100
AcDbText
 10
691.3683249486904
 20
-648.6526481674643
 30
0.0
 40
3.5
  1
P20
100
AcDbText
  0
LINE
  5
2204F
330
18
100
AcDbEntity
  8
0
  6
BYBLOCK
100
AcDbLine
 10
663.8162416153594
 20
-649.8885465474644
 30
0.0
 11
661.8162416153594
 21
-649.3526481674644
 31
0.0
  0
LINE
  5
22050
330
18
100
AcDbEntity
  8
0
  6
BYBLOCK
100
AcDbLine
 10
661.8162416153594
 20
-649.3526481674644
 30
0.0
 11
663.8162416153594
 21
-648.8167497874643
 31
0.0
  0
LINE
  5
22051
330
18
100
AcDbEntity
  8
0
  6
BYBLOCK
100
AcDbLine
 10
661.8162416153594
 20
-649.3526481674644
 30
0.0
 11
663.8162416153594
 21
-649.3526481674644
 31
0.0
  0
LINE
  5
22052
330
18
100
AcDbEntity
  8
0
  6
BYBLOCK
100
AcDbLine
 10
683.8162416153568
 20
-648.8167497874643
 30
0.0
 11
685.8162416153568
 21
-649.3526481674644
 31
0.0
  0
LINE
  5
22053
330
18
100
AcDbEntity
  8
0
  6
BYBLOCK
100
AcDbLine
 10
685.8162416153568
 20
-649.3526481674644
 30
0.0
 11
683.8162416153568
 21
-649.8885465474644
 31
0.0
  0
LINE
  5
22054
330
18
100
AcDbEntity
  8
0
  6
BYBLOCK
100
AcDbLine
 10
685.8162416153568
 20
-649.3526481674644
 30
0.0
 11
683.8162416153568
 21
-649.3526481674644
 31
0.0
  0
TEXT
  5
22055
330
18
100
AcDbEntity
  8
1DIM
  6
CONTINUOUS
100
AcDbText
 10
670.8995749486916
 20
-648.6526481674643
 30
0.0
 40
3.5
  1
24
100
AcDbText
  0
LINE
  5
22056
330
18
100
AcDbEntity
  8
0
  6
BYBLOCK
100
AcDbLine
 10
640.1840256666641
 20
-627.8213303512766
 30
0.0
 11
640.7199240466641
 21
-625.8213303512766
 31
0.0
  0
LINE
  5
22057
330
18
100
AcDbEntity
  8
0
  6
BYBLOCK
100
AcDbLine
 10
640.7199240466641
 20
-625.8213303512766
 30
0.0
 11
641.2558224266642
 21
-627.8213303512766
 31
0.0
  0
LINE
  5
22058
330
18
100
AcDbEntity
  8
0
  6
BYBLOCK
100
AcDbLine
 10
640.7199240466641
 20
-625.8213303512766
 30
0.0
 11
640.7199240466641
 21
-627.8213303512766
 31
0.0
  0
LINE
  5
22059
330
18
100
AcDbEntity
  8
0
  6
BYBLOCK
100
AcDbLine
 10
641.2558224266642
 20
-694.6213303512775
 30
0.0
 11
640.7199240466641
 21
-696.6213303512775
 31
0.0
  0
LINE
  5
2205A
330
18
100
AcDbEntity
  8
0
  6
BYBLOCK
100
AcDbLine
 10
640.7199240466641
 20
-696.6213303512775
 30
0.0
 11
640.1840256666641
 21
-694.6213303512775
 31
0.0
  0
LINE
  5
2205B
330
18
100
AcDbEntity
  8
0
  6
BYBLOCK
100
AcDbLine
 10
640.7199240466641
 20
-696.6213303512775
 30
0.0
 11
640.7199240466641
 21
-694.6213303512775
 31
0.0
  0
TEXT
  5
2205C
330
18
100
AcDbEntity
  8
1DIM
  6
CONTINUOUS
100
AcDbText
 10
640.0199240466641
 20
-663.5546636846105
 30
0.0
 40
3.5
  1
71
 50
90.0
100
AcDbText
1001
ACAD
1000
DSTYLE
1002
{
1070
    45
1040
0.5
1002
}
  0
LINE
  5
2205D
330
18
100
AcDbEntity
  8
0
  6
BYBLOCK
100
AcDbLine
 10
535.5893464886188
 20
-627.8213303512664
 30
0.0
 11
536.1252448686189
 21
-625.8213303512664
 31
0.0
  0
LINE
  5
2205E
330
18
100
AcDbEntity
  8
0
  6
BYBLOCK
100
AcDbLine
 10
536.1252448686189
 20
-625.8213303512664
 30
0.0
 11
536.6611432486189
 21
-627.8213303512664
 31
0.0
  0
LINE
  5
2205F
330
18
100
AcDbEntity
  8
0
  6
BYBLOCK
100
AcDbLine
 10
536.1252448686189
 20
-625.8213303512664
 30
0.0
 11
536.1252448686189
 21
-627.8213303512664
 31
0.0
  0
LINE
  5
22060
330
18
100
AcDbEntity
  8
0
  6
BYBLOCK
100
AcDbLine
 10
536.6611432486189
 20
-679.3213303512673
 30
0.0
 11
536.1252448686189
 21
-681.3213303512673
 31
0.0
  0
LINE
  5
22061
330
18
100
AcDbEntity
  8
0
  6
BYBLOCK
100
AcDbLine
 10
536.1252448686189
 20
-681.3213303512673
 30
0.0
 11
535.5893464886188
 21
-679.3213303512673
 31
0.0
  0
LINE
  5
22062
330
18
100
AcDbEntity
  8
0
  6
BYBLOCK
100
AcDbLine
 10
536.1252448686189
 20
-681.3213303512673
 30
0.0
 11
536.1252448686189
 21
-679.3213303512673
 31
0.0
  0
TEXT
  5
22063
330
18
100
AcDbEntity
  8
1DIM
  6
CONTINUOUS
100
AcDbText
 10
535.425244868619
 20
-658.8456359068223
 30
0.0
 40
3.5
  1
55.5
 50
90.0
100
AcDbText
1001
ACAD
1000
DSTYLE
1002
{
1070
    40
1040
1.0
1002
}
  0
LINE
  5
22064
330
18
100
AcDbEntity
  8
0
  6
BYBLOCK
100
AcDbLine
 10
663.8162416153326
 20
-703.0933412632454
 30
0.0
 11
661.8162416153326
 21
-702.5574428832454
 31
0.0
  0
LINE
  5
22065
330
18
100
AcDbEntity
  8
0
  6
BYBLOCK
100
AcDbLine
 10
661.8162416153326
 20
-702.5574428832454
 30
0.0
 11
663.8162416153326
 21
-702.0215445032453
 31
0.0
  0
LINE
  5
22066
330
18
100
AcDbEntity
  8
0
  6
BYBLOCK
100
AcDbLine
 10
661.8162416153326
 20
-702.5574428832454
 30
0.0
 11
663.8162416153326
 21
-702.5574428832454
 31
0.0
  0
LINE
  5
22067
330
18
100
AcDbEntity
  8
0
  6
BYBLOCK
100
AcDbLine
 10
675.4162416153332
 20
-702.0215445032453
 30
0.0
 11
677.4162416153332
 21
-702.5574428832454
 31
0.0
  0
LINE
  5
22068
330
18
100
AcDbEntity
  8
0
  6
BYBLOCK
100
AcDbLine
 10
677.4162416153332
 20
-702.5574428832454
 30
0.0
 11
675.4162416153332
 21
-703.0933412632454
 31
0.0
  0
LINE
  5
22069
330
18
100
AcDbEntity
  8
0
  6
BYBLOCK
100
AcDbLine
 10
677.4162416153332
 20
-702.5574428832454
 30
0.0
 11
675.4162416153332
 21
-702.5574428832454
 31
0.0
  0
TEXT
  5
2206A
330
18
100
AcDbEntity
  8
1DIM
  6
CONTINUOUS
100
AcDbText
 10
680.2040888375554
 20
-701.8574428832452
 30
0.0
 40
3.5
  1
φ15.5
100
AcDbText
1001
ACAD
1000
DSTYLE
1002
{
1070
     3
1000
φ<>
1002
}
  0
LINE
  5
2206B
330
18
100
AcDbEntity
  8
0
  6
BYBLOCK
100
AcDbLine
 10
663.8162416153594
 20
-597.8763809117044
 30
0.0
 11
661.8162416153594
 21
-597.3404825317043
 31
0.0
  0
LINE
  5
2206C
330
18
100
AcDbEntity
  8
0
  6
BYBLOCK
100
AcDbLine
 10
661.8162416153594
 20
-597.3404825317043
 30
0.0
 11
663.8162416153594
 21
-596.8045841517043
 31
0.0
  0
LINE
  5
2206D
330
18
100
AcDbEntity
  8
0
  6
BYBLOCK
100
AcDbLine
 10
661.8162416153594
 20
-597.3404825317043
 30
0.0
 11
663.8162416153594
 21
-597.3404825317043
 31
0.0
  0
LINE
  5
2206E
330
18
100
AcDbEntity
  8
0
  6
BYBLOCK
100
AcDbLine
 10
710.8162416153594
 20
-596.8045841517043
 30
0.0
 11
712.8162416153594
 21
-597.3404825317043
 31
0.0
  0
LINE
  5
2206F
330
18
100
AcDbEntity
  8
0
  6
BYBLOCK
100
AcDbLine
 10
712.8162416153594
 20
-597.3404825317043
 30
0.0
 11
710.8162416153594
 21
-597.8763809117044
 31
0.0
  0
LINE
  5
22070
330
18
100
AcDbEntity
  8
0
  6
BYBLOCK
100
AcDbLine
 10
712.8162416153594
 20
-597.3404825317043
 30
0.0
 11
710.8162416153594
 21
-597.3404825317043
 31
0.0
  0
TEXT
  5
22071
330
18
100
AcDbEntity
  8
1DIM
  6
CONTINUOUS
100
AcDbText
 10
684.9707555042484
 20
-596.6404825317044
 30
0.0
 40
3.5
  1
51
100
AcDbText
  0
LINE
  5
22072
330
18
100
AcDbEntity
  8
0
  6
BYBLOCK
100
AcDbLine
 10
240.0162416153626
 20
-597.5677185392426
 30
0.0
 11
234.0162416153626
 21
-595.9600233992426
 31
0.0
  0
LINE
  5
22073
330
18
100
AcDbEntity
  8
0
  6
BYBLOCK
100
AcDbLine
 10
234.0162416153626
 20
-595.9600233992426
 30
0.0
 11
240.0162416153626
 21
-594.3523282592425
 31
0.0
  0
LINE
  5
22074
330
18
100
AcDbEntity
  8
0
  6
BYBLOCK
100
AcDbLine
 10
234.0162416153626
 20
-595.9600233992426
 30
0.0
 11
240.0162416153626
 21
-595.9600233992426
 31
0.0
  0
LINE
  5
22075
330
18
100
AcDbEntity
  8
0
  6
BYBLOCK
100
AcDbLine
 10
608.0162416153669
 20
-594.3523282592425
 30
0.0
 11
614.0162416153669
 21
-595.9600233992426
 31
0.0
  0
LINE
  5
22076
330
18
100
AcDbEntity
  8
0
  6
BYBLOCK
100
AcDbLine
 10
614.0162416153669
 20
-595.9600233992426
 30
0.0
 11
608.0162416153669
 21
-597.5677185392426
 31
0.0
  0
LINE
  5
22077
330
18
100
AcDbEntity
  8
0
  6
BYBLOCK
100
AcDbLine
 10
614.0162416153669
 20
-595.9600233992426
 30
0.0
 11
608.0162416153669
 21
-595.9600233992426
 31
0.0
  0
TEXT
  5
22078
330
18
100
AcDbEntity
  8
1DIM1
  6
CONTINUOUS
100
AcDbText
 10
405.4224916153538
 20
-593.8600233992426
 30
0.0
 40
10.5
  1
P380
100
AcDbText
1001
ACAD
1000
DSTYLE
1002
{
1070
    40
1040
3.0
1070
    45
1040
0.5
1002
}
  0
LINE
  5
22079
330
18
100
AcDbEntity
  8
0
  6
BYBLOCK
100
AcDbLine
 10
232.2162416153647
 20
-578.9775911276679
 30
0.0
 11
226.2162416153647
 21
-577.3698959876679
 31
0.0
  0
LINE
  5
2207A
330
18
100
AcDbEntity
  8
0
  6
BYBLOCK
100
AcDbLine
 10
226.2162416153647
 20
-577.3698959876679
 30
0.0
 11
232.2162416153647
 21
-575.7622008476678
 31
0.0
  0
LINE
  5
2207B
330
18
100
AcDbEntity
  8
0
  6
BYBLOCK
100
AcDbLine
 10
226.2162416153647
 20
-577.3698959876679
 30
0.0
 11
232.2162416153647
 21
-577.3698959876679
 31
0.0
  0
LINE
  5
2207C
330
18
100
AcDbEntity
  8
0
  6
BYBLOCK
100
AcDbLine
 10
615.8162416153671
 20
-575.7622008476678
 30
0.0
 11
621.8162416153671
 21
-577.3698959876679
 31
0.0
  0
LINE
  5
2207D
330
18
100
AcDbEntity
  8
0
  6
BYBLOCK
100
AcDbLine
 10
621.8162416153671
 20
-577.3698959876679
 30
0.0
 11
615.8162416153671
 21
-578.9775911276679
 31
0.0
  0
LINE
  5
2207E
330
18
100
AcDbEntity
  8
0
  6
BYBLOCK
100
AcDbLine
 10
621.8162416153671
 20
-577.3698959876679
 30
0.0
 11
615.8162416153671
 21
-577.3698959876679
 31
0.0
  0
TEXT
  5
2207F
330
18
100
AcDbEntity
  8
1DIM1
  6
CONTINUOUS
100
AcDbText
 10
402.9773527264649
 20
-575.2698959876678
 30
0.0
 40
10.5
  1
395.5
100
AcDbText
1001
ACAD
1000
DSTYLE
1002
{
1070
    40
1040
3.0
1070
    45
1040
0.5
1002
}
  0
LINE
  5
22080
330
18
100
AcDbEntity
  8
0
  6
BYBLOCK
100
AcDbLine
 10
247.816241615365
 20
-614.5896639843054
 30
0.0
 11
241.816241615365
 21
-612.9819688443054
 31
0.0
  0
LINE
  5
22081
330
18
100
AcDbEntity
  8
0
  6
BYBLOCK
100
AcDbLine
 10
241.816241615365
 20
-612.9819688443054
 30
0.0
 11
247.816241615365
 21
-611.3742737043053
 31
0.0
  0
LINE
  5
22082
330
18
100
AcDbEntity
  8
0
  6
BYBLOCK
100
AcDbLine
 10
241.816241615365
 20
-612.9819688443054
 30
0.0
 11
247.816241615365
 21
-612.9819688443054
 31
0.0
  0
LINE
  5
22083
330
18
100
AcDbEntity
  8
0
  6
BYBLOCK
100
AcDbLine
 10
600.2162416153667
 20
-611.3742737043053
 30
0.0
 11
606.2162416153667
 21
-612.9819688443054
 31
0.0
  0
LINE
  5
22084
330
18
100
AcDbEntity
  8
0
  6
BYBLOCK
100
AcDbLine
 10
606.2162416153667
 20
-612.9819688443054
 30
0.0
 11
600.2162416153667
 21
-614.5896639843054
 31
0.0
  0
LINE
  5
22085
330
18
100
AcDbEntity
  8
0
  6
BYBLOCK
100
AcDbLine
 10
606.2162416153667
 20
-612.9819688443054
 30
0.0
 11
600.2162416153667
 21
-612.9819688443054
 31
0.0
  0
TEXT
  5
22086
330
18
100
AcDbEntity
  8
1DIM1
  6
CONTINUOUS
100
AcDbText
 10
402.9797832820205
 20
-610.8819688443053
 30
0.0
 40
10.5
  1
364.5
100
AcDbText
1001
ACAD
1000
DSTYLE
1002
{
1070
    40
1040
3.0
1070
    45
1040
0.5
1002
}
  0
VIEWPORT
  5
57
330
15
100
AcDbEntity
 67
     1
  8
0
100
AcDbViewport
 68
     1
 10
0.0
 20
0.0
 30
0.0
 40
535.5106132075472
 41
297.0
 68
     1
 69
     1
1001
ACAD
1000
MVIEW
1002
{
1070
    16
1010
0.0
1020
0.0
1030
0.0
1010
0.0
1020
0.0
1030
1.0
1040
0.0
1040
297.0
1040
-4.171999999925333
1040
12.83903210976956
1040
50.0
1040
0.0
1040
0.0
1070
    16
1070
   100
1070
     0
1070
     1
1070
     0
1070
     0
1070
     0
1070
     0
1040
0.0
1040
0.0
1040
0.0
1040
10.0
1040
10.0
1040
10.0
1040
10.0
1070
     0
1002
{
1002
}
1002
}
  0
ENDSEC
  0
SECTION
  2
OBJECTS
  0
DICTIONARY
  5
C
330
0
100
AcDbDictionary
  3
ACAD_CIP_PREVIOUS_PRODUCT_INFO
350
20B28
  3
ACAD_COLOR
350
2D0
  3
ACAD_GROUP
350
D
  3
ACAD_LAYOUT
350
2D1
  3
ACAD_MATERIAL
350
2CF
  3
ACAD_MLEADERSTYLE
350
19E18
  3
ACAD_MLINESTYLE
350
1B
  3
ACAD_PLOTSETTINGS
350
2D2
  3
ACAD_SCALELIST
350
19DF6
  3
ACAD_VISUALSTYLE
350
19DE5
  3
ACDBHEADERROUNDTRIPXREC
350
22087
  3
ACDBVARIABLEDICTIONARY
350
37
  3
CONTENTDICTIONARY
350
D8
  3
DRAWINGVARIABLESDICT
350
20
  3
DWGPROPS
350
2208A
1001
ACAD
1000
TREAT_AS_HARD
1070
     0
  0
DICTIONARY
  5
18FE8
330
2
100
AcDbDictionary
  3
ACAD_LAYERSTATES
360
18FE9
1001
ACAD
1000
TREAT_AS_HARD
1070
     1
  0
DICTIONARY
  5
1A20A
330
E
100
AcDbDictionary
  3
ADSK_XREC_LAYER_RECONCILED
360
1A20B
1001
ACAD
1000
TREAT_AS_HARD
1070
     1
  0
DICTIONARY
  5
1A20C
330
29
100
AcDbDictionary
  3
ADSK_XREC_LAYER_RECONCILED
360
1A20D
1001
ACAD
1000
TREAT_AS_HARD
1070
     1
  0
DICTIONARY
  5
1A20E
330
31
100
AcDbDictionary
  3
ADSK_XREC_LAYER_RECONCILED
360
1A20F
1001
ACAD
1000
TREAT_AS_HARD
1070
     1
  0
DICTIONARY
  5
1A218
330
101
100
AcDbDictionary
  3
ADSK_XREC_LAYER_RECONCILED
360
1A219
1001
ACAD
1000
TREAT_AS_HARD
1070
     1
  0
DICTIONARY
  5
1A21C
330
103
100
AcDbDictionary
  3
ADSK_XREC_LAYER_RECONCILED
360
1A21D
1001
ACAD
1000
TREAT_AS_HARD
1070
     1
  0
DICTIONARY
  5
1A220
330
25F
100
AcDbDictionary
  3
ADSK_XREC_LAYER_RECONCILED
360
1A221
1001
ACAD
1000
TREAT_AS_HARD
1070
     1
  0
DICTIONARY
  5
1A236
330
26A
100
AcDbDictionary
  3
ADSK_XREC_LAYER_RECONCILED
360
1A237
1001
ACAD
1000
TREAT_AS_HARD
1070
     1
  0
DICTIONARY
  5
6E9
330
18
100
AcDbDictionary
  3
ACAD_SORTENTS
360
6EA
1001
ACAD
1000
TREAT_AS_HARD
1070
     1
  0
DICTIONARY
  5
59B
330
15
100
AcDbDictionary
  3
ACAD_SORTENTS
360
59C
1001
ACAD
1000
TREAT_AS_HARD
1070
     1
  0
XRECORD
  5
20B28
102
{ACAD_REACTORS
330
C
102
}
330
C
100
AcDbXrecord
300
ACDLT
300
2012
300
ACDLT_F_S
  0
DICTIONARY
  5
2D0
102
{ACAD_REACTORS
330
C
102
}
330
C
100
AcDbDictionary
1001
ACAD
1000
TREAT_AS_HARD
1070
     0
  0
DICTIONARY
  5
D
102
{ACAD_REACTORS
330
C
102
}
330
C
100
AcDbDictionary
1001
ACAD
1000
TREAT_AS_HARD
1070
     0
  0
DICTIONARY
  5
2D1
102
{ACAD_REACTORS
330
C
102
}
330
C
100
AcDbDictionary
1001
ACAD
1000
TREAT_AS_HARD
1070
     0
  0
DICTIONARY
  5
2CF
102
{ACAD_REACTORS
330
C
102
}
330
C
100
AcDbDictionary
  3
BYBLOCK
350
19DD5
  3
BYLAYER
350
19DCD
  3
GLOBAL
350
19DDD
1001
ACAD
1000
TREAT_AS_HARD
1070
     0
  0
DICTIONARY
  5
19E18
102
{ACAD_REACTORS
330
C
102
}
330
C
100
AcDbDictionary
  3
STANDARD
350
19E19
1001
ACAD
1000
TREAT_AS_HARD
1070
     0
  0
DICTIONARY
  5
1B
102
{ACAD_REACTORS
330
C
102
}
330
C
100
AcDbDictionary
  3
STANDARD
350
1C
1001
ACAD
1000
TREAT_AS_HARD
1070
     0
  0
DICTIONARY
  5
2D2
102
{ACAD_REACTORS
330
C
102
}
330
C
100
AcDbDictionary
1001
ACAD
1000
TREAT_AS_HARD
1070
     0
  0
DICTIONARY
  5
19DF6
102
{ACAD_REACTORS
330
C
102
}
330
C
100
AcDbDictionary
  3
A0
350
19DF7
  3
A1
350
19DF8
  3
A2
350
19DF9
  3
A3
350
19DFA
  3
A4
350
19DFB
  3
A5
350
19DFC
  3
A6
350
19DFD
  3
A7
350
19DFE
  3
A8
350
19DFF
  3
A9
350
19E00
  3
B0
350
19E01
  3
B1
350
19E02
  3
B2
350
19E03
  3
B3
350
19E04
  3
B4
350
19E05
  3
B5
350
19E06
  3
B6
350
19E07
  3
B7
350
19E08
  3
B8
350
19E09
  3
B9
350
19E0A
  3
C0
350
19E0B
  3
C1
350
19E0C
  3
C2
350
19E0D
  3
C3
350
19E0E
  3
C4
350
19E0F
  3
C5
350
19E10
  3
C6
350
19E11
  3
C7
350
19E12
  3
C8
350
19E13
  3
C9
350
19E14
  3
D0
350
19E15
  3
D1
350
19E16
  3
D2
350
19E17
1001
ACAD
1000
TREAT_AS_HARD
1070
     0
  0
DICTIONARY
  5
19DE5
102
{ACAD_REACTORS
330
C
102
}
330
C
100
AcDbDictionary
  3
2DWIREFRAME
350
19DEB
  3
3D_HIDDEN
350
19DED
  3
3DWIREFRAME
350
19DEC
  3
BASIC
350
19DEA
  3
BRIGHTEN
350
19DF1
  3
COLORCHANGE
350
19DF5
  3
CONCEPTUAL
350
19DEE
  3
DIM
350
19DF0
  3
EDGECOLOROFF
350
1E02A
  3
FACEPATTERN
350
19DF4
  3
FLAT
350
19DE6
  3
FLATWITHEDGES
350
19DE7
  3
GOURAUD
350
19DE8
  3
GOURAUDWITHEDGES
350
19DE9
  3
HIDDEN
350
1F381
  3
JITTEROFF
350
1E028
  3
LINEPATTERN
350
19DF3
  3
MODELING
350
1F387
  3
OVERHANGOFF
350
1E029
  3
REALISTIC
350
19DEF
  3
SHADED
350
1F386
  3
SHADED_WITH_EDGES
350
1F385
  3
SHADES_OF_GRAY
350
1F382
  3
SKETCHY
350
1F383
  3
THICKEN
350
19DF2
  3
WIREFRAME
350
1F380
  3
X-RAY
350
1F384
1001
ACAD
1000
TREAT_AS_HARD
1070
     0
  0
DICTIONARY
  5
22087
102
{ACAD_REACTORS
330
C
102
}
330
C
100
AcDbDictionary
  3
COLORDICT
350
22088
  3
MATERIALDICT
350
22089
1001
ACAD
1000
TREAT_AS_HARD
1070
     0
  0
DICTIONARY
  5
37
102
{ACAD_REACTORS
330
C
102
}
330
C
100
AcDbDictionary
  3
CANNOSCALE
350
20A45
  3
CMLEADERSTYLE
350
1AC19
  3
CTABLESTYLE
350
4F1
  3
DIMADEC
350
38
  3
DIMASSOC
350
408
  3
HIDETEXT
350
1891
  3
INDEXCTL
350
1AC1C
  3
INTERSECTIONCOLOR
350
1895
  3
INTERSECTIONDISPLAY
350
1894
  3
MSLTSCALE
350
20A9B
  3
OBSCOLOR
350
1892
  3
OBSLTYPE
350
1893
  3
PROJECTNAME
350
409
  3
SORTENTS
350
1AC1B
  3
XCLIPFRAME
350
21D6E
1001
ACAD
1000
TREAT_AS_HARD
1070
     0
  0
DICTIONARY
  5
D8
102
{ACAD_REACTORS
330
C
102
}
330
C
100
AcDbDictionary
1001
CONTENTTABDATA
1070
    11
1000
Child
1000
D:\ACLT\TABset\CHILDREN.dwg
1070
     0
1070
     0
1070
     1
1000
PK
1000
D:\ACLT\TABset\PK.dwg
1070
     0
1070
     0
1070
     1
1000
Lev1
1000
D:\ACLT\TABset\Lever01.dwg
1070
     0
1070
     0
1070
     1
1000
Lev2
1000
D:\ACLT\TABset\Lever02.dwg
1070
     0
1070
     0
1070
     1
1000
L3
1000
D:\Aclt\TABset\Lever03.dwg
1070
     0
1070
     0
1070
     1
1000
Form
1000
D:\ACLT\FORMAT
1070
     1
1070
     0
1070
     1
1000
Jnt
1000
D:\ACLT\TABset\JOINTPARTS.dwg
1070
     0
1070
     0
1070
     1
1000
ISO
1000
D:\ACLT\TABset\Isome01.dwg
1070
     0
1070
     0
1070
     1
1000
R
1000
D:\ACLT\TABset\REGION.dwg
1070
     0
1070
     0
1070
     1
1000
std
1000
D:\ACLT\TABset\std_sym_all.dwg
1070
     0
1070
     0
1070
     1
1000
丸
1000
D:\Aclt\TABset\MARU.dwg
1070
     0
1070
     0
1070
     1
1001
CONTENTCURRENTTAB
1070
     0
1001
ACAD
1000
TREAT_AS_HARD
1070
     0
  0
DICTIONARY
  5
20
102
{ACAD_REACTORS
330
C
102
}
330
C
100
AcDbDictionary
1001
DRAWINGVARIABLESXDATA
1000
POLARANG
1000
0.261799387799149410000000
1000
POLARMODE
1000
1
1000
POLARSTYLE
1000
1
1001
ACAD
1000
TREAT_AS_HARD
1070
     0
  0
XRECORD
  5
2208A
102
{ACAD_REACTORS
330
C
102
}
330
C
100
AcDbXrecord
  1
DWGPROPS COOKIE
  2

  3

  4

  6

  7

  8
3684
  9

300
=
301
=
302
=
303
=
304
=
305
=
306
=
307
=
308
=
309
=
 40
0.0
 41
2453033.357663484
 42
2459111.261276042
  1

 90
        0
  0
DICTIONARY
  5
18FE9
102
{ACAD_REACTORS
330
18FE8
102
}
330
18FE8
100
AcDbDictionary
1001
ACAD
1000
TREAT_AS_HARD
1070
     0
  0
ACAD_PROXY_OBJECT
  5
1A20B
102
{ACAD_REACTORS
330
1A20A
102
}
330
1A20A
100
AcDbZombieObject
 90
      499
 91
      517
 93
       34
310
40C8804040
  0
ACAD_PROXY_OBJECT
  5
1A20D
102
{ACAD_REACTORS
330
1A20C
102
}
330
1A20C
100
AcDbZombieObject
 90
      499
 91
      517
 93
       34
310
40C8804040
  0
ACAD_PROXY_OBJECT
  5
1A20F
102
{ACAD_REACTORS
330
1A20E
102
}
330
1A20E
100
AcDbZombieObject
 90
      499
 91
      517
 93
       34
310
40C8804040
  0
ACAD_PROXY_OBJECT
  5
1A219
102
{ACAD_REACTORS
330
1A218
102
}
330
1A218
100
AcDbZombieObject
 90
      499
 91
      517
 93
       34
310
40C8804040
  0
ACAD_PROXY_OBJECT
  5
1A21D
102
{ACAD_REACTORS
330
1A21C
102
}
330
1A21C
100
AcDbZombieObject
 90
      499
 91
      517
 93
       34
310
40C8804040
  0
ACAD_PROXY_OBJECT
  5
1A221
102
{ACAD_REACTORS
330
1A220
102
}
330
1A220
100
AcDbZombieObject
 90
      499
 91
      517
 93
       34
310
40C8804040
  0
ACAD_PROXY_OBJECT
  5
1A237
102
{ACAD_REACTORS
330
1A236
102
}
330
1A236
100
AcDbZombieObject
 90
      499
 91
      517
 93
       34
310
40C8804040
  0
SORTENTSTABLE
  5
6EA
102
{ACAD_REACTORS
330
6E9
102
}
330
6E9
100
AcDbSortentsTable
330
18
331
0
  5
99AB
331
0
  5
AB53
331
0
  5
AB54
331
0
  5
ECB5
331
1DB9B
  5
1DB9F
331
21226
  5
2122B
331
21227
  5
2122C
331
21228
  5
2122D
331
21229
  5
2122E
331
2122A
  5
2122F
331
2122B
  5
21230
331
2122C
  5
21231
331
2122D
  5
21232
331
2122E
  5
21234
331
2122F
  5
21236
331
21230
  5
21237
331
21231
  5
21238
331
21232
  5
21239
331
21234
  5
2123A
331
21236
  5
2123B
331
21237
  5
2123C
331
21238
  5
2123D
331
21239
  5
21240
331
2123A
  5
21241
331
2123B
  5
21242
331
2123C
  5
21243
331
2123D
  5
21244
331
21240
  5
21245
331
21241
  5
21246
331
21242
  5
21247
331
21243
  5
21248
331
21244
  5
21249
331
21245
  5
2124A
331
21246
  5
2124B
331
21247
  5
2124C
331
21248
  5
2124D
331
21249
  5
2124E
331
2124A
  5
2124F
331
2124B
  5
21250
331
2124C
  5
21251
331
2124D
  5
21254
331
2124E
  5
21255
331
2124F
  5
21256
331
21250
  5
21257
331
21251
  5
21258
331
21254
  5
21259
331
21255
  5
2125D
331
21256
  5
2125E
331
21257
  5
21262
331
21258
  5
21263
331
21259
  5
21264
331
2125D
  5
2127A
331
2125E
  5
2127B
331
21262
  5
2128B
331
21263
  5
2128C
331
21264
  5
2128D
331
21265
  5
2128E
331
21266
  5
2128F
331
21267
  5
21290
331
21268
  5
21291
331
21269
  5
21292
331
2126A
  5
21293
331
2126B
  5
21294
331
2126C
  5
21295
331
2126D
  5
21296
331
2126E
  5
21297
331
2126F
  5
21298
331
21270
  5
21299
331
21271
  5
2129A
331
21272
  5
2129B
331
21273
  5
2129C
331
21274
  5
2129D
331
21275
  5
2129E
331
21276
  5
2129F
331
21277
  5
212A0
331
21278
  5
212A1
331
21279
  5
212A2
331
2127A
  5
212A3
331
2127B
  5
212A4
331
2127C
  5
212A5
331
2127D
  5
212A6
331
2127E
  5
212A7
331
2127F
  5
212A8
331
21280
  5
212A9
331
21281
  5
212AA
331
21282
  5
212AB
331
21283
  5
212AC
331
21284
  5
212AD
331
21285
  5
212AE
331
21286
  5
212AF
331
21287
  5
212B0
331
21288
  5
212B1
331
21289
  5
212B2
331
2128A
  5
212B3
331
2128B
  5
212B4
331
2128C
  5
212B5
331
2128D
  5
212B6
331
2128E
  5
212B7
331
2128F
  5
212B8
331
21290
  5
212B9
331
21291
  5
212BA
331
21292
  5
212BB
331
21293
  5
212BC
331
21294
  5
212BD
331
21295
  5
212BE
331
21296
  5
212BF
331
21297
  5
212C0
331
21298
  5
212C1
331
21299
  5
212C2
331
2129A
  5
212C3
331
2129B
  5
212C4
331
2129C
  5
212C5
331
2129D
  5
212C6
331
2129E
  5
212C7
331
2129F
  5
212C8
331
212A0
  5
212C9
331
212A1
  5
212CA
331
212A2
  5
212CB
331
212A3
  5
212CC
331
212A4
  5
212CD
331
212A5
  5
212CE
331
212A6
  5
212CF
331
212A7
  5
212D4
331
212A8
  5
212D5
331
212A9
  5
212D6
331
212AA
  5
212D8
331
212AB
  5
212DA
331
212AC
  5
212DD
331
212AD
  5
212DE
331
212AE
  5
212DF
331
212AF
  5
212E0
331
212B0
  5
212E1
331
212B1
  5
212E2
331
212B2
  5
212E3
331
212B3
  5
212E4
331
212B4
  5
212E5
331
212B5
  5
212E6
331
212B6
  5
212E7
331
212B7
  5
212E9
331
212B8
  5
212EA
331
212B9
  5
212EB
331
212BA
  5
212EC
331
212BB
  5
212ED
331
212BC
  5
212EE
331
212BD
  5
212EF
331
212BE
  5
212F0
331
212BF
  5
212F2
331
212C0
  5
212F4
331
212C1
  5
212F5
331
212C2
  5
212F6
331
212C3
  5
212F7
331
212C4
  5
212F8
331
212C5
  5
212FC
331
212C6
  5
212FD
331
212C7
  5
212FE
331
212C8
  5
21302
331
212C9
  5
21303
331
212CA
  5
21304
331
212CB
  5
21305
331
212CC
  5
21306
331
212CD
  5
21307
331
212CE
  5
21308
331
212CF
  5
21309
331
212D4
  5
21321
331
212D5
  5
21322
331
212D6
  5
21323
331
212D8
  5
21324
331
212DA
  5
21325
331
212DD
  5
21326
331
212DE
  5
21327
331
212DF
  5
21328
331
212E0
  5
21329
331
212E1
  5
2132A
331
212E2
  5
2132C
331
212E3
  5
2132D
331
212E4
  5
2132E
331
212E5
  5
2132F
331
212E6
  5
21330
331
212E7
  5
21331
331
212E9
  5
21332
331
212EA
  5
21333
331
212EB
  5
21334
331
212EC
  5
21335
331
212ED
  5
21336
331
212EE
  5
21337
331
212EF
  5
21338
331
212F0
  5
21339
331
212F2
  5
21344
331
212F4
  5
21345
331
212F5
  5
21346
331
212F6
  5
21347
331
212F7
  5
21348
331
212F8
  5
21349
331
212F9
  5
2134A
331
212FA
  5
2134B
331
212FB
  5
2134C
331
212FC
  5
2134D
331
212FD
  5
2134E
331
212FE
  5
2134F
331
212FF
  5
21350
331
21300
  5
21351
331
21301
  5
21352
331
21302
  5
21353
331
21303
  5
21354
331
21304
  5
21355
331
21305
  5
21356
331
21306
  5
21357
331
21307
  5
21358
331
21308
  5
21359
331
21309
  5
2135A
331
2130A
  5
2135B
331
2130B
  5
2135C
331
2130C
  5
2135D
331
2130D
  5
2135E
331
2130E
  5
2135F
331
2130F
  5
21360
331
21310
  5
21361
331
21311
  5
21362
331
21312
  5
21E82
331
21313
  5
21E83
331
21314
  5
21E84
331
21315
  5
21FE8
331
21316
  5
21FE9
331
21317
  5
21FEA
331
21318
  5
21FEB
331
21319
  5
21FEC
331
2131A
  5
21FED
331
2131B
  5
21FEE
331
2131C
  5
21FEF
331
2131D
  5
21FF0
331
2131E
  5
21FF1
331
2131F
  5
21FF2
331
21320
  5
21FF3
331
21321
  5
21FF4
331
21322
  5
21FF5
331
21323
  5
21FF6
331
21324
  5
21FF7
331
21325
  5
21FF8
331
21326
  5
21FF9
331
21327
  5
21FFA
331
21328
  5
21FFB
331
21329
  5
21FFC
331
2132A
  5
21FFD
331
2132C
  5
21FFE
331
2132D
  5
21FFF
331
2132E
  5
22000
331
2132F
  5
22001
331
21330
  5
22002
331
21331
  5
22003
331
21332
  5
22004
331
21333
  5
22005
331
21334
  5
22006
331
21335
  5
22007
331
21336
  5
22008
331
21337
  5
22009
331
21338
  5
2200A
331
21339
  5
2200B
331
2133A
  5
2200C
331
2133B
  5
2200D
331
2133C
  5
2200E
331
2133D
  5
2200F
331
2133E
  5
22010
331
2133F
  5
22011
331
21340
  5
22012
331
21341
  5
22013
331
21342
  5
22014
331
21343
  5
22018
331
21344
  5
22019
331
21345
  5
2201A
331
21346
  5
2201B
331
21347
  5
2201F
331
21348
  5
22020
331
21349
  5
22021
331
2134A
  5
22025
331
2134B
  5
22026
331
2134C
  5
22027
331
2134D
  5
2202B
331
2134E
  5
2202C
331
2134F
  5
2202D
331
21350
  5
22031
331
21351
  5
22032
331
21352
  5
22033
331
21353
  5
22037
331
21354
  5
22038
331
21355
  5
22039
331
21356
  5
2203A
331
21357
  5
2203B
331
21358
  5
2203C
331
21359
  5
2203D
331
2135A
  5
2203E
331
2135B
  5
2203F
331
2135C
  5
22040
331
2135D
  5
22041
331
2135E
  5
22042
331
2135F
  5
22043
331
21360
  5
22044
331
21361
  5
22045
331
21362
  5
22046
331
21E82
  5
22084
331
21E83
  5
22085
331
21E84
  5
22086
331
21FE8
  5
21226
331
21FE9
  5
21227
331
21FEA
  5
21228
331
21FEB
  5
21229
331
21FEC
  5
2122A
331
21FED
  5
21265
331
21FEE
  5
21266
331
21FEF
  5
21267
331
0
  5
21268
331
0
  5
21269
331
0
  5
2126A
331
21FF3
  5
21272
331
21FF4
  5
21273
331
21FF5
  5
21274
331
21FF6
  5
21275
331
21FF7
  5
21279
331
21FF8
  5
2127C
331
21FF9
  5
2127D
331
21FFA
  5
2127E
331
21FFB
  5
2127F
331
0
  5
21276
331
0
  5
21277
331
0
  5
21278
331
21FFF
  5
21287
331
22000
  5
21288
331
22001
  5
21289
331
22002
  5
2128A
331
22003
  5
2130A
331
22004
  5
2130B
331
22005
  5
2130C
331
0
  5
212F9
331
0
  5
212FA
331
0
  5
212FB
331
22009
  5
21314
331
2200A
  5
21315
331
2200B
  5
21316
331
0
  5
212FF
331
0
  5
21300
331
0
  5
21301
331
2200F
  5
2133A
331
22010
  5
2133B
331
22011
  5
2133C
331
0
  5
2131D
331
0
  5
2131E
331
0
  5
2131F
331
22015
  5
22047
331
22016
  5
22048
331
22017
  5
22049
331
0
  5
22015
331
0
  5
22016
331
0
  5
22017
331
2201B
  5
22051
331
2201C
  5
22052
331
2201D
  5
22053
331
2201E
  5
22054
331
0
  5
2201C
331
0
  5
2201D
331
0
  5
2201E
331
22022
  5
2205C
331
22023
  5
2205D
331
22024
  5
2205E
331
0
  5
22022
331
0
  5
22023
331
0
  5
22024
331
22028
  5
22066
331
22029
  5
22067
331
2202A
  5
22068
331
0
  5
22028
331
0
  5
22029
331
0
  5
2202A
331
2202E
  5
22070
331
2202F
  5
22071
331
22030
  5
22072
331
0
  5
2202E
331
0
  5
2202F
331
0
  5
22030
331
22034
  5
2207A
331
22035
  5
2207B
331
22036
  5
2207C
331
0
  5
22034
331
0
  5
22035
331
0
  5
22036
331
2203A
  5
2126B
331
2203B
  5
2126C
331
2203C
  5
2126D
331
2203D
  5
2126E
331
2203E
  5
2126F
331
2203F
  5
21270
331
22040
  5
21271
331
22041
  5
21280
331
22042
  5
21281
331
22043
  5
21282
331
22044
  5
21283
331
22045
  5
21284
331
22046
  5
21285
331
22047
  5
21286
331
22048
  5
2130D
331
22049
  5
2130E
331
2204A
  5
2130F
331
2204B
  5
21310
331
2204C
  5
21311
331
2204D
  5
21312
331
2204E
  5
21313
331
2204F
  5
21317
331
22050
  5
21318
331
22051
  5
21319
331
22052
  5
2131A
331
22053
  5
2131B
331
22054
  5
2131C
331
22055
  5
21320
331
22056
  5
2133D
331
22057
  5
2133E
331
22058
  5
2133F
331
22059
  5
21340
331
2205A
  5
21341
331
2205B
  5
21342
331
2205C
  5
21343
331
2205D
  5
2204A
331
2205E
  5
2204B
331
2205F
  5
2204C
331
22060
  5
2204D
331
22061
  5
2204E
331
22062
  5
2204F
331
22063
  5
22050
331
22064
  5
22055
331
22065
  5
22056
331
22066
  5
22057
331
22067
  5
22058
331
22068
  5
22059
331
22069
  5
2205A
331
2206A
  5
2205B
331
2206B
  5
2205F
331
2206C
  5
22060
331
2206D
  5
22061
331
2206E
  5
22062
331
2206F
  5
22063
331
22070
  5
22064
331
22071
  5
22065
331
22072
  5
22069
331
22073
  5
2206A
331
22074
  5
2206B
331
22075
  5
2206C
331
22076
  5
2206D
331
22077
  5
2206E
331
22078
  5
2206F
331
22079
  5
22073
331
2207A
  5
22074
331
2207B
  5
22075
331
2207C
  5
22076
331
2207D
  5
22077
331
2207E
  5
22078
331
2207F
  5
22079
331
22080
  5
2207D
331
22081
  5
2207E
331
22082
  5
2207F
331
22083
  5
22080
331
22084
  5
22081
331
22085
  5
22082
331
22086
  5
22083
  0
SORTENTSTABLE
  5
59C
102
{ACAD_REACTORS
330
59B
102
}
330
59B
100
AcDbSortentsTable
330
15
331
57
  5
57
331
0
  5
70
  0
MATERIAL
  5
19DD5
102
{ACAD_REACTORS
330
2CF
102
}
102
{ACAD_XDICTIONARY
360
22225
102
}
330
2CF
100
AcDbMaterial
  1
BYBLOCK
 72
     0
 73
     2
 43
0.0208333333333333
 43
0.0
 43
0.0
 43
0.0
 43
0.0
 43
0.0208333333333333
 43
0.0
 43
0.0
 43
0.0
 43
0.0
 43
1.0
 43
0.0
 43
0.0
 43
0.0
 43
0.0
 43
1.0
 77
     0
 78
     2
 47
0.0208333333333333
 47
0.0
 47
0.0
 47
0.0
 47
0.0
 47
0.0208333333333333
 47
0.0
 47
0.0
 47
0.0
 47
0.0
 47
1.0
 47
0.0
 47
0.0
 47
0.0
 47
0.0
 47
1.0
171
     0
172
     2
 49
0.0208333333333333
 49
0.0
 49
0.0
 49
0.0
 49
0.0
 49
0.0208333333333333
 49
0.0
 49
0.0
 49
0.0
 49
0.0
 49
1.0
 49
0.0
 49
0.0
 49
0.0
 49
0.0
 49
1.0
175
     0
176
     2
142
0.0208333333333333
142
0.0
142
0.0
142
0.0
142
0.0
142
0.0208333333333333
142
0.0
142
0.0
142
0.0
142
0.0
142
1.0
142
0.0
142
0.0
142
0.0
142
0.0
142
1.0
179
     0
270
     2
144
0.0208333333333333
144
0.0
144
0.0
144
0.0
144
0.0
144
0.0208333333333333
144
0.0
144
0.0
144
0.0
144
0.0
144
1.0
144
0.0
144
0.0
144
0.0
144
0.0
144
1.0
274
     2
147
0.0208333333333333
147
0.0
147
0.0
147
0.0
147
0.0
147
0.0208333333333333
147
0.0
147
0.0
147
0.0
147
0.0
147
1.0
147
0.0
147
0.0
147
0.0
147
0.0
147
1.0
  0
MATERIAL
  5
19DCD
102
{ACAD_REACTORS
330
2CF
102
}
102
{ACAD_XDICTIONARY
360
22227
102
}
330
2CF
100
AcDbMaterial
  1
BYLAYER
 72
     0
 73
     2
 43
0.0208333333333333
 43
0.0
 43
0.0
 43
0.0
 43
0.0
 43
0.0208333333333333
 43
0.0
 43
0.0
 43
0.0
 43
0.0
 43
1.0
 43
0.0
 43
0.0
 43
0.0
 43
0.0
 43
1.0
 77
     0
 78
     2
 47
0.0208333333333333
 47
0.0
 47
0.0
 47
0.0
 47
0.0
 47
0.0208333333333333
 47
0.0
 47
0.0
 47
0.0
 47
0.0
 47
1.0
 47
0.0
 47
0.0
 47
0.0
 47
0.0
 47
1.0
171
     0
172
     2
 49
0.0208333333333333
 49
0.0
 49
0.0
 49
0.0
 49
0.0
 49
0.0208333333333333
 49
0.0
 49
0.0
 49
0.0
 49
0.0
 49
1.0
 49
0.0
 49
0.0
 49
0.0
 49
0.0
 49
1.0
175
     0
176
     2
142
0.0208333333333333
142
0.0
142
0.0
142
0.0
142
0.0
142
0.0208333333333333
142
0.0
142
0.0
142
0.0
142
0.0
142
1.0
142
0.0
142
0.0
142
0.0
142
0.0
142
1.0
179
     0
270
     2
144
0.0208333333333333
144
0.0
144
0.0
144
0.0
144
0.0
144
0.0208333333333333
144
0.0
144
0.0
144
0.0
144
0.0
144
1.0
144
0.0
144
0.0
144
0.0
144
0.0
144
1.0
274
     2
147
0.0208333333333333
147
0.0
147
0.0
147
0.0
147
0.0
147
0.0208333333333333
147
0.0
147
0.0
147
0.0
147
0.0
147
1.0
147
0.0
147
0.0
147
0.0
147
0.0
147
1.0
  0
MATERIAL
  5
19DDD
102
{ACAD_REACTORS
330
2CF
102
}
102
{ACAD_XDICTIONARY
360
22229
102
}
330
2CF
100
AcDbMaterial
  1
GLOBAL
 72
     0
 73
     2
 43
0.0208333333333333
 43
0.0
 43
0.0
 43
0.0
 43
0.0
 43
0.0208333333333333
 43
0.0
 43
0.0
 43
0.0
 43
0.0
 43
1.0
 43
0.0
 43
0.0
 43
0.0
 43
0.0
 43
1.0
 77
     0
 78
     2
 47
0.0208333333333333
 47
0.0
 47
0.0
 47
0.0
 47
0.0
 47
0.0208333333333333
 47
0.0
 47
0.0
 47
0.0
 47
0.0
 47
1.0
 47
0.0
 47
0.0
 47
0.0
 47
0.0
 47
1.0
171
     0
172
     2
 49
0.0208333333333333
 49
0.0
 49
0.0
 49
0.0
 49
0.0
 49
0.0208333333333333
 49
0.0
 49
0.0
 49
0.0
 49
0.0
 49
1.0
 49
0.0
 49
0.0
 49
0.0
 49
0.0
 49
1.0
175
     0
176
     2
142
0.0208333333333333
142
0.0
142
0.0
142
0.0
142
0.0
142
0.0208333333333333
142
0.0
142
0.0
142
0.0
142
0.0
142
1.0
142
0.0
142
0.0
142
0.0
142
0.0
142
1.0
179
     0
270
     2
144
0.0208333333333333
144
0.0
144
0.0
144
0.0
144
0.0
144
0.0208333333333333
144
0.0
144
0.0
144
0.0
144
0.0
144
1.0
144
0.0
144
0.0
144
0.0
144
0.0
144
1.0
274
     2
147
0.0208333333333333
147
0.0
147
0.0
147
0.0
147
0.0
147
0.0208333333333333
147
0.0
147
0.0
147
0.0
147
0.0
147
1.0
147
0.0
147
0.0
147
0.0
147
0.0
147
1.0
  0
ACAD_PROXY_OBJECT
  5
19E19
102
{ACAD_REACTORS
330
19E18
102
}
330
19E18
100
AcDbZombieObject
 90
      499
 91
      512
 93
      610
310
40901902A4063FBFFFFFE000000000000002040AD7A3703D0AD73F4214DD185B99185C990000000000000104090141901A00000000000004100000000000000041025764000000000000300FC0
340
12
340
0
340
F
340
0
 94
        0
1001
ACAD_MLEADERVER
1070
     2
  0
MLINESTYLE
  5
1C
102
{ACAD_REACTORS
330
1B
102
}
330
1B
100
AcDbMlineStyle
  2
STANDARD
 70
     0
  3

 62
   256
 51
90.0
 52
90.0
 71
     2
 49
0.5
 62
   256
  6
BYLAYER
 49
-0.5
 62
   256
  6
BYLAYER
  0
ACAD_PROXY_OBJECT
  5
19DF7
102
{ACAD_REACTORS
330
19DF6
102
}
330
19DF6
100
AcDbZombieObject
 90
      499
 91
      511
 93
       41
310
903313A31580
  0
ACAD_PROXY_OBJECT
  5
19DF8
102
{ACAD_REACTORS
330
19DF6
102
}
330
19DF6
100
AcDbZombieObject
 90
      499
 91
      511
 93
      105
310
903313A324000000000000004000
  0
ACAD_PROXY_OBJECT
  5
19DF9
102
{ACAD_REACTORS
330
19DF6
102
}
330
19DF6
100
AcDbZombieObject
 90
      499
 91
      511
 93
      105
310
903313A344000000000000104000
  0
ACAD_PROXY_OBJECT
  5
19DFA
102
{ACAD_REACTORS
330
19DF6
102
}
330
19DF6
100
AcDbZombieObject
 90
      499
 91
      511
 93
      105
310
903313A354000000000000144000
  0
ACAD_PROXY_OBJECT
  5
19DFB
102
{ACAD_REACTORS
330
19DF6
102
}
330
19DF6
100
AcDbZombieObject
 90
      499
 91
      511
 93
      105
310
903313A384000000000000204000
  0
ACAD_PROXY_OBJECT
  5
19DFC
102
{ACAD_REACTORS
330
19DF6
102
}
330
19DF6
100
AcDbZombieObject
 90
      499
 91
      511
 93
      113
310
904313A31304000000000000244000
  0
ACAD_PROXY_OBJECT
  5
19DFD
102
{ACAD_REACTORS
330
19DF6
102
}
330
19DF6
100
AcDbZombieObject
 90
      499
 91
      511
 93
      113
310
904313A31364000000000000304000
  0
ACAD_PROXY_OBJECT
  5
19DFE
102
{ACAD_REACTORS
330
19DF6
102
}
330
19DF6
100
AcDbZombieObject
 90
      499
 91
      511
 93
      113
310
904313A32304000000000000344000
  0
ACAD_PROXY_OBJECT
  5
19DFF
102
{ACAD_REACTORS
330
19DF6
102
}
330
19DF6
100
AcDbZombieObject
 90
      499
 91
      511
 93
      113
310
904313A333040000000000003E4000
  0
ACAD_PROXY_OBJECT
  5
19E00
102
{ACAD_REACTORS
330
19DF6
102
}
330
19DF6
100
AcDbZombieObject
 90
      499
 91
      511
 93
      113
310
904313A34304000000000000444000
  0
ACAD_PROXY_OBJECT
  5
19E01
102
{ACAD_REACTORS
330
19DF6
102
}
330
19DF6
100
AcDbZombieObject
 90
      499
 91
      511
 93
      113
310
904313A35304000000000000494000
  0
ACAD_PROXY_OBJECT
  5
19E02
102
{ACAD_REACTORS
330
19DF6
102
}
330
19DF6
100
AcDbZombieObject
 90
      499
 91
      511
 93
      121
310
905313A3130304000000000000594000
  0
ACAD_PROXY_OBJECT
  5
19E03
102
{ACAD_REACTORS
330
19DF6
102
}
330
19DF6
100
AcDbZombieObject
 90
      499
 91
      511
 93
      105
310
903323A310000000000000010100
  0
ACAD_PROXY_OBJECT
  5
19E04
102
{ACAD_REACTORS
330
19DF6
102
}
330
19DF6
100
AcDbZombieObject
 90
      499
 91
      511
 93
      105
310
903343A310000000000000410100
  0
ACAD_PROXY_OBJECT
  5
19E05
102
{ACAD_REACTORS
330
19DF6
102
}
330
19DF6
100
AcDbZombieObject
 90
      499
 91
      511
 93
      105
310
903383A310000000000000810100
  0
ACAD_PROXY_OBJECT
  5
19E06
102
{ACAD_REACTORS
330
19DF6
102
}
330
19DF6
100
AcDbZombieObject
 90
      499
 91
      511
 93
      113
310
90431303A310000000000000910100
  0
ACAD_PROXY_OBJECT
  5
19E07
102
{ACAD_REACTORS
330
19DF6
102
}
330
19DF6
100
AcDbZombieObject
 90
      499
 91
      511
 93
      121
310
9053130303A310000000000001650100
  0
ACAD_PROXY_OBJECT
  5
19E08
102
{ACAD_REACTORS
330
19DF6
102
}
330
19DF6
100
AcDbZombieObject
 90
      499
 91
      511
 93
      257
310
90E312F31323822203D2031272D3022000000000000200FC000000000000284000
  0
ACAD_PROXY_OBJECT
  5
19E09
102
{ACAD_REACTORS
330
19DF6
102
}
330
19DF6
100
AcDbZombieObject
 90
      499
 91
      511
 93
      249
310
90D312F363422203D2031272D3022000000000000240FC000000000000284000
  0
ACAD_PROXY_OBJECT
  5
19E0A
102
{ACAD_REACTORS
330
19DF6
102
}
330
19DF6
100
AcDbZombieObject
 90
      499
 91
      511
 93
      249
310
90D312F333222203D2031272D3022000000000000280FC000000000000284000
  0
ACAD_PROXY_OBJECT
  5
19E0B
102
{ACAD_REACTORS
330
19DF6
102
}
330
19DF6
100
AcDbZombieObject
 90
      499
 91
      511
 93
      249
310
90D312F313622203D2031272D30220000000000002C0FC000000000000284000
  0
ACAD_PROXY_OBJECT
  5
19E0C
102
{ACAD_REACTORS
330
19DF6
102
}
330
19DF6
100
AcDbZombieObject
 90
      499
 91
      511
 93
      249
310
90D332F333222203D2031272D30220000000000002E0FC000000000000284000
  0
ACAD_PROXY_OBJECT
  5
19E0D
102
{ACAD_REACTORS
330
19DF6
102
}
330
19DF6
100
AcDbZombieObject
 90
      499
 91
      511
 93
      241
310
90C312F3822203D2031272D3022000000000000300FC000000000000284000
  0
ACAD_PROXY_OBJECT
  5
19E0E
102
{ACAD_REACTORS
330
19DF6
102
}
330
19DF6
100
AcDbZombieObject
 90
      499
 91
      511
 93
      249
310
90D332F313622203D2031272D3022000000000000320FC000000000000284000
  0
ACAD_PROXY_OBJECT
  5
19E0F
102
{ACAD_REACTORS
330
19DF6
102
}
330
19DF6
100
AcDbZombieObject
 90
      499
 91
      511
 93
      241
310
90C312F3422203D2031272D3022000000000000340FC000000000000284000
  0
ACAD_PROXY_OBJECT
  5
19E10
102
{ACAD_REACTORS
330
19DF6
102
}
330
19DF6
100
AcDbZombieObject
 90
      499
 91
      511
 93
      241
310
90C332F3822203D2031272D3022000000000000360FC000000000000284000
  0
ACAD_PROXY_OBJECT
  5
19E11
102
{ACAD_REACTORS
330
19DF6
102
}
330
19DF6
100
AcDbZombieObject
 90
      499
 91
      511
 93
      241
310
90C312F3222203D2031272D3022000000000000380FC000000000000284000
  0
ACAD_PROXY_OBJECT
  5
19E12
102
{ACAD_REACTORS
330
19DF6
102
}
330
19DF6
100
AcDbZombieObject
 90
      499
 91
      511
 93
      241
310
90C332F3422203D2031272D30220000000000003A0FC000000000000284000
  0
ACAD_PROXY_OBJECT
  5
19E13
102
{ACAD_REACTORS
330
19DF6
102
}
330
19DF6
100
AcDbZombieObject
 90
      499
 91
      511
 93
      161
310
90A3122203D2031272D30224000000000000284000
  0
ACAD_PROXY_OBJECT
  5
19E14
102
{ACAD_REACTORS
330
19DF6
102
}
330
19DF6
100
AcDbZombieObject
 90
      499
 91
      511
 93
      257
310
90E312D312F3222203D2031272D30220000000000003E0FC000000000000284000
  0
ACAD_PROXY_OBJECT
  5
19E15
102
{ACAD_REACTORS
330
19DF6
102
}
330
19DF6
100
AcDbZombieObject
 90
      499
 91
      511
 93
      225
310
90A3322203D2031272D302200000000000002100000000000000284000
  0
ACAD_PROXY_OBJECT
  5
19E16
102
{ACAD_REACTORS
330
19DF6
102
}
330
19DF6
100
AcDbZombieObject
 90
      499
 91
      511
 93
      225
310
90A3622203D2031272D302200000000000006100000000000000284000
  0
ACAD_PROXY_OBJECT
  5
19E17
102
{ACAD_REACTORS
330
19DF6
102
}
330
19DF6
100
AcDbZombieObject
 90
      499
 91
      511
 93
      249
310
90D31272D3022203D2031272D30220000000000000A100000000000000284000
  0
ACAD_PROXY_OBJECT
  5
19DEB
102
{ACAD_REACTORS
330
19DE5
102
}
330
19DE5
100
AcDbZombieObject
 90
      499
 91
      510
 93
      436
310
42CC9915DA5C99599C985B595049028333333333333E3BF0000000000000FB0107901411070040501600405405064090741402480A0340
1001
ACAD
1000
AcDbSavedByObjectVersion
1070
     0
  0
ACAD_PROXY_OBJECT
  5
19DED
102
{ACAD_REACTORS
330
19DE5
102
}
330
19DE5
100
AcDbZombieObject
 90
      499
 91
      510
 93
      500
310
424CD108121A5919195B90640502408333333333333E3BF0000000000000FB01079024090700405020000000000001110200405405064090740C02480A0340
1001
ACAD
1000
AcDbSavedByObjectVersion
1070
     0
  0
ACAD_PROXY_OBJECT
  5
19DEC
102
{ACAD_REACTORS
330
19DE5
102
}
330
19DE5
100
AcDbZombieObject
 90
      499
 91
      510
 93
      436
310
42CCD915DA5C99599C985B595059028333333333333E3BF0000000000000FB0107901411070040501600405405064090741402480A0340
1001
ACAD
1000
AcDbSavedByObjectVersion
1070
     0
  0
ACAD_PROXY_OBJECT
  5
19DEA
102
{ACAD_REACTORS
330
19DE5
102
}
330
19DE5
100
AcDbZombieObject
 90
      499
 91
      510
 93
      388
310
4150985CDA58D07406404333333333333E3BF0000000000000FB0107A41107004050150841D405064090741402480A0350
1001
ACAD
1000
AcDbSavedByObjectVersion
1070
     0
  0
ACAD_PROXY_OBJECT
  5
19DF1
102
{ACAD_REACTORS
330
19DE5
102
}
330
19DE5
100
AcDbZombieObject
 90
      499
 91
      510
 93
      428
310
42109C9A59DA1D195B90C409028333333333333E3BF0000000000000FB010790141107004050150841D405064090741402480A029950
1001
ACAD
1000
AcDbSavedByObjectVersion
1070
     0
  0
ACAD_PROXY_OBJECT
  5
19DF5
102
{ACAD_REACTORS
330
19DE5
102
}
330
19DE5
100
AcDbZombieObject
 90
      499
 91
      510
 93
      452
310
42D0DBDB1BDC90DA185B99D95104090240C333333333333E3BF0000000000000FB0108901411070040501508421405064090741402480A0350
1001
ACAD
1000
AcDbSavedByObjectVersion
1070
     0
  0
ACAD_PROXY_OBJECT
  5
19DEE
102
{ACAD_REACTORS
330
19DE5
102
}
330
19DE5
100
AcDbZombieObject
 90
      499
 91
      510
 93
      500
310
4290DBDB98D95C1D1D585B10940D028333333333333E3BF0000000000000FB0107902409070040501000000000000111010841D405064090740C02480A0340
1001
ACAD
1000
AcDbSavedByObjectVersion
1070
     0
  0
ACAD_PROXY_OBJECT
  5
19DF0
102
{ACAD_REACTORS
330
19DE5
102
}
330
19DE5
100
AcDbZombieObject
 90
      499
 91
      510
 93
      412
310
40D11A5B50B409028333333333333E3BF0000000000000FB010790141107004050150841D405064090741402480A02677FFFFFD0
1001
ACAD
1000
AcDbSavedByObjectVersion
1070
     0
  0
ACAD_PROXY_OBJECT
  5
1E02A
102
{ACAD_REACTORS
330
19DE5
102
}
330
19DE5
100
AcDbZombieObject
 90
      499
 91
      510
 93
      452
310
43115919D950DBDB1BDC93D999916409028333333333333E3BF0000000000000FB010790141107004050150841D405064090741402480A0350
1001
ACAD
1000
AcDbSavedByObjectVersion
1070
     0
  0
ACAD_PROXY_OBJECT
  5
19DF4
102
{ACAD_REACTORS
330
19DE5
102
}
330
19DE5
100
AcDbZombieObject
 90
      499
 91
      510
 93
      444
310
42D19858D95C185D1D195C9B90F409028333333333333E3BF0000000000000FB010790141107004050150841D405064090741402480A0350
1001
ACAD
1000
AcDbSavedByObjectVersion
1070
     0
  0
ACAD_PROXY_OBJECT
  5
19DE6
102
{ACAD_REACTORS
330
19DE5
102
}
330
19DE5
100
AcDbZombieObject
 90
      499
 91
      510
 93
      388
310
41119B185D240901404333333333333E3BF0000000000000F9010740A41107004050150841D405064090741402480A1B50
1001
ACAD
1000
AcDbSavedByObjectVersion
1070
     0
  0
ACAD_PROXY_OBJECT
  5
19DE7
102
{ACAD_REACTORS
330
19DE5
102
}
330
19DE5
100
AcDbZombieObject
 90
      499
 91
      510
 93
      476
310
43519B185D15DA5D1A115919D95CD0140901404333333333333E3BF0000000000000F9010740901411070040501600405405064090741402480A1B50
1001
ACAD
1000
AcDbSavedByObjectVersion
1070
     0
  0
ACAD_PROXY_OBJECT
  5
19DE8
102
{ACAD_REACTORS
330
19DE5
102
}
330
19DE5
100
AcDbZombieObject
 90
      499
 91
      510
 93
      412
310
41D1DBDD5C985D5910240902404333333333333E3BF0000000000000F9010740A411070040501641D405064090741402480A1B50
1001
ACAD
1000
AcDbSavedByObjectVersion
1070
     0
  0
ACAD_PROXY_OBJECT
  5
19DE9
102
{ACAD_REACTORS
330
19DE5
102
}
330
19DE5
100
AcDbZombieObject
 90
      499
 91
      510
 93
      500
310
4411DBDD5C985D5915DA5D1A115919D95CD0340902404333333333333E3BF0000000000000F9010740901411070040501600405405064090741402480A1B50
1001
ACAD
1000
AcDbSavedByObjectVersion
1070
     0
  0
ACAD_PROXY_OBJECT
  5
1F381
102
{ACAD_REACTORS
330
19DE5
102
}
330
19DE5
100
AcDbZombieObject
 90
      499
 91
      510
 93
      476
310
41921A5919195B90640502408333333333333E3BF0000000000000FB01079024090700405020000000000001110200405405064090740C02480A0340
1001
ACAD
1000
AcDbSavedByObjectVersion
1070
     0
  0
ACAD_PROXY_OBJECT
  5
1E028
102
{ACAD_REACTORS
330
19DE5
102
}
330
19DE5
100
AcDbZombieObject
 90
      499
 91
      510
 93
      428
310
42529A5D1D195C93D999914409028333333333333E3BF0000000000000FB010790141107004050150A41D405064090741402480A0350
1001
ACAD
1000
AcDbSavedByObjectVersion
1070
     0
  0
ACAD_PROXY_OBJECT
  5
19DF3
102
{ACAD_REACTORS
330
19DE5
102
}
330
19DE5
100
AcDbZombieObject
 90
      499
 91
      510
 93
      444
310
42D31A5B995C185D1D195C9B90E409028333333333333E3BF0000000000000FB010790141107004050750841D405064090741402483A0350
1001
ACAD
1000
AcDbSavedByObjectVersion
1070
     0
  0
ACAD_PROXY_OBJECT
  5
1F387
102
{ACAD_REACTORS
330
19DE5
102
}
330
19DE5
100
AcDbZombieObject
 90
      499
 91
      510
 93
      484
310
42135BD9195B1A5B99D0A409028333333333333E3BF0000000000000F901074090290700405010000000000201990108421405064090741402480A1B40
1001
ACAD
1000
AcDbSavedByObjectVersion
1070
     0
  0
ACAD_PROXY_OBJECT
  5
1E029
102
{ACAD_REACTORS
330
19DE5
102
}
330
19DE5
100
AcDbZombieObject
 90
      499
 91
      510
 93
      444
310
42D3DD995C9A185B99D3D999915409028333333333333E3BF0000000000000FB010790141107004050150941D405064090741402480A0350
1001
ACAD
1000
AcDbSavedByObjectVersion
1070
     0
  0
ACAD_PROXY_OBJECT
  5
19DEF
102
{ACAD_REACTORS
330
19DE5
102
}
330
19DE5
100
AcDbZombieObject
 90
      499
 91
      510
 93
      420
310
425499585B1A5CDD1A58D08409028333333333333E3BF0000000000000FB01079019070040501508421405064090741402480A1B40
1001
ACAD
1000
AcDbSavedByObjectVersion
1070
     0
  0
ACAD_PROXY_OBJECT
  5
1F386
102
{ACAD_REACTORS
330
19DE5
102
}
330
19DE5
100
AcDbZombieObject
 90
      499
 91
      510
 93
      420
310
4194DA1859195911B40902404333333333333E3BF0000000000000F9010740A41107004050150800405405064090840C02480A0B40
1001
ACAD
1000
AcDbSavedByObjectVersion
1070
     0
  0
ACAD_PROXY_OBJECT
  5
1F385
102
{ACAD_REACTORS
330
19DE5
102
}
330
19DE5
100
AcDbZombieObject
 90
      499
 91
      510
 93
      516
310
4454DA18591959081DDA5D1A08195919D95CD1A40902404333333333333E3BF0000000000000F901074090142907004050250800405405064090740C02480A0B40
1001
ACAD
1000
AcDbSavedByObjectVersion
1070
     0
  0
ACAD_PROXY_OBJECT
  5
1F382
102
{ACAD_REACTORS
330
19DE5
102
}
330
19DE5
100
AcDbZombieObject
 90
      499
 91
      510
 93
      532
310
4394DA1859195CC81BD98811DC985E5174090240C333333333333E3BF0000000000000FB01079024090741D01000000000000111010841D405064090740C02480A0340
1001
ACAD
1000
AcDbSavedByObjectVersion
1070
     0
  0
ACAD_PROXY_OBJECT
  5
1F383
102
{ACAD_REACTORS
330
19DE5
102
}
330
19DE5
100
AcDbZombieObject
 90
      499
 91
      510
 93
      476
310
41D4DAD95D18DA1E51840502408333333333333E3BF0000000000000FB01079024090741D01000000000000111010B41D405064090741802480A0340
1001
ACAD
1000
AcDbSavedByObjectVersion
1070
     0
  0
ACAD_PROXY_OBJECT
  5
19DF2
102
{ACAD_REACTORS
330
19DE5
102
}
330
19DE5
100
AcDbZombieObject
 90
      499
 91
      510
 93
      412
310
41D51A1A58DAD95B90D409028333333333333E3BF0000000000000FB010790141107004050150C41D405064090741402480A0350
1001
ACAD
1000
AcDbSavedByObjectVersion
1070
     0
  0
ACAD_PROXY_OBJECT
  5
1F380
102
{ACAD_REACTORS
330
19DE5
102
}
330
19DE5
100
AcDbZombieObject
 90
      499
 91
      510
 93
      420
310
4255DA5C99599C985B595059028333333333333E3BF0000000000000FB0107901411070040501600405405064090740C02480A0340
1001
ACAD
1000
AcDbSavedByObjectVersion
1070
     0
  0
ACAD_PROXY_OBJECT
  5
1F384
102
{ACAD_REACTORS
330
19DE5
102
}
330
19DE5
100
AcDbZombieObject
 90
      499
 91
      510
 93
      404
310
41560B54985E51940902404000000000000E03F0000000000000FB010740501907004050150841D405064090740C02480A1B40
1001
ACAD
1000
AcDbSavedByObjectVersion
1070
     0
  0
XRECORD
  5
22088
102
{ACAD_REACTORS
330
22087
102
}
330
22087
100
AcDbXrecord
340
2D0
  0
XRECORD
  5
22089
102
{ACAD_REACTORS
330
22087
102
}
330
22087
100
AcDbXrecord
340
2CF
  0
DICTIONARYVAR
  5
20A45
102
{ACAD_REACTORS
330
37
102
}
330
37
100
DictionaryVariables
280
     0
  1
1:1
  0
DICTIONARYVAR
  5
1AC19
102
{ACAD_REACTORS
330
37
102
}
330
37
100
DictionaryVariables
280
     0
  1
Standard
  0
DICTIONARYVAR
  5
4F1
102
{ACAD_REACTORS
330
37
102
}
330
37
100
DictionaryVariables
280
     0
  1
Standard
  0
DICTIONARYVAR
  5
38
102
{ACAD_REACTORS
330
37
102
}
330
37
100
DictionaryVariables
280
     0
  1
-1
  0
DICTIONARYVAR
  5
408
102
{ACAD_REACTORS
330
37
102
}
330
37
100
DictionaryVariables
280
     0
  1
2
  0
DICTIONARYVAR
  5
1891
102
{ACAD_REACTORS
330
37
102
}
330
37
100
DictionaryVariables
280
     0
  1
1
  0
DICTIONARYVAR
  5
1AC1C
102
{ACAD_REACTORS
330
37
102
}
330
37
100
DictionaryVariables
280
     0
  1
0
  0
DICTIONARYVAR
  5
1895
102
{ACAD_REACTORS
330
37
102
}
330
37
100
DictionaryVariables
280
     0
  1
8
  0
DICTIONARYVAR
  5
1894
102
{ACAD_REACTORS
330
37
102
}
330
37
100
DictionaryVariables
280
     0
  1
1
  0
DICTIONARYVAR
  5
20A9B
102
{ACAD_REACTORS
330
37
102
}
330
37
100
DictionaryVariables
280
     0
  1
0
  0
DICTIONARYVAR
  5
1892
102
{ACAD_REACTORS
330
37
102
}
330
37
100
DictionaryVariables
280
     0
  1
8
  0
DICTIONARYVAR
  5
1893
102
{ACAD_REACTORS
330
37
102
}
330
37
100
DictionaryVariables
280
     0
  1
2
  0
DICTIONARYVAR
  5
409
102
{ACAD_REACTORS
330
37
102
}
330
37
100
DictionaryVariables
280
     0
  1

  0
DICTIONARYVAR
  5
1AC1B
102
{ACAD_REACTORS
330
37
102
}
330
37
100
DictionaryVariables
280
     0
  1
127
  0
DICTIONARYVAR
  5
21D6E
102
{ACAD_REACTORS
330
37
102
}
330
37
100
DictionaryVariables
280
     0
  1
2
  0
DICTIONARY
  5
22225
330
19DD5
100
AcDbDictionary
  3
ACAD_XREC_ROUNDTRIP
360
22226
1001
ACAD
1000
TREAT_AS_HARD
1070
     1
  0
DICTIONARY
  5
22227
330
19DCD
100
AcDbDictionary
  3
ACAD_XREC_ROUNDTRIP
360
22228
1001
ACAD
1000
TREAT_AS_HARD
1070
     1
  0
DICTIONARY
  5
22229
330
19DDD
100
AcDbDictionary
  3
ACAD_XREC_ROUNDTRIP
360
2222A
1001
ACAD
1000
TREAT_AS_HARD
1070
     1
  0
XRECORD
  5
22226
102
{ACAD_REACTORS
330
22225
102
}
330
22225
100
AcDbXrecord
102
MATERIAL
148
0.0
149
0.0
149
0.0
 93
        0
 94
      127
282
     0
 72
     0
 77
     0
171
     0
175
     0
179
     0
273
     0
  0
XRECORD
  5
22228
102
{ACAD_REACTORS
330
22227
102
}
330
22227
100
AcDbXrecord
102
MATERIAL
148
0.0
149
0.0
149
0.0
 93
        0
 94
      127
282
     0
 72
     0
 77
     0
171
     0
175
     0
179
     0
273
     0
  0
XRECORD
  5
2222A
102
{ACAD_REACTORS
330
22229
102
}
330
22229
100
AcDbXrecord
102
MATERIAL
148
0.0
149
0.0
149
0.0
 93
        0
 94
      127
282
     0
 72
     0
 77
     0
171
     0
175
     0
179
     0
273
     0
  0
ENDSEC
  0
EOF
