  0
SECTION
  2
HEADER
  9
$ACADVER
  1
AC1012
  9
$DWGCODEPAGE
  3
ansi_932
  9
$INSBASE
 10
0.0
 20
0.0
 30
0.0
  9
$EXTMIN
 10
1772.719419574566
 20
-579.1461671284858
 30
0.0
  9
$EXTMAX
 10
2122.091035861675
 20
-360.735772255416
 30
0.0
  9
$LIMMIN
 10
0.0
 20
0.0
  9
$LIMMAX
 10
420.0
 20
297.0
  9
$ORTHOMODE
 70
     0
  9
$REGENMODE
 70
     1
  9
$FILLMODE
 70
     1
  9
$QTEXTMODE
 70
     0
  9
$MIRRTEXT
 70
     0
  9
$DRAGMODE
 70
     2
  9
$LTSCALE
 40
0.5
  9
$OSMODE
 70
  2175
  9
$ATTMODE
 70
     1
  9
$TEXTSIZE
 40
4.0
  9
$TRACEWID
 40
1.0
  9
$TEXTSTYLE
  7
STANDARD
  9
$CLAYER
  8
1TEXT
  9
$CELTYPE
  6
BYLAYER
  9
$CECOLOR
 62
   256
  9
$CELTSCALE
 40
1.0
  9
$DELOBJ
 70
     1
  9
$DISPSILH
 70
     0
  9
$DIMSCALE
 40
1.0
  9
$DIMASZ
 40
2.0
  9
$DIMEXO
 40
0.0
  9
$DIMDLI
 40
7.0
  9
$DIMRND
 40
0.0
  9
$DIMDLE
 40
0.0
  9
$DIMEXE
 40
1.0
  9
$DIMTP
 40
0.0
  9
$DIMTM
 40
0.0
  9
$DIMTXT
 40
3.5
  9
$DIMCEN
 40
0.0
  9
$DIMTSZ
 40
0.0
  9
$DIMTOL
 70
     0
  9
$DIMLIM
 70
     0
  9
$DIMTIH
 70
     0
  9
$DIMTOH
 70
     0
  9
$DIMSE1
 70
     0
  9
$DIMSE2
 70
     0
  9
$DIMTAD
 70
     1
  9
$DIMZIN
 70
     8
  9
$DIMBLK
  1

  9
$DIMASO
 70
     1
  9
$DIMSHO
 70
     1
  9
$DIMPOST
  1
 
  9
$DIMAPOST
  1

  9
$DIMALT
 70
     0
  9
$DIMALTD
 70
     2
  9
$DIMALTF
 40
25.4
  9
$DIMLFAC
 40
1.0
  9
$DIMTOFL
 70
     1
  9
$DIMTVP
 40
0.0
  9
$DIMTIX
 70
     0
  9
$DIMSOXD
 70
     0
  9
$DIMSAH
 70
     1
  9
$DIMBLK1
  1
OPEN30
  9
$DIMBLK2
  1
OPEN30
  9
$DIMSTYLE
  2
NEWX10
  9
$DIMCLRD
 70
   256
  9
$DIMCLRE
 70
   256
  9
$DIMCLRT
 70
   201
  9
$DIMTFAC
 40
0.7
  9
$DIMGAP
 40
0.7
  9
$DIMJUST
 70
     0
  9
$DIMSD1
 70
     0
  9
$DIMSD2
 70
     0
  9
$DIMTOLJ
 70
     1
  9
$DIMTZIN
 70
     8
  9
$DIMALTZ
 70
     0
  9
$DIMALTTZ
 70
     0
  9
$DIMFIT
 70
     2
  9
$DIMUPT
 70
     0
  9
$DIMUNIT
 70
     2
  9
$DIMDEC
 70
     2
  9
$DIMTDEC
 70
     4
  9
$DIMALTU
 70
     2
  9
$DIMALTTD
 70
     2
  9
$DIMTXSTY
  7
STANDARD
  9
$DIMAUNIT
 70
     0
  9
$LUNITS
 70
     2
  9
$LUPREC
 70
     4
  9
$SKETCHINC
 40
1.0
  9
$FILLETRAD
 40
0.0
  9
$AUNITS
 70
     0
  9
$AUPREC
 70
     2
  9
$MENU
  1
acad
  9
$ELEVATION
 40
0.0
  9
$PELEVATION
 40
0.0
  9
$THICKNESS
 40
0.0
  9
$LIMCHECK
 70
     0
  9
$CHAMFERA
 40
1.0
  9
$CHAMFERB
 40
1.0
  9
$CHAMFERC
 40
20.0
  9
$CHAMFERD
 40
0.0
  9
$SKPOLY
 70
     0
  9
$TDCREATE
 40
2453033.732663484
  9
$TDUPDATE
 40
2458597.369547419
  9
$TDINDWG
 40
2.3994597222
  9
$TDUSRTIMER
 40
2.3994597222
  9
$USRTIMER
 70
     1
  9
$ANGBASE
 50
0.0
  9
$ANGDIR
 70
     0
  9
$PDMODE
 70
     0
  9
$PDSIZE
 40
0.0
  9
$PLINEWID
 40
0.0
  9
$COORDS
 70
     2
  9
$SPLFRAME
 70
     0
  9
$SPLINETYPE
 70
     6
  9
$SPLINESEGS
 70
     8
  9
$ATTDIA
 70
     0
  9
$ATTREQ
 70
     1
  9
$HANDLING
 70
     1
  9
$HANDSEED
  5
21C33
  9
$SURFTAB1
 70
     6
  9
$SURFTAB2
 70
     6
  9
$SURFTYPE
 70
     6
  9
$SURFU
 70
     6
  9
$SURFV
 70
     6
  9
$UCSNAME
  2

  9
$UCSORG
 10
0.0
 20
0.0
 30
0.0
  9
$UCSXDIR
 10
1.0
 20
0.0
 30
0.0
  9
$UCSYDIR
 10
0.0
 20
1.0
 30
0.0
  9
$PUCSNAME
  2

  9
$PUCSORG
 10
0.0
 20
0.0
 30
0.0
  9
$PUCSXDIR
 10
1.0
 20
0.0
 30
0.0
  9
$PUCSYDIR
 10
0.0
 20
1.0
 30
0.0
  9
$USERI1
 70
     0
  9
$USERI2
 70
     0
  9
$USERI3
 70
     0
  9
$USERI4
 70
     0
  9
$USERI5
 70
     0
  9
$USERR1
 40
0.0
  9
$USERR2
 40
0.0
  9
$USERR3
 40
0.0
  9
$USERR4
 40
0.0
  9
$USERR5
 40
0.0
  9
$WORLDVIEW
 70
     1
  9
$SHADEDGE
 70
     3
  9
$SHADEDIF
 70
    70
  9
$TILEMODE
 70
     1
  9
$MAXACTVP
 70
    48
  9
$PINSBASE
 10
0.0
 20
0.0
 30
0.0
  9
$PLIMCHECK
 70
     0
  9
$PEXTMIN
 10
1.000000000000000E+20
 20
1.000000000000000E+20
 30
1.000000000000000E+20
  9
$PEXTMAX
 10
-1.000000000000000E+20
 20
-1.000000000000000E+20
 30
-1.000000000000000E+20
  9
$PLIMMIN
 10
0.0
 20
0.0
  9
$PLIMMAX
 10
420.0
 20
297.0
  9
$UNITMODE
 70
     0
  9
$VISRETAIN
 70
     1
  9
$PLINEGEN
 70
     0
  9
$PSLTSCALE
 70
     1
  9
$TREEDEPTH
 70
  3020
  9
$PICKSTYLE
 70
     1
  9
$CMLSTYLE
  2
STANDARD
  9
$CMLJUST
 70
     0
  9
$CMLSCALE
 40
20.0
  9
$SAVEIMAGES
 70
     1
  0
ENDSEC
  0
SECTION
  2
CLASSES
  0
CLASS
  1
DICTIONARYVAR
  2
AcDbDictionaryVar
  3
ObjectDBX Classes
 90
        0
280
     0
281
     0
  0
CLASS
  1
IDBUFFER
  2
AcDbIdBuffer
  3
ObjectDBX Classes
 90
    32768
280
     0
281
     0
  0
CLASS
  1
LWPOLYLINE
  2
AcDbPolyline
  3
ObjectDBX Classes
 90
    32768
280
     0
281
     1
  0
CLASS
  1
ACDBDICTIONARYWDFLT
  2
AcDbDictionaryWithDefault
  3
ObjectDBX Classes
 90
    32768
280
     0
281
     0
  0
CLASS
  1
ACDBPLACEHOLDER
  2
AcDbPlaceHolder
  3
ObjectDBX Classes
 90
        0
280
     0
281
     0
  0
CLASS
  1
LAYOUT
  2
AcDbLayout
  3
ObjectDBX Classes
 90
        0
280
     0
281
     0
  0
CLASS
  1
TABLESTYLE
  2
AcDbTableStyle
  3
ObjectDBX Classes
 90
     4095
280
     0
281
     0
  0
CLASS
  1
SORTENTSTABLE
  2
AcDbSortentsTable
  3
ObjectDBX Classes
 90
    32768
280
     0
281
     0
  0
CLASS
  1
DIMASSOC
  2
AcDbDimAssoc
  3
"AcDbDimAssoc|Product Desc:     AcDim ARX App For Dimension|Company:          Autodesk, Inc.|WEB Address:      www.autodesk.com"
 90
        0
280
     0
281
     0
  0
CLASS
  1
MATERIAL
  2
AcDbMaterial
  3
ObjectDBX Classes
 90
     1153
280
     0
281
     0
  0
CLASS
  1
VISUALSTYLE
  2
AcDbVisualStyle
  3
ObjectDBX Classes
 90
     4095
280
     0
281
     0
  0
CLASS
  1
SCALE
  2
AcDbScale
  3
ObjectDBX Classes
 90
     1153
280
     0
281
     0
  0
CLASS
  1
MLEADERSTYLE
  2
AcDbMLeaderStyle
  3
ACDB_MLEADERSTYLE_CLASS
 90
     4095
280
     0
281
     0
  0
CLASS
  1
CELLSTYLEMAP
  2
AcDbCellStyleMap
  3
ObjectDBX Classes
 90
     1152
280
     0
281
     0
  0
CLASS
  1
EXACXREFPANELOBJECT
  2
ExAcXREFPanelObject
  3
EXAC_ESW
 90
     1025
280
     1
281
     0
  0
CLASS
  1
NPOCOLLECTION
  2
AcDbImpNonPersistentObjectsCollection
  3
ObjectDBX Classes
 90
     1153
280
     1
281
     0
  0
CLASS
  1
SUN
  2
AcDbSun
  3
SCENEOE
 90
     1153
280
     0
281
     0
  0
CLASS
  1
XRECORD
  2
AcDbXrecord
  3
ObjectDBX Classes
 90
    32768
280
     0
281
     0
  0
CLASS
  1
HATCH
  2
AcDbHatch
  3
ObjectDBX Classes
 90
    32768
280
     0
281
     1
  0
ENDSEC
  0
SECTION
  2
TABLES
  0
TABLE
  2
VPORT
  5
8
330
0
100
AcDbSymbolTable
 70
     1
  0
VPORT
  5
19DC2
330
8
100
AcDbSymbolTableRecord
100
AcDbViewportTableRecord
  2
*ACTIVE
 70
     0
 10
0.0
 20
0.0
 11
1.0
 21
1.0
 12
1947.40522771812
 22
-469.9409696919509
 13
0.0
 23
0.0
 14
10.0
 24
10.0
 15
10.0
 25
10.0
 16
0.0
 26
0.0
 36
1.0
 17
0.0
 27
0.0
 37
0.0
 40
234.5037923900328
 41
1.803066037735849
 42
50.0
 43
0.0
 44
0.0
 50
0.0
 51
0.0
 71
    16
 72
   100
 73
     1
 74
     1
 75
     0
 76
     0
 77
     0
 78
     0
1001
ACAD_NAV_VCDISPLAY
1070
     3
  0
ENDTAB
  0
TABLE
  2
LTYPE
  5
5
330
0
100
AcDbSymbolTable
 70
     3
  0
LTYPE
  5
12
330
5
100
AcDbSymbolTableRecord
100
AcDbLinetypeTableRecord
  2
BYBLOCK
 70
     0
  3

 72
    65
 73
     0
 40
0.0
  0
LTYPE
  5
13
330
5
100
AcDbSymbolTableRecord
100
AcDbLinetypeTableRecord
  2
BYLAYER
 70
     0
  3

 72
    65
 73
     0
 40
0.0
  0
LTYPE
  5
14
330
5
100
AcDbSymbolTableRecord
100
AcDbLinetypeTableRecord
  2
CONTINUOUS
 70
     0
  3
Solid line
 72
    65
 73
     0
 40
0.0
  0
LTYPE
  5
26
330
5
100
AcDbSymbolTableRecord
100
AcDbLinetypeTableRecord
  2
CENTER2
 70
     0
  3
Center (.5x) ___ _ ___ _ ___ _ ___ _ ___ _ ___
 72
    65
 73
     4
 40
28.575
 49
19.05
 74
     0
 49
-3.175
 74
     0
 49
3.175
 74
     0
 49
-3.175
 74
     0
  0
LTYPE
  5
100
330
5
100
AcDbSymbolTableRecord
100
AcDbLinetypeTableRecord
  2
PHANTOM2
 70
     0
  3
Phantom (0.5x) ___ _ _ ___ _ _ ___ _ _ ___ _ _
 72
    65
 73
     6
 40
31.75
 49
15.875
 74
     0
 49
-3.175
 74
     0
 49
3.175
 74
     0
 49
-3.175
 74
     0
 49
3.175
 74
     0
 49
-3.175
 74
     0
  0
ENDTAB
  0
TABLE
  2
LAYER
  5
2
102
{ACAD_XDICTIONARY
360
18FE8
102
}
330
0
100
AcDbSymbolTable
 70
     6
  0
LAYER
  5
E
102
{ACAD_XDICTIONARY
360
1A20A
102
}
330
2
100
AcDbSymbolTableRecord
100
AcDbLayerTableRecord
  2
0
 70
     0
 62
     7
  6
CONTINUOUS
  0
LAYER
  5
29
102
{ACAD_XDICTIONARY
360
1A20C
102
}
330
2
100
AcDbSymbolTableRecord
100
AcDbLayerTableRecord
  2
1CENTER
 70
     0
 62
     7
  6
CENTER2
  0
LAYER
  5
31
102
{ACAD_XDICTIONARY
360
1A20E
102
}
330
2
100
AcDbSymbolTableRecord
100
AcDbLayerTableRecord
  2
1TEXT
 70
     0
 62
     7
  6
CONTINUOUS
  0
LAYER
  5
101
102
{ACAD_XDICTIONARY
360
1A218
102
}
330
2
100
AcDbSymbolTableRecord
100
AcDbLayerTableRecord
  2
1DIM
 70
     0
 62
     7
  6
CONTINUOUS
  0
LAYER
  5
103
102
{ACAD_XDICTIONARY
360
1A21C
102
}
330
2
100
AcDbSymbolTableRecord
100
AcDbLayerTableRecord
  2
1PHANTOM
 70
     0
 62
     7
  6
PHANTOM2
  0
LAYER
  5
25F
102
{ACAD_XDICTIONARY
360
1A220
102
}
330
2
100
AcDbSymbolTableRecord
100
AcDbLayerTableRecord
  2
01
 70
     0
 62
     1
  6
CONTINUOUS
  0
ENDTAB
  0
TABLE
  2
STYLE
  5
3
330
0
100
AcDbSymbolTable
 70
     1
  0
STYLE
  5
F
330
3
100
AcDbSymbolTableRecord
100
AcDbTextStyleTableRecord
  2
STANDARD
 70
     0
 40
0.0
 41
1.0
 50
0.0
 71
     0
 42
4.0
  3
txt.shx
  4
extfont.shx
  0
ENDTAB
  0
TABLE
  2
VIEW
  5
6
330
0
100
AcDbSymbolTable
 70
     0
  0
ENDTAB
  0
TABLE
  2
UCS
  5
7
330
0
100
AcDbSymbolTable
 70
     0
  0
ENDTAB
  0
TABLE
  2
APPID
  5
9
330
0
100
AcDbSymbolTable
 70
    20
  0
APPID
  5
10
330
9
100
AcDbSymbolTableRecord
100
AcDbRegAppTableRecord
  2
ACAD
 70
     0
  0
APPID
  5
21
330
9
100
AcDbSymbolTableRecord
100
AcDbRegAppTableRecord
  2
DRAWINGVARIABLESXDATA
 70
     0
  0
APPID
  5
64
330
9
100
AcDbSymbolTableRecord
100
AcDbRegAppTableRecord
  2
CONTENTTABDATA
 70
     0
  0
APPID
  5
65
330
9
100
AcDbSymbolTableRecord
100
AcDbRegAppTableRecord
  2
CONTENTCURRENTTAB
 70
     0
  0
APPID
  5
66
330
9
100
AcDbSymbolTableRecord
100
AcDbRegAppTableRecord
  2
CONTENTBLOCKDESCRIPTION
 70
     0
  0
APPID
  5
67
330
9
100
AcDbSymbolTableRecord
100
AcDbRegAppTableRecord
  2
CONTENTBLOCKICON
 70
     0
  0
APPID
  5
68
330
9
100
AcDbSymbolTableRecord
100
AcDbRegAppTableRecord
  2
CONTENTLONGBLOCKNAME
 70
     0
  0
APPID
  5
5A9
330
9
100
AcDbSymbolTableRecord
100
AcDbRegAppTableRecord
  2
ACAD_PSEXT
 70
     0
  0
APPID
  5
18AC
330
9
100
AcDbSymbolTableRecord
100
AcDbRegAppTableRecord
  2
ACAD_DSTYLE_DIMTEXT_FILL
 70
     0
  0
APPID
  5
19E1A
330
9
100
AcDbSymbolTableRecord
100
AcDbRegAppTableRecord
  2
ACAD_MLEADERVER
 70
     0
  0
APPID
  5
1A2FA
330
9
100
AcDbSymbolTableRecord
100
AcDbRegAppTableRecord
  2
ACAD_DSTYLE_DIMRADIAL_EXTE
 70
     0
  0
APPID
  5
1DBC1
330
9
100
AcDbSymbolTableRecord
100
AcDbRegAppTableRecord
  2
ACADANNOTATIVE
 70
     0
  0
APPID
  5
1E991
330
9
100
AcDbSymbolTableRecord
100
AcDbRegAppTableRecord
  2
ACAD_EXEMPT_FROM_CAD_STAND
 70
     0
  0
APPID
  5
1F584
330
9
100
AcDbSymbolTableRecord
100
AcDbRegAppTableRecord
  2
ACDBBLOCKREPETAG
 70
     0
  0
APPID
  5
1FE5A
330
9
100
AcDbSymbolTableRecord
100
AcDbRegAppTableRecord
  2
ACAD_OBJECT_CHANGE_GUID
 70
     0
  0
APPID
  5
1FEE4
330
9
100
AcDbSymbolTableRecord
100
AcDbRegAppTableRecord
  2
ACAD_NAV_VCDISPLAY
 70
     0
  0
APPID
  5
1FF60
330
9
100
AcDbSymbolTableRecord
100
AcDbRegAppTableRecord
  2
ACLAYERTOOLS
 70
     0
  0
APPID
  5
1FF61
330
9
100
AcDbSymbolTableRecord
100
AcDbRegAppTableRecord
  2
ACAD_SPLINE_DATA
 70
     0
  0
APPID
  5
1FF62
330
9
100
AcDbSymbolTableRecord
100
AcDbRegAppTableRecord
  2
GRADIENTCOLOR1ACI
 70
     0
  0
APPID
  5
1FF63
330
9
100
AcDbSymbolTableRecord
100
AcDbRegAppTableRecord
  2
GRADIENTCOLOR2ACI
 70
     0
  0
ENDTAB
  0
TABLE
  2
DIMSTYLE
  5
A
330
0
100
AcDbSymbolTable
 70
     1
  0
DIMSTYLE
105
48
330
A
100
AcDbSymbolTableRecord
100
AcDbDimStyleTableRecord
  2
NEWX10
 70
     0
  3
 
  4

  5

  6
OPEN30
  7
OPEN30
 40
1.0
 41
2.0
 42
0.0
 43
7.0
 44
1.0
 45
0.0
 46
0.0
 47
0.0
 48
0.0
140
3.5
141
0.0
142
0.0
143
25.4
144
1.0
145
0.0
146
0.7
147
0.7
 71
     0
 72
     0
 73
     0
 74
     0
 75
     0
 76
     0
 77
     1
 78
     8
170
     0
171
     2
172
     1
173
     1
174
     0
175
     0
176
   256
177
   256
178
   201
179
     2
270
     2
271
     2
272
     4
273
     2
274
     2
340
F
275
     0
280
     0
281
     0
282
     0
283
     1
284
     8
285
     0
286
     0
287
     2
288
     0
  0
ENDTAB
  0
TABLE
  2
BLOCK_RECORD
  5
1
330
0
100
AcDbSymbolTable
 70
     8
  0
BLOCK_RECORD
  5
18
102
{ACAD_XDICTIONARY
360
6E9
102
}
330
1
100
AcDbSymbolTableRecord
100
AcDbBlockTableRecord
  2
*MODEL_SPACE
  0
BLOCK_RECORD
  5
15
102
{ACAD_XDICTIONARY
360
59B
102
}
330
1
100
AcDbSymbolTableRecord
100
AcDbBlockTableRecord
  2
*PAPER_SPACE
  0
BLOCK_RECORD
  5
42
330
1
100
AcDbSymbolTableRecord
100
AcDbBlockTableRecord
  2
_OPEN30
  0
BLOCK_RECORD
  5
1F5D3
330
1
100
AcDbSymbolTableRecord
100
AcDbBlockTableRecord
  2
A3WAKUKAWAJUN2017_HYOUDAI_
  0
BLOCK_RECORD
  5
21A93
330
1
100
AcDbSymbolTableRecord
100
AcDbBlockTableRecord
  2
*X44
  0
BLOCK_RECORD
  5
21AE1
330
1
100
AcDbSymbolTableRecord
100
AcDbBlockTableRecord
  2
*X45
  0
BLOCK_RECORD
  5
21B33
330
1
100
AcDbSymbolTableRecord
100
AcDbBlockTableRecord
  2
*X46
  0
BLOCK_RECORD
  5
21B84
330
1
100
AcDbSymbolTableRecord
100
AcDbBlockTableRecord
  2
*X47
  0
BLOCK_RECORD
  5
21BC1
330
1
100
AcDbSymbolTableRecord
100
AcDbBlockTableRecord
  2
*X48
  0
BLOCK_RECORD
  5
21C01
330
1
100
AcDbSymbolTableRecord
100
AcDbBlockTableRecord
  2
*X49
  0
ENDTAB
  0
ENDSEC
  0
SECTION
  2
BLOCKS
  0
BLOCK
  5
19
330
18
100
AcDbEntity
  8
0
100
AcDbBlockBegin
  2
*MODEL_SPACE
 70
     0
 10
0.0
 20
0.0
 30
0.0
  3
*MODEL_SPACE
  1

  0
ENDBLK
  5
1A
330
18
100
AcDbEntity
  8
0
100
AcDbBlockEnd
  0
BLOCK
  5
16
330
15
100
AcDbEntity
 67
     1
  8
0
100
AcDbBlockBegin
  2
*PAPER_SPACE
 70
     0
 10
0.0
 20
0.0
 30
0.0
  3
*PAPER_SPACE
  1

  0
ENDBLK
  5
17
330
15
100
AcDbEntity
 67
     1
  8
0
100
AcDbBlockEnd
  0
BLOCK
  5
43
330
42
100
AcDbEntity
  8
0
100
AcDbBlockBegin
  2
_OPEN30
 70
     0
 10
0.0
 20
0.0
 30
0.0
  3
_OPEN30
  1

  0
LINE
  5
44
330
42
100
AcDbEntity
  8
0
  6
BYBLOCK
 62
     0
100
AcDbLine
 10
-1.0
 20
0.26794919
 30
0.0
 11
0.0
 21
0.0
 31
0.0
  0
LINE
  5
45
330
42
100
AcDbEntity
  8
0
  6
BYBLOCK
 62
     0
100
AcDbLine
 10
0.0
 20
0.0
 30
0.0
 11
-1.0
 21
-0.26794919
 31
0.0
  0
LINE
  5
46
330
42
100
AcDbEntity
  8
0
  6
BYBLOCK
 62
     0
100
AcDbLine
 10
0.0
 20
0.0
 30
0.0
 11
-1.0
 21
0.0
 31
0.0
  0
ENDBLK
  5
47
330
42
100
AcDbEntity
  8
0
100
AcDbBlockEnd
  0
BLOCK
  5
1FCDF
330
1F5D3
100
AcDbEntity
  8
0
100
AcDbBlockBegin
  2
A3WAKUKAWAJUN2017_HYOUDAI_
 70
     0
 10
0.0
 20
0.0
 30
0.0
  3
A3WAKUKAWAJUN2017_HYOUDAI_
  1

  0
LINE
  5
1F5D5
330
1F5D3
100
AcDbEntity
  8
0
100
AcDbLine
 10
13.26299999998673
 20
-0.0001000000000317
 30
0.0
 11
9.236999999990758
 21
8.999899999990987
 31
0.0
1001
ACAD
1000
ASC_BOUNDS
1002
{
1070
    19
1005
1F616
1002
}
  0
LINE
  5
1F5D6
330
1F5D3
100
AcDbEntity
  8
0
100
AcDbLine
 10
5.657999999994331
 20
0.9999999999989768
 30
0.0
 11
9.236999999990758
 21
8.999999999991019
 31
0.0
1001
ACAD
1000
ASC_BOUNDS
1002
{
1070
    19
1005
1F616
1002
}
  0
LINE
  5
1F5D7
330
1F5D3
100
AcDbEntity
  8
0
100
AcDbLine
 10
18.59199999998134
 20
-0.2368999999997641
 30
0.0
 11
16.46099999998353
 21
5.432899999994561
 31
0.0
1001
ACAD
1000
ASC_BOUNDS
1002
{
1070
    19
1005
1F617
1002
}
  0
LINE
  5
1F5D8
330
1F5D3
100
AcDbEntity
  8
0
100
AcDbLine
 10
18.59199999998134
 20
-0.2368999999997641
 30
0.0
 11
22.38199999997767
 21
8.763099999991255
 31
0.0
1001
ACAD
1000
ASC_BOUNDS
1002
{
1070
    19
1005
1F617
1002
}
  0
LINE
  5
1F5D9
330
1F5D3
100
AcDbEntity
  8
0
100
AcDbLine
 10
14.32899999998563
 20
-0.2368999999997641
 30
0.0
 11
16.46099999998353
 21
5.432899999994561
 31
0.0
1001
ACAD
1000
ASC_BOUNDS
1002
{
1070
    19
1005
1F617
1002
}
  0
LINE
  5
1F5DA
330
1F5D3
100
AcDbEntity
  8
0
100
AcDbLine
 10
14.32899999998563
 20
-0.2368999999997641
 30
0.0
 11
10.53899999998941
 21
8.763099999991255
 31
0.0
1001
ACAD
1000
ASC_BOUNDS
1002
{
1070
    19
1005
1F617
1002
}
  0
LINE
  5
1F5DB
330
1F5D3
100
AcDbEntity
  8
0
100
AcDbLine
 10
19.53899999998043
 20
-0.0001000000000317
 30
0.0
 11
23.56599999997638
 21
8.999899999990987
 31
0.0
1001
ACAD
1000
ASC_BOUNDS
1002
{
1070
    19
1005
1F618
1002
}
  0
LINE
  5
1F5DC
330
1F5D3
100
AcDbEntity
  8
0
100
AcDbLine
 10
26.97358892824991
 20
1.383099999991202
 30
0.0
 11
23.56599999997638
 21
8.999899999990987
 31
0.0
1001
ACAD
1000
ASC_BOUNDS
1002
{
1070
    19
1005
1F618
1002
}
  0
LINE
  5
1F5DD
330
1F5D3
100
AcDbEntity
  8
0
100
AcDbLine
 10
5.657999999994331
 20
0.9999999999989768
 30
0.0
 11
3.181999999996833
 21
4.668599999995308
 31
0.0
1001
ACAD
1000
ASC_BOUNDS
1002
{
1070
    19
1005
1F616
1002
}
  0
LINE
  5
1F5DE
330
1F5D3
100
AcDbEntity
  8
0
100
AcDbLine
 10
4.617999999995391
 20
-0.0001000000000317
 30
0.0
 11
1.420999999998571
 21
4.736799999995242
 31
0.0
1001
ACAD
1000
ASC_BOUNDS
1002
{
1070
    19
1005
1F616
1002
}
  0
LINE
  5
1F5DF
330
1F5D3
100
AcDbEntity
  8
0
100
AcDbLine
 10
1.420999999998571
 20
8.763099999991255
 30
0.0
 11
1.420999999998571
 21
0.0
 31
0.0
1001
ACAD
1000
ASC_BOUNDS
1002
{
1070
    19
1005
1F61B
1002
}
  0
LINE
  5
1F5E0
330
1F5D3
100
AcDbEntity
  8
0
100
AcDbLine
 10
0.0
 20
8.763099999991255
 30
0.0
 11
0.0
 21
0.0
 31
0.0
1001
ACAD
1000
ASC_BOUNDS
1002
{
1070
    19
1005
1F61B
1002
}
  0
LINE
  5
1F5E1
330
1F5D3
100
AcDbEntity
  8
0
100
AcDbLine
 10
6.766999999993232
 20
-0.0001000000000317
 30
0.0
 11
7.826999999992154
 21
2.368399999997621
 31
0.0
1001
ACAD
1000
ASC_BOUNDS
1002
{
1070
    19
1005
1F616
1002
}
  0
LINE
  5
1F5E2
330
1F5D3
100
AcDbEntity
  8
0
100
AcDbLine
 10
0.0
 20
0.0
 30
0.0
 11
1.420999999998571
 21
0.0
 31
0.0
1001
ACAD
1000
ASC_BOUNDS
1002
{
1070
    19
1005
1F61B
1002
}
  0
LINE
  5
1F5E3
330
1F5D3
100
AcDbEntity
  8
0
100
AcDbLine
 10
4.617999999995391
 20
0.0
 30
0.0
 11
6.766999999993232
 21
0.0
 31
0.0
1001
ACAD
1000
ASC_BOUNDS
1002
{
1070
    19
1005
1F616
1002
}
  0
LINE
  5
1F5E4
330
1F5D3
100
AcDbEntity
  8
0
100
AcDbLine
 10
11.70599999998831
 20
-0.0001000000000317
 30
0.0
 11
10.64699999998936
 21
2.368399999997621
 31
0.0
1001
ACAD
1000
ASC_BOUNDS
1002
{
1070
    19
1005
1F616
1002
}
  0
LINE
  5
1F5E5
330
1F5D3
100
AcDbEntity
  8
0
100
AcDbLine
 10
7.826999999992154
 20
2.368399999997621
 30
0.0
 11
10.64699999998936
 21
2.368399999997621
 31
0.0
1001
ACAD
1000
ASC_BOUNDS
1002
{
1070
    19
1005
1F616
1002
}
  0
LINE
  5
1F5E6
330
1F5D3
100
AcDbEntity
  8
0
100
AcDbLine
 10
11.70599999998831
 20
0.0
 30
0.0
 11
13.26299999998673
 21
0.0
 31
0.0
1001
ACAD
1000
ASC_BOUNDS
1002
{
1070
    19
1005
1F616
1002
}
  0
LINE
  5
1F5E7
330
1F5D3
100
AcDbEntity
  8
0
100
AcDbLine
 10
22.15599999997789
 20
2.368399999997621
 30
0.0
 11
24.97599999997499
 21
2.368399999997621
 31
0.0
1001
ACAD
1000
ASC_BOUNDS
1002
{
1070
    19
1005
1F618
1002
}
  0
LINE
  5
1F5E8
330
1F5D3
100
AcDbEntity
  8
0
100
AcDbLine
 10
19.53899999998043
 20
0.0
 30
0.0
 11
21.09599999997886
 21
0.0
 31
0.0
1001
ACAD
1000
ASC_BOUNDS
1002
{
1070
    19
1005
1F618
1002
}
  0
LINE
  5
1F5E9
330
1F5D3
100
AcDbEntity
  8
0
100
AcDbLine
 10
21.09599999997886
 20
-0.0001000000000317
 30
0.0
 11
22.15599999997789
 21
2.368399999997621
 31
0.0
1001
ACAD
1000
ASC_BOUNDS
1002
{
1070
    19
1005
1F618
1002
}
  0
LINE
  5
1F5EA
330
1F5D3
100
AcDbEntity
  8
0
100
AcDbLine
 10
26.02015566812236
 20
0.0330999999912365
 30
0.0
 11
24.97599999997499
 21
2.368399999997621
 31
0.0
1001
ACAD
1000
ASC_BOUNDS
1002
{
1070
    19
1005
1F618
1002
}
  0
LINE
  5
1F5EB
330
1F5D3
100
AcDbEntity
  8
0
100
AcDbLine
 10
14.32399999998563
 20
3.315799999996671
 30
0.0
 11
16.46099999998353
 21
8.999899999990987
 31
0.0
1001
ACAD
1000
ASC_BOUNDS
1002
{
1070
    19
1005
1F617
1002
}
  0
LINE
  5
1F5EC
330
1F5D3
100
AcDbEntity
  8
0
100
AcDbLine
 10
6.432999999993513
 20
8.763099999991255
 30
0.0
 11
3.181999999996833
 21
4.668599999995308
 31
0.0
1001
ACAD
1000
ASC_BOUNDS
1002
{
1070
    19
1005
1F616
1002
}
  0
LINE
  5
1F5ED
330
1F5D3
100
AcDbEntity
  8
0
100
AcDbLine
 10
4.617999999995391
 20
8.763099999991255
 30
0.0
 11
1.420999999998571
 21
4.736799999995242
 31
0.0
1001
ACAD
1000
ASC_BOUNDS
1002
{
1070
    19
1005
1F616
1002
}
  0
LINE
  5
1F5EE
330
1F5D3
100
AcDbEntity
  8
0
100
AcDbLine
 10
0.0
 20
8.763099999991255
 30
0.0
 11
1.420999999998571
 21
8.763099999991255
 31
0.0
1001
ACAD
1000
ASC_BOUNDS
1002
{
1070
    19
1005
1F61B
1002
}
  0
LINE
  5
1F5EF
330
1F5D3
100
AcDbEntity
  8
0
100
AcDbLine
 10
4.617999999995391
 20
8.763099999991255
 30
0.0
 11
6.432999999993513
 21
8.763099999991255
 31
0.0
1001
ACAD
1000
ASC_BOUNDS
1002
{
1070
    19
1005
1F616
1002
}
  0
LINE
  5
1F5F0
330
1F5D3
100
AcDbEntity
  8
0
100
AcDbLine
 10
14.32399999998563
 20
3.315799999996671
 30
0.0
 11
12.02999999998792
 21
8.763099999991255
 31
0.0
1001
ACAD
1000
ASC_BOUNDS
1002
{
1070
    19
1005
1F617
1002
}
  0
LINE
  5
1F5F1
330
1F5D3
100
AcDbEntity
  8
0
100
AcDbLine
 10
10.06399999998996
 20
3.670999999996297
 30
0.0
 11
9.236999999990758
 21
5.5200999999945
 31
0.0
1001
ACAD
1000
ASC_BOUNDS
1002
{
1070
    19
1005
1F616
1002
}
  0
LINE
  5
1F5F2
330
1F5D3
100
AcDbEntity
  8
0
100
AcDbLine
 10
8.409999999991555
 20
3.670999999996297
 30
0.0
 11
9.236999999990758
 21
5.5200999999945
 31
0.0
1001
ACAD
1000
ASC_BOUNDS
1002
{
1070
    19
1005
1F616
1002
}
  0
LINE
  5
1F5F3
330
1F5D3
100
AcDbEntity
  8
0
100
AcDbLine
 10
8.409999999991555
 20
3.670999999996297
 30
0.0
 11
10.06399999998996
 21
3.670999999996297
 31
0.0
1001
ACAD
1000
ASC_BOUNDS
1002
{
1070
    19
1005
1F616
1002
}
  0
LINE
  5
1F5F4
330
1F5D3
100
AcDbEntity
  8
0
100
AcDbLine
 10
10.53899999998941
 20
8.763099999991255
 30
0.0
 11
12.02999999998792
 21
8.763099999991255
 31
0.0
1001
ACAD
1000
ASC_BOUNDS
1002
{
1070
    19
1005
1F617
1002
}
  0
LINE
  5
1F5F5
330
1F5D3
100
AcDbEntity
  8
0
100
AcDbLine
 10
22.7389999999773
 20
3.670999999996297
 30
0.0
 11
23.56599999997638
 21
5.5200999999945
 31
0.0
1001
ACAD
1000
ASC_BOUNDS
1002
{
1070
    19
1005
1F618
1002
}
  0
LINE
  5
1F5F6
330
1F5D3
100
AcDbEntity
  8
0
100
AcDbLine
 10
22.7389999999773
 20
3.670999999996297
 30
0.0
 11
24.39299999997559
 21
3.670999999996297
 31
0.0
1001
ACAD
1000
ASC_BOUNDS
1002
{
1070
    19
1005
1F618
1002
}
  0
LINE
  5
1F5F7
330
1F5D3
100
AcDbEntity
  8
0
100
AcDbLine
 10
18.59799999998143
 20
3.315799999996671
 30
0.0
 11
20.89099999997916
 21
8.763099999991255
 31
0.0
1001
ACAD
1000
ASC_BOUNDS
1002
{
1070
    19
1005
1F617
1002
}
  0
LINE
  5
1F5F8
330
1F5D3
100
AcDbEntity
  8
0
100
AcDbLine
 10
18.59799999998143
 20
3.315799999996671
 30
0.0
 11
16.46099999998353
 21
8.999899999990987
 31
0.0
1001
ACAD
1000
ASC_BOUNDS
1002
{
1070
    19
1005
1F617
1002
}
  0
LINE
  5
1F5F9
330
1F5D3
100
AcDbEntity
  8
0
100
AcDbLine
 10
20.89099999997916
 20
8.763099999991255
 30
0.0
 11
22.38199999997767
 21
8.763099999991255
 31
0.0
1001
ACAD
1000
ASC_BOUNDS
1002
{
1070
    19
1005
1F617
1002
}
  0
LINE
  5
1F5FA
330
1F5D3
100
AcDbEntity
  8
0
100
AcDbLine
 10
24.39299999997559
 20
3.670999999996297
 30
0.0
 11
23.56599999997638
 21
5.5200999999945
 31
0.0
1001
ACAD
1000
ASC_BOUNDS
1002
{
1070
    19
1005
1F618
1002
}
  0
LINE
  5
1F5FB
330
1F5D3
100
AcDbEntity
  8
0
100
AcDbLine
 10
44.99999999995498
 20
-0.2368999999997641
 30
0.0
 11
40.02599999995994
 21
5.341799999994635
 31
0.0
1001
ACAD
1000
ASC_BOUNDS
1002
{
1070
    19
1005
1F61A
1002
}
  0
LINE
  5
1F5FC
330
1F5D3
100
AcDbEntity
  8
0
100
AcDbLine
 10
40.02599999995994
 20
5.341799999994635
 30
0.0
 11
40.02599999995994
 21
0.0
 31
0.0
1001
ACAD
1000
ASC_BOUNDS
1002
{
1070
    19
1005
1F61A
1002
}
  0
LINE
  5
1F5FD
330
1F5D3
100
AcDbEntity
  8
0
100
AcDbLine
 10
38.60499999996136
 20
8.999999999991019
 30
0.0
 11
38.60499999996136
 21
0.0
 31
0.0
1001
ACAD
1000
ASC_BOUNDS
1002
{
1070
    19
1005
1F61A
1002
}
  0
LINE
  5
1F5FE
330
1F5D3
100
AcDbEntity
  8
0
100
AcDbLine
 10
44.99999999995498
 20
8.763099999991255
 30
0.0
 11
44.99999999995498
 21
-0.2368999999997641
 31
0.0
1001
ACAD
1000
ASC_BOUNDS
1002
{
1070
    19
1005
1F61A
1002
}
  0
LINE
  5
1F5FF
330
1F5D3
100
AcDbEntity
  8
0
100
AcDbLine
 10
38.60499999996136
 20
0.0
 30
0.0
 11
40.02599999995994
 21
0.0
 31
0.0
1001
ACAD
1000
ASC_BOUNDS
1002
{
1070
    19
1005
1F61A
1002
}
  0
LINE
  5
1F600
330
1F5D3
100
AcDbEntity
  8
0
100
AcDbLine
 10
43.57899999995641
 20
3.421199999996588
 30
0.0
 11
38.60499999996136
 21
8.999899999990987
 31
0.0
1001
ACAD
1000
ASC_BOUNDS
1002
{
1070
    19
1005
1F61A
1002
}
  0
LINE
  5
1F601
330
1F5D3
100
AcDbEntity
  8
0
100
AcDbLine
 10
43.57899999995641
 20
8.763099999991255
 30
0.0
 11
43.57899999995641
 21
3.421199999996588
 31
0.0
1001
ACAD
1000
ASC_BOUNDS
1002
{
1070
    19
1005
1F61A
1002
}
  0
LINE
  5
1F602
330
1F5D3
100
AcDbEntity
  8
0
100
AcDbLine
 10
43.57899999995641
 20
8.763099999991255
 30
0.0
 11
44.99999999995498
 21
8.763099999991255
 31
0.0
1001
ACAD
1000
ASC_BOUNDS
1002
{
1070
    19
1005
1F61A
1002
}
  0
LINE
  5
1F603
330
1F5D3
100
AcDbEntity
  8
0
100
AcDbLine
 10
37.67199999996831
 20
8.763099999991255
 30
0.0
 11
36.23199999996837
 21
8.763099999991255
 31
0.0
  0
LINE
  5
1F604
330
1F5D3
100
AcDbEntity
  8
0
100
AcDbLine
 10
31.64199999996833
 20
8.763099999991255
 30
0.0
 11
31.64199999996833
 21
2.481619422925121
 31
0.0
  0
LINE
  5
1F605
330
1F5D3
100
AcDbEntity
  8
0
100
AcDbLine
 10
37.67199999996831
 20
8.763099999991255
 30
0.0
 11
37.67199999996831
 21
2.481619422925121
 31
0.0
  0
LINE
  5
1F606
330
1F5D3
100
AcDbEntity
  8
0
100
AcDbLine
 10
36.23199999996837
 20
8.763099999991255
 30
0.0
 11
36.23199999996837
 21
2.481619422925064
 31
0.0
  0
LINE
  5
1F607
330
1F5D3
100
AcDbEntity
  8
0
100
AcDbLine
 10
33.08199999996839
 20
8.763099999991255
 30
0.0
 11
33.08199999996839
 21
2.481619422925121
 31
0.0
  0
ARC
  5
1F608
330
1F5D3
100
AcDbEntity
  8
0
100
AcDbCircle
 10
34.65699999996832
 20
3.183099999991214
 30
0.0
 40
3.420000000000007
100
AcDbArc
 50
240.0000000000255
 51
299.9999999999766
  0
ARC
  5
1F609
330
1F5D3
100
AcDbEntity
  8
0
100
AcDbCircle
 10
34.65699999996832
 20
3.183099999991214
 30
0.0
 40
1.97999999999999
100
AcDbArc
 50
240.000000000026
 51
299.9999999999703
  0
LINE
  5
1F60A
330
1F5D3
100
AcDbEntity
  8
0
100
AcDbLine
 10
33.08199999996828
 20
8.763099999991255
 30
0.0
 11
31.64199999996833
 21
8.763099999991255
 31
0.0
  0
ARC
  5
1F60B
330
1F5D3
100
AcDbEntity
  8
0
100
AcDbCircle
 10
35.06199999996829
 20
2.481619422925064
 30
0.0
 40
1.17
100
AcDbArc
 50
299.9999999999699
 51
0.0
  0
ARC
  5
1F60C
330
1F5D3
100
AcDbEntity
  8
0
100
AcDbCircle
 10
34.25199999996835
 20
2.481619422925121
 30
0.0
 40
1.17
100
AcDbArc
 50
180.0
 51
240.0000000000238
  0
ARC
  5
1F60D
330
1F5D3
100
AcDbEntity
  8
0
100
AcDbCircle
 10
35.06199999996841
 20
2.481619422925121
 30
0.0
 40
2.61
100
AcDbArc
 50
299.9999999999756
 51
0.0
  0
ARC
  5
1F60E
330
1F5D3
100
AcDbEntity
  8
0
100
AcDbCircle
 10
34.25199999996835
 20
2.481619422925121
 30
0.0
 40
2.61
100
AcDbArc
 50
180.0
 51
240.0000000000244
  0
LINE
  5
1F60F
330
1F5D3
100
AcDbEntity
  8
0
100
AcDbLine
 10
29.30199999996933
 20
8.763099999991255
 30
0.0
 11
30.74199999996927
 21
8.763099999991255
 31
0.0
1001
ACAD
1000
ASC_BOUNDS
1002
{
1070
    19
1005
1F618
1002
}
  0
LINE
  5
1F610
330
1F5D3
100
AcDbEntity
  8
0
100
AcDbLine
 10
30.74199999996927
 20
8.763099999991255
 30
0.0
 11
30.74199999996927
 21
2.373099999991211
 31
0.0
1001
ACAD
1000
ASC_BOUNDS
1002
{
1070
    19
1005
1F618
1002
}
  0
LINE
  5
1F611
330
1F5D3
100
AcDbEntity
  8
0
100
AcDbLine
 10
26.02015566812236
 20
0.0330999999912365
 30
0.0
 11
28.40199999996923
 21
0.0330999999912365
 31
0.0
1001
ACAD
1000
ASC_BOUNDS
1002
{
1070
    19
1005
1F618
1002
}
  0
LINE
  5
1F612
330
1F5D3
100
AcDbEntity
  8
0
100
AcDbLine
 10
29.30199999996933
 20
8.763099999991255
 30
0.0
 11
29.30199999996933
 21
2.283099999991236
 31
0.0
1001
ACAD
1000
ASC_BOUNDS
1002
{
1070
    19
1005
1F618
1002
}
  0
LINE
  5
1F613
330
1F5D3
100
AcDbEntity
  8
0
100
AcDbLine
 10
26.97358892824991
 20
1.383099999991202
 30
0.0
 11
28.40199999996923
 21
1.383099999991202
 31
0.0
1001
ACAD
1000
ASC_BOUNDS
1002
{
1070
    19
1005
1F618
1002
}
  0
ARC
  5
1F614
330
1F5D3
100
AcDbEntity
  8
0
100
AcDbCircle
 10
28.40199999996923
 20
2.283099999991236
 30
0.0
 40
0.9
100
AcDbArc
 50
270.0
 51
0.0
1001
ACAD
1000
ASC_BOUNDS
1002
{
1070
    19
1005
1F618
1002
}
  0
ARC
  5
1F615
330
1F5D3
100
AcDbEntity
  8
0
100
AcDbCircle
 10
28.40199999996923
 20
2.373099999991211
 30
0.0
 40
2.34
100
AcDbArc
 50
270.0
 51
0.0
1001
ACAD
1000
ASC_BOUNDS
1002
{
1070
    19
1005
1F618
1002
}
  0
INSERT
  5
1F616
330
1F5D3
100
AcDbEntity
  8
0
100
AcDbBlockReference
  2
*X44
 10
0.0
 20
0.0
 30
0.0
1001
ACAD
1000
HATCH
1002
{
1070
    19
1000
ANSI37
1040
0.15
1040
0.0
1000
ASC_BOUNDS
1070
     2
1070
     2
1070
    12
1005
1F5D5
1005
1F5D6
1005
1F5DD
1005
1F5EC
1005
1F5EF
1005
1F5ED
1005
1F5DE
1005
1F5E3
1005
1F5E1
1005
1F5E5
1005
1F5E4
1005
1F5E6
1070
     2
1070
     3
1005
1F5F1
1005
1F5F3
1005
1F5F2
1000
ASC_SEEDPOINT
1011
3.614004224891801
1021
2.996669441146025
1031
0.0
1000
R14_HATCH_DATA
1000
1F616
1011
1.0
1021
0.0
1031
0.0
1011
0.0
1021
1.0
1031
0.0
1011
0.0
1021
0.0
1031
1.0
1040
0.0
1010
0.0
1020
0.0
1030
1.0
1000
ANSI37
1070
     0
1070
     1
1071
        2
1071
        7
1070
     0
1070
     1
1071
       17
1040
13.26299999998673
1040
-0.0001000000000317
1040
9.236999999990758
1040
8.999899999990987
1040
9.236999999990758
1040
8.999999999991019
1040
5.657999999994331
1040
0.9999999999989768
1040
3.181999999996833
1040
4.668599999995308
1040
6.432999999993513
1040
8.763099999991255
1040
4.617999999995391
1040
8.763099999991255
1040
1.420999999998571
1040
4.736799999995242
1040
4.617999999995391
1040
-0.0001000000000317
1040
4.617999999995391
1040
0.0
1040
6.766999999993232
1040
0.0
1040
6.766999999993232
1040
-0.0001000000000317
1040
7.826999999992154
1040
2.368399999997621
1040
10.64699999998936
1040
2.368399999997621
1040
11.70599999998831
1040
-0.0001000000000317
1040
11.70599999998831
1040
0.0
1040
13.26299999998673
1040
0.0
1071
       12
1005
1F5D5
1005
1F5D6
1005
1F5DD
1005
1F5EC
1005
1F5EF
1005
1F5ED
1005
1F5DE
1005
1F5E3
1005
1F5E1
1005
1F5E5
1005
1F5E4
1005
1F5E6
1071
       22
1070
     0
1070
     1
1071
        3
1040
9.236999999990758
1040
5.5200999999945
1040
10.06399999998996
1040
3.670999999996297
1040
8.409999999991555
1040
3.670999999996297
1071
        3
1005
1F5F1
1005
1F5F3
1005
1F5F2
1070
     0
1070
     1
1040
0.0
1040
0.15
1070
     0
1070
     2
1040
0.7853981633974483
1040
49.29960901727088
1040
-10.17736998311392
1040
-0.3367596045400932
1040
0.3367596045400932
1070
     0
1040
2.356194490192345
1040
49.29960901727088
1040
-10.17736998311392
1040
-0.3367596045400932
1040
-0.3367596045400932
1070
     0
1040
0.0110235143455945
1071
        2
1040
3.614004224891801
1040
2.996669441146025
1040
0.0
1040
3.614004224891801
1040
2.996669441146025
1040
0.0
1002
}
  0
INSERT
  5
1F617
330
1F5D3
100
AcDbEntity
  8
0
100
AcDbBlockReference
  2
*X45
 10
0.0
 20
0.0
 30
0.0
1001
ACAD
1000
HATCH
1002
{
1070
    19
1000
ANSI37
1040
0.15
1040
0.0
1000
ASC_BOUNDS
1070
     1
1070
     2
1070
    10
1005
1F5D7
1005
1F5D8
1005
1F5F9
1005
1F5F7
1005
1F5F8
1005
1F5EB
1005
1F5F0
1005
1F5F4
1005
1F5DA
1005
1F5D9
1000
ASC_SEEDPOINT
1011
14.73245321214324
1021
2.798246178283421
1031
0.0
1000
R14_HATCH_DATA
1000
1F617
1011
1.0
1021
0.0
1031
0.0
1011
0.0
1021
1.0
1031
0.0
1011
0.0
1021
0.0
1031
1.0
1040
0.0
1010
0.0
1020
0.0
1030
1.0
1000
ANSI37
1070
     0
1070
     1
1071
        1
1071
        7
1070
     0
1070
     1
1071
       10
1040
16.46099999998353
1040
5.432899999994561
1040
18.59199999998134
1040
-0.2368999999997641
1040
22.38199999997767
1040
8.763099999991255
1040
20.89099999997916
1040
8.763099999991255
1040
18.59799999998143
1040
3.315799999996671
1040
16.46099999998353
1040
8.999899999990987
1040
14.32399999998563
1040
3.315799999996671
1040
12.02999999998792
1040
8.763099999991255
1040
10.53899999998941
1040
8.763099999991255
1040
14.32899999998563
1040
-0.2368999999997641
1071
       10
1005
1F5D7
1005
1F5D8
1005
1F5F9
1005
1F5F7
1005
1F5F8
1005
1F5EB
1005
1F5F0
1005
1F5F4
1005
1F5DA
1005
1F5D9
1070
     0
1070
     1
1040
0.0
1040
0.15
1070
     0
1070
     2
1040
0.7853981633974483
1040
49.29960901727088
1040
-10.17736998311392
1040
-0.3367596045400932
1040
0.3367596045400932
1070
     0
1040
2.356194490192345
1040
49.29960901727088
1040
-10.17736998311392
1040
-0.3367596045400932
1040
-0.3367596045400932
1070
     0
1040
0.0110235143455945
1071
        1
1040
14.73245321214324
1040
2.798246178283421
1040
0.0
1002
}
  0
INSERT
  5
1F618
330
1F5D3
100
AcDbEntity
  8
0
100
AcDbBlockReference
  2
*X46
 10
0.0
 20
0.0
 30
0.0
1001
ACAD
1000
HATCH
1002
{
1070
    19
1000
ANSI37
1040
0.15
1040
0.0
1000
ASC_BOUNDS
1070
     2
1070
     2
1070
    13
1005
1F5DB
1005
1F5E8
1005
1F5E9
1005
1F5E7
1005
1F5EA
1005
1F611
1005
1F615
1005
1F610
1005
1F60F
1005
1F612
1005
1F614
1005
1F613
1005
1F5DC
1070
     2
1070
     3
1005
1F5F5
1005
1F5FA
1005
1F5F6
1000
ASC_SEEDPOINT
1011
21.97929957367762
1021
3.294304244259308
1031
0.0
1000
R14_HATCH_DATA
1000
1F618
1011
1.0
1021
0.0
1031
0.0
1011
0.0
1021
1.0
1031
0.0
1011
0.0
1021
0.0
1031
1.0
1040
0.0
1010
0.0
1020
0.0
1030
1.0
1000
ANSI37
1070
     0
1070
     1
1071
        2
1071
        7
1070
     1
1070
     1
1071
       15
1040
23.56599999997638
1040
8.999899999990987
1040
0.0
1040
19.53899999998043
1040
-0.0001000000000317
1040
0.0
1040
19.53899999998043
1040
0.0
1040
0.0
1040
21.09599999997886
1040
0.0
1040
0.0
1040
21.09599999997886
1040
-0.0001000000000317
1040
0.0
1040
22.15599999997789
1040
2.368399999997621
1040
0.0
1040
24.97599999997499
1040
2.368399999997621
1040
0.0
1040
26.02015566812236
1040
0.0330999999912365
1040
0.0
1040
28.40199999996923
1040
0.0330999999912365
1040
0.414213562373095
1040
30.74199999996923
1040
2.373099999991211
1040
0.0
1040
30.74199999996927
1040
8.763099999991255
1040
0.0
1040
29.30199999996933
1040
8.763099999991255
1040
0.0
1040
29.30199999996933
1040
2.283099999991236
1040
-0.414213562373095
1040
28.40199999996923
1040
1.383099999991237
1040
0.0
1040
26.97358892824991
1040
1.383099999991202
1040
0.0
1071
       13
1005
1F5DB
1005
1F5E8
1005
1F5E9
1005
1F5E7
1005
1F5EA
1005
1F611
1005
1F615
1005
1F610
1005
1F60F
1005
1F612
1005
1F614
1005
1F613
1005
1F5DC
1071
       22
1070
     0
1070
     1
1071
        3
1040
22.7389999999773
1040
3.670999999996297
1040
23.56599999997638
1040
5.5200999999945
1040
24.39299999997559
1040
3.670999999996297
1071
        3
1005
1F5F5
1005
1F5FA
1005
1F5F6
1070
     0
1070
     1
1040
0.0
1040
0.15
1070
     0
1070
     2
1040
0.7853981633974483
1040
49.29960901727088
1040
-10.17736998311392
1040
-0.3367596045400932
1040
0.3367596045400932
1070
     0
1040
2.356194490192345
1040
49.29960901727088
1040
-10.17736998311392
1040
-0.3367596045400932
1040
-0.3367596045400932
1070
     0
1040
0.0110235143455945
1071
        2
1040
21.97929957367762
1040
3.294304244259308
1040
0.0
1040
21.97929957367762
1040
3.294304244259308
1040
0.0
1002
}
  0
INSERT
  5
1F619
330
1F5D3
100
AcDbEntity
  8
0
100
AcDbBlockReference
  2
*X47
 10
0.0
 20
0.0
 30
0.0
1001
ACAD
1000
HATCH
1002
{
1070
    19
1000
ANSI37
1040
0.15
1040
0.0
1000
R14_HATCH_DATA
1000
1F619
1011
1.0
1021
0.0
1031
0.0
1011
0.0
1021
1.0
1031
0.0
1011
0.0
1021
0.0
1031
1.0
1040
0.0
1010
0.0
1020
0.0
1030
1.0
1000
ANSI37
1070
     0
1070
     1
1071
        1
1071
        7
1070
     1
1070
     1
1071
       12
1040
31.64199999996833
1040
2.481619422925121
1040
0.2679491924310942
1040
32.94699999997067
1040
0.2212931190493919
1040
0.2679491924301353
1040
36.36699999995983
1040
0.2212931190459813
1040
0.2679491924321411
1040
37.67199999996831
1040
2.481619422928361
1040
0.0
1040
37.67199999996831
1040
8.763099999991255
1040
0.0
1040
36.23199999996837
1040
8.763099999991255
1040
0.0
1040
36.23199999996837
1040
2.481619422925064
1040
-0.2679491924310291
1040
35.64699999996708
1040
1.468369700498386
1040
-0.267949192430519
1040
33.66699999997093
1040
1.468369700497703
1040
-0.267949192431809
1040
33.08199999996839
1040
2.481619422926997
1040
0.0
1040
33.08199999996839
1040
8.763099999991255
1040
0.0
1040
31.64199999996833
1040
8.763099999991255
1040
0.0
1071
        0
1070
     0
1070
     1
1040
0.0
1040
0.15
1070
     0
1070
     2
1040
0.7853981633974483
1040
49.29960901727088
1040
-10.17736998311392
1040
-0.3367596045400932
1040
0.3367596045400932
1070
     0
1040
2.356194490192345
1040
49.29960901727088
1040
-10.17736998311392
1040
-0.3367596045400932
1040
-0.3367596045400932
1070
     0
1040
0.0110235143455945
1071
        1
1040
32.30357378967278
1040
3.988785755459219
1040
0.0
1002
}
  0
INSERT
  5
1F61A
330
1F5D3
100
AcDbEntity
  8
0
100
AcDbBlockReference
  2
*X48
 10
0.0
 20
0.0
 30
0.0
1001
ACAD
1000
HATCH
1002
{
1070
    19
1000
ANSI37
1040
0.15
1040
0.0
1000
ASC_BOUNDS
1070
     1
1070
     2
1070
     8
1005
1F5FB
1005
1F5FE
1005
1F602
1005
1F601
1005
1F600
1005
1F5FD
1005
1F5FF
1005
1F5FC
1000
ASC_SEEDPOINT
1011
39.74896370716704
1021
4.484843821435049
1031
0.0
1000
R14_HATCH_DATA
1000
1F61A
1011
1.0
1021
0.0
1031
0.0
1011
0.0
1021
1.0
1031
0.0
1011
0.0
1021
0.0
1031
1.0
1040
0.0
1010
0.0
1020
0.0
1030
1.0
1000
ANSI37
1070
     0
1070
     1
1071
        1
1071
        7
1070
     0
1070
     1
1071
        9
1040
40.02599999995994
1040
5.341799999994635
1040
44.99999999995498
1040
-0.2368999999997641
1040
44.99999999995498
1040
8.763099999991255
1040
43.57899999995641
1040
8.763099999991255
1040
43.57899999995641
1040
3.421199999996588
1040
38.60499999996136
1040
8.999899999990987
1040
38.60499999996136
1040
8.999999999991019
1040
38.60499999996136
1040
0.0
1040
40.02599999995994
1040
0.0
1071
        8
1005
1F5FB
1005
1F5FE
1005
1F602
1005
1F601
1005
1F600
1005
1F5FD
1005
1F5FF
1005
1F5FC
1070
     0
1070
     1
1040
0.0
1040
0.15
1070
     0
1070
     2
1040
0.7853981633974483
1040
49.29960901727088
1040
-10.17736998311392
1040
-0.3367596045400932
1040
0.3367596045400932
1070
     0
1040
2.356194490192345
1040
49.29960901727088
1040
-10.17736998311392
1040
-0.3367596045400932
1040
-0.3367596045400932
1070
     0
1040
0.0110235143455945
1071
        1
1040
39.74896370716704
1040
4.484843821435049
1040
0.0
1002
}
  0
INSERT
  5
1F61B
330
1F5D3
100
AcDbEntity
  8
0
100
AcDbBlockReference
  2
*X49
 10
0.0
 20
0.0
 30
0.0
1001
ACAD
1000
HATCH
1002
{
1070
    19
1000
ANSI37
1040
0.15
1040
0.0
1000
ASC_BOUNDS
1070
     1
1070
     2
1070
     4
1005
1F5DF
1005
1F5EE
1005
1F5E0
1005
1F5E2
1000
ASC_SEEDPOINT
1011
1.079051535452663
1021
4.148538732891836
1031
0.0
1000
R14_HATCH_DATA
1000
1F61B
1011
1.0
1021
0.0
1031
0.0
1011
0.0
1021
1.0
1031
0.0
1011
0.0
1021
0.0
1031
1.0
1040
0.0
1010
0.0
1020
0.0
1030
1.0
1000
ANSI37
1070
     0
1070
     1
1071
        1
1071
        7
1070
     0
1070
     1
1071
        4
1040
1.420999999998571
1040
0.0
1040
1.420999999998571
1040
8.763099999991255
1040
0.0
1040
8.763099999991255
1040
0.0
1040
0.0
1071
        4
1005
1F5DF
1005
1F5EE
1005
1F5E0
1005
1F5E2
1070
     0
1070
     1
1040
0.0
1040
0.15
1070
     0
1070
     2
1040
0.7853981633974483
1040
49.29960901727088
1040
-10.17736998311392
1040
-0.3367596045400932
1040
0.3367596045400932
1070
     0
1040
2.356194490192345
1040
49.29960901727088
1040
-10.17736998311392
1040
-0.3367596045400932
1040
-0.3367596045400932
1070
     0
1040
0.0053004257112761
1071
        1
1040
1.079051535452663
1040
4.148538732891836
1040
0.0
1002
}
  0
ENDBLK
  5
1FCE0
330
1F5D3
100
AcDbEntity
  8
0
100
AcDbBlockEnd
  0
BLOCK
  5
21C21
330
21A93
100
AcDbEntity
  8
0
100
AcDbBlockBegin
  2
*X44
 70
     1
 10
0.0
 20
0.0
 30
0.0
  3
*X44
  1

  0
LINE
  5
21A94
330
21A93
100
AcDbEntity
  8
0
  6
CONTINUOUS
100
AcDbLine
 10
3.418023043697893
 20
7.251849696850613
 30
0.0
 11
4.929273346838536
 21
8.763099999991255
 31
0.0
  0
LINE
  5
21A95
330
21A93
100
AcDbEntity
  8
0
  6
CONTINUOUS
100
AcDbLine
 10
1.483656411257782
 20
4.643963855330318
 30
0.0
 11
5.60279255591872
 21
8.763099999991255
 31
0.0
  0
LINE
  5
21A96
330
21A93
100
AcDbEntity
  8
0
  6
CONTINUOUS
100
AcDbLine
 10
1.755053947328235
 20
4.241842182320584
 30
0.0
 11
6.276311764998907
 21
8.763099999991255
 31
0.0
  0
LINE
  5
21A97
330
21A93
100
AcDbEntity
  8
0
  6
CONTINUOUS
100
AcDbLine
 10
2.026451483398688
 20
3.839720509310849
 30
0.0
 11
4.441040904851878
 21
6.254309930764039
 31
0.0
  0
LINE
  5
21A98
330
21A93
100
AcDbEntity
  8
0
  6
CONTINUOUS
100
AcDbLine
 10
2.297849019469139
 20
3.437598836301114
 30
0.0
 11
3.321765168359338
 21
4.461514985191313
 31
0.0
  0
LINE
  5
21A99
330
21A93
100
AcDbEntity
  8
0
  6
CONTINUOUS
100
AcDbLine
 10
2.569246555539591
 20
3.03547716329138
 30
0.0
 11
3.593163397972743
 21
4.059394005724531
 31
0.0
  0
LINE
  5
21A9A
330
21A93
100
AcDbEntity
  8
0
  6
CONTINUOUS
100
AcDbLine
 10
2.840644091610043
 20
2.633355490281646
 30
0.0
 11
3.864561627586149
 21
3.657273026257751
 31
0.0
  0
LINE
  5
21A9B
330
21A93
100
AcDbEntity
  8
0
  6
CONTINUOUS
100
AcDbLine
 10
3.112041627680496
 20
2.231233817271911
 30
0.0
 11
4.135959857199554
 21
3.25515204679097
 31
0.0
  0
LINE
  5
21A9C
330
21A93
100
AcDbEntity
  8
0
  6
CONTINUOUS
100
AcDbLine
 10
3.383439163750948
 20
1.829112144262177
 30
0.0
 11
4.40735808681296
 21
2.853031067324189
 31
0.0
  0
LINE
  5
21A9D
330
21A93
100
AcDbEntity
  8
0
  6
CONTINUOUS
100
AcDbLine
 10
3.654836699821399
 20
1.426990471252442
 30
0.0
 11
4.678756316426365
 21
2.450910087857407
 31
0.0
  0
LINE
  5
21A9E
330
21A93
100
AcDbEntity
  8
0
  6
CONTINUOUS
100
AcDbLine
 10
3.926234235891853
 20
1.024868798242709
 30
0.0
 11
4.95015454603977
 21
2.048789108390626
 31
0.0
  0
LINE
  5
21A9F
330
21A93
100
AcDbEntity
  8
0
  6
CONTINUOUS
100
AcDbLine
 10
4.197631771962304
 20
0.6227471252329737
 30
0.0
 11
5.221552775653176
 21
1.646668128923846
 31
0.0
  0
LINE
  5
21AA0
330
21A93
100
AcDbEntity
  8
0
  6
CONTINUOUS
100
AcDbLine
 10
8.715877546767851
 20
7.835069736359266
 30
0.0
 11
9.435953450375058
 21
8.555145639966472
 31
0.0
  0
LINE
  5
21AA1
330
21A93
100
AcDbEntity
  8
0
  6
CONTINUOUS
100
AcDbLine
 10
8.170620868422267
 20
6.616293848933497
 30
0.0
 11
9.644120833743461
 21
8.08979381425469
 31
0.0
  0
LINE
  5
21AA2
330
21A93
100
AcDbEntity
  8
0
  6
CONTINUOUS
100
AcDbLine
 10
7.625364190076684
 20
5.397517961507727
 30
0.0
 11
9.852288217111864
 21
7.624441988542907
 31
0.0
  0
LINE
  5
21AA3
330
21A93
100
AcDbEntity
  8
0
  6
CONTINUOUS
100
AcDbLine
 10
7.080107511731101
 20
4.178742074081957
 30
0.0
 11
10.06045560048027
 21
7.159090162831124
 31
0.0
  0
LINE
  5
21AA4
330
21A93
100
AcDbEntity
  8
0
  6
CONTINUOUS
100
AcDbLine
 10
6.534850833385518
 20
2.959966186656187
 30
0.0
 11
10.26862298384867
 21
6.693738337119342
 31
0.0
  0
LINE
  5
21AA5
330
21A93
100
AcDbEntity
  8
0
  6
CONTINUOUS
100
AcDbLine
 10
4.469029308032756
 20
0.2206254522232385
 30
0.0
 11
5.492951005266582
 21
1.244547149457064
 31
0.0
  0
LINE
  5
21AA6
330
21A93
100
AcDbEntity
  8
0
  6
CONTINUOUS
100
AcDbLine
 10
5.989594155039935
 20
1.741190299230417
 30
0.0
 11
8.806950407233131
 21
4.558546551423613
 31
0.0
  0
LINE
  5
21AA7
330
21A93
100
AcDbEntity
  8
0
  6
CONTINUOUS
100
AcDbLine
 10
9.401251593263643
 20
5.152847737454126
 30
0.0
 11
10.47679036721708
 21
6.228386511407559
 31
0.0
  0
LINE
  5
21AA8
330
21A93
100
AcDbEntity
  8
0
  6
CONTINUOUS
100
AcDbLine
 10
4.921837203428691
 20
-0.0000858614610131
 30
0.0
 11
8.592923064886001
 21
3.670999999996297
 31
0.0
  0
LINE
  5
21AA9
330
21A93
100
AcDbEntity
  8
0
  6
CONTINUOUS
100
AcDbLine
 10
9.609390446785305
 20
4.6874673818956
 30
0.0
 11
10.68495775058548
 21
5.763034685695775
 31
0.0
  0
LINE
  5
21AAA
330
21A93
100
AcDbEntity
  8
0
  6
CONTINUOUS
100
AcDbLine
 10
5.595387755019432
 20
-0.0000545189504582
 30
0.0
 11
7.716137258923768
 21
2.120694984953879
 31
0.0
  0
LINE
  5
21AAB
330
21A93
100
AcDbEntity
  8
0
  6
CONTINUOUS
100
AcDbLine
 10
6.268938306610172
 20
-0.000023176439905
 30
0.0
 11
7.170485805526503
 21
0.9015243224764267
 31
0.0
  0
LINE
  5
21AAC
330
21A93
100
AcDbEntity
  8
0
  6
CONTINUOUS
100
AcDbLine
 10
7.963842273967511
 20
2.368399999997621
 30
0.0
 11
9.266442273966188
 21
3.670999999996297
 31
0.0
  0
LINE
  5
21AAD
330
21A93
100
AcDbEntity
  8
0
  6
CONTINUOUS
100
AcDbLine
 10
8.637361483047696
 20
2.368399999997621
 30
0.0
 11
9.939961483046375
 21
3.670999999996297
 31
0.0
  0
LINE
  5
21AAE
330
21A93
100
AcDbEntity
  8
0
  6
CONTINUOUS
100
AcDbLine
 10
9.817529300306965
 20
4.222087026337075
 30
0.0
 11
10.89312513395388
 21
5.297682859983993
 31
0.0
  0
LINE
  5
21AAF
330
21A93
100
AcDbEntity
  8
0
  6
CONTINUOUS
100
AcDbLine
 10
10.02566815382863
 20
3.756706670778549
 30
0.0
 11
11.10129251732229
 21
4.832331034272211
 31
0.0
  0
LINE
  5
21AB0
330
21A93
100
AcDbEntity
  8
0
  6
CONTINUOUS
100
AcDbLine
 10
9.310880692127883
 20
2.368399999997621
 30
0.0
 11
11.30945990069069
 21
4.366979208560428
 31
0.0
  0
LINE
  5
21AB1
330
21A93
100
AcDbEntity
  8
0
  6
CONTINUOUS
100
AcDbLine
 10
9.98439990120807
 20
2.36839999999762
 30
0.0
 11
11.5176272840591
 21
3.901627382848645
 31
0.0
  0
LINE
  5
21AB2
330
21A93
100
AcDbEntity
  8
0
  6
CONTINUOUS
100
AcDbLine
 10
10.65037369446246
 20
2.36085458417182
 30
0.0
 11
11.7257946674275
 21
3.436275557136862
 31
0.0
  0
LINE
  5
21AB3
330
21A93
100
AcDbEntity
  8
0
  6
CONTINUOUS
100
AcDbLine
 10
10.85847197087848
 20
1.895433651507656
 30
0.0
 11
11.9339620507959
 21
2.97092373142508
 31
0.0
  0
LINE
  5
21AB4
330
21A93
100
AcDbEntity
  8
0
  6
CONTINUOUS
100
AcDbLine
 10
11.0665702472945
 20
1.430012718843491
 30
0.0
 11
12.14212943416431
 21
2.505571905713296
 31
0.0
  0
LINE
  5
21AB5
330
21A93
100
AcDbEntity
  8
0
  6
CONTINUOUS
100
AcDbLine
 10
11.27466852371052
 20
0.9645917861793256
 30
0.0
 11
12.35029681753271
 21
2.040220080001513
 31
0.0
  0
LINE
  5
21AB6
330
21A93
100
AcDbEntity
  8
0
  6
CONTINUOUS
100
AcDbLine
 10
11.48276680012654
 20
0.4991708535151611
 30
0.0
 11
12.55846420090111
 21
1.57486825428973
 31
0.0
  0
LINE
  5
21AB7
330
21A93
100
AcDbEntity
  8
0
  6
CONTINUOUS
100
AcDbLine
 10
11.69086507654257
 20
0.0337499208509957
 30
0.0
 11
12.76663158426952
 21
1.109516428577947
 31
0.0
  0
LINE
  5
21AB8
330
21A93
100
AcDbEntity
  8
0
  6
CONTINUOUS
100
AcDbLine
 10
12.33057447873954
 20
-0.0000598860322123
 30
0.0
 11
12.97479896763792
 21
0.6441646028661663
 31
0.0
  0
LINE
  5
21AB9
330
21A93
100
AcDbEntity
  8
0
  6
CONTINUOUS
100
AcDbLine
 10
13.00413694809395
 20
-0.0000166257579952
 30
0.0
 11
13.18296635100632
 21
0.1788127771543824
 31
0.0
  0
LINE
  5
21ABA
330
21A93
100
AcDbEntity
  8
0
  6
CONTINUOUS
100
AcDbLine
 10
4.772852165289667
 20
-0.000092794222212
 30
0.0
 11
4.296495091028902
 21
0.4762642800385528
 31
0.0
  0
LINE
  5
21ABB
330
21A93
100
AcDbEntity
  8
0
  6
CONTINUOUS
100
AcDbLine
 10
5.446340034776103
 20
-0.0000614546284616
 30
0.0
 11
2.898195908335625
 21
2.548082671812017
 31
0.0
  0
LINE
  5
21ABC
330
21A93
100
AcDbEntity
  8
0
  6
CONTINUOUS
100
AcDbLine
 10
6.119827904262539
 20
-0.0000301150347113
 30
0.0
 11
1.499896725642348
 21
4.61990106358548
 31
0.0
  0
LINE
  5
21ABD
330
21A93
100
AcDbEntity
  8
0
  6
CONTINUOUS
100
AcDbLine
 10
6.775136745476159
 20
0.0181802528318542
 30
0.0
 11
5.699826040202669
 21
1.093490958105344
 31
0.0
  0
LINE
  5
21ABE
330
21A93
100
AcDbEntity
  8
0
  6
CONTINUOUS
100
AcDbLine
 10
6.983376846288489
 20
0.4834593610997118
 30
0.0
 11
5.908008617934405
 21
1.558827589453796
 31
0.0
  0
LINE
  5
21ABF
330
21A93
100
AcDbEntity
  8
0
  6
CONTINUOUS
100
AcDbLine
 10
5.377063484962296
 20
1.416253513345719
 30
0.0
 11
1.702276957014131
 21
5.091040041293883
 31
0.0
  0
LINE
  5
21AC0
330
21A93
100
AcDbEntity
  8
0
  6
CONTINUOUS
100
AcDbLine
 10
3.978745891735324
 20
3.488090315652877
 30
0.0
 11
2.000373521109399
 21
5.466462686278803
 31
0.0
  0
LINE
  5
21AC1
330
21A93
100
AcDbEntity
  8
0
  6
CONTINUOUS
100
AcDbLine
 10
7.191616947100819
 20
0.948738469367568
 30
0.0
 11
6.11619119566614
 21
2.024164220802247
 31
0.0
  0
LINE
  5
21AC2
330
21A93
100
AcDbEntity
  8
0
  6
CONTINUOUS
100
AcDbLine
 10
7.399857047913149
 20
1.414017577635424
 30
0.0
 11
6.324373773397875
 21
2.489500852150698
 31
0.0
  0
LINE
  5
21AC3
330
21A93
100
AcDbEntity
  8
0
  6
CONTINUOUS
100
AcDbLine
 10
7.608097148725479
 20
1.879296685903281
 30
0.0
 11
6.53255635112961
 21
2.95483748349915
 31
0.0
  0
LINE
  5
21AC4
330
21A93
100
AcDbEntity
  8
0
  6
CONTINUOUS
100
AcDbLine
 10
7.816337249537808
 20
2.344575794171138
 30
0.0
 11
6.740738928861345
 21
3.420174114847601
 31
0.0
  0
LINE
  5
21AC5
330
21A93
100
AcDbEntity
  8
0
  6
CONTINUOUS
100
AcDbLine
 10
3.310241080789734
 20
4.830114335678653
 30
0.0
 11
2.298470085204666
 21
5.84188533126372
 31
0.0
  0
LINE
  5
21AC6
330
21A93
100
AcDbEntity
  8
0
  6
CONTINUOUS
100
AcDbLine
 10
3.60832983563551
 20
5.205544789913063
 30
0.0
 11
2.596566649299935
 21
6.217307976248638
 31
0.0
  0
LINE
  5
21AC7
330
21A93
100
AcDbEntity
  8
0
  6
CONTINUOUS
100
AcDbLine
 10
3.906418590481286
 20
5.580975244147473
 30
0.0
 11
2.894663213395203
 21
6.592730621233557
 31
0.0
  0
LINE
  5
21AC8
330
21A93
100
AcDbEntity
  8
0
  6
CONTINUOUS
100
AcDbLine
 10
4.204507345327062
 20
5.956405698381884
 30
0.0
 11
3.192759777490472
 21
6.968153266218474
 31
0.0
  0
LINE
  5
21AC9
330
21A93
100
AcDbEntity
  8
0
  6
CONTINUOUS
100
AcDbLine
 10
8.466032252791512
 20
2.368399999997621
 30
0.0
 11
6.948921506593081
 21
3.885510746196053
 31
0.0
  0
LINE
  5
21ACA
330
21A93
100
AcDbEntity
  8
0
  6
CONTINUOUS
100
AcDbLine
 10
9.139551461871699
 20
2.36839999999762
 30
0.0
 11
7.157104084324816
 21
4.350847377544504
 31
0.0
  0
LINE
  5
21ACB
330
21A93
100
AcDbEntity
  8
0
  6
CONTINUOUS
100
AcDbLine
 10
4.502596100172839
 20
6.331836152616295
 30
0.0
 11
3.49085634158574
 21
7.343575911203393
 31
0.0
  0
LINE
  5
21ACC
330
21A93
100
AcDbEntity
  8
0
  6
CONTINUOUS
100
AcDbLine
 10
4.800684855018615
 20
6.707266606850705
 30
0.0
 11
3.788952905681008
 21
7.718998556188312
 31
0.0
  0
LINE
  5
21ACD
330
21A93
100
AcDbEntity
  8
0
  6
CONTINUOUS
100
AcDbLine
 10
12.18154012887317
 20
-0.0000694579236642
 30
0.0
 11
11.32140332908496
 21
0.8600673418645499
 31
0.0
  0
LINE
  5
21ACE
330
21A93
100
AcDbEntity
  8
0
  6
CONTINUOUS
100
AcDbLine
 10
12.85501608323566
 20
-0.0000262032059659
 30
0.0
 11
10.77672456435345
 21
2.078265315676246
 31
0.0
  0
LINE
  5
21ACF
330
21A93
100
AcDbEntity
  8
0
  6
CONTINUOUS
100
AcDbLine
 10
9.813070670951886
 20
2.36839999999762
 30
0.0
 11
8.51047067095321
 21
3.670999999996297
 31
0.0
  0
LINE
  5
21AD0
330
21A93
100
AcDbEntity
  8
0
  6
CONTINUOUS
100
AcDbLine
 10
10.48658988003207
 20
2.36839999999762
 30
0.0
 11
9.183989880033396
 21
3.670999999996297
 31
0.0
  0
LINE
  5
21AD1
330
21A93
100
AcDbEntity
  8
0
  6
CONTINUOUS
100
AcDbLine
 10
8.441048632286794
 20
3.740422038662712
 30
0.0
 11
7.365286662056551
 21
4.816184008892956
 31
0.0
  0
LINE
  5
21AD2
330
21A93
100
AcDbEntity
  8
0
  6
CONTINUOUS
100
AcDbLine
 10
8.649187485808454
 20
4.205802394221237
 30
0.0
 11
7.573469239788285
 21
5.281520640241407
 31
0.0
  0
LINE
  5
21AD3
330
21A93
100
AcDbEntity
  8
0
  6
CONTINUOUS
100
AcDbLine
 10
5.098773609864391
 20
7.082697061085115
 30
0.0
 11
4.087049469776277
 21
8.09442120117323
 31
0.0
  0
LINE
  5
21AD4
330
21A93
100
AcDbEntity
  8
0
  6
CONTINUOUS
100
AcDbLine
 10
5.396862364710167
 20
7.458127515319526
 30
0.0
 11
4.385146033871544
 21
8.469843846158149
 31
0.0
  0
LINE
  5
21AD5
330
21A93
100
AcDbEntity
  8
0
  6
CONTINUOUS
100
AcDbLine
 10
13.04801363231285
 20
0.4804954567970334
 30
0.0
 11
9.85750908911358
 21
3.670999999996297
 31
0.0
  0
LINE
  5
21AD6
330
21A93
100
AcDbEntity
  8
0
  6
CONTINUOUS
100
AcDbLine
 10
8.857326339330116
 20
4.671182749779763
 30
0.0
 11
7.781651817520021
 21
5.746857271589858
 31
0.0
  0
LINE
  5
21AD7
330
21A93
100
AcDbEntity
  8
0
  6
CONTINUOUS
100
AcDbLine
 10
5.694951119555943
 20
7.833557969553937
 30
0.0
 11
4.765409089118624
 21
8.763099999991255
 31
0.0
  0
LINE
  5
21AD8
330
21A93
100
AcDbEntity
  8
0
  6
CONTINUOUS
100
AcDbLine
 10
12.50286117236978
 20
1.699167125820288
 30
0.0
 11
9.68611877250287
 21
4.515909525687196
 31
0.0
  0
LINE
  5
21AD9
330
21A93
100
AcDbEntity
  8
0
  6
CONTINUOUS
100
AcDbLine
 10
9.065465192851777
 20
5.136563105338288
 30
0.0
 11
7.989834395251757
 21
6.21219390293831
 31
0.0
  0
LINE
  5
21ADA
330
21A93
100
AcDbEntity
  8
0
  6
CONTINUOUS
100
AcDbLine
 10
5.993039874401719
 20
8.208988423788346
 30
0.0
 11
5.43892829819881
 21
8.763099999991255
 31
0.0
  0
LINE
  5
21ADB
330
21A93
100
AcDbEntity
  8
0
  6
CONTINUOUS
100
AcDbLine
 10
11.95770871242671
 20
2.917838794843543
 30
0.0
 11
8.19801697298349
 21
6.677530534286761
 31
0.0
  0
LINE
  5
21ADC
330
21A93
100
AcDbEntity
  8
0
  6
CONTINUOUS
100
AcDbLine
 10
6.291128629247495
 20
8.584418878022756
 30
0.0
 11
6.112447507278997
 21
8.763099999991255
 31
0.0
  0
LINE
  5
21ADD
330
21A93
100
AcDbEntity
  8
0
  6
CONTINUOUS
100
AcDbLine
 10
11.41255625248364
 20
4.136510463866797
 30
0.0
 11
8.406199550715227
 21
7.142867165635211
 31
0.0
  0
LINE
  5
21ADE
330
21A93
100
AcDbEntity
  8
0
  6
CONTINUOUS
100
AcDbLine
 10
10.86740379254057
 20
5.355182132890051
 30
0.0
 11
8.614382128446962
 21
7.608203796983664
 31
0.0
  0
LINE
  5
21ADF
330
21A93
100
AcDbEntity
  8
0
  6
CONTINUOUS
100
AcDbLine
 10
10.3222513325975
 20
6.573853801913305
 30
0.0
 11
8.822564706178696
 21
8.073540428332114
 31
0.0
  0
LINE
  5
21AE0
330
21A93
100
AcDbEntity
  8
0
  6
CONTINUOUS
100
AcDbLine
 10
9.777098872654436
 20
7.792525470936562
 30
0.0
 11
9.030747283910433
 21
8.538877059680566
 31
0.0
  0
ENDBLK
  5
21C22
330
21A93
100
AcDbEntity
  8
0
100
AcDbBlockEnd
  0
BLOCK
  5
21C23
330
21AE1
100
AcDbEntity
  8
0
100
AcDbBlockBegin
  2
*X45
 70
     1
 10
0.0
 20
0.0
 30
0.0
  3
*X45
  1

  0
LINE
  5
21AE2
330
21AE1
100
AcDbEntity
  8
0
  6
CONTINUOUS
100
AcDbLine
 10
10.67292308101235
 20
8.445076852443387
 30
0.0
 11
10.99094622856022
 21
8.763099999991255
 31
0.0
  0
LINE
  5
21AE3
330
21AE1
100
AcDbEntity
  8
0
  6
CONTINUOUS
100
AcDbLine
 10
10.87250383178748
 20
7.971138394138331
 30
0.0
 11
11.6644654376404
 21
8.763099999991255
 31
0.0
  0
LINE
  5
21AE4
330
21AE1
100
AcDbEntity
  8
0
  6
CONTINUOUS
100
AcDbLine
 10
11.07208458256261
 20
7.497199935833273
 30
0.0
 11
12.12126590876355
 21
8.546381262034211
 31
0.0
  0
LINE
  5
21AE5
330
21AE1
100
AcDbEntity
  8
0
  6
CONTINUOUS
100
AcDbLine
 10
11.27166533333774
 20
7.023261477528216
 30
0.0
 11
12.32085164573666
 21
8.072447789927136
 31
0.0
  0
LINE
  5
21AE6
330
21AE1
100
AcDbEntity
  8
0
  6
CONTINUOUS
100
AcDbLine
 10
11.47124608411287
 20
6.549323019223158
 30
0.0
 11
12.52043738270977
 21
7.59851431782006
 31
0.0
  0
LINE
  5
21AE7
330
21AE1
100
AcDbEntity
  8
0
  6
CONTINUOUS
100
AcDbLine
 10
11.670826834888
 20
6.075384560918101
 30
0.0
 11
12.72002311968288
 21
7.124580845712984
 31
0.0
  0
LINE
  5
21AE8
330
21AE1
100
AcDbEntity
  8
0
  6
CONTINUOUS
100
AcDbLine
 10
11.87040758566313
 20
5.601446102613043
 30
0.0
 11
12.91960885665599
 21
6.650647373605907
 31
0.0
  0
LINE
  5
21AE9
330
21AE1
100
AcDbEntity
  8
0
  6
CONTINUOUS
100
AcDbLine
 10
12.06998833643825
 20
5.127507644307986
 30
0.0
 11
13.1191945936291
 21
6.176713901498832
 31
0.0
  0
LINE
  5
21AEA
330
21AE1
100
AcDbEntity
  8
0
  6
CONTINUOUS
100
AcDbLine
 10
12.26956908721338
 20
4.65356918600293
 30
0.0
 11
13.31878033060221
 21
5.702780429391757
 31
0.0
  0
LINE
  5
21AEB
330
21AE1
100
AcDbEntity
  8
0
  6
CONTINUOUS
100
AcDbLine
 10
12.46914983798851
 20
4.179630727697873
 30
0.0
 11
13.51836606757532
 21
5.228846957284683
 31
0.0
  0
LINE
  5
21AEC
330
21AE1
100
AcDbEntity
  8
0
  6
CONTINUOUS
100
AcDbLine
 10
12.66873058876364
 20
3.705692269392816
 30
0.0
 11
13.71795180454843
 21
4.754913485177607
 31
0.0
  0
LINE
  5
21AED
330
21AE1
100
AcDbEntity
  8
0
  6
CONTINUOUS
100
AcDbLine
 10
12.86831133953877
 20
3.231753811087759
 30
0.0
 11
13.91753754152154
 21
4.280980013070531
 31
0.0
  0
LINE
  5
21AEE
330
21AE1
100
AcDbEntity
  8
0
  6
CONTINUOUS
100
AcDbLine
 10
13.0678920903139
 20
2.757815352782702
 30
0.0
 11
14.11712327849465
 21
3.807046540963456
 31
0.0
  0
LINE
  5
21AEF
330
21AE1
100
AcDbEntity
  8
0
  6
CONTINUOUS
100
AcDbLine
 10
13.26747284108903
 20
2.283876894477644
 30
0.0
 11
14.31670901546777
 21
3.333113068856379
 31
0.0
  0
LINE
  5
21AF0
330
21AE1
100
AcDbEntity
  8
0
  6
CONTINUOUS
100
AcDbLine
 10
16.36767838827179
 20
8.751678487061342
 30
0.0
 11
16.50332410898388
 21
8.887324207773432
 31
0.0
  0
LINE
  5
21AF1
330
21AE1
100
AcDbEntity
  8
0
  6
CONTINUOUS
100
AcDbLine
 10
15.96190732182191
 20
7.67238821153127
 30
0.0
 11
16.68735328004734
 21
8.397834169756699
 31
0.0
  0
LINE
  5
21AF2
330
21AE1
100
AcDbEntity
  8
0
  6
CONTINUOUS
100
AcDbLine
 10
15.55613625537202
 20
6.593097936001196
 30
0.0
 11
16.87138245111079
 21
7.908344131739965
 31
0.0
  0
LINE
  5
21AF3
330
21AE1
100
AcDbEntity
  8
0
  6
CONTINUOUS
100
AcDbLine
 10
15.15036518892213
 20
5.513807660471122
 30
0.0
 11
17.05541162217424
 21
7.418854093723231
 31
0.0
  0
LINE
  5
21AF4
330
21AE1
100
AcDbEntity
  8
0
  6
CONTINUOUS
100
AcDbLine
 10
14.74459412247225
 20
4.434517384941048
 30
0.0
 11
17.2394407932377
 21
6.929364055706499
 31
0.0
  0
LINE
  5
21AF5
330
21AE1
100
AcDbEntity
  8
0
  6
CONTINUOUS
100
AcDbLine
 10
14.33882305602236
 20
3.355227109410975
 30
0.0
 11
17.42346996430115
 21
6.439874017689766
 31
0.0
  0
LINE
  5
21AF6
330
21AE1
100
AcDbEntity
  8
0
  6
CONTINUOUS
100
AcDbLine
 10
13.46705359186416
 20
1.809938436172586
 30
0.0
 11
16.0819338255367
 21
4.424818669845129
 31
0.0
  0
LINE
  5
21AF7
330
21AE1
100
AcDbEntity
  8
0
  6
CONTINUOUS
100
AcDbLine
 10
16.63283254238972
 20
4.975717386698149
 30
0.0
 11
17.60749913536461
 21
5.950383979673033
 31
0.0
  0
LINE
  5
21AF8
330
21AE1
100
AcDbEntity
  8
0
  6
CONTINUOUS
100
AcDbLine
 10
13.66663434263929
 20
1.335999977867529
 30
0.0
 11
15.67604797733754
 21
3.345413612565779
 31
0.0
  0
LINE
  5
21AF9
330
21AE1
100
AcDbEntity
  8
0
  6
CONTINUOUS
100
AcDbLine
 10
13.86621509341442
 20
0.8620615195624723
 30
0.0
 11
15.27016212913838
 21
2.26600855528643
 31
0.0
  0
LINE
  5
21AFA
330
21AE1
100
AcDbEntity
  8
0
  6
CONTINUOUS
100
AcDbLine
 10
16.81682257348267
 20
4.486188208710908
 30
0.0
 11
17.79152830642806
 21
5.460893941656299
 31
0.0
  0
LINE
  5
21AFB
330
21AE1
100
AcDbEntity
  8
0
  6
CONTINUOUS
100
AcDbLine
 10
17.00081260457561
 20
3.996659030723667
 30
0.0
 11
17.97555747749151
 21
4.971403903639565
 31
0.0
  0
LINE
  5
21AFC
330
21AE1
100
AcDbEntity
  8
0
  6
CONTINUOUS
100
AcDbLine
 10
20.74362343514722
 20
8.412989070375462
 30
0.0
 11
21.09373436476302
 21
8.763099999991256
 31
0.0
  0
LINE
  5
21AFD
330
21AE1
100
AcDbEntity
  8
0
  6
CONTINUOUS
100
AcDbLine
 10
20.25401257174777
 20
7.249858997895826
 30
0.0
 11
21.7672535738432
 21
8.763099999991255
 31
0.0
  0
LINE
  5
21AFE
330
21AE1
100
AcDbEntity
  8
0
  6
CONTINUOUS
100
AcDbLine
 10
14.06579584418955
 20
0.3881230612574149
 30
0.0
 11
14.86427628093921
 21
1.186603498007082
 31
0.0
  0
LINE
  5
21AFF
330
21AE1
100
AcDbEntity
  8
0
  6
CONTINUOUS
100
AcDbLine
 10
14.26537659496467
 20
-0.0858153970476412
 30
0.0
 11
14.45839043274005
 21
0.1071984407277329
 31
0.0
  0
LINE
  5
21B00
330
21AE1
100
AcDbEntity
  8
0
  6
CONTINUOUS
100
AcDbLine
 10
17.18480263566856
 20
3.507129852736426
 30
0.0
 11
18.15958664855496
 21
4.481913865622833
 31
0.0
  0
LINE
  5
21B01
330
21AE1
100
AcDbEntity
  8
0
  6
CONTINUOUS
100
AcDbLine
 10
17.3687926667615
 20
3.017600674749186
 30
0.0
 11
18.34361581961842
 21
3.9924238276061
 31
0.0
  0
LINE
  5
21B02
330
21AE1
100
AcDbEntity
  8
0
  6
CONTINUOUS
100
AcDbLine
 10
19.76440170834832
 20
6.086728925416191
 30
0.0
 11
22.33924590259489
 21
8.661573119662755
 31
0.0
  0
LINE
  5
21B03
330
21AE1
100
AcDbEntity
  8
0
  6
CONTINUOUS
100
AcDbLine
 10
19.27479084494887
 20
4.923598852936555
 30
0.0
 11
21.84929622842713
 21
7.498104236414807
 31
0.0
  0
LINE
  5
21B04
330
21AE1
100
AcDbEntity
  8
0
  6
CONTINUOUS
100
AcDbLine
 10
17.55278269785445
 20
2.528071496761945
 30
0.0
 11
18.52764499068187
 21
3.502933789589366
 31
0.0
  0
LINE
  5
21B05
330
21AE1
100
AcDbEntity
  8
0
  6
CONTINUOUS
100
AcDbLine
 10
18.78517998154942
 20
3.760468780456919
 30
0.0
 11
21.35934655425936
 21
6.33463535316686
 31
0.0
  0
LINE
  5
21B06
330
21AE1
100
AcDbEntity
  8
0
  6
CONTINUOUS
100
AcDbLine
 10
17.73677272894739
 20
2.038542318774704
 30
0.0
 11
20.8693968800916
 21
5.171166469918914
 31
0.0
  0
LINE
  5
21B07
330
21AE1
100
AcDbEntity
  8
0
  6
CONTINUOUS
100
AcDbLine
 10
17.92076276004034
 20
1.549013140787464
 30
0.0
 11
20.37944720592384
 21
4.007697586670968
 31
0.0
  0
LINE
  5
21B08
330
21AE1
100
AcDbEntity
  8
0
  6
CONTINUOUS
100
AcDbLine
 10
18.10475279113329
 20
1.059483962800223
 30
0.0
 11
19.88949753175608
 21
2.84422870342302
 31
0.0
  0
LINE
  5
21B09
330
21AE1
100
AcDbEntity
  8
0
  6
CONTINUOUS
100
AcDbLine
 10
18.28874282222623
 20
0.5699547848129822
 30
0.0
 11
19.39954785758832
 21
1.680759820175074
 31
0.0
  0
LINE
  5
21B0A
330
21AE1
100
AcDbEntity
  8
0
  6
CONTINUOUS
100
AcDbLine
 10
18.47273285331918
 20
0.0804256068257416
 30
0.0
 11
18.90959818342056
 21
0.517290936927127
 31
0.0
  0
LINE
  5
21B0B
330
21AE1
100
AcDbEntity
  8
0
  6
CONTINUOUS
100
AcDbLine
 10
14.3590401358224
 20
-0.1570118376323384
 30
0.0
 11
14.24903296539946
 21
-0.0470046672093929
 31
0.0
  0
LINE
  5
21B0C
330
21AE1
100
AcDbEntity
  8
0
  6
CONTINUOUS
100
AcDbLine
 10
14.54309291258661
 20
0.332454594683643
 30
0.0
 11
13.75908329123172
 21
1.116464216038529
 31
0.0
  0
LINE
  5
21B0D
330
21AE1
100
AcDbEntity
  8
0
  6
CONTINUOUS
100
AcDbLine
 10
14.72714568935081
 20
0.8219210269996244
 30
0.0
 11
13.26913361706399
 21
2.27993309928645
 31
0.0
  0
LINE
  5
21B0E
330
21AE1
100
AcDbEntity
  8
0
  6
CONTINUOUS
100
AcDbLine
 10
14.91119846611502
 20
1.311387459315606
 30
0.0
 11
12.77918394289625
 21
3.443401982534371
 31
0.0
  0
LINE
  5
21B0F
330
21AE1
100
AcDbEntity
  8
0
  6
CONTINUOUS
100
AcDbLine
 10
15.09525124287922
 20
1.800853891631587
 30
0.0
 11
12.28923426872852
 21
4.606870865782293
 31
0.0
  0
LINE
  5
21B10
330
21AE1
100
AcDbEntity
  8
0
  6
CONTINUOUS
100
AcDbLine
 10
15.27930401964343
 20
2.290320323947569
 30
0.0
 11
11.79928459456078
 21
5.770339749030213
 31
0.0
  0
LINE
  5
21B11
330
21AE1
100
AcDbEntity
  8
0
  6
CONTINUOUS
100
AcDbLine
 10
15.46335679640763
 20
2.77978675626355
 30
0.0
 11
14.48885470994921
 21
3.754288842721972
 31
0.0
  0
LINE
  5
21B12
330
21AE1
100
AcDbEntity
  8
0
  6
CONTINUOUS
100
AcDbLine
 10
13.88507249233704
 20
4.358071060334137
 30
0.0
 11
11.30933492039305
 21
6.933808632278135
 31
0.0
  0
LINE
  5
21B13
330
21AE1
100
AcDbEntity
  8
0
  6
CONTINUOUS
100
AcDbLine
 10
18.75840522805855
 20
0.1582575336928151
 30
0.0
 11
18.25383727664818
 21
0.6628254851031863
 31
0.0
  0
LINE
  5
21B14
330
21AE1
100
AcDbEntity
  8
0
  6
CONTINUOUS
100
AcDbLine
 10
15.64740957317184
 20
3.269253188579531
 30
0.0
 11
14.67288388101266
 21
4.243778880738705
 31
0.0
  0
LINE
  5
21B15
330
21AE1
100
AcDbEntity
  8
0
  6
CONTINUOUS
100
AcDbLine
 10
13.39509276772158
 20
5.521569994029786
 30
0.0
 11
10.81938524622531
 21
8.097277515526056
 31
0.0
  0
LINE
  5
21B16
330
21AE1
100
AcDbEntity
  8
0
  6
CONTINUOUS
100
AcDbLine
 10
18.95798597883369
 20
0.6321959919978686
 30
0.0
 11
17.84825644852853
 21
1.741925522303024
 31
0.0
  0
LINE
  5
21B17
330
21AE1
100
AcDbEntity
  8
0
  6
CONTINUOUS
100
AcDbLine
 10
19.15756672960882
 20
1.106134450302922
 30
0.0
 11
17.44267562040888
 21
2.821025559502861
 31
0.0
  0
LINE
  5
21B18
330
21AE1
100
AcDbEntity
  8
0
  6
CONTINUOUS
100
AcDbLine
 10
15.83146234993604
 20
3.758719620895513
 30
0.0
 11
14.85691305207612
 21
4.733268918755439
 31
0.0
  0
LINE
  5
21B19
330
21AE1
100
AcDbEntity
  8
0
  6
CONTINUOUS
100
AcDbLine
 10
16.01551512670025
 20
4.248186053211494
 30
0.0
 11
15.04094222313957
 21
5.222758956772172
 31
0.0
  0
LINE
  5
21B1A
330
21AE1
100
AcDbEntity
  8
0
  6
CONTINUOUS
100
AcDbLine
 10
12.90511304310612
 20
6.685068927725435
 30
0.0
 11
10.8270819708403
 21
8.763099999991255
 31
0.0
  0
LINE
  5
21B1B
330
21AE1
100
AcDbEntity
  8
0
  6
CONTINUOUS
100
AcDbLine
 10
12.41513331849066
 20
7.848567861421083
 30
0.0
 11
11.50060117992049
 21
8.763099999991255
 31
0.0
  0
LINE
  5
21B1C
330
21AE1
100
AcDbEntity
  8
0
  6
CONTINUOUS
100
AcDbLine
 10
19.35714748038395
 20
1.580072908607975
 30
0.0
 11
17.03709479228923
 21
3.900125596702697
 31
0.0
  0
LINE
  5
21B1D
330
21AE1
100
AcDbEntity
  8
0
  6
CONTINUOUS
100
AcDbLine
 10
19.55672823115909
 20
2.054011366913028
 30
0.0
 11
16.63151396416958
 21
4.979225633902534
 31
0.0
  0
LINE
  5
21B1E
330
21AE1
100
AcDbEntity
  8
0
  6
CONTINUOUS
100
AcDbLine
 10
16.19956790346445
 20
4.737652485527476
 30
0.0
 11
15.22497139420302
 21
5.712248994788904
 31
0.0
  0
LINE
  5
21B1F
330
21AE1
100
AcDbEntity
  8
0
  6
CONTINUOUS
100
AcDbLine
 10
16.38362068022866
 20
5.227118917843457
 30
0.0
 11
15.40900056526648
 21
6.201739032805637
 31
0.0
  0
LINE
  5
21B20
330
21AE1
100
AcDbEntity
  8
0
  6
CONTINUOUS
100
AcDbLine
 10
19.75630898193422
 20
2.527949825218081
 30
0.0
 11
18.70774536448286
 21
3.576513442669441
 31
0.0
  0
LINE
  5
21B21
330
21AE1
100
AcDbEntity
  8
0
  6
CONTINUOUS
100
AcDbLine
 10
19.95588973270936
 20
3.001888283523134
 30
0.0
 11
18.90726987211446
 21
4.050508144118028
 31
0.0
  0
LINE
  5
21B22
330
21AE1
100
AcDbEntity
  8
0
  6
CONTINUOUS
100
AcDbLine
 10
20.15547048348449
 20
3.475826741828186
 30
0.0
 11
19.10679437974606
 21
4.524502845566614
 31
0.0
  0
LINE
  5
21B23
330
21AE1
100
AcDbEntity
  8
0
  6
CONTINUOUS
100
AcDbLine
 10
20.35505123425962
 20
3.94976520013324
 30
0.0
 11
19.30631888737766
 21
4.998497547015201
 31
0.0
  0
LINE
  5
21B24
330
21AE1
100
AcDbEntity
  8
0
  6
CONTINUOUS
100
AcDbLine
 10
20.55463198503475
 20
4.423703658438292
 30
0.0
 11
19.50584339500926
 21
5.472492248463787
 31
0.0
  0
LINE
  5
21B25
330
21AE1
100
AcDbEntity
  8
0
  6
CONTINUOUS
100
AcDbLine
 10
18.37481191085755
 20
3.909446896294752
 30
0.0
 11
15.59302973632993
 21
6.691229070822371
 31
0.0
  0
LINE
  5
21B26
330
21AE1
100
AcDbEntity
  8
0
  6
CONTINUOUS
100
AcDbLine
 10
17.96904084440766
 20
4.988737171824825
 30
0.0
 11
15.77705890739338
 21
7.180719108839104
 31
0.0
  0
LINE
  5
21B27
330
21AE1
100
AcDbEntity
  8
0
  6
CONTINUOUS
100
AcDbLine
 10
17.56326977795777
 20
6.068027447354899
 30
0.0
 11
15.96108807845684
 21
7.670209146855838
 31
0.0
  0
LINE
  5
21B28
330
21AE1
100
AcDbEntity
  8
0
  6
CONTINUOUS
100
AcDbLine
 10
17.15749871150789
 20
7.147317722884972
 30
0.0
 11
16.14511724952029
 21
8.15969918487257
 31
0.0
  0
LINE
  5
21B29
330
21AE1
100
AcDbEntity
  8
0
  6
CONTINUOUS
100
AcDbLine
 10
16.751727645058
 20
8.226607998415046
 30
0.0
 11
16.32914642058374
 21
8.649189222889303
 31
0.0
  0
LINE
  5
21B2A
330
21AE1
100
AcDbEntity
  8
0
  6
CONTINUOUS
100
AcDbLine
 10
20.75421273580989
 20
4.897642116743345
 30
0.0
 11
19.70536790264086
 21
5.946486949912374
 31
0.0
  0
LINE
  5
21B2B
330
21AE1
100
AcDbEntity
  8
0
  6
CONTINUOUS
100
AcDbLine
 10
20.95379348658502
 20
5.371580575048398
 30
0.0
 11
19.90489241027246
 21
6.42048165136096
 31
0.0
  0
LINE
  5
21B2C
330
21AE1
100
AcDbEntity
  8
0
  6
CONTINUOUS
100
AcDbLine
 10
21.15337423736015
 20
5.845519033353452
 30
0.0
 11
20.10441691790406
 21
6.894476352809547
 31
0.0
  0
LINE
  5
21B2D
330
21AE1
100
AcDbEntity
  8
0
  6
CONTINUOUS
100
AcDbLine
 10
21.35295498813529
 20
6.319457491658505
 30
0.0
 11
20.30394142553566
 21
7.368471054258134
 31
0.0
  0
LINE
  5
21B2E
330
21AE1
100
AcDbEntity
  8
0
  6
CONTINUOUS
100
AcDbLine
 10
21.55253573891042
 20
6.793395949963558
 30
0.0
 11
20.50346593316726
 21
7.842465755706721
 31
0.0
  0
LINE
  5
21B2F
330
21AE1
100
AcDbEntity
  8
0
  6
CONTINUOUS
100
AcDbLine
 10
21.75211648968556
 20
7.267334408268612
 30
0.0
 11
20.70299044079886
 21
8.316460457155308
 31
0.0
  0
LINE
  5
21B30
330
21AE1
100
AcDbEntity
  8
0
  6
CONTINUOUS
100
AcDbLine
 10
21.95169724046069
 20
7.741272866573663
 30
0.0
 11
20.9298701070431
 21
8.763099999991256
 31
0.0
  0
LINE
  5
21B31
330
21AE1
100
AcDbEntity
  8
0
  6
CONTINUOUS
100
AcDbLine
 10
22.15127799123582
 20
8.215211324878716
 30
0.0
 11
21.60338931612328
 21
8.763099999991256
 31
0.0
  0
LINE
  5
21B32
330
21AE1
100
AcDbEntity
  8
0
  6
CONTINUOUS
100
AcDbLine
 10
22.35085874201096
 20
8.689149783183769
 30
0.0
 11
22.27690852520347
 21
8.763099999991255
 31
0.0
  0
ENDBLK
  5
21C24
330
21AE1
100
AcDbEntity
  8
0
100
AcDbBlockEnd
  0
BLOCK
  5
21C25
330
21B33
100
AcDbEntity
  8
0
100
AcDbBlockBegin
  2
*X46
 70
     1
 10
0.0
 20
0.0
 30
0.0
  3
*X46
  1

  0
LINE
  5
21B34
330
21B33
100
AcDbEntity
  8
0
  6
CONTINUOUS
100
AcDbLine
 10
23.19462913593892
 20
8.169917934846424
 30
0.0
 11
23.70775465517246
 21
8.683043454079957
 31
0.0
  0
LINE
  5
21B35
330
21B33
100
AcDbEntity
  8
0
  6
CONTINUOUS
100
AcDbLine
 10
22.64923161835078
 20
6.951001208178088
 30
0.0
 11
23.9159364069932
 21
8.217705996820516
 31
0.0
  0
LINE
  5
21B36
330
21B33
100
AcDbEntity
  8
0
  6
CONTINUOUS
100
AcDbLine
 10
22.10383410076263
 20
5.732084481509751
 30
0.0
 11
24.12411815881395
 21
7.752368539561078
 31
0.0
  0
LINE
  5
21B37
330
21B33
100
AcDbEntity
  8
0
  6
CONTINUOUS
100
AcDbLine
 10
21.55843658317447
 20
4.513167754841414
 30
0.0
 11
24.3322999106347
 21
7.287031082301639
 31
0.0
  0
LINE
  5
21B38
330
21B33
100
AcDbEntity
  8
0
  6
CONTINUOUS
100
AcDbLine
 10
21.01303906558632
 20
3.294251028173077
 30
0.0
 11
24.54048166245544
 21
6.821693625042199
 31
0.0
  0
LINE
  5
21B39
330
21B33
100
AcDbEntity
  8
0
  6
CONTINUOUS
100
AcDbLine
 10
20.46764154799817
 20
2.075334301504738
 30
0.0
 11
23.28571549467848
 21
4.89340824818505
 31
0.0
  0
LINE
  5
21B3A
330
21B33
100
AcDbEntity
  8
0
  6
CONTINUOUS
100
AcDbLine
 10
19.92224403041002
 20
0.8564175748364002
 30
0.0
 11
22.74075865492779
 21
3.674932199354171
 31
0.0
  0
LINE
  5
21B3B
330
21B33
100
AcDbEntity
  8
0
  6
CONTINUOUS
100
AcDbLine
 10
23.67305085490148
 20
5.280743608408048
 30
0.0
 11
24.74866341427619
 21
6.356356167782759
 31
0.0
  0
LINE
  5
21B3C
330
21B33
100
AcDbEntity
  8
0
  6
CONTINUOUS
100
AcDbLine
 10
23.88118970842314
 20
4.815363252849522
 30
0.0
 11
24.95684516609694
 21
5.89101871052332
 31
0.0
  0
LINE
  5
21B3D
330
21B33
100
AcDbEntity
  8
0
  6
CONTINUOUS
100
AcDbLine
 10
19.73925852647308
 20
-0.0000871381807288
 30
0.0
 11
23.4103456646501
 21
3.670999999996297
 31
0.0
  0
LINE
  5
21B3E
330
21B33
100
AcDbEntity
  8
0
  6
CONTINUOUS
100
AcDbLine
 10
24.0893285619448
 20
4.349982897290997
 30
0.0
 11
25.16502691791769
 21
5.42568125326388
 31
0.0
  0
LINE
  5
21B3F
330
21B33
100
AcDbEntity
  8
0
  6
CONTINUOUS
100
AcDbLine
 10
20.41282099582748
 20
-0.0000438779065108
 30
0.0
 11
21.64944178675636
 21
1.236576913022366
 31
0.0
  0
LINE
  5
21B40
330
21B33
100
AcDbEntity
  8
0
  6
CONTINUOUS
100
AcDbLine
 10
22.78126487373161
 20
2.36839999999762
 30
0.0
 11
24.08386487373029
 21
3.670999999996297
 31
0.0
  0
LINE
  5
21B41
330
21B33
100
AcDbEntity
  8
0
  6
CONTINUOUS
100
AcDbLine
 10
24.29746741546646
 20
3.884602541732471
 30
0.0
 11
25.37320866973843
 21
4.960343796004441
 31
0.0
  0
LINE
  5
21B42
330
21B33
100
AcDbEntity
  8
0
  6
CONTINUOUS
100
AcDbLine
 10
21.08638346518189
 20
-0.0000006176322938
 30
0.0
 11
21.10379033335899
 21
0.0174062505448083
 31
0.0
  0
LINE
  5
21B43
330
21B33
100
AcDbEntity
  8
0
  6
CONTINUOUS
100
AcDbLine
 10
23.4547840828118
 20
2.36839999999762
 30
0.0
 11
25.58139042155918
 21
4.495006338745002
 31
0.0
  0
LINE
  5
21B44
330
21B33
100
AcDbEntity
  8
0
  6
CONTINUOUS
100
AcDbLine
 10
29.30199999996933
 20
8.215615917155148
 30
0.0
 11
29.84948408280543
 21
8.763099999991255
 31
0.0
  0
LINE
  5
21B45
330
21B33
100
AcDbEntity
  8
0
  6
CONTINUOUS
100
AcDbLine
 10
24.12830329189199
 20
2.36839999999762
 30
0.0
 11
25.78957217337993
 21
4.029668881485562
 31
0.0
  0
LINE
  5
21B46
330
21B33
100
AcDbEntity
  8
0
  6
CONTINUOUS
100
AcDbLine
 10
29.30199999996933
 20
7.54209670807496
 30
0.0
 11
30.52300329188562
 21
8.763099999991255
 31
0.0
  0
LINE
  5
21B47
330
21B33
100
AcDbEntity
  8
0
  6
CONTINUOUS
100
AcDbLine
 10
24.80182250097217
 20
2.36839999999762
 30
0.0
 11
25.99775392520067
 21
3.564331424226122
 31
0.0
  0
LINE
  5
21B48
330
21B33
100
AcDbEntity
  8
0
  6
CONTINUOUS
100
AcDbLine
 10
29.30199999996933
 20
6.868577498994774
 30
0.0
 11
30.74199999996926
 21
8.308577498994712
 31
0.0
  0
LINE
  5
21B49
330
21B33
100
AcDbEntity
  8
0
  6
CONTINUOUS
100
AcDbLine
 10
25.13028238392013
 20
2.023340673865392
 30
0.0
 11
26.20593567702142
 21
3.098993966966683
 31
0.0
  0
LINE
  5
21B4A
330
21B33
100
AcDbEntity
  8
0
  6
CONTINUOUS
100
AcDbLine
 10
25.33838066033617
 20
1.557919741201244
 30
0.0
 11
26.41411742884217
 21
2.633656509707244
 31
0.0
  0
LINE
  5
21B4B
330
21B33
100
AcDbEntity
  8
0
  6
CONTINUOUS
100
AcDbLine
 10
25.54647893675221
 20
1.092498808537098
 30
0.0
 11
26.62229918066291
 21
2.168319052447804
 31
0.0
  0
LINE
  5
21B4C
330
21B33
100
AcDbEntity
  8
0
  6
CONTINUOUS
100
AcDbLine
 10
25.75457721316825
 20
0.62707787587295
 30
0.0
 11
26.83048093248366
 21
1.702981595188365
 31
0.0
  0
LINE
  5
21B4D
330
21B33
100
AcDbEntity
  8
0
  6
CONTINUOUS
100
AcDbLine
 10
29.30199999996933
 20
6.195058289914587
 30
0.0
 11
30.74199999996926
 21
7.635058289914522
 31
0.0
  0
LINE
  5
21B4E
330
21B33
100
AcDbEntity
  8
0
  6
CONTINUOUS
100
AcDbLine
 10
29.30199999996933
 20
5.521539080834401
 30
0.0
 11
30.74199999996926
 21
6.961539080834331
 31
0.0
  0
LINE
  5
21B4F
330
21B33
100
AcDbEntity
  8
0
  6
CONTINUOUS
100
AcDbLine
 10
29.30199999996933
 20
4.848019871754214
 30
0.0
 11
30.74199999996925
 21
6.288019871754143
 31
0.0
  0
LINE
  5
21B50
330
21B33
100
AcDbEntity
  8
0
  6
CONTINUOUS
100
AcDbLine
 10
29.30199999996933
 20
4.174500662674028
 30
0.0
 11
30.74199999996925
 21
5.614500662673953
 31
0.0
  0
LINE
  5
21B51
330
21B33
100
AcDbEntity
  8
0
  6
CONTINUOUS
100
AcDbLine
 10
25.96267548958429
 20
0.1616569432088024
 30
0.0
 11
27.18411854636669
 21
1.383099999991207
 31
0.0
  0
LINE
  5
21B52
330
21B33
100
AcDbEntity
  8
0
  6
CONTINUOUS
100
AcDbLine
 10
29.30199999996933
 20
3.500981453593841
 30
0.0
 11
30.74199999996925
 21
4.940981453593762
 31
0.0
  0
LINE
  5
21B53
330
21B33
100
AcDbEntity
  8
0
  6
CONTINUOUS
100
AcDbLine
 10
26.50763775544691
 20
0.0330999999912356
 30
0.0
 11
27.85763775544689
 21
1.383099999991223
 31
0.0
  0
LINE
  5
21B54
330
21B33
100
AcDbEntity
  8
0
  6
CONTINUOUS
100
AcDbLine
 10
29.30199999996933
 20
2.827462244513656
 30
0.0
 11
30.74199999996925
 21
4.267462244513574
 31
0.0
  0
LINE
  5
21B55
330
21B33
100
AcDbEntity
  8
0
  6
CONTINUOUS
100
AcDbLine
 10
27.18115696452709
 20
0.0330999999912356
 30
0.0
 11
28.55073879889363
 21
1.402681834357775
 31
0.0
  0
LINE
  5
21B56
330
21B33
100
AcDbEntity
  8
0
  6
CONTINUOUS
100
AcDbLine
 10
29.28241816560272
 20
2.134361201066866
 30
0.0
 11
30.74199999996924
 21
3.593943035433383
 31
0.0
  0
LINE
  5
21B57
330
21B33
100
AcDbEntity
  8
0
  6
CONTINUOUS
100
AcDbLine
 10
27.85467617360728
 20
0.0330999999912356
 30
0.0
 11
30.74199999996924
 21
2.920423826353195
 31
0.0
  0
LINE
  5
21B58
330
21B33
100
AcDbEntity
  8
0
  6
CONTINUOUS
100
AcDbLine
 10
28.53897559587887
 20
0.0438802131826428
 30
0.0
 11
30.73121978677781
 21
2.236124404081585
 31
0.0
  0
LINE
  5
21B59
330
21B33
100
AcDbEntity
  8
0
  6
CONTINUOUS
100
AcDbLine
 10
29.45140055588722
 20
0.2827859641107988
 30
0.0
 11
30.49231403584965
 21
1.323699444073236
 31
0.0
  0
LINE
  5
21B5A
330
21B33
100
AcDbEntity
  8
0
  6
CONTINUOUS
100
AcDbLine
 10
19.59027867740337
 20
-0.0000967065718083
 30
0.0
 11
19.55485265190471
 21
0.035329318926844
 31
0.0
  0
LINE
  5
21B5B
330
21B33
100
AcDbEntity
  8
0
  6
CONTINUOUS
100
AcDbLine
 10
20.26375463176586
 20
-0.0000534518541091
 30
0.0
 11
19.76305575737534
 21
0.5006454225364014
 31
0.0
  0
LINE
  5
21B5C
330
21B33
100
AcDbEntity
  8
0
  6
CONTINUOUS
100
AcDbLine
 10
20.93723058612834
 20
-0.0000101971364099
 30
0.0
 11
19.97125886284597
 21
0.965961526145958
 31
0.0
  0
LINE
  5
21B5D
330
21B33
100
AcDbEntity
  8
0
  6
CONTINUOUS
100
AcDbLine
 10
21.25514828313686
 20
0.355591314935257
 30
0.0
 11
20.1794619683166
 21
1.431277629755512
 31
0.0
  0
LINE
  5
21B5E
330
21B33
100
AcDbEntity
  8
0
  6
CONTINUOUS
100
AcDbLine
 10
21.46338838394921
 20
0.8208704232030986
 30
0.0
 11
20.38766507378723
 21
1.896593733365069
 31
0.0
  0
LINE
  5
21B5F
330
21B33
100
AcDbEntity
  8
0
  6
CONTINUOUS
100
AcDbLine
 10
21.67162848476155
 20
1.28614953147094
 30
0.0
 11
20.59586817925786
 21
2.361909836974626
 31
0.0
  0
LINE
  5
21B60
330
21B33
100
AcDbEntity
  8
0
  6
CONTINUOUS
100
AcDbLine
 10
21.8798685855739
 20
1.751428639738782
 30
0.0
 11
20.80407128472849
 21
2.827225940584183
 31
0.0
  0
LINE
  5
21B61
330
21B33
100
AcDbEntity
  8
0
  6
CONTINUOUS
100
AcDbLine
 10
22.08810868638624
 20
2.216707748006623
 30
0.0
 11
21.01227439019912
 21
3.292542044193739
 31
0.0
  0
LINE
  5
21B62
330
21B33
100
AcDbEntity
  8
0
  6
CONTINUOUS
100
AcDbLine
 10
22.60993564347543
 20
2.36839999999762
 30
0.0
 11
21.22047749566975
 21
3.757858147803296
 31
0.0
  0
LINE
  5
21B63
330
21B33
100
AcDbEntity
  8
0
  6
CONTINUOUS
100
AcDbLine
 10
23.28345485255561
 20
2.36839999999762
 30
0.0
 11
21.42868060114038
 21
4.223174251412853
 31
0.0
  0
LINE
  5
21B64
330
21B33
100
AcDbEntity
  8
0
  6
CONTINUOUS
100
AcDbLine
 10
26.29227406164219
 20
0.0330999999912356
 30
0.0
 11
25.80009199592872
 21
0.5252820657046957
 31
0.0
  0
LINE
  5
21B65
330
21B33
100
AcDbEntity
  8
0
  6
CONTINUOUS
100
AcDbLine
 10
23.9569740616358
 20
2.36839999999762
 30
0.0
 11
21.63688370661101
 21
4.688490355022409
 31
0.0
  0
LINE
  5
21B66
330
21B33
100
AcDbEntity
  8
0
  6
CONTINUOUS
100
AcDbLine
 10
26.96579327072237
 20
0.0330999999912356
 30
0.0
 11
25.2554132311971
 21
1.743480039516508
 31
0.0
  0
LINE
  5
21B67
330
21B33
100
AcDbEntity
  8
0
  6
CONTINUOUS
100
AcDbLine
 10
24.63049327071599
 20
2.36839999999762
 30
0.0
 11
23.32789327071731
 21
3.670999999996297
 31
0.0
  0
LINE
  5
21B68
330
21B33
100
AcDbEntity
  8
0
  6
CONTINUOUS
100
AcDbLine
 10
22.92098674744635
 20
4.077906523267254
 30
0.0
 11
21.84508681208164
 21
5.153806458631966
 31
0.0
  0
LINE
  5
21B69
330
21B33
100
AcDbEntity
  8
0
  6
CONTINUOUS
100
AcDbLine
 10
27.63931247980256
 20
0.0330999999912356
 30
0.0
 11
24.0014124797975
 21
3.670999999996297
 31
0.0
  0
LINE
  5
21B6A
330
21B33
100
AcDbEntity
  8
0
  6
CONTINUOUS
100
AcDbLine
 10
23.129125600968
 20
4.5432868788258
 30
0.0
 11
22.05328991755227
 21
5.619122562241522
 31
0.0
  0
LINE
  5
21B6B
330
21B33
100
AcDbEntity
  8
0
  6
CONTINUOUS
100
AcDbLine
 10
28.31283168888275
 20
0.0330999999912356
 30
0.0
 11
24.16488385994816
 21
4.181047828925828
 31
0.0
  0
LINE
  5
21B6C
330
21B33
100
AcDbEntity
  8
0
  6
CONTINUOUS
100
AcDbLine
 10
23.33726445448964
 20
5.008667234384345
 30
0.0
 11
22.2614930230229
 21
6.084438665851079
 31
0.0
  0
LINE
  5
21B6D
330
21B33
100
AcDbEntity
  8
0
  6
CONTINUOUS
100
AcDbLine
 10
28.92085740005492
 20
0.0985934978992438
 30
0.0
 11
27.63635089796295
 21
1.383099999991217
 31
0.0
  0
LINE
  5
21B6E
330
21B33
100
AcDbEntity
  8
0
  6
CONTINUOUS
100
AcDbLine
 10
26.43704649509776
 20
2.582404402856405
 30
0.0
 11
23.61992702019732
 21
5.399523877756844
 31
0.0
  0
LINE
  5
21B6F
330
21B33
100
AcDbEntity
  8
0
  6
CONTINUOUS
100
AcDbLine
 10
23.54540330801128
 20
5.47404758994289
 30
0.0
 11
22.46969612849353
 21
6.549754769460635
 31
0.0
  0
LINE
  5
21B70
330
21B33
100
AcDbEntity
  8
0
  6
CONTINUOUS
100
AcDbLine
 10
29.42225615078443
 20
0.2707139562499279
 30
0.0
 11
28.30987010704312
 21
1.383099999991234
 31
0.0
  0
LINE
  5
21B71
330
21B33
100
AcDbEntity
  8
0
  6
CONTINUOUS
100
AcDbLine
 10
25.89179548232307
 20
3.801174624711282
 30
0.0
 11
22.67789923396416
 21
7.015070873070191
 31
0.0
  0
LINE
  5
21B72
330
21B33
100
AcDbEntity
  8
0
  6
CONTINUOUS
100
AcDbLine
 10
29.83624534690007
 20
0.5302439692144705
 30
0.0
 11
28.85811781497101
 21
1.508371501143527
 31
0.0
  0
LINE
  5
21B73
330
21B33
100
AcDbEntity
  8
0
  6
CONTINUOUS
100
AcDbLine
 10
25.34654446954838
 20
5.01994484656616
 30
0.0
 11
22.88610233943479
 21
7.480386976679748
 31
0.0
  0
LINE
  5
21B74
330
21B33
100
AcDbEntity
  8
0
  6
CONTINUOUS
100
AcDbLine
 10
30.17865975401872
 20
0.8613487711760022
 30
0.0
 11
29.18888744090175
 21
1.851121084292977
 31
0.0
  0
LINE
  5
21B75
330
21B33
100
AcDbEntity
  8
0
  6
CONTINUOUS
100
AcDbLine
 10
24.80129345677369
 20
6.238715068421037
 30
0.0
 11
23.09430544490542
 21
7.945703080289305
 31
0.0
  0
LINE
  5
21B76
330
21B33
100
AcDbEntity
  8
0
  6
CONTINUOUS
100
AcDbLine
 10
30.45496647202376
 20
1.258561262251155
 30
0.0
 11
29.30199999996933
 21
2.411527734305588
 31
0.0
  0
LINE
  5
21B77
330
21B33
100
AcDbEntity
  8
0
  6
CONTINUOUS
100
AcDbLine
 10
24.256042443999
 20
7.457485290275915
 30
0.0
 11
23.30250855037605
 21
8.411019183898862
 31
0.0
  0
LINE
  5
21B78
330
21B33
100
AcDbEntity
  8
0
  6
CONTINUOUS
100
AcDbLine
 10
30.64868582078271
 20
1.738361122572387
 30
0.0
 11
29.30199999996933
 21
3.085046943385775
 31
0.0
  0
LINE
  5
21B79
330
21B33
100
AcDbEntity
  8
0
  6
CONTINUOUS
100
AcDbLine
 10
23.71079143122431
 20
8.676255512130794
 30
0.0
 11
23.51071165584668
 21
8.876335287508416
 31
0.0
  0
LINE
  5
21B7A
330
21B33
100
AcDbEntity
  8
0
  6
CONTINUOUS
100
AcDbLine
 10
30.73802122914428
 20
2.322544923291007
 30
0.0
 11
29.30199999996933
 21
3.758566152465961
 31
0.0
  0
LINE
  5
21B7B
330
21B33
100
AcDbEntity
  8
0
  6
CONTINUOUS
100
AcDbLine
 10
30.74199999996924
 20
2.992085361546236
 30
0.0
 11
29.30199999996933
 21
4.432085361546148
 31
0.0
  0
LINE
  5
21B7C
330
21B33
100
AcDbEntity
  8
0
  6
CONTINUOUS
100
AcDbLine
 10
30.74199999996924
 20
3.665604570626419
 30
0.0
 11
29.30199999996933
 21
5.105604570626333
 31
0.0
  0
LINE
  5
21B7D
330
21B33
100
AcDbEntity
  8
0
  6
CONTINUOUS
100
AcDbLine
 10
30.74199999996925
 20
4.339123779706602
 30
0.0
 11
29.30199999996933
 21
5.77912377970652
 31
0.0
  0
LINE
  5
21B7E
330
21B33
100
AcDbEntity
  8
0
  6
CONTINUOUS
100
AcDbLine
 10
30.74199999996925
 20
5.012642988786785
 30
0.0
 11
29.30199999996933
 21
6.452642988786707
 31
0.0
  0
LINE
  5
21B7F
330
21B33
100
AcDbEntity
  8
0
  6
CONTINUOUS
100
AcDbLine
 10
30.74199999996925
 20
5.68616219786697
 30
0.0
 11
29.30199999996933
 21
7.126162197866894
 31
0.0
  0
LINE
  5
21B80
330
21B33
100
AcDbEntity
  8
0
  6
CONTINUOUS
100
AcDbLine
 10
30.74199999996925
 20
6.359681406947153
 30
0.0
 11
29.30199999996933
 21
7.799681406947081
 31
0.0
  0
LINE
  5
21B81
330
21B33
100
AcDbEntity
  8
0
  6
CONTINUOUS
100
AcDbLine
 10
30.74199999996926
 20
7.033200616027337
 30
0.0
 11
29.30199999996933
 21
8.473200616027269
 31
0.0
  0
LINE
  5
21B82
330
21B33
100
AcDbEntity
  8
0
  6
CONTINUOUS
100
AcDbLine
 10
30.74199999996926
 20
7.706719825107518
 30
0.0
 11
29.68561982508552
 21
8.763099999991255
 31
0.0
  0
LINE
  5
21B83
330
21B33
100
AcDbEntity
  8
0
  6
CONTINUOUS
100
AcDbLine
 10
30.74199999996926
 20
8.380239034187703
 30
0.0
 11
30.35913903416571
 21
8.763099999991255
 31
0.0
  0
ENDBLK
  5
21C26
330
21B33
100
AcDbEntity
  8
0
100
AcDbBlockEnd
  0
BLOCK
  5
21C27
330
21B84
100
AcDbEntity
  8
0
100
AcDbBlockBegin
  2
*X47
 70
     1
 10
0.0
 20
0.0
 30
0.0
  3
*X47
  1

  0
LINE
  5
21B85
330
21B84
100
AcDbEntity
  8
0
  6
CONTINUOUS
100
AcDbLine
 10
31.64199999996833
 20
8.535058289913598
 30
0.0
 11
31.87004171004599
 21
8.763099999991255
 31
0.0
  0
LINE
  5
21B86
330
21B84
100
AcDbEntity
  8
0
  6
CONTINUOUS
100
AcDbLine
 10
31.64199999996833
 20
7.861539080833412
 30
0.0
 11
32.54356091912618
 21
8.763099999991255
 31
0.0
  0
LINE
  5
21B87
330
21B84
100
AcDbEntity
  8
0
  6
CONTINUOUS
100
AcDbLine
 10
31.64199999996833
 20
7.188019871753226
 30
0.0
 11
33.08199999996839
 21
8.628019871753281
 31
0.0
  0
LINE
  5
21B88
330
21B84
100
AcDbEntity
  8
0
  6
CONTINUOUS
100
AcDbLine
 10
31.64199999996833
 20
6.51450066267304
 30
0.0
 11
33.08199999996839
 21
7.954500662673095
 31
0.0
  0
LINE
  5
21B89
330
21B84
100
AcDbEntity
  8
0
  6
CONTINUOUS
100
AcDbLine
 10
31.64199999996833
 20
5.840981453592853
 30
0.0
 11
33.08199999996839
 21
7.280981453592908
 31
0.0
  0
LINE
  5
21B8A
330
21B84
100
AcDbEntity
  8
0
  6
CONTINUOUS
100
AcDbLine
 10
31.64199999996833
 20
5.167462244512667
 30
0.0
 11
33.08199999996839
 21
6.607462244512721
 31
0.0
  0
LINE
  5
21B8B
330
21B84
100
AcDbEntity
  8
0
  6
CONTINUOUS
100
AcDbLine
 10
31.64199999996833
 20
4.493943035432481
 30
0.0
 11
33.08199999996839
 21
5.933943035432535
 31
0.0
  0
LINE
  5
21B8C
330
21B84
100
AcDbEntity
  8
0
  6
CONTINUOUS
100
AcDbLine
 10
31.64199999996833
 20
3.820423826352293
 30
0.0
 11
33.08199999996839
 21
5.260423826352348
 31
0.0
  0
LINE
  5
21B8D
330
21B84
100
AcDbEntity
  8
0
  6
CONTINUOUS
100
AcDbLine
 10
31.64199999996833
 20
3.146904617272106
 30
0.0
 11
33.08199999996839
 21
4.586904617272161
 31
0.0
  0
LINE
  5
21B8E
330
21B84
100
AcDbEntity
  8
0
  6
CONTINUOUS
100
AcDbLine
 10
36.23199999996837
 20
8.410423826352325
 30
0.0
 11
36.5846761736073
 21
8.763099999991255
 31
0.0
  0
LINE
  5
21B8F
330
21B84
100
AcDbEntity
  8
0
  6
CONTINUOUS
100
AcDbLine
 10
36.23199999996837
 20
7.73690461727214
 30
0.0
 11
37.25819538268748
 21
8.763099999991255
 31
0.0
  0
LINE
  5
21B90
330
21B84
100
AcDbEntity
  8
0
  6
CONTINUOUS
100
AcDbLine
 10
31.64257403601376
 20
2.473959444237348
 30
0.0
 11
33.08199999996839
 21
3.913385408191974
 31
0.0
  0
LINE
  5
21B91
330
21B84
100
AcDbEntity
  8
0
  6
CONTINUOUS
100
AcDbLine
 10
36.23199999996837
 20
7.063385408191953
 30
0.0
 11
37.67199999996831
 21
8.503385408191894
 31
0.0
  0
LINE
  5
21B92
330
21B84
100
AcDbEntity
  8
0
  6
CONTINUOUS
100
AcDbLine
 10
31.72013636841932
 20
1.87800256756272
 30
0.0
 11
33.08199999996839
 21
3.239866199111788
 31
0.0
  0
LINE
  5
21B93
330
21B84
100
AcDbEntity
  8
0
  6
CONTINUOUS
100
AcDbLine
 10
36.23199999996837
 20
6.389866199111767
 30
0.0
 11
37.67199999996831
 21
7.829866199111708
 31
0.0
  0
LINE
  5
21B94
330
21B84
100
AcDbEntity
  8
0
  6
CONTINUOUS
100
AcDbLine
 10
31.89042734314753
 20
1.374774333210744
 30
0.0
 11
33.08199999996839
 21
2.566346990031601
 31
0.0
  0
LINE
  5
21B95
330
21B84
100
AcDbEntity
  8
0
  6
CONTINUOUS
100
AcDbLine
 10
36.23199999996837
 20
5.71634699003158
 30
0.0
 11
37.67199999996831
 21
7.156346990031521
 31
0.0
  0
LINE
  5
21B96
330
21B84
100
AcDbEntity
  8
0
  6
CONTINUOUS
100
AcDbLine
 10
32.14210568064475
 20
0.952933461627778
 30
0.0
 11
33.18745552475986
 21
1.998283305742888
 31
0.0
  0
LINE
  5
21B97
330
21B84
100
AcDbEntity
  8
0
  6
CONTINUOUS
100
AcDbLine
 10
36.23199999996837
 20
5.042827780951393
 30
0.0
 11
37.67199999996831
 21
6.482827780951334
 31
0.0
  0
LINE
  5
21B98
330
21B84
100
AcDbEntity
  8
0
  6
CONTINUOUS
100
AcDbLine
 10
32.45820639400955
 20
0.5955149659123915
 30
0.0
 11
33.47242681921943
 21
1.60973539112227
 31
0.0
  0
LINE
  5
21B99
330
21B84
100
AcDbEntity
  8
0
  6
CONTINUOUS
100
AcDbLine
 10
36.23199999996837
 20
4.369308571871207
 30
0.0
 11
37.67199999996831
 21
5.809308571871147
 31
0.0
  0
LINE
  5
21B9A
330
21B84
100
AcDbEntity
  8
0
  6
CONTINUOUS
100
AcDbLine
 10
32.83432456621412
 20
0.2981139290367771
 30
0.0
 11
33.89722476612215
 21
1.361014128944803
 31
0.0
  0
LINE
  5
21B9B
330
21B84
100
AcDbEntity
  8
0
  6
CONTINUOUS
100
AcDbLine
 10
36.23199999996837
 20
3.69578936279102
 30
0.0
 11
37.67199999996831
 21
5.135789362790962
 31
0.0
  0
LINE
  5
21B9C
330
21B84
100
AcDbEntity
  8
0
  6
CONTINUOUS
100
AcDbLine
 10
33.2711633111245
 20
0.0614334648669672
 30
0.0
 11
34.43247338014423
 21
1.222743533886696
 31
0.0
  0
LINE
  5
21B9D
330
21B84
100
AcDbEntity
  8
0
  6
CONTINUOUS
100
AcDbLine
 10
36.23199999996837
 20
3.022270153710834
 30
0.0
 11
37.67199999996831
 21
4.462270153710775
 31
0.0
  0
LINE
  5
21B9E
330
21B84
100
AcDbEntity
  8
0
  6
CONTINUOUS
100
AcDbLine
 10
33.76515245874577
 20
-0.1180965965919523
 30
0.0
 11
35.1587445516215
 21
1.27549549628378
 31
0.0
  0
LINE
  5
21B9F
330
21B84
100
AcDbEntity
  8
0
  6
CONTINUOUS
100
AcDbLine
 10
36.21639478609585
 20
2.333145730758136
 30
0.0
 11
37.67199999996831
 21
3.788750944630588
 31
0.0
  0
LINE
  5
21BA0
330
21B84
100
AcDbEntity
  8
0
  6
CONTINUOUS
100
AcDbLine
 10
34.34060583368432
 20
-0.2161624307335863
 30
0.0
 11
37.67199999996831
 21
3.115231735550401
 31
0.0
  0
LINE
  5
21BA1
330
21B84
100
AcDbEntity
  8
0
  6
CONTINUOUS
100
AcDbLine
 10
35.01698193613905
 20
-0.2133055373590427
 30
0.0
 11
37.66876712070525
 21
2.438479647207154
 31
0.0
  0
LINE
  5
21BA2
330
21B84
100
AcDbEntity
  8
0
  6
CONTINUOUS
100
AcDbLine
 10
35.90743367693304
 20
0.0036269943547609
 30
0.0
 11
37.51723902192366
 21
1.613432339345381
 31
0.0
  0
LINE
  5
21BA3
330
21B84
100
AcDbEntity
  8
0
  6
CONTINUOUS
100
AcDbLine
 10
32.55309425579761
 20
0.5074718966376706
 30
0.0
 11
32.27784730925847
 21
0.7827188431768102
 31
0.0
  0
LINE
  5
21BA4
330
21B84
100
AcDbEntity
  8
0
  6
CONTINUOUS
100
AcDbLine
 10
33.87496468909684
 20
-0.1408793275813673
 30
0.0
 11
31.67993083278052
 21
2.054154528734943
 31
0.0
  0
LINE
  5
21BA5
330
21B84
100
AcDbEntity
  8
0
  6
CONTINUOUS
100
AcDbLine
 10
34.64362813207632
 20
-0.2360235614806649
 30
0.0
 11
31.64199999996833
 21
2.765604570627322
 31
0.0
  0
LINE
  5
21BA6
330
21B84
100
AcDbEntity
  8
0
  6
CONTINUOUS
100
AcDbLine
 10
35.25801106796118
 20
-0.1768872882853429
 30
0.0
 11
31.64199999996833
 21
3.439123779707508
 31
0.0
  0
LINE
  5
21BA7
330
21B84
100
AcDbEntity
  8
0
  6
CONTINUOUS
100
AcDbLine
 10
35.79065650332146
 20
-0.0360135145654361
 30
0.0
 11
34.54143210838231
 21
1.213210880373721
 31
0.0
  0
LINE
  5
21BA8
330
21B84
100
AcDbEntity
  8
0
  6
CONTINUOUS
100
AcDbLine
 10
33.08199999996839
 20
2.67264298878764
 30
0.0
 11
31.64199999996833
 21
4.112642988787695
 31
0.0
  0
LINE
  5
21BA9
330
21B84
100
AcDbEntity
  8
0
  6
CONTINUOUS
100
AcDbLine
 10
36.25975597779143
 20
0.1684062200447833
 30
0.0
 11
35.15395110240023
 21
1.274211095435983
 31
0.0
  0
LINE
  5
21BAA
330
21B84
100
AcDbEntity
  8
0
  6
CONTINUOUS
100
AcDbLine
 10
33.08199999996839
 20
3.346162197867826
 30
0.0
 11
31.64199999996833
 21
4.786162197867881
 31
0.0
  0
LINE
  5
21BAB
330
21B84
100
AcDbEntity
  8
0
  6
CONTINUOUS
100
AcDbLine
 10
36.67226329638774
 20
0.4294181105286579
 30
0.0
 11
35.63766478748767
 21
1.464016619428737
 31
0.0
  0
LINE
  5
21BAC
330
21B84
100
AcDbEntity
  8
0
  6
CONTINUOUS
100
AcDbLine
 10
33.08199999996839
 20
4.019681406948012
 30
0.0
 11
31.64199999996833
 21
5.459681406948068
 31
0.0
  0
LINE
  5
21BAD
330
21B84
100
AcDbEntity
  8
0
  6
CONTINUOUS
100
AcDbLine
 10
37.01677749710036
 20
0.7584231188962329
 30
0.0
 11
35.99563422741351
 21
1.779566388583076
 31
0.0
  0
LINE
  5
21BAE
330
21B84
100
AcDbEntity
  8
0
  6
CONTINUOUS
100
AcDbLine
 10
33.08199999996839
 20
4.693200616028199
 30
0.0
 11
31.64199999996833
 21
6.133200616028255
 31
0.0
  0
LINE
  5
21BAF
330
21B84
100
AcDbEntity
  8
0
  6
CONTINUOUS
100
AcDbLine
 10
37.29859977568887
 20
1.1501200493879
 30
0.0
 11
36.20680593341555
 21
2.241913891661226
 31
0.0
  0
LINE
  5
21BB0
330
21B84
100
AcDbEntity
  8
0
  6
CONTINUOUS
100
AcDbLine
 10
33.08199999996839
 20
5.366719825108386
 30
0.0
 11
31.64199999996833
 21
6.80671982510844
 31
0.0
  0
LINE
  5
21BB1
330
21B84
100
AcDbEntity
  8
0
  6
CONTINUOUS
100
AcDbLine
 10
37.5148623517228
 20
1.607376682434161
 30
0.0
 11
36.23199999996837
 21
2.890239034188594
 31
0.0
  0
LINE
  5
21BB2
330
21B84
100
AcDbEntity
  8
0
  6
CONTINUOUS
100
AcDbLine
 10
33.08199999996839
 20
6.040239034188573
 30
0.0
 11
31.64199999996833
 21
7.480239034188627
 31
0.0
  0
LINE
  5
21BB3
330
21B84
100
AcDbEntity
  8
0
  6
CONTINUOUS
100
AcDbLine
 10
37.64705163358367
 20
2.148706609653477
 30
0.0
 11
36.23199999996837
 21
3.56375824326878
 31
0.0
  0
LINE
  5
21BB4
330
21B84
100
AcDbEntity
  8
0
  6
CONTINUOUS
100
AcDbLine
 10
33.08199999996839
 20
6.713758243268758
 30
0.0
 11
31.64199999996833
 21
8.153758243268815
 31
0.0
  0
LINE
  5
21BB5
330
21B84
100
AcDbEntity
  8
0
  6
CONTINUOUS
100
AcDbLine
 10
37.67199999996831
 20
2.797277452349026
 30
0.0
 11
36.23199999996837
 21
4.237277452348967
 31
0.0
  0
LINE
  5
21BB6
330
21B84
100
AcDbEntity
  8
0
  6
CONTINUOUS
100
AcDbLine
 10
37.67199999996831
 20
3.470796661429213
 30
0.0
 11
36.23199999996837
 21
4.910796661429154
 31
0.0
  0
LINE
  5
21BB7
330
21B84
100
AcDbEntity
  8
0
  6
CONTINUOUS
100
AcDbLine
 10
37.67199999996831
 20
4.144315870509399
 30
0.0
 11
36.23199999996837
 21
5.58431587050934
 31
0.0
  0
LINE
  5
21BB8
330
21B84
100
AcDbEntity
  8
0
  6
CONTINUOUS
100
AcDbLine
 10
33.08199999996839
 20
7.387277452348945
 30
0.0
 11
31.70617745232608
 21
8.763099999991255
 31
0.0
  0
LINE
  5
21BB9
330
21B84
100
AcDbEntity
  8
0
  6
CONTINUOUS
100
AcDbLine
 10
33.08199999996839
 20
8.060796661429132
 30
0.0
 11
32.37969666140626
 21
8.763099999991255
 31
0.0
  0
LINE
  5
21BBA
330
21B84
100
AcDbEntity
  8
0
  6
CONTINUOUS
100
AcDbLine
 10
33.08199999996839
 20
8.734315870509318
 30
0.0
 11
33.05321587048645
 21
8.763099999991255
 31
0.0
  0
LINE
  5
21BBB
330
21B84
100
AcDbEntity
  8
0
  6
CONTINUOUS
100
AcDbLine
 10
37.67199999996831
 20
4.817835079589585
 30
0.0
 11
36.23199999996837
 21
6.257835079589526
 31
0.0
  0
LINE
  5
21BBC
330
21B84
100
AcDbEntity
  8
0
  6
CONTINUOUS
100
AcDbLine
 10
37.67199999996831
 20
5.491354288669771
 30
0.0
 11
36.23199999996837
 21
6.931354288669713
 31
0.0
  0
LINE
  5
21BBD
330
21B84
100
AcDbEntity
  8
0
  6
CONTINUOUS
100
AcDbLine
 10
37.67199999996831
 20
6.164873497749958
 30
0.0
 11
36.23199999996837
 21
7.6048734977499
 31
0.0
  0
LINE
  5
21BBE
330
21B84
100
AcDbEntity
  8
0
  6
CONTINUOUS
100
AcDbLine
 10
37.67199999996831
 20
6.838392706830144
 30
0.0
 11
36.23199999996837
 21
8.278392706830086
 31
0.0
  0
LINE
  5
21BBF
330
21B84
100
AcDbEntity
  8
0
  6
CONTINUOUS
100
AcDbLine
 10
37.67199999996831
 20
7.511911915910332
 30
0.0
 11
36.42081191588738
 21
8.763099999991255
 31
0.0
  0
LINE
  5
21BC0
330
21B84
100
AcDbEntity
  8
0
  6
CONTINUOUS
100
AcDbLine
 10
37.67199999996831
 20
8.185431124990519
 30
0.0
 11
37.09433112496757
 21
8.763099999991255
 31
0.0
  0
ENDBLK
  5
21C28
330
21B84
100
AcDbEntity
  8
0
100
AcDbBlockEnd
  0
BLOCK
  5
21C29
330
21BC1
100
AcDbEntity
  8
0
100
AcDbBlockBegin
  2
*X48
 70
     1
 10
0.0
 20
0.0
 30
0.0
  3
*X48
  1

  0
LINE
  5
21BC2
330
21BC1
100
AcDbEntity
  8
0
  6
CONTINUOUS
100
AcDbLine
 10
38.60499999996136
 20
8.762866199104765
 30
0.0
 11
38.71672554182345
 21
8.874591740966855
 31
0.0
  0
LINE
  5
21BC3
330
21BC1
100
AcDbEntity
  8
0
  6
CONTINUOUS
100
AcDbLine
 10
38.60499999996136
 20
8.089346990024577
 30
0.0
 11
39.03418785440363
 21
8.518534844466847
 31
0.0
  0
LINE
  5
21BC4
330
21BC1
100
AcDbEntity
  8
0
  6
CONTINUOUS
100
AcDbLine
 10
38.60499999996136
 20
7.41582778094439
 30
0.0
 11
39.35165016698382
 21
8.16247794796684
 31
0.0
  0
LINE
  5
21BC5
330
21BC1
100
AcDbEntity
  8
0
  6
CONTINUOUS
100
AcDbLine
 10
38.60499999996136
 20
6.742308571864204
 30
0.0
 11
39.66911247956399
 21
7.806421051466834
 31
0.0
  0
LINE
  5
21BC6
330
21BC1
100
AcDbEntity
  8
0
  6
CONTINUOUS
100
AcDbLine
 10
38.60499999996136
 20
6.068789362784018
 30
0.0
 11
39.98657479214418
 21
7.450364154966827
 31
0.0
  0
LINE
  5
21BC7
330
21BC1
100
AcDbEntity
  8
0
  6
CONTINUOUS
100
AcDbLine
 10
38.60499999996136
 20
5.395270153703832
 30
0.0
 11
40.30403710472435
 21
7.09430725846682
 31
0.0
  0
LINE
  5
21BC8
330
21BC1
100
AcDbEntity
  8
0
  6
CONTINUOUS
100
AcDbLine
 10
38.60499999996136
 20
4.721750944623645
 30
0.0
 11
40.62149941730453
 21
6.738250361966813
 31
0.0
  0
LINE
  5
21BC9
330
21BC1
100
AcDbEntity
  8
0
  6
CONTINUOUS
100
AcDbLine
 10
38.60499999996136
 20
4.048231735543458
 30
0.0
 11
40.93896172988471
 21
6.382193465466806
 31
0.0
  0
LINE
  5
21BCA
330
21BC1
100
AcDbEntity
  8
0
  6
CONTINUOUS
100
AcDbLine
 10
38.60499999996136
 20
3.374712526463272
 30
0.0
 11
40.02599999995994
 21
4.795712526461843
 31
0.0
  0
LINE
  5
21BCB
330
21BC1
100
AcDbEntity
  8
0
  6
CONTINUOUS
100
AcDbLine
 10
38.60499999996136
 20
2.701193317383085
 30
0.0
 11
40.02599999995994
 21
4.122193317381657
 31
0.0
  0
LINE
  5
21BCC
330
21BC1
100
AcDbEntity
  8
0
  6
CONTINUOUS
100
AcDbLine
 10
40.28339754687704
 20
5.053110073378947
 30
0.0
 11
41.25642404246489
 21
6.026136568966799
 31
0.0
  0
LINE
  5
21BCD
330
21BC1
100
AcDbEntity
  8
0
  6
CONTINUOUS
100
AcDbLine
 10
40.60085985945722
 20
4.697053176878939
 30
0.0
 11
41.57388635504507
 21
5.670079672466793
 31
0.0
  0
LINE
  5
21BCE
330
21BC1
100
AcDbEntity
  8
0
  6
CONTINUOUS
100
AcDbLine
 10
43.57899999995641
 20
8.348712526458318
 30
0.0
 11
43.99338747348935
 21
8.763099999991255
 31
0.0
  0
LINE
  5
21BCF
330
21BC1
100
AcDbEntity
  8
0
  6
CONTINUOUS
100
AcDbLine
 10
43.57899999995641
 20
7.675193317378131
 30
0.0
 11
44.66690668256953
 21
8.763099999991255
 31
0.0
  0
LINE
  5
21BD0
330
21BC1
100
AcDbEntity
  8
0
  6
CONTINUOUS
100
AcDbLine
 10
38.60499999996136
 20
2.027674108302898
 30
0.0
 11
40.02599999995994
 21
3.44867410830147
 31
0.0
  0
LINE
  5
21BD1
330
21BC1
100
AcDbEntity
  8
0
  6
CONTINUOUS
100
AcDbLine
 10
38.60499999996136
 20
1.354154899222712
 30
0.0
 11
40.02599999995994
 21
2.775154899221284
 31
0.0
  0
LINE
  5
21BD2
330
21BC1
100
AcDbEntity
  8
0
  6
CONTINUOUS
100
AcDbLine
 10
38.60499999996136
 20
0.6806356901425255
 30
0.0
 11
40.02599999995994
 21
2.101635690141098
 31
0.0
  0
LINE
  5
21BD3
330
21BC1
100
AcDbEntity
  8
0
  6
CONTINUOUS
100
AcDbLine
 10
38.60499999996136
 20
0.0071164810623383
 30
0.0
 11
40.02599999995994
 21
1.428116481060911
 31
0.0
  0
LINE
  5
21BD4
330
21BC1
100
AcDbEntity
  8
0
  6
CONTINUOUS
100
AcDbLine
 10
40.9183221720374
 20
4.340996280378933
 30
0.0
 11
41.89134866762525
 21
5.314022775966786
 31
0.0
  0
LINE
  5
21BD5
330
21BC1
100
AcDbEntity
  8
0
  6
CONTINUOUS
100
AcDbLine
 10
41.23578448461758
 20
3.984939383878926
 30
0.0
 11
42.20881098020543
 21
4.957965879466778
 31
0.0
  0
LINE
  5
21BD6
330
21BC1
100
AcDbEntity
  8
0
  6
CONTINUOUS
100
AcDbLine
 10
41.55324679719776
 20
3.628882487378919
 30
0.0
 11
42.52627329278561
 21
4.601908982966772
 31
0.0
  0
LINE
  5
21BD7
330
21BC1
100
AcDbEntity
  8
0
  6
CONTINUOUS
100
AcDbLine
 10
41.87070910977793
 20
3.272825590878912
 30
0.0
 11
42.84373560536579
 21
4.245852086466765
 31
0.0
  0
LINE
  5
21BD8
330
21BC1
100
AcDbEntity
  8
0
  6
CONTINUOUS
100
AcDbLine
 10
43.57899999995641
 20
7.001674108297943
 30
0.0
 11
44.99999999995498
 21
8.422674108296516
 31
0.0
  0
LINE
  5
21BD9
330
21BC1
100
AcDbEntity
  8
0
  6
CONTINUOUS
100
AcDbLine
 10
43.57899999995641
 20
6.328154899217758
 30
0.0
 11
44.99999999995498
 21
7.749154899216329
 31
0.0
  0
LINE
  5
21BDA
330
21BC1
100
AcDbEntity
  8
0
  6
CONTINUOUS
100
AcDbLine
 10
43.57899999995641
 20
5.654635690137571
 30
0.0
 11
44.99999999995498
 21
7.075635690136142
 31
0.0
  0
LINE
  5
21BDB
330
21BC1
100
AcDbEntity
  8
0
  6
CONTINUOUS
100
AcDbLine
 10
43.57899999995641
 20
4.981116481057384
 30
0.0
 11
44.99999999995498
 21
6.402116481055955
 31
0.0
  0
LINE
  5
21BDC
330
21BC1
100
AcDbEntity
  8
0
  6
CONTINUOUS
100
AcDbLine
 10
39.27140272797921
 20
-0.0000000000000009
 30
0.0
 11
40.02599999995994
 21
0.7545972719807246
 31
0.0
  0
LINE
  5
21BDD
330
21BC1
100
AcDbEntity
  8
0
  6
CONTINUOUS
100
AcDbLine
 10
39.9449219370594
 20
-0.0000000000000009
 30
0.0
 11
40.02599999995994
 21
0.0810780629005379
 31
0.0
  0
LINE
  5
21BDE
330
21BC1
100
AcDbEntity
  8
0
  6
CONTINUOUS
100
AcDbLine
 10
42.18817142235812
 20
2.916768694378905
 30
0.0
 11
43.16119791794597
 21
3.889795189966758
 31
0.0
  0
LINE
  5
21BDF
330
21BC1
100
AcDbEntity
  8
0
  6
CONTINUOUS
100
AcDbLine
 10
42.50563373493829
 20
2.560711797878898
 30
0.0
 11
43.47866023052615
 21
3.533738293466751
 31
0.0
  0
LINE
  5
21BE0
330
21BC1
100
AcDbEntity
  8
0
  6
CONTINUOUS
100
AcDbLine
 10
43.57899999995641
 20
4.307597271977198
 30
0.0
 11
44.99999999995498
 21
5.728597271975769
 31
0.0
  0
LINE
  5
21BE1
330
21BC1
100
AcDbEntity
  8
0
  6
CONTINUOUS
100
AcDbLine
 10
43.57899999995641
 20
3.634078062897011
 30
0.0
 11
44.99999999995498
 21
5.055078062895582
 31
0.0
  0
LINE
  5
21BE2
330
21BC1
100
AcDbEntity
  8
0
  6
CONTINUOUS
100
AcDbLine
 10
42.82309604751848
 20
2.204654901378891
 30
0.0
 11
44.99999999995498
 21
4.381558853815395
 31
0.0
  0
LINE
  5
21BE3
330
21BC1
100
AcDbEntity
  8
0
  6
CONTINUOUS
100
AcDbLine
 10
43.14055836009865
 20
1.848598004878885
 30
0.0
 11
44.99999999995498
 21
3.70803964473521
 31
0.0
  0
LINE
  5
21BE4
330
21BC1
100
AcDbEntity
  8
0
  6
CONTINUOUS
100
AcDbLine
 10
43.45802067267883
 20
1.492541108378878
 30
0.0
 11
44.99999999995498
 21
3.034520435655023
 31
0.0
  0
LINE
  5
21BE5
330
21BC1
100
AcDbEntity
  8
0
  6
CONTINUOUS
100
AcDbLine
 10
43.77548298525902
 20
1.136484211878871
 30
0.0
 11
44.99999999995498
 21
2.361001226574837
 31
0.0
  0
LINE
  5
21BE6
330
21BC1
100
AcDbEntity
  8
0
  6
CONTINUOUS
100
AcDbLine
 10
44.09294529783919
 20
0.7804273153788639
 30
0.0
 11
44.99999999995498
 21
1.687482017494649
 31
0.0
  0
LINE
  5
21BE7
330
21BC1
100
AcDbEntity
  8
0
  6
CONTINUOUS
100
AcDbLine
 10
44.41040761041938
 20
0.4243704188788566
 30
0.0
 11
44.99999999995498
 21
1.013962808414463
 31
0.0
  0
LINE
  5
21BE8
330
21BC1
100
AcDbEntity
  8
0
  6
CONTINUOUS
100
AcDbLine
 10
44.72786992299955
 20
0.0683135223788494
 30
0.0
 11
44.99999999995498
 21
0.340443599334276
 31
0.0
  0
LINE
  5
21BE9
330
21BC1
100
AcDbEntity
  8
0
  6
CONTINUOUS
100
AcDbLine
 10
39.12223903415696
 20
-0.0000000000000009
 30
0.0
 11
38.60499999996136
 21
0.5172390341955961
 31
0.0
  0
LINE
  5
21BEA
330
21BC1
100
AcDbEntity
  8
0
  6
CONTINUOUS
100
AcDbLine
 10
39.79575824323715
 20
-0.0000000000000009
 30
0.0
 11
38.60499999996136
 21
1.190758243275783
 31
0.0
  0
LINE
  5
21BEB
330
21BC1
100
AcDbEntity
  8
0
  6
CONTINUOUS
100
AcDbLine
 10
40.02599999995994
 20
0.443277452357397
 30
0.0
 11
38.60499999996136
 21
1.864277452355969
 31
0.0
  0
LINE
  5
21BEC
330
21BC1
100
AcDbEntity
  8
0
  6
CONTINUOUS
100
AcDbLine
 10
40.02599999995994
 20
1.116796661437583
 30
0.0
 11
38.60499999996136
 21
2.537796661436155
 31
0.0
  0
LINE
  5
21BED
330
21BC1
100
AcDbEntity
  8
0
  6
CONTINUOUS
100
AcDbLine
 10
40.02599999995994
 20
1.79031587051777
 30
0.0
 11
38.60499999996136
 21
3.211315870516341
 31
0.0
  0
LINE
  5
21BEE
330
21BC1
100
AcDbEntity
  8
0
  6
CONTINUOUS
100
AcDbLine
 10
40.02599999995994
 20
2.463835079597956
 30
0.0
 11
38.60499999996136
 21
3.884835079596527
 31
0.0
  0
LINE
  5
21BEF
330
21BC1
100
AcDbEntity
  8
0
  6
CONTINUOUS
100
AcDbLine
 10
40.02599999995994
 20
3.137354288678143
 30
0.0
 11
38.60499999996136
 21
4.558354288676714
 31
0.0
  0
LINE
  5
21BF0
330
21BC1
100
AcDbEntity
  8
0
  6
CONTINUOUS
100
AcDbLine
 10
40.02599999995994
 20
3.810873497758329
 30
0.0
 11
38.60499999996136
 21
5.2318734977569
 31
0.0
  0
LINE
  5
21BF1
330
21BC1
100
AcDbEntity
  8
0
  6
CONTINUOUS
100
AcDbLine
 10
40.02599999995994
 20
4.484392706838515
 30
0.0
 11
38.60499999996136
 21
5.905392706837086
 31
0.0
  0
LINE
  5
21BF2
330
21BC1
100
AcDbEntity
  8
0
  6
CONTINUOUS
100
AcDbLine
 10
44.99999999995498
 20
0.183911915923658
 30
0.0
 11
41.53858364506288
 21
3.64532827081576
 31
0.0
  0
LINE
  5
21BF3
330
21BC1
100
AcDbEntity
  8
0
  6
CONTINUOUS
100
AcDbLine
 10
40.02599999995994
 20
5.157911915918703
 30
0.0
 11
38.60499999996136
 21
6.578911915917274
 31
0.0
  0
LINE
  5
21BF4
330
21BC1
100
AcDbEntity
  8
0
  6
CONTINUOUS
100
AcDbLine
 10
44.99999999995498
 20
0.8574311250038447
 30
0.0
 11
38.60499999996136
 21
7.25243112499746
 31
0.0
  0
LINE
  5
21BF5
330
21BC1
100
AcDbEntity
  8
0
  6
CONTINUOUS
100
AcDbLine
 10
44.99999999995498
 20
1.530950334084031
 30
0.0
 11
38.60499999996136
 21
7.925950334077647
 31
0.0
  0
LINE
  5
21BF6
330
21BC1
100
AcDbEntity
  8
0
  6
CONTINUOUS
100
AcDbLine
 10
44.99999999995498
 20
2.204469543164218
 30
0.0
 11
43.57899999995641
 21
3.625469543162789
 31
0.0
  0
LINE
  5
21BF7
330
21BC1
100
AcDbEntity
  8
0
  6
CONTINUOUS
100
AcDbLine
 10
41.89876730984767
 20
5.305702233271528
 30
0.0
 11
38.60499999996136
 21
8.599469543157834
 31
0.0
  0
LINE
  5
21BF8
330
21BC1
100
AcDbEntity
  8
0
  6
CONTINUOUS
100
AcDbLine
 10
44.99999999995498
 20
2.877988752244405
 30
0.0
 11
43.57899999995641
 21
4.298988752242975
 31
0.0
  0
LINE
  5
21BF9
330
21BC1
100
AcDbEntity
  8
0
  6
CONTINUOUS
100
AcDbLine
 10
44.99999999995498
 20
3.551507961324591
 30
0.0
 11
43.57899999995641
 21
4.972507961323163
 31
0.0
  0
LINE
  5
21BFA
330
21BC1
100
AcDbEntity
  8
0
  6
CONTINUOUS
100
AcDbLine
 10
44.99999999995498
 20
4.225027170404777
 30
0.0
 11
43.57899999995641
 21
5.646027170403348
 31
0.0
  0
LINE
  5
21BFB
330
21BC1
100
AcDbEntity
  8
0
  6
CONTINUOUS
100
AcDbLine
 10
44.99999999995498
 20
4.898546379484964
 30
0.0
 11
43.57899999995641
 21
6.319546379483535
 31
0.0
  0
LINE
  5
21BFC
330
21BC1
100
AcDbEntity
  8
0
  6
CONTINUOUS
100
AcDbLine
 10
44.99999999995498
 20
5.572065588565151
 30
0.0
 11
43.57899999995641
 21
6.993065588563722
 31
0.0
  0
LINE
  5
21BFD
330
21BC1
100
AcDbEntity
  8
0
  6
CONTINUOUS
100
AcDbLine
 10
44.99999999995498
 20
6.245584797645336
 30
0.0
 11
43.57899999995641
 21
7.666584797643908
 31
0.0
  0
LINE
  5
21BFE
330
21BC1
100
AcDbEntity
  8
0
  6
CONTINUOUS
100
AcDbLine
 10
44.99999999995498
 20
6.919104006725522
 30
0.0
 11
43.57899999995641
 21
8.340104006724093
 31
0.0
  0
LINE
  5
21BFF
330
21BC1
100
AcDbEntity
  8
0
  6
CONTINUOUS
100
AcDbLine
 10
44.99999999995498
 20
7.592623215805709
 30
0.0
 11
43.82952321576943
 21
8.763099999991255
 31
0.0
  0
LINE
  5
21C00
330
21BC1
100
AcDbEntity
  8
0
  6
CONTINUOUS
100
AcDbLine
 10
44.99999999995498
 20
8.266142424885896
 30
0.0
 11
44.50304242484962
 21
8.763099999991255
 31
0.0
  0
ENDBLK
  5
21C2A
330
21BC1
100
AcDbEntity
  8
0
100
AcDbBlockEnd
  0
BLOCK
  5
21C2B
330
21C01
100
AcDbEntity
  8
0
100
AcDbBlockBegin
  2
*X49
 70
     1
 10
0.0
 20
0.0
 30
0.0
  3
*X49
  1

  0
LINE
  5
21C02
330
21C01
100
AcDbEntity
  8
0
  6
CONTINUOUS
100
AcDbLine
 10
0.0
 20
8.548461116714023
 30
0.0
 11
0.2146388832772324
 21
8.763099999991255
 31
0.0
  0
LINE
  5
21C03
330
21C01
100
AcDbEntity
  8
0
  6
CONTINUOUS
100
AcDbLine
 10
-0.0000000000000002
 20
7.874941907633837
 30
0.0
 11
0.8881580923574184
 21
8.763099999991255
 31
0.0
  0
LINE
  5
21C04
330
21C01
100
AcDbEntity
  8
0
  6
CONTINUOUS
100
AcDbLine
 10
0.0
 20
7.20142269855365
 30
0.0
 11
1.420999999998572
 21
8.622422698552223
 31
0.0
  0
LINE
  5
21C05
330
21C01
100
AcDbEntity
  8
0
  6
CONTINUOUS
100
AcDbLine
 10
-0.0000000000000001
 20
6.527903489473465
 30
0.0
 11
1.420999999998571
 21
7.948903489472036
 31
0.0
  0
LINE
  5
21C06
330
21C01
100
AcDbEntity
  8
0
  6
CONTINUOUS
100
AcDbLine
 10
-0.0000000000000002
 20
5.854384280393278
 30
0.0
 11
1.420999999998571
 21
7.275384280391849
 31
0.0
  0
LINE
  5
21C07
330
21C01
100
AcDbEntity
  8
0
  6
CONTINUOUS
100
AcDbLine
 10
-0.0000000000000002
 20
5.180865071313091
 30
0.0
 11
1.420999999998571
 21
6.601865071311663
 31
0.0
  0
LINE
  5
21C08
330
21C01
100
AcDbEntity
  8
0
  6
CONTINUOUS
100
AcDbLine
 10
0.0
 20
4.507345862232905
 30
0.0
 11
1.420999999998571
 21
5.928345862231477
 31
0.0
  0
LINE
  5
21C09
330
21C01
100
AcDbEntity
  8
0
  6
CONTINUOUS
100
AcDbLine
 10
-0.0000000000000003
 20
3.833826653152718
 30
0.0
 11
1.420999999998571
 21
5.25482665315129
 31
0.0
  0
LINE
  5
21C0A
330
21C01
100
AcDbEntity
  8
0
  6
CONTINUOUS
100
AcDbLine
 10
-0.0000000000000002
 20
3.160307444072532
 30
0.0
 11
1.420999999998571
 21
4.581307444071103
 31
0.0
  0
LINE
  5
21C0B
330
21C01
100
AcDbEntity
  8
0
  6
CONTINUOUS
100
AcDbLine
 10
-0.0000000000000001
 20
2.486788234992345
 30
0.0
 11
1.420999999998571
 21
3.907788234990917
 31
0.0
  0
LINE
  5
21C0C
330
21C01
100
AcDbEntity
  8
0
  6
CONTINUOUS
100
AcDbLine
 10
-0.0000000000000006
 20
1.813269025912159
 30
0.0
 11
1.420999999998571
 21
3.234269025910731
 31
0.0
  0
LINE
  5
21C0D
330
21C01
100
AcDbEntity
  8
0
  6
CONTINUOUS
100
AcDbLine
 10
0.0
 20
1.139749816831973
 30
0.0
 11
1.420999999998571
 21
2.560749816830544
 31
0.0
  0
LINE
  5
21C0E
330
21C01
100
AcDbEntity
  8
0
  6
CONTINUOUS
100
AcDbLine
 10
0.0000000000000002
 20
0.466230607751787
 30
0.0
 11
1.420999999998571
 21
1.887230607750358
 31
0.0
  0
LINE
  5
21C0F
330
21C01
100
AcDbEntity
  8
0
  6
CONTINUOUS
100
AcDbLine
 10
0.2072886013284003
 20
-0.0000000000000009
 30
0.0
 11
1.420999999998571
 21
1.213711398670171
 31
0.0
  0
LINE
  5
21C10
330
21C01
100
AcDbEntity
  8
0
  6
CONTINUOUS
100
AcDbLine
 10
0.8808078104085864
 20
-0.0000000000000009
 30
0.0
 11
1.420999999998571
 21
0.5401921895899839
 31
0.0
  0
LINE
  5
21C11
330
21C01
100
AcDbEntity
  8
0
  6
CONTINUOUS
100
AcDbLine
 10
0.0581249075061505
 20
-0.0000000000000009
 30
0.0
 11
-0.0000000000000002
 21
0.0581249075061496
 31
0.0
  0
LINE
  5
21C12
330
21C01
100
AcDbEntity
  8
0
  6
CONTINUOUS
100
AcDbLine
 10
0.7316441165863372
 20
-0.0000000000000009
 30
0.0
 11
-0.0000000000000002
 21
0.7316441165863363
 31
0.0
  0
LINE
  5
21C13
330
21C01
100
AcDbEntity
  8
0
  6
CONTINUOUS
100
AcDbLine
 10
1.405163325666523
 20
-0.0000000000000009
 30
0.0
 11
-0.0000000000000002
 21
1.405163325666523
 31
0.0
  0
LINE
  5
21C14
330
21C01
100
AcDbEntity
  8
0
  6
CONTINUOUS
100
AcDbLine
 10
1.420999999998572
 20
0.6576825347481381
 30
0.0
 11
-0.0000000000000001
 21
2.07868253474671
 31
0.0
  0
LINE
  5
21C15
330
21C01
100
AcDbEntity
  8
0
  6
CONTINUOUS
100
AcDbLine
 10
1.420999999998571
 20
1.331201743828324
 30
0.0
 11
-0.0000000000000001
 21
2.752201743826896
 31
0.0
  0
LINE
  5
21C16
330
21C01
100
AcDbEntity
  8
0
  6
CONTINUOUS
100
AcDbLine
 10
1.420999999998571
 20
2.004720952908511
 30
0.0
 11
-0.0000000000000002
 21
3.425720952907082
 31
0.0
  0
LINE
  5
21C17
330
21C01
100
AcDbEntity
  8
0
  6
CONTINUOUS
100
AcDbLine
 10
1.420999999998571
 20
2.678240161988697
 30
0.0
 11
-0.0000000000000001
 21
4.099240161987269
 31
0.0
  0
LINE
  5
21C18
330
21C01
100
AcDbEntity
  8
0
  6
CONTINUOUS
100
AcDbLine
 10
1.420999999998572
 20
3.351759371068884
 30
0.0
 11
0.0
 21
4.772759371067455
 31
0.0
  0
LINE
  5
21C19
330
21C01
100
AcDbEntity
  8
0
  6
CONTINUOUS
100
AcDbLine
 10
1.420999999998571
 20
4.02527858014907
 30
0.0
 11
-0.0000000000000003
 21
5.446278580147642
 31
0.0
  0
LINE
  5
21C1A
330
21C01
100
AcDbEntity
  8
0
  6
CONTINUOUS
100
AcDbLine
 10
1.420999999998571
 20
4.698797789229257
 30
0.0
 11
0.0
 21
6.119797789227828
 31
0.0
  0
LINE
  5
21C1B
330
21C01
100
AcDbEntity
  8
0
  6
CONTINUOUS
100
AcDbLine
 10
1.420999999998571
 20
5.372316998309444
 30
0.0
 11
-0.0000000000000001
 21
6.793316998308015
 31
0.0
  0
LINE
  5
21C1C
330
21C01
100
AcDbEntity
  8
0
  6
CONTINUOUS
100
AcDbLine
 10
1.420999999998572
 20
6.045836207389629
 30
0.0
 11
-0.0000000000000004
 21
7.466836207388202
 31
0.0
  0
LINE
  5
21C1D
330
21C01
100
AcDbEntity
  8
0
  6
CONTINUOUS
100
AcDbLine
 10
1.420999999998571
 20
6.719355416469816
 30
0.0
 11
0.0
 21
8.140355416468388
 31
0.0
  0
LINE
  5
21C1E
330
21C01
100
AcDbEntity
  8
0
  6
CONTINUOUS
100
AcDbLine
 10
1.420999999998571
 20
7.392874625550003
 30
0.0
 11
0.0507746255573185
 21
8.763099999991255
 31
0.0
  0
LINE
  5
21C1F
330
21C01
100
AcDbEntity
  8
0
  6
CONTINUOUS
100
AcDbLine
 10
1.420999999998571
 20
8.06639383463019
 30
0.0
 11
0.7242938346375052
 21
8.763099999991255
 31
0.0
  0
LINE
  5
21C20
330
21C01
100
AcDbEntity
  8
0
  6
CONTINUOUS
100
AcDbLine
 10
1.420999999998571
 20
8.739913043710375
 30
0.0
 11
1.397813043717691
 21
8.763099999991255
 31
0.0
  0
ENDBLK
  5
21C2C
330
21C01
100
AcDbEntity
  8
0
100
AcDbBlockEnd
  0
ENDSEC
  0
SECTION
  2
ENTITIES
  0
TEXT
  5
20C93
330
18
100
AcDbEntity
  8
1TEXT
100
AcDbText
 10
1795.616912168284
 20
-368.735772255416
 30
0.0
 40
8.0
  1
K-SE-071-XCS
100
AcDbText
  0
TEXT
  5
20C94
330
18
100
AcDbEntity
  8
1TEXT
100
AcDbText
 10
1832.622663099244
 20
-380.4194923227573
 30
0.0
 40
4.0
  1
表面処理：レール
 41
0.9
 72
     1
 11
1849.662663099244
 21
-380.4194923227573
 31
0.0
100
AcDbText
  0
TEXT
  5
20C95
330
18
100
AcDbEntity
  8
1TEXT
100
AcDbText
 10
1845.32932976591
 20
-387.2547809822817
 30
0.0
 40
4.0
  1
鏡面
 72
     1
 11
1849.662663099244
 21
-387.2547809822817
 31
0.0
100
AcDbText
  0
LINE
  5
20C96
330
18
100
AcDbEntity
  8
1DIM
100
AcDbLine
 10
1797.262663099244
 20
-374.9194923227573
 30
0.0
 11
1902.262663099244
 21
-374.9194923227573
 31
0.0
  0
LINE
  5
20C97
330
18
100
AcDbEntity
  8
1DIM
100
AcDbLine
 10
1797.262663099244
 20
-388.9194923227573
 30
0.0
 11
1902.262663099244
 21
-388.9194923227573
 31
0.0
  0
LINE
  5
20C98
330
18
100
AcDbEntity
  8
1DIM
100
AcDbLine
 10
1797.262663099244
 20
-381.9194923227573
 30
0.0
 11
1902.262663099244
 21
-381.9194923227573
 31
0.0
  0
LINE
  5
20C99
330
18
100
AcDbEntity
  8
1DIM
100
AcDbLine
 10
1867.262663099244
 20
-374.9194923227573
 30
0.0
 11
1867.262663099244
 21
-388.9194923227573
 31
0.0
  0
TEXT
  5
20C9A
330
18
100
AcDbEntity
  8
1TEXT
100
AcDbText
 10
1877.795996432577
 20
-380.4194923227573
 30
0.0
 40
4.0
  1
コード
 72
     1
 11
1884.662663099244
 21
-380.4194923227573
 31
0.0
100
AcDbText
  0
LINE
  5
20C9B
330
18
100
AcDbEntity
  8
1DIM
100
AcDbLine
 10
1832.262663099244
 20
-388.9194923227573
 30
0.0
 11
1832.262663099244
 21
-374.9194923227573
 31
0.0
  0
LINE
  5
20C9C
330
18
100
AcDbEntity
  8
1DIM
100
AcDbLine
 10
1902.262663099244
 20
-388.9194923227573
 30
0.0
 11
1902.262663099244
 21
-374.9194923227573
 31
0.0
  0
TEXT
  5
20C9D
330
18
100
AcDbEntity
  8
1TEXT
100
AcDbText
 10
1798.195996432577
 20
-380.4194923227573
 30
0.0
 40
4.0
  1
表面処理：本体
 72
     1
 11
1814.662663099244
 21
-380.4194923227573
 31
0.0
100
AcDbText
  0
TEXT
  5
20C9E
330
18
100
AcDbEntity
  8
1TEXT
100
AcDbText
 10
1805.195996432577
 20
-387.2547809822817
 30
0.0
 40
4.0
  1
クローム
 72
     1
 11
1814.662663099244
 21
-387.2547809822817
 31
0.0
100
AcDbText
  0
LINE
  5
20C9F
330
18
100
AcDbEntity
  8
1DIM
100
AcDbLine
 10
1797.262663099244
 20
-388.9194923227573
 30
0.0
 11
1797.262663099244
 21
-374.9194923227573
 31
0.0
  0
TEXT
  5
20CA0
330
18
100
AcDbEntity
  8
1TEXT
100
AcDbText
 10
1870.145996432578
 20
-387.6338493064065
 30
0.0
 40
4.0
  1
K-SE-071-XCS
 41
0.65
 72
     1
 11
1884.662663099245
 21
-387.6338493064065
 31
0.0
100
AcDbText
  0
LINE
  5
20CBE
330
18
100
AcDbEntity
  8
01
100
AcDbLine
 10
2042.324838833127
 20
-478.5498960030615
 30
0.0
 11
2042.324838833119
 21
-496.5498960030615
 31
0.0
  0
LINE
  5
20CC0
330
18
100
AcDbEntity
  8
01
100
AcDbLine
 10
2098.324838833119
 20
-496.5498960030615
 30
0.0
 11
2047.324838833119
 21
-496.5498960030615
 31
0.0
  0
LINE
  5
20CCE
330
18
100
AcDbEntity
  8
01
100
AcDbLine
 10
2042.324838833119
 20
-496.5498960030615
 30
0.0
 11
2112.347650385828
 21
-496.5498960030615
 31
0.0
  0
LINE
  5
20CCF
330
18
100
AcDbEntity
  8
01
100
AcDbLine
 10
2042.324838833119
 20
-478.5498960030615
 30
0.0
 11
2112.347650385828
 21
-478.5498960030615
 31
0.0
  0
LINE
  5
20CD3
330
18
100
AcDbEntity
  8
1PHANTOM
100
AcDbLine
 10
2071.824838686221
 20
-505.0211827561233
 30
0.0
 11
2070.824838986222
 21
-504.0211827561233
 31
0.0
  0
LINE
  5
20CD4
330
18
100
AcDbEntity
  8
1PHANTOM
100
AcDbLine
 10
2075.124838836222
 20
-505.0211827561233
 30
0.0
 11
2075.124838836222
 21
-504.0211827561233
 31
0.0
  0
LINE
  5
20CD5
330
18
100
AcDbEntity
  8
1PHANTOM
100
AcDbLine
 10
2075.124838836222
 20
-504.0211827561233
 30
0.0
 11
2067.524838836222
 21
-504.0211827561233
 31
0.0
  0
LINE
  5
20CD6
330
18
100
AcDbEntity
  8
1PHANTOM
100
AcDbLine
 10
2075.124838836222
 20
-505.0211827561233
 30
0.0
 11
2067.524838836222
 21
-505.0211827561233
 31
0.0
  0
LINE
  5
20CD7
330
18
100
AcDbEntity
  8
1PHANTOM
100
AcDbLine
 10
2067.524838836222
 20
-505.0211827561233
 30
0.0
 11
2067.524838836222
 21
-504.0211827561233
 31
0.0
  0
LINE
  5
20CD8
330
18
100
AcDbEntity
  8
1PHANTOM
100
AcDbLine
 10
2071.324885369015
 20
-483.0210183293922
 30
0.0
 11
2069.824885369015
 21
-488.3210148392538
 31
0.0
  0
LINE
  5
20CD9
330
18
100
AcDbEntity
  8
1PHANTOM
100
AcDbLine
 10
2069.824885369015
 20
-488.3210148392538
 30
0.0
 11
2069.824885369016
 21
-505.0211827561232
 31
0.0
  0
LINE
  5
20CDA
330
18
100
AcDbEntity
  8
1PHANTOM
100
AcDbLine
 10
2071.324885369015
 20
-483.0210183293922
 30
0.0
 11
2072.824885369016
 21
-488.3210218196375
 31
0.0
  0
LINE
  5
20CDB
330
18
100
AcDbEntity
  8
1PHANTOM
100
AcDbLine
 10
2067.824838833118
 20
-505.021174612341
 30
0.0
 11
2074.824838833118
 21
-505.0211908999055
 31
0.0
  0
LINE
  5
20CDC
330
18
100
AcDbEntity
  8
1PHANTOM
100
AcDbLine
 10
2072.824885369016
 20
-488.3210218196375
 30
0.0
 11
2072.824885369016
 21
-505.0211827561232
 31
0.0
  0
LINE
  5
20CDD
330
18
100
AcDbEntity
  8
1PHANTOM
100
AcDbLine
 10
2067.824838833118
 20
-505.021174612341
 30
0.0
 11
2067.824838833118
 21
-506.1211781025364
 31
0.0
  0
ARC
  5
20CDE
330
18
100
AcDbEntity
  8
1PHANTOM
100
AcDbCircle
 10
2069.324838833118
 20
-506.1211781025364
 30
0.0
 40
1.5
100
AcDbArc
 50
180.0
 51
269.9998666844619
  0
LINE
  5
20CDF
330
18
100
AcDbEntity
  8
1PHANTOM
100
AcDbLine
 10
2074.824838833118
 20
-505.0211908999055
 30
0.0
 11
2074.824838833118
 21
-506.1211874097161
 31
0.0
  0
LINE
  5
20CE0
330
18
100
AcDbEntity
  8
1PHANTOM
100
AcDbLine
 10
2069.324835342924
 20
-507.6211781025323
 30
0.0
 11
2073.324835342924
 21
-507.621187409712
 31
0.0
  0
ARC
  5
20CE1
330
18
100
AcDbEntity
  8
1PHANTOM
100
AcDbCircle
 10
2073.324838833118
 20
-506.1211874097161
 30
0.0
 40
1.5
100
AcDbArc
 50
269.9998666844619
 51
0.0
  0
LINE
  5
20CE2
330
18
100
AcDbEntity
  8
1CENTER
100
AcDbLine
 10
2071.324838833118
 20
-481.5902234119268
 30
0.0
 11
2071.324838833118
 21
-508.8044913326075
 31
0.0
  0
LINE
  5
20CE3
330
18
100
AcDbEntity
  8
1PHANTOM
100
AcDbLine
 10
2070.230515019122
 20
-485.12101578307
 30
0.0
 11
2072.192850107997
 21
-484.321020349019
 31
0.0
  0
LINE
  5
20CE4
330
18
100
AcDbEntity
  8
1PHANTOM
100
AcDbLine
 10
2072.192850107997
 20
-484.321020349019
 30
0.0
 11
2071.604573532955
 21
-484.0092504927669
 31
0.0
  0
LINE
  5
20CE5
330
18
100
AcDbEntity
  8
1PHANTOM
100
AcDbLine
 10
2069.324885369015
 20
-496.3210136758556
 30
0.0
 11
2073.324885369015
 21
-495.521022983033
 31
0.0
  0
LINE
  5
20CE6
330
18
100
AcDbEntity
  8
1PHANTOM
100
AcDbLine
 10
2069.324885369015
 20
-493.1210136758556
 30
0.0
 11
2073.324885369015
 21
-492.321022983033
 31
0.0
  0
LINE
  5
20CE7
330
18
100
AcDbEntity
  8
1PHANTOM
100
AcDbLine
 10
2073.324885369015
 20
-492.321022983033
 30
0.0
 11
2072.824885369015
 21
-492.2210218196358
 31
0.0
  0
LINE
  5
20CE8
330
18
100
AcDbEntity
  8
1PHANTOM
100
AcDbLine
 10
2069.824885369015
 20
-491.6210148392528
 30
0.0
 11
2069.324885369015
 21
-491.5210136758556
 31
0.0
  0
LINE
  5
20CE9
330
18
100
AcDbEntity
  8
1PHANTOM
100
AcDbLine
 10
2073.324885369015
 20
-495.521022983033
 30
0.0
 11
2072.824885369015
 21
-495.4210218196358
 31
0.0
  0
LINE
  5
20CEA
330
18
100
AcDbEntity
  8
1PHANTOM
100
AcDbLine
 10
2073.324885369015
 20
-493.9210229830329
 30
0.0
 11
2072.824885369015
 21
-493.8210218196358
 31
0.0
  0
LINE
  5
20CEB
330
18
100
AcDbEntity
  8
1PHANTOM
100
AcDbLine
 10
2069.824885369015
 20
-493.2210148392527
 30
0.0
 11
2069.324885369015
 21
-493.1210136758556
 31
0.0
  0
LINE
  5
20CEC
330
18
100
AcDbEntity
  8
1PHANTOM
100
AcDbLine
 10
2069.824885369015
 20
-494.8210148392526
 30
0.0
 11
2069.324885369015
 21
-494.7210136758555
 31
0.0
  0
LINE
  5
20CED
330
18
100
AcDbEntity
  8
1PHANTOM
100
AcDbLine
 10
2069.324885369015
 20
-494.7210136758555
 30
0.0
 11
2073.324885369015
 21
-493.9210229830329
 31
0.0
  0
LINE
  5
20CEE
330
18
100
AcDbEntity
  8
1PHANTOM
100
AcDbLine
 10
2072.645664212404
 20
-485.9210214026247
 30
0.0
 11
2072.093914748601
 21
-485.7382572599967
 31
0.0
  0
LINE
  5
20CEF
330
18
100
AcDbEntity
  8
1PHANTOM
100
AcDbLine
 10
2073.324885369015
 20
-489.121022983033
 30
0.0
 11
2072.824885369015
 21
-489.0210218196358
 31
0.0
  0
LINE
  5
20CF0
330
18
100
AcDbEntity
  8
1PHANTOM
100
AcDbLine
 10
2073.324885369015
 20
-490.721022983033
 30
0.0
 11
2072.824885369015
 21
-490.621021819636
 31
0.0
  0
LINE
  5
20CF1
330
18
100
AcDbEntity
  8
1PHANTOM
100
AcDbLine
 10
2073.098478316811
 20
-487.5210224562303
 30
0.0
 11
2072.56188458154
 21
-487.3917517586004
 31
0.0
  0
LINE
  5
20CF2
330
18
100
AcDbEntity
  8
1PHANTOM
100
AcDbLine
 10
2070.245799966224
 20
-486.8337842418158
 30
0.0
 11
2069.777701511074
 21
-486.7210147294658
 31
0.0
  0
LINE
  5
20CF3
330
18
100
AcDbEntity
  8
1PHANTOM
100
AcDbLine
 10
2069.824885369015
 20
-490.0210148392526
 30
0.0
 11
2069.324885369015
 21
-489.9210136758555
 31
0.0
  0
LINE
  5
20CF4
330
18
100
AcDbEntity
  8
1PHANTOM
100
AcDbLine
 10
2069.824885369015
 20
-488.4210148392527
 30
0.0
 11
2069.324885369015
 21
-488.3210136758556
 31
0.0
  0
LINE
  5
20CF5
330
18
100
AcDbEntity
  8
1PHANTOM
100
AcDbLine
 10
2070.687686859753
 20
-485.2724515795104
 30
0.0
 11
2070.230515019122
 21
-485.12101578307
 31
0.0
  0
LINE
  5
20CF6
330
18
100
AcDbEntity
  8
1PHANTOM
100
AcDbLine
 10
2069.777701511074
 20
-486.7210147294658
 30
0.0
 11
2072.645664212404
 21
-485.9210214026247
 31
0.0
  0
LINE
  5
20CF7
330
18
100
AcDbEntity
  8
1PHANTOM
100
AcDbLine
 10
2069.324885369015
 20
-489.9210136758555
 30
0.0
 11
2073.324885369015
 21
-489.121022983033
 31
0.0
  0
LINE
  5
20CF8
330
18
100
AcDbEntity
  8
1PHANTOM
100
AcDbLine
 10
2069.324885369015
 20
-488.3210136758556
 30
0.0
 11
2073.098478316811
 21
-487.5210224562303
 31
0.0
  0
LINE
  5
20CF9
330
18
100
AcDbEntity
  8
1PHANTOM
100
AcDbLine
 10
2069.324885369015
 20
-491.5210136758556
 30
0.0
 11
2073.324885369015
 21
-490.721022983033
 31
0.0
  0
LINE
  5
20CFA
330
18
100
AcDbEntity
  8
1PHANTOM
100
AcDbLine
 10
2073.324885369015
 20
-497.121022983033
 30
0.0
 11
2072.824885369015
 21
-497.0210218196358
 31
0.0
  0
LINE
  5
20CFB
330
18
100
AcDbEntity
  8
1PHANTOM
100
AcDbLine
 10
2069.824885369015
 20
-496.4210148392527
 30
0.0
 11
2069.324885369015
 21
-496.3210136758556
 31
0.0
  0
LINE
  5
20CFC
330
18
100
AcDbEntity
  8
1PHANTOM
100
AcDbLine
 10
2069.824885369015
 20
-498.0210148392533
 30
0.0
 11
2069.324885369015
 21
-497.9210136758555
 31
0.0
  0
LINE
  5
20CFD
330
18
100
AcDbEntity
  8
1PHANTOM
100
AcDbLine
 10
2069.324885369015
 20
-497.9210136758555
 30
0.0
 11
2073.324885369015
 21
-497.121022983033
 31
0.0
  0
LINE
  5
20CFE
330
18
100
AcDbEntity
  8
1PHANTOM
100
AcDbLine
 10
2073.324885369015
 20
-498.721022983033
 30
0.0
 11
2072.824885369015
 21
-498.6210218196359
 31
0.0
  0
LINE
  5
20CFF
330
18
100
AcDbEntity
  8
1PHANTOM
100
AcDbLine
 10
2069.824885369015
 20
-499.6210148392533
 30
0.0
 11
2069.324885369015
 21
-499.5210136758556
 31
0.0
  0
LINE
  5
20D00
330
18
100
AcDbEntity
  8
1PHANTOM
100
AcDbLine
 10
2069.324885369015
 20
-499.5210136758556
 30
0.0
 11
2073.324885369015
 21
-498.721022983033
 31
0.0
  0
LINE
  5
20D01
330
18
100
AcDbEntity
  8
1PHANTOM
100
AcDbLine
 10
2073.324885369016
 20
-500.3210229830331
 30
0.0
 11
2072.824885369016
 21
-500.221021819636
 31
0.0
  0
LINE
  5
20D02
330
18
100
AcDbEntity
  8
1PHANTOM
100
AcDbLine
 10
2069.824885369016
 20
-501.2210148392535
 30
0.0
 11
2069.324885369016
 21
-501.1210136758557
 31
0.0
  0
LINE
  5
20D03
330
18
100
AcDbEntity
  8
1PHANTOM
100
AcDbLine
 10
2069.324885369016
 20
-501.1210136758557
 30
0.0
 11
2073.324885369016
 21
-500.3210229830331
 31
0.0
  0
LINE
  5
20D04
330
18
100
AcDbEntity
  8
1PHANTOM
100
AcDbLine
 10
2073.324885369016
 20
-501.9210229830331
 30
0.0
 11
2072.824885369016
 21
-501.821021819636
 31
0.0
  0
LINE
  5
20D05
330
18
100
AcDbEntity
  8
1PHANTOM
100
AcDbLine
 10
2069.824885369016
 20
-502.8210148392535
 30
0.0
 11
2069.324885369016
 21
-502.7210136758557
 31
0.0
  0
LINE
  5
20D06
330
18
100
AcDbEntity
  8
1PHANTOM
100
AcDbLine
 10
2069.324885369016
 20
-502.7210136758557
 30
0.0
 11
2073.324885369016
 21
-501.9210229830331
 31
0.0
  0
LINE
  5
20D07
330
18
100
AcDbEntity
  8
1PHANTOM
100
AcDbLine
 10
2073.324885369015
 20
-503.5210229830332
 30
0.0
 11
2072.824885369015
 21
-503.4210218196361
 31
0.0
  0
LINE
  5
20D08
330
18
100
AcDbEntity
  8
1PHANTOM
100
AcDbLine
 10
2069.824885369015
 20
-504.4210148392535
 30
0.0
 11
2069.324885369015
 21
-504.3210136758557
 31
0.0
  0
LINE
  5
20D09
330
18
100
AcDbEntity
  8
1PHANTOM
100
AcDbLine
 10
2069.324885369015
 20
-504.3210136758557
 30
0.0
 11
2073.324885369015
 21
-503.5210229830332
 31
0.0
  0
LINE
  5
20D0A
330
18
100
AcDbEntity
  8
1PHANTOM
100
AcDbLine
 10
2091.824838686221
 20
-504.6720814575689
 30
0.0
 11
2090.824838986222
 21
-503.6720814575689
 31
0.0
  0
LINE
  5
20D0B
330
18
100
AcDbEntity
  8
1PHANTOM
100
AcDbLine
 10
2095.124838836222
 20
-504.6720814575689
 30
0.0
 11
2095.124838836222
 21
-503.6720814575689
 31
0.0
  0
LINE
  5
20D0C
330
18
100
AcDbEntity
  8
1PHANTOM
100
AcDbLine
 10
2095.124838836222
 20
-503.6720814575689
 30
0.0
 11
2087.524838836222
 21
-503.6720814575689
 31
0.0
  0
LINE
  5
20D0D
330
18
100
AcDbEntity
  8
1PHANTOM
100
AcDbLine
 10
2095.124838836222
 20
-504.6720814575689
 30
0.0
 11
2087.524838836222
 21
-504.6720814575689
 31
0.0
  0
LINE
  5
20D0E
330
18
100
AcDbEntity
  8
1PHANTOM
100
AcDbLine
 10
2087.524838836222
 20
-504.6720814575689
 30
0.0
 11
2087.524838836222
 21
-503.6720814575689
 31
0.0
  0
LINE
  5
20D0F
330
18
100
AcDbEntity
  8
1PHANTOM
100
AcDbLine
 10
2091.324885369016
 20
-482.6719170308378
 30
0.0
 11
2089.824885369016
 21
-487.9719135406995
 31
0.0
  0
LINE
  5
20D10
330
18
100
AcDbEntity
  8
1PHANTOM
100
AcDbLine
 10
2089.824885369016
 20
-487.9719135406995
 30
0.0
 11
2089.824885369016
 21
-504.6720814575688
 31
0.0
  0
LINE
  5
20D11
330
18
100
AcDbEntity
  8
1PHANTOM
100
AcDbLine
 10
2091.324885369016
 20
-482.6719170308378
 30
0.0
 11
2092.824885369016
 21
-487.9719205210831
 31
0.0
  0
LINE
  5
20D12
330
18
100
AcDbEntity
  8
1PHANTOM
100
AcDbLine
 10
2087.824838833118
 20
-504.6720733137867
 30
0.0
 11
2094.824838833118
 21
-504.6720896013511
 31
0.0
  0
LINE
  5
20D13
330
18
100
AcDbEntity
  8
1PHANTOM
100
AcDbLine
 10
2092.824885369016
 20
-487.9719205210831
 30
0.0
 11
2092.824885369016
 21
-504.6720814575688
 31
0.0
  0
LINE
  5
20D14
330
18
100
AcDbEntity
  8
1PHANTOM
100
AcDbLine
 10
2087.824838833118
 20
-504.6720733137867
 30
0.0
 11
2087.824838833118
 21
-505.772076803982
 31
0.0
  0
ARC
  5
20D15
330
18
100
AcDbEntity
  8
1PHANTOM
100
AcDbCircle
 10
2089.324838833118
 20
-505.772076803982
 30
0.0
 40
1.5
100
AcDbArc
 50
180.0
 51
269.9998666844619
  0
LINE
  5
20D16
330
18
100
AcDbEntity
  8
1PHANTOM
100
AcDbLine
 10
2094.824838833118
 20
-504.6720896013511
 30
0.0
 11
2094.824838833118
 21
-505.7720861111617
 31
0.0
  0
LINE
  5
20D17
330
18
100
AcDbEntity
  8
1PHANTOM
100
AcDbLine
 10
2089.324835342925
 20
-507.2720768039779
 30
0.0
 11
2093.324835342925
 21
-507.2720861111576
 31
0.0
  0
ARC
  5
20D18
330
18
100
AcDbEntity
  8
1PHANTOM
100
AcDbCircle
 10
2093.324838833118
 20
-505.7720861111617
 30
0.0
 40
1.5
100
AcDbArc
 50
269.9998666844619
 51
0.0
  0
LINE
  5
20D19
330
18
100
AcDbEntity
  8
1CENTER
100
AcDbLine
 10
2091.324838833118
 20
-481.2411221133724
 30
0.0
 11
2091.324838833118
 21
-508.4553900340532
 31
0.0
  0
LINE
  5
20D1A
330
18
100
AcDbEntity
  8
1PHANTOM
100
AcDbLine
 10
2090.230515019122
 20
-484.7719144845156
 30
0.0
 11
2092.192850107998
 21
-483.9719190504646
 31
0.0
  0
LINE
  5
20D1B
330
18
100
AcDbEntity
  8
1PHANTOM
100
AcDbLine
 10
2092.192850107998
 20
-483.9719190504646
 30
0.0
 11
2091.604573532955
 21
-483.6601491942125
 31
0.0
  0
LINE
  5
20D1C
330
18
100
AcDbEntity
  8
1PHANTOM
100
AcDbLine
 10
2089.324885369016
 20
-495.9719123773012
 30
0.0
 11
2093.324885369016
 21
-495.1719216844787
 31
0.0
  0
LINE
  5
20D1D
330
18
100
AcDbEntity
  8
1PHANTOM
100
AcDbLine
 10
2089.324885369016
 20
-492.7719123773012
 30
0.0
 11
2093.324885369016
 21
-491.9719216844786
 31
0.0
  0
LINE
  5
20D1E
330
18
100
AcDbEntity
  8
1PHANTOM
100
AcDbLine
 10
2093.324885369016
 20
-491.9719216844786
 30
0.0
 11
2092.824885369016
 21
-491.8719205210814
 31
0.0
  0
LINE
  5
20D1F
330
18
100
AcDbEntity
  8
1PHANTOM
100
AcDbLine
 10
2089.824885369016
 20
-491.2719135406984
 30
0.0
 11
2089.324885369016
 21
-491.1719123773012
 31
0.0
  0
LINE
  5
20D20
330
18
100
AcDbEntity
  8
1PHANTOM
100
AcDbLine
 10
2093.324885369016
 20
-495.1719216844787
 30
0.0
 11
2092.824885369016
 21
-495.0719205210814
 31
0.0
  0
LINE
  5
20D21
330
18
100
AcDbEntity
  8
1PHANTOM
100
AcDbLine
 10
2093.324885369016
 20
-493.5719216844785
 30
0.0
 11
2092.824885369016
 21
-493.4719205210814
 31
0.0
  0
LINE
  5
20D22
330
18
100
AcDbEntity
  8
1PHANTOM
100
AcDbLine
 10
2089.824885369016
 20
-492.8719135406983
 30
0.0
 11
2089.324885369016
 21
-492.7719123773012
 31
0.0
  0
LINE
  5
20D23
330
18
100
AcDbEntity
  8
1PHANTOM
100
AcDbLine
 10
2089.824885369016
 20
-494.4719135406982
 30
0.0
 11
2089.324885369016
 21
-494.3719123773011
 31
0.0
  0
LINE
  5
20D24
330
18
100
AcDbEntity
  8
1PHANTOM
100
AcDbLine
 10
2089.324885369016
 20
-494.3719123773011
 30
0.0
 11
2093.324885369016
 21
-493.5719216844785
 31
0.0
  0
LINE
  5
20D25
330
18
100
AcDbEntity
  8
1PHANTOM
100
AcDbLine
 10
2092.645664212405
 20
-485.5719201040703
 30
0.0
 11
2092.093914748601
 21
-485.3891559614423
 31
0.0
  0
LINE
  5
20D26
330
18
100
AcDbEntity
  8
1PHANTOM
100
AcDbLine
 10
2093.324885369016
 20
-488.7719216844786
 30
0.0
 11
2092.824885369016
 21
-488.6719205210815
 31
0.0
  0
LINE
  5
20D27
330
18
100
AcDbEntity
  8
1PHANTOM
100
AcDbLine
 10
2093.324885369016
 20
-490.3719216844786
 30
0.0
 11
2092.824885369016
 21
-490.2719205210816
 31
0.0
  0
LINE
  5
20D28
330
18
100
AcDbEntity
  8
1PHANTOM
100
AcDbLine
 10
2093.098478316811
 20
-487.1719211576759
 30
0.0
 11
2092.561884581541
 21
-487.042650460046
 31
0.0
  0
LINE
  5
20D29
330
18
100
AcDbEntity
  8
1PHANTOM
100
AcDbLine
 10
2090.245799966224
 20
-486.4846829432614
 30
0.0
 11
2089.777701511074
 21
-486.3719134309114
 31
0.0
  0
LINE
  5
20D2A
330
18
100
AcDbEntity
  8
1PHANTOM
100
AcDbLine
 10
2089.824885369016
 20
-489.6719135406983
 30
0.0
 11
2089.324885369016
 21
-489.5719123773011
 31
0.0
  0
LINE
  5
20D2B
330
18
100
AcDbEntity
  8
1PHANTOM
100
AcDbLine
 10
2089.824885369016
 20
-488.0719135406983
 30
0.0
 11
2089.324885369016
 21
-487.9719123773012
 31
0.0
  0
LINE
  5
20D2C
330
18
100
AcDbEntity
  8
1PHANTOM
100
AcDbLine
 10
2090.687686859754
 20
-484.923350280956
 30
0.0
 11
2090.230515019122
 21
-484.7719144845156
 31
0.0
  0
LINE
  5
20D2D
330
18
100
AcDbEntity
  8
1PHANTOM
100
AcDbLine
 10
2089.777701511074
 20
-486.3719134309114
 30
0.0
 11
2092.645664212405
 21
-485.5719201040703
 31
0.0
  0
LINE
  5
20D2E
330
18
100
AcDbEntity
  8
1PHANTOM
100
AcDbLine
 10
2089.324885369016
 20
-489.5719123773011
 30
0.0
 11
2093.324885369016
 21
-488.7719216844786
 31
0.0
  0
LINE
  5
20D2F
330
18
100
AcDbEntity
  8
1PHANTOM
100
AcDbLine
 10
2089.324885369016
 20
-487.9719123773012
 30
0.0
 11
2093.098478316811
 21
-487.1719211576759
 31
0.0
  0
LINE
  5
20D30
330
18
100
AcDbEntity
  8
1PHANTOM
100
AcDbLine
 10
2089.324885369016
 20
-491.1719123773012
 30
0.0
 11
2093.324885369016
 21
-490.3719216844786
 31
0.0
  0
LINE
  5
20D31
330
18
100
AcDbEntity
  8
1PHANTOM
100
AcDbLine
 10
2093.324885369016
 20
-496.7719216844786
 30
0.0
 11
2092.824885369016
 21
-496.6719205210815
 31
0.0
  0
LINE
  5
20D32
330
18
100
AcDbEntity
  8
1PHANTOM
100
AcDbLine
 10
2089.824885369016
 20
-496.0719135406983
 30
0.0
 11
2089.324885369016
 21
-495.9719123773012
 31
0.0
  0
LINE
  5
20D33
330
18
100
AcDbEntity
  8
1PHANTOM
100
AcDbLine
 10
2089.824885369016
 20
-497.6719135406989
 30
0.0
 11
2089.324885369016
 21
-497.5719123773011
 31
0.0
  0
LINE
  5
20D34
330
18
100
AcDbEntity
  8
1PHANTOM
100
AcDbLine
 10
2089.324885369016
 20
-497.5719123773011
 30
0.0
 11
2093.324885369016
 21
-496.7719216844786
 31
0.0
  0
LINE
  5
20D35
330
18
100
AcDbEntity
  8
1PHANTOM
100
AcDbLine
 10
2093.324885369016
 20
-498.3719216844786
 30
0.0
 11
2092.824885369016
 21
-498.2719205210815
 31
0.0
  0
LINE
  5
20D36
330
18
100
AcDbEntity
  8
1PHANTOM
100
AcDbLine
 10
2089.824885369016
 20
-499.271913540699
 30
0.0
 11
2089.324885369016
 21
-499.1719123773012
 31
0.0
  0
LINE
  5
20D37
330
18
100
AcDbEntity
  8
1PHANTOM
100
AcDbLine
 10
2089.324885369016
 20
-499.1719123773012
 30
0.0
 11
2093.324885369016
 21
-498.3719216844786
 31
0.0
  0
LINE
  5
20D38
330
18
100
AcDbEntity
  8
1PHANTOM
100
AcDbLine
 10
2093.324885369016
 20
-499.9719216844787
 30
0.0
 11
2092.824885369016
 21
-499.8719205210816
 31
0.0
  0
LINE
  5
20D39
330
18
100
AcDbEntity
  8
1PHANTOM
100
AcDbLine
 10
2089.824885369016
 20
-500.8719135406991
 30
0.0
 11
2089.324885369016
 21
-500.7719123773013
 31
0.0
  0
LINE
  5
20D3A
330
18
100
AcDbEntity
  8
1PHANTOM
100
AcDbLine
 10
2089.324885369016
 20
-500.7719123773013
 30
0.0
 11
2093.324885369016
 21
-499.9719216844787
 31
0.0
  0
LINE
  5
20D3B
330
18
100
AcDbEntity
  8
1PHANTOM
100
AcDbLine
 10
2093.324885369016
 20
-501.5719216844788
 30
0.0
 11
2092.824885369016
 21
-501.4719205210816
 31
0.0
  0
LINE
  5
20D3C
330
18
100
AcDbEntity
  8
1PHANTOM
100
AcDbLine
 10
2089.824885369016
 20
-502.4719135406991
 30
0.0
 11
2089.324885369016
 21
-502.3719123773013
 31
0.0
  0
LINE
  5
20D3D
330
18
100
AcDbEntity
  8
1PHANTOM
100
AcDbLine
 10
2089.324885369016
 20
-502.3719123773013
 30
0.0
 11
2093.324885369016
 21
-501.5719216844788
 31
0.0
  0
LINE
  5
20D3E
330
18
100
AcDbEntity
  8
1PHANTOM
100
AcDbLine
 10
2093.324885369016
 20
-503.1719216844788
 30
0.0
 11
2092.824885369016
 21
-503.0719205210817
 31
0.0
  0
LINE
  5
20D3F
330
18
100
AcDbEntity
  8
1PHANTOM
100
AcDbLine
 10
2089.824885369016
 20
-504.0719135406991
 30
0.0
 11
2089.324885369016
 21
-503.9719123773014
 31
0.0
  0
LINE
  5
20D40
330
18
100
AcDbEntity
  8
1PHANTOM
100
AcDbLine
 10
2089.324885369016
 20
-503.9719123773014
 30
0.0
 11
2093.324885369016
 21
-503.1719216844788
 31
0.0
  0
ARC
  5
21265
330
18
100
AcDbEntity
  8
01
100
AcDbCircle
 10
2006.324838833109
 20
-450.54989600306
 30
0.0
 40
1.0
100
AcDbArc
 50
270.0
 51
0.0
  0
LINE
  5
21266
330
18
100
AcDbEntity
  8
01
100
AcDbLine
 10
1992.793964226517
 20
-436.9498960030751
 30
0.0
 11
1970.024838833109
 21
-436.9498960030751
 31
0.0
  0
LINE
  5
21267
330
18
100
AcDbEntity
  8
01
100
AcDbLine
 10
2006.324838833109
 20
-451.54989600306
 30
0.0
 11
1993.72483883311
 21
-451.54989600306
 31
0.0
  0
LINE
  5
21268
330
18
100
AcDbEntity
  8
01
100
AcDbLine
 10
2004.654954550083
 20
-400.54989600306
 30
0.0
 11
1995.383884599274
 21
-400.54989600306
 31
0.0
  0
ARC
  5
21269
330
18
100
AcDbEntity
  8
01
100
AcDbCircle
 10
2004.654954550083
 20
-402.54989600306
 30
0.0
 40
2.0
100
AcDbArc
 50
1.000000000001775
 51
90.0
  0
ARC
  5
2126A
330
18
100
AcDbEntity
  8
01
100
AcDbCircle
 10
1995.383884599274
 20
-402.54989600306
 30
0.0
 40
2.0
100
AcDbArc
 50
90.0
 51
178.9999999995422
  0
LINE
  5
2126B
330
18
100
AcDbEntity
  8
01
100
AcDbLine
 10
1993.72483883311
 20
-451.5498960030604
 30
0.0
 11
1970.024838833109
 21
-451.54989600306
 31
0.0
  0
LINE
  5
2126D
330
18
100
AcDbEntity
  8
01
100
AcDbLine
 10
1970.024838833109
 20
-451.54989600306
 30
0.0
 11
1970.024838833109
 21
-436.9498960030751
 31
0.0
  0
CIRCLE
  5
2126E
330
18
100
AcDbEntity
  8
01
100
AcDbCircle
 10
2000.024838833109
 20
-427.54989600306
 30
0.0
 40
2.499999999998636
  0
CIRCLE
  5
21271
330
18
100
AcDbEntity
  8
01
100
AcDbCircle
 10
2000.024838833109
 20
-407.54989600306
 30
0.0
 40
2.499999999998636
  0
LINE
  5
21273
330
18
100
AcDbEntity
  8
01
100
AcDbLine
 10
1772.724838833127
 20
-450.54989600306
 30
0.0
 11
1772.724838833127
 21
-444.2498960030346
 31
0.0
  0
ARC
  5
21274
330
18
100
AcDbEntity
  8
01
100
AcDbCircle
 10
1773.724838833127
 20
-450.54989600306
 30
0.0
 40
1.0
100
AcDbArc
 50
180.0
 51
270.0
  0
LINE
  5
21277
330
18
100
AcDbEntity
  8
01
100
AcDbLine
 10
1773.724838833127
 20
-451.54989600306
 30
0.0
 11
1786.324838833125
 21
-451.54989600306
 31
0.0
  0
LINE
  5
21278
330
18
100
AcDbEntity
  8
01
100
AcDbLine
 10
1786.324838833125
 20
-451.5498960030604
 30
0.0
 11
1810.024838833126
 21
-451.54989600306
 31
0.0
  0
LINE
  5
21279
330
18
100
AcDbEntity
  8
01
100
AcDbLine
 10
1775.389303857618
 20
-400.5498960030607
 30
0.0
 11
1784.660373808427
 21
-400.5498960030604
 31
0.0
  0
ARC
  5
2127A
330
18
100
AcDbEntity
  8
01
100
AcDbCircle
 10
1784.660373808427
 20
-402.5498960030604
 30
0.0
 40
2.0
100
AcDbArc
 50
1.000000000457809
 51
90.0
  0
ARC
  5
2127B
330
18
100
AcDbEntity
  8
01
100
AcDbCircle
 10
1775.389303857618
 20
-402.5498960030607
 30
0.0
 40
2.0
100
AcDbArc
 50
90.0
 51
178.9999999999982
  0
LINE
  5
2127E
330
18
100
AcDbEntity
  8
01
100
AcDbLine
 10
1810.024838833126
 20
-451.54989600306
 30
0.0
 11
1810.024838833126
 21
-436.9498960030751
 31
0.0
  0
CIRCLE
  5
21280
330
18
100
AcDbEntity
  8
01
100
AcDbCircle
 10
1780.024838833135
 20
-427.5498960030616
 30
0.0
 40
2.499999999998636
  0
CIRCLE
  5
21283
330
18
100
AcDbEntity
  8
01
100
AcDbCircle
 10
1780.024838833135
 20
-407.5498960030616
 30
0.0
 40
2.499999999998636
  0
LINE
  5
2128D
330
18
100
AcDbEntity
  8
01
100
AcDbLine
 10
1970.024838833109
 20
-437.2463356330679
 30
0.0
 11
1890.02212920385
 21
-437.2463356330679
 31
0.0
  0
LINE
  5
2128F
330
18
100
AcDbEntity
  8
01
100
AcDbLine
 10
1970.024838833109
 20
-451.2463356330679
 30
0.0
 11
1890.02212920385
 21
-451.2463356330679
 31
0.0
  0
LINE
  5
21291
330
18
100
AcDbEntity
  8
01
100
AcDbLine
 10
1810.02212920385
 20
-437.2463356330679
 30
0.0
 11
1890.02212920385
 21
-437.2463356330679
 31
0.0
  0
LINE
  5
21293
330
18
100
AcDbEntity
  8
01
100
AcDbLine
 10
1810.02212920385
 20
-451.2463356330679
 30
0.0
 11
1890.02212920385
 21
-451.2463356330679
 31
0.0
  0
LINE
  5
2129D
330
18
100
AcDbEntity
  8
01
100
AcDbLine
 10
1772.724838833127
 20
-444.249896003068
 30
0.0
 11
1772.788544967999
 21
-436.9498960030751
 31
0.0
  0
LINE
  5
2129E
330
18
100
AcDbEntity
  8
01
100
AcDbLine
 10
1772.788544967999
 20
-436.9498960030751
 30
0.0
 11
1773.389608467305
 21
-402.514991190186
 31
0.0
  0
LINE
  5
2129F
330
18
100
AcDbEntity
  8
01
100
AcDbLine
 10
1787.261132698323
 20
-436.9498960030166
 30
0.0
 11
1786.660069198739
 21
-402.5149911901698
 31
0.0
  0
LINE
  5
212A0
330
18
100
AcDbEntity
  8
01
100
AcDbLine
 10
2007.255713439701
 20
-436.9498960030763
 30
0.0
 11
2006.654649940396
 21
-402.5149911901855
 31
0.0
  0
LINE
  5
212A1
330
18
100
AcDbEntity
  8
01
100
AcDbLine
 10
1992.783125709378
 20
-436.9498960030178
 30
0.0
 11
1993.384189208962
 21
-402.5149911901692
 31
0.0
  0
LINE
  5
212A6
330
18
100
AcDbEntity
  8
01
100
AcDbLine
 10
2007.324838833109
 20
-450.54989600306
 30
0.0
 11
2007.255713439701
 21
-436.9498960030751
 31
0.0
  0
LINE
  5
212F1
330
18
100
AcDbEntity
  8
01
100
AcDbLine
 10
2061.924838833103
 20
-508.4003742252825
 30
0.0
 11
2061.924838833093
 21
-553.2498960030626
 31
0.0
  0
ARC
  5
212F2
330
18
100
AcDbEntity
  8
01
100
AcDbCircle
 10
2064.924838833103
 20
-508.4003742252831
 30
0.0
 40
3.0
100
AcDbArc
 50
135.5000000000022
 51
179.999999999987
  0
LINE
  5
212F3
330
18
100
AcDbEntity
  8
01
100
AcDbLine
 10
2061.924838833094
 20
-553.2498960030626
 30
0.0
 11
2061.92483883309
 21
-565.849896003063
 31
0.0
  0
ARC
  5
212F5
330
18
100
AcDbEntity
  8
01
100
AcDbCircle
 10
2060.92483883309
 20
-565.8498960030626
 30
0.0
 40
1.0
100
AcDbArc
 50
270.0
 51
359.999999999974
  0
LINE
  5
212F6
330
18
100
AcDbEntity
  8
01
100
AcDbLine
 10
2047.324838833118
 20
-498.5498960030606
 30
0.0
 11
2047.324838833095
 21
-553.2498960030617
 31
0.0
  0
LINE
  5
212F7
330
18
100
AcDbEntity
  8
01
100
AcDbLine
 10
2047.324838833095
 20
-553.2498960030617
 30
0.0
 11
2047.324838833089
 21
-565.8498960030621
 31
0.0
  0
ARC
  5
212F9
330
18
100
AcDbEntity
  8
01
100
AcDbCircle
 10
2049.324838833119
 20
-498.5498960030615
 30
0.0
 40
2.0
100
AcDbArc
 50
90.0
 51
179.9999999999739
  0
LINE
  5
212FB
330
18
100
AcDbEntity
  8
01
100
AcDbLine
 10
2098.324838833119
 20
-497.5498960030617
 30
0.0
 11
2098.324838833117
 21
-502.5671987399459
 31
0.0
  0
ARC
  5
212FC
330
18
100
AcDbEntity
  8
01
100
AcDbCircle
 10
2097.324838833119
 20
-497.5498960030615
 30
0.0
 40
1.0
100
AcDbArc
 50
359.999999999974
 51
90.0
  0
LINE
  5
212FF
330
18
100
AcDbEntity
  8
01
100
AcDbLine
 10
2097.324838833119
 20
-496.5498960030615
 30
0.0
 11
2049.324838833119
 21
-496.5498960030615
 31
0.0
  0
LINE
  5
21300
330
18
100
AcDbEntity
  8
01
100
AcDbLine
 10
2097.186268128759
 20
-503.5575512831816
 30
0.0
 11
2066.151527394187
 21
-504.0992646977339
 31
0.0
  0
ARC
  5
21301
330
18
100
AcDbEntity
  8
01
100
AcDbCircle
 10
2097.324838833118
 20
-502.5671987399456
 30
0.0
 40
1.0
100
AcDbArc
 50
262.0348524918201
 51
359.999999999987
  0
LINE
  5
21302
330
18
100
AcDbEntity
  8
01
100
AcDbLine
 10
2048.324838833089
 20
-566.8498960030627
 30
0.0
 11
2060.92483883309
 21
-566.8498960030627
 31
0.0
  0
ARC
  5
21303
330
18
100
AcDbEntity
  8
01
100
AcDbCircle
 10
2048.324838833089
 20
-565.8498960030626
 30
0.0
 40
1.0
100
AcDbArc
 50
179.9999999999739
 51
270.0
  0
LINE
  5
21308
330
18
100
AcDbEntity
  8
01
100
AcDbLine
 10
2006.324838833134
 20
-566.8498960030626
 30
0.0
 11
1970.02212920382
 21
-566.8498960030626
 31
0.0
  0
ARC
  5
21309
330
18
100
AcDbEntity
  8
01
100
AcDbCircle
 10
2006.324838833134
 20
-565.8498960030626
 30
0.0
 40
1.0
100
AcDbArc
 50
270.0
 51
0.0
  0
LINE
  5
2130A
330
18
100
AcDbEntity
  8
01
100
AcDbLine
 10
1990.724838833091
 20
-552.2498960030622
 30
0.0
 11
1970.022129203827
 21
-552.2498960030622
 31
0.0
  0
LINE
  5
2130B
330
18
100
AcDbEntity
  8
01
100
AcDbLine
 10
2007.32483883312
 20
-497.5498960030615
 30
0.0
 11
2007.324838833134
 21
-565.8498960030621
 31
0.0
  0
ARC
  5
2130C
330
18
100
AcDbEntity
  8
01
100
AcDbCircle
 10
2006.32483883312
 20
-497.5498960030615
 30
0.0
 40
1.0
100
AcDbArc
 50
0.0
 51
90.0
  0
LINE
  5
2130D
330
18
100
AcDbEntity
  8
01
100
AcDbLine
 10
1992.724838833118
 20
-497.549896003061
 30
0.0
 11
1992.724838833091
 21
-550.2498960030636
 31
0.0
  0
ARC
  5
2130E
330
18
100
AcDbEntity
  8
01
100
AcDbCircle
 10
1993.724838833118
 20
-497.5498960030615
 30
0.0
 40
1.0
100
AcDbArc
 50
90.0
 51
179.9999999999739
  0
ARC
  5
2130F
330
18
100
AcDbEntity
  8
01
100
AcDbCircle
 10
1990.724838833091
 20
-550.2498960030622
 30
0.0
 40
2.0
100
AcDbArc
 50
270.0
 51
359.999999999974
  0
LINE
  5
21310
330
18
100
AcDbEntity
  8
01
100
AcDbLine
 10
1970.022129203827
 20
-552.2498960030622
 30
0.0
 11
1970.02212920382
 21
-566.8498960030626
 31
0.0
  0
LINE
  5
21311
330
18
100
AcDbEntity
  8
01
100
AcDbLine
 10
1993.724838833118
 20
-496.5498960030615
 30
0.0
 11
2006.32483883312
 21
-496.5498960030615
 31
0.0
  0
LINE
  5
21313
330
18
100
AcDbEntity
  8
01
100
AcDbLine
 10
1970.022129203822
 20
-565.4163356330624
 30
0.0
 11
1970.022129203823
 21
-553.8163356330616
 31
0.0
  0
LINE
  5
21314
330
18
100
AcDbEntity
  8
01
100
AcDbLine
 10
1773.719419574566
 20
-566.8498960030611
 30
0.0
 11
1810.02212920388
 21
-566.8498960030613
 31
0.0
  0
ARC
  5
21315
330
18
100
AcDbEntity
  8
01
100
AcDbCircle
 10
1773.719419574566
 20
-565.8498960030611
 30
0.0
 40
1.0
100
AcDbArc
 50
180.0
 51
270.0
  0
LINE
  5
21316
330
18
100
AcDbEntity
  8
01
100
AcDbLine
 10
1789.319419574609
 20
-552.2498960030608
 30
0.0
 11
1810.022129203874
 21
-552.2498960030609
 31
0.0
  0
LINE
  5
21317
330
18
100
AcDbEntity
  8
01
100
AcDbLine
 10
1772.719419574581
 20
-497.5498960030599
 30
0.0
 11
1772.719419574566
 21
-565.8498960030605
 31
0.0
  0
ARC
  5
21318
330
18
100
AcDbEntity
  8
01
100
AcDbCircle
 10
1773.719419574581
 20
-497.54989600306
 30
0.0
 40
1.0
100
AcDbArc
 50
90.0
 51
180.0
  0
LINE
  5
21319
330
18
100
AcDbEntity
  8
01
100
AcDbLine
 10
1787.319419574582
 20
-497.5498960030596
 30
0.0
 11
1787.319419574609
 21
-550.2498960030622
 31
0.0
  0
ARC
  5
2131A
330
18
100
AcDbEntity
  8
01
100
AcDbCircle
 10
1786.319419574582
 20
-497.5498960030601
 30
0.0
 40
1.0
100
AcDbArc
 50
0.0000000000260551
 51
90.0
  0
ARC
  5
2131B
330
18
100
AcDbEntity
  8
01
100
AcDbCircle
 10
1789.319419574609
 20
-550.2498960030608
 30
0.0
 40
2.0
100
AcDbArc
 50
180.0000000000261
 51
270.0
  0
LINE
  5
2131D
330
18
100
AcDbEntity
  8
01
100
AcDbLine
 10
1810.022129203874
 20
-552.2498960030609
 30
0.0
 11
1810.02212920388
 21
-566.8498960030613
 31
0.0
  0
LINE
  5
2131E
330
18
100
AcDbEntity
  8
01
100
AcDbLine
 10
1786.319419574582
 20
-496.5498960030601
 30
0.0
 11
1773.719419574581
 21
-496.54989600306
 31
0.0
  0
LINE
  5
21320
330
18
100
AcDbEntity
  8
01
100
AcDbLine
 10
1810.022129203878
 20
-565.4163356330612
 30
0.0
 11
1810.022129203878
 21
-553.8163356330604
 31
0.0
  0
LINE
  5
21323
330
18
100
AcDbEntity
  8
01
100
AcDbLine
 10
1970.022129203819
 20
-566.5498960030624
 30
0.0
 11
1890.02212920385
 21
-566.5498960030624
 31
0.0
  0
LINE
  5
21325
330
18
100
AcDbEntity
  8
01
100
AcDbLine
 10
1970.022129203826
 20
-552.5498960030624
 30
0.0
 11
1890.02212920385
 21
-552.5498960030624
 31
0.0
  0
LINE
  5
21327
330
18
100
AcDbEntity
  8
01
100
AcDbLine
 10
1810.02212920385
 20
-566.5498960030624
 30
0.0
 11
1890.02212920385
 21
-566.5498960030624
 31
0.0
  0
LINE
  5
21329
330
18
100
AcDbEntity
  8
01
100
AcDbLine
 10
1810.02212920385
 20
-552.5498960030624
 30
0.0
 11
1890.02212920385
 21
-552.5498960030624
 31
0.0
  0
LINE
  5
21345
330
18
100
AcDbEntity
  8
01
100
AcDbLine
 10
1810.022129203878
 20
-565.4163356330624
 30
0.0
 11
1810.022129203878
 21
-553.8163356330616
 31
0.0
  0
LINE
  5
21357
330
18
100
AcDbEntity
  8
01
100
AcDbLine
 10
2064.064133266036
 20
-504.9960799903034
 30
0.0
 11
2062.785087485641
 21
-506.2976464323834
 31
0.0
  0
ARC
  5
21358
330
18
100
AcDbEntity
  8
01
100
AcDbCircle
 10
2066.203884613499
 20
-507.0988077832031
 30
0.0
 40
3.0
100
AcDbArc
 50
91.00000000000173
 51
135.5000000000022
  0
LINE
  5
214FB
330
18
100
AcDbEntity
  8
1PHANTOM
100
AcDbLine
 10
2000.524838686221
 20
-505.021182756113
 30
0.0
 11
1999.524838986222
 21
-504.021182756113
 31
0.0
  0
LINE
  5
214FC
330
18
100
AcDbEntity
  8
1PHANTOM
100
AcDbLine
 10
2003.824838836221
 20
-505.021182756113
 30
0.0
 11
2003.824838836221
 21
-504.021182756113
 31
0.0
  0
LINE
  5
214FD
330
18
100
AcDbEntity
  8
1PHANTOM
100
AcDbLine
 10
2003.824838836221
 20
-504.021182756113
 30
0.0
 11
1996.224838836221
 21
-504.021182756113
 31
0.0
  0
LINE
  5
214FE
330
18
100
AcDbEntity
  8
1PHANTOM
100
AcDbLine
 10
2003.824838836221
 20
-505.021182756113
 30
0.0
 11
1996.224838836221
 21
-505.021182756113
 31
0.0
  0
LINE
  5
214FF
330
18
100
AcDbEntity
  8
1PHANTOM
100
AcDbLine
 10
1996.224838836221
 20
-505.021182756113
 30
0.0
 11
1996.224838836221
 21
-504.021182756113
 31
0.0
  0
LINE
  5
21500
330
18
100
AcDbEntity
  8
1PHANTOM
100
AcDbLine
 10
2000.024885369014
 20
-483.0210183293819
 30
0.0
 11
1998.524885369014
 21
-488.3210148392436
 31
0.0
  0
LINE
  5
21501
330
18
100
AcDbEntity
  8
1PHANTOM
100
AcDbLine
 10
1998.524885369014
 20
-488.3210148392436
 30
0.0
 11
1998.524885369015
 21
-505.0211827561129
 31
0.0
  0
LINE
  5
21502
330
18
100
AcDbEntity
  8
1PHANTOM
100
AcDbLine
 10
2000.024885369014
 20
-483.0210183293819
 30
0.0
 11
2001.524885369015
 21
-488.3210218196273
 31
0.0
  0
LINE
  5
21503
330
18
100
AcDbEntity
  8
1PHANTOM
100
AcDbLine
 10
1996.524838833117
 20
-505.0211746123308
 30
0.0
 11
2003.524838833117
 21
-505.0211908998953
 31
0.0
  0
LINE
  5
21504
330
18
100
AcDbEntity
  8
1PHANTOM
100
AcDbLine
 10
2001.524885369015
 20
-488.3210218196273
 30
0.0
 11
2001.524885369015
 21
-505.0211827561129
 31
0.0
  0
LINE
  5
21505
330
18
100
AcDbEntity
  8
1PHANTOM
100
AcDbLine
 10
1996.524838833117
 20
-505.0211746123308
 30
0.0
 11
1996.524838833117
 21
-506.1211781025262
 31
0.0
  0
ARC
  5
21506
330
18
100
AcDbEntity
  8
1PHANTOM
100
AcDbCircle
 10
1998.024838833117
 20
-506.1211781025262
 30
0.0
 40
1.5
100
AcDbArc
 50
180.0
 51
269.9998666844619
  0
LINE
  5
21507
330
18
100
AcDbEntity
  8
1PHANTOM
100
AcDbLine
 10
2003.524838833117
 20
-505.0211908998953
 30
0.0
 11
2003.524838833117
 21
-506.1211874097058
 31
0.0
  0
LINE
  5
21508
330
18
100
AcDbEntity
  8
1PHANTOM
100
AcDbLine
 10
1998.024835342924
 20
-507.6211781025221
 30
0.0
 11
2002.024835342924
 21
-507.6211874097017
 31
0.0
  0
ARC
  5
21509
330
18
100
AcDbEntity
  8
1PHANTOM
100
AcDbCircle
 10
2002.024838833117
 20
-506.1211874097058
 30
0.0
 40
1.5
100
AcDbArc
 50
269.9998666844619
 51
0.0
  0
LINE
  5
2150A
330
18
100
AcDbEntity
  8
1CENTER
100
AcDbLine
 10
2000.024838833117
 20
-481.5902234119166
 30
0.0
 11
2000.024838833117
 21
-508.8044913325973
 31
0.0
  0
LINE
  5
2150B
330
18
100
AcDbEntity
  8
1PHANTOM
100
AcDbLine
 10
1998.930515019122
 20
-485.1210157830598
 30
0.0
 11
2000.892850107997
 21
-484.3210203490088
 31
0.0
  0
LINE
  5
2150C
330
18
100
AcDbEntity
  8
1PHANTOM
100
AcDbLine
 10
2000.892850107997
 20
-484.3210203490088
 30
0.0
 11
2000.304573532955
 21
-484.0092504927567
 31
0.0
  0
LINE
  5
2150D
330
18
100
AcDbEntity
  8
1PHANTOM
100
AcDbLine
 10
1998.024885369014
 20
-496.3210136758454
 30
0.0
 11
2002.024885369014
 21
-495.5210229830228
 31
0.0
  0
LINE
  5
2150E
330
18
100
AcDbEntity
  8
1PHANTOM
100
AcDbLine
 10
1998.024885369014
 20
-493.1210136758453
 30
0.0
 11
2002.024885369014
 21
-492.3210229830228
 31
0.0
  0
LINE
  5
2150F
330
18
100
AcDbEntity
  8
1PHANTOM
100
AcDbLine
 10
2002.024885369014
 20
-492.3210229830228
 30
0.0
 11
2001.524885369014
 21
-492.2210218196255
 31
0.0
  0
LINE
  5
21510
330
18
100
AcDbEntity
  8
1PHANTOM
100
AcDbLine
 10
1998.524885369014
 20
-491.6210148392425
 30
0.0
 11
1998.024885369014
 21
-491.5210136758453
 31
0.0
  0
LINE
  5
21511
330
18
100
AcDbEntity
  8
1PHANTOM
100
AcDbLine
 10
2002.024885369014
 20
-495.5210229830228
 30
0.0
 11
2001.524885369014
 21
-495.4210218196256
 31
0.0
  0
LINE
  5
21512
330
18
100
AcDbEntity
  8
1PHANTOM
100
AcDbLine
 10
2002.024885369014
 20
-493.9210229830227
 30
0.0
 11
2001.524885369014
 21
-493.8210218196256
 31
0.0
  0
LINE
  5
21513
330
18
100
AcDbEntity
  8
1PHANTOM
100
AcDbLine
 10
1998.524885369014
 20
-493.2210148392425
 30
0.0
 11
1998.024885369014
 21
-493.1210136758453
 31
0.0
  0
LINE
  5
21514
330
18
100
AcDbEntity
  8
1PHANTOM
100
AcDbLine
 10
1998.524885369014
 20
-494.8210148392424
 30
0.0
 11
1998.024885369014
 21
-494.7210136758453
 31
0.0
  0
LINE
  5
21515
330
18
100
AcDbEntity
  8
1PHANTOM
100
AcDbLine
 10
1998.024885369014
 20
-494.7210136758453
 30
0.0
 11
2002.024885369014
 21
-493.9210229830227
 31
0.0
  0
LINE
  5
21516
330
18
100
AcDbEntity
  8
1PHANTOM
100
AcDbLine
 10
2001.345664212404
 20
-485.9210214026144
 30
0.0
 11
2000.793914748601
 21
-485.7382572599864
 31
0.0
  0
LINE
  5
21517
330
18
100
AcDbEntity
  8
1PHANTOM
100
AcDbLine
 10
2002.024885369014
 20
-489.1210229830227
 30
0.0
 11
2001.524885369014
 21
-489.0210218196256
 31
0.0
  0
LINE
  5
21518
330
18
100
AcDbEntity
  8
1PHANTOM
100
AcDbLine
 10
2002.024885369014
 20
-490.7210229830227
 30
0.0
 11
2001.524885369014
 21
-490.6210218196258
 31
0.0
  0
LINE
  5
21519
330
18
100
AcDbEntity
  8
1PHANTOM
100
AcDbLine
 10
2001.798478316811
 20
-487.5210224562201
 30
0.0
 11
2001.261884581539
 21
-487.3917517585902
 31
0.0
  0
LINE
  5
2151A
330
18
100
AcDbEntity
  8
1PHANTOM
100
AcDbLine
 10
1998.945799966223
 20
-486.8337842418056
 30
0.0
 11
1998.477701511074
 21
-486.7210147294555
 31
0.0
  0
LINE
  5
2151B
330
18
100
AcDbEntity
  8
1PHANTOM
100
AcDbLine
 10
1998.524885369014
 20
-490.0210148392424
 30
0.0
 11
1998.024885369014
 21
-489.9210136758453
 31
0.0
  0
LINE
  5
2151C
330
18
100
AcDbEntity
  8
1PHANTOM
100
AcDbLine
 10
1998.524885369014
 20
-488.4210148392425
 30
0.0
 11
1998.024885369014
 21
-488.3210136758454
 31
0.0
  0
LINE
  5
2151D
330
18
100
AcDbEntity
  8
1PHANTOM
100
AcDbLine
 10
1999.387686859752
 20
-485.2724515795002
 30
0.0
 11
1998.930515019122
 21
-485.1210157830598
 31
0.0
  0
LINE
  5
2151E
330
18
100
AcDbEntity
  8
1PHANTOM
100
AcDbLine
 10
1998.477701511074
 20
-486.7210147294555
 30
0.0
 11
2001.345664212404
 21
-485.9210214026144
 31
0.0
  0
LINE
  5
2151F
330
18
100
AcDbEntity
  8
1PHANTOM
100
AcDbLine
 10
1998.024885369014
 20
-489.9210136758453
 30
0.0
 11
2002.024885369014
 21
-489.1210229830227
 31
0.0
  0
LINE
  5
21520
330
18
100
AcDbEntity
  8
1PHANTOM
100
AcDbLine
 10
1998.024885369014
 20
-488.3210136758454
 30
0.0
 11
2001.798478316811
 21
-487.5210224562201
 31
0.0
  0
LINE
  5
21521
330
18
100
AcDbEntity
  8
1PHANTOM
100
AcDbLine
 10
1998.024885369014
 20
-491.5210136758453
 30
0.0
 11
2002.024885369014
 21
-490.7210229830227
 31
0.0
  0
LINE
  5
21522
330
18
100
AcDbEntity
  8
1PHANTOM
100
AcDbLine
 10
2002.024885369014
 20
-497.1210229830227
 30
0.0
 11
2001.524885369014
 21
-497.0210218196256
 31
0.0
  0
LINE
  5
21523
330
18
100
AcDbEntity
  8
1PHANTOM
100
AcDbLine
 10
1998.524885369014
 20
-496.4210148392425
 30
0.0
 11
1998.024885369014
 21
-496.3210136758454
 31
0.0
  0
LINE
  5
21524
330
18
100
AcDbEntity
  8
1PHANTOM
100
AcDbLine
 10
1998.524885369014
 20
-498.0210148392431
 30
0.0
 11
1998.024885369014
 21
-497.9210136758453
 31
0.0
  0
LINE
  5
21525
330
18
100
AcDbEntity
  8
1PHANTOM
100
AcDbLine
 10
1998.024885369014
 20
-497.9210136758453
 30
0.0
 11
2002.024885369014
 21
-497.1210229830227
 31
0.0
  0
LINE
  5
21526
330
18
100
AcDbEntity
  8
1PHANTOM
100
AcDbLine
 10
2002.024885369014
 20
-498.7210229830227
 30
0.0
 11
2001.524885369014
 21
-498.6210218196256
 31
0.0
  0
LINE
  5
21527
330
18
100
AcDbEntity
  8
1PHANTOM
100
AcDbLine
 10
1998.524885369014
 20
-499.6210148392431
 30
0.0
 11
1998.024885369014
 21
-499.5210136758453
 31
0.0
  0
LINE
  5
21528
330
18
100
AcDbEntity
  8
1PHANTOM
100
AcDbLine
 10
1998.024885369014
 20
-499.5210136758453
 30
0.0
 11
2002.024885369014
 21
-498.7210229830227
 31
0.0
  0
LINE
  5
21529
330
18
100
AcDbEntity
  8
1PHANTOM
100
AcDbLine
 10
2002.024885369015
 20
-500.3210229830229
 30
0.0
 11
2001.524885369015
 21
-500.2210218196258
 31
0.0
  0
LINE
  5
2152A
330
18
100
AcDbEntity
  8
1PHANTOM
100
AcDbLine
 10
1998.524885369015
 20
-501.2210148392433
 30
0.0
 11
1998.024885369015
 21
-501.1210136758455
 31
0.0
  0
LINE
  5
2152B
330
18
100
AcDbEntity
  8
1PHANTOM
100
AcDbLine
 10
1998.024885369015
 20
-501.1210136758455
 30
0.0
 11
2002.024885369015
 21
-500.3210229830229
 31
0.0
  0
LINE
  5
2152C
330
18
100
AcDbEntity
  8
1PHANTOM
100
AcDbLine
 10
2002.024885369015
 20
-501.9210229830229
 30
0.0
 11
2001.524885369015
 21
-501.8210218196258
 31
0.0
  0
LINE
  5
2152D
330
18
100
AcDbEntity
  8
1PHANTOM
100
AcDbLine
 10
1998.524885369015
 20
-502.8210148392433
 30
0.0
 11
1998.024885369015
 21
-502.7210136758455
 31
0.0
  0
LINE
  5
2152E
330
18
100
AcDbEntity
  8
1PHANTOM
100
AcDbLine
 10
1998.024885369015
 20
-502.7210136758455
 30
0.0
 11
2002.024885369015
 21
-501.9210229830229
 31
0.0
  0
LINE
  5
2152F
330
18
100
AcDbEntity
  8
1PHANTOM
100
AcDbLine
 10
2002.024885369014
 20
-503.5210229830229
 30
0.0
 11
2001.524885369014
 21
-503.4210218196258
 31
0.0
  0
LINE
  5
21530
330
18
100
AcDbEntity
  8
1PHANTOM
100
AcDbLine
 10
1998.524885369014
 20
-504.4210148392433
 30
0.0
 11
1998.024885369014
 21
-504.3210136758455
 31
0.0
  0
LINE
  5
21531
330
18
100
AcDbEntity
  8
1PHANTOM
100
AcDbLine
 10
1998.024885369014
 20
-504.3210136758455
 30
0.0
 11
2002.024885369014
 21
-503.5210229830229
 31
0.0
  0
LINE
  5
21535
330
18
100
AcDbEntity
  8
1PHANTOM
100
AcDbLine
 10
1780.519419427683
 20
-505.0211827561116
 30
0.0
 11
1779.519419727684
 21
-504.0211827561116
 31
0.0
  0
LINE
  5
21536
330
18
100
AcDbEntity
  8
1PHANTOM
100
AcDbLine
 10
1783.819419577684
 20
-505.0211827561116
 30
0.0
 11
1783.819419577684
 21
-504.0211827561116
 31
0.0
  0
LINE
  5
21537
330
18
100
AcDbEntity
  8
1PHANTOM
100
AcDbLine
 10
1783.819419577684
 20
-504.0211827561116
 30
0.0
 11
1776.219419577684
 21
-504.0211827561116
 31
0.0
  0
LINE
  5
21538
330
18
100
AcDbEntity
  8
1PHANTOM
100
AcDbLine
 10
1783.819419577684
 20
-505.0211827561116
 30
0.0
 11
1776.219419577684
 21
-505.0211827561116
 31
0.0
  0
LINE
  5
21539
330
18
100
AcDbEntity
  8
1PHANTOM
100
AcDbLine
 10
1776.219419577684
 20
-505.0211827561116
 30
0.0
 11
1776.219419577684
 21
-504.0211827561116
 31
0.0
  0
LINE
  5
2153A
330
18
100
AcDbEntity
  8
1PHANTOM
100
AcDbLine
 10
1780.019466110477
 20
-483.0210183293805
 30
0.0
 11
1778.519466110477
 21
-488.3210148392421
 31
0.0
  0
LINE
  5
2153B
330
18
100
AcDbEntity
  8
1PHANTOM
100
AcDbLine
 10
1778.519466110477
 20
-488.3210148392421
 30
0.0
 11
1778.519466110478
 21
-505.0211827561114
 31
0.0
  0
LINE
  5
2153C
330
18
100
AcDbEntity
  8
1PHANTOM
100
AcDbLine
 10
1780.019466110477
 20
-483.0210183293805
 30
0.0
 11
1781.519466110478
 21
-488.3210218196258
 31
0.0
  0
LINE
  5
2153D
330
18
100
AcDbEntity
  8
1PHANTOM
100
AcDbLine
 10
1776.51941957458
 20
-505.0211746123293
 30
0.0
 11
1783.51941957458
 21
-505.0211908998938
 31
0.0
  0
LINE
  5
2153E
330
18
100
AcDbEntity
  8
1PHANTOM
100
AcDbLine
 10
1781.519466110478
 20
-488.3210218196258
 30
0.0
 11
1781.519466110478
 21
-505.0211827561114
 31
0.0
  0
LINE
  5
2153F
330
18
100
AcDbEntity
  8
1PHANTOM
100
AcDbLine
 10
1776.51941957458
 20
-505.0211746123293
 30
0.0
 11
1776.51941957458
 21
-506.1211781025247
 31
0.0
  0
ARC
  5
21540
330
18
100
AcDbEntity
  8
1PHANTOM
100
AcDbCircle
 10
1778.01941957458
 20
-506.1211781025247
 30
0.0
 40
1.5
100
AcDbArc
 50
180.0
 51
269.9998666844619
  0
LINE
  5
21541
330
18
100
AcDbEntity
  8
1PHANTOM
100
AcDbLine
 10
1783.51941957458
 20
-505.0211908998938
 30
0.0
 11
1783.51941957458
 21
-506.1211874097044
 31
0.0
  0
LINE
  5
21542
330
18
100
AcDbEntity
  8
1PHANTOM
100
AcDbLine
 10
1778.019416084386
 20
-507.6211781025206
 30
0.0
 11
1782.019416084386
 21
-507.6211874097003
 31
0.0
  0
ARC
  5
21543
330
18
100
AcDbEntity
  8
1PHANTOM
100
AcDbCircle
 10
1782.01941957458
 20
-506.1211874097044
 30
0.0
 40
1.5
100
AcDbArc
 50
269.9998666844619
 51
0.0
  0
LINE
  5
21544
330
18
100
AcDbEntity
  8
1CENTER
100
AcDbLine
 10
1780.01941957458
 20
-481.5902234119151
 30
0.0
 11
1780.01941957458
 21
-508.8044913325958
 31
0.0
  0
LINE
  5
21545
330
18
100
AcDbEntity
  8
1PHANTOM
100
AcDbLine
 10
1778.925095760584
 20
-485.1210157830583
 30
0.0
 11
1780.887430849459
 21
-484.3210203490073
 31
0.0
  0
LINE
  5
21546
330
18
100
AcDbEntity
  8
1PHANTOM
100
AcDbLine
 10
1780.887430849459
 20
-484.3210203490073
 30
0.0
 11
1780.299154274417
 21
-484.0092504927552
 31
0.0
  0
LINE
  5
21547
330
18
100
AcDbEntity
  8
1PHANTOM
100
AcDbLine
 10
1778.019466110477
 20
-496.3210136758439
 30
0.0
 11
1782.019466110477
 21
-495.5210229830213
 31
0.0
  0
LINE
  5
21548
330
18
100
AcDbEntity
  8
1PHANTOM
100
AcDbLine
 10
1778.019466110477
 20
-493.1210136758439
 30
0.0
 11
1782.019466110477
 21
-492.3210229830213
 31
0.0
  0
LINE
  5
21549
330
18
100
AcDbEntity
  8
1PHANTOM
100
AcDbLine
 10
1782.019466110477
 20
-492.3210229830213
 30
0.0
 11
1781.519466110477
 21
-492.2210218196241
 31
0.0
  0
LINE
  5
2154A
330
18
100
AcDbEntity
  8
1PHANTOM
100
AcDbLine
 10
1778.519466110477
 20
-491.6210148392411
 30
0.0
 11
1778.019466110477
 21
-491.5210136758438
 31
0.0
  0
LINE
  5
2154B
330
18
100
AcDbEntity
  8
1PHANTOM
100
AcDbLine
 10
1782.019466110477
 20
-495.5210229830213
 30
0.0
 11
1781.519466110477
 21
-495.4210218196241
 31
0.0
  0
LINE
  5
2154C
330
18
100
AcDbEntity
  8
1PHANTOM
100
AcDbLine
 10
1782.019466110477
 20
-493.9210229830212
 30
0.0
 11
1781.519466110477
 21
-493.8210218196241
 31
0.0
  0
LINE
  5
2154D
330
18
100
AcDbEntity
  8
1PHANTOM
100
AcDbLine
 10
1778.519466110477
 20
-493.221014839241
 30
0.0
 11
1778.019466110477
 21
-493.1210136758439
 31
0.0
  0
LINE
  5
2154E
330
18
100
AcDbEntity
  8
1PHANTOM
100
AcDbLine
 10
1778.519466110477
 20
-494.8210148392409
 30
0.0
 11
1778.019466110477
 21
-494.7210136758438
 31
0.0
  0
LINE
  5
2154F
330
18
100
AcDbEntity
  8
1PHANTOM
100
AcDbLine
 10
1778.019466110477
 20
-494.7210136758438
 30
0.0
 11
1782.019466110477
 21
-493.9210229830212
 31
0.0
  0
LINE
  5
21550
330
18
100
AcDbEntity
  8
1PHANTOM
100
AcDbLine
 10
1781.340244953866
 20
-485.921021402613
 30
0.0
 11
1780.788495490063
 21
-485.7382572599849
 31
0.0
  0
LINE
  5
21551
330
18
100
AcDbEntity
  8
1PHANTOM
100
AcDbLine
 10
1782.019466110477
 20
-489.1210229830212
 30
0.0
 11
1781.519466110477
 21
-489.0210218196241
 31
0.0
  0
LINE
  5
21552
330
18
100
AcDbEntity
  8
1PHANTOM
100
AcDbLine
 10
1782.019466110477
 20
-490.7210229830213
 30
0.0
 11
1781.519466110477
 21
-490.6210218196243
 31
0.0
  0
LINE
  5
21553
330
18
100
AcDbEntity
  8
1PHANTOM
100
AcDbLine
 10
1781.793059058273
 20
-487.5210224562186
 30
0.0
 11
1781.256465323002
 21
-487.3917517585887
 31
0.0
  0
LINE
  5
21554
330
18
100
AcDbEntity
  8
1PHANTOM
100
AcDbLine
 10
1778.940380707686
 20
-486.8337842418041
 30
0.0
 11
1778.472282252536
 21
-486.7210147294541
 31
0.0
  0
LINE
  5
21555
330
18
100
AcDbEntity
  8
1PHANTOM
100
AcDbLine
 10
1778.519466110477
 20
-490.0210148392409
 30
0.0
 11
1778.019466110477
 21
-489.9210136758438
 31
0.0
  0
LINE
  5
21556
330
18
100
AcDbEntity
  8
1PHANTOM
100
AcDbLine
 10
1778.519466110477
 20
-488.421014839241
 30
0.0
 11
1778.019466110477
 21
-488.3210136758439
 31
0.0
  0
LINE
  5
21557
330
18
100
AcDbEntity
  8
1PHANTOM
100
AcDbLine
 10
1779.382267601215
 20
-485.2724515794987
 30
0.0
 11
1778.925095760584
 21
-485.1210157830583
 31
0.0
  0
LINE
  5
21558
330
18
100
AcDbEntity
  8
1PHANTOM
100
AcDbLine
 10
1778.472282252536
 20
-486.7210147294541
 30
0.0
 11
1781.340244953866
 21
-485.921021402613
 31
0.0
  0
LINE
  5
21559
330
18
100
AcDbEntity
  8
1PHANTOM
100
AcDbLine
 10
1778.019466110477
 20
-489.9210136758438
 30
0.0
 11
1782.019466110477
 21
-489.1210229830212
 31
0.0
  0
LINE
  5
2155A
330
18
100
AcDbEntity
  8
1PHANTOM
100
AcDbLine
 10
1778.019466110477
 20
-488.3210136758439
 30
0.0
 11
1781.793059058273
 21
-487.5210224562186
 31
0.0
  0
LINE
  5
2155B
330
18
100
AcDbEntity
  8
1PHANTOM
100
AcDbLine
 10
1778.019466110477
 20
-491.5210136758438
 30
0.0
 11
1782.019466110477
 21
-490.7210229830213
 31
0.0
  0
LINE
  5
2155C
330
18
100
AcDbEntity
  8
1PHANTOM
100
AcDbLine
 10
1782.019466110477
 20
-497.1210229830212
 30
0.0
 11
1781.519466110477
 21
-497.0210218196241
 31
0.0
  0
LINE
  5
2155D
330
18
100
AcDbEntity
  8
1PHANTOM
100
AcDbLine
 10
1778.519466110477
 20
-496.421014839241
 30
0.0
 11
1778.019466110477
 21
-496.3210136758439
 31
0.0
  0
LINE
  5
2155E
330
18
100
AcDbEntity
  8
1PHANTOM
100
AcDbLine
 10
1778.519466110477
 20
-498.0210148392416
 30
0.0
 11
1778.019466110477
 21
-497.9210136758438
 31
0.0
  0
LINE
  5
2155F
330
18
100
AcDbEntity
  8
1PHANTOM
100
AcDbLine
 10
1778.019466110477
 20
-497.9210136758438
 30
0.0
 11
1782.019466110477
 21
-497.1210229830212
 31
0.0
  0
LINE
  5
21560
330
18
100
AcDbEntity
  8
1PHANTOM
100
AcDbLine
 10
1782.019466110477
 20
-498.7210229830213
 30
0.0
 11
1781.519466110477
 21
-498.6210218196242
 31
0.0
  0
LINE
  5
21561
330
18
100
AcDbEntity
  8
1PHANTOM
100
AcDbLine
 10
1778.519466110477
 20
-499.6210148392416
 30
0.0
 11
1778.019466110477
 21
-499.5210136758438
 31
0.0
  0
LINE
  5
21562
330
18
100
AcDbEntity
  8
1PHANTOM
100
AcDbLine
 10
1778.019466110477
 20
-499.5210136758438
 30
0.0
 11
1782.019466110477
 21
-498.7210229830213
 31
0.0
  0
LINE
  5
21563
330
18
100
AcDbEntity
  8
1PHANTOM
100
AcDbLine
 10
1782.019466110478
 20
-500.3210229830214
 30
0.0
 11
1781.519466110478
 21
-500.2210218196243
 31
0.0
  0
LINE
  5
21564
330
18
100
AcDbEntity
  8
1PHANTOM
100
AcDbLine
 10
1778.519466110478
 20
-501.2210148392418
 30
0.0
 11
1778.019466110478
 21
-501.121013675844
 31
0.0
  0
LINE
  5
21565
330
18
100
AcDbEntity
  8
1PHANTOM
100
AcDbLine
 10
1778.019466110478
 20
-501.121013675844
 30
0.0
 11
1782.019466110478
 21
-500.3210229830214
 31
0.0
  0
LINE
  5
21566
330
18
100
AcDbEntity
  8
1PHANTOM
100
AcDbLine
 10
1782.019466110478
 20
-501.9210229830214
 30
0.0
 11
1781.519466110478
 21
-501.8210218196243
 31
0.0
  0
LINE
  5
21567
330
18
100
AcDbEntity
  8
1PHANTOM
100
AcDbLine
 10
1778.519466110478
 20
-502.8210148392418
 30
0.0
 11
1778.019466110478
 21
-502.721013675844
 31
0.0
  0
LINE
  5
21568
330
18
100
AcDbEntity
  8
1PHANTOM
100
AcDbLine
 10
1778.019466110478
 20
-502.721013675844
 30
0.0
 11
1782.019466110478
 21
-501.9210229830214
 31
0.0
  0
LINE
  5
21569
330
18
100
AcDbEntity
  8
1PHANTOM
100
AcDbLine
 10
1782.019466110477
 20
-503.5210229830215
 30
0.0
 11
1781.519466110477
 21
-503.4210218196243
 31
0.0
  0
LINE
  5
2156A
330
18
100
AcDbEntity
  8
1PHANTOM
100
AcDbLine
 10
1778.519466110477
 20
-504.4210148392418
 30
0.0
 11
1778.019466110477
 21
-504.321013675844
 31
0.0
  0
LINE
  5
2156B
330
18
100
AcDbEntity
  8
1PHANTOM
100
AcDbLine
 10
1778.019466110477
 20
-504.321013675844
 30
0.0
 11
1782.019466110477
 21
-503.5210229830215
 31
0.0
  0
ARC
  5
2156E
330
18
100
AcDbEntity
  8
01
100
AcDbCircle
 10
1993.72483883311
 20
-450.54989600306
 30
0.0
 40
1.0
100
AcDbArc
 50
180.0
 51
270.0
  0
LINE
  5
2156F
330
18
100
AcDbEntity
  8
01
100
AcDbLine
 10
1992.72483883311
 20
-450.54989600306
 30
0.0
 11
1992.793964226518
 21
-436.9498960030751
 31
0.0
  0
ARC
  5
21570
330
18
100
AcDbEntity
  8
01
100
AcDbCircle
 10
1993.785275437112
 20
-437.9498960030751
 30
0.0
 40
1.0
100
AcDbArc
 50
174.8328509187338
 51
179.4999999999954
  0
LINE
  5
21601
330
18
100
AcDbEntity
  8
1DIM
100
AcDbLine
 10
1772.719419574581
 20
-497.5498960030598
 30
0.0
 11
1772.719419574581
 21
-467.0690481834891
 31
0.0
  0
LINE
  5
21602
330
18
100
AcDbEntity
  8
1DIM
100
AcDbLine
 10
2007.32483883312
 20
-497.5498960030612
 30
0.0
 11
2007.32483883312
 21
-467.0690481834891
 31
0.0
  0
LINE
  5
21603
330
18
100
AcDbEntity
  8
1DIM
100
AcDbLine
 10
1774.719419574581
 20
-468.0690481834891
 30
0.0
 11
2005.32483883312
 21
-468.0690481834891
 31
0.0
  0
LINE
  5
21694
330
18
100
AcDbEntity
  8
1DIM
100
AcDbLine
 10
2047.324838833119
 20
-565.8498960030626
 30
0.0
 11
2047.324838833119
 21
-579.1128402873903
 31
0.0
  0
LINE
  5
21695
330
18
100
AcDbEntity
  8
1DIM
100
AcDbLine
 10
2061.92483883309
 20
-565.8498960030629
 30
0.0
 11
2061.92483883309
 21
-579.1461671284858
 31
0.0
  0
LINE
  5
21696
330
18
100
AcDbEntity
  8
1DIM
100
AcDbLine
 10
2049.324838833119
 20
-578.2730029312486
 30
0.0
 11
2059.92483883309
 21
-578.2730029312486
 31
0.0
  0
LINE
  5
217AF
330
18
100
AcDbEntity
  8
01
100
AcDbLine
 10
1787.324838833143
 20
-450.54989600306
 30
0.0
 11
1787.324838833143
 21
-444.2498960030346
 31
0.0
  0
ARC
  5
217B0
330
18
100
AcDbEntity
  8
01
100
AcDbCircle
 10
1786.324838833143
 20
-450.54989600306
 30
0.0
 40
1.0
100
AcDbArc
 50
270.0
 51
0.000000000000007
  0
LINE
  5
217B2
330
18
100
AcDbEntity
  8
01
100
AcDbLine
 10
1787.324838833143
 20
-444.249896003068
 30
0.0
 11
1787.261132698271
 21
-436.9498960030751
 31
0.0
  0
LINE
  5
217B3
330
18
100
AcDbEntity
  8
01
100
AcDbLine
 10
1787.261132698324
 20
-436.9498960030751
 30
0.0
 11
1810.024838833126
 21
-436.9498960030751
 31
0.0
  0
LINE
  5
2182A
330
18
100
AcDbEntity
  8
1DIM
100
AcDbLine
 10
1787.319419574582
 20
-497.5498960030601
 30
0.0
 11
1787.319419574582
 21
-481.4419689937636
 31
0.0
  0
LINE
  5
2182B
330
18
100
AcDbEntity
  8
1DIM
100
AcDbLine
 10
1992.724838833119
 20
-497.5498960030615
 30
0.0
 11
1992.724838833118
 21
-481.4419689937636
 31
0.0
  0
LINE
  5
2182C
330
18
100
AcDbEntity
  8
1DIM
100
AcDbLine
 10
1789.319419574582
 20
-482.4419689937636
 30
0.0
 11
1990.724838833118
 21
-482.4419689937636
 31
0.0
  0
TEXT
  5
21830
330
18
100
AcDbEntity
  8
1DIM
100
AcDbText
 10
1882.797808879294
 20
-481.7419689937636
 30
0.0
 40
3.5
  1
205.5
100
AcDbText
  0
LINE
  5
219F6
330
18
100
AcDbEntity
  8
1DIM
100
AcDbLine
 10
2112.347650385828
 20
-478.5498960030615
 30
0.0
 11
2122.091035861675
 21
-478.5498960030615
 31
0.0
  0
LINE
  5
219F7
330
18
100
AcDbEntity
  8
1DIM
100
AcDbLine
 10
2112.347650385828
 20
-496.5498960030615
 30
0.0
 11
2122.091035861675
 21
-496.5498960030615
 31
0.0
  0
LINE
  5
219F8
330
18
100
AcDbEntity
  8
1DIM
100
AcDbLine
 10
2121.091035861675
 20
-480.5498960030615
 30
0.0
 11
2121.091035861675
 21
-494.5498960030615
 31
0.0
  0
LINE
  5
219F9
330
18
100
AcDbEntity
  8
1DIM
100
AcDbLine
 10
2121.091035861675
 20
-496.5498960030615
 30
0.0
 11
2121.091035861675
 21
-558.2832293363948
 31
0.0
  0
SOLID
  5
219FD
330
18
100
AcDbEntity
  8
1DIM
100
AcDbTrace
 10
2044.878541792613
 20
-476.585037872381
 30
0.0
 11
2045.378985233383
 21
-478.5498960030615
 31
0.0
 12
2044.268341503786
 22
-476.8535524007756
 32
0.0
 13
2044.268341503786
 23
-476.8535524007756
 33
0.0
1001
ACAD
1000
DSTYLE
1002
{
1070
    45
1040
0.5
1002
}
  0
LINE
  5
219FE
330
18
100
AcDbEntity
  8
1DIM
100
AcDbLine
 10
2044.5734416482
 20
-476.7192951365782
 30
0.0
 11
2038.510636983933
 21
-462.9415484375082
 31
0.0
1001
ACAD
1000
DSTYLE
1002
{
1070
    45
1040
0.5
1002
}
  0
LINE
  5
219FF
330
18
100
AcDbEntity
  8
1DIM
100
AcDbLine
 10
2038.510636983933
 20
-462.9415484375082
 30
0.0
 11
2007.5773036506
 21
-462.9415484375082
 31
0.0
1001
ACAD
1000
DSTYLE
1002
{
1070
    45
1040
0.5
1002
}
  0
TEXT
  5
21A00
330
18
100
AcDbEntity
  8
1DIM
  6
CONTINUOUS
100
AcDbText
 10
2006.8773036506
 20
-462.2415484375082
 30
0.0
 40
3.5
  1
カウンター棚板
100
AcDbText
  0
LINE
  5
21A01
330
18
100
AcDbEntity
  8
1DIM
100
AcDbLine
 10
2071.324838833118
 20
-508.8044913326075
 30
0.0
 11
2071.324838833118
 21
-521.0812138192492
 31
0.0
  0
LINE
  5
21A02
330
18
100
AcDbEntity
  8
1DIM
100
AcDbLine
 10
2091.324838833118
 20
-508.4553900340532
 30
0.0
 11
2091.324838833118
 21
-521.0812138192492
 31
0.0
  0
LINE
  5
21A03
330
18
100
AcDbEntity
  8
1DIM
100
AcDbLine
 10
2073.324838833118
 20
-520.0812138192492
 30
0.0
 11
2089.324838833118
 21
-520.0812138192492
 31
0.0
  0
LINE
  5
21A07
330
18
100
AcDbEntity
  8
1DIM
100
AcDbLine
 10
2047.324838833119
 20
-496.5498960030615
 30
0.0
 11
2025.228521264424
 21
-496.5498960030615
 31
0.0
1001
ACAD
1000
DSTYLE
1002
{
1070
   271
1070
     0
1002
}
  0
LINE
  5
21A08
330
18
100
AcDbEntity
  8
1DIM
100
AcDbLine
 10
2048.672717813091
 20
-566.8498960030626
 30
0.0
 11
2025.228521264424
 21
-566.8498960030626
 31
0.0
1001
ACAD
1000
DSTYLE
1002
{
1070
   271
1070
     0
1002
}
  0
LINE
  5
21A09
330
18
100
AcDbEntity
  8
1DIM
100
AcDbLine
 10
2026.228521264424
 20
-498.5498960030615
 30
0.0
 11
2026.228521264424
 21
-564.8498960030626
 31
0.0
1001
ACAD
1000
DSTYLE
1002
{
1070
   271
1070
     0
1002
}
  0
LINE
  5
21A0D
330
18
100
AcDbEntity
  8
1DIM
100
AcDbLine
 10
1780.024838833137
 20
-480.4017290743951
 30
0.0
 11
1780.024838833137
 21
-474.2334869367006
 31
0.0
1001
ACAD
1000
DSTYLE
1002
{
1070
    40
1040
1.0
1002
}
  0
LINE
  5
21A0E
330
18
100
AcDbEntity
  8
1DIM
100
AcDbLine
 10
2000.024838833121
 20
-480.4017290743951
 30
0.0
 11
2000.024838833121
 21
-474.2334869367006
 31
0.0
1001
ACAD
1000
DSTYLE
1002
{
1070
    40
1040
1.0
1002
}
  0
LINE
  5
21A0F
330
18
100
AcDbEntity
  8
1DIM
100
AcDbLine
 10
1782.024838833137
 20
-475.2334869367006
 30
0.0
 11
1998.024838833121
 21
-475.2334869367006
 31
0.0
1001
ACAD
1000
DSTYLE
1002
{
1070
    40
1040
1.0
1002
}
  0
LINE
  5
21A13
330
18
100
AcDbEntity
  8
0
  6
BYBLOCK
100
AcDbLine
 10
1774.719419574581
 20
-468.6049465634891
 30
0.0
 11
1772.719419574581
 21
-468.0690481834891
 31
0.0
  0
LINE
  5
21A14
330
18
100
AcDbEntity
  8
0
  6
BYBLOCK
100
AcDbLine
 10
1772.719419574581
 20
-468.0690481834891
 30
0.0
 11
1774.719419574581
 21
-467.5331498034892
 31
0.0
  0
LINE
  5
21A15
330
18
100
AcDbEntity
  8
0
  6
BYBLOCK
100
AcDbLine
 10
1772.719419574581
 20
-468.0690481834891
 30
0.0
 11
1774.719419574581
 21
-468.0690481834891
 31
0.0
  0
LINE
  5
21A16
330
18
100
AcDbEntity
  8
0
  6
BYBLOCK
100
AcDbLine
 10
2005.32483883312
 20
-467.5331498034892
 30
0.0
 11
2007.32483883312
 21
-468.0690481834891
 31
0.0
  0
LINE
  5
21A17
330
18
100
AcDbEntity
  8
0
  6
BYBLOCK
100
AcDbLine
 10
2007.32483883312
 20
-468.0690481834891
 30
0.0
 11
2005.32483883312
 21
-468.6049465634891
 31
0.0
  0
LINE
  5
21A18
330
18
100
AcDbEntity
  8
0
  6
BYBLOCK
100
AcDbLine
 10
2007.32483883312
 20
-468.0690481834891
 30
0.0
 11
2005.32483883312
 21
-468.0690481834891
 31
0.0
  0
TEXT
  5
21A19
330
18
100
AcDbEntity
  8
1DIM
  6
CONTINUOUS
100
AcDbText
 10
1883.02212920385
 20
-467.369048183489
 30
0.0
 40
3.5
  1
234.5
100
AcDbText
  0
LINE
  5
21A1A
330
18
100
AcDbEntity
  8
1DIM
100
AcDbLine
 10
1993.724838833118
 20
-496.5498960030615
 30
0.0
 11
1929.068780000935
 21
-496.5498960030615
 31
0.0
  0
LINE
  5
21A1B
330
18
100
AcDbEntity
  8
1DIM
100
AcDbLine
 10
1970.022129203826
 20
-552.5498960030624
 30
0.0
 11
1929.068780000935
 21
-552.5498960030624
 31
0.0
  0
LINE
  5
21A1C
330
18
100
AcDbEntity
  8
1DIM
100
AcDbLine
 10
1930.068780000935
 20
-498.5498960030615
 30
0.0
 11
1930.068780000935
 21
-550.5498960030624
 31
0.0
  0
LINE
  5
21A20
330
18
100
AcDbEntity
  8
1DIM
100
AcDbLine
 10
1931.068780000935
 20
-552.5498960030624
 30
0.0
 11
1929.068780000935
 21
-552.5498960030624
 31
0.0
  0
LINE
  5
21A21
330
18
100
AcDbEntity
  8
1DIM
100
AcDbLine
 10
1930.068780000935
 20
-566.5498960030624
 30
0.0
 11
1929.068780000935
 21
-566.5498960030624
 31
0.0
  0
LINE
  5
21A22
330
18
100
AcDbEntity
  8
1DIM
100
AcDbLine
 10
1930.068780000935
 20
-554.5498960030624
 30
0.0
 11
1930.068780000935
 21
-564.5498960030624
 31
0.0
  0
LINE
  5
21A26
330
18
100
AcDbEntity
  8
0
  6
BYBLOCK
100
AcDbLine
 10
2049.324838833119
 20
-578.8089013112486
 30
0.0
 11
2047.324838833119
 21
-578.2730029312486
 31
0.0
  0
LINE
  5
21A27
330
18
100
AcDbEntity
  8
0
  6
BYBLOCK
100
AcDbLine
 10
2047.324838833119
 20
-578.2730029312486
 30
0.0
 11
2049.324838833119
 21
-577.7371045512485
 31
0.0
  0
LINE
  5
21A28
330
18
100
AcDbEntity
  8
0
  6
BYBLOCK
100
AcDbLine
 10
2047.324838833119
 20
-578.2730029312486
 30
0.0
 11
2049.324838833119
 21
-578.2730029312486
 31
0.0
  0
LINE
  5
21A29
330
18
100
AcDbEntity
  8
0
  6
BYBLOCK
100
AcDbLine
 10
2059.92483883309
 20
-577.7371045512485
 30
0.0
 11
2061.92483883309
 21
-578.2730029312486
 31
0.0
  0
LINE
  5
21A2A
330
18
100
AcDbEntity
  8
0
  6
BYBLOCK
100
AcDbLine
 10
2061.92483883309
 20
-578.2730029312486
 30
0.0
 11
2059.92483883309
 21
-578.8089013112486
 31
0.0
  0
LINE
  5
21A2B
330
18
100
AcDbEntity
  8
0
  6
BYBLOCK
100
AcDbLine
 10
2061.92483883309
 20
-578.2730029312486
 30
0.0
 11
2059.92483883309
 21
-578.2730029312486
 31
0.0
  0
TEXT
  5
21A2C
330
18
100
AcDbEntity
  8
1DIM
  6
CONTINUOUS
100
AcDbText
 10
2049.958172166438
 20
-577.5730029312487
 30
0.0
 40
3.5
  1
14.5
100
AcDbText
  0
LINE
  5
21A2D
330
18
100
AcDbEntity
  8
1DIM
100
AcDbLine
 10
2047.324838833118
 20
-498.5498960030606
 30
0.0
 11
2047.324838833118
 21
-521.0812138192492
 31
0.0
  0
LINE
  5
21A2E
330
18
100
AcDbEntity
  8
1DIM
100
AcDbLine
 10
2071.324838833118
 20
-508.8044913326075
 30
0.0
 11
2071.324838833118
 21
-521.0812138192492
 31
0.0
  0
LINE
  5
21A2F
330
18
100
AcDbEntity
  8
1DIM
100
AcDbLine
 10
2049.324838833119
 20
-520.0812138192492
 30
0.0
 11
2069.324838833118
 21
-520.0812138192492
 31
0.0
  0
SOLID
  5
21A33
330
18
100
AcDbEntity
  8
1DIM
100
AcDbTrace
 10
1990.73128337121
 20
-520.2078442458079
 30
0.0
 11
1992.219419574399
 21
-518.830687119018
 31
0.0
 12
1991.258368720611
 22
-520.6160420886374
 32
0.0
 13
1991.258368720611
 23
-520.6160420886374
 33
0.0
1001
ACAD
1000
DSTYLE
1002
{
1070
    45
1040
0.5
1002
}
  0
LINE
  5
21A34
330
18
100
AcDbEntity
  8
1DIM
100
AcDbLine
 10
1990.99482604591
 20
-520.4119431672227
 30
0.0
 11
1985.810900584111
 21
-527.1056854573936
 31
0.0
1001
ACAD
1000
DSTYLE
1002
{
1070
    45
1040
0.5
1002
}
  0
LINE
  5
21A35
330
18
100
AcDbEntity
  8
1DIM
100
AcDbLine
 10
1985.810900584111
 20
-527.1056854573936
 30
0.0
 11
1938.544233917444
 21
-527.1056854573936
 31
0.0
1001
ACAD
1000
DSTYLE
1002
{
1070
    45
1040
0.5
1002
}
  0
TEXT
  5
21A36
330
18
100
AcDbEntity
  8
1DIM
  6
CONTINUOUS
100
AcDbText
 10
1938.310900584111
 20
-520.5723521240602
 30
0.0
 40
3.5
  1
材質：亜鉛ダイキャスト
100
AcDbText
  0
TEXT
  5
21A37
330
18
100
AcDbEntity
  8
1DIM
  6
CONTINUOUS
100
AcDbText
 10
1950.210900584111
 20
-526.4056854573936
 30
0.0
 40
3.5
  1
仕上げ：クローム
100
AcDbText
  0
SOLID
  5
21A38
330
18
100
AcDbEntity
  8
1DIM
100
AcDbTrace
 10
1821.510597345195
 20
-550.314108317137
 30
0.0
 11
1820.222639666143
 21
-551.8800828150399
 31
0.0
 12
1820.93309439025
 22
-549.981039583277
 32
0.0
 13
1820.93309439025
 23
-549.981039583277
 33
0.0
1001
ACAD
1000
DSTYLE
1002
{
1070
    45
1040
0.5
1002
}
  0
LINE
  5
21A39
330
18
100
AcDbEntity
  8
1DIM
100
AcDbLine
 10
1821.221845867722
 20
-550.1475739502071
 30
0.0
 11
1827.290723796735
 21
-539.6248362060055
 31
0.0
1001
ACAD
1000
DSTYLE
1002
{
1070
    45
1040
0.5
1002
}
  0
LINE
  5
21A3A
330
18
100
AcDbEntity
  8
1DIM
100
AcDbLine
 10
1827.290723796735
 20
-539.6248362060055
 30
0.0
 11
1862.307390463402
 21
-539.6248362060055
 31
0.0
1001
ACAD
1000
DSTYLE
1002
{
1070
    45
1040
0.5
1002
}
  0
TEXT
  5
21A3B
330
18
100
AcDbEntity
  8
1DIM
  6
CONTINUOUS
100
AcDbText
 10
1829.757390463402
 20
-533.0915028726721
 30
0.0
 40
3.5
  1
材質：ステンレス
100
AcDbText
  0
TEXT
  5
21A3C
330
18
100
AcDbEntity
  8
1DIM
  6
CONTINUOUS
100
AcDbText
 10
1829.874057130069
 20
-538.9248362060055
 30
0.0
 40
3.5
  1
仕上げ：鏡面
100
AcDbText
  0
LINE
  5
21A3D
330
18
100
AcDbEntity
  8
1DIM
100
AcDbLine
 10
2047.324838833119
 20
-498.5498960030606
 30
0.0
 11
2047.324838833119
 21
-467.0690481834891
 31
0.0
  0
LINE
  5
21A3E
330
18
100
AcDbEntity
  8
1DIM
100
AcDbLine
 10
2098.324838833119
 20
-497.5277317554143
 30
0.0
 11
2098.324838833119
 21
-467.0690481834891
 31
0.0
  0
LINE
  5
21A3F
330
18
100
AcDbEntity
  8
1DIM
100
AcDbLine
 10
2049.324838833119
 20
-468.0690481834891
 30
0.0
 11
2096.324838833119
 21
-468.0690481834891
 31
0.0
  0
LINE
  5
21A43
330
18
100
AcDbEntity
  8
0
  6
BYBLOCK
100
AcDbLine
 10
1789.319419574582
 20
-482.9778673737636
 30
0.0
 11
1787.319419574582
 21
-482.4419689937636
 31
0.0
  0
LINE
  5
21A44
330
18
100
AcDbEntity
  8
0
  6
BYBLOCK
100
AcDbLine
 10
1787.319419574582
 20
-482.4419689937636
 30
0.0
 11
1789.319419574582
 21
-481.9060706137636
 31
0.0
  0
LINE
  5
21A45
330
18
100
AcDbEntity
  8
0
  6
BYBLOCK
100
AcDbLine
 10
1787.319419574582
 20
-482.4419689937636
 30
0.0
 11
1789.319419574582
 21
-482.4419689937636
 31
0.0
  0
LINE
  5
21A46
330
18
100
AcDbEntity
  8
0
  6
BYBLOCK
100
AcDbLine
 10
1990.724838833118
 20
-481.9060706137636
 30
0.0
 11
1992.724838833118
 21
-482.4419689937636
 31
0.0
  0
LINE
  5
21A47
330
18
100
AcDbEntity
  8
0
  6
BYBLOCK
100
AcDbLine
 10
1992.724838833118
 20
-482.4419689937636
 30
0.0
 11
1990.724838833118
 21
-482.9778673737636
 31
0.0
  0
LINE
  5
21A48
330
18
100
AcDbEntity
  8
0
  6
BYBLOCK
100
AcDbLine
 10
1992.724838833118
 20
-482.4419689937636
 30
0.0
 11
1990.724838833118
 21
-482.4419689937636
 31
0.0
  0
LINE
  5
21A49
330
18
100
AcDbEntity
  8
1DIM
100
AcDbLine
 10
1992.724838833119
 20
-497.5498960030615
 30
0.0
 11
1992.724838833119
 21
-481.4419689937636
 31
0.0
1001
ACAD
1000
DSTYLE
1002
{
1070
   271
1070
     1
1002
}
  0
LINE
  5
21A4A
330
18
100
AcDbEntity
  8
1DIM
100
AcDbLine
 10
2007.306913109703
 20
-497.5498960030615
 30
0.0
 11
2007.306913109703
 21
-481.4419689937636
 31
0.0
1001
ACAD
1000
DSTYLE
1002
{
1070
   271
1070
     1
1002
}
  0
LINE
  5
21A4B
330
18
100
AcDbEntity
  8
1DIM
100
AcDbLine
 10
1994.724838833119
 20
-482.4419689937636
 30
0.0
 11
2005.306913109703
 21
-482.4419689937636
 31
0.0
1001
ACAD
1000
DSTYLE
1002
{
1070
   271
1070
     1
1002
}
  0
LINE
  5
21A4C
330
18
100
AcDbEntity
  8
1DIM
100
AcDbLine
 10
2007.306913109703
 20
-482.4419689937636
 30
0.0
 11
2021.969561056825
 21
-482.4419689937636
 31
0.0
1001
ACAD
1000
DSTYLE
1002
{
1070
   271
1070
     1
1002
}
  0
LINE
  5
21A50
330
18
100
AcDbEntity
  8
0
  6
BYBLOCK
100
AcDbLine
 10
2120.555137481675
 20
-480.5498960030615
 30
0.0
 11
2121.091035861675
 21
-478.5498960030615
 31
0.0
  0
LINE
  5
21A51
330
18
100
AcDbEntity
  8
0
  6
BYBLOCK
100
AcDbLine
 10
2121.091035861675
 20
-478.5498960030615
 30
0.0
 11
2121.626934241675
 21
-480.5498960030615
 31
0.0
  0
LINE
  5
21A52
330
18
100
AcDbEntity
  8
0
  6
BYBLOCK
100
AcDbLine
 10
2121.091035861675
 20
-478.5498960030615
 30
0.0
 11
2121.091035861675
 21
-480.5498960030615
 31
0.0
  0
LINE
  5
21A53
330
18
100
AcDbEntity
  8
0
  6
BYBLOCK
100
AcDbLine
 10
2121.626934241675
 20
-494.5498960030615
 30
0.0
 11
2121.091035861675
 21
-496.5498960030615
 31
0.0
  0
LINE
  5
21A54
330
18
100
AcDbEntity
  8
0
  6
BYBLOCK
100
AcDbLine
 10
2121.091035861675
 20
-496.5498960030615
 30
0.0
 11
2120.555137481675
 21
-494.5498960030615
 31
0.0
  0
LINE
  5
21A55
330
18
100
AcDbEntity
  8
0
  6
BYBLOCK
100
AcDbLine
 10
2121.091035861675
 20
-496.5498960030615
 30
0.0
 11
2121.091035861675
 21
-494.5498960030615
 31
0.0
  0
TEXT
  5
21A56
330
18
100
AcDbEntity
  8
1DIM
  6
CONTINUOUS
100
AcDbText
 10
2119.474369195008
 20
-557.1457293363942
 30
0.0
 40
3.5
  1
18ｍｍ以上(推奨30ｍｍ以上)
 50
90.0
100
AcDbText
  0
LINE
  5
21A57
330
18
100
AcDbEntity
  8
0
  6
BYBLOCK
100
AcDbLine
 10
2073.324838833118
 20
-520.6171121992493
 30
0.0
 11
2071.324838833118
 21
-520.0812138192492
 31
0.0
  0
LINE
  5
21A58
330
18
100
AcDbEntity
  8
0
  6
BYBLOCK
100
AcDbLine
 10
2071.324838833118
 20
-520.0812138192492
 30
0.0
 11
2073.324838833118
 21
-519.5453154392492
 31
0.0
  0
LINE
  5
21A59
330
18
100
AcDbEntity
  8
0
  6
BYBLOCK
100
AcDbLine
 10
2071.324838833118
 20
-520.0812138192492
 30
0.0
 11
2073.324838833118
 21
-520.0812138192492
 31
0.0
  0
LINE
  5
21A5A
330
18
100
AcDbEntity
  8
0
  6
BYBLOCK
100
AcDbLine
 10
2089.324838833118
 20
-519.5453154392492
 30
0.0
 11
2091.324838833118
 21
-520.0812138192492
 31
0.0
  0
LINE
  5
21A5B
330
18
100
AcDbEntity
  8
0
  6
BYBLOCK
100
AcDbLine
 10
2091.324838833118
 20
-520.0812138192492
 30
0.0
 11
2089.324838833118
 21
-520.6171121992493
 31
0.0
  0
LINE
  5
21A5C
330
18
100
AcDbEntity
  8
0
  6
BYBLOCK
100
AcDbLine
 10
2091.324838833118
 20
-520.0812138192492
 30
0.0
 11
2089.324838833118
 21
-520.0812138192492
 31
0.0
  0
TEXT
  5
21A5D
330
18
100
AcDbEntity
  8
1DIM
  6
CONTINUOUS
100
AcDbText
 10
2076.876922166451
 20
-519.3812138192492
 30
0.0
 40
3.5
  1
P20
100
AcDbText
  0
LINE
  5
21A5E
330
18
100
AcDbEntity
  8
0
  6
BYBLOCK
100
AcDbLine
 10
2025.692622884425
 20
-498.5498960030615
 30
0.0
 11
2026.228521264424
 21
-496.5498960030615
 31
0.0
  0
LINE
  5
21A5F
330
18
100
AcDbEntity
  8
0
  6
BYBLOCK
100
AcDbLine
 10
2026.228521264424
 20
-496.5498960030615
 30
0.0
 11
2026.764419644424
 21
-498.5498960030615
 31
0.0
  0
LINE
  5
21A60
330
18
100
AcDbEntity
  8
0
  6
BYBLOCK
100
AcDbLine
 10
2026.228521264424
 20
-496.5498960030615
 30
0.0
 11
2026.228521264424
 21
-498.5498960030615
 31
0.0
  0
LINE
  5
21A61
330
18
100
AcDbEntity
  8
0
  6
BYBLOCK
100
AcDbLine
 10
2026.764419644424
 20
-564.8498960030626
 30
0.0
 11
2026.228521264424
 21
-566.8498960030626
 31
0.0
  0
LINE
  5
21A62
330
18
100
AcDbEntity
  8
0
  6
BYBLOCK
100
AcDbLine
 10
2026.228521264424
 20
-566.8498960030626
 30
0.0
 11
2025.692622884424
 21
-564.8498960030626
 31
0.0
  0
LINE
  5
21A63
330
18
100
AcDbEntity
  8
0
  6
BYBLOCK
100
AcDbLine
 10
2026.228521264424
 20
-566.8498960030626
 30
0.0
 11
2026.228521264424
 21
-564.8498960030626
 31
0.0
  0
TEXT
  5
21A64
330
18
100
AcDbEntity
  8
1DIM
  6
CONTINUOUS
100
AcDbText
 10
2025.528521264424
 20
-534.3978126697286
 30
0.0
 40
3.5
  1
70
 50
90.0
100
AcDbText
1001
ACAD
1000
DSTYLE
1002
{
1070
   271
1070
     0
1002
}
  0
LINE
  5
21A65
330
18
100
AcDbEntity
  8
0
  6
BYBLOCK
100
AcDbLine
 10
1782.024838833137
 20
-475.7693853167006
 30
0.0
 11
1780.024838833137
 21
-475.2334869367006
 31
0.0
  0
LINE
  5
21A66
330
18
100
AcDbEntity
  8
0
  6
BYBLOCK
100
AcDbLine
 10
1780.024838833137
 20
-475.2334869367006
 30
0.0
 11
1782.024838833137
 21
-474.6975885567006
 31
0.0
  0
LINE
  5
21A67
330
18
100
AcDbEntity
  8
0
  6
BYBLOCK
100
AcDbLine
 10
1780.024838833137
 20
-475.2334869367006
 30
0.0
 11
1782.024838833137
 21
-475.2334869367006
 31
0.0
  0
LINE
  5
21A68
330
18
100
AcDbEntity
  8
0
  6
BYBLOCK
100
AcDbLine
 10
1998.024838833121
 20
-474.6975885567006
 30
0.0
 11
2000.024838833121
 21
-475.2334869367006
 31
0.0
  0
LINE
  5
21A69
330
18
100
AcDbEntity
  8
0
  6
BYBLOCK
100
AcDbLine
 10
2000.024838833121
 20
-475.2334869367006
 30
0.0
 11
1998.024838833121
 21
-475.7693853167006
 31
0.0
  0
LINE
  5
21A6A
330
18
100
AcDbEntity
  8
0
  6
BYBLOCK
100
AcDbLine
 10
2000.024838833121
 20
-475.2334869367006
 30
0.0
 11
1998.024838833121
 21
-475.2334869367006
 31
0.0
  0
TEXT
  5
21A6B
330
18
100
AcDbEntity
  8
1DIM
  6
CONTINUOUS
100
AcDbText
 10
1883.826922166462
 20
-474.5334869367006
 30
0.0
 40
3.5
  1
P220
100
AcDbText
1001
ACAD
1000
DSTYLE
1002
{
1070
    40
1040
1.0
1002
}
  0
LINE
  5
21A6C
330
18
100
AcDbEntity
  8
0
  6
BYBLOCK
100
AcDbLine
 10
1929.532881620936
 20
-498.5498960030615
 30
0.0
 11
1930.068780000935
 21
-496.5498960030615
 31
0.0
  0
LINE
  5
21A6D
330
18
100
AcDbEntity
  8
0
  6
BYBLOCK
100
AcDbLine
 10
1930.068780000935
 20
-496.5498960030615
 30
0.0
 11
1930.604678380935
 21
-498.5498960030615
 31
0.0
  0
LINE
  5
21A6E
330
18
100
AcDbEntity
  8
0
  6
BYBLOCK
100
AcDbLine
 10
1930.068780000935
 20
-496.5498960030615
 30
0.0
 11
1930.068780000935
 21
-498.5498960030615
 31
0.0
  0
LINE
  5
21A6F
330
18
100
AcDbEntity
  8
0
  6
BYBLOCK
100
AcDbLine
 10
1930.604678380935
 20
-550.5498960030624
 30
0.0
 11
1930.068780000935
 21
-552.5498960030624
 31
0.0
  0
LINE
  5
21A70
330
18
100
AcDbEntity
  8
0
  6
BYBLOCK
100
AcDbLine
 10
1930.068780000935
 20
-552.5498960030624
 30
0.0
 11
1929.532881620935
 21
-550.5498960030624
 31
0.0
  0
LINE
  5
21A71
330
18
100
AcDbEntity
  8
0
  6
BYBLOCK
100
AcDbLine
 10
1930.068780000935
 20
-552.5498960030624
 30
0.0
 11
1930.068780000935
 21
-550.5498960030624
 31
0.0
  0
TEXT
  5
21A72
330
18
100
AcDbEntity
  8
1DIM
  6
CONTINUOUS
100
AcDbText
 10
1929.368780000936
 20
-527.4787154475059
 30
0.0
 40
3.5
  1
56
 50
90.0
100
AcDbText
  0
LINE
  5
21A73
330
18
100
AcDbEntity
  8
0
  6
BYBLOCK
100
AcDbLine
 10
1929.532881620935
 20
-554.5498960030624
 30
0.0
 11
1930.068780000935
 21
-552.5498960030624
 31
0.0
  0
LINE
  5
21A74
330
18
100
AcDbEntity
  8
0
  6
BYBLOCK
100
AcDbLine
 10
1930.068780000935
 20
-552.5498960030624
 30
0.0
 11
1930.604678380935
 21
-554.5498960030624
 31
0.0
  0
LINE
  5
21A75
330
18
100
AcDbEntity
  8
0
  6
BYBLOCK
100
AcDbLine
 10
1930.068780000935
 20
-552.5498960030624
 30
0.0
 11
1930.068780000935
 21
-554.5498960030624
 31
0.0
  0
LINE
  5
21A76
330
18
100
AcDbEntity
  8
0
  6
BYBLOCK
100
AcDbLine
 10
1930.604678380935
 20
-564.5498960030624
 30
0.0
 11
1930.068780000935
 21
-566.5498960030624
 31
0.0
  0
LINE
  5
21A77
330
18
100
AcDbEntity
  8
0
  6
BYBLOCK
100
AcDbLine
 10
1930.068780000935
 20
-566.5498960030624
 30
0.0
 11
1929.532881620935
 21
-564.5498960030624
 31
0.0
  0
LINE
  5
21A78
330
18
100
AcDbEntity
  8
0
  6
BYBLOCK
100
AcDbLine
 10
1930.068780000935
 20
-566.5498960030624
 30
0.0
 11
1930.068780000935
 21
-564.5498960030624
 31
0.0
  0
TEXT
  5
21A79
330
18
100
AcDbEntity
  8
1DIM
  6
CONTINUOUS
100
AcDbText
 10
1929.368780000936
 20
-564.099896003062
 30
0.0
 40
3.5
  1
□14
 50
90.0
100
AcDbText
  0
LINE
  5
21A7A
330
18
100
AcDbEntity
  8
0
  6
BYBLOCK
100
AcDbLine
 10
2049.324838833119
 20
-520.6171121992493
 30
0.0
 11
2047.324838833118
 21
-520.0812138192492
 31
0.0
  0
LINE
  5
21A7B
330
18
100
AcDbEntity
  8
0
  6
BYBLOCK
100
AcDbLine
 10
2047.324838833118
 20
-520.0812138192492
 30
0.0
 11
2049.324838833119
 21
-519.5453154392492
 31
0.0
  0
LINE
  5
21A7C
330
18
100
AcDbEntity
  8
0
  6
BYBLOCK
100
AcDbLine
 10
2047.324838833118
 20
-520.0812138192492
 30
0.0
 11
2049.324838833119
 21
-520.0812138192492
 31
0.0
  0
LINE
  5
21A7D
330
18
100
AcDbEntity
  8
0
  6
BYBLOCK
100
AcDbLine
 10
2069.324838833118
 20
-519.5453154392492
 30
0.0
 11
2071.324838833118
 21
-520.0812138192492
 31
0.0
  0
LINE
  5
21A7E
330
18
100
AcDbEntity
  8
0
  6
BYBLOCK
100
AcDbLine
 10
2071.324838833118
 20
-520.0812138192492
 30
0.0
 11
2069.324838833118
 21
-520.6171121992493
 31
0.0
  0
LINE
  5
21A7F
330
18
100
AcDbEntity
  8
0
  6
BYBLOCK
100
AcDbLine
 10
2071.324838833118
 20
-520.0812138192492
 30
0.0
 11
2069.324838833118
 21
-520.0812138192492
 31
0.0
  0
TEXT
  5
21A80
330
18
100
AcDbEntity
  8
1DIM
  6
CONTINUOUS
100
AcDbText
 10
2056.408172166452
 20
-519.3812138192492
 30
0.0
 40
3.5
  1
24
100
AcDbText
  0
LINE
  5
21A81
330
18
100
AcDbEntity
  8
0
  6
BYBLOCK
100
AcDbLine
 10
2049.324838833119
 20
-468.6049465634891
 30
0.0
 11
2047.324838833119
 21
-468.0690481834891
 31
0.0
  0
LINE
  5
21A82
330
18
100
AcDbEntity
  8
0
  6
BYBLOCK
100
AcDbLine
 10
2047.324838833119
 20
-468.0690481834891
 30
0.0
 11
2049.324838833119
 21
-467.5331498034892
 31
0.0
  0
LINE
  5
21A83
330
18
100
AcDbEntity
  8
0
  6
BYBLOCK
100
AcDbLine
 10
2047.324838833119
 20
-468.0690481834891
 30
0.0
 11
2049.324838833119
 21
-468.0690481834891
 31
0.0
  0
LINE
  5
21A84
330
18
100
AcDbEntity
  8
0
  6
BYBLOCK
100
AcDbLine
 10
2096.324838833119
 20
-467.5331498034892
 30
0.0
 11
2098.324838833119
 21
-468.0690481834891
 31
0.0
  0
LINE
  5
21A85
330
18
100
AcDbEntity
  8
0
  6
BYBLOCK
100
AcDbLine
 10
2098.324838833119
 20
-468.0690481834891
 30
0.0
 11
2096.324838833119
 21
-468.6049465634891
 31
0.0
  0
LINE
  5
21A86
330
18
100
AcDbEntity
  8
0
  6
BYBLOCK
100
AcDbLine
 10
2098.324838833119
 20
-468.0690481834891
 30
0.0
 11
2096.324838833119
 21
-468.0690481834891
 31
0.0
  0
TEXT
  5
21A87
330
18
100
AcDbEntity
  8
1DIM
  6
CONTINUOUS
100
AcDbText
 10
2070.479352722008
 20
-467.3690481834891
 30
0.0
 40
3.5
  1
51
100
AcDbText
  0
LINE
  5
21A88
330
18
100
AcDbEntity
  8
0
  6
BYBLOCK
100
AcDbLine
 10
1994.724838833119
 20
-482.9778673737636
 30
0.0
 11
1992.724838833119
 21
-482.4419689937636
 31
0.0
  0
LINE
  5
21A89
330
18
100
AcDbEntity
  8
0
  6
BYBLOCK
100
AcDbLine
 10
1992.724838833119
 20
-482.4419689937636
 30
0.0
 11
1994.724838833119
 21
-481.9060706137636
 31
0.0
  0
LINE
  5
21A8A
330
18
100
AcDbEntity
  8
0
  6
BYBLOCK
100
AcDbLine
 10
1992.724838833119
 20
-482.4419689937636
 30
0.0
 11
1994.724838833119
 21
-482.4419689937636
 31
0.0
  0
LINE
  5
21A8B
330
18
100
AcDbEntity
  8
0
  6
BYBLOCK
100
AcDbLine
 10
2005.306913109703
 20
-481.9060706137636
 30
0.0
 11
2007.306913109703
 21
-482.4419689937636
 31
0.0
  0
LINE
  5
21A8C
330
18
100
AcDbEntity
  8
0
  6
BYBLOCK
100
AcDbLine
 10
2007.306913109703
 20
-482.4419689937636
 30
0.0
 11
2005.306913109703
 21
-482.9778673737636
 31
0.0
  0
LINE
  5
21A8D
330
18
100
AcDbEntity
  8
0
  6
BYBLOCK
100
AcDbLine
 10
2007.306913109703
 20
-482.4419689937636
 30
0.0
 11
2005.306913109703
 21
-482.4419689937636
 31
0.0
  0
TEXT
  5
21A8E
330
18
100
AcDbEntity
  8
1DIM
  6
CONTINUOUS
100
AcDbText
 10
2011.519561056825
 20
-481.7419689937635
 30
0.0
 40
3.5
  1
14.5
100
AcDbText
1001
ACAD
1000
DSTYLE
1002
{
1070
   271
1070
     1
1002
}
  0
VIEWPORT
  5
57
330
15
100
AcDbEntity
 67
     1
  8
0
100
AcDbViewport
 68
     1
 10
0.0
 20
0.0
 30
0.0
 40
535.5106132075472
 41
297.0
 68
     1
 69
     1
1001
ACAD
1000
MVIEW
1002
{
1070
    16
1010
0.0
1020
0.0
1030
0.0
1010
0.0
1020
0.0
1030
1.0
1040
0.0
1040
297.0
1040
-4.171999999925333
1040
12.83903210976956
1040
50.0
1040
0.0
1040
0.0
1070
    16
1070
   100
1070
     0
1070
     1
1070
     0
1070
     0
1070
     0
1070
     0
1040
0.0
1040
0.0
1040
0.0
1040
10.0
1040
10.0
1040
10.0
1040
10.0
1070
     0
1002
{
1002
}
1002
}
  0
ENDSEC
  0
SECTION
  2
OBJECTS
  0
DICTIONARY
  5
C
330
0
100
AcDbDictionary
  3
ACAD_CIP_PREVIOUS_PRODUCT_INFO
350
1FEDA
  3
ACAD_COLOR
350
2D0
  3
ACAD_GROUP
350
D
  3
ACAD_LAYOUT
350
2D1
  3
ACAD_MATERIAL
350
2CF
  3
ACAD_MLEADERSTYLE
350
19E18
  3
ACAD_MLINESTYLE
350
1B
  3
ACAD_PLOTSETTINGS
350
2D2
  3
ACAD_SCALELIST
350
19DF6
  3
ACAD_VISUALSTYLE
350
19DE5
  3
ACDBHEADERROUNDTRIPXREC
350
21A8F
  3
ACDBVARIABLEDICTIONARY
350
37
  3
CONTENTDICTIONARY
350
D8
  3
DRAWINGVARIABLESDICT
350
20
  3
DWGPROPS
350
21A92
1001
ACAD
1000
TREAT_AS_HARD
1070
     0
  0
DICTIONARY
  5
18FE8
330
2
100
AcDbDictionary
  3
ACAD_LAYERSTATES
360
18FE9
1001
ACAD
1000
TREAT_AS_HARD
1070
     1
  0
DICTIONARY
  5
1A20A
330
E
100
AcDbDictionary
  3
ADSK_XREC_LAYER_RECONCILED
360
1A20B
1001
ACAD
1000
TREAT_AS_HARD
1070
     1
  0
DICTIONARY
  5
1A20C
330
29
100
AcDbDictionary
  3
ADSK_XREC_LAYER_RECONCILED
360
1A20D
1001
ACAD
1000
TREAT_AS_HARD
1070
     1
  0
DICTIONARY
  5
1A20E
330
31
100
AcDbDictionary
  3
ADSK_XREC_LAYER_RECONCILED
360
1A20F
1001
ACAD
1000
TREAT_AS_HARD
1070
     1
  0
DICTIONARY
  5
1A218
330
101
100
AcDbDictionary
  3
ADSK_XREC_LAYER_RECONCILED
360
1A219
1001
ACAD
1000
TREAT_AS_HARD
1070
     1
  0
DICTIONARY
  5
1A21C
330
103
100
AcDbDictionary
  3
ADSK_XREC_LAYER_RECONCILED
360
1A21D
1001
ACAD
1000
TREAT_AS_HARD
1070
     1
  0
DICTIONARY
  5
1A220
330
25F
100
AcDbDictionary
  3
ADSK_XREC_LAYER_RECONCILED
360
1A221
1001
ACAD
1000
TREAT_AS_HARD
1070
     1
  0
DICTIONARY
  5
6E9
330
18
100
AcDbDictionary
  3
ACAD_SORTENTS
360
6EA
1001
ACAD
1000
TREAT_AS_HARD
1070
     1
  0
DICTIONARY
  5
59B
330
15
100
AcDbDictionary
  3
ACAD_SORTENTS
360
59C
1001
ACAD
1000
TREAT_AS_HARD
1070
     1
  0
XRECORD
  5
1FEDA
102
{ACAD_REACTORS
330
C
102
}
330
C
100
AcDbXrecord
300
ACDLT
300
2012
300
ACDLT_F_S
  0
DICTIONARY
  5
2D0
102
{ACAD_REACTORS
330
C
102
}
330
C
100
AcDbDictionary
1001
ACAD
1000
TREAT_AS_HARD
1070
     0
  0
DICTIONARY
  5
D
102
{ACAD_REACTORS
330
C
102
}
330
C
100
AcDbDictionary
1001
ACAD
1000
TREAT_AS_HARD
1070
     0
  0
DICTIONARY
  5
2D1
102
{ACAD_REACTORS
330
C
102
}
330
C
100
AcDbDictionary
1001
ACAD
1000
TREAT_AS_HARD
1070
     0
  0
DICTIONARY
  5
2CF
102
{ACAD_REACTORS
330
C
102
}
330
C
100
AcDbDictionary
  3
BYBLOCK
350
19DD5
  3
BYLAYER
350
19DCD
  3
GLOBAL
350
19DDD
1001
ACAD
1000
TREAT_AS_HARD
1070
     0
  0
DICTIONARY
  5
19E18
102
{ACAD_REACTORS
330
C
102
}
330
C
100
AcDbDictionary
  3
STANDARD
350
19E19
1001
ACAD
1000
TREAT_AS_HARD
1070
     0
  0
DICTIONARY
  5
1B
102
{ACAD_REACTORS
330
C
102
}
330
C
100
AcDbDictionary
  3
STANDARD
350
1C
1001
ACAD
1000
TREAT_AS_HARD
1070
     0
  0
DICTIONARY
  5
2D2
102
{ACAD_REACTORS
330
C
102
}
330
C
100
AcDbDictionary
1001
ACAD
1000
TREAT_AS_HARD
1070
     0
  0
DICTIONARY
  5
19DF6
102
{ACAD_REACTORS
330
C
102
}
330
C
100
AcDbDictionary
  3
A0
350
19DF7
  3
A1
350
19DF8
  3
A2
350
19DF9
  3
A3
350
19DFA
  3
A4
350
19DFB
  3
A5
350
19DFC
  3
A6
350
19DFD
  3
A7
350
19DFE
  3
A8
350
19DFF
  3
A9
350
19E00
  3
B0
350
19E01
  3
B1
350
19E02
  3
B2
350
19E03
  3
B3
350
19E04
  3
B4
350
19E05
  3
B5
350
19E06
  3
B6
350
19E07
  3
B7
350
19E08
  3
B8
350
19E09
  3
B9
350
19E0A
  3
C0
350
19E0B
  3
C1
350
19E0C
  3
C2
350
19E0D
  3
C3
350
19E0E
  3
C4
350
19E0F
  3
C5
350
19E10
  3
C6
350
19E11
  3
C7
350
19E12
  3
C8
350
19E13
  3
C9
350
19E14
  3
D0
350
19E15
  3
D1
350
19E16
  3
D2
350
19E17
1001
ACAD
1000
TREAT_AS_HARD
1070
     0
  0
DICTIONARY
  5
19DE5
102
{ACAD_REACTORS
330
C
102
}
330
C
100
AcDbDictionary
  3
2DWIREFRAME
350
19DEB
  3
3D_HIDDEN
350
19DED
  3
3DWIREFRAME
350
19DEC
  3
BASIC
350
19DEA
  3
BRIGHTEN
350
19DF1
  3
COLORCHANGE
350
19DF5
  3
CONCEPTUAL
350
19DEE
  3
DIM
350
19DF0
  3
EDGECOLOROFF
350
1E02A
  3
FACEPATTERN
350
19DF4
  3
FLAT
350
19DE6
  3
FLATWITHEDGES
350
19DE7
  3
GOURAUD
350
19DE8
  3
GOURAUDWITHEDGES
350
19DE9
  3
HIDDEN
350
1F554
  3
JITTEROFF
350
1E028
  3
LINEPATTERN
350
19DF3
  3
MODELING
350
1F55A
  3
OVERHANGOFF
350
1E029
  3
REALISTIC
350
19DEF
  3
SHADED
350
1F559
  3
SHADED_WITH_EDGES
350
1F558
  3
SHADES_OF_GRAY
350
1F555
  3
SKETCHY
350
1F556
  3
THICKEN
350
19DF2
  3
WIREFRAME
350
1F553
  3
X-RAY
350
1F557
1001
ACAD
1000
TREAT_AS_HARD
1070
     0
  0
DICTIONARY
  5
21A8F
102
{ACAD_REACTORS
330
C
102
}
330
C
100
AcDbDictionary
  3
COLORDICT
350
21A90
  3
MATERIALDICT
350
21A91
1001
ACAD
1000
TREAT_AS_HARD
1070
     0
  0
DICTIONARY
  5
37
102
{ACAD_REACTORS
330
C
102
}
330
C
100
AcDbDictionary
  3
CANNOSCALE
350
1FD1B
  3
CMLEADERSTYLE
350
1AC19
  3
CTABLESTYLE
350
4F1
  3
DIMADEC
350
38
  3
DIMASSOC
350
408
  3
HIDETEXT
350
1891
  3
INDEXCTL
350
1AC1C
  3
INTERSECTIONCOLOR
350
1895
  3
INTERSECTIONDISPLAY
350
1894
  3
MSLTSCALE
350
1FD71
  3
OBSCOLOR
350
1892
  3
OBSLTYPE
350
1893
  3
PROJECTNAME
350
409
  3
SORTENTS
350
1AC1B
  3
XCLIPFRAME
350
21989
1001
ACAD
1000
TREAT_AS_HARD
1070
     0
  0
DICTIONARY
  5
D8
102
{ACAD_REACTORS
330
C
102
}
330
C
100
AcDbDictionary
1001
CONTENTTABDATA
1070
    11
1000
Child
1000
D:\ACLT\TABset\CHILDREN.dwg
1070
     0
1070
     0
1070
     1
1000
PK
1000
D:\ACLT\TABset\PK.dwg
1070
     0
1070
     0
1070
     1
1000
Lev1
1000
D:\ACLT\TABset\Lever01.dwg
1070
     0
1070
     0
1070
     1
1000
Lev2
1000
D:\ACLT\TABset\Lever02.dwg
1070
     0
1070
     0
1070
     1
1000
L3
1000
D:\Aclt\TABset\Lever03.dwg
1070
     0
1070
     0
1070
     1
1000
Form
1000
D:\ACLT\FORMAT
1070
     1
1070
     0
1070
     1
1000
Jnt
1000
D:\ACLT\TABset\JOINTPARTS.dwg
1070
     0
1070
     0
1070
     1
1000
ISO
1000
D:\ACLT\TABset\Isome01.dwg
1070
     0
1070
     0
1070
     1
1000
R
1000
D:\ACLT\TABset\REGION.dwg
1070
     0
1070
     0
1070
     1
1000
std
1000
D:\ACLT\TABset\std_sym_all.dwg
1070
     0
1070
     0
1070
     1
1000
丸
1000
D:\Aclt\TABset\MARU.dwg
1070
     0
1070
     0
1070
     1
1001
CONTENTCURRENTTAB
1070
     0
1001
ACAD
1000
TREAT_AS_HARD
1070
     0
  0
DICTIONARY
  5
20
102
{ACAD_REACTORS
330
C
102
}
330
C
100
AcDbDictionary
1001
DRAWINGVARIABLESXDATA
1000
POLARANG
1000
0.261799387799149410000000
1000
POLARMODE
1000
1
1000
POLARSTYLE
1000
1
1001
ACAD
1000
TREAT_AS_HARD
1070
     0
  0
XRECORD
  5
21A92
102
{ACAD_REACTORS
330
C
102
}
330
C
100
AcDbXrecord
  1
DWGPROPS COOKIE
  2

  3

  4

  6

  7

  8
3684
  9

300
=
301
=
302
=
303
=
304
=
305
=
306
=
307
=
308
=
309
=
 40
0.0
 41
2453033.357663484
 42
2458596.994547419
  1

 90
        0
  0
DICTIONARY
  5
18FE9
102
{ACAD_REACTORS
330
18FE8
102
}
330
18FE8
100
AcDbDictionary
1001
ACAD
1000
TREAT_AS_HARD
1070
     0
  0
ACAD_PROXY_OBJECT
  5
1A20B
102
{ACAD_REACTORS
330
1A20A
102
}
330
1A20A
100
AcDbZombieObject
 90
      499
 91
      517
 93
       34
310
40C8804040
  0
ACAD_PROXY_OBJECT
  5
1A20D
102
{ACAD_REACTORS
330
1A20C
102
}
330
1A20C
100
AcDbZombieObject
 90
      499
 91
      517
 93
       34
310
40C8804040
  0
ACAD_PROXY_OBJECT
  5
1A20F
102
{ACAD_REACTORS
330
1A20E
102
}
330
1A20E
100
AcDbZombieObject
 90
      499
 91
      517
 93
       34
310
40C8804040
  0
ACAD_PROXY_OBJECT
  5
1A219
102
{ACAD_REACTORS
330
1A218
102
}
330
1A218
100
AcDbZombieObject
 90
      499
 91
      517
 93
       34
310
40C8804040
  0
ACAD_PROXY_OBJECT
  5
1A21D
102
{ACAD_REACTORS
330
1A21C
102
}
330
1A21C
100
AcDbZombieObject
 90
      499
 91
      517
 93
       34
310
40C8804040
  0
ACAD_PROXY_OBJECT
  5
1A221
102
{ACAD_REACTORS
330
1A220
102
}
330
1A220
100
AcDbZombieObject
 90
      499
 91
      517
 93
       34
310
40C8804040
  0
SORTENTSTABLE
  5
6EA
102
{ACAD_REACTORS
330
6E9
102
}
330
6E9
100
AcDbSortentsTable
330
18
331
0
  5
99AB
331
0
  5
AB53
331
0
  5
AB54
331
0
  5
ECB5
331
20CD3
  5
20CE5
331
20CD4
  5
20CE6
331
20CD5
  5
20CE7
331
20CD6
  5
20CE8
331
20CD7
  5
20CE9
331
20CD8
  5
20CEA
331
20CD9
  5
20CEB
331
20CDA
  5
20CEC
331
20CDB
  5
20CED
331
20CDC
  5
20CEE
331
20CDD
  5
20CEF
331
20CDE
  5
20CF0
331
20CDF
  5
20CF1
331
20CE0
  5
20CF2
331
20CE1
  5
20CF3
331
20CE2
  5
20CF4
331
20CE3
  5
20CF5
331
20CE4
  5
20CF6
331
20CE5
  5
20CF7
331
20CE6
  5
20CF8
331
20CE7
  5
20CF9
331
20CE8
  5
20CFA
331
20CE9
  5
20CFB
331
20CEA
  5
20CFC
331
20CEB
  5
20CFD
331
20CEC
  5
20CFE
331
20CED
  5
20CFF
331
20CEE
  5
20D00
331
20CEF
  5
20D01
331
20CF0
  5
20D02
331
20CF1
  5
20D03
331
20CF2
  5
20D04
331
20CF3
  5
20D05
331
20CF4
  5
20D06
331
20CF5
  5
20D07
331
20CF6
  5
20D08
331
20CF7
  5
20D09
331
20CF8
  5
20D0A
331
20CF9
  5
20D0B
331
20CFA
  5
20D0C
331
20CFB
  5
20D0D
331
20CFC
  5
20D0E
331
20CFD
  5
20D0F
331
20CFE
  5
20D10
331
20CFF
  5
20D11
331
20D00
  5
20D12
331
20D01
  5
20D13
331
20D02
  5
20D14
331
20D03
  5
20D15
331
20D04
  5
20D16
331
20D05
  5
20D17
331
20D06
  5
20D18
331
20D07
  5
20D19
331
20D08
  5
20D1A
331
20D09
  5
20D1B
331
20D0A
  5
20D1C
331
20D0B
  5
20D1D
331
20D0C
  5
20D1E
331
20D0D
  5
20D1F
331
20D0E
  5
20D20
331
20D0F
  5
20D21
331
20D10
  5
20D22
331
20D11
  5
20D23
331
20D12
  5
20D24
331
20D13
  5
20D25
331
20D14
  5
20D26
331
20D15
  5
20D27
331
20D16
  5
20D28
331
20D17
  5
20D29
331
20D18
  5
20D2A
331
20D19
  5
20D2B
331
20D1A
  5
20D2C
331
20D1B
  5
20D2D
331
20D1C
  5
20D2E
331
20D1D
  5
20D2F
331
20D1E
  5
20D30
331
20D1F
  5
20D31
331
20D20
  5
20D32
331
20D21
  5
20D33
331
20D22
  5
20D34
331
20D23
  5
20D35
331
20D24
  5
20D36
331
20D25
  5
20D37
331
20D26
  5
20D38
331
20D27
  5
20D39
331
20D28
  5
20D3A
331
20D29
  5
20D3B
331
20D2A
  5
20D3C
331
20D2B
  5
20D3D
331
20D2C
  5
20D3E
331
20D2D
  5
20D3F
331
20D2E
  5
20D40
331
20D2F
  5
21265
331
20D30
  5
21266
331
20D31
  5
21267
331
20D32
  5
21268
331
20D33
  5
21269
331
20D34
  5
2126A
331
20D35
  5
2126B
331
20D36
  5
2126D
331
20D37
  5
2126E
331
20D38
  5
21271
331
20D39
  5
21273
331
20D3A
  5
21274
331
20D3B
  5
21276
331
20D3C
  5
21278
331
20D3D
  5
21280
331
20D3E
  5
21283
331
20D3F
  5
2128D
331
20D40
  5
2129D
331
21265
  5
21307
331
21266
  5
2130A
331
21267
  5
2130B
331
21268
  5
2130C
331
21269
  5
2130E
331
2126A
  5
2130F
331
2126B
  5
21310
331
2126D
  5
21311
331
2126E
  5
21313
331
21271
  5
21314
331
21273
  5
21315
331
21274
  5
21316
331
21277
  5
21318
331
21278
  5
21319
331
21279
  5
2131A
331
2127A
  5
2131B
331
2127B
  5
2131D
331
2127E
  5
2131E
331
21280
  5
21320
331
21283
  5
21323
331
2128D
  5
21325
331
2128F
  5
21327
331
21291
  5
21329
331
21293
  5
2132B
331
2129D
  5
21345
331
2129E
  5
21358
331
2129F
  5
213B8
331
212A0
  5
213BB
331
212A1
  5
214FA
331
212A6
  5
214FC
331
212F1
  5
214FD
331
212F2
  5
214FE
331
212F3
  5
214FF
331
212F5
  5
21500
331
212F6
  5
21501
331
212F7
  5
21502
331
212F9
  5
21503
331
212FB
  5
21504
331
212FC
  5
21505
331
212FF
  5
21506
331
21300
  5
21507
331
21301
  5
21508
331
21302
  5
21509
331
21303
  5
2150A
331
21308
  5
2150B
331
21309
  5
2150C
331
2130A
  5
2150D
331
2130B
  5
2150E
331
2130C
  5
2150F
331
2130D
  5
21510
331
2130E
  5
21511
331
2130F
  5
21512
331
21310
  5
21513
331
21311
  5
21514
331
21313
  5
21515
331
21314
  5
21516
331
21315
  5
21517
331
21316
  5
21518
331
21317
  5
21519
331
21318
  5
2151A
331
21319
  5
2151B
331
2131A
  5
2151C
331
2131B
  5
2151D
331
2131D
  5
2151E
331
2131E
  5
2151F
331
21320
  5
21520
331
21323
  5
21521
331
21325
  5
21522
331
21327
  5
21523
331
21329
  5
21524
331
21345
  5
21525
331
21357
  5
21526
331
21358
  5
21527
331
214FB
  5
21528
331
214FC
  5
21529
331
214FD
  5
2152A
331
214FE
  5
2152B
331
214FF
  5
2152C
331
21500
  5
2152D
331
21501
  5
2152E
331
21502
  5
2152F
331
21503
  5
21530
331
21504
  5
21531
331
21505
  5
21532
331
21506
  5
21536
331
21507
  5
21537
331
21508
  5
21538
331
21509
  5
21539
331
2150A
  5
2153A
331
2150B
  5
2153B
331
2150C
  5
2153C
331
2150D
  5
2153D
331
2150E
  5
2153E
331
2150F
  5
2153F
331
21510
  5
21540
331
21511
  5
21541
331
21512
  5
21542
331
21513
  5
21543
331
21514
  5
21544
331
21515
  5
21545
331
21516
  5
21546
331
21517
  5
21547
331
21518
  5
21548
331
21519
  5
21549
331
2151A
  5
2154A
331
2151B
  5
2154B
331
2151C
  5
2154C
331
2151D
  5
2154D
331
2151E
  5
2154E
331
2151F
  5
2154F
331
21520
  5
21550
331
21521
  5
21551
331
21522
  5
21552
331
21523
  5
21553
331
21524
  5
21554
331
21525
  5
21555
331
21526
  5
21556
331
21527
  5
21557
331
21528
  5
21558
331
21529
  5
21559
331
2152A
  5
2155A
331
2152B
  5
2155B
331
2152C
  5
2155C
331
2152D
  5
2155D
331
2152E
  5
2155E
331
2152F
  5
2155F
331
21530
  5
21560
331
21531
  5
21561
331
21535
  5
21562
331
21536
  5
21563
331
21537
  5
21564
331
21538
  5
21565
331
21539
  5
21566
331
2153A
  5
21567
331
2153B
  5
21568
331
2153C
  5
21569
331
2153D
  5
2156A
331
2153E
  5
2156B
331
2153F
  5
2156C
331
21540
  5
2156F
331
21541
  5
21570
331
21542
  5
21572
331
21543
  5
21573
331
21544
  5
21601
331
21545
  5
21602
331
21546
  5
21695
331
21547
  5
21696
331
21548
  5
21697
331
21549
  5
217B0
331
2154A
  5
217B1
331
2154B
  5
217B3
331
2154C
  5
2182A
331
2154D
  5
2182B
331
2154E
  5
2182C
331
2154F
  5
21830
331
21550
  5
219F6
331
21551
  5
219F7
331
21552
  5
219F8
331
21553
  5
219F9
331
21554
  5
219FA
331
21555
  5
219FB
331
21556
  5
219FC
331
21557
  5
219FD
331
21558
  5
219FE
331
21559
  5
219FF
331
2155A
  5
21A00
331
2155B
  5
21A01
331
2155C
  5
21A02
331
2155D
  5
21A03
331
2155E
  5
21A04
331
2155F
  5
21A05
331
21560
  5
21A06
331
21561
  5
21A07
331
21562
  5
21A08
331
21563
  5
21A09
331
21564
  5
21A0A
331
21565
  5
21A0B
331
21566
  5
21A0C
331
21567
  5
21A10
331
21568
  5
21A11
331
21569
  5
21A12
331
2156A
  5
21A16
331
2156B
  5
21A17
331
2156E
  5
21A18
331
2156F
  5
21A1C
331
21570
  5
21A1D
331
0
  5
21607
331
21601
  5
21A1E
331
21602
  5
21A1F
331
21603
  5
21A20
331
0
  5
21603
331
0
  5
21604
331
0
  5
21605
331
0
  5
21646
331
0
  5
21694
331
21694
  5
21A4C
331
21695
  5
21A50
331
21696
  5
21A51
331
0
  5
21698
331
0
  5
21699
331
0
  5
216B1
331
0
  5
216BF
331
0
  5
216C0
331
0
  5
216C1
331
0
  5
216C2
331
0
  5
21744
331
0
  5
217AF
331
217AF
  5
21A77
331
217B0
  5
21A78
331
217B2
  5
21A79
331
217B3
  5
21317
331
2182A
  5
21A7A
331
2182B
  5
21A7B
331
2182C
  5
21A7C
331
21830
  5
21A83
331
219F6
  5
20CD3
331
219F7
  5
20CD4
331
219F8
  5
20CD5
331
219F9
  5
20CD6
331
0
  5
20CD7
331
0
  5
20CD8
331
0
  5
20CD9
331
219FD
  5
20CE1
331
219FE
  5
20CE2
331
219FF
  5
20CE3
331
21A00
  5
20CE4
331
21A01
  5
2129E
331
21A02
  5
2129F
331
21A03
  5
212A0
331
0
  5
2127A
331
0
  5
2127B
331
0
  5
2127E
331
21A07
  5
212F7
331
21A08
  5
212F9
331
21A09
  5
212FB
331
0
  5
2128F
331
0
  5
21291
331
0
  5
21293
331
21A0D
  5
21A28
331
21A0E
  5
21A2C
331
21A0F
  5
21A2D
331
0
  5
21A0D
331
0
  5
21A0E
331
0
  5
21A0F
331
21A13
  5
21A21
331
21A14
  5
21A22
331
21A15
  5
21A23
331
21A16
  5
21A24
331
21A17
  5
21A25
331
21A18
  5
21A26
331
21A19
  5
21A27
331
21A1A
  5
21A35
331
21A1B
  5
21A36
331
21A1C
  5
21A37
331
0
  5
21A13
331
0
  5
21A14
331
0
  5
21A15
331
21A20
  5
21A42
331
21A21
  5
21A43
331
21A22
  5
21A44
331
0
  5
21A19
331
0
  5
21A1A
331
0
  5
21A1B
331
21A26
  5
21A52
331
21A27
  5
21A53
331
21A28
  5
21A54
331
21A29
  5
21A55
331
21A2A
  5
21A56
331
21A2B
  5
21A57
331
21A2C
  5
21A58
331
21A2D
  5
21A59
331
21A2E
  5
21A5A
331
21A2F
  5
21A5B
331
0
  5
21A29
331
0
  5
21A2A
331
0
  5
21A2B
331
21A33
  5
21A63
331
21A34
  5
21A64
331
21A35
  5
21A65
331
21A36
  5
21A66
331
21A37
  5
21A67
331
21A38
  5
21A68
331
21A39
  5
21A69
331
21A3A
  5
21A6A
331
21A3B
  5
21A6B
331
21A3C
  5
21A6C
331
21A3D
  5
21A6D
331
21A3E
  5
21A6E
331
21A3F
  5
21A6F
331
0
  5
21A39
331
0
  5
21A3A
331
0
  5
21A3B
331
21A43
  5
21A7D
331
21A44
  5
21A7E
331
21A45
  5
21A7F
331
21A46
  5
21A80
331
21A47
  5
21A81
331
21A48
  5
21A82
331
21A49
  5
21A84
331
21A4A
  5
21A85
331
21A4B
  5
21A86
331
21A4C
  5
21A87
331
21A50
  5
20CDA
331
21A51
  5
20CDB
331
21A52
  5
20CDC
331
21A53
  5
20CDD
331
21A54
  5
20CDE
331
21A55
  5
20CDF
331
21A56
  5
20CE0
331
21A57
  5
212A1
331
21A58
  5
212A6
331
21A59
  5
212A7
331
21A5A
  5
212F2
331
21A5B
  5
212F3
331
21A5C
  5
212F5
331
21A5D
  5
212F6
331
21A5E
  5
212FC
331
21A5F
  5
212FD
331
21A60
  5
212FE
331
21A61
  5
21301
331
21A62
  5
21302
331
21A63
  5
21303
331
21A64
  5
21306
331
21A65
  5
21A2E
331
21A66
  5
21A2F
331
21A67
  5
21A30
331
21A68
  5
21A31
331
21A69
  5
21A32
331
21A6A
  5
21A33
331
21A6B
  5
21A34
331
21A6C
  5
21A38
331
21A6D
  5
21A3C
331
21A6E
  5
21A3D
331
21A6F
  5
21A3E
331
21A70
  5
21A3F
331
21A71
  5
21A40
331
21A72
  5
21A41
331
21A73
  5
21A45
331
21A74
  5
21A46
331
21A75
  5
21A47
331
21A76
  5
21A48
331
21A77
  5
21A49
331
21A78
  5
21A4A
331
21A79
  5
21A4B
331
21A7A
  5
21A5C
331
21A7B
  5
21A5D
331
21A7C
  5
21A5E
331
21A7D
  5
21A5F
331
21A7E
  5
21A60
331
21A7F
  5
21A61
331
21A80
  5
21A62
331
21A81
  5
21A70
331
21A82
  5
21A71
331
21A83
  5
21A72
331
21A84
  5
21A73
331
21A85
  5
21A74
331
21A86
  5
21A75
331
21A87
  5
21A76
  0
SORTENTSTABLE
  5
59C
102
{ACAD_REACTORS
330
59B
102
}
330
59B
100
AcDbSortentsTable
330
15
331
57
  5
57
331
0
  5
70
  0
MATERIAL
  5
19DD5
102
{ACAD_REACTORS
330
2CF
102
}
102
{ACAD_XDICTIONARY
360
21C2D
102
}
330
2CF
100
AcDbMaterial
  1
BYBLOCK
 72
     0
 73
     2
 43
0.0208333333333333
 43
0.0
 43
0.0
 43
0.0
 43
0.0
 43
0.0208333333333333
 43
0.0
 43
0.0
 43
0.0
 43
0.0
 43
1.0
 43
0.0
 43
0.0
 43
0.0
 43
0.0
 43
1.0
 77
     0
 78
     2
 47
0.0208333333333333
 47
0.0
 47
0.0
 47
0.0
 47
0.0
 47
0.0208333333333333
 47
0.0
 47
0.0
 47
0.0
 47
0.0
 47
1.0
 47
0.0
 47
0.0
 47
0.0
 47
0.0
 47
1.0
171
     0
172
     2
 49
0.0208333333333333
 49
0.0
 49
0.0
 49
0.0
 49
0.0
 49
0.0208333333333333
 49
0.0
 49
0.0
 49
0.0
 49
0.0
 49
1.0
 49
0.0
 49
0.0
 49
0.0
 49
0.0
 49
1.0
175
     0
176
     2
142
0.0208333333333333
142
0.0
142
0.0
142
0.0
142
0.0
142
0.0208333333333333
142
0.0
142
0.0
142
0.0
142
0.0
142
1.0
142
0.0
142
0.0
142
0.0
142
0.0
142
1.0
179
     0
270
     2
144
0.0208333333333333
144
0.0
144
0.0
144
0.0
144
0.0
144
0.0208333333333333
144
0.0
144
0.0
144
0.0
144
0.0
144
1.0
144
0.0
144
0.0
144
0.0
144
0.0
144
1.0
274
     2
147
0.0208333333333333
147
0.0
147
0.0
147
0.0
147
0.0
147
0.0208333333333333
147
0.0
147
0.0
147
0.0
147
0.0
147
1.0
147
0.0
147
0.0
147
0.0
147
0.0
147
1.0
  0
MATERIAL
  5
19DCD
102
{ACAD_REACTORS
330
2CF
102
}
102
{ACAD_XDICTIONARY
360
21C2F
102
}
330
2CF
100
AcDbMaterial
  1
BYLAYER
 72
     0
 73
     2
 43
0.0208333333333333
 43
0.0
 43
0.0
 43
0.0
 43
0.0
 43
0.0208333333333333
 43
0.0
 43
0.0
 43
0.0
 43
0.0
 43
1.0
 43
0.0
 43
0.0
 43
0.0
 43
0.0
 43
1.0
 77
     0
 78
     2
 47
0.0208333333333333
 47
0.0
 47
0.0
 47
0.0
 47
0.0
 47
0.0208333333333333
 47
0.0
 47
0.0
 47
0.0
 47
0.0
 47
1.0
 47
0.0
 47
0.0
 47
0.0
 47
0.0
 47
1.0
171
     0
172
     2
 49
0.0208333333333333
 49
0.0
 49
0.0
 49
0.0
 49
0.0
 49
0.0208333333333333
 49
0.0
 49
0.0
 49
0.0
 49
0.0
 49
1.0
 49
0.0
 49
0.0
 49
0.0
 49
0.0
 49
1.0
175
     0
176
     2
142
0.0208333333333333
142
0.0
142
0.0
142
0.0
142
0.0
142
0.0208333333333333
142
0.0
142
0.0
142
0.0
142
0.0
142
1.0
142
0.0
142
0.0
142
0.0
142
0.0
142
1.0
179
     0
270
     2
144
0.0208333333333333
144
0.0
144
0.0
144
0.0
144
0.0
144
0.0208333333333333
144
0.0
144
0.0
144
0.0
144
0.0
144
1.0
144
0.0
144
0.0
144
0.0
144
0.0
144
1.0
274
     2
147
0.0208333333333333
147
0.0
147
0.0
147
0.0
147
0.0
147
0.0208333333333333
147
0.0
147
0.0
147
0.0
147
0.0
147
1.0
147
0.0
147
0.0
147
0.0
147
0.0
147
1.0
  0
MATERIAL
  5
19DDD
102
{ACAD_REACTORS
330
2CF
102
}
102
{ACAD_XDICTIONARY
360
21C31
102
}
330
2CF
100
AcDbMaterial
  1
GLOBAL
 72
     0
 73
     2
 43
0.0208333333333333
 43
0.0
 43
0.0
 43
0.0
 43
0.0
 43
0.0208333333333333
 43
0.0
 43
0.0
 43
0.0
 43
0.0
 43
1.0
 43
0.0
 43
0.0
 43
0.0
 43
0.0
 43
1.0
 77
     0
 78
     2
 47
0.0208333333333333
 47
0.0
 47
0.0
 47
0.0
 47
0.0
 47
0.0208333333333333
 47
0.0
 47
0.0
 47
0.0
 47
0.0
 47
1.0
 47
0.0
 47
0.0
 47
0.0
 47
0.0
 47
1.0
171
     0
172
     2
 49
0.0208333333333333
 49
0.0
 49
0.0
 49
0.0
 49
0.0
 49
0.0208333333333333
 49
0.0
 49
0.0
 49
0.0
 49
0.0
 49
1.0
 49
0.0
 49
0.0
 49
0.0
 49
0.0
 49
1.0
175
     0
176
     2
142
0.0208333333333333
142
0.0
142
0.0
142
0.0
142
0.0
142
0.0208333333333333
142
0.0
142
0.0
142
0.0
142
0.0
142
1.0
142
0.0
142
0.0
142
0.0
142
0.0
142
1.0
179
     0
270
     2
144
0.0208333333333333
144
0.0
144
0.0
144
0.0
144
0.0
144
0.0208333333333333
144
0.0
144
0.0
144
0.0
144
0.0
144
1.0
144
0.0
144
0.0
144
0.0
144
0.0
144
1.0
274
     2
147
0.0208333333333333
147
0.0
147
0.0
147
0.0
147
0.0
147
0.0208333333333333
147
0.0
147
0.0
147
0.0
147
0.0
147
1.0
147
0.0
147
0.0
147
0.0
147
0.0
147
1.0
  0
ACAD_PROXY_OBJECT
  5
19E19
102
{ACAD_REACTORS
330
19E18
102
}
330
19E18
100
AcDbZombieObject
 90
      499
 91
      512
 93
      610
310
40901902A4063FBFFFFFE000000000000002040AD7A3703D0AD73F4214DD185B99185C990000000000000104090141901A00000000000004100000000000000041025764000000000000300FC0
340
12
340
0
340
F
340
0
 94
        0
1001
ACAD_MLEADERVER
1070
     2
  0
MLINESTYLE
  5
1C
102
{ACAD_REACTORS
330
1B
102
}
330
1B
100
AcDbMlineStyle
  2
STANDARD
 70
     0
  3

 62
   256
 51
90.0
 52
90.0
 71
     2
 49
0.5
 62
   256
  6
BYLAYER
 49
-0.5
 62
   256
  6
BYLAYER
  0
ACAD_PROXY_OBJECT
  5
19DF7
102
{ACAD_REACTORS
330
19DF6
102
}
330
19DF6
100
AcDbZombieObject
 90
      499
 91
      511
 93
       41
310
903313A31580
  0
ACAD_PROXY_OBJECT
  5
19DF8
102
{ACAD_REACTORS
330
19DF6
102
}
330
19DF6
100
AcDbZombieObject
 90
      499
 91
      511
 93
      105
310
903313A324000000000000004000
  0
ACAD_PROXY_OBJECT
  5
19DF9
102
{ACAD_REACTORS
330
19DF6
102
}
330
19DF6
100
AcDbZombieObject
 90
      499
 91
      511
 93
      105
310
903313A344000000000000104000
  0
ACAD_PROXY_OBJECT
  5
19DFA
102
{ACAD_REACTORS
330
19DF6
102
}
330
19DF6
100
AcDbZombieObject
 90
      499
 91
      511
 93
      105
310
903313A354000000000000144000
  0
ACAD_PROXY_OBJECT
  5
19DFB
102
{ACAD_REACTORS
330
19DF6
102
}
330
19DF6
100
AcDbZombieObject
 90
      499
 91
      511
 93
      105
310
903313A384000000000000204000
  0
ACAD_PROXY_OBJECT
  5
19DFC
102
{ACAD_REACTORS
330
19DF6
102
}
330
19DF6
100
AcDbZombieObject
 90
      499
 91
      511
 93
      113
310
904313A31304000000000000244000
  0
ACAD_PROXY_OBJECT
  5
19DFD
102
{ACAD_REACTORS
330
19DF6
102
}
330
19DF6
100
AcDbZombieObject
 90
      499
 91
      511
 93
      113
310
904313A31364000000000000304000
  0
ACAD_PROXY_OBJECT
  5
19DFE
102
{ACAD_REACTORS
330
19DF6
102
}
330
19DF6
100
AcDbZombieObject
 90
      499
 91
      511
 93
      113
310
904313A32304000000000000344000
  0
ACAD_PROXY_OBJECT
  5
19DFF
102
{ACAD_REACTORS
330
19DF6
102
}
330
19DF6
100
AcDbZombieObject
 90
      499
 91
      511
 93
      113
310
904313A333040000000000003E4000
  0
ACAD_PROXY_OBJECT
  5
19E00
102
{ACAD_REACTORS
330
19DF6
102
}
330
19DF6
100
AcDbZombieObject
 90
      499
 91
      511
 93
      113
310
904313A34304000000000000444000
  0
ACAD_PROXY_OBJECT
  5
19E01
102
{ACAD_REACTORS
330
19DF6
102
}
330
19DF6
100
AcDbZombieObject
 90
      499
 91
      511
 93
      113
310
904313A35304000000000000494000
  0
ACAD_PROXY_OBJECT
  5
19E02
102
{ACAD_REACTORS
330
19DF6
102
}
330
19DF6
100
AcDbZombieObject
 90
      499
 91
      511
 93
      121
310
905313A3130304000000000000594000
  0
ACAD_PROXY_OBJECT
  5
19E03
102
{ACAD_REACTORS
330
19DF6
102
}
330
19DF6
100
AcDbZombieObject
 90
      499
 91
      511
 93
      105
310
903323A310000000000000010100
  0
ACAD_PROXY_OBJECT
  5
19E04
102
{ACAD_REACTORS
330
19DF6
102
}
330
19DF6
100
AcDbZombieObject
 90
      499
 91
      511
 93
      105
310
903343A310000000000000410100
  0
ACAD_PROXY_OBJECT
  5
19E05
102
{ACAD_REACTORS
330
19DF6
102
}
330
19DF6
100
AcDbZombieObject
 90
      499
 91
      511
 93
      105
310
903383A310000000000000810100
  0
ACAD_PROXY_OBJECT
  5
19E06
102
{ACAD_REACTORS
330
19DF6
102
}
330
19DF6
100
AcDbZombieObject
 90
      499
 91
      511
 93
      113
310
90431303A310000000000000910100
  0
ACAD_PROXY_OBJECT
  5
19E07
102
{ACAD_REACTORS
330
19DF6
102
}
330
19DF6
100
AcDbZombieObject
 90
      499
 91
      511
 93
      121
310
9053130303A310000000000001650100
  0
ACAD_PROXY_OBJECT
  5
19E08
102
{ACAD_REACTORS
330
19DF6
102
}
330
19DF6
100
AcDbZombieObject
 90
      499
 91
      511
 93
      257
310
90E312F31323822203D2031272D3022000000000000200FC000000000000284000
  0
ACAD_PROXY_OBJECT
  5
19E09
102
{ACAD_REACTORS
330
19DF6
102
}
330
19DF6
100
AcDbZombieObject
 90
      499
 91
      511
 93
      249
310
90D312F363422203D2031272D3022000000000000240FC000000000000284000
  0
ACAD_PROXY_OBJECT
  5
19E0A
102
{ACAD_REACTORS
330
19DF6
102
}
330
19DF6
100
AcDbZombieObject
 90
      499
 91
      511
 93
      249
310
90D312F333222203D2031272D3022000000000000280FC000000000000284000
  0
ACAD_PROXY_OBJECT
  5
19E0B
102
{ACAD_REACTORS
330
19DF6
102
}
330
19DF6
100
AcDbZombieObject
 90
      499
 91
      511
 93
      249
310
90D312F313622203D2031272D30220000000000002C0FC000000000000284000
  0
ACAD_PROXY_OBJECT
  5
19E0C
102
{ACAD_REACTORS
330
19DF6
102
}
330
19DF6
100
AcDbZombieObject
 90
      499
 91
      511
 93
      249
310
90D332F333222203D2031272D30220000000000002E0FC000000000000284000
  0
ACAD_PROXY_OBJECT
  5
19E0D
102
{ACAD_REACTORS
330
19DF6
102
}
330
19DF6
100
AcDbZombieObject
 90
      499
 91
      511
 93
      241
310
90C312F3822203D2031272D3022000000000000300FC000000000000284000
  0
ACAD_PROXY_OBJECT
  5
19E0E
102
{ACAD_REACTORS
330
19DF6
102
}
330
19DF6
100
AcDbZombieObject
 90
      499
 91
      511
 93
      249
310
90D332F313622203D2031272D3022000000000000320FC000000000000284000
  0
ACAD_PROXY_OBJECT
  5
19E0F
102
{ACAD_REACTORS
330
19DF6
102
}
330
19DF6
100
AcDbZombieObject
 90
      499
 91
      511
 93
      241
310
90C312F3422203D2031272D3022000000000000340FC000000000000284000
  0
ACAD_PROXY_OBJECT
  5
19E10
102
{ACAD_REACTORS
330
19DF6
102
}
330
19DF6
100
AcDbZombieObject
 90
      499
 91
      511
 93
      241
310
90C332F3822203D2031272D3022000000000000360FC000000000000284000
  0
ACAD_PROXY_OBJECT
  5
19E11
102
{ACAD_REACTORS
330
19DF6
102
}
330
19DF6
100
AcDbZombieObject
 90
      499
 91
      511
 93
      241
310
90C312F3222203D2031272D3022000000000000380FC000000000000284000
  0
ACAD_PROXY_OBJECT
  5
19E12
102
{ACAD_REACTORS
330
19DF6
102
}
330
19DF6
100
AcDbZombieObject
 90
      499
 91
      511
 93
      241
310
90C332F3422203D2031272D30220000000000003A0FC000000000000284000
  0
ACAD_PROXY_OBJECT
  5
19E13
102
{ACAD_REACTORS
330
19DF6
102
}
330
19DF6
100
AcDbZombieObject
 90
      499
 91
      511
 93
      161
310
90A3122203D2031272D30224000000000000284000
  0
ACAD_PROXY_OBJECT
  5
19E14
102
{ACAD_REACTORS
330
19DF6
102
}
330
19DF6
100
AcDbZombieObject
 90
      499
 91
      511
 93
      257
310
90E312D312F3222203D2031272D30220000000000003E0FC000000000000284000
  0
ACAD_PROXY_OBJECT
  5
19E15
102
{ACAD_REACTORS
330
19DF6
102
}
330
19DF6
100
AcDbZombieObject
 90
      499
 91
      511
 93
      225
310
90A3322203D2031272D302200000000000002100000000000000284000
  0
ACAD_PROXY_OBJECT
  5
19E16
102
{ACAD_REACTORS
330
19DF6
102
}
330
19DF6
100
AcDbZombieObject
 90
      499
 91
      511
 93
      225
310
90A3622203D2031272D302200000000000006100000000000000284000
  0
ACAD_PROXY_OBJECT
  5
19E17
102
{ACAD_REACTORS
330
19DF6
102
}
330
19DF6
100
AcDbZombieObject
 90
      499
 91
      511
 93
      249
310
90D31272D3022203D2031272D30220000000000000A100000000000000284000
  0
ACAD_PROXY_OBJECT
  5
19DEB
102
{ACAD_REACTORS
330
19DE5
102
}
330
19DE5
100
AcDbZombieObject
 90
      499
 91
      510
 93
      436
310
42CC9915DA5C99599C985B595049028333333333333E3BF0000000000000FB0107901411070040501600405405064090741402480A0340
1001
ACAD
1000
AcDbSavedByObjectVersion
1070
     0
  0
ACAD_PROXY_OBJECT
  5
19DED
102
{ACAD_REACTORS
330
19DE5
102
}
330
19DE5
100
AcDbZombieObject
 90
      499
 91
      510
 93
      500
310
424CD108121A5919195B90640502408333333333333E3BF0000000000000FB01079024090700405020000000000001110200405405064090740C02480A0340
1001
ACAD
1000
AcDbSavedByObjectVersion
1070
     0
  0
ACAD_PROXY_OBJECT
  5
19DEC
102
{ACAD_REACTORS
330
19DE5
102
}
330
19DE5
100
AcDbZombieObject
 90
      499
 91
      510
 93
      436
310
42CCD915DA5C99599C985B595059028333333333333E3BF0000000000000FB0107901411070040501600405405064090741402480A0340
1001
ACAD
1000
AcDbSavedByObjectVersion
1070
     0
  0
ACAD_PROXY_OBJECT
  5
19DEA
102
{ACAD_REACTORS
330
19DE5
102
}
330
19DE5
100
AcDbZombieObject
 90
      499
 91
      510
 93
      388
310
4150985CDA58D07406404333333333333E3BF0000000000000FB0107A41107004050150841D405064090741402480A0350
1001
ACAD
1000
AcDbSavedByObjectVersion
1070
     0
  0
ACAD_PROXY_OBJECT
  5
19DF1
102
{ACAD_REACTORS
330
19DE5
102
}
330
19DE5
100
AcDbZombieObject
 90
      499
 91
      510
 93
      428
310
42109C9A59DA1D195B90C409028333333333333E3BF0000000000000FB010790141107004050150841D405064090741402480A029950
1001
ACAD
1000
AcDbSavedByObjectVersion
1070
     0
  0
ACAD_PROXY_OBJECT
  5
19DF5
102
{ACAD_REACTORS
330
19DE5
102
}
330
19DE5
100
AcDbZombieObject
 90
      499
 91
      510
 93
      452
310
42D0DBDB1BDC90DA185B99D95104090240C333333333333E3BF0000000000000FB0108901411070040501508421405064090741402480A0350
1001
ACAD
1000
AcDbSavedByObjectVersion
1070
     0
  0
ACAD_PROXY_OBJECT
  5
19DEE
102
{ACAD_REACTORS
330
19DE5
102
}
330
19DE5
100
AcDbZombieObject
 90
      499
 91
      510
 93
      500
310
4290DBDB98D95C1D1D585B10940D028333333333333E3BF0000000000000FB0107902409070040501000000000000111010841D405064090740C02480A0340
1001
ACAD
1000
AcDbSavedByObjectVersion
1070
     0
  0
ACAD_PROXY_OBJECT
  5
19DF0
102
{ACAD_REACTORS
330
19DE5
102
}
330
19DE5
100
AcDbZombieObject
 90
      499
 91
      510
 93
      412
310
40D11A5B50B409028333333333333E3BF0000000000000FB010790141107004050150841D405064090741402480A02677FFFFFD0
1001
ACAD
1000
AcDbSavedByObjectVersion
1070
     0
  0
ACAD_PROXY_OBJECT
  5
1E02A
102
{ACAD_REACTORS
330
19DE5
102
}
330
19DE5
100
AcDbZombieObject
 90
      499
 91
      510
 93
      452
310
43115919D950DBDB1BDC93D999916409028333333333333E3BF0000000000000FB010790141107004050150841D405064090741402480A0350
1001
ACAD
1000
AcDbSavedByObjectVersion
1070
     0
  0
ACAD_PROXY_OBJECT
  5
19DF4
102
{ACAD_REACTORS
330
19DE5
102
}
330
19DE5
100
AcDbZombieObject
 90
      499
 91
      510
 93
      444
310
42D19858D95C185D1D195C9B90F409028333333333333E3BF0000000000000FB010790141107004050150841D405064090741402480A0350
1001
ACAD
1000
AcDbSavedByObjectVersion
1070
     0
  0
ACAD_PROXY_OBJECT
  5
19DE6
102
{ACAD_REACTORS
330
19DE5
102
}
330
19DE5
100
AcDbZombieObject
 90
      499
 91
      510
 93
      388
310
41119B185D240901404333333333333E3BF0000000000000F9010740A41107004050150841D405064090741402480A1B50
1001
ACAD
1000
AcDbSavedByObjectVersion
1070
     0
  0
ACAD_PROXY_OBJECT
  5
19DE7
102
{ACAD_REACTORS
330
19DE5
102
}
330
19DE5
100
AcDbZombieObject
 90
      499
 91
      510
 93
      476
310
43519B185D15DA5D1A115919D95CD0140901404333333333333E3BF0000000000000F9010740901411070040501600405405064090741402480A1B50
1001
ACAD
1000
AcDbSavedByObjectVersion
1070
     0
  0
ACAD_PROXY_OBJECT
  5
19DE8
102
{ACAD_REACTORS
330
19DE5
102
}
330
19DE5
100
AcDbZombieObject
 90
      499
 91
      510
 93
      412
310
41D1DBDD5C985D5910240902404333333333333E3BF0000000000000F9010740A411070040501641D405064090741402480A1B50
1001
ACAD
1000
AcDbSavedByObjectVersion
1070
     0
  0
ACAD_PROXY_OBJECT
  5
19DE9
102
{ACAD_REACTORS
330
19DE5
102
}
330
19DE5
100
AcDbZombieObject
 90
      499
 91
      510
 93
      500
310
4411DBDD5C985D5915DA5D1A115919D95CD0340902404333333333333E3BF0000000000000F9010740901411070040501600405405064090741402480A1B50
1001
ACAD
1000
AcDbSavedByObjectVersion
1070
     0
  0
ACAD_PROXY_OBJECT
  5
1F554
102
{ACAD_REACTORS
330
19DE5
102
}
330
19DE5
100
AcDbZombieObject
 90
      499
 91
      510
 93
      476
310
41921A5919195B90640502408333333333333E3BF0000000000000FB01079024090700405020000000000001110200405405064090740C02480A0340
1001
ACAD
1000
AcDbSavedByObjectVersion
1070
     0
  0
ACAD_PROXY_OBJECT
  5
1E028
102
{ACAD_REACTORS
330
19DE5
102
}
330
19DE5
100
AcDbZombieObject
 90
      499
 91
      510
 93
      428
310
42529A5D1D195C93D999914409028333333333333E3BF0000000000000FB010790141107004050150A41D405064090741402480A0350
1001
ACAD
1000
AcDbSavedByObjectVersion
1070
     0
  0
ACAD_PROXY_OBJECT
  5
19DF3
102
{ACAD_REACTORS
330
19DE5
102
}
330
19DE5
100
AcDbZombieObject
 90
      499
 91
      510
 93
      444
310
42D31A5B995C185D1D195C9B90E409028333333333333E3BF0000000000000FB010790141107004050750841D405064090741402483A0350
1001
ACAD
1000
AcDbSavedByObjectVersion
1070
     0
  0
ACAD_PROXY_OBJECT
  5
1F55A
102
{ACAD_REACTORS
330
19DE5
102
}
330
19DE5
100
AcDbZombieObject
 90
      499
 91
      510
 93
      484
310
42135BD9195B1A5B99D0A409028333333333333E3BF0000000000000F901074090290700405010000000000201990108421405064090741402480A1B40
1001
ACAD
1000
AcDbSavedByObjectVersion
1070
     0
  0
ACAD_PROXY_OBJECT
  5
1E029
102
{ACAD_REACTORS
330
19DE5
102
}
330
19DE5
100
AcDbZombieObject
 90
      499
 91
      510
 93
      444
310
42D3DD995C9A185B99D3D999915409028333333333333E3BF0000000000000FB010790141107004050150941D405064090741402480A0350
1001
ACAD
1000
AcDbSavedByObjectVersion
1070
     0
  0
ACAD_PROXY_OBJECT
  5
19DEF
102
{ACAD_REACTORS
330
19DE5
102
}
330
19DE5
100
AcDbZombieObject
 90
      499
 91
      510
 93
      420
310
425499585B1A5CDD1A58D08409028333333333333E3BF0000000000000FB01079019070040501508421405064090741402480A1B40
1001
ACAD
1000
AcDbSavedByObjectVersion
1070
     0
  0
ACAD_PROXY_OBJECT
  5
1F559
102
{ACAD_REACTORS
330
19DE5
102
}
330
19DE5
100
AcDbZombieObject
 90
      499
 91
      510
 93
      420
310
4194DA1859195911B40902404333333333333E3BF0000000000000F9010740A41107004050150800405405064090840C02480A0B40
1001
ACAD
1000
AcDbSavedByObjectVersion
1070
     0
  0
ACAD_PROXY_OBJECT
  5
1F558
102
{ACAD_REACTORS
330
19DE5
102
}
330
19DE5
100
AcDbZombieObject
 90
      499
 91
      510
 93
      516
310
4454DA18591959081DDA5D1A08195919D95CD1A40902404333333333333E3BF0000000000000F901074090142907004050250800405405064090740C02480A0B40
1001
ACAD
1000
AcDbSavedByObjectVersion
1070
     0
  0
ACAD_PROXY_OBJECT
  5
1F555
102
{ACAD_REACTORS
330
19DE5
102
}
330
19DE5
100
AcDbZombieObject
 90
      499
 91
      510
 93
      532
310
4394DA1859195CC81BD98811DC985E5174090240C333333333333E3BF0000000000000FB01079024090741D01000000000000111010841D405064090740C02480A0340
1001
ACAD
1000
AcDbSavedByObjectVersion
1070
     0
  0
ACAD_PROXY_OBJECT
  5
1F556
102
{ACAD_REACTORS
330
19DE5
102
}
330
19DE5
100
AcDbZombieObject
 90
      499
 91
      510
 93
      476
310
41D4DAD95D18DA1E51840502408333333333333E3BF0000000000000FB01079024090741D01000000000000111010B41D405064090741802480A0340
1001
ACAD
1000
AcDbSavedByObjectVersion
1070
     0
  0
ACAD_PROXY_OBJECT
  5
19DF2
102
{ACAD_REACTORS
330
19DE5
102
}
330
19DE5
100
AcDbZombieObject
 90
      499
 91
      510
 93
      412
310
41D51A1A58DAD95B90D409028333333333333E3BF0000000000000FB010790141107004050150C41D405064090741402480A0350
1001
ACAD
1000
AcDbSavedByObjectVersion
1070
     0
  0
ACAD_PROXY_OBJECT
  5
1F553
102
{ACAD_REACTORS
330
19DE5
102
}
330
19DE5
100
AcDbZombieObject
 90
      499
 91
      510
 93
      420
310
4255DA5C99599C985B595059028333333333333E3BF0000000000000FB0107901411070040501600405405064090740C02480A0340
1001
ACAD
1000
AcDbSavedByObjectVersion
1070
     0
  0
ACAD_PROXY_OBJECT
  5
1F557
102
{ACAD_REACTORS
330
19DE5
102
}
330
19DE5
100
AcDbZombieObject
 90
      499
 91
      510
 93
      404
310
41560B54985E51940902404000000000000E03F0000000000000FB010740501907004050150841D405064090740C02480A1B40
1001
ACAD
1000
AcDbSavedByObjectVersion
1070
     0
  0
XRECORD
  5
21A90
102
{ACAD_REACTORS
330
21A8F
102
}
330
21A8F
100
AcDbXrecord
340
2D0
  0
XRECORD
  5
21A91
102
{ACAD_REACTORS
330
21A8F
102
}
330
21A8F
100
AcDbXrecord
340
2CF
  0
DICTIONARYVAR
  5
1FD1B
102
{ACAD_REACTORS
330
37
102
}
330
37
100
DictionaryVariables
280
     0
  1
1:1
  0
DICTIONARYVAR
  5
1AC19
102
{ACAD_REACTORS
330
37
102
}
330
37
100
DictionaryVariables
280
     0
  1
Standard
  0
DICTIONARYVAR
  5
4F1
102
{ACAD_REACTORS
330
37
102
}
330
37
100
DictionaryVariables
280
     0
  1
Standard
  0
DICTIONARYVAR
  5
38
102
{ACAD_REACTORS
330
37
102
}
330
37
100
DictionaryVariables
280
     0
  1
-1
  0
DICTIONARYVAR
  5
408
102
{ACAD_REACTORS
330
37
102
}
330
37
100
DictionaryVariables
280
     0
  1
2
  0
DICTIONARYVAR
  5
1891
102
{ACAD_REACTORS
330
37
102
}
330
37
100
DictionaryVariables
280
     0
  1
1
  0
DICTIONARYVAR
  5
1AC1C
102
{ACAD_REACTORS
330
37
102
}
330
37
100
DictionaryVariables
280
     0
  1
0
  0
DICTIONARYVAR
  5
1895
102
{ACAD_REACTORS
330
37
102
}
330
37
100
DictionaryVariables
280
     0
  1
8
  0
DICTIONARYVAR
  5
1894
102
{ACAD_REACTORS
330
37
102
}
330
37
100
DictionaryVariables
280
     0
  1
1
  0
DICTIONARYVAR
  5
1FD71
102
{ACAD_REACTORS
330
37
102
}
330
37
100
DictionaryVariables
280
     0
  1
0
  0
DICTIONARYVAR
  5
1892
102
{ACAD_REACTORS
330
37
102
}
330
37
100
DictionaryVariables
280
     0
  1
8
  0
DICTIONARYVAR
  5
1893
102
{ACAD_REACTORS
330
37
102
}
330
37
100
DictionaryVariables
280
     0
  1
2
  0
DICTIONARYVAR
  5
409
102
{ACAD_REACTORS
330
37
102
}
330
37
100
DictionaryVariables
280
     0
  1

  0
DICTIONARYVAR
  5
1AC1B
102
{ACAD_REACTORS
330
37
102
}
330
37
100
DictionaryVariables
280
     0
  1
127
  0
DICTIONARYVAR
  5
21989
102
{ACAD_REACTORS
330
37
102
}
330
37
100
DictionaryVariables
280
     0
  1
2
  0
DICTIONARY
  5
21C2D
330
19DD5
100
AcDbDictionary
  3
ACAD_XREC_ROUNDTRIP
360
21C2E
1001
ACAD
1000
TREAT_AS_HARD
1070
     1
  0
DICTIONARY
  5
21C2F
330
19DCD
100
AcDbDictionary
  3
ACAD_XREC_ROUNDTRIP
360
21C30
1001
ACAD
1000
TREAT_AS_HARD
1070
     1
  0
DICTIONARY
  5
21C31
330
19DDD
100
AcDbDictionary
  3
ACAD_XREC_ROUNDTRIP
360
21C32
1001
ACAD
1000
TREAT_AS_HARD
1070
     1
  0
XRECORD
  5
21C2E
102
{ACAD_REACTORS
330
21C2D
102
}
330
21C2D
100
AcDbXrecord
102
MATERIAL
148
0.0
149
0.0
149
0.0
 93
        0
 94
      127
282
     0
 72
     0
 77
     0
171
     0
175
     0
179
     0
273
     0
  0
XRECORD
  5
21C30
102
{ACAD_REACTORS
330
21C2F
102
}
330
21C2F
100
AcDbXrecord
102
MATERIAL
148
0.0
149
0.0
149
0.0
 93
        0
 94
      127
282
     0
 72
     0
 77
     0
171
     0
175
     0
179
     0
273
     0
  0
XRECORD
  5
21C32
102
{ACAD_REACTORS
330
21C31
102
}
330
21C31
100
AcDbXrecord
102
MATERIAL
148
0.0
149
0.0
149
0.0
 93
        0
 94
      127
282
     0
 72
     0
 77
     0
171
     0
175
     0
179
     0
273
     0
  0
ENDSEC
  0
EOF
