  0
SECTION
  2
HEADER
  9
$ACADVER
  1
AC1012
  9
$DWGCODEPAGE
  3
ansi_932
  9
$INSBASE
 10
0.0
 20
0.0
 30
0.0
  9
$EXTMIN
 10
226.7108223568096
 20
-713.4176014766934
 30
0.0
  9
$EXTMAX
 10
736.0824386439322
 20
-474.8676230470635
 30
0.0
  9
$LIMMIN
 10
0.0
 20
0.0
  9
$LIMMAX
 10
420.0
 20
297.0
  9
$ORTHOMODE
 70
     0
  9
$REGENMODE
 70
     1
  9
$FILLMODE
 70
     1
  9
$QTEXTMODE
 70
     0
  9
$MIRRTEXT
 70
     0
  9
$DRAGMODE
 70
     2
  9
$LTSCALE
 40
0.5
  9
$OSMODE
 70
  2175
  9
$ATTMODE
 70
     1
  9
$TEXTSIZE
 40
4.0
  9
$TRACEWID
 40
1.0
  9
$TEXTSTYLE
  7
STANDARD
  9
$CLAYER
  8
1TEXT
  9
$CELTYPE
  6
BYLAYER
  9
$CECOLOR
 62
   256
  9
$CELTSCALE
 40
1.0
  9
$DELOBJ
 70
     1
  9
$DISPSILH
 70
     0
  9
$DIMSCALE
 40
1.0
  9
$DIMASZ
 40
2.0
  9
$DIMEXO
 40
0.0
  9
$DIMDLI
 40
7.0
  9
$DIMRND
 40
0.0
  9
$DIMDLE
 40
0.0
  9
$DIMEXE
 40
1.0
  9
$DIMTP
 40
0.0
  9
$DIMTM
 40
0.0
  9
$DIMTXT
 40
3.5
  9
$DIMCEN
 40
0.0
  9
$DIMTSZ
 40
0.0
  9
$DIMTOL
 70
     0
  9
$DIMLIM
 70
     0
  9
$DIMTIH
 70
     0
  9
$DIMTOH
 70
     0
  9
$DIMSE1
 70
     0
  9
$DIMSE2
 70
     0
  9
$DIMTAD
 70
     1
  9
$DIMZIN
 70
     8
  9
$DIMBLK
  1

  9
$DIMASO
 70
     1
  9
$DIMSHO
 70
     1
  9
$DIMPOST
  1
 
  9
$DIMAPOST
  1

  9
$DIMALT
 70
     0
  9
$DIMALTD
 70
     2
  9
$DIMALTF
 40
25.4
  9
$DIMLFAC
 40
1.0
  9
$DIMTOFL
 70
     1
  9
$DIMTVP
 40
0.0
  9
$DIMTIX
 70
     0
  9
$DIMSOXD
 70
     0
  9
$DIMSAH
 70
     1
  9
$DIMBLK1
  1
OPEN30
  9
$DIMBLK2
  1
OPEN30
  9
$DIMSTYLE
  2
NEWX10
  9
$DIMCLRD
 70
   256
  9
$DIMCLRE
 70
   256
  9
$DIMCLRT
 70
   201
  9
$DIMTFAC
 40
0.7
  9
$DIMGAP
 40
0.7
  9
$DIMJUST
 70
     0
  9
$DIMSD1
 70
     0
  9
$DIMSD2
 70
     0
  9
$DIMTOLJ
 70
     1
  9
$DIMTZIN
 70
     8
  9
$DIMALTZ
 70
     0
  9
$DIMALTTZ
 70
     0
  9
$DIMFIT
 70
     2
  9
$DIMUPT
 70
     0
  9
$DIMUNIT
 70
     2
  9
$DIMDEC
 70
     2
  9
$DIMTDEC
 70
     4
  9
$DIMALTU
 70
     2
  9
$DIMALTTD
 70
     2
  9
$DIMTXSTY
  7
STANDARD
  9
$DIMAUNIT
 70
     0
  9
$LUNITS
 70
     2
  9
$LUPREC
 70
     4
  9
$SKETCHINC
 40
1.0
  9
$FILLETRAD
 40
0.0
  9
$AUNITS
 70
     0
  9
$AUPREC
 70
     2
  9
$MENU
  1
acad
  9
$ELEVATION
 40
0.0
  9
$PELEVATION
 40
0.0
  9
$THICKNESS
 40
0.0
  9
$LIMCHECK
 70
     0
  9
$CHAMFERA
 40
1.0
  9
$CHAMFERB
 40
1.0
  9
$CHAMFERC
 40
20.0
  9
$CHAMFERD
 40
0.0
  9
$SKPOLY
 70
     0
  9
$TDCREATE
 40
2453033.732663484
  9
$TDUPDATE
 40
2458597.372413553
  9
$TDINDWG
 40
2.383701331
  9
$TDUSRTIMER
 40
2.383701331
  9
$USRTIMER
 70
     1
  9
$ANGBASE
 50
0.0
  9
$ANGDIR
 70
     0
  9
$PDMODE
 70
     0
  9
$PDSIZE
 40
0.0
  9
$PLINEWID
 40
0.0
  9
$COORDS
 70
     2
  9
$SPLFRAME
 70
     0
  9
$SPLINETYPE
 70
     6
  9
$SPLINESEGS
 70
     8
  9
$ATTDIA
 70
     0
  9
$ATTREQ
 70
     1
  9
$HANDLING
 70
     1
  9
$HANDSEED
  5
226B3
  9
$SURFTAB1
 70
     6
  9
$SURFTAB2
 70
     6
  9
$SURFTYPE
 70
     6
  9
$SURFU
 70
     6
  9
$SURFV
 70
     6
  9
$UCSNAME
  2

  9
$UCSORG
 10
0.0
 20
0.0
 30
0.0
  9
$UCSXDIR
 10
1.0
 20
0.0
 30
0.0
  9
$UCSYDIR
 10
0.0
 20
1.0
 30
0.0
  9
$PUCSNAME
  2

  9
$PUCSORG
 10
0.0
 20
0.0
 30
0.0
  9
$PUCSXDIR
 10
1.0
 20
0.0
 30
0.0
  9
$PUCSYDIR
 10
0.0
 20
1.0
 30
0.0
  9
$USERI1
 70
     0
  9
$USERI2
 70
     0
  9
$USERI3
 70
     0
  9
$USERI4
 70
     0
  9
$USERI5
 70
     0
  9
$USERR1
 40
0.0
  9
$USERR2
 40
0.0
  9
$USERR3
 40
0.0
  9
$USERR4
 40
0.0
  9
$USERR5
 40
0.0
  9
$WORLDVIEW
 70
     1
  9
$SHADEDGE
 70
     3
  9
$SHADEDIF
 70
    70
  9
$TILEMODE
 70
     1
  9
$MAXACTVP
 70
    48
  9
$PINSBASE
 10
0.0
 20
0.0
 30
0.0
  9
$PLIMCHECK
 70
     0
  9
$PEXTMIN
 10
1.000000000000000E+20
 20
1.000000000000000E+20
 30
1.000000000000000E+20
  9
$PEXTMAX
 10
-1.000000000000000E+20
 20
-1.000000000000000E+20
 30
-1.000000000000000E+20
  9
$PLIMMIN
 10
0.0
 20
0.0
  9
$PLIMMAX
 10
420.0
 20
297.0
  9
$UNITMODE
 70
     0
  9
$VISRETAIN
 70
     1
  9
$PLINEGEN
 70
     0
  9
$PSLTSCALE
 70
     1
  9
$TREEDEPTH
 70
  3020
  9
$PICKSTYLE
 70
     1
  9
$CMLSTYLE
  2
STANDARD
  9
$CMLJUST
 70
     0
  9
$CMLSCALE
 40
20.0
  9
$SAVEIMAGES
 70
     1
  0
ENDSEC
  0
SECTION
  2
CLASSES
  0
CLASS
  1
DICTIONARYVAR
  2
AcDbDictionaryVar
  3
ObjectDBX Classes
 90
        0
280
     0
281
     0
  0
CLASS
  1
IDBUFFER
  2
AcDbIdBuffer
  3
ObjectDBX Classes
 90
    32768
280
     0
281
     0
  0
CLASS
  1
LWPOLYLINE
  2
AcDbPolyline
  3
ObjectDBX Classes
 90
    32768
280
     0
281
     1
  0
CLASS
  1
ACDBDICTIONARYWDFLT
  2
AcDbDictionaryWithDefault
  3
ObjectDBX Classes
 90
    32768
280
     0
281
     0
  0
CLASS
  1
ACDBPLACEHOLDER
  2
AcDbPlaceHolder
  3
ObjectDBX Classes
 90
        0
280
     0
281
     0
  0
CLASS
  1
LAYOUT
  2
AcDbLayout
  3
ObjectDBX Classes
 90
        0
280
     0
281
     0
  0
CLASS
  1
TABLESTYLE
  2
AcDbTableStyle
  3
ObjectDBX Classes
 90
     4095
280
     0
281
     0
  0
CLASS
  1
SORTENTSTABLE
  2
AcDbSortentsTable
  3
ObjectDBX Classes
 90
    32768
280
     0
281
     0
  0
CLASS
  1
DIMASSOC
  2
AcDbDimAssoc
  3
"AcDbDimAssoc|Product Desc:     AcDim ARX App For Dimension|Company:          Autodesk, Inc.|WEB Address:      www.autodesk.com"
 90
        0
280
     0
281
     0
  0
CLASS
  1
MATERIAL
  2
AcDbMaterial
  3
ObjectDBX Classes
 90
     1153
280
     0
281
     0
  0
CLASS
  1
VISUALSTYLE
  2
AcDbVisualStyle
  3
ObjectDBX Classes
 90
     4095
280
     0
281
     0
  0
CLASS
  1
SCALE
  2
AcDbScale
  3
ObjectDBX Classes
 90
     1153
280
     0
281
     0
  0
CLASS
  1
MLEADERSTYLE
  2
AcDbMLeaderStyle
  3
ACDB_MLEADERSTYLE_CLASS
 90
     4095
280
     0
281
     0
  0
CLASS
  1
CELLSTYLEMAP
  2
AcDbCellStyleMap
  3
ObjectDBX Classes
 90
     1152
280
     0
281
     0
  0
CLASS
  1
EXACXREFPANELOBJECT
  2
ExAcXREFPanelObject
  3
EXAC_ESW
 90
     1025
280
     1
281
     0
  0
CLASS
  1
NPOCOLLECTION
  2
AcDbImpNonPersistentObjectsCollection
  3
ObjectDBX Classes
 90
     1153
280
     1
281
     0
  0
CLASS
  1
SUN
  2
AcDbSun
  3
SCENEOE
 90
     1153
280
     0
281
     0
  0
CLASS
  1
XRECORD
  2
AcDbXrecord
  3
ObjectDBX Classes
 90
    32768
280
     0
281
     0
  0
CLASS
  1
HATCH
  2
AcDbHatch
  3
ObjectDBX Classes
 90
    32768
280
     0
281
     1
  0
ENDSEC
  0
SECTION
  2
TABLES
  0
TABLE
  2
VPORT
  5
8
330
0
100
AcDbSymbolTable
 70
     1
  0
VPORT
  5
19DC2
330
8
100
AcDbSymbolTableRecord
100
AcDbViewportTableRecord
  2
*ACTIVE
 70
     0
 10
0.0
 20
0.0
 11
1.0
 21
1.0
 12
481.3966305003709
 22
-594.1426122618785
 13
0.0
 23
0.0
 14
10.0
 24
10.0
 15
10.0
 25
10.0
 16
0.0
 26
0.0
 36
1.0
 17
0.0
 27
0.0
 37
0.0
 40
303.3190411508792
 41
1.803066037735849
 42
50.0
 43
0.0
 44
0.0
 50
0.0
 51
0.0
 71
    16
 72
   100
 73
     1
 74
     1
 75
     0
 76
     1
 77
     0
 78
     0
1001
ACAD_NAV_VCDISPLAY
1070
     3
  0
ENDTAB
  0
TABLE
  2
LTYPE
  5
5
330
0
100
AcDbSymbolTable
 70
     3
  0
LTYPE
  5
12
330
5
100
AcDbSymbolTableRecord
100
AcDbLinetypeTableRecord
  2
BYBLOCK
 70
     0
  3

 72
    65
 73
     0
 40
0.0
  0
LTYPE
  5
13
330
5
100
AcDbSymbolTableRecord
100
AcDbLinetypeTableRecord
  2
BYLAYER
 70
     0
  3

 72
    65
 73
     0
 40
0.0
  0
LTYPE
  5
14
330
5
100
AcDbSymbolTableRecord
100
AcDbLinetypeTableRecord
  2
CONTINUOUS
 70
     0
  3
Solid line
 72
    65
 73
     0
 40
0.0
  0
LTYPE
  5
26
330
5
100
AcDbSymbolTableRecord
100
AcDbLinetypeTableRecord
  2
CENTER2
 70
     0
  3
Center (.5x) ___ _ ___ _ ___ _ ___ _ ___ _ ___
 72
    65
 73
     4
 40
28.575
 49
19.05
 74
     0
 49
-3.175
 74
     0
 49
3.175
 74
     0
 49
-3.175
 74
     0
  0
LTYPE
  5
100
330
5
100
AcDbSymbolTableRecord
100
AcDbLinetypeTableRecord
  2
PHANTOM2
 70
     0
  3
Phantom (0.5x) ___ _ _ ___ _ _ ___ _ _ ___ _ _
 72
    65
 73
     6
 40
31.75
 49
15.875
 74
     0
 49
-3.175
 74
     0
 49
3.175
 74
     0
 49
-3.175
 74
     0
 49
3.175
 74
     0
 49
-3.175
 74
     0
  0
ENDTAB
  0
TABLE
  2
LAYER
  5
2
102
{ACAD_XDICTIONARY
360
18FE8
102
}
330
0
100
AcDbSymbolTable
 70
     7
  0
LAYER
  5
E
102
{ACAD_XDICTIONARY
360
1A20A
102
}
330
2
100
AcDbSymbolTableRecord
100
AcDbLayerTableRecord
  2
0
 70
     0
 62
     7
  6
CONTINUOUS
  0
LAYER
  5
29
102
{ACAD_XDICTIONARY
360
1A20C
102
}
330
2
100
AcDbSymbolTableRecord
100
AcDbLayerTableRecord
  2
1CENTER
 70
     0
 62
     7
  6
CENTER2
  0
LAYER
  5
31
102
{ACAD_XDICTIONARY
360
1A20E
102
}
330
2
100
AcDbSymbolTableRecord
100
AcDbLayerTableRecord
  2
1TEXT
 70
     0
 62
     7
  6
CONTINUOUS
  0
LAYER
  5
101
102
{ACAD_XDICTIONARY
360
1A218
102
}
330
2
100
AcDbSymbolTableRecord
100
AcDbLayerTableRecord
  2
1DIM
 70
     0
 62
     7
  6
CONTINUOUS
  0
LAYER
  5
103
102
{ACAD_XDICTIONARY
360
1A21C
102
}
330
2
100
AcDbSymbolTableRecord
100
AcDbLayerTableRecord
  2
1PHANTOM
 70
     0
 62
     7
  6
PHANTOM2
  0
LAYER
  5
25F
102
{ACAD_XDICTIONARY
360
1A220
102
}
330
2
100
AcDbSymbolTableRecord
100
AcDbLayerTableRecord
  2
01
 70
     0
 62
     1
  6
CONTINUOUS
  0
LAYER
  5
26A
102
{ACAD_XDICTIONARY
360
1A236
102
}
330
2
100
AcDbSymbolTableRecord
100
AcDbLayerTableRecord
  2
1DIM1
 70
     0
 62
     7
  6
CONTINUOUS
  0
ENDTAB
  0
TABLE
  2
STYLE
  5
3
330
0
100
AcDbSymbolTable
 70
     1
  0
STYLE
  5
F
330
3
100
AcDbSymbolTableRecord
100
AcDbTextStyleTableRecord
  2
STANDARD
 70
     0
 40
0.0
 41
1.0
 50
0.0
 71
     0
 42
4.0
  3
txt.shx
  4
extfont.shx
  0
ENDTAB
  0
TABLE
  2
VIEW
  5
6
330
0
100
AcDbSymbolTable
 70
     0
  0
ENDTAB
  0
TABLE
  2
UCS
  5
7
330
0
100
AcDbSymbolTable
 70
     0
  0
ENDTAB
  0
TABLE
  2
APPID
  5
9
330
0
100
AcDbSymbolTable
 70
    20
  0
APPID
  5
10
330
9
100
AcDbSymbolTableRecord
100
AcDbRegAppTableRecord
  2
ACAD
 70
     0
  0
APPID
  5
21
330
9
100
AcDbSymbolTableRecord
100
AcDbRegAppTableRecord
  2
DRAWINGVARIABLESXDATA
 70
     0
  0
APPID
  5
64
330
9
100
AcDbSymbolTableRecord
100
AcDbRegAppTableRecord
  2
CONTENTTABDATA
 70
     0
  0
APPID
  5
65
330
9
100
AcDbSymbolTableRecord
100
AcDbRegAppTableRecord
  2
CONTENTCURRENTTAB
 70
     0
  0
APPID
  5
66
330
9
100
AcDbSymbolTableRecord
100
AcDbRegAppTableRecord
  2
CONTENTBLOCKDESCRIPTION
 70
     0
  0
APPID
  5
67
330
9
100
AcDbSymbolTableRecord
100
AcDbRegAppTableRecord
  2
CONTENTBLOCKICON
 70
     0
  0
APPID
  5
68
330
9
100
AcDbSymbolTableRecord
100
AcDbRegAppTableRecord
  2
CONTENTLONGBLOCKNAME
 70
     0
  0
APPID
  5
5A9
330
9
100
AcDbSymbolTableRecord
100
AcDbRegAppTableRecord
  2
ACAD_PSEXT
 70
     0
  0
APPID
  5
18AC
330
9
100
AcDbSymbolTableRecord
100
AcDbRegAppTableRecord
  2
ACAD_DSTYLE_DIMTEXT_FILL
 70
     0
  0
APPID
  5
19E1A
330
9
100
AcDbSymbolTableRecord
100
AcDbRegAppTableRecord
  2
ACAD_MLEADERVER
 70
     0
  0
APPID
  5
1A2FA
330
9
100
AcDbSymbolTableRecord
100
AcDbRegAppTableRecord
  2
ACAD_DSTYLE_DIMRADIAL_EXTE
 70
     0
  0
APPID
  5
1DBC1
330
9
100
AcDbSymbolTableRecord
100
AcDbRegAppTableRecord
  2
ACADANNOTATIVE
 70
     0
  0
APPID
  5
1E991
330
9
100
AcDbSymbolTableRecord
100
AcDbRegAppTableRecord
  2
ACAD_EXEMPT_FROM_CAD_STAND
 70
     0
  0
APPID
  5
202C7
330
9
100
AcDbSymbolTableRecord
100
AcDbRegAppTableRecord
  2
ACDBBLOCKREPETAG
 70
     0
  0
APPID
  5
20AA7
330
9
100
AcDbSymbolTableRecord
100
AcDbRegAppTableRecord
  2
ACAD_OBJECT_CHANGE_GUID
 70
     0
  0
APPID
  5
20B32
330
9
100
AcDbSymbolTableRecord
100
AcDbRegAppTableRecord
  2
ACAD_NAV_VCDISPLAY
 70
     0
  0
APPID
  5
20BBB
330
9
100
AcDbSymbolTableRecord
100
AcDbRegAppTableRecord
  2
ACLAYERTOOLS
 70
     0
  0
APPID
  5
20BBC
330
9
100
AcDbSymbolTableRecord
100
AcDbRegAppTableRecord
  2
ACAD_SPLINE_DATA
 70
     0
  0
APPID
  5
20BBD
330
9
100
AcDbSymbolTableRecord
100
AcDbRegAppTableRecord
  2
GRADIENTCOLOR1ACI
 70
     0
  0
APPID
  5
20BBE
330
9
100
AcDbSymbolTableRecord
100
AcDbRegAppTableRecord
  2
GRADIENTCOLOR2ACI
 70
     0
  0
ENDTAB
  0
TABLE
  2
DIMSTYLE
  5
A
330
0
100
AcDbSymbolTable
 70
     1
  0
DIMSTYLE
105
48
330
A
100
AcDbSymbolTableRecord
100
AcDbDimStyleTableRecord
  2
NEWX10
 70
     0
  3
 
  4

  5

  6
OPEN30
  7
OPEN30
 40
1.0
 41
2.0
 42
0.0
 43
7.0
 44
1.0
 45
0.0
 46
0.0
 47
0.0
 48
0.0
140
3.5
141
0.0
142
0.0
143
25.4
144
1.0
145
0.0
146
0.7
147
0.7
 71
     0
 72
     0
 73
     0
 74
     0
 75
     0
 76
     0
 77
     1
 78
     8
170
     0
171
     2
172
     1
173
     1
174
     0
175
     0
176
   256
177
   256
178
   201
179
     2
270
     2
271
     2
272
     4
273
     2
274
     2
340
F
275
     0
280
     0
281
     0
282
     0
283
     1
284
     8
285
     0
286
     0
287
     2
288
     0
  0
ENDTAB
  0
TABLE
  2
BLOCK_RECORD
  5
1
330
0
100
AcDbSymbolTable
 70
     8
  0
BLOCK_RECORD
  5
18
102
{ACAD_XDICTIONARY
360
6E9
102
}
330
1
100
AcDbSymbolTableRecord
100
AcDbBlockTableRecord
  2
*MODEL_SPACE
  0
BLOCK_RECORD
  5
15
102
{ACAD_XDICTIONARY
360
59B
102
}
330
1
100
AcDbSymbolTableRecord
100
AcDbBlockTableRecord
  2
*PAPER_SPACE
  0
BLOCK_RECORD
  5
42
330
1
100
AcDbSymbolTableRecord
100
AcDbBlockTableRecord
  2
_OPEN30
  0
BLOCK_RECORD
  5
20316
330
1
100
AcDbSymbolTableRecord
100
AcDbBlockTableRecord
  2
A3WAKUKAWAJUN2017_HYOUDAI_
  0
BLOCK_RECORD
  5
22513
330
1
100
AcDbSymbolTableRecord
100
AcDbBlockTableRecord
  2
*X24
  0
BLOCK_RECORD
  5
22561
330
1
100
AcDbSymbolTableRecord
100
AcDbBlockTableRecord
  2
*X25
  0
BLOCK_RECORD
  5
225B3
330
1
100
AcDbSymbolTableRecord
100
AcDbBlockTableRecord
  2
*X26
  0
BLOCK_RECORD
  5
22604
330
1
100
AcDbSymbolTableRecord
100
AcDbBlockTableRecord
  2
*X27
  0
BLOCK_RECORD
  5
22641
330
1
100
AcDbSymbolTableRecord
100
AcDbBlockTableRecord
  2
*X28
  0
BLOCK_RECORD
  5
22681
330
1
100
AcDbSymbolTableRecord
100
AcDbBlockTableRecord
  2
*X29
  0
ENDTAB
  0
ENDSEC
  0
SECTION
  2
BLOCKS
  0
BLOCK
  5
19
330
18
100
AcDbEntity
  8
0
100
AcDbBlockBegin
  2
*MODEL_SPACE
 70
     0
 10
0.0
 20
0.0
 30
0.0
  3
*MODEL_SPACE
  1

  0
ENDBLK
  5
1A
330
18
100
AcDbEntity
  8
0
100
AcDbBlockEnd
  0
BLOCK
  5
16
330
15
100
AcDbEntity
 67
     1
  8
0
100
AcDbBlockBegin
  2
*PAPER_SPACE
 70
     0
 10
0.0
 20
0.0
 30
0.0
  3
*PAPER_SPACE
  1

  0
ENDBLK
  5
17
330
15
100
AcDbEntity
 67
     1
  8
0
100
AcDbBlockEnd
  0
BLOCK
  5
43
330
42
100
AcDbEntity
  8
0
100
AcDbBlockBegin
  2
_OPEN30
 70
     0
 10
0.0
 20
0.0
 30
0.0
  3
_OPEN30
  1

  0
LINE
  5
44
330
42
100
AcDbEntity
  8
0
  6
BYBLOCK
 62
     0
100
AcDbLine
 10
-1.0
 20
0.26794919
 30
0.0
 11
0.0
 21
0.0
 31
0.0
  0
LINE
  5
45
330
42
100
AcDbEntity
  8
0
  6
BYBLOCK
 62
     0
100
AcDbLine
 10
0.0
 20
0.0
 30
0.0
 11
-1.0
 21
-0.26794919
 31
0.0
  0
LINE
  5
46
330
42
100
AcDbEntity
  8
0
  6
BYBLOCK
 62
     0
100
AcDbLine
 10
0.0
 20
0.0
 30
0.0
 11
-1.0
 21
0.0
 31
0.0
  0
ENDBLK
  5
47
330
42
100
AcDbEntity
  8
0
100
AcDbBlockEnd
  0
BLOCK
  5
20A15
330
20316
100
AcDbEntity
  8
0
100
AcDbBlockBegin
  2
A3WAKUKAWAJUN2017_HYOUDAI_
 70
     0
 10
0.0
 20
0.0
 30
0.0
  3
A3WAKUKAWAJUN2017_HYOUDAI_
  1

  0
LINE
  5
20318
330
20316
100
AcDbEntity
  8
0
100
AcDbLine
 10
13.26299999998673
 20
-0.0001000000000317
 30
0.0
 11
9.236999999990758
 21
8.999899999990987
 31
0.0
1001
ACAD
1000
ASC_BOUNDS
1002
{
1070
    19
1005
20359
1002
}
  0
LINE
  5
20319
330
20316
100
AcDbEntity
  8
0
100
AcDbLine
 10
5.657999999994331
 20
0.9999999999989768
 30
0.0
 11
9.236999999990758
 21
8.999999999991019
 31
0.0
1001
ACAD
1000
ASC_BOUNDS
1002
{
1070
    19
1005
20359
1002
}
  0
LINE
  5
2031A
330
20316
100
AcDbEntity
  8
0
100
AcDbLine
 10
18.59199999998134
 20
-0.2368999999997641
 30
0.0
 11
16.46099999998353
 21
5.432899999994561
 31
0.0
1001
ACAD
1000
ASC_BOUNDS
1002
{
1070
    19
1005
2035A
1002
}
  0
LINE
  5
2031B
330
20316
100
AcDbEntity
  8
0
100
AcDbLine
 10
18.59199999998134
 20
-0.2368999999997641
 30
0.0
 11
22.38199999997767
 21
8.763099999991255
 31
0.0
1001
ACAD
1000
ASC_BOUNDS
1002
{
1070
    19
1005
2035A
1002
}
  0
LINE
  5
2031C
330
20316
100
AcDbEntity
  8
0
100
AcDbLine
 10
14.32899999998563
 20
-0.2368999999997641
 30
0.0
 11
16.46099999998353
 21
5.432899999994561
 31
0.0
1001
ACAD
1000
ASC_BOUNDS
1002
{
1070
    19
1005
2035A
1002
}
  0
LINE
  5
2031D
330
20316
100
AcDbEntity
  8
0
100
AcDbLine
 10
14.32899999998563
 20
-0.2368999999997641
 30
0.0
 11
10.53899999998941
 21
8.763099999991255
 31
0.0
1001
ACAD
1000
ASC_BOUNDS
1002
{
1070
    19
1005
2035A
1002
}
  0
LINE
  5
2031E
330
20316
100
AcDbEntity
  8
0
100
AcDbLine
 10
19.53899999998043
 20
-0.0001000000000317
 30
0.0
 11
23.56599999997638
 21
8.999899999990987
 31
0.0
1001
ACAD
1000
ASC_BOUNDS
1002
{
1070
    19
1005
2035B
1002
}
  0
LINE
  5
2031F
330
20316
100
AcDbEntity
  8
0
100
AcDbLine
 10
26.97358892824991
 20
1.383099999991202
 30
0.0
 11
23.56599999997638
 21
8.999899999990987
 31
0.0
1001
ACAD
1000
ASC_BOUNDS
1002
{
1070
    19
1005
2035B
1002
}
  0
LINE
  5
20320
330
20316
100
AcDbEntity
  8
0
100
AcDbLine
 10
5.657999999994331
 20
0.9999999999989768
 30
0.0
 11
3.181999999996833
 21
4.668599999995308
 31
0.0
1001
ACAD
1000
ASC_BOUNDS
1002
{
1070
    19
1005
20359
1002
}
  0
LINE
  5
20321
330
20316
100
AcDbEntity
  8
0
100
AcDbLine
 10
4.617999999995391
 20
-0.0001000000000317
 30
0.0
 11
1.420999999998571
 21
4.736799999995242
 31
0.0
1001
ACAD
1000
ASC_BOUNDS
1002
{
1070
    19
1005
20359
1002
}
  0
LINE
  5
20322
330
20316
100
AcDbEntity
  8
0
100
AcDbLine
 10
1.420999999998571
 20
8.763099999991255
 30
0.0
 11
1.420999999998571
 21
0.0
 31
0.0
1001
ACAD
1000
ASC_BOUNDS
1002
{
1070
    19
1005
2035E
1002
}
  0
LINE
  5
20323
330
20316
100
AcDbEntity
  8
0
100
AcDbLine
 10
0.0
 20
8.763099999991255
 30
0.0
 11
0.0
 21
0.0
 31
0.0
1001
ACAD
1000
ASC_BOUNDS
1002
{
1070
    19
1005
2035E
1002
}
  0
LINE
  5
20324
330
20316
100
AcDbEntity
  8
0
100
AcDbLine
 10
6.766999999993232
 20
-0.0001000000000317
 30
0.0
 11
7.826999999992154
 21
2.368399999997621
 31
0.0
1001
ACAD
1000
ASC_BOUNDS
1002
{
1070
    19
1005
20359
1002
}
  0
LINE
  5
20325
330
20316
100
AcDbEntity
  8
0
100
AcDbLine
 10
0.0
 20
0.0
 30
0.0
 11
1.420999999998571
 21
0.0
 31
0.0
1001
ACAD
1000
ASC_BOUNDS
1002
{
1070
    19
1005
2035E
1002
}
  0
LINE
  5
20326
330
20316
100
AcDbEntity
  8
0
100
AcDbLine
 10
4.617999999995391
 20
0.0
 30
0.0
 11
6.766999999993232
 21
0.0
 31
0.0
1001
ACAD
1000
ASC_BOUNDS
1002
{
1070
    19
1005
20359
1002
}
  0
LINE
  5
20327
330
20316
100
AcDbEntity
  8
0
100
AcDbLine
 10
11.70599999998831
 20
-0.0001000000000317
 30
0.0
 11
10.64699999998936
 21
2.368399999997621
 31
0.0
1001
ACAD
1000
ASC_BOUNDS
1002
{
1070
    19
1005
20359
1002
}
  0
LINE
  5
20328
330
20316
100
AcDbEntity
  8
0
100
AcDbLine
 10
7.826999999992154
 20
2.368399999997621
 30
0.0
 11
10.64699999998936
 21
2.368399999997621
 31
0.0
1001
ACAD
1000
ASC_BOUNDS
1002
{
1070
    19
1005
20359
1002
}
  0
LINE
  5
20329
330
20316
100
AcDbEntity
  8
0
100
AcDbLine
 10
11.70599999998831
 20
0.0
 30
0.0
 11
13.26299999998673
 21
0.0
 31
0.0
1001
ACAD
1000
ASC_BOUNDS
1002
{
1070
    19
1005
20359
1002
}
  0
LINE
  5
2032A
330
20316
100
AcDbEntity
  8
0
100
AcDbLine
 10
22.15599999997789
 20
2.368399999997621
 30
0.0
 11
24.97599999997499
 21
2.368399999997621
 31
0.0
1001
ACAD
1000
ASC_BOUNDS
1002
{
1070
    19
1005
2035B
1002
}
  0
LINE
  5
2032B
330
20316
100
AcDbEntity
  8
0
100
AcDbLine
 10
19.53899999998043
 20
0.0
 30
0.0
 11
21.09599999997886
 21
0.0
 31
0.0
1001
ACAD
1000
ASC_BOUNDS
1002
{
1070
    19
1005
2035B
1002
}
  0
LINE
  5
2032C
330
20316
100
AcDbEntity
  8
0
100
AcDbLine
 10
21.09599999997886
 20
-0.0001000000000317
 30
0.0
 11
22.15599999997789
 21
2.368399999997621
 31
0.0
1001
ACAD
1000
ASC_BOUNDS
1002
{
1070
    19
1005
2035B
1002
}
  0
LINE
  5
2032D
330
20316
100
AcDbEntity
  8
0
100
AcDbLine
 10
26.02015566812236
 20
0.0330999999912365
 30
0.0
 11
24.97599999997499
 21
2.368399999997621
 31
0.0
1001
ACAD
1000
ASC_BOUNDS
1002
{
1070
    19
1005
2035B
1002
}
  0
LINE
  5
2032E
330
20316
100
AcDbEntity
  8
0
100
AcDbLine
 10
14.32399999998563
 20
3.315799999996671
 30
0.0
 11
16.46099999998353
 21
8.999899999990987
 31
0.0
1001
ACAD
1000
ASC_BOUNDS
1002
{
1070
    19
1005
2035A
1002
}
  0
LINE
  5
2032F
330
20316
100
AcDbEntity
  8
0
100
AcDbLine
 10
6.432999999993513
 20
8.763099999991255
 30
0.0
 11
3.181999999996833
 21
4.668599999995308
 31
0.0
1001
ACAD
1000
ASC_BOUNDS
1002
{
1070
    19
1005
20359
1002
}
  0
LINE
  5
20330
330
20316
100
AcDbEntity
  8
0
100
AcDbLine
 10
4.617999999995391
 20
8.763099999991255
 30
0.0
 11
1.420999999998571
 21
4.736799999995242
 31
0.0
1001
ACAD
1000
ASC_BOUNDS
1002
{
1070
    19
1005
20359
1002
}
  0
LINE
  5
20331
330
20316
100
AcDbEntity
  8
0
100
AcDbLine
 10
0.0
 20
8.763099999991255
 30
0.0
 11
1.420999999998571
 21
8.763099999991255
 31
0.0
1001
ACAD
1000
ASC_BOUNDS
1002
{
1070
    19
1005
2035E
1002
}
  0
LINE
  5
20332
330
20316
100
AcDbEntity
  8
0
100
AcDbLine
 10
4.617999999995391
 20
8.763099999991255
 30
0.0
 11
6.432999999993513
 21
8.763099999991255
 31
0.0
1001
ACAD
1000
ASC_BOUNDS
1002
{
1070
    19
1005
20359
1002
}
  0
LINE
  5
20333
330
20316
100
AcDbEntity
  8
0
100
AcDbLine
 10
14.32399999998563
 20
3.315799999996671
 30
0.0
 11
12.02999999998792
 21
8.763099999991255
 31
0.0
1001
ACAD
1000
ASC_BOUNDS
1002
{
1070
    19
1005
2035A
1002
}
  0
LINE
  5
20334
330
20316
100
AcDbEntity
  8
0
100
AcDbLine
 10
10.06399999998996
 20
3.670999999996297
 30
0.0
 11
9.236999999990758
 21
5.5200999999945
 31
0.0
1001
ACAD
1000
ASC_BOUNDS
1002
{
1070
    19
1005
20359
1002
}
  0
LINE
  5
20335
330
20316
100
AcDbEntity
  8
0
100
AcDbLine
 10
8.409999999991555
 20
3.670999999996297
 30
0.0
 11
9.236999999990758
 21
5.5200999999945
 31
0.0
1001
ACAD
1000
ASC_BOUNDS
1002
{
1070
    19
1005
20359
1002
}
  0
LINE
  5
20336
330
20316
100
AcDbEntity
  8
0
100
AcDbLine
 10
8.409999999991555
 20
3.670999999996297
 30
0.0
 11
10.06399999998996
 21
3.670999999996297
 31
0.0
1001
ACAD
1000
ASC_BOUNDS
1002
{
1070
    19
1005
20359
1002
}
  0
LINE
  5
20337
330
20316
100
AcDbEntity
  8
0
100
AcDbLine
 10
10.53899999998941
 20
8.763099999991255
 30
0.0
 11
12.02999999998792
 21
8.763099999991255
 31
0.0
1001
ACAD
1000
ASC_BOUNDS
1002
{
1070
    19
1005
2035A
1002
}
  0
LINE
  5
20338
330
20316
100
AcDbEntity
  8
0
100
AcDbLine
 10
22.7389999999773
 20
3.670999999996297
 30
0.0
 11
23.56599999997638
 21
5.5200999999945
 31
0.0
1001
ACAD
1000
ASC_BOUNDS
1002
{
1070
    19
1005
2035B
1002
}
  0
LINE
  5
20339
330
20316
100
AcDbEntity
  8
0
100
AcDbLine
 10
22.7389999999773
 20
3.670999999996297
 30
0.0
 11
24.39299999997559
 21
3.670999999996297
 31
0.0
1001
ACAD
1000
ASC_BOUNDS
1002
{
1070
    19
1005
2035B
1002
}
  0
LINE
  5
2033A
330
20316
100
AcDbEntity
  8
0
100
AcDbLine
 10
18.59799999998143
 20
3.315799999996671
 30
0.0
 11
20.89099999997916
 21
8.763099999991255
 31
0.0
1001
ACAD
1000
ASC_BOUNDS
1002
{
1070
    19
1005
2035A
1002
}
  0
LINE
  5
2033B
330
20316
100
AcDbEntity
  8
0
100
AcDbLine
 10
18.59799999998143
 20
3.315799999996671
 30
0.0
 11
16.46099999998353
 21
8.999899999990987
 31
0.0
1001
ACAD
1000
ASC_BOUNDS
1002
{
1070
    19
1005
2035A
1002
}
  0
LINE
  5
2033C
330
20316
100
AcDbEntity
  8
0
100
AcDbLine
 10
20.89099999997916
 20
8.763099999991255
 30
0.0
 11
22.38199999997767
 21
8.763099999991255
 31
0.0
1001
ACAD
1000
ASC_BOUNDS
1002
{
1070
    19
1005
2035A
1002
}
  0
LINE
  5
2033D
330
20316
100
AcDbEntity
  8
0
100
AcDbLine
 10
24.39299999997559
 20
3.670999999996297
 30
0.0
 11
23.56599999997638
 21
5.5200999999945
 31
0.0
1001
ACAD
1000
ASC_BOUNDS
1002
{
1070
    19
1005
2035B
1002
}
  0
LINE
  5
2033E
330
20316
100
AcDbEntity
  8
0
100
AcDbLine
 10
44.99999999995498
 20
-0.2368999999997641
 30
0.0
 11
40.02599999995994
 21
5.341799999994635
 31
0.0
1001
ACAD
1000
ASC_BOUNDS
1002
{
1070
    19
1005
2035D
1002
}
  0
LINE
  5
2033F
330
20316
100
AcDbEntity
  8
0
100
AcDbLine
 10
40.02599999995994
 20
5.341799999994635
 30
0.0
 11
40.02599999995994
 21
0.0
 31
0.0
1001
ACAD
1000
ASC_BOUNDS
1002
{
1070
    19
1005
2035D
1002
}
  0
LINE
  5
20340
330
20316
100
AcDbEntity
  8
0
100
AcDbLine
 10
38.60499999996136
 20
8.999999999991019
 30
0.0
 11
38.60499999996136
 21
0.0
 31
0.0
1001
ACAD
1000
ASC_BOUNDS
1002
{
1070
    19
1005
2035D
1002
}
  0
LINE
  5
20341
330
20316
100
AcDbEntity
  8
0
100
AcDbLine
 10
44.99999999995498
 20
8.763099999991255
 30
0.0
 11
44.99999999995498
 21
-0.2368999999997641
 31
0.0
1001
ACAD
1000
ASC_BOUNDS
1002
{
1070
    19
1005
2035D
1002
}
  0
LINE
  5
20342
330
20316
100
AcDbEntity
  8
0
100
AcDbLine
 10
38.60499999996136
 20
0.0
 30
0.0
 11
40.02599999995994
 21
0.0
 31
0.0
1001
ACAD
1000
ASC_BOUNDS
1002
{
1070
    19
1005
2035D
1002
}
  0
LINE
  5
20343
330
20316
100
AcDbEntity
  8
0
100
AcDbLine
 10
43.57899999995641
 20
3.421199999996588
 30
0.0
 11
38.60499999996136
 21
8.999899999990987
 31
0.0
1001
ACAD
1000
ASC_BOUNDS
1002
{
1070
    19
1005
2035D
1002
}
  0
LINE
  5
20344
330
20316
100
AcDbEntity
  8
0
100
AcDbLine
 10
43.57899999995641
 20
8.763099999991255
 30
0.0
 11
43.57899999995641
 21
3.421199999996588
 31
0.0
1001
ACAD
1000
ASC_BOUNDS
1002
{
1070
    19
1005
2035D
1002
}
  0
LINE
  5
20345
330
20316
100
AcDbEntity
  8
0
100
AcDbLine
 10
43.57899999995641
 20
8.763099999991255
 30
0.0
 11
44.99999999995498
 21
8.763099999991255
 31
0.0
1001
ACAD
1000
ASC_BOUNDS
1002
{
1070
    19
1005
2035D
1002
}
  0
LINE
  5
20346
330
20316
100
AcDbEntity
  8
0
100
AcDbLine
 10
37.67199999996831
 20
8.763099999991255
 30
0.0
 11
36.23199999996837
 21
8.763099999991255
 31
0.0
  0
LINE
  5
20347
330
20316
100
AcDbEntity
  8
0
100
AcDbLine
 10
31.64199999996833
 20
8.763099999991255
 30
0.0
 11
31.64199999996833
 21
2.481619422925121
 31
0.0
  0
LINE
  5
20348
330
20316
100
AcDbEntity
  8
0
100
AcDbLine
 10
37.67199999996831
 20
8.763099999991255
 30
0.0
 11
37.67199999996831
 21
2.481619422925121
 31
0.0
  0
LINE
  5
20349
330
20316
100
AcDbEntity
  8
0
100
AcDbLine
 10
36.23199999996837
 20
8.763099999991255
 30
0.0
 11
36.23199999996837
 21
2.481619422925064
 31
0.0
  0
LINE
  5
2034A
330
20316
100
AcDbEntity
  8
0
100
AcDbLine
 10
33.08199999996839
 20
8.763099999991255
 30
0.0
 11
33.08199999996839
 21
2.481619422925121
 31
0.0
  0
ARC
  5
2034B
330
20316
100
AcDbEntity
  8
0
100
AcDbCircle
 10
34.65699999996832
 20
3.183099999991214
 30
0.0
 40
3.420000000000007
100
AcDbArc
 50
240.0000000000255
 51
299.9999999999766
  0
ARC
  5
2034C
330
20316
100
AcDbEntity
  8
0
100
AcDbCircle
 10
34.65699999996832
 20
3.183099999991214
 30
0.0
 40
1.97999999999999
100
AcDbArc
 50
240.000000000026
 51
299.9999999999703
  0
LINE
  5
2034D
330
20316
100
AcDbEntity
  8
0
100
AcDbLine
 10
33.08199999996828
 20
8.763099999991255
 30
0.0
 11
31.64199999996833
 21
8.763099999991255
 31
0.0
  0
ARC
  5
2034E
330
20316
100
AcDbEntity
  8
0
100
AcDbCircle
 10
35.06199999996829
 20
2.481619422925064
 30
0.0
 40
1.17
100
AcDbArc
 50
299.9999999999699
 51
0.0
  0
ARC
  5
2034F
330
20316
100
AcDbEntity
  8
0
100
AcDbCircle
 10
34.25199999996835
 20
2.481619422925121
 30
0.0
 40
1.17
100
AcDbArc
 50
180.0
 51
240.0000000000238
  0
ARC
  5
20350
330
20316
100
AcDbEntity
  8
0
100
AcDbCircle
 10
35.06199999996841
 20
2.481619422925121
 30
0.0
 40
2.61
100
AcDbArc
 50
299.9999999999756
 51
0.0
  0
ARC
  5
20351
330
20316
100
AcDbEntity
  8
0
100
AcDbCircle
 10
34.25199999996835
 20
2.481619422925121
 30
0.0
 40
2.61
100
AcDbArc
 50
180.0
 51
240.0000000000244
  0
LINE
  5
20352
330
20316
100
AcDbEntity
  8
0
100
AcDbLine
 10
29.30199999996933
 20
8.763099999991255
 30
0.0
 11
30.74199999996927
 21
8.763099999991255
 31
0.0
1001
ACAD
1000
ASC_BOUNDS
1002
{
1070
    19
1005
2035B
1002
}
  0
LINE
  5
20353
330
20316
100
AcDbEntity
  8
0
100
AcDbLine
 10
30.74199999996927
 20
8.763099999991255
 30
0.0
 11
30.74199999996927
 21
2.373099999991211
 31
0.0
1001
ACAD
1000
ASC_BOUNDS
1002
{
1070
    19
1005
2035B
1002
}
  0
LINE
  5
20354
330
20316
100
AcDbEntity
  8
0
100
AcDbLine
 10
26.02015566812236
 20
0.0330999999912365
 30
0.0
 11
28.40199999996923
 21
0.0330999999912365
 31
0.0
1001
ACAD
1000
ASC_BOUNDS
1002
{
1070
    19
1005
2035B
1002
}
  0
LINE
  5
20355
330
20316
100
AcDbEntity
  8
0
100
AcDbLine
 10
29.30199999996933
 20
8.763099999991255
 30
0.0
 11
29.30199999996933
 21
2.283099999991236
 31
0.0
1001
ACAD
1000
ASC_BOUNDS
1002
{
1070
    19
1005
2035B
1002
}
  0
LINE
  5
20356
330
20316
100
AcDbEntity
  8
0
100
AcDbLine
 10
26.97358892824991
 20
1.383099999991202
 30
0.0
 11
28.40199999996923
 21
1.383099999991202
 31
0.0
1001
ACAD
1000
ASC_BOUNDS
1002
{
1070
    19
1005
2035B
1002
}
  0
ARC
  5
20357
330
20316
100
AcDbEntity
  8
0
100
AcDbCircle
 10
28.40199999996923
 20
2.283099999991236
 30
0.0
 40
0.9
100
AcDbArc
 50
270.0
 51
0.0
1001
ACAD
1000
ASC_BOUNDS
1002
{
1070
    19
1005
2035B
1002
}
  0
ARC
  5
20358
330
20316
100
AcDbEntity
  8
0
100
AcDbCircle
 10
28.40199999996923
 20
2.373099999991211
 30
0.0
 40
2.34
100
AcDbArc
 50
270.0
 51
0.0
1001
ACAD
1000
ASC_BOUNDS
1002
{
1070
    19
1005
2035B
1002
}
  0
INSERT
  5
20359
330
20316
100
AcDbEntity
  8
0
100
AcDbBlockReference
  2
*X24
 10
0.0
 20
0.0
 30
0.0
1001
ACAD
1000
HATCH
1002
{
1070
    19
1000
ANSI37
1040
0.15
1040
0.0
1000
ASC_BOUNDS
1070
     2
1070
     2
1070
    12
1005
20318
1005
20319
1005
20320
1005
2032F
1005
20332
1005
20330
1005
20321
1005
20326
1005
20324
1005
20328
1005
20327
1005
20329
1070
     2
1070
     3
1005
20334
1005
20336
1005
20335
1000
ASC_SEEDPOINT
1011
3.614004224891801
1021
2.996669441146025
1031
0.0
1000
R14_HATCH_DATA
1000
20359
1011
1.0
1021
0.0
1031
0.0
1011
0.0
1021
1.0
1031
0.0
1011
0.0
1021
0.0
1031
1.0
1040
0.0
1010
0.0
1020
0.0
1030
1.0
1000
ANSI37
1070
     0
1070
     1
1071
        2
1071
        7
1070
     0
1070
     1
1071
       17
1040
13.26299999998673
1040
-0.0001000000000317
1040
9.236999999990758
1040
8.999899999990987
1040
9.236999999990758
1040
8.999999999991019
1040
5.657999999994331
1040
0.9999999999989768
1040
3.181999999996833
1040
4.668599999995308
1040
6.432999999993513
1040
8.763099999991255
1040
4.617999999995391
1040
8.763099999991255
1040
1.420999999998571
1040
4.736799999995242
1040
4.617999999995391
1040
-0.0001000000000317
1040
4.617999999995391
1040
0.0
1040
6.766999999993232
1040
0.0
1040
6.766999999993232
1040
-0.0001000000000317
1040
7.826999999992154
1040
2.368399999997621
1040
10.64699999998936
1040
2.368399999997621
1040
11.70599999998831
1040
-0.0001000000000317
1040
11.70599999998831
1040
0.0
1040
13.26299999998673
1040
0.0
1071
       12
1005
20318
1005
20319
1005
20320
1005
2032F
1005
20332
1005
20330
1005
20321
1005
20326
1005
20324
1005
20328
1005
20327
1005
20329
1071
       22
1070
     0
1070
     1
1071
        3
1040
9.236999999990758
1040
5.5200999999945
1040
10.06399999998996
1040
3.670999999996297
1040
8.409999999991555
1040
3.670999999996297
1071
        3
1005
20334
1005
20336
1005
20335
1070
     0
1070
     1
1040
0.0
1040
0.15
1070
     0
1070
     2
1040
0.7853981633974483
1040
49.29960901727088
1040
-10.17736998311392
1040
-0.3367596045400932
1040
0.3367596045400932
1070
     0
1040
2.356194490192345
1040
49.29960901727088
1040
-10.17736998311392
1040
-0.3367596045400932
1040
-0.3367596045400932
1070
     0
1040
0.0110235143455945
1071
        2
1040
3.614004224891801
1040
2.996669441146025
1040
0.0
1040
3.614004224891801
1040
2.996669441146025
1040
0.0
1002
}
  0
INSERT
  5
2035A
330
20316
100
AcDbEntity
  8
0
100
AcDbBlockReference
  2
*X25
 10
0.0
 20
0.0
 30
0.0
1001
ACAD
1000
HATCH
1002
{
1070
    19
1000
ANSI37
1040
0.15
1040
0.0
1000
ASC_BOUNDS
1070
     1
1070
     2
1070
    10
1005
2031A
1005
2031B
1005
2033C
1005
2033A
1005
2033B
1005
2032E
1005
20333
1005
20337
1005
2031D
1005
2031C
1000
ASC_SEEDPOINT
1011
14.73245321214324
1021
2.798246178283421
1031
0.0
1000
R14_HATCH_DATA
1000
2035A
1011
1.0
1021
0.0
1031
0.0
1011
0.0
1021
1.0
1031
0.0
1011
0.0
1021
0.0
1031
1.0
1040
0.0
1010
0.0
1020
0.0
1030
1.0
1000
ANSI37
1070
     0
1070
     1
1071
        1
1071
        7
1070
     0
1070
     1
1071
       10
1040
16.46099999998353
1040
5.432899999994561
1040
18.59199999998134
1040
-0.2368999999997641
1040
22.38199999997767
1040
8.763099999991255
1040
20.89099999997916
1040
8.763099999991255
1040
18.59799999998143
1040
3.315799999996671
1040
16.46099999998353
1040
8.999899999990987
1040
14.32399999998563
1040
3.315799999996671
1040
12.02999999998792
1040
8.763099999991255
1040
10.53899999998941
1040
8.763099999991255
1040
14.32899999998563
1040
-0.2368999999997641
1071
       10
1005
2031A
1005
2031B
1005
2033C
1005
2033A
1005
2033B
1005
2032E
1005
20333
1005
20337
1005
2031D
1005
2031C
1070
     0
1070
     1
1040
0.0
1040
0.15
1070
     0
1070
     2
1040
0.7853981633974483
1040
49.29960901727088
1040
-10.17736998311392
1040
-0.3367596045400932
1040
0.3367596045400932
1070
     0
1040
2.356194490192345
1040
49.29960901727088
1040
-10.17736998311392
1040
-0.3367596045400932
1040
-0.3367596045400932
1070
     0
1040
0.0110235143455945
1071
        1
1040
14.73245321214324
1040
2.798246178283421
1040
0.0
1002
}
  0
INSERT
  5
2035B
330
20316
100
AcDbEntity
  8
0
100
AcDbBlockReference
  2
*X26
 10
0.0
 20
0.0
 30
0.0
1001
ACAD
1000
HATCH
1002
{
1070
    19
1000
ANSI37
1040
0.15
1040
0.0
1000
ASC_BOUNDS
1070
     2
1070
     2
1070
    13
1005
2031E
1005
2032B
1005
2032C
1005
2032A
1005
2032D
1005
20354
1005
20358
1005
20353
1005
20352
1005
20355
1005
20357
1005
20356
1005
2031F
1070
     2
1070
     3
1005
20338
1005
2033D
1005
20339
1000
ASC_SEEDPOINT
1011
21.97929957367762
1021
3.294304244259308
1031
0.0
1000
R14_HATCH_DATA
1000
2035B
1011
1.0
1021
0.0
1031
0.0
1011
0.0
1021
1.0
1031
0.0
1011
0.0
1021
0.0
1031
1.0
1040
0.0
1010
0.0
1020
0.0
1030
1.0
1000
ANSI37
1070
     0
1070
     1
1071
        2
1071
        7
1070
     1
1070
     1
1071
       15
1040
23.56599999997638
1040
8.999899999990987
1040
0.0
1040
19.53899999998043
1040
-0.0001000000000317
1040
0.0
1040
19.53899999998043
1040
0.0
1040
0.0
1040
21.09599999997886
1040
0.0
1040
0.0
1040
21.09599999997886
1040
-0.0001000000000317
1040
0.0
1040
22.15599999997789
1040
2.368399999997621
1040
0.0
1040
24.97599999997499
1040
2.368399999997621
1040
0.0
1040
26.02015566812236
1040
0.0330999999912365
1040
0.0
1040
28.40199999996923
1040
0.0330999999912365
1040
0.414213562373095
1040
30.74199999996923
1040
2.373099999991211
1040
0.0
1040
30.74199999996927
1040
8.763099999991255
1040
0.0
1040
29.30199999996933
1040
8.763099999991255
1040
0.0
1040
29.30199999996933
1040
2.283099999991236
1040
-0.414213562373095
1040
28.40199999996923
1040
1.383099999991237
1040
0.0
1040
26.97358892824991
1040
1.383099999991202
1040
0.0
1071
       13
1005
2031E
1005
2032B
1005
2032C
1005
2032A
1005
2032D
1005
20354
1005
20358
1005
20353
1005
20352
1005
20355
1005
20357
1005
20356
1005
2031F
1071
       22
1070
     0
1070
     1
1071
        3
1040
22.7389999999773
1040
3.670999999996297
1040
23.56599999997638
1040
5.5200999999945
1040
24.39299999997559
1040
3.670999999996297
1071
        3
1005
20338
1005
2033D
1005
20339
1070
     0
1070
     1
1040
0.0
1040
0.15
1070
     0
1070
     2
1040
0.7853981633974483
1040
49.29960901727088
1040
-10.17736998311392
1040
-0.3367596045400932
1040
0.3367596045400932
1070
     0
1040
2.356194490192345
1040
49.29960901727088
1040
-10.17736998311392
1040
-0.3367596045400932
1040
-0.3367596045400932
1070
     0
1040
0.0110235143455945
1071
        2
1040
21.97929957367762
1040
3.294304244259308
1040
0.0
1040
21.97929957367762
1040
3.294304244259308
1040
0.0
1002
}
  0
INSERT
  5
2035C
330
20316
100
AcDbEntity
  8
0
100
AcDbBlockReference
  2
*X27
 10
0.0
 20
0.0
 30
0.0
1001
ACAD
1000
HATCH
1002
{
1070
    19
1000
ANSI37
1040
0.15
1040
0.0
1000
R14_HATCH_DATA
1000
2035C
1011
1.0
1021
0.0
1031
0.0
1011
0.0
1021
1.0
1031
0.0
1011
0.0
1021
0.0
1031
1.0
1040
0.0
1010
0.0
1020
0.0
1030
1.0
1000
ANSI37
1070
     0
1070
     1
1071
        1
1071
        7
1070
     1
1070
     1
1071
       12
1040
31.64199999996833
1040
2.481619422925121
1040
0.2679491924310942
1040
32.94699999997067
1040
0.2212931190493919
1040
0.2679491924301353
1040
36.36699999995983
1040
0.2212931190459813
1040
0.2679491924321411
1040
37.67199999996831
1040
2.481619422928361
1040
0.0
1040
37.67199999996831
1040
8.763099999991255
1040
0.0
1040
36.23199999996837
1040
8.763099999991255
1040
0.0
1040
36.23199999996837
1040
2.481619422925064
1040
-0.2679491924310291
1040
35.64699999996708
1040
1.468369700498386
1040
-0.267949192430519
1040
33.66699999997093
1040
1.468369700497703
1040
-0.267949192431809
1040
33.08199999996839
1040
2.481619422926997
1040
0.0
1040
33.08199999996839
1040
8.763099999991255
1040
0.0
1040
31.64199999996833
1040
8.763099999991255
1040
0.0
1071
        0
1070
     0
1070
     1
1040
0.0
1040
0.15
1070
     0
1070
     2
1040
0.7853981633974483
1040
49.29960901727088
1040
-10.17736998311392
1040
-0.3367596045400932
1040
0.3367596045400932
1070
     0
1040
2.356194490192345
1040
49.29960901727088
1040
-10.17736998311392
1040
-0.3367596045400932
1040
-0.3367596045400932
1070
     0
1040
0.0110235143455945
1071
        1
1040
32.30357378967278
1040
3.988785755459219
1040
0.0
1002
}
  0
INSERT
  5
2035D
330
20316
100
AcDbEntity
  8
0
100
AcDbBlockReference
  2
*X28
 10
0.0
 20
0.0
 30
0.0
1001
ACAD
1000
HATCH
1002
{
1070
    19
1000
ANSI37
1040
0.15
1040
0.0
1000
ASC_BOUNDS
1070
     1
1070
     2
1070
     8
1005
2033E
1005
20341
1005
20345
1005
20344
1005
20343
1005
20340
1005
20342
1005
2033F
1000
ASC_SEEDPOINT
1011
39.74896370716704
1021
4.484843821435049
1031
0.0
1000
R14_HATCH_DATA
1000
2035D
1011
1.0
1021
0.0
1031
0.0
1011
0.0
1021
1.0
1031
0.0
1011
0.0
1021
0.0
1031
1.0
1040
0.0
1010
0.0
1020
0.0
1030
1.0
1000
ANSI37
1070
     0
1070
     1
1071
        1
1071
        7
1070
     0
1070
     1
1071
        9
1040
40.02599999995994
1040
5.341799999994635
1040
44.99999999995498
1040
-0.2368999999997641
1040
44.99999999995498
1040
8.763099999991255
1040
43.57899999995641
1040
8.763099999991255
1040
43.57899999995641
1040
3.421199999996588
1040
38.60499999996136
1040
8.999899999990987
1040
38.60499999996136
1040
8.999999999991019
1040
38.60499999996136
1040
0.0
1040
40.02599999995994
1040
0.0
1071
        8
1005
2033E
1005
20341
1005
20345
1005
20344
1005
20343
1005
20340
1005
20342
1005
2033F
1070
     0
1070
     1
1040
0.0
1040
0.15
1070
     0
1070
     2
1040
0.7853981633974483
1040
49.29960901727088
1040
-10.17736998311392
1040
-0.3367596045400932
1040
0.3367596045400932
1070
     0
1040
2.356194490192345
1040
49.29960901727088
1040
-10.17736998311392
1040
-0.3367596045400932
1040
-0.3367596045400932
1070
     0
1040
0.0110235143455945
1071
        1
1040
39.74896370716704
1040
4.484843821435049
1040
0.0
1002
}
  0
INSERT
  5
2035E
330
20316
100
AcDbEntity
  8
0
100
AcDbBlockReference
  2
*X29
 10
0.0
 20
0.0
 30
0.0
1001
ACAD
1000
HATCH
1002
{
1070
    19
1000
ANSI37
1040
0.15
1040
0.0
1000
ASC_BOUNDS
1070
     1
1070
     2
1070
     4
1005
20322
1005
20331
1005
20323
1005
20325
1000
ASC_SEEDPOINT
1011
1.079051535452663
1021
4.148538732891836
1031
0.0
1000
R14_HATCH_DATA
1000
2035E
1011
1.0
1021
0.0
1031
0.0
1011
0.0
1021
1.0
1031
0.0
1011
0.0
1021
0.0
1031
1.0
1040
0.0
1010
0.0
1020
0.0
1030
1.0
1000
ANSI37
1070
     0
1070
     1
1071
        1
1071
        7
1070
     0
1070
     1
1071
        4
1040
1.420999999998571
1040
0.0
1040
1.420999999998571
1040
8.763099999991255
1040
0.0
1040
8.763099999991255
1040
0.0
1040
0.0
1071
        4
1005
20322
1005
20331
1005
20323
1005
20325
1070
     0
1070
     1
1040
0.0
1040
0.15
1070
     0
1070
     2
1040
0.7853981633974483
1040
49.29960901727088
1040
-10.17736998311392
1040
-0.3367596045400932
1040
0.3367596045400932
1070
     0
1040
2.356194490192345
1040
49.29960901727088
1040
-10.17736998311392
1040
-0.3367596045400932
1040
-0.3367596045400932
1070
     0
1040
0.0053004257112761
1071
        1
1040
1.079051535452663
1040
4.148538732891836
1040
0.0
1002
}
  0
ENDBLK
  5
20A16
330
20316
100
AcDbEntity
  8
0
100
AcDbBlockEnd
  0
BLOCK
  5
226A1
330
22513
100
AcDbEntity
  8
0
100
AcDbBlockBegin
  2
*X24
 70
     1
 10
0.0
 20
0.0
 30
0.0
  3
*X24
  1

  0
LINE
  5
22514
330
22513
100
AcDbEntity
  8
0
  6
CONTINUOUS
100
AcDbLine
 10
3.418023043697893
 20
7.251849696850613
 30
0.0
 11
4.929273346838536
 21
8.763099999991255
 31
0.0
  0
LINE
  5
22515
330
22513
100
AcDbEntity
  8
0
  6
CONTINUOUS
100
AcDbLine
 10
1.483656411257782
 20
4.643963855330318
 30
0.0
 11
5.60279255591872
 21
8.763099999991255
 31
0.0
  0
LINE
  5
22516
330
22513
100
AcDbEntity
  8
0
  6
CONTINUOUS
100
AcDbLine
 10
1.755053947328235
 20
4.241842182320584
 30
0.0
 11
6.276311764998907
 21
8.763099999991255
 31
0.0
  0
LINE
  5
22517
330
22513
100
AcDbEntity
  8
0
  6
CONTINUOUS
100
AcDbLine
 10
2.026451483398688
 20
3.839720509310849
 30
0.0
 11
4.441040904851878
 21
6.254309930764039
 31
0.0
  0
LINE
  5
22518
330
22513
100
AcDbEntity
  8
0
  6
CONTINUOUS
100
AcDbLine
 10
2.297849019469139
 20
3.437598836301114
 30
0.0
 11
3.321765168359338
 21
4.461514985191313
 31
0.0
  0
LINE
  5
22519
330
22513
100
AcDbEntity
  8
0
  6
CONTINUOUS
100
AcDbLine
 10
2.569246555539591
 20
3.03547716329138
 30
0.0
 11
3.593163397972743
 21
4.059394005724531
 31
0.0
  0
LINE
  5
2251A
330
22513
100
AcDbEntity
  8
0
  6
CONTINUOUS
100
AcDbLine
 10
2.840644091610043
 20
2.633355490281646
 30
0.0
 11
3.864561627586149
 21
3.657273026257751
 31
0.0
  0
LINE
  5
2251B
330
22513
100
AcDbEntity
  8
0
  6
CONTINUOUS
100
AcDbLine
 10
3.112041627680496
 20
2.231233817271911
 30
0.0
 11
4.135959857199554
 21
3.25515204679097
 31
0.0
  0
LINE
  5
2251C
330
22513
100
AcDbEntity
  8
0
  6
CONTINUOUS
100
AcDbLine
 10
3.383439163750948
 20
1.829112144262177
 30
0.0
 11
4.40735808681296
 21
2.853031067324189
 31
0.0
  0
LINE
  5
2251D
330
22513
100
AcDbEntity
  8
0
  6
CONTINUOUS
100
AcDbLine
 10
3.654836699821399
 20
1.426990471252442
 30
0.0
 11
4.678756316426365
 21
2.450910087857407
 31
0.0
  0
LINE
  5
2251E
330
22513
100
AcDbEntity
  8
0
  6
CONTINUOUS
100
AcDbLine
 10
3.926234235891853
 20
1.024868798242709
 30
0.0
 11
4.95015454603977
 21
2.048789108390626
 31
0.0
  0
LINE
  5
2251F
330
22513
100
AcDbEntity
  8
0
  6
CONTINUOUS
100
AcDbLine
 10
4.197631771962304
 20
0.6227471252329737
 30
0.0
 11
5.221552775653176
 21
1.646668128923846
 31
0.0
  0
LINE
  5
22520
330
22513
100
AcDbEntity
  8
0
  6
CONTINUOUS
100
AcDbLine
 10
8.715877546767851
 20
7.835069736359266
 30
0.0
 11
9.435953450375058
 21
8.555145639966472
 31
0.0
  0
LINE
  5
22521
330
22513
100
AcDbEntity
  8
0
  6
CONTINUOUS
100
AcDbLine
 10
8.170620868422267
 20
6.616293848933497
 30
0.0
 11
9.644120833743461
 21
8.08979381425469
 31
0.0
  0
LINE
  5
22522
330
22513
100
AcDbEntity
  8
0
  6
CONTINUOUS
100
AcDbLine
 10
7.625364190076684
 20
5.397517961507727
 30
0.0
 11
9.852288217111864
 21
7.624441988542907
 31
0.0
  0
LINE
  5
22523
330
22513
100
AcDbEntity
  8
0
  6
CONTINUOUS
100
AcDbLine
 10
7.080107511731101
 20
4.178742074081957
 30
0.0
 11
10.06045560048027
 21
7.159090162831124
 31
0.0
  0
LINE
  5
22524
330
22513
100
AcDbEntity
  8
0
  6
CONTINUOUS
100
AcDbLine
 10
6.534850833385518
 20
2.959966186656187
 30
0.0
 11
10.26862298384867
 21
6.693738337119342
 31
0.0
  0
LINE
  5
22525
330
22513
100
AcDbEntity
  8
0
  6
CONTINUOUS
100
AcDbLine
 10
4.469029308032756
 20
0.2206254522232385
 30
0.0
 11
5.492951005266582
 21
1.244547149457064
 31
0.0
  0
LINE
  5
22526
330
22513
100
AcDbEntity
  8
0
  6
CONTINUOUS
100
AcDbLine
 10
5.989594155039935
 20
1.741190299230417
 30
0.0
 11
8.806950407233131
 21
4.558546551423613
 31
0.0
  0
LINE
  5
22527
330
22513
100
AcDbEntity
  8
0
  6
CONTINUOUS
100
AcDbLine
 10
9.401251593263643
 20
5.152847737454126
 30
0.0
 11
10.47679036721708
 21
6.228386511407559
 31
0.0
  0
LINE
  5
22528
330
22513
100
AcDbEntity
  8
0
  6
CONTINUOUS
100
AcDbLine
 10
4.921837203428691
 20
-0.0000858614610131
 30
0.0
 11
8.592923064886001
 21
3.670999999996297
 31
0.0
  0
LINE
  5
22529
330
22513
100
AcDbEntity
  8
0
  6
CONTINUOUS
100
AcDbLine
 10
9.609390446785305
 20
4.6874673818956
 30
0.0
 11
10.68495775058548
 21
5.763034685695775
 31
0.0
  0
LINE
  5
2252A
330
22513
100
AcDbEntity
  8
0
  6
CONTINUOUS
100
AcDbLine
 10
5.595387755019432
 20
-0.0000545189504582
 30
0.0
 11
7.716137258923768
 21
2.120694984953879
 31
0.0
  0
LINE
  5
2252B
330
22513
100
AcDbEntity
  8
0
  6
CONTINUOUS
100
AcDbLine
 10
6.268938306610172
 20
-0.000023176439905
 30
0.0
 11
7.170485805526503
 21
0.9015243224764267
 31
0.0
  0
LINE
  5
2252C
330
22513
100
AcDbEntity
  8
0
  6
CONTINUOUS
100
AcDbLine
 10
7.963842273967511
 20
2.368399999997621
 30
0.0
 11
9.266442273966188
 21
3.670999999996297
 31
0.0
  0
LINE
  5
2252D
330
22513
100
AcDbEntity
  8
0
  6
CONTINUOUS
100
AcDbLine
 10
8.637361483047696
 20
2.368399999997621
 30
0.0
 11
9.939961483046375
 21
3.670999999996297
 31
0.0
  0
LINE
  5
2252E
330
22513
100
AcDbEntity
  8
0
  6
CONTINUOUS
100
AcDbLine
 10
9.817529300306965
 20
4.222087026337075
 30
0.0
 11
10.89312513395388
 21
5.297682859983993
 31
0.0
  0
LINE
  5
2252F
330
22513
100
AcDbEntity
  8
0
  6
CONTINUOUS
100
AcDbLine
 10
10.02566815382863
 20
3.756706670778549
 30
0.0
 11
11.10129251732229
 21
4.832331034272211
 31
0.0
  0
LINE
  5
22530
330
22513
100
AcDbEntity
  8
0
  6
CONTINUOUS
100
AcDbLine
 10
9.310880692127883
 20
2.368399999997621
 30
0.0
 11
11.30945990069069
 21
4.366979208560428
 31
0.0
  0
LINE
  5
22531
330
22513
100
AcDbEntity
  8
0
  6
CONTINUOUS
100
AcDbLine
 10
9.98439990120807
 20
2.36839999999762
 30
0.0
 11
11.5176272840591
 21
3.901627382848645
 31
0.0
  0
LINE
  5
22532
330
22513
100
AcDbEntity
  8
0
  6
CONTINUOUS
100
AcDbLine
 10
10.65037369446246
 20
2.36085458417182
 30
0.0
 11
11.7257946674275
 21
3.436275557136862
 31
0.0
  0
LINE
  5
22533
330
22513
100
AcDbEntity
  8
0
  6
CONTINUOUS
100
AcDbLine
 10
10.85847197087848
 20
1.895433651507656
 30
0.0
 11
11.9339620507959
 21
2.97092373142508
 31
0.0
  0
LINE
  5
22534
330
22513
100
AcDbEntity
  8
0
  6
CONTINUOUS
100
AcDbLine
 10
11.0665702472945
 20
1.430012718843491
 30
0.0
 11
12.14212943416431
 21
2.505571905713296
 31
0.0
  0
LINE
  5
22535
330
22513
100
AcDbEntity
  8
0
  6
CONTINUOUS
100
AcDbLine
 10
11.27466852371052
 20
0.9645917861793256
 30
0.0
 11
12.35029681753271
 21
2.040220080001513
 31
0.0
  0
LINE
  5
22536
330
22513
100
AcDbEntity
  8
0
  6
CONTINUOUS
100
AcDbLine
 10
11.48276680012654
 20
0.4991708535151611
 30
0.0
 11
12.55846420090111
 21
1.57486825428973
 31
0.0
  0
LINE
  5
22537
330
22513
100
AcDbEntity
  8
0
  6
CONTINUOUS
100
AcDbLine
 10
11.69086507654257
 20
0.0337499208509957
 30
0.0
 11
12.76663158426952
 21
1.109516428577947
 31
0.0
  0
LINE
  5
22538
330
22513
100
AcDbEntity
  8
0
  6
CONTINUOUS
100
AcDbLine
 10
12.33057447873954
 20
-0.0000598860322123
 30
0.0
 11
12.97479896763792
 21
0.6441646028661663
 31
0.0
  0
LINE
  5
22539
330
22513
100
AcDbEntity
  8
0
  6
CONTINUOUS
100
AcDbLine
 10
13.00413694809395
 20
-0.0000166257579952
 30
0.0
 11
13.18296635100632
 21
0.1788127771543824
 31
0.0
  0
LINE
  5
2253A
330
22513
100
AcDbEntity
  8
0
  6
CONTINUOUS
100
AcDbLine
 10
4.772852165289667
 20
-0.000092794222212
 30
0.0
 11
4.296495091028902
 21
0.4762642800385528
 31
0.0
  0
LINE
  5
2253B
330
22513
100
AcDbEntity
  8
0
  6
CONTINUOUS
100
AcDbLine
 10
5.446340034776103
 20
-0.0000614546284616
 30
0.0
 11
2.898195908335625
 21
2.548082671812017
 31
0.0
  0
LINE
  5
2253C
330
22513
100
AcDbEntity
  8
0
  6
CONTINUOUS
100
AcDbLine
 10
6.119827904262539
 20
-0.0000301150347113
 30
0.0
 11
1.499896725642348
 21
4.61990106358548
 31
0.0
  0
LINE
  5
2253D
330
22513
100
AcDbEntity
  8
0
  6
CONTINUOUS
100
AcDbLine
 10
6.775136745476159
 20
0.0181802528318542
 30
0.0
 11
5.699826040202669
 21
1.093490958105344
 31
0.0
  0
LINE
  5
2253E
330
22513
100
AcDbEntity
  8
0
  6
CONTINUOUS
100
AcDbLine
 10
6.983376846288489
 20
0.4834593610997118
 30
0.0
 11
5.908008617934405
 21
1.558827589453796
 31
0.0
  0
LINE
  5
2253F
330
22513
100
AcDbEntity
  8
0
  6
CONTINUOUS
100
AcDbLine
 10
5.377063484962296
 20
1.416253513345719
 30
0.0
 11
1.702276957014131
 21
5.091040041293883
 31
0.0
  0
LINE
  5
22540
330
22513
100
AcDbEntity
  8
0
  6
CONTINUOUS
100
AcDbLine
 10
3.978745891735324
 20
3.488090315652877
 30
0.0
 11
2.000373521109399
 21
5.466462686278803
 31
0.0
  0
LINE
  5
22541
330
22513
100
AcDbEntity
  8
0
  6
CONTINUOUS
100
AcDbLine
 10
7.191616947100819
 20
0.948738469367568
 30
0.0
 11
6.11619119566614
 21
2.024164220802247
 31
0.0
  0
LINE
  5
22542
330
22513
100
AcDbEntity
  8
0
  6
CONTINUOUS
100
AcDbLine
 10
7.399857047913149
 20
1.414017577635424
 30
0.0
 11
6.324373773397875
 21
2.489500852150698
 31
0.0
  0
LINE
  5
22543
330
22513
100
AcDbEntity
  8
0
  6
CONTINUOUS
100
AcDbLine
 10
7.608097148725479
 20
1.879296685903281
 30
0.0
 11
6.53255635112961
 21
2.95483748349915
 31
0.0
  0
LINE
  5
22544
330
22513
100
AcDbEntity
  8
0
  6
CONTINUOUS
100
AcDbLine
 10
7.816337249537808
 20
2.344575794171138
 30
0.0
 11
6.740738928861345
 21
3.420174114847601
 31
0.0
  0
LINE
  5
22545
330
22513
100
AcDbEntity
  8
0
  6
CONTINUOUS
100
AcDbLine
 10
3.310241080789734
 20
4.830114335678653
 30
0.0
 11
2.298470085204666
 21
5.84188533126372
 31
0.0
  0
LINE
  5
22546
330
22513
100
AcDbEntity
  8
0
  6
CONTINUOUS
100
AcDbLine
 10
3.60832983563551
 20
5.205544789913063
 30
0.0
 11
2.596566649299935
 21
6.217307976248638
 31
0.0
  0
LINE
  5
22547
330
22513
100
AcDbEntity
  8
0
  6
CONTINUOUS
100
AcDbLine
 10
3.906418590481286
 20
5.580975244147473
 30
0.0
 11
2.894663213395203
 21
6.592730621233557
 31
0.0
  0
LINE
  5
22548
330
22513
100
AcDbEntity
  8
0
  6
CONTINUOUS
100
AcDbLine
 10
4.204507345327062
 20
5.956405698381884
 30
0.0
 11
3.192759777490472
 21
6.968153266218474
 31
0.0
  0
LINE
  5
22549
330
22513
100
AcDbEntity
  8
0
  6
CONTINUOUS
100
AcDbLine
 10
8.466032252791512
 20
2.368399999997621
 30
0.0
 11
6.948921506593081
 21
3.885510746196053
 31
0.0
  0
LINE
  5
2254A
330
22513
100
AcDbEntity
  8
0
  6
CONTINUOUS
100
AcDbLine
 10
9.139551461871699
 20
2.36839999999762
 30
0.0
 11
7.157104084324816
 21
4.350847377544504
 31
0.0
  0
LINE
  5
2254B
330
22513
100
AcDbEntity
  8
0
  6
CONTINUOUS
100
AcDbLine
 10
4.502596100172839
 20
6.331836152616295
 30
0.0
 11
3.49085634158574
 21
7.343575911203393
 31
0.0
  0
LINE
  5
2254C
330
22513
100
AcDbEntity
  8
0
  6
CONTINUOUS
100
AcDbLine
 10
4.800684855018615
 20
6.707266606850705
 30
0.0
 11
3.788952905681008
 21
7.718998556188312
 31
0.0
  0
LINE
  5
2254D
330
22513
100
AcDbEntity
  8
0
  6
CONTINUOUS
100
AcDbLine
 10
12.18154012887317
 20
-0.0000694579236642
 30
0.0
 11
11.32140332908496
 21
0.8600673418645499
 31
0.0
  0
LINE
  5
2254E
330
22513
100
AcDbEntity
  8
0
  6
CONTINUOUS
100
AcDbLine
 10
12.85501608323566
 20
-0.0000262032059659
 30
0.0
 11
10.77672456435345
 21
2.078265315676246
 31
0.0
  0
LINE
  5
2254F
330
22513
100
AcDbEntity
  8
0
  6
CONTINUOUS
100
AcDbLine
 10
9.813070670951886
 20
2.36839999999762
 30
0.0
 11
8.51047067095321
 21
3.670999999996297
 31
0.0
  0
LINE
  5
22550
330
22513
100
AcDbEntity
  8
0
  6
CONTINUOUS
100
AcDbLine
 10
10.48658988003207
 20
2.36839999999762
 30
0.0
 11
9.183989880033396
 21
3.670999999996297
 31
0.0
  0
LINE
  5
22551
330
22513
100
AcDbEntity
  8
0
  6
CONTINUOUS
100
AcDbLine
 10
8.441048632286794
 20
3.740422038662712
 30
0.0
 11
7.365286662056551
 21
4.816184008892956
 31
0.0
  0
LINE
  5
22552
330
22513
100
AcDbEntity
  8
0
  6
CONTINUOUS
100
AcDbLine
 10
8.649187485808454
 20
4.205802394221237
 30
0.0
 11
7.573469239788285
 21
5.281520640241407
 31
0.0
  0
LINE
  5
22553
330
22513
100
AcDbEntity
  8
0
  6
CONTINUOUS
100
AcDbLine
 10
5.098773609864391
 20
7.082697061085115
 30
0.0
 11
4.087049469776277
 21
8.09442120117323
 31
0.0
  0
LINE
  5
22554
330
22513
100
AcDbEntity
  8
0
  6
CONTINUOUS
100
AcDbLine
 10
5.396862364710167
 20
7.458127515319526
 30
0.0
 11
4.385146033871544
 21
8.469843846158149
 31
0.0
  0
LINE
  5
22555
330
22513
100
AcDbEntity
  8
0
  6
CONTINUOUS
100
AcDbLine
 10
13.04801363231285
 20
0.4804954567970334
 30
0.0
 11
9.85750908911358
 21
3.670999999996297
 31
0.0
  0
LINE
  5
22556
330
22513
100
AcDbEntity
  8
0
  6
CONTINUOUS
100
AcDbLine
 10
8.857326339330116
 20
4.671182749779763
 30
0.0
 11
7.781651817520021
 21
5.746857271589858
 31
0.0
  0
LINE
  5
22557
330
22513
100
AcDbEntity
  8
0
  6
CONTINUOUS
100
AcDbLine
 10
5.694951119555943
 20
7.833557969553937
 30
0.0
 11
4.765409089118624
 21
8.763099999991255
 31
0.0
  0
LINE
  5
22558
330
22513
100
AcDbEntity
  8
0
  6
CONTINUOUS
100
AcDbLine
 10
12.50286117236978
 20
1.699167125820288
 30
0.0
 11
9.68611877250287
 21
4.515909525687196
 31
0.0
  0
LINE
  5
22559
330
22513
100
AcDbEntity
  8
0
  6
CONTINUOUS
100
AcDbLine
 10
9.065465192851777
 20
5.136563105338288
 30
0.0
 11
7.989834395251757
 21
6.21219390293831
 31
0.0
  0
LINE
  5
2255A
330
22513
100
AcDbEntity
  8
0
  6
CONTINUOUS
100
AcDbLine
 10
5.993039874401719
 20
8.208988423788346
 30
0.0
 11
5.43892829819881
 21
8.763099999991255
 31
0.0
  0
LINE
  5
2255B
330
22513
100
AcDbEntity
  8
0
  6
CONTINUOUS
100
AcDbLine
 10
11.95770871242671
 20
2.917838794843543
 30
0.0
 11
8.19801697298349
 21
6.677530534286761
 31
0.0
  0
LINE
  5
2255C
330
22513
100
AcDbEntity
  8
0
  6
CONTINUOUS
100
AcDbLine
 10
6.291128629247495
 20
8.584418878022756
 30
0.0
 11
6.112447507278997
 21
8.763099999991255
 31
0.0
  0
LINE
  5
2255D
330
22513
100
AcDbEntity
  8
0
  6
CONTINUOUS
100
AcDbLine
 10
11.41255625248364
 20
4.136510463866797
 30
0.0
 11
8.406199550715227
 21
7.142867165635211
 31
0.0
  0
LINE
  5
2255E
330
22513
100
AcDbEntity
  8
0
  6
CONTINUOUS
100
AcDbLine
 10
10.86740379254057
 20
5.355182132890051
 30
0.0
 11
8.614382128446962
 21
7.608203796983664
 31
0.0
  0
LINE
  5
2255F
330
22513
100
AcDbEntity
  8
0
  6
CONTINUOUS
100
AcDbLine
 10
10.3222513325975
 20
6.573853801913305
 30
0.0
 11
8.822564706178696
 21
8.073540428332114
 31
0.0
  0
LINE
  5
22560
330
22513
100
AcDbEntity
  8
0
  6
CONTINUOUS
100
AcDbLine
 10
9.777098872654436
 20
7.792525470936562
 30
0.0
 11
9.030747283910433
 21
8.538877059680566
 31
0.0
  0
ENDBLK
  5
226A2
330
22513
100
AcDbEntity
  8
0
100
AcDbBlockEnd
  0
BLOCK
  5
226A3
330
22561
100
AcDbEntity
  8
0
100
AcDbBlockBegin
  2
*X25
 70
     1
 10
0.0
 20
0.0
 30
0.0
  3
*X25
  1

  0
LINE
  5
22562
330
22561
100
AcDbEntity
  8
0
  6
CONTINUOUS
100
AcDbLine
 10
10.67292308101235
 20
8.445076852443387
 30
0.0
 11
10.99094622856022
 21
8.763099999991255
 31
0.0
  0
LINE
  5
22563
330
22561
100
AcDbEntity
  8
0
  6
CONTINUOUS
100
AcDbLine
 10
10.87250383178748
 20
7.971138394138331
 30
0.0
 11
11.6644654376404
 21
8.763099999991255
 31
0.0
  0
LINE
  5
22564
330
22561
100
AcDbEntity
  8
0
  6
CONTINUOUS
100
AcDbLine
 10
11.07208458256261
 20
7.497199935833273
 30
0.0
 11
12.12126590876355
 21
8.546381262034211
 31
0.0
  0
LINE
  5
22565
330
22561
100
AcDbEntity
  8
0
  6
CONTINUOUS
100
AcDbLine
 10
11.27166533333774
 20
7.023261477528216
 30
0.0
 11
12.32085164573666
 21
8.072447789927136
 31
0.0
  0
LINE
  5
22566
330
22561
100
AcDbEntity
  8
0
  6
CONTINUOUS
100
AcDbLine
 10
11.47124608411287
 20
6.549323019223158
 30
0.0
 11
12.52043738270977
 21
7.59851431782006
 31
0.0
  0
LINE
  5
22567
330
22561
100
AcDbEntity
  8
0
  6
CONTINUOUS
100
AcDbLine
 10
11.670826834888
 20
6.075384560918101
 30
0.0
 11
12.72002311968288
 21
7.124580845712984
 31
0.0
  0
LINE
  5
22568
330
22561
100
AcDbEntity
  8
0
  6
CONTINUOUS
100
AcDbLine
 10
11.87040758566313
 20
5.601446102613043
 30
0.0
 11
12.91960885665599
 21
6.650647373605907
 31
0.0
  0
LINE
  5
22569
330
22561
100
AcDbEntity
  8
0
  6
CONTINUOUS
100
AcDbLine
 10
12.06998833643825
 20
5.127507644307986
 30
0.0
 11
13.1191945936291
 21
6.176713901498832
 31
0.0
  0
LINE
  5
2256A
330
22561
100
AcDbEntity
  8
0
  6
CONTINUOUS
100
AcDbLine
 10
12.26956908721338
 20
4.65356918600293
 30
0.0
 11
13.31878033060221
 21
5.702780429391757
 31
0.0
  0
LINE
  5
2256B
330
22561
100
AcDbEntity
  8
0
  6
CONTINUOUS
100
AcDbLine
 10
12.46914983798851
 20
4.179630727697873
 30
0.0
 11
13.51836606757532
 21
5.228846957284683
 31
0.0
  0
LINE
  5
2256C
330
22561
100
AcDbEntity
  8
0
  6
CONTINUOUS
100
AcDbLine
 10
12.66873058876364
 20
3.705692269392816
 30
0.0
 11
13.71795180454843
 21
4.754913485177607
 31
0.0
  0
LINE
  5
2256D
330
22561
100
AcDbEntity
  8
0
  6
CONTINUOUS
100
AcDbLine
 10
12.86831133953877
 20
3.231753811087759
 30
0.0
 11
13.91753754152154
 21
4.280980013070531
 31
0.0
  0
LINE
  5
2256E
330
22561
100
AcDbEntity
  8
0
  6
CONTINUOUS
100
AcDbLine
 10
13.0678920903139
 20
2.757815352782702
 30
0.0
 11
14.11712327849465
 21
3.807046540963456
 31
0.0
  0
LINE
  5
2256F
330
22561
100
AcDbEntity
  8
0
  6
CONTINUOUS
100
AcDbLine
 10
13.26747284108903
 20
2.283876894477644
 30
0.0
 11
14.31670901546777
 21
3.333113068856379
 31
0.0
  0
LINE
  5
22570
330
22561
100
AcDbEntity
  8
0
  6
CONTINUOUS
100
AcDbLine
 10
16.36767838827179
 20
8.751678487061342
 30
0.0
 11
16.50332410898388
 21
8.887324207773432
 31
0.0
  0
LINE
  5
22571
330
22561
100
AcDbEntity
  8
0
  6
CONTINUOUS
100
AcDbLine
 10
15.96190732182191
 20
7.67238821153127
 30
0.0
 11
16.68735328004734
 21
8.397834169756699
 31
0.0
  0
LINE
  5
22572
330
22561
100
AcDbEntity
  8
0
  6
CONTINUOUS
100
AcDbLine
 10
15.55613625537202
 20
6.593097936001196
 30
0.0
 11
16.87138245111079
 21
7.908344131739965
 31
0.0
  0
LINE
  5
22573
330
22561
100
AcDbEntity
  8
0
  6
CONTINUOUS
100
AcDbLine
 10
15.15036518892213
 20
5.513807660471122
 30
0.0
 11
17.05541162217424
 21
7.418854093723231
 31
0.0
  0
LINE
  5
22574
330
22561
100
AcDbEntity
  8
0
  6
CONTINUOUS
100
AcDbLine
 10
14.74459412247225
 20
4.434517384941048
 30
0.0
 11
17.2394407932377
 21
6.929364055706499
 31
0.0
  0
LINE
  5
22575
330
22561
100
AcDbEntity
  8
0
  6
CONTINUOUS
100
AcDbLine
 10
14.33882305602236
 20
3.355227109410975
 30
0.0
 11
17.42346996430115
 21
6.439874017689766
 31
0.0
  0
LINE
  5
22576
330
22561
100
AcDbEntity
  8
0
  6
CONTINUOUS
100
AcDbLine
 10
13.46705359186416
 20
1.809938436172586
 30
0.0
 11
16.0819338255367
 21
4.424818669845129
 31
0.0
  0
LINE
  5
22577
330
22561
100
AcDbEntity
  8
0
  6
CONTINUOUS
100
AcDbLine
 10
16.63283254238972
 20
4.975717386698149
 30
0.0
 11
17.60749913536461
 21
5.950383979673033
 31
0.0
  0
LINE
  5
22578
330
22561
100
AcDbEntity
  8
0
  6
CONTINUOUS
100
AcDbLine
 10
13.66663434263929
 20
1.335999977867529
 30
0.0
 11
15.67604797733754
 21
3.345413612565779
 31
0.0
  0
LINE
  5
22579
330
22561
100
AcDbEntity
  8
0
  6
CONTINUOUS
100
AcDbLine
 10
13.86621509341442
 20
0.8620615195624723
 30
0.0
 11
15.27016212913838
 21
2.26600855528643
 31
0.0
  0
LINE
  5
2257A
330
22561
100
AcDbEntity
  8
0
  6
CONTINUOUS
100
AcDbLine
 10
16.81682257348267
 20
4.486188208710908
 30
0.0
 11
17.79152830642806
 21
5.460893941656299
 31
0.0
  0
LINE
  5
2257B
330
22561
100
AcDbEntity
  8
0
  6
CONTINUOUS
100
AcDbLine
 10
17.00081260457561
 20
3.996659030723667
 30
0.0
 11
17.97555747749151
 21
4.971403903639565
 31
0.0
  0
LINE
  5
2257C
330
22561
100
AcDbEntity
  8
0
  6
CONTINUOUS
100
AcDbLine
 10
20.74362343514722
 20
8.412989070375462
 30
0.0
 11
21.09373436476302
 21
8.763099999991256
 31
0.0
  0
LINE
  5
2257D
330
22561
100
AcDbEntity
  8
0
  6
CONTINUOUS
100
AcDbLine
 10
20.25401257174777
 20
7.249858997895826
 30
0.0
 11
21.7672535738432
 21
8.763099999991255
 31
0.0
  0
LINE
  5
2257E
330
22561
100
AcDbEntity
  8
0
  6
CONTINUOUS
100
AcDbLine
 10
14.06579584418955
 20
0.3881230612574149
 30
0.0
 11
14.86427628093921
 21
1.186603498007082
 31
0.0
  0
LINE
  5
2257F
330
22561
100
AcDbEntity
  8
0
  6
CONTINUOUS
100
AcDbLine
 10
14.26537659496467
 20
-0.0858153970476412
 30
0.0
 11
14.45839043274005
 21
0.1071984407277329
 31
0.0
  0
LINE
  5
22580
330
22561
100
AcDbEntity
  8
0
  6
CONTINUOUS
100
AcDbLine
 10
17.18480263566856
 20
3.507129852736426
 30
0.0
 11
18.15958664855496
 21
4.481913865622833
 31
0.0
  0
LINE
  5
22581
330
22561
100
AcDbEntity
  8
0
  6
CONTINUOUS
100
AcDbLine
 10
17.3687926667615
 20
3.017600674749186
 30
0.0
 11
18.34361581961842
 21
3.9924238276061
 31
0.0
  0
LINE
  5
22582
330
22561
100
AcDbEntity
  8
0
  6
CONTINUOUS
100
AcDbLine
 10
19.76440170834832
 20
6.086728925416191
 30
0.0
 11
22.33924590259489
 21
8.661573119662755
 31
0.0
  0
LINE
  5
22583
330
22561
100
AcDbEntity
  8
0
  6
CONTINUOUS
100
AcDbLine
 10
19.27479084494887
 20
4.923598852936555
 30
0.0
 11
21.84929622842713
 21
7.498104236414807
 31
0.0
  0
LINE
  5
22584
330
22561
100
AcDbEntity
  8
0
  6
CONTINUOUS
100
AcDbLine
 10
17.55278269785445
 20
2.528071496761945
 30
0.0
 11
18.52764499068187
 21
3.502933789589366
 31
0.0
  0
LINE
  5
22585
330
22561
100
AcDbEntity
  8
0
  6
CONTINUOUS
100
AcDbLine
 10
18.78517998154942
 20
3.760468780456919
 30
0.0
 11
21.35934655425936
 21
6.33463535316686
 31
0.0
  0
LINE
  5
22586
330
22561
100
AcDbEntity
  8
0
  6
CONTINUOUS
100
AcDbLine
 10
17.73677272894739
 20
2.038542318774704
 30
0.0
 11
20.8693968800916
 21
5.171166469918914
 31
0.0
  0
LINE
  5
22587
330
22561
100
AcDbEntity
  8
0
  6
CONTINUOUS
100
AcDbLine
 10
17.92076276004034
 20
1.549013140787464
 30
0.0
 11
20.37944720592384
 21
4.007697586670968
 31
0.0
  0
LINE
  5
22588
330
22561
100
AcDbEntity
  8
0
  6
CONTINUOUS
100
AcDbLine
 10
18.10475279113329
 20
1.059483962800223
 30
0.0
 11
19.88949753175608
 21
2.84422870342302
 31
0.0
  0
LINE
  5
22589
330
22561
100
AcDbEntity
  8
0
  6
CONTINUOUS
100
AcDbLine
 10
18.28874282222623
 20
0.5699547848129822
 30
0.0
 11
19.39954785758832
 21
1.680759820175074
 31
0.0
  0
LINE
  5
2258A
330
22561
100
AcDbEntity
  8
0
  6
CONTINUOUS
100
AcDbLine
 10
18.47273285331918
 20
0.0804256068257416
 30
0.0
 11
18.90959818342056
 21
0.517290936927127
 31
0.0
  0
LINE
  5
2258B
330
22561
100
AcDbEntity
  8
0
  6
CONTINUOUS
100
AcDbLine
 10
14.3590401358224
 20
-0.1570118376323384
 30
0.0
 11
14.24903296539946
 21
-0.0470046672093929
 31
0.0
  0
LINE
  5
2258C
330
22561
100
AcDbEntity
  8
0
  6
CONTINUOUS
100
AcDbLine
 10
14.54309291258661
 20
0.332454594683643
 30
0.0
 11
13.75908329123172
 21
1.116464216038529
 31
0.0
  0
LINE
  5
2258D
330
22561
100
AcDbEntity
  8
0
  6
CONTINUOUS
100
AcDbLine
 10
14.72714568935081
 20
0.8219210269996244
 30
0.0
 11
13.26913361706399
 21
2.27993309928645
 31
0.0
  0
LINE
  5
2258E
330
22561
100
AcDbEntity
  8
0
  6
CONTINUOUS
100
AcDbLine
 10
14.91119846611502
 20
1.311387459315606
 30
0.0
 11
12.77918394289625
 21
3.443401982534371
 31
0.0
  0
LINE
  5
2258F
330
22561
100
AcDbEntity
  8
0
  6
CONTINUOUS
100
AcDbLine
 10
15.09525124287922
 20
1.800853891631587
 30
0.0
 11
12.28923426872852
 21
4.606870865782293
 31
0.0
  0
LINE
  5
22590
330
22561
100
AcDbEntity
  8
0
  6
CONTINUOUS
100
AcDbLine
 10
15.27930401964343
 20
2.290320323947569
 30
0.0
 11
11.79928459456078
 21
5.770339749030213
 31
0.0
  0
LINE
  5
22591
330
22561
100
AcDbEntity
  8
0
  6
CONTINUOUS
100
AcDbLine
 10
15.46335679640763
 20
2.77978675626355
 30
0.0
 11
14.48885470994921
 21
3.754288842721972
 31
0.0
  0
LINE
  5
22592
330
22561
100
AcDbEntity
  8
0
  6
CONTINUOUS
100
AcDbLine
 10
13.88507249233704
 20
4.358071060334137
 30
0.0
 11
11.30933492039305
 21
6.933808632278135
 31
0.0
  0
LINE
  5
22593
330
22561
100
AcDbEntity
  8
0
  6
CONTINUOUS
100
AcDbLine
 10
18.75840522805855
 20
0.1582575336928151
 30
0.0
 11
18.25383727664818
 21
0.6628254851031863
 31
0.0
  0
LINE
  5
22594
330
22561
100
AcDbEntity
  8
0
  6
CONTINUOUS
100
AcDbLine
 10
15.64740957317184
 20
3.269253188579531
 30
0.0
 11
14.67288388101266
 21
4.243778880738705
 31
0.0
  0
LINE
  5
22595
330
22561
100
AcDbEntity
  8
0
  6
CONTINUOUS
100
AcDbLine
 10
13.39509276772158
 20
5.521569994029786
 30
0.0
 11
10.81938524622531
 21
8.097277515526056
 31
0.0
  0
LINE
  5
22596
330
22561
100
AcDbEntity
  8
0
  6
CONTINUOUS
100
AcDbLine
 10
18.95798597883369
 20
0.6321959919978686
 30
0.0
 11
17.84825644852853
 21
1.741925522303024
 31
0.0
  0
LINE
  5
22597
330
22561
100
AcDbEntity
  8
0
  6
CONTINUOUS
100
AcDbLine
 10
19.15756672960882
 20
1.106134450302922
 30
0.0
 11
17.44267562040888
 21
2.821025559502861
 31
0.0
  0
LINE
  5
22598
330
22561
100
AcDbEntity
  8
0
  6
CONTINUOUS
100
AcDbLine
 10
15.83146234993604
 20
3.758719620895513
 30
0.0
 11
14.85691305207612
 21
4.733268918755439
 31
0.0
  0
LINE
  5
22599
330
22561
100
AcDbEntity
  8
0
  6
CONTINUOUS
100
AcDbLine
 10
16.01551512670025
 20
4.248186053211494
 30
0.0
 11
15.04094222313957
 21
5.222758956772172
 31
0.0
  0
LINE
  5
2259A
330
22561
100
AcDbEntity
  8
0
  6
CONTINUOUS
100
AcDbLine
 10
12.90511304310612
 20
6.685068927725435
 30
0.0
 11
10.8270819708403
 21
8.763099999991255
 31
0.0
  0
LINE
  5
2259B
330
22561
100
AcDbEntity
  8
0
  6
CONTINUOUS
100
AcDbLine
 10
12.41513331849066
 20
7.848567861421083
 30
0.0
 11
11.50060117992049
 21
8.763099999991255
 31
0.0
  0
LINE
  5
2259C
330
22561
100
AcDbEntity
  8
0
  6
CONTINUOUS
100
AcDbLine
 10
19.35714748038395
 20
1.580072908607975
 30
0.0
 11
17.03709479228923
 21
3.900125596702697
 31
0.0
  0
LINE
  5
2259D
330
22561
100
AcDbEntity
  8
0
  6
CONTINUOUS
100
AcDbLine
 10
19.55672823115909
 20
2.054011366913028
 30
0.0
 11
16.63151396416958
 21
4.979225633902534
 31
0.0
  0
LINE
  5
2259E
330
22561
100
AcDbEntity
  8
0
  6
CONTINUOUS
100
AcDbLine
 10
16.19956790346445
 20
4.737652485527476
 30
0.0
 11
15.22497139420302
 21
5.712248994788904
 31
0.0
  0
LINE
  5
2259F
330
22561
100
AcDbEntity
  8
0
  6
CONTINUOUS
100
AcDbLine
 10
16.38362068022866
 20
5.227118917843457
 30
0.0
 11
15.40900056526648
 21
6.201739032805637
 31
0.0
  0
LINE
  5
225A0
330
22561
100
AcDbEntity
  8
0
  6
CONTINUOUS
100
AcDbLine
 10
19.75630898193422
 20
2.527949825218081
 30
0.0
 11
18.70774536448286
 21
3.576513442669441
 31
0.0
  0
LINE
  5
225A1
330
22561
100
AcDbEntity
  8
0
  6
CONTINUOUS
100
AcDbLine
 10
19.95588973270936
 20
3.001888283523134
 30
0.0
 11
18.90726987211446
 21
4.050508144118028
 31
0.0
  0
LINE
  5
225A2
330
22561
100
AcDbEntity
  8
0
  6
CONTINUOUS
100
AcDbLine
 10
20.15547048348449
 20
3.475826741828186
 30
0.0
 11
19.10679437974606
 21
4.524502845566614
 31
0.0
  0
LINE
  5
225A3
330
22561
100
AcDbEntity
  8
0
  6
CONTINUOUS
100
AcDbLine
 10
20.35505123425962
 20
3.94976520013324
 30
0.0
 11
19.30631888737766
 21
4.998497547015201
 31
0.0
  0
LINE
  5
225A4
330
22561
100
AcDbEntity
  8
0
  6
CONTINUOUS
100
AcDbLine
 10
20.55463198503475
 20
4.423703658438292
 30
0.0
 11
19.50584339500926
 21
5.472492248463787
 31
0.0
  0
LINE
  5
225A5
330
22561
100
AcDbEntity
  8
0
  6
CONTINUOUS
100
AcDbLine
 10
18.37481191085755
 20
3.909446896294752
 30
0.0
 11
15.59302973632993
 21
6.691229070822371
 31
0.0
  0
LINE
  5
225A6
330
22561
100
AcDbEntity
  8
0
  6
CONTINUOUS
100
AcDbLine
 10
17.96904084440766
 20
4.988737171824825
 30
0.0
 11
15.77705890739338
 21
7.180719108839104
 31
0.0
  0
LINE
  5
225A7
330
22561
100
AcDbEntity
  8
0
  6
CONTINUOUS
100
AcDbLine
 10
17.56326977795777
 20
6.068027447354899
 30
0.0
 11
15.96108807845684
 21
7.670209146855838
 31
0.0
  0
LINE
  5
225A8
330
22561
100
AcDbEntity
  8
0
  6
CONTINUOUS
100
AcDbLine
 10
17.15749871150789
 20
7.147317722884972
 30
0.0
 11
16.14511724952029
 21
8.15969918487257
 31
0.0
  0
LINE
  5
225A9
330
22561
100
AcDbEntity
  8
0
  6
CONTINUOUS
100
AcDbLine
 10
16.751727645058
 20
8.226607998415046
 30
0.0
 11
16.32914642058374
 21
8.649189222889303
 31
0.0
  0
LINE
  5
225AA
330
22561
100
AcDbEntity
  8
0
  6
CONTINUOUS
100
AcDbLine
 10
20.75421273580989
 20
4.897642116743345
 30
0.0
 11
19.70536790264086
 21
5.946486949912374
 31
0.0
  0
LINE
  5
225AB
330
22561
100
AcDbEntity
  8
0
  6
CONTINUOUS
100
AcDbLine
 10
20.95379348658502
 20
5.371580575048398
 30
0.0
 11
19.90489241027246
 21
6.42048165136096
 31
0.0
  0
LINE
  5
225AC
330
22561
100
AcDbEntity
  8
0
  6
CONTINUOUS
100
AcDbLine
 10
21.15337423736015
 20
5.845519033353452
 30
0.0
 11
20.10441691790406
 21
6.894476352809547
 31
0.0
  0
LINE
  5
225AD
330
22561
100
AcDbEntity
  8
0
  6
CONTINUOUS
100
AcDbLine
 10
21.35295498813529
 20
6.319457491658505
 30
0.0
 11
20.30394142553566
 21
7.368471054258134
 31
0.0
  0
LINE
  5
225AE
330
22561
100
AcDbEntity
  8
0
  6
CONTINUOUS
100
AcDbLine
 10
21.55253573891042
 20
6.793395949963558
 30
0.0
 11
20.50346593316726
 21
7.842465755706721
 31
0.0
  0
LINE
  5
225AF
330
22561
100
AcDbEntity
  8
0
  6
CONTINUOUS
100
AcDbLine
 10
21.75211648968556
 20
7.267334408268612
 30
0.0
 11
20.70299044079886
 21
8.316460457155308
 31
0.0
  0
LINE
  5
225B0
330
22561
100
AcDbEntity
  8
0
  6
CONTINUOUS
100
AcDbLine
 10
21.95169724046069
 20
7.741272866573663
 30
0.0
 11
20.9298701070431
 21
8.763099999991256
 31
0.0
  0
LINE
  5
225B1
330
22561
100
AcDbEntity
  8
0
  6
CONTINUOUS
100
AcDbLine
 10
22.15127799123582
 20
8.215211324878716
 30
0.0
 11
21.60338931612328
 21
8.763099999991256
 31
0.0
  0
LINE
  5
225B2
330
22561
100
AcDbEntity
  8
0
  6
CONTINUOUS
100
AcDbLine
 10
22.35085874201096
 20
8.689149783183769
 30
0.0
 11
22.27690852520347
 21
8.763099999991255
 31
0.0
  0
ENDBLK
  5
226A4
330
22561
100
AcDbEntity
  8
0
100
AcDbBlockEnd
  0
BLOCK
  5
226A5
330
225B3
100
AcDbEntity
  8
0
100
AcDbBlockBegin
  2
*X26
 70
     1
 10
0.0
 20
0.0
 30
0.0
  3
*X26
  1

  0
LINE
  5
225B4
330
225B3
100
AcDbEntity
  8
0
  6
CONTINUOUS
100
AcDbLine
 10
23.19462913593892
 20
8.169917934846424
 30
0.0
 11
23.70775465517246
 21
8.683043454079957
 31
0.0
  0
LINE
  5
225B5
330
225B3
100
AcDbEntity
  8
0
  6
CONTINUOUS
100
AcDbLine
 10
22.64923161835078
 20
6.951001208178088
 30
0.0
 11
23.9159364069932
 21
8.217705996820516
 31
0.0
  0
LINE
  5
225B6
330
225B3
100
AcDbEntity
  8
0
  6
CONTINUOUS
100
AcDbLine
 10
22.10383410076263
 20
5.732084481509751
 30
0.0
 11
24.12411815881395
 21
7.752368539561078
 31
0.0
  0
LINE
  5
225B7
330
225B3
100
AcDbEntity
  8
0
  6
CONTINUOUS
100
AcDbLine
 10
21.55843658317447
 20
4.513167754841414
 30
0.0
 11
24.3322999106347
 21
7.287031082301639
 31
0.0
  0
LINE
  5
225B8
330
225B3
100
AcDbEntity
  8
0
  6
CONTINUOUS
100
AcDbLine
 10
21.01303906558632
 20
3.294251028173077
 30
0.0
 11
24.54048166245544
 21
6.821693625042199
 31
0.0
  0
LINE
  5
225B9
330
225B3
100
AcDbEntity
  8
0
  6
CONTINUOUS
100
AcDbLine
 10
20.46764154799817
 20
2.075334301504738
 30
0.0
 11
23.28571549467848
 21
4.89340824818505
 31
0.0
  0
LINE
  5
225BA
330
225B3
100
AcDbEntity
  8
0
  6
CONTINUOUS
100
AcDbLine
 10
19.92224403041002
 20
0.8564175748364002
 30
0.0
 11
22.74075865492779
 21
3.674932199354171
 31
0.0
  0
LINE
  5
225BB
330
225B3
100
AcDbEntity
  8
0
  6
CONTINUOUS
100
AcDbLine
 10
23.67305085490148
 20
5.280743608408048
 30
0.0
 11
24.74866341427619
 21
6.356356167782759
 31
0.0
  0
LINE
  5
225BC
330
225B3
100
AcDbEntity
  8
0
  6
CONTINUOUS
100
AcDbLine
 10
23.88118970842314
 20
4.815363252849522
 30
0.0
 11
24.95684516609694
 21
5.89101871052332
 31
0.0
  0
LINE
  5
225BD
330
225B3
100
AcDbEntity
  8
0
  6
CONTINUOUS
100
AcDbLine
 10
19.73925852647308
 20
-0.0000871381807288
 30
0.0
 11
23.4103456646501
 21
3.670999999996297
 31
0.0
  0
LINE
  5
225BE
330
225B3
100
AcDbEntity
  8
0
  6
CONTINUOUS
100
AcDbLine
 10
24.0893285619448
 20
4.349982897290997
 30
0.0
 11
25.16502691791769
 21
5.42568125326388
 31
0.0
  0
LINE
  5
225BF
330
225B3
100
AcDbEntity
  8
0
  6
CONTINUOUS
100
AcDbLine
 10
20.41282099582748
 20
-0.0000438779065108
 30
0.0
 11
21.64944178675636
 21
1.236576913022366
 31
0.0
  0
LINE
  5
225C0
330
225B3
100
AcDbEntity
  8
0
  6
CONTINUOUS
100
AcDbLine
 10
22.78126487373161
 20
2.36839999999762
 30
0.0
 11
24.08386487373029
 21
3.670999999996297
 31
0.0
  0
LINE
  5
225C1
330
225B3
100
AcDbEntity
  8
0
  6
CONTINUOUS
100
AcDbLine
 10
24.29746741546646
 20
3.884602541732471
 30
0.0
 11
25.37320866973843
 21
4.960343796004441
 31
0.0
  0
LINE
  5
225C2
330
225B3
100
AcDbEntity
  8
0
  6
CONTINUOUS
100
AcDbLine
 10
21.08638346518189
 20
-0.0000006176322938
 30
0.0
 11
21.10379033335899
 21
0.0174062505448083
 31
0.0
  0
LINE
  5
225C3
330
225B3
100
AcDbEntity
  8
0
  6
CONTINUOUS
100
AcDbLine
 10
23.4547840828118
 20
2.36839999999762
 30
0.0
 11
25.58139042155918
 21
4.495006338745002
 31
0.0
  0
LINE
  5
225C4
330
225B3
100
AcDbEntity
  8
0
  6
CONTINUOUS
100
AcDbLine
 10
29.30199999996933
 20
8.215615917155148
 30
0.0
 11
29.84948408280543
 21
8.763099999991255
 31
0.0
  0
LINE
  5
225C5
330
225B3
100
AcDbEntity
  8
0
  6
CONTINUOUS
100
AcDbLine
 10
24.12830329189199
 20
2.36839999999762
 30
0.0
 11
25.78957217337993
 21
4.029668881485562
 31
0.0
  0
LINE
  5
225C6
330
225B3
100
AcDbEntity
  8
0
  6
CONTINUOUS
100
AcDbLine
 10
29.30199999996933
 20
7.54209670807496
 30
0.0
 11
30.52300329188562
 21
8.763099999991255
 31
0.0
  0
LINE
  5
225C7
330
225B3
100
AcDbEntity
  8
0
  6
CONTINUOUS
100
AcDbLine
 10
24.80182250097217
 20
2.36839999999762
 30
0.0
 11
25.99775392520067
 21
3.564331424226122
 31
0.0
  0
LINE
  5
225C8
330
225B3
100
AcDbEntity
  8
0
  6
CONTINUOUS
100
AcDbLine
 10
29.30199999996933
 20
6.868577498994774
 30
0.0
 11
30.74199999996926
 21
8.308577498994712
 31
0.0
  0
LINE
  5
225C9
330
225B3
100
AcDbEntity
  8
0
  6
CONTINUOUS
100
AcDbLine
 10
25.13028238392013
 20
2.023340673865392
 30
0.0
 11
26.20593567702142
 21
3.098993966966683
 31
0.0
  0
LINE
  5
225CA
330
225B3
100
AcDbEntity
  8
0
  6
CONTINUOUS
100
AcDbLine
 10
25.33838066033617
 20
1.557919741201244
 30
0.0
 11
26.41411742884217
 21
2.633656509707244
 31
0.0
  0
LINE
  5
225CB
330
225B3
100
AcDbEntity
  8
0
  6
CONTINUOUS
100
AcDbLine
 10
25.54647893675221
 20
1.092498808537098
 30
0.0
 11
26.62229918066291
 21
2.168319052447804
 31
0.0
  0
LINE
  5
225CC
330
225B3
100
AcDbEntity
  8
0
  6
CONTINUOUS
100
AcDbLine
 10
25.75457721316825
 20
0.62707787587295
 30
0.0
 11
26.83048093248366
 21
1.702981595188365
 31
0.0
  0
LINE
  5
225CD
330
225B3
100
AcDbEntity
  8
0
  6
CONTINUOUS
100
AcDbLine
 10
29.30199999996933
 20
6.195058289914587
 30
0.0
 11
30.74199999996926
 21
7.635058289914522
 31
0.0
  0
LINE
  5
225CE
330
225B3
100
AcDbEntity
  8
0
  6
CONTINUOUS
100
AcDbLine
 10
29.30199999996933
 20
5.521539080834401
 30
0.0
 11
30.74199999996926
 21
6.961539080834331
 31
0.0
  0
LINE
  5
225CF
330
225B3
100
AcDbEntity
  8
0
  6
CONTINUOUS
100
AcDbLine
 10
29.30199999996933
 20
4.848019871754214
 30
0.0
 11
30.74199999996925
 21
6.288019871754143
 31
0.0
  0
LINE
  5
225D0
330
225B3
100
AcDbEntity
  8
0
  6
CONTINUOUS
100
AcDbLine
 10
29.30199999996933
 20
4.174500662674028
 30
0.0
 11
30.74199999996925
 21
5.614500662673953
 31
0.0
  0
LINE
  5
225D1
330
225B3
100
AcDbEntity
  8
0
  6
CONTINUOUS
100
AcDbLine
 10
25.96267548958429
 20
0.1616569432088024
 30
0.0
 11
27.18411854636669
 21
1.383099999991207
 31
0.0
  0
LINE
  5
225D2
330
225B3
100
AcDbEntity
  8
0
  6
CONTINUOUS
100
AcDbLine
 10
29.30199999996933
 20
3.500981453593841
 30
0.0
 11
30.74199999996925
 21
4.940981453593762
 31
0.0
  0
LINE
  5
225D3
330
225B3
100
AcDbEntity
  8
0
  6
CONTINUOUS
100
AcDbLine
 10
26.50763775544691
 20
0.0330999999912356
 30
0.0
 11
27.85763775544689
 21
1.383099999991223
 31
0.0
  0
LINE
  5
225D4
330
225B3
100
AcDbEntity
  8
0
  6
CONTINUOUS
100
AcDbLine
 10
29.30199999996933
 20
2.827462244513656
 30
0.0
 11
30.74199999996925
 21
4.267462244513574
 31
0.0
  0
LINE
  5
225D5
330
225B3
100
AcDbEntity
  8
0
  6
CONTINUOUS
100
AcDbLine
 10
27.18115696452709
 20
0.0330999999912356
 30
0.0
 11
28.55073879889363
 21
1.402681834357775
 31
0.0
  0
LINE
  5
225D6
330
225B3
100
AcDbEntity
  8
0
  6
CONTINUOUS
100
AcDbLine
 10
29.28241816560272
 20
2.134361201066866
 30
0.0
 11
30.74199999996924
 21
3.593943035433383
 31
0.0
  0
LINE
  5
225D7
330
225B3
100
AcDbEntity
  8
0
  6
CONTINUOUS
100
AcDbLine
 10
27.85467617360728
 20
0.0330999999912356
 30
0.0
 11
30.74199999996924
 21
2.920423826353195
 31
0.0
  0
LINE
  5
225D8
330
225B3
100
AcDbEntity
  8
0
  6
CONTINUOUS
100
AcDbLine
 10
28.53897559587887
 20
0.0438802131826428
 30
0.0
 11
30.73121978677781
 21
2.236124404081585
 31
0.0
  0
LINE
  5
225D9
330
225B3
100
AcDbEntity
  8
0
  6
CONTINUOUS
100
AcDbLine
 10
29.45140055588722
 20
0.2827859641107988
 30
0.0
 11
30.49231403584965
 21
1.323699444073236
 31
0.0
  0
LINE
  5
225DA
330
225B3
100
AcDbEntity
  8
0
  6
CONTINUOUS
100
AcDbLine
 10
19.59027867740337
 20
-0.0000967065718083
 30
0.0
 11
19.55485265190471
 21
0.035329318926844
 31
0.0
  0
LINE
  5
225DB
330
225B3
100
AcDbEntity
  8
0
  6
CONTINUOUS
100
AcDbLine
 10
20.26375463176586
 20
-0.0000534518541091
 30
0.0
 11
19.76305575737534
 21
0.5006454225364014
 31
0.0
  0
LINE
  5
225DC
330
225B3
100
AcDbEntity
  8
0
  6
CONTINUOUS
100
AcDbLine
 10
20.93723058612834
 20
-0.0000101971364099
 30
0.0
 11
19.97125886284597
 21
0.965961526145958
 31
0.0
  0
LINE
  5
225DD
330
225B3
100
AcDbEntity
  8
0
  6
CONTINUOUS
100
AcDbLine
 10
21.25514828313686
 20
0.355591314935257
 30
0.0
 11
20.1794619683166
 21
1.431277629755512
 31
0.0
  0
LINE
  5
225DE
330
225B3
100
AcDbEntity
  8
0
  6
CONTINUOUS
100
AcDbLine
 10
21.46338838394921
 20
0.8208704232030986
 30
0.0
 11
20.38766507378723
 21
1.896593733365069
 31
0.0
  0
LINE
  5
225DF
330
225B3
100
AcDbEntity
  8
0
  6
CONTINUOUS
100
AcDbLine
 10
21.67162848476155
 20
1.28614953147094
 30
0.0
 11
20.59586817925786
 21
2.361909836974626
 31
0.0
  0
LINE
  5
225E0
330
225B3
100
AcDbEntity
  8
0
  6
CONTINUOUS
100
AcDbLine
 10
21.8798685855739
 20
1.751428639738782
 30
0.0
 11
20.80407128472849
 21
2.827225940584183
 31
0.0
  0
LINE
  5
225E1
330
225B3
100
AcDbEntity
  8
0
  6
CONTINUOUS
100
AcDbLine
 10
22.08810868638624
 20
2.216707748006623
 30
0.0
 11
21.01227439019912
 21
3.292542044193739
 31
0.0
  0
LINE
  5
225E2
330
225B3
100
AcDbEntity
  8
0
  6
CONTINUOUS
100
AcDbLine
 10
22.60993564347543
 20
2.36839999999762
 30
0.0
 11
21.22047749566975
 21
3.757858147803296
 31
0.0
  0
LINE
  5
225E3
330
225B3
100
AcDbEntity
  8
0
  6
CONTINUOUS
100
AcDbLine
 10
23.28345485255561
 20
2.36839999999762
 30
0.0
 11
21.42868060114038
 21
4.223174251412853
 31
0.0
  0
LINE
  5
225E4
330
225B3
100
AcDbEntity
  8
0
  6
CONTINUOUS
100
AcDbLine
 10
26.29227406164219
 20
0.0330999999912356
 30
0.0
 11
25.80009199592872
 21
0.5252820657046957
 31
0.0
  0
LINE
  5
225E5
330
225B3
100
AcDbEntity
  8
0
  6
CONTINUOUS
100
AcDbLine
 10
23.9569740616358
 20
2.36839999999762
 30
0.0
 11
21.63688370661101
 21
4.688490355022409
 31
0.0
  0
LINE
  5
225E6
330
225B3
100
AcDbEntity
  8
0
  6
CONTINUOUS
100
AcDbLine
 10
26.96579327072237
 20
0.0330999999912356
 30
0.0
 11
25.2554132311971
 21
1.743480039516508
 31
0.0
  0
LINE
  5
225E7
330
225B3
100
AcDbEntity
  8
0
  6
CONTINUOUS
100
AcDbLine
 10
24.63049327071599
 20
2.36839999999762
 30
0.0
 11
23.32789327071731
 21
3.670999999996297
 31
0.0
  0
LINE
  5
225E8
330
225B3
100
AcDbEntity
  8
0
  6
CONTINUOUS
100
AcDbLine
 10
22.92098674744635
 20
4.077906523267254
 30
0.0
 11
21.84508681208164
 21
5.153806458631966
 31
0.0
  0
LINE
  5
225E9
330
225B3
100
AcDbEntity
  8
0
  6
CONTINUOUS
100
AcDbLine
 10
27.63931247980256
 20
0.0330999999912356
 30
0.0
 11
24.0014124797975
 21
3.670999999996297
 31
0.0
  0
LINE
  5
225EA
330
225B3
100
AcDbEntity
  8
0
  6
CONTINUOUS
100
AcDbLine
 10
23.129125600968
 20
4.5432868788258
 30
0.0
 11
22.05328991755227
 21
5.619122562241522
 31
0.0
  0
LINE
  5
225EB
330
225B3
100
AcDbEntity
  8
0
  6
CONTINUOUS
100
AcDbLine
 10
28.31283168888275
 20
0.0330999999912356
 30
0.0
 11
24.16488385994816
 21
4.181047828925828
 31
0.0
  0
LINE
  5
225EC
330
225B3
100
AcDbEntity
  8
0
  6
CONTINUOUS
100
AcDbLine
 10
23.33726445448964
 20
5.008667234384345
 30
0.0
 11
22.2614930230229
 21
6.084438665851079
 31
0.0
  0
LINE
  5
225ED
330
225B3
100
AcDbEntity
  8
0
  6
CONTINUOUS
100
AcDbLine
 10
28.92085740005492
 20
0.0985934978992438
 30
0.0
 11
27.63635089796295
 21
1.383099999991217
 31
0.0
  0
LINE
  5
225EE
330
225B3
100
AcDbEntity
  8
0
  6
CONTINUOUS
100
AcDbLine
 10
26.43704649509776
 20
2.582404402856405
 30
0.0
 11
23.61992702019732
 21
5.399523877756844
 31
0.0
  0
LINE
  5
225EF
330
225B3
100
AcDbEntity
  8
0
  6
CONTINUOUS
100
AcDbLine
 10
23.54540330801128
 20
5.47404758994289
 30
0.0
 11
22.46969612849353
 21
6.549754769460635
 31
0.0
  0
LINE
  5
225F0
330
225B3
100
AcDbEntity
  8
0
  6
CONTINUOUS
100
AcDbLine
 10
29.42225615078443
 20
0.2707139562499279
 30
0.0
 11
28.30987010704312
 21
1.383099999991234
 31
0.0
  0
LINE
  5
225F1
330
225B3
100
AcDbEntity
  8
0
  6
CONTINUOUS
100
AcDbLine
 10
25.89179548232307
 20
3.801174624711282
 30
0.0
 11
22.67789923396416
 21
7.015070873070191
 31
0.0
  0
LINE
  5
225F2
330
225B3
100
AcDbEntity
  8
0
  6
CONTINUOUS
100
AcDbLine
 10
29.83624534690007
 20
0.5302439692144705
 30
0.0
 11
28.85811781497101
 21
1.508371501143527
 31
0.0
  0
LINE
  5
225F3
330
225B3
100
AcDbEntity
  8
0
  6
CONTINUOUS
100
AcDbLine
 10
25.34654446954838
 20
5.01994484656616
 30
0.0
 11
22.88610233943479
 21
7.480386976679748
 31
0.0
  0
LINE
  5
225F4
330
225B3
100
AcDbEntity
  8
0
  6
CONTINUOUS
100
AcDbLine
 10
30.17865975401872
 20
0.8613487711760022
 30
0.0
 11
29.18888744090175
 21
1.851121084292977
 31
0.0
  0
LINE
  5
225F5
330
225B3
100
AcDbEntity
  8
0
  6
CONTINUOUS
100
AcDbLine
 10
24.80129345677369
 20
6.238715068421037
 30
0.0
 11
23.09430544490542
 21
7.945703080289305
 31
0.0
  0
LINE
  5
225F6
330
225B3
100
AcDbEntity
  8
0
  6
CONTINUOUS
100
AcDbLine
 10
30.45496647202376
 20
1.258561262251155
 30
0.0
 11
29.30199999996933
 21
2.411527734305588
 31
0.0
  0
LINE
  5
225F7
330
225B3
100
AcDbEntity
  8
0
  6
CONTINUOUS
100
AcDbLine
 10
24.256042443999
 20
7.457485290275915
 30
0.0
 11
23.30250855037605
 21
8.411019183898862
 31
0.0
  0
LINE
  5
225F8
330
225B3
100
AcDbEntity
  8
0
  6
CONTINUOUS
100
AcDbLine
 10
30.64868582078271
 20
1.738361122572387
 30
0.0
 11
29.30199999996933
 21
3.085046943385775
 31
0.0
  0
LINE
  5
225F9
330
225B3
100
AcDbEntity
  8
0
  6
CONTINUOUS
100
AcDbLine
 10
23.71079143122431
 20
8.676255512130794
 30
0.0
 11
23.51071165584668
 21
8.876335287508416
 31
0.0
  0
LINE
  5
225FA
330
225B3
100
AcDbEntity
  8
0
  6
CONTINUOUS
100
AcDbLine
 10
30.73802122914428
 20
2.322544923291007
 30
0.0
 11
29.30199999996933
 21
3.758566152465961
 31
0.0
  0
LINE
  5
225FB
330
225B3
100
AcDbEntity
  8
0
  6
CONTINUOUS
100
AcDbLine
 10
30.74199999996924
 20
2.992085361546236
 30
0.0
 11
29.30199999996933
 21
4.432085361546148
 31
0.0
  0
LINE
  5
225FC
330
225B3
100
AcDbEntity
  8
0
  6
CONTINUOUS
100
AcDbLine
 10
30.74199999996924
 20
3.665604570626419
 30
0.0
 11
29.30199999996933
 21
5.105604570626333
 31
0.0
  0
LINE
  5
225FD
330
225B3
100
AcDbEntity
  8
0
  6
CONTINUOUS
100
AcDbLine
 10
30.74199999996925
 20
4.339123779706602
 30
0.0
 11
29.30199999996933
 21
5.77912377970652
 31
0.0
  0
LINE
  5
225FE
330
225B3
100
AcDbEntity
  8
0
  6
CONTINUOUS
100
AcDbLine
 10
30.74199999996925
 20
5.012642988786785
 30
0.0
 11
29.30199999996933
 21
6.452642988786707
 31
0.0
  0
LINE
  5
225FF
330
225B3
100
AcDbEntity
  8
0
  6
CONTINUOUS
100
AcDbLine
 10
30.74199999996925
 20
5.68616219786697
 30
0.0
 11
29.30199999996933
 21
7.126162197866894
 31
0.0
  0
LINE
  5
22600
330
225B3
100
AcDbEntity
  8
0
  6
CONTINUOUS
100
AcDbLine
 10
30.74199999996925
 20
6.359681406947153
 30
0.0
 11
29.30199999996933
 21
7.799681406947081
 31
0.0
  0
LINE
  5
22601
330
225B3
100
AcDbEntity
  8
0
  6
CONTINUOUS
100
AcDbLine
 10
30.74199999996926
 20
7.033200616027337
 30
0.0
 11
29.30199999996933
 21
8.473200616027269
 31
0.0
  0
LINE
  5
22602
330
225B3
100
AcDbEntity
  8
0
  6
CONTINUOUS
100
AcDbLine
 10
30.74199999996926
 20
7.706719825107518
 30
0.0
 11
29.68561982508552
 21
8.763099999991255
 31
0.0
  0
LINE
  5
22603
330
225B3
100
AcDbEntity
  8
0
  6
CONTINUOUS
100
AcDbLine
 10
30.74199999996926
 20
8.380239034187703
 30
0.0
 11
30.35913903416571
 21
8.763099999991255
 31
0.0
  0
ENDBLK
  5
226A6
330
225B3
100
AcDbEntity
  8
0
100
AcDbBlockEnd
  0
BLOCK
  5
226A7
330
22604
100
AcDbEntity
  8
0
100
AcDbBlockBegin
  2
*X27
 70
     1
 10
0.0
 20
0.0
 30
0.0
  3
*X27
  1

  0
LINE
  5
22605
330
22604
100
AcDbEntity
  8
0
  6
CONTINUOUS
100
AcDbLine
 10
31.64199999996833
 20
8.535058289913598
 30
0.0
 11
31.87004171004599
 21
8.763099999991255
 31
0.0
  0
LINE
  5
22606
330
22604
100
AcDbEntity
  8
0
  6
CONTINUOUS
100
AcDbLine
 10
31.64199999996833
 20
7.861539080833412
 30
0.0
 11
32.54356091912618
 21
8.763099999991255
 31
0.0
  0
LINE
  5
22607
330
22604
100
AcDbEntity
  8
0
  6
CONTINUOUS
100
AcDbLine
 10
31.64199999996833
 20
7.188019871753226
 30
0.0
 11
33.08199999996839
 21
8.628019871753281
 31
0.0
  0
LINE
  5
22608
330
22604
100
AcDbEntity
  8
0
  6
CONTINUOUS
100
AcDbLine
 10
31.64199999996833
 20
6.51450066267304
 30
0.0
 11
33.08199999996839
 21
7.954500662673095
 31
0.0
  0
LINE
  5
22609
330
22604
100
AcDbEntity
  8
0
  6
CONTINUOUS
100
AcDbLine
 10
31.64199999996833
 20
5.840981453592853
 30
0.0
 11
33.08199999996839
 21
7.280981453592908
 31
0.0
  0
LINE
  5
2260A
330
22604
100
AcDbEntity
  8
0
  6
CONTINUOUS
100
AcDbLine
 10
31.64199999996833
 20
5.167462244512667
 30
0.0
 11
33.08199999996839
 21
6.607462244512721
 31
0.0
  0
LINE
  5
2260B
330
22604
100
AcDbEntity
  8
0
  6
CONTINUOUS
100
AcDbLine
 10
31.64199999996833
 20
4.493943035432481
 30
0.0
 11
33.08199999996839
 21
5.933943035432535
 31
0.0
  0
LINE
  5
2260C
330
22604
100
AcDbEntity
  8
0
  6
CONTINUOUS
100
AcDbLine
 10
31.64199999996833
 20
3.820423826352293
 30
0.0
 11
33.08199999996839
 21
5.260423826352348
 31
0.0
  0
LINE
  5
2260D
330
22604
100
AcDbEntity
  8
0
  6
CONTINUOUS
100
AcDbLine
 10
31.64199999996833
 20
3.146904617272106
 30
0.0
 11
33.08199999996839
 21
4.586904617272161
 31
0.0
  0
LINE
  5
2260E
330
22604
100
AcDbEntity
  8
0
  6
CONTINUOUS
100
AcDbLine
 10
36.23199999996837
 20
8.410423826352325
 30
0.0
 11
36.5846761736073
 21
8.763099999991255
 31
0.0
  0
LINE
  5
2260F
330
22604
100
AcDbEntity
  8
0
  6
CONTINUOUS
100
AcDbLine
 10
36.23199999996837
 20
7.73690461727214
 30
0.0
 11
37.25819538268748
 21
8.763099999991255
 31
0.0
  0
LINE
  5
22610
330
22604
100
AcDbEntity
  8
0
  6
CONTINUOUS
100
AcDbLine
 10
31.64257403601376
 20
2.473959444237348
 30
0.0
 11
33.08199999996839
 21
3.913385408191974
 31
0.0
  0
LINE
  5
22611
330
22604
100
AcDbEntity
  8
0
  6
CONTINUOUS
100
AcDbLine
 10
36.23199999996837
 20
7.063385408191953
 30
0.0
 11
37.67199999996831
 21
8.503385408191894
 31
0.0
  0
LINE
  5
22612
330
22604
100
AcDbEntity
  8
0
  6
CONTINUOUS
100
AcDbLine
 10
31.72013636841932
 20
1.87800256756272
 30
0.0
 11
33.08199999996839
 21
3.239866199111788
 31
0.0
  0
LINE
  5
22613
330
22604
100
AcDbEntity
  8
0
  6
CONTINUOUS
100
AcDbLine
 10
36.23199999996837
 20
6.389866199111767
 30
0.0
 11
37.67199999996831
 21
7.829866199111708
 31
0.0
  0
LINE
  5
22614
330
22604
100
AcDbEntity
  8
0
  6
CONTINUOUS
100
AcDbLine
 10
31.89042734314753
 20
1.374774333210744
 30
0.0
 11
33.08199999996839
 21
2.566346990031601
 31
0.0
  0
LINE
  5
22615
330
22604
100
AcDbEntity
  8
0
  6
CONTINUOUS
100
AcDbLine
 10
36.23199999996837
 20
5.71634699003158
 30
0.0
 11
37.67199999996831
 21
7.156346990031521
 31
0.0
  0
LINE
  5
22616
330
22604
100
AcDbEntity
  8
0
  6
CONTINUOUS
100
AcDbLine
 10
32.14210568064475
 20
0.952933461627778
 30
0.0
 11
33.18745552475986
 21
1.998283305742888
 31
0.0
  0
LINE
  5
22617
330
22604
100
AcDbEntity
  8
0
  6
CONTINUOUS
100
AcDbLine
 10
36.23199999996837
 20
5.042827780951393
 30
0.0
 11
37.67199999996831
 21
6.482827780951334
 31
0.0
  0
LINE
  5
22618
330
22604
100
AcDbEntity
  8
0
  6
CONTINUOUS
100
AcDbLine
 10
32.45820639400955
 20
0.5955149659123915
 30
0.0
 11
33.47242681921943
 21
1.60973539112227
 31
0.0
  0
LINE
  5
22619
330
22604
100
AcDbEntity
  8
0
  6
CONTINUOUS
100
AcDbLine
 10
36.23199999996837
 20
4.369308571871207
 30
0.0
 11
37.67199999996831
 21
5.809308571871147
 31
0.0
  0
LINE
  5
2261A
330
22604
100
AcDbEntity
  8
0
  6
CONTINUOUS
100
AcDbLine
 10
32.83432456621412
 20
0.2981139290367771
 30
0.0
 11
33.89722476612215
 21
1.361014128944803
 31
0.0
  0
LINE
  5
2261B
330
22604
100
AcDbEntity
  8
0
  6
CONTINUOUS
100
AcDbLine
 10
36.23199999996837
 20
3.69578936279102
 30
0.0
 11
37.67199999996831
 21
5.135789362790962
 31
0.0
  0
LINE
  5
2261C
330
22604
100
AcDbEntity
  8
0
  6
CONTINUOUS
100
AcDbLine
 10
33.2711633111245
 20
0.0614334648669672
 30
0.0
 11
34.43247338014423
 21
1.222743533886696
 31
0.0
  0
LINE
  5
2261D
330
22604
100
AcDbEntity
  8
0
  6
CONTINUOUS
100
AcDbLine
 10
36.23199999996837
 20
3.022270153710834
 30
0.0
 11
37.67199999996831
 21
4.462270153710775
 31
0.0
  0
LINE
  5
2261E
330
22604
100
AcDbEntity
  8
0
  6
CONTINUOUS
100
AcDbLine
 10
33.76515245874577
 20
-0.1180965965919523
 30
0.0
 11
35.1587445516215
 21
1.27549549628378
 31
0.0
  0
LINE
  5
2261F
330
22604
100
AcDbEntity
  8
0
  6
CONTINUOUS
100
AcDbLine
 10
36.21639478609585
 20
2.333145730758136
 30
0.0
 11
37.67199999996831
 21
3.788750944630588
 31
0.0
  0
LINE
  5
22620
330
22604
100
AcDbEntity
  8
0
  6
CONTINUOUS
100
AcDbLine
 10
34.34060583368432
 20
-0.2161624307335863
 30
0.0
 11
37.67199999996831
 21
3.115231735550401
 31
0.0
  0
LINE
  5
22621
330
22604
100
AcDbEntity
  8
0
  6
CONTINUOUS
100
AcDbLine
 10
35.01698193613905
 20
-0.2133055373590427
 30
0.0
 11
37.66876712070525
 21
2.438479647207154
 31
0.0
  0
LINE
  5
22622
330
22604
100
AcDbEntity
  8
0
  6
CONTINUOUS
100
AcDbLine
 10
35.90743367693304
 20
0.0036269943547609
 30
0.0
 11
37.51723902192366
 21
1.613432339345381
 31
0.0
  0
LINE
  5
22623
330
22604
100
AcDbEntity
  8
0
  6
CONTINUOUS
100
AcDbLine
 10
32.55309425579761
 20
0.5074718966376706
 30
0.0
 11
32.27784730925847
 21
0.7827188431768102
 31
0.0
  0
LINE
  5
22624
330
22604
100
AcDbEntity
  8
0
  6
CONTINUOUS
100
AcDbLine
 10
33.87496468909684
 20
-0.1408793275813673
 30
0.0
 11
31.67993083278052
 21
2.054154528734943
 31
0.0
  0
LINE
  5
22625
330
22604
100
AcDbEntity
  8
0
  6
CONTINUOUS
100
AcDbLine
 10
34.64362813207632
 20
-0.2360235614806649
 30
0.0
 11
31.64199999996833
 21
2.765604570627322
 31
0.0
  0
LINE
  5
22626
330
22604
100
AcDbEntity
  8
0
  6
CONTINUOUS
100
AcDbLine
 10
35.25801106796118
 20
-0.1768872882853429
 30
0.0
 11
31.64199999996833
 21
3.439123779707508
 31
0.0
  0
LINE
  5
22627
330
22604
100
AcDbEntity
  8
0
  6
CONTINUOUS
100
AcDbLine
 10
35.79065650332146
 20
-0.0360135145654361
 30
0.0
 11
34.54143210838231
 21
1.213210880373721
 31
0.0
  0
LINE
  5
22628
330
22604
100
AcDbEntity
  8
0
  6
CONTINUOUS
100
AcDbLine
 10
33.08199999996839
 20
2.67264298878764
 30
0.0
 11
31.64199999996833
 21
4.112642988787695
 31
0.0
  0
LINE
  5
22629
330
22604
100
AcDbEntity
  8
0
  6
CONTINUOUS
100
AcDbLine
 10
36.25975597779143
 20
0.1684062200447833
 30
0.0
 11
35.15395110240023
 21
1.274211095435983
 31
0.0
  0
LINE
  5
2262A
330
22604
100
AcDbEntity
  8
0
  6
CONTINUOUS
100
AcDbLine
 10
33.08199999996839
 20
3.346162197867826
 30
0.0
 11
31.64199999996833
 21
4.786162197867881
 31
0.0
  0
LINE
  5
2262B
330
22604
100
AcDbEntity
  8
0
  6
CONTINUOUS
100
AcDbLine
 10
36.67226329638774
 20
0.4294181105286579
 30
0.0
 11
35.63766478748767
 21
1.464016619428737
 31
0.0
  0
LINE
  5
2262C
330
22604
100
AcDbEntity
  8
0
  6
CONTINUOUS
100
AcDbLine
 10
33.08199999996839
 20
4.019681406948012
 30
0.0
 11
31.64199999996833
 21
5.459681406948068
 31
0.0
  0
LINE
  5
2262D
330
22604
100
AcDbEntity
  8
0
  6
CONTINUOUS
100
AcDbLine
 10
37.01677749710036
 20
0.7584231188962329
 30
0.0
 11
35.99563422741351
 21
1.779566388583076
 31
0.0
  0
LINE
  5
2262E
330
22604
100
AcDbEntity
  8
0
  6
CONTINUOUS
100
AcDbLine
 10
33.08199999996839
 20
4.693200616028199
 30
0.0
 11
31.64199999996833
 21
6.133200616028255
 31
0.0
  0
LINE
  5
2262F
330
22604
100
AcDbEntity
  8
0
  6
CONTINUOUS
100
AcDbLine
 10
37.29859977568887
 20
1.1501200493879
 30
0.0
 11
36.20680593341555
 21
2.241913891661226
 31
0.0
  0
LINE
  5
22630
330
22604
100
AcDbEntity
  8
0
  6
CONTINUOUS
100
AcDbLine
 10
33.08199999996839
 20
5.366719825108386
 30
0.0
 11
31.64199999996833
 21
6.80671982510844
 31
0.0
  0
LINE
  5
22631
330
22604
100
AcDbEntity
  8
0
  6
CONTINUOUS
100
AcDbLine
 10
37.5148623517228
 20
1.607376682434161
 30
0.0
 11
36.23199999996837
 21
2.890239034188594
 31
0.0
  0
LINE
  5
22632
330
22604
100
AcDbEntity
  8
0
  6
CONTINUOUS
100
AcDbLine
 10
33.08199999996839
 20
6.040239034188573
 30
0.0
 11
31.64199999996833
 21
7.480239034188627
 31
0.0
  0
LINE
  5
22633
330
22604
100
AcDbEntity
  8
0
  6
CONTINUOUS
100
AcDbLine
 10
37.64705163358367
 20
2.148706609653477
 30
0.0
 11
36.23199999996837
 21
3.56375824326878
 31
0.0
  0
LINE
  5
22634
330
22604
100
AcDbEntity
  8
0
  6
CONTINUOUS
100
AcDbLine
 10
33.08199999996839
 20
6.713758243268758
 30
0.0
 11
31.64199999996833
 21
8.153758243268815
 31
0.0
  0
LINE
  5
22635
330
22604
100
AcDbEntity
  8
0
  6
CONTINUOUS
100
AcDbLine
 10
37.67199999996831
 20
2.797277452349026
 30
0.0
 11
36.23199999996837
 21
4.237277452348967
 31
0.0
  0
LINE
  5
22636
330
22604
100
AcDbEntity
  8
0
  6
CONTINUOUS
100
AcDbLine
 10
37.67199999996831
 20
3.470796661429213
 30
0.0
 11
36.23199999996837
 21
4.910796661429154
 31
0.0
  0
LINE
  5
22637
330
22604
100
AcDbEntity
  8
0
  6
CONTINUOUS
100
AcDbLine
 10
37.67199999996831
 20
4.144315870509399
 30
0.0
 11
36.23199999996837
 21
5.58431587050934
 31
0.0
  0
LINE
  5
22638
330
22604
100
AcDbEntity
  8
0
  6
CONTINUOUS
100
AcDbLine
 10
33.08199999996839
 20
7.387277452348945
 30
0.0
 11
31.70617745232608
 21
8.763099999991255
 31
0.0
  0
LINE
  5
22639
330
22604
100
AcDbEntity
  8
0
  6
CONTINUOUS
100
AcDbLine
 10
33.08199999996839
 20
8.060796661429132
 30
0.0
 11
32.37969666140626
 21
8.763099999991255
 31
0.0
  0
LINE
  5
2263A
330
22604
100
AcDbEntity
  8
0
  6
CONTINUOUS
100
AcDbLine
 10
33.08199999996839
 20
8.734315870509318
 30
0.0
 11
33.05321587048645
 21
8.763099999991255
 31
0.0
  0
LINE
  5
2263B
330
22604
100
AcDbEntity
  8
0
  6
CONTINUOUS
100
AcDbLine
 10
37.67199999996831
 20
4.817835079589585
 30
0.0
 11
36.23199999996837
 21
6.257835079589526
 31
0.0
  0
LINE
  5
2263C
330
22604
100
AcDbEntity
  8
0
  6
CONTINUOUS
100
AcDbLine
 10
37.67199999996831
 20
5.491354288669771
 30
0.0
 11
36.23199999996837
 21
6.931354288669713
 31
0.0
  0
LINE
  5
2263D
330
22604
100
AcDbEntity
  8
0
  6
CONTINUOUS
100
AcDbLine
 10
37.67199999996831
 20
6.164873497749958
 30
0.0
 11
36.23199999996837
 21
7.6048734977499
 31
0.0
  0
LINE
  5
2263E
330
22604
100
AcDbEntity
  8
0
  6
CONTINUOUS
100
AcDbLine
 10
37.67199999996831
 20
6.838392706830144
 30
0.0
 11
36.23199999996837
 21
8.278392706830086
 31
0.0
  0
LINE
  5
2263F
330
22604
100
AcDbEntity
  8
0
  6
CONTINUOUS
100
AcDbLine
 10
37.67199999996831
 20
7.511911915910332
 30
0.0
 11
36.42081191588738
 21
8.763099999991255
 31
0.0
  0
LINE
  5
22640
330
22604
100
AcDbEntity
  8
0
  6
CONTINUOUS
100
AcDbLine
 10
37.67199999996831
 20
8.185431124990519
 30
0.0
 11
37.09433112496757
 21
8.763099999991255
 31
0.0
  0
ENDBLK
  5
226A8
330
22604
100
AcDbEntity
  8
0
100
AcDbBlockEnd
  0
BLOCK
  5
226A9
330
22641
100
AcDbEntity
  8
0
100
AcDbBlockBegin
  2
*X28
 70
     1
 10
0.0
 20
0.0
 30
0.0
  3
*X28
  1

  0
LINE
  5
22642
330
22641
100
AcDbEntity
  8
0
  6
CONTINUOUS
100
AcDbLine
 10
38.60499999996136
 20
8.762866199104765
 30
0.0
 11
38.71672554182345
 21
8.874591740966855
 31
0.0
  0
LINE
  5
22643
330
22641
100
AcDbEntity
  8
0
  6
CONTINUOUS
100
AcDbLine
 10
38.60499999996136
 20
8.089346990024577
 30
0.0
 11
39.03418785440363
 21
8.518534844466847
 31
0.0
  0
LINE
  5
22644
330
22641
100
AcDbEntity
  8
0
  6
CONTINUOUS
100
AcDbLine
 10
38.60499999996136
 20
7.41582778094439
 30
0.0
 11
39.35165016698382
 21
8.16247794796684
 31
0.0
  0
LINE
  5
22645
330
22641
100
AcDbEntity
  8
0
  6
CONTINUOUS
100
AcDbLine
 10
38.60499999996136
 20
6.742308571864204
 30
0.0
 11
39.66911247956399
 21
7.806421051466834
 31
0.0
  0
LINE
  5
22646
330
22641
100
AcDbEntity
  8
0
  6
CONTINUOUS
100
AcDbLine
 10
38.60499999996136
 20
6.068789362784018
 30
0.0
 11
39.98657479214418
 21
7.450364154966827
 31
0.0
  0
LINE
  5
22647
330
22641
100
AcDbEntity
  8
0
  6
CONTINUOUS
100
AcDbLine
 10
38.60499999996136
 20
5.395270153703832
 30
0.0
 11
40.30403710472435
 21
7.09430725846682
 31
0.0
  0
LINE
  5
22648
330
22641
100
AcDbEntity
  8
0
  6
CONTINUOUS
100
AcDbLine
 10
38.60499999996136
 20
4.721750944623645
 30
0.0
 11
40.62149941730453
 21
6.738250361966813
 31
0.0
  0
LINE
  5
22649
330
22641
100
AcDbEntity
  8
0
  6
CONTINUOUS
100
AcDbLine
 10
38.60499999996136
 20
4.048231735543458
 30
0.0
 11
40.93896172988471
 21
6.382193465466806
 31
0.0
  0
LINE
  5
2264A
330
22641
100
AcDbEntity
  8
0
  6
CONTINUOUS
100
AcDbLine
 10
38.60499999996136
 20
3.374712526463272
 30
0.0
 11
40.02599999995994
 21
4.795712526461843
 31
0.0
  0
LINE
  5
2264B
330
22641
100
AcDbEntity
  8
0
  6
CONTINUOUS
100
AcDbLine
 10
38.60499999996136
 20
2.701193317383085
 30
0.0
 11
40.02599999995994
 21
4.122193317381657
 31
0.0
  0
LINE
  5
2264C
330
22641
100
AcDbEntity
  8
0
  6
CONTINUOUS
100
AcDbLine
 10
40.28339754687704
 20
5.053110073378947
 30
0.0
 11
41.25642404246489
 21
6.026136568966799
 31
0.0
  0
LINE
  5
2264D
330
22641
100
AcDbEntity
  8
0
  6
CONTINUOUS
100
AcDbLine
 10
40.60085985945722
 20
4.697053176878939
 30
0.0
 11
41.57388635504507
 21
5.670079672466793
 31
0.0
  0
LINE
  5
2264E
330
22641
100
AcDbEntity
  8
0
  6
CONTINUOUS
100
AcDbLine
 10
43.57899999995641
 20
8.348712526458318
 30
0.0
 11
43.99338747348935
 21
8.763099999991255
 31
0.0
  0
LINE
  5
2264F
330
22641
100
AcDbEntity
  8
0
  6
CONTINUOUS
100
AcDbLine
 10
43.57899999995641
 20
7.675193317378131
 30
0.0
 11
44.66690668256953
 21
8.763099999991255
 31
0.0
  0
LINE
  5
22650
330
22641
100
AcDbEntity
  8
0
  6
CONTINUOUS
100
AcDbLine
 10
38.60499999996136
 20
2.027674108302898
 30
0.0
 11
40.02599999995994
 21
3.44867410830147
 31
0.0
  0
LINE
  5
22651
330
22641
100
AcDbEntity
  8
0
  6
CONTINUOUS
100
AcDbLine
 10
38.60499999996136
 20
1.354154899222712
 30
0.0
 11
40.02599999995994
 21
2.775154899221284
 31
0.0
  0
LINE
  5
22652
330
22641
100
AcDbEntity
  8
0
  6
CONTINUOUS
100
AcDbLine
 10
38.60499999996136
 20
0.6806356901425255
 30
0.0
 11
40.02599999995994
 21
2.101635690141098
 31
0.0
  0
LINE
  5
22653
330
22641
100
AcDbEntity
  8
0
  6
CONTINUOUS
100
AcDbLine
 10
38.60499999996136
 20
0.0071164810623383
 30
0.0
 11
40.02599999995994
 21
1.428116481060911
 31
0.0
  0
LINE
  5
22654
330
22641
100
AcDbEntity
  8
0
  6
CONTINUOUS
100
AcDbLine
 10
40.9183221720374
 20
4.340996280378933
 30
0.0
 11
41.89134866762525
 21
5.314022775966786
 31
0.0
  0
LINE
  5
22655
330
22641
100
AcDbEntity
  8
0
  6
CONTINUOUS
100
AcDbLine
 10
41.23578448461758
 20
3.984939383878926
 30
0.0
 11
42.20881098020543
 21
4.957965879466778
 31
0.0
  0
LINE
  5
22656
330
22641
100
AcDbEntity
  8
0
  6
CONTINUOUS
100
AcDbLine
 10
41.55324679719776
 20
3.628882487378919
 30
0.0
 11
42.52627329278561
 21
4.601908982966772
 31
0.0
  0
LINE
  5
22657
330
22641
100
AcDbEntity
  8
0
  6
CONTINUOUS
100
AcDbLine
 10
41.87070910977793
 20
3.272825590878912
 30
0.0
 11
42.84373560536579
 21
4.245852086466765
 31
0.0
  0
LINE
  5
22658
330
22641
100
AcDbEntity
  8
0
  6
CONTINUOUS
100
AcDbLine
 10
43.57899999995641
 20
7.001674108297943
 30
0.0
 11
44.99999999995498
 21
8.422674108296516
 31
0.0
  0
LINE
  5
22659
330
22641
100
AcDbEntity
  8
0
  6
CONTINUOUS
100
AcDbLine
 10
43.57899999995641
 20
6.328154899217758
 30
0.0
 11
44.99999999995498
 21
7.749154899216329
 31
0.0
  0
LINE
  5
2265A
330
22641
100
AcDbEntity
  8
0
  6
CONTINUOUS
100
AcDbLine
 10
43.57899999995641
 20
5.654635690137571
 30
0.0
 11
44.99999999995498
 21
7.075635690136142
 31
0.0
  0
LINE
  5
2265B
330
22641
100
AcDbEntity
  8
0
  6
CONTINUOUS
100
AcDbLine
 10
43.57899999995641
 20
4.981116481057384
 30
0.0
 11
44.99999999995498
 21
6.402116481055955
 31
0.0
  0
LINE
  5
2265C
330
22641
100
AcDbEntity
  8
0
  6
CONTINUOUS
100
AcDbLine
 10
39.27140272797921
 20
-0.0000000000000009
 30
0.0
 11
40.02599999995994
 21
0.7545972719807246
 31
0.0
  0
LINE
  5
2265D
330
22641
100
AcDbEntity
  8
0
  6
CONTINUOUS
100
AcDbLine
 10
39.9449219370594
 20
-0.0000000000000009
 30
0.0
 11
40.02599999995994
 21
0.0810780629005379
 31
0.0
  0
LINE
  5
2265E
330
22641
100
AcDbEntity
  8
0
  6
CONTINUOUS
100
AcDbLine
 10
42.18817142235812
 20
2.916768694378905
 30
0.0
 11
43.16119791794597
 21
3.889795189966758
 31
0.0
  0
LINE
  5
2265F
330
22641
100
AcDbEntity
  8
0
  6
CONTINUOUS
100
AcDbLine
 10
42.50563373493829
 20
2.560711797878898
 30
0.0
 11
43.47866023052615
 21
3.533738293466751
 31
0.0
  0
LINE
  5
22660
330
22641
100
AcDbEntity
  8
0
  6
CONTINUOUS
100
AcDbLine
 10
43.57899999995641
 20
4.307597271977198
 30
0.0
 11
44.99999999995498
 21
5.728597271975769
 31
0.0
  0
LINE
  5
22661
330
22641
100
AcDbEntity
  8
0
  6
CONTINUOUS
100
AcDbLine
 10
43.57899999995641
 20
3.634078062897011
 30
0.0
 11
44.99999999995498
 21
5.055078062895582
 31
0.0
  0
LINE
  5
22662
330
22641
100
AcDbEntity
  8
0
  6
CONTINUOUS
100
AcDbLine
 10
42.82309604751848
 20
2.204654901378891
 30
0.0
 11
44.99999999995498
 21
4.381558853815395
 31
0.0
  0
LINE
  5
22663
330
22641
100
AcDbEntity
  8
0
  6
CONTINUOUS
100
AcDbLine
 10
43.14055836009865
 20
1.848598004878885
 30
0.0
 11
44.99999999995498
 21
3.70803964473521
 31
0.0
  0
LINE
  5
22664
330
22641
100
AcDbEntity
  8
0
  6
CONTINUOUS
100
AcDbLine
 10
43.45802067267883
 20
1.492541108378878
 30
0.0
 11
44.99999999995498
 21
3.034520435655023
 31
0.0
  0
LINE
  5
22665
330
22641
100
AcDbEntity
  8
0
  6
CONTINUOUS
100
AcDbLine
 10
43.77548298525902
 20
1.136484211878871
 30
0.0
 11
44.99999999995498
 21
2.361001226574837
 31
0.0
  0
LINE
  5
22666
330
22641
100
AcDbEntity
  8
0
  6
CONTINUOUS
100
AcDbLine
 10
44.09294529783919
 20
0.7804273153788639
 30
0.0
 11
44.99999999995498
 21
1.687482017494649
 31
0.0
  0
LINE
  5
22667
330
22641
100
AcDbEntity
  8
0
  6
CONTINUOUS
100
AcDbLine
 10
44.41040761041938
 20
0.4243704188788566
 30
0.0
 11
44.99999999995498
 21
1.013962808414463
 31
0.0
  0
LINE
  5
22668
330
22641
100
AcDbEntity
  8
0
  6
CONTINUOUS
100
AcDbLine
 10
44.72786992299955
 20
0.0683135223788494
 30
0.0
 11
44.99999999995498
 21
0.340443599334276
 31
0.0
  0
LINE
  5
22669
330
22641
100
AcDbEntity
  8
0
  6
CONTINUOUS
100
AcDbLine
 10
39.12223903415696
 20
-0.0000000000000009
 30
0.0
 11
38.60499999996136
 21
0.5172390341955961
 31
0.0
  0
LINE
  5
2266A
330
22641
100
AcDbEntity
  8
0
  6
CONTINUOUS
100
AcDbLine
 10
39.79575824323715
 20
-0.0000000000000009
 30
0.0
 11
38.60499999996136
 21
1.190758243275783
 31
0.0
  0
LINE
  5
2266B
330
22641
100
AcDbEntity
  8
0
  6
CONTINUOUS
100
AcDbLine
 10
40.02599999995994
 20
0.443277452357397
 30
0.0
 11
38.60499999996136
 21
1.864277452355969
 31
0.0
  0
LINE
  5
2266C
330
22641
100
AcDbEntity
  8
0
  6
CONTINUOUS
100
AcDbLine
 10
40.02599999995994
 20
1.116796661437583
 30
0.0
 11
38.60499999996136
 21
2.537796661436155
 31
0.0
  0
LINE
  5
2266D
330
22641
100
AcDbEntity
  8
0
  6
CONTINUOUS
100
AcDbLine
 10
40.02599999995994
 20
1.79031587051777
 30
0.0
 11
38.60499999996136
 21
3.211315870516341
 31
0.0
  0
LINE
  5
2266E
330
22641
100
AcDbEntity
  8
0
  6
CONTINUOUS
100
AcDbLine
 10
40.02599999995994
 20
2.463835079597956
 30
0.0
 11
38.60499999996136
 21
3.884835079596527
 31
0.0
  0
LINE
  5
2266F
330
22641
100
AcDbEntity
  8
0
  6
CONTINUOUS
100
AcDbLine
 10
40.02599999995994
 20
3.137354288678143
 30
0.0
 11
38.60499999996136
 21
4.558354288676714
 31
0.0
  0
LINE
  5
22670
330
22641
100
AcDbEntity
  8
0
  6
CONTINUOUS
100
AcDbLine
 10
40.02599999995994
 20
3.810873497758329
 30
0.0
 11
38.60499999996136
 21
5.2318734977569
 31
0.0
  0
LINE
  5
22671
330
22641
100
AcDbEntity
  8
0
  6
CONTINUOUS
100
AcDbLine
 10
40.02599999995994
 20
4.484392706838515
 30
0.0
 11
38.60499999996136
 21
5.905392706837086
 31
0.0
  0
LINE
  5
22672
330
22641
100
AcDbEntity
  8
0
  6
CONTINUOUS
100
AcDbLine
 10
44.99999999995498
 20
0.183911915923658
 30
0.0
 11
41.53858364506288
 21
3.64532827081576
 31
0.0
  0
LINE
  5
22673
330
22641
100
AcDbEntity
  8
0
  6
CONTINUOUS
100
AcDbLine
 10
40.02599999995994
 20
5.157911915918703
 30
0.0
 11
38.60499999996136
 21
6.578911915917274
 31
0.0
  0
LINE
  5
22674
330
22641
100
AcDbEntity
  8
0
  6
CONTINUOUS
100
AcDbLine
 10
44.99999999995498
 20
0.8574311250038447
 30
0.0
 11
38.60499999996136
 21
7.25243112499746
 31
0.0
  0
LINE
  5
22675
330
22641
100
AcDbEntity
  8
0
  6
CONTINUOUS
100
AcDbLine
 10
44.99999999995498
 20
1.530950334084031
 30
0.0
 11
38.60499999996136
 21
7.925950334077647
 31
0.0
  0
LINE
  5
22676
330
22641
100
AcDbEntity
  8
0
  6
CONTINUOUS
100
AcDbLine
 10
44.99999999995498
 20
2.204469543164218
 30
0.0
 11
43.57899999995641
 21
3.625469543162789
 31
0.0
  0
LINE
  5
22677
330
22641
100
AcDbEntity
  8
0
  6
CONTINUOUS
100
AcDbLine
 10
41.89876730984767
 20
5.305702233271528
 30
0.0
 11
38.60499999996136
 21
8.599469543157834
 31
0.0
  0
LINE
  5
22678
330
22641
100
AcDbEntity
  8
0
  6
CONTINUOUS
100
AcDbLine
 10
44.99999999995498
 20
2.877988752244405
 30
0.0
 11
43.57899999995641
 21
4.298988752242975
 31
0.0
  0
LINE
  5
22679
330
22641
100
AcDbEntity
  8
0
  6
CONTINUOUS
100
AcDbLine
 10
44.99999999995498
 20
3.551507961324591
 30
0.0
 11
43.57899999995641
 21
4.972507961323163
 31
0.0
  0
LINE
  5
2267A
330
22641
100
AcDbEntity
  8
0
  6
CONTINUOUS
100
AcDbLine
 10
44.99999999995498
 20
4.225027170404777
 30
0.0
 11
43.57899999995641
 21
5.646027170403348
 31
0.0
  0
LINE
  5
2267B
330
22641
100
AcDbEntity
  8
0
  6
CONTINUOUS
100
AcDbLine
 10
44.99999999995498
 20
4.898546379484964
 30
0.0
 11
43.57899999995641
 21
6.319546379483535
 31
0.0
  0
LINE
  5
2267C
330
22641
100
AcDbEntity
  8
0
  6
CONTINUOUS
100
AcDbLine
 10
44.99999999995498
 20
5.572065588565151
 30
0.0
 11
43.57899999995641
 21
6.993065588563722
 31
0.0
  0
LINE
  5
2267D
330
22641
100
AcDbEntity
  8
0
  6
CONTINUOUS
100
AcDbLine
 10
44.99999999995498
 20
6.245584797645336
 30
0.0
 11
43.57899999995641
 21
7.666584797643908
 31
0.0
  0
LINE
  5
2267E
330
22641
100
AcDbEntity
  8
0
  6
CONTINUOUS
100
AcDbLine
 10
44.99999999995498
 20
6.919104006725522
 30
0.0
 11
43.57899999995641
 21
8.340104006724093
 31
0.0
  0
LINE
  5
2267F
330
22641
100
AcDbEntity
  8
0
  6
CONTINUOUS
100
AcDbLine
 10
44.99999999995498
 20
7.592623215805709
 30
0.0
 11
43.82952321576943
 21
8.763099999991255
 31
0.0
  0
LINE
  5
22680
330
22641
100
AcDbEntity
  8
0
  6
CONTINUOUS
100
AcDbLine
 10
44.99999999995498
 20
8.266142424885896
 30
0.0
 11
44.50304242484962
 21
8.763099999991255
 31
0.0
  0
ENDBLK
  5
226AA
330
22641
100
AcDbEntity
  8
0
100
AcDbBlockEnd
  0
BLOCK
  5
226AB
330
22681
100
AcDbEntity
  8
0
100
AcDbBlockBegin
  2
*X29
 70
     1
 10
0.0
 20
0.0
 30
0.0
  3
*X29
  1

  0
LINE
  5
22682
330
22681
100
AcDbEntity
  8
0
  6
CONTINUOUS
100
AcDbLine
 10
0.0
 20
8.548461116714023
 30
0.0
 11
0.2146388832772324
 21
8.763099999991255
 31
0.0
  0
LINE
  5
22683
330
22681
100
AcDbEntity
  8
0
  6
CONTINUOUS
100
AcDbLine
 10
-0.0000000000000002
 20
7.874941907633837
 30
0.0
 11
0.8881580923574184
 21
8.763099999991255
 31
0.0
  0
LINE
  5
22684
330
22681
100
AcDbEntity
  8
0
  6
CONTINUOUS
100
AcDbLine
 10
0.0
 20
7.20142269855365
 30
0.0
 11
1.420999999998572
 21
8.622422698552223
 31
0.0
  0
LINE
  5
22685
330
22681
100
AcDbEntity
  8
0
  6
CONTINUOUS
100
AcDbLine
 10
-0.0000000000000001
 20
6.527903489473465
 30
0.0
 11
1.420999999998571
 21
7.948903489472036
 31
0.0
  0
LINE
  5
22686
330
22681
100
AcDbEntity
  8
0
  6
CONTINUOUS
100
AcDbLine
 10
-0.0000000000000002
 20
5.854384280393278
 30
0.0
 11
1.420999999998571
 21
7.275384280391849
 31
0.0
  0
LINE
  5
22687
330
22681
100
AcDbEntity
  8
0
  6
CONTINUOUS
100
AcDbLine
 10
-0.0000000000000002
 20
5.180865071313091
 30
0.0
 11
1.420999999998571
 21
6.601865071311663
 31
0.0
  0
LINE
  5
22688
330
22681
100
AcDbEntity
  8
0
  6
CONTINUOUS
100
AcDbLine
 10
0.0
 20
4.507345862232905
 30
0.0
 11
1.420999999998571
 21
5.928345862231477
 31
0.0
  0
LINE
  5
22689
330
22681
100
AcDbEntity
  8
0
  6
CONTINUOUS
100
AcDbLine
 10
-0.0000000000000003
 20
3.833826653152718
 30
0.0
 11
1.420999999998571
 21
5.25482665315129
 31
0.0
  0
LINE
  5
2268A
330
22681
100
AcDbEntity
  8
0
  6
CONTINUOUS
100
AcDbLine
 10
-0.0000000000000002
 20
3.160307444072532
 30
0.0
 11
1.420999999998571
 21
4.581307444071103
 31
0.0
  0
LINE
  5
2268B
330
22681
100
AcDbEntity
  8
0
  6
CONTINUOUS
100
AcDbLine
 10
-0.0000000000000001
 20
2.486788234992345
 30
0.0
 11
1.420999999998571
 21
3.907788234990917
 31
0.0
  0
LINE
  5
2268C
330
22681
100
AcDbEntity
  8
0
  6
CONTINUOUS
100
AcDbLine
 10
-0.0000000000000006
 20
1.813269025912159
 30
0.0
 11
1.420999999998571
 21
3.234269025910731
 31
0.0
  0
LINE
  5
2268D
330
22681
100
AcDbEntity
  8
0
  6
CONTINUOUS
100
AcDbLine
 10
0.0
 20
1.139749816831973
 30
0.0
 11
1.420999999998571
 21
2.560749816830544
 31
0.0
  0
LINE
  5
2268E
330
22681
100
AcDbEntity
  8
0
  6
CONTINUOUS
100
AcDbLine
 10
0.0000000000000002
 20
0.466230607751787
 30
0.0
 11
1.420999999998571
 21
1.887230607750358
 31
0.0
  0
LINE
  5
2268F
330
22681
100
AcDbEntity
  8
0
  6
CONTINUOUS
100
AcDbLine
 10
0.2072886013284003
 20
-0.0000000000000009
 30
0.0
 11
1.420999999998571
 21
1.213711398670171
 31
0.0
  0
LINE
  5
22690
330
22681
100
AcDbEntity
  8
0
  6
CONTINUOUS
100
AcDbLine
 10
0.8808078104085864
 20
-0.0000000000000009
 30
0.0
 11
1.420999999998571
 21
0.5401921895899839
 31
0.0
  0
LINE
  5
22691
330
22681
100
AcDbEntity
  8
0
  6
CONTINUOUS
100
AcDbLine
 10
0.0581249075061505
 20
-0.0000000000000009
 30
0.0
 11
-0.0000000000000002
 21
0.0581249075061496
 31
0.0
  0
LINE
  5
22692
330
22681
100
AcDbEntity
  8
0
  6
CONTINUOUS
100
AcDbLine
 10
0.7316441165863372
 20
-0.0000000000000009
 30
0.0
 11
-0.0000000000000002
 21
0.7316441165863363
 31
0.0
  0
LINE
  5
22693
330
22681
100
AcDbEntity
  8
0
  6
CONTINUOUS
100
AcDbLine
 10
1.405163325666523
 20
-0.0000000000000009
 30
0.0
 11
-0.0000000000000002
 21
1.405163325666523
 31
0.0
  0
LINE
  5
22694
330
22681
100
AcDbEntity
  8
0
  6
CONTINUOUS
100
AcDbLine
 10
1.420999999998572
 20
0.6576825347481381
 30
0.0
 11
-0.0000000000000001
 21
2.07868253474671
 31
0.0
  0
LINE
  5
22695
330
22681
100
AcDbEntity
  8
0
  6
CONTINUOUS
100
AcDbLine
 10
1.420999999998571
 20
1.331201743828324
 30
0.0
 11
-0.0000000000000001
 21
2.752201743826896
 31
0.0
  0
LINE
  5
22696
330
22681
100
AcDbEntity
  8
0
  6
CONTINUOUS
100
AcDbLine
 10
1.420999999998571
 20
2.004720952908511
 30
0.0
 11
-0.0000000000000002
 21
3.425720952907082
 31
0.0
  0
LINE
  5
22697
330
22681
100
AcDbEntity
  8
0
  6
CONTINUOUS
100
AcDbLine
 10
1.420999999998571
 20
2.678240161988697
 30
0.0
 11
-0.0000000000000001
 21
4.099240161987269
 31
0.0
  0
LINE
  5
22698
330
22681
100
AcDbEntity
  8
0
  6
CONTINUOUS
100
AcDbLine
 10
1.420999999998572
 20
3.351759371068884
 30
0.0
 11
0.0
 21
4.772759371067455
 31
0.0
  0
LINE
  5
22699
330
22681
100
AcDbEntity
  8
0
  6
CONTINUOUS
100
AcDbLine
 10
1.420999999998571
 20
4.02527858014907
 30
0.0
 11
-0.0000000000000003
 21
5.446278580147642
 31
0.0
  0
LINE
  5
2269A
330
22681
100
AcDbEntity
  8
0
  6
CONTINUOUS
100
AcDbLine
 10
1.420999999998571
 20
4.698797789229257
 30
0.0
 11
0.0
 21
6.119797789227828
 31
0.0
  0
LINE
  5
2269B
330
22681
100
AcDbEntity
  8
0
  6
CONTINUOUS
100
AcDbLine
 10
1.420999999998571
 20
5.372316998309444
 30
0.0
 11
-0.0000000000000001
 21
6.793316998308015
 31
0.0
  0
LINE
  5
2269C
330
22681
100
AcDbEntity
  8
0
  6
CONTINUOUS
100
AcDbLine
 10
1.420999999998572
 20
6.045836207389629
 30
0.0
 11
-0.0000000000000004
 21
7.466836207388202
 31
0.0
  0
LINE
  5
2269D
330
22681
100
AcDbEntity
  8
0
  6
CONTINUOUS
100
AcDbLine
 10
1.420999999998571
 20
6.719355416469816
 30
0.0
 11
0.0
 21
8.140355416468388
 31
0.0
  0
LINE
  5
2269E
330
22681
100
AcDbEntity
  8
0
  6
CONTINUOUS
100
AcDbLine
 10
1.420999999998571
 20
7.392874625550003
 30
0.0
 11
0.0507746255573185
 21
8.763099999991255
 31
0.0
  0
LINE
  5
2269F
330
22681
100
AcDbEntity
  8
0
  6
CONTINUOUS
100
AcDbLine
 10
1.420999999998571
 20
8.06639383463019
 30
0.0
 11
0.7242938346375052
 21
8.763099999991255
 31
0.0
  0
LINE
  5
226A0
330
22681
100
AcDbEntity
  8
0
  6
CONTINUOUS
100
AcDbLine
 10
1.420999999998571
 20
8.739913043710375
 30
0.0
 11
1.397813043717691
 21
8.763099999991255
 31
0.0
  0
ENDBLK
  5
226AC
330
22681
100
AcDbEntity
  8
0
100
AcDbBlockEnd
  0
ENDSEC
  0
SECTION
  2
ENTITIES
  0
TEXT
  5
1DB9B
330
18
100
AcDbEntity
  8
1TEXT
100
AcDbText
 10
513.3706615454182
 20
-482.8676230470635
 30
0.0
 40
8.0
  1
S-KE-071-XC
100
AcDbText
  0
TEXT
  5
21224
330
18
100
AcDbEntity
  8
1TEXT
100
AcDbText
 10
548.7306615454179
 20
-493.3676230470635
 30
0.0
 40
4.0
  1
表面処理：レール
 41
0.9
 72
     1
 11
565.7706615454179
 21
-493.3676230470635
 31
0.0
100
AcDbText
  0
TEXT
  5
21225
330
18
100
AcDbEntity
  8
1TEXT
100
AcDbText
 10
561.4373282120845
 20
-500.2029117065879
 30
0.0
 40
4.0
  1
鏡面
 72
     1
 11
565.7706615454179
 21
-500.2029117065879
 31
0.0
100
AcDbText
  0
LINE
  5
21226
330
18
100
AcDbEntity
  8
1DIM
100
AcDbLine
 10
513.3706615454182
 20
-487.8676230470635
 30
0.0
 11
618.3706615454182
 21
-487.8676230470635
 31
0.0
  0
LINE
  5
21227
330
18
100
AcDbEntity
  8
1DIM
100
AcDbLine
 10
513.3706615454182
 20
-501.8676230470635
 30
0.0
 11
618.3706615454182
 21
-501.8676230470635
 31
0.0
  0
LINE
  5
21228
330
18
100
AcDbEntity
  8
1DIM
100
AcDbLine
 10
513.3706615454182
 20
-494.8676230470635
 30
0.0
 11
618.3706615454182
 21
-494.8676230470635
 31
0.0
  0
LINE
  5
21229
330
18
100
AcDbEntity
  8
1DIM
100
AcDbLine
 10
583.3706615454182
 20
-487.8676230470635
 30
0.0
 11
583.3706615454182
 21
-501.8676230470635
 31
0.0
  0
TEXT
  5
2122A
330
18
100
AcDbEntity
  8
1TEXT
100
AcDbText
 10
593.9039948787512
 20
-493.3676230470635
 30
0.0
 40
4.0
  1
コード
 72
     1
 11
600.7706615454179
 21
-493.3676230470635
 31
0.0
100
AcDbText
  0
LINE
  5
2122B
330
18
100
AcDbEntity
  8
1DIM
100
AcDbLine
 10
548.3706615454182
 20
-501.8676230470635
 30
0.0
 11
548.3706615454182
 21
-487.8676230470635
 31
0.0
  0
LINE
  5
2122C
330
18
100
AcDbEntity
  8
1DIM
100
AcDbLine
 10
618.3706615454182
 20
-501.8676230470635
 30
0.0
 11
618.3706615454182
 21
-487.8676230470635
 31
0.0
  0
TEXT
  5
2122D
330
18
100
AcDbEntity
  8
1TEXT
100
AcDbText
 10
514.3039948787512
 20
-493.3676230470635
 30
0.0
 40
4.0
  1
表面処理：本体
 72
     1
 11
530.7706615454179
 21
-493.3676230470635
 31
0.0
100
AcDbText
  0
TEXT
  5
2122E
330
18
100
AcDbEntity
  8
1TEXT
100
AcDbText
 10
521.3039948787512
 20
-500.2029117065879
 30
0.0
 40
4.0
  1
クローム
 72
     1
 11
530.7706615454179
 21
-500.2029117065879
 31
0.0
100
AcDbText
  0
LINE
  5
2122F
330
18
100
AcDbEntity
  8
1DIM
100
AcDbLine
 10
513.3706615454182
 20
-501.8676230470635
 30
0.0
 11
513.3706615454182
 21
-487.8676230470635
 31
0.0
  0
TEXT
  5
21230
330
18
100
AcDbEntity
  8
1TEXT
100
AcDbText
 10
586.5373282120854
 20
-500.5819800307128
 30
0.0
 40
4.0
  1
K-SE-071-XC
 41
0.7
 72
     1
 11
600.7706615454188
 21
-500.5819800307128
 31
0.0
100
AcDbText
  0
LINE
  5
21C92
330
18
100
AcDbEntity
  8
01
100
AcDbLine
 10
656.3162416153846
 20
-612.8213303512691
 30
0.0
 11
656.3162416153768
 21
-630.8213303512691
 31
0.0
  0
LINE
  5
21C93
330
18
100
AcDbEntity
  8
01
100
AcDbLine
 10
712.3162416153768
 20
-630.8213303512691
 30
0.0
 11
661.3162416153768
 21
-630.8213303512691
 31
0.0
  0
LINE
  5
21C96
330
18
100
AcDbEntity
  8
01
100
AcDbLine
 10
656.3162416153768
 20
-630.8213303512691
 30
0.0
 11
726.3390531680857
 21
-630.8213303512691
 31
0.0
  0
LINE
  5
21C97
330
18
100
AcDbEntity
  8
01
100
AcDbLine
 10
656.3162416153768
 20
-612.8213303512691
 30
0.0
 11
726.3390531680857
 21
-612.8213303512691
 31
0.0
  0
LINE
  5
21C9B
330
18
100
AcDbEntity
  8
1PHANTOM
100
AcDbLine
 10
685.8162414684789
 20
-639.2926171043309
 30
0.0
 11
684.8162417684794
 21
-638.2926171043309
 31
0.0
  0
LINE
  5
21C9C
330
18
100
AcDbEntity
  8
1PHANTOM
100
AcDbLine
 10
689.1162416184793
 20
-639.2926171043309
 30
0.0
 11
689.1162416184793
 21
-638.2926171043309
 31
0.0
  0
LINE
  5
21C9D
330
18
100
AcDbEntity
  8
1PHANTOM
100
AcDbLine
 10
689.1162416184793
 20
-638.2926171043309
 30
0.0
 11
681.516241618479
 21
-638.2926171043309
 31
0.0
  0
LINE
  5
21C9E
330
18
100
AcDbEntity
  8
1PHANTOM
100
AcDbLine
 10
689.1162416184793
 20
-639.2926171043309
 30
0.0
 11
681.516241618479
 21
-639.2926171043309
 31
0.0
  0
LINE
  5
21C9F
330
18
100
AcDbEntity
  8
1PHANTOM
100
AcDbLine
 10
681.516241618479
 20
-639.2926171043309
 30
0.0
 11
681.516241618479
 21
-638.2926171043309
 31
0.0
  0
LINE
  5
21CA0
330
18
100
AcDbEntity
  8
1PHANTOM
100
AcDbLine
 10
685.3162881512721
 20
-617.2924526775998
 30
0.0
 11
683.8162881512721
 21
-622.5924491874615
 31
0.0
  0
LINE
  5
21CA1
330
18
100
AcDbEntity
  8
1PHANTOM
100
AcDbLine
 10
683.8162881512721
 20
-622.5924491874615
 30
0.0
 11
683.816288151273
 21
-639.2926171043308
 31
0.0
  0
LINE
  5
21CA2
330
18
100
AcDbEntity
  8
1PHANTOM
100
AcDbLine
 10
685.3162881512721
 20
-617.2924526775998
 30
0.0
 11
686.816288151273
 21
-622.5924561678452
 31
0.0
  0
LINE
  5
21CA3
330
18
100
AcDbEntity
  8
1PHANTOM
100
AcDbLine
 10
681.816241615375
 20
-639.2926089605487
 30
0.0
 11
688.816241615375
 21
-639.2926252481132
 31
0.0
  0
LINE
  5
21CA4
330
18
100
AcDbEntity
  8
1PHANTOM
100
AcDbLine
 10
686.816288151273
 20
-622.5924561678452
 30
0.0
 11
686.816288151273
 21
-639.2926171043308
 31
0.0
  0
LINE
  5
21CA5
330
18
100
AcDbEntity
  8
1PHANTOM
100
AcDbLine
 10
681.816241615375
 20
-639.2926089605487
 30
0.0
 11
681.816241615375
 21
-640.3926124507441
 31
0.0
  0
ARC
  5
21CA6
330
18
100
AcDbEntity
  8
1PHANTOM
100
AcDbCircle
 10
683.316241615375
 20
-640.3926124507441
 30
0.0
 40
1.5
100
AcDbArc
 50
180.0
 51
269.9998666844619
  0
LINE
  5
21CA7
330
18
100
AcDbEntity
  8
1PHANTOM
100
AcDbLine
 10
688.816241615375
 20
-639.2926252481132
 30
0.0
 11
688.816241615375
 21
-640.3926217579237
 31
0.0
  0
LINE
  5
21CA8
330
18
100
AcDbEntity
  8
1PHANTOM
100
AcDbLine
 10
683.3162381251818
 20
-641.89261245074
 30
0.0
 11
687.3162381251818
 21
-641.8926217579196
 31
0.0
  0
ARC
  5
21CA9
330
18
100
AcDbEntity
  8
1PHANTOM
100
AcDbCircle
 10
687.316241615375
 20
-640.3926217579237
 30
0.0
 40
1.5
100
AcDbArc
 50
269.9998666844619
 51
0.0
  0
LINE
  5
21CAA
330
18
100
AcDbEntity
  8
1CENTER
100
AcDbLine
 10
685.316241615375
 20
-615.8616577601344
 30
0.0
 11
685.316241615375
 21
-643.0759256808152
 31
0.0
  0
LINE
  5
21CAB
330
18
100
AcDbEntity
  8
1PHANTOM
100
AcDbLine
 10
684.2219178013797
 20
-619.3924501312777
 30
0.0
 11
686.1842528902548
 21
-618.5924546972267
 31
0.0
  0
LINE
  5
21CAC
330
18
100
AcDbEntity
  8
1PHANTOM
100
AcDbLine
 10
686.1842528902548
 20
-618.5924546972267
 30
0.0
 11
685.5959763152127
 21
-618.2806848409746
 31
0.0
  0
LINE
  5
21CAD
330
18
100
AcDbEntity
  8
1PHANTOM
100
AcDbLine
 10
683.3162881512721
 20
-630.5924480240633
 30
0.0
 11
687.3162881512721
 21
-629.7924573312407
 31
0.0
  0
LINE
  5
21CAE
330
18
100
AcDbEntity
  8
1PHANTOM
100
AcDbLine
 10
683.3162881512721
 20
-627.3924480240632
 30
0.0
 11
687.3162881512721
 21
-626.5924573312407
 31
0.0
  0
LINE
  5
21CAF
330
18
100
AcDbEntity
  8
1PHANTOM
100
AcDbLine
 10
687.3162881512721
 20
-626.5924573312407
 30
0.0
 11
686.8162881512721
 21
-626.4924561678434
 31
0.0
  0
LINE
  5
21CB0
330
18
100
AcDbEntity
  8
1PHANTOM
100
AcDbLine
 10
683.8162881512721
 20
-625.8924491874604
 30
0.0
 11
683.3162881512721
 21
-625.7924480240632
 31
0.0
  0
LINE
  5
21CB1
330
18
100
AcDbEntity
  8
1PHANTOM
100
AcDbLine
 10
687.3162881512721
 20
-629.7924573312407
 30
0.0
 11
686.8162881512721
 21
-629.6924561678435
 31
0.0
  0
LINE
  5
21CB2
330
18
100
AcDbEntity
  8
1PHANTOM
100
AcDbLine
 10
687.3162881512721
 20
-628.1924573312406
 30
0.0
 11
686.8162881512721
 21
-628.0924561678435
 31
0.0
  0
LINE
  5
21CB3
330
18
100
AcDbEntity
  8
1PHANTOM
100
AcDbLine
 10
683.8162881512721
 20
-627.4924491874604
 30
0.0
 11
683.3162881512721
 21
-627.3924480240632
 31
0.0
  0
LINE
  5
21CB4
330
18
100
AcDbEntity
  8
1PHANTOM
100
AcDbLine
 10
683.8162881512721
 20
-629.0924491874603
 30
0.0
 11
683.3162881512721
 21
-628.9924480240632
 31
0.0
  0
LINE
  5
21CB5
330
18
100
AcDbEntity
  8
1PHANTOM
100
AcDbLine
 10
683.3162881512721
 20
-628.9924480240632
 30
0.0
 11
687.3162881512721
 21
-628.1924573312406
 31
0.0
  0
LINE
  5
21CB6
330
18
100
AcDbEntity
  8
1PHANTOM
100
AcDbLine
 10
686.6370669946614
 20
-620.1924557508323
 30
0.0
 11
686.0853175308589
 21
-620.0096916082043
 31
0.0
  0
LINE
  5
21CB7
330
18
100
AcDbEntity
  8
1PHANTOM
100
AcDbLine
 10
687.3162881512721
 20
-623.3924573312406
 30
0.0
 11
686.8162881512721
 21
-623.2924561678435
 31
0.0
  0
LINE
  5
21CB8
330
18
100
AcDbEntity
  8
1PHANTOM
100
AcDbLine
 10
687.3162881512721
 20
-624.9924573312406
 30
0.0
 11
686.8162881512721
 21
-624.8924561678436
 31
0.0
  0
LINE
  5
21CB9
330
18
100
AcDbEntity
  8
1PHANTOM
100
AcDbLine
 10
687.0898810990689
 20
-621.792456804438
 30
0.0
 11
686.5532873637972
 21
-621.6631861068081
 31
0.0
  0
LINE
  5
21CBA
330
18
100
AcDbEntity
  8
1PHANTOM
100
AcDbLine
 10
684.2372027484812
 20
-621.1052185900235
 30
0.0
 11
683.7691042933316
 21
-620.9924490776734
 31
0.0
  0
LINE
  5
21CBB
330
18
100
AcDbEntity
  8
1PHANTOM
100
AcDbLine
 10
683.8162881512721
 20
-624.2924491874603
 30
0.0
 11
683.3162881512721
 21
-624.1924480240632
 31
0.0
  0
LINE
  5
21CBC
330
18
100
AcDbEntity
  8
1PHANTOM
100
AcDbLine
 10
683.8162881512721
 20
-622.6924491874604
 30
0.0
 11
683.3162881512721
 21
-622.5924480240633
 31
0.0
  0
LINE
  5
21CBD
330
18
100
AcDbEntity
  8
1PHANTOM
100
AcDbLine
 10
684.6790896420102
 20
-619.5438859277181
 30
0.0
 11
684.2219178013797
 21
-619.3924501312777
 31
0.0
  0
LINE
  5
21CBE
330
18
100
AcDbEntity
  8
1PHANTOM
100
AcDbLine
 10
683.7691042933316
 20
-620.9924490776734
 30
0.0
 11
686.6370669946614
 21
-620.1924557508323
 31
0.0
  0
LINE
  5
21CBF
330
18
100
AcDbEntity
  8
1PHANTOM
100
AcDbLine
 10
683.3162881512721
 20
-624.1924480240632
 30
0.0
 11
687.3162881512721
 21
-623.3924573312406
 31
0.0
  0
LINE
  5
21CC0
330
18
100
AcDbEntity
  8
1PHANTOM
100
AcDbLine
 10
683.3162881512721
 20
-622.5924480240633
 30
0.0
 11
687.0898810990689
 21
-621.792456804438
 31
0.0
  0
LINE
  5
21CC1
330
18
100
AcDbEntity
  8
1PHANTOM
100
AcDbLine
 10
683.3162881512721
 20
-625.7924480240632
 30
0.0
 11
687.3162881512721
 21
-624.9924573312406
 31
0.0
  0
LINE
  5
21CC2
330
18
100
AcDbEntity
  8
1PHANTOM
100
AcDbLine
 10
687.3162881512721
 20
-631.3924573312406
 30
0.0
 11
686.8162881512721
 21
-631.2924561678435
 31
0.0
  0
LINE
  5
21CC3
330
18
100
AcDbEntity
  8
1PHANTOM
100
AcDbLine
 10
683.8162881512721
 20
-630.6924491874604
 30
0.0
 11
683.3162881512721
 21
-630.5924480240633
 31
0.0
  0
LINE
  5
21CC4
330
18
100
AcDbEntity
  8
1PHANTOM
100
AcDbLine
 10
683.8162881512721
 20
-632.292449187461
 30
0.0
 11
683.3162881512721
 21
-632.1924480240632
 31
0.0
  0
LINE
  5
21CC5
330
18
100
AcDbEntity
  8
1PHANTOM
100
AcDbLine
 10
683.3162881512721
 20
-632.1924480240632
 30
0.0
 11
687.3162881512721
 21
-631.3924573312406
 31
0.0
  0
LINE
  5
21CC6
330
18
100
AcDbEntity
  8
1PHANTOM
100
AcDbLine
 10
687.3162881512721
 20
-632.9924573312406
 30
0.0
 11
686.8162881512721
 21
-632.8924561678435
 31
0.0
  0
LINE
  5
21CC7
330
18
100
AcDbEntity
  8
1PHANTOM
100
AcDbLine
 10
683.8162881512721
 20
-633.892449187461
 30
0.0
 11
683.3162881512721
 21
-633.7924480240632
 31
0.0
  0
LINE
  5
21CC8
330
18
100
AcDbEntity
  8
1PHANTOM
100
AcDbLine
 10
683.3162881512721
 20
-633.7924480240632
 30
0.0
 11
687.3162881512721
 21
-632.9924573312406
 31
0.0
  0
LINE
  5
21CC9
330
18
100
AcDbEntity
  8
1PHANTOM
100
AcDbLine
 10
687.316288151273
 20
-634.5924573312408
 30
0.0
 11
686.816288151273
 21
-634.4924561678437
 31
0.0
  0
LINE
  5
21CCA
330
18
100
AcDbEntity
  8
1PHANTOM
100
AcDbLine
 10
683.816288151273
 20
-635.4924491874611
 30
0.0
 11
683.316288151273
 21
-635.3924480240634
 31
0.0
  0
LINE
  5
21CCB
330
18
100
AcDbEntity
  8
1PHANTOM
100
AcDbLine
 10
683.316288151273
 20
-635.3924480240634
 30
0.0
 11
687.316288151273
 21
-634.5924573312408
 31
0.0
  0
LINE
  5
21CCC
330
18
100
AcDbEntity
  8
1PHANTOM
100
AcDbLine
 10
687.316288151273
 20
-636.1924573312408
 30
0.0
 11
686.816288151273
 21
-636.0924561678437
 31
0.0
  0
LINE
  5
21CCD
330
18
100
AcDbEntity
  8
1PHANTOM
100
AcDbLine
 10
683.816288151273
 20
-637.0924491874612
 30
0.0
 11
683.316288151273
 21
-636.9924480240634
 31
0.0
  0
LINE
  5
21CCE
330
18
100
AcDbEntity
  8
1PHANTOM
100
AcDbLine
 10
683.316288151273
 20
-636.9924480240634
 30
0.0
 11
687.316288151273
 21
-636.1924573312408
 31
0.0
  0
LINE
  5
21CCF
330
18
100
AcDbEntity
  8
1PHANTOM
100
AcDbLine
 10
687.3162881512721
 20
-637.7924573312408
 30
0.0
 11
686.8162881512721
 21
-637.6924561678437
 31
0.0
  0
LINE
  5
21CD0
330
18
100
AcDbEntity
  8
1PHANTOM
100
AcDbLine
 10
683.8162881512721
 20
-638.6924491874612
 30
0.0
 11
683.3162881512721
 21
-638.5924480240634
 31
0.0
  0
LINE
  5
21CD1
330
18
100
AcDbEntity
  8
1PHANTOM
100
AcDbLine
 10
683.3162881512721
 20
-638.5924480240634
 30
0.0
 11
687.3162881512721
 21
-637.7924573312408
 31
0.0
  0
LINE
  5
21CD2
330
18
100
AcDbEntity
  8
1PHANTOM
100
AcDbLine
 10
705.8162414684789
 20
-638.9435158057765
 30
0.0
 11
704.8162417684794
 21
-637.9435158057765
 31
0.0
  0
LINE
  5
21CD3
330
18
100
AcDbEntity
  8
1PHANTOM
100
AcDbLine
 10
709.1162416184793
 20
-638.9435158057765
 30
0.0
 11
709.1162416184793
 21
-637.9435158057765
 31
0.0
  0
LINE
  5
21CD4
330
18
100
AcDbEntity
  8
1PHANTOM
100
AcDbLine
 10
709.1162416184793
 20
-637.9435158057765
 30
0.0
 11
701.516241618479
 21
-637.9435158057765
 31
0.0
  0
LINE
  5
21CD5
330
18
100
AcDbEntity
  8
1PHANTOM
100
AcDbLine
 10
709.1162416184793
 20
-638.9435158057765
 30
0.0
 11
701.516241618479
 21
-638.9435158057765
 31
0.0
  0
LINE
  5
21CD6
330
18
100
AcDbEntity
  8
1PHANTOM
100
AcDbLine
 10
701.516241618479
 20
-638.9435158057765
 30
0.0
 11
701.516241618479
 21
-637.9435158057765
 31
0.0
  0
LINE
  5
21CD7
330
18
100
AcDbEntity
  8
1PHANTOM
100
AcDbLine
 10
705.316288151273
 20
-616.9433513790455
 30
0.0
 11
703.816288151273
 21
-622.2433478889071
 31
0.0
  0
LINE
  5
21CD8
330
18
100
AcDbEntity
  8
1PHANTOM
100
AcDbLine
 10
703.816288151273
 20
-622.2433478889071
 30
0.0
 11
703.816288151273
 21
-638.9435158057764
 31
0.0
  0
LINE
  5
21CD9
330
18
100
AcDbEntity
  8
1PHANTOM
100
AcDbLine
 10
705.316288151273
 20
-616.9433513790455
 30
0.0
 11
706.816288151273
 21
-622.2433548692908
 31
0.0
  0
LINE
  5
21CDA
330
18
100
AcDbEntity
  8
1PHANTOM
100
AcDbLine
 10
701.816241615375
 20
-638.9435076619943
 30
0.0
 11
708.816241615375
 21
-638.9435239495588
 31
0.0
  0
LINE
  5
21CDB
330
18
100
AcDbEntity
  8
1PHANTOM
100
AcDbLine
 10
706.816288151273
 20
-622.2433548692908
 30
0.0
 11
706.816288151273
 21
-638.9435158057764
 31
0.0
  0
LINE
  5
21CDC
330
18
100
AcDbEntity
  8
1PHANTOM
100
AcDbLine
 10
701.816241615375
 20
-638.9435076619943
 30
0.0
 11
701.816241615375
 21
-640.0435111521897
 31
0.0
  0
ARC
  5
21CDD
330
18
100
AcDbEntity
  8
1PHANTOM
100
AcDbCircle
 10
703.316241615375
 20
-640.0435111521897
 30
0.0
 40
1.5
100
AcDbArc
 50
180.0
 51
269.9998666844619
  0
LINE
  5
21CDE
330
18
100
AcDbEntity
  8
1PHANTOM
100
AcDbLine
 10
708.816241615375
 20
-638.9435239495588
 30
0.0
 11
708.816241615375
 21
-640.0435204593693
 31
0.0
  0
LINE
  5
21CDF
330
18
100
AcDbEntity
  8
1PHANTOM
100
AcDbLine
 10
703.3162381251827
 20
-641.5435111521856
 30
0.0
 11
707.3162381251827
 21
-641.5435204593653
 31
0.0
  0
ARC
  5
21CE0
330
18
100
AcDbEntity
  8
1PHANTOM
100
AcDbCircle
 10
707.316241615375
 20
-640.0435204593693
 30
0.0
 40
1.5
100
AcDbArc
 50
269.9998666844619
 51
0.0
  0
LINE
  5
21CE1
330
18
100
AcDbEntity
  8
1CENTER
100
AcDbLine
 10
705.316241615375
 20
-615.5125564615801
 30
0.0
 11
705.316241615375
 21
-642.7268243822608
 31
0.0
  0
LINE
  5
21CE2
330
18
100
AcDbEntity
  8
1PHANTOM
100
AcDbLine
 10
704.2219178013797
 20
-619.0433488327233
 30
0.0
 11
706.1842528902557
 21
-618.2433533986723
 31
0.0
  0
LINE
  5
21CE3
330
18
100
AcDbEntity
  8
1PHANTOM
100
AcDbLine
 10
706.1842528902557
 20
-618.2433533986723
 30
0.0
 11
705.5959763152127
 21
-617.9315835424202
 31
0.0
  0
LINE
  5
21CE4
330
18
100
AcDbEntity
  8
1PHANTOM
100
AcDbLine
 10
703.316288151273
 20
-630.2433467255089
 30
0.0
 11
707.316288151273
 21
-629.4433560326863
 31
0.0
  0
LINE
  5
21CE5
330
18
100
AcDbEntity
  8
1PHANTOM
100
AcDbLine
 10
703.316288151273
 20
-627.0433467255089
 30
0.0
 11
707.316288151273
 21
-626.2433560326863
 31
0.0
  0
LINE
  5
21CE6
330
18
100
AcDbEntity
  8
1PHANTOM
100
AcDbLine
 10
707.316288151273
 20
-626.2433560326863
 30
0.0
 11
706.816288151273
 21
-626.143354869289
 31
0.0
  0
LINE
  5
21CE7
330
18
100
AcDbEntity
  8
1PHANTOM
100
AcDbLine
 10
703.816288151273
 20
-625.543347888906
 30
0.0
 11
703.316288151273
 21
-625.4433467255088
 31
0.0
  0
LINE
  5
21CE8
330
18
100
AcDbEntity
  8
1PHANTOM
100
AcDbLine
 10
707.316288151273
 20
-629.4433560326863
 30
0.0
 11
706.816288151273
 21
-629.3433548692891
 31
0.0
  0
LINE
  5
21CE9
330
18
100
AcDbEntity
  8
1PHANTOM
100
AcDbLine
 10
707.316288151273
 20
-627.8433560326862
 30
0.0
 11
706.816288151273
 21
-627.7433548692891
 31
0.0
  0
LINE
  5
21CEA
330
18
100
AcDbEntity
  8
1PHANTOM
100
AcDbLine
 10
703.816288151273
 20
-627.143347888906
 30
0.0
 11
703.316288151273
 21
-627.0433467255089
 31
0.0
  0
LINE
  5
21CEB
330
18
100
AcDbEntity
  8
1PHANTOM
100
AcDbLine
 10
703.816288151273
 20
-628.7433478889059
 30
0.0
 11
703.316288151273
 21
-628.6433467255088
 31
0.0
  0
LINE
  5
21CEC
330
18
100
AcDbEntity
  8
1PHANTOM
100
AcDbLine
 10
703.316288151273
 20
-628.6433467255088
 30
0.0
 11
707.316288151273
 21
-627.8433560326862
 31
0.0
  0
LINE
  5
21CED
330
18
100
AcDbEntity
  8
1PHANTOM
100
AcDbLine
 10
706.6370669946623
 20
-619.8433544522779
 30
0.0
 11
706.0853175308589
 21
-619.6605903096499
 31
0.0
  0
LINE
  5
21CEE
330
18
100
AcDbEntity
  8
1PHANTOM
100
AcDbLine
 10
707.316288151273
 20
-623.0433560326862
 30
0.0
 11
706.816288151273
 21
-622.9433548692891
 31
0.0
  0
LINE
  5
21CEF
330
18
100
AcDbEntity
  8
1PHANTOM
100
AcDbLine
 10
707.316288151273
 20
-624.6433560326863
 30
0.0
 11
706.816288151273
 21
-624.5433548692893
 31
0.0
  0
LINE
  5
21CF0
330
18
100
AcDbEntity
  8
1PHANTOM
100
AcDbLine
 10
707.0898810990689
 20
-621.4433555058836
 30
0.0
 11
706.5532873637981
 21
-621.3140848082537
 31
0.0
  0
LINE
  5
21CF1
330
18
100
AcDbEntity
  8
1PHANTOM
100
AcDbLine
 10
704.2372027484812
 20
-620.7561172914691
 30
0.0
 11
703.7691042933316
 21
-620.643347779119
 31
0.0
  0
LINE
  5
21CF2
330
18
100
AcDbEntity
  8
1PHANTOM
100
AcDbLine
 10
703.816288151273
 20
-623.9433478889059
 30
0.0
 11
703.316288151273
 21
-623.8433467255088
 31
0.0
  0
LINE
  5
21CF3
330
18
100
AcDbEntity
  8
1PHANTOM
100
AcDbLine
 10
703.816288151273
 20
-622.343347888906
 30
0.0
 11
703.316288151273
 21
-622.2433467255089
 31
0.0
  0
LINE
  5
21CF4
330
18
100
AcDbEntity
  8
1PHANTOM
100
AcDbLine
 10
704.6790896420111
 20
-619.1947846291637
 30
0.0
 11
704.2219178013797
 21
-619.0433488327233
 31
0.0
  0
LINE
  5
21CF5
330
18
100
AcDbEntity
  8
1PHANTOM
100
AcDbLine
 10
703.7691042933316
 20
-620.643347779119
 30
0.0
 11
706.6370669946623
 21
-619.8433544522779
 31
0.0
  0
LINE
  5
21CF6
330
18
100
AcDbEntity
  8
1PHANTOM
100
AcDbLine
 10
703.316288151273
 20
-623.8433467255088
 30
0.0
 11
707.316288151273
 21
-623.0433560326862
 31
0.0
  0
LINE
  5
21CF7
330
18
100
AcDbEntity
  8
1PHANTOM
100
AcDbLine
 10
703.316288151273
 20
-622.2433467255089
 30
0.0
 11
707.0898810990689
 21
-621.4433555058836
 31
0.0
  0
LINE
  5
21CF8
330
18
100
AcDbEntity
  8
1PHANTOM
100
AcDbLine
 10
703.316288151273
 20
-625.4433467255088
 30
0.0
 11
707.316288151273
 21
-624.6433560326863
 31
0.0
  0
LINE
  5
21CF9
330
18
100
AcDbEntity
  8
1PHANTOM
100
AcDbLine
 10
707.316288151273
 20
-631.0433560326862
 30
0.0
 11
706.816288151273
 21
-630.9433548692891
 31
0.0
  0
LINE
  5
21CFA
330
18
100
AcDbEntity
  8
1PHANTOM
100
AcDbLine
 10
703.816288151273
 20
-630.343347888906
 30
0.0
 11
703.316288151273
 21
-630.2433467255089
 31
0.0
  0
LINE
  5
21CFB
330
18
100
AcDbEntity
  8
1PHANTOM
100
AcDbLine
 10
703.816288151273
 20
-631.9433478889066
 30
0.0
 11
703.316288151273
 21
-631.8433467255088
 31
0.0
  0
LINE
  5
21CFC
330
18
100
AcDbEntity
  8
1PHANTOM
100
AcDbLine
 10
703.316288151273
 20
-631.8433467255088
 30
0.0
 11
707.316288151273
 21
-631.0433560326862
 31
0.0
  0
LINE
  5
21CFD
330
18
100
AcDbEntity
  8
1PHANTOM
100
AcDbLine
 10
707.316288151273
 20
-632.6433560326863
 30
0.0
 11
706.816288151273
 21
-632.5433548692891
 31
0.0
  0
LINE
  5
21CFE
330
18
100
AcDbEntity
  8
1PHANTOM
100
AcDbLine
 10
703.816288151273
 20
-633.5433478889066
 30
0.0
 11
703.316288151273
 21
-633.4433467255088
 31
0.0
  0
LINE
  5
21CFF
330
18
100
AcDbEntity
  8
1PHANTOM
100
AcDbLine
 10
703.316288151273
 20
-633.4433467255088
 30
0.0
 11
707.316288151273
 21
-632.6433560326863
 31
0.0
  0
LINE
  5
21D00
330
18
100
AcDbEntity
  8
1PHANTOM
100
AcDbLine
 10
707.316288151273
 20
-634.2433560326864
 30
0.0
 11
706.816288151273
 21
-634.1433548692893
 31
0.0
  0
LINE
  5
21D01
330
18
100
AcDbEntity
  8
1PHANTOM
100
AcDbLine
 10
703.816288151273
 20
-635.1433478889068
 30
0.0
 11
703.316288151273
 21
-635.043346725509
 31
0.0
  0
LINE
  5
21D02
330
18
100
AcDbEntity
  8
1PHANTOM
100
AcDbLine
 10
703.316288151273
 20
-635.043346725509
 30
0.0
 11
707.316288151273
 21
-634.2433560326864
 31
0.0
  0
LINE
  5
21D03
330
18
100
AcDbEntity
  8
1PHANTOM
100
AcDbLine
 10
707.316288151273
 20
-635.8433560326864
 30
0.0
 11
706.816288151273
 21
-635.7433548692893
 31
0.0
  0
LINE
  5
21D04
330
18
100
AcDbEntity
  8
1PHANTOM
100
AcDbLine
 10
703.816288151273
 20
-636.7433478889068
 30
0.0
 11
703.316288151273
 21
-636.643346725509
 31
0.0
  0
LINE
  5
21D05
330
18
100
AcDbEntity
  8
1PHANTOM
100
AcDbLine
 10
703.316288151273
 20
-636.643346725509
 30
0.0
 11
707.316288151273
 21
-635.8433560326864
 31
0.0
  0
LINE
  5
21D06
330
18
100
AcDbEntity
  8
1PHANTOM
100
AcDbLine
 10
707.316288151273
 20
-637.4433560326864
 30
0.0
 11
706.816288151273
 21
-637.3433548692893
 31
0.0
  0
LINE
  5
21D07
330
18
100
AcDbEntity
  8
1PHANTOM
100
AcDbLine
 10
703.816288151273
 20
-638.3433478889068
 30
0.0
 11
703.316288151273
 21
-638.243346725509
 31
0.0
  0
LINE
  5
21D08
330
18
100
AcDbEntity
  8
1PHANTOM
100
AcDbLine
 10
703.316288151273
 20
-638.243346725509
 30
0.0
 11
707.316288151273
 21
-637.4433560326864
 31
0.0
  0
ARC
  5
21D0B
330
18
100
AcDbEntity
  8
01
100
AcDbCircle
 10
620.3162416153662
 20
-559.8213303512676
 30
0.0
 40
1.0
100
AcDbArc
 50
270.0
 51
0.0
  0
LINE
  5
21D0C
330
18
100
AcDbEntity
  8
01
100
AcDbLine
 10
606.7853670087748
 20
-546.2213303512827
 30
0.0
 11
584.0162416153669
 21
-546.2213303512827
 31
0.0
  0
LINE
  5
21D0D
330
18
100
AcDbEntity
  8
01
100
AcDbLine
 10
620.3162416153662
 20
-560.8213303512676
 30
0.0
 11
607.7162416153676
 21
-560.8213303512676
 31
0.0
  0
LINE
  5
21D0E
330
18
100
AcDbEntity
  8
01
100
AcDbLine
 10
618.6463573323406
 20
-509.8213303512676
 30
0.0
 11
609.3752873815317
 21
-509.8213303512676
 31
0.0
  0
ARC
  5
21D0F
330
18
100
AcDbEntity
  8
01
100
AcDbCircle
 10
618.6463573323406
 20
-511.8213303512676
 30
0.0
 40
2.0
100
AcDbArc
 50
1.000000000001762
 51
90.0
  0
ARC
  5
21D10
330
18
100
AcDbEntity
  8
01
100
AcDbCircle
 10
609.3752873815317
 20
-511.8213303512676
 30
0.0
 40
2.0
100
AcDbArc
 50
90.0
 51
178.9999999995422
  0
LINE
  5
21D11
330
18
100
AcDbEntity
  8
01
100
AcDbLine
 10
607.7162416153676
 20
-560.8213303512681
 30
0.0
 11
584.0162416153669
 21
-560.8213303512676
 31
0.0
  0
LINE
  5
21D12
330
18
100
AcDbEntity
  8
01
100
AcDbLine
 10
584.0162416153669
 20
-560.8213303512676
 30
0.0
 11
584.0162416153669
 21
-546.2213303512827
 31
0.0
  0
CIRCLE
  5
21D13
330
18
100
AcDbEntity
  8
01
100
AcDbCircle
 10
614.0162416153669
 20
-536.8213303512676
 30
0.0
 40
2.499999999998636
  0
CIRCLE
  5
21D14
330
18
100
AcDbEntity
  8
01
100
AcDbCircle
 10
614.0162416153669
 20
-516.8213303512676
 30
0.0
 40
2.499999999998636
  0
LINE
  5
21D15
330
18
100
AcDbEntity
  8
01
100
AcDbLine
 10
226.7162416153703
 20
-559.8213303512676
 30
0.0
 11
226.7162416153703
 21
-553.5213303512422
 31
0.0
  0
ARC
  5
21D16
330
18
100
AcDbEntity
  8
01
100
AcDbCircle
 10
227.7162416153703
 20
-559.8213303512676
 30
0.0
 40
1.0
100
AcDbArc
 50
180.0
 51
270.0
  0
LINE
  5
21D17
330
18
100
AcDbEntity
  8
01
100
AcDbLine
 10
241.2525354805673
 20
-546.2213303512827
 30
0.0
 11
264.0162416153696
 21
-546.2213303512827
 31
0.0
  0
LINE
  5
21D18
330
18
100
AcDbEntity
  8
01
100
AcDbLine
 10
227.7162416153703
 20
-560.8213303512676
 30
0.0
 11
240.3162416153689
 21
-560.8213303512676
 31
0.0
  0
LINE
  5
21D19
330
18
100
AcDbEntity
  8
01
100
AcDbLine
 10
240.3162416153689
 20
-560.8213303512681
 30
0.0
 11
264.0162416153696
 21
-560.8213303512676
 31
0.0
  0
LINE
  5
21D1A
330
18
100
AcDbEntity
  8
01
100
AcDbLine
 10
229.380706639862
 20
-509.8213303512683
 30
0.0
 11
238.6517765906704
 21
-509.8213303512681
 31
0.0
  0
ARC
  5
21D1B
330
18
100
AcDbEntity
  8
01
100
AcDbCircle
 10
238.6517765906704
 20
-511.8213303512681
 30
0.0
 40
2.0
100
AcDbArc
 50
1.000000000457799
 51
90.0
  0
ARC
  5
21D1C
330
18
100
AcDbEntity
  8
01
100
AcDbCircle
 10
229.380706639862
 20
-511.8213303512683
 30
0.0
 40
2.0
100
AcDbArc
 50
90.0
 51
178.9999999999982
  0
LINE
  5
21D1D
330
18
100
AcDbEntity
  8
01
100
AcDbLine
 10
264.0162416153696
 20
-560.8213303512676
 30
0.0
 11
264.0162416153696
 21
-546.2213303512827
 31
0.0
  0
CIRCLE
  5
21D1E
330
18
100
AcDbEntity
  8
01
100
AcDbCircle
 10
234.0162416153787
 20
-536.8213303512692
 30
0.0
 40
2.499999999998636
  0
CIRCLE
  5
21D1F
330
18
100
AcDbEntity
  8
01
100
AcDbCircle
 10
234.0162416153787
 20
-516.8213303512692
 30
0.0
 40
2.499999999998636
  0
LINE
  5
21D20
330
18
100
AcDbEntity
  8
01
100
AcDbLine
 10
584.0162416153669
 20
-546.5177699812756
 30
0.0
 11
264.0162416153696
 21
-546.5177699812756
 31
0.0
  0
LINE
  5
21D21
330
18
100
AcDbEntity
  8
01
100
AcDbLine
 10
584.0162416153669
 20
-560.5177699812756
 30
0.0
 11
264.0162416153696
 21
-560.5177699812755
 31
0.0
  0
LINE
  5
21D24
330
18
100
AcDbEntity
  8
01
100
AcDbLine
 10
226.7162416153703
 20
-553.5213303512757
 30
0.0
 11
226.7799477502429
 21
-546.2213303512827
 31
0.0
  0
LINE
  5
21D25
330
18
100
AcDbEntity
  8
01
100
AcDbLine
 10
226.7799477502429
 20
-546.2213303512827
 30
0.0
 11
227.3810112495491
 21
-511.7864255383937
 31
0.0
  0
LINE
  5
21D26
330
18
100
AcDbEntity
  8
01
100
AcDbLine
 10
241.2525354805664
 20
-546.2213303512243
 30
0.0
 11
240.6514719809827
 21
-511.7864255383774
 31
0.0
  0
LINE
  5
21D27
330
18
100
AcDbEntity
  8
01
100
AcDbLine
 10
621.2471162219588
 20
-546.221330351284
 30
0.0
 11
620.6460527226534
 21
-511.7864255383931
 31
0.0
  0
LINE
  5
21D28
330
18
100
AcDbEntity
  8
01
100
AcDbLine
 10
606.7745284916352
 20
-546.2213303512254
 30
0.0
 11
607.3755919912194
 21
-511.7864255383769
 31
0.0
  0
LINE
  5
21D29
330
18
100
AcDbEntity
  8
01
100
AcDbLine
 10
621.3162416153662
 20
-559.8213303512676
 30
0.0
 11
621.2471162219588
 21
-546.2213303512827
 31
0.0
  0
LINE
  5
21D2A
330
18
100
AcDbEntity
  8
01
100
AcDbLine
 10
675.9162416153599
 20
-642.6718085734901
 30
0.0
 11
675.9162416153499
 21
-687.5213303512703
 31
0.0
  0
ARC
  5
21D2B
330
18
100
AcDbEntity
  8
01
100
AcDbCircle
 10
678.9162416153608
 20
-642.6718085734908
 30
0.0
 40
3.0
100
AcDbArc
 50
135.5000000000036
 51
179.999999999987
  0
LINE
  5
21D2C
330
18
100
AcDbEntity
  8
01
100
AcDbLine
 10
675.9162416153517
 20
-687.5213303512703
 30
0.0
 11
675.9162416153472
 21
-700.1213303512706
 31
0.0
  0
ARC
  5
21D2D
330
18
100
AcDbEntity
  8
01
100
AcDbCircle
 10
674.9162416153472
 20
-700.1213303512701
 30
0.0
 40
1.0
100
AcDbArc
 50
270.0
 51
359.999999999974
  0
LINE
  5
21D2E
330
18
100
AcDbEntity
  8
01
100
AcDbLine
 10
661.3162416153757
 20
-632.8213303512682
 30
0.0
 11
661.316241615352
 21
-687.5213303512694
 31
0.0
  0
LINE
  5
21D2F
330
18
100
AcDbEntity
  8
01
100
AcDbLine
 10
661.316241615352
 20
-687.5213303512694
 30
0.0
 11
661.3162416153466
 21
-700.1213303512696
 31
0.0
  0
ARC
  5
21D30
330
18
100
AcDbEntity
  8
01
100
AcDbCircle
 10
663.3162416153759
 20
-632.8213303512691
 30
0.0
 40
2.0
100
AcDbArc
 50
90.0
 51
179.9999999999739
  0
LINE
  5
21D31
330
18
100
AcDbEntity
  8
01
100
AcDbLine
 10
712.3162416153759
 20
-631.8213303512694
 30
0.0
 11
712.3162416153741
 21
-636.8386330881535
 31
0.0
  0
ARC
  5
21D32
330
18
100
AcDbEntity
  8
01
100
AcDbCircle
 10
711.3162416153759
 20
-631.8213303512691
 30
0.0
 40
1.0
100
AcDbArc
 50
359.999999999974
 51
90.0
  0
LINE
  5
21D35
330
18
100
AcDbEntity
  8
01
100
AcDbLine
 10
711.3162416153759
 20
-630.8213303512691
 30
0.0
 11
663.3162416153759
 21
-630.8213303512691
 31
0.0
  0
LINE
  5
21D36
330
18
100
AcDbEntity
  8
01
100
AcDbLine
 10
711.1776709110168
 20
-637.8289856313893
 30
0.0
 11
680.1429301764442
 21
-638.3706990459416
 31
0.0
  0
ARC
  5
21D37
330
18
100
AcDbEntity
  8
01
100
AcDbCircle
 10
711.316241615375
 20
-636.8386330881533
 30
0.0
 40
1.0
100
AcDbArc
 50
262.0348524918203
 51
359.999999999987
  0
LINE
  5
21D38
330
18
100
AcDbEntity
  8
01
100
AcDbLine
 10
662.3162416153468
 20
-701.1213303512703
 30
0.0
 11
674.9162416153472
 21
-701.1213303512703
 31
0.0
  0
ARC
  5
21D39
330
18
100
AcDbEntity
  8
01
100
AcDbCircle
 10
662.3162416153468
 20
-700.1213303512701
 30
0.0
 40
1.0
100
AcDbArc
 50
179.9999999999739
 51
270.0
  0
LINE
  5
21D3C
330
18
100
AcDbEntity
  8
01
100
AcDbLine
 10
620.3162416153916
 20
-701.1213303512701
 30
0.0
 11
584.0135319860776
 21
-701.1213303512701
 31
0.0
  0
ARC
  5
21D3D
330
18
100
AcDbEntity
  8
01
100
AcDbCircle
 10
620.3162416153916
 20
-700.1213303512701
 30
0.0
 40
1.0
100
AcDbArc
 50
270.0
 51
0.0
  0
LINE
  5
21D3E
330
18
100
AcDbEntity
  8
01
100
AcDbLine
 10
604.7162416153485
 20
-686.5213303512699
 30
0.0
 11
584.013531986084
 21
-686.5213303512699
 31
0.0
  0
LINE
  5
21D3F
330
18
100
AcDbEntity
  8
01
100
AcDbLine
 10
621.3162416153771
 20
-631.8213303512691
 30
0.0
 11
621.3162416153916
 21
-700.1213303512696
 31
0.0
  0
ARC
  5
21D40
330
18
100
AcDbEntity
  8
01
100
AcDbCircle
 10
620.3162416153771
 20
-631.8213303512691
 30
0.0
 40
1.0
100
AcDbArc
 50
0.0
 51
90.0
  0
LINE
  5
21D41
330
18
100
AcDbEntity
  8
01
100
AcDbLine
 10
606.7162416153758
 20
-631.8213303512687
 30
0.0
 11
606.7162416153485
 21
-684.5213303512712
 31
0.0
  0
ARC
  5
21D42
330
18
100
AcDbEntity
  8
01
100
AcDbCircle
 10
607.7162416153758
 20
-631.8213303512691
 30
0.0
 40
1.0
100
AcDbArc
 50
90.0
 51
179.9999999999739
  0
ARC
  5
21D43
330
18
100
AcDbEntity
  8
01
100
AcDbCircle
 10
604.7162416153485
 20
-684.5213303512699
 30
0.0
 40
2.0
100
AcDbArc
 50
270.0
 51
359.999999999974
  0
LINE
  5
21D44
330
18
100
AcDbEntity
  8
01
100
AcDbLine
 10
584.013531986084
 20
-686.5213303512699
 30
0.0
 11
584.0135319860776
 21
-701.1213303512701
 31
0.0
  0
LINE
  5
21D45
330
18
100
AcDbEntity
  8
01
100
AcDbLine
 10
607.7162416153758
 20
-630.8213303512691
 30
0.0
 11
620.3162416153771
 21
-630.8213303512691
 31
0.0
  0
LINE
  5
21D46
330
18
100
AcDbEntity
  8
01
100
AcDbLine
 10
584.0135319860794
 20
-699.68776998127
 30
0.0
 11
584.0135319860804
 21
-688.0877699812693
 31
0.0
  0
LINE
  5
21D47
330
18
100
AcDbEntity
  8
01
100
AcDbLine
 10
227.7108223568096
 20
-701.1213303512687
 30
0.0
 11
264.013531986124
 21
-701.121330351269
 31
0.0
  0
ARC
  5
21D48
330
18
100
AcDbEntity
  8
01
100
AcDbCircle
 10
227.7108223568096
 20
-700.1213303512687
 30
0.0
 40
1.0
100
AcDbArc
 50
180.0
 51
270.0
  0
LINE
  5
21D49
330
18
100
AcDbEntity
  8
01
100
AcDbLine
 10
243.3108223568527
 20
-686.5213303512685
 30
0.0
 11
264.0135319861176
 21
-686.5213303512686
 31
0.0
  0
LINE
  5
21D4A
330
18
100
AcDbEntity
  8
01
100
AcDbLine
 10
226.7108223568246
 20
-631.8213303512675
 30
0.0
 11
226.7108223568096
 21
-700.1213303512683
 31
0.0
  0
ARC
  5
21D4B
330
18
100
AcDbEntity
  8
01
100
AcDbCircle
 10
227.7108223568246
 20
-631.8213303512676
 30
0.0
 40
1.0
100
AcDbArc
 50
90.0
 51
180.0
  0
LINE
  5
21D4C
330
18
100
AcDbEntity
  8
01
100
AcDbLine
 10
241.3108223568258
 20
-631.8213303512673
 30
0.0
 11
241.3108223568527
 21
-684.5213303512699
 31
0.0
  0
ARC
  5
21D4D
330
18
100
AcDbEntity
  8
01
100
AcDbCircle
 10
240.3108223568258
 20
-631.8213303512678
 30
0.0
 40
1.0
100
AcDbArc
 50
0.0000000000260551
 51
90.0
  0
ARC
  5
21D4E
330
18
100
AcDbEntity
  8
01
100
AcDbCircle
 10
243.3108223568527
 20
-684.5213303512685
 30
0.0
 40
2.0
100
AcDbArc
 50
180.0000000000261
 51
270.0
  0
LINE
  5
21D4F
330
18
100
AcDbEntity
  8
01
100
AcDbLine
 10
264.0135319861176
 20
-686.5213303512686
 30
0.0
 11
264.013531986124
 21
-701.121330351269
 31
0.0
  0
LINE
  5
21D50
330
18
100
AcDbEntity
  8
01
100
AcDbLine
 10
240.3108223568258
 20
-630.8213303512678
 30
0.0
 11
227.7108223568246
 21
-630.8213303512676
 31
0.0
  0
LINE
  5
21D51
330
18
100
AcDbEntity
  8
01
100
AcDbLine
 10
264.0135319861222
 20
-699.6877699812688
 30
0.0
 11
264.0135319861213
 21
-688.087769981268
 31
0.0
  0
LINE
  5
21D52
330
18
100
AcDbEntity
  8
01
100
AcDbLine
 10
584.0135319860767
 20
-700.8213303512699
 30
0.0
 11
264.0135319861239
 21
-700.8213303512699
 31
0.0
  0
LINE
  5
21D53
330
18
100
AcDbEntity
  8
01
100
AcDbLine
 10
584.0135319860831
 20
-686.82133035127
 30
0.0
 11
264.0135319861178
 21
-686.8213303512703
 31
0.0
  0
LINE
  5
21D56
330
18
100
AcDbEntity
  8
01
100
AcDbLine
 10
264.0135319861222
 20
-699.68776998127
 30
0.0
 11
264.0135319861213
 21
-688.0877699812693
 31
0.0
  0
LINE
  5
21D57
330
18
100
AcDbEntity
  8
01
100
AcDbLine
 10
678.0555360482936
 20
-639.2675143385111
 30
0.0
 11
676.7764902678987
 21
-640.5690807805911
 31
0.0
  0
ARC
  5
21D58
330
18
100
AcDbEntity
  8
01
100
AcDbCircle
 10
680.1952873957566
 20
-641.3702421314108
 30
0.0
 40
3.0
100
AcDbArc
 50
91.00000000000176
 51
135.5000000000036
  0
LINE
  5
21D5A
330
18
100
AcDbEntity
  8
1PHANTOM
100
AcDbLine
 10
614.5162414684785
 20
-639.2926171043207
 30
0.0
 11
613.516241768479
 21
-638.2926171043207
 31
0.0
  0
LINE
  5
21D5B
330
18
100
AcDbEntity
  8
1PHANTOM
100
AcDbLine
 10
617.8162416184789
 20
-639.2926171043207
 30
0.0
 11
617.8162416184789
 21
-638.2926171043207
 31
0.0
  0
LINE
  5
21D5C
330
18
100
AcDbEntity
  8
1PHANTOM
100
AcDbLine
 10
617.8162416184789
 20
-638.2926171043207
 30
0.0
 11
610.2162416184785
 21
-638.2926171043207
 31
0.0
  0
LINE
  5
21D5D
330
18
100
AcDbEntity
  8
1PHANTOM
100
AcDbLine
 10
617.8162416184789
 20
-639.2926171043207
 30
0.0
 11
610.2162416184785
 21
-639.2926171043207
 31
0.0
  0
LINE
  5
21D5E
330
18
100
AcDbEntity
  8
1PHANTOM
100
AcDbLine
 10
610.2162416184785
 20
-639.2926171043207
 30
0.0
 11
610.2162416184785
 21
-638.2926171043207
 31
0.0
  0
LINE
  5
21D5F
330
18
100
AcDbEntity
  8
1PHANTOM
100
AcDbLine
 10
614.0162881512717
 20
-617.2924526775896
 30
0.0
 11
612.5162881512717
 21
-622.5924491874513
 31
0.0
  0
LINE
  5
21D60
330
18
100
AcDbEntity
  8
1PHANTOM
100
AcDbLine
 10
612.5162881512717
 20
-622.5924491874513
 30
0.0
 11
612.5162881512726
 21
-639.2926171043206
 31
0.0
  0
LINE
  5
21D61
330
18
100
AcDbEntity
  8
1PHANTOM
100
AcDbLine
 10
614.0162881512717
 20
-617.2924526775896
 30
0.0
 11
615.5162881512726
 21
-622.5924561678349
 31
0.0
  0
LINE
  5
21D62
330
18
100
AcDbEntity
  8
1PHANTOM
100
AcDbLine
 10
610.5162416153746
 20
-639.2926089605385
 30
0.0
 11
617.5162416153746
 21
-639.2926252481029
 31
0.0
  0
LINE
  5
21D63
330
18
100
AcDbEntity
  8
1PHANTOM
100
AcDbLine
 10
615.5162881512726
 20
-622.5924561678349
 30
0.0
 11
615.5162881512726
 21
-639.2926171043206
 31
0.0
  0
LINE
  5
21D64
330
18
100
AcDbEntity
  8
1PHANTOM
100
AcDbLine
 10
610.5162416153746
 20
-639.2926089605385
 30
0.0
 11
610.5162416153746
 21
-640.3926124507338
 31
0.0
  0
ARC
  5
21D65
330
18
100
AcDbEntity
  8
1PHANTOM
100
AcDbCircle
 10
612.0162416153746
 20
-640.3926124507338
 30
0.0
 40
1.5
100
AcDbArc
 50
180.0
 51
269.9998666844619
  0
LINE
  5
21D66
330
18
100
AcDbEntity
  8
1PHANTOM
100
AcDbLine
 10
617.5162416153746
 20
-639.2926252481029
 30
0.0
 11
617.5162416153746
 21
-640.3926217579135
 31
0.0
  0
LINE
  5
21D67
330
18
100
AcDbEntity
  8
1PHANTOM
100
AcDbLine
 10
612.0162381251814
 20
-641.8926124507298
 30
0.0
 11
616.0162381251814
 21
-641.8926217579094
 31
0.0
  0
ARC
  5
21D68
330
18
100
AcDbEntity
  8
1PHANTOM
100
AcDbCircle
 10
616.0162416153746
 20
-640.3926217579135
 30
0.0
 40
1.5
100
AcDbArc
 50
269.9998666844619
 51
0.0
  0
LINE
  5
21D69
330
18
100
AcDbEntity
  8
1CENTER
100
AcDbLine
 10
614.0162416153746
 20
-615.8616577601242
 30
0.0
 11
614.0162416153746
 21
-643.075925680805
 31
0.0
  0
LINE
  5
21D6A
330
18
100
AcDbEntity
  8
1PHANTOM
100
AcDbLine
 10
612.9219178013793
 20
-619.3924501312674
 30
0.0
 11
614.8842528902544
 21
-618.5924546972165
 31
0.0
  0
LINE
  5
21D6B
330
18
100
AcDbEntity
  8
1PHANTOM
100
AcDbLine
 10
614.8842528902544
 20
-618.5924546972165
 30
0.0
 11
614.2959763152123
 21
-618.2806848409643
 31
0.0
  0
LINE
  5
21D6C
330
18
100
AcDbEntity
  8
1PHANTOM
100
AcDbLine
 10
612.0162881512717
 20
-630.592448024053
 30
0.0
 11
616.0162881512717
 21
-629.7924573312305
 31
0.0
  0
LINE
  5
21D6D
330
18
100
AcDbEntity
  8
1PHANTOM
100
AcDbLine
 10
612.0162881512717
 20
-627.392448024053
 30
0.0
 11
616.0162881512717
 21
-626.5924573312304
 31
0.0
  0
LINE
  5
21D6E
330
18
100
AcDbEntity
  8
1PHANTOM
100
AcDbLine
 10
616.0162881512717
 20
-626.5924573312304
 30
0.0
 11
615.5162881512717
 21
-626.4924561678332
 31
0.0
  0
LINE
  5
21D6F
330
18
100
AcDbEntity
  8
1PHANTOM
100
AcDbLine
 10
612.5162881512717
 20
-625.8924491874502
 30
0.0
 11
612.0162881512717
 21
-625.792448024053
 31
0.0
  0
LINE
  5
21D70
330
18
100
AcDbEntity
  8
1PHANTOM
100
AcDbLine
 10
616.0162881512717
 20
-629.7924573312305
 30
0.0
 11
615.5162881512717
 21
-629.6924561678333
 31
0.0
  0
LINE
  5
21D71
330
18
100
AcDbEntity
  8
1PHANTOM
100
AcDbLine
 10
616.0162881512717
 20
-628.1924573312303
 30
0.0
 11
615.5162881512717
 21
-628.0924561678332
 31
0.0
  0
LINE
  5
21D72
330
18
100
AcDbEntity
  8
1PHANTOM
100
AcDbLine
 10
612.5162881512717
 20
-627.4924491874501
 30
0.0
 11
612.0162881512717
 21
-627.392448024053
 31
0.0
  0
LINE
  5
21D73
330
18
100
AcDbEntity
  8
1PHANTOM
100
AcDbLine
 10
612.5162881512717
 20
-629.09244918745
 30
0.0
 11
612.0162881512717
 21
-628.9924480240529
 31
0.0
  0
LINE
  5
21D74
330
18
100
AcDbEntity
  8
1PHANTOM
100
AcDbLine
 10
612.0162881512717
 20
-628.9924480240529
 30
0.0
 11
616.0162881512717
 21
-628.1924573312303
 31
0.0
  0
LINE
  5
21D75
330
18
100
AcDbEntity
  8
1PHANTOM
100
AcDbLine
 10
615.337066994661
 20
-620.1924557508221
 30
0.0
 11
614.7853175308585
 21
-620.0096916081941
 31
0.0
  0
LINE
  5
21D76
330
18
100
AcDbEntity
  8
1PHANTOM
100
AcDbLine
 10
616.0162881512717
 20
-623.3924573312304
 30
0.0
 11
615.5162881512717
 21
-623.2924561678333
 31
0.0
  0
LINE
  5
21D77
330
18
100
AcDbEntity
  8
1PHANTOM
100
AcDbLine
 10
616.0162881512717
 20
-624.9924573312304
 30
0.0
 11
615.5162881512717
 21
-624.8924561678334
 31
0.0
  0
LINE
  5
21D78
330
18
100
AcDbEntity
  8
1PHANTOM
100
AcDbLine
 10
615.7898810990685
 20
-621.7924568044277
 30
0.0
 11
615.2532873637967
 21
-621.6631861067979
 31
0.0
  0
LINE
  5
21D79
330
18
100
AcDbEntity
  8
1PHANTOM
100
AcDbLine
 10
612.9372027484808
 20
-621.1052185900132
 30
0.0
 11
612.4691042933312
 21
-620.9924490776632
 31
0.0
  0
LINE
  5
21D7A
330
18
100
AcDbEntity
  8
1PHANTOM
100
AcDbLine
 10
612.5162881512717
 20
-624.2924491874501
 30
0.0
 11
612.0162881512717
 21
-624.192448024053
 31
0.0
  0
LINE
  5
21D7B
330
18
100
AcDbEntity
  8
1PHANTOM
100
AcDbLine
 10
612.5162881512717
 20
-622.6924491874502
 30
0.0
 11
612.0162881512717
 21
-622.592448024053
 31
0.0
  0
LINE
  5
21D7C
330
18
100
AcDbEntity
  8
1PHANTOM
100
AcDbLine
 10
613.3790896420098
 20
-619.5438859277078
 30
0.0
 11
612.9219178013793
 21
-619.3924501312674
 31
0.0
  0
LINE
  5
21D7D
330
18
100
AcDbEntity
  8
1PHANTOM
100
AcDbLine
 10
612.4691042933312
 20
-620.9924490776632
 30
0.0
 11
615.337066994661
 21
-620.1924557508221
 31
0.0
  0
LINE
  5
21D7E
330
18
100
AcDbEntity
  8
1PHANTOM
100
AcDbLine
 10
612.0162881512717
 20
-624.192448024053
 30
0.0
 11
616.0162881512717
 21
-623.3924573312304
 31
0.0
  0
LINE
  5
21D7F
330
18
100
AcDbEntity
  8
1PHANTOM
100
AcDbLine
 10
612.0162881512717
 20
-622.592448024053
 30
0.0
 11
615.7898810990685
 21
-621.7924568044277
 31
0.0
  0
LINE
  5
21D80
330
18
100
AcDbEntity
  8
1PHANTOM
100
AcDbLine
 10
612.0162881512717
 20
-625.792448024053
 30
0.0
 11
616.0162881512717
 21
-624.9924573312304
 31
0.0
  0
LINE
  5
21D81
330
18
100
AcDbEntity
  8
1PHANTOM
100
AcDbLine
 10
616.0162881512717
 20
-631.3924573312304
 30
0.0
 11
615.5162881512717
 21
-631.2924561678333
 31
0.0
  0
LINE
  5
21D82
330
18
100
AcDbEntity
  8
1PHANTOM
100
AcDbLine
 10
612.5162881512717
 20
-630.6924491874502
 30
0.0
 11
612.0162881512717
 21
-630.592448024053
 31
0.0
  0
LINE
  5
21D83
330
18
100
AcDbEntity
  8
1PHANTOM
100
AcDbLine
 10
612.5162881512717
 20
-632.2924491874508
 30
0.0
 11
612.0162881512717
 21
-632.192448024053
 31
0.0
  0
LINE
  5
21D84
330
18
100
AcDbEntity
  8
1PHANTOM
100
AcDbLine
 10
612.0162881512717
 20
-632.192448024053
 30
0.0
 11
616.0162881512717
 21
-631.3924573312304
 31
0.0
  0
LINE
  5
21D85
330
18
100
AcDbEntity
  8
1PHANTOM
100
AcDbLine
 10
616.0162881512717
 20
-632.9924573312304
 30
0.0
 11
615.5162881512717
 21
-632.8924561678333
 31
0.0
  0
LINE
  5
21D86
330
18
100
AcDbEntity
  8
1PHANTOM
100
AcDbLine
 10
612.5162881512717
 20
-633.8924491874508
 30
0.0
 11
612.0162881512717
 21
-633.792448024053
 31
0.0
  0
LINE
  5
21D87
330
18
100
AcDbEntity
  8
1PHANTOM
100
AcDbLine
 10
612.0162881512717
 20
-633.792448024053
 30
0.0
 11
616.0162881512717
 21
-632.9924573312304
 31
0.0
  0
LINE
  5
21D88
330
18
100
AcDbEntity
  8
1PHANTOM
100
AcDbLine
 10
616.0162881512726
 20
-634.5924573312305
 30
0.0
 11
615.5162881512726
 21
-634.4924561678334
 31
0.0
  0
LINE
  5
21D89
330
18
100
AcDbEntity
  8
1PHANTOM
100
AcDbLine
 10
612.5162881512726
 20
-635.4924491874509
 30
0.0
 11
612.0162881512726
 21
-635.3924480240531
 31
0.0
  0
LINE
  5
21D8A
330
18
100
AcDbEntity
  8
1PHANTOM
100
AcDbLine
 10
612.0162881512726
 20
-635.3924480240531
 30
0.0
 11
616.0162881512726
 21
-634.5924573312305
 31
0.0
  0
LINE
  5
21D8B
330
18
100
AcDbEntity
  8
1PHANTOM
100
AcDbLine
 10
616.0162881512726
 20
-636.1924573312306
 30
0.0
 11
615.5162881512726
 21
-636.0924561678335
 31
0.0
  0
LINE
  5
21D8C
330
18
100
AcDbEntity
  8
1PHANTOM
100
AcDbLine
 10
612.5162881512726
 20
-637.0924491874509
 30
0.0
 11
612.0162881512726
 21
-636.9924480240531
 31
0.0
  0
LINE
  5
21D8D
330
18
100
AcDbEntity
  8
1PHANTOM
100
AcDbLine
 10
612.0162881512726
 20
-636.9924480240531
 30
0.0
 11
616.0162881512726
 21
-636.1924573312306
 31
0.0
  0
LINE
  5
21D8E
330
18
100
AcDbEntity
  8
1PHANTOM
100
AcDbLine
 10
616.0162881512717
 20
-637.7924573312306
 30
0.0
 11
615.5162881512717
 21
-637.6924561678335
 31
0.0
  0
LINE
  5
21D8F
330
18
100
AcDbEntity
  8
1PHANTOM
100
AcDbLine
 10
612.5162881512717
 20
-638.692449187451
 30
0.0
 11
612.0162881512717
 21
-638.5924480240532
 31
0.0
  0
LINE
  5
21D90
330
18
100
AcDbEntity
  8
1PHANTOM
100
AcDbLine
 10
612.0162881512717
 20
-638.5924480240532
 30
0.0
 11
616.0162881512717
 21
-637.7924573312306
 31
0.0
  0
LINE
  5
21D94
330
18
100
AcDbEntity
  8
1PHANTOM
100
AcDbLine
 10
234.5108222099273
 20
-639.2926171043192
 30
0.0
 11
233.5108225099277
 21
-638.2926171043192
 31
0.0
  0
LINE
  5
21D95
330
18
100
AcDbEntity
  8
1PHANTOM
100
AcDbLine
 10
237.8108223599277
 20
-639.2926171043192
 30
0.0
 11
237.8108223599277
 21
-638.2926171043192
 31
0.0
  0
LINE
  5
21D96
330
18
100
AcDbEntity
  8
1PHANTOM
100
AcDbLine
 10
237.8108223599277
 20
-638.2926171043192
 30
0.0
 11
230.2108223599273
 21
-638.2926171043192
 31
0.0
  0
LINE
  5
21D97
330
18
100
AcDbEntity
  8
1PHANTOM
100
AcDbLine
 10
237.8108223599277
 20
-639.2926171043192
 30
0.0
 11
230.2108223599273
 21
-639.2926171043192
 31
0.0
  0
LINE
  5
21D98
330
18
100
AcDbEntity
  8
1PHANTOM
100
AcDbLine
 10
230.2108223599273
 20
-639.2926171043192
 30
0.0
 11
230.2108223599273
 21
-638.2926171043192
 31
0.0
  0
LINE
  5
21D99
330
18
100
AcDbEntity
  8
1PHANTOM
100
AcDbLine
 10
234.0108688927205
 20
-617.2924526775881
 30
0.0
 11
232.5108688927205
 21
-622.5924491874498
 31
0.0
  0
LINE
  5
21D9A
330
18
100
AcDbEntity
  8
1PHANTOM
100
AcDbLine
 10
232.5108688927205
 20
-622.5924491874498
 30
0.0
 11
232.5108688927214
 21
-639.2926171043191
 31
0.0
  0
LINE
  5
21D9B
330
18
100
AcDbEntity
  8
1PHANTOM
100
AcDbLine
 10
234.0108688927205
 20
-617.2924526775881
 30
0.0
 11
235.5108688927214
 21
-622.5924561678335
 31
0.0
  0
LINE
  5
21D9C
330
18
100
AcDbEntity
  8
1PHANTOM
100
AcDbLine
 10
230.5108223568234
 20
-639.292608960537
 30
0.0
 11
237.5108223568234
 21
-639.2926252481014
 31
0.0
  0
LINE
  5
21D9D
330
18
100
AcDbEntity
  8
1PHANTOM
100
AcDbLine
 10
235.5108688927214
 20
-622.5924561678335
 30
0.0
 11
235.5108688927214
 21
-639.2926171043191
 31
0.0
  0
LINE
  5
21D9E
330
18
100
AcDbEntity
  8
1PHANTOM
100
AcDbLine
 10
230.5108223568234
 20
-639.292608960537
 30
0.0
 11
230.5108223568234
 21
-640.3926124507324
 31
0.0
  0
ARC
  5
21D9F
330
18
100
AcDbEntity
  8
1PHANTOM
100
AcDbCircle
 10
232.0108223568234
 20
-640.3926124507324
 30
0.0
 40
1.5
100
AcDbArc
 50
180.0
 51
269.9998666844619
  0
LINE
  5
21DA0
330
18
100
AcDbEntity
  8
1PHANTOM
100
AcDbLine
 10
237.5108223568234
 20
-639.2926252481014
 30
0.0
 11
237.5108223568234
 21
-640.392621757912
 31
0.0
  0
LINE
  5
21DA1
330
18
100
AcDbEntity
  8
1PHANTOM
100
AcDbLine
 10
232.0108188666302
 20
-641.8926124507283
 30
0.0
 11
236.0108188666302
 21
-641.8926217579079
 31
0.0
  0
ARC
  5
21DA2
330
18
100
AcDbEntity
  8
1PHANTOM
100
AcDbCircle
 10
236.0108223568234
 20
-640.392621757912
 30
0.0
 40
1.5
100
AcDbArc
 50
269.9998666844619
 51
0.0
  0
LINE
  5
21DA3
330
18
100
AcDbEntity
  8
1CENTER
100
AcDbLine
 10
234.0108223568234
 20
-615.8616577601227
 30
0.0
 11
234.0108223568234
 21
-643.0759256808035
 31
0.0
  0
LINE
  5
21DA4
330
18
100
AcDbEntity
  8
1PHANTOM
100
AcDbLine
 10
232.9164985428281
 20
-619.392450131266
 30
0.0
 11
234.8788336317032
 21
-618.592454697215
 31
0.0
  0
LINE
  5
21DA5
330
18
100
AcDbEntity
  8
1PHANTOM
100
AcDbLine
 10
234.8788336317032
 20
-618.592454697215
 30
0.0
 11
234.2905570566611
 21
-618.2806848409629
 31
0.0
  0
LINE
  5
21DA6
330
18
100
AcDbEntity
  8
1PHANTOM
100
AcDbLine
 10
232.0108688927205
 20
-630.5924480240516
 30
0.0
 11
236.0108688927205
 21
-629.792457331229
 31
0.0
  0
LINE
  5
21DA7
330
18
100
AcDbEntity
  8
1PHANTOM
100
AcDbLine
 10
232.0108688927205
 20
-627.3924480240515
 30
0.0
 11
236.0108688927205
 21
-626.592457331229
 31
0.0
  0
LINE
  5
21DA8
330
18
100
AcDbEntity
  8
1PHANTOM
100
AcDbLine
 10
236.0108688927205
 20
-626.592457331229
 30
0.0
 11
235.5108688927205
 21
-626.4924561678317
 31
0.0
  0
LINE
  5
21DA9
330
18
100
AcDbEntity
  8
1PHANTOM
100
AcDbLine
 10
232.5108688927205
 20
-625.8924491874487
 30
0.0
 11
232.0108688927205
 21
-625.7924480240515
 31
0.0
  0
LINE
  5
21DAA
330
18
100
AcDbEntity
  8
1PHANTOM
100
AcDbLine
 10
236.0108688927205
 20
-629.792457331229
 30
0.0
 11
235.5108688927205
 21
-629.6924561678318
 31
0.0
  0
LINE
  5
21DAB
330
18
100
AcDbEntity
  8
1PHANTOM
100
AcDbLine
 10
236.0108688927205
 20
-628.1924573312289
 30
0.0
 11
235.5108688927205
 21
-628.0924561678318
 31
0.0
  0
LINE
  5
21DAC
330
18
100
AcDbEntity
  8
1PHANTOM
100
AcDbLine
 10
232.5108688927205
 20
-627.4924491874486
 30
0.0
 11
232.0108688927205
 21
-627.3924480240515
 31
0.0
  0
LINE
  5
21DAD
330
18
100
AcDbEntity
  8
1PHANTOM
100
AcDbLine
 10
232.5108688927205
 20
-629.0924491874486
 30
0.0
 11
232.0108688927205
 21
-628.9924480240514
 31
0.0
  0
LINE
  5
21DAE
330
18
100
AcDbEntity
  8
1PHANTOM
100
AcDbLine
 10
232.0108688927205
 20
-628.9924480240514
 30
0.0
 11
236.0108688927205
 21
-628.1924573312289
 31
0.0
  0
LINE
  5
21DAF
330
18
100
AcDbEntity
  8
1PHANTOM
100
AcDbLine
 10
235.3316477361097
 20
-620.1924557508206
 30
0.0
 11
234.7798982723073
 21
-620.0096916081926
 31
0.0
  0
LINE
  5
21DB0
330
18
100
AcDbEntity
  8
1PHANTOM
100
AcDbLine
 10
236.0108688927205
 20
-623.3924573312289
 30
0.0
 11
235.5108688927205
 21
-623.2924561678318
 31
0.0
  0
LINE
  5
21DB1
330
18
100
AcDbEntity
  8
1PHANTOM
100
AcDbLine
 10
236.0108688927205
 20
-624.9924573312289
 30
0.0
 11
235.5108688927205
 21
-624.8924561678319
 31
0.0
  0
LINE
  5
21DB2
330
18
100
AcDbEntity
  8
1PHANTOM
100
AcDbLine
 10
235.7844618405172
 20
-621.7924568044263
 30
0.0
 11
235.2478681052455
 21
-621.6631861067964
 31
0.0
  0
LINE
  5
21DB3
330
18
100
AcDbEntity
  8
1PHANTOM
100
AcDbLine
 10
232.9317834899296
 20
-621.1052185900118
 30
0.0
 11
232.4636850347799
 21
-620.9924490776617
 31
0.0
  0
LINE
  5
21DB4
330
18
100
AcDbEntity
  8
1PHANTOM
100
AcDbLine
 10
232.5108688927205
 20
-624.2924491874486
 30
0.0
 11
232.0108688927205
 21
-624.1924480240515
 31
0.0
  0
LINE
  5
21DB5
330
18
100
AcDbEntity
  8
1PHANTOM
100
AcDbLine
 10
232.5108688927205
 20
-622.6924491874487
 30
0.0
 11
232.0108688927205
 21
-622.5924480240516
 31
0.0
  0
LINE
  5
21DB6
330
18
100
AcDbEntity
  8
1PHANTOM
100
AcDbLine
 10
233.3736703834586
 20
-619.5438859277064
 30
0.0
 11
232.9164985428281
 21
-619.392450131266
 31
0.0
  0
LINE
  5
21DB7
330
18
100
AcDbEntity
  8
1PHANTOM
100
AcDbLine
 10
232.4636850347799
 20
-620.9924490776617
 30
0.0
 11
235.3316477361097
 21
-620.1924557508206
 31
0.0
  0
LINE
  5
21DB8
330
18
100
AcDbEntity
  8
1PHANTOM
100
AcDbLine
 10
232.0108688927205
 20
-624.1924480240515
 30
0.0
 11
236.0108688927205
 21
-623.3924573312289
 31
0.0
  0
LINE
  5
21DB9
330
18
100
AcDbEntity
  8
1PHANTOM
100
AcDbLine
 10
232.0108688927205
 20
-622.5924480240516
 30
0.0
 11
235.7844618405172
 21
-621.7924568044263
 31
0.0
  0
LINE
  5
21DBA
330
18
100
AcDbEntity
  8
1PHANTOM
100
AcDbLine
 10
232.0108688927205
 20
-625.7924480240515
 30
0.0
 11
236.0108688927205
 21
-624.9924573312289
 31
0.0
  0
LINE
  5
21DBB
330
18
100
AcDbEntity
  8
1PHANTOM
100
AcDbLine
 10
236.0108688927205
 20
-631.3924573312289
 30
0.0
 11
235.5108688927205
 21
-631.2924561678318
 31
0.0
  0
LINE
  5
21DBC
330
18
100
AcDbEntity
  8
1PHANTOM
100
AcDbLine
 10
232.5108688927205
 20
-630.6924491874487
 30
0.0
 11
232.0108688927205
 21
-630.5924480240516
 31
0.0
  0
LINE
  5
21DBD
330
18
100
AcDbEntity
  8
1PHANTOM
100
AcDbLine
 10
232.5108688927205
 20
-632.2924491874493
 30
0.0
 11
232.0108688927205
 21
-632.1924480240515
 31
0.0
  0
LINE
  5
21DBE
330
18
100
AcDbEntity
  8
1PHANTOM
100
AcDbLine
 10
232.0108688927205
 20
-632.1924480240515
 30
0.0
 11
236.0108688927205
 21
-631.3924573312289
 31
0.0
  0
LINE
  5
21DBF
330
18
100
AcDbEntity
  8
1PHANTOM
100
AcDbLine
 10
236.0108688927205
 20
-632.9924573312289
 30
0.0
 11
235.5108688927205
 21
-632.8924561678318
 31
0.0
  0
LINE
  5
21DC0
330
18
100
AcDbEntity
  8
1PHANTOM
100
AcDbLine
 10
232.5108688927205
 20
-633.8924491874493
 30
0.0
 11
232.0108688927205
 21
-633.7924480240515
 31
0.0
  0
LINE
  5
21DC1
330
18
100
AcDbEntity
  8
1PHANTOM
100
AcDbLine
 10
232.0108688927205
 20
-633.7924480240515
 30
0.0
 11
236.0108688927205
 21
-632.9924573312289
 31
0.0
  0
LINE
  5
21DC2
330
18
100
AcDbEntity
  8
1PHANTOM
100
AcDbLine
 10
236.0108688927214
 20
-634.5924573312291
 30
0.0
 11
235.5108688927214
 21
-634.492456167832
 31
0.0
  0
LINE
  5
21DC3
330
18
100
AcDbEntity
  8
1PHANTOM
100
AcDbLine
 10
232.5108688927214
 20
-635.4924491874494
 30
0.0
 11
232.0108688927214
 21
-635.3924480240516
 31
0.0
  0
LINE
  5
21DC4
330
18
100
AcDbEntity
  8
1PHANTOM
100
AcDbLine
 10
232.0108688927214
 20
-635.3924480240516
 30
0.0
 11
236.0108688927214
 21
-634.5924573312291
 31
0.0
  0
LINE
  5
21DC5
330
18
100
AcDbEntity
  8
1PHANTOM
100
AcDbLine
 10
236.0108688927214
 20
-636.1924573312291
 30
0.0
 11
235.5108688927214
 21
-636.092456167832
 31
0.0
  0
LINE
  5
21DC6
330
18
100
AcDbEntity
  8
1PHANTOM
100
AcDbLine
 10
232.5108688927214
 20
-637.0924491874495
 30
0.0
 11
232.0108688927214
 21
-636.9924480240517
 31
0.0
  0
LINE
  5
21DC7
330
18
100
AcDbEntity
  8
1PHANTOM
100
AcDbLine
 10
232.0108688927214
 20
-636.9924480240517
 30
0.0
 11
236.0108688927214
 21
-636.1924573312291
 31
0.0
  0
LINE
  5
21DC8
330
18
100
AcDbEntity
  8
1PHANTOM
100
AcDbLine
 10
236.0108688927205
 20
-637.7924573312291
 30
0.0
 11
235.5108688927205
 21
-637.692456167832
 31
0.0
  0
LINE
  5
21DC9
330
18
100
AcDbEntity
  8
1PHANTOM
100
AcDbLine
 10
232.5108688927205
 20
-638.6924491874495
 30
0.0
 11
232.0108688927205
 21
-638.5924480240517
 31
0.0
  0
LINE
  5
21DCA
330
18
100
AcDbEntity
  8
1PHANTOM
100
AcDbLine
 10
232.0108688927205
 20
-638.5924480240517
 30
0.0
 11
236.0108688927205
 21
-637.7924573312291
 31
0.0
  0
ARC
  5
21DCD
330
18
100
AcDbEntity
  8
01
100
AcDbCircle
 10
607.7162416153676
 20
-559.8213303512676
 30
0.0
 40
1.0
100
AcDbArc
 50
180.0
 51
270.0
  0
LINE
  5
21DCE
330
18
100
AcDbEntity
  8
01
100
AcDbLine
 10
606.7162416153676
 20
-559.8213303512676
 30
0.0
 11
606.785367008775
 21
-546.2213303512827
 31
0.0
  0
ARC
  5
21DCF
330
18
100
AcDbEntity
  8
01
100
AcDbCircle
 10
607.7766782193696
 20
-547.2213303512827
 30
0.0
 40
1.0
100
AcDbArc
 50
174.8328509187405
 51
179.4999999999954
  0
LINE
  5
21DDF
330
18
100
AcDbEntity
  8
1DIM
100
AcDbLine
 10
661.3162416153764
 20
-700.1213303512701
 30
0.0
 11
661.3162416153764
 21
-713.384274635598
 31
0.0
  0
LINE
  5
21DE0
330
18
100
AcDbEntity
  8
1DIM
100
AcDbLine
 10
675.9162416153472
 20
-700.1213303512706
 30
0.0
 11
675.9162416153472
 21
-713.4176014766934
 31
0.0
  0
LINE
  5
21DE1
330
18
100
AcDbEntity
  8
1DIM
100
AcDbLine
 10
663.3162416153768
 20
-712.5444372794562
 30
0.0
 11
673.9162416153472
 21
-712.5444372794562
 31
0.0
  0
LINE
  5
21DEB
330
18
100
AcDbEntity
  8
01
100
AcDbLine
 10
241.3162416153871
 20
-559.8213303512676
 30
0.0
 11
241.3162416153871
 21
-553.5213303512422
 31
0.0
  0
ARC
  5
21DEC
330
18
100
AcDbEntity
  8
01
100
AcDbCircle
 10
240.3162416153871
 20
-559.8213303512676
 30
0.0
 40
1.0
100
AcDbArc
 50
270.0
 51
0.0
  0
LINE
  5
21DED
330
18
100
AcDbEntity
  8
01
100
AcDbLine
 10
241.3162416153871
 20
-553.5213303512757
 30
0.0
 11
241.2525354805146
 21
-546.2213303512827
 31
0.0
  0
LINE
  5
22469
330
18
100
AcDbEntity
  8
1DIM
100
AcDbLine
 10
726.3390531680857
 20
-612.8213303512691
 30
0.0
 11
736.0824386439322
 21
-612.8213303512691
 31
0.0
  0
LINE
  5
2246A
330
18
100
AcDbEntity
  8
1DIM
100
AcDbLine
 10
726.3390531680857
 20
-630.8213303512691
 30
0.0
 11
736.0824386439322
 21
-630.8213303512691
 31
0.0
  0
LINE
  5
2246B
330
18
100
AcDbEntity
  8
1DIM
100
AcDbLine
 10
735.0824386439322
 20
-614.8213303512691
 30
0.0
 11
735.0824386439322
 21
-628.8213303512691
 31
0.0
  0
LINE
  5
2246C
330
18
100
AcDbEntity
  8
1DIM
100
AcDbLine
 10
735.0824386439322
 20
-630.8213303512691
 30
0.0
 11
735.0824386439322
 21
-692.5546636846025
 31
0.0
  0
SOLID
  5
22470
330
18
100
AcDbEntity
  8
1DIM
100
AcDbTrace
 10
658.8699445748708
 20
-610.8564722205886
 30
0.0
 11
659.3703880156409
 21
-612.8213303512691
 31
0.0
 12
658.2597442860431
 22
-611.1249867489832
 32
0.0
 13
658.2597442860431
 23
-611.1249867489832
 33
0.0
1001
ACAD
1000
DSTYLE
1002
{
1070
    45
1040
0.5
1002
}
  0
LINE
  5
22471
330
18
100
AcDbEntity
  8
1DIM
100
AcDbLine
 10
658.5648444304569
 20
-610.9907294847859
 30
0.0
 11
652.5020397661904
 21
-597.2129827857159
 31
0.0
1001
ACAD
1000
DSTYLE
1002
{
1070
    45
1040
0.5
1002
}
  0
LINE
  5
22472
330
18
100
AcDbEntity
  8
1DIM
100
AcDbLine
 10
652.5020397661904
 20
-597.2129827857159
 30
0.0
 11
621.5687064328571
 21
-597.2129827857159
 31
0.0
1001
ACAD
1000
DSTYLE
1002
{
1070
    45
1040
0.5
1002
}
  0
TEXT
  5
22473
330
18
100
AcDbEntity
  8
1DIM
  6
CONTINUOUS
100
AcDbText
 10
620.8687064328569
 20
-596.5129827857158
 30
0.0
 40
3.5
  1
カウンター棚板
100
AcDbText
  0
LINE
  5
22474
330
18
100
AcDbEntity
  8
1DIM
100
AcDbLine
 10
685.316241615375
 20
-643.0759256808152
 30
0.0
 11
685.316241615375
 21
-655.3526481674569
 31
0.0
  0
LINE
  5
22475
330
18
100
AcDbEntity
  8
1DIM
100
AcDbLine
 10
705.316241615375
 20
-642.7268243822608
 30
0.0
 11
705.316241615375
 21
-655.3526481674569
 31
0.0
  0
LINE
  5
22476
330
18
100
AcDbEntity
  8
1DIM
100
AcDbLine
 10
687.316241615375
 20
-654.3526481674569
 30
0.0
 11
703.316241615375
 21
-654.3526481674569
 31
0.0
  0
LINE
  5
2247A
330
18
100
AcDbEntity
  8
1DIM
100
AcDbLine
 10
661.3162416153768
 20
-630.8213303512691
 30
0.0
 11
639.2199240466816
 21
-630.8213303512691
 31
0.0
1001
ACAD
1000
DSTYLE
1002
{
1070
   271
1070
     0
1002
}
  0
LINE
  5
2247B
330
18
100
AcDbEntity
  8
1DIM
100
AcDbLine
 10
662.6641205953488
 20
-701.1213303512701
 30
0.0
 11
639.2199240466816
 21
-701.1213303512701
 31
0.0
1001
ACAD
1000
DSTYLE
1002
{
1070
   271
1070
     0
1002
}
  0
LINE
  5
2247C
330
18
100
AcDbEntity
  8
1DIM
100
AcDbLine
 10
640.2199240466816
 20
-632.8213303512691
 30
0.0
 11
640.2199240466816
 21
-699.1213303512701
 31
0.0
1001
ACAD
1000
DSTYLE
1002
{
1070
   271
1070
     0
1002
}
  0
LINE
  5
22480
330
18
100
AcDbEntity
  8
1DIM
100
AcDbLine
 10
607.7162416153758
 20
-630.8213303512691
 30
0.0
 11
543.0601827831927
 21
-630.8213303512691
 31
0.0
  0
LINE
  5
22481
330
18
100
AcDbEntity
  8
1DIM
100
AcDbLine
 10
584.0135319860831
 20
-686.82133035127
 30
0.0
 11
543.0601827831927
 21
-686.82133035127
 31
0.0
  0
LINE
  5
22482
330
18
100
AcDbEntity
  8
1DIM
100
AcDbLine
 10
544.0601827831927
 20
-632.8213303512691
 30
0.0
 11
544.0601827831927
 21
-684.82133035127
 31
0.0
  0
LINE
  5
22486
330
18
100
AcDbEntity
  8
1DIM
100
AcDbLine
 10
545.0601827831927
 20
-686.82133035127
 30
0.0
 11
543.0601827831927
 21
-686.82133035127
 31
0.0
  0
LINE
  5
22487
330
18
100
AcDbEntity
  8
1DIM
100
AcDbLine
 10
544.0601827831927
 20
-700.8213303512699
 30
0.0
 11
543.0601827831927
 21
-700.8213303512699
 31
0.0
  0
LINE
  5
22488
330
18
100
AcDbEntity
  8
1DIM
100
AcDbLine
 10
544.0601827831927
 20
-688.82133035127
 30
0.0
 11
544.0601827831927
 21
-698.8213303512699
 31
0.0
  0
LINE
  5
2248C
330
18
100
AcDbEntity
  8
0
  6
BYBLOCK
100
AcDbLine
 10
663.3162416153764
 20
-713.0803356594563
 30
0.0
 11
661.3162416153764
 21
-712.5444372794562
 31
0.0
  0
LINE
  5
2248D
330
18
100
AcDbEntity
  8
0
  6
BYBLOCK
100
AcDbLine
 10
661.3162416153764
 20
-712.5444372794562
 30
0.0
 11
663.3162416153764
 21
-712.0085388994562
 31
0.0
  0
LINE
  5
2248E
330
18
100
AcDbEntity
  8
0
  6
BYBLOCK
100
AcDbLine
 10
661.3162416153764
 20
-712.5444372794562
 30
0.0
 11
663.3162416153764
 21
-712.5444372794562
 31
0.0
  0
LINE
  5
2248F
330
18
100
AcDbEntity
  8
0
  6
BYBLOCK
100
AcDbLine
 10
673.9162416153472
 20
-712.0085388994562
 30
0.0
 11
675.9162416153472
 21
-712.5444372794562
 31
0.0
  0
LINE
  5
22490
330
18
100
AcDbEntity
  8
0
  6
BYBLOCK
100
AcDbLine
 10
675.9162416153472
 20
-712.5444372794562
 30
0.0
 11
673.9162416153472
 21
-713.0803356594563
 31
0.0
  0
LINE
  5
22491
330
18
100
AcDbEntity
  8
0
  6
BYBLOCK
100
AcDbLine
 10
675.9162416153472
 20
-712.5444372794562
 30
0.0
 11
673.9162416153472
 21
-712.5444372794562
 31
0.0
  0
TEXT
  5
22492
330
18
100
AcDbEntity
  8
1DIM
  6
CONTINUOUS
100
AcDbText
 10
663.9495749486949
 20
-711.8444372794563
 30
0.0
 40
3.5
  1
14.5
100
AcDbText
  0
LINE
  5
22493
330
18
100
AcDbEntity
  8
1DIM
100
AcDbLine
 10
661.3162416153757
 20
-632.8213303512682
 30
0.0
 11
661.3162416153757
 21
-655.3526481674569
 31
0.0
  0
LINE
  5
22494
330
18
100
AcDbEntity
  8
1DIM
100
AcDbLine
 10
685.316241615375
 20
-643.0759256808152
 30
0.0
 11
685.316241615375
 21
-655.3526481674569
 31
0.0
  0
LINE
  5
22495
330
18
100
AcDbEntity
  8
1DIM
100
AcDbLine
 10
663.3162416153757
 20
-654.3526481674569
 30
0.0
 11
683.316241615375
 21
-654.3526481674569
 31
0.0
  0
SOLID
  5
22499
330
18
100
AcDbEntity
  8
1DIM
100
AcDbTrace
 10
604.722686153467
 20
-645.7926567731133
 30
0.0
 11
606.2108223566563
 21
-644.4154996463234
 31
0.0
 12
605.2497715028686
 22
-646.2008546159428
 32
0.0
 13
605.2497715028686
 23
-646.2008546159428
 33
0.0
1001
ACAD
1000
DSTYLE
1002
{
1070
    45
1040
0.5
1002
}
  0
LINE
  5
2249A
330
18
100
AcDbEntity
  8
1DIM
100
AcDbLine
 10
604.9862288281678
 20
-645.9967556945281
 30
0.0
 11
599.802303366368
 21
-652.690497984699
 31
0.0
1001
ACAD
1000
DSTYLE
1002
{
1070
    45
1040
0.5
1002
}
  0
LINE
  5
2249B
330
18
100
AcDbEntity
  8
1DIM
100
AcDbLine
 10
599.802303366368
 20
-652.690497984699
 30
0.0
 11
552.5356366997014
 21
-652.690497984699
 31
0.0
1001
ACAD
1000
DSTYLE
1002
{
1070
    45
1040
0.5
1002
}
  0
TEXT
  5
2249C
330
18
100
AcDbEntity
  8
1DIM
  6
CONTINUOUS
100
AcDbText
 10
552.3023033663679
 20
-646.1571646513656
 30
0.0
 40
3.5
  1
材質：亜鉛ダイキャスト
100
AcDbText
  0
TEXT
  5
2249D
330
18
100
AcDbEntity
  8
1DIM
  6
CONTINUOUS
100
AcDbText
 10
564.202303366368
 20
-651.990497984699
 30
0.0
 40
3.5
  1
仕上げ：クローム
100
AcDbText
  0
SOLID
  5
2249E
330
18
100
AcDbEntity
  8
1DIM
100
AcDbTrace
 10
551.2683941533185
 20
-684.5855426653446
 30
0.0
 11
549.9804364742665
 21
-686.1515171632476
 31
0.0
 12
550.6908911983742
 22
-684.2524739314847
 32
0.0
 13
550.6908911983742
 23
-684.2524739314847
 33
0.0
1001
ACAD
1000
DSTYLE
1002
{
1070
    45
1040
0.5
1002
}
  0
LINE
  5
2249F
330
18
100
AcDbEntity
  8
1DIM
100
AcDbLine
 10
550.9796426758463
 20
-684.4190082984147
 30
0.0
 11
557.0485206048593
 21
-673.8962705542132
 31
0.0
1001
ACAD
1000
DSTYLE
1002
{
1070
    45
1040
0.5
1002
}
  0
LINE
  5
224A0
330
18
100
AcDbEntity
  8
1DIM
100
AcDbLine
 10
557.0485206048593
 20
-673.8962705542132
 30
0.0
 11
592.0651872715259
 21
-673.8962705542132
 31
0.0
1001
ACAD
1000
DSTYLE
1002
{
1070
    45
1040
0.5
1002
}
  0
TEXT
  5
224A1
330
18
100
AcDbEntity
  8
1DIM
  6
CONTINUOUS
100
AcDbText
 10
559.515187271526
 20
-667.3629372208798
 30
0.0
 40
3.5
  1
材質：ステンレス
100
AcDbText
  0
TEXT
  5
224A2
330
18
100
AcDbEntity
  8
1DIM
  6
CONTINUOUS
100
AcDbText
 10
559.6318539381926
 20
-673.1962705542131
 30
0.0
 40
3.5
  1
仕上げ：鏡面
100
AcDbText
  0
LINE
  5
224A3
330
18
100
AcDbEntity
  8
1DIM
100
AcDbLine
 10
661.3162416153759
 20
-632.8213303512682
 30
0.0
 11
661.3162416153759
 21
-601.3404825316968
 31
0.0
  0
LINE
  5
224A4
330
18
100
AcDbEntity
  8
1DIM
100
AcDbLine
 10
712.3162416153768
 20
-631.7991661036219
 30
0.0
 11
712.3162416153768
 21
-601.3404825316968
 31
0.0
  0
LINE
  5
224A5
330
18
100
AcDbEntity
  8
1DIM
100
AcDbLine
 10
663.3162416153759
 20
-602.3404825316968
 30
0.0
 11
710.3162416153768
 21
-602.3404825316968
 31
0.0
  0
LINE
  5
224A9
330
18
100
AcDbEntity
  8
1DIM1
100
AcDbLine
 10
234.0162416153703
 20
-616.701050799081
 30
0.0
 11
234.0162416153703
 21
-599.1485177367565
 31
0.0
1001
ACAD
1000
DSTYLE
1002
{
1070
    40
1040
3.0
1070
    45
1040
0.5
1002
}
  0
LINE
  5
224AA
330
18
100
AcDbEntity
  8
1DIM1
100
AcDbLine
 10
614.0162416153746
 20
-615.8616577601242
 30
0.0
 11
614.0162416153746
 21
-599.1485177367565
 31
0.0
1001
ACAD
1000
DSTYLE
1002
{
1070
    40
1040
3.0
1070
    45
1040
0.5
1002
}
  0
LINE
  5
224AB
330
18
100
AcDbEntity
  8
1DIM1
100
AcDbLine
 10
240.0162416153703
 20
-602.1485177367565
 30
0.0
 11
608.0162416153746
 21
-602.1485177367565
 31
0.0
1001
ACAD
1000
DSTYLE
1002
{
1070
    40
1040
3.0
1070
    45
1040
0.5
1002
}
  0
LINE
  5
224AF
330
18
100
AcDbEntity
  8
1DIM1
100
AcDbLine
 10
226.7108223568246
 20
-631.8213303512674
 30
0.0
 11
226.7108223568246
 21
-580.5583903251818
 31
0.0
1001
ACAD
1000
DSTYLE
1002
{
1070
    40
1040
3.0
1070
    45
1040
0.5
1002
}
  0
LINE
  5
224B0
330
18
100
AcDbEntity
  8
1DIM1
100
AcDbLine
 10
621.3162416153771
 20
-631.8213303512689
 30
0.0
 11
621.3162416153771
 21
-580.5583903251818
 31
0.0
1001
ACAD
1000
DSTYLE
1002
{
1070
    40
1040
3.0
1070
    45
1040
0.5
1002
}
  0
LINE
  5
224B1
330
18
100
AcDbEntity
  8
1DIM1
100
AcDbLine
 10
232.7108223568246
 20
-583.5583903251818
 30
0.0
 11
615.3162416153771
 21
-583.5583903251818
 31
0.0
1001
ACAD
1000
DSTYLE
1002
{
1070
    40
1040
3.0
1070
    45
1040
0.5
1002
}
  0
LINE
  5
224B5
330
18
100
AcDbEntity
  8
1DIM1
100
AcDbLine
 10
241.3108223568258
 20
-631.8213303512673
 30
0.0
 11
241.3108223568258
 21
-616.1704631818193
 31
0.0
1001
ACAD
1000
DSTYLE
1002
{
1070
    40
1040
3.0
1070
    45
1040
0.5
1002
}
  0
LINE
  5
224B6
330
18
100
AcDbEntity
  8
1DIM1
100
AcDbLine
 10
606.7341673387928
 20
-632.0098246887803
 30
0.0
 11
606.7341673387928
 21
-616.1704631818193
 31
0.0
1001
ACAD
1000
DSTYLE
1002
{
1070
    40
1040
3.0
1070
    45
1040
0.5
1002
}
  0
LINE
  5
224B7
330
18
100
AcDbEntity
  8
1DIM1
100
AcDbLine
 10
247.3108223568258
 20
-619.1704631818193
 30
0.0
 11
600.7341673387928
 21
-619.1704631818193
 31
0.0
1001
ACAD
1000
DSTYLE
1002
{
1070
    40
1040
3.0
1070
    45
1040
0.5
1002
}
  0
LINE
  5
224BB
330
18
100
AcDbEntity
  8
1DIM
100
AcDbLine
 10
606.7341673387928
 20
-632.0098246887803
 30
0.0
 11
606.7341673387928
 21
-618.1704631818193
 31
0.0
1001
ACAD
1000
DSTYLE
1002
{
1070
   271
1070
     1
1002
}
  0
LINE
  5
224BC
330
18
100
AcDbEntity
  8
1DIM
100
AcDbLine
 10
621.3162416153772
 20
-632.0098246887803
 30
0.0
 11
621.3162416153772
 21
-618.1704631818193
 31
0.0
1001
ACAD
1000
DSTYLE
1002
{
1070
   271
1070
     1
1002
}
  0
LINE
  5
224BD
330
18
100
AcDbEntity
  8
1DIM
100
AcDbLine
 10
608.7341673387928
 20
-619.1704631818193
 30
0.0
 11
619.3162416153772
 21
-619.1704631818193
 31
0.0
1001
ACAD
1000
DSTYLE
1002
{
1070
   271
1070
     1
1002
}
  0
LINE
  5
224BE
330
18
100
AcDbEntity
  8
1DIM
100
AcDbLine
 10
621.3162416153772
 20
-619.1704631818193
 30
0.0
 11
635.9788895624996
 21
-619.1704631818193
 31
0.0
1001
ACAD
1000
DSTYLE
1002
{
1070
   271
1070
     1
1002
}
  0
LINE
  5
224C2
330
18
100
AcDbEntity
  8
0
  6
BYBLOCK
100
AcDbLine
 10
734.5465402639321
 20
-614.8213303512691
 30
0.0
 11
735.0824386439322
 21
-612.8213303512691
 31
0.0
  0
LINE
  5
224C3
330
18
100
AcDbEntity
  8
0
  6
BYBLOCK
100
AcDbLine
 10
735.0824386439322
 20
-612.8213303512691
 30
0.0
 11
735.6183370239322
 21
-614.8213303512691
 31
0.0
  0
LINE
  5
224C4
330
18
100
AcDbEntity
  8
0
  6
BYBLOCK
100
AcDbLine
 10
735.0824386439322
 20
-612.8213303512691
 30
0.0
 11
735.0824386439322
 21
-614.8213303512691
 31
0.0
  0
LINE
  5
224C5
330
18
100
AcDbEntity
  8
0
  6
BYBLOCK
100
AcDbLine
 10
735.6183370239322
 20
-628.8213303512691
 30
0.0
 11
735.0824386439322
 21
-630.8213303512691
 31
0.0
  0
LINE
  5
224C6
330
18
100
AcDbEntity
  8
0
  6
BYBLOCK
100
AcDbLine
 10
735.0824386439322
 20
-630.8213303512691
 30
0.0
 11
734.5465402639321
 21
-628.8213303512691
 31
0.0
  0
LINE
  5
224C7
330
18
100
AcDbEntity
  8
0
  6
BYBLOCK
100
AcDbLine
 10
735.0824386439322
 20
-630.8213303512691
 30
0.0
 11
735.0824386439322
 21
-628.8213303512691
 31
0.0
  0
TEXT
  5
224C8
330
18
100
AcDbEntity
  8
1DIM
  6
CONTINUOUS
100
AcDbText
 10
733.4657719772656
 20
-691.4171636846023
 30
0.0
 40
3.5
  1
18ｍｍ以上(推奨30ｍｍ以上)
 50
90.0
100
AcDbText
  0
LINE
  5
224C9
330
18
100
AcDbEntity
  8
0
  6
BYBLOCK
100
AcDbLine
 10
687.316241615375
 20
-654.8885465474569
 30
0.0
 11
685.316241615375
 21
-654.3526481674569
 31
0.0
  0
LINE
  5
224CA
330
18
100
AcDbEntity
  8
0
  6
BYBLOCK
100
AcDbLine
 10
685.316241615375
 20
-654.3526481674569
 30
0.0
 11
687.316241615375
 21
-653.8167497874568
 31
0.0
  0
LINE
  5
224CB
330
18
100
AcDbEntity
  8
0
  6
BYBLOCK
100
AcDbLine
 10
685.316241615375
 20
-654.3526481674569
 30
0.0
 11
687.316241615375
 21
-654.3526481674569
 31
0.0
  0
LINE
  5
224CC
330
18
100
AcDbEntity
  8
0
  6
BYBLOCK
100
AcDbLine
 10
703.316241615375
 20
-653.8167497874568
 30
0.0
 11
705.316241615375
 21
-654.3526481674569
 31
0.0
  0
LINE
  5
224CD
330
18
100
AcDbEntity
  8
0
  6
BYBLOCK
100
AcDbLine
 10
705.316241615375
 20
-654.3526481674569
 30
0.0
 11
703.316241615375
 21
-654.8885465474569
 31
0.0
  0
LINE
  5
224CE
330
18
100
AcDbEntity
  8
0
  6
BYBLOCK
100
AcDbLine
 10
705.316241615375
 20
-654.3526481674569
 30
0.0
 11
703.316241615375
 21
-654.3526481674569
 31
0.0
  0
TEXT
  5
224CF
330
18
100
AcDbEntity
  8
1DIM
  6
CONTINUOUS
100
AcDbText
 10
690.8683249487084
 20
-653.6526481674568
 30
0.0
 40
3.5
  1
P20
100
AcDbText
  0
LINE
  5
224D0
330
18
100
AcDbEntity
  8
0
  6
BYBLOCK
100
AcDbLine
 10
639.6840256666816
 20
-632.8213303512691
 30
0.0
 11
640.2199240466816
 21
-630.8213303512691
 31
0.0
  0
LINE
  5
224D1
330
18
100
AcDbEntity
  8
0
  6
BYBLOCK
100
AcDbLine
 10
640.2199240466816
 20
-630.8213303512691
 30
0.0
 11
640.7558224266817
 21
-632.8213303512691
 31
0.0
  0
LINE
  5
224D2
330
18
100
AcDbEntity
  8
0
  6
BYBLOCK
100
AcDbLine
 10
640.2199240466816
 20
-630.8213303512691
 30
0.0
 11
640.2199240466816
 21
-632.8213303512691
 31
0.0
  0
LINE
  5
224D3
330
18
100
AcDbEntity
  8
0
  6
BYBLOCK
100
AcDbLine
 10
640.7558224266817
 20
-699.1213303512701
 30
0.0
 11
640.2199240466816
 21
-701.1213303512701
 31
0.0
  0
LINE
  5
224D4
330
18
100
AcDbEntity
  8
0
  6
BYBLOCK
100
AcDbLine
 10
640.2199240466816
 20
-701.1213303512701
 30
0.0
 11
639.6840256666816
 21
-699.1213303512701
 31
0.0
  0
LINE
  5
224D5
330
18
100
AcDbEntity
  8
0
  6
BYBLOCK
100
AcDbLine
 10
640.2199240466816
 20
-701.1213303512701
 30
0.0
 11
640.2199240466816
 21
-699.1213303512701
 31
0.0
  0
TEXT
  5
224D6
330
18
100
AcDbEntity
  8
1DIM
  6
CONTINUOUS
100
AcDbText
 10
639.5199240466817
 20
-668.6692470179362
 30
0.0
 40
3.5
  1
70
 50
90.0
100
AcDbText
1001
ACAD
1000
DSTYLE
1002
{
1070
   271
1070
     0
1002
}
  0
LINE
  5
224D7
330
18
100
AcDbEntity
  8
0
  6
BYBLOCK
100
AcDbLine
 10
543.5242844031926
 20
-632.8213303512691
 30
0.0
 11
544.0601827831927
 21
-630.8213303512691
 31
0.0
  0
LINE
  5
224D8
330
18
100
AcDbEntity
  8
0
  6
BYBLOCK
100
AcDbLine
 10
544.0601827831927
 20
-630.8213303512691
 30
0.0
 11
544.5960811631927
 21
-632.8213303512691
 31
0.0
  0
LINE
  5
224D9
330
18
100
AcDbEntity
  8
0
  6
BYBLOCK
100
AcDbLine
 10
544.0601827831927
 20
-630.8213303512691
 30
0.0
 11
544.0601827831927
 21
-632.8213303512691
 31
0.0
  0
LINE
  5
224DA
330
18
100
AcDbEntity
  8
0
  6
BYBLOCK
100
AcDbLine
 10
544.5960811631927
 20
-684.82133035127
 30
0.0
 11
544.0601827831927
 21
-686.82133035127
 31
0.0
  0
LINE
  5
224DB
330
18
100
AcDbEntity
  8
0
  6
BYBLOCK
100
AcDbLine
 10
544.0601827831927
 20
-686.82133035127
 30
0.0
 11
543.5242844031926
 21
-684.82133035127
 31
0.0
  0
LINE
  5
224DC
330
18
100
AcDbEntity
  8
0
  6
BYBLOCK
100
AcDbLine
 10
544.0601827831927
 20
-686.82133035127
 30
0.0
 11
544.0601827831927
 21
-684.82133035127
 31
0.0
  0
TEXT
  5
224DD
330
18
100
AcDbEntity
  8
1DIM
  6
CONTINUOUS
100
AcDbText
 10
543.3601827831928
 20
-661.7501497957139
 30
0.0
 40
3.5
  1
56
 50
90.0
100
AcDbText
  0
LINE
  5
224DE
330
18
100
AcDbEntity
  8
0
  6
BYBLOCK
100
AcDbLine
 10
543.5242844031926
 20
-688.82133035127
 30
0.0
 11
544.0601827831927
 21
-686.82133035127
 31
0.0
  0
LINE
  5
224DF
330
18
100
AcDbEntity
  8
0
  6
BYBLOCK
100
AcDbLine
 10
544.0601827831927
 20
-686.82133035127
 30
0.0
 11
544.5960811631927
 21
-688.82133035127
 31
0.0
  0
LINE
  5
224E0
330
18
100
AcDbEntity
  8
0
  6
BYBLOCK
100
AcDbLine
 10
544.0601827831927
 20
-686.82133035127
 30
0.0
 11
544.0601827831927
 21
-688.82133035127
 31
0.0
  0
LINE
  5
224E1
330
18
100
AcDbEntity
  8
0
  6
BYBLOCK
100
AcDbLine
 10
544.5960811631927
 20
-698.8213303512699
 30
0.0
 11
544.0601827831927
 21
-700.8213303512699
 31
0.0
  0
LINE
  5
224E2
330
18
100
AcDbEntity
  8
0
  6
BYBLOCK
100
AcDbLine
 10
544.0601827831927
 20
-700.8213303512699
 30
0.0
 11
543.5242844031926
 21
-698.8213303512699
 31
0.0
  0
LINE
  5
224E3
330
18
100
AcDbEntity
  8
0
  6
BYBLOCK
100
AcDbLine
 10
544.0601827831927
 20
-700.8213303512699
 30
0.0
 11
544.0601827831927
 21
-698.8213303512699
 31
0.0
  0
TEXT
  5
224E4
330
18
100
AcDbEntity
  8
1DIM
  6
CONTINUOUS
100
AcDbText
 10
543.3601827831927
 20
-698.3713303512698
 30
0.0
 40
3.5
  1
□14
 50
90.0
100
AcDbText
  0
LINE
  5
224E5
330
18
100
AcDbEntity
  8
0
  6
BYBLOCK
100
AcDbLine
 10
663.3162416153757
 20
-654.8885465474569
 30
0.0
 11
661.3162416153757
 21
-654.3526481674569
 31
0.0
  0
LINE
  5
224E6
330
18
100
AcDbEntity
  8
0
  6
BYBLOCK
100
AcDbLine
 10
661.3162416153757
 20
-654.3526481674569
 30
0.0
 11
663.3162416153757
 21
-653.8167497874568
 31
0.0
  0
LINE
  5
224E7
330
18
100
AcDbEntity
  8
0
  6
BYBLOCK
100
AcDbLine
 10
661.3162416153757
 20
-654.3526481674569
 30
0.0
 11
663.3162416153757
 21
-654.3526481674569
 31
0.0
  0
LINE
  5
224E8
330
18
100
AcDbEntity
  8
0
  6
BYBLOCK
100
AcDbLine
 10
683.316241615375
 20
-653.8167497874568
 30
0.0
 11
685.316241615375
 21
-654.3526481674569
 31
0.0
  0
LINE
  5
224E9
330
18
100
AcDbEntity
  8
0
  6
BYBLOCK
100
AcDbLine
 10
685.316241615375
 20
-654.3526481674569
 30
0.0
 11
683.316241615375
 21
-654.8885465474569
 31
0.0
  0
LINE
  5
224EA
330
18
100
AcDbEntity
  8
0
  6
BYBLOCK
100
AcDbLine
 10
685.316241615375
 20
-654.3526481674569
 30
0.0
 11
683.316241615375
 21
-654.3526481674569
 31
0.0
  0
TEXT
  5
224EB
330
18
100
AcDbEntity
  8
1DIM
  6
CONTINUOUS
100
AcDbText
 10
670.3995749487087
 20
-653.6526481674568
 30
0.0
 40
3.5
  1
24
100
AcDbText
  0
LINE
  5
224EC
330
18
100
AcDbEntity
  8
0
  6
BYBLOCK
100
AcDbLine
 10
663.3162416153759
 20
-602.8763809116969
 30
0.0
 11
661.3162416153759
 21
-602.3404825316968
 31
0.0
  0
LINE
  5
224ED
330
18
100
AcDbEntity
  8
0
  6
BYBLOCK
100
AcDbLine
 10
661.3162416153759
 20
-602.3404825316968
 30
0.0
 11
663.3162416153759
 21
-601.8045841516968
 31
0.0
  0
LINE
  5
224EE
330
18
100
AcDbEntity
  8
0
  6
BYBLOCK
100
AcDbLine
 10
661.3162416153759
 20
-602.3404825316968
 30
0.0
 11
663.3162416153759
 21
-602.3404825316968
 31
0.0
  0
LINE
  5
224EF
330
18
100
AcDbEntity
  8
0
  6
BYBLOCK
100
AcDbLine
 10
710.3162416153768
 20
-601.8045841516968
 30
0.0
 11
712.3162416153768
 21
-602.3404825316968
 31
0.0
  0
LINE
  5
224F0
330
18
100
AcDbEntity
  8
0
  6
BYBLOCK
100
AcDbLine
 10
712.3162416153768
 20
-602.3404825316968
 30
0.0
 11
710.3162416153768
 21
-602.8763809116969
 31
0.0
  0
LINE
  5
224F1
330
18
100
AcDbEntity
  8
0
  6
BYBLOCK
100
AcDbLine
 10
712.3162416153768
 20
-602.3404825316968
 30
0.0
 11
710.3162416153768
 21
-602.3404825316968
 31
0.0
  0
TEXT
  5
224F2
330
18
100
AcDbEntity
  8
1DIM
  6
CONTINUOUS
100
AcDbText
 10
684.4707555042653
 20
-601.6404825316969
 30
0.0
 40
3.5
  1
51
100
AcDbText
  0
LINE
  5
224F3
330
18
100
AcDbEntity
  8
0
  6
BYBLOCK
100
AcDbLine
 10
240.0162416153703
 20
-603.7562128767565
 30
0.0
 11
234.0162416153703
 21
-602.1485177367565
 31
0.0
  0
LINE
  5
224F4
330
18
100
AcDbEntity
  8
0
  6
BYBLOCK
100
AcDbLine
 10
234.0162416153703
 20
-602.1485177367565
 30
0.0
 11
240.0162416153703
 21
-600.5408225967565
 31
0.0
  0
LINE
  5
224F5
330
18
100
AcDbEntity
  8
0
  6
BYBLOCK
100
AcDbLine
 10
234.0162416153703
 20
-602.1485177367565
 30
0.0
 11
240.0162416153703
 21
-602.1485177367565
 31
0.0
  0
LINE
  5
224F6
330
18
100
AcDbEntity
  8
0
  6
BYBLOCK
100
AcDbLine
 10
608.0162416153746
 20
-600.5408225967565
 30
0.0
 11
614.0162416153746
 21
-602.1485177367565
 31
0.0
  0
LINE
  5
224F7
330
18
100
AcDbEntity
  8
0
  6
BYBLOCK
100
AcDbLine
 10
614.0162416153746
 20
-602.1485177367565
 30
0.0
 11
608.0162416153746
 21
-603.7562128767565
 31
0.0
  0
LINE
  5
224F8
330
18
100
AcDbEntity
  8
0
  6
BYBLOCK
100
AcDbLine
 10
614.0162416153746
 20
-602.1485177367565
 30
0.0
 11
608.0162416153746
 21
-602.1485177367565
 31
0.0
  0
TEXT
  5
224F9
330
18
100
AcDbEntity
  8
1DIM1
  6
CONTINUOUS
100
AcDbText
 10
405.4197819861004
 20
-600.0485177367565
 30
0.0
 40
10.5
  1
P380
100
AcDbText
1001
ACAD
1000
DSTYLE
1002
{
1070
    40
1040
3.0
1070
    45
1040
0.5
1002
}
  0
LINE
  5
224FA
330
18
100
AcDbEntity
  8
0
  6
BYBLOCK
100
AcDbLine
 10
232.7108223568246
 20
-585.1660854651818
 30
0.0
 11
226.7108223568246
 21
-583.5583903251818
 31
0.0
  0
LINE
  5
224FB
330
18
100
AcDbEntity
  8
0
  6
BYBLOCK
100
AcDbLine
 10
226.7108223568246
 20
-583.5583903251818
 30
0.0
 11
232.7108223568246
 21
-581.9506951851818
 31
0.0
  0
LINE
  5
224FC
330
18
100
AcDbEntity
  8
0
  6
BYBLOCK
100
AcDbLine
 10
226.7108223568246
 20
-583.5583903251818
 30
0.0
 11
232.7108223568246
 21
-583.5583903251818
 31
0.0
  0
LINE
  5
224FD
330
18
100
AcDbEntity
  8
0
  6
BYBLOCK
100
AcDbLine
 10
615.3162416153771
 20
-581.9506951851818
 30
0.0
 11
621.3162416153771
 21
-583.5583903251818
 31
0.0
  0
LINE
  5
224FE
330
18
100
AcDbEntity
  8
0
  6
BYBLOCK
100
AcDbLine
 10
621.3162416153771
 20
-583.5583903251818
 30
0.0
 11
615.3162416153771
 21
-585.1660854651818
 31
0.0
  0
LINE
  5
224FF
330
18
100
AcDbEntity
  8
0
  6
BYBLOCK
100
AcDbLine
 10
621.3162416153771
 20
-583.5583903251818
 30
0.0
 11
615.3162416153771
 21
-583.5583903251818
 31
0.0
  0
TEXT
  5
22500
330
18
100
AcDbEntity
  8
1DIM1
  6
CONTINUOUS
100
AcDbText
 10
403.0111014305448
 20
-581.4583903251818
 30
0.0
 40
10.5
  1
394.5
100
AcDbText
1001
ACAD
1000
DSTYLE
1002
{
1070
    40
1040
3.0
1070
    45
1040
0.5
1002
}
  0
LINE
  5
22501
330
18
100
AcDbEntity
  8
0
  6
BYBLOCK
100
AcDbLine
 10
247.3108223568258
 20
-620.7781583218193
 30
0.0
 11
241.3108223568258
 21
-619.1704631818193
 31
0.0
  0
LINE
  5
22502
330
18
100
AcDbEntity
  8
0
  6
BYBLOCK
100
AcDbLine
 10
241.3108223568258
 20
-619.1704631818193
 30
0.0
 11
247.3108223568258
 21
-617.5627680418193
 31
0.0
  0
LINE
  5
22503
330
18
100
AcDbEntity
  8
0
  6
BYBLOCK
100
AcDbLine
 10
241.3108223568258
 20
-619.1704631818193
 30
0.0
 11
247.3108223568258
 21
-619.1704631818193
 31
0.0
  0
LINE
  5
22504
330
18
100
AcDbEntity
  8
0
  6
BYBLOCK
100
AcDbLine
 10
600.7341673387928
 20
-617.5627680418193
 30
0.0
 11
606.7341673387928
 21
-619.1704631818193
 31
0.0
  0
LINE
  5
22505
330
18
100
AcDbEntity
  8
0
  6
BYBLOCK
100
AcDbLine
 10
606.7341673387928
 20
-619.1704631818193
 30
0.0
 11
600.7341673387928
 21
-620.7781583218193
 31
0.0
  0
LINE
  5
22506
330
18
100
AcDbEntity
  8
0
  6
BYBLOCK
100
AcDbLine
 10
606.7341673387928
 20
-619.1704631818193
 30
0.0
 11
600.7341673387928
 21
-619.1704631818193
 31
0.0
  0
TEXT
  5
22507
330
18
100
AcDbEntity
  8
1DIM1
  6
CONTINUOUS
100
AcDbText
 10
402.9406153194337
 20
-617.0704631818193
 30
0.0
 40
10.5
  1
365.5
100
AcDbText
1001
ACAD
1000
DSTYLE
1002
{
1070
    40
1040
3.0
1070
    45
1040
0.5
1002
}
  0
LINE
  5
22508
330
18
100
AcDbEntity
  8
0
  6
BYBLOCK
100
AcDbLine
 10
608.7341673387928
 20
-619.7063615618193
 30
0.0
 11
606.7341673387928
 21
-619.1704631818193
 31
0.0
  0
LINE
  5
22509
330
18
100
AcDbEntity
  8
0
  6
BYBLOCK
100
AcDbLine
 10
606.7341673387928
 20
-619.1704631818193
 30
0.0
 11
608.7341673387928
 21
-618.6345648018192
 31
0.0
  0
LINE
  5
2250A
330
18
100
AcDbEntity
  8
0
  6
BYBLOCK
100
AcDbLine
 10
606.7341673387928
 20
-619.1704631818193
 30
0.0
 11
608.7341673387928
 21
-619.1704631818193
 31
0.0
  0
LINE
  5
2250B
330
18
100
AcDbEntity
  8
0
  6
BYBLOCK
100
AcDbLine
 10
619.3162416153772
 20
-618.6345648018192
 30
0.0
 11
621.3162416153772
 21
-619.1704631818193
 31
0.0
  0
LINE
  5
2250C
330
18
100
AcDbEntity
  8
0
  6
BYBLOCK
100
AcDbLine
 10
621.3162416153772
 20
-619.1704631818193
 30
0.0
 11
619.3162416153772
 21
-619.7063615618193
 31
0.0
  0
LINE
  5
2250D
330
18
100
AcDbEntity
  8
0
  6
BYBLOCK
100
AcDbLine
 10
621.3162416153772
 20
-619.1704631818193
 30
0.0
 11
619.3162416153772
 21
-619.1704631818193
 31
0.0
  0
TEXT
  5
2250E
330
18
100
AcDbEntity
  8
1DIM
  6
CONTINUOUS
100
AcDbText
 10
625.5288895624996
 20
-618.4704631818194
 30
0.0
 40
3.5
  1
14.5
100
AcDbText
1001
ACAD
1000
DSTYLE
1002
{
1070
   271
1070
     1
1002
}
  0
VIEWPORT
  5
57
330
15
100
AcDbEntity
 67
     1
  8
0
100
AcDbViewport
 68
     1
 10
0.0
 20
0.0
 30
0.0
 40
535.5106132075472
 41
297.0
 68
     1
 69
     1
1001
ACAD
1000
MVIEW
1002
{
1070
    16
1010
0.0
1020
0.0
1030
0.0
1010
0.0
1020
0.0
1030
1.0
1040
0.0
1040
297.0
1040
-4.171999999925333
1040
12.83903210976956
1040
50.0
1040
0.0
1040
0.0
1070
    16
1070
   100
1070
     0
1070
     1
1070
     0
1070
     0
1070
     0
1070
     0
1040
0.0
1040
0.0
1040
0.0
1040
10.0
1040
10.0
1040
10.0
1040
10.0
1070
     0
1002
{
1002
}
1002
}
  0
ENDSEC
  0
SECTION
  2
OBJECTS
  0
DICTIONARY
  5
C
330
0
100
AcDbDictionary
  3
ACAD_CIP_PREVIOUS_PRODUCT_INFO
350
20B28
  3
ACAD_COLOR
350
2D0
  3
ACAD_GROUP
350
D
  3
ACAD_LAYOUT
350
2D1
  3
ACAD_MATERIAL
350
2CF
  3
ACAD_MLEADERSTYLE
350
19E18
  3
ACAD_MLINESTYLE
350
1B
  3
ACAD_PLOTSETTINGS
350
2D2
  3
ACAD_SCALELIST
350
19DF6
  3
ACAD_VISUALSTYLE
350
19DE5
  3
ACDBHEADERROUNDTRIPXREC
350
2250F
  3
ACDBVARIABLEDICTIONARY
350
37
  3
CONTENTDICTIONARY
350
D8
  3
DRAWINGVARIABLESDICT
350
20
  3
DWGPROPS
350
22512
1001
ACAD
1000
TREAT_AS_HARD
1070
     0
  0
DICTIONARY
  5
18FE8
330
2
100
AcDbDictionary
  3
ACAD_LAYERSTATES
360
18FE9
1001
ACAD
1000
TREAT_AS_HARD
1070
     1
  0
DICTIONARY
  5
1A20A
330
E
100
AcDbDictionary
  3
ADSK_XREC_LAYER_RECONCILED
360
1A20B
1001
ACAD
1000
TREAT_AS_HARD
1070
     1
  0
DICTIONARY
  5
1A20C
330
29
100
AcDbDictionary
  3
ADSK_XREC_LAYER_RECONCILED
360
1A20D
1001
ACAD
1000
TREAT_AS_HARD
1070
     1
  0
DICTIONARY
  5
1A20E
330
31
100
AcDbDictionary
  3
ADSK_XREC_LAYER_RECONCILED
360
1A20F
1001
ACAD
1000
TREAT_AS_HARD
1070
     1
  0
DICTIONARY
  5
1A218
330
101
100
AcDbDictionary
  3
ADSK_XREC_LAYER_RECONCILED
360
1A219
1001
ACAD
1000
TREAT_AS_HARD
1070
     1
  0
DICTIONARY
  5
1A21C
330
103
100
AcDbDictionary
  3
ADSK_XREC_LAYER_RECONCILED
360
1A21D
1001
ACAD
1000
TREAT_AS_HARD
1070
     1
  0
DICTIONARY
  5
1A220
330
25F
100
AcDbDictionary
  3
ADSK_XREC_LAYER_RECONCILED
360
1A221
1001
ACAD
1000
TREAT_AS_HARD
1070
     1
  0
DICTIONARY
  5
1A236
330
26A
100
AcDbDictionary
  3
ADSK_XREC_LAYER_RECONCILED
360
1A237
1001
ACAD
1000
TREAT_AS_HARD
1070
     1
  0
DICTIONARY
  5
6E9
330
18
100
AcDbDictionary
  3
ACAD_SORTENTS
360
6EA
1001
ACAD
1000
TREAT_AS_HARD
1070
     1
  0
DICTIONARY
  5
59B
330
15
100
AcDbDictionary
  3
ACAD_SORTENTS
360
59C
1001
ACAD
1000
TREAT_AS_HARD
1070
     1
  0
XRECORD
  5
20B28
102
{ACAD_REACTORS
330
C
102
}
330
C
100
AcDbXrecord
300
ACDLT
300
2012
300
ACDLT_F_S
  0
DICTIONARY
  5
2D0
102
{ACAD_REACTORS
330
C
102
}
330
C
100
AcDbDictionary
1001
ACAD
1000
TREAT_AS_HARD
1070
     0
  0
DICTIONARY
  5
D
102
{ACAD_REACTORS
330
C
102
}
330
C
100
AcDbDictionary
1001
ACAD
1000
TREAT_AS_HARD
1070
     0
  0
DICTIONARY
  5
2D1
102
{ACAD_REACTORS
330
C
102
}
330
C
100
AcDbDictionary
1001
ACAD
1000
TREAT_AS_HARD
1070
     0
  0
DICTIONARY
  5
2CF
102
{ACAD_REACTORS
330
C
102
}
330
C
100
AcDbDictionary
  3
BYBLOCK
350
19DD5
  3
BYLAYER
350
19DCD
  3
GLOBAL
350
19DDD
1001
ACAD
1000
TREAT_AS_HARD
1070
     0
  0
DICTIONARY
  5
19E18
102
{ACAD_REACTORS
330
C
102
}
330
C
100
AcDbDictionary
  3
STANDARD
350
19E19
1001
ACAD
1000
TREAT_AS_HARD
1070
     0
  0
DICTIONARY
  5
1B
102
{ACAD_REACTORS
330
C
102
}
330
C
100
AcDbDictionary
  3
STANDARD
350
1C
1001
ACAD
1000
TREAT_AS_HARD
1070
     0
  0
DICTIONARY
  5
2D2
102
{ACAD_REACTORS
330
C
102
}
330
C
100
AcDbDictionary
1001
ACAD
1000
TREAT_AS_HARD
1070
     0
  0
DICTIONARY
  5
19DF6
102
{ACAD_REACTORS
330
C
102
}
330
C
100
AcDbDictionary
  3
A0
350
19DF7
  3
A1
350
19DF8
  3
A2
350
19DF9
  3
A3
350
19DFA
  3
A4
350
19DFB
  3
A5
350
19DFC
  3
A6
350
19DFD
  3
A7
350
19DFE
  3
A8
350
19DFF
  3
A9
350
19E00
  3
B0
350
19E01
  3
B1
350
19E02
  3
B2
350
19E03
  3
B3
350
19E04
  3
B4
350
19E05
  3
B5
350
19E06
  3
B6
350
19E07
  3
B7
350
19E08
  3
B8
350
19E09
  3
B9
350
19E0A
  3
C0
350
19E0B
  3
C1
350
19E0C
  3
C2
350
19E0D
  3
C3
350
19E0E
  3
C4
350
19E0F
  3
C5
350
19E10
  3
C6
350
19E11
  3
C7
350
19E12
  3
C8
350
19E13
  3
C9
350
19E14
  3
D0
350
19E15
  3
D1
350
19E16
  3
D2
350
19E17
1001
ACAD
1000
TREAT_AS_HARD
1070
     0
  0
DICTIONARY
  5
19DE5
102
{ACAD_REACTORS
330
C
102
}
330
C
100
AcDbDictionary
  3
2DWIREFRAME
350
19DEB
  3
3D_HIDDEN
350
19DED
  3
3DWIREFRAME
350
19DEC
  3
BASIC
350
19DEA
  3
BRIGHTEN
350
19DF1
  3
COLORCHANGE
350
19DF5
  3
CONCEPTUAL
350
19DEE
  3
DIM
350
19DF0
  3
EDGECOLOROFF
350
1E02A
  3
FACEPATTERN
350
19DF4
  3
FLAT
350
19DE6
  3
FLATWITHEDGES
350
19DE7
  3
GOURAUD
350
19DE8
  3
GOURAUDWITHEDGES
350
19DE9
  3
HIDDEN
350
1F381
  3
JITTEROFF
350
1E028
  3
LINEPATTERN
350
19DF3
  3
MODELING
350
1F387
  3
OVERHANGOFF
350
1E029
  3
REALISTIC
350
19DEF
  3
SHADED
350
1F386
  3
SHADED_WITH_EDGES
350
1F385
  3
SHADES_OF_GRAY
350
1F382
  3
SKETCHY
350
1F383
  3
THICKEN
350
19DF2
  3
WIREFRAME
350
1F380
  3
X-RAY
350
1F384
1001
ACAD
1000
TREAT_AS_HARD
1070
     0
  0
DICTIONARY
  5
2250F
102
{ACAD_REACTORS
330
C
102
}
330
C
100
AcDbDictionary
  3
COLORDICT
350
22510
  3
MATERIALDICT
350
22511
1001
ACAD
1000
TREAT_AS_HARD
1070
     0
  0
DICTIONARY
  5
37
102
{ACAD_REACTORS
330
C
102
}
330
C
100
AcDbDictionary
  3
CANNOSCALE
350
20A45
  3
CMLEADERSTYLE
350
1AC19
  3
CTABLESTYLE
350
4F1
  3
DIMADEC
350
38
  3
DIMASSOC
350
408
  3
HIDETEXT
350
1891
  3
INDEXCTL
350
1AC1C
  3
INTERSECTIONCOLOR
350
1895
  3
INTERSECTIONDISPLAY
350
1894
  3
MSLTSCALE
350
20A9B
  3
OBSCOLOR
350
1892
  3
OBSLTYPE
350
1893
  3
PROJECTNAME
350
409
  3
SORTENTS
350
1AC1B
  3
XCLIPFRAME
350
22260
1001
ACAD
1000
TREAT_AS_HARD
1070
     0
  0
DICTIONARY
  5
D8
102
{ACAD_REACTORS
330
C
102
}
330
C
100
AcDbDictionary
1001
CONTENTTABDATA
1070
    11
1000
Child
1000
D:\ACLT\TABset\CHILDREN.dwg
1070
     0
1070
     0
1070
     1
1000
PK
1000
D:\ACLT\TABset\PK.dwg
1070
     0
1070
     0
1070
     1
1000
Lev1
1000
D:\ACLT\TABset\Lever01.dwg
1070
     0
1070
     0
1070
     1
1000
Lev2
1000
D:\ACLT\TABset\Lever02.dwg
1070
     0
1070
     0
1070
     1
1000
L3
1000
D:\Aclt\TABset\Lever03.dwg
1070
     0
1070
     0
1070
     1
1000
Form
1000
D:\ACLT\FORMAT
1070
     1
1070
     0
1070
     1
1000
Jnt
1000
D:\ACLT\TABset\JOINTPARTS.dwg
1070
     0
1070
     0
1070
     1
1000
ISO
1000
D:\ACLT\TABset\Isome01.dwg
1070
     0
1070
     0
1070
     1
1000
R
1000
D:\ACLT\TABset\REGION.dwg
1070
     0
1070
     0
1070
     1
1000
std
1000
D:\ACLT\TABset\std_sym_all.dwg
1070
     0
1070
     0
1070
     1
1000
丸
1000
D:\Aclt\TABset\MARU.dwg
1070
     0
1070
     0
1070
     1
1001
CONTENTCURRENTTAB
1070
     0
1001
ACAD
1000
TREAT_AS_HARD
1070
     0
  0
DICTIONARY
  5
20
102
{ACAD_REACTORS
330
C
102
}
330
C
100
AcDbDictionary
1001
DRAWINGVARIABLESXDATA
1000
POLARANG
1000
0.261799387799149410000000
1000
POLARMODE
1000
1
1000
POLARSTYLE
1000
1
1001
ACAD
1000
TREAT_AS_HARD
1070
     0
  0
XRECORD
  5
22512
102
{ACAD_REACTORS
330
C
102
}
330
C
100
AcDbXrecord
  1
DWGPROPS COOKIE
  2

  3

  4

  6

  7

  8
3684
  9

300
=
301
=
302
=
303
=
304
=
305
=
306
=
307
=
308
=
309
=
 40
0.0
 41
2453033.357663484
 42
2458596.997413553
  1

 90
        0
  0
DICTIONARY
  5
18FE9
102
{ACAD_REACTORS
330
18FE8
102
}
330
18FE8
100
AcDbDictionary
1001
ACAD
1000
TREAT_AS_HARD
1070
     0
  0
ACAD_PROXY_OBJECT
  5
1A20B
102
{ACAD_REACTORS
330
1A20A
102
}
330
1A20A
100
AcDbZombieObject
 90
      499
 91
      517
 93
       34
310
40C8804040
  0
ACAD_PROXY_OBJECT
  5
1A20D
102
{ACAD_REACTORS
330
1A20C
102
}
330
1A20C
100
AcDbZombieObject
 90
      499
 91
      517
 93
       34
310
40C8804040
  0
ACAD_PROXY_OBJECT
  5
1A20F
102
{ACAD_REACTORS
330
1A20E
102
}
330
1A20E
100
AcDbZombieObject
 90
      499
 91
      517
 93
       34
310
40C8804040
  0
ACAD_PROXY_OBJECT
  5
1A219
102
{ACAD_REACTORS
330
1A218
102
}
330
1A218
100
AcDbZombieObject
 90
      499
 91
      517
 93
       34
310
40C8804040
  0
ACAD_PROXY_OBJECT
  5
1A21D
102
{ACAD_REACTORS
330
1A21C
102
}
330
1A21C
100
AcDbZombieObject
 90
      499
 91
      517
 93
       34
310
40C8804040
  0
ACAD_PROXY_OBJECT
  5
1A221
102
{ACAD_REACTORS
330
1A220
102
}
330
1A220
100
AcDbZombieObject
 90
      499
 91
      517
 93
       34
310
40C8804040
  0
ACAD_PROXY_OBJECT
  5
1A237
102
{ACAD_REACTORS
330
1A236
102
}
330
1A236
100
AcDbZombieObject
 90
      499
 91
      517
 93
       34
310
40C8804040
  0
SORTENTSTABLE
  5
6EA
102
{ACAD_REACTORS
330
6E9
102
}
330
6E9
100
AcDbSortentsTable
330
18
331
0
  5
99AB
331
0
  5
AB53
331
0
  5
AB54
331
0
  5
ECB5
331
1DB9B
  5
1DB9F
331
21C9B
  5
21CAD
331
21C9C
  5
21CAE
331
21C9D
  5
21CAF
331
21C9E
  5
21CB0
331
21C9F
  5
21CB1
331
21CA0
  5
21CB2
331
21CA1
  5
21CB3
331
21CA2
  5
21CB4
331
21CA3
  5
21CB5
331
21CA4
  5
21CB6
331
21CA5
  5
21CB7
331
21CA6
  5
21CB8
331
21CA7
  5
21CB9
331
21CA8
  5
21CBA
331
21CA9
  5
21CBB
331
21CAA
  5
21CBC
331
21CAB
  5
21CBD
331
21CAC
  5
21CBE
331
21CAD
  5
21CBF
331
21CAE
  5
21CC0
331
21CAF
  5
21CC1
331
21CB0
  5
21CC2
331
21CB1
  5
21CC3
331
21CB2
  5
21CC4
331
21CB3
  5
21CC5
331
21CB4
  5
21CC6
331
21CB5
  5
21CC7
331
21CB6
  5
21CC8
331
21CB7
  5
21CC9
331
21CB8
  5
21CCA
331
21CB9
  5
21CCB
331
21CBA
  5
21CCC
331
21CBB
  5
21CCD
331
21CBC
  5
21CCE
331
21CBD
  5
21CCF
331
21CBE
  5
21CD0
331
21CBF
  5
21CD1
331
21CC0
  5
21CD2
331
21CC1
  5
21CD3
331
21CC2
  5
21CD4
331
21CC3
  5
21CD5
331
21CC4
  5
21CD6
331
21CC5
  5
21CD7
331
21CC6
  5
21CD8
331
21CC7
  5
21CD9
331
21CC8
  5
21CDA
331
21CC9
  5
21CDB
331
21CCA
  5
21CDC
331
21CCB
  5
21CDD
331
21CCC
  5
21CDE
331
21CCD
  5
21CDF
331
21CCE
  5
21CE0
331
21CCF
  5
21CE1
331
21CD0
  5
21CE2
331
21CD1
  5
21CE3
331
21CD2
  5
21CE4
331
21CD3
  5
21CE5
331
21CD4
  5
21CE6
331
21CD5
  5
21CE7
331
21CD6
  5
21CE8
331
21CD7
  5
21CE9
331
21CD8
  5
21CEA
331
21CD9
  5
21CEB
331
21CDA
  5
21CEC
331
21CDB
  5
21CED
331
21CDC
  5
21CEE
331
21CDD
  5
21CEF
331
21CDE
  5
21CF0
331
21CDF
  5
21CF1
331
21CE0
  5
21CF2
331
21CE1
  5
21CF3
331
21CE2
  5
21CF4
331
21CE3
  5
21CF5
331
21CE4
  5
21CF6
331
21CE5
  5
21CF7
331
21CE6
  5
21CF8
331
21CE7
  5
21CF9
331
21CE8
  5
21CFA
331
21CE9
  5
21CFB
331
21CEA
  5
21CFC
331
21CEB
  5
21CFD
331
21CEC
  5
21CFE
331
21CED
  5
21CFF
331
21CEE
  5
21D00
331
21CEF
  5
21D01
331
21CF0
  5
21D02
331
21CF1
  5
21D03
331
21CF2
  5
21D04
331
21CF3
  5
21D05
331
21CF4
  5
21D06
331
21CF5
  5
21D07
331
21CF6
  5
21D08
331
21CF7
  5
21D0B
331
21CF8
  5
21D0C
331
21CF9
  5
21D0D
331
21CFA
  5
21D0E
331
21CFB
  5
21D0F
331
21CFC
  5
21D10
331
21CFD
  5
21D11
331
21CFE
  5
21D12
331
21CFF
  5
21D13
331
21D00
  5
21D14
331
21D01
  5
21D15
331
21D02
  5
21D16
331
21D03
  5
21D17
331
21D04
  5
21D18
331
21D05
  5
21D1C
331
21D06
  5
21D1D
331
21D07
  5
21D1E
331
21D08
  5
21D24
331
21D0B
  5
21D3D
331
21D0C
  5
21D3E
331
21D0D
  5
21D3F
331
21D0E
  5
21D40
331
21D0F
  5
21D41
331
21D10
  5
21D42
331
21D11
  5
21D43
331
21D12
  5
21D44
331
21D13
  5
21D45
331
21D14
  5
21D46
331
21D15
  5
21D47
331
21D16
  5
21D48
331
21D17
  5
21D49
331
21D18
  5
21D4A
331
21D19
  5
21D4B
331
21D1A
  5
21D4C
331
21D1B
  5
21D4D
331
21D1C
  5
21D4E
331
21D1D
  5
21D4F
331
21D1E
  5
21D50
331
21D1F
  5
21D52
331
21D20
  5
21D53
331
21D21
  5
21D56
331
21D24
  5
21D57
331
21D25
  5
21D58
331
21D26
  5
21D59
331
21D27
  5
21D5B
331
21D28
  5
21D5C
331
21D29
  5
21D5D
331
21D2A
  5
21D5E
331
21D2B
  5
21D5F
331
21D2C
  5
21D60
331
21D2D
  5
21D61
331
21D2E
  5
21D62
331
21D2F
  5
21D63
331
21D30
  5
21D64
331
21D31
  5
21D65
331
21D32
  5
21D66
331
21D35
  5
21D67
331
21D36
  5
21D68
331
21D37
  5
21D69
331
21D38
  5
21D6A
331
21D39
  5
21D6B
331
21D3C
  5
21D6C
331
21D3D
  5
21D6D
331
21D3E
  5
21D6E
331
21D3F
  5
21D6F
331
21D40
  5
21D70
331
21D41
  5
21D71
331
21D42
  5
21D72
331
21D43
  5
21D73
331
21D44
  5
21D74
331
21D45
  5
21D75
331
21D46
  5
21D76
331
21D47
  5
21D77
331
21D48
  5
21D78
331
21D49
  5
21D79
331
21D4A
  5
21D7A
331
21D4B
  5
21D7B
331
21D4C
  5
21D7C
331
21D4D
  5
21D7D
331
21D4E
  5
21D7E
331
21D4F
  5
21D7F
331
21D50
  5
21D80
331
21D51
  5
21D81
331
21D52
  5
21D82
331
21D53
  5
21D83
331
21D56
  5
21D84
331
21D57
  5
21D85
331
21D58
  5
21D86
331
21D5A
  5
21D87
331
21D5B
  5
21D88
331
21D5C
  5
21D89
331
21D5D
  5
21D8A
331
21D5E
  5
21D8B
331
21D5F
  5
21D8C
331
21D60
  5
21D8D
331
21D61
  5
21D8E
331
21D62
  5
21D8F
331
21D63
  5
21D90
331
21D64
  5
21D91
331
21D65
  5
21D95
331
21D66
  5
21D96
331
21D67
  5
21D97
331
21D68
  5
21D98
331
21D69
  5
21D99
331
21D6A
  5
21D9A
331
21D6B
  5
21D9B
331
21D6C
  5
21D9C
331
21D6D
  5
21D9D
331
21D6E
  5
21D9E
331
21D6F
  5
21D9F
331
21D70
  5
21DA0
331
21D71
  5
21DA1
331
21D72
  5
21DA2
331
21D73
  5
21DA3
331
21D74
  5
21DA4
331
21D75
  5
21DA5
331
21D76
  5
21DA6
331
21D77
  5
21DA7
331
21D78
  5
21DA8
331
21D79
  5
21DA9
331
21D7A
  5
21DAA
331
21D7B
  5
21DAB
331
21D7C
  5
21DAC
331
21D7D
  5
21DAD
331
21D7E
  5
21DAE
331
21D7F
  5
21DAF
331
21D80
  5
21DB0
331
21D81
  5
21DB1
331
21D82
  5
21DB2
331
21D83
  5
21DB3
331
21D84
  5
21DB4
331
21D85
  5
21DB5
331
21D86
  5
21DB6
331
21D87
  5
21DB7
331
21D88
  5
21DB8
331
21D89
  5
21DB9
331
21D8A
  5
21DBA
331
21D8B
  5
21DBB
331
21D8C
  5
21DBC
331
21D8D
  5
21DBD
331
21D8E
  5
21DBE
331
21D8F
  5
21DBF
331
21D90
  5
21DC0
331
21D94
  5
21DC1
331
21D95
  5
21DC2
331
21D96
  5
21DC3
331
21D97
  5
21DC4
331
21D98
  5
21DC5
331
21D99
  5
21DC6
331
21D9A
  5
21DC7
331
21D9B
  5
21DC8
331
21D9C
  5
21DC9
331
21D9D
  5
21DCA
331
21D9E
  5
21DCB
331
21D9F
  5
21DCE
331
21DA0
  5
21DCF
331
21DA1
  5
21DDD
331
21DA2
  5
21DE0
331
21DA3
  5
21DE1
331
21DA4
  5
21DE2
331
21DA5
  5
21DEC
331
21DA6
  5
21DED
331
21DA7
  5
21ED5
331
21DA8
  5
22469
331
21DA9
  5
2246A
331
21DAA
  5
2246B
331
21DAB
  5
2246C
331
21DAC
  5
2246D
331
21DAD
  5
2246E
331
21DAE
  5
2246F
331
21DAF
  5
22470
331
21DB0
  5
22471
331
21DB1
  5
22472
331
21DB2
  5
22473
331
21DB3
  5
22474
331
21DB4
  5
22475
331
21DB5
  5
22476
331
21DB6
  5
22477
331
21DB7
  5
22478
331
21DB8
  5
22479
331
21DB9
  5
2247A
331
21DBA
  5
2247B
331
21DBB
  5
2247C
331
21DBC
  5
22480
331
21DBD
  5
22481
331
21DBE
  5
22482
331
21DBF
  5
22486
331
21DC0
  5
22487
331
21DC1
  5
22488
331
21DC2
  5
22489
331
21DC3
  5
2248A
331
21DC4
  5
2248B
331
21DC5
  5
2248C
331
21DC6
  5
2248D
331
21DC7
  5
2248E
331
21DC8
  5
2248F
331
21DC9
  5
22490
331
21DCA
  5
22491
331
21DCD
  5
22492
331
21DCE
  5
22496
331
21DCF
  5
22497
331
0
  5
21DDE
331
0
  5
21DDF
331
21DDF
  5
224B5
331
21DE0
  5
224B6
331
21DE1
  5
224B7
331
0
  5
21DE3
331
0
  5
21DE4
331
0
  5
21DE5
331
0
  5
21DE6
331
0
  5
21DE7
331
0
  5
21DE8
331
0
  5
21DE9
331
0
  5
21DEA
331
0
  5
21DEB
331
21DEB
  5
224E3
331
21DEC
  5
224E4
331
21DED
  5
224E5
331
0
  5
21ED6
331
0
  5
21ED7
331
0
  5
21F3B
331
22469
  5
21C9B
331
2246A
  5
21C9C
331
2246B
  5
21C9D
331
2246C
  5
21C9E
331
0
  5
21C9F
331
0
  5
21CA0
331
0
  5
21CA1
331
22470
  5
21CA9
331
22471
  5
21CAA
331
22472
  5
21CAB
331
22473
  5
21CAC
331
22474
  5
21D25
331
22475
  5
21D26
331
22476
  5
21D27
331
0
  5
21D19
331
0
  5
21D1A
331
0
  5
21D1B
331
2247A
  5
21D2F
331
2247B
  5
21D30
331
2247C
  5
21D31
331
0
  5
21D1F
331
0
  5
21D20
331
0
  5
21D21
331
22480
  5
22498
331
22481
  5
22499
331
22482
  5
2249A
331
0
  5
2247D
331
0
  5
2247E
331
0
  5
2247F
331
22486
  5
224A2
331
22487
  5
224A6
331
22488
  5
224A7
331
0
  5
22483
331
0
  5
22484
331
0
  5
22485
331
2248C
  5
224BB
331
2248D
  5
224BC
331
2248E
  5
224BD
331
2248F
  5
224BE
331
22490
  5
224C2
331
22491
  5
224C3
331
22492
  5
224C4
331
22493
  5
224C5
331
22494
  5
224C6
331
22495
  5
224C7
331
0
  5
22493
331
0
  5
22494
331
0
  5
22495
331
22499
  5
224CF
331
2249A
  5
224D0
331
2249B
  5
224D1
331
2249C
  5
224D2
331
2249D
  5
224D3
331
2249E
  5
224D4
331
2249F
  5
224D5
331
224A0
  5
224D6
331
224A1
  5
224D7
331
224A2
  5
224D8
331
224A3
  5
224D9
331
224A4
  5
224DA
331
224A5
  5
224DB
331
0
  5
224A3
331
0
  5
224A4
331
0
  5
224A5
331
224A9
  5
224E6
331
224AA
  5
224E7
331
224AB
  5
224E8
331
224AF
  5
224F0
331
224B0
  5
224F1
331
224B1
  5
224F2
331
224B5
  5
224FA
331
224B6
  5
224FB
331
224B7
  5
224FC
331
224BB
  5
22504
331
224BC
  5
22505
331
224BD
  5
22506
331
224BE
  5
22507
331
224C2
  5
21CA2
331
224C3
  5
21CA3
331
224C4
  5
21CA4
331
224C5
  5
21CA5
331
224C6
  5
21CA6
331
224C7
  5
21CA7
331
224C8
  5
21CA8
331
224C9
  5
21D28
331
224CA
  5
21D29
331
224CB
  5
21D2A
331
224CC
  5
21D2B
331
224CD
  5
21D2C
331
224CE
  5
21D2D
331
224CF
  5
21D2E
331
224D0
  5
21D32
331
224D1
  5
21D35
331
224D2
  5
21D36
331
224D3
  5
21D37
331
224D4
  5
21D38
331
224D5
  5
21D39
331
224D6
  5
21D3C
331
224D7
  5
2249B
331
224D8
  5
2249C
331
224D9
  5
2249D
331
224DA
  5
2249E
331
224DB
  5
2249F
331
224DC
  5
224A0
331
224DD
  5
224A1
331
224DE
  5
224A8
331
224DF
  5
224A9
331
224E0
  5
224AA
331
224E1
  5
224AB
331
224E2
  5
224AF
331
224E3
  5
224B0
331
224E4
  5
224B1
331
224E5
  5
224C8
331
224E6
  5
224C9
331
224E7
  5
224CA
331
224E8
  5
224CB
331
224E9
  5
224CC
331
224EA
  5
224CD
331
224EB
  5
224CE
331
224EC
  5
224DC
331
224ED
  5
224DD
331
224EE
  5
224DE
331
224EF
  5
224DF
331
224F0
  5
224E0
331
224F1
  5
224E1
331
224F2
  5
224E2
331
224F3
  5
224E9
331
224F4
  5
224EA
331
224F5
  5
224EB
331
224F6
  5
224EC
331
224F7
  5
224ED
331
224F8
  5
224EE
331
224F9
  5
224EF
331
224FA
  5
224F3
331
224FB
  5
224F4
331
224FC
  5
224F5
331
224FD
  5
224F6
331
224FE
  5
224F7
331
224FF
  5
224F8
331
22500
  5
224F9
331
22501
  5
224FD
331
22502
  5
224FE
331
22503
  5
224FF
331
22504
  5
22500
331
22505
  5
22501
331
22506
  5
22502
331
22507
  5
22503
  0
SORTENTSTABLE
  5
59C
102
{ACAD_REACTORS
330
59B
102
}
330
59B
100
AcDbSortentsTable
330
15
331
57
  5
57
331
0
  5
70
  0
MATERIAL
  5
19DD5
102
{ACAD_REACTORS
330
2CF
102
}
102
{ACAD_XDICTIONARY
360
226AD
102
}
330
2CF
100
AcDbMaterial
  1
BYBLOCK
 72
     0
 73
     2
 43
0.0208333333333333
 43
0.0
 43
0.0
 43
0.0
 43
0.0
 43
0.0208333333333333
 43
0.0
 43
0.0
 43
0.0
 43
0.0
 43
1.0
 43
0.0
 43
0.0
 43
0.0
 43
0.0
 43
1.0
 77
     0
 78
     2
 47
0.0208333333333333
 47
0.0
 47
0.0
 47
0.0
 47
0.0
 47
0.0208333333333333
 47
0.0
 47
0.0
 47
0.0
 47
0.0
 47
1.0
 47
0.0
 47
0.0
 47
0.0
 47
0.0
 47
1.0
171
     0
172
     2
 49
0.0208333333333333
 49
0.0
 49
0.0
 49
0.0
 49
0.0
 49
0.0208333333333333
 49
0.0
 49
0.0
 49
0.0
 49
0.0
 49
1.0
 49
0.0
 49
0.0
 49
0.0
 49
0.0
 49
1.0
175
     0
176
     2
142
0.0208333333333333
142
0.0
142
0.0
142
0.0
142
0.0
142
0.0208333333333333
142
0.0
142
0.0
142
0.0
142
0.0
142
1.0
142
0.0
142
0.0
142
0.0
142
0.0
142
1.0
179
     0
270
     2
144
0.0208333333333333
144
0.0
144
0.0
144
0.0
144
0.0
144
0.0208333333333333
144
0.0
144
0.0
144
0.0
144
0.0
144
1.0
144
0.0
144
0.0
144
0.0
144
0.0
144
1.0
274
     2
147
0.0208333333333333
147
0.0
147
0.0
147
0.0
147
0.0
147
0.0208333333333333
147
0.0
147
0.0
147
0.0
147
0.0
147
1.0
147
0.0
147
0.0
147
0.0
147
0.0
147
1.0
  0
MATERIAL
  5
19DCD
102
{ACAD_REACTORS
330
2CF
102
}
102
{ACAD_XDICTIONARY
360
226AF
102
}
330
2CF
100
AcDbMaterial
  1
BYLAYER
 72
     0
 73
     2
 43
0.0208333333333333
 43
0.0
 43
0.0
 43
0.0
 43
0.0
 43
0.0208333333333333
 43
0.0
 43
0.0
 43
0.0
 43
0.0
 43
1.0
 43
0.0
 43
0.0
 43
0.0
 43
0.0
 43
1.0
 77
     0
 78
     2
 47
0.0208333333333333
 47
0.0
 47
0.0
 47
0.0
 47
0.0
 47
0.0208333333333333
 47
0.0
 47
0.0
 47
0.0
 47
0.0
 47
1.0
 47
0.0
 47
0.0
 47
0.0
 47
0.0
 47
1.0
171
     0
172
     2
 49
0.0208333333333333
 49
0.0
 49
0.0
 49
0.0
 49
0.0
 49
0.0208333333333333
 49
0.0
 49
0.0
 49
0.0
 49
0.0
 49
1.0
 49
0.0
 49
0.0
 49
0.0
 49
0.0
 49
1.0
175
     0
176
     2
142
0.0208333333333333
142
0.0
142
0.0
142
0.0
142
0.0
142
0.0208333333333333
142
0.0
142
0.0
142
0.0
142
0.0
142
1.0
142
0.0
142
0.0
142
0.0
142
0.0
142
1.0
179
     0
270
     2
144
0.0208333333333333
144
0.0
144
0.0
144
0.0
144
0.0
144
0.0208333333333333
144
0.0
144
0.0
144
0.0
144
0.0
144
1.0
144
0.0
144
0.0
144
0.0
144
0.0
144
1.0
274
     2
147
0.0208333333333333
147
0.0
147
0.0
147
0.0
147
0.0
147
0.0208333333333333
147
0.0
147
0.0
147
0.0
147
0.0
147
1.0
147
0.0
147
0.0
147
0.0
147
0.0
147
1.0
  0
MATERIAL
  5
19DDD
102
{ACAD_REACTORS
330
2CF
102
}
102
{ACAD_XDICTIONARY
360
226B1
102
}
330
2CF
100
AcDbMaterial
  1
GLOBAL
 72
     0
 73
     2
 43
0.0208333333333333
 43
0.0
 43
0.0
 43
0.0
 43
0.0
 43
0.0208333333333333
 43
0.0
 43
0.0
 43
0.0
 43
0.0
 43
1.0
 43
0.0
 43
0.0
 43
0.0
 43
0.0
 43
1.0
 77
     0
 78
     2
 47
0.0208333333333333
 47
0.0
 47
0.0
 47
0.0
 47
0.0
 47
0.0208333333333333
 47
0.0
 47
0.0
 47
0.0
 47
0.0
 47
1.0
 47
0.0
 47
0.0
 47
0.0
 47
0.0
 47
1.0
171
     0
172
     2
 49
0.0208333333333333
 49
0.0
 49
0.0
 49
0.0
 49
0.0
 49
0.0208333333333333
 49
0.0
 49
0.0
 49
0.0
 49
0.0
 49
1.0
 49
0.0
 49
0.0
 49
0.0
 49
0.0
 49
1.0
175
     0
176
     2
142
0.0208333333333333
142
0.0
142
0.0
142
0.0
142
0.0
142
0.0208333333333333
142
0.0
142
0.0
142
0.0
142
0.0
142
1.0
142
0.0
142
0.0
142
0.0
142
0.0
142
1.0
179
     0
270
     2
144
0.0208333333333333
144
0.0
144
0.0
144
0.0
144
0.0
144
0.0208333333333333
144
0.0
144
0.0
144
0.0
144
0.0
144
1.0
144
0.0
144
0.0
144
0.0
144
0.0
144
1.0
274
     2
147
0.0208333333333333
147
0.0
147
0.0
147
0.0
147
0.0
147
0.0208333333333333
147
0.0
147
0.0
147
0.0
147
0.0
147
1.0
147
0.0
147
0.0
147
0.0
147
0.0
147
1.0
  0
ACAD_PROXY_OBJECT
  5
19E19
102
{ACAD_REACTORS
330
19E18
102
}
330
19E18
100
AcDbZombieObject
 90
      499
 91
      512
 93
      610
310
40901902A4063FBFFFFFE000000000000002040AD7A3703D0AD73F4214DD185B99185C990000000000000104090141901A00000000000004100000000000000041025764000000000000300FC0
340
12
340
0
340
F
340
0
 94
        0
1001
ACAD_MLEADERVER
1070
     2
  0
MLINESTYLE
  5
1C
102
{ACAD_REACTORS
330
1B
102
}
330
1B
100
AcDbMlineStyle
  2
STANDARD
 70
     0
  3

 62
   256
 51
90.0
 52
90.0
 71
     2
 49
0.5
 62
   256
  6
BYLAYER
 49
-0.5
 62
   256
  6
BYLAYER
  0
ACAD_PROXY_OBJECT
  5
19DF7
102
{ACAD_REACTORS
330
19DF6
102
}
330
19DF6
100
AcDbZombieObject
 90
      499
 91
      511
 93
       41
310
903313A31580
  0
ACAD_PROXY_OBJECT
  5
19DF8
102
{ACAD_REACTORS
330
19DF6
102
}
330
19DF6
100
AcDbZombieObject
 90
      499
 91
      511
 93
      105
310
903313A324000000000000004000
  0
ACAD_PROXY_OBJECT
  5
19DF9
102
{ACAD_REACTORS
330
19DF6
102
}
330
19DF6
100
AcDbZombieObject
 90
      499
 91
      511
 93
      105
310
903313A344000000000000104000
  0
ACAD_PROXY_OBJECT
  5
19DFA
102
{ACAD_REACTORS
330
19DF6
102
}
330
19DF6
100
AcDbZombieObject
 90
      499
 91
      511
 93
      105
310
903313A354000000000000144000
  0
ACAD_PROXY_OBJECT
  5
19DFB
102
{ACAD_REACTORS
330
19DF6
102
}
330
19DF6
100
AcDbZombieObject
 90
      499
 91
      511
 93
      105
310
903313A384000000000000204000
  0
ACAD_PROXY_OBJECT
  5
19DFC
102
{ACAD_REACTORS
330
19DF6
102
}
330
19DF6
100
AcDbZombieObject
 90
      499
 91
      511
 93
      113
310
904313A31304000000000000244000
  0
ACAD_PROXY_OBJECT
  5
19DFD
102
{ACAD_REACTORS
330
19DF6
102
}
330
19DF6
100
AcDbZombieObject
 90
      499
 91
      511
 93
      113
310
904313A31364000000000000304000
  0
ACAD_PROXY_OBJECT
  5
19DFE
102
{ACAD_REACTORS
330
19DF6
102
}
330
19DF6
100
AcDbZombieObject
 90
      499
 91
      511
 93
      113
310
904313A32304000000000000344000
  0
ACAD_PROXY_OBJECT
  5
19DFF
102
{ACAD_REACTORS
330
19DF6
102
}
330
19DF6
100
AcDbZombieObject
 90
      499
 91
      511
 93
      113
310
904313A333040000000000003E4000
  0
ACAD_PROXY_OBJECT
  5
19E00
102
{ACAD_REACTORS
330
19DF6
102
}
330
19DF6
100
AcDbZombieObject
 90
      499
 91
      511
 93
      113
310
904313A34304000000000000444000
  0
ACAD_PROXY_OBJECT
  5
19E01
102
{ACAD_REACTORS
330
19DF6
102
}
330
19DF6
100
AcDbZombieObject
 90
      499
 91
      511
 93
      113
310
904313A35304000000000000494000
  0
ACAD_PROXY_OBJECT
  5
19E02
102
{ACAD_REACTORS
330
19DF6
102
}
330
19DF6
100
AcDbZombieObject
 90
      499
 91
      511
 93
      121
310
905313A3130304000000000000594000
  0
ACAD_PROXY_OBJECT
  5
19E03
102
{ACAD_REACTORS
330
19DF6
102
}
330
19DF6
100
AcDbZombieObject
 90
      499
 91
      511
 93
      105
310
903323A310000000000000010100
  0
ACAD_PROXY_OBJECT
  5
19E04
102
{ACAD_REACTORS
330
19DF6
102
}
330
19DF6
100
AcDbZombieObject
 90
      499
 91
      511
 93
      105
310
903343A310000000000000410100
  0
ACAD_PROXY_OBJECT
  5
19E05
102
{ACAD_REACTORS
330
19DF6
102
}
330
19DF6
100
AcDbZombieObject
 90
      499
 91
      511
 93
      105
310
903383A310000000000000810100
  0
ACAD_PROXY_OBJECT
  5
19E06
102
{ACAD_REACTORS
330
19DF6
102
}
330
19DF6
100
AcDbZombieObject
 90
      499
 91
      511
 93
      113
310
90431303A310000000000000910100
  0
ACAD_PROXY_OBJECT
  5
19E07
102
{ACAD_REACTORS
330
19DF6
102
}
330
19DF6
100
AcDbZombieObject
 90
      499
 91
      511
 93
      121
310
9053130303A310000000000001650100
  0
ACAD_PROXY_OBJECT
  5
19E08
102
{ACAD_REACTORS
330
19DF6
102
}
330
19DF6
100
AcDbZombieObject
 90
      499
 91
      511
 93
      257
310
90E312F31323822203D2031272D3022000000000000200FC000000000000284000
  0
ACAD_PROXY_OBJECT
  5
19E09
102
{ACAD_REACTORS
330
19DF6
102
}
330
19DF6
100
AcDbZombieObject
 90
      499
 91
      511
 93
      249
310
90D312F363422203D2031272D3022000000000000240FC000000000000284000
  0
ACAD_PROXY_OBJECT
  5
19E0A
102
{ACAD_REACTORS
330
19DF6
102
}
330
19DF6
100
AcDbZombieObject
 90
      499
 91
      511
 93
      249
310
90D312F333222203D2031272D3022000000000000280FC000000000000284000
  0
ACAD_PROXY_OBJECT
  5
19E0B
102
{ACAD_REACTORS
330
19DF6
102
}
330
19DF6
100
AcDbZombieObject
 90
      499
 91
      511
 93
      249
310
90D312F313622203D2031272D30220000000000002C0FC000000000000284000
  0
ACAD_PROXY_OBJECT
  5
19E0C
102
{ACAD_REACTORS
330
19DF6
102
}
330
19DF6
100
AcDbZombieObject
 90
      499
 91
      511
 93
      249
310
90D332F333222203D2031272D30220000000000002E0FC000000000000284000
  0
ACAD_PROXY_OBJECT
  5
19E0D
102
{ACAD_REACTORS
330
19DF6
102
}
330
19DF6
100
AcDbZombieObject
 90
      499
 91
      511
 93
      241
310
90C312F3822203D2031272D3022000000000000300FC000000000000284000
  0
ACAD_PROXY_OBJECT
  5
19E0E
102
{ACAD_REACTORS
330
19DF6
102
}
330
19DF6
100
AcDbZombieObject
 90
      499
 91
      511
 93
      249
310
90D332F313622203D2031272D3022000000000000320FC000000000000284000
  0
ACAD_PROXY_OBJECT
  5
19E0F
102
{ACAD_REACTORS
330
19DF6
102
}
330
19DF6
100
AcDbZombieObject
 90
      499
 91
      511
 93
      241
310
90C312F3422203D2031272D3022000000000000340FC000000000000284000
  0
ACAD_PROXY_OBJECT
  5
19E10
102
{ACAD_REACTORS
330
19DF6
102
}
330
19DF6
100
AcDbZombieObject
 90
      499
 91
      511
 93
      241
310
90C332F3822203D2031272D3022000000000000360FC000000000000284000
  0
ACAD_PROXY_OBJECT
  5
19E11
102
{ACAD_REACTORS
330
19DF6
102
}
330
19DF6
100
AcDbZombieObject
 90
      499
 91
      511
 93
      241
310
90C312F3222203D2031272D3022000000000000380FC000000000000284000
  0
ACAD_PROXY_OBJECT
  5
19E12
102
{ACAD_REACTORS
330
19DF6
102
}
330
19DF6
100
AcDbZombieObject
 90
      499
 91
      511
 93
      241
310
90C332F3422203D2031272D30220000000000003A0FC000000000000284000
  0
ACAD_PROXY_OBJECT
  5
19E13
102
{ACAD_REACTORS
330
19DF6
102
}
330
19DF6
100
AcDbZombieObject
 90
      499
 91
      511
 93
      161
310
90A3122203D2031272D30224000000000000284000
  0
ACAD_PROXY_OBJECT
  5
19E14
102
{ACAD_REACTORS
330
19DF6
102
}
330
19DF6
100
AcDbZombieObject
 90
      499
 91
      511
 93
      257
310
90E312D312F3222203D2031272D30220000000000003E0FC000000000000284000
  0
ACAD_PROXY_OBJECT
  5
19E15
102
{ACAD_REACTORS
330
19DF6
102
}
330
19DF6
100
AcDbZombieObject
 90
      499
 91
      511
 93
      225
310
90A3322203D2031272D302200000000000002100000000000000284000
  0
ACAD_PROXY_OBJECT
  5
19E16
102
{ACAD_REACTORS
330
19DF6
102
}
330
19DF6
100
AcDbZombieObject
 90
      499
 91
      511
 93
      225
310
90A3622203D2031272D302200000000000006100000000000000284000
  0
ACAD_PROXY_OBJECT
  5
19E17
102
{ACAD_REACTORS
330
19DF6
102
}
330
19DF6
100
AcDbZombieObject
 90
      499
 91
      511
 93
      249
310
90D31272D3022203D2031272D30220000000000000A100000000000000284000
  0
ACAD_PROXY_OBJECT
  5
19DEB
102
{ACAD_REACTORS
330
19DE5
102
}
330
19DE5
100
AcDbZombieObject
 90
      499
 91
      510
 93
      436
310
42CC9915DA5C99599C985B595049028333333333333E3BF0000000000000FB0107901411070040501600405405064090741402480A0340
1001
ACAD
1000
AcDbSavedByObjectVersion
1070
     0
  0
ACAD_PROXY_OBJECT
  5
19DED
102
{ACAD_REACTORS
330
19DE5
102
}
330
19DE5
100
AcDbZombieObject
 90
      499
 91
      510
 93
      500
310
424CD108121A5919195B90640502408333333333333E3BF0000000000000FB01079024090700405020000000000001110200405405064090740C02480A0340
1001
ACAD
1000
AcDbSavedByObjectVersion
1070
     0
  0
ACAD_PROXY_OBJECT
  5
19DEC
102
{ACAD_REACTORS
330
19DE5
102
}
330
19DE5
100
AcDbZombieObject
 90
      499
 91
      510
 93
      436
310
42CCD915DA5C99599C985B595059028333333333333E3BF0000000000000FB0107901411070040501600405405064090741402480A0340
1001
ACAD
1000
AcDbSavedByObjectVersion
1070
     0
  0
ACAD_PROXY_OBJECT
  5
19DEA
102
{ACAD_REACTORS
330
19DE5
102
}
330
19DE5
100
AcDbZombieObject
 90
      499
 91
      510
 93
      388
310
4150985CDA58D07406404333333333333E3BF0000000000000FB0107A41107004050150841D405064090741402480A0350
1001
ACAD
1000
AcDbSavedByObjectVersion
1070
     0
  0
ACAD_PROXY_OBJECT
  5
19DF1
102
{ACAD_REACTORS
330
19DE5
102
}
330
19DE5
100
AcDbZombieObject
 90
      499
 91
      510
 93
      428
310
42109C9A59DA1D195B90C409028333333333333E3BF0000000000000FB010790141107004050150841D405064090741402480A029950
1001
ACAD
1000
AcDbSavedByObjectVersion
1070
     0
  0
ACAD_PROXY_OBJECT
  5
19DF5
102
{ACAD_REACTORS
330
19DE5
102
}
330
19DE5
100
AcDbZombieObject
 90
      499
 91
      510
 93
      452
310
42D0DBDB1BDC90DA185B99D95104090240C333333333333E3BF0000000000000FB0108901411070040501508421405064090741402480A0350
1001
ACAD
1000
AcDbSavedByObjectVersion
1070
     0
  0
ACAD_PROXY_OBJECT
  5
19DEE
102
{ACAD_REACTORS
330
19DE5
102
}
330
19DE5
100
AcDbZombieObject
 90
      499
 91
      510
 93
      500
310
4290DBDB98D95C1D1D585B10940D028333333333333E3BF0000000000000FB0107902409070040501000000000000111010841D405064090740C02480A0340
1001
ACAD
1000
AcDbSavedByObjectVersion
1070
     0
  0
ACAD_PROXY_OBJECT
  5
19DF0
102
{ACAD_REACTORS
330
19DE5
102
}
330
19DE5
100
AcDbZombieObject
 90
      499
 91
      510
 93
      412
310
40D11A5B50B409028333333333333E3BF0000000000000FB010790141107004050150841D405064090741402480A02677FFFFFD0
1001
ACAD
1000
AcDbSavedByObjectVersion
1070
     0
  0
ACAD_PROXY_OBJECT
  5
1E02A
102
{ACAD_REACTORS
330
19DE5
102
}
330
19DE5
100
AcDbZombieObject
 90
      499
 91
      510
 93
      452
310
43115919D950DBDB1BDC93D999916409028333333333333E3BF0000000000000FB010790141107004050150841D405064090741402480A0350
1001
ACAD
1000
AcDbSavedByObjectVersion
1070
     0
  0
ACAD_PROXY_OBJECT
  5
19DF4
102
{ACAD_REACTORS
330
19DE5
102
}
330
19DE5
100
AcDbZombieObject
 90
      499
 91
      510
 93
      444
310
42D19858D95C185D1D195C9B90F409028333333333333E3BF0000000000000FB010790141107004050150841D405064090741402480A0350
1001
ACAD
1000
AcDbSavedByObjectVersion
1070
     0
  0
ACAD_PROXY_OBJECT
  5
19DE6
102
{ACAD_REACTORS
330
19DE5
102
}
330
19DE5
100
AcDbZombieObject
 90
      499
 91
      510
 93
      388
310
41119B185D240901404333333333333E3BF0000000000000F9010740A41107004050150841D405064090741402480A1B50
1001
ACAD
1000
AcDbSavedByObjectVersion
1070
     0
  0
ACAD_PROXY_OBJECT
  5
19DE7
102
{ACAD_REACTORS
330
19DE5
102
}
330
19DE5
100
AcDbZombieObject
 90
      499
 91
      510
 93
      476
310
43519B185D15DA5D1A115919D95CD0140901404333333333333E3BF0000000000000F9010740901411070040501600405405064090741402480A1B50
1001
ACAD
1000
AcDbSavedByObjectVersion
1070
     0
  0
ACAD_PROXY_OBJECT
  5
19DE8
102
{ACAD_REACTORS
330
19DE5
102
}
330
19DE5
100
AcDbZombieObject
 90
      499
 91
      510
 93
      412
310
41D1DBDD5C985D5910240902404333333333333E3BF0000000000000F9010740A411070040501641D405064090741402480A1B50
1001
ACAD
1000
AcDbSavedByObjectVersion
1070
     0
  0
ACAD_PROXY_OBJECT
  5
19DE9
102
{ACAD_REACTORS
330
19DE5
102
}
330
19DE5
100
AcDbZombieObject
 90
      499
 91
      510
 93
      500
310
4411DBDD5C985D5915DA5D1A115919D95CD0340902404333333333333E3BF0000000000000F9010740901411070040501600405405064090741402480A1B50
1001
ACAD
1000
AcDbSavedByObjectVersion
1070
     0
  0
ACAD_PROXY_OBJECT
  5
1F381
102
{ACAD_REACTORS
330
19DE5
102
}
330
19DE5
100
AcDbZombieObject
 90
      499
 91
      510
 93
      476
310
41921A5919195B90640502408333333333333E3BF0000000000000FB01079024090700405020000000000001110200405405064090740C02480A0340
1001
ACAD
1000
AcDbSavedByObjectVersion
1070
     0
  0
ACAD_PROXY_OBJECT
  5
1E028
102
{ACAD_REACTORS
330
19DE5
102
}
330
19DE5
100
AcDbZombieObject
 90
      499
 91
      510
 93
      428
310
42529A5D1D195C93D999914409028333333333333E3BF0000000000000FB010790141107004050150A41D405064090741402480A0350
1001
ACAD
1000
AcDbSavedByObjectVersion
1070
     0
  0
ACAD_PROXY_OBJECT
  5
19DF3
102
{ACAD_REACTORS
330
19DE5
102
}
330
19DE5
100
AcDbZombieObject
 90
      499
 91
      510
 93
      444
310
42D31A5B995C185D1D195C9B90E409028333333333333E3BF0000000000000FB010790141107004050750841D405064090741402483A0350
1001
ACAD
1000
AcDbSavedByObjectVersion
1070
     0
  0
ACAD_PROXY_OBJECT
  5
1F387
102
{ACAD_REACTORS
330
19DE5
102
}
330
19DE5
100
AcDbZombieObject
 90
      499
 91
      510
 93
      484
310
42135BD9195B1A5B99D0A409028333333333333E3BF0000000000000F901074090290700405010000000000201990108421405064090741402480A1B40
1001
ACAD
1000
AcDbSavedByObjectVersion
1070
     0
  0
ACAD_PROXY_OBJECT
  5
1E029
102
{ACAD_REACTORS
330
19DE5
102
}
330
19DE5
100
AcDbZombieObject
 90
      499
 91
      510
 93
      444
310
42D3DD995C9A185B99D3D999915409028333333333333E3BF0000000000000FB010790141107004050150941D405064090741402480A0350
1001
ACAD
1000
AcDbSavedByObjectVersion
1070
     0
  0
ACAD_PROXY_OBJECT
  5
19DEF
102
{ACAD_REACTORS
330
19DE5
102
}
330
19DE5
100
AcDbZombieObject
 90
      499
 91
      510
 93
      420
310
425499585B1A5CDD1A58D08409028333333333333E3BF0000000000000FB01079019070040501508421405064090741402480A1B40
1001
ACAD
1000
AcDbSavedByObjectVersion
1070
     0
  0
ACAD_PROXY_OBJECT
  5
1F386
102
{ACAD_REACTORS
330
19DE5
102
}
330
19DE5
100
AcDbZombieObject
 90
      499
 91
      510
 93
      420
310
4194DA1859195911B40902404333333333333E3BF0000000000000F9010740A41107004050150800405405064090840C02480A0B40
1001
ACAD
1000
AcDbSavedByObjectVersion
1070
     0
  0
ACAD_PROXY_OBJECT
  5
1F385
102
{ACAD_REACTORS
330
19DE5
102
}
330
19DE5
100
AcDbZombieObject
 90
      499
 91
      510
 93
      516
310
4454DA18591959081DDA5D1A08195919D95CD1A40902404333333333333E3BF0000000000000F901074090142907004050250800405405064090740C02480A0B40
1001
ACAD
1000
AcDbSavedByObjectVersion
1070
     0
  0
ACAD_PROXY_OBJECT
  5
1F382
102
{ACAD_REACTORS
330
19DE5
102
}
330
19DE5
100
AcDbZombieObject
 90
      499
 91
      510
 93
      532
310
4394DA1859195CC81BD98811DC985E5174090240C333333333333E3BF0000000000000FB01079024090741D01000000000000111010841D405064090740C02480A0340
1001
ACAD
1000
AcDbSavedByObjectVersion
1070
     0
  0
ACAD_PROXY_OBJECT
  5
1F383
102
{ACAD_REACTORS
330
19DE5
102
}
330
19DE5
100
AcDbZombieObject
 90
      499
 91
      510
 93
      476
310
41D4DAD95D18DA1E51840502408333333333333E3BF0000000000000FB01079024090741D01000000000000111010B41D405064090741802480A0340
1001
ACAD
1000
AcDbSavedByObjectVersion
1070
     0
  0
ACAD_PROXY_OBJECT
  5
19DF2
102
{ACAD_REACTORS
330
19DE5
102
}
330
19DE5
100
AcDbZombieObject
 90
      499
 91
      510
 93
      412
310
41D51A1A58DAD95B90D409028333333333333E3BF0000000000000FB010790141107004050150C41D405064090741402480A0350
1001
ACAD
1000
AcDbSavedByObjectVersion
1070
     0
  0
ACAD_PROXY_OBJECT
  5
1F380
102
{ACAD_REACTORS
330
19DE5
102
}
330
19DE5
100
AcDbZombieObject
 90
      499
 91
      510
 93
      420
310
4255DA5C99599C985B595059028333333333333E3BF0000000000000FB0107901411070040501600405405064090740C02480A0340
1001
ACAD
1000
AcDbSavedByObjectVersion
1070
     0
  0
ACAD_PROXY_OBJECT
  5
1F384
102
{ACAD_REACTORS
330
19DE5
102
}
330
19DE5
100
AcDbZombieObject
 90
      499
 91
      510
 93
      404
310
41560B54985E51940902404000000000000E03F0000000000000FB010740501907004050150841D405064090740C02480A1B40
1001
ACAD
1000
AcDbSavedByObjectVersion
1070
     0
  0
XRECORD
  5
22510
102
{ACAD_REACTORS
330
2250F
102
}
330
2250F
100
AcDbXrecord
340
2D0
  0
XRECORD
  5
22511
102
{ACAD_REACTORS
330
2250F
102
}
330
2250F
100
AcDbXrecord
340
2CF
  0
DICTIONARYVAR
  5
20A45
102
{ACAD_REACTORS
330
37
102
}
330
37
100
DictionaryVariables
280
     0
  1
1:1
  0
DICTIONARYVAR
  5
1AC19
102
{ACAD_REACTORS
330
37
102
}
330
37
100
DictionaryVariables
280
     0
  1
Standard
  0
DICTIONARYVAR
  5
4F1
102
{ACAD_REACTORS
330
37
102
}
330
37
100
DictionaryVariables
280
     0
  1
Standard
  0
DICTIONARYVAR
  5
38
102
{ACAD_REACTORS
330
37
102
}
330
37
100
DictionaryVariables
280
     0
  1
-1
  0
DICTIONARYVAR
  5
408
102
{ACAD_REACTORS
330
37
102
}
330
37
100
DictionaryVariables
280
     0
  1
2
  0
DICTIONARYVAR
  5
1891
102
{ACAD_REACTORS
330
37
102
}
330
37
100
DictionaryVariables
280
     0
  1
1
  0
DICTIONARYVAR
  5
1AC1C
102
{ACAD_REACTORS
330
37
102
}
330
37
100
DictionaryVariables
280
     0
  1
0
  0
DICTIONARYVAR
  5
1895
102
{ACAD_REACTORS
330
37
102
}
330
37
100
DictionaryVariables
280
     0
  1
8
  0
DICTIONARYVAR
  5
1894
102
{ACAD_REACTORS
330
37
102
}
330
37
100
DictionaryVariables
280
     0
  1
1
  0
DICTIONARYVAR
  5
20A9B
102
{ACAD_REACTORS
330
37
102
}
330
37
100
DictionaryVariables
280
     0
  1
0
  0
DICTIONARYVAR
  5
1892
102
{ACAD_REACTORS
330
37
102
}
330
37
100
DictionaryVariables
280
     0
  1
8
  0
DICTIONARYVAR
  5
1893
102
{ACAD_REACTORS
330
37
102
}
330
37
100
DictionaryVariables
280
     0
  1
2
  0
DICTIONARYVAR
  5
409
102
{ACAD_REACTORS
330
37
102
}
330
37
100
DictionaryVariables
280
     0
  1

  0
DICTIONARYVAR
  5
1AC1B
102
{ACAD_REACTORS
330
37
102
}
330
37
100
DictionaryVariables
280
     0
  1
127
  0
DICTIONARYVAR
  5
22260
102
{ACAD_REACTORS
330
37
102
}
330
37
100
DictionaryVariables
280
     0
  1
2
  0
DICTIONARY
  5
226AD
330
19DD5
100
AcDbDictionary
  3
ACAD_XREC_ROUNDTRIP
360
226AE
1001
ACAD
1000
TREAT_AS_HARD
1070
     1
  0
DICTIONARY
  5
226AF
330
19DCD
100
AcDbDictionary
  3
ACAD_XREC_ROUNDTRIP
360
226B0
1001
ACAD
1000
TREAT_AS_HARD
1070
     1
  0
DICTIONARY
  5
226B1
330
19DDD
100
AcDbDictionary
  3
ACAD_XREC_ROUNDTRIP
360
226B2
1001
ACAD
1000
TREAT_AS_HARD
1070
     1
  0
XRECORD
  5
226AE
102
{ACAD_REACTORS
330
226AD
102
}
330
226AD
100
AcDbXrecord
102
MATERIAL
148
0.0
149
0.0
149
0.0
 93
        0
 94
      127
282
     0
 72
     0
 77
     0
171
     0
175
     0
179
     0
273
     0
  0
XRECORD
  5
226B0
102
{ACAD_REACTORS
330
226AF
102
}
330
226AF
100
AcDbXrecord
102
MATERIAL
148
0.0
149
0.0
149
0.0
 93
        0
 94
      127
282
     0
 72
     0
 77
     0
171
     0
175
     0
179
     0
273
     0
  0
XRECORD
  5
226B2
102
{ACAD_REACTORS
330
226B1
102
}
330
226B1
100
AcDbXrecord
102
MATERIAL
148
0.0
149
0.0
149
0.0
 93
        0
 94
      127
282
     0
 72
     0
 77
     0
171
     0
175
     0
179
     0
273
     0
  0
ENDSEC
  0
EOF
