  0
SECTION
  2
HEADER
  9
$ACADVER
  1
AC1012
  9
$DWGCODEPAGE
  3
ansi_932
  9
$INSBASE
 10
0.0
 20
0.0
 30
0.0
  9
$EXTMIN
 10
-269.8116059229638
 20
-829.0480319161368
 30
0.0
  9
$EXTMAX
 10
981.7485257027939
 20
-373.1121583177834
 30
0.0
  9
$LIMMIN
 10
0.0
 20
0.0
  9
$LIMMAX
 10
420.0
 20
297.0
  9
$ORTHOMODE
 70
     0
  9
$REGENMODE
 70
     1
  9
$FILLMODE
 70
     1
  9
$QTEXTMODE
 70
     0
  9
$MIRRTEXT
 70
     0
  9
$DRAGMODE
 70
     2
  9
$LTSCALE
 40
0.5
  9
$OSMODE
 70
 16383
  9
$ATTMODE
 70
     1
  9
$TEXTSIZE
 40
4.0
  9
$TRACEWID
 40
1.0
  9
$TEXTSTYLE
  7
STANDARD
  9
$CLAYER
  8
1TEXT
  9
$CELTYPE
  6
BYLAYER
  9
$CECOLOR
 62
   256
  9
$CELTSCALE
 40
1.0
  9
$DELOBJ
 70
     1
  9
$DISPSILH
 70
     0
  9
$DIMSCALE
 40
1.0
  9
$DIMASZ
 40
2.0
  9
$DIMEXO
 40
0.0
  9
$DIMDLI
 40
7.0
  9
$DIMRND
 40
0.0
  9
$DIMDLE
 40
0.0
  9
$DIMEXE
 40
1.0
  9
$DIMTP
 40
0.0
  9
$DIMTM
 40
0.0
  9
$DIMTXT
 40
3.5
  9
$DIMCEN
 40
0.0
  9
$DIMTSZ
 40
0.0
  9
$DIMTOL
 70
     0
  9
$DIMLIM
 70
     0
  9
$DIMTIH
 70
     0
  9
$DIMTOH
 70
     0
  9
$DIMSE1
 70
     0
  9
$DIMSE2
 70
     0
  9
$DIMTAD
 70
     1
  9
$DIMZIN
 70
     8
  9
$DIMBLK
  1

  9
$DIMASO
 70
     1
  9
$DIMSHO
 70
     1
  9
$DIMPOST
  1
 
  9
$DIMAPOST
  1

  9
$DIMALT
 70
     0
  9
$DIMALTD
 70
     2
  9
$DIMALTF
 40
25.4
  9
$DIMLFAC
 40
1.0
  9
$DIMTOFL
 70
     1
  9
$DIMTVP
 40
0.0
  9
$DIMTIX
 70
     0
  9
$DIMSOXD
 70
     0
  9
$DIMSAH
 70
     1
  9
$DIMBLK1
  1
OPEN30
  9
$DIMBLK2
  1
OPEN30
  9
$DIMSTYLE
  2
NEWX10
  9
$DIMCLRD
 70
   256
  9
$DIMCLRE
 70
   256
  9
$DIMCLRT
 70
   201
  9
$DIMTFAC
 40
0.7
  9
$DIMGAP
 40
0.7
  9
$DIMJUST
 70
     0
  9
$DIMSD1
 70
     0
  9
$DIMSD2
 70
     0
  9
$DIMTOLJ
 70
     1
  9
$DIMTZIN
 70
     8
  9
$DIMALTZ
 70
     0
  9
$DIMALTTZ
 70
     0
  9
$DIMFIT
 70
     2
  9
$DIMUPT
 70
     0
  9
$DIMUNIT
 70
     2
  9
$DIMDEC
 70
     2
  9
$DIMTDEC
 70
     4
  9
$DIMALTU
 70
     2
  9
$DIMALTTD
 70
     2
  9
$DIMTXSTY
  7
STANDARD
  9
$DIMAUNIT
 70
     0
  9
$LUNITS
 70
     2
  9
$LUPREC
 70
     4
  9
$SKETCHINC
 40
1.0
  9
$FILLETRAD
 40
0.0
  9
$AUNITS
 70
     0
  9
$AUPREC
 70
     2
  9
$MENU
  1
acad
  9
$ELEVATION
 40
0.0
  9
$PELEVATION
 40
0.0
  9
$THICKNESS
 40
0.0
  9
$LIMCHECK
 70
     0
  9
$CHAMFERA
 40
1.0
  9
$CHAMFERB
 40
1.0
  9
$CHAMFERC
 40
20.0
  9
$CHAMFERD
 40
0.0
  9
$SKPOLY
 70
     0
  9
$TDCREATE
 40
2453033.732663484
  9
$TDUPDATE
 40
2458780.576428079
  9
$TDINDWG
 40
2.4864136343
  9
$TDUSRTIMER
 40
2.4864136343
  9
$USRTIMER
 70
     1
  9
$ANGBASE
 50
0.0
  9
$ANGDIR
 70
     0
  9
$PDMODE
 70
     0
  9
$PDSIZE
 40
0.0
  9
$PLINEWID
 40
0.0
  9
$COORDS
 70
     2
  9
$SPLFRAME
 70
     0
  9
$SPLINETYPE
 70
     6
  9
$SPLINESEGS
 70
     8
  9
$ATTDIA
 70
     0
  9
$ATTREQ
 70
     1
  9
$HANDLING
 70
     1
  9
$HANDSEED
  5
22151
  9
$SURFTAB1
 70
     6
  9
$SURFTAB2
 70
     6
  9
$SURFTYPE
 70
     6
  9
$SURFU
 70
     6
  9
$SURFV
 70
     6
  9
$UCSNAME
  2

  9
$UCSORG
 10
0.0
 20
0.0
 30
0.0
  9
$UCSXDIR
 10
1.0
 20
0.0
 30
0.0
  9
$UCSYDIR
 10
0.0
 20
1.0
 30
0.0
  9
$PUCSNAME
  2

  9
$PUCSORG
 10
0.0
 20
0.0
 30
0.0
  9
$PUCSXDIR
 10
1.0
 20
0.0
 30
0.0
  9
$PUCSYDIR
 10
0.0
 20
1.0
 30
0.0
  9
$USERI1
 70
     0
  9
$USERI2
 70
     0
  9
$USERI3
 70
     0
  9
$USERI4
 70
     0
  9
$USERI5
 70
     0
  9
$USERR1
 40
0.0
  9
$USERR2
 40
0.0
  9
$USERR3
 40
0.0
  9
$USERR4
 40
0.0
  9
$USERR5
 40
0.0
  9
$WORLDVIEW
 70
     1
  9
$SHADEDGE
 70
     3
  9
$SHADEDIF
 70
    70
  9
$TILEMODE
 70
     1
  9
$MAXACTVP
 70
    48
  9
$PINSBASE
 10
0.0
 20
0.0
 30
0.0
  9
$PLIMCHECK
 70
     0
  9
$PEXTMIN
 10
1.000000000000000E+20
 20
1.000000000000000E+20
 30
1.000000000000000E+20
  9
$PEXTMAX
 10
-1.000000000000000E+20
 20
-1.000000000000000E+20
 30
-1.000000000000000E+20
  9
$PLIMMIN
 10
0.0
 20
0.0
  9
$PLIMMAX
 10
420.0
 20
297.0
  9
$UNITMODE
 70
     0
  9
$VISRETAIN
 70
     1
  9
$PLINEGEN
 70
     0
  9
$PSLTSCALE
 70
     1
  9
$TREEDEPTH
 70
  3020
  9
$PICKSTYLE
 70
     1
  9
$CMLSTYLE
  2
STANDARD
  9
$CMLJUST
 70
     0
  9
$CMLSCALE
 40
20.0
  9
$SAVEIMAGES
 70
     1
  0
ENDSEC
  0
SECTION
  2
CLASSES
  0
CLASS
  1
DICTIONARYVAR
  2
AcDbDictionaryVar
  3
ObjectDBX Classes
 90
        0
280
     0
281
     0
  0
CLASS
  1
IDBUFFER
  2
AcDbIdBuffer
  3
ObjectDBX Classes
 90
    32768
280
     0
281
     0
  0
CLASS
  1
LWPOLYLINE
  2
AcDbPolyline
  3
ObjectDBX Classes
 90
    32768
280
     0
281
     1
  0
CLASS
  1
ACDBDICTIONARYWDFLT
  2
AcDbDictionaryWithDefault
  3
ObjectDBX Classes
 90
    32768
280
     0
281
     0
  0
CLASS
  1
ACDBPLACEHOLDER
  2
AcDbPlaceHolder
  3
ObjectDBX Classes
 90
        0
280
     0
281
     0
  0
CLASS
  1
LAYOUT
  2
AcDbLayout
  3
ObjectDBX Classes
 90
        0
280
     0
281
     0
  0
CLASS
  1
TABLESTYLE
  2
AcDbTableStyle
  3
ObjectDBX Classes
 90
     4095
280
     0
281
     0
  0
CLASS
  1
SORTENTSTABLE
  2
AcDbSortentsTable
  3
ObjectDBX Classes
 90
    32768
280
     0
281
     0
  0
CLASS
  1
DIMASSOC
  2
AcDbDimAssoc
  3
"AcDbDimAssoc|Product Desc:     AcDim ARX App For Dimension|Company:          Autodesk, Inc.|WEB Address:      www.autodesk.com"
 90
        0
280
     0
281
     0
  0
CLASS
  1
MATERIAL
  2
AcDbMaterial
  3
ObjectDBX Classes
 90
     1153
280
     0
281
     0
  0
CLASS
  1
VISUALSTYLE
  2
AcDbVisualStyle
  3
ObjectDBX Classes
 90
     4095
280
     0
281
     0
  0
CLASS
  1
SCALE
  2
AcDbScale
  3
ObjectDBX Classes
 90
     1153
280
     0
281
     0
  0
CLASS
  1
MLEADERSTYLE
  2
AcDbMLeaderStyle
  3
ACDB_MLEADERSTYLE_CLASS
 90
     4095
280
     0
281
     0
  0
CLASS
  1
CELLSTYLEMAP
  2
AcDbCellStyleMap
  3
ObjectDBX Classes
 90
     1152
280
     0
281
     0
  0
CLASS
  1
EXACXREFPANELOBJECT
  2
ExAcXREFPanelObject
  3
EXAC_ESW
 90
     1025
280
     1
281
     0
  0
CLASS
  1
NPOCOLLECTION
  2
AcDbImpNonPersistentObjectsCollection
  3
ObjectDBX Classes
 90
     1153
280
     1
281
     0
  0
CLASS
  1
SUN
  2
AcDbSun
  3
SCENEOE
 90
     1153
280
     0
281
     0
  0
CLASS
  1
MULTILEADER
  2
AcDbMLeader
  3
ACDB_MLEADER_CLASS
 90
     1025
280
     0
281
     1
  0
CLASS
  1

  2
CaLongTransaction
  3

 90
        0
280
     0
281
     0
  0
CLASS
  1
XRECORD
  2
AcDbXrecord
  3
ObjectDBX Classes
 90
    32768
280
     0
281
     0
  0
CLASS
  1
HATCH
  2
AcDbHatch
  3
ObjectDBX Classes
 90
    32768
280
     0
281
     1
  0
ENDSEC
  0
SECTION
  2
TABLES
  0
TABLE
  2
VPORT
  5
8
330
0
100
AcDbSymbolTable
 70
     1
  0
VPORT
  5
19DC2
330
8
100
AcDbSymbolTableRecord
100
AcDbViewportTableRecord
  2
*ACTIVE
 70
     0
 10
0.0
 20
0.0
 11
1.0
 21
1.0
 12
355.968459889915
 22
-601.0800951169601
 13
0.0
 23
0.0
 14
10.0
 24
10.0
 15
10.0
 25
10.0
 16
0.0
 26
0.0
 36
1.0
 17
0.0
 27
0.0
 37
0.0
 40
745.275172249503
 41
1.803066037735849
 42
50.0
 43
0.0
 44
0.0
 50
0.0
 51
0.0
 71
    16
 72
   100
 73
     1
 74
     1
 75
     0
 76
     0
 77
     0
 78
     0
  0
ENDTAB
  0
TABLE
  2
LTYPE
  5
5
330
0
100
AcDbSymbolTable
 70
     2
  0
LTYPE
  5
12
330
5
100
AcDbSymbolTableRecord
100
AcDbLinetypeTableRecord
  2
BYBLOCK
 70
     0
  3

 72
    65
 73
     0
 40
0.0
  0
LTYPE
  5
13
330
5
100
AcDbSymbolTableRecord
100
AcDbLinetypeTableRecord
  2
BYLAYER
 70
     0
  3

 72
    65
 73
     0
 40
0.0
  0
LTYPE
  5
14
330
5
100
AcDbSymbolTableRecord
100
AcDbLinetypeTableRecord
  2
CONTINUOUS
 70
     0
  3
Solid line
 72
    65
 73
     0
 40
0.0
  0
LTYPE
  5
26
330
5
100
AcDbSymbolTableRecord
100
AcDbLinetypeTableRecord
  2
CENTER2
 70
     0
  3
Center (.5x) ___ _ ___ _ ___ _ ___ _ ___ _ ___
 72
    65
 73
     4
 40
28.575
 49
19.05
 74
     0
 49
-3.175
 74
     0
 49
3.175
 74
     0
 49
-3.175
 74
     0
  0
ENDTAB
  0
TABLE
  2
LAYER
  5
2
102
{ACAD_XDICTIONARY
360
18FE8
102
}
330
0
100
AcDbSymbolTable
 70
     6
  0
LAYER
  5
E
102
{ACAD_XDICTIONARY
360
1A20A
102
}
330
2
100
AcDbSymbolTableRecord
100
AcDbLayerTableRecord
  2
0
 70
     0
 62
     7
  6
CONTINUOUS
  0
LAYER
  5
29
102
{ACAD_XDICTIONARY
360
1A20C
102
}
330
2
100
AcDbSymbolTableRecord
100
AcDbLayerTableRecord
  2
1CENTER
 70
     0
 62
     7
  6
CENTER2
  0
LAYER
  5
31
102
{ACAD_XDICTIONARY
360
1A20E
102
}
330
2
100
AcDbSymbolTableRecord
100
AcDbLayerTableRecord
  2
1TEXT
 70
     0
 62
     7
  6
CONTINUOUS
  0
LAYER
  5
101
102
{ACAD_XDICTIONARY
360
1A218
102
}
330
2
100
AcDbSymbolTableRecord
100
AcDbLayerTableRecord
  2
1DIM
 70
     0
 62
     7
  6
CONTINUOUS
  0
LAYER
  5
25F
102
{ACAD_XDICTIONARY
360
1A220
102
}
330
2
100
AcDbSymbolTableRecord
100
AcDbLayerTableRecord
  2
01
 70
     0
 62
     1
  6
CONTINUOUS
  0
LAYER
  5
26A
102
{ACAD_XDICTIONARY
360
1A236
102
}
330
2
100
AcDbSymbolTableRecord
100
AcDbLayerTableRecord
  2
1DIM1
 70
     0
 62
     7
  6
CONTINUOUS
  0
ENDTAB
  0
TABLE
  2
STYLE
  5
3
330
0
100
AcDbSymbolTable
 70
     1
  0
STYLE
  5
F
330
3
100
AcDbSymbolTableRecord
100
AcDbTextStyleTableRecord
  2
STANDARD
 70
     0
 40
0.0
 41
1.0
 50
0.0
 71
     0
 42
4.0
  3
txt.shx
  4
extfont.shx
  0
ENDTAB
  0
TABLE
  2
VIEW
  5
6
330
0
100
AcDbSymbolTable
 70
     0
  0
ENDTAB
  0
TABLE
  2
UCS
  5
7
330
0
100
AcDbSymbolTable
 70
     0
  0
ENDTAB
  0
TABLE
  2
APPID
  5
9
330
0
100
AcDbSymbolTable
 70
    17
  0
APPID
  5
10
330
9
100
AcDbSymbolTableRecord
100
AcDbRegAppTableRecord
  2
ACAD
 70
     0
  0
APPID
  5
21
330
9
100
AcDbSymbolTableRecord
100
AcDbRegAppTableRecord
  2
DRAWINGVARIABLESXDATA
 70
     0
  0
APPID
  5
64
330
9
100
AcDbSymbolTableRecord
100
AcDbRegAppTableRecord
  2
CONTENTTABDATA
 70
     0
  0
APPID
  5
65
330
9
100
AcDbSymbolTableRecord
100
AcDbRegAppTableRecord
  2
CONTENTCURRENTTAB
 70
     0
  0
APPID
  5
66
330
9
100
AcDbSymbolTableRecord
100
AcDbRegAppTableRecord
  2
CONTENTBLOCKDESCRIPTION
 70
     0
  0
APPID
  5
67
330
9
100
AcDbSymbolTableRecord
100
AcDbRegAppTableRecord
  2
CONTENTBLOCKICON
 70
     0
  0
APPID
  5
68
330
9
100
AcDbSymbolTableRecord
100
AcDbRegAppTableRecord
  2
CONTENTLONGBLOCKNAME
 70
     0
  0
APPID
  5
5A9
330
9
100
AcDbSymbolTableRecord
100
AcDbRegAppTableRecord
  2
ACAD_PSEXT
 70
     0
  0
APPID
  5
18AC
330
9
100
AcDbSymbolTableRecord
100
AcDbRegAppTableRecord
  2
ACAD_DSTYLE_DIMTEXT_FILL
 70
     0
  0
APPID
  5
19E1A
330
9
100
AcDbSymbolTableRecord
100
AcDbRegAppTableRecord
  2
ACAD_MLEADERVER
 70
     0
  0
APPID
  5
1A2FA
330
9
100
AcDbSymbolTableRecord
100
AcDbRegAppTableRecord
  2
ACAD_DSTYLE_DIMRADIAL_EXTE
 70
     0
  0
APPID
  5
1DBC1
330
9
100
AcDbSymbolTableRecord
100
AcDbRegAppTableRecord
  2
ACADANNOTATIVE
 70
     0
  0
APPID
  5
1E991
330
9
100
AcDbSymbolTableRecord
100
AcDbRegAppTableRecord
  2
ACAD_EXEMPT_FROM_CAD_STAND
 70
     0
  0
APPID
  5
1FBF7
330
9
100
AcDbSymbolTableRecord
100
AcDbRegAppTableRecord
  2
ACDBBLOCKREPETAG
 70
     0
  0
APPID
  5
20360
330
9
100
AcDbSymbolTableRecord
100
AcDbRegAppTableRecord
  2
ACAD_OBJECT_CHANGE_GUID
 70
     0
  0
APPID
  5
20453
330
9
100
AcDbSymbolTableRecord
100
AcDbRegAppTableRecord
  2
ACLAYERTOOLS
 70
     0
  0
APPID
  5
20454
330
9
100
AcDbSymbolTableRecord
100
AcDbRegAppTableRecord
  2
ACAD_NAV_VCDISPLAY
 70
     0
  0
ENDTAB
  0
TABLE
  2
DIMSTYLE
  5
A
330
0
100
AcDbSymbolTable
 70
     2
  0
DIMSTYLE
105
48
330
A
100
AcDbSymbolTableRecord
100
AcDbDimStyleTableRecord
  2
NEWX10
 70
     0
  3
 
  4

  5

  6
OPEN30
  7
OPEN30
 40
1.0
 41
2.0
 42
0.0
 43
7.0
 44
1.0
 45
0.0
 46
0.0
 47
0.0
 48
0.0
140
3.5
141
0.0
142
0.0
143
25.4
144
1.0
145
0.0
146
0.7
147
0.7
 71
     0
 72
     0
 73
     0
 74
     0
 75
     0
 76
     0
 77
     1
 78
     8
170
     0
171
     2
172
     1
173
     1
174
     0
175
     0
176
   256
177
   256
178
   201
179
     2
270
     2
271
     2
272
     4
273
     2
274
     2
340
F
275
     0
280
     0
281
     0
282
     0
283
     1
284
     8
285
     0
286
     0
287
     2
288
     0
  0
DIMSTYLE
105
208CA
330
A
100
AcDbSymbolTableRecord
100
AcDbDimStyleTableRecord
  2
ISO-25
 70
     0
  3

  4

  5

  6

  7

 40
1.0
 41
2.5
 42
0.625
 43
3.75
 44
1.25
 45
0.0
 46
0.0
 47
0.0
 48
0.0
140
2.5
141
2.5
142
0.0
143
0.03937007874016
144
1.0
145
0.0
146
1.0
147
0.625
 71
     0
 72
     0
 73
     0
 74
     0
 75
     0
 76
     0
 77
     1
 78
     8
170
     0
171
     3
172
     1
173
     0
174
     0
175
     0
176
     0
177
     0
178
     0
270
     2
271
     2
272
     2
273
     2
274
     3
340
F
275
     0
280
     0
281
     0
282
     0
283
     0
284
     8
285
     0
286
     0
287
     3
288
     0
  0
ENDTAB
  0
TABLE
  2
BLOCK_RECORD
  5
1
330
0
100
AcDbSymbolTable
 70
    10
  0
BLOCK_RECORD
  5
18
102
{ACAD_XDICTIONARY
360
6E9
102
}
330
1
100
AcDbSymbolTableRecord
100
AcDbBlockTableRecord
  2
*MODEL_SPACE
  0
BLOCK_RECORD
  5
15
102
{ACAD_XDICTIONARY
360
59B
102
}
330
1
100
AcDbSymbolTableRecord
100
AcDbBlockTableRecord
  2
*PAPER_SPACE
  0
BLOCK_RECORD
  5
42
330
1
100
AcDbSymbolTableRecord
100
AcDbBlockTableRecord
  2
_OPEN30
  0
BLOCK_RECORD
  5
6F0
330
1
100
AcDbSymbolTableRecord
100
AcDbBlockTableRecord
  2
_OPEN
  0
BLOCK_RECORD
  5
1FC46
330
1
100
AcDbSymbolTableRecord
100
AcDbBlockTableRecord
  2
A3WAKUKAWAJUN2017_HYOUDAI_
  0
BLOCK_RECORD
  5
20460
102
{ACAD_XDICTIONARY
360
20461
102
}
330
1
100
AcDbSymbolTableRecord
100
AcDbBlockTableRecord
  2
NOCIRCLE
1001
ACADANNOTATIVE
1000
AnnotativeData
1002
{
1070
     1
1070
     0
1002
}
  0
BLOCK_RECORD
  5
21FB1
330
1
100
AcDbSymbolTableRecord
100
AcDbBlockTableRecord
  2
*X115
  0
BLOCK_RECORD
  5
21FFF
330
1
100
AcDbSymbolTableRecord
100
AcDbBlockTableRecord
  2
*X116
  0
BLOCK_RECORD
  5
22051
330
1
100
AcDbSymbolTableRecord
100
AcDbBlockTableRecord
  2
*X117
  0
BLOCK_RECORD
  5
220A2
330
1
100
AcDbSymbolTableRecord
100
AcDbBlockTableRecord
  2
*X118
  0
BLOCK_RECORD
  5
220DF
330
1
100
AcDbSymbolTableRecord
100
AcDbBlockTableRecord
  2
*X119
  0
BLOCK_RECORD
  5
2211F
330
1
100
AcDbSymbolTableRecord
100
AcDbBlockTableRecord
  2
*X120
  0
ENDTAB
  0
ENDSEC
  0
SECTION
  2
BLOCKS
  0
BLOCK
  5
19
330
18
100
AcDbEntity
  8
0
100
AcDbBlockBegin
  2
*MODEL_SPACE
 70
     0
 10
0.0
 20
0.0
 30
0.0
  3
*MODEL_SPACE
  1

  0
ENDBLK
  5
1A
330
18
100
AcDbEntity
  8
0
100
AcDbBlockEnd
  0
BLOCK
  5
16
330
15
100
AcDbEntity
 67
     1
  8
0
100
AcDbBlockBegin
  2
*PAPER_SPACE
 70
     0
 10
0.0
 20
0.0
 30
0.0
  3
*PAPER_SPACE
  1

  0
ENDBLK
  5
17
330
15
100
AcDbEntity
 67
     1
  8
0
100
AcDbBlockEnd
  0
BLOCK
  5
43
330
42
100
AcDbEntity
  8
0
100
AcDbBlockBegin
  2
_OPEN30
 70
     0
 10
0.0
 20
0.0
 30
0.0
  3
_OPEN30
  1

  0
LINE
  5
44
330
42
100
AcDbEntity
  8
0
  6
BYBLOCK
 62
     0
100
AcDbLine
 10
-1.0
 20
0.26794919
 30
0.0
 11
0.0
 21
0.0
 31
0.0
  0
LINE
  5
45
330
42
100
AcDbEntity
  8
0
  6
BYBLOCK
 62
     0
100
AcDbLine
 10
0.0
 20
0.0
 30
0.0
 11
-1.0
 21
-0.26794919
 31
0.0
  0
LINE
  5
46
330
42
100
AcDbEntity
  8
0
  6
BYBLOCK
 62
     0
100
AcDbLine
 10
0.0
 20
0.0
 30
0.0
 11
-1.0
 21
0.0
 31
0.0
  0
ENDBLK
  5
47
330
42
100
AcDbEntity
  8
0
100
AcDbBlockEnd
  0
BLOCK
  5
6F1
330
6F0
100
AcDbEntity
  8
0
100
AcDbBlockBegin
  2
_OPEN
 70
     0
 10
0.0
 20
0.0
 30
0.0
  3
_OPEN
  1
a3waku.dwg
  0
LINE
  5
6F2
330
6F0
100
AcDbEntity
  8
0
  6
BYBLOCK
 62
     0
100
AcDbLine
 10
-1.0
 20
0.1666666666666667
 30
0.0
 11
0.0
 21
0.0
 31
0.0
  0
LINE
  5
6F3
330
6F0
100
AcDbEntity
  8
0
  6
BYBLOCK
 62
     0
100
AcDbLine
 10
0.0
 20
0.0
 30
0.0
 11
-1.0
 21
-0.1666666666666667
 31
0.0
  0
LINE
  5
6F4
330
6F0
100
AcDbEntity
  8
0
  6
BYBLOCK
 62
     0
100
AcDbLine
 10
0.0
 20
0.0
 30
0.0
 11
-1.0
 21
0.0
 31
0.0
  0
ENDBLK
  5
6F5
330
6F0
100
AcDbEntity
  8
0
100
AcDbBlockEnd
  0
BLOCK
  5
20345
330
1FC46
100
AcDbEntity
  8
0
100
AcDbBlockBegin
  2
A3WAKUKAWAJUN2017_HYOUDAI_
 70
     0
 10
0.0
 20
0.0
 30
0.0
  3
A3WAKUKAWAJUN2017_HYOUDAI_
  1

  0
LINE
  5
1FC48
330
1FC46
100
AcDbEntity
  8
0
100
AcDbLine
 10
13.26299999998673
 20
-0.0001000000000317
 30
0.0
 11
9.236999999990758
 21
8.999899999990987
 31
0.0
1001
ACAD
1000
ASC_BOUNDS
1002
{
1070
    19
1005
1FC89
1002
}
  0
LINE
  5
1FC49
330
1FC46
100
AcDbEntity
  8
0
100
AcDbLine
 10
5.657999999994331
 20
0.9999999999989768
 30
0.0
 11
9.236999999990758
 21
8.999999999991019
 31
0.0
1001
ACAD
1000
ASC_BOUNDS
1002
{
1070
    19
1005
1FC89
1002
}
  0
LINE
  5
1FC4A
330
1FC46
100
AcDbEntity
  8
0
100
AcDbLine
 10
18.59199999998134
 20
-0.2368999999997641
 30
0.0
 11
16.46099999998353
 21
5.432899999994561
 31
0.0
1001
ACAD
1000
ASC_BOUNDS
1002
{
1070
    19
1005
1FC8A
1002
}
  0
LINE
  5
1FC4B
330
1FC46
100
AcDbEntity
  8
0
100
AcDbLine
 10
18.59199999998134
 20
-0.2368999999997641
 30
0.0
 11
22.38199999997767
 21
8.763099999991255
 31
0.0
1001
ACAD
1000
ASC_BOUNDS
1002
{
1070
    19
1005
1FC8A
1002
}
  0
LINE
  5
1FC4C
330
1FC46
100
AcDbEntity
  8
0
100
AcDbLine
 10
14.32899999998563
 20
-0.2368999999997641
 30
0.0
 11
16.46099999998353
 21
5.432899999994561
 31
0.0
1001
ACAD
1000
ASC_BOUNDS
1002
{
1070
    19
1005
1FC8A
1002
}
  0
LINE
  5
1FC4D
330
1FC46
100
AcDbEntity
  8
0
100
AcDbLine
 10
14.32899999998563
 20
-0.2368999999997641
 30
0.0
 11
10.53899999998941
 21
8.763099999991255
 31
0.0
1001
ACAD
1000
ASC_BOUNDS
1002
{
1070
    19
1005
1FC8A
1002
}
  0
LINE
  5
1FC4E
330
1FC46
100
AcDbEntity
  8
0
100
AcDbLine
 10
19.53899999998043
 20
-0.0001000000000317
 30
0.0
 11
23.56599999997638
 21
8.999899999990987
 31
0.0
1001
ACAD
1000
ASC_BOUNDS
1002
{
1070
    19
1005
1FC8B
1002
}
  0
LINE
  5
1FC4F
330
1FC46
100
AcDbEntity
  8
0
100
AcDbLine
 10
26.97358892824991
 20
1.383099999991202
 30
0.0
 11
23.56599999997638
 21
8.999899999990987
 31
0.0
1001
ACAD
1000
ASC_BOUNDS
1002
{
1070
    19
1005
1FC8B
1002
}
  0
LINE
  5
1FC50
330
1FC46
100
AcDbEntity
  8
0
100
AcDbLine
 10
5.657999999994331
 20
0.9999999999989768
 30
0.0
 11
3.181999999996833
 21
4.668599999995308
 31
0.0
1001
ACAD
1000
ASC_BOUNDS
1002
{
1070
    19
1005
1FC89
1002
}
  0
LINE
  5
1FC51
330
1FC46
100
AcDbEntity
  8
0
100
AcDbLine
 10
4.617999999995391
 20
-0.0001000000000317
 30
0.0
 11
1.420999999998571
 21
4.736799999995242
 31
0.0
1001
ACAD
1000
ASC_BOUNDS
1002
{
1070
    19
1005
1FC89
1002
}
  0
LINE
  5
1FC52
330
1FC46
100
AcDbEntity
  8
0
100
AcDbLine
 10
1.420999999998571
 20
8.763099999991255
 30
0.0
 11
1.420999999998571
 21
0.0
 31
0.0
1001
ACAD
1000
ASC_BOUNDS
1002
{
1070
    19
1005
1FC8E
1002
}
  0
LINE
  5
1FC53
330
1FC46
100
AcDbEntity
  8
0
100
AcDbLine
 10
0.0
 20
8.763099999991255
 30
0.0
 11
0.0
 21
0.0
 31
0.0
1001
ACAD
1000
ASC_BOUNDS
1002
{
1070
    19
1005
1FC8E
1002
}
  0
LINE
  5
1FC54
330
1FC46
100
AcDbEntity
  8
0
100
AcDbLine
 10
6.766999999993232
 20
-0.0001000000000317
 30
0.0
 11
7.826999999992154
 21
2.368399999997621
 31
0.0
1001
ACAD
1000
ASC_BOUNDS
1002
{
1070
    19
1005
1FC89
1002
}
  0
LINE
  5
1FC55
330
1FC46
100
AcDbEntity
  8
0
100
AcDbLine
 10
0.0
 20
0.0
 30
0.0
 11
1.420999999998571
 21
0.0
 31
0.0
1001
ACAD
1000
ASC_BOUNDS
1002
{
1070
    19
1005
1FC8E
1002
}
  0
LINE
  5
1FC56
330
1FC46
100
AcDbEntity
  8
0
100
AcDbLine
 10
4.617999999995391
 20
0.0
 30
0.0
 11
6.766999999993232
 21
0.0
 31
0.0
1001
ACAD
1000
ASC_BOUNDS
1002
{
1070
    19
1005
1FC89
1002
}
  0
LINE
  5
1FC57
330
1FC46
100
AcDbEntity
  8
0
100
AcDbLine
 10
11.70599999998831
 20
-0.0001000000000317
 30
0.0
 11
10.64699999998936
 21
2.368399999997621
 31
0.0
1001
ACAD
1000
ASC_BOUNDS
1002
{
1070
    19
1005
1FC89
1002
}
  0
LINE
  5
1FC58
330
1FC46
100
AcDbEntity
  8
0
100
AcDbLine
 10
7.826999999992154
 20
2.368399999997621
 30
0.0
 11
10.64699999998936
 21
2.368399999997621
 31
0.0
1001
ACAD
1000
ASC_BOUNDS
1002
{
1070
    19
1005
1FC89
1002
}
  0
LINE
  5
1FC59
330
1FC46
100
AcDbEntity
  8
0
100
AcDbLine
 10
11.70599999998831
 20
0.0
 30
0.0
 11
13.26299999998673
 21
0.0
 31
0.0
1001
ACAD
1000
ASC_BOUNDS
1002
{
1070
    19
1005
1FC89
1002
}
  0
LINE
  5
1FC5A
330
1FC46
100
AcDbEntity
  8
0
100
AcDbLine
 10
22.15599999997789
 20
2.368399999997621
 30
0.0
 11
24.97599999997499
 21
2.368399999997621
 31
0.0
1001
ACAD
1000
ASC_BOUNDS
1002
{
1070
    19
1005
1FC8B
1002
}
  0
LINE
  5
1FC5B
330
1FC46
100
AcDbEntity
  8
0
100
AcDbLine
 10
19.53899999998043
 20
0.0
 30
0.0
 11
21.09599999997886
 21
0.0
 31
0.0
1001
ACAD
1000
ASC_BOUNDS
1002
{
1070
    19
1005
1FC8B
1002
}
  0
LINE
  5
1FC5C
330
1FC46
100
AcDbEntity
  8
0
100
AcDbLine
 10
21.09599999997886
 20
-0.0001000000000317
 30
0.0
 11
22.15599999997789
 21
2.368399999997621
 31
0.0
1001
ACAD
1000
ASC_BOUNDS
1002
{
1070
    19
1005
1FC8B
1002
}
  0
LINE
  5
1FC5D
330
1FC46
100
AcDbEntity
  8
0
100
AcDbLine
 10
26.02015566812236
 20
0.0330999999912365
 30
0.0
 11
24.97599999997499
 21
2.368399999997621
 31
0.0
1001
ACAD
1000
ASC_BOUNDS
1002
{
1070
    19
1005
1FC8B
1002
}
  0
LINE
  5
1FC5E
330
1FC46
100
AcDbEntity
  8
0
100
AcDbLine
 10
14.32399999998563
 20
3.315799999996671
 30
0.0
 11
16.46099999998353
 21
8.999899999990987
 31
0.0
1001
ACAD
1000
ASC_BOUNDS
1002
{
1070
    19
1005
1FC8A
1002
}
  0
LINE
  5
1FC5F
330
1FC46
100
AcDbEntity
  8
0
100
AcDbLine
 10
6.432999999993513
 20
8.763099999991255
 30
0.0
 11
3.181999999996833
 21
4.668599999995308
 31
0.0
1001
ACAD
1000
ASC_BOUNDS
1002
{
1070
    19
1005
1FC89
1002
}
  0
LINE
  5
1FC60
330
1FC46
100
AcDbEntity
  8
0
100
AcDbLine
 10
4.617999999995391
 20
8.763099999991255
 30
0.0
 11
1.420999999998571
 21
4.736799999995242
 31
0.0
1001
ACAD
1000
ASC_BOUNDS
1002
{
1070
    19
1005
1FC89
1002
}
  0
LINE
  5
1FC61
330
1FC46
100
AcDbEntity
  8
0
100
AcDbLine
 10
0.0
 20
8.763099999991255
 30
0.0
 11
1.420999999998571
 21
8.763099999991255
 31
0.0
1001
ACAD
1000
ASC_BOUNDS
1002
{
1070
    19
1005
1FC8E
1002
}
  0
LINE
  5
1FC62
330
1FC46
100
AcDbEntity
  8
0
100
AcDbLine
 10
4.617999999995391
 20
8.763099999991255
 30
0.0
 11
6.432999999993513
 21
8.763099999991255
 31
0.0
1001
ACAD
1000
ASC_BOUNDS
1002
{
1070
    19
1005
1FC89
1002
}
  0
LINE
  5
1FC63
330
1FC46
100
AcDbEntity
  8
0
100
AcDbLine
 10
14.32399999998563
 20
3.315799999996671
 30
0.0
 11
12.02999999998792
 21
8.763099999991255
 31
0.0
1001
ACAD
1000
ASC_BOUNDS
1002
{
1070
    19
1005
1FC8A
1002
}
  0
LINE
  5
1FC64
330
1FC46
100
AcDbEntity
  8
0
100
AcDbLine
 10
10.06399999998996
 20
3.670999999996297
 30
0.0
 11
9.236999999990758
 21
5.5200999999945
 31
0.0
1001
ACAD
1000
ASC_BOUNDS
1002
{
1070
    19
1005
1FC89
1002
}
  0
LINE
  5
1FC65
330
1FC46
100
AcDbEntity
  8
0
100
AcDbLine
 10
8.409999999991555
 20
3.670999999996297
 30
0.0
 11
9.236999999990758
 21
5.5200999999945
 31
0.0
1001
ACAD
1000
ASC_BOUNDS
1002
{
1070
    19
1005
1FC89
1002
}
  0
LINE
  5
1FC66
330
1FC46
100
AcDbEntity
  8
0
100
AcDbLine
 10
8.409999999991555
 20
3.670999999996297
 30
0.0
 11
10.06399999998996
 21
3.670999999996297
 31
0.0
1001
ACAD
1000
ASC_BOUNDS
1002
{
1070
    19
1005
1FC89
1002
}
  0
LINE
  5
1FC67
330
1FC46
100
AcDbEntity
  8
0
100
AcDbLine
 10
10.53899999998941
 20
8.763099999991255
 30
0.0
 11
12.02999999998792
 21
8.763099999991255
 31
0.0
1001
ACAD
1000
ASC_BOUNDS
1002
{
1070
    19
1005
1FC8A
1002
}
  0
LINE
  5
1FC68
330
1FC46
100
AcDbEntity
  8
0
100
AcDbLine
 10
22.7389999999773
 20
3.670999999996297
 30
0.0
 11
23.56599999997638
 21
5.5200999999945
 31
0.0
1001
ACAD
1000
ASC_BOUNDS
1002
{
1070
    19
1005
1FC8B
1002
}
  0
LINE
  5
1FC69
330
1FC46
100
AcDbEntity
  8
0
100
AcDbLine
 10
22.7389999999773
 20
3.670999999996297
 30
0.0
 11
24.39299999997559
 21
3.670999999996297
 31
0.0
1001
ACAD
1000
ASC_BOUNDS
1002
{
1070
    19
1005
1FC8B
1002
}
  0
LINE
  5
1FC6A
330
1FC46
100
AcDbEntity
  8
0
100
AcDbLine
 10
18.59799999998143
 20
3.315799999996671
 30
0.0
 11
20.89099999997916
 21
8.763099999991255
 31
0.0
1001
ACAD
1000
ASC_BOUNDS
1002
{
1070
    19
1005
1FC8A
1002
}
  0
LINE
  5
1FC6B
330
1FC46
100
AcDbEntity
  8
0
100
AcDbLine
 10
18.59799999998143
 20
3.315799999996671
 30
0.0
 11
16.46099999998353
 21
8.999899999990987
 31
0.0
1001
ACAD
1000
ASC_BOUNDS
1002
{
1070
    19
1005
1FC8A
1002
}
  0
LINE
  5
1FC6C
330
1FC46
100
AcDbEntity
  8
0
100
AcDbLine
 10
20.89099999997916
 20
8.763099999991255
 30
0.0
 11
22.38199999997767
 21
8.763099999991255
 31
0.0
1001
ACAD
1000
ASC_BOUNDS
1002
{
1070
    19
1005
1FC8A
1002
}
  0
LINE
  5
1FC6D
330
1FC46
100
AcDbEntity
  8
0
100
AcDbLine
 10
24.39299999997559
 20
3.670999999996297
 30
0.0
 11
23.56599999997638
 21
5.5200999999945
 31
0.0
1001
ACAD
1000
ASC_BOUNDS
1002
{
1070
    19
1005
1FC8B
1002
}
  0
LINE
  5
1FC6E
330
1FC46
100
AcDbEntity
  8
0
100
AcDbLine
 10
44.99999999995498
 20
-0.2368999999997641
 30
0.0
 11
40.02599999995994
 21
5.341799999994635
 31
0.0
1001
ACAD
1000
ASC_BOUNDS
1002
{
1070
    19
1005
1FC8D
1002
}
  0
LINE
  5
1FC6F
330
1FC46
100
AcDbEntity
  8
0
100
AcDbLine
 10
40.02599999995994
 20
5.341799999994635
 30
0.0
 11
40.02599999995994
 21
0.0
 31
0.0
1001
ACAD
1000
ASC_BOUNDS
1002
{
1070
    19
1005
1FC8D
1002
}
  0
LINE
  5
1FC70
330
1FC46
100
AcDbEntity
  8
0
100
AcDbLine
 10
38.60499999996136
 20
8.999999999991019
 30
0.0
 11
38.60499999996136
 21
0.0
 31
0.0
1001
ACAD
1000
ASC_BOUNDS
1002
{
1070
    19
1005
1FC8D
1002
}
  0
LINE
  5
1FC71
330
1FC46
100
AcDbEntity
  8
0
100
AcDbLine
 10
44.99999999995498
 20
8.763099999991255
 30
0.0
 11
44.99999999995498
 21
-0.2368999999997641
 31
0.0
1001
ACAD
1000
ASC_BOUNDS
1002
{
1070
    19
1005
1FC8D
1002
}
  0
LINE
  5
1FC72
330
1FC46
100
AcDbEntity
  8
0
100
AcDbLine
 10
38.60499999996136
 20
0.0
 30
0.0
 11
40.02599999995994
 21
0.0
 31
0.0
1001
ACAD
1000
ASC_BOUNDS
1002
{
1070
    19
1005
1FC8D
1002
}
  0
LINE
  5
1FC73
330
1FC46
100
AcDbEntity
  8
0
100
AcDbLine
 10
43.57899999995641
 20
3.421199999996588
 30
0.0
 11
38.60499999996136
 21
8.999899999990987
 31
0.0
1001
ACAD
1000
ASC_BOUNDS
1002
{
1070
    19
1005
1FC8D
1002
}
  0
LINE
  5
1FC74
330
1FC46
100
AcDbEntity
  8
0
100
AcDbLine
 10
43.57899999995641
 20
8.763099999991255
 30
0.0
 11
43.57899999995641
 21
3.421199999996588
 31
0.0
1001
ACAD
1000
ASC_BOUNDS
1002
{
1070
    19
1005
1FC8D
1002
}
  0
LINE
  5
1FC75
330
1FC46
100
AcDbEntity
  8
0
100
AcDbLine
 10
43.57899999995641
 20
8.763099999991255
 30
0.0
 11
44.99999999995498
 21
8.763099999991255
 31
0.0
1001
ACAD
1000
ASC_BOUNDS
1002
{
1070
    19
1005
1FC8D
1002
}
  0
LINE
  5
1FC76
330
1FC46
100
AcDbEntity
  8
0
100
AcDbLine
 10
37.67199999996831
 20
8.763099999991255
 30
0.0
 11
36.23199999996837
 21
8.763099999991255
 31
0.0
  0
LINE
  5
1FC77
330
1FC46
100
AcDbEntity
  8
0
100
AcDbLine
 10
31.64199999996833
 20
8.763099999991255
 30
0.0
 11
31.64199999996833
 21
2.481619422925121
 31
0.0
  0
LINE
  5
1FC78
330
1FC46
100
AcDbEntity
  8
0
100
AcDbLine
 10
37.67199999996831
 20
8.763099999991255
 30
0.0
 11
37.67199999996831
 21
2.481619422925121
 31
0.0
  0
LINE
  5
1FC79
330
1FC46
100
AcDbEntity
  8
0
100
AcDbLine
 10
36.23199999996837
 20
8.763099999991255
 30
0.0
 11
36.23199999996837
 21
2.481619422925064
 31
0.0
  0
LINE
  5
1FC7A
330
1FC46
100
AcDbEntity
  8
0
100
AcDbLine
 10
33.08199999996839
 20
8.763099999991255
 30
0.0
 11
33.08199999996839
 21
2.481619422925121
 31
0.0
  0
ARC
  5
1FC7B
330
1FC46
100
AcDbEntity
  8
0
100
AcDbCircle
 10
34.65699999996832
 20
3.183099999991214
 30
0.0
 40
3.420000000000007
100
AcDbArc
 50
240.0000000000255
 51
299.9999999999766
  0
ARC
  5
1FC7C
330
1FC46
100
AcDbEntity
  8
0
100
AcDbCircle
 10
34.65699999996832
 20
3.183099999991214
 30
0.0
 40
1.97999999999999
100
AcDbArc
 50
240.000000000026
 51
299.9999999999703
  0
LINE
  5
1FC7D
330
1FC46
100
AcDbEntity
  8
0
100
AcDbLine
 10
33.08199999996828
 20
8.763099999991255
 30
0.0
 11
31.64199999996833
 21
8.763099999991255
 31
0.0
  0
ARC
  5
1FC7E
330
1FC46
100
AcDbEntity
  8
0
100
AcDbCircle
 10
35.06199999996829
 20
2.481619422925064
 30
0.0
 40
1.17
100
AcDbArc
 50
299.9999999999699
 51
0.0
  0
ARC
  5
1FC7F
330
1FC46
100
AcDbEntity
  8
0
100
AcDbCircle
 10
34.25199999996835
 20
2.481619422925121
 30
0.0
 40
1.17
100
AcDbArc
 50
180.0
 51
240.0000000000238
  0
ARC
  5
1FC80
330
1FC46
100
AcDbEntity
  8
0
100
AcDbCircle
 10
35.06199999996841
 20
2.481619422925121
 30
0.0
 40
2.61
100
AcDbArc
 50
299.9999999999756
 51
0.0
  0
ARC
  5
1FC81
330
1FC46
100
AcDbEntity
  8
0
100
AcDbCircle
 10
34.25199999996835
 20
2.481619422925121
 30
0.0
 40
2.61
100
AcDbArc
 50
180.0
 51
240.0000000000244
  0
LINE
  5
1FC82
330
1FC46
100
AcDbEntity
  8
0
100
AcDbLine
 10
29.30199999996933
 20
8.763099999991255
 30
0.0
 11
30.74199999996927
 21
8.763099999991255
 31
0.0
1001
ACAD
1000
ASC_BOUNDS
1002
{
1070
    19
1005
1FC8B
1002
}
  0
LINE
  5
1FC83
330
1FC46
100
AcDbEntity
  8
0
100
AcDbLine
 10
30.74199999996927
 20
8.763099999991255
 30
0.0
 11
30.74199999996927
 21
2.373099999991211
 31
0.0
1001
ACAD
1000
ASC_BOUNDS
1002
{
1070
    19
1005
1FC8B
1002
}
  0
LINE
  5
1FC84
330
1FC46
100
AcDbEntity
  8
0
100
AcDbLine
 10
26.02015566812236
 20
0.0330999999912365
 30
0.0
 11
28.40199999996923
 21
0.0330999999912365
 31
0.0
1001
ACAD
1000
ASC_BOUNDS
1002
{
1070
    19
1005
1FC8B
1002
}
  0
LINE
  5
1FC85
330
1FC46
100
AcDbEntity
  8
0
100
AcDbLine
 10
29.30199999996933
 20
8.763099999991255
 30
0.0
 11
29.30199999996933
 21
2.283099999991236
 31
0.0
1001
ACAD
1000
ASC_BOUNDS
1002
{
1070
    19
1005
1FC8B
1002
}
  0
LINE
  5
1FC86
330
1FC46
100
AcDbEntity
  8
0
100
AcDbLine
 10
26.97358892824991
 20
1.383099999991202
 30
0.0
 11
28.40199999996923
 21
1.383099999991202
 31
0.0
1001
ACAD
1000
ASC_BOUNDS
1002
{
1070
    19
1005
1FC8B
1002
}
  0
ARC
  5
1FC87
330
1FC46
100
AcDbEntity
  8
0
100
AcDbCircle
 10
28.40199999996923
 20
2.283099999991236
 30
0.0
 40
0.9
100
AcDbArc
 50
270.0
 51
0.0
1001
ACAD
1000
ASC_BOUNDS
1002
{
1070
    19
1005
1FC8B
1002
}
  0
ARC
  5
1FC88
330
1FC46
100
AcDbEntity
  8
0
100
AcDbCircle
 10
28.40199999996923
 20
2.373099999991211
 30
0.0
 40
2.34
100
AcDbArc
 50
270.0
 51
0.0
1001
ACAD
1000
ASC_BOUNDS
1002
{
1070
    19
1005
1FC8B
1002
}
  0
INSERT
  5
1FC89
330
1FC46
100
AcDbEntity
  8
0
100
AcDbBlockReference
  2
*X115
 10
0.0
 20
0.0
 30
0.0
1001
ACAD
1000
HATCH
1002
{
1070
    19
1000
ANSI37
1040
0.15
1040
0.0
1000
ASC_BOUNDS
1070
     2
1070
     2
1070
    12
1005
1FC48
1005
1FC49
1005
1FC50
1005
1FC5F
1005
1FC62
1005
1FC60
1005
1FC51
1005
1FC56
1005
1FC54
1005
1FC58
1005
1FC57
1005
1FC59
1070
     2
1070
     3
1005
1FC64
1005
1FC66
1005
1FC65
1000
ASC_SEEDPOINT
1011
3.614004224891801
1021
2.996669441146025
1031
0.0
1000
R14_HATCH_DATA
1000
1FC89
1011
1.0
1021
0.0
1031
0.0
1011
0.0
1021
1.0
1031
0.0
1011
0.0
1021
0.0
1031
1.0
1040
0.0
1010
0.0
1020
0.0
1030
1.0
1000
ANSI37
1070
     0
1070
     1
1071
        2
1071
        7
1070
     0
1070
     1
1071
       17
1040
13.26299999998673
1040
-0.0001000000000317
1040
9.236999999990758
1040
8.999899999990987
1040
9.236999999990758
1040
8.999999999991019
1040
5.657999999994331
1040
0.9999999999989768
1040
3.181999999996833
1040
4.668599999995308
1040
6.432999999993513
1040
8.763099999991255
1040
4.617999999995391
1040
8.763099999991255
1040
1.420999999998571
1040
4.736799999995242
1040
4.617999999995391
1040
-0.0001000000000317
1040
4.617999999995391
1040
0.0
1040
6.766999999993232
1040
0.0
1040
6.766999999993232
1040
-0.0001000000000317
1040
7.826999999992154
1040
2.368399999997621
1040
10.64699999998936
1040
2.368399999997621
1040
11.70599999998831
1040
-0.0001000000000317
1040
11.70599999998831
1040
0.0
1040
13.26299999998673
1040
0.0
1071
       12
1005
1FC48
1005
1FC49
1005
1FC50
1005
1FC5F
1005
1FC62
1005
1FC60
1005
1FC51
1005
1FC56
1005
1FC54
1005
1FC58
1005
1FC57
1005
1FC59
1071
       22
1070
     0
1070
     1
1071
        3
1040
9.236999999990758
1040
5.5200999999945
1040
10.06399999998996
1040
3.670999999996297
1040
8.409999999991555
1040
3.670999999996297
1071
        3
1005
1FC64
1005
1FC66
1005
1FC65
1070
     0
1070
     1
1040
0.0
1040
0.15
1070
     0
1070
     2
1040
0.7853981633974483
1040
49.29960901727088
1040
-10.17736998311392
1040
-0.3367596045400932
1040
0.3367596045400932
1070
     0
1040
2.356194490192345
1040
49.29960901727088
1040
-10.17736998311392
1040
-0.3367596045400932
1040
-0.3367596045400932
1070
     0
1040
0.0110235143455945
1071
        2
1040
3.614004224891801
1040
2.996669441146025
1040
0.0
1040
3.614004224891801
1040
2.996669441146025
1040
0.0
1002
}
  0
INSERT
  5
1FC8A
330
1FC46
100
AcDbEntity
  8
0
100
AcDbBlockReference
  2
*X116
 10
0.0
 20
0.0
 30
0.0
1001
ACAD
1000
HATCH
1002
{
1070
    19
1000
ANSI37
1040
0.15
1040
0.0
1000
ASC_BOUNDS
1070
     1
1070
     2
1070
    10
1005
1FC4A
1005
1FC4B
1005
1FC6C
1005
1FC6A
1005
1FC6B
1005
1FC5E
1005
1FC63
1005
1FC67
1005
1FC4D
1005
1FC4C
1000
ASC_SEEDPOINT
1011
14.73245321214324
1021
2.798246178283421
1031
0.0
1000
R14_HATCH_DATA
1000
1FC8A
1011
1.0
1021
0.0
1031
0.0
1011
0.0
1021
1.0
1031
0.0
1011
0.0
1021
0.0
1031
1.0
1040
0.0
1010
0.0
1020
0.0
1030
1.0
1000
ANSI37
1070
     0
1070
     1
1071
        1
1071
        7
1070
     0
1070
     1
1071
       10
1040
16.46099999998353
1040
5.432899999994561
1040
18.59199999998134
1040
-0.2368999999997641
1040
22.38199999997767
1040
8.763099999991255
1040
20.89099999997916
1040
8.763099999991255
1040
18.59799999998143
1040
3.315799999996671
1040
16.46099999998353
1040
8.999899999990987
1040
14.32399999998563
1040
3.315799999996671
1040
12.02999999998792
1040
8.763099999991255
1040
10.53899999998941
1040
8.763099999991255
1040
14.32899999998563
1040
-0.2368999999997641
1071
       10
1005
1FC4A
1005
1FC4B
1005
1FC6C
1005
1FC6A
1005
1FC6B
1005
1FC5E
1005
1FC63
1005
1FC67
1005
1FC4D
1005
1FC4C
1070
     0
1070
     1
1040
0.0
1040
0.15
1070
     0
1070
     2
1040
0.7853981633974483
1040
49.29960901727088
1040
-10.17736998311392
1040
-0.3367596045400932
1040
0.3367596045400932
1070
     0
1040
2.356194490192345
1040
49.29960901727088
1040
-10.17736998311392
1040
-0.3367596045400932
1040
-0.3367596045400932
1070
     0
1040
0.0110235143455945
1071
        1
1040
14.73245321214324
1040
2.798246178283421
1040
0.0
1002
}
  0
INSERT
  5
1FC8B
330
1FC46
100
AcDbEntity
  8
0
100
AcDbBlockReference
  2
*X117
 10
0.0
 20
0.0
 30
0.0
1001
ACAD
1000
HATCH
1002
{
1070
    19
1000
ANSI37
1040
0.15
1040
0.0
1000
ASC_BOUNDS
1070
     2
1070
     2
1070
    13
1005
1FC4E
1005
1FC5B
1005
1FC5C
1005
1FC5A
1005
1FC5D
1005
1FC84
1005
1FC88
1005
1FC83
1005
1FC82
1005
1FC85
1005
1FC87
1005
1FC86
1005
1FC4F
1070
     2
1070
     3
1005
1FC68
1005
1FC6D
1005
1FC69
1000
ASC_SEEDPOINT
1011
21.97929957367762
1021
3.294304244259308
1031
0.0
1000
R14_HATCH_DATA
1000
1FC8B
1011
1.0
1021
0.0
1031
0.0
1011
0.0
1021
1.0
1031
0.0
1011
0.0
1021
0.0
1031
1.0
1040
0.0
1010
0.0
1020
0.0
1030
1.0
1000
ANSI37
1070
     0
1070
     1
1071
        2
1071
        7
1070
     1
1070
     1
1071
       15
1040
23.56599999997638
1040
8.999899999990987
1040
0.0
1040
19.53899999998043
1040
-0.0001000000000317
1040
0.0
1040
19.53899999998043
1040
0.0
1040
0.0
1040
21.09599999997886
1040
0.0
1040
0.0
1040
21.09599999997886
1040
-0.0001000000000317
1040
0.0
1040
22.15599999997789
1040
2.368399999997621
1040
0.0
1040
24.97599999997499
1040
2.368399999997621
1040
0.0
1040
26.02015566812236
1040
0.0330999999912365
1040
0.0
1040
28.40199999996923
1040
0.0330999999912365
1040
0.414213562373095
1040
30.74199999996923
1040
2.373099999991211
1040
0.0
1040
30.74199999996927
1040
8.763099999991255
1040
0.0
1040
29.30199999996933
1040
8.763099999991255
1040
0.0
1040
29.30199999996933
1040
2.283099999991236
1040
-0.414213562373095
1040
28.40199999996923
1040
1.383099999991237
1040
0.0
1040
26.97358892824991
1040
1.383099999991202
1040
0.0
1071
       13
1005
1FC4E
1005
1FC5B
1005
1FC5C
1005
1FC5A
1005
1FC5D
1005
1FC84
1005
1FC88
1005
1FC83
1005
1FC82
1005
1FC85
1005
1FC87
1005
1FC86
1005
1FC4F
1071
       22
1070
     0
1070
     1
1071
        3
1040
22.7389999999773
1040
3.670999999996297
1040
23.56599999997638
1040
5.5200999999945
1040
24.39299999997559
1040
3.670999999996297
1071
        3
1005
1FC68
1005
1FC6D
1005
1FC69
1070
     0
1070
     1
1040
0.0
1040
0.15
1070
     0
1070
     2
1040
0.7853981633974483
1040
49.29960901727088
1040
-10.17736998311392
1040
-0.3367596045400932
1040
0.3367596045400932
1070
     0
1040
2.356194490192345
1040
49.29960901727088
1040
-10.17736998311392
1040
-0.3367596045400932
1040
-0.3367596045400932
1070
     0
1040
0.0110235143455945
1071
        2
1040
21.97929957367762
1040
3.294304244259308
1040
0.0
1040
21.97929957367762
1040
3.294304244259308
1040
0.0
1002
}
  0
INSERT
  5
1FC8C
330
1FC46
100
AcDbEntity
  8
0
100
AcDbBlockReference
  2
*X118
 10
0.0
 20
0.0
 30
0.0
1001
ACAD
1000
HATCH
1002
{
1070
    19
1000
ANSI37
1040
0.15
1040
0.0
1000
R14_HATCH_DATA
1000
1FC8C
1011
1.0
1021
0.0
1031
0.0
1011
0.0
1021
1.0
1031
0.0
1011
0.0
1021
0.0
1031
1.0
1040
0.0
1010
0.0
1020
0.0
1030
1.0
1000
ANSI37
1070
     0
1070
     1
1071
        1
1071
        7
1070
     1
1070
     1
1071
       12
1040
31.64199999996833
1040
2.481619422925121
1040
0.2679491924310942
1040
32.94699999997067
1040
0.2212931190493919
1040
0.2679491924301353
1040
36.36699999995983
1040
0.2212931190459813
1040
0.2679491924321411
1040
37.67199999996831
1040
2.481619422928361
1040
0.0
1040
37.67199999996831
1040
8.763099999991255
1040
0.0
1040
36.23199999996837
1040
8.763099999991255
1040
0.0
1040
36.23199999996837
1040
2.481619422925064
1040
-0.2679491924310291
1040
35.64699999996708
1040
1.468369700498386
1040
-0.267949192430519
1040
33.66699999997093
1040
1.468369700497703
1040
-0.267949192431809
1040
33.08199999996839
1040
2.481619422926997
1040
0.0
1040
33.08199999996839
1040
8.763099999991255
1040
0.0
1040
31.64199999996833
1040
8.763099999991255
1040
0.0
1071
        0
1070
     0
1070
     1
1040
0.0
1040
0.15
1070
     0
1070
     2
1040
0.7853981633974483
1040
49.29960901727088
1040
-10.17736998311392
1040
-0.3367596045400932
1040
0.3367596045400932
1070
     0
1040
2.356194490192345
1040
49.29960901727088
1040
-10.17736998311392
1040
-0.3367596045400932
1040
-0.3367596045400932
1070
     0
1040
0.0110235143455945
1071
        1
1040
32.30357378967278
1040
3.988785755459219
1040
0.0
1002
}
  0
INSERT
  5
1FC8D
330
1FC46
100
AcDbEntity
  8
0
100
AcDbBlockReference
  2
*X119
 10
0.0
 20
0.0
 30
0.0
1001
ACAD
1000
HATCH
1002
{
1070
    19
1000
ANSI37
1040
0.15
1040
0.0
1000
ASC_BOUNDS
1070
     1
1070
     2
1070
     8
1005
1FC6E
1005
1FC71
1005
1FC75
1005
1FC74
1005
1FC73
1005
1FC70
1005
1FC72
1005
1FC6F
1000
ASC_SEEDPOINT
1011
39.74896370716704
1021
4.484843821435049
1031
0.0
1000
R14_HATCH_DATA
1000
1FC8D
1011
1.0
1021
0.0
1031
0.0
1011
0.0
1021
1.0
1031
0.0
1011
0.0
1021
0.0
1031
1.0
1040
0.0
1010
0.0
1020
0.0
1030
1.0
1000
ANSI37
1070
     0
1070
     1
1071
        1
1071
        7
1070
     0
1070
     1
1071
        9
1040
40.02599999995994
1040
5.341799999994635
1040
44.99999999995498
1040
-0.2368999999997641
1040
44.99999999995498
1040
8.763099999991255
1040
43.57899999995641
1040
8.763099999991255
1040
43.57899999995641
1040
3.421199999996588
1040
38.60499999996136
1040
8.999899999990987
1040
38.60499999996136
1040
8.999999999991019
1040
38.60499999996136
1040
0.0
1040
40.02599999995994
1040
0.0
1071
        8
1005
1FC6E
1005
1FC71
1005
1FC75
1005
1FC74
1005
1FC73
1005
1FC70
1005
1FC72
1005
1FC6F
1070
     0
1070
     1
1040
0.0
1040
0.15
1070
     0
1070
     2
1040
0.7853981633974483
1040
49.29960901727088
1040
-10.17736998311392
1040
-0.3367596045400932
1040
0.3367596045400932
1070
     0
1040
2.356194490192345
1040
49.29960901727088
1040
-10.17736998311392
1040
-0.3367596045400932
1040
-0.3367596045400932
1070
     0
1040
0.0110235143455945
1071
        1
1040
39.74896370716704
1040
4.484843821435049
1040
0.0
1002
}
  0
INSERT
  5
1FC8E
330
1FC46
100
AcDbEntity
  8
0
100
AcDbBlockReference
  2
*X120
 10
0.0
 20
0.0
 30
0.0
1001
ACAD
1000
HATCH
1002
{
1070
    19
1000
ANSI37
1040
0.15
1040
0.0
1000
ASC_BOUNDS
1070
     1
1070
     2
1070
     4
1005
1FC52
1005
1FC61
1005
1FC53
1005
1FC55
1000
ASC_SEEDPOINT
1011
1.079051535452663
1021
4.148538732891836
1031
0.0
1000
R14_HATCH_DATA
1000
1FC8E
1011
1.0
1021
0.0
1031
0.0
1011
0.0
1021
1.0
1031
0.0
1011
0.0
1021
0.0
1031
1.0
1040
0.0
1010
0.0
1020
0.0
1030
1.0
1000
ANSI37
1070
     0
1070
     1
1071
        1
1071
        7
1070
     0
1070
     1
1071
        4
1040
1.420999999998571
1040
0.0
1040
1.420999999998571
1040
8.763099999991255
1040
0.0
1040
8.763099999991255
1040
0.0
1040
0.0
1071
        4
1005
1FC52
1005
1FC61
1005
1FC53
1005
1FC55
1070
     0
1070
     1
1040
0.0
1040
0.15
1070
     0
1070
     2
1040
0.7853981633974483
1040
49.29960901727088
1040
-10.17736998311392
1040
-0.3367596045400932
1040
0.3367596045400932
1070
     0
1040
2.356194490192345
1040
49.29960901727088
1040
-10.17736998311392
1040
-0.3367596045400932
1040
-0.3367596045400932
1070
     0
1040
0.0053004257112761
1071
        1
1040
1.079051535452663
1040
4.148538732891836
1040
0.0
1002
}
  0
ENDBLK
  5
20346
330
1FC46
100
AcDbEntity
  8
0
100
AcDbBlockEnd
  0
BLOCK
  5
20588
330
20460
100
AcDbEntity
  8
0
100
AcDbBlockBegin
  2
NOCIRCLE
 70
     2
 10
0.0
 20
0.0
 30
0.0
  3
NOCIRCLE
  1

  0
CIRCLE
  5
20464
330
20460
100
AcDbEntity
  8
0
  6
BYBLOCK
 62
     0
100
AcDbCircle
 10
0.0
 20
0.0
 30
0.0
 40
4.2
  0
ATTDEF
  5
20465
330
20460
100
AcDbEntity
  8
1TEXT
100
AcDbText
 10
-1.904761904761876
 20
-2.0
 30
0.0
 40
4.0
  1
0
 72
     4
 11
0.0
 21
0.0
 31
0.0
100
AcDbAttributeDefinition
  3
NO.
  2
NO
 70
     0
  0
ENDBLK
  5
20589
330
20460
100
AcDbEntity
  8
0
100
AcDbBlockEnd
  0
BLOCK
  5
2213F
330
21FB1
100
AcDbEntity
  8
0
100
AcDbBlockBegin
  2
*X115
 70
     1
 10
0.0
 20
0.0
 30
0.0
  3
*X115
  1

  0
LINE
  5
21FB2
330
21FB1
100
AcDbEntity
  8
0
  6
CONTINUOUS
100
AcDbLine
 10
3.418023043697893
 20
7.251849696850613
 30
0.0
 11
4.929273346838536
 21
8.763099999991255
 31
0.0
  0
LINE
  5
21FB3
330
21FB1
100
AcDbEntity
  8
0
  6
CONTINUOUS
100
AcDbLine
 10
1.483656411257782
 20
4.643963855330318
 30
0.0
 11
5.60279255591872
 21
8.763099999991255
 31
0.0
  0
LINE
  5
21FB4
330
21FB1
100
AcDbEntity
  8
0
  6
CONTINUOUS
100
AcDbLine
 10
1.755053947328235
 20
4.241842182320584
 30
0.0
 11
6.276311764998907
 21
8.763099999991255
 31
0.0
  0
LINE
  5
21FB5
330
21FB1
100
AcDbEntity
  8
0
  6
CONTINUOUS
100
AcDbLine
 10
2.026451483398688
 20
3.839720509310849
 30
0.0
 11
4.441040904851878
 21
6.254309930764039
 31
0.0
  0
LINE
  5
21FB6
330
21FB1
100
AcDbEntity
  8
0
  6
CONTINUOUS
100
AcDbLine
 10
2.297849019469139
 20
3.437598836301114
 30
0.0
 11
3.321765168359338
 21
4.461514985191313
 31
0.0
  0
LINE
  5
21FB7
330
21FB1
100
AcDbEntity
  8
0
  6
CONTINUOUS
100
AcDbLine
 10
2.569246555539591
 20
3.03547716329138
 30
0.0
 11
3.593163397972743
 21
4.059394005724531
 31
0.0
  0
LINE
  5
21FB8
330
21FB1
100
AcDbEntity
  8
0
  6
CONTINUOUS
100
AcDbLine
 10
2.840644091610043
 20
2.633355490281646
 30
0.0
 11
3.864561627586149
 21
3.657273026257751
 31
0.0
  0
LINE
  5
21FB9
330
21FB1
100
AcDbEntity
  8
0
  6
CONTINUOUS
100
AcDbLine
 10
3.112041627680496
 20
2.231233817271911
 30
0.0
 11
4.135959857199554
 21
3.25515204679097
 31
0.0
  0
LINE
  5
21FBA
330
21FB1
100
AcDbEntity
  8
0
  6
CONTINUOUS
100
AcDbLine
 10
3.383439163750948
 20
1.829112144262177
 30
0.0
 11
4.40735808681296
 21
2.853031067324189
 31
0.0
  0
LINE
  5
21FBB
330
21FB1
100
AcDbEntity
  8
0
  6
CONTINUOUS
100
AcDbLine
 10
3.654836699821399
 20
1.426990471252442
 30
0.0
 11
4.678756316426365
 21
2.450910087857407
 31
0.0
  0
LINE
  5
21FBC
330
21FB1
100
AcDbEntity
  8
0
  6
CONTINUOUS
100
AcDbLine
 10
3.926234235891853
 20
1.024868798242709
 30
0.0
 11
4.95015454603977
 21
2.048789108390626
 31
0.0
  0
LINE
  5
21FBD
330
21FB1
100
AcDbEntity
  8
0
  6
CONTINUOUS
100
AcDbLine
 10
4.197631771962304
 20
0.6227471252329737
 30
0.0
 11
5.221552775653176
 21
1.646668128923846
 31
0.0
  0
LINE
  5
21FBE
330
21FB1
100
AcDbEntity
  8
0
  6
CONTINUOUS
100
AcDbLine
 10
8.715877546767851
 20
7.835069736359266
 30
0.0
 11
9.435953450375058
 21
8.555145639966472
 31
0.0
  0
LINE
  5
21FBF
330
21FB1
100
AcDbEntity
  8
0
  6
CONTINUOUS
100
AcDbLine
 10
8.170620868422267
 20
6.616293848933497
 30
0.0
 11
9.644120833743461
 21
8.08979381425469
 31
0.0
  0
LINE
  5
21FC0
330
21FB1
100
AcDbEntity
  8
0
  6
CONTINUOUS
100
AcDbLine
 10
7.625364190076684
 20
5.397517961507727
 30
0.0
 11
9.852288217111864
 21
7.624441988542907
 31
0.0
  0
LINE
  5
21FC1
330
21FB1
100
AcDbEntity
  8
0
  6
CONTINUOUS
100
AcDbLine
 10
7.080107511731101
 20
4.178742074081957
 30
0.0
 11
10.06045560048027
 21
7.159090162831124
 31
0.0
  0
LINE
  5
21FC2
330
21FB1
100
AcDbEntity
  8
0
  6
CONTINUOUS
100
AcDbLine
 10
6.534850833385518
 20
2.959966186656187
 30
0.0
 11
10.26862298384867
 21
6.693738337119342
 31
0.0
  0
LINE
  5
21FC3
330
21FB1
100
AcDbEntity
  8
0
  6
CONTINUOUS
100
AcDbLine
 10
4.469029308032756
 20
0.2206254522232385
 30
0.0
 11
5.492951005266582
 21
1.244547149457064
 31
0.0
  0
LINE
  5
21FC4
330
21FB1
100
AcDbEntity
  8
0
  6
CONTINUOUS
100
AcDbLine
 10
5.989594155039935
 20
1.741190299230417
 30
0.0
 11
8.806950407233131
 21
4.558546551423613
 31
0.0
  0
LINE
  5
21FC5
330
21FB1
100
AcDbEntity
  8
0
  6
CONTINUOUS
100
AcDbLine
 10
9.401251593263643
 20
5.152847737454126
 30
0.0
 11
10.47679036721708
 21
6.228386511407559
 31
0.0
  0
LINE
  5
21FC6
330
21FB1
100
AcDbEntity
  8
0
  6
CONTINUOUS
100
AcDbLine
 10
4.921837203428691
 20
-0.0000858614610131
 30
0.0
 11
8.592923064886001
 21
3.670999999996297
 31
0.0
  0
LINE
  5
21FC7
330
21FB1
100
AcDbEntity
  8
0
  6
CONTINUOUS
100
AcDbLine
 10
9.609390446785305
 20
4.6874673818956
 30
0.0
 11
10.68495775058548
 21
5.763034685695775
 31
0.0
  0
LINE
  5
21FC8
330
21FB1
100
AcDbEntity
  8
0
  6
CONTINUOUS
100
AcDbLine
 10
5.595387755019432
 20
-0.0000545189504582
 30
0.0
 11
7.716137258923768
 21
2.120694984953879
 31
0.0
  0
LINE
  5
21FC9
330
21FB1
100
AcDbEntity
  8
0
  6
CONTINUOUS
100
AcDbLine
 10
6.268938306610172
 20
-0.000023176439905
 30
0.0
 11
7.170485805526503
 21
0.9015243224764267
 31
0.0
  0
LINE
  5
21FCA
330
21FB1
100
AcDbEntity
  8
0
  6
CONTINUOUS
100
AcDbLine
 10
7.963842273967511
 20
2.368399999997621
 30
0.0
 11
9.266442273966188
 21
3.670999999996297
 31
0.0
  0
LINE
  5
21FCB
330
21FB1
100
AcDbEntity
  8
0
  6
CONTINUOUS
100
AcDbLine
 10
8.637361483047696
 20
2.368399999997621
 30
0.0
 11
9.939961483046375
 21
3.670999999996297
 31
0.0
  0
LINE
  5
21FCC
330
21FB1
100
AcDbEntity
  8
0
  6
CONTINUOUS
100
AcDbLine
 10
9.817529300306965
 20
4.222087026337075
 30
0.0
 11
10.89312513395388
 21
5.297682859983993
 31
0.0
  0
LINE
  5
21FCD
330
21FB1
100
AcDbEntity
  8
0
  6
CONTINUOUS
100
AcDbLine
 10
10.02566815382863
 20
3.756706670778549
 30
0.0
 11
11.10129251732229
 21
4.832331034272211
 31
0.0
  0
LINE
  5
21FCE
330
21FB1
100
AcDbEntity
  8
0
  6
CONTINUOUS
100
AcDbLine
 10
9.310880692127883
 20
2.368399999997621
 30
0.0
 11
11.30945990069069
 21
4.366979208560428
 31
0.0
  0
LINE
  5
21FCF
330
21FB1
100
AcDbEntity
  8
0
  6
CONTINUOUS
100
AcDbLine
 10
9.98439990120807
 20
2.36839999999762
 30
0.0
 11
11.5176272840591
 21
3.901627382848645
 31
0.0
  0
LINE
  5
21FD0
330
21FB1
100
AcDbEntity
  8
0
  6
CONTINUOUS
100
AcDbLine
 10
10.65037369446246
 20
2.36085458417182
 30
0.0
 11
11.7257946674275
 21
3.436275557136862
 31
0.0
  0
LINE
  5
21FD1
330
21FB1
100
AcDbEntity
  8
0
  6
CONTINUOUS
100
AcDbLine
 10
10.85847197087848
 20
1.895433651507656
 30
0.0
 11
11.9339620507959
 21
2.97092373142508
 31
0.0
  0
LINE
  5
21FD2
330
21FB1
100
AcDbEntity
  8
0
  6
CONTINUOUS
100
AcDbLine
 10
11.0665702472945
 20
1.430012718843491
 30
0.0
 11
12.14212943416431
 21
2.505571905713296
 31
0.0
  0
LINE
  5
21FD3
330
21FB1
100
AcDbEntity
  8
0
  6
CONTINUOUS
100
AcDbLine
 10
11.27466852371052
 20
0.9645917861793256
 30
0.0
 11
12.35029681753271
 21
2.040220080001513
 31
0.0
  0
LINE
  5
21FD4
330
21FB1
100
AcDbEntity
  8
0
  6
CONTINUOUS
100
AcDbLine
 10
11.48276680012654
 20
0.4991708535151611
 30
0.0
 11
12.55846420090111
 21
1.57486825428973
 31
0.0
  0
LINE
  5
21FD5
330
21FB1
100
AcDbEntity
  8
0
  6
CONTINUOUS
100
AcDbLine
 10
11.69086507654257
 20
0.0337499208509957
 30
0.0
 11
12.76663158426952
 21
1.109516428577947
 31
0.0
  0
LINE
  5
21FD6
330
21FB1
100
AcDbEntity
  8
0
  6
CONTINUOUS
100
AcDbLine
 10
12.33057447873954
 20
-0.0000598860322123
 30
0.0
 11
12.97479896763792
 21
0.6441646028661663
 31
0.0
  0
LINE
  5
21FD7
330
21FB1
100
AcDbEntity
  8
0
  6
CONTINUOUS
100
AcDbLine
 10
13.00413694809395
 20
-0.0000166257579952
 30
0.0
 11
13.18296635100632
 21
0.1788127771543824
 31
0.0
  0
LINE
  5
21FD8
330
21FB1
100
AcDbEntity
  8
0
  6
CONTINUOUS
100
AcDbLine
 10
4.772852165289667
 20
-0.000092794222212
 30
0.0
 11
4.296495091028902
 21
0.4762642800385528
 31
0.0
  0
LINE
  5
21FD9
330
21FB1
100
AcDbEntity
  8
0
  6
CONTINUOUS
100
AcDbLine
 10
5.446340034776103
 20
-0.0000614546284616
 30
0.0
 11
2.898195908335625
 21
2.548082671812017
 31
0.0
  0
LINE
  5
21FDA
330
21FB1
100
AcDbEntity
  8
0
  6
CONTINUOUS
100
AcDbLine
 10
6.119827904262539
 20
-0.0000301150347113
 30
0.0
 11
1.499896725642348
 21
4.61990106358548
 31
0.0
  0
LINE
  5
21FDB
330
21FB1
100
AcDbEntity
  8
0
  6
CONTINUOUS
100
AcDbLine
 10
6.775136745476159
 20
0.0181802528318542
 30
0.0
 11
5.699826040202669
 21
1.093490958105344
 31
0.0
  0
LINE
  5
21FDC
330
21FB1
100
AcDbEntity
  8
0
  6
CONTINUOUS
100
AcDbLine
 10
6.983376846288489
 20
0.4834593610997118
 30
0.0
 11
5.908008617934405
 21
1.558827589453796
 31
0.0
  0
LINE
  5
21FDD
330
21FB1
100
AcDbEntity
  8
0
  6
CONTINUOUS
100
AcDbLine
 10
5.377063484962296
 20
1.416253513345719
 30
0.0
 11
1.702276957014131
 21
5.091040041293883
 31
0.0
  0
LINE
  5
21FDE
330
21FB1
100
AcDbEntity
  8
0
  6
CONTINUOUS
100
AcDbLine
 10
3.978745891735324
 20
3.488090315652877
 30
0.0
 11
2.000373521109399
 21
5.466462686278803
 31
0.0
  0
LINE
  5
21FDF
330
21FB1
100
AcDbEntity
  8
0
  6
CONTINUOUS
100
AcDbLine
 10
7.191616947100819
 20
0.948738469367568
 30
0.0
 11
6.11619119566614
 21
2.024164220802247
 31
0.0
  0
LINE
  5
21FE0
330
21FB1
100
AcDbEntity
  8
0
  6
CONTINUOUS
100
AcDbLine
 10
7.399857047913149
 20
1.414017577635424
 30
0.0
 11
6.324373773397875
 21
2.489500852150698
 31
0.0
  0
LINE
  5
21FE1
330
21FB1
100
AcDbEntity
  8
0
  6
CONTINUOUS
100
AcDbLine
 10
7.608097148725479
 20
1.879296685903281
 30
0.0
 11
6.53255635112961
 21
2.95483748349915
 31
0.0
  0
LINE
  5
21FE2
330
21FB1
100
AcDbEntity
  8
0
  6
CONTINUOUS
100
AcDbLine
 10
7.816337249537808
 20
2.344575794171138
 30
0.0
 11
6.740738928861345
 21
3.420174114847601
 31
0.0
  0
LINE
  5
21FE3
330
21FB1
100
AcDbEntity
  8
0
  6
CONTINUOUS
100
AcDbLine
 10
3.310241080789734
 20
4.830114335678653
 30
0.0
 11
2.298470085204666
 21
5.84188533126372
 31
0.0
  0
LINE
  5
21FE4
330
21FB1
100
AcDbEntity
  8
0
  6
CONTINUOUS
100
AcDbLine
 10
3.60832983563551
 20
5.205544789913063
 30
0.0
 11
2.596566649299935
 21
6.217307976248638
 31
0.0
  0
LINE
  5
21FE5
330
21FB1
100
AcDbEntity
  8
0
  6
CONTINUOUS
100
AcDbLine
 10
3.906418590481286
 20
5.580975244147473
 30
0.0
 11
2.894663213395203
 21
6.592730621233557
 31
0.0
  0
LINE
  5
21FE6
330
21FB1
100
AcDbEntity
  8
0
  6
CONTINUOUS
100
AcDbLine
 10
4.204507345327062
 20
5.956405698381884
 30
0.0
 11
3.192759777490472
 21
6.968153266218474
 31
0.0
  0
LINE
  5
21FE7
330
21FB1
100
AcDbEntity
  8
0
  6
CONTINUOUS
100
AcDbLine
 10
8.466032252791512
 20
2.368399999997621
 30
0.0
 11
6.948921506593081
 21
3.885510746196053
 31
0.0
  0
LINE
  5
21FE8
330
21FB1
100
AcDbEntity
  8
0
  6
CONTINUOUS
100
AcDbLine
 10
9.139551461871699
 20
2.36839999999762
 30
0.0
 11
7.157104084324816
 21
4.350847377544504
 31
0.0
  0
LINE
  5
21FE9
330
21FB1
100
AcDbEntity
  8
0
  6
CONTINUOUS
100
AcDbLine
 10
4.502596100172839
 20
6.331836152616295
 30
0.0
 11
3.49085634158574
 21
7.343575911203393
 31
0.0
  0
LINE
  5
21FEA
330
21FB1
100
AcDbEntity
  8
0
  6
CONTINUOUS
100
AcDbLine
 10
4.800684855018615
 20
6.707266606850705
 30
0.0
 11
3.788952905681008
 21
7.718998556188312
 31
0.0
  0
LINE
  5
21FEB
330
21FB1
100
AcDbEntity
  8
0
  6
CONTINUOUS
100
AcDbLine
 10
12.18154012887317
 20
-0.0000694579236642
 30
0.0
 11
11.32140332908496
 21
0.8600673418645499
 31
0.0
  0
LINE
  5
21FEC
330
21FB1
100
AcDbEntity
  8
0
  6
CONTINUOUS
100
AcDbLine
 10
12.85501608323566
 20
-0.0000262032059659
 30
0.0
 11
10.77672456435345
 21
2.078265315676246
 31
0.0
  0
LINE
  5
21FED
330
21FB1
100
AcDbEntity
  8
0
  6
CONTINUOUS
100
AcDbLine
 10
9.813070670951886
 20
2.36839999999762
 30
0.0
 11
8.51047067095321
 21
3.670999999996297
 31
0.0
  0
LINE
  5
21FEE
330
21FB1
100
AcDbEntity
  8
0
  6
CONTINUOUS
100
AcDbLine
 10
10.48658988003207
 20
2.36839999999762
 30
0.0
 11
9.183989880033396
 21
3.670999999996297
 31
0.0
  0
LINE
  5
21FEF
330
21FB1
100
AcDbEntity
  8
0
  6
CONTINUOUS
100
AcDbLine
 10
8.441048632286794
 20
3.740422038662712
 30
0.0
 11
7.365286662056551
 21
4.816184008892956
 31
0.0
  0
LINE
  5
21FF0
330
21FB1
100
AcDbEntity
  8
0
  6
CONTINUOUS
100
AcDbLine
 10
8.649187485808454
 20
4.205802394221237
 30
0.0
 11
7.573469239788285
 21
5.281520640241407
 31
0.0
  0
LINE
  5
21FF1
330
21FB1
100
AcDbEntity
  8
0
  6
CONTINUOUS
100
AcDbLine
 10
5.098773609864391
 20
7.082697061085115
 30
0.0
 11
4.087049469776277
 21
8.09442120117323
 31
0.0
  0
LINE
  5
21FF2
330
21FB1
100
AcDbEntity
  8
0
  6
CONTINUOUS
100
AcDbLine
 10
5.396862364710167
 20
7.458127515319526
 30
0.0
 11
4.385146033871544
 21
8.469843846158149
 31
0.0
  0
LINE
  5
21FF3
330
21FB1
100
AcDbEntity
  8
0
  6
CONTINUOUS
100
AcDbLine
 10
13.04801363231285
 20
0.4804954567970334
 30
0.0
 11
9.85750908911358
 21
3.670999999996297
 31
0.0
  0
LINE
  5
21FF4
330
21FB1
100
AcDbEntity
  8
0
  6
CONTINUOUS
100
AcDbLine
 10
8.857326339330116
 20
4.671182749779763
 30
0.0
 11
7.781651817520021
 21
5.746857271589858
 31
0.0
  0
LINE
  5
21FF5
330
21FB1
100
AcDbEntity
  8
0
  6
CONTINUOUS
100
AcDbLine
 10
5.694951119555943
 20
7.833557969553937
 30
0.0
 11
4.765409089118624
 21
8.763099999991255
 31
0.0
  0
LINE
  5
21FF6
330
21FB1
100
AcDbEntity
  8
0
  6
CONTINUOUS
100
AcDbLine
 10
12.50286117236978
 20
1.699167125820288
 30
0.0
 11
9.68611877250287
 21
4.515909525687196
 31
0.0
  0
LINE
  5
21FF7
330
21FB1
100
AcDbEntity
  8
0
  6
CONTINUOUS
100
AcDbLine
 10
9.065465192851777
 20
5.136563105338288
 30
0.0
 11
7.989834395251757
 21
6.21219390293831
 31
0.0
  0
LINE
  5
21FF8
330
21FB1
100
AcDbEntity
  8
0
  6
CONTINUOUS
100
AcDbLine
 10
5.993039874401719
 20
8.208988423788346
 30
0.0
 11
5.43892829819881
 21
8.763099999991255
 31
0.0
  0
LINE
  5
21FF9
330
21FB1
100
AcDbEntity
  8
0
  6
CONTINUOUS
100
AcDbLine
 10
11.95770871242671
 20
2.917838794843543
 30
0.0
 11
8.19801697298349
 21
6.677530534286761
 31
0.0
  0
LINE
  5
21FFA
330
21FB1
100
AcDbEntity
  8
0
  6
CONTINUOUS
100
AcDbLine
 10
6.291128629247495
 20
8.584418878022756
 30
0.0
 11
6.112447507278997
 21
8.763099999991255
 31
0.0
  0
LINE
  5
21FFB
330
21FB1
100
AcDbEntity
  8
0
  6
CONTINUOUS
100
AcDbLine
 10
11.41255625248364
 20
4.136510463866797
 30
0.0
 11
8.406199550715227
 21
7.142867165635211
 31
0.0
  0
LINE
  5
21FFC
330
21FB1
100
AcDbEntity
  8
0
  6
CONTINUOUS
100
AcDbLine
 10
10.86740379254057
 20
5.355182132890051
 30
0.0
 11
8.614382128446962
 21
7.608203796983664
 31
0.0
  0
LINE
  5
21FFD
330
21FB1
100
AcDbEntity
  8
0
  6
CONTINUOUS
100
AcDbLine
 10
10.3222513325975
 20
6.573853801913305
 30
0.0
 11
8.822564706178696
 21
8.073540428332114
 31
0.0
  0
LINE
  5
21FFE
330
21FB1
100
AcDbEntity
  8
0
  6
CONTINUOUS
100
AcDbLine
 10
9.777098872654436
 20
7.792525470936562
 30
0.0
 11
9.030747283910433
 21
8.538877059680566
 31
0.0
  0
ENDBLK
  5
22140
330
21FB1
100
AcDbEntity
  8
0
100
AcDbBlockEnd
  0
BLOCK
  5
22141
330
21FFF
100
AcDbEntity
  8
0
100
AcDbBlockBegin
  2
*X116
 70
     1
 10
0.0
 20
0.0
 30
0.0
  3
*X116
  1

  0
LINE
  5
22000
330
21FFF
100
AcDbEntity
  8
0
  6
CONTINUOUS
100
AcDbLine
 10
10.67292308101235
 20
8.445076852443387
 30
0.0
 11
10.99094622856022
 21
8.763099999991255
 31
0.0
  0
LINE
  5
22001
330
21FFF
100
AcDbEntity
  8
0
  6
CONTINUOUS
100
AcDbLine
 10
10.87250383178748
 20
7.971138394138331
 30
0.0
 11
11.6644654376404
 21
8.763099999991255
 31
0.0
  0
LINE
  5
22002
330
21FFF
100
AcDbEntity
  8
0
  6
CONTINUOUS
100
AcDbLine
 10
11.07208458256261
 20
7.497199935833273
 30
0.0
 11
12.12126590876355
 21
8.546381262034211
 31
0.0
  0
LINE
  5
22003
330
21FFF
100
AcDbEntity
  8
0
  6
CONTINUOUS
100
AcDbLine
 10
11.27166533333774
 20
7.023261477528216
 30
0.0
 11
12.32085164573666
 21
8.072447789927136
 31
0.0
  0
LINE
  5
22004
330
21FFF
100
AcDbEntity
  8
0
  6
CONTINUOUS
100
AcDbLine
 10
11.47124608411287
 20
6.549323019223158
 30
0.0
 11
12.52043738270977
 21
7.59851431782006
 31
0.0
  0
LINE
  5
22005
330
21FFF
100
AcDbEntity
  8
0
  6
CONTINUOUS
100
AcDbLine
 10
11.670826834888
 20
6.075384560918101
 30
0.0
 11
12.72002311968288
 21
7.124580845712984
 31
0.0
  0
LINE
  5
22006
330
21FFF
100
AcDbEntity
  8
0
  6
CONTINUOUS
100
AcDbLine
 10
11.87040758566313
 20
5.601446102613043
 30
0.0
 11
12.91960885665599
 21
6.650647373605907
 31
0.0
  0
LINE
  5
22007
330
21FFF
100
AcDbEntity
  8
0
  6
CONTINUOUS
100
AcDbLine
 10
12.06998833643825
 20
5.127507644307986
 30
0.0
 11
13.1191945936291
 21
6.176713901498832
 31
0.0
  0
LINE
  5
22008
330
21FFF
100
AcDbEntity
  8
0
  6
CONTINUOUS
100
AcDbLine
 10
12.26956908721338
 20
4.65356918600293
 30
0.0
 11
13.31878033060221
 21
5.702780429391757
 31
0.0
  0
LINE
  5
22009
330
21FFF
100
AcDbEntity
  8
0
  6
CONTINUOUS
100
AcDbLine
 10
12.46914983798851
 20
4.179630727697873
 30
0.0
 11
13.51836606757532
 21
5.228846957284683
 31
0.0
  0
LINE
  5
2200A
330
21FFF
100
AcDbEntity
  8
0
  6
CONTINUOUS
100
AcDbLine
 10
12.66873058876364
 20
3.705692269392816
 30
0.0
 11
13.71795180454843
 21
4.754913485177607
 31
0.0
  0
LINE
  5
2200B
330
21FFF
100
AcDbEntity
  8
0
  6
CONTINUOUS
100
AcDbLine
 10
12.86831133953877
 20
3.231753811087759
 30
0.0
 11
13.91753754152154
 21
4.280980013070531
 31
0.0
  0
LINE
  5
2200C
330
21FFF
100
AcDbEntity
  8
0
  6
CONTINUOUS
100
AcDbLine
 10
13.0678920903139
 20
2.757815352782702
 30
0.0
 11
14.11712327849465
 21
3.807046540963456
 31
0.0
  0
LINE
  5
2200D
330
21FFF
100
AcDbEntity
  8
0
  6
CONTINUOUS
100
AcDbLine
 10
13.26747284108903
 20
2.283876894477644
 30
0.0
 11
14.31670901546777
 21
3.333113068856379
 31
0.0
  0
LINE
  5
2200E
330
21FFF
100
AcDbEntity
  8
0
  6
CONTINUOUS
100
AcDbLine
 10
16.36767838827179
 20
8.751678487061342
 30
0.0
 11
16.50332410898388
 21
8.887324207773432
 31
0.0
  0
LINE
  5
2200F
330
21FFF
100
AcDbEntity
  8
0
  6
CONTINUOUS
100
AcDbLine
 10
15.96190732182191
 20
7.67238821153127
 30
0.0
 11
16.68735328004734
 21
8.397834169756699
 31
0.0
  0
LINE
  5
22010
330
21FFF
100
AcDbEntity
  8
0
  6
CONTINUOUS
100
AcDbLine
 10
15.55613625537202
 20
6.593097936001196
 30
0.0
 11
16.87138245111079
 21
7.908344131739965
 31
0.0
  0
LINE
  5
22011
330
21FFF
100
AcDbEntity
  8
0
  6
CONTINUOUS
100
AcDbLine
 10
15.15036518892213
 20
5.513807660471122
 30
0.0
 11
17.05541162217424
 21
7.418854093723231
 31
0.0
  0
LINE
  5
22012
330
21FFF
100
AcDbEntity
  8
0
  6
CONTINUOUS
100
AcDbLine
 10
14.74459412247225
 20
4.434517384941048
 30
0.0
 11
17.2394407932377
 21
6.929364055706499
 31
0.0
  0
LINE
  5
22013
330
21FFF
100
AcDbEntity
  8
0
  6
CONTINUOUS
100
AcDbLine
 10
14.33882305602236
 20
3.355227109410975
 30
0.0
 11
17.42346996430115
 21
6.439874017689766
 31
0.0
  0
LINE
  5
22014
330
21FFF
100
AcDbEntity
  8
0
  6
CONTINUOUS
100
AcDbLine
 10
13.46705359186416
 20
1.809938436172586
 30
0.0
 11
16.0819338255367
 21
4.424818669845129
 31
0.0
  0
LINE
  5
22015
330
21FFF
100
AcDbEntity
  8
0
  6
CONTINUOUS
100
AcDbLine
 10
16.63283254238972
 20
4.975717386698149
 30
0.0
 11
17.60749913536461
 21
5.950383979673033
 31
0.0
  0
LINE
  5
22016
330
21FFF
100
AcDbEntity
  8
0
  6
CONTINUOUS
100
AcDbLine
 10
13.66663434263929
 20
1.335999977867529
 30
0.0
 11
15.67604797733754
 21
3.345413612565779
 31
0.0
  0
LINE
  5
22017
330
21FFF
100
AcDbEntity
  8
0
  6
CONTINUOUS
100
AcDbLine
 10
13.86621509341442
 20
0.8620615195624723
 30
0.0
 11
15.27016212913838
 21
2.26600855528643
 31
0.0
  0
LINE
  5
22018
330
21FFF
100
AcDbEntity
  8
0
  6
CONTINUOUS
100
AcDbLine
 10
16.81682257348267
 20
4.486188208710908
 30
0.0
 11
17.79152830642806
 21
5.460893941656299
 31
0.0
  0
LINE
  5
22019
330
21FFF
100
AcDbEntity
  8
0
  6
CONTINUOUS
100
AcDbLine
 10
17.00081260457561
 20
3.996659030723667
 30
0.0
 11
17.97555747749151
 21
4.971403903639565
 31
0.0
  0
LINE
  5
2201A
330
21FFF
100
AcDbEntity
  8
0
  6
CONTINUOUS
100
AcDbLine
 10
20.74362343514722
 20
8.412989070375462
 30
0.0
 11
21.09373436476302
 21
8.763099999991256
 31
0.0
  0
LINE
  5
2201B
330
21FFF
100
AcDbEntity
  8
0
  6
CONTINUOUS
100
AcDbLine
 10
20.25401257174777
 20
7.249858997895826
 30
0.0
 11
21.7672535738432
 21
8.763099999991255
 31
0.0
  0
LINE
  5
2201C
330
21FFF
100
AcDbEntity
  8
0
  6
CONTINUOUS
100
AcDbLine
 10
14.06579584418955
 20
0.3881230612574149
 30
0.0
 11
14.86427628093921
 21
1.186603498007082
 31
0.0
  0
LINE
  5
2201D
330
21FFF
100
AcDbEntity
  8
0
  6
CONTINUOUS
100
AcDbLine
 10
14.26537659496467
 20
-0.0858153970476412
 30
0.0
 11
14.45839043274005
 21
0.1071984407277329
 31
0.0
  0
LINE
  5
2201E
330
21FFF
100
AcDbEntity
  8
0
  6
CONTINUOUS
100
AcDbLine
 10
17.18480263566856
 20
3.507129852736426
 30
0.0
 11
18.15958664855496
 21
4.481913865622833
 31
0.0
  0
LINE
  5
2201F
330
21FFF
100
AcDbEntity
  8
0
  6
CONTINUOUS
100
AcDbLine
 10
17.3687926667615
 20
3.017600674749186
 30
0.0
 11
18.34361581961842
 21
3.9924238276061
 31
0.0
  0
LINE
  5
22020
330
21FFF
100
AcDbEntity
  8
0
  6
CONTINUOUS
100
AcDbLine
 10
19.76440170834832
 20
6.086728925416191
 30
0.0
 11
22.33924590259489
 21
8.661573119662755
 31
0.0
  0
LINE
  5
22021
330
21FFF
100
AcDbEntity
  8
0
  6
CONTINUOUS
100
AcDbLine
 10
19.27479084494887
 20
4.923598852936555
 30
0.0
 11
21.84929622842713
 21
7.498104236414807
 31
0.0
  0
LINE
  5
22022
330
21FFF
100
AcDbEntity
  8
0
  6
CONTINUOUS
100
AcDbLine
 10
17.55278269785445
 20
2.528071496761945
 30
0.0
 11
18.52764499068187
 21
3.502933789589366
 31
0.0
  0
LINE
  5
22023
330
21FFF
100
AcDbEntity
  8
0
  6
CONTINUOUS
100
AcDbLine
 10
18.78517998154942
 20
3.760468780456919
 30
0.0
 11
21.35934655425936
 21
6.33463535316686
 31
0.0
  0
LINE
  5
22024
330
21FFF
100
AcDbEntity
  8
0
  6
CONTINUOUS
100
AcDbLine
 10
17.73677272894739
 20
2.038542318774704
 30
0.0
 11
20.8693968800916
 21
5.171166469918914
 31
0.0
  0
LINE
  5
22025
330
21FFF
100
AcDbEntity
  8
0
  6
CONTINUOUS
100
AcDbLine
 10
17.92076276004034
 20
1.549013140787464
 30
0.0
 11
20.37944720592384
 21
4.007697586670968
 31
0.0
  0
LINE
  5
22026
330
21FFF
100
AcDbEntity
  8
0
  6
CONTINUOUS
100
AcDbLine
 10
18.10475279113329
 20
1.059483962800223
 30
0.0
 11
19.88949753175608
 21
2.84422870342302
 31
0.0
  0
LINE
  5
22027
330
21FFF
100
AcDbEntity
  8
0
  6
CONTINUOUS
100
AcDbLine
 10
18.28874282222623
 20
0.5699547848129822
 30
0.0
 11
19.39954785758832
 21
1.680759820175074
 31
0.0
  0
LINE
  5
22028
330
21FFF
100
AcDbEntity
  8
0
  6
CONTINUOUS
100
AcDbLine
 10
18.47273285331918
 20
0.0804256068257416
 30
0.0
 11
18.90959818342056
 21
0.517290936927127
 31
0.0
  0
LINE
  5
22029
330
21FFF
100
AcDbEntity
  8
0
  6
CONTINUOUS
100
AcDbLine
 10
14.3590401358224
 20
-0.1570118376323384
 30
0.0
 11
14.24903296539946
 21
-0.0470046672093929
 31
0.0
  0
LINE
  5
2202A
330
21FFF
100
AcDbEntity
  8
0
  6
CONTINUOUS
100
AcDbLine
 10
14.54309291258661
 20
0.332454594683643
 30
0.0
 11
13.75908329123172
 21
1.116464216038529
 31
0.0
  0
LINE
  5
2202B
330
21FFF
100
AcDbEntity
  8
0
  6
CONTINUOUS
100
AcDbLine
 10
14.72714568935081
 20
0.8219210269996244
 30
0.0
 11
13.26913361706399
 21
2.27993309928645
 31
0.0
  0
LINE
  5
2202C
330
21FFF
100
AcDbEntity
  8
0
  6
CONTINUOUS
100
AcDbLine
 10
14.91119846611502
 20
1.311387459315606
 30
0.0
 11
12.77918394289625
 21
3.443401982534371
 31
0.0
  0
LINE
  5
2202D
330
21FFF
100
AcDbEntity
  8
0
  6
CONTINUOUS
100
AcDbLine
 10
15.09525124287922
 20
1.800853891631587
 30
0.0
 11
12.28923426872852
 21
4.606870865782293
 31
0.0
  0
LINE
  5
2202E
330
21FFF
100
AcDbEntity
  8
0
  6
CONTINUOUS
100
AcDbLine
 10
15.27930401964343
 20
2.290320323947569
 30
0.0
 11
11.79928459456078
 21
5.770339749030213
 31
0.0
  0
LINE
  5
2202F
330
21FFF
100
AcDbEntity
  8
0
  6
CONTINUOUS
100
AcDbLine
 10
15.46335679640763
 20
2.77978675626355
 30
0.0
 11
14.48885470994921
 21
3.754288842721972
 31
0.0
  0
LINE
  5
22030
330
21FFF
100
AcDbEntity
  8
0
  6
CONTINUOUS
100
AcDbLine
 10
13.88507249233704
 20
4.358071060334137
 30
0.0
 11
11.30933492039305
 21
6.933808632278135
 31
0.0
  0
LINE
  5
22031
330
21FFF
100
AcDbEntity
  8
0
  6
CONTINUOUS
100
AcDbLine
 10
18.75840522805855
 20
0.1582575336928151
 30
0.0
 11
18.25383727664818
 21
0.6628254851031863
 31
0.0
  0
LINE
  5
22032
330
21FFF
100
AcDbEntity
  8
0
  6
CONTINUOUS
100
AcDbLine
 10
15.64740957317184
 20
3.269253188579531
 30
0.0
 11
14.67288388101266
 21
4.243778880738705
 31
0.0
  0
LINE
  5
22033
330
21FFF
100
AcDbEntity
  8
0
  6
CONTINUOUS
100
AcDbLine
 10
13.39509276772158
 20
5.521569994029786
 30
0.0
 11
10.81938524622531
 21
8.097277515526056
 31
0.0
  0
LINE
  5
22034
330
21FFF
100
AcDbEntity
  8
0
  6
CONTINUOUS
100
AcDbLine
 10
18.95798597883369
 20
0.6321959919978686
 30
0.0
 11
17.84825644852853
 21
1.741925522303024
 31
0.0
  0
LINE
  5
22035
330
21FFF
100
AcDbEntity
  8
0
  6
CONTINUOUS
100
AcDbLine
 10
19.15756672960882
 20
1.106134450302922
 30
0.0
 11
17.44267562040888
 21
2.821025559502861
 31
0.0
  0
LINE
  5
22036
330
21FFF
100
AcDbEntity
  8
0
  6
CONTINUOUS
100
AcDbLine
 10
15.83146234993604
 20
3.758719620895513
 30
0.0
 11
14.85691305207612
 21
4.733268918755439
 31
0.0
  0
LINE
  5
22037
330
21FFF
100
AcDbEntity
  8
0
  6
CONTINUOUS
100
AcDbLine
 10
16.01551512670025
 20
4.248186053211494
 30
0.0
 11
15.04094222313957
 21
5.222758956772172
 31
0.0
  0
LINE
  5
22038
330
21FFF
100
AcDbEntity
  8
0
  6
CONTINUOUS
100
AcDbLine
 10
12.90511304310612
 20
6.685068927725435
 30
0.0
 11
10.8270819708403
 21
8.763099999991255
 31
0.0
  0
LINE
  5
22039
330
21FFF
100
AcDbEntity
  8
0
  6
CONTINUOUS
100
AcDbLine
 10
12.41513331849066
 20
7.848567861421083
 30
0.0
 11
11.50060117992049
 21
8.763099999991255
 31
0.0
  0
LINE
  5
2203A
330
21FFF
100
AcDbEntity
  8
0
  6
CONTINUOUS
100
AcDbLine
 10
19.35714748038395
 20
1.580072908607975
 30
0.0
 11
17.03709479228923
 21
3.900125596702697
 31
0.0
  0
LINE
  5
2203B
330
21FFF
100
AcDbEntity
  8
0
  6
CONTINUOUS
100
AcDbLine
 10
19.55672823115909
 20
2.054011366913028
 30
0.0
 11
16.63151396416958
 21
4.979225633902534
 31
0.0
  0
LINE
  5
2203C
330
21FFF
100
AcDbEntity
  8
0
  6
CONTINUOUS
100
AcDbLine
 10
16.19956790346445
 20
4.737652485527476
 30
0.0
 11
15.22497139420302
 21
5.712248994788904
 31
0.0
  0
LINE
  5
2203D
330
21FFF
100
AcDbEntity
  8
0
  6
CONTINUOUS
100
AcDbLine
 10
16.38362068022866
 20
5.227118917843457
 30
0.0
 11
15.40900056526648
 21
6.201739032805637
 31
0.0
  0
LINE
  5
2203E
330
21FFF
100
AcDbEntity
  8
0
  6
CONTINUOUS
100
AcDbLine
 10
19.75630898193422
 20
2.527949825218081
 30
0.0
 11
18.70774536448286
 21
3.576513442669441
 31
0.0
  0
LINE
  5
2203F
330
21FFF
100
AcDbEntity
  8
0
  6
CONTINUOUS
100
AcDbLine
 10
19.95588973270936
 20
3.001888283523134
 30
0.0
 11
18.90726987211446
 21
4.050508144118028
 31
0.0
  0
LINE
  5
22040
330
21FFF
100
AcDbEntity
  8
0
  6
CONTINUOUS
100
AcDbLine
 10
20.15547048348449
 20
3.475826741828186
 30
0.0
 11
19.10679437974606
 21
4.524502845566614
 31
0.0
  0
LINE
  5
22041
330
21FFF
100
AcDbEntity
  8
0
  6
CONTINUOUS
100
AcDbLine
 10
20.35505123425962
 20
3.94976520013324
 30
0.0
 11
19.30631888737766
 21
4.998497547015201
 31
0.0
  0
LINE
  5
22042
330
21FFF
100
AcDbEntity
  8
0
  6
CONTINUOUS
100
AcDbLine
 10
20.55463198503475
 20
4.423703658438292
 30
0.0
 11
19.50584339500926
 21
5.472492248463787
 31
0.0
  0
LINE
  5
22043
330
21FFF
100
AcDbEntity
  8
0
  6
CONTINUOUS
100
AcDbLine
 10
18.37481191085755
 20
3.909446896294752
 30
0.0
 11
15.59302973632993
 21
6.691229070822371
 31
0.0
  0
LINE
  5
22044
330
21FFF
100
AcDbEntity
  8
0
  6
CONTINUOUS
100
AcDbLine
 10
17.96904084440766
 20
4.988737171824825
 30
0.0
 11
15.77705890739338
 21
7.180719108839104
 31
0.0
  0
LINE
  5
22045
330
21FFF
100
AcDbEntity
  8
0
  6
CONTINUOUS
100
AcDbLine
 10
17.56326977795777
 20
6.068027447354899
 30
0.0
 11
15.96108807845684
 21
7.670209146855838
 31
0.0
  0
LINE
  5
22046
330
21FFF
100
AcDbEntity
  8
0
  6
CONTINUOUS
100
AcDbLine
 10
17.15749871150789
 20
7.147317722884972
 30
0.0
 11
16.14511724952029
 21
8.15969918487257
 31
0.0
  0
LINE
  5
22047
330
21FFF
100
AcDbEntity
  8
0
  6
CONTINUOUS
100
AcDbLine
 10
16.751727645058
 20
8.226607998415046
 30
0.0
 11
16.32914642058374
 21
8.649189222889303
 31
0.0
  0
LINE
  5
22048
330
21FFF
100
AcDbEntity
  8
0
  6
CONTINUOUS
100
AcDbLine
 10
20.75421273580989
 20
4.897642116743345
 30
0.0
 11
19.70536790264086
 21
5.946486949912374
 31
0.0
  0
LINE
  5
22049
330
21FFF
100
AcDbEntity
  8
0
  6
CONTINUOUS
100
AcDbLine
 10
20.95379348658502
 20
5.371580575048398
 30
0.0
 11
19.90489241027246
 21
6.42048165136096
 31
0.0
  0
LINE
  5
2204A
330
21FFF
100
AcDbEntity
  8
0
  6
CONTINUOUS
100
AcDbLine
 10
21.15337423736015
 20
5.845519033353452
 30
0.0
 11
20.10441691790406
 21
6.894476352809547
 31
0.0
  0
LINE
  5
2204B
330
21FFF
100
AcDbEntity
  8
0
  6
CONTINUOUS
100
AcDbLine
 10
21.35295498813529
 20
6.319457491658505
 30
0.0
 11
20.30394142553566
 21
7.368471054258134
 31
0.0
  0
LINE
  5
2204C
330
21FFF
100
AcDbEntity
  8
0
  6
CONTINUOUS
100
AcDbLine
 10
21.55253573891042
 20
6.793395949963558
 30
0.0
 11
20.50346593316726
 21
7.842465755706721
 31
0.0
  0
LINE
  5
2204D
330
21FFF
100
AcDbEntity
  8
0
  6
CONTINUOUS
100
AcDbLine
 10
21.75211648968556
 20
7.267334408268612
 30
0.0
 11
20.70299044079886
 21
8.316460457155308
 31
0.0
  0
LINE
  5
2204E
330
21FFF
100
AcDbEntity
  8
0
  6
CONTINUOUS
100
AcDbLine
 10
21.95169724046069
 20
7.741272866573663
 30
0.0
 11
20.9298701070431
 21
8.763099999991256
 31
0.0
  0
LINE
  5
2204F
330
21FFF
100
AcDbEntity
  8
0
  6
CONTINUOUS
100
AcDbLine
 10
22.15127799123582
 20
8.215211324878716
 30
0.0
 11
21.60338931612328
 21
8.763099999991256
 31
0.0
  0
LINE
  5
22050
330
21FFF
100
AcDbEntity
  8
0
  6
CONTINUOUS
100
AcDbLine
 10
22.35085874201096
 20
8.689149783183769
 30
0.0
 11
22.27690852520347
 21
8.763099999991255
 31
0.0
  0
ENDBLK
  5
22142
330
21FFF
100
AcDbEntity
  8
0
100
AcDbBlockEnd
  0
BLOCK
  5
22143
330
22051
100
AcDbEntity
  8
0
100
AcDbBlockBegin
  2
*X117
 70
     1
 10
0.0
 20
0.0
 30
0.0
  3
*X117
  1

  0
LINE
  5
22052
330
22051
100
AcDbEntity
  8
0
  6
CONTINUOUS
100
AcDbLine
 10
23.19462913593892
 20
8.169917934846424
 30
0.0
 11
23.70775465517246
 21
8.683043454079957
 31
0.0
  0
LINE
  5
22053
330
22051
100
AcDbEntity
  8
0
  6
CONTINUOUS
100
AcDbLine
 10
22.64923161835078
 20
6.951001208178088
 30
0.0
 11
23.9159364069932
 21
8.217705996820516
 31
0.0
  0
LINE
  5
22054
330
22051
100
AcDbEntity
  8
0
  6
CONTINUOUS
100
AcDbLine
 10
22.10383410076263
 20
5.732084481509751
 30
0.0
 11
24.12411815881395
 21
7.752368539561078
 31
0.0
  0
LINE
  5
22055
330
22051
100
AcDbEntity
  8
0
  6
CONTINUOUS
100
AcDbLine
 10
21.55843658317447
 20
4.513167754841414
 30
0.0
 11
24.3322999106347
 21
7.287031082301639
 31
0.0
  0
LINE
  5
22056
330
22051
100
AcDbEntity
  8
0
  6
CONTINUOUS
100
AcDbLine
 10
21.01303906558632
 20
3.294251028173077
 30
0.0
 11
24.54048166245544
 21
6.821693625042199
 31
0.0
  0
LINE
  5
22057
330
22051
100
AcDbEntity
  8
0
  6
CONTINUOUS
100
AcDbLine
 10
20.46764154799817
 20
2.075334301504738
 30
0.0
 11
23.28571549467848
 21
4.89340824818505
 31
0.0
  0
LINE
  5
22058
330
22051
100
AcDbEntity
  8
0
  6
CONTINUOUS
100
AcDbLine
 10
19.92224403041002
 20
0.8564175748364002
 30
0.0
 11
22.74075865492779
 21
3.674932199354171
 31
0.0
  0
LINE
  5
22059
330
22051
100
AcDbEntity
  8
0
  6
CONTINUOUS
100
AcDbLine
 10
23.67305085490148
 20
5.280743608408048
 30
0.0
 11
24.74866341427619
 21
6.356356167782759
 31
0.0
  0
LINE
  5
2205A
330
22051
100
AcDbEntity
  8
0
  6
CONTINUOUS
100
AcDbLine
 10
23.88118970842314
 20
4.815363252849522
 30
0.0
 11
24.95684516609694
 21
5.89101871052332
 31
0.0
  0
LINE
  5
2205B
330
22051
100
AcDbEntity
  8
0
  6
CONTINUOUS
100
AcDbLine
 10
19.73925852647308
 20
-0.0000871381807288
 30
0.0
 11
23.4103456646501
 21
3.670999999996297
 31
0.0
  0
LINE
  5
2205C
330
22051
100
AcDbEntity
  8
0
  6
CONTINUOUS
100
AcDbLine
 10
24.0893285619448
 20
4.349982897290997
 30
0.0
 11
25.16502691791769
 21
5.42568125326388
 31
0.0
  0
LINE
  5
2205D
330
22051
100
AcDbEntity
  8
0
  6
CONTINUOUS
100
AcDbLine
 10
20.41282099582748
 20
-0.0000438779065108
 30
0.0
 11
21.64944178675636
 21
1.236576913022366
 31
0.0
  0
LINE
  5
2205E
330
22051
100
AcDbEntity
  8
0
  6
CONTINUOUS
100
AcDbLine
 10
22.78126487373161
 20
2.36839999999762
 30
0.0
 11
24.08386487373029
 21
3.670999999996297
 31
0.0
  0
LINE
  5
2205F
330
22051
100
AcDbEntity
  8
0
  6
CONTINUOUS
100
AcDbLine
 10
24.29746741546646
 20
3.884602541732471
 30
0.0
 11
25.37320866973843
 21
4.960343796004441
 31
0.0
  0
LINE
  5
22060
330
22051
100
AcDbEntity
  8
0
  6
CONTINUOUS
100
AcDbLine
 10
21.08638346518189
 20
-0.0000006176322938
 30
0.0
 11
21.10379033335899
 21
0.0174062505448083
 31
0.0
  0
LINE
  5
22061
330
22051
100
AcDbEntity
  8
0
  6
CONTINUOUS
100
AcDbLine
 10
23.4547840828118
 20
2.36839999999762
 30
0.0
 11
25.58139042155918
 21
4.495006338745002
 31
0.0
  0
LINE
  5
22062
330
22051
100
AcDbEntity
  8
0
  6
CONTINUOUS
100
AcDbLine
 10
29.30199999996933
 20
8.215615917155148
 30
0.0
 11
29.84948408280543
 21
8.763099999991255
 31
0.0
  0
LINE
  5
22063
330
22051
100
AcDbEntity
  8
0
  6
CONTINUOUS
100
AcDbLine
 10
24.12830329189199
 20
2.36839999999762
 30
0.0
 11
25.78957217337993
 21
4.029668881485562
 31
0.0
  0
LINE
  5
22064
330
22051
100
AcDbEntity
  8
0
  6
CONTINUOUS
100
AcDbLine
 10
29.30199999996933
 20
7.54209670807496
 30
0.0
 11
30.52300329188562
 21
8.763099999991255
 31
0.0
  0
LINE
  5
22065
330
22051
100
AcDbEntity
  8
0
  6
CONTINUOUS
100
AcDbLine
 10
24.80182250097217
 20
2.36839999999762
 30
0.0
 11
25.99775392520067
 21
3.564331424226122
 31
0.0
  0
LINE
  5
22066
330
22051
100
AcDbEntity
  8
0
  6
CONTINUOUS
100
AcDbLine
 10
29.30199999996933
 20
6.868577498994774
 30
0.0
 11
30.74199999996926
 21
8.308577498994712
 31
0.0
  0
LINE
  5
22067
330
22051
100
AcDbEntity
  8
0
  6
CONTINUOUS
100
AcDbLine
 10
25.13028238392013
 20
2.023340673865392
 30
0.0
 11
26.20593567702142
 21
3.098993966966683
 31
0.0
  0
LINE
  5
22068
330
22051
100
AcDbEntity
  8
0
  6
CONTINUOUS
100
AcDbLine
 10
25.33838066033617
 20
1.557919741201244
 30
0.0
 11
26.41411742884217
 21
2.633656509707244
 31
0.0
  0
LINE
  5
22069
330
22051
100
AcDbEntity
  8
0
  6
CONTINUOUS
100
AcDbLine
 10
25.54647893675221
 20
1.092498808537098
 30
0.0
 11
26.62229918066291
 21
2.168319052447804
 31
0.0
  0
LINE
  5
2206A
330
22051
100
AcDbEntity
  8
0
  6
CONTINUOUS
100
AcDbLine
 10
25.75457721316825
 20
0.62707787587295
 30
0.0
 11
26.83048093248366
 21
1.702981595188365
 31
0.0
  0
LINE
  5
2206B
330
22051
100
AcDbEntity
  8
0
  6
CONTINUOUS
100
AcDbLine
 10
29.30199999996933
 20
6.195058289914587
 30
0.0
 11
30.74199999996926
 21
7.635058289914522
 31
0.0
  0
LINE
  5
2206C
330
22051
100
AcDbEntity
  8
0
  6
CONTINUOUS
100
AcDbLine
 10
29.30199999996933
 20
5.521539080834401
 30
0.0
 11
30.74199999996926
 21
6.961539080834331
 31
0.0
  0
LINE
  5
2206D
330
22051
100
AcDbEntity
  8
0
  6
CONTINUOUS
100
AcDbLine
 10
29.30199999996933
 20
4.848019871754214
 30
0.0
 11
30.74199999996925
 21
6.288019871754143
 31
0.0
  0
LINE
  5
2206E
330
22051
100
AcDbEntity
  8
0
  6
CONTINUOUS
100
AcDbLine
 10
29.30199999996933
 20
4.174500662674028
 30
0.0
 11
30.74199999996925
 21
5.614500662673953
 31
0.0
  0
LINE
  5
2206F
330
22051
100
AcDbEntity
  8
0
  6
CONTINUOUS
100
AcDbLine
 10
25.96267548958429
 20
0.1616569432088024
 30
0.0
 11
27.18411854636669
 21
1.383099999991207
 31
0.0
  0
LINE
  5
22070
330
22051
100
AcDbEntity
  8
0
  6
CONTINUOUS
100
AcDbLine
 10
29.30199999996933
 20
3.500981453593841
 30
0.0
 11
30.74199999996925
 21
4.940981453593762
 31
0.0
  0
LINE
  5
22071
330
22051
100
AcDbEntity
  8
0
  6
CONTINUOUS
100
AcDbLine
 10
26.50763775544691
 20
0.0330999999912356
 30
0.0
 11
27.85763775544689
 21
1.383099999991223
 31
0.0
  0
LINE
  5
22072
330
22051
100
AcDbEntity
  8
0
  6
CONTINUOUS
100
AcDbLine
 10
29.30199999996933
 20
2.827462244513656
 30
0.0
 11
30.74199999996925
 21
4.267462244513574
 31
0.0
  0
LINE
  5
22073
330
22051
100
AcDbEntity
  8
0
  6
CONTINUOUS
100
AcDbLine
 10
27.18115696452709
 20
0.0330999999912356
 30
0.0
 11
28.54526759058215
 21
1.397210626046295
 31
0.0
  0
LINE
  5
22074
330
22051
100
AcDbEntity
  8
0
  6
CONTINUOUS
100
AcDbLine
 10
29.2878893739142
 20
2.139832409378348
 30
0.0
 11
30.74199999996924
 21
3.593943035433383
 31
0.0
  0
LINE
  5
22075
330
22051
100
AcDbEntity
  8
0
  6
CONTINUOUS
100
AcDbLine
 10
27.85467617360728
 20
0.0330999999912356
 30
0.0
 11
30.74199999996924
 21
2.920423826353195
 31
0.0
  0
LINE
  5
22076
330
22051
100
AcDbEntity
  8
0
  6
CONTINUOUS
100
AcDbLine
 10
28.53704681883833
 20
0.0419514361420976
 30
0.0
 11
30.73314856381836
 21
2.23805318112213
 31
0.0
  0
LINE
  5
22077
330
22051
100
AcDbEntity
  8
0
  6
CONTINUOUS
100
AcDbLine
 10
29.45996618203888
 20
0.291351590262467
 30
0.0
 11
30.48374840969798
 21
1.315133817921562
 31
0.0
  0
LINE
  5
22078
330
22051
100
AcDbEntity
  8
0
  6
CONTINUOUS
100
AcDbLine
 10
19.59027867740337
 20
-0.0000967065718083
 30
0.0
 11
19.55485265190471
 21
0.035329318926844
 31
0.0
  0
LINE
  5
22079
330
22051
100
AcDbEntity
  8
0
  6
CONTINUOUS
100
AcDbLine
 10
20.26375463176586
 20
-0.0000534518541091
 30
0.0
 11
19.76305575737534
 21
0.5006454225364014
 31
0.0
  0
LINE
  5
2207A
330
22051
100
AcDbEntity
  8
0
  6
CONTINUOUS
100
AcDbLine
 10
20.93723058612834
 20
-0.0000101971364099
 30
0.0
 11
19.97125886284597
 21
0.965961526145958
 31
0.0
  0
LINE
  5
2207B
330
22051
100
AcDbEntity
  8
0
  6
CONTINUOUS
100
AcDbLine
 10
21.25514828313686
 20
0.355591314935257
 30
0.0
 11
20.1794619683166
 21
1.431277629755512
 31
0.0
  0
LINE
  5
2207C
330
22051
100
AcDbEntity
  8
0
  6
CONTINUOUS
100
AcDbLine
 10
21.46338838394921
 20
0.8208704232030986
 30
0.0
 11
20.38766507378723
 21
1.896593733365069
 31
0.0
  0
LINE
  5
2207D
330
22051
100
AcDbEntity
  8
0
  6
CONTINUOUS
100
AcDbLine
 10
21.67162848476155
 20
1.28614953147094
 30
0.0
 11
20.59586817925786
 21
2.361909836974626
 31
0.0
  0
LINE
  5
2207E
330
22051
100
AcDbEntity
  8
0
  6
CONTINUOUS
100
AcDbLine
 10
21.8798685855739
 20
1.751428639738782
 30
0.0
 11
20.80407128472849
 21
2.827225940584183
 31
0.0
  0
LINE
  5
2207F
330
22051
100
AcDbEntity
  8
0
  6
CONTINUOUS
100
AcDbLine
 10
22.08810868638624
 20
2.216707748006623
 30
0.0
 11
21.01227439019912
 21
3.292542044193739
 31
0.0
  0
LINE
  5
22080
330
22051
100
AcDbEntity
  8
0
  6
CONTINUOUS
100
AcDbLine
 10
22.60993564347543
 20
2.36839999999762
 30
0.0
 11
21.22047749566975
 21
3.757858147803296
 31
0.0
  0
LINE
  5
22081
330
22051
100
AcDbEntity
  8
0
  6
CONTINUOUS
100
AcDbLine
 10
23.28345485255561
 20
2.36839999999762
 30
0.0
 11
21.42868060114038
 21
4.223174251412853
 31
0.0
  0
LINE
  5
22082
330
22051
100
AcDbEntity
  8
0
  6
CONTINUOUS
100
AcDbLine
 10
26.29227406164219
 20
0.0330999999912356
 30
0.0
 11
25.80009199592872
 21
0.5252820657046957
 31
0.0
  0
LINE
  5
22083
330
22051
100
AcDbEntity
  8
0
  6
CONTINUOUS
100
AcDbLine
 10
23.9569740616358
 20
2.36839999999762
 30
0.0
 11
21.63688370661101
 21
4.688490355022409
 31
0.0
  0
LINE
  5
22084
330
22051
100
AcDbEntity
  8
0
  6
CONTINUOUS
100
AcDbLine
 10
26.96579327072237
 20
0.0330999999912356
 30
0.0
 11
25.2554132311971
 21
1.743480039516508
 31
0.0
  0
LINE
  5
22085
330
22051
100
AcDbEntity
  8
0
  6
CONTINUOUS
100
AcDbLine
 10
24.63049327071599
 20
2.36839999999762
 30
0.0
 11
23.32789327071731
 21
3.670999999996297
 31
0.0
  0
LINE
  5
22086
330
22051
100
AcDbEntity
  8
0
  6
CONTINUOUS
100
AcDbLine
 10
22.92098674744635
 20
4.077906523267254
 30
0.0
 11
21.84508681208164
 21
5.153806458631966
 31
0.0
  0
LINE
  5
22087
330
22051
100
AcDbEntity
  8
0
  6
CONTINUOUS
100
AcDbLine
 10
27.63931247980256
 20
0.0330999999912356
 30
0.0
 11
24.0014124797975
 21
3.670999999996297
 31
0.0
  0
LINE
  5
22088
330
22051
100
AcDbEntity
  8
0
  6
CONTINUOUS
100
AcDbLine
 10
23.129125600968
 20
4.5432868788258
 30
0.0
 11
22.05328991755227
 21
5.619122562241522
 31
0.0
  0
LINE
  5
22089
330
22051
100
AcDbEntity
  8
0
  6
CONTINUOUS
100
AcDbLine
 10
28.31283168888275
 20
0.0330999999912356
 30
0.0
 11
24.16488385994816
 21
4.181047828925828
 31
0.0
  0
LINE
  5
2208A
330
22051
100
AcDbEntity
  8
0
  6
CONTINUOUS
100
AcDbLine
 10
23.33726445448964
 20
5.008667234384345
 30
0.0
 11
22.2614930230229
 21
6.084438665851079
 31
0.0
  0
LINE
  5
2208B
330
22051
100
AcDbEntity
  8
0
  6
CONTINUOUS
100
AcDbLine
 10
28.92337750139541
 20
0.0960733965587588
 30
0.0
 11
27.63635089796295
 21
1.383099999991217
 31
0.0
  0
LINE
  5
2208C
330
22051
100
AcDbEntity
  8
0
  6
CONTINUOUS
100
AcDbLine
 10
26.43704649509776
 20
2.582404402856405
 30
0.0
 11
23.61992702019732
 21
5.399523877756844
 31
0.0
  0
LINE
  5
2208D
330
22051
100
AcDbEntity
  8
0
  6
CONTINUOUS
100
AcDbLine
 10
23.54540330801128
 20
5.47404758994289
 30
0.0
 11
22.46969612849353
 21
6.549754769460635
 31
0.0
  0
LINE
  5
2208E
330
22051
100
AcDbEntity
  8
0
  6
CONTINUOUS
100
AcDbLine
 10
29.42088916767058
 20
0.2720809393637778
 30
0.0
 11
28.30987010704312
 21
1.383099999991234
 31
0.0
  0
LINE
  5
2208F
330
22051
100
AcDbEntity
  8
0
  6
CONTINUOUS
100
AcDbLine
 10
25.89179548232307
 20
3.801174624711282
 30
0.0
 11
22.67789923396416
 21
7.015070873070191
 31
0.0
  0
LINE
  5
22090
330
22051
100
AcDbEntity
  8
0
  6
CONTINUOUS
100
AcDbLine
 10
29.83893364644151
 20
0.527555669673029
 30
0.0
 11
28.85619976405965
 21
1.510289552054886
 31
0.0
  0
LINE
  5
22091
330
22051
100
AcDbEntity
  8
0
  6
CONTINUOUS
100
AcDbLine
 10
25.34654446954838
 20
5.01994484656616
 30
0.0
 11
22.88610233943479
 21
7.480386976679748
 31
0.0
  0
LINE
  5
22092
330
22051
100
AcDbEntity
  8
0
  6
CONTINUOUS
100
AcDbLine
 10
30.18040261952632
 20
0.8596059056684049
 30
0.0
 11
29.18745395369615
 21
1.852554571498581
 31
0.0
  0
LINE
  5
22093
330
22051
100
AcDbEntity
  8
0
  6
CONTINUOUS
100
AcDbLine
 10
24.80129345677369
 20
6.238715068421037
 30
0.0
 11
23.09430544490542
 21
7.945703080289305
 31
0.0
  0
LINE
  5
22094
330
22051
100
AcDbEntity
  8
0
  6
CONTINUOUS
100
AcDbLine
 10
30.45555813616515
 20
1.257969598109762
 30
0.0
 11
29.30199999996933
 21
2.411527734305588
 31
0.0
  0
LINE
  5
22095
330
22051
100
AcDbEntity
  8
0
  6
CONTINUOUS
100
AcDbLine
 10
24.256042443999
 20
7.457485290275915
 30
0.0
 11
23.30250855037605
 21
8.411019183898862
 31
0.0
  0
LINE
  5
22096
330
22051
100
AcDbEntity
  8
0
  6
CONTINUOUS
100
AcDbLine
 10
30.65144941570831
 20
1.735597527646789
 30
0.0
 11
29.30199999996933
 21
3.085046943385775
 31
0.0
  0
LINE
  5
22097
330
22051
100
AcDbEntity
  8
0
  6
CONTINUOUS
100
AcDbLine
 10
23.71079143122431
 20
8.676255512130794
 30
0.0
 11
23.51071165584668
 21
8.876335287508416
 31
0.0
  0
LINE
  5
22098
330
22051
100
AcDbEntity
  8
0
  6
CONTINUOUS
100
AcDbLine
 10
30.73864552656466
 20
2.321920625870631
 30
0.0
 11
29.30199999996933
 21
3.758566152465961
 31
0.0
  0
LINE
  5
22099
330
22051
100
AcDbEntity
  8
0
  6
CONTINUOUS
100
AcDbLine
 10
30.74199999996924
 20
2.992085361546236
 30
0.0
 11
29.30199999996933
 21
4.432085361546148
 31
0.0
  0
LINE
  5
2209A
330
22051
100
AcDbEntity
  8
0
  6
CONTINUOUS
100
AcDbLine
 10
30.74199999996924
 20
3.665604570626419
 30
0.0
 11
29.30199999996933
 21
5.105604570626333
 31
0.0
  0
LINE
  5
2209B
330
22051
100
AcDbEntity
  8
0
  6
CONTINUOUS
100
AcDbLine
 10
30.74199999996925
 20
4.339123779706602
 30
0.0
 11
29.30199999996933
 21
5.77912377970652
 31
0.0
  0
LINE
  5
2209C
330
22051
100
AcDbEntity
  8
0
  6
CONTINUOUS
100
AcDbLine
 10
30.74199999996925
 20
5.012642988786785
 30
0.0
 11
29.30199999996933
 21
6.452642988786707
 31
0.0
  0
LINE
  5
2209D
330
22051
100
AcDbEntity
  8
0
  6
CONTINUOUS
100
AcDbLine
 10
30.74199999996925
 20
5.68616219786697
 30
0.0
 11
29.30199999996933
 21
7.126162197866894
 31
0.0
  0
LINE
  5
2209E
330
22051
100
AcDbEntity
  8
0
  6
CONTINUOUS
100
AcDbLine
 10
30.74199999996925
 20
6.359681406947153
 30
0.0
 11
29.30199999996933
 21
7.799681406947081
 31
0.0
  0
LINE
  5
2209F
330
22051
100
AcDbEntity
  8
0
  6
CONTINUOUS
100
AcDbLine
 10
30.74199999996926
 20
7.033200616027337
 30
0.0
 11
29.30199999996933
 21
8.473200616027269
 31
0.0
  0
LINE
  5
220A0
330
22051
100
AcDbEntity
  8
0
  6
CONTINUOUS
100
AcDbLine
 10
30.74199999996926
 20
7.706719825107518
 30
0.0
 11
29.68561982508552
 21
8.763099999991255
 31
0.0
  0
LINE
  5
220A1
330
22051
100
AcDbEntity
  8
0
  6
CONTINUOUS
100
AcDbLine
 10
30.74199999996926
 20
8.380239034187703
 30
0.0
 11
30.35913903416571
 21
8.763099999991255
 31
0.0
  0
ENDBLK
  5
22144
330
22051
100
AcDbEntity
  8
0
100
AcDbBlockEnd
  0
BLOCK
  5
22145
330
220A2
100
AcDbEntity
  8
0
100
AcDbBlockBegin
  2
*X118
 70
     1
 10
0.0
 20
0.0
 30
0.0
  3
*X118
  1

  0
LINE
  5
220A3
330
220A2
100
AcDbEntity
  8
0
  6
CONTINUOUS
100
AcDbLine
 10
31.64199999996833
 20
8.5350582899136
 30
0.0
 11
31.87004171004599
 21
8.763099999991255
 31
0.0
  0
LINE
  5
220A4
330
220A2
100
AcDbEntity
  8
0
  6
CONTINUOUS
100
AcDbLine
 10
31.64199999996833
 20
7.861539080833413
 30
0.0
 11
32.54356091912618
 21
8.763099999991255
 31
0.0
  0
LINE
  5
220A5
330
220A2
100
AcDbEntity
  8
0
  6
CONTINUOUS
100
AcDbLine
 10
31.64199999996833
 20
7.188019871753227
 30
0.0
 11
33.08199999996839
 21
8.628019871753281
 31
0.0
  0
LINE
  5
220A6
330
220A2
100
AcDbEntity
  8
0
  6
CONTINUOUS
100
AcDbLine
 10
31.64199999996833
 20
6.514500662673041
 30
0.0
 11
33.08199999996839
 21
7.954500662673095
 31
0.0
  0
LINE
  5
220A7
330
220A2
100
AcDbEntity
  8
0
  6
CONTINUOUS
100
AcDbLine
 10
31.64199999996833
 20
5.840981453592855
 30
0.0
 11
33.08199999996839
 21
7.28098145359291
 31
0.0
  0
LINE
  5
220A8
330
220A2
100
AcDbEntity
  8
0
  6
CONTINUOUS
100
AcDbLine
 10
31.64199999996833
 20
5.167462244512668
 30
0.0
 11
33.08199999996839
 21
6.607462244512723
 31
0.0
  0
LINE
  5
220A9
330
220A2
100
AcDbEntity
  8
0
  6
CONTINUOUS
100
AcDbLine
 10
31.64199999996833
 20
4.493943035432482
 30
0.0
 11
33.08199999996839
 21
5.933943035432536
 31
0.0
  0
LINE
  5
220AA
330
220A2
100
AcDbEntity
  8
0
  6
CONTINUOUS
100
AcDbLine
 10
31.64199999996833
 20
3.820423826352294
 30
0.0
 11
33.08199999996839
 21
5.260423826352349
 31
0.0
  0
LINE
  5
220AB
330
220A2
100
AcDbEntity
  8
0
  6
CONTINUOUS
100
AcDbLine
 10
31.64199999996833
 20
3.146904617272108
 30
0.0
 11
33.08199999996839
 21
4.586904617272163
 31
0.0
  0
LINE
  5
220AC
330
220A2
100
AcDbEntity
  8
0
  6
CONTINUOUS
100
AcDbLine
 10
36.23199999996837
 20
8.410423826352327
 30
0.0
 11
36.58467617360729
 21
8.763099999991255
 31
0.0
  0
LINE
  5
220AD
330
220A2
100
AcDbEntity
  8
0
  6
CONTINUOUS
100
AcDbLine
 10
36.23199999996837
 20
7.73690461727214
 30
0.0
 11
37.25819538268748
 21
8.763099999991255
 31
0.0
  0
LINE
  5
220AE
330
220A2
100
AcDbEntity
  8
0
  6
CONTINUOUS
100
AcDbLine
 10
31.64245318187395
 20
2.473838590097533
 30
0.0
 11
33.08199999996839
 21
3.913385408191976
 31
0.0
  0
LINE
  5
220AF
330
220A2
100
AcDbEntity
  8
0
  6
CONTINUOUS
100
AcDbLine
 10
36.23199999996837
 20
7.063385408191953
 30
0.0
 11
37.67199999996831
 21
8.503385408191894
 31
0.0
  0
LINE
  5
220B0
330
220A2
100
AcDbEntity
  8
0
  6
CONTINUOUS
100
AcDbLine
 10
31.71454007775861
 20
1.872406276902012
 30
0.0
 11
33.08199999996839
 21
3.239866199111789
 31
0.0
  0
LINE
  5
220B1
330
220A2
100
AcDbEntity
  8
0
  6
CONTINUOUS
100
AcDbLine
 10
36.23199999996837
 20
6.389866199111767
 30
0.0
 11
37.67199999996831
 21
7.829866199111708
 31
0.0
  0
LINE
  5
220B2
330
220A2
100
AcDbEntity
  8
0
  6
CONTINUOUS
100
AcDbLine
 10
31.89137743526572
 20
1.375724425328935
 30
0.0
 11
33.08199999996839
 21
2.566346990031603
 31
0.0
  0
LINE
  5
220B3
330
220A2
100
AcDbEntity
  8
0
  6
CONTINUOUS
100
AcDbLine
 10
36.23199999996837
 20
5.71634699003158
 30
0.0
 11
37.67199999996831
 21
7.156346990031522
 31
0.0
  0
LINE
  5
220B4
330
220A2
100
AcDbEntity
  8
0
  6
CONTINUOUS
100
AcDbLine
 10
32.14187615611716
 20
0.9527039371001833
 30
0.0
 11
33.19010715495784
 21
2.000934935940872
 31
0.0
  0
LINE
  5
220B5
330
220A2
100
AcDbEntity
  8
0
  6
CONTINUOUS
100
AcDbLine
 10
36.23199999996837
 20
5.042827780951393
 30
0.0
 11
37.67199999996831
 21
6.482827780951334
 31
0.0
  0
LINE
  5
220B6
330
220A2
100
AcDbEntity
  8
0
  6
CONTINUOUS
100
AcDbLine
 10
32.45360634899608
 20
0.5909149208989124
 30
0.0
 11
33.47398867460512
 21
1.611297246507967
 31
0.0
  0
LINE
  5
220B7
330
220A2
100
AcDbEntity
  8
0
  6
CONTINUOUS
100
AcDbLine
 10
36.23199999996837
 20
4.369308571871207
 30
0.0
 11
37.67199999996831
 21
5.809308571871148
 31
0.0
  0
LINE
  5
220B8
330
220A2
100
AcDbEntity
  8
0
  6
CONTINUOUS
100
AcDbLine
 10
32.83268796462238
 20
0.296477327445035
 30
0.0
 11
33.89485240336604
 21
1.358641766188692
 31
0.0
  0
LINE
  5
220B9
330
220A2
100
AcDbEntity
  8
0
  6
CONTINUOUS
100
AcDbLine
 10
36.23199999996837
 20
3.695789362791021
 30
0.0
 11
37.67199999996831
 21
5.135789362790963
 31
0.0
  0
LINE
  5
220BA
330
220A2
100
AcDbEntity
  8
0
  6
CONTINUOUS
100
AcDbLine
 10
33.26779879508795
 20
0.0580689488304138
 30
0.0
 11
34.43024232456766
 21
1.220512478310136
 31
0.0
  0
LINE
  5
220BB
330
220A2
100
AcDbEntity
  8
0
  6
CONTINUOUS
100
AcDbLine
 10
36.23199999996837
 20
3.022270153710834
 30
0.0
 11
37.67199999996831
 21
4.462270153710776
 31
0.0
  0
LINE
  5
220BC
330
220A2
100
AcDbEntity
  8
0
  6
CONTINUOUS
100
AcDbLine
 10
33.76860229595987
 20
-0.1146467593778464
 30
0.0
 11
35.1531201138478
 21
1.269871058510077
 31
0.0
  0
LINE
  5
220BD
330
220A2
100
AcDbEntity
  8
0
  6
CONTINUOUS
100
AcDbLine
 10
36.21926099594037
 20
2.336011940602655
 30
0.0
 11
37.67199999996831
 21
3.788750944630589
 31
0.0
  0
LINE
  5
220BE
330
220A2
100
AcDbEntity
  8
0
  6
CONTINUOUS
100
AcDbLine
 10
34.33665674311174
 20
-0.2201115213061664
 30
0.0
 11
37.67199999996831
 21
3.115231735550402
 31
0.0
  0
LINE
  5
220BF
330
220A2
100
AcDbEntity
  8
0
  6
CONTINUOUS
100
AcDbLine
 10
35.01199180569318
 20
-0.2182956678049122
 30
0.0
 11
37.66953193979786
 21
2.439244466299766
 31
0.0
  0
LINE
  5
220C0
330
220A2
100
AcDbEntity
  8
0
  6
CONTINUOUS
100
AcDbLine
 10
35.9093392486654
 20
0.0055325660871235
 30
0.0
 11
37.52393194428191
 21
1.620125261703632
 31
0.0
  0
LINE
  5
220C1
330
220A2
100
AcDbEntity
  8
0
  6
CONTINUOUS
100
AcDbLine
 10
32.56334917037493
 20
0.4972169820603449
 30
0.0
 11
32.24097481447853
 21
0.8195913379567479
 31
0.0
  0
LINE
  5
220C2
330
220A2
100
AcDbEntity
  8
0
  6
CONTINUOUS
100
AcDbLine
 10
33.87806167241977
 20
-0.1439763109042991
 30
0.0
 11
31.68194999643856
 21
2.052135365076909
 31
0.0
  0
LINE
  5
220C3
330
220A2
100
AcDbEntity
  8
0
  6
CONTINUOUS
100
AcDbLine
 10
34.6438134951692
 20
-0.2362089245735399
 30
0.0
 11
31.64199999996833
 21
2.765604570627322
 31
0.0
  0
LINE
  5
220C4
330
220A2
100
AcDbEntity
  8
0
  6
CONTINUOUS
100
AcDbLine
 10
35.26034813768996
 20
-0.1792243580141184
 30
0.0
 11
31.64199999996833
 21
3.439123779707508
 31
0.0
  0
LINE
  5
220C5
330
220A2
100
AcDbEntity
  8
0
  6
CONTINUOUS
100
AcDbLine
 10
35.79355560089346
 20
-0.0389126121374295
 30
0.0
 11
34.54600650718248
 21
1.208636481573547
 31
0.0
  0
LINE
  5
220C6
330
220A2
100
AcDbEntity
  8
0
  6
CONTINUOUS
100
AcDbLine
 10
33.08199999996839
 20
2.672642988787641
 30
0.0
 11
31.64199999996833
 21
4.112642988787695
 31
0.0
  0
LINE
  5
220C7
330
220A2
100
AcDbEntity
  8
0
  6
CONTINUOUS
100
AcDbLine
 10
36.26091969424284
 20
0.1672425035933776
 30
0.0
 11
35.15707210996673
 21
1.271090087869486
 31
0.0
  0
LINE
  5
220C8
330
220A2
100
AcDbEntity
  8
0
  6
CONTINUOUS
100
AcDbLine
 10
33.08199999996839
 20
3.346162197867827
 30
0.0
 11
31.64199999996833
 21
4.786162197867881
 31
0.0
  0
LINE
  5
220C9
330
220A2
100
AcDbEntity
  8
0
  6
CONTINUOUS
100
AcDbLine
 10
36.67116280062191
 20
0.430518606294497
 30
0.0
 11
35.63776098265718
 21
1.463920424259221
 31
0.0
  0
LINE
  5
220CA
330
220A2
100
AcDbEntity
  8
0
  6
CONTINUOUS
100
AcDbLine
 10
33.08199999996839
 20
4.019681406948013
 30
0.0
 11
31.64199999996833
 21
5.459681406948068
 31
0.0
  0
LINE
  5
220CB
330
220A2
100
AcDbEntity
  8
0
  6
CONTINUOUS
100
AcDbLine
 10
37.01762752504177
 20
0.7575730909548111
 30
0.0
 11
35.99425444172113
 21
1.780946174275458
 31
0.0
  0
LINE
  5
220CC
330
220A2
100
AcDbEntity
  8
0
  6
CONTINUOUS
100
AcDbLine
 10
33.08199999996839
 20
4.6932006160282
 30
0.0
 11
31.64199999996833
 21
6.133200616028255
 31
0.0
  0
LINE
  5
220CD
330
220A2
100
AcDbEntity
  8
0
  6
CONTINUOUS
100
AcDbLine
 10
37.30070982608557
 20
1.148009998991207
 30
0.0
 11
36.20493601160601
 21
2.243783813470765
 31
0.0
  0
LINE
  5
220CE
330
220A2
100
AcDbEntity
  8
0
  6
CONTINUOUS
100
AcDbLine
 10
33.08199999996839
 20
5.366719825108387
 30
0.0
 11
31.64199999996833
 21
6.806719825108441
 31
0.0
  0
LINE
  5
220CF
330
220A2
100
AcDbEntity
  8
0
  6
CONTINUOUS
100
AcDbLine
 10
37.51890498518586
 20
1.603334048971095
 30
0.0
 11
36.23199999996837
 21
2.890239034188595
 31
0.0
  0
LINE
  5
220D0
330
220A2
100
AcDbEntity
  8
0
  6
CONTINUOUS
100
AcDbLine
 10
33.08199999996839
 20
6.040239034188573
 30
0.0
 11
31.64199999996833
 21
7.480239034188628
 31
0.0
  0
LINE
  5
220D1
330
220A2
100
AcDbEntity
  8
0
  6
CONTINUOUS
100
AcDbLine
 10
37.64877435688007
 20
2.146983886357076
 30
0.0
 11
36.23199999996837
 21
3.563758243268782
 31
0.0
  0
LINE
  5
220D2
330
220A2
100
AcDbEntity
  8
0
  6
CONTINUOUS
100
AcDbLine
 10
33.08199999996839
 20
6.713758243268759
 30
0.0
 11
31.64199999996833
 21
8.153758243268815
 31
0.0
  0
LINE
  5
220D3
330
220A2
100
AcDbEntity
  8
0
  6
CONTINUOUS
100
AcDbLine
 10
37.67199999996831
 20
2.797277452349027
 30
0.0
 11
36.23199999996837
 21
4.237277452348969
 31
0.0
  0
LINE
  5
220D4
330
220A2
100
AcDbEntity
  8
0
  6
CONTINUOUS
100
AcDbLine
 10
37.67199999996831
 20
3.470796661429214
 30
0.0
 11
36.23199999996837
 21
4.910796661429155
 31
0.0
  0
LINE
  5
220D5
330
220A2
100
AcDbEntity
  8
0
  6
CONTINUOUS
100
AcDbLine
 10
37.67199999996831
 20
4.1443158705094
 30
0.0
 11
36.23199999996837
 21
5.584315870509341
 31
0.0
  0
LINE
  5
220D6
330
220A2
100
AcDbEntity
  8
0
  6
CONTINUOUS
100
AcDbLine
 10
33.08199999996839
 20
7.387277452348947
 30
0.0
 11
31.70617745232608
 21
8.763099999991255
 31
0.0
  0
LINE
  5
220D7
330
220A2
100
AcDbEntity
  8
0
  6
CONTINUOUS
100
AcDbLine
 10
33.08199999996839
 20
8.060796661429134
 30
0.0
 11
32.37969666140626
 21
8.763099999991255
 31
0.0
  0
LINE
  5
220D8
330
220A2
100
AcDbEntity
  8
0
  6
CONTINUOUS
100
AcDbLine
 10
33.08199999996839
 20
8.73431587050932
 30
0.0
 11
33.05321587048645
 21
8.763099999991255
 31
0.0
  0
LINE
  5
220D9
330
220A2
100
AcDbEntity
  8
0
  6
CONTINUOUS
100
AcDbLine
 10
37.67199999996831
 20
4.817835079589587
 30
0.0
 11
36.23199999996837
 21
6.257835079589528
 31
0.0
  0
LINE
  5
220DA
330
220A2
100
AcDbEntity
  8
0
  6
CONTINUOUS
100
AcDbLine
 10
37.67199999996831
 20
5.491354288669773
 30
0.0
 11
36.23199999996837
 21
6.931354288669715
 31
0.0
  0
LINE
  5
220DB
330
220A2
100
AcDbEntity
  8
0
  6
CONTINUOUS
100
AcDbLine
 10
37.67199999996831
 20
6.164873497749959
 30
0.0
 11
36.23199999996837
 21
7.6048734977499
 31
0.0
  0
LINE
  5
220DC
330
220A2
100
AcDbEntity
  8
0
  6
CONTINUOUS
100
AcDbLine
 10
37.67199999996831
 20
6.838392706830145
 30
0.0
 11
36.23199999996837
 21
8.278392706830086
 31
0.0
  0
LINE
  5
220DD
330
220A2
100
AcDbEntity
  8
0
  6
CONTINUOUS
100
AcDbLine
 10
37.67199999996831
 20
7.511911915910333
 30
0.0
 11
36.42081191588738
 21
8.763099999991255
 31
0.0
  0
LINE
  5
220DE
330
220A2
100
AcDbEntity
  8
0
  6
CONTINUOUS
100
AcDbLine
 10
37.67199999996831
 20
8.18543112499052
 30
0.0
 11
37.09433112496757
 21
8.763099999991255
 31
0.0
  0
ENDBLK
  5
22146
330
220A2
100
AcDbEntity
  8
0
100
AcDbBlockEnd
  0
BLOCK
  5
22147
330
220DF
100
AcDbEntity
  8
0
100
AcDbBlockBegin
  2
*X119
 70
     1
 10
0.0
 20
0.0
 30
0.0
  3
*X119
  1

  0
LINE
  5
220E0
330
220DF
100
AcDbEntity
  8
0
  6
CONTINUOUS
100
AcDbLine
 10
38.60499999996136
 20
8.762866199104765
 30
0.0
 11
38.71672554182345
 21
8.874591740966855
 31
0.0
  0
LINE
  5
220E1
330
220DF
100
AcDbEntity
  8
0
  6
CONTINUOUS
100
AcDbLine
 10
38.60499999996136
 20
8.089346990024577
 30
0.0
 11
39.03418785440363
 21
8.518534844466847
 31
0.0
  0
LINE
  5
220E2
330
220DF
100
AcDbEntity
  8
0
  6
CONTINUOUS
100
AcDbLine
 10
38.60499999996136
 20
7.41582778094439
 30
0.0
 11
39.35165016698382
 21
8.16247794796684
 31
0.0
  0
LINE
  5
220E3
330
220DF
100
AcDbEntity
  8
0
  6
CONTINUOUS
100
AcDbLine
 10
38.60499999996136
 20
6.742308571864204
 30
0.0
 11
39.66911247956399
 21
7.806421051466834
 31
0.0
  0
LINE
  5
220E4
330
220DF
100
AcDbEntity
  8
0
  6
CONTINUOUS
100
AcDbLine
 10
38.60499999996136
 20
6.068789362784018
 30
0.0
 11
39.98657479214418
 21
7.450364154966827
 31
0.0
  0
LINE
  5
220E5
330
220DF
100
AcDbEntity
  8
0
  6
CONTINUOUS
100
AcDbLine
 10
38.60499999996136
 20
5.395270153703832
 30
0.0
 11
40.30403710472435
 21
7.09430725846682
 31
0.0
  0
LINE
  5
220E6
330
220DF
100
AcDbEntity
  8
0
  6
CONTINUOUS
100
AcDbLine
 10
38.60499999996136
 20
4.721750944623645
 30
0.0
 11
40.62149941730453
 21
6.738250361966813
 31
0.0
  0
LINE
  5
220E7
330
220DF
100
AcDbEntity
  8
0
  6
CONTINUOUS
100
AcDbLine
 10
38.60499999996136
 20
4.048231735543458
 30
0.0
 11
40.93896172988471
 21
6.382193465466806
 31
0.0
  0
LINE
  5
220E8
330
220DF
100
AcDbEntity
  8
0
  6
CONTINUOUS
100
AcDbLine
 10
38.60499999996136
 20
3.374712526463272
 30
0.0
 11
40.02599999995994
 21
4.795712526461843
 31
0.0
  0
LINE
  5
220E9
330
220DF
100
AcDbEntity
  8
0
  6
CONTINUOUS
100
AcDbLine
 10
38.60499999996136
 20
2.701193317383085
 30
0.0
 11
40.02599999995994
 21
4.122193317381657
 31
0.0
  0
LINE
  5
220EA
330
220DF
100
AcDbEntity
  8
0
  6
CONTINUOUS
100
AcDbLine
 10
40.28339754687704
 20
5.053110073378947
 30
0.0
 11
41.25642404246489
 21
6.026136568966799
 31
0.0
  0
LINE
  5
220EB
330
220DF
100
AcDbEntity
  8
0
  6
CONTINUOUS
100
AcDbLine
 10
40.60085985945722
 20
4.697053176878939
 30
0.0
 11
41.57388635504507
 21
5.670079672466793
 31
0.0
  0
LINE
  5
220EC
330
220DF
100
AcDbEntity
  8
0
  6
CONTINUOUS
100
AcDbLine
 10
43.57899999995641
 20
8.348712526458318
 30
0.0
 11
43.99338747348935
 21
8.763099999991255
 31
0.0
  0
LINE
  5
220ED
330
220DF
100
AcDbEntity
  8
0
  6
CONTINUOUS
100
AcDbLine
 10
43.57899999995641
 20
7.675193317378131
 30
0.0
 11
44.66690668256953
 21
8.763099999991255
 31
0.0
  0
LINE
  5
220EE
330
220DF
100
AcDbEntity
  8
0
  6
CONTINUOUS
100
AcDbLine
 10
38.60499999996136
 20
2.027674108302898
 30
0.0
 11
40.02599999995994
 21
3.44867410830147
 31
0.0
  0
LINE
  5
220EF
330
220DF
100
AcDbEntity
  8
0
  6
CONTINUOUS
100
AcDbLine
 10
38.60499999996136
 20
1.354154899222712
 30
0.0
 11
40.02599999995994
 21
2.775154899221284
 31
0.0
  0
LINE
  5
220F0
330
220DF
100
AcDbEntity
  8
0
  6
CONTINUOUS
100
AcDbLine
 10
38.60499999996136
 20
0.6806356901425255
 30
0.0
 11
40.02599999995994
 21
2.101635690141098
 31
0.0
  0
LINE
  5
220F1
330
220DF
100
AcDbEntity
  8
0
  6
CONTINUOUS
100
AcDbLine
 10
38.60499999996136
 20
0.0071164810623383
 30
0.0
 11
40.02599999995994
 21
1.428116481060911
 31
0.0
  0
LINE
  5
220F2
330
220DF
100
AcDbEntity
  8
0
  6
CONTINUOUS
100
AcDbLine
 10
40.9183221720374
 20
4.340996280378933
 30
0.0
 11
41.89134866762525
 21
5.314022775966786
 31
0.0
  0
LINE
  5
220F3
330
220DF
100
AcDbEntity
  8
0
  6
CONTINUOUS
100
AcDbLine
 10
41.23578448461758
 20
3.984939383878926
 30
0.0
 11
42.20881098020543
 21
4.957965879466778
 31
0.0
  0
LINE
  5
220F4
330
220DF
100
AcDbEntity
  8
0
  6
CONTINUOUS
100
AcDbLine
 10
41.55324679719776
 20
3.628882487378919
 30
0.0
 11
42.52627329278561
 21
4.601908982966772
 31
0.0
  0
LINE
  5
220F5
330
220DF
100
AcDbEntity
  8
0
  6
CONTINUOUS
100
AcDbLine
 10
41.87070910977793
 20
3.272825590878912
 30
0.0
 11
42.84373560536579
 21
4.245852086466765
 31
0.0
  0
LINE
  5
220F6
330
220DF
100
AcDbEntity
  8
0
  6
CONTINUOUS
100
AcDbLine
 10
43.57899999995641
 20
7.001674108297943
 30
0.0
 11
44.99999999995498
 21
8.422674108296516
 31
0.0
  0
LINE
  5
220F7
330
220DF
100
AcDbEntity
  8
0
  6
CONTINUOUS
100
AcDbLine
 10
43.57899999995641
 20
6.328154899217758
 30
0.0
 11
44.99999999995498
 21
7.749154899216329
 31
0.0
  0
LINE
  5
220F8
330
220DF
100
AcDbEntity
  8
0
  6
CONTINUOUS
100
AcDbLine
 10
43.57899999995641
 20
5.654635690137571
 30
0.0
 11
44.99999999995498
 21
7.075635690136142
 31
0.0
  0
LINE
  5
220F9
330
220DF
100
AcDbEntity
  8
0
  6
CONTINUOUS
100
AcDbLine
 10
43.57899999995641
 20
4.981116481057384
 30
0.0
 11
44.99999999995498
 21
6.402116481055955
 31
0.0
  0
LINE
  5
220FA
330
220DF
100
AcDbEntity
  8
0
  6
CONTINUOUS
100
AcDbLine
 10
39.27140272797921
 20
-0.0000000000000009
 30
0.0
 11
40.02599999995994
 21
0.7545972719807246
 31
0.0
  0
LINE
  5
220FB
330
220DF
100
AcDbEntity
  8
0
  6
CONTINUOUS
100
AcDbLine
 10
39.9449219370594
 20
-0.0000000000000009
 30
0.0
 11
40.02599999995994
 21
0.0810780629005379
 31
0.0
  0
LINE
  5
220FC
330
220DF
100
AcDbEntity
  8
0
  6
CONTINUOUS
100
AcDbLine
 10
42.18817142235812
 20
2.916768694378905
 30
0.0
 11
43.16119791794597
 21
3.889795189966758
 31
0.0
  0
LINE
  5
220FD
330
220DF
100
AcDbEntity
  8
0
  6
CONTINUOUS
100
AcDbLine
 10
42.50563373493829
 20
2.560711797878898
 30
0.0
 11
43.47866023052615
 21
3.533738293466751
 31
0.0
  0
LINE
  5
220FE
330
220DF
100
AcDbEntity
  8
0
  6
CONTINUOUS
100
AcDbLine
 10
43.57899999995641
 20
4.307597271977198
 30
0.0
 11
44.99999999995498
 21
5.728597271975769
 31
0.0
  0
LINE
  5
220FF
330
220DF
100
AcDbEntity
  8
0
  6
CONTINUOUS
100
AcDbLine
 10
43.57899999995641
 20
3.634078062897011
 30
0.0
 11
44.99999999995498
 21
5.055078062895582
 31
0.0
  0
LINE
  5
22100
330
220DF
100
AcDbEntity
  8
0
  6
CONTINUOUS
100
AcDbLine
 10
42.82309604751848
 20
2.204654901378891
 30
0.0
 11
44.99999999995498
 21
4.381558853815395
 31
0.0
  0
LINE
  5
22101
330
220DF
100
AcDbEntity
  8
0
  6
CONTINUOUS
100
AcDbLine
 10
43.14055836009865
 20
1.848598004878885
 30
0.0
 11
44.99999999995498
 21
3.70803964473521
 31
0.0
  0
LINE
  5
22102
330
220DF
100
AcDbEntity
  8
0
  6
CONTINUOUS
100
AcDbLine
 10
43.45802067267883
 20
1.492541108378878
 30
0.0
 11
44.99999999995498
 21
3.034520435655023
 31
0.0
  0
LINE
  5
22103
330
220DF
100
AcDbEntity
  8
0
  6
CONTINUOUS
100
AcDbLine
 10
43.77548298525902
 20
1.136484211878871
 30
0.0
 11
44.99999999995498
 21
2.361001226574837
 31
0.0
  0
LINE
  5
22104
330
220DF
100
AcDbEntity
  8
0
  6
CONTINUOUS
100
AcDbLine
 10
44.09294529783919
 20
0.7804273153788639
 30
0.0
 11
44.99999999995498
 21
1.687482017494649
 31
0.0
  0
LINE
  5
22105
330
220DF
100
AcDbEntity
  8
0
  6
CONTINUOUS
100
AcDbLine
 10
44.41040761041938
 20
0.4243704188788566
 30
0.0
 11
44.99999999995498
 21
1.013962808414463
 31
0.0
  0
LINE
  5
22106
330
220DF
100
AcDbEntity
  8
0
  6
CONTINUOUS
100
AcDbLine
 10
44.72786992299955
 20
0.0683135223788494
 30
0.0
 11
44.99999999995498
 21
0.340443599334276
 31
0.0
  0
LINE
  5
22107
330
220DF
100
AcDbEntity
  8
0
  6
CONTINUOUS
100
AcDbLine
 10
39.12223903415696
 20
-0.0000000000000009
 30
0.0
 11
38.60499999996136
 21
0.5172390341955961
 31
0.0
  0
LINE
  5
22108
330
220DF
100
AcDbEntity
  8
0
  6
CONTINUOUS
100
AcDbLine
 10
39.79575824323715
 20
-0.0000000000000009
 30
0.0
 11
38.60499999996136
 21
1.190758243275783
 31
0.0
  0
LINE
  5
22109
330
220DF
100
AcDbEntity
  8
0
  6
CONTINUOUS
100
AcDbLine
 10
40.02599999995994
 20
0.443277452357397
 30
0.0
 11
38.60499999996136
 21
1.864277452355969
 31
0.0
  0
LINE
  5
2210A
330
220DF
100
AcDbEntity
  8
0
  6
CONTINUOUS
100
AcDbLine
 10
40.02599999995994
 20
1.116796661437583
 30
0.0
 11
38.60499999996136
 21
2.537796661436155
 31
0.0
  0
LINE
  5
2210B
330
220DF
100
AcDbEntity
  8
0
  6
CONTINUOUS
100
AcDbLine
 10
40.02599999995994
 20
1.79031587051777
 30
0.0
 11
38.60499999996136
 21
3.211315870516341
 31
0.0
  0
LINE
  5
2210C
330
220DF
100
AcDbEntity
  8
0
  6
CONTINUOUS
100
AcDbLine
 10
40.02599999995994
 20
2.463835079597956
 30
0.0
 11
38.60499999996136
 21
3.884835079596527
 31
0.0
  0
LINE
  5
2210D
330
220DF
100
AcDbEntity
  8
0
  6
CONTINUOUS
100
AcDbLine
 10
40.02599999995994
 20
3.137354288678143
 30
0.0
 11
38.60499999996136
 21
4.558354288676714
 31
0.0
  0
LINE
  5
2210E
330
220DF
100
AcDbEntity
  8
0
  6
CONTINUOUS
100
AcDbLine
 10
40.02599999995994
 20
3.810873497758329
 30
0.0
 11
38.60499999996136
 21
5.2318734977569
 31
0.0
  0
LINE
  5
2210F
330
220DF
100
AcDbEntity
  8
0
  6
CONTINUOUS
100
AcDbLine
 10
40.02599999995994
 20
4.484392706838515
 30
0.0
 11
38.60499999996136
 21
5.905392706837086
 31
0.0
  0
LINE
  5
22110
330
220DF
100
AcDbEntity
  8
0
  6
CONTINUOUS
100
AcDbLine
 10
44.99999999995498
 20
0.183911915923658
 30
0.0
 11
41.53858364506288
 21
3.64532827081576
 31
0.0
  0
LINE
  5
22111
330
220DF
100
AcDbEntity
  8
0
  6
CONTINUOUS
100
AcDbLine
 10
40.02599999995994
 20
5.157911915918703
 30
0.0
 11
38.60499999996136
 21
6.578911915917274
 31
0.0
  0
LINE
  5
22112
330
220DF
100
AcDbEntity
  8
0
  6
CONTINUOUS
100
AcDbLine
 10
44.99999999995498
 20
0.8574311250038447
 30
0.0
 11
38.60499999996136
 21
7.25243112499746
 31
0.0
  0
LINE
  5
22113
330
220DF
100
AcDbEntity
  8
0
  6
CONTINUOUS
100
AcDbLine
 10
44.99999999995498
 20
1.530950334084031
 30
0.0
 11
38.60499999996136
 21
7.925950334077647
 31
0.0
  0
LINE
  5
22114
330
220DF
100
AcDbEntity
  8
0
  6
CONTINUOUS
100
AcDbLine
 10
44.99999999995498
 20
2.204469543164218
 30
0.0
 11
43.57899999995641
 21
3.625469543162789
 31
0.0
  0
LINE
  5
22115
330
220DF
100
AcDbEntity
  8
0
  6
CONTINUOUS
100
AcDbLine
 10
41.89876730984767
 20
5.305702233271528
 30
0.0
 11
38.60499999996136
 21
8.599469543157834
 31
0.0
  0
LINE
  5
22116
330
220DF
100
AcDbEntity
  8
0
  6
CONTINUOUS
100
AcDbLine
 10
44.99999999995498
 20
2.877988752244405
 30
0.0
 11
43.57899999995641
 21
4.298988752242975
 31
0.0
  0
LINE
  5
22117
330
220DF
100
AcDbEntity
  8
0
  6
CONTINUOUS
100
AcDbLine
 10
44.99999999995498
 20
3.551507961324591
 30
0.0
 11
43.57899999995641
 21
4.972507961323163
 31
0.0
  0
LINE
  5
22118
330
220DF
100
AcDbEntity
  8
0
  6
CONTINUOUS
100
AcDbLine
 10
44.99999999995498
 20
4.225027170404777
 30
0.0
 11
43.57899999995641
 21
5.646027170403348
 31
0.0
  0
LINE
  5
22119
330
220DF
100
AcDbEntity
  8
0
  6
CONTINUOUS
100
AcDbLine
 10
44.99999999995498
 20
4.898546379484964
 30
0.0
 11
43.57899999995641
 21
6.319546379483535
 31
0.0
  0
LINE
  5
2211A
330
220DF
100
AcDbEntity
  8
0
  6
CONTINUOUS
100
AcDbLine
 10
44.99999999995498
 20
5.572065588565151
 30
0.0
 11
43.57899999995641
 21
6.993065588563722
 31
0.0
  0
LINE
  5
2211B
330
220DF
100
AcDbEntity
  8
0
  6
CONTINUOUS
100
AcDbLine
 10
44.99999999995498
 20
6.245584797645336
 30
0.0
 11
43.57899999995641
 21
7.666584797643908
 31
0.0
  0
LINE
  5
2211C
330
220DF
100
AcDbEntity
  8
0
  6
CONTINUOUS
100
AcDbLine
 10
44.99999999995498
 20
6.919104006725522
 30
0.0
 11
43.57899999995641
 21
8.340104006724093
 31
0.0
  0
LINE
  5
2211D
330
220DF
100
AcDbEntity
  8
0
  6
CONTINUOUS
100
AcDbLine
 10
44.99999999995498
 20
7.592623215805709
 30
0.0
 11
43.82952321576943
 21
8.763099999991255
 31
0.0
  0
LINE
  5
2211E
330
220DF
100
AcDbEntity
  8
0
  6
CONTINUOUS
100
AcDbLine
 10
44.99999999995498
 20
8.266142424885896
 30
0.0
 11
44.50304242484962
 21
8.763099999991255
 31
0.0
  0
ENDBLK
  5
22148
330
220DF
100
AcDbEntity
  8
0
100
AcDbBlockEnd
  0
BLOCK
  5
22149
330
2211F
100
AcDbEntity
  8
0
100
AcDbBlockBegin
  2
*X120
 70
     1
 10
0.0
 20
0.0
 30
0.0
  3
*X120
  1

  0
LINE
  5
22120
330
2211F
100
AcDbEntity
  8
0
  6
CONTINUOUS
100
AcDbLine
 10
0.0
 20
8.548461116714023
 30
0.0
 11
0.2146388832772324
 21
8.763099999991255
 31
0.0
  0
LINE
  5
22121
330
2211F
100
AcDbEntity
  8
0
  6
CONTINUOUS
100
AcDbLine
 10
-0.0000000000000002
 20
7.874941907633837
 30
0.0
 11
0.8881580923574184
 21
8.763099999991255
 31
0.0
  0
LINE
  5
22122
330
2211F
100
AcDbEntity
  8
0
  6
CONTINUOUS
100
AcDbLine
 10
0.0
 20
7.20142269855365
 30
0.0
 11
1.420999999998572
 21
8.622422698552223
 31
0.0
  0
LINE
  5
22123
330
2211F
100
AcDbEntity
  8
0
  6
CONTINUOUS
100
AcDbLine
 10
-0.0000000000000001
 20
6.527903489473465
 30
0.0
 11
1.420999999998571
 21
7.948903489472036
 31
0.0
  0
LINE
  5
22124
330
2211F
100
AcDbEntity
  8
0
  6
CONTINUOUS
100
AcDbLine
 10
-0.0000000000000002
 20
5.854384280393278
 30
0.0
 11
1.420999999998571
 21
7.275384280391849
 31
0.0
  0
LINE
  5
22125
330
2211F
100
AcDbEntity
  8
0
  6
CONTINUOUS
100
AcDbLine
 10
-0.0000000000000002
 20
5.180865071313091
 30
0.0
 11
1.420999999998571
 21
6.601865071311663
 31
0.0
  0
LINE
  5
22126
330
2211F
100
AcDbEntity
  8
0
  6
CONTINUOUS
100
AcDbLine
 10
0.0
 20
4.507345862232905
 30
0.0
 11
1.420999999998571
 21
5.928345862231477
 31
0.0
  0
LINE
  5
22127
330
2211F
100
AcDbEntity
  8
0
  6
CONTINUOUS
100
AcDbLine
 10
-0.0000000000000003
 20
3.833826653152718
 30
0.0
 11
1.420999999998571
 21
5.25482665315129
 31
0.0
  0
LINE
  5
22128
330
2211F
100
AcDbEntity
  8
0
  6
CONTINUOUS
100
AcDbLine
 10
-0.0000000000000002
 20
3.160307444072532
 30
0.0
 11
1.420999999998571
 21
4.581307444071103
 31
0.0
  0
LINE
  5
22129
330
2211F
100
AcDbEntity
  8
0
  6
CONTINUOUS
100
AcDbLine
 10
-0.0000000000000001
 20
2.486788234992345
 30
0.0
 11
1.420999999998571
 21
3.907788234990917
 31
0.0
  0
LINE
  5
2212A
330
2211F
100
AcDbEntity
  8
0
  6
CONTINUOUS
100
AcDbLine
 10
-0.0000000000000006
 20
1.813269025912159
 30
0.0
 11
1.420999999998571
 21
3.234269025910731
 31
0.0
  0
LINE
  5
2212B
330
2211F
100
AcDbEntity
  8
0
  6
CONTINUOUS
100
AcDbLine
 10
0.0
 20
1.139749816831973
 30
0.0
 11
1.420999999998571
 21
2.560749816830544
 31
0.0
  0
LINE
  5
2212C
330
2211F
100
AcDbEntity
  8
0
  6
CONTINUOUS
100
AcDbLine
 10
0.0000000000000002
 20
0.466230607751787
 30
0.0
 11
1.420999999998571
 21
1.887230607750358
 31
0.0
  0
LINE
  5
2212D
330
2211F
100
AcDbEntity
  8
0
  6
CONTINUOUS
100
AcDbLine
 10
0.2072886013284003
 20
-0.0000000000000009
 30
0.0
 11
1.420999999998571
 21
1.213711398670171
 31
0.0
  0
LINE
  5
2212E
330
2211F
100
AcDbEntity
  8
0
  6
CONTINUOUS
100
AcDbLine
 10
0.8808078104085864
 20
-0.0000000000000009
 30
0.0
 11
1.420999999998571
 21
0.5401921895899839
 31
0.0
  0
LINE
  5
2212F
330
2211F
100
AcDbEntity
  8
0
  6
CONTINUOUS
100
AcDbLine
 10
0.0581249075061505
 20
-0.0000000000000009
 30
0.0
 11
-0.0000000000000002
 21
0.0581249075061496
 31
0.0
  0
LINE
  5
22130
330
2211F
100
AcDbEntity
  8
0
  6
CONTINUOUS
100
AcDbLine
 10
0.7316441165863372
 20
-0.0000000000000009
 30
0.0
 11
-0.0000000000000002
 21
0.7316441165863363
 31
0.0
  0
LINE
  5
22131
330
2211F
100
AcDbEntity
  8
0
  6
CONTINUOUS
100
AcDbLine
 10
1.405163325666523
 20
-0.0000000000000009
 30
0.0
 11
-0.0000000000000002
 21
1.405163325666523
 31
0.0
  0
LINE
  5
22132
330
2211F
100
AcDbEntity
  8
0
  6
CONTINUOUS
100
AcDbLine
 10
1.420999999998572
 20
0.6576825347481381
 30
0.0
 11
-0.0000000000000001
 21
2.07868253474671
 31
0.0
  0
LINE
  5
22133
330
2211F
100
AcDbEntity
  8
0
  6
CONTINUOUS
100
AcDbLine
 10
1.420999999998571
 20
1.331201743828324
 30
0.0
 11
-0.0000000000000001
 21
2.752201743826896
 31
0.0
  0
LINE
  5
22134
330
2211F
100
AcDbEntity
  8
0
  6
CONTINUOUS
100
AcDbLine
 10
1.420999999998571
 20
2.004720952908511
 30
0.0
 11
-0.0000000000000002
 21
3.425720952907082
 31
0.0
  0
LINE
  5
22135
330
2211F
100
AcDbEntity
  8
0
  6
CONTINUOUS
100
AcDbLine
 10
1.420999999998571
 20
2.678240161988697
 30
0.0
 11
-0.0000000000000001
 21
4.099240161987269
 31
0.0
  0
LINE
  5
22136
330
2211F
100
AcDbEntity
  8
0
  6
CONTINUOUS
100
AcDbLine
 10
1.420999999998572
 20
3.351759371068884
 30
0.0
 11
0.0
 21
4.772759371067455
 31
0.0
  0
LINE
  5
22137
330
2211F
100
AcDbEntity
  8
0
  6
CONTINUOUS
100
AcDbLine
 10
1.420999999998571
 20
4.02527858014907
 30
0.0
 11
-0.0000000000000003
 21
5.446278580147642
 31
0.0
  0
LINE
  5
22138
330
2211F
100
AcDbEntity
  8
0
  6
CONTINUOUS
100
AcDbLine
 10
1.420999999998571
 20
4.698797789229257
 30
0.0
 11
0.0
 21
6.119797789227828
 31
0.0
  0
LINE
  5
22139
330
2211F
100
AcDbEntity
  8
0
  6
CONTINUOUS
100
AcDbLine
 10
1.420999999998571
 20
5.372316998309444
 30
0.0
 11
-0.0000000000000001
 21
6.793316998308015
 31
0.0
  0
LINE
  5
2213A
330
2211F
100
AcDbEntity
  8
0
  6
CONTINUOUS
100
AcDbLine
 10
1.420999999998572
 20
6.045836207389629
 30
0.0
 11
-0.0000000000000004
 21
7.466836207388202
 31
0.0
  0
LINE
  5
2213B
330
2211F
100
AcDbEntity
  8
0
  6
CONTINUOUS
100
AcDbLine
 10
1.420999999998571
 20
6.719355416469816
 30
0.0
 11
0.0
 21
8.140355416468388
 31
0.0
  0
LINE
  5
2213C
330
2211F
100
AcDbEntity
  8
0
  6
CONTINUOUS
100
AcDbLine
 10
1.420999999998571
 20
7.392874625550003
 30
0.0
 11
0.0507746255573185
 21
8.763099999991255
 31
0.0
  0
LINE
  5
2213D
330
2211F
100
AcDbEntity
  8
0
  6
CONTINUOUS
100
AcDbLine
 10
1.420999999998571
 20
8.06639383463019
 30
0.0
 11
0.7242938346375052
 21
8.763099999991255
 31
0.0
  0
LINE
  5
2213E
330
2211F
100
AcDbEntity
  8
0
  6
CONTINUOUS
100
AcDbLine
 10
1.420999999998571
 20
8.739913043710375
 30
0.0
 11
1.397813043717691
 21
8.763099999991255
 31
0.0
  0
ENDBLK
  5
2214A
330
2211F
100
AcDbEntity
  8
0
100
AcDbBlockEnd
  0
ENDSEC
  0
SECTION
  2
ENTITIES
  0
LINE
  5
1F823
330
18
100
AcDbEntity
  8
1DIM
100
AcDbLine
 10
759.4666856661512
 20
-572.6670975411417
 30
0.0
 11
899.4666856661512
 21
-572.6670975411417
 31
0.0
  0
LINE
  5
1F828
330
18
100
AcDbEntity
  8
1DIM
100
AcDbLine
 10
759.4666856661512
 20
-614.6670975411417
 30
0.0
 11
759.4666856661512
 21
-572.6670975411417
 31
0.0
  0
TEXT
  5
1F82A
330
18
100
AcDbEntity
  8
1TEXT
100
AcDbText
 10
759.4666856661512
 20
-562.6670975411417
 30
0.0
 40
16.0
  1
K-SE-084-X-090
100
AcDbText
  0
TEXT
  5
1F830
330
18
100
AcDbEntity
  8
1TEXT
100
AcDbText
 10
839.5666856661504
 20
-583.6670975411417
 30
0.0
 40
8.0
  1
表面処理：天板
 41
0.75
 72
     1
 11
864.2666856661505
 21
-583.6670975411417
 31
0.0
100
AcDbText
  0
TEXT
  5
1F831
330
18
100
AcDbEntity
  8
1TEXT
100
AcDbText
 10
846.4000189994838
 20
-597.3376748601905
 30
0.0
 40
8.0
  1
ホワイト
 72
     1
 11
864.2666856661505
 21
-597.3376748601905
 31
0.0
100
AcDbText
  0
LINE
  5
1F832
330
18
100
AcDbEntity
  8
1DIM
100
AcDbLine
 10
759.4666856661512
 20
-572.6670975411417
 30
0.0
 11
969.4666856661512
 21
-572.6670975411417
 31
0.0
  0
LINE
  5
1F833
330
18
100
AcDbEntity
  8
1DIM
100
AcDbLine
 10
759.4666856661512
 20
-600.6670975411417
 30
0.0
 11
969.4666856661512
 21
-600.6670975411417
 31
0.0
  0
LINE
  5
1F834
330
18
100
AcDbEntity
  8
1DIM
100
AcDbLine
 10
759.4666856661512
 20
-586.6670975411417
 30
0.0
 11
969.4666856661512
 21
-586.6670975411417
 31
0.0
  0
LINE
  5
1F835
330
18
100
AcDbEntity
  8
1DIM
100
AcDbLine
 10
759.4666856661512
 20
-614.6670975411417
 30
0.0
 11
969.4666856661512
 21
-614.6670975411417
 31
0.0
  0
LINE
  5
1F836
330
18
100
AcDbEntity
  8
1DIM
100
AcDbLine
 10
899.4666856661512
 20
-572.6670975411417
 30
0.0
 11
899.4666856661512
 21
-614.6670975411417
 31
0.0
  0
TEXT
  5
1F837
330
18
100
AcDbEntity
  8
1TEXT
100
AcDbText
 10
920.5333523328171
 20
-583.6670975411417
 30
0.0
 40
8.0
  1
コード
 72
     1
 11
934.2666856661505
 21
-583.6670975411417
 31
0.0
100
AcDbText
  0
LINE
  5
1F838
330
18
100
AcDbEntity
  8
1DIM
100
AcDbLine
 10
829.4666856661512
 20
-614.6670975411417
 30
0.0
 11
829.4666856661512
 21
-572.6670975411417
 31
0.0
  0
LINE
  5
1F839
330
18
100
AcDbEntity
  8
1DIM
100
AcDbLine
 10
969.4666856661512
 20
-614.6670975411417
 30
0.0
 11
969.4666856661512
 21
-572.6670975411417
 31
0.0
  0
TEXT
  5
1F83A
330
18
100
AcDbEntity
  8
1TEXT
100
AcDbText
 10
846.2666856661505
 20
-611.3376748601905
 30
0.0
 40
8.0
  1
ブラック
 72
     1
 11
864.2666856661505
 21
-611.3376748601905
 31
0.0
100
AcDbText
  0
TEXT
  5
1F83B
330
18
100
AcDbEntity
  8
1TEXT
100
AcDbText
 10
762.3666856661505
 20
-583.6670975411417
 30
0.0
 40
8.0
  1
表面処理：フレーム
 41
0.75
 72
     1
 11
794.2666856661505
 21
-583.6670975411417
 31
0.0
100
AcDbText
  0
TEXT
  5
1F83C
330
18
100
AcDbEntity
  8
1TEXT
100
AcDbText
 10
776.4000189994838
 20
-597.3376748601905
 30
0.0
 40
8.0
  1
ホワイト
 72
     1
 11
794.2666856661505
 21
-597.3376748601905
 31
0.0
100
AcDbText
  0
TEXT
  5
1F83D
330
18
100
AcDbEntity
  8
1TEXT
100
AcDbText
 10
776.2666856661505
 20
-611.3376748601905
 30
0.0
 40
8.0
  1
ブラック
 72
     1
 11
794.2666856661505
 21
-611.3376748601905
 31
0.0
100
AcDbText
  0
LINE
  5
1F83E
330
18
100
AcDbEntity
  8
1DIM
100
AcDbLine
 10
759.4666856661512
 20
-614.6670975411417
 30
0.0
 11
759.4666856661512
 21
-572.6670975411417
 31
0.0
  0
TEXT
  5
1F845
330
18
100
AcDbEntity
  8
1TEXT
100
AcDbText
 10
902.4293928914531
 20
-598.0958115084403
 30
0.0
 40
8.0
  1
K-SE-084-067S-090
 41
0.5
 72
     1
 11
934.5275410396013
 21
-598.0958115084403
 31
0.0
100
AcDbText
  0
TEXT
  5
1F846
330
18
100
AcDbEntity
  8
1TEXT
100
AcDbText
 10
902.4293928914531
 20
-612.0958115084403
 30
0.0
 40
8.0
  1
K-SE-084-068K-090
 41
0.5
 72
     1
 11
934.5275410396013
 21
-612.0958115084403
 31
0.0
100
AcDbText
  0
LINE
  5
20596
330
18
100
AcDbEntity
  8
01
100
AcDbLine
 10
757.8690876451773
 20
-665.2404999093111
 30
0.0
 11
823.8690876451773
 21
-665.2404999093111
 31
0.0
  0
LINE
  5
20599
330
18
100
AcDbEntity
  8
01
100
AcDbLine
 10
889.8690876451773
 20
-665.2404999093111
 30
0.0
 11
823.8690876451773
 21
-665.2404999093111
 31
0.0
  0
LINE
  5
2059E
330
18
100
AcDbEntity
  8
01
100
AcDbLine
 10
-269.8116059229635
 20
-665.2404999093111
 30
0.0
 11
630.1883940770365
 21
-665.2404999093111
 31
0.0
  0
LINE
  5
2059F
330
18
100
AcDbEntity
  8
01
100
AcDbLine
 10
-268.8116059229635
 20
-681.2404999093111
 30
0.0
 11
629.1883940770362
 21
-681.2404999093111
 31
0.0
  0
LINE
  5
205A0
330
18
100
AcDbEntity
  8
01
100
AcDbLine
 10
630.1883940770362
 20
-407.0429532350867
 30
0.0
 11
-269.8116059229638
 21
-407.0429532350867
 31
0.0
  0
LINE
  5
205A1
330
18
100
AcDbEntity
  8
01
100
AcDbLine
 10
630.1883940770362
 20
-539.0429532350871
 30
0.0
 11
-269.8116059229638
 21
-539.0429532350871
 31
0.0
  0
LINE
  5
205A2
330
18
100
AcDbEntity
  8
01
100
AcDbLine
 10
-269.8116059229638
 20
-539.0429532350871
 30
0.0
 11
-269.8116059229638
 21
-407.0429532350867
 31
0.0
  0
LINE
  5
205A3
330
18
100
AcDbEntity
  8
01
100
AcDbLine
 10
630.1883940770362
 20
-539.0429532350871
 30
0.0
 11
630.1883940770362
 21
-407.0429532350867
 31
0.0
  0
LINE
  5
205B0
330
18
100
AcDbEntity
  8
01
100
AcDbLine
 10
757.8690876451773
 20
-665.2404999093111
 30
0.0
 11
757.8690876451773
 21
-651.2404999093111
 31
0.0
  0
LINE
  5
205B1
330
18
100
AcDbEntity
  8
01
100
AcDbLine
 10
889.8690876451773
 20
-665.2404999093111
 30
0.0
 11
889.8690876451773
 21
-651.2404999093111
 31
0.0
  0
LINE
  5
205B2
330
18
100
AcDbEntity
  8
01
100
AcDbLine
 10
757.8690876451773
 20
-651.2404999093111
 30
0.0
 11
889.8690876451773
 21
-651.2404999093111
 31
0.0
  0
LINE
  5
205B3
330
18
100
AcDbEntity
  8
01
100
AcDbLine
 10
-269.8116059229635
 20
-665.2404999093111
 30
0.0
 11
-269.8116059229635
 21
-651.2404999093111
 31
0.0
  0
LINE
  5
205B4
330
18
100
AcDbEntity
  8
01
100
AcDbLine
 10
630.1883940770365
 20
-665.2404999093111
 30
0.0
 11
630.1883940770365
 21
-651.2404999093111
 31
0.0
  0
LINE
  5
205B6
330
18
100
AcDbEntity
  8
01
100
AcDbLine
 10
630.1883940770365
 20
-651.2404999093111
 30
0.0
 11
-269.8116059229635
 21
-651.2404999093111
 31
0.0
  0
LINE
  5
205BA
330
18
100
AcDbEntity
  8
01
100
AcDbLine
 10
-268.8116059229635
 20
-735.2404999093111
 30
0.0
 11
629.1883940770362
 21
-735.2404999093111
 31
0.0
  0
LINE
  5
205BB
330
18
100
AcDbEntity
  8
01
100
AcDbLine
 10
-268.8116059229635
 20
-681.2404999093111
 30
0.0
 11
629.1883940770362
 21
-681.2404999093111
 31
0.0
  0
LINE
  5
205C1
330
18
100
AcDbEntity
  8
01
100
AcDbLine
 10
-268.8116059229635
 20
-735.2404999093111
 30
0.0
 11
629.1883940770362
 21
-735.2404999093111
 31
0.0
  0
LINE
  5
205C3
330
18
100
AcDbEntity
  8
01
100
AcDbLine
 10
-268.8116059229635
 20
-735.2404999093111
 30
0.0
 11
629.1883940770362
 21
-735.2404999093111
 31
0.0
  0
LINE
  5
205C4
330
18
100
AcDbEntity
  8
01
100
AcDbLine
 10
-268.8116059229635
 20
-735.2404999093111
 30
0.0
 11
629.188394077036
 21
-735.2404999093111
 31
0.0
  0
LINE
  5
205C8
330
18
100
AcDbEntity
  8
01
100
AcDbLine
 10
-268.8116059229635
 20
-735.2404999093111
 30
0.0
 11
629.188394077036
 21
-735.2404999093111
 31
0.0
  0
LINE
  5
205C9
330
18
100
AcDbEntity
  8
01
100
AcDbLine
 10
-268.8116059229635
 20
-735.2404999093111
 30
0.0
 11
629.188394077036
 21
-735.2404999093111
 31
0.0
  0
LINE
  5
205CA
330
18
100
AcDbEntity
  8
01
100
AcDbLine
 10
629.1883940770356
 20
-665.2404999093111
 30
0.0
 11
629.1883940770356
 21
-681.2404999093111
 31
0.0
  0
LINE
  5
205CE
330
18
100
AcDbEntity
  8
01
100
AcDbLine
 10
338.1883940770363
 20
-719.2404999093111
 30
0.0
 11
613.188394077036
 21
-719.2404999093111
 31
0.0
  0
LINE
  5
205CF
330
18
100
AcDbEntity
  8
01
100
AcDbLine
 10
180.1883940770365
 20
-719.2404999093111
 30
0.0
 11
322.1883940770363
 21
-719.2404999093111
 31
0.0
  0
LINE
  5
205D5
330
18
100
AcDbEntity
  8
1CENTER
100
AcDbLine
 10
614.4383476959717
 20
-700.2404706794496
 30
0.0
 11
627.9383476959717
 21
-700.2404706794496
 31
0.0
  0
LINE
  5
205D6
330
18
100
AcDbEntity
  8
1CENTER
100
AcDbLine
 10
621.1883476959717
 20
-706.9904706794496
 30
0.0
 11
621.1883476959717
 21
-693.4904706794496
 31
0.0
  0
LINE
  5
205DA
330
18
100
AcDbEntity
  8
01
100
AcDbLine
 10
22.18839407703675
 20
-719.2404999093111
 30
0.0
 11
-253.8116059229635
 21
-719.2404999093111
 31
0.0
  0
LINE
  5
205DB
330
18
100
AcDbEntity
  8
01
100
AcDbLine
 10
180.1883940770365
 20
-719.2404999093111
 30
0.0
 11
38.18839407703675
 21
-719.2404999093111
 31
0.0
  0
LINE
  5
20F49
330
18
100
AcDbEntity
  8
01
100
AcDbLine
 10
-268.8116059229635
 20
-735.2404999093111
 30
0.0
 11
-268.8116059229635
 21
-719.2404999093111
 31
0.0
  0
LINE
  5
20F4A
330
18
100
AcDbEntity
  8
01
100
AcDbLine
 10
630.1883940770365
 20
-665.2404999093111
 30
0.0
 11
630.1883940770365
 21
-651.2404999093111
 31
0.0
  0
LINE
  5
211BE
330
18
100
AcDbEntity
  8
01
100
AcDbLine
 10
889.8690876451773
 20
-679.8404999093124
 30
0.0
 11
889.8690876451773
 21
-701.9904999093138
 31
0.0
  0
LINE
  5
211BF
330
18
100
AcDbEntity
  8
01
100
AcDbLine
 10
889.8690876451773
 20
-682.3404999093128
 30
0.0
 11
889.8690876451773
 21
-699.9904999093125
 31
0.0
  0
LINE
  5
211C0
330
18
100
AcDbEntity
  8
01
100
AcDbLine
 10
902.3690876451773
 20
-647.7623263240308
 30
0.0
 11
902.3690876451773
 21
-764.4832835461685
 31
0.0
  0
LINE
  5
211C1
330
18
100
AcDbEntity
  8
01
100
AcDbLine
 10
911.3690876451773
 20
-647.7623263240308
 30
0.0
 11
911.3690876451773
 21
-764.4832835461685
 31
0.0
  0
LINE
  5
211C2
330
18
100
AcDbEntity
  8
01
100
AcDbLine
 10
889.8690876451773
 20
-647.7623263240308
 30
0.0
 11
889.8690876451773
 21
-764.4832835461685
 31
0.0
  0
LINE
  5
211DE
330
18
100
AcDbEntity
  8
01
100
AcDbLine
 10
757.8690876451773
 20
-665.2404999093111
 30
0.0
 11
823.8690876451773
 21
-665.2404999093111
 31
0.0
  0
LINE
  5
211DF
330
18
100
AcDbEntity
  8
01
100
AcDbLine
 10
758.8690876451773
 20
-681.2404999093111
 30
0.0
 11
823.8690876451773
 21
-681.2404999093111
 31
0.0
  0
LINE
  5
211E0
330
18
100
AcDbEntity
  8
01
100
AcDbLine
 10
889.8690876451773
 20
-665.2404999093111
 30
0.0
 11
823.8690876451773
 21
-665.2404999093111
 31
0.0
  0
LINE
  5
211E2
330
18
100
AcDbEntity
  8
01
100
AcDbLine
 10
889.8690876451773
 20
-683.2404999093111
 30
0.0
 11
889.8690876451773
 21
-735.2404999093111
 31
0.0
  0
LINE
  5
211E3
330
18
100
AcDbEntity
  8
01
100
AcDbLine
 10
889.8690876451773
 20
-681.2404999093111
 30
0.0
 11
889.8690876451773
 21
-735.2404999093111
 31
0.0
  0
LINE
  5
211E4
330
18
100
AcDbEntity
  8
01
100
AcDbLine
 10
889.8690876451773
 20
-665.2404999093111
 30
0.0
 11
889.8690876451773
 21
-681.2404999093111
 31
0.0
  0
LINE
  5
211E7
330
18
100
AcDbEntity
  8
01
100
AcDbLine
 10
630.1883940770364
 20
-407.0429532350864
 30
0.0
 11
30.18839407703619
 21
-407.0429532350864
 31
0.0
  0
LINE
  5
211F1
330
18
100
AcDbEntity
  8
01
100
AcDbLine
 10
889.8690876451773
 20
-735.2404999093111
 30
0.0
 11
873.8690876451773
 21
-735.2404999093111
 31
0.0
  0
LINE
  5
21201
330
18
100
AcDbEntity
  8
01
100
AcDbLine
 10
758.8690876451773
 20
-665.2404999093111
 30
0.0
 11
758.8690876451773
 21
-681.2404999093111
 31
0.0
  0
LINE
  5
21209
330
18
100
AcDbEntity
  8
01
100
AcDbLine
 10
758.8690876451773
 20
-681.2404999093111
 30
0.0
 11
889.8690876451773
 21
-681.2404999093111
 31
0.0
  0
LINE
  5
2120B
330
18
100
AcDbEntity
  8
01
100
AcDbLine
 10
889.8690876451773
 20
-735.2404999093111
 30
0.0
 11
873.8690876451773
 21
-735.2404999093111
 31
0.0
  0
LINE
  5
21214
330
18
100
AcDbEntity
  8
01
100
AcDbLine
 10
887.3690876451773
 20
-699.7404708294499
 30
0.0
 11
888.3690876451773
 21
-700.7404705294499
 31
0.0
  0
LINE
  5
21215
330
18
100
AcDbEntity
  8
01
100
AcDbLine
 10
887.3690876451773
 20
-696.44047067945
 30
0.0
 11
888.3690876451773
 21
-696.44047067945
 31
0.0
  0
LINE
  5
21216
330
18
100
AcDbEntity
  8
01
100
AcDbLine
 10
888.3690876451773
 20
-696.44047067945
 30
0.0
 11
888.3690876451773
 21
-704.0404706794499
 31
0.0
  0
LINE
  5
21217
330
18
100
AcDbEntity
  8
01
100
AcDbLine
 10
887.3690876451773
 20
-696.44047067945
 30
0.0
 11
887.3690876451773
 21
-704.0404706794499
 31
0.0
  0
LINE
  5
21218
330
18
100
AcDbEntity
  8
01
100
AcDbLine
 10
887.3690876451773
 20
-704.0404706794499
 30
0.0
 11
888.3690876451773
 21
-704.0404706794499
 31
0.0
  0
LINE
  5
2121A
330
18
100
AcDbEntity
  8
01
100
AcDbLine
 10
620.6883478459725
 20
-409.5429532350864
 30
0.0
 11
621.6883475459725
 21
-408.5429532350864
 31
0.0
  0
LINE
  5
2121B
330
18
100
AcDbEntity
  8
01
100
AcDbLine
 10
617.3883476959726
 20
-409.5429532350864
 30
0.0
 11
617.3883476959726
 21
-408.5429532350864
 31
0.0
  0
LINE
  5
2121C
330
18
100
AcDbEntity
  8
01
100
AcDbLine
 10
617.3883476959726
 20
-408.5429532350864
 30
0.0
 11
624.9883476959725
 21
-408.5429532350864
 31
0.0
  0
LINE
  5
2121D
330
18
100
AcDbEntity
  8
01
100
AcDbLine
 10
617.3883476959726
 20
-409.5429532350864
 30
0.0
 11
624.9883476959725
 21
-409.5429532350864
 31
0.0
  0
LINE
  5
2121E
330
18
100
AcDbEntity
  8
01
100
AcDbLine
 10
624.9883476959725
 20
-409.5429532350864
 30
0.0
 11
624.9883476959725
 21
-408.5429532350864
 31
0.0
  0
LINE
  5
21228
330
18
100
AcDbEntity
  8
01
100
AcDbLine
 10
-268.8116059229635
 20
-719.2404999093111
 30
0.0
 11
629.188394077036
 21
-719.2404999093111
 31
0.0
  0
LINE
  5
2124F
330
18
100
AcDbEntity
  8
1CENTER
100
AcDbLine
 10
617.8133476959722
 20
-700.2404706794497
 30
0.0
 11
624.5633476959722
 21
-700.2404706794497
 31
0.0
  0
LINE
  5
21250
330
18
100
AcDbEntity
  8
1CENTER
100
AcDbLine
 10
621.1883476959722
 20
-703.6154706794497
 30
0.0
 11
621.1883476959722
 21
-696.8654706794497
 31
0.0
  0
LINE
  5
21379
330
18
100
AcDbEntity
  8
01
100
AcDbLine
 10
329.6883942270363
 20
-409.5429532350864
 30
0.0
 11
330.6883939270363
 21
-408.5429532350864
 31
0.0
  0
LINE
  5
2137A
330
18
100
AcDbEntity
  8
01
100
AcDbLine
 10
326.3883940770363
 20
-409.5429532350864
 30
0.0
 11
326.3883940770363
 21
-408.5429532350864
 31
0.0
  0
LINE
  5
2137B
330
18
100
AcDbEntity
  8
01
100
AcDbLine
 10
326.3883940770363
 20
-408.5429532350864
 30
0.0
 11
333.9883940770362
 21
-408.5429532350864
 31
0.0
  0
LINE
  5
2137C
330
18
100
AcDbEntity
  8
01
100
AcDbLine
 10
326.3883940770363
 20
-409.5429532350864
 30
0.0
 11
333.9883940770362
 21
-409.5429532350864
 31
0.0
  0
LINE
  5
2137D
330
18
100
AcDbEntity
  8
01
100
AcDbLine
 10
333.9883940770362
 20
-409.5429532350864
 30
0.0
 11
333.9883940770362
 21
-408.5429532350864
 31
0.0
  0
LINE
  5
21380
330
18
100
AcDbEntity
  8
01
100
AcDbLine
 10
-269.8116059229638
 20
-539.0429532350871
 30
0.0
 11
-269.8116059229638
 21
-407.0429532350867
 31
0.0
  0
LINE
  5
21381
330
18
100
AcDbEntity
  8
01
100
AcDbLine
 10
-260.3115596919002
 20
-409.5429532350864
 30
0.0
 11
-261.3115593919002
 21
-408.5429532350864
 31
0.0
  0
LINE
  5
21382
330
18
100
AcDbEntity
  8
01
100
AcDbLine
 10
-257.0115595419003
 20
-409.5429532350864
 30
0.0
 11
-257.0115595419003
 21
-408.5429532350864
 31
0.0
  0
LINE
  5
21383
330
18
100
AcDbEntity
  8
01
100
AcDbLine
 10
-257.0115595419003
 20
-408.5429532350864
 30
0.0
 11
-264.6115595419002
 21
-408.5429532350864
 31
0.0
  0
LINE
  5
21384
330
18
100
AcDbEntity
  8
01
100
AcDbLine
 10
-257.0115595419003
 20
-409.5429532350864
 30
0.0
 11
-264.6115595419002
 21
-409.5429532350864
 31
0.0
  0
LINE
  5
21385
330
18
100
AcDbEntity
  8
01
100
AcDbLine
 10
-264.6115595419002
 20
-409.5429532350864
 30
0.0
 11
-264.6115595419002
 21
-408.5429532350864
 31
0.0
  0
LINE
  5
21387
330
18
100
AcDbEntity
  8
01
100
AcDbLine
 10
30.68839392703603
 20
-409.5429532350864
 30
0.0
 11
29.68839422703604
 21
-408.5429532350864
 31
0.0
  0
LINE
  5
21388
330
18
100
AcDbEntity
  8
01
100
AcDbLine
 10
33.98839407703599
 20
-409.5429532350864
 30
0.0
 11
33.98839407703599
 21
-408.5429532350864
 31
0.0
  0
LINE
  5
21389
330
18
100
AcDbEntity
  8
01
100
AcDbLine
 10
33.98839407703599
 20
-408.5429532350864
 30
0.0
 11
26.38839407703608
 21
-408.5429532350864
 31
0.0
  0
LINE
  5
2138A
330
18
100
AcDbEntity
  8
01
100
AcDbLine
 10
33.98839407703599
 20
-409.5429532350864
 30
0.0
 11
26.38839407703608
 21
-409.5429532350864
 31
0.0
  0
LINE
  5
2138B
330
18
100
AcDbEntity
  8
01
100
AcDbLine
 10
26.38839407703608
 20
-409.5429532350864
 30
0.0
 11
26.38839407703608
 21
-408.5429532350864
 31
0.0
  0
LINE
  5
2155A
330
18
100
AcDbEntity
  8
01
100
AcDbLine
 10
322.1883940770363
 20
-719.2404999093111
 30
0.0
 11
338.1883940770363
 21
-719.2404999093111
 31
0.0
  0
LINE
  5
2155B
330
18
100
AcDbEntity
  8
01
100
AcDbLine
 10
322.1883940770363
 20
-681.2404999093111
 30
0.0
 11
338.1883940770363
 21
-681.2404999093111
 31
0.0
  0
LINE
  5
2155F
330
18
100
AcDbEntity
  8
1CENTER
100
AcDbLine
 10
326.8133476959724
 20
-700.2404706794497
 30
0.0
 11
333.5633476959724
 21
-700.2404706794497
 31
0.0
  0
LINE
  5
21560
330
18
100
AcDbEntity
  8
1CENTER
100
AcDbLine
 10
330.1883476959724
 20
-703.6154706794497
 30
0.0
 11
330.1883476959724
 21
-696.8654706794497
 31
0.0
  0
LINE
  5
215B1
330
18
100
AcDbEntity
  8
01
100
AcDbLine
 10
22.18839407703674
 20
-719.2404999093111
 30
0.0
 11
38.18839407703675
 21
-719.2404999093111
 31
0.0
  0
LINE
  5
215B2
330
18
100
AcDbEntity
  8
01
100
AcDbLine
 10
22.18839407703674
 20
-681.2404999093111
 30
0.0
 11
38.18839407703675
 21
-681.2404999093111
 31
0.0
  0
LINE
  5
215B6
330
18
100
AcDbEntity
  8
1CENTER
100
AcDbLine
 10
26.8133476959729
 20
-700.2404706794497
 30
0.0
 11
33.56334769597291
 21
-700.2404706794497
 31
0.0
  0
LINE
  5
215B7
330
18
100
AcDbEntity
  8
1CENTER
100
AcDbLine
 10
30.1883476959729
 20
-703.6154706794497
 30
0.0
 11
30.1883476959729
 21
-696.8654706794497
 31
0.0
  0
LINE
  5
215B8
330
18
100
AcDbEntity
  8
01
100
AcDbLine
 10
36.18839407703675
 20
-718.7404999093111
 30
0.0
 11
24.18839407703674
 21
-718.7404999093111
 31
0.0
  0
LINE
  5
215B9
330
18
100
AcDbEntity
  8
01
100
AcDbLine
 10
22.18839407703674
 20
-716.7404999093111
 30
0.0
 11
22.18839407703674
 21
-683.7404999093111
 31
0.0
  0
LINE
  5
215BA
330
18
100
AcDbEntity
  8
01
100
AcDbLine
 10
24.18839407703674
 20
-681.7404999093111
 30
0.0
 11
36.18839407703675
 21
-681.7404999093111
 31
0.0
  0
LINE
  5
215BB
330
18
100
AcDbEntity
  8
01
100
AcDbLine
 10
38.18839407703675
 20
-683.7404999093111
 30
0.0
 11
38.18839407703675
 21
-716.7404999093111
 31
0.0
  0
LINE
  5
2165F
330
18
100
AcDbEntity
  8
01
100
AcDbLine
 10
-268.8116059229635
 20
-719.2404999093111
 30
0.0
 11
-252.8116059229635
 21
-719.2404999093111
 31
0.0
  0
LINE
  5
21660
330
18
100
AcDbEntity
  8
01
100
AcDbLine
 10
-268.8116059229635
 20
-681.2404999093111
 30
0.0
 11
-252.8116059229635
 21
-681.2404999093111
 31
0.0
  0
LINE
  5
21664
330
18
100
AcDbEntity
  8
1CENTER
100
AcDbLine
 10
-264.1866523040273
 20
-700.2404706794497
 30
0.0
 11
-257.4366523040273
 21
-700.2404706794497
 31
0.0
  0
LINE
  5
21665
330
18
100
AcDbEntity
  8
1CENTER
100
AcDbLine
 10
-260.8116523040273
 20
-703.6154706794497
 30
0.0
 11
-260.8116523040273
 21
-696.8654706794497
 31
0.0
  0
LINE
  5
21AB1
330
18
100
AcDbEntity
  8
01
100
AcDbLine
 10
889.8690876451773
 20
-679.8404999093121
 30
0.0
 11
889.8690876451773
 21
-701.9904999093136
 31
0.0
  0
LINE
  5
21AB2
330
18
100
AcDbEntity
  8
01
100
AcDbLine
 10
889.8690876451773
 20
-682.3404999093128
 30
0.0
 11
889.8690876451773
 21
-699.9904999093122
 31
0.0
  0
LINE
  5
21AB4
330
18
100
AcDbEntity
  8
01
100
AcDbLine
 10
889.8690876451773
 20
-683.2404999093111
 30
0.0
 11
889.8690876451773
 21
-735.2404999093111
 31
0.0
  0
LINE
  5
21AB5
330
18
100
AcDbEntity
  8
01
100
AcDbLine
 10
889.8690876451773
 20
-681.2404999093111
 30
0.0
 11
889.8690876451773
 21
-735.2404999093111
 31
0.0
  0
LINE
  5
21AB6
330
18
100
AcDbEntity
  8
01
100
AcDbLine
 10
889.8690876451773
 20
-665.2404999093111
 30
0.0
 11
889.8690876451773
 21
-681.2404999093111
 31
0.0
  0
LINE
  5
21AB7
330
18
100
AcDbEntity
  8
01
100
AcDbLine
 10
874.2690876451769
 20
-681.7404999093111
 30
0.0
 11
874.2690876451769
 21
-718.7404999093111
 31
0.0
  0
LINE
  5
21AB8
330
18
100
AcDbEntity
  8
01
100
AcDbLine
 10
888.2690876451769
 20
-718.7404999093111
 30
0.0
 11
874.2690876451769
 21
-718.7404999093111
 31
0.0
  0
LINE
  5
21AB9
330
18
100
AcDbEntity
  8
01
100
AcDbLine
 10
888.2690876451769
 20
-681.7404999093111
 30
0.0
 11
874.2690876451769
 21
-681.7404999093111
 31
0.0
  0
LINE
  5
21ABA
330
18
100
AcDbEntity
  8
01
100
AcDbLine
 10
873.8690876451773
 20
-735.2404999093111
 30
0.0
 11
873.8690876451773
 21
-719.2404999093111
 31
0.0
  0
LINE
  5
21ABB
330
18
100
AcDbEntity
  8
01
100
AcDbLine
 10
889.8690876451773
 20
-719.2404999093111
 30
0.0
 11
873.8690876451773
 21
-719.2404999093111
 31
0.0
  0
LINE
  5
21ABC
330
18
100
AcDbEntity
  8
01
100
AcDbLine
 10
875.8690876451773
 20
-681.2404999093111
 30
0.0
 11
875.8690876451773
 21
-681.7404999093111
 31
0.0
  0
LINE
  5
21ABD
330
18
100
AcDbEntity
  8
01
100
AcDbLine
 10
887.3690876451773
 20
-699.7404708294497
 30
0.0
 11
888.3690876451773
 21
-700.7404705294497
 31
0.0
  0
LINE
  5
21ABE
330
18
100
AcDbEntity
  8
01
100
AcDbLine
 10
887.3690876451773
 20
-696.4404706794497
 30
0.0
 11
888.3690876451773
 21
-696.4404706794497
 31
0.0
  0
LINE
  5
21ABF
330
18
100
AcDbEntity
  8
01
100
AcDbLine
 10
888.3690876451773
 20
-696.4404706794497
 30
0.0
 11
888.3690876451773
 21
-704.0404706794496
 31
0.0
  0
LINE
  5
21AC0
330
18
100
AcDbEntity
  8
01
100
AcDbLine
 10
887.3690876451773
 20
-696.4404706794497
 30
0.0
 11
887.3690876451773
 21
-704.0404706794496
 31
0.0
  0
LINE
  5
21AC1
330
18
100
AcDbEntity
  8
01
100
AcDbLine
 10
887.3690876451773
 20
-704.0404706794496
 30
0.0
 11
888.3690876451773
 21
-704.0404706794496
 31
0.0
  0
LINE
  5
21AC3
330
18
100
AcDbEntity
  8
01
100
AcDbLine
 10
889.2690876451769
 20
-682.7404999093111
 30
0.0
 11
889.2690876451769
 21
-717.7404999093111
 31
0.0
  0
ARC
  5
21AC4
330
18
100
AcDbEntity
  8
01
100
AcDbCircle
 10
888.2690876451769
 20
-717.7404999093111
 30
0.0
 40
1.0
100
AcDbArc
 50
270.0
 51
0.0
  0
ARC
  5
21AC5
330
18
100
AcDbEntity
  8
01
100
AcDbCircle
 10
888.2690876451769
 20
-682.7404999093111
 30
0.0
 40
1.0
100
AcDbArc
 50
0.0
 51
90.0
  0
LINE
  5
21AC6
330
18
100
AcDbEntity
  8
01
100
AcDbLine
 10
875.8690876451773
 20
-718.7404999093111
 30
0.0
 11
875.8690876451773
 21
-719.2404999093111
 31
0.0
  0
LINE
  5
21B0C
330
18
100
AcDbEntity
  8
01
100
AcDbLine
 10
-268.8116059229634
 20
-681.7404999093111
 30
0.0
 11
-268.8116059229634
 21
-718.7404999093111
 31
0.0
  0
LINE
  5
21B0D
330
18
100
AcDbEntity
  8
01
100
AcDbLine
 10
-268.8116059229634
 20
-718.7404999093111
 30
0.0
 11
-252.8116059229634
 21
-718.7404999093111
 31
0.0
  0
LINE
  5
21B0E
330
18
100
AcDbEntity
  8
01
100
AcDbLine
 10
-252.8116059229634
 20
-718.7404999093111
 30
0.0
 11
-252.8116059229634
 21
-681.7404999093111
 31
0.0
  0
LINE
  5
21B0F
330
18
100
AcDbEntity
  8
01
100
AcDbLine
 10
-252.8116059229634
 20
-681.7404999093111
 30
0.0
 11
-268.8116059229634
 21
-681.7404999093111
 31
0.0
  0
LINE
  5
21B10
330
18
100
AcDbEntity
  8
01
100
AcDbLine
 10
-268.8116059229634
 20
-681.7404999093111
 30
0.0
 11
-268.8116059229634
 21
-718.7404999093111
 31
0.0
  0
LINE
  5
21B11
330
18
100
AcDbEntity
  8
01
100
AcDbLine
 10
-253.8116059229634
 20
-719.2404999093111
 30
0.0
 11
-253.8116059229634
 21
-718.7404999093111
 31
0.0
  0
LINE
  5
21B12
330
18
100
AcDbEntity
  8
01
100
AcDbLine
 10
-267.8116059229634
 20
-681.2404999093111
 30
0.0
 11
-267.8116059229634
 21
-681.7404999093111
 31
0.0
  0
LINE
  5
21B13
330
18
100
AcDbEntity
  8
01
100
AcDbLine
 10
-253.8116059229634
 20
-681.7404999093111
 30
0.0
 11
-253.8116059229634
 21
-681.2404999093111
 31
0.0
  0
LINE
  5
21B14
330
18
100
AcDbEntity
  8
01
100
AcDbLine
 10
-267.8116059229634
 20
-719.2404999093111
 30
0.0
 11
-267.8116059229634
 21
-718.7404999093111
 31
0.0
  0
LINE
  5
21B15
330
18
100
AcDbEntity
  8
01
100
AcDbLine
 10
-267.8116059229634
 20
-681.7404999093111
 30
0.0
 11
-267.8116059229634
 21
-681.2404999093111
 31
0.0
  0
LINE
  5
21B16
330
18
100
AcDbEntity
  8
01
100
AcDbLine
 10
-268.8116059229634
 20
-681.7404999093111
 30
0.0
 11
-268.8116059229634
 21
-718.7404999093111
 31
0.0
  0
LINE
  5
21B17
330
18
100
AcDbEntity
  8
01
100
AcDbLine
 10
-268.8116059229634
 20
-681.7404999093111
 30
0.0
 11
-268.8116059229634
 21
-718.7404999093111
 31
0.0
  0
LINE
  5
21B18
330
18
100
AcDbEntity
  8
1CENTER
100
AcDbLine
 10
-257.4365595418996
 20
-700.2404706794497
 30
0.0
 11
-264.1865595418996
 21
-700.2404706794497
 31
0.0
  0
LINE
  5
21B19
330
18
100
AcDbEntity
  8
1CENTER
100
AcDbLine
 10
-260.8115595418996
 20
-703.6154706794497
 30
0.0
 11
-260.8115595418996
 21
-696.8654706794497
 31
0.0
  0
LINE
  5
21B1B
330
18
100
AcDbEntity
  8
01
100
AcDbLine
 10
-268.8116059229635
 20
-681.2404999093111
 30
0.0
 11
-268.8116059229635
 21
-665.2404999093111
 31
0.0
  0
LINE
  5
21B60
330
18
100
AcDbEntity
  8
01
100
AcDbLine
 10
22.18830131490905
 20
-681.7404999093111
 30
0.0
 11
22.18830131490905
 21
-718.7404999093111
 31
0.0
  0
LINE
  5
21B61
330
18
100
AcDbEntity
  8
01
100
AcDbLine
 10
22.18830131490905
 20
-718.7404999093111
 30
0.0
 11
38.18830131490905
 21
-718.7404999093111
 31
0.0
  0
LINE
  5
21B62
330
18
100
AcDbEntity
  8
01
100
AcDbLine
 10
38.18830131490905
 20
-718.7404999093111
 30
0.0
 11
38.18830131490905
 21
-681.7404999093111
 31
0.0
  0
LINE
  5
21B63
330
18
100
AcDbEntity
  8
01
100
AcDbLine
 10
38.18830131490905
 20
-681.7404999093111
 30
0.0
 11
22.18830131490905
 21
-681.7404999093111
 31
0.0
  0
LINE
  5
21B64
330
18
100
AcDbEntity
  8
01
100
AcDbLine
 10
22.18830131490905
 20
-681.7404999093111
 30
0.0
 11
22.18830131490905
 21
-718.7404999093111
 31
0.0
  0
LINE
  5
21B65
330
18
100
AcDbEntity
  8
01
100
AcDbLine
 10
37.18830131490905
 20
-719.2404999093111
 30
0.0
 11
37.18830131490905
 21
-718.7404999093111
 31
0.0
  0
LINE
  5
21B66
330
18
100
AcDbEntity
  8
01
100
AcDbLine
 10
23.18830131490905
 20
-681.2404999093111
 30
0.0
 11
23.18830131490905
 21
-681.7404999093111
 31
0.0
  0
LINE
  5
21B67
330
18
100
AcDbEntity
  8
01
100
AcDbLine
 10
37.18830131490905
 20
-681.7404999093111
 30
0.0
 11
37.18830131490905
 21
-681.2404999093111
 31
0.0
  0
LINE
  5
21B68
330
18
100
AcDbEntity
  8
01
100
AcDbLine
 10
23.18830131490905
 20
-719.2404999093111
 30
0.0
 11
23.18830131490905
 21
-718.7404999093111
 31
0.0
  0
LINE
  5
21B69
330
18
100
AcDbEntity
  8
01
100
AcDbLine
 10
23.18830131490905
 20
-681.7404999093111
 30
0.0
 11
23.18830131490905
 21
-681.2404999093111
 31
0.0
  0
LINE
  5
21B6A
330
18
100
AcDbEntity
  8
01
100
AcDbLine
 10
22.18830131490905
 20
-681.7404999093111
 30
0.0
 11
22.18830131490905
 21
-718.7404999093111
 31
0.0
  0
LINE
  5
21B6B
330
18
100
AcDbEntity
  8
01
100
AcDbLine
 10
22.18830131490905
 20
-681.7404999093111
 30
0.0
 11
22.18830131490905
 21
-718.7404999093111
 31
0.0
  0
LINE
  5
21B6C
330
18
100
AcDbEntity
  8
1CENTER
100
AcDbLine
 10
33.56334769597289
 20
-700.2404706794497
 30
0.0
 11
26.81334769597289
 21
-700.2404706794497
 31
0.0
  0
LINE
  5
21B6D
330
18
100
AcDbEntity
  8
1CENTER
100
AcDbLine
 10
30.18834769597289
 20
-703.6154706794497
 30
0.0
 11
30.18834769597289
 21
-696.8654706794497
 31
0.0
  0
LINE
  5
21B6F
330
18
100
AcDbEntity
  8
01
100
AcDbLine
 10
629.1883940770356
 20
-719.2404999093111
 30
0.0
 11
629.1883940770356
 21
-735.2404999093111
 31
0.0
  0
LINE
  5
21B70
330
18
100
AcDbEntity
  8
01
100
AcDbLine
 10
180.188394077036
 20
-719.2404999093111
 30
0.0
 11
322.1883940770358
 21
-719.2404999093111
 31
0.0
  0
LINE
  5
21B72
330
18
100
AcDbEntity
  8
01
100
AcDbLine
 10
629.188394077036
 20
-735.2404999093111
 30
0.0
 11
629.188394077036
 21
-719.2404999093111
 31
0.0
  0
LINE
  5
21B73
330
18
100
AcDbEntity
  8
01
100
AcDbLine
 10
338.1883940770358
 20
-719.2404999093111
 30
0.0
 11
322.1883940770358
 21
-719.2404999093111
 31
0.0
  0
LINE
  5
21B74
330
18
100
AcDbEntity
  8
01
100
AcDbLine
 10
338.1883940770358
 20
-681.2404999093111
 30
0.0
 11
322.1883940770358
 21
-681.2404999093111
 31
0.0
  0
LINE
  5
21B75
330
18
100
AcDbEntity
  8
1CENTER
100
AcDbLine
 10
333.5634404580996
 20
-700.2404706794497
 30
0.0
 11
326.8134404580996
 21
-700.2404706794497
 31
0.0
  0
LINE
  5
21B76
330
18
100
AcDbEntity
  8
1CENTER
100
AcDbLine
 10
330.1884404580996
 20
-703.6154706794497
 30
0.0
 11
330.1884404580996
 21
-696.8654706794497
 31
0.0
  0
LINE
  5
21B77
330
18
100
AcDbEntity
  8
01
100
AcDbLine
 10
324.1883940770358
 20
-718.7404999093111
 30
0.0
 11
336.1883940770358
 21
-718.7404999093111
 31
0.0
  0
LINE
  5
21B78
330
18
100
AcDbEntity
  8
01
100
AcDbLine
 10
338.1883940770358
 20
-716.7404999093111
 30
0.0
 11
338.1883940770358
 21
-683.7404999093111
 31
0.0
  0
LINE
  5
21B79
330
18
100
AcDbEntity
  8
01
100
AcDbLine
 10
336.1883940770358
 20
-681.7404999093111
 30
0.0
 11
324.1883940770358
 21
-681.7404999093111
 31
0.0
  0
LINE
  5
21B7A
330
18
100
AcDbEntity
  8
01
100
AcDbLine
 10
322.1883940770358
 20
-683.7404999093111
 30
0.0
 11
322.1883940770358
 21
-716.7404999093111
 31
0.0
  0
LINE
  5
21B7B
330
18
100
AcDbEntity
  8
01
100
AcDbLine
 10
629.188394077036
 20
-719.2404999093111
 30
0.0
 11
613.188394077036
 21
-719.2404999093111
 31
0.0
  0
LINE
  5
21B7C
330
18
100
AcDbEntity
  8
01
100
AcDbLine
 10
629.188394077036
 20
-681.2404999093111
 30
0.0
 11
613.188394077036
 21
-681.2404999093111
 31
0.0
  0
LINE
  5
21B7D
330
18
100
AcDbEntity
  8
1CENTER
100
AcDbLine
 10
624.5634404580999
 20
-700.2404706794497
 30
0.0
 11
617.8134404580999
 21
-700.2404706794497
 31
0.0
  0
LINE
  5
21B7E
330
18
100
AcDbEntity
  8
1CENTER
100
AcDbLine
 10
621.1884404580999
 20
-703.6154706794497
 30
0.0
 11
621.1884404580999
 21
-696.8654706794497
 31
0.0
  0
LINE
  5
21B7F
330
18
100
AcDbEntity
  8
01
100
AcDbLine
 10
629.1883940770359
 20
-681.7404999093111
 30
0.0
 11
629.1883940770359
 21
-718.7404999093111
 31
0.0
  0
LINE
  5
21B80
330
18
100
AcDbEntity
  8
01
100
AcDbLine
 10
629.1883940770359
 20
-718.7404999093111
 30
0.0
 11
613.1883940770359
 21
-718.7404999093111
 31
0.0
  0
LINE
  5
21B81
330
18
100
AcDbEntity
  8
01
100
AcDbLine
 10
613.1883940770359
 20
-718.7404999093111
 30
0.0
 11
613.1883940770359
 21
-681.7404999093111
 31
0.0
  0
LINE
  5
21B82
330
18
100
AcDbEntity
  8
01
100
AcDbLine
 10
613.1883940770359
 20
-681.7404999093111
 30
0.0
 11
629.1883940770359
 21
-681.7404999093111
 31
0.0
  0
LINE
  5
21B83
330
18
100
AcDbEntity
  8
01
100
AcDbLine
 10
629.1883940770359
 20
-681.7404999093111
 30
0.0
 11
629.1883940770359
 21
-718.7404999093111
 31
0.0
  0
LINE
  5
21B84
330
18
100
AcDbEntity
  8
01
100
AcDbLine
 10
614.1883940770359
 20
-719.2404999093111
 30
0.0
 11
614.1883940770359
 21
-718.7404999093111
 31
0.0
  0
LINE
  5
21B85
330
18
100
AcDbEntity
  8
01
100
AcDbLine
 10
628.1883940770359
 20
-681.2404999093111
 30
0.0
 11
628.1883940770359
 21
-681.7404999093111
 31
0.0
  0
LINE
  5
21B86
330
18
100
AcDbEntity
  8
01
100
AcDbLine
 10
614.1883940770359
 20
-681.7404999093111
 30
0.0
 11
614.1883940770359
 21
-681.2404999093111
 31
0.0
  0
LINE
  5
21B87
330
18
100
AcDbEntity
  8
01
100
AcDbLine
 10
628.1883940770359
 20
-719.2404999093111
 30
0.0
 11
628.1883940770359
 21
-718.7404999093111
 31
0.0
  0
LINE
  5
21B88
330
18
100
AcDbEntity
  8
01
100
AcDbLine
 10
628.1883940770359
 20
-681.7404999093111
 30
0.0
 11
628.1883940770359
 21
-681.2404999093111
 31
0.0
  0
LINE
  5
21B89
330
18
100
AcDbEntity
  8
01
100
AcDbLine
 10
629.1883940770359
 20
-681.7404999093111
 30
0.0
 11
629.1883940770359
 21
-718.7404999093111
 31
0.0
  0
LINE
  5
21B8A
330
18
100
AcDbEntity
  8
01
100
AcDbLine
 10
629.1883940770359
 20
-681.7404999093111
 30
0.0
 11
629.1883940770359
 21
-718.7404999093111
 31
0.0
  0
LINE
  5
21B8B
330
18
100
AcDbEntity
  8
1CENTER
100
AcDbLine
 10
617.8133476959721
 20
-700.2404706794497
 30
0.0
 11
624.5633476959721
 21
-700.2404706794497
 31
0.0
  0
LINE
  5
21B8C
330
18
100
AcDbEntity
  8
1CENTER
100
AcDbLine
 10
621.1883476959721
 20
-703.6154706794497
 30
0.0
 11
621.1883476959721
 21
-696.8654706794497
 31
0.0
  0
LINE
  5
21B8D
330
18
100
AcDbEntity
  8
01
100
AcDbLine
 10
629.188394077036
 20
-681.2404999093111
 30
0.0
 11
629.188394077036
 21
-665.2404999093111
 31
0.0
  0
LINE
  5
21B8E
330
18
100
AcDbEntity
  8
01
100
AcDbLine
 10
338.1884868391635
 20
-681.7404999093111
 30
0.0
 11
338.1884868391635
 21
-718.7404999093111
 31
0.0
  0
LINE
  5
21B8F
330
18
100
AcDbEntity
  8
01
100
AcDbLine
 10
338.1884868391635
 20
-718.7404999093111
 30
0.0
 11
322.1884868391635
 21
-718.7404999093111
 31
0.0
  0
LINE
  5
21B90
330
18
100
AcDbEntity
  8
01
100
AcDbLine
 10
322.1884868391635
 20
-718.7404999093111
 30
0.0
 11
322.1884868391635
 21
-681.7404999093111
 31
0.0
  0
LINE
  5
21B91
330
18
100
AcDbEntity
  8
01
100
AcDbLine
 10
322.1884868391635
 20
-681.7404999093111
 30
0.0
 11
338.1884868391635
 21
-681.7404999093111
 31
0.0
  0
LINE
  5
21B92
330
18
100
AcDbEntity
  8
01
100
AcDbLine
 10
338.1884868391635
 20
-681.7404999093111
 30
0.0
 11
338.1884868391635
 21
-718.7404999093111
 31
0.0
  0
LINE
  5
21B93
330
18
100
AcDbEntity
  8
01
100
AcDbLine
 10
323.1884868391635
 20
-719.2404999093111
 30
0.0
 11
323.1884868391635
 21
-718.7404999093111
 31
0.0
  0
LINE
  5
21B94
330
18
100
AcDbEntity
  8
01
100
AcDbLine
 10
337.1884868391635
 20
-681.2404999093111
 30
0.0
 11
337.1884868391635
 21
-681.7404999093111
 31
0.0
  0
LINE
  5
21B95
330
18
100
AcDbEntity
  8
01
100
AcDbLine
 10
323.1884868391635
 20
-681.7404999093111
 30
0.0
 11
323.1884868391635
 21
-681.2404999093111
 31
0.0
  0
LINE
  5
21B96
330
18
100
AcDbEntity
  8
01
100
AcDbLine
 10
337.1884868391635
 20
-719.2404999093111
 30
0.0
 11
337.1884868391635
 21
-718.7404999093111
 31
0.0
  0
LINE
  5
21B97
330
18
100
AcDbEntity
  8
01
100
AcDbLine
 10
337.1884868391635
 20
-681.7404999093111
 30
0.0
 11
337.1884868391635
 21
-681.2404999093111
 31
0.0
  0
LINE
  5
21B98
330
18
100
AcDbEntity
  8
01
100
AcDbLine
 10
338.1884868391635
 20
-681.7404999093111
 30
0.0
 11
338.1884868391635
 21
-718.7404999093111
 31
0.0
  0
LINE
  5
21B99
330
18
100
AcDbEntity
  8
01
100
AcDbLine
 10
338.1884868391635
 20
-681.7404999093111
 30
0.0
 11
338.1884868391635
 21
-718.7404999093111
 31
0.0
  0
LINE
  5
21B9A
330
18
100
AcDbEntity
  8
1CENTER
100
AcDbLine
 10
326.8134404580996
 20
-700.2404706794497
 30
0.0
 11
333.5634404580996
 21
-700.2404706794497
 31
0.0
  0
LINE
  5
21B9B
330
18
100
AcDbEntity
  8
1CENTER
100
AcDbLine
 10
330.1884404580996
 20
-703.6154706794497
 30
0.0
 11
330.1884404580996
 21
-696.8654706794497
 31
0.0
  0
LINE
  5
21CCD
330
18
100
AcDbEntity
  8
1DIM1
100
AcDbLine
 10
330.1883476959727
 20
-703.6154706794496
 30
0.0
 11
330.1883476959727
 21
-785.5463290264331
 31
0.0
1001
ACAD
1000
DSTYLE
1002
{
1070
    45
1040
0.5
1070
    40
1040
5.0
1002
}
  0
LINE
  5
21CCE
330
18
100
AcDbEntity
  8
1DIM1
100
AcDbLine
 10
621.1883940770356
 20
-706.4904999093111
 30
0.0
 11
621.1883940770356
 21
-785.5463290264331
 31
0.0
1001
ACAD
1000
DSTYLE
1002
{
1070
    45
1040
0.5
1070
    40
1040
5.0
1002
}
  0
LINE
  5
21CCF
330
18
100
AcDbEntity
  8
1DIM1
100
AcDbLine
 10
340.1883476959727
 20
-780.5463290264331
 30
0.0
 11
611.1883940770356
 21
-780.5463290264331
 31
0.0
1001
ACAD
1000
DSTYLE
1002
{
1070
    45
1040
0.5
1070
    40
1040
5.0
1002
}
  0
LINE
  5
21CD3
330
18
100
AcDbEntity
  8
1DIM1
100
AcDbLine
 10
30.18834769597268
 20
-703.6154706794496
 30
0.0
 11
30.18834769597268
 21
-785.5463290264331
 31
0.0
1001
ACAD
1000
DSTYLE
1002
{
1070
    45
1040
0.5
1070
    40
1040
5.0
1002
}
  0
LINE
  5
21CD4
330
18
100
AcDbEntity
  8
1DIM1
100
AcDbLine
 10
330.1883476959727
 20
-706.9904706794496
 30
0.0
 11
330.1883476959727
 21
-785.5463290264331
 31
0.0
1001
ACAD
1000
DSTYLE
1002
{
1070
    45
1040
0.5
1070
    40
1040
5.0
1002
}
  0
LINE
  5
21CD5
330
18
100
AcDbEntity
  8
1DIM1
100
AcDbLine
 10
40.18834769597268
 20
-780.5463290264331
 30
0.0
 11
320.1883476959727
 21
-780.5463290264331
 31
0.0
1001
ACAD
1000
DSTYLE
1002
{
1070
    45
1040
0.5
1070
    40
1040
5.0
1002
}
  0
LINE
  5
21CD9
330
18
100
AcDbEntity
  8
1DIM1
100
AcDbLine
 10
621.1883476959717
 20
-700.2404706794496
 30
0.0
 11
621.1883476959717
 21
-785.5463290264331
 31
0.0
1001
ACAD
1000
DSTYLE
1002
{
1070
    45
1040
0.5
1070
    40
1040
5.0
1002
}
  0
LINE
  5
21CDA
330
18
100
AcDbEntity
  8
1DIM1
100
AcDbLine
 10
630.1883940770365
 20
-665.2404999093111
 30
0.0
 11
630.1883940770365
 21
-785.5463290264331
 31
0.0
1001
ACAD
1000
DSTYLE
1002
{
1070
    45
1040
0.5
1070
    40
1040
5.0
1002
}
  0
LINE
  5
21CDB
330
18
100
AcDbEntity
  8
1DIM1
100
AcDbLine
 10
640.1883940770365
 20
-780.5463290264331
 30
0.0
 11
668.0217274103697
 21
-780.5463290264331
 31
0.0
1001
ACAD
1000
DSTYLE
1002
{
1070
    45
1040
0.5
1070
    40
1040
5.0
1002
}
  0
LINE
  5
21CDC
330
18
100
AcDbEntity
  8
1DIM1
100
AcDbLine
 10
621.1883476959717
 20
-780.5463290264331
 30
0.0
 11
630.1883940770365
 21
-780.5463290264331
 31
0.0
1001
ACAD
1000
DSTYLE
1002
{
1070
    45
1040
0.5
1070
    40
1040
5.0
1002
}
  0
LINE
  5
21CDD
330
18
100
AcDbEntity
  8
1DIM1
100
AcDbLine
 10
611.1883476959717
 20
-780.5463290264331
 30
0.0
 11
601.1883476959717
 21
-780.5463290264331
 31
0.0
1001
ACAD
1000
DSTYLE
1002
{
1070
    45
1040
0.5
1070
    40
1040
5.0
1002
}
  0
LINE
  5
21CE1
330
18
100
AcDbEntity
  8
1DIM1
100
AcDbLine
 10
-260.8116523040273
 20
-703.6154706794496
 30
0.0
 11
-260.8116523040273
 21
-785.5463290264331
 31
0.0
1001
ACAD
1000
DSTYLE
1002
{
1070
    45
1040
0.5
1070
    40
1040
5.0
1002
}
  0
LINE
  5
21CE2
330
18
100
AcDbEntity
  8
1DIM1
100
AcDbLine
 10
30.18834769597268
 20
-706.9904706794496
 30
0.0
 11
30.18834769597268
 21
-785.5463290264331
 31
0.0
1001
ACAD
1000
DSTYLE
1002
{
1070
    45
1040
0.5
1070
    40
1040
5.0
1002
}
  0
LINE
  5
21CE3
330
18
100
AcDbEntity
  8
1DIM1
100
AcDbLine
 10
-250.8116523040273
 20
-780.5463290264331
 30
0.0
 11
20.18834769597268
 21
-780.5463290264331
 31
0.0
1001
ACAD
1000
DSTYLE
1002
{
1070
    45
1040
0.5
1070
    40
1040
5.0
1002
}
  0
LINE
  5
21CE7
330
18
100
AcDbEntity
  8
1DIM1
100
AcDbLine
 10
-269.8116059229635
 20
-665.2404999093111
 30
0.0
 11
-269.8116059229635
 21
-829.0480319161368
 31
0.0
1001
ACAD
1000
DSTYLE
1002
{
1070
    45
1040
0.5
1070
    40
1040
5.0
1002
}
  0
LINE
  5
21CE8
330
18
100
AcDbEntity
  8
1DIM1
100
AcDbLine
 10
630.1883940770365
 20
-665.2404999093111
 30
0.0
 11
630.1883940770365
 21
-829.0480319161368
 31
0.0
1001
ACAD
1000
DSTYLE
1002
{
1070
    45
1040
0.5
1070
    40
1040
5.0
1002
}
  0
LINE
  5
21CE9
330
18
100
AcDbEntity
  8
1DIM1
100
AcDbLine
 10
-259.8116059229635
 20
-824.0480319161368
 30
0.0
 11
620.1883940770365
 21
-824.0480319161368
 31
0.0
1001
ACAD
1000
DSTYLE
1002
{
1070
    45
1040
0.5
1070
    40
1040
5.0
1002
}
  0
TEXT
  5
21CED
330
18
100
AcDbEntity
  8
1DIM
  6
CONTINUOUS
100
AcDbText
 10
668.6550717955407
 20
-696.110072577065
 30
0.0
 40
7.0
  1
材質：ステンレス
100
AcDbText
1001
ACADANNOTATIVE
1000
AnnotativeData
1002
{
1070
     1
1070
     0
1002
}
  0
TEXT
  5
21CEE
330
18
100
AcDbEntity
  8
1DIM
  6
CONTINUOUS
100
AcDbText
 10
659.5550717955407
 20
-707.7767392437316
 30
0.0
 40
7.0
  1
仕上げ：各種仕上げ
100
AcDbText
1001
ACADANNOTATIVE
1000
AnnotativeData
1002
{
1070
     1
1070
     0
1002
}
  0
SOLID
  5
21CEF
330
18
100
AcDbEntity
  8
1DIM
100
AcDbTrace
 10
762.0977729880889
 20
-673.0078616417001
 30
0.0
 11
763.550489566753
 21
-671.5933915454501
 31
0.0
 12
762.6350452668004
 22
-673.4025551214696
 32
0.0
 13
762.6350452668004
 23
-673.4025551214696
 33
0.0
1001
ACAD
1000
DSTYLE
1002
{
1070
    45
1040
0.5
1002
}
  0
LINE
  5
21CF0
330
18
100
AcDbEntity
  8
1DIM
100
AcDbLine
 10
762.3664091274446
 20
-673.2052083815848
 30
0.0
 11
736.4550717955408
 21
-708.4767392437317
 31
0.0
1001
ACAD
1000
DSTYLE
1002
{
1070
    45
1040
0.5
1002
}
  0
LINE
  5
21CF1
330
18
100
AcDbEntity
  8
1DIM
100
AcDbLine
 10
736.4550717955408
 20
-708.4767392437317
 30
0.0
 11
659.7884051288742
 21
-708.4767392437317
 31
0.0
1001
ACAD
1000
DSTYLE
1002
{
1070
    45
1040
0.5
1002
}
  0
LINE
  5
21CF2
330
18
100
AcDbEntity
  8
1DIM
100
AcDbLine
 10
915.3235838358153
 20
-700.2404706794497
 30
0.0
 11
937.6099661497084
 21
-700.2404706794497
 31
0.0
1001
ACAD
1000
DSTYLE
1002
{
1070
   271
1070
     0
1070
    45
1040
0.5
1070
    40
1040
2.0
1002
}
  0
LINE
  5
21CF3
330
18
100
AcDbEntity
  8
1DIM
100
AcDbLine
 10
889.8690876451773
 20
-651.2404999093111
 30
0.0
 11
937.6099661497084
 21
-651.2404999093111
 31
0.0
1001
ACAD
1000
DSTYLE
1002
{
1070
   271
1070
     0
1070
    45
1040
0.5
1070
    40
1040
2.0
1002
}
  0
LINE
  5
21CF4
330
18
100
AcDbEntity
  8
1DIM
100
AcDbLine
 10
935.6099661497084
 20
-696.2404706794497
 30
0.0
 11
935.6099661497084
 21
-655.2404999093111
 31
0.0
1001
ACAD
1000
DSTYLE
1002
{
1070
   271
1070
     0
1070
    45
1040
0.5
1070
    40
1040
2.0
1002
}
  0
LINE
  5
21CF8
330
18
100
AcDbEntity
  8
1DIM
100
AcDbLine
 10
889.8690876451773
 20
-735.2404999093111
 30
0.0
 11
957.3765429281674
 21
-735.2404999093111
 31
0.0
1001
ACAD
1000
DSTYLE
1002
{
1070
    45
1040
0.5
1070
    40
1040
2.0
1002
}
  0
LINE
  5
21CF9
330
18
100
AcDbEntity
  8
1DIM
100
AcDbLine
 10
889.8690876451773
 20
-651.2404999093111
 30
0.0
 11
957.3765429281674
 21
-651.2404999093111
 31
0.0
1001
ACAD
1000
DSTYLE
1002
{
1070
    45
1040
0.5
1070
    40
1040
2.0
1002
}
  0
LINE
  5
21CFA
330
18
100
AcDbEntity
  8
1DIM
100
AcDbLine
 10
955.3765429281674
 20
-731.2404999093111
 30
0.0
 11
955.3765429281674
 21
-655.2404999093111
 31
0.0
1001
ACAD
1000
DSTYLE
1002
{
1070
    45
1040
0.5
1070
    40
1040
2.0
1002
}
  0
TEXT
  5
21CFE
330
18
100
AcDbEntity
  8
1DIM
  6
CONTINUOUS
100
AcDbText
 10
896.881815947679
 20
-632.6460338873654
 30
0.0
 40
7.0
  1
PB
100
AcDbText
  0
SOLID
  5
21CFF
330
18
100
AcDbEntity
  8
1DIM
100
AcDbTrace
 10
893.3430826922367
 20
-651.9756813874972
 30
0.0
 11
892.7827592228847
 21
-655.9919585261092
 31
0.0
 12
892.0102185678571
 22
-652.0110509184431
 32
0.0
 13
892.0102185678571
 23
-652.0110509184431
 33
0.0
1001
ACAD
1000
DSTYLE
1002
{
1070
    41
1040
4.0
1070
    45
1040
0.5
1002
}
  0
LINE
  5
21D00
330
18
100
AcDbEntity
  8
1DIM
100
AcDbLine
 10
892.676650630047
 20
-651.9933661529701
 30
0.0
 11
892.181815947679
 21
-633.3460338873655
 31
0.0
1001
ACAD
1000
DSTYLE
1002
{
1070
    41
1040
4.0
1070
    45
1040
0.5
1002
}
  0
LINE
  5
21D01
330
18
100
AcDbEntity
  8
1DIM
100
AcDbLine
 10
892.181815947679
 20
-633.3460338873655
 30
0.0
 11
908.5484826143456
 21
-633.3460338873655
 31
0.0
1001
ACAD
1000
DSTYLE
1002
{
1070
    41
1040
4.0
1070
    45
1040
0.5
1002
}
  0
TEXT
  5
21D02
330
18
100
AcDbEntity
  8
1DIM
  6
CONTINUOUS
100
AcDbText
 10
928.5452849620532
 20
-632.9731420088052
 30
0.0
 40
7.0
  1
合板9mm以上
100
AcDbText
  0
SOLID
  5
21D03
330
18
100
AcDbEntity
  8
1DIM
100
AcDbTrace
 10
908.4287180827546
 20
-652.8073659675149
 30
0.0
 11
905.9181773680499
 21
-655.9919585261092
 31
0.0
 12
907.2601723494427
 22
-652.165276684832
 32
0.0
 13
907.2601723494427
 23
-652.165276684832
 33
0.0
1001
ACAD
1000
DSTYLE
1002
{
1070
    41
1040
4.0
1070
    45
1040
0.5
1002
}
  0
LINE
  5
21D04
330
18
100
AcDbEntity
  8
1DIM
100
AcDbLine
 10
907.8444452160986
 20
-652.4863213261734
 30
0.0
 11
918.1818590361272
 21
-633.6731420088053
 31
0.0
1001
ACAD
1000
DSTYLE
1002
{
1070
    41
1040
4.0
1070
    45
1040
0.5
1002
}
  0
LINE
  5
21D05
330
18
100
AcDbEntity
  8
1DIM
100
AcDbLine
 10
918.1818590361272
 20
-633.6731420088053
 30
0.0
 11
981.7485257027938
 21
-633.6731420088053
 31
0.0
1001
ACAD
1000
DSTYLE
1002
{
1070
    41
1040
4.0
1070
    45
1040
0.5
1002
}
  0
LINE
  5
21D06
330
18
100
AcDbEntity
  8
1DIM
100
AcDbLine
 10
757.8690876451773
 20
-665.2404999093111
 30
0.0
 11
757.8690876451773
 21
-776.4891791710571
 31
0.0
1001
ACAD
1000
DSTYLE
1002
{
1070
    45
1040
0.5
1070
    40
1040
2.0
1002
}
  0
LINE
  5
21D07
330
18
100
AcDbEntity
  8
1DIM
100
AcDbLine
 10
889.8690876451773
 20
-695.4686734945932
 30
0.0
 11
889.8690876451773
 21
-776.4891791710571
 31
0.0
1001
ACAD
1000
DSTYLE
1002
{
1070
    45
1040
0.5
1070
    40
1040
2.0
1002
}
  0
LINE
  5
21D08
330
18
100
AcDbEntity
  8
1DIM
100
AcDbLine
 10
761.8690876451773
 20
-774.4891791710571
 30
0.0
 11
885.8690876451773
 21
-774.4891791710571
 31
0.0
1001
ACAD
1000
DSTYLE
1002
{
1070
    45
1040
0.5
1070
    40
1040
2.0
1002
}
  0
TEXT
  5
21D0C
330
18
100
AcDbEntity
  8
1DIM
  6
CONTINUOUS
100
AcDbText
 10
648.1913117552047
 20
-607.427184480362
 30
0.0
 40
7.0
  1
材質：メラミン化粧板
100
AcDbText
1001
ACADANNOTATIVE
1000
AnnotativeData
1002
{
1070
     1
1070
     0
1002
}
  0
TEXT
  5
21D0D
330
18
100
AcDbEntity
  8
1DIM
  6
CONTINUOUS
100
AcDbText
 10
656.5913117552046
 20
-619.0938511470287
 30
0.0
 40
7.0
  1
仕上げ：各種仕上げ
100
AcDbText
1001
ACADANNOTATIVE
1000
AnnotativeData
1002
{
1070
     1
1070
     0
1002
}
  0
SOLID
  5
21D0E
330
18
100
AcDbEntity
  8
1DIM
100
AcDbTrace
 10
761.5024068480112
 20
-654.8682459044862
 30
0.0
 11
763.2942795963279
 21
-658.506052454907
 31
0.0
 12
760.4194356829189
 22
-655.6460320147738
 32
0.0
 13
760.4194356829189
 23
-655.6460320147738
 33
0.0
1001
ACAD
1000
DSTYLE
1002
{
1070
    41
1040
4.0
1070
    45
1040
0.5
1002
}
  0
LINE
  5
21D0F
330
18
100
AcDbEntity
  8
1DIM
100
AcDbLine
 10
760.960921265465
 20
-655.2571389596301
 30
0.0
 11
735.4913117552047
 21
-619.7938511470287
 31
0.0
1001
ACAD
1000
DSTYLE
1002
{
1070
    41
1040
4.0
1070
    45
1040
0.5
1002
}
  0
LINE
  5
21D10
330
18
100
AcDbEntity
  8
1DIM
100
AcDbLine
 10
735.4913117552047
 20
-619.7938511470287
 30
0.0
 11
648.6579784218713
 21
-619.7938511470287
 31
0.0
1001
ACAD
1000
DSTYLE
1002
{
1070
    41
1040
4.0
1070
    45
1040
0.5
1002
}
  0
LINE
  5
21D11
330
18
100
AcDbEntity
  8
1DIM1
100
AcDbLine
 10
621.1883940770356
 20
-706.4904999093111
 30
0.0
 11
621.1883940770356
 21
-785.5463290264332
 31
0.0
1001
ACAD
1000
DSTYLE
1002
{
1070
    45
1040
0.5
1070
    40
1040
5.0
1002
}
  0
LINE
  5
21D12
330
18
100
AcDbEntity
  8
1DIM1
100
AcDbLine
 10
630.1883940770362
 20
-665.2404999093111
 30
0.0
 11
630.1883940770362
 21
-785.5463290264332
 31
0.0
1001
ACAD
1000
DSTYLE
1002
{
1070
    45
1040
0.5
1070
    40
1040
5.0
1002
}
  0
LINE
  5
21D13
330
18
100
AcDbEntity
  8
1DIM1
100
AcDbLine
 10
640.1883940770362
 20
-780.5463290264332
 30
0.0
 11
668.0217274103694
 21
-780.5463290264332
 31
0.0
1001
ACAD
1000
DSTYLE
1002
{
1070
    45
1040
0.5
1070
    40
1040
5.0
1002
}
  0
LINE
  5
21D14
330
18
100
AcDbEntity
  8
1DIM1
100
AcDbLine
 10
621.1883940770356
 20
-780.5463290264332
 30
0.0
 11
630.1883940770362
 21
-780.5463290264332
 31
0.0
1001
ACAD
1000
DSTYLE
1002
{
1070
    45
1040
0.5
1070
    40
1040
5.0
1002
}
  0
LINE
  5
21D15
330
18
100
AcDbEntity
  8
1DIM1
100
AcDbLine
 10
611.1883940770356
 20
-780.5463290264332
 30
0.0
 11
601.1883940770356
 21
-780.5463290264332
 31
0.0
1001
ACAD
1000
DSTYLE
1002
{
1070
    45
1040
0.5
1070
    40
1040
5.0
1002
}
  0
LINE
  5
21D63
330
18
100
AcDbEntity
  8
0
100
AcDbLine
 10
922.3690876450149
 20
-700.2404241466563
 30
0.0
 11
917.0690911351533
 21
-701.7404241466563
 31
0.0
  0
LINE
  5
21D64
330
18
100
AcDbEntity
  8
0
100
AcDbLine
 10
917.0690911351533
 20
-701.7404241466563
 30
0.0
 11
887.3690911352613
 21
-701.7404241466561
 31
0.0
  0
LINE
  5
21D65
330
18
100
AcDbEntity
  8
0
100
AcDbLine
 10
922.3690876450149
 20
-700.2404241466563
 30
0.0
 11
917.0690841547696
 21
-698.7404241466562
 31
0.0
  0
LINE
  5
21D66
330
18
100
AcDbEntity
  8
0
100
AcDbLine
 10
887.3690957889594
 20
-703.7404706825541
 30
0.0
 11
887.3690795013952
 21
-696.7404706825542
 31
0.0
  0
LINE
  5
21D67
330
18
100
AcDbEntity
  8
0
100
AcDbLine
 10
917.0690841547696
 20
-698.7404241466562
 30
0.0
 11
887.3690841548766
 21
-698.7404241466561
 31
0.0
  0
LINE
  5
21D68
330
18
100
AcDbEntity
  8
0
100
AcDbLine
 10
887.3690957889594
 20
-703.7404706825541
 30
0.0
 11
886.2690922987641
 21
-703.7404706825542
 31
0.0
  0
ARC
  5
21D69
330
18
100
AcDbEntity
  8
0
100
AcDbCircle
 10
886.2690922987641
 20
-702.2404706825542
 30
0.0
 40
1.5
100
AcDbArc
 50
180.0001333155337
 51
270.0
  0
LINE
  5
21D6A
330
18
100
AcDbEntity
  8
0
100
AcDbLine
 10
887.3690795013952
 20
-696.7404706825542
 30
0.0
 11
886.2690829915846
 21
-696.7404706825542
 31
0.0
  0
LINE
  5
21D6B
330
18
100
AcDbEntity
  8
0
100
AcDbLine
 10
884.7690922987682
 20
-702.2404741727466
 30
0.0
 11
884.7690829915886
 21
-698.2404741727466
 31
0.0
  0
ARC
  5
21D6C
330
18
100
AcDbEntity
  8
0
100
AcDbCircle
 10
886.2690829915846
 20
-698.2404706825542
 30
0.0
 40
1.5
100
AcDbArc
 50
90.0
 51
180.0001333155337
  0
LINE
  5
21D6D
330
18
100
AcDbEntity
  8
1CENTER
100
AcDbLine
 10
923.7998825624803
 20
-700.2404706825542
 30
0.0
 11
883.6988112358684
 21
-700.2404706825542
 31
0.0
  0
LINE
  5
21D6E
330
18
100
AcDbEntity
  8
0
100
AcDbLine
 10
920.2690901913371
 20
-701.3347944965493
 30
0.0
 11
921.0690856253881
 21
-699.3724594076739
 31
0.0
  0
LINE
  5
21D6F
330
18
100
AcDbEntity
  8
0
100
AcDbLine
 10
921.0690856253881
 20
-699.3724594076739
 30
0.0
 11
921.3808554816402
 21
-699.9607359827163
 31
0.0
  0
LINE
  5
21D70
330
18
100
AcDbEntity
  8
0
100
AcDbLine
 10
897.8690922985471
 20
-702.2404241466563
 30
0.0
 11
898.6690829913654
 21
-698.2404241466563
 31
0.0
  0
LINE
  5
21D71
330
18
100
AcDbEntity
  8
0
100
AcDbLine
 10
909.0690922985515
 20
-702.2404241466563
 30
0.0
 11
909.8690829913741
 21
-698.2404241466563
 31
0.0
  0
LINE
  5
21D72
330
18
100
AcDbEntity
  8
0
100
AcDbLine
 10
912.2690922985515
 20
-702.2404241466563
 30
0.0
 11
913.0690829913741
 21
-698.2404241466563
 31
0.0
  0
LINE
  5
21D73
330
18
100
AcDbEntity
  8
0
100
AcDbLine
 10
913.0690829913741
 20
-698.2404241466563
 30
0.0
 11
913.1690841547713
 21
-698.7404241466563
 31
0.0
  0
LINE
  5
21D74
330
18
100
AcDbEntity
  8
0
100
AcDbLine
 10
913.7690911351543
 20
-701.7404241466563
 30
0.0
 11
913.8690922985515
 21
-702.2404241466563
 31
0.0
  0
LINE
  5
21D75
330
18
100
AcDbEntity
  8
0
100
AcDbLine
 10
909.8690829913741
 20
-698.2404241466563
 30
0.0
 11
909.9690841547713
 21
-698.7404241466563
 31
0.0
  0
LINE
  5
21D76
330
18
100
AcDbEntity
  8
0
100
AcDbLine
 10
911.4690829913742
 20
-698.2404241466563
 30
0.0
 11
911.5690841547713
 21
-698.7404241466563
 31
0.0
  0
LINE
  5
21D77
330
18
100
AcDbEntity
  8
0
100
AcDbLine
 10
912.1690911351544
 20
-701.7404241466563
 30
0.0
 11
912.2690922985515
 21
-702.2404241466563
 31
0.0
  0
LINE
  5
21D78
330
18
100
AcDbEntity
  8
0
100
AcDbLine
 10
910.5690911351545
 20
-701.7404241466563
 30
0.0
 11
910.6690922985516
 21
-702.2404241466563
 31
0.0
  0
LINE
  5
21D79
330
18
100
AcDbEntity
  8
0
100
AcDbLine
 10
910.6690922985516
 20
-702.2404241466563
 30
0.0
 11
911.4690829913742
 21
-698.2404241466563
 31
0.0
  0
LINE
  5
21D7A
330
18
100
AcDbEntity
  8
0
100
AcDbLine
 10
919.4690845717824
 20
-698.9196453032671
 30
0.0
 11
919.6518487144104
 21
-699.4713947670704
 31
0.0
  0
LINE
  5
21D7B
330
18
100
AcDbEntity
  8
0
100
AcDbLine
 10
916.2690829913741
 20
-698.2404241466563
 30
0.0
 11
916.3690841547713
 21
-698.7404241466563
 31
0.0
  0
LINE
  5
21D7C
330
18
100
AcDbEntity
  8
0
100
AcDbLine
 10
914.6690829913741
 20
-698.2404241466563
 30
0.0
 11
914.7690841547711
 21
-698.7404241466563
 31
0.0
  0
LINE
  5
21D7D
330
18
100
AcDbEntity
  8
0
100
AcDbLine
 10
917.8690835181768
 20
-698.4668311988603
 30
0.0
 11
917.9983542158067
 21
-699.0034249341314
 31
0.0
  0
LINE
  5
21D7E
330
18
100
AcDbEntity
  8
0
100
AcDbLine
 10
918.5563217325913
 20
-701.3195095494476
 30
0.0
 11
918.6690912449413
 21
-701.7876080045976
 31
0.0
  0
LINE
  5
21D7F
330
18
100
AcDbEntity
  8
0
100
AcDbLine
 10
915.3690911351545
 20
-701.7404241466563
 30
0.0
 11
915.4690922985516
 21
-702.2404241466563
 31
0.0
  0
LINE
  5
21D80
330
18
100
AcDbEntity
  8
0
100
AcDbLine
 10
916.9690911351544
 20
-701.7404241466563
 30
0.0
 11
917.0690922985515
 21
-702.2404241466563
 31
0.0
  0
LINE
  5
21D81
330
18
100
AcDbEntity
  8
0
100
AcDbLine
 10
920.1176543948967
 20
-700.8776226559182
 30
0.0
 11
920.2690901913371
 21
-701.3347944965493
 31
0.0
  0
LINE
  5
21D82
330
18
100
AcDbEntity
  8
0
100
AcDbLine
 10
918.6690912449413
 20
-701.7876080045976
 30
0.0
 11
919.4690845717824
 21
-698.9196453032671
 31
0.0
  0
LINE
  5
21D83
330
18
100
AcDbEntity
  8
0
100
AcDbLine
 10
915.4690922985516
 20
-702.2404241466563
 30
0.0
 11
916.2690829913741
 21
-698.2404241466563
 31
0.0
  0
LINE
  5
21D84
330
18
100
AcDbEntity
  8
0
100
AcDbLine
 10
917.0690922985515
 20
-702.2404241466563
 30
0.0
 11
917.8690835181768
 21
-698.4668311988603
 31
0.0
  0
LINE
  5
21D85
330
18
100
AcDbEntity
  8
0
100
AcDbLine
 10
913.8690922985515
 20
-702.2404241466563
 30
0.0
 11
914.6690829913741
 21
-698.2404241466563
 31
0.0
  0
LINE
  5
21D86
330
18
100
AcDbEntity
  8
0
100
AcDbLine
 10
901.0690922985472
 20
-702.2404241466563
 30
0.0
 11
901.8690829913654
 21
-698.2404241466563
 31
0.0
  0
LINE
  5
21D87
330
18
100
AcDbEntity
  8
0
100
AcDbLine
 10
901.8690829913654
 20
-698.2404241466563
 30
0.0
 11
901.9690841547631
 21
-698.7404241466563
 31
0.0
  0
LINE
  5
21D88
330
18
100
AcDbEntity
  8
0
100
AcDbLine
 10
902.5690911351538
 20
-701.7404241466563
 30
0.0
 11
902.6690922985515
 21
-702.2404241466563
 31
0.0
  0
LINE
  5
21D89
330
18
100
AcDbEntity
  8
0
100
AcDbLine
 10
900.2690829913653
 20
-698.2404241466563
 30
0.0
 11
900.369084154763
 21
-698.7404241466563
 31
0.0
  0
LINE
  5
21D8A
330
18
100
AcDbEntity
  8
0
100
AcDbLine
 10
898.6690829913654
 20
-698.2404241466563
 30
0.0
 11
898.769084154763
 21
-698.7404241466563
 31
0.0
  0
LINE
  5
21D8B
330
18
100
AcDbEntity
  8
0
100
AcDbLine
 10
900.9690911351495
 20
-701.7404241466563
 30
0.0
 11
901.0690922985472
 21
-702.2404241466563
 31
0.0
  0
LINE
  5
21D8C
330
18
100
AcDbEntity
  8
0
100
AcDbLine
 10
899.3690911351493
 20
-701.7404241466563
 30
0.0
 11
899.469092298547
 21
-702.2404241466563
 31
0.0
  0
LINE
  5
21D8D
330
18
100
AcDbEntity
  8
0
100
AcDbLine
 10
899.469092298547
 20
-702.2404241466563
 30
0.0
 11
900.2690829913653
 21
-698.2404241466563
 31
0.0
  0
LINE
  5
21D8E
330
18
100
AcDbEntity
  8
0
100
AcDbLine
 10
906.6690829913698
 20
-698.2404241466563
 30
0.0
 11
906.7690841547675
 21
-698.7404241466563
 31
0.0
  0
LINE
  5
21D8F
330
18
100
AcDbEntity
  8
0
100
AcDbLine
 10
908.2690829913741
 20
-698.2404241466563
 30
0.0
 11
908.3690841547713
 21
-698.7404241466563
 31
0.0
  0
LINE
  5
21D90
330
18
100
AcDbEntity
  8
0
100
AcDbLine
 10
903.4690829913698
 20
-698.2404241466563
 30
0.0
 11
903.5690841547674
 21
-698.7404241466563
 31
0.0
  0
LINE
  5
21D91
330
18
100
AcDbEntity
  8
0
100
AcDbLine
 10
905.0690829913697
 20
-698.2404241466563
 30
0.0
 11
905.1690841547673
 21
-698.7404241466563
 31
0.0
  0
LINE
  5
21D92
330
18
100
AcDbEntity
  8
0
100
AcDbLine
 10
908.9690911351544
 20
-701.7404241466563
 30
0.0
 11
909.0690922985515
 21
-702.2404241466563
 31
0.0
  0
LINE
  5
21D93
330
18
100
AcDbEntity
  8
0
100
AcDbLine
 10
907.3690911351538
 20
-701.7404241466563
 30
0.0
 11
907.4690922985516
 21
-702.2404241466563
 31
0.0
  0
LINE
  5
21D94
330
18
100
AcDbEntity
  8
0
100
AcDbLine
 10
904.1690911351537
 20
-701.7404241466563
 30
0.0
 11
904.2690922985514
 21
-702.2404241466563
 31
0.0
  0
LINE
  5
21D95
330
18
100
AcDbEntity
  8
0
100
AcDbLine
 10
905.7690911351539
 20
-701.7404241466563
 30
0.0
 11
905.8690922985515
 21
-702.2404241466563
 31
0.0
  0
LINE
  5
21D96
330
18
100
AcDbEntity
  8
0
100
AcDbLine
 10
905.8690922985515
 20
-702.2404241466563
 30
0.0
 11
906.6690829913698
 21
-698.2404241466563
 31
0.0
  0
LINE
  5
21D97
330
18
100
AcDbEntity
  8
0
100
AcDbLine
 10
907.4690922985516
 20
-702.2404241466563
 30
0.0
 11
908.2690829913741
 21
-698.2404241466563
 31
0.0
  0
LINE
  5
21D98
330
18
100
AcDbEntity
  8
0
100
AcDbLine
 10
904.2690922985514
 20
-702.2404241466563
 30
0.0
 11
905.0690829913697
 21
-698.2404241466563
 31
0.0
  0
LINE
  5
21D99
330
18
100
AcDbEntity
  8
0
100
AcDbLine
 10
902.6690922985515
 20
-702.2404241466563
 30
0.0
 11
903.4690829913698
 21
-698.2404241466563
 31
0.0
  0
LINE
  5
21D9A
330
18
100
AcDbEntity
  8
0
100
AcDbLine
 10
892.9690911351453
 20
-701.7404241466563
 30
0.0
 11
893.069092298543
 21
-702.2404241466563
 31
0.0
  0
LINE
  5
21D9B
330
18
100
AcDbEntity
  8
0
100
AcDbLine
 10
893.069092298543
 20
-702.2404241466563
 30
0.0
 11
893.8690829913612
 21
-698.2404241466563
 31
0.0
  0
LINE
  5
21D9C
330
18
100
AcDbEntity
  8
0
100
AcDbLine
 10
893.8690829913612
 20
-698.2404241466563
 30
0.0
 11
893.9690841547589
 21
-698.7404241466563
 31
0.0
  0
LINE
  5
21D9D
330
18
100
AcDbEntity
  8
0
100
AcDbLine
 10
894.5690911351452
 20
-701.7404241466563
 30
0.0
 11
894.6690922985429
 21
-702.2404241466563
 31
0.0
  0
LINE
  5
21D9E
330
18
100
AcDbEntity
  8
0
100
AcDbLine
 10
896.1690911351451
 20
-701.7404241466563
 30
0.0
 11
896.2690922985428
 21
-702.2404241466563
 31
0.0
  0
LINE
  5
21D9F
330
18
100
AcDbEntity
  8
0
100
AcDbLine
 10
896.2690922985428
 20
-702.2404241466563
 30
0.0
 11
897.069082991361
 21
-698.2404241466563
 31
0.0
  0
LINE
  5
21DA0
330
18
100
AcDbEntity
  8
0
100
AcDbLine
 10
895.4690829913611
 20
-698.2404241466563
 30
0.0
 11
895.5690841547588
 21
-698.7404241466563
 31
0.0
  0
LINE
  5
21DA1
330
18
100
AcDbEntity
  8
0
100
AcDbLine
 10
897.069082991361
 20
-698.2404241466563
 30
0.0
 11
897.1690841547587
 21
-698.7404241466563
 31
0.0
  0
LINE
  5
21DA2
330
18
100
AcDbEntity
  8
0
100
AcDbLine
 10
894.6690922985429
 20
-702.2404241466563
 30
0.0
 11
895.4690829913611
 21
-698.2404241466563
 31
0.0
  0
LINE
  5
21DA3
330
18
100
AcDbEntity
  8
0
100
AcDbLine
 10
897.7690911351494
 20
-701.7404241466563
 30
0.0
 11
897.8690922985471
 21
-702.2404241466563
 31
0.0
  0
LINE
  5
21DA4
330
18
100
AcDbEntity
  8
0
100
AcDbLine
 10
891.3690911351454
 20
-701.7404241466563
 30
0.0
 11
891.469092298543
 21
-702.2404241466563
 31
0.0
  0
LINE
  5
21DA5
330
18
100
AcDbEntity
  8
0
100
AcDbLine
 10
891.469092298543
 20
-702.2404241466563
 30
0.0
 11
892.2690829913613
 21
-698.2404241466563
 31
0.0
  0
LINE
  5
21DA6
330
18
100
AcDbEntity
  8
0
100
AcDbLine
 10
892.2690829913613
 20
-698.2404241466563
 30
0.0
 11
892.369084154759
 21
-698.7404241466563
 31
0.0
  0
LINE
  5
21DA7
330
18
100
AcDbEntity
  8
0
100
AcDbLine
 10
889.7690911351455
 20
-701.7404241466563
 30
0.0
 11
889.8690922985431
 21
-702.2404241466563
 31
0.0
  0
LINE
  5
21DA8
330
18
100
AcDbEntity
  8
0
100
AcDbLine
 10
889.8690922985431
 20
-702.2404241466563
 30
0.0
 11
890.6690829913614
 21
-698.2404241466563
 31
0.0
  0
LINE
  5
21DA9
330
18
100
AcDbEntity
  8
0
100
AcDbLine
 10
890.6690829913614
 20
-698.2404241466563
 30
0.0
 11
890.7690841547591
 21
-698.7404241466563
 31
0.0
  0
LINE
  5
21DAA
330
18
100
AcDbEntity
  8
0
100
AcDbLine
 10
888.1690911351455
 20
-701.7404241466563
 30
0.0
 11
888.2690922985432
 21
-702.2404241466563
 31
0.0
  0
LINE
  5
21DAB
330
18
100
AcDbEntity
  8
0
100
AcDbLine
 10
888.2690922985432
 20
-702.2404241466563
 30
0.0
 11
889.0690829913615
 21
-698.2404241466563
 31
0.0
  0
LINE
  5
21DAC
330
18
100
AcDbEntity
  8
0
100
AcDbLine
 10
889.0690829913615
 20
-698.2404241466563
 30
0.0
 11
889.1690841547592
 21
-698.7404241466563
 31
0.0
  0
LINE
  5
21DF7
330
18
100
AcDbEntity
  8
0
100
AcDbLine
 10
621.188301163179
 20
-374.5429532352488
 30
0.0
 11
622.688301163179
 21
-379.8429497451104
 31
0.0
  0
LINE
  5
21DF8
330
18
100
AcDbEntity
  8
0
100
AcDbLine
 10
622.688301163179
 20
-379.8429497451104
 30
0.0
 11
622.6883011631787
 21
-409.5429497450024
 31
0.0
  0
LINE
  5
21DF9
330
18
100
AcDbEntity
  8
0
100
AcDbLine
 10
621.188301163179
 20
-374.5429532352488
 30
0.0
 11
619.6883011631788
 21
-379.8429567254941
 31
0.0
  0
LINE
  5
21DFA
330
18
100
AcDbEntity
  8
0
100
AcDbLine
 10
624.6883476990768
 20
-409.5429450913043
 30
0.0
 11
617.6883476990769
 21
-409.5429613788686
 31
0.0
  0
LINE
  5
21DFB
330
18
100
AcDbEntity
  8
0
100
AcDbLine
 10
619.6883011631788
 20
-379.8429567254941
 30
0.0
 11
619.6883011631787
 21
-409.5429567253871
 31
0.0
  0
LINE
  5
21DFC
330
18
100
AcDbEntity
  8
0
100
AcDbLine
 10
624.6883476990768
 20
-409.5429450913043
 30
0.0
 11
624.6883476990769
 21
-410.6429485814996
 31
0.0
  0
ARC
  5
21DFD
330
18
100
AcDbEntity
  8
0
100
AcDbCircle
 10
623.1883476990769
 20
-410.6429485814996
 30
0.0
 40
1.5
100
AcDbArc
 50
270.0001333155294
 51
0.0
  0
LINE
  5
21DFE
330
18
100
AcDbEntity
  8
0
100
AcDbLine
 10
617.6883476990769
 20
-409.5429613788686
 30
0.0
 11
617.6883476990769
 21
-410.6429578886792
 31
0.0
  0
LINE
  5
21DFF
330
18
100
AcDbEntity
  8
0
100
AcDbLine
 10
623.1883511892693
 20
-412.1429485814955
 30
0.0
 11
619.1883511892693
 21
-412.1429578886751
 31
0.0
  0
ARC
  5
21E00
330
18
100
AcDbEntity
  8
0
100
AcDbCircle
 10
619.1883476990769
 20
-410.6429578886792
 30
0.0
 40
1.5
100
AcDbArc
 50
180.0
 51
270.0001333155294
  0
LINE
  5
21E01
330
18
100
AcDbEntity
  8
1CENTER
100
AcDbLine
 10
621.1883476990769
 20
-373.1121583177834
 30
0.0
 11
621.1883476990769
 21
-413.2132296443953
 31
0.0
  0
LINE
  5
21E02
330
18
100
AcDbEntity
  8
0
100
AcDbLine
 10
622.2826715130719
 20
-376.6429506889266
 30
0.0
 11
620.3203364241965
 21
-375.8429552548756
 31
0.0
  0
LINE
  5
21E03
330
18
100
AcDbEntity
  8
0
100
AcDbLine
 10
620.3203364241965
 20
-375.8429552548756
 30
0.0
 11
620.9086129992389
 21
-375.5311853986235
 31
0.0
  0
LINE
  5
21E04
330
18
100
AcDbEntity
  8
0
100
AcDbLine
 10
623.188301163179
 20
-399.0429485817166
 30
0.0
 11
619.188301163179
 21
-398.2429578888983
 31
0.0
  0
LINE
  5
21E05
330
18
100
AcDbEntity
  8
0
100
AcDbLine
 10
623.188301163179
 20
-387.8429485817123
 30
0.0
 11
619.188301163179
 21
-387.0429578888896
 31
0.0
  0
LINE
  5
21E06
330
18
100
AcDbEntity
  8
0
100
AcDbLine
 10
623.188301163179
 20
-384.6429485817122
 30
0.0
 11
619.188301163179
 21
-383.8429578888896
 31
0.0
  0
LINE
  5
21E07
330
18
100
AcDbEntity
  8
0
100
AcDbLine
 10
619.188301163179
 20
-383.8429578888896
 30
0.0
 11
619.688301163179
 21
-383.7429567254924
 31
0.0
  0
LINE
  5
21E08
330
18
100
AcDbEntity
  8
0
100
AcDbLine
 10
622.688301163179
 20
-383.1429497451094
 30
0.0
 11
623.188301163179
 21
-383.0429485817122
 31
0.0
  0
LINE
  5
21E09
330
18
100
AcDbEntity
  8
0
100
AcDbLine
 10
619.188301163179
 20
-387.0429578888896
 30
0.0
 11
619.688301163179
 21
-386.9429567254924
 31
0.0
  0
LINE
  5
21E0A
330
18
100
AcDbEntity
  8
0
100
AcDbLine
 10
619.188301163179
 20
-385.4429578888895
 30
0.0
 11
619.688301163179
 21
-385.3429567254924
 31
0.0
  0
LINE
  5
21E0B
330
18
100
AcDbEntity
  8
0
100
AcDbLine
 10
622.688301163179
 20
-384.7429497451093
 30
0.0
 11
623.188301163179
 21
-384.6429485817122
 31
0.0
  0
LINE
  5
21E0C
330
18
100
AcDbEntity
  8
0
100
AcDbLine
 10
622.688301163179
 20
-386.3429497451092
 30
0.0
 11
623.188301163179
 21
-386.2429485817121
 31
0.0
  0
LINE
  5
21E0D
330
18
100
AcDbEntity
  8
0
100
AcDbLine
 10
623.188301163179
 20
-386.2429485817121
 30
0.0
 11
619.188301163179
 21
-385.4429578888895
 31
0.0
  0
LINE
  5
21E0E
330
18
100
AcDbEntity
  8
0
100
AcDbLine
 10
619.8675223197897
 20
-377.4429563084813
 30
0.0
 11
620.419271783593
 21
-377.2601921658533
 31
0.0
  0
LINE
  5
21E0F
330
18
100
AcDbEntity
  8
0
100
AcDbLine
 10
619.188301163179
 20
-380.6429578888896
 30
0.0
 11
619.688301163179
 21
-380.5429567254924
 31
0.0
  0
LINE
  5
21E10
330
18
100
AcDbEntity
  8
0
100
AcDbLine
 10
619.188301163179
 20
-382.2429578888896
 30
0.0
 11
619.688301163179
 21
-382.1429567254926
 31
0.0
  0
LINE
  5
21E11
330
18
100
AcDbEntity
  8
0
100
AcDbLine
 10
619.4147082153829
 20
-379.0429573620869
 30
0.0
 11
619.951301950654
 21
-378.913686664457
 31
0.0
  0
LINE
  5
21E12
330
18
100
AcDbEntity
  8
0
100
AcDbLine
 10
622.2673865659702
 20
-378.3557191476724
 30
0.0
 11
622.7354850211202
 21
-378.2429496353224
 31
0.0
  0
LINE
  5
21E13
330
18
100
AcDbEntity
  8
0
100
AcDbLine
 10
622.688301163179
 20
-381.5429497451092
 30
0.0
 11
623.188301163179
 21
-381.4429485817122
 31
0.0
  0
LINE
  5
21E14
330
18
100
AcDbEntity
  8
0
100
AcDbLine
 10
622.688301163179
 20
-379.9429497451093
 30
0.0
 11
623.188301163179
 21
-379.8429485817123
 31
0.0
  0
LINE
  5
21E15
330
18
100
AcDbEntity
  8
0
100
AcDbLine
 10
621.8254996724409
 20
-376.794386485367
 30
0.0
 11
622.2826715130719
 21
-376.6429506889266
 31
0.0
  0
LINE
  5
21E16
330
18
100
AcDbEntity
  8
0
100
AcDbLine
 10
622.7354850211202
 20
-378.2429496353224
 30
0.0
 11
619.8675223197897
 21
-377.4429563084813
 31
0.0
  0
LINE
  5
21E17
330
18
100
AcDbEntity
  8
0
100
AcDbLine
 10
623.188301163179
 20
-381.4429485817122
 30
0.0
 11
619.188301163179
 21
-380.6429578888896
 31
0.0
  0
LINE
  5
21E18
330
18
100
AcDbEntity
  8
0
100
AcDbLine
 10
623.188301163179
 20
-379.8429485817123
 30
0.0
 11
619.4147082153829
 21
-379.0429573620869
 31
0.0
  0
LINE
  5
21E19
330
18
100
AcDbEntity
  8
0
100
AcDbLine
 10
623.188301163179
 20
-383.0429485817122
 30
0.0
 11
619.188301163179
 21
-382.2429578888896
 31
0.0
  0
LINE
  5
21E1A
330
18
100
AcDbEntity
  8
0
100
AcDbLine
 10
623.188301163179
 20
-395.8429485817166
 30
0.0
 11
619.188301163179
 21
-395.0429578888983
 31
0.0
  0
LINE
  5
21E1B
330
18
100
AcDbEntity
  8
0
100
AcDbLine
 10
619.188301163179
 20
-395.0429578888983
 30
0.0
 11
619.688301163179
 21
-394.9429567255006
 31
0.0
  0
LINE
  5
21E1C
330
18
100
AcDbEntity
  8
0
100
AcDbLine
 10
622.688301163179
 20
-394.3429497451099
 30
0.0
 11
623.188301163179
 21
-394.2429485817123
 31
0.0
  0
LINE
  5
21E1D
330
18
100
AcDbEntity
  8
0
100
AcDbLine
 10
619.188301163179
 20
-396.6429578888984
 30
0.0
 11
619.688301163179
 21
-396.5429567255007
 31
0.0
  0
LINE
  5
21E1E
330
18
100
AcDbEntity
  8
0
100
AcDbLine
 10
619.188301163179
 20
-398.2429578888983
 30
0.0
 11
619.688301163179
 21
-398.1429567255007
 31
0.0
  0
LINE
  5
21E1F
330
18
100
AcDbEntity
  8
0
100
AcDbLine
 10
622.688301163179
 20
-395.9429497451143
 30
0.0
 11
623.188301163179
 21
-395.8429485817166
 31
0.0
  0
LINE
  5
21E20
330
18
100
AcDbEntity
  8
0
100
AcDbLine
 10
622.688301163179
 20
-397.5429497451144
 30
0.0
 11
623.188301163179
 21
-397.4429485817167
 31
0.0
  0
LINE
  5
21E21
330
18
100
AcDbEntity
  8
0
100
AcDbLine
 10
623.188301163179
 20
-397.4429485817167
 30
0.0
 11
619.188301163179
 21
-396.6429578888984
 31
0.0
  0
LINE
  5
21E22
330
18
100
AcDbEntity
  8
0
100
AcDbLine
 10
619.188301163179
 20
-390.2429578888939
 30
0.0
 11
619.688301163179
 21
-390.1429567254962
 31
0.0
  0
LINE
  5
21E23
330
18
100
AcDbEntity
  8
0
100
AcDbLine
 10
619.188301163179
 20
-388.6429578888896
 30
0.0
 11
619.688301163179
 21
-388.5429567254924
 31
0.0
  0
LINE
  5
21E24
330
18
100
AcDbEntity
  8
0
100
AcDbLine
 10
619.188301163179
 20
-393.4429578888939
 30
0.0
 11
619.688301163179
 21
-393.3429567254963
 31
0.0
  0
LINE
  5
21E25
330
18
100
AcDbEntity
  8
0
100
AcDbLine
 10
619.188301163179
 20
-391.842957888894
 30
0.0
 11
619.688301163179
 21
-391.7429567254964
 31
0.0
  0
LINE
  5
21E26
330
18
100
AcDbEntity
  8
0
100
AcDbLine
 10
622.688301163179
 20
-387.9429497451093
 30
0.0
 11
623.188301163179
 21
-387.8429485817123
 31
0.0
  0
LINE
  5
21E27
330
18
100
AcDbEntity
  8
0
100
AcDbLine
 10
622.688301163179
 20
-389.5429497451099
 30
0.0
 11
623.188301163179
 21
-389.4429485817122
 31
0.0
  0
LINE
  5
21E28
330
18
100
AcDbEntity
  8
0
100
AcDbLine
 10
622.688301163179
 20
-392.74294974511
 30
0.0
 11
623.188301163179
 21
-392.6429485817123
 31
0.0
  0
LINE
  5
21E29
330
18
100
AcDbEntity
  8
0
100
AcDbLine
 10
622.688301163179
 20
-391.1429497451098
 30
0.0
 11
623.188301163179
 21
-391.0429485817122
 31
0.0
  0
LINE
  5
21E2A
330
18
100
AcDbEntity
  8
0
100
AcDbLine
 10
623.188301163179
 20
-391.0429485817122
 30
0.0
 11
619.188301163179
 21
-390.2429578888939
 31
0.0
  0
LINE
  5
21E2B
330
18
100
AcDbEntity
  8
0
100
AcDbLine
 10
623.188301163179
 20
-389.4429485817122
 30
0.0
 11
619.188301163179
 21
-388.6429578888896
 31
0.0
  0
LINE
  5
21E2C
330
18
100
AcDbEntity
  8
0
100
AcDbLine
 10
623.188301163179
 20
-392.6429485817123
 30
0.0
 11
619.188301163179
 21
-391.842957888894
 31
0.0
  0
LINE
  5
21E2D
330
18
100
AcDbEntity
  8
0
100
AcDbLine
 10
623.188301163179
 20
-394.2429485817123
 30
0.0
 11
619.188301163179
 21
-393.4429578888939
 31
0.0
  0
LINE
  5
21E2E
330
18
100
AcDbEntity
  8
0
100
AcDbLine
 10
622.688301163179
 20
-403.9429497451185
 30
0.0
 11
623.188301163179
 21
-403.8429485817208
 31
0.0
  0
LINE
  5
21E2F
330
18
100
AcDbEntity
  8
0
100
AcDbLine
 10
623.188301163179
 20
-403.8429485817208
 30
0.0
 11
619.188301163179
 21
-403.0429578889025
 31
0.0
  0
LINE
  5
21E30
330
18
100
AcDbEntity
  8
0
100
AcDbLine
 10
619.188301163179
 20
-403.0429578889025
 30
0.0
 11
619.688301163179
 21
-402.9429567255048
 31
0.0
  0
LINE
  5
21E31
330
18
100
AcDbEntity
  8
0
100
AcDbLine
 10
622.688301163179
 20
-402.3429497451186
 30
0.0
 11
623.188301163179
 21
-402.2429485817209
 31
0.0
  0
LINE
  5
21E32
330
18
100
AcDbEntity
  8
0
100
AcDbLine
 10
622.688301163179
 20
-400.7429497451187
 30
0.0
 11
623.188301163179
 21
-400.642948581721
 31
0.0
  0
LINE
  5
21E33
330
18
100
AcDbEntity
  8
0
100
AcDbLine
 10
623.188301163179
 20
-400.642948581721
 30
0.0
 11
619.188301163179
 21
-399.8429578889027
 31
0.0
  0
LINE
  5
21E34
330
18
100
AcDbEntity
  8
0
100
AcDbLine
 10
619.188301163179
 20
-401.4429578889026
 30
0.0
 11
619.688301163179
 21
-401.3429567255049
 31
0.0
  0
LINE
  5
21E35
330
18
100
AcDbEntity
  8
0
100
AcDbLine
 10
619.188301163179
 20
-399.8429578889027
 30
0.0
 11
619.688301163179
 21
-399.742956725505
 31
0.0
  0
LINE
  5
21E36
330
18
100
AcDbEntity
  8
0
100
AcDbLine
 10
623.188301163179
 20
-402.2429485817209
 30
0.0
 11
619.188301163179
 21
-401.4429578889026
 31
0.0
  0
LINE
  5
21E37
330
18
100
AcDbEntity
  8
0
100
AcDbLine
 10
622.688301163179
 20
-399.1429497451143
 30
0.0
 11
623.188301163179
 21
-399.0429485817166
 31
0.0
  0
LINE
  5
21E38
330
18
100
AcDbEntity
  8
0
100
AcDbLine
 10
622.688301163179
 20
-405.5429497451184
 30
0.0
 11
623.188301163179
 21
-405.4429485817207
 31
0.0
  0
LINE
  5
21E39
330
18
100
AcDbEntity
  8
0
100
AcDbLine
 10
623.188301163179
 20
-405.4429485817207
 30
0.0
 11
619.188301163179
 21
-404.6429578889024
 31
0.0
  0
LINE
  5
21E3A
330
18
100
AcDbEntity
  8
0
100
AcDbLine
 10
619.188301163179
 20
-404.6429578889024
 30
0.0
 11
619.688301163179
 21
-404.5429567255047
 31
0.0
  0
LINE
  5
21E3B
330
18
100
AcDbEntity
  8
0
100
AcDbLine
 10
622.688301163179
 20
-407.1429497451183
 30
0.0
 11
623.188301163179
 21
-407.0429485817206
 31
0.0
  0
LINE
  5
21E3C
330
18
100
AcDbEntity
  8
0
100
AcDbLine
 10
623.188301163179
 20
-407.0429485817206
 30
0.0
 11
619.188301163179
 21
-406.2429578889023
 31
0.0
  0
LINE
  5
21E3D
330
18
100
AcDbEntity
  8
0
100
AcDbLine
 10
619.188301163179
 20
-406.2429578889023
 30
0.0
 11
619.688301163179
 21
-406.1429567255046
 31
0.0
  0
LINE
  5
21E3E
330
18
100
AcDbEntity
  8
0
100
AcDbLine
 10
622.688301163179
 20
-408.7429497451182
 30
0.0
 11
623.188301163179
 21
-408.6429485817205
 31
0.0
  0
LINE
  5
21E3F
330
18
100
AcDbEntity
  8
0
100
AcDbLine
 10
623.188301163179
 20
-408.6429485817205
 30
0.0
 11
619.188301163179
 21
-407.8429578889022
 31
0.0
  0
LINE
  5
21E40
330
18
100
AcDbEntity
  8
0
100
AcDbLine
 10
619.188301163179
 20
-407.8429578889022
 30
0.0
 11
619.688301163179
 21
-407.7429567255045
 31
0.0
  0
TEXT
  5
21E41
330
18
100
AcDbEntity
  8
1DIM
  6
CONTINUOUS
100
AcDbText
 10
780.1382340767326
 20
-726.7691885884096
 30
0.0
 40
7.0
  1
材質：ステンレス
100
AcDbText
1001
ACADANNOTATIVE
1000
AnnotativeData
1002
{
1070
     1
1070
     0
1002
}
  0
TEXT
  5
21E42
330
18
100
AcDbEntity
  8
1DIM
  6
CONTINUOUS
100
AcDbText
 10
771.0382340767326
 20
-738.4358552550763
 30
0.0
 40
7.0
  1
仕上げ：各種仕上げ
100
AcDbText
1001
ACADANNOTATIVE
1000
AnnotativeData
1002
{
1070
     1
1070
     0
1002
}
  0
SOLID
  5
21E43
330
18
100
AcDbEntity
  8
1DIM
100
AcDbTrace
 10
873.5809352692808
 20
-703.6669776530447
 30
0.0
 11
875.0336518479448
 21
-702.2525075567947
 31
0.0
 12
874.1182075479923
 22
-704.0616711328142
 32
0.0
 13
874.1182075479923
 23
-704.0616711328142
 33
0.0
1001
ACAD
1000
DSTYLE
1002
{
1070
    45
1040
0.5
1002
}
  0
LINE
  5
21E44
330
18
100
AcDbEntity
  8
1DIM
100
AcDbLine
 10
873.8495714086365
 20
-703.8643243929295
 30
0.0
 11
847.9382340767327
 21
-739.1358552550763
 31
0.0
1001
ACAD
1000
DSTYLE
1002
{
1070
    45
1040
0.5
1002
}
  0
LINE
  5
21E45
330
18
100
AcDbEntity
  8
1DIM
100
AcDbLine
 10
847.9382340767327
 20
-739.1358552550763
 30
0.0
 11
771.271567410066
 21
-739.1358552550763
 31
0.0
1001
ACAD
1000
DSTYLE
1002
{
1070
    45
1040
0.5
1002
}
  0
LINE
  5
21E90
330
18
100
AcDbEntity
  8
0
100
AcDbLine
 10
330.1883475442427
 20
-374.5429532352488
 30
0.0
 11
331.6883475442427
 21
-379.8429497451105
 31
0.0
  0
LINE
  5
21E91
330
18
100
AcDbEntity
  8
0
100
AcDbLine
 10
331.6883475442427
 20
-379.8429497451105
 30
0.0
 11
331.6883475442424
 21
-409.5429497450024
 31
0.0
  0
LINE
  5
21E92
330
18
100
AcDbEntity
  8
0
100
AcDbLine
 10
330.1883475442427
 20
-374.5429532352488
 30
0.0
 11
328.6883475442426
 21
-379.8429567254941
 31
0.0
  0
LINE
  5
21E93
330
18
100
AcDbEntity
  8
0
100
AcDbLine
 10
333.6883940801405
 20
-409.5429450913043
 30
0.0
 11
326.6883940801406
 21
-409.5429613788686
 31
0.0
  0
LINE
  5
21E94
330
18
100
AcDbEntity
  8
0
100
AcDbLine
 10
328.6883475442426
 20
-379.8429567254941
 30
0.0
 11
328.6883475442424
 21
-409.5429567253871
 31
0.0
  0
LINE
  5
21E95
330
18
100
AcDbEntity
  8
0
100
AcDbLine
 10
333.6883940801405
 20
-409.5429450913043
 30
0.0
 11
333.6883940801406
 21
-410.6429485814996
 31
0.0
  0
ARC
  5
21E96
330
18
100
AcDbEntity
  8
0
100
AcDbCircle
 10
332.1883940801406
 20
-410.6429485814996
 30
0.0
 40
1.5
100
AcDbArc
 50
270.0001333155316
 51
0.0
  0
LINE
  5
21E97
330
18
100
AcDbEntity
  8
0
100
AcDbLine
 10
326.6883940801406
 20
-409.5429613788686
 30
0.0
 11
326.6883940801406
 21
-410.6429578886792
 31
0.0
  0
LINE
  5
21E98
330
18
100
AcDbEntity
  8
0
100
AcDbLine
 10
332.188397570333
 20
-412.1429485814955
 30
0.0
 11
328.188397570333
 21
-412.1429578886751
 31
0.0
  0
ARC
  5
21E99
330
18
100
AcDbEntity
  8
0
100
AcDbCircle
 10
328.1883940801406
 20
-410.6429578886792
 30
0.0
 40
1.5
100
AcDbArc
 50
180.0
 51
270.0001333155316
  0
LINE
  5
21E9A
330
18
100
AcDbEntity
  8
1CENTER
100
AcDbLine
 10
330.1883940801407
 20
-373.1121583177834
 30
0.0
 11
330.1883940801406
 21
-413.2132296443953
 31
0.0
  0
LINE
  5
21E9B
330
18
100
AcDbEntity
  8
0
100
AcDbLine
 10
331.2827178941357
 20
-376.6429506889266
 30
0.0
 11
329.3203828052603
 21
-375.8429552548756
 31
0.0
  0
LINE
  5
21E9C
330
18
100
AcDbEntity
  8
0
100
AcDbLine
 10
329.3203828052603
 20
-375.8429552548756
 30
0.0
 11
329.9086593803027
 21
-375.5311853986235
 31
0.0
  0
LINE
  5
21E9D
330
18
100
AcDbEntity
  8
0
100
AcDbLine
 10
332.1883475442427
 20
-399.0429485817166
 30
0.0
 11
328.1883475442427
 21
-398.2429578888983
 31
0.0
  0
LINE
  5
21E9E
330
18
100
AcDbEntity
  8
0
100
AcDbLine
 10
332.1883475442427
 20
-387.8429485817123
 30
0.0
 11
328.1883475442427
 21
-387.0429578888896
 31
0.0
  0
LINE
  5
21E9F
330
18
100
AcDbEntity
  8
0
100
AcDbLine
 10
332.1883475442427
 20
-384.6429485817122
 30
0.0
 11
328.1883475442427
 21
-383.8429578888896
 31
0.0
  0
LINE
  5
21EA0
330
18
100
AcDbEntity
  8
0
100
AcDbLine
 10
328.1883475442427
 20
-383.8429578888896
 30
0.0
 11
328.6883475442427
 21
-383.7429567254924
 31
0.0
  0
LINE
  5
21EA1
330
18
100
AcDbEntity
  8
0
100
AcDbLine
 10
331.6883475442427
 20
-383.1429497451094
 30
0.0
 11
332.1883475442427
 21
-383.0429485817122
 31
0.0
  0
LINE
  5
21EA2
330
18
100
AcDbEntity
  8
0
100
AcDbLine
 10
328.1883475442427
 20
-387.0429578888896
 30
0.0
 11
328.6883475442427
 21
-386.9429567254924
 31
0.0
  0
LINE
  5
21EA3
330
18
100
AcDbEntity
  8
0
100
AcDbLine
 10
328.1883475442427
 20
-385.4429578888895
 30
0.0
 11
328.6883475442427
 21
-385.3429567254924
 31
0.0
  0
LINE
  5
21EA4
330
18
100
AcDbEntity
  8
0
100
AcDbLine
 10
331.6883475442427
 20
-384.7429497451093
 30
0.0
 11
332.1883475442427
 21
-384.6429485817122
 31
0.0
  0
LINE
  5
21EA5
330
18
100
AcDbEntity
  8
0
100
AcDbLine
 10
331.6883475442427
 20
-386.3429497451093
 30
0.0
 11
332.1883475442427
 21
-386.2429485817121
 31
0.0
  0
LINE
  5
21EA6
330
18
100
AcDbEntity
  8
0
100
AcDbLine
 10
332.1883475442427
 20
-386.2429485817121
 30
0.0
 11
328.1883475442427
 21
-385.4429578888895
 31
0.0
  0
LINE
  5
21EA7
330
18
100
AcDbEntity
  8
0
100
AcDbLine
 10
328.8675687008535
 20
-377.4429563084813
 30
0.0
 11
329.4193181646568
 21
-377.2601921658533
 31
0.0
  0
LINE
  5
21EA8
330
18
100
AcDbEntity
  8
0
100
AcDbLine
 10
328.1883475442427
 20
-380.6429578888896
 30
0.0
 11
328.6883475442427
 21
-380.5429567254924
 31
0.0
  0
LINE
  5
21EA9
330
18
100
AcDbEntity
  8
0
100
AcDbLine
 10
328.1883475442427
 20
-382.2429578888896
 30
0.0
 11
328.6883475442427
 21
-382.1429567254926
 31
0.0
  0
LINE
  5
21EAA
330
18
100
AcDbEntity
  8
0
100
AcDbLine
 10
328.4147545964467
 20
-379.0429573620869
 30
0.0
 11
328.9513483317178
 21
-378.913686664457
 31
0.0
  0
LINE
  5
21EAB
330
18
100
AcDbEntity
  8
0
100
AcDbLine
 10
331.267432947034
 20
-378.3557191476725
 30
0.0
 11
331.735531402184
 21
-378.2429496353224
 31
0.0
  0
LINE
  5
21EAC
330
18
100
AcDbEntity
  8
0
100
AcDbLine
 10
331.6883475442427
 20
-381.5429497451093
 30
0.0
 11
332.1883475442427
 21
-381.4429485817122
 31
0.0
  0
LINE
  5
21EAD
330
18
100
AcDbEntity
  8
0
100
AcDbLine
 10
331.6883475442427
 20
-379.9429497451094
 30
0.0
 11
332.1883475442427
 21
-379.8429485817123
 31
0.0
  0
LINE
  5
21EAE
330
18
100
AcDbEntity
  8
0
100
AcDbLine
 10
330.8255460535046
 20
-376.794386485367
 30
0.0
 11
331.2827178941357
 21
-376.6429506889266
 31
0.0
  0
LINE
  5
21EAF
330
18
100
AcDbEntity
  8
0
100
AcDbLine
 10
331.735531402184
 20
-378.2429496353224
 30
0.0
 11
328.8675687008535
 21
-377.4429563084813
 31
0.0
  0
LINE
  5
21EB0
330
18
100
AcDbEntity
  8
0
100
AcDbLine
 10
332.1883475442427
 20
-381.4429485817122
 30
0.0
 11
328.1883475442427
 21
-380.6429578888896
 31
0.0
  0
LINE
  5
21EB1
330
18
100
AcDbEntity
  8
0
100
AcDbLine
 10
332.1883475442427
 20
-379.8429485817123
 30
0.0
 11
328.4147545964467
 21
-379.0429573620869
 31
0.0
  0
LINE
  5
21EB2
330
18
100
AcDbEntity
  8
0
100
AcDbLine
 10
332.1883475442427
 20
-383.0429485817122
 30
0.0
 11
328.1883475442427
 21
-382.2429578888896
 31
0.0
  0
LINE
  5
21EB3
330
18
100
AcDbEntity
  8
0
100
AcDbLine
 10
332.1883475442427
 20
-395.8429485817166
 30
0.0
 11
328.1883475442427
 21
-395.0429578888983
 31
0.0
  0
LINE
  5
21EB4
330
18
100
AcDbEntity
  8
0
100
AcDbLine
 10
328.1883475442427
 20
-395.0429578888983
 30
0.0
 11
328.6883475442427
 21
-394.9429567255006
 31
0.0
  0
LINE
  5
21EB5
330
18
100
AcDbEntity
  8
0
100
AcDbLine
 10
331.6883475442427
 20
-394.3429497451099
 30
0.0
 11
332.1883475442427
 21
-394.2429485817123
 31
0.0
  0
LINE
  5
21EB6
330
18
100
AcDbEntity
  8
0
100
AcDbLine
 10
328.1883475442427
 20
-396.6429578888984
 30
0.0
 11
328.6883475442427
 21
-396.5429567255007
 31
0.0
  0
LINE
  5
21EB7
330
18
100
AcDbEntity
  8
0
100
AcDbLine
 10
328.1883475442427
 20
-398.2429578888983
 30
0.0
 11
328.6883475442427
 21
-398.1429567255007
 31
0.0
  0
LINE
  5
21EB8
330
18
100
AcDbEntity
  8
0
100
AcDbLine
 10
331.6883475442427
 20
-395.9429497451143
 30
0.0
 11
332.1883475442427
 21
-395.8429485817166
 31
0.0
  0
LINE
  5
21EB9
330
18
100
AcDbEntity
  8
0
100
AcDbLine
 10
331.6883475442427
 20
-397.5429497451144
 30
0.0
 11
332.1883475442427
 21
-397.4429485817167
 31
0.0
  0
LINE
  5
21EBA
330
18
100
AcDbEntity
  8
0
100
AcDbLine
 10
332.1883475442427
 20
-397.4429485817167
 30
0.0
 11
328.1883475442427
 21
-396.6429578888984
 31
0.0
  0
LINE
  5
21EBB
330
18
100
AcDbEntity
  8
0
100
AcDbLine
 10
328.1883475442427
 20
-390.2429578888939
 30
0.0
 11
328.6883475442427
 21
-390.1429567254962
 31
0.0
  0
LINE
  5
21EBC
330
18
100
AcDbEntity
  8
0
100
AcDbLine
 10
328.1883475442427
 20
-388.6429578888896
 30
0.0
 11
328.6883475442427
 21
-388.5429567254924
 31
0.0
  0
LINE
  5
21EBD
330
18
100
AcDbEntity
  8
0
100
AcDbLine
 10
328.1883475442427
 20
-393.4429578888939
 30
0.0
 11
328.6883475442427
 21
-393.3429567254963
 31
0.0
  0
LINE
  5
21EBE
330
18
100
AcDbEntity
  8
0
100
AcDbLine
 10
328.1883475442427
 20
-391.842957888894
 30
0.0
 11
328.6883475442427
 21
-391.7429567254964
 31
0.0
  0
LINE
  5
21EBF
330
18
100
AcDbEntity
  8
0
100
AcDbLine
 10
331.6883475442427
 20
-387.9429497451094
 30
0.0
 11
332.1883475442427
 21
-387.8429485817123
 31
0.0
  0
LINE
  5
21EC0
330
18
100
AcDbEntity
  8
0
100
AcDbLine
 10
331.6883475442427
 20
-389.54294974511
 30
0.0
 11
332.1883475442427
 21
-389.4429485817122
 31
0.0
  0
LINE
  5
21EC1
330
18
100
AcDbEntity
  8
0
100
AcDbLine
 10
331.6883475442427
 20
-392.74294974511
 30
0.0
 11
332.1883475442427
 21
-392.6429485817123
 31
0.0
  0
LINE
  5
21EC2
330
18
100
AcDbEntity
  8
0
100
AcDbLine
 10
331.6883475442427
 20
-391.1429497451099
 30
0.0
 11
332.1883475442427
 21
-391.0429485817122
 31
0.0
  0
LINE
  5
21EC3
330
18
100
AcDbEntity
  8
0
100
AcDbLine
 10
332.1883475442427
 20
-391.0429485817122
 30
0.0
 11
328.1883475442427
 21
-390.2429578888939
 31
0.0
  0
LINE
  5
21EC4
330
18
100
AcDbEntity
  8
0
100
AcDbLine
 10
332.1883475442427
 20
-389.4429485817122
 30
0.0
 11
328.1883475442427
 21
-388.6429578888896
 31
0.0
  0
LINE
  5
21EC5
330
18
100
AcDbEntity
  8
0
100
AcDbLine
 10
332.1883475442427
 20
-392.6429485817123
 30
0.0
 11
328.1883475442427
 21
-391.842957888894
 31
0.0
  0
LINE
  5
21EC6
330
18
100
AcDbEntity
  8
0
100
AcDbLine
 10
332.1883475442427
 20
-394.2429485817123
 30
0.0
 11
328.1883475442427
 21
-393.4429578888939
 31
0.0
  0
LINE
  5
21EC7
330
18
100
AcDbEntity
  8
0
100
AcDbLine
 10
331.6883475442427
 20
-403.9429497451185
 30
0.0
 11
332.1883475442427
 21
-403.8429485817208
 31
0.0
  0
LINE
  5
21EC8
330
18
100
AcDbEntity
  8
0
100
AcDbLine
 10
332.1883475442427
 20
-403.8429485817208
 30
0.0
 11
328.1883475442427
 21
-403.0429578889025
 31
0.0
  0
LINE
  5
21EC9
330
18
100
AcDbEntity
  8
0
100
AcDbLine
 10
328.1883475442427
 20
-403.0429578889025
 30
0.0
 11
328.6883475442427
 21
-402.9429567255048
 31
0.0
  0
LINE
  5
21ECA
330
18
100
AcDbEntity
  8
0
100
AcDbLine
 10
331.6883475442427
 20
-402.3429497451186
 30
0.0
 11
332.1883475442427
 21
-402.2429485817209
 31
0.0
  0
LINE
  5
21ECB
330
18
100
AcDbEntity
  8
0
100
AcDbLine
 10
331.6883475442427
 20
-400.7429497451187
 30
0.0
 11
332.1883475442427
 21
-400.642948581721
 31
0.0
  0
LINE
  5
21ECC
330
18
100
AcDbEntity
  8
0
100
AcDbLine
 10
332.1883475442427
 20
-400.642948581721
 30
0.0
 11
328.1883475442427
 21
-399.8429578889027
 31
0.0
  0
LINE
  5
21ECD
330
18
100
AcDbEntity
  8
0
100
AcDbLine
 10
328.1883475442427
 20
-401.4429578889026
 30
0.0
 11
328.6883475442427
 21
-401.3429567255049
 31
0.0
  0
LINE
  5
21ECE
330
18
100
AcDbEntity
  8
0
100
AcDbLine
 10
328.1883475442427
 20
-399.8429578889027
 30
0.0
 11
328.6883475442427
 21
-399.742956725505
 31
0.0
  0
LINE
  5
21ECF
330
18
100
AcDbEntity
  8
0
100
AcDbLine
 10
332.1883475442427
 20
-402.2429485817209
 30
0.0
 11
328.1883475442427
 21
-401.4429578889026
 31
0.0
  0
LINE
  5
21ED0
330
18
100
AcDbEntity
  8
0
100
AcDbLine
 10
331.6883475442427
 20
-399.1429497451143
 30
0.0
 11
332.1883475442427
 21
-399.0429485817166
 31
0.0
  0
LINE
  5
21ED1
330
18
100
AcDbEntity
  8
0
100
AcDbLine
 10
331.6883475442427
 20
-405.5429497451184
 30
0.0
 11
332.1883475442427
 21
-405.4429485817207
 31
0.0
  0
LINE
  5
21ED2
330
18
100
AcDbEntity
  8
0
100
AcDbLine
 10
332.1883475442427
 20
-405.4429485817207
 30
0.0
 11
328.1883475442427
 21
-404.6429578889024
 31
0.0
  0
LINE
  5
21ED3
330
18
100
AcDbEntity
  8
0
100
AcDbLine
 10
328.1883475442427
 20
-404.6429578889024
 30
0.0
 11
328.6883475442427
 21
-404.5429567255047
 31
0.0
  0
LINE
  5
21ED4
330
18
100
AcDbEntity
  8
0
100
AcDbLine
 10
331.6883475442427
 20
-407.1429497451183
 30
0.0
 11
332.1883475442427
 21
-407.0429485817206
 31
0.0
  0
LINE
  5
21ED5
330
18
100
AcDbEntity
  8
0
100
AcDbLine
 10
332.1883475442427
 20
-407.0429485817206
 30
0.0
 11
328.1883475442427
 21
-406.2429578889023
 31
0.0
  0
LINE
  5
21ED6
330
18
100
AcDbEntity
  8
0
100
AcDbLine
 10
328.1883475442427
 20
-406.2429578889023
 30
0.0
 11
328.6883475442427
 21
-406.1429567255046
 31
0.0
  0
LINE
  5
21ED7
330
18
100
AcDbEntity
  8
0
100
AcDbLine
 10
331.6883475442427
 20
-408.7429497451182
 30
0.0
 11
332.1883475442427
 21
-408.6429485817205
 31
0.0
  0
LINE
  5
21ED8
330
18
100
AcDbEntity
  8
0
100
AcDbLine
 10
332.1883475442427
 20
-408.6429485817205
 30
0.0
 11
328.1883475442427
 21
-407.8429578889022
 31
0.0
  0
LINE
  5
21ED9
330
18
100
AcDbEntity
  8
0
100
AcDbLine
 10
328.1883475442427
 20
-407.8429578889022
 30
0.0
 11
328.6883475442427
 21
-407.7429567255045
 31
0.0
  0
LINE
  5
21EDA
330
18
100
AcDbEntity
  8
0
100
AcDbLine
 10
-260.8115130091066
 20
-374.5429532352488
 30
0.0
 11
-262.3115130091066
 21
-379.8429497451104
 31
0.0
  0
LINE
  5
21EDB
330
18
100
AcDbEntity
  8
0
100
AcDbLine
 10
-262.3115130091066
 20
-379.8429497451104
 30
0.0
 11
-262.3115130091064
 21
-409.5429497450024
 31
0.0
  0
LINE
  5
21EDC
330
18
100
AcDbEntity
  8
0
100
AcDbLine
 10
-260.8115130091066
 20
-374.5429532352488
 30
0.0
 11
-259.3115130091065
 21
-379.8429567254941
 31
0.0
  0
LINE
  5
21EDD
330
18
100
AcDbEntity
  8
0
100
AcDbLine
 10
-264.3115595450045
 20
-409.5429450913043
 30
0.0
 11
-257.3115595450046
 21
-409.5429613788686
 31
0.0
  0
LINE
  5
21EDE
330
18
100
AcDbEntity
  8
0
100
AcDbLine
 10
-259.3115130091065
 20
-379.8429567254941
 30
0.0
 11
-259.3115130091064
 21
-409.5429567253871
 31
0.0
  0
LINE
  5
21EDF
330
18
100
AcDbEntity
  8
0
100
AcDbLine
 10
-264.3115595450045
 20
-409.5429450913043
 30
0.0
 11
-264.3115595450046
 21
-410.6429485814996
 31
0.0
  0
ARC
  5
21EE0
330
18
100
AcDbEntity
  8
0
100
AcDbCircle
 10
-262.8115595450046
 20
-410.6429485814996
 30
0.0
 40
1.5
100
AcDbArc
 50
180.0
 51
269.9998666844684
  0
LINE
  5
21EE1
330
18
100
AcDbEntity
  8
0
100
AcDbLine
 10
-257.3115595450046
 20
-409.5429613788686
 30
0.0
 11
-257.3115595450046
 21
-410.6429578886792
 31
0.0
  0
LINE
  5
21EE2
330
18
100
AcDbEntity
  8
0
100
AcDbLine
 10
-262.811563035197
 20
-412.1429485814955
 30
0.0
 11
-258.811563035197
 21
-412.1429578886751
 31
0.0
  0
ARC
  5
21EE3
330
18
100
AcDbEntity
  8
0
100
AcDbCircle
 10
-258.8115595450046
 20
-410.6429578886792
 30
0.0
 40
1.5
100
AcDbArc
 50
269.9998666844684
 51
0.0
  0
LINE
  5
21EE4
330
18
100
AcDbEntity
  8
1CENTER
100
AcDbLine
 10
-260.8115595450046
 20
-373.1121583177834
 30
0.0
 11
-260.8115595450046
 21
-413.2132296443953
 31
0.0
  0
LINE
  5
21EE5
330
18
100
AcDbEntity
  8
0
100
AcDbLine
 10
-261.9058833589996
 20
-376.6429506889266
 30
0.0
 11
-259.9435482701242
 21
-375.8429552548756
 31
0.0
  0
LINE
  5
21EE6
330
18
100
AcDbEntity
  8
0
100
AcDbLine
 10
-259.9435482701242
 20
-375.8429552548756
 30
0.0
 11
-260.5318248451666
 21
-375.5311853986235
 31
0.0
  0
LINE
  5
21EE7
330
18
100
AcDbEntity
  8
0
100
AcDbLine
 10
-262.8115130091066
 20
-399.0429485817166
 30
0.0
 11
-258.8115130091066
 21
-398.2429578888983
 31
0.0
  0
LINE
  5
21EE8
330
18
100
AcDbEntity
  8
0
100
AcDbLine
 10
-262.8115130091066
 20
-387.8429485817122
 30
0.0
 11
-258.8115130091066
 21
-387.0429578888896
 31
0.0
  0
LINE
  5
21EE9
330
18
100
AcDbEntity
  8
0
100
AcDbLine
 10
-262.8115130091066
 20
-384.6429485817122
 30
0.0
 11
-258.8115130091066
 21
-383.8429578888896
 31
0.0
  0
LINE
  5
21EEA
330
18
100
AcDbEntity
  8
0
100
AcDbLine
 10
-258.8115130091066
 20
-383.8429578888896
 30
0.0
 11
-259.3115130091066
 21
-383.7429567254924
 31
0.0
  0
LINE
  5
21EEB
330
18
100
AcDbEntity
  8
0
100
AcDbLine
 10
-262.3115130091066
 20
-383.1429497451094
 30
0.0
 11
-262.8115130091066
 21
-383.0429485817122
 31
0.0
  0
LINE
  5
21EEC
330
18
100
AcDbEntity
  8
0
100
AcDbLine
 10
-258.8115130091066
 20
-387.0429578888896
 30
0.0
 11
-259.3115130091066
 21
-386.9429567254924
 31
0.0
  0
LINE
  5
21EED
330
18
100
AcDbEntity
  8
0
100
AcDbLine
 10
-258.8115130091066
 20
-385.4429578888895
 30
0.0
 11
-259.3115130091066
 21
-385.3429567254924
 31
0.0
  0
LINE
  5
21EEE
330
18
100
AcDbEntity
  8
0
100
AcDbLine
 10
-262.3115130091066
 20
-384.7429497451093
 30
0.0
 11
-262.8115130091066
 21
-384.6429485817122
 31
0.0
  0
LINE
  5
21EEF
330
18
100
AcDbEntity
  8
0
100
AcDbLine
 10
-262.3115130091066
 20
-386.3429497451092
 30
0.0
 11
-262.8115130091066
 21
-386.2429485817121
 31
0.0
  0
LINE
  5
21EF0
330
18
100
AcDbEntity
  8
0
100
AcDbLine
 10
-262.8115130091066
 20
-386.2429485817121
 30
0.0
 11
-258.8115130091066
 21
-385.4429578888895
 31
0.0
  0
LINE
  5
21EF1
330
18
100
AcDbEntity
  8
0
100
AcDbLine
 10
-259.4907341657174
 20
-377.4429563084813
 30
0.0
 11
-260.0424836295207
 21
-377.2601921658533
 31
0.0
  0
LINE
  5
21EF2
330
18
100
AcDbEntity
  8
0
100
AcDbLine
 10
-258.8115130091066
 20
-380.6429578888896
 30
0.0
 11
-259.3115130091066
 21
-380.5429567254924
 31
0.0
  0
LINE
  5
21EF3
330
18
100
AcDbEntity
  8
0
100
AcDbLine
 10
-258.8115130091066
 20
-382.2429578888896
 30
0.0
 11
-259.3115130091066
 21
-382.1429567254926
 31
0.0
  0
LINE
  5
21EF4
330
18
100
AcDbEntity
  8
0
100
AcDbLine
 10
-259.0379200613106
 20
-379.0429573620869
 30
0.0
 11
-259.5745137965818
 21
-378.913686664457
 31
0.0
  0
LINE
  5
21EF5
330
18
100
AcDbEntity
  8
0
100
AcDbLine
 10
-261.8905984118979
 20
-378.3557191476724
 30
0.0
 11
-262.3586968670479
 21
-378.2429496353224
 31
0.0
  0
LINE
  5
21EF6
330
18
100
AcDbEntity
  8
0
100
AcDbLine
 10
-262.3115130091066
 20
-381.5429497451092
 30
0.0
 11
-262.8115130091066
 21
-381.4429485817121
 31
0.0
  0
LINE
  5
21EF7
330
18
100
AcDbEntity
  8
0
100
AcDbLine
 10
-262.3115130091066
 20
-379.9429497451093
 30
0.0
 11
-262.8115130091066
 21
-379.8429485817122
 31
0.0
  0
LINE
  5
21EF8
330
18
100
AcDbEntity
  8
0
100
AcDbLine
 10
-261.4487115183686
 20
-376.794386485367
 30
0.0
 11
-261.9058833589996
 21
-376.6429506889266
 31
0.0
  0
LINE
  5
21EF9
330
18
100
AcDbEntity
  8
0
100
AcDbLine
 10
-262.3586968670479
 20
-378.2429496353224
 30
0.0
 11
-259.4907341657174
 21
-377.4429563084813
 31
0.0
  0
LINE
  5
21EFA
330
18
100
AcDbEntity
  8
0
100
AcDbLine
 10
-262.8115130091066
 20
-381.4429485817121
 30
0.0
 11
-258.8115130091066
 21
-380.6429578888896
 31
0.0
  0
LINE
  5
21EFB
330
18
100
AcDbEntity
  8
0
100
AcDbLine
 10
-262.8115130091066
 20
-379.8429485817122
 30
0.0
 11
-259.0379200613106
 21
-379.0429573620869
 31
0.0
  0
LINE
  5
21EFC
330
18
100
AcDbEntity
  8
0
100
AcDbLine
 10
-262.8115130091066
 20
-383.0429485817122
 30
0.0
 11
-258.8115130091066
 21
-382.2429578888896
 31
0.0
  0
LINE
  5
21EFD
330
18
100
AcDbEntity
  8
0
100
AcDbLine
 10
-262.8115130091066
 20
-395.8429485817166
 30
0.0
 11
-258.8115130091066
 21
-395.0429578888983
 31
0.0
  0
LINE
  5
21EFE
330
18
100
AcDbEntity
  8
0
100
AcDbLine
 10
-258.8115130091066
 20
-395.0429578888983
 30
0.0
 11
-259.3115130091066
 21
-394.9429567255006
 31
0.0
  0
LINE
  5
21EFF
330
18
100
AcDbEntity
  8
0
100
AcDbLine
 10
-262.3115130091066
 20
-394.3429497451099
 30
0.0
 11
-262.8115130091066
 21
-394.2429485817123
 31
0.0
  0
LINE
  5
21F00
330
18
100
AcDbEntity
  8
0
100
AcDbLine
 10
-258.8115130091066
 20
-396.6429578888984
 30
0.0
 11
-259.3115130091066
 21
-396.5429567255007
 31
0.0
  0
LINE
  5
21F01
330
18
100
AcDbEntity
  8
0
100
AcDbLine
 10
-258.8115130091066
 20
-398.2429578888983
 30
0.0
 11
-259.3115130091066
 21
-398.1429567255007
 31
0.0
  0
LINE
  5
21F02
330
18
100
AcDbEntity
  8
0
100
AcDbLine
 10
-262.3115130091066
 20
-395.9429497451143
 30
0.0
 11
-262.8115130091066
 21
-395.8429485817166
 31
0.0
  0
LINE
  5
21F03
330
18
100
AcDbEntity
  8
0
100
AcDbLine
 10
-262.3115130091066
 20
-397.5429497451144
 30
0.0
 11
-262.8115130091066
 21
-397.4429485817167
 31
0.0
  0
LINE
  5
21F04
330
18
100
AcDbEntity
  8
0
100
AcDbLine
 10
-262.8115130091066
 20
-397.4429485817167
 30
0.0
 11
-258.8115130091066
 21
-396.6429578888984
 31
0.0
  0
LINE
  5
21F05
330
18
100
AcDbEntity
  8
0
100
AcDbLine
 10
-258.8115130091066
 20
-390.2429578888939
 30
0.0
 11
-259.3115130091066
 21
-390.1429567254962
 31
0.0
  0
LINE
  5
21F06
330
18
100
AcDbEntity
  8
0
100
AcDbLine
 10
-258.8115130091066
 20
-388.6429578888896
 30
0.0
 11
-259.3115130091066
 21
-388.5429567254924
 31
0.0
  0
LINE
  5
21F07
330
18
100
AcDbEntity
  8
0
100
AcDbLine
 10
-258.8115130091066
 20
-393.4429578888939
 30
0.0
 11
-259.3115130091066
 21
-393.3429567254963
 31
0.0
  0
LINE
  5
21F08
330
18
100
AcDbEntity
  8
0
100
AcDbLine
 10
-258.8115130091066
 20
-391.842957888894
 30
0.0
 11
-259.3115130091066
 21
-391.7429567254964
 31
0.0
  0
LINE
  5
21F09
330
18
100
AcDbEntity
  8
0
100
AcDbLine
 10
-262.3115130091066
 20
-387.9429497451093
 30
0.0
 11
-262.8115130091066
 21
-387.8429485817122
 31
0.0
  0
LINE
  5
21F0A
330
18
100
AcDbEntity
  8
0
100
AcDbLine
 10
-262.3115130091066
 20
-389.5429497451099
 30
0.0
 11
-262.8115130091066
 21
-389.4429485817121
 31
0.0
  0
LINE
  5
21F0B
330
18
100
AcDbEntity
  8
0
100
AcDbLine
 10
-262.3115130091066
 20
-392.74294974511
 30
0.0
 11
-262.8115130091066
 21
-392.6429485817123
 31
0.0
  0
LINE
  5
21F0C
330
18
100
AcDbEntity
  8
0
100
AcDbLine
 10
-262.3115130091066
 20
-391.1429497451098
 30
0.0
 11
-262.8115130091066
 21
-391.0429485817122
 31
0.0
  0
LINE
  5
21F0D
330
18
100
AcDbEntity
  8
0
100
AcDbLine
 10
-262.8115130091066
 20
-391.0429485817122
 30
0.0
 11
-258.8115130091066
 21
-390.2429578888939
 31
0.0
  0
LINE
  5
21F0E
330
18
100
AcDbEntity
  8
0
100
AcDbLine
 10
-262.8115130091066
 20
-389.4429485817121
 30
0.0
 11
-258.8115130091066
 21
-388.6429578888896
 31
0.0
  0
LINE
  5
21F0F
330
18
100
AcDbEntity
  8
0
100
AcDbLine
 10
-262.8115130091066
 20
-392.6429485817123
 30
0.0
 11
-258.8115130091066
 21
-391.842957888894
 31
0.0
  0
LINE
  5
21F10
330
18
100
AcDbEntity
  8
0
100
AcDbLine
 10
-262.8115130091066
 20
-394.2429485817123
 30
0.0
 11
-258.8115130091066
 21
-393.4429578888939
 31
0.0
  0
LINE
  5
21F11
330
18
100
AcDbEntity
  8
0
100
AcDbLine
 10
-262.3115130091066
 20
-403.9429497451185
 30
0.0
 11
-262.8115130091066
 21
-403.8429485817208
 31
0.0
  0
LINE
  5
21F12
330
18
100
AcDbEntity
  8
0
100
AcDbLine
 10
-262.8115130091066
 20
-403.8429485817208
 30
0.0
 11
-258.8115130091066
 21
-403.0429578889025
 31
0.0
  0
LINE
  5
21F13
330
18
100
AcDbEntity
  8
0
100
AcDbLine
 10
-258.8115130091066
 20
-403.0429578889025
 30
0.0
 11
-259.3115130091066
 21
-402.9429567255048
 31
0.0
  0
LINE
  5
21F14
330
18
100
AcDbEntity
  8
0
100
AcDbLine
 10
-262.3115130091066
 20
-402.3429497451186
 30
0.0
 11
-262.8115130091066
 21
-402.2429485817209
 31
0.0
  0
LINE
  5
21F15
330
18
100
AcDbEntity
  8
0
100
AcDbLine
 10
-262.3115130091066
 20
-400.7429497451187
 30
0.0
 11
-262.8115130091066
 21
-400.642948581721
 31
0.0
  0
LINE
  5
21F16
330
18
100
AcDbEntity
  8
0
100
AcDbLine
 10
-262.8115130091066
 20
-400.642948581721
 30
0.0
 11
-258.8115130091066
 21
-399.8429578889027
 31
0.0
  0
LINE
  5
21F17
330
18
100
AcDbEntity
  8
0
100
AcDbLine
 10
-258.8115130091066
 20
-401.4429578889026
 30
0.0
 11
-259.3115130091066
 21
-401.3429567255049
 31
0.0
  0
LINE
  5
21F18
330
18
100
AcDbEntity
  8
0
100
AcDbLine
 10
-258.8115130091066
 20
-399.8429578889027
 30
0.0
 11
-259.3115130091066
 21
-399.742956725505
 31
0.0
  0
LINE
  5
21F19
330
18
100
AcDbEntity
  8
0
100
AcDbLine
 10
-262.8115130091066
 20
-402.2429485817209
 30
0.0
 11
-258.8115130091066
 21
-401.4429578889026
 31
0.0
  0
LINE
  5
21F1A
330
18
100
AcDbEntity
  8
0
100
AcDbLine
 10
-262.3115130091066
 20
-399.1429497451143
 30
0.0
 11
-262.8115130091066
 21
-399.0429485817166
 31
0.0
  0
LINE
  5
21F1B
330
18
100
AcDbEntity
  8
0
100
AcDbLine
 10
-262.3115130091066
 20
-405.5429497451184
 30
0.0
 11
-262.8115130091066
 21
-405.4429485817207
 31
0.0
  0
LINE
  5
21F1C
330
18
100
AcDbEntity
  8
0
100
AcDbLine
 10
-262.8115130091066
 20
-405.4429485817207
 30
0.0
 11
-258.8115130091066
 21
-404.6429578889024
 31
0.0
  0
LINE
  5
21F1D
330
18
100
AcDbEntity
  8
0
100
AcDbLine
 10
-258.8115130091066
 20
-404.6429578889024
 30
0.0
 11
-259.3115130091066
 21
-404.5429567255047
 31
0.0
  0
LINE
  5
21F1E
330
18
100
AcDbEntity
  8
0
100
AcDbLine
 10
-262.3115130091066
 20
-407.1429497451183
 30
0.0
 11
-262.8115130091066
 21
-407.0429485817206
 31
0.0
  0
LINE
  5
21F1F
330
18
100
AcDbEntity
  8
0
100
AcDbLine
 10
-262.8115130091066
 20
-407.0429485817206
 30
0.0
 11
-258.8115130091066
 21
-406.2429578889023
 31
0.0
  0
LINE
  5
21F20
330
18
100
AcDbEntity
  8
0
100
AcDbLine
 10
-258.8115130091066
 20
-406.2429578889023
 30
0.0
 11
-259.3115130091066
 21
-406.1429567255046
 31
0.0
  0
LINE
  5
21F21
330
18
100
AcDbEntity
  8
0
100
AcDbLine
 10
-262.3115130091066
 20
-408.7429497451182
 30
0.0
 11
-262.8115130091066
 21
-408.6429485817205
 31
0.0
  0
LINE
  5
21F22
330
18
100
AcDbEntity
  8
0
100
AcDbLine
 10
-262.8115130091066
 20
-408.6429485817205
 30
0.0
 11
-258.8115130091066
 21
-407.8429578889022
 31
0.0
  0
LINE
  5
21F23
330
18
100
AcDbEntity
  8
0
100
AcDbLine
 10
-258.8115130091066
 20
-407.8429578889022
 30
0.0
 11
-259.3115130091066
 21
-407.7429567255045
 31
0.0
  0
LINE
  5
21F24
330
18
100
AcDbEntity
  8
0
100
AcDbLine
 10
30.18844060982957
 20
-374.5429532352488
 30
0.0
 11
28.68844060982958
 21
-379.8429497451105
 31
0.0
  0
LINE
  5
21F25
330
18
100
AcDbEntity
  8
0
100
AcDbLine
 10
28.68844060982958
 20
-379.8429497451105
 30
0.0
 11
28.68844060982985
 21
-409.5429497450024
 31
0.0
  0
LINE
  5
21F26
330
18
100
AcDbEntity
  8
0
100
AcDbLine
 10
30.18844060982957
 20
-374.5429532352488
 30
0.0
 11
31.68844060982969
 21
-379.8429567254941
 31
0.0
  0
LINE
  5
21F27
330
18
100
AcDbEntity
  8
0
100
AcDbLine
 10
26.68839407393182
 20
-409.5429450913043
 30
0.0
 11
33.6883940739317
 21
-409.5429613788686
 31
0.0
  0
LINE
  5
21F28
330
18
100
AcDbEntity
  8
0
100
AcDbLine
 10
31.68844060982969
 20
-379.8429567254941
 30
0.0
 11
31.68844060982985
 21
-409.5429567253871
 31
0.0
  0
LINE
  5
21F29
330
18
100
AcDbEntity
  8
0
100
AcDbLine
 10
26.68839407393182
 20
-409.5429450913043
 30
0.0
 11
26.6883940739317
 21
-410.6429485814996
 31
0.0
  0
ARC
  5
21F2A
330
18
100
AcDbEntity
  8
0
100
AcDbCircle
 10
28.1883940739317
 20
-410.6429485814996
 30
0.0
 40
1.5
100
AcDbArc
 50
180.0
 51
269.9998666844685
  0
LINE
  5
21F2B
330
18
100
AcDbEntity
  8
0
100
AcDbLine
 10
33.6883940739317
 20
-409.5429613788686
 30
0.0
 11
33.6883940739317
 21
-410.6429578886792
 31
0.0
  0
LINE
  5
21F2C
330
18
100
AcDbEntity
  8
0
100
AcDbLine
 10
28.18839058373931
 20
-412.1429485814955
 30
0.0
 11
32.18839058373931
 21
-412.1429578886751
 31
0.0
  0
ARC
  5
21F2D
330
18
100
AcDbEntity
  8
0
100
AcDbCircle
 10
32.1883940739317
 20
-410.6429578886792
 30
0.0
 40
1.5
100
AcDbArc
 50
269.9998666844687
 51
0.0
  0
LINE
  5
21F2E
330
18
100
AcDbEntity
  8
1CENTER
100
AcDbLine
 10
30.18839407393165
 20
-373.1121583177834
 30
0.0
 11
30.18839407393171
 21
-413.2132296443953
 31
0.0
  0
LINE
  5
21F2F
330
18
100
AcDbEntity
  8
0
100
AcDbLine
 10
29.09407025993659
 20
-376.6429506889266
 30
0.0
 11
31.05640534881201
 21
-375.8429552548756
 31
0.0
  0
LINE
  5
21F30
330
18
100
AcDbEntity
  8
0
100
AcDbLine
 10
31.05640534881201
 20
-375.8429552548756
 30
0.0
 11
30.4681287737696
 21
-375.5311853986235
 31
0.0
  0
LINE
  5
21F31
330
18
100
AcDbEntity
  8
0
100
AcDbLine
 10
28.18844060982961
 20
-399.0429485817166
 30
0.0
 11
32.18844060982961
 21
-398.2429578888983
 31
0.0
  0
LINE
  5
21F32
330
18
100
AcDbEntity
  8
0
100
AcDbLine
 10
28.18844060982959
 20
-387.8429485817123
 30
0.0
 11
32.18844060982959
 21
-387.0429578888896
 31
0.0
  0
LINE
  5
21F33
330
18
100
AcDbEntity
  8
0
100
AcDbLine
 10
28.18844060982959
 20
-384.6429485817122
 30
0.0
 11
32.18844060982958
 21
-383.8429578888896
 31
0.0
  0
LINE
  5
21F34
330
18
100
AcDbEntity
  8
0
100
AcDbLine
 10
32.18844060982958
 20
-383.8429578888896
 30
0.0
 11
31.68844060982958
 21
-383.7429567254924
 31
0.0
  0
LINE
  5
21F35
330
18
100
AcDbEntity
  8
0
100
AcDbLine
 10
28.68844060982958
 20
-383.1429497451094
 30
0.0
 11
28.18844060982958
 21
-383.0429485817122
 31
0.0
  0
LINE
  5
21F36
330
18
100
AcDbEntity
  8
0
100
AcDbLine
 10
32.18844060982959
 20
-387.0429578888896
 30
0.0
 11
31.68844060982959
 21
-386.9429567254924
 31
0.0
  0
LINE
  5
21F37
330
18
100
AcDbEntity
  8
0
100
AcDbLine
 10
32.18844060982959
 20
-385.4429578888895
 30
0.0
 11
31.68844060982959
 21
-385.3429567254924
 31
0.0
  0
LINE
  5
21F38
330
18
100
AcDbEntity
  8
0
100
AcDbLine
 10
28.68844060982959
 20
-384.7429497451093
 30
0.0
 11
28.18844060982959
 21
-384.6429485817122
 31
0.0
  0
LINE
  5
21F39
330
18
100
AcDbEntity
  8
0
100
AcDbLine
 10
28.68844060982959
 20
-386.3429497451093
 30
0.0
 11
28.18844060982959
 21
-386.2429485817121
 31
0.0
  0
LINE
  5
21F3A
330
18
100
AcDbEntity
  8
0
100
AcDbLine
 10
28.18844060982959
 20
-386.2429485817121
 30
0.0
 11
32.18844060982959
 21
-385.4429578888895
 31
0.0
  0
LINE
  5
21F3B
330
18
100
AcDbEntity
  8
0
100
AcDbLine
 10
31.50921945321881
 20
-377.4429563084813
 30
0.0
 11
30.95746998941554
 21
-377.2601921658533
 31
0.0
  0
LINE
  5
21F3C
330
18
100
AcDbEntity
  8
0
100
AcDbLine
 10
32.18844060982958
 20
-380.6429578888896
 30
0.0
 11
31.68844060982958
 21
-380.5429567254924
 31
0.0
  0
LINE
  5
21F3D
330
18
100
AcDbEntity
  8
0
100
AcDbLine
 10
32.18844060982958
 20
-382.2429578888896
 30
0.0
 11
31.68844060982958
 21
-382.1429567254926
 31
0.0
  0
LINE
  5
21F3E
330
18
100
AcDbEntity
  8
0
100
AcDbLine
 10
31.96203355762561
 20
-379.0429573620869
 30
0.0
 11
31.42543982235447
 21
-378.913686664457
 31
0.0
  0
LINE
  5
21F3F
330
18
100
AcDbEntity
  8
0
100
AcDbLine
 10
29.10935520703828
 20
-378.3557191476724
 30
0.0
 11
28.64125675188831
 21
-378.2429496353224
 31
0.0
  0
LINE
  5
21F40
330
18
100
AcDbEntity
  8
0
100
AcDbLine
 10
28.68844060982958
 20
-381.5429497451093
 30
0.0
 11
28.18844060982958
 21
-381.4429485817122
 31
0.0
  0
LINE
  5
21F41
330
18
100
AcDbEntity
  8
0
100
AcDbLine
 10
28.68844060982958
 20
-379.9429497451094
 30
0.0
 11
28.18844060982958
 21
-379.8429485817123
 31
0.0
  0
LINE
  5
21F42
330
18
100
AcDbEntity
  8
0
100
AcDbLine
 10
29.55124210056767
 20
-376.794386485367
 30
0.0
 11
29.09407025993659
 21
-376.6429506889266
 31
0.0
  0
LINE
  5
21F43
330
18
100
AcDbEntity
  8
0
100
AcDbLine
 10
28.64125675188831
 20
-378.2429496353224
 30
0.0
 11
31.50921945321881
 21
-377.4429563084813
 31
0.0
  0
LINE
  5
21F44
330
18
100
AcDbEntity
  8
0
100
AcDbLine
 10
28.18844060982958
 20
-381.4429485817122
 30
0.0
 11
32.18844060982958
 21
-380.6429578888896
 31
0.0
  0
LINE
  5
21F45
330
18
100
AcDbEntity
  8
0
100
AcDbLine
 10
28.18844060982958
 20
-379.8429485817123
 30
0.0
 11
31.96203355762561
 21
-379.0429573620869
 31
0.0
  0
LINE
  5
21F46
330
18
100
AcDbEntity
  8
0
100
AcDbLine
 10
28.18844060982958
 20
-383.0429485817122
 30
0.0
 11
32.18844060982958
 21
-382.2429578888896
 31
0.0
  0
LINE
  5
21F47
330
18
100
AcDbEntity
  8
0
100
AcDbLine
 10
28.18844060982961
 20
-395.8429485817166
 30
0.0
 11
32.18844060982961
 21
-395.0429578888983
 31
0.0
  0
LINE
  5
21F48
330
18
100
AcDbEntity
  8
0
100
AcDbLine
 10
32.18844060982961
 20
-395.0429578888983
 30
0.0
 11
31.6884406098296
 21
-394.9429567255006
 31
0.0
  0
LINE
  5
21F49
330
18
100
AcDbEntity
  8
0
100
AcDbLine
 10
28.6884406098296
 20
-394.3429497451099
 30
0.0
 11
28.1884406098296
 21
-394.2429485817123
 31
0.0
  0
LINE
  5
21F4A
330
18
100
AcDbEntity
  8
0
100
AcDbLine
 10
32.18844060982961
 20
-396.6429578888984
 30
0.0
 11
31.68844060982961
 21
-396.5429567255007
 31
0.0
  0
LINE
  5
21F4B
330
18
100
AcDbEntity
  8
0
100
AcDbLine
 10
32.18844060982961
 20
-398.2429578888983
 30
0.0
 11
31.68844060982961
 21
-398.1429567255007
 31
0.0
  0
LINE
  5
21F4C
330
18
100
AcDbEntity
  8
0
100
AcDbLine
 10
28.68844060982961
 20
-395.9429497451143
 30
0.0
 11
28.18844060982961
 21
-395.8429485817166
 31
0.0
  0
LINE
  5
21F4D
330
18
100
AcDbEntity
  8
0
100
AcDbLine
 10
28.68844060982961
 20
-397.5429497451144
 30
0.0
 11
28.18844060982961
 21
-397.4429485817167
 31
0.0
  0
LINE
  5
21F4E
330
18
100
AcDbEntity
  8
0
100
AcDbLine
 10
28.18844060982961
 20
-397.4429485817167
 30
0.0
 11
32.18844060982961
 21
-396.6429578888984
 31
0.0
  0
LINE
  5
21F4F
330
18
100
AcDbEntity
  8
0
100
AcDbLine
 10
32.1884406098296
 20
-390.2429578888939
 30
0.0
 11
31.68844060982959
 21
-390.1429567254962
 31
0.0
  0
LINE
  5
21F50
330
18
100
AcDbEntity
  8
0
100
AcDbLine
 10
32.18844060982959
 20
-388.6429578888896
 30
0.0
 11
31.68844060982959
 21
-388.5429567254924
 31
0.0
  0
LINE
  5
21F51
330
18
100
AcDbEntity
  8
0
100
AcDbLine
 10
32.1884406098296
 20
-393.4429578888939
 30
0.0
 11
31.6884406098296
 21
-393.3429567254963
 31
0.0
  0
LINE
  5
21F52
330
18
100
AcDbEntity
  8
0
100
AcDbLine
 10
32.1884406098296
 20
-391.842957888894
 30
0.0
 11
31.6884406098296
 21
-391.7429567254964
 31
0.0
  0
LINE
  5
21F53
330
18
100
AcDbEntity
  8
0
100
AcDbLine
 10
28.68844060982959
 20
-387.9429497451094
 30
0.0
 11
28.18844060982959
 21
-387.8429485817123
 31
0.0
  0
LINE
  5
21F54
330
18
100
AcDbEntity
  8
0
100
AcDbLine
 10
28.68844060982959
 20
-389.54294974511
 30
0.0
 11
28.18844060982959
 21
-389.4429485817122
 31
0.0
  0
LINE
  5
21F55
330
18
100
AcDbEntity
  8
0
100
AcDbLine
 10
28.6884406098296
 20
-392.74294974511
 30
0.0
 11
28.1884406098296
 21
-392.6429485817123
 31
0.0
  0
LINE
  5
21F56
330
18
100
AcDbEntity
  8
0
100
AcDbLine
 10
28.6884406098296
 20
-391.1429497451099
 30
0.0
 11
28.1884406098296
 21
-391.0429485817122
 31
0.0
  0
LINE
  5
21F57
330
18
100
AcDbEntity
  8
0
100
AcDbLine
 10
28.1884406098296
 20
-391.0429485817122
 30
0.0
 11
32.1884406098296
 21
-390.2429578888939
 31
0.0
  0
LINE
  5
21F58
330
18
100
AcDbEntity
  8
0
100
AcDbLine
 10
28.18844060982959
 20
-389.4429485817122
 30
0.0
 11
32.18844060982959
 21
-388.6429578888896
 31
0.0
  0
LINE
  5
21F59
330
18
100
AcDbEntity
  8
0
100
AcDbLine
 10
28.1884406098296
 20
-392.6429485817123
 30
0.0
 11
32.1884406098296
 21
-391.842957888894
 31
0.0
  0
LINE
  5
21F5A
330
18
100
AcDbEntity
  8
0
100
AcDbLine
 10
28.1884406098296
 20
-394.2429485817123
 30
0.0
 11
32.1884406098296
 21
-393.4429578888939
 31
0.0
  0
LINE
  5
21F5B
330
18
100
AcDbEntity
  8
0
100
AcDbLine
 10
28.68844060982962
 20
-403.9429497451185
 30
0.0
 11
28.18844060982962
 21
-403.8429485817208
 31
0.0
  0
LINE
  5
21F5C
330
18
100
AcDbEntity
  8
0
100
AcDbLine
 10
28.18844060982962
 20
-403.8429485817208
 30
0.0
 11
32.18844060982962
 21
-403.0429578889025
 31
0.0
  0
LINE
  5
21F5D
330
18
100
AcDbEntity
  8
0
100
AcDbLine
 10
32.18844060982962
 20
-403.0429578889025
 30
0.0
 11
31.68844060982962
 21
-402.9429567255048
 31
0.0
  0
LINE
  5
21F5E
330
18
100
AcDbEntity
  8
0
100
AcDbLine
 10
28.68844060982962
 20
-402.3429497451186
 30
0.0
 11
28.18844060982962
 21
-402.2429485817209
 31
0.0
  0
LINE
  5
21F5F
330
18
100
AcDbEntity
  8
0
100
AcDbLine
 10
28.68844060982961
 20
-400.7429497451187
 30
0.0
 11
28.18844060982961
 21
-400.642948581721
 31
0.0
  0
LINE
  5
21F60
330
18
100
AcDbEntity
  8
0
100
AcDbLine
 10
28.18844060982961
 20
-400.642948581721
 30
0.0
 11
32.18844060982961
 21
-399.8429578889027
 31
0.0
  0
LINE
  5
21F61
330
18
100
AcDbEntity
  8
0
100
AcDbLine
 10
32.18844060982961
 20
-401.4429578889026
 30
0.0
 11
31.68844060982961
 21
-401.3429567255049
 31
0.0
  0
LINE
  5
21F62
330
18
100
AcDbEntity
  8
0
100
AcDbLine
 10
32.18844060982961
 20
-399.8429578889027
 30
0.0
 11
31.68844060982961
 21
-399.742956725505
 31
0.0
  0
LINE
  5
21F63
330
18
100
AcDbEntity
  8
0
100
AcDbLine
 10
28.18844060982962
 20
-402.2429485817209
 30
0.0
 11
32.18844060982961
 21
-401.4429578889026
 31
0.0
  0
LINE
  5
21F64
330
18
100
AcDbEntity
  8
0
100
AcDbLine
 10
28.68844060982961
 20
-399.1429497451143
 30
0.0
 11
28.18844060982961
 21
-399.0429485817166
 31
0.0
  0
LINE
  5
21F65
330
18
100
AcDbEntity
  8
0
100
AcDbLine
 10
28.68844060982962
 20
-405.5429497451184
 30
0.0
 11
28.18844060982962
 21
-405.4429485817207
 31
0.0
  0
LINE
  5
21F66
330
18
100
AcDbEntity
  8
0
100
AcDbLine
 10
28.18844060982962
 20
-405.4429485817207
 30
0.0
 11
32.18844060982962
 21
-404.6429578889024
 31
0.0
  0
LINE
  5
21F67
330
18
100
AcDbEntity
  8
0
100
AcDbLine
 10
32.18844060982962
 20
-404.6429578889024
 30
0.0
 11
31.68844060982962
 21
-404.5429567255047
 31
0.0
  0
LINE
  5
21F68
330
18
100
AcDbEntity
  8
0
100
AcDbLine
 10
28.68844060982962
 20
-407.1429497451183
 30
0.0
 11
28.18844060982962
 21
-407.0429485817206
 31
0.0
  0
LINE
  5
21F69
330
18
100
AcDbEntity
  8
0
100
AcDbLine
 10
28.18844060982962
 20
-407.0429485817206
 30
0.0
 11
32.18844060982962
 21
-406.2429578889023
 31
0.0
  0
LINE
  5
21F6A
330
18
100
AcDbEntity
  8
0
100
AcDbLine
 10
32.18844060982962
 20
-406.2429578889023
 30
0.0
 11
31.68844060982962
 21
-406.1429567255046
 31
0.0
  0
LINE
  5
21F6B
330
18
100
AcDbEntity
  8
0
100
AcDbLine
 10
28.68844060982963
 20
-408.7429497451182
 30
0.0
 11
28.18844060982963
 21
-408.6429485817205
 31
0.0
  0
LINE
  5
21F6C
330
18
100
AcDbEntity
  8
0
100
AcDbLine
 10
28.18844060982963
 20
-408.6429485817205
 30
0.0
 11
32.18844060982963
 21
-407.8429578889022
 31
0.0
  0
LINE
  5
21F6D
330
18
100
AcDbEntity
  8
0
100
AcDbLine
 10
32.18844060982963
 20
-407.8429578889022
 30
0.0
 11
31.68844060982962
 21
-407.7429567255045
 31
0.0
  0
LINE
  5
21F6E
330
18
100
AcDbEntity
  8
0
  6
BYBLOCK
100
AcDbLine
 10
340.1883476959727
 20
-783.2258209264331
 30
0.0
 11
330.1883476959727
 21
-780.5463290264331
 31
0.0
  0
LINE
  5
21F6F
330
18
100
AcDbEntity
  8
0
  6
BYBLOCK
100
AcDbLine
 10
330.1883476959727
 20
-780.5463290264331
 30
0.0
 11
340.1883476959727
 21
-777.8668371264331
 31
0.0
  0
LINE
  5
21F70
330
18
100
AcDbEntity
  8
0
  6
BYBLOCK
100
AcDbLine
 10
330.1883476959727
 20
-780.5463290264331
 30
0.0
 11
340.1883476959727
 21
-780.5463290264331
 31
0.0
  0
LINE
  5
21F71
330
18
100
AcDbEntity
  8
0
  6
BYBLOCK
100
AcDbLine
 10
611.1883940770356
 20
-777.8668371264331
 30
0.0
 11
621.1883940770356
 21
-780.5463290264331
 31
0.0
  0
LINE
  5
21F72
330
18
100
AcDbEntity
  8
0
  6
BYBLOCK
100
AcDbLine
 10
621.1883940770356
 20
-780.5463290264331
 30
0.0
 11
611.1883940770356
 21
-783.2258209264331
 31
0.0
  0
LINE
  5
21F73
330
18
100
AcDbEntity
  8
0
  6
BYBLOCK
100
AcDbLine
 10
621.1883940770356
 20
-780.5463290264331
 30
0.0
 11
611.1883940770356
 21
-780.5463290264331
 31
0.0
  0
TEXT
  5
21F74
330
18
100
AcDbEntity
  8
1DIM1
  6
CONTINUOUS
100
AcDbText
 10
447.0176301033798
 20
-777.0463290264331
 30
0.0
 40
17.5
  1
P291
100
AcDbText
1001
ACAD
1000
DSTYLE
1002
{
1070
    45
1040
0.5
1070
    40
1040
5.0
1002
}
  0
LINE
  5
21F75
330
18
100
AcDbEntity
  8
0
  6
BYBLOCK
100
AcDbLine
 10
40.18834769597268
 20
-783.2258209264331
 30
0.0
 11
30.18834769597268
 21
-780.5463290264331
 31
0.0
  0
LINE
  5
21F76
330
18
100
AcDbEntity
  8
0
  6
BYBLOCK
100
AcDbLine
 10
30.18834769597268
 20
-780.5463290264331
 30
0.0
 11
40.18834769597268
 21
-777.8668371264331
 31
0.0
  0
LINE
  5
21F77
330
18
100
AcDbEntity
  8
0
  6
BYBLOCK
100
AcDbLine
 10
30.18834769597268
 20
-780.5463290264331
 30
0.0
 11
40.18834769597268
 21
-780.5463290264331
 31
0.0
  0
LINE
  5
21F78
330
18
100
AcDbEntity
  8
0
  6
BYBLOCK
100
AcDbLine
 10
320.1883476959727
 20
-777.8668371264331
 30
0.0
 11
330.1883476959727
 21
-780.5463290264331
 31
0.0
  0
LINE
  5
21F79
330
18
100
AcDbEntity
  8
0
  6
BYBLOCK
100
AcDbLine
 10
330.1883476959727
 20
-780.5463290264331
 30
0.0
 11
320.1883476959727
 21
-783.2258209264331
 31
0.0
  0
LINE
  5
21F7A
330
18
100
AcDbEntity
  8
0
  6
BYBLOCK
100
AcDbLine
 10
330.1883476959727
 20
-780.5463290264331
 30
0.0
 11
320.1883476959727
 21
-780.5463290264331
 31
0.0
  0
TEXT
  5
21F7B
330
18
100
AcDbEntity
  8
1DIM1
  6
CONTINUOUS
100
AcDbText
 10
154.6570976959729
 20
-777.0463290264331
 30
0.0
 40
17.5
  1
P300
100
AcDbText
1001
ACAD
1000
DSTYLE
1002
{
1070
    45
1040
0.5
1070
    40
1040
5.0
1002
}
  0
LINE
  5
21F7C
330
18
100
AcDbEntity
  8
0
  6
BYBLOCK
100
AcDbLine
 10
611.1883476959717
 20
-777.8668371264331
 30
0.0
 11
621.1883476959717
 21
-780.5463290264331
 31
0.0
  0
LINE
  5
21F7D
330
18
100
AcDbEntity
  8
0
  6
BYBLOCK
100
AcDbLine
 10
621.1883476959717
 20
-780.5463290264331
 30
0.0
 11
611.1883476959717
 21
-783.2258209264331
 31
0.0
  0
LINE
  5
21F7E
330
18
100
AcDbEntity
  8
0
  6
BYBLOCK
100
AcDbLine
 10
621.1883476959717
 20
-780.5463290264331
 30
0.0
 11
611.1883476959717
 21
-780.5463290264331
 31
0.0
  0
LINE
  5
21F7F
330
18
100
AcDbEntity
  8
0
  6
BYBLOCK
100
AcDbLine
 10
640.1883940770365
 20
-783.2258209264331
 30
0.0
 11
630.1883940770365
 21
-780.5463290264331
 31
0.0
  0
LINE
  5
21F80
330
18
100
AcDbEntity
  8
0
  6
BYBLOCK
100
AcDbLine
 10
630.1883940770365
 20
-780.5463290264331
 30
0.0
 11
640.1883940770365
 21
-777.8668371264331
 31
0.0
  0
LINE
  5
21F81
330
18
100
AcDbEntity
  8
0
  6
BYBLOCK
100
AcDbLine
 10
630.1883940770365
 20
-780.5463290264331
 30
0.0
 11
640.1883940770365
 21
-780.5463290264331
 31
0.0
  0
TEXT
  5
21F82
330
18
100
AcDbEntity
  8
1DIM1
  6
CONTINUOUS
100
AcDbText
 10
653.2636255585179
 20
-777.0463290264331
 30
0.0
 40
17.5
  1
9
100
AcDbText
1001
ACAD
1000
DSTYLE
1002
{
1070
    45
1040
0.5
1070
    40
1040
5.0
1002
}
  0
LINE
  5
21F83
330
18
100
AcDbEntity
  8
0
  6
BYBLOCK
100
AcDbLine
 10
-250.8116523040273
 20
-783.2258209264331
 30
0.0
 11
-260.8116523040273
 21
-780.5463290264331
 31
0.0
  0
LINE
  5
21F84
330
18
100
AcDbEntity
  8
0
  6
BYBLOCK
100
AcDbLine
 10
-260.8116523040273
 20
-780.5463290264331
 30
0.0
 11
-250.8116523040273
 21
-777.8668371264331
 31
0.0
  0
LINE
  5
21F85
330
18
100
AcDbEntity
  8
0
  6
BYBLOCK
100
AcDbLine
 10
-260.8116523040273
 20
-780.5463290264331
 30
0.0
 11
-250.8116523040273
 21
-780.5463290264331
 31
0.0
  0
LINE
  5
21F86
330
18
100
AcDbEntity
  8
0
  6
BYBLOCK
100
AcDbLine
 10
20.18834769597268
 20
-777.8668371264331
 30
0.0
 11
30.18834769597268
 21
-780.5463290264331
 31
0.0
  0
LINE
  5
21F87
330
18
100
AcDbEntity
  8
0
  6
BYBLOCK
100
AcDbLine
 10
30.18834769597268
 20
-780.5463290264331
 30
0.0
 11
20.18834769597268
 21
-783.2258209264331
 31
0.0
  0
LINE
  5
21F88
330
18
100
AcDbEntity
  8
0
  6
BYBLOCK
100
AcDbLine
 10
30.18834769597268
 20
-780.5463290264331
 30
0.0
 11
20.18834769597268
 21
-780.5463290264331
 31
0.0
  0
TEXT
  5
21F89
330
18
100
AcDbEntity
  8
1DIM1
  6
CONTINUOUS
100
AcDbText
 10
-144.9823698966197
 20
-777.0463290264331
 30
0.0
 40
17.5
  1
P291
100
AcDbText
1001
ACAD
1000
DSTYLE
1002
{
1070
    45
1040
0.5
1070
    40
1040
5.0
1002
}
  0
LINE
  5
21F8A
330
18
100
AcDbEntity
  8
0
  6
BYBLOCK
100
AcDbLine
 10
-259.8116059229635
 20
-826.7275238161368
 30
0.0
 11
-269.8116059229635
 21
-824.0480319161368
 31
0.0
  0
LINE
  5
21F8B
330
18
100
AcDbEntity
  8
0
  6
BYBLOCK
100
AcDbLine
 10
-269.8116059229635
 20
-824.0480319161368
 30
0.0
 11
-259.8116059229635
 21
-821.3685400161368
 31
0.0
  0
LINE
  5
21F8C
330
18
100
AcDbEntity
  8
0
  6
BYBLOCK
100
AcDbLine
 10
-269.8116059229635
 20
-824.0480319161368
 30
0.0
 11
-259.8116059229635
 21
-824.0480319161368
 31
0.0
  0
LINE
  5
21F8D
330
18
100
AcDbEntity
  8
0
  6
BYBLOCK
100
AcDbLine
 10
620.1883940770365
 20
-821.3685400161368
 30
0.0
 11
630.1883940770365
 21
-824.0480319161368
 31
0.0
  0
LINE
  5
21F8E
330
18
100
AcDbEntity
  8
0
  6
BYBLOCK
100
AcDbLine
 10
630.1883940770365
 20
-824.0480319161368
 30
0.0
 11
620.1883940770365
 21
-826.7275238161368
 31
0.0
  0
LINE
  5
21F8F
330
18
100
AcDbEntity
  8
0
  6
BYBLOCK
100
AcDbLine
 10
630.1883940770365
 20
-824.0480319161368
 30
0.0
 11
620.1883940770365
 21
-824.0480319161368
 31
0.0
  0
TEXT
  5
21F90
330
18
100
AcDbEntity
  8
1DIM1
  6
CONTINUOUS
100
AcDbText
 10
159.3990422251846
 20
-820.5480319161368
 30
0.0
 40
17.5
  1
900
100
AcDbText
1001
ACAD
1000
DSTYLE
1002
{
1070
    45
1040
0.5
1070
    40
1040
5.0
1002
}
  0
LINE
  5
21F91
330
18
100
AcDbEntity
  8
0
  6
BYBLOCK
100
AcDbLine
 10
936.6817629097084
 20
-696.2404706794497
 30
0.0
 11
935.6099661497084
 21
-700.2404706794497
 31
0.0
  0
LINE
  5
21F92
330
18
100
AcDbEntity
  8
0
  6
BYBLOCK
100
AcDbLine
 10
935.6099661497084
 20
-700.2404706794497
 30
0.0
 11
934.5381693897084
 21
-696.2404706794497
 31
0.0
  0
LINE
  5
21F93
330
18
100
AcDbEntity
  8
0
  6
BYBLOCK
100
AcDbLine
 10
935.6099661497084
 20
-700.2404706794497
 30
0.0
 11
935.6099661497084
 21
-696.2404706794497
 31
0.0
  0
LINE
  5
21F94
330
18
100
AcDbEntity
  8
0
  6
BYBLOCK
100
AcDbLine
 10
934.5381693897084
 20
-655.2404999093111
 30
0.0
 11
935.6099661497084
 21
-651.2404999093111
 31
0.0
  0
LINE
  5
21F95
330
18
100
AcDbEntity
  8
0
  6
BYBLOCK
100
AcDbLine
 10
935.6099661497084
 20
-651.2404999093111
 30
0.0
 11
936.6817629097084
 21
-655.2404999093111
 31
0.0
  0
LINE
  5
21F96
330
18
100
AcDbEntity
  8
0
  6
BYBLOCK
100
AcDbLine
 10
935.6099661497084
 20
-651.2404999093111
 30
0.0
 11
935.6099661497084
 21
-655.2404999093111
 31
0.0
  0
TEXT
  5
21F97
330
18
100
AcDbEntity
  8
1DIM
  6
CONTINUOUS
100
AcDbText
 10
934.2099661497084
 20
-681.5754389980845
 30
0.0
 40
7.0
  1
49
 50
90.0
100
AcDbText
1001
ACAD
1000
DSTYLE
1002
{
1070
   271
1070
     0
1070
    45
1040
0.5
1070
    40
1040
2.0
1002
}
  0
LINE
  5
21F98
330
18
100
AcDbEntity
  8
0
  6
BYBLOCK
100
AcDbLine
 10
956.4483396881674
 20
-731.2404999093111
 30
0.0
 11
955.3765429281674
 21
-735.2404999093111
 31
0.0
  0
LINE
  5
21F99
330
18
100
AcDbEntity
  8
0
  6
BYBLOCK
100
AcDbLine
 10
955.3765429281674
 20
-735.2404999093111
 30
0.0
 11
954.3047461681674
 21
-731.2404999093111
 31
0.0
  0
LINE
  5
21F9A
330
18
100
AcDbEntity
  8
0
  6
BYBLOCK
100
AcDbLine
 10
955.3765429281674
 20
-735.2404999093111
 30
0.0
 11
955.3765429281674
 21
-731.2404999093111
 31
0.0
  0
LINE
  5
21F9B
330
18
100
AcDbEntity
  8
0
  6
BYBLOCK
100
AcDbLine
 10
954.3047461681674
 20
-655.2404999093111
 30
0.0
 11
955.3765429281674
 21
-651.2404999093111
 31
0.0
  0
LINE
  5
21F9C
330
18
100
AcDbEntity
  8
0
  6
BYBLOCK
100
AcDbLine
 10
955.3765429281674
 20
-651.2404999093111
 30
0.0
 11
956.4483396881674
 21
-655.2404999093111
 31
0.0
  0
LINE
  5
21F9D
330
18
100
AcDbEntity
  8
0
  6
BYBLOCK
100
AcDbLine
 10
955.3765429281674
 20
-651.2404999093111
 30
0.0
 11
955.3765429281674
 21
-655.2404999093111
 31
0.0
  0
TEXT
  5
21F9E
330
18
100
AcDbEntity
  8
1DIM
  6
CONTINUOUS
100
AcDbText
 10
953.9765429281674
 20
-699.0738332426444
 30
0.0
 40
7.0
  1
84
 50
90.0
100
AcDbText
1001
ACAD
1000
DSTYLE
1002
{
1070
    45
1040
0.5
1070
    40
1040
2.0
1002
}
  0
LINE
  5
21F9F
330
18
100
AcDbEntity
  8
0
  6
BYBLOCK
100
AcDbLine
 10
761.8690876451773
 20
-775.5609759310571
 30
0.0
 11
757.8690876451773
 21
-774.4891791710571
 31
0.0
  0
LINE
  5
21FA0
330
18
100
AcDbEntity
  8
0
  6
BYBLOCK
100
AcDbLine
 10
757.8690876451773
 20
-774.4891791710571
 30
0.0
 11
761.8690876451773
 21
-773.4173824110571
 31
0.0
  0
LINE
  5
21FA1
330
18
100
AcDbEntity
  8
0
  6
BYBLOCK
100
AcDbLine
 10
757.8690876451773
 20
-774.4891791710571
 30
0.0
 11
761.8690876451773
 21
-774.4891791710571
 31
0.0
  0
LINE
  5
21FA2
330
18
100
AcDbEntity
  8
0
  6
BYBLOCK
100
AcDbLine
 10
885.8690876451773
 20
-773.4173824110571
 30
0.0
 11
889.8690876451773
 21
-774.4891791710571
 31
0.0
  0
LINE
  5
21FA3
330
18
100
AcDbEntity
  8
0
  6
BYBLOCK
100
AcDbLine
 10
889.8690876451773
 20
-774.4891791710571
 30
0.0
 11
885.8690876451773
 21
-775.5609759310571
 31
0.0
  0
LINE
  5
21FA4
330
18
100
AcDbEntity
  8
0
  6
BYBLOCK
100
AcDbLine
 10
889.8690876451773
 20
-774.4891791710571
 30
0.0
 11
885.8690876451773
 21
-774.4891791710571
 31
0.0
  0
TEXT
  5
21FA5
330
18
100
AcDbEntity
  8
1DIM
  6
CONTINUOUS
100
AcDbText
 10
815.7024209785106
 20
-773.0891791710571
 30
0.0
 40
7.0
  1
132
100
AcDbText
1001
ACAD
1000
DSTYLE
1002
{
1070
    45
1040
0.5
1070
    40
1040
2.0
1002
}
  0
LINE
  5
21FA6
330
18
100
AcDbEntity
  8
0
  6
BYBLOCK
100
AcDbLine
 10
611.1883940770356
 20
-777.8668371264332
 30
0.0
 11
621.1883940770356
 21
-780.5463290264332
 31
0.0
  0
LINE
  5
21FA7
330
18
100
AcDbEntity
  8
0
  6
BYBLOCK
100
AcDbLine
 10
621.1883940770356
 20
-780.5463290264332
 30
0.0
 11
611.1883940770356
 21
-783.2258209264332
 31
0.0
  0
LINE
  5
21FA8
330
18
100
AcDbEntity
  8
0
  6
BYBLOCK
100
AcDbLine
 10
621.1883940770356
 20
-780.5463290264332
 30
0.0
 11
611.1883940770356
 21
-780.5463290264332
 31
0.0
  0
LINE
  5
21FA9
330
18
100
AcDbEntity
  8
0
  6
BYBLOCK
100
AcDbLine
 10
640.1883940770362
 20
-783.2258209264332
 30
0.0
 11
630.1883940770362
 21
-780.5463290264332
 31
0.0
  0
LINE
  5
21FAA
330
18
100
AcDbEntity
  8
0
  6
BYBLOCK
100
AcDbLine
 10
630.1883940770362
 20
-780.5463290264332
 30
0.0
 11
640.1883940770362
 21
-777.8668371264332
 31
0.0
  0
LINE
  5
21FAB
330
18
100
AcDbEntity
  8
0
  6
BYBLOCK
100
AcDbLine
 10
630.1883940770362
 20
-780.5463290264332
 30
0.0
 11
640.1883940770362
 21
-780.5463290264332
 31
0.0
  0
TEXT
  5
21FAC
330
18
100
AcDbEntity
  8
1DIM1
  6
CONTINUOUS
100
AcDbText
 10
653.2636255585176
 20
-777.0463290264332
 30
0.0
 40
17.5
  1
9
100
AcDbText
1001
ACAD
1000
DSTYLE
1002
{
1070
    45
1040
0.5
1070
    40
1040
5.0
1002
}
  0
VIEWPORT
  5
57
330
15
100
AcDbEntity
 67
     1
  8
0
100
AcDbViewport
 68
     1
 10
0.0
 20
0.0
 30
0.0
 40
535.5106132075472
 41
297.0
 68
     1
 69
     1
1001
ACAD
1000
MVIEW
1002
{
1070
    16
1010
0.0
1020
0.0
1030
0.0
1010
0.0
1020
0.0
1030
1.0
1040
0.0
1040
297.0
1040
-4.171999999925362
1040
12.83903210976956
1040
50.0
1040
0.0
1040
0.0
1070
    16
1070
   100
1070
     0
1070
     1
1070
     0
1070
     0
1070
     0
1070
     0
1040
0.0
1040
0.0
1040
0.0
1040
10.0
1040
10.0
1040
10.0
1040
10.0
1070
     0
1002
{
1002
}
1002
}
  0
ENDSEC
  0
SECTION
  2
OBJECTS
  0
DICTIONARY
  5
C
330
0
100
AcDbDictionary
  3
ACAD_COLOR
350
2D0
  3
ACAD_GROUP
350
D
  3
ACAD_LAYOUT
350
2D1
  3
ACAD_MATERIAL
350
2CF
  3
ACAD_MLEADERSTYLE
350
19E18
  3
ACAD_MLINESTYLE
350
1B
  3
ACAD_PLOTSETTINGS
350
2D2
  3
ACAD_SCALELIST
350
19DF6
  3
ACAD_VISUALSTYLE
350
19DE5
  3
ACDBHEADERROUNDTRIPXREC
350
21FAD
  3
ACDBVARIABLEDICTIONARY
350
37
  3
CONTENTDICTIONARY
350
D8
  3
DRAWINGVARIABLESDICT
350
20
  3
DWGPROPS
350
21FB0
1001
ACAD
1000
TREAT_AS_HARD
1070
     0
  0
DICTIONARY
  5
18FE8
330
2
100
AcDbDictionary
  3
ACAD_LAYERSTATES
360
18FE9
1001
ACAD
1000
TREAT_AS_HARD
1070
     1
  0
DICTIONARY
  5
1A20A
330
E
100
AcDbDictionary
  3
ADSK_XREC_LAYER_RECONCILED
360
1A20B
1001
ACAD
1000
TREAT_AS_HARD
1070
     1
  0
DICTIONARY
  5
1A20C
330
29
100
AcDbDictionary
  3
ADSK_XREC_LAYER_RECONCILED
360
1A20D
1001
ACAD
1000
TREAT_AS_HARD
1070
     1
  0
DICTIONARY
  5
1A20E
330
31
100
AcDbDictionary
  3
ADSK_XREC_LAYER_RECONCILED
360
1A20F
1001
ACAD
1000
TREAT_AS_HARD
1070
     1
  0
DICTIONARY
  5
1A218
330
101
100
AcDbDictionary
  3
ADSK_XREC_LAYER_RECONCILED
360
1A219
1001
ACAD
1000
TREAT_AS_HARD
1070
     1
  0
DICTIONARY
  5
1A220
330
25F
100
AcDbDictionary
  3
ADSK_XREC_LAYER_RECONCILED
360
1A221
1001
ACAD
1000
TREAT_AS_HARD
1070
     1
  0
DICTIONARY
  5
1A236
330
26A
100
AcDbDictionary
  3
ADSK_XREC_LAYER_RECONCILED
360
1A237
1001
ACAD
1000
TREAT_AS_HARD
1070
     1
  0
DICTIONARY
  5
6E9
330
18
100
AcDbDictionary
  3
ACAD_SORTENTS
360
6EA
1001
ACAD
1000
TREAT_AS_HARD
1070
     1
  0
DICTIONARY
  5
59B
330
15
100
AcDbDictionary
  3
ACAD_SORTENTS
360
59C
1001
ACAD
1000
TREAT_AS_HARD
1070
     1
  0
DICTIONARY
  5
20461
330
20460
100
AcDbDictionary
  3
ACAD_SORTENTS
360
20462
1001
ACAD
1000
TREAT_AS_HARD
1070
     1
  0
DICTIONARY
  5
2D0
102
{ACAD_REACTORS
330
C
102
}
330
C
100
AcDbDictionary
1001
ACAD
1000
TREAT_AS_HARD
1070
     0
  0
DICTIONARY
  5
D
102
{ACAD_REACTORS
330
C
102
}
330
C
100
AcDbDictionary
1001
ACAD
1000
TREAT_AS_HARD
1070
     0
  0
DICTIONARY
  5
2D1
102
{ACAD_REACTORS
330
C
102
}
330
C
100
AcDbDictionary
1001
ACAD
1000
TREAT_AS_HARD
1070
     0
  0
DICTIONARY
  5
2CF
102
{ACAD_REACTORS
330
C
102
}
330
C
100
AcDbDictionary
  3
BYBLOCK
350
19DD5
  3
BYLAYER
350
19DCD
  3
GLOBAL
350
19DDD
1001
ACAD
1000
TREAT_AS_HARD
1070
     0
  0
DICTIONARY
  5
19E18
102
{ACAD_REACTORS
330
C
102
}
330
C
100
AcDbDictionary
  3
BALLOONS5
350
20459
  3
STANDARD
350
19E19
1001
ACAD
1000
TREAT_AS_HARD
1070
     0
  0
DICTIONARY
  5
1B
102
{ACAD_REACTORS
330
C
102
}
330
C
100
AcDbDictionary
  3
STANDARD
350
1C
1001
ACAD
1000
TREAT_AS_HARD
1070
     0
  0
DICTIONARY
  5
2D2
102
{ACAD_REACTORS
330
C
102
}
330
C
100
AcDbDictionary
1001
ACAD
1000
TREAT_AS_HARD
1070
     0
  0
DICTIONARY
  5
19DF6
102
{ACAD_REACTORS
330
C
102
}
330
C
100
AcDbDictionary
  3
A0
350
19DF7
  3
A1
350
19DF8
  3
A2
350
19DF9
  3
A3
350
19DFA
  3
A4
350
19DFB
  3
A5
350
19DFC
  3
A6
350
19DFD
  3
A7
350
19DFE
  3
A8
350
19DFF
  3
A9
350
19E00
  3
B0
350
19E01
  3
B1
350
19E02
  3
B2
350
19E03
  3
B3
350
19E04
  3
B4
350
19E05
  3
B5
350
19E06
  3
B6
350
19E07
  3
B7
350
19E08
  3
B8
350
19E09
  3
B9
350
19E0A
  3
C0
350
19E0B
  3
C1
350
19E0C
  3
C2
350
19E0D
  3
C3
350
19E0E
  3
C4
350
19E0F
  3
C5
350
19E10
  3
C6
350
19E11
  3
C7
350
19E12
  3
C8
350
19E13
  3
C9
350
19E14
  3
D0
350
19E15
  3
D1
350
19E16
  3
D2
350
19E17
1001
ACAD
1000
TREAT_AS_HARD
1070
     0
  0
DICTIONARY
  5
19DE5
102
{ACAD_REACTORS
330
C
102
}
330
C
100
AcDbDictionary
  3
2DWIREFRAME
350
19DEB
  3
3D_HIDDEN
350
19DED
  3
3DWIREFRAME
350
19DEC
  3
BASIC
350
19DEA
  3
BRIGHTEN
350
19DF1
  3
COLORCHANGE
350
19DF5
  3
CONCEPTUAL
350
19DEE
  3
DIM
350
19DF0
  3
EDGECOLOROFF
350
1E02A
  3
FACEPATTERN
350
19DF4
  3
FLAT
350
19DE6
  3
FLATWITHEDGES
350
19DE7
  3
GOURAUD
350
19DE8
  3
GOURAUDWITHEDGES
350
19DE9
  3
HIDDEN
350
1FBC7
  3
JITTEROFF
350
1E028
  3
LINEPATTERN
350
19DF3
  3
MODELING
350
1FBCD
  3
OVERHANGOFF
350
1E029
  3
REALISTIC
350
19DEF
  3
SHADED
350
1FBCC
  3
SHADED_WITH_EDGES
350
1FBCB
  3
SHADES_OF_GRAY
350
1FBC8
  3
SKETCHY
350
1FBC9
  3
THICKEN
350
19DF2
  3
WIREFRAME
350
1FBC6
  3
X-RAY
350
1FBCA
1001
ACAD
1000
TREAT_AS_HARD
1070
     0
  0
DICTIONARY
  5
21FAD
102
{ACAD_REACTORS
330
C
102
}
330
C
100
AcDbDictionary
  3
COLORDICT
350
21FAE
  3
MATERIALDICT
350
21FAF
1001
ACAD
1000
TREAT_AS_HARD
1070
     0
  0
DICTIONARY
  5
37
102
{ACAD_REACTORS
330
C
102
}
330
C
100
AcDbDictionary
  3
CANNOSCALE
350
20376
  3
CMLEADERSTYLE
350
1AC19
  3
CTABLESTYLE
350
4F1
  3
DIMADEC
350
38
  3
DIMASSOC
350
408
  3
HIDETEXT
350
1891
  3
INDEXCTL
350
1AC1C
  3
INTERSECTIONCOLOR
350
1895
  3
INTERSECTIONDISPLAY
350
1894
  3
MSLTSCALE
350
203CC
  3
OBSCOLOR
350
1892
  3
OBSLTYPE
350
1893
  3
PROJECTNAME
350
409
  3
SORTENTS
350
1AC1B
  3
XCLIPFRAME
350
1FBC5
1001
ACAD
1000
TREAT_AS_HARD
1070
     0
  0
DICTIONARY
  5
D8
102
{ACAD_REACTORS
330
C
102
}
330
C
100
AcDbDictionary
1001
CONTENTTABDATA
1070
    11
1000
Child
1000
D:\ACLT\TABset\CHILDREN.dwg
1070
     0
1070
     0
1070
     1
1000
PK
1000
D:\ACLT\TABset\PK.dwg
1070
     0
1070
     0
1070
     1
1000
Lev1
1000
D:\ACLT\TABset\Lever01.dwg
1070
     0
1070
     0
1070
     1
1000
Lev2
1000
D:\ACLT\TABset\Lever02.dwg
1070
     0
1070
     0
1070
     1
1000
L3
1000
D:\Aclt\TABset\Lever03.dwg
1070
     0
1070
     0
1070
     1
1000
Form
1000
D:\ACLT\FORMAT
1070
     1
1070
     0
1070
     1
1000
Jnt
1000
D:\ACLT\TABset\JOINTPARTS.dwg
1070
     0
1070
     0
1070
     1
1000
ISO
1000
D:\ACLT\TABset\Isome01.dwg
1070
     0
1070
     0
1070
     1
1000
R
1000
D:\ACLT\TABset\REGION.dwg
1070
     0
1070
     0
1070
     1
1000
std
1000
D:\ACLT\TABset\std_sym_all.dwg
1070
     0
1070
     0
1070
     1
1000
丸
1000
D:\Aclt\TABset\MARU.dwg
1070
     0
1070
     0
1070
     1
1001
CONTENTCURRENTTAB
1070
     0
1001
ACAD
1000
TREAT_AS_HARD
1070
     0
  0
DICTIONARY
  5
20
102
{ACAD_REACTORS
330
C
102
}
330
C
100
AcDbDictionary
1001
DRAWINGVARIABLESXDATA
1000
POLARANG
1000
0.261799387799149410000000
1000
POLARMODE
1000
1
1000
POLARSTYLE
1000
1
1001
ACAD
1000
TREAT_AS_HARD
1070
     0
  0
XRECORD
  5
21FB0
102
{ACAD_REACTORS
330
C
102
}
330
C
100
AcDbXrecord
  1
DWGPROPS COOKIE
  2

  3

  4

  6

  7

  8
3684
  9

300
=
301
=
302
=
303
=
304
=
305
=
306
=
307
=
308
=
309
=
 40
0.0
 41
2453033.357663484
 42
2458780.201428079
  1

 90
        0
  0
DICTIONARY
  5
18FE9
102
{ACAD_REACTORS
330
18FE8
102
}
330
18FE8
100
AcDbDictionary
1001
ACAD
1000
TREAT_AS_HARD
1070
     0
  0
ACAD_PROXY_OBJECT
  5
1A20B
102
{ACAD_REACTORS
330
1A20A
102
}
330
1A20A
100
AcDbZombieObject
 90
      499
 91
      519
 93
       34
310
40C8804040
  0
ACAD_PROXY_OBJECT
  5
1A20D
102
{ACAD_REACTORS
330
1A20C
102
}
330
1A20C
100
AcDbZombieObject
 90
      499
 91
      519
 93
       34
310
40C8804040
  0
ACAD_PROXY_OBJECT
  5
1A20F
102
{ACAD_REACTORS
330
1A20E
102
}
330
1A20E
100
AcDbZombieObject
 90
      499
 91
      519
 93
       34
310
40C8804040
  0
ACAD_PROXY_OBJECT
  5
1A219
102
{ACAD_REACTORS
330
1A218
102
}
330
1A218
100
AcDbZombieObject
 90
      499
 91
      519
 93
       34
310
40C8804040
  0
ACAD_PROXY_OBJECT
  5
1A221
102
{ACAD_REACTORS
330
1A220
102
}
330
1A220
100
AcDbZombieObject
 90
      499
 91
      519
 93
       34
310
40C8804040
  0
ACAD_PROXY_OBJECT
  5
1A237
102
{ACAD_REACTORS
330
1A236
102
}
330
1A236
100
AcDbZombieObject
 90
      499
 91
      519
 93
       34
310
40C8804040
  0
SORTENTSTABLE
  5
6EA
102
{ACAD_REACTORS
330
6E9
102
}
330
6E9
100
AcDbSortentsTable
330
18
331
0
  5
99AB
331
0
  5
AB53
331
0
  5
AB54
331
0
  5
ECB5
331
0
  5
1D308
331
1F823
  5
1F83F
331
1F828
  5
1F840
331
1F82A
  5
1F841
331
1F830
  5
1F842
331
1F831
  5
1F843
331
1F832
  5
1F89C
331
1F833
  5
1F8EF
331
1F834
  5
20596
331
1F835
  5
20599
331
1F836
  5
2059E
331
1F837
  5
2059F
331
1F838
  5
205A0
331
1F839
  5
205A1
331
1F83A
  5
205A2
331
1F83B
  5
205A3
331
1F83C
  5
205B0
331
1F83D
  5
205B1
331
1F83E
  5
205B2
331
1F845
  5
205B3
331
1F846
  5
205B4
331
20596
  5
205B6
331
20599
  5
205BA
331
2059E
  5
205BB
331
2059F
  5
205C1
331
205A0
  5
205C3
331
205A1
  5
205C4
331
205A2
  5
205C8
331
205A3
  5
205C9
331
205B0
  5
205CA
331
205B1
  5
205CE
331
205B2
  5
205CF
331
205B3
  5
205D5
331
205B4
  5
205D6
331
205B6
  5
205DA
331
205BA
  5
205DB
331
205BB
  5
20F49
331
205C1
  5
20F4A
331
205C3
  5
211BE
331
205C4
  5
211BF
331
205C8
  5
211C0
331
205C9
  5
211C1
331
205CA
  5
211C2
331
205CE
  5
211DE
331
205CF
  5
211DF
331
205D5
  5
211E4
331
205D6
  5
211E7
331
205DA
  5
211F1
331
205DB
  5
21201
331
20F49
  5
21AB1
331
20F4A
  5
21AB2
331
211BE
  5
21B0C
331
211BF
  5
21B0D
331
211C0
  5
21B0E
331
211C1
  5
21B0F
331
211C2
  5
21B10
331
211DE
  5
21B81
331
211DF
  5
21B82
331
211E0
  5
21B83
331
211E2
  5
21B84
331
211E3
  5
21B85
331
211E4
  5
21B86
331
211E7
  5
21B87
331
211F1
  5
21B88
331
21201
  5
21B9A
331
21209
  5
21B9B
331
2120B
  5
21CCD
331
21214
  5
21CCE
331
21215
  5
21CCF
331
21216
  5
21CD0
331
21217
  5
21CD1
331
21218
  5
21CD2
331
2121A
  5
21D67
331
2121B
  5
21D68
331
2121C
  5
21D69
331
2121D
  5
21D6A
331
2121E
  5
21D6B
331
21228
  5
21E00
331
2124F
  5
21E01
331
21250
  5
21E02
331
21379
  5
21E08
331
2137A
  5
21E09
331
2137B
  5
21E0A
331
2137C
  5
21E0B
331
2137D
  5
21E0C
331
21380
  5
21EA1
331
21381
  5
21EA2
331
21382
  5
21EA3
331
21383
  5
21EA4
331
21384
  5
21EA5
331
21385
  5
21EA6
331
21387
  5
21EF1
331
21388
  5
21EF2
331
21389
  5
21EF3
331
2138A
  5
21EF4
331
2138B
  5
21EF5
331
2155A
  5
21F40
331
2155B
  5
21F41
331
2155F
  5
21F42
331
21560
  5
21F43
331
215B1
  5
21F44
331
215B2
  5
21F45
331
215B6
  5
21F46
331
215B7
  5
21F47
331
215B8
  5
21F48
331
215B9
  5
21F49
331
215BA
  5
21F4A
331
215BB
  5
21F4B
331
2165F
  5
21F4C
331
21660
  5
21F4D
331
21664
  5
21F4E
331
21665
  5
21F4F
331
21AB1
  5
21F50
331
21AB2
  5
21F51
331
21AB4
  5
21F52
331
21AB5
  5
21F53
331
21AB6
  5
21F54
331
21AB7
  5
21F55
331
21AB8
  5
21F56
331
21AB9
  5
21F57
331
21ABA
  5
21F58
331
21ABB
  5
21F59
331
21ABC
  5
21F5A
331
21ABD
  5
21F5B
331
21ABE
  5
21F5C
331
21ABF
  5
21F5D
331
21AC0
  5
21F5E
331
21AC1
  5
21F5F
331
21AC3
  5
21F60
331
21AC4
  5
21F61
331
21AC5
  5
21F62
331
21AC6
  5
21F63
331
21B0C
  5
21F64
331
21B0D
  5
21F65
331
21B0E
  5
21F66
331
21B0F
  5
21F67
331
21B10
  5
21F68
331
21B11
  5
21F69
331
21B12
  5
21F6A
331
21B13
  5
21F6B
331
21B14
  5
21F6C
331
21B15
  5
21F6D
331
21B16
  5
21F6E
331
21B17
  5
21F6F
331
21B18
  5
21F70
331
21B19
  5
21F71
331
21B1B
  5
21F72
331
21B60
  5
21F73
331
21B61
  5
21F74
331
21B62
  5
21F75
331
21B63
  5
21F76
331
21B64
  5
21F77
331
21B65
  5
21F78
331
21B66
  5
21F79
331
21B67
  5
21F7A
331
21B68
  5
21F7B
331
21B69
  5
21F7C
331
21B6A
  5
21F7D
331
21B6B
  5
21F7E
331
21B6C
  5
21F7F
331
21B6D
  5
21F80
331
21B6F
  5
21F81
331
21B70
  5
21F82
331
21B72
  5
21F83
331
21B73
  5
21F84
331
21B74
  5
21F85
331
21B75
  5
21F86
331
21B76
  5
21F87
331
21B77
  5
21F88
331
21B78
  5
21F89
331
21B79
  5
21F8A
331
21B7A
  5
21F8B
331
21B7B
  5
21F8C
331
21B7C
  5
21F8D
331
21B7D
  5
21F8E
331
21B7E
  5
21F8F
331
21B7F
  5
21F90
331
21B80
  5
21F91
331
21B81
  5
21F92
331
21B82
  5
21F93
331
21B83
  5
21F94
331
21B84
  5
21F95
331
21B85
  5
21F96
331
21B86
  5
21F97
331
21B87
  5
21F98
331
21B88
  5
21F99
331
21B89
  5
21F9A
331
21B8A
  5
21F9B
331
21B8B
  5
21F9C
331
21B8C
  5
21F9D
331
21B8D
  5
21F9E
331
21B8E
  5
21F9F
331
21B8F
  5
21FA0
331
21B90
  5
21FA1
331
21B91
  5
21FA2
331
21B92
  5
21FA3
331
21B93
  5
21FA4
331
21B94
  5
21FA5
331
21B95
  5
21FA6
331
21B96
  5
21FA7
331
21B97
  5
21FA8
331
21B98
  5
21FA9
331
21B99
  5
21FAA
331
21B9A
  5
21FAB
331
21B9B
  5
21FAC
331
21CCD
  5
1F828
331
21CCE
  5
1F82D
331
21CCF
  5
1F82F
331
0
  5
1F835
331
0
  5
1F836
331
0
  5
1F837
331
21CD3
  5
21209
331
21CD4
  5
21216
331
21CD5
  5
21217
331
0
  5
211E0
331
0
  5
211E2
331
0
  5
211E3
331
21CD9
  5
2137D
331
21CDA
  5
21380
331
21CDB
  5
21381
331
21CDC
  5
21382
331
21CDD
  5
21383
331
0
  5
2120B
331
0
  5
21214
331
0
  5
21215
331
21CE1
  5
21560
331
21CE2
  5
215B1
331
21CE3
  5
215B2
331
0
  5
2121A
331
0
  5
2121B
331
0
  5
2121C
331
21CE7
  5
21AB4
331
21CE8
  5
21AB5
331
21CE9
  5
21AB9
331
0
  5
21379
331
0
  5
2137A
331
0
  5
2137B
331
21CED
  5
21AC1
331
21CEE
  5
21AC3
331
21CEF
  5
21AC4
331
21CF0
  5
21AC5
331
21CF1
  5
21AC6
331
21CF2
  5
21B14
331
21CF3
  5
21B15
331
21CF4
  5
21B16
331
0
  5
2155A
331
0
  5
2155B
331
0
  5
2155F
331
21CF8
  5
21B63
331
21CF9
  5
21B64
331
21CFA
  5
21B65
331
0
  5
215B6
331
0
  5
215B7
331
0
  5
215B8
331
21CFE
  5
21B6D
331
21CFF
  5
21B6F
331
21D00
  5
21B70
331
21D01
  5
21B72
331
21D02
  5
21B73
331
21D03
  5
21B74
331
21D04
  5
21B75
331
21D05
  5
21B76
331
21D06
  5
21B77
331
21D07
  5
21B78
331
21D08
  5
21B79
331
0
  5
21AB6
331
0
  5
21AB7
331
0
  5
21AB8
331
21D0C
  5
21B89
331
21D0D
  5
21B8A
331
21D0E
  5
21B8B
331
21D0F
  5
21B8C
331
21D10
  5
21B8D
331
21D11
  5
21B8E
331
21D12
  5
21B8F
331
21D13
  5
21B90
331
21D14
  5
21B91
331
21D15
  5
21B92
331
0
  5
21B11
331
0
  5
21B12
331
0
  5
21B13
331
21D63
  5
21CD3
331
21D64
  5
21CD4
331
21D65
  5
21CD5
331
21D66
  5
21CD6
331
21D67
  5
21CD7
331
21D68
  5
21CD8
331
21D69
  5
21CD9
331
21D6A
  5
21CDA
331
21D6B
  5
21CDB
331
21D6C
  5
21CDC
331
21D6D
  5
21CDD
331
21D6E
  5
21CDE
331
21D6F
  5
21CDF
331
21D70
  5
21CE0
331
21D71
  5
21CE1
331
21D72
  5
21CE2
331
21D73
  5
21CE3
331
21D74
  5
21CE4
331
21D75
  5
21CE5
331
21D76
  5
21CE6
331
21D77
  5
21CE7
331
21D78
  5
21CE8
331
21D79
  5
21CE9
331
21D7A
  5
21CEA
331
21D7B
  5
21CEB
331
21D7C
  5
21CEC
331
21D7D
  5
21CED
331
21D7E
  5
21CEE
331
21D7F
  5
21CEF
331
21D80
  5
21CF0
331
21D81
  5
21CF1
331
21D82
  5
21CF2
331
21D83
  5
21CF3
331
21D84
  5
21CF4
331
21D85
  5
21CF5
331
21D86
  5
21CF6
331
21D87
  5
21CF7
331
21D88
  5
21CF8
331
21D89
  5
21CF9
331
21D8A
  5
21CFA
331
21D8B
  5
21CFB
331
21D8C
  5
21CFC
331
21D8D
  5
21CFD
331
21D8E
  5
21CFE
331
21D8F
  5
21CFF
331
21D90
  5
21D00
331
21D91
  5
21D01
331
21D92
  5
21D02
331
21D93
  5
21D03
331
21D94
  5
21D04
331
21D95
  5
21D05
331
21D96
  5
21D06
331
21D97
  5
21D07
331
21D98
  5
21D08
331
21D99
  5
21D09
331
21D9A
  5
21D0A
331
21D9B
  5
21D0B
331
21D9C
  5
21D0C
331
21D9D
  5
21D0D
331
21D9E
  5
21D0E
331
21D9F
  5
21D0F
331
21DA0
  5
21D10
331
21DA1
  5
21D11
331
21DA2
  5
21D12
331
21DA3
  5
21D13
331
21DA4
  5
21D14
331
21DA5
  5
21D15
331
21DA6
  5
21D16
331
21DA7
  5
21D17
331
21DA8
  5
21D18
331
21DA9
  5
21D63
331
21DAA
  5
21D64
331
21DAB
  5
21D65
331
21DAC
  5
21D66
331
21DF7
  5
21D6C
331
21DF8
  5
21D6D
331
21DF9
  5
21D6E
331
21DFA
  5
21D6F
331
21DFB
  5
21D70
331
21DFC
  5
21D71
331
21DFD
  5
21D72
331
21DFE
  5
21D73
331
21DFF
  5
21D74
331
21E00
  5
21D75
331
21E01
  5
21D76
331
21E02
  5
21D77
331
21E03
  5
21D78
331
21E04
  5
21D79
331
21E05
  5
21D7A
331
21E06
  5
21D7B
331
21E07
  5
21D7C
331
21E08
  5
21D7D
331
21E09
  5
21D7E
331
21E0A
  5
21D7F
331
21E0B
  5
21D80
331
21E0C
  5
21D81
331
21E0D
  5
21D82
331
21E0E
  5
21D83
331
21E0F
  5
21D84
331
21E10
  5
21D85
331
21E11
  5
21D86
331
21E12
  5
21D87
331
21E13
  5
21D88
331
21E14
  5
21D89
331
21E15
  5
21D8A
331
21E16
  5
21D8B
331
21E17
  5
21D8C
331
21E18
  5
21D8D
331
21E19
  5
21D8E
331
21E1A
  5
21D8F
331
21E1B
  5
21D90
331
21E1C
  5
21D91
331
21E1D
  5
21D92
331
21E1E
  5
21D93
331
21E1F
  5
21D94
331
21E20
  5
21D95
331
21E21
  5
21D96
331
21E22
  5
21D97
331
21E23
  5
21D98
331
21E24
  5
21D99
331
21E25
  5
21D9A
331
21E26
  5
21D9B
331
21E27
  5
21D9C
331
21E28
  5
21D9D
331
21E29
  5
21D9E
331
21E2A
  5
21D9F
331
21E2B
  5
21DA0
331
21E2C
  5
21DA1
331
21E2D
  5
21DA2
331
21E2E
  5
21DA3
331
21E2F
  5
21DA4
331
21E30
  5
21DA5
331
21E31
  5
21DA6
331
21E32
  5
21DA7
331
21E33
  5
21DA8
331
21E34
  5
21DA9
331
21E35
  5
21DAA
331
21E36
  5
21DAB
331
21E37
  5
21DAC
331
21E38
  5
21DF7
331
21E39
  5
21DF8
331
21E3A
  5
21DF9
331
21E3B
  5
21DFA
331
21E3C
  5
21DFB
331
21E3D
  5
21DFC
331
21E3E
  5
21DFD
331
21E3F
  5
21DFE
331
21E40
  5
21DFF
331
21E41
  5
21E03
331
21E42
  5
21E04
331
21E43
  5
21E05
331
21E44
  5
21E06
331
21E45
  5
21E07
331
21E90
  5
21E0D
331
21E91
  5
21E0E
331
21E92
  5
21E0F
331
21E93
  5
21E10
331
21E94
  5
21E11
331
21E95
  5
21E12
331
21E96
  5
21E13
331
21E97
  5
21E14
331
21E98
  5
21E15
331
21E99
  5
21E16
331
21E9A
  5
21E17
331
21E9B
  5
21E18
331
21E9C
  5
21E19
331
21E9D
  5
21E1A
331
21E9E
  5
21E1B
331
21E9F
  5
21E1C
331
21EA0
  5
21E1D
331
21EA1
  5
21E1E
331
21EA2
  5
21E1F
331
21EA3
  5
21E20
331
21EA4
  5
21E21
331
21EA5
  5
21E22
331
21EA6
  5
21E23
331
21EA7
  5
21E24
331
21EA8
  5
21E25
331
21EA9
  5
21E26
331
21EAA
  5
21E27
331
21EAB
  5
21E28
331
21EAC
  5
21E29
331
21EAD
  5
21E2A
331
21EAE
  5
21E2B
331
21EAF
  5
21E2C
331
21EB0
  5
21E2D
331
21EB1
  5
21E2E
331
21EB2
  5
21E2F
331
21EB3
  5
21E30
331
21EB4
  5
21E31
331
21EB5
  5
21E32
331
21EB6
  5
21E33
331
21EB7
  5
21E34
331
21EB8
  5
21E35
331
21EB9
  5
21E36
331
21EBA
  5
21E37
331
21EBB
  5
21E38
331
21EBC
  5
21E39
331
21EBD
  5
21E3A
331
21EBE
  5
21E3B
331
21EBF
  5
21E3C
331
21EC0
  5
21E3D
331
21EC1
  5
21E3E
331
21EC2
  5
21E3F
331
21EC3
  5
21E40
331
21EC4
  5
21E41
331
21EC5
  5
21E42
331
21EC6
  5
21E43
331
21EC7
  5
21E44
331
21EC8
  5
21E45
331
21EC9
  5
21E90
331
21ECA
  5
21E91
331
21ECB
  5
21E92
331
21ECC
  5
21E93
331
21ECD
  5
21E94
331
21ECE
  5
21E95
331
21ECF
  5
21E96
331
21ED0
  5
21E97
331
21ED1
  5
21E98
331
21ED2
  5
21E99
331
21ED3
  5
21E9A
331
21ED4
  5
21E9B
331
21ED5
  5
21E9C
331
21ED6
  5
21E9D
331
21ED7
  5
21E9E
331
21ED8
  5
21E9F
331
21ED9
  5
21EA0
331
21EDA
  5
21EA7
331
21EDB
  5
21EA8
331
21EDC
  5
21EA9
331
21EDD
  5
21EAA
331
21EDE
  5
21EAB
331
21EDF
  5
21EAC
331
21EE0
  5
21EAD
331
21EE1
  5
21EAE
331
21EE2
  5
21EAF
331
21EE3
  5
21EB0
331
21EE4
  5
21EB1
331
21EE5
  5
21EB2
331
21EE6
  5
21EB3
331
21EE7
  5
21EB4
331
21EE8
  5
21EB5
331
21EE9
  5
21EB6
331
21EEA
  5
21EB7
331
21EEB
  5
21EB8
331
21EEC
  5
21EB9
331
21EED
  5
21EBA
331
21EEE
  5
21EBB
331
21EEF
  5
21EBC
331
21EF0
  5
21EBD
331
21EF1
  5
21EBE
331
21EF2
  5
21EBF
331
21EF3
  5
21EC0
331
21EF4
  5
21EC1
331
21EF5
  5
21EC2
331
21EF6
  5
21EC3
331
21EF7
  5
21EC4
331
21EF8
  5
21EC5
331
21EF9
  5
21EC6
331
21EFA
  5
21EC7
331
21EFB
  5
21EC8
331
21EFC
  5
21EC9
331
21EFD
  5
21ECA
331
21EFE
  5
21ECB
331
21EFF
  5
21ECC
331
21F00
  5
21ECD
331
21F01
  5
21ECE
331
21F02
  5
21ECF
331
21F03
  5
21ED0
331
21F04
  5
21ED1
331
21F05
  5
21ED2
331
21F06
  5
21ED3
331
21F07
  5
21ED4
331
21F08
  5
21ED5
331
21F09
  5
21ED6
331
21F0A
  5
21ED7
331
21F0B
  5
21ED8
331
21F0C
  5
21ED9
331
21F0D
  5
21EDA
331
21F0E
  5
21EDB
331
21F0F
  5
21EDC
331
21F10
  5
21EDD
331
21F11
  5
21EDE
331
21F12
  5
21EDF
331
21F13
  5
21EE0
331
21F14
  5
21EE1
331
21F15
  5
21EE2
331
21F16
  5
21EE3
331
21F17
  5
21EE4
331
21F18
  5
21EE5
331
21F19
  5
21EE6
331
21F1A
  5
21EE7
331
21F1B
  5
21EE8
331
21F1C
  5
21EE9
331
21F1D
  5
21EEA
331
21F1E
  5
21EEB
331
21F1F
  5
21EEC
331
21F20
  5
21EED
331
21F21
  5
21EEE
331
21F22
  5
21EEF
331
21F23
  5
21EF0
331
21F24
  5
21EF6
331
21F25
  5
21EF7
331
21F26
  5
21EF8
331
21F27
  5
21EF9
331
21F28
  5
21EFA
331
21F29
  5
21EFB
331
21F2A
  5
21EFC
331
21F2B
  5
21EFD
331
21F2C
  5
21EFE
331
21F2D
  5
21EFF
331
21F2E
  5
21F00
331
21F2F
  5
21F01
331
21F30
  5
21F02
331
21F31
  5
21F03
331
21F32
  5
21F04
331
21F33
  5
21F05
331
21F34
  5
21F06
331
21F35
  5
21F07
331
21F36
  5
21F08
331
21F37
  5
21F09
331
21F38
  5
21F0A
331
21F39
  5
21F0B
331
21F3A
  5
21F0C
331
21F3B
  5
21F0D
331
21F3C
  5
21F0E
331
21F3D
  5
21F0F
331
21F3E
  5
21F10
331
21F3F
  5
21F11
331
21F40
  5
21F12
331
21F41
  5
21F13
331
21F42
  5
21F14
331
21F43
  5
21F15
331
21F44
  5
21F16
331
21F45
  5
21F17
331
21F46
  5
21F18
331
21F47
  5
21F19
331
21F48
  5
21F1A
331
21F49
  5
21F1B
331
21F4A
  5
21F1C
331
21F4B
  5
21F1D
331
21F4C
  5
21F1E
331
21F4D
  5
21F1F
331
21F4E
  5
21F20
331
21F4F
  5
21F21
331
21F50
  5
21F22
331
21F51
  5
21F23
331
21F52
  5
21F24
331
21F53
  5
21F25
331
21F54
  5
21F26
331
21F55
  5
21F27
331
21F56
  5
21F28
331
21F57
  5
21F29
331
21F58
  5
21F2A
331
21F59
  5
21F2B
331
21F5A
  5
21F2C
331
21F5B
  5
21F2D
331
21F5C
  5
21F2E
331
21F5D
  5
21F2F
331
21F5E
  5
21F30
331
21F5F
  5
21F31
331
21F60
  5
21F32
331
21F61
  5
21F33
331
21F62
  5
21F34
331
21F63
  5
21F35
331
21F64
  5
21F36
331
21F65
  5
21F37
331
21F66
  5
21F38
331
21F67
  5
21F39
331
21F68
  5
21F3A
331
21F69
  5
21F3B
331
21F6A
  5
21F3C
331
21F6B
  5
21F3D
331
21F6C
  5
21F3E
331
21F6D
  5
21F3F
331
21F6E
  5
1F838
331
21F6F
  5
1F839
331
21F70
  5
1F83A
331
21F71
  5
1F83B
331
21F72
  5
1F83C
331
21F73
  5
1F83D
331
21F74
  5
1F83E
331
21F75
  5
21218
331
21F76
  5
2121D
331
21F77
  5
2121E
331
21F78
  5
21228
331
21F79
  5
2124F
331
21F7A
  5
21250
331
21F7B
  5
2137C
331
21F7C
  5
21384
331
21F7D
  5
21385
331
21F7E
  5
21387
331
21F7F
  5
21388
331
21F80
  5
21389
331
21F81
  5
2138A
331
21F82
  5
2138B
331
21F83
  5
215B9
331
21F84
  5
215BA
331
21F85
  5
215BB
331
21F86
  5
2165F
331
21F87
  5
21660
331
21F88
  5
21664
331
21F89
  5
21665
331
21F8A
  5
21ABA
331
21F8B
  5
21ABB
331
21F8C
  5
21ABC
331
21F8D
  5
21ABD
331
21F8E
  5
21ABE
331
21F8F
  5
21ABF
331
21F90
  5
21AC0
331
21F91
  5
21B17
331
21F92
  5
21B18
331
21F93
  5
21B19
331
21F94
  5
21B1B
331
21F95
  5
21B60
331
21F96
  5
21B61
331
21F97
  5
21B62
331
21F98
  5
21B66
331
21F99
  5
21B67
331
21F9A
  5
21B68
331
21F9B
  5
21B69
331
21F9C
  5
21B6A
331
21F9D
  5
21B6B
331
21F9E
  5
21B6C
331
21F9F
  5
21B7A
331
21FA0
  5
21B7B
331
21FA1
  5
21B7C
331
21FA2
  5
21B7D
331
21FA3
  5
21B7E
331
21FA4
  5
21B7F
331
21FA5
  5
21B80
331
21FA6
  5
21B93
331
21FA7
  5
21B94
331
21FA8
  5
21B95
331
21FA9
  5
21B96
331
21FAA
  5
21B97
331
21FAB
  5
21B98
331
21FAC
  5
21B99
  0
SORTENTSTABLE
  5
59C
102
{ACAD_REACTORS
330
59B
102
}
330
59B
100
AcDbSortentsTable
330
15
331
57
  5
57
331
0
  5
70
  0
SORTENTSTABLE
  5
20462
102
{ACAD_REACTORS
330
20461
102
}
330
20461
100
AcDbSortentsTable
330
20460
331
20464
  5
20465
331
20465
  5
20464
  0
MATERIAL
  5
19DD5
102
{ACAD_REACTORS
330
2CF
102
}
102
{ACAD_XDICTIONARY
360
2214B
102
}
330
2CF
100
AcDbMaterial
  1
BYBLOCK
 72
     0
 73
     2
 43
0.0208333333333333
 43
0.0
 43
0.0
 43
0.0
 43
0.0
 43
0.0208333333333333
 43
0.0
 43
0.0
 43
0.0
 43
0.0
 43
1.0
 43
0.0
 43
0.0
 43
0.0
 43
0.0
 43
1.0
 77
     0
 78
     2
 47
0.0208333333333333
 47
0.0
 47
0.0
 47
0.0
 47
0.0
 47
0.0208333333333333
 47
0.0
 47
0.0
 47
0.0
 47
0.0
 47
1.0
 47
0.0
 47
0.0
 47
0.0
 47
0.0
 47
1.0
171
     0
172
     2
 49
0.0208333333333333
 49
0.0
 49
0.0
 49
0.0
 49
0.0
 49
0.0208333333333333
 49
0.0
 49
0.0
 49
0.0
 49
0.0
 49
1.0
 49
0.0
 49
0.0
 49
0.0
 49
0.0
 49
1.0
175
     0
176
     2
142
0.0208333333333333
142
0.0
142
0.0
142
0.0
142
0.0
142
0.0208333333333333
142
0.0
142
0.0
142
0.0
142
0.0
142
1.0
142
0.0
142
0.0
142
0.0
142
0.0
142
1.0
179
     0
270
     2
144
0.0208333333333333
144
0.0
144
0.0
144
0.0
144
0.0
144
0.0208333333333333
144
0.0
144
0.0
144
0.0
144
0.0
144
1.0
144
0.0
144
0.0
144
0.0
144
0.0
144
1.0
274
     2
147
0.0208333333333333
147
0.0
147
0.0
147
0.0
147
0.0
147
0.0208333333333333
147
0.0
147
0.0
147
0.0
147
0.0
147
1.0
147
0.0
147
0.0
147
0.0
147
0.0
147
1.0
  0
MATERIAL
  5
19DCD
102
{ACAD_REACTORS
330
2CF
102
}
102
{ACAD_XDICTIONARY
360
2214D
102
}
330
2CF
100
AcDbMaterial
  1
BYLAYER
 72
     0
 73
     2
 43
0.0208333333333333
 43
0.0
 43
0.0
 43
0.0
 43
0.0
 43
0.0208333333333333
 43
0.0
 43
0.0
 43
0.0
 43
0.0
 43
1.0
 43
0.0
 43
0.0
 43
0.0
 43
0.0
 43
1.0
 77
     0
 78
     2
 47
0.0208333333333333
 47
0.0
 47
0.0
 47
0.0
 47
0.0
 47
0.0208333333333333
 47
0.0
 47
0.0
 47
0.0
 47
0.0
 47
1.0
 47
0.0
 47
0.0
 47
0.0
 47
0.0
 47
1.0
171
     0
172
     2
 49
0.0208333333333333
 49
0.0
 49
0.0
 49
0.0
 49
0.0
 49
0.0208333333333333
 49
0.0
 49
0.0
 49
0.0
 49
0.0
 49
1.0
 49
0.0
 49
0.0
 49
0.0
 49
0.0
 49
1.0
175
     0
176
     2
142
0.0208333333333333
142
0.0
142
0.0
142
0.0
142
0.0
142
0.0208333333333333
142
0.0
142
0.0
142
0.0
142
0.0
142
1.0
142
0.0
142
0.0
142
0.0
142
0.0
142
1.0
179
     0
270
     2
144
0.0208333333333333
144
0.0
144
0.0
144
0.0
144
0.0
144
0.0208333333333333
144
0.0
144
0.0
144
0.0
144
0.0
144
1.0
144
0.0
144
0.0
144
0.0
144
0.0
144
1.0
274
     2
147
0.0208333333333333
147
0.0
147
0.0
147
0.0
147
0.0
147
0.0208333333333333
147
0.0
147
0.0
147
0.0
147
0.0
147
1.0
147
0.0
147
0.0
147
0.0
147
0.0
147
1.0
  0
MATERIAL
  5
19DDD
102
{ACAD_REACTORS
330
2CF
102
}
102
{ACAD_XDICTIONARY
360
2214F
102
}
330
2CF
100
AcDbMaterial
  1
GLOBAL
 72
     0
 73
     2
 43
0.0208333333333333
 43
0.0
 43
0.0
 43
0.0
 43
0.0
 43
0.0208333333333333
 43
0.0
 43
0.0
 43
0.0
 43
0.0
 43
1.0
 43
0.0
 43
0.0
 43
0.0
 43
0.0
 43
1.0
 77
     0
 78
     2
 47
0.0208333333333333
 47
0.0
 47
0.0
 47
0.0
 47
0.0
 47
0.0208333333333333
 47
0.0
 47
0.0
 47
0.0
 47
0.0
 47
1.0
 47
0.0
 47
0.0
 47
0.0
 47
0.0
 47
1.0
171
     0
172
     2
 49
0.0208333333333333
 49
0.0
 49
0.0
 49
0.0
 49
0.0
 49
0.0208333333333333
 49
0.0
 49
0.0
 49
0.0
 49
0.0
 49
1.0
 49
0.0
 49
0.0
 49
0.0
 49
0.0
 49
1.0
175
     0
176
     2
142
0.0208333333333333
142
0.0
142
0.0
142
0.0
142
0.0
142
0.0208333333333333
142
0.0
142
0.0
142
0.0
142
0.0
142
1.0
142
0.0
142
0.0
142
0.0
142
0.0
142
1.0
179
     0
270
     2
144
0.0208333333333333
144
0.0
144
0.0
144
0.0
144
0.0
144
0.0208333333333333
144
0.0
144
0.0
144
0.0
144
0.0
144
1.0
144
0.0
144
0.0
144
0.0
144
0.0
144
1.0
274
     2
147
0.0208333333333333
147
0.0
147
0.0
147
0.0
147
0.0
147
0.0208333333333333
147
0.0
147
0.0
147
0.0
147
0.0
147
1.0
147
0.0
147
0.0
147
0.0
147
0.0
147
1.0
  0
ACAD_PROXY_OBJECT
  5
20459
102
{ACAD_REACTORS
330
19E18
102
}
330
19E18
100
AcDbZombieObject
 90
      499
 91
      512
 93
      610
310
40501902A4063FBFFFFFE0000000000000020000000000000020408000000000000004090140501A00000000000004100000000000000041025750100000000000005100000000000000039000
340
12
340
6F0
340
F
340
20460
 94
        0
1001
ACAD_MLEADERVER
1070
     2
  0
ACAD_PROXY_OBJECT
  5
19E19
102
{ACAD_REACTORS
330
19E18
102
}
330
19E18
100
AcDbZombieObject
 90
      499
 91
      512
 93
      610
310
40901902A4063FBFFFFFE000000000000002040AD7A3703D0AD73F4214DD185B99185C990000000000000104090141901A00000000000004100000000000000041025764000000000000300FC0
340
12
340
0
340
F
340
0
 94
        0
1001
ACAD_MLEADERVER
1070
     2
  0
MLINESTYLE
  5
1C
102
{ACAD_REACTORS
330
1B
102
}
330
1B
100
AcDbMlineStyle
  2
STANDARD
 70
     0
  3

 62
   256
 51
90.0
 52
90.0
 71
     2
 49
0.5
 62
   256
  6
BYLAYER
 49
-0.5
 62
   256
  6
BYLAYER
  0
ACAD_PROXY_OBJECT
  5
19DF7
102
{ACAD_REACTORS
330
19DF6
102
}
330
19DF6
100
AcDbZombieObject
 90
      499
 91
      511
 93
       41
310
903313A31580
  0
ACAD_PROXY_OBJECT
  5
19DF8
102
{ACAD_REACTORS
330
19DF6
102
}
330
19DF6
100
AcDbZombieObject
 90
      499
 91
      511
 93
      105
310
903313A324000000000000004000
  0
ACAD_PROXY_OBJECT
  5
19DF9
102
{ACAD_REACTORS
330
19DF6
102
}
330
19DF6
100
AcDbZombieObject
 90
      499
 91
      511
 93
      105
310
903313A344000000000000104000
  0
ACAD_PROXY_OBJECT
  5
19DFA
102
{ACAD_REACTORS
330
19DF6
102
}
330
19DF6
100
AcDbZombieObject
 90
      499
 91
      511
 93
      105
310
903313A354000000000000144000
  0
ACAD_PROXY_OBJECT
  5
19DFB
102
{ACAD_REACTORS
330
19DF6
102
}
330
19DF6
100
AcDbZombieObject
 90
      499
 91
      511
 93
      105
310
903313A384000000000000204000
  0
ACAD_PROXY_OBJECT
  5
19DFC
102
{ACAD_REACTORS
330
19DF6
102
}
330
19DF6
100
AcDbZombieObject
 90
      499
 91
      511
 93
      113
310
904313A31304000000000000244000
  0
ACAD_PROXY_OBJECT
  5
19DFD
102
{ACAD_REACTORS
330
19DF6
102
}
330
19DF6
100
AcDbZombieObject
 90
      499
 91
      511
 93
      113
310
904313A31364000000000000304000
  0
ACAD_PROXY_OBJECT
  5
19DFE
102
{ACAD_REACTORS
330
19DF6
102
}
330
19DF6
100
AcDbZombieObject
 90
      499
 91
      511
 93
      113
310
904313A32304000000000000344000
  0
ACAD_PROXY_OBJECT
  5
19DFF
102
{ACAD_REACTORS
330
19DF6
102
}
330
19DF6
100
AcDbZombieObject
 90
      499
 91
      511
 93
      113
310
904313A333040000000000003E4000
  0
ACAD_PROXY_OBJECT
  5
19E00
102
{ACAD_REACTORS
330
19DF6
102
}
330
19DF6
100
AcDbZombieObject
 90
      499
 91
      511
 93
      113
310
904313A34304000000000000444000
  0
ACAD_PROXY_OBJECT
  5
19E01
102
{ACAD_REACTORS
330
19DF6
102
}
330
19DF6
100
AcDbZombieObject
 90
      499
 91
      511
 93
      113
310
904313A35304000000000000494000
  0
ACAD_PROXY_OBJECT
  5
19E02
102
{ACAD_REACTORS
330
19DF6
102
}
330
19DF6
100
AcDbZombieObject
 90
      499
 91
      511
 93
      121
310
905313A3130304000000000000594000
  0
ACAD_PROXY_OBJECT
  5
19E03
102
{ACAD_REACTORS
330
19DF6
102
}
330
19DF6
100
AcDbZombieObject
 90
      499
 91
      511
 93
      105
310
903323A310000000000000010100
  0
ACAD_PROXY_OBJECT
  5
19E04
102
{ACAD_REACTORS
330
19DF6
102
}
330
19DF6
100
AcDbZombieObject
 90
      499
 91
      511
 93
      105
310
903343A310000000000000410100
  0
ACAD_PROXY_OBJECT
  5
19E05
102
{ACAD_REACTORS
330
19DF6
102
}
330
19DF6
100
AcDbZombieObject
 90
      499
 91
      511
 93
      105
310
903383A310000000000000810100
  0
ACAD_PROXY_OBJECT
  5
19E06
102
{ACAD_REACTORS
330
19DF6
102
}
330
19DF6
100
AcDbZombieObject
 90
      499
 91
      511
 93
      113
310
90431303A310000000000000910100
  0
ACAD_PROXY_OBJECT
  5
19E07
102
{ACAD_REACTORS
330
19DF6
102
}
330
19DF6
100
AcDbZombieObject
 90
      499
 91
      511
 93
      121
310
9053130303A310000000000001650100
  0
ACAD_PROXY_OBJECT
  5
19E08
102
{ACAD_REACTORS
330
19DF6
102
}
330
19DF6
100
AcDbZombieObject
 90
      499
 91
      511
 93
      257
310
90E312F31323822203D2031272D3022000000000000200FC000000000000284000
  0
ACAD_PROXY_OBJECT
  5
19E09
102
{ACAD_REACTORS
330
19DF6
102
}
330
19DF6
100
AcDbZombieObject
 90
      499
 91
      511
 93
      249
310
90D312F363422203D2031272D3022000000000000240FC000000000000284000
  0
ACAD_PROXY_OBJECT
  5
19E0A
102
{ACAD_REACTORS
330
19DF6
102
}
330
19DF6
100
AcDbZombieObject
 90
      499
 91
      511
 93
      249
310
90D312F333222203D2031272D3022000000000000280FC000000000000284000
  0
ACAD_PROXY_OBJECT
  5
19E0B
102
{ACAD_REACTORS
330
19DF6
102
}
330
19DF6
100
AcDbZombieObject
 90
      499
 91
      511
 93
      249
310
90D312F313622203D2031272D30220000000000002C0FC000000000000284000
  0
ACAD_PROXY_OBJECT
  5
19E0C
102
{ACAD_REACTORS
330
19DF6
102
}
330
19DF6
100
AcDbZombieObject
 90
      499
 91
      511
 93
      249
310
90D332F333222203D2031272D30220000000000002E0FC000000000000284000
  0
ACAD_PROXY_OBJECT
  5
19E0D
102
{ACAD_REACTORS
330
19DF6
102
}
330
19DF6
100
AcDbZombieObject
 90
      499
 91
      511
 93
      241
310
90C312F3822203D2031272D3022000000000000300FC000000000000284000
  0
ACAD_PROXY_OBJECT
  5
19E0E
102
{ACAD_REACTORS
330
19DF6
102
}
330
19DF6
100
AcDbZombieObject
 90
      499
 91
      511
 93
      249
310
90D332F313622203D2031272D3022000000000000320FC000000000000284000
  0
ACAD_PROXY_OBJECT
  5
19E0F
102
{ACAD_REACTORS
330
19DF6
102
}
330
19DF6
100
AcDbZombieObject
 90
      499
 91
      511
 93
      241
310
90C312F3422203D2031272D3022000000000000340FC000000000000284000
  0
ACAD_PROXY_OBJECT
  5
19E10
102
{ACAD_REACTORS
330
19DF6
102
}
330
19DF6
100
AcDbZombieObject
 90
      499
 91
      511
 93
      241
310
90C332F3822203D2031272D3022000000000000360FC000000000000284000
  0
ACAD_PROXY_OBJECT
  5
19E11
102
{ACAD_REACTORS
330
19DF6
102
}
330
19DF6
100
AcDbZombieObject
 90
      499
 91
      511
 93
      241
310
90C312F3222203D2031272D3022000000000000380FC000000000000284000
  0
ACAD_PROXY_OBJECT
  5
19E12
102
{ACAD_REACTORS
330
19DF6
102
}
330
19DF6
100
AcDbZombieObject
 90
      499
 91
      511
 93
      241
310
90C332F3422203D2031272D30220000000000003A0FC000000000000284000
  0
ACAD_PROXY_OBJECT
  5
19E13
102
{ACAD_REACTORS
330
19DF6
102
}
330
19DF6
100
AcDbZombieObject
 90
      499
 91
      511
 93
      161
310
90A3122203D2031272D30224000000000000284000
  0
ACAD_PROXY_OBJECT
  5
19E14
102
{ACAD_REACTORS
330
19DF6
102
}
330
19DF6
100
AcDbZombieObject
 90
      499
 91
      511
 93
      257
310
90E312D312F3222203D2031272D30220000000000003E0FC000000000000284000
  0
ACAD_PROXY_OBJECT
  5
19E15
102
{ACAD_REACTORS
330
19DF6
102
}
330
19DF6
100
AcDbZombieObject
 90
      499
 91
      511
 93
      225
310
90A3322203D2031272D302200000000000002100000000000000284000
  0
ACAD_PROXY_OBJECT
  5
19E16
102
{ACAD_REACTORS
330
19DF6
102
}
330
19DF6
100
AcDbZombieObject
 90
      499
 91
      511
 93
      225
310
90A3622203D2031272D302200000000000006100000000000000284000
  0
ACAD_PROXY_OBJECT
  5
19E17
102
{ACAD_REACTORS
330
19DF6
102
}
330
19DF6
100
AcDbZombieObject
 90
      499
 91
      511
 93
      249
310
90D31272D3022203D2031272D30220000000000000A100000000000000284000
  0
ACAD_PROXY_OBJECT
  5
19DEB
102
{ACAD_REACTORS
330
19DE5
102
}
330
19DE5
100
AcDbZombieObject
 90
      499
 91
      510
 93
      436
310
42CC9915DA5C99599C985B595049028333333333333E3BF0000000000000FB0107901411070040501600405405064090741402480A0340
1001
ACAD
1000
AcDbSavedByObjectVersion
1070
     0
  0
ACAD_PROXY_OBJECT
  5
19DED
102
{ACAD_REACTORS
330
19DE5
102
}
330
19DE5
100
AcDbZombieObject
 90
      499
 91
      510
 93
      500
310
424CD108121A5919195B90640502408333333333333E3BF0000000000000FB01079024090700405020000000000001110200405405064090740C02480A0340
1001
ACAD
1000
AcDbSavedByObjectVersion
1070
     0
  0
ACAD_PROXY_OBJECT
  5
19DEC
102
{ACAD_REACTORS
330
19DE5
102
}
330
19DE5
100
AcDbZombieObject
 90
      499
 91
      510
 93
      436
310
42CCD915DA5C99599C985B595059028333333333333E3BF0000000000000FB0107901411070040501600405405064090741402480A0340
1001
ACAD
1000
AcDbSavedByObjectVersion
1070
     0
  0
ACAD_PROXY_OBJECT
  5
19DEA
102
{ACAD_REACTORS
330
19DE5
102
}
330
19DE5
100
AcDbZombieObject
 90
      499
 91
      510
 93
      388
310
4150985CDA58D07406404333333333333E3BF0000000000000FB0107A41107004050150841D405064090741402480A0350
1001
ACAD
1000
AcDbSavedByObjectVersion
1070
     0
  0
ACAD_PROXY_OBJECT
  5
19DF1
102
{ACAD_REACTORS
330
19DE5
102
}
330
19DE5
100
AcDbZombieObject
 90
      499
 91
      510
 93
      428
310
42109C9A59DA1D195B90C409028333333333333E3BF0000000000000FB010790141107004050150841D405064090741402480A029950
1001
ACAD
1000
AcDbSavedByObjectVersion
1070
     0
  0
ACAD_PROXY_OBJECT
  5
19DF5
102
{ACAD_REACTORS
330
19DE5
102
}
330
19DE5
100
AcDbZombieObject
 90
      499
 91
      510
 93
      452
310
42D0DBDB1BDC90DA185B99D95104090240C333333333333E3BF0000000000000FB0108901411070040501508421405064090741402480A0350
1001
ACAD
1000
AcDbSavedByObjectVersion
1070
     0
  0
ACAD_PROXY_OBJECT
  5
19DEE
102
{ACAD_REACTORS
330
19DE5
102
}
330
19DE5
100
AcDbZombieObject
 90
      499
 91
      510
 93
      500
310
4290DBDB98D95C1D1D585B10940D028333333333333E3BF0000000000000FB0107902409070040501000000000000111010841D405064090740C02480A0340
1001
ACAD
1000
AcDbSavedByObjectVersion
1070
     0
  0
ACAD_PROXY_OBJECT
  5
19DF0
102
{ACAD_REACTORS
330
19DE5
102
}
330
19DE5
100
AcDbZombieObject
 90
      499
 91
      510
 93
      412
310
40D11A5B50B409028333333333333E3BF0000000000000FB010790141107004050150841D405064090741402480A02677FFFFFD0
1001
ACAD
1000
AcDbSavedByObjectVersion
1070
     0
  0
ACAD_PROXY_OBJECT
  5
1E02A
102
{ACAD_REACTORS
330
19DE5
102
}
330
19DE5
100
AcDbZombieObject
 90
      499
 91
      510
 93
      452
310
43115919D950DBDB1BDC93D999916409028333333333333E3BF0000000000000FB010790141107004050150841D405064090741402480A0350
1001
ACAD
1000
AcDbSavedByObjectVersion
1070
     0
  0
ACAD_PROXY_OBJECT
  5
19DF4
102
{ACAD_REACTORS
330
19DE5
102
}
330
19DE5
100
AcDbZombieObject
 90
      499
 91
      510
 93
      444
310
42D19858D95C185D1D195C9B90F409028333333333333E3BF0000000000000FB010790141107004050150841D405064090741402480A0350
1001
ACAD
1000
AcDbSavedByObjectVersion
1070
     0
  0
ACAD_PROXY_OBJECT
  5
19DE6
102
{ACAD_REACTORS
330
19DE5
102
}
330
19DE5
100
AcDbZombieObject
 90
      499
 91
      510
 93
      388
310
41119B185D240901404333333333333E3BF0000000000000F9010740A41107004050150841D405064090741402480A1B50
1001
ACAD
1000
AcDbSavedByObjectVersion
1070
     0
  0
ACAD_PROXY_OBJECT
  5
19DE7
102
{ACAD_REACTORS
330
19DE5
102
}
330
19DE5
100
AcDbZombieObject
 90
      499
 91
      510
 93
      476
310
43519B185D15DA5D1A115919D95CD0140901404333333333333E3BF0000000000000F9010740901411070040501600405405064090741402480A1B50
1001
ACAD
1000
AcDbSavedByObjectVersion
1070
     0
  0
ACAD_PROXY_OBJECT
  5
19DE8
102
{ACAD_REACTORS
330
19DE5
102
}
330
19DE5
100
AcDbZombieObject
 90
      499
 91
      510
 93
      412
310
41D1DBDD5C985D5910240902404333333333333E3BF0000000000000F9010740A411070040501641D405064090741402480A1B50
1001
ACAD
1000
AcDbSavedByObjectVersion
1070
     0
  0
ACAD_PROXY_OBJECT
  5
19DE9
102
{ACAD_REACTORS
330
19DE5
102
}
330
19DE5
100
AcDbZombieObject
 90
      499
 91
      510
 93
      500
310
4411DBDD5C985D5915DA5D1A115919D95CD0340902404333333333333E3BF0000000000000F9010740901411070040501600405405064090741402480A1B50
1001
ACAD
1000
AcDbSavedByObjectVersion
1070
     0
  0
ACAD_PROXY_OBJECT
  5
1FBC7
102
{ACAD_REACTORS
330
19DE5
102
}
330
19DE5
100
AcDbZombieObject
 90
      499
 91
      510
 93
      476
310
41921A5919195B90640502408333333333333E33F0000000000000F901079024090700405020000000000001110200405405064090740C02480A0340
1001
ACAD
1000
AcDbSavedByObjectVersion
1070
     0
  0
ACAD_PROXY_OBJECT
  5
1E028
102
{ACAD_REACTORS
330
19DE5
102
}
330
19DE5
100
AcDbZombieObject
 90
      499
 91
      510
 93
      428
310
42529A5D1D195C93D999914409028333333333333E3BF0000000000000FB010790141107004050150A41D405064090741402480A0350
1001
ACAD
1000
AcDbSavedByObjectVersion
1070
     0
  0
ACAD_PROXY_OBJECT
  5
19DF3
102
{ACAD_REACTORS
330
19DE5
102
}
330
19DE5
100
AcDbZombieObject
 90
      499
 91
      510
 93
      444
310
42D31A5B995C185D1D195C9B90E409028333333333333E3BF0000000000000FB010790141107004050750841D405064090741402483A0350
1001
ACAD
1000
AcDbSavedByObjectVersion
1070
     0
  0
ACAD_PROXY_OBJECT
  5
1FBCD
102
{ACAD_REACTORS
330
19DE5
102
}
330
19DE5
100
AcDbZombieObject
 90
      499
 91
      510
 93
      484
310
42135BD9195B1A5B99D0A409038333333333333E33F0000000000000F901074090290700405010000000000201990108421405064090741402480A1B40
1001
ACAD
1000
AcDbSavedByObjectVersion
1070
     0
  0
ACAD_PROXY_OBJECT
  5
1E029
102
{ACAD_REACTORS
330
19DE5
102
}
330
19DE5
100
AcDbZombieObject
 90
      499
 91
      510
 93
      444
310
42D3DD995C9A185B99D3D999915409028333333333333E3BF0000000000000FB010790141107004050150941D405064090741402480A0350
1001
ACAD
1000
AcDbSavedByObjectVersion
1070
     0
  0
ACAD_PROXY_OBJECT
  5
19DEF
102
{ACAD_REACTORS
330
19DE5
102
}
330
19DE5
100
AcDbZombieObject
 90
      499
 91
      510
 93
      420
310
425499585B1A5CDD1A58D08409028333333333333E3BF0000000000000FB01079019070040501508421405064090741402480A1B40
1001
ACAD
1000
AcDbSavedByObjectVersion
1070
     0
  0
ACAD_PROXY_OBJECT
  5
1FBCC
102
{ACAD_REACTORS
330
19DE5
102
}
330
19DE5
100
AcDbZombieObject
 90
      499
 91
      510
 93
      420
310
4194DA1859195911B40902404333333333333E33F0000000000000F9010740A41107004050150800405405064090840C02480A0B40
1001
ACAD
1000
AcDbSavedByObjectVersion
1070
     0
  0
ACAD_PROXY_OBJECT
  5
1FBCB
102
{ACAD_REACTORS
330
19DE5
102
}
330
19DE5
100
AcDbZombieObject
 90
      499
 91
      510
 93
      516
310
4454DA18591959081DDA5D1A08195919D95CD1A40902404333333333333E33F0000000000000F901074090142907004050250800405405064090740C02480A0B40
1001
ACAD
1000
AcDbSavedByObjectVersion
1070
     0
  0
ACAD_PROXY_OBJECT
  5
1FBC8
102
{ACAD_REACTORS
330
19DE5
102
}
330
19DE5
100
AcDbZombieObject
 90
      499
 91
      510
 93
      532
310
4394DA1859195CC81BD98811DC985E5174090240C333333333333E33F0000000000000F901079024090741D01000000000000111010841D405064090740C02480A0340
1001
ACAD
1000
AcDbSavedByObjectVersion
1070
     0
  0
ACAD_PROXY_OBJECT
  5
1FBC9
102
{ACAD_REACTORS
330
19DE5
102
}
330
19DE5
100
AcDbZombieObject
 90
      499
 91
      510
 93
      476
310
41D4DAD95D18DA1E51840502408333333333333E33F0000000000000F901079024090741D01000000000000111010B41D405064090741802480A0340
1001
ACAD
1000
AcDbSavedByObjectVersion
1070
     0
  0
ACAD_PROXY_OBJECT
  5
19DF2
102
{ACAD_REACTORS
330
19DE5
102
}
330
19DE5
100
AcDbZombieObject
 90
      499
 91
      510
 93
      412
310
41D51A1A58DAD95B90D409028333333333333E3BF0000000000000FB010790141107004050150C41D405064090741402480A0350
1001
ACAD
1000
AcDbSavedByObjectVersion
1070
     0
  0
ACAD_PROXY_OBJECT
  5
1FBC6
102
{ACAD_REACTORS
330
19DE5
102
}
330
19DE5
100
AcDbZombieObject
 90
      499
 91
      510
 93
      420
310
4255DA5C99599C985B595059028333333333333E33F0000000000000F90107901411070040501600405405064090740C02480A0340
1001
ACAD
1000
AcDbSavedByObjectVersion
1070
     0
  0
ACAD_PROXY_OBJECT
  5
1FBCA
102
{ACAD_REACTORS
330
19DE5
102
}
330
19DE5
100
AcDbZombieObject
 90
      499
 91
      510
 93
      404
310
41560B54985E51940902404000000000000E03F0000000000000F9010740501907004050150841D405064090740C02480A1B40
1001
ACAD
1000
AcDbSavedByObjectVersion
1070
     0
  0
XRECORD
  5
21FAE
102
{ACAD_REACTORS
330
21FAD
102
}
330
21FAD
100
AcDbXrecord
340
2D0
  0
XRECORD
  5
21FAF
102
{ACAD_REACTORS
330
21FAD
102
}
330
21FAD
100
AcDbXrecord
340
2CF
  0
DICTIONARYVAR
  5
20376
102
{ACAD_REACTORS
330
37
102
}
330
37
100
DictionaryVariables
280
     0
  1
1:1
  0
DICTIONARYVAR
  5
1AC19
102
{ACAD_REACTORS
330
37
102
}
330
37
100
DictionaryVariables
280
     0
  1
Standard
  0
DICTIONARYVAR
  5
4F1
102
{ACAD_REACTORS
330
37
102
}
330
37
100
DictionaryVariables
280
     0
  1
Standard
  0
DICTIONARYVAR
  5
38
102
{ACAD_REACTORS
330
37
102
}
330
37
100
DictionaryVariables
280
     0
  1
-1
  0
DICTIONARYVAR
  5
408
102
{ACAD_REACTORS
330
37
102
}
330
37
100
DictionaryVariables
280
     0
  1
2
  0
DICTIONARYVAR
  5
1891
102
{ACAD_REACTORS
330
37
102
}
330
37
100
DictionaryVariables
280
     0
  1
1
  0
DICTIONARYVAR
  5
1AC1C
102
{ACAD_REACTORS
330
37
102
}
330
37
100
DictionaryVariables
280
     0
  1
0
  0
DICTIONARYVAR
  5
1895
102
{ACAD_REACTORS
330
37
102
}
330
37
100
DictionaryVariables
280
     0
  1
8
  0
DICTIONARYVAR
  5
1894
102
{ACAD_REACTORS
330
37
102
}
330
37
100
DictionaryVariables
280
     0
  1
1
  0
DICTIONARYVAR
  5
203CC
102
{ACAD_REACTORS
330
37
102
}
330
37
100
DictionaryVariables
280
     0
  1
0
  0
DICTIONARYVAR
  5
1892
102
{ACAD_REACTORS
330
37
102
}
330
37
100
DictionaryVariables
280
     0
  1
8
  0
DICTIONARYVAR
  5
1893
102
{ACAD_REACTORS
330
37
102
}
330
37
100
DictionaryVariables
280
     0
  1
2
  0
DICTIONARYVAR
  5
409
102
{ACAD_REACTORS
330
37
102
}
330
37
100
DictionaryVariables
280
     0
  1

  0
DICTIONARYVAR
  5
1AC1B
102
{ACAD_REACTORS
330
37
102
}
330
37
100
DictionaryVariables
280
     0
  1
127
  0
DICTIONARYVAR
  5
1FBC5
102
{ACAD_REACTORS
330
37
102
}
330
37
100
DictionaryVariables
280
     0
  1
2
  0
DICTIONARY
  5
2214B
330
19DD5
100
AcDbDictionary
  3
ACAD_XREC_ROUNDTRIP
360
2214C
1001
ACAD
1000
TREAT_AS_HARD
1070
     1
  0
DICTIONARY
  5
2214D
330
19DCD
100
AcDbDictionary
  3
ACAD_XREC_ROUNDTRIP
360
2214E
1001
ACAD
1000
TREAT_AS_HARD
1070
     1
  0
DICTIONARY
  5
2214F
330
19DDD
100
AcDbDictionary
  3
ACAD_XREC_ROUNDTRIP
360
22150
1001
ACAD
1000
TREAT_AS_HARD
1070
     1
  0
XRECORD
  5
2214C
102
{ACAD_REACTORS
330
2214B
102
}
330
2214B
100
AcDbXrecord
102
MATERIAL
148
0.0
149
0.0
149
0.0
 93
        0
 94
      127
282
     0
 72
     0
 77
     0
171
     0
175
     0
179
     0
273
     0
  0
XRECORD
  5
2214E
102
{ACAD_REACTORS
330
2214D
102
}
330
2214D
100
AcDbXrecord
102
MATERIAL
148
0.0
149
0.0
149
0.0
 93
        0
 94
      127
282
     0
 72
     0
 77
     0
171
     0
175
     0
179
     0
273
     0
  0
XRECORD
  5
22150
102
{ACAD_REACTORS
330
2214F
102
}
330
2214F
100
AcDbXrecord
102
MATERIAL
148
0.0
149
0.0
149
0.0
 93
        0
 94
      127
282
     0
 72
     0
 77
     0
171
     0
175
     0
179
     0
273
     0
  0
ENDSEC
  0
EOF
