  0
SECTION
  2
HEADER
  9
$ACADVER
  1
AC1012
  9
$DWGCODEPAGE
  3
ansi_932
  9
$INSBASE
 10
0.0
 20
0.0
 30
0.0
  9
$EXTMIN
 10
30.18839407703649
 20
-805.2637053623007
 30
0.0
  9
$EXTMAX
 10
1011.467481814386
 20
-373.2428892834317
 30
0.0
  9
$LIMMIN
 10
0.0
 20
0.0
  9
$LIMMAX
 10
420.0
 20
297.0
  9
$ORTHOMODE
 70
     0
  9
$REGENMODE
 70
     1
  9
$FILLMODE
 70
     1
  9
$QTEXTMODE
 70
     0
  9
$MIRRTEXT
 70
     0
  9
$DRAGMODE
 70
     2
  9
$LTSCALE
 40
0.5
  9
$OSMODE
 70
 16383
  9
$ATTMODE
 70
     1
  9
$TEXTSIZE
 40
4.0
  9
$TRACEWID
 40
1.0
  9
$TEXTSTYLE
  7
STANDARD
  9
$CLAYER
  8
1TEXT
  9
$CELTYPE
  6
BYLAYER
  9
$CECOLOR
 62
   256
  9
$CELTSCALE
 40
1.0
  9
$DELOBJ
 70
     1
  9
$DISPSILH
 70
     0
  9
$DIMSCALE
 40
3.0
  9
$DIMASZ
 40
2.0
  9
$DIMEXO
 40
0.0
  9
$DIMDLI
 40
7.0
  9
$DIMRND
 40
0.0
  9
$DIMDLE
 40
0.0
  9
$DIMEXE
 40
1.0
  9
$DIMTP
 40
0.0
  9
$DIMTM
 40
0.0
  9
$DIMTXT
 40
3.5
  9
$DIMCEN
 40
0.0
  9
$DIMTSZ
 40
0.0
  9
$DIMTOL
 70
     0
  9
$DIMLIM
 70
     0
  9
$DIMTIH
 70
     0
  9
$DIMTOH
 70
     0
  9
$DIMSE1
 70
     0
  9
$DIMSE2
 70
     0
  9
$DIMTAD
 70
     1
  9
$DIMZIN
 70
     8
  9
$DIMBLK
  1

  9
$DIMASO
 70
     1
  9
$DIMSHO
 70
     1
  9
$DIMPOST
  1
 
  9
$DIMAPOST
  1

  9
$DIMALT
 70
     0
  9
$DIMALTD
 70
     2
  9
$DIMALTF
 40
25.4
  9
$DIMLFAC
 40
1.0
  9
$DIMTOFL
 70
     1
  9
$DIMTVP
 40
0.0
  9
$DIMTIX
 70
     0
  9
$DIMSOXD
 70
     0
  9
$DIMSAH
 70
     1
  9
$DIMBLK1
  1
OPEN30
  9
$DIMBLK2
  1
OPEN30
  9
$DIMSTYLE
  2
NEWX10
  9
$DIMCLRD
 70
   256
  9
$DIMCLRE
 70
   256
  9
$DIMCLRT
 70
   201
  9
$DIMTFAC
 40
0.7
  9
$DIMGAP
 40
0.7
  9
$DIMJUST
 70
     0
  9
$DIMSD1
 70
     0
  9
$DIMSD2
 70
     0
  9
$DIMTOLJ
 70
     1
  9
$DIMTZIN
 70
     8
  9
$DIMALTZ
 70
     0
  9
$DIMALTTZ
 70
     0
  9
$DIMFIT
 70
     2
  9
$DIMUPT
 70
     0
  9
$DIMUNIT
 70
     2
  9
$DIMDEC
 70
     2
  9
$DIMTDEC
 70
     4
  9
$DIMALTU
 70
     2
  9
$DIMALTTD
 70
     2
  9
$DIMTXSTY
  7
STANDARD
  9
$DIMAUNIT
 70
     0
  9
$LUNITS
 70
     2
  9
$LUPREC
 70
     4
  9
$SKETCHINC
 40
1.0
  9
$FILLETRAD
 40
0.0
  9
$AUNITS
 70
     0
  9
$AUPREC
 70
     2
  9
$MENU
  1
acad
  9
$ELEVATION
 40
0.0
  9
$PELEVATION
 40
0.0
  9
$THICKNESS
 40
0.0
  9
$LIMCHECK
 70
     0
  9
$CHAMFERA
 40
1.0
  9
$CHAMFERB
 40
1.0
  9
$CHAMFERC
 40
20.0
  9
$CHAMFERD
 40
0.0
  9
$SKPOLY
 70
     0
  9
$TDCREATE
 40
2453033.732663484
  9
$TDUPDATE
 40
2458780.576299155
  9
$TDINDWG
 40
2.5846191551
  9
$TDUSRTIMER
 40
2.5846191551
  9
$USRTIMER
 70
     1
  9
$ANGBASE
 50
0.0
  9
$ANGDIR
 70
     0
  9
$PDMODE
 70
     0
  9
$PDSIZE
 40
0.0
  9
$PLINEWID
 40
0.0
  9
$COORDS
 70
     2
  9
$SPLFRAME
 70
     0
  9
$SPLINETYPE
 70
     6
  9
$SPLINESEGS
 70
     8
  9
$ATTDIA
 70
     0
  9
$ATTREQ
 70
     1
  9
$HANDLING
 70
     1
  9
$HANDSEED
  5
22D95
  9
$SURFTAB1
 70
     6
  9
$SURFTAB2
 70
     6
  9
$SURFTYPE
 70
     6
  9
$SURFU
 70
     6
  9
$SURFV
 70
     6
  9
$UCSNAME
  2

  9
$UCSORG
 10
0.0
 20
0.0
 30
0.0
  9
$UCSXDIR
 10
1.0
 20
0.0
 30
0.0
  9
$UCSYDIR
 10
0.0
 20
1.0
 30
0.0
  9
$PUCSNAME
  2

  9
$PUCSORG
 10
0.0
 20
0.0
 30
0.0
  9
$PUCSXDIR
 10
1.0
 20
0.0
 30
0.0
  9
$PUCSYDIR
 10
0.0
 20
1.0
 30
0.0
  9
$USERI1
 70
     0
  9
$USERI2
 70
     0
  9
$USERI3
 70
     0
  9
$USERI4
 70
     0
  9
$USERI5
 70
     0
  9
$USERR1
 40
0.0
  9
$USERR2
 40
0.0
  9
$USERR3
 40
0.0
  9
$USERR4
 40
0.0
  9
$USERR5
 40
0.0
  9
$WORLDVIEW
 70
     1
  9
$SHADEDGE
 70
     3
  9
$SHADEDIF
 70
    70
  9
$TILEMODE
 70
     1
  9
$MAXACTVP
 70
    48
  9
$PINSBASE
 10
0.0
 20
0.0
 30
0.0
  9
$PLIMCHECK
 70
     0
  9
$PEXTMIN
 10
1.000000000000000E+20
 20
1.000000000000000E+20
 30
1.000000000000000E+20
  9
$PEXTMAX
 10
-1.000000000000000E+20
 20
-1.000000000000000E+20
 30
-1.000000000000000E+20
  9
$PLIMMIN
 10
0.0
 20
0.0
  9
$PLIMMAX
 10
420.0
 20
297.0
  9
$UNITMODE
 70
     0
  9
$VISRETAIN
 70
     1
  9
$PLINEGEN
 70
     0
  9
$PSLTSCALE
 70
     1
  9
$TREEDEPTH
 70
  3020
  9
$PICKSTYLE
 70
     1
  9
$CMLSTYLE
  2
STANDARD
  9
$CMLJUST
 70
     0
  9
$CMLSCALE
 40
20.0
  9
$SAVEIMAGES
 70
     1
  0
ENDSEC
  0
SECTION
  2
CLASSES
  0
CLASS
  1
DICTIONARYVAR
  2
AcDbDictionaryVar
  3
ObjectDBX Classes
 90
        0
280
     0
281
     0
  0
CLASS
  1
IDBUFFER
  2
AcDbIdBuffer
  3
ObjectDBX Classes
 90
    32768
280
     0
281
     0
  0
CLASS
  1
LWPOLYLINE
  2
AcDbPolyline
  3
ObjectDBX Classes
 90
    32768
280
     0
281
     1
  0
CLASS
  1
ACDBDICTIONARYWDFLT
  2
AcDbDictionaryWithDefault
  3
ObjectDBX Classes
 90
    32768
280
     0
281
     0
  0
CLASS
  1
ACDBPLACEHOLDER
  2
AcDbPlaceHolder
  3
ObjectDBX Classes
 90
        0
280
     0
281
     0
  0
CLASS
  1
LAYOUT
  2
AcDbLayout
  3
ObjectDBX Classes
 90
        0
280
     0
281
     0
  0
CLASS
  1
TABLESTYLE
  2
AcDbTableStyle
  3
ObjectDBX Classes
 90
     4095
280
     0
281
     0
  0
CLASS
  1
SORTENTSTABLE
  2
AcDbSortentsTable
  3
ObjectDBX Classes
 90
    32768
280
     0
281
     0
  0
CLASS
  1
DIMASSOC
  2
AcDbDimAssoc
  3
"AcDbDimAssoc|Product Desc:     AcDim ARX App For Dimension|Company:          Autodesk, Inc.|WEB Address:      www.autodesk.com"
 90
        0
280
     0
281
     0
  0
CLASS
  1
MATERIAL
  2
AcDbMaterial
  3
ObjectDBX Classes
 90
     1153
280
     0
281
     0
  0
CLASS
  1
VISUALSTYLE
  2
AcDbVisualStyle
  3
ObjectDBX Classes
 90
     4095
280
     0
281
     0
  0
CLASS
  1
SCALE
  2
AcDbScale
  3
ObjectDBX Classes
 90
     1153
280
     0
281
     0
  0
CLASS
  1
MLEADERSTYLE
  2
AcDbMLeaderStyle
  3
ACDB_MLEADERSTYLE_CLASS
 90
     4095
280
     0
281
     0
  0
CLASS
  1
CELLSTYLEMAP
  2
AcDbCellStyleMap
  3
ObjectDBX Classes
 90
     1152
280
     0
281
     0
  0
CLASS
  1
EXACXREFPANELOBJECT
  2
ExAcXREFPanelObject
  3
EXAC_ESW
 90
     1025
280
     1
281
     0
  0
CLASS
  1
NPOCOLLECTION
  2
AcDbImpNonPersistentObjectsCollection
  3
ObjectDBX Classes
 90
     1153
280
     1
281
     0
  0
CLASS
  1
SUN
  2
AcDbSun
  3
SCENEOE
 90
     1153
280
     0
281
     0
  0
CLASS
  1
MULTILEADER
  2
AcDbMLeader
  3
ACDB_MLEADER_CLASS
 90
     1025
280
     0
281
     1
  0
CLASS
  1

  2
CaLongTransaction
  3

 90
        0
280
     0
281
     0
  0
CLASS
  1
XRECORD
  2
AcDbXrecord
  3
ObjectDBX Classes
 90
    32768
280
     0
281
     0
  0
CLASS
  1
HATCH
  2
AcDbHatch
  3
ObjectDBX Classes
 90
    32768
280
     0
281
     1
  0
ENDSEC
  0
SECTION
  2
TABLES
  0
TABLE
  2
VPORT
  5
8
330
0
100
AcDbSymbolTable
 70
     1
  0
VPORT
  5
19DC2
330
8
100
AcDbSymbolTableRecord
100
AcDbViewportTableRecord
  2
*ACTIVE
 70
     0
 10
0.0
 20
0.0
 11
1.0
 21
1.0
 12
520.8279379457115
 22
-589.2532973228663
 13
0.0
 23
0.0
 14
10.0
 24
10.0
 15
10.0
 25
10.0
 16
0.0
 26
0.0
 36
1.0
 17
0.0
 27
0.0
 37
0.0
 40
584.3290487276158
 41
1.803066037735849
 42
50.0
 43
0.0
 44
0.0
 50
0.0
 51
0.0
 71
    16
 72
   100
 73
     1
 74
     1
 75
     0
 76
     0
 77
     0
 78
     0
  0
ENDTAB
  0
TABLE
  2
LTYPE
  5
5
330
0
100
AcDbSymbolTable
 70
     3
  0
LTYPE
  5
12
330
5
100
AcDbSymbolTableRecord
100
AcDbLinetypeTableRecord
  2
BYBLOCK
 70
     0
  3

 72
    65
 73
     0
 40
0.0
  0
LTYPE
  5
13
330
5
100
AcDbSymbolTableRecord
100
AcDbLinetypeTableRecord
  2
BYLAYER
 70
     0
  3

 72
    65
 73
     0
 40
0.0
  0
LTYPE
  5
14
330
5
100
AcDbSymbolTableRecord
100
AcDbLinetypeTableRecord
  2
CONTINUOUS
 70
     0
  3
Solid line
 72
    65
 73
     0
 40
0.0
  0
LTYPE
  5
26
330
5
100
AcDbSymbolTableRecord
100
AcDbLinetypeTableRecord
  2
CENTER2
 70
     0
  3
Center (.5x) ___ _ ___ _ ___ _ ___ _ ___ _ ___
 72
    65
 73
     4
 40
28.575
 49
19.05
 74
     0
 49
-3.175
 74
     0
 49
3.175
 74
     0
 49
-3.175
 74
     0
  0
LTYPE
  5
FF
330
5
100
AcDbSymbolTableRecord
100
AcDbLinetypeTableRecord
  2
HIDDEN
 70
     0
  3
Hidden __ __ __ __ __ __ __ __ __ __ __ __ __ _
 72
    65
 73
     2
 40
9.524999999999999
 49
6.35
 74
     0
 49
-3.175
 74
     0
  0
ENDTAB
  0
TABLE
  2
LAYER
  5
2
102
{ACAD_XDICTIONARY
360
18FE8
102
}
330
0
100
AcDbSymbolTable
 70
     7
  0
LAYER
  5
E
102
{ACAD_XDICTIONARY
360
1A20A
102
}
330
2
100
AcDbSymbolTableRecord
100
AcDbLayerTableRecord
  2
0
 70
     0
 62
     7
  6
CONTINUOUS
  0
LAYER
  5
29
102
{ACAD_XDICTIONARY
360
1A20C
102
}
330
2
100
AcDbSymbolTableRecord
100
AcDbLayerTableRecord
  2
1CENTER
 70
     0
 62
     7
  6
CENTER2
  0
LAYER
  5
31
102
{ACAD_XDICTIONARY
360
1A20E
102
}
330
2
100
AcDbSymbolTableRecord
100
AcDbLayerTableRecord
  2
1TEXT
 70
     0
 62
     7
  6
CONTINUOUS
  0
LAYER
  5
101
102
{ACAD_XDICTIONARY
360
1A218
102
}
330
2
100
AcDbSymbolTableRecord
100
AcDbLayerTableRecord
  2
1DIM
 70
     0
 62
     7
  6
CONTINUOUS
  0
LAYER
  5
102
102
{ACAD_XDICTIONARY
360
1A21A
102
}
330
2
100
AcDbSymbolTableRecord
100
AcDbLayerTableRecord
  2
1HIDDEN
 70
     0
 62
     7
  6
HIDDEN
  0
LAYER
  5
25F
102
{ACAD_XDICTIONARY
360
1A220
102
}
330
2
100
AcDbSymbolTableRecord
100
AcDbLayerTableRecord
  2
01
 70
     0
 62
     1
  6
CONTINUOUS
  0
LAYER
  5
26A
102
{ACAD_XDICTIONARY
360
1A236
102
}
330
2
100
AcDbSymbolTableRecord
100
AcDbLayerTableRecord
  2
1DIM1
 70
     0
 62
     7
  6
CONTINUOUS
  0
ENDTAB
  0
TABLE
  2
STYLE
  5
3
330
0
100
AcDbSymbolTable
 70
     1
  0
STYLE
  5
F
330
3
100
AcDbSymbolTableRecord
100
AcDbTextStyleTableRecord
  2
STANDARD
 70
     0
 40
0.0
 41
1.0
 50
0.0
 71
     0
 42
4.0
  3
txt.shx
  4
extfont.shx
  0
ENDTAB
  0
TABLE
  2
VIEW
  5
6
330
0
100
AcDbSymbolTable
 70
     0
  0
ENDTAB
  0
TABLE
  2
UCS
  5
7
330
0
100
AcDbSymbolTable
 70
     0
  0
ENDTAB
  0
TABLE
  2
APPID
  5
9
330
0
100
AcDbSymbolTable
 70
    17
  0
APPID
  5
10
330
9
100
AcDbSymbolTableRecord
100
AcDbRegAppTableRecord
  2
ACAD
 70
     0
  0
APPID
  5
21
330
9
100
AcDbSymbolTableRecord
100
AcDbRegAppTableRecord
  2
DRAWINGVARIABLESXDATA
 70
     0
  0
APPID
  5
64
330
9
100
AcDbSymbolTableRecord
100
AcDbRegAppTableRecord
  2
CONTENTTABDATA
 70
     0
  0
APPID
  5
65
330
9
100
AcDbSymbolTableRecord
100
AcDbRegAppTableRecord
  2
CONTENTCURRENTTAB
 70
     0
  0
APPID
  5
66
330
9
100
AcDbSymbolTableRecord
100
AcDbRegAppTableRecord
  2
CONTENTBLOCKDESCRIPTION
 70
     0
  0
APPID
  5
67
330
9
100
AcDbSymbolTableRecord
100
AcDbRegAppTableRecord
  2
CONTENTBLOCKICON
 70
     0
  0
APPID
  5
68
330
9
100
AcDbSymbolTableRecord
100
AcDbRegAppTableRecord
  2
CONTENTLONGBLOCKNAME
 70
     0
  0
APPID
  5
5A9
330
9
100
AcDbSymbolTableRecord
100
AcDbRegAppTableRecord
  2
ACAD_PSEXT
 70
     0
  0
APPID
  5
18AC
330
9
100
AcDbSymbolTableRecord
100
AcDbRegAppTableRecord
  2
ACAD_DSTYLE_DIMTEXT_FILL
 70
     0
  0
APPID
  5
19E1A
330
9
100
AcDbSymbolTableRecord
100
AcDbRegAppTableRecord
  2
ACAD_MLEADERVER
 70
     0
  0
APPID
  5
1A2FA
330
9
100
AcDbSymbolTableRecord
100
AcDbRegAppTableRecord
  2
ACAD_DSTYLE_DIMRADIAL_EXTE
 70
     0
  0
APPID
  5
1DBC1
330
9
100
AcDbSymbolTableRecord
100
AcDbRegAppTableRecord
  2
ACADANNOTATIVE
 70
     0
  0
APPID
  5
1E991
330
9
100
AcDbSymbolTableRecord
100
AcDbRegAppTableRecord
  2
ACAD_EXEMPT_FROM_CAD_STAND
 70
     0
  0
APPID
  5
1FBF7
330
9
100
AcDbSymbolTableRecord
100
AcDbRegAppTableRecord
  2
ACDBBLOCKREPETAG
 70
     0
  0
APPID
  5
20360
330
9
100
AcDbSymbolTableRecord
100
AcDbRegAppTableRecord
  2
ACAD_OBJECT_CHANGE_GUID
 70
     0
  0
APPID
  5
20453
330
9
100
AcDbSymbolTableRecord
100
AcDbRegAppTableRecord
  2
ACLAYERTOOLS
 70
     0
  0
APPID
  5
20454
330
9
100
AcDbSymbolTableRecord
100
AcDbRegAppTableRecord
  2
ACAD_NAV_VCDISPLAY
 70
     0
  0
ENDTAB
  0
TABLE
  2
DIMSTYLE
  5
A
330
0
100
AcDbSymbolTable
 70
     2
  0
DIMSTYLE
105
48
330
A
100
AcDbSymbolTableRecord
100
AcDbDimStyleTableRecord
  2
NEWX10
 70
     0
  3
 
  4

  5

  6
OPEN30
  7
OPEN30
 40
1.0
 41
2.0
 42
0.0
 43
7.0
 44
1.0
 45
0.0
 46
0.0
 47
0.0
 48
0.0
140
3.5
141
0.0
142
0.0
143
25.4
144
1.0
145
0.0
146
0.7
147
0.7
 71
     0
 72
     0
 73
     0
 74
     0
 75
     0
 76
     0
 77
     1
 78
     8
170
     0
171
     2
172
     1
173
     1
174
     0
175
     0
176
   256
177
   256
178
   201
179
     2
270
     2
271
     2
272
     4
273
     2
274
     2
340
F
275
     0
280
     0
281
     0
282
     0
283
     1
284
     8
285
     0
286
     0
287
     2
288
     0
  0
DIMSTYLE
105
208CA
330
A
100
AcDbSymbolTableRecord
100
AcDbDimStyleTableRecord
  2
ISO-25
 70
     0
  3

  4

  5

  6

  7

 40
1.0
 41
2.5
 42
0.625
 43
3.75
 44
1.25
 45
0.0
 46
0.0
 47
0.0
 48
0.0
140
2.5
141
2.5
142
0.0
143
0.03937007874016
144
1.0
145
0.0
146
1.0
147
0.625
 71
     0
 72
     0
 73
     0
 74
     0
 75
     0
 76
     0
 77
     1
 78
     8
170
     0
171
     3
172
     1
173
     0
174
     0
175
     0
176
     0
177
     0
178
     0
270
     2
271
     2
272
     2
273
     2
274
     3
340
F
275
     0
280
     0
281
     0
282
     0
283
     0
284
     8
285
     0
286
     0
287
     3
288
     0
  0
ENDTAB
  0
TABLE
  2
BLOCK_RECORD
  5
1
330
0
100
AcDbSymbolTable
 70
    10
  0
BLOCK_RECORD
  5
18
102
{ACAD_XDICTIONARY
360
6E9
102
}
330
1
100
AcDbSymbolTableRecord
100
AcDbBlockTableRecord
  2
*MODEL_SPACE
  0
BLOCK_RECORD
  5
15
102
{ACAD_XDICTIONARY
360
59B
102
}
330
1
100
AcDbSymbolTableRecord
100
AcDbBlockTableRecord
  2
*PAPER_SPACE
  0
BLOCK_RECORD
  5
42
330
1
100
AcDbSymbolTableRecord
100
AcDbBlockTableRecord
  2
_OPEN30
  0
BLOCK_RECORD
  5
6F0
330
1
100
AcDbSymbolTableRecord
100
AcDbBlockTableRecord
  2
_OPEN
  0
BLOCK_RECORD
  5
1FC46
330
1
100
AcDbSymbolTableRecord
100
AcDbBlockTableRecord
  2
A3WAKUKAWAJUN2017_HYOUDAI_
  0
BLOCK_RECORD
  5
20460
102
{ACAD_XDICTIONARY
360
20461
102
}
330
1
100
AcDbSymbolTableRecord
100
AcDbBlockTableRecord
  2
NOCIRCLE
1001
ACADANNOTATIVE
1000
AnnotativeData
1002
{
1070
     1
1070
     0
1002
}
  0
BLOCK_RECORD
  5
22BF5
330
1
100
AcDbSymbolTableRecord
100
AcDbBlockTableRecord
  2
*X138
  0
BLOCK_RECORD
  5
22C43
330
1
100
AcDbSymbolTableRecord
100
AcDbBlockTableRecord
  2
*X139
  0
BLOCK_RECORD
  5
22C95
330
1
100
AcDbSymbolTableRecord
100
AcDbBlockTableRecord
  2
*X140
  0
BLOCK_RECORD
  5
22CE6
330
1
100
AcDbSymbolTableRecord
100
AcDbBlockTableRecord
  2
*X141
  0
BLOCK_RECORD
  5
22D23
330
1
100
AcDbSymbolTableRecord
100
AcDbBlockTableRecord
  2
*X142
  0
BLOCK_RECORD
  5
22D63
330
1
100
AcDbSymbolTableRecord
100
AcDbBlockTableRecord
  2
*X143
  0
ENDTAB
  0
ENDSEC
  0
SECTION
  2
BLOCKS
  0
BLOCK
  5
19
330
18
100
AcDbEntity
  8
0
100
AcDbBlockBegin
  2
*MODEL_SPACE
 70
     0
 10
0.0
 20
0.0
 30
0.0
  3
*MODEL_SPACE
  1

  0
ENDBLK
  5
1A
330
18
100
AcDbEntity
  8
0
100
AcDbBlockEnd
  0
BLOCK
  5
16
330
15
100
AcDbEntity
 67
     1
  8
0
100
AcDbBlockBegin
  2
*PAPER_SPACE
 70
     0
 10
0.0
 20
0.0
 30
0.0
  3
*PAPER_SPACE
  1

  0
ENDBLK
  5
17
330
15
100
AcDbEntity
 67
     1
  8
0
100
AcDbBlockEnd
  0
BLOCK
  5
43
330
42
100
AcDbEntity
  8
0
100
AcDbBlockBegin
  2
_OPEN30
 70
     0
 10
0.0
 20
0.0
 30
0.0
  3
_OPEN30
  1

  0
LINE
  5
44
330
42
100
AcDbEntity
  8
0
  6
BYBLOCK
 62
     0
100
AcDbLine
 10
-1.0
 20
0.26794919
 30
0.0
 11
0.0
 21
0.0
 31
0.0
  0
LINE
  5
45
330
42
100
AcDbEntity
  8
0
  6
BYBLOCK
 62
     0
100
AcDbLine
 10
0.0
 20
0.0
 30
0.0
 11
-1.0
 21
-0.26794919
 31
0.0
  0
LINE
  5
46
330
42
100
AcDbEntity
  8
0
  6
BYBLOCK
 62
     0
100
AcDbLine
 10
0.0
 20
0.0
 30
0.0
 11
-1.0
 21
0.0
 31
0.0
  0
ENDBLK
  5
47
330
42
100
AcDbEntity
  8
0
100
AcDbBlockEnd
  0
BLOCK
  5
6F1
330
6F0
100
AcDbEntity
  8
0
100
AcDbBlockBegin
  2
_OPEN
 70
     0
 10
0.0
 20
0.0
 30
0.0
  3
_OPEN
  1
a3waku.dwg
  0
LINE
  5
6F2
330
6F0
100
AcDbEntity
  8
0
  6
BYBLOCK
 62
     0
100
AcDbLine
 10
-1.0
 20
0.1666666666666667
 30
0.0
 11
0.0
 21
0.0
 31
0.0
  0
LINE
  5
6F3
330
6F0
100
AcDbEntity
  8
0
  6
BYBLOCK
 62
     0
100
AcDbLine
 10
0.0
 20
0.0
 30
0.0
 11
-1.0
 21
-0.1666666666666667
 31
0.0
  0
LINE
  5
6F4
330
6F0
100
AcDbEntity
  8
0
  6
BYBLOCK
 62
     0
100
AcDbLine
 10
0.0
 20
0.0
 30
0.0
 11
-1.0
 21
0.0
 31
0.0
  0
ENDBLK
  5
6F5
330
6F0
100
AcDbEntity
  8
0
100
AcDbBlockEnd
  0
BLOCK
  5
20345
330
1FC46
100
AcDbEntity
  8
0
100
AcDbBlockBegin
  2
A3WAKUKAWAJUN2017_HYOUDAI_
 70
     0
 10
0.0
 20
0.0
 30
0.0
  3
A3WAKUKAWAJUN2017_HYOUDAI_
  1

  0
LINE
  5
1FC48
330
1FC46
100
AcDbEntity
  8
0
100
AcDbLine
 10
13.26299999998673
 20
-0.0001000000000317
 30
0.0
 11
9.236999999990758
 21
8.999899999990987
 31
0.0
1001
ACAD
1000
ASC_BOUNDS
1002
{
1070
    19
1005
1FC89
1002
}
  0
LINE
  5
1FC49
330
1FC46
100
AcDbEntity
  8
0
100
AcDbLine
 10
5.657999999994331
 20
0.9999999999989768
 30
0.0
 11
9.236999999990758
 21
8.999999999991019
 31
0.0
1001
ACAD
1000
ASC_BOUNDS
1002
{
1070
    19
1005
1FC89
1002
}
  0
LINE
  5
1FC4A
330
1FC46
100
AcDbEntity
  8
0
100
AcDbLine
 10
18.59199999998134
 20
-0.2368999999997641
 30
0.0
 11
16.46099999998353
 21
5.432899999994561
 31
0.0
1001
ACAD
1000
ASC_BOUNDS
1002
{
1070
    19
1005
1FC8A
1002
}
  0
LINE
  5
1FC4B
330
1FC46
100
AcDbEntity
  8
0
100
AcDbLine
 10
18.59199999998134
 20
-0.2368999999997641
 30
0.0
 11
22.38199999997767
 21
8.763099999991255
 31
0.0
1001
ACAD
1000
ASC_BOUNDS
1002
{
1070
    19
1005
1FC8A
1002
}
  0
LINE
  5
1FC4C
330
1FC46
100
AcDbEntity
  8
0
100
AcDbLine
 10
14.32899999998563
 20
-0.2368999999997641
 30
0.0
 11
16.46099999998353
 21
5.432899999994561
 31
0.0
1001
ACAD
1000
ASC_BOUNDS
1002
{
1070
    19
1005
1FC8A
1002
}
  0
LINE
  5
1FC4D
330
1FC46
100
AcDbEntity
  8
0
100
AcDbLine
 10
14.32899999998563
 20
-0.2368999999997641
 30
0.0
 11
10.53899999998941
 21
8.763099999991255
 31
0.0
1001
ACAD
1000
ASC_BOUNDS
1002
{
1070
    19
1005
1FC8A
1002
}
  0
LINE
  5
1FC4E
330
1FC46
100
AcDbEntity
  8
0
100
AcDbLine
 10
19.53899999998043
 20
-0.0001000000000317
 30
0.0
 11
23.56599999997638
 21
8.999899999990987
 31
0.0
1001
ACAD
1000
ASC_BOUNDS
1002
{
1070
    19
1005
1FC8B
1002
}
  0
LINE
  5
1FC4F
330
1FC46
100
AcDbEntity
  8
0
100
AcDbLine
 10
26.97358892824991
 20
1.383099999991202
 30
0.0
 11
23.56599999997638
 21
8.999899999990987
 31
0.0
1001
ACAD
1000
ASC_BOUNDS
1002
{
1070
    19
1005
1FC8B
1002
}
  0
LINE
  5
1FC50
330
1FC46
100
AcDbEntity
  8
0
100
AcDbLine
 10
5.657999999994331
 20
0.9999999999989768
 30
0.0
 11
3.181999999996833
 21
4.668599999995308
 31
0.0
1001
ACAD
1000
ASC_BOUNDS
1002
{
1070
    19
1005
1FC89
1002
}
  0
LINE
  5
1FC51
330
1FC46
100
AcDbEntity
  8
0
100
AcDbLine
 10
4.617999999995391
 20
-0.0001000000000317
 30
0.0
 11
1.420999999998571
 21
4.736799999995242
 31
0.0
1001
ACAD
1000
ASC_BOUNDS
1002
{
1070
    19
1005
1FC89
1002
}
  0
LINE
  5
1FC52
330
1FC46
100
AcDbEntity
  8
0
100
AcDbLine
 10
1.420999999998571
 20
8.763099999991255
 30
0.0
 11
1.420999999998571
 21
0.0
 31
0.0
1001
ACAD
1000
ASC_BOUNDS
1002
{
1070
    19
1005
1FC8E
1002
}
  0
LINE
  5
1FC53
330
1FC46
100
AcDbEntity
  8
0
100
AcDbLine
 10
0.0
 20
8.763099999991255
 30
0.0
 11
0.0
 21
0.0
 31
0.0
1001
ACAD
1000
ASC_BOUNDS
1002
{
1070
    19
1005
1FC8E
1002
}
  0
LINE
  5
1FC54
330
1FC46
100
AcDbEntity
  8
0
100
AcDbLine
 10
6.766999999993232
 20
-0.0001000000000317
 30
0.0
 11
7.826999999992154
 21
2.368399999997621
 31
0.0
1001
ACAD
1000
ASC_BOUNDS
1002
{
1070
    19
1005
1FC89
1002
}
  0
LINE
  5
1FC55
330
1FC46
100
AcDbEntity
  8
0
100
AcDbLine
 10
0.0
 20
0.0
 30
0.0
 11
1.420999999998571
 21
0.0
 31
0.0
1001
ACAD
1000
ASC_BOUNDS
1002
{
1070
    19
1005
1FC8E
1002
}
  0
LINE
  5
1FC56
330
1FC46
100
AcDbEntity
  8
0
100
AcDbLine
 10
4.617999999995391
 20
0.0
 30
0.0
 11
6.766999999993232
 21
0.0
 31
0.0
1001
ACAD
1000
ASC_BOUNDS
1002
{
1070
    19
1005
1FC89
1002
}
  0
LINE
  5
1FC57
330
1FC46
100
AcDbEntity
  8
0
100
AcDbLine
 10
11.70599999998831
 20
-0.0001000000000317
 30
0.0
 11
10.64699999998936
 21
2.368399999997621
 31
0.0
1001
ACAD
1000
ASC_BOUNDS
1002
{
1070
    19
1005
1FC89
1002
}
  0
LINE
  5
1FC58
330
1FC46
100
AcDbEntity
  8
0
100
AcDbLine
 10
7.826999999992154
 20
2.368399999997621
 30
0.0
 11
10.64699999998936
 21
2.368399999997621
 31
0.0
1001
ACAD
1000
ASC_BOUNDS
1002
{
1070
    19
1005
1FC89
1002
}
  0
LINE
  5
1FC59
330
1FC46
100
AcDbEntity
  8
0
100
AcDbLine
 10
11.70599999998831
 20
0.0
 30
0.0
 11
13.26299999998673
 21
0.0
 31
0.0
1001
ACAD
1000
ASC_BOUNDS
1002
{
1070
    19
1005
1FC89
1002
}
  0
LINE
  5
1FC5A
330
1FC46
100
AcDbEntity
  8
0
100
AcDbLine
 10
22.15599999997789
 20
2.368399999997621
 30
0.0
 11
24.97599999997499
 21
2.368399999997621
 31
0.0
1001
ACAD
1000
ASC_BOUNDS
1002
{
1070
    19
1005
1FC8B
1002
}
  0
LINE
  5
1FC5B
330
1FC46
100
AcDbEntity
  8
0
100
AcDbLine
 10
19.53899999998043
 20
0.0
 30
0.0
 11
21.09599999997886
 21
0.0
 31
0.0
1001
ACAD
1000
ASC_BOUNDS
1002
{
1070
    19
1005
1FC8B
1002
}
  0
LINE
  5
1FC5C
330
1FC46
100
AcDbEntity
  8
0
100
AcDbLine
 10
21.09599999997886
 20
-0.0001000000000317
 30
0.0
 11
22.15599999997789
 21
2.368399999997621
 31
0.0
1001
ACAD
1000
ASC_BOUNDS
1002
{
1070
    19
1005
1FC8B
1002
}
  0
LINE
  5
1FC5D
330
1FC46
100
AcDbEntity
  8
0
100
AcDbLine
 10
26.02015566812236
 20
0.0330999999912365
 30
0.0
 11
24.97599999997499
 21
2.368399999997621
 31
0.0
1001
ACAD
1000
ASC_BOUNDS
1002
{
1070
    19
1005
1FC8B
1002
}
  0
LINE
  5
1FC5E
330
1FC46
100
AcDbEntity
  8
0
100
AcDbLine
 10
14.32399999998563
 20
3.315799999996671
 30
0.0
 11
16.46099999998353
 21
8.999899999990987
 31
0.0
1001
ACAD
1000
ASC_BOUNDS
1002
{
1070
    19
1005
1FC8A
1002
}
  0
LINE
  5
1FC5F
330
1FC46
100
AcDbEntity
  8
0
100
AcDbLine
 10
6.432999999993513
 20
8.763099999991255
 30
0.0
 11
3.181999999996833
 21
4.668599999995308
 31
0.0
1001
ACAD
1000
ASC_BOUNDS
1002
{
1070
    19
1005
1FC89
1002
}
  0
LINE
  5
1FC60
330
1FC46
100
AcDbEntity
  8
0
100
AcDbLine
 10
4.617999999995391
 20
8.763099999991255
 30
0.0
 11
1.420999999998571
 21
4.736799999995242
 31
0.0
1001
ACAD
1000
ASC_BOUNDS
1002
{
1070
    19
1005
1FC89
1002
}
  0
LINE
  5
1FC61
330
1FC46
100
AcDbEntity
  8
0
100
AcDbLine
 10
0.0
 20
8.763099999991255
 30
0.0
 11
1.420999999998571
 21
8.763099999991255
 31
0.0
1001
ACAD
1000
ASC_BOUNDS
1002
{
1070
    19
1005
1FC8E
1002
}
  0
LINE
  5
1FC62
330
1FC46
100
AcDbEntity
  8
0
100
AcDbLine
 10
4.617999999995391
 20
8.763099999991255
 30
0.0
 11
6.432999999993513
 21
8.763099999991255
 31
0.0
1001
ACAD
1000
ASC_BOUNDS
1002
{
1070
    19
1005
1FC89
1002
}
  0
LINE
  5
1FC63
330
1FC46
100
AcDbEntity
  8
0
100
AcDbLine
 10
14.32399999998563
 20
3.315799999996671
 30
0.0
 11
12.02999999998792
 21
8.763099999991255
 31
0.0
1001
ACAD
1000
ASC_BOUNDS
1002
{
1070
    19
1005
1FC8A
1002
}
  0
LINE
  5
1FC64
330
1FC46
100
AcDbEntity
  8
0
100
AcDbLine
 10
10.06399999998996
 20
3.670999999996297
 30
0.0
 11
9.236999999990758
 21
5.5200999999945
 31
0.0
1001
ACAD
1000
ASC_BOUNDS
1002
{
1070
    19
1005
1FC89
1002
}
  0
LINE
  5
1FC65
330
1FC46
100
AcDbEntity
  8
0
100
AcDbLine
 10
8.409999999991555
 20
3.670999999996297
 30
0.0
 11
9.236999999990758
 21
5.5200999999945
 31
0.0
1001
ACAD
1000
ASC_BOUNDS
1002
{
1070
    19
1005
1FC89
1002
}
  0
LINE
  5
1FC66
330
1FC46
100
AcDbEntity
  8
0
100
AcDbLine
 10
8.409999999991555
 20
3.670999999996297
 30
0.0
 11
10.06399999998996
 21
3.670999999996297
 31
0.0
1001
ACAD
1000
ASC_BOUNDS
1002
{
1070
    19
1005
1FC89
1002
}
  0
LINE
  5
1FC67
330
1FC46
100
AcDbEntity
  8
0
100
AcDbLine
 10
10.53899999998941
 20
8.763099999991255
 30
0.0
 11
12.02999999998792
 21
8.763099999991255
 31
0.0
1001
ACAD
1000
ASC_BOUNDS
1002
{
1070
    19
1005
1FC8A
1002
}
  0
LINE
  5
1FC68
330
1FC46
100
AcDbEntity
  8
0
100
AcDbLine
 10
22.7389999999773
 20
3.670999999996297
 30
0.0
 11
23.56599999997638
 21
5.5200999999945
 31
0.0
1001
ACAD
1000
ASC_BOUNDS
1002
{
1070
    19
1005
1FC8B
1002
}
  0
LINE
  5
1FC69
330
1FC46
100
AcDbEntity
  8
0
100
AcDbLine
 10
22.7389999999773
 20
3.670999999996297
 30
0.0
 11
24.39299999997559
 21
3.670999999996297
 31
0.0
1001
ACAD
1000
ASC_BOUNDS
1002
{
1070
    19
1005
1FC8B
1002
}
  0
LINE
  5
1FC6A
330
1FC46
100
AcDbEntity
  8
0
100
AcDbLine
 10
18.59799999998143
 20
3.315799999996671
 30
0.0
 11
20.89099999997916
 21
8.763099999991255
 31
0.0
1001
ACAD
1000
ASC_BOUNDS
1002
{
1070
    19
1005
1FC8A
1002
}
  0
LINE
  5
1FC6B
330
1FC46
100
AcDbEntity
  8
0
100
AcDbLine
 10
18.59799999998143
 20
3.315799999996671
 30
0.0
 11
16.46099999998353
 21
8.999899999990987
 31
0.0
1001
ACAD
1000
ASC_BOUNDS
1002
{
1070
    19
1005
1FC8A
1002
}
  0
LINE
  5
1FC6C
330
1FC46
100
AcDbEntity
  8
0
100
AcDbLine
 10
20.89099999997916
 20
8.763099999991255
 30
0.0
 11
22.38199999997767
 21
8.763099999991255
 31
0.0
1001
ACAD
1000
ASC_BOUNDS
1002
{
1070
    19
1005
1FC8A
1002
}
  0
LINE
  5
1FC6D
330
1FC46
100
AcDbEntity
  8
0
100
AcDbLine
 10
24.39299999997559
 20
3.670999999996297
 30
0.0
 11
23.56599999997638
 21
5.5200999999945
 31
0.0
1001
ACAD
1000
ASC_BOUNDS
1002
{
1070
    19
1005
1FC8B
1002
}
  0
LINE
  5
1FC6E
330
1FC46
100
AcDbEntity
  8
0
100
AcDbLine
 10
44.99999999995498
 20
-0.2368999999997641
 30
0.0
 11
40.02599999995994
 21
5.341799999994635
 31
0.0
1001
ACAD
1000
ASC_BOUNDS
1002
{
1070
    19
1005
1FC8D
1002
}
  0
LINE
  5
1FC6F
330
1FC46
100
AcDbEntity
  8
0
100
AcDbLine
 10
40.02599999995994
 20
5.341799999994635
 30
0.0
 11
40.02599999995994
 21
0.0
 31
0.0
1001
ACAD
1000
ASC_BOUNDS
1002
{
1070
    19
1005
1FC8D
1002
}
  0
LINE
  5
1FC70
330
1FC46
100
AcDbEntity
  8
0
100
AcDbLine
 10
38.60499999996136
 20
8.999999999991019
 30
0.0
 11
38.60499999996136
 21
0.0
 31
0.0
1001
ACAD
1000
ASC_BOUNDS
1002
{
1070
    19
1005
1FC8D
1002
}
  0
LINE
  5
1FC71
330
1FC46
100
AcDbEntity
  8
0
100
AcDbLine
 10
44.99999999995498
 20
8.763099999991255
 30
0.0
 11
44.99999999995498
 21
-0.2368999999997641
 31
0.0
1001
ACAD
1000
ASC_BOUNDS
1002
{
1070
    19
1005
1FC8D
1002
}
  0
LINE
  5
1FC72
330
1FC46
100
AcDbEntity
  8
0
100
AcDbLine
 10
38.60499999996136
 20
0.0
 30
0.0
 11
40.02599999995994
 21
0.0
 31
0.0
1001
ACAD
1000
ASC_BOUNDS
1002
{
1070
    19
1005
1FC8D
1002
}
  0
LINE
  5
1FC73
330
1FC46
100
AcDbEntity
  8
0
100
AcDbLine
 10
43.57899999995641
 20
3.421199999996588
 30
0.0
 11
38.60499999996136
 21
8.999899999990987
 31
0.0
1001
ACAD
1000
ASC_BOUNDS
1002
{
1070
    19
1005
1FC8D
1002
}
  0
LINE
  5
1FC74
330
1FC46
100
AcDbEntity
  8
0
100
AcDbLine
 10
43.57899999995641
 20
8.763099999991255
 30
0.0
 11
43.57899999995641
 21
3.421199999996588
 31
0.0
1001
ACAD
1000
ASC_BOUNDS
1002
{
1070
    19
1005
1FC8D
1002
}
  0
LINE
  5
1FC75
330
1FC46
100
AcDbEntity
  8
0
100
AcDbLine
 10
43.57899999995641
 20
8.763099999991255
 30
0.0
 11
44.99999999995498
 21
8.763099999991255
 31
0.0
1001
ACAD
1000
ASC_BOUNDS
1002
{
1070
    19
1005
1FC8D
1002
}
  0
LINE
  5
1FC76
330
1FC46
100
AcDbEntity
  8
0
100
AcDbLine
 10
37.67199999996831
 20
8.763099999991255
 30
0.0
 11
36.23199999996837
 21
8.763099999991255
 31
0.0
  0
LINE
  5
1FC77
330
1FC46
100
AcDbEntity
  8
0
100
AcDbLine
 10
31.64199999996833
 20
8.763099999991255
 30
0.0
 11
31.64199999996833
 21
2.481619422925121
 31
0.0
  0
LINE
  5
1FC78
330
1FC46
100
AcDbEntity
  8
0
100
AcDbLine
 10
37.67199999996831
 20
8.763099999991255
 30
0.0
 11
37.67199999996831
 21
2.481619422925121
 31
0.0
  0
LINE
  5
1FC79
330
1FC46
100
AcDbEntity
  8
0
100
AcDbLine
 10
36.23199999996837
 20
8.763099999991255
 30
0.0
 11
36.23199999996837
 21
2.481619422925064
 31
0.0
  0
LINE
  5
1FC7A
330
1FC46
100
AcDbEntity
  8
0
100
AcDbLine
 10
33.08199999996839
 20
8.763099999991255
 30
0.0
 11
33.08199999996839
 21
2.481619422925121
 31
0.0
  0
ARC
  5
1FC7B
330
1FC46
100
AcDbEntity
  8
0
100
AcDbCircle
 10
34.65699999996832
 20
3.183099999991214
 30
0.0
 40
3.420000000000007
100
AcDbArc
 50
240.0000000000255
 51
299.9999999999766
  0
ARC
  5
1FC7C
330
1FC46
100
AcDbEntity
  8
0
100
AcDbCircle
 10
34.65699999996832
 20
3.183099999991214
 30
0.0
 40
1.97999999999999
100
AcDbArc
 50
240.000000000026
 51
299.9999999999703
  0
LINE
  5
1FC7D
330
1FC46
100
AcDbEntity
  8
0
100
AcDbLine
 10
33.08199999996828
 20
8.763099999991255
 30
0.0
 11
31.64199999996833
 21
8.763099999991255
 31
0.0
  0
ARC
  5
1FC7E
330
1FC46
100
AcDbEntity
  8
0
100
AcDbCircle
 10
35.06199999996829
 20
2.481619422925064
 30
0.0
 40
1.17
100
AcDbArc
 50
299.9999999999699
 51
0.0
  0
ARC
  5
1FC7F
330
1FC46
100
AcDbEntity
  8
0
100
AcDbCircle
 10
34.25199999996835
 20
2.481619422925121
 30
0.0
 40
1.17
100
AcDbArc
 50
180.0
 51
240.0000000000238
  0
ARC
  5
1FC80
330
1FC46
100
AcDbEntity
  8
0
100
AcDbCircle
 10
35.06199999996841
 20
2.481619422925121
 30
0.0
 40
2.61
100
AcDbArc
 50
299.9999999999756
 51
0.0
  0
ARC
  5
1FC81
330
1FC46
100
AcDbEntity
  8
0
100
AcDbCircle
 10
34.25199999996835
 20
2.481619422925121
 30
0.0
 40
2.61
100
AcDbArc
 50
180.0
 51
240.0000000000244
  0
LINE
  5
1FC82
330
1FC46
100
AcDbEntity
  8
0
100
AcDbLine
 10
29.30199999996933
 20
8.763099999991255
 30
0.0
 11
30.74199999996927
 21
8.763099999991255
 31
0.0
1001
ACAD
1000
ASC_BOUNDS
1002
{
1070
    19
1005
1FC8B
1002
}
  0
LINE
  5
1FC83
330
1FC46
100
AcDbEntity
  8
0
100
AcDbLine
 10
30.74199999996927
 20
8.763099999991255
 30
0.0
 11
30.74199999996927
 21
2.373099999991211
 31
0.0
1001
ACAD
1000
ASC_BOUNDS
1002
{
1070
    19
1005
1FC8B
1002
}
  0
LINE
  5
1FC84
330
1FC46
100
AcDbEntity
  8
0
100
AcDbLine
 10
26.02015566812236
 20
0.0330999999912365
 30
0.0
 11
28.40199999996923
 21
0.0330999999912365
 31
0.0
1001
ACAD
1000
ASC_BOUNDS
1002
{
1070
    19
1005
1FC8B
1002
}
  0
LINE
  5
1FC85
330
1FC46
100
AcDbEntity
  8
0
100
AcDbLine
 10
29.30199999996933
 20
8.763099999991255
 30
0.0
 11
29.30199999996933
 21
2.283099999991236
 31
0.0
1001
ACAD
1000
ASC_BOUNDS
1002
{
1070
    19
1005
1FC8B
1002
}
  0
LINE
  5
1FC86
330
1FC46
100
AcDbEntity
  8
0
100
AcDbLine
 10
26.97358892824991
 20
1.383099999991202
 30
0.0
 11
28.40199999996923
 21
1.383099999991202
 31
0.0
1001
ACAD
1000
ASC_BOUNDS
1002
{
1070
    19
1005
1FC8B
1002
}
  0
ARC
  5
1FC87
330
1FC46
100
AcDbEntity
  8
0
100
AcDbCircle
 10
28.40199999996923
 20
2.283099999991236
 30
0.0
 40
0.9
100
AcDbArc
 50
270.0
 51
0.0
1001
ACAD
1000
ASC_BOUNDS
1002
{
1070
    19
1005
1FC8B
1002
}
  0
ARC
  5
1FC88
330
1FC46
100
AcDbEntity
  8
0
100
AcDbCircle
 10
28.40199999996923
 20
2.373099999991211
 30
0.0
 40
2.34
100
AcDbArc
 50
270.0
 51
0.0
1001
ACAD
1000
ASC_BOUNDS
1002
{
1070
    19
1005
1FC8B
1002
}
  0
INSERT
  5
1FC89
330
1FC46
100
AcDbEntity
  8
0
100
AcDbBlockReference
  2
*X138
 10
0.0
 20
0.0
 30
0.0
1001
ACAD
1000
HATCH
1002
{
1070
    19
1000
ANSI37
1040
0.15
1040
0.0
1000
ASC_BOUNDS
1070
     2
1070
     2
1070
    12
1005
1FC48
1005
1FC49
1005
1FC50
1005
1FC5F
1005
1FC62
1005
1FC60
1005
1FC51
1005
1FC56
1005
1FC54
1005
1FC58
1005
1FC57
1005
1FC59
1070
     2
1070
     3
1005
1FC64
1005
1FC66
1005
1FC65
1000
ASC_SEEDPOINT
1011
3.614004224891801
1021
2.996669441146025
1031
0.0
1000
R14_HATCH_DATA
1000
1FC89
1011
1.0
1021
0.0
1031
0.0
1011
0.0
1021
1.0
1031
0.0
1011
0.0
1021
0.0
1031
1.0
1040
0.0
1010
0.0
1020
0.0
1030
1.0
1000
ANSI37
1070
     0
1070
     1
1071
        2
1071
        7
1070
     0
1070
     1
1071
       17
1040
13.26299999998673
1040
-0.0001000000000317
1040
9.236999999990758
1040
8.999899999990987
1040
9.236999999990758
1040
8.999999999991019
1040
5.657999999994331
1040
0.9999999999989768
1040
3.181999999996833
1040
4.668599999995308
1040
6.432999999993513
1040
8.763099999991255
1040
4.617999999995391
1040
8.763099999991255
1040
1.420999999998571
1040
4.736799999995242
1040
4.617999999995391
1040
-0.0001000000000317
1040
4.617999999995391
1040
0.0
1040
6.766999999993232
1040
0.0
1040
6.766999999993232
1040
-0.0001000000000317
1040
7.826999999992154
1040
2.368399999997621
1040
10.64699999998936
1040
2.368399999997621
1040
11.70599999998831
1040
-0.0001000000000317
1040
11.70599999998831
1040
0.0
1040
13.26299999998673
1040
0.0
1071
       12
1005
1FC48
1005
1FC49
1005
1FC50
1005
1FC5F
1005
1FC62
1005
1FC60
1005
1FC51
1005
1FC56
1005
1FC54
1005
1FC58
1005
1FC57
1005
1FC59
1071
       22
1070
     0
1070
     1
1071
        3
1040
9.236999999990758
1040
5.5200999999945
1040
10.06399999998996
1040
3.670999999996297
1040
8.409999999991555
1040
3.670999999996297
1071
        3
1005
1FC64
1005
1FC66
1005
1FC65
1070
     0
1070
     1
1040
0.0
1040
0.15
1070
     0
1070
     2
1040
0.7853981633974483
1040
49.29960901727088
1040
-10.17736998311392
1040
-0.3367596045400932
1040
0.3367596045400932
1070
     0
1040
2.356194490192345
1040
49.29960901727088
1040
-10.17736998311392
1040
-0.3367596045400932
1040
-0.3367596045400932
1070
     0
1040
0.0110235143455945
1071
        2
1040
3.614004224891801
1040
2.996669441146025
1040
0.0
1040
3.614004224891801
1040
2.996669441146025
1040
0.0
1002
}
  0
INSERT
  5
1FC8A
330
1FC46
100
AcDbEntity
  8
0
100
AcDbBlockReference
  2
*X139
 10
0.0
 20
0.0
 30
0.0
1001
ACAD
1000
HATCH
1002
{
1070
    19
1000
ANSI37
1040
0.15
1040
0.0
1000
ASC_BOUNDS
1070
     1
1070
     2
1070
    10
1005
1FC4A
1005
1FC4B
1005
1FC6C
1005
1FC6A
1005
1FC6B
1005
1FC5E
1005
1FC63
1005
1FC67
1005
1FC4D
1005
1FC4C
1000
ASC_SEEDPOINT
1011
14.73245321214324
1021
2.798246178283421
1031
0.0
1000
R14_HATCH_DATA
1000
1FC8A
1011
1.0
1021
0.0
1031
0.0
1011
0.0
1021
1.0
1031
0.0
1011
0.0
1021
0.0
1031
1.0
1040
0.0
1010
0.0
1020
0.0
1030
1.0
1000
ANSI37
1070
     0
1070
     1
1071
        1
1071
        7
1070
     0
1070
     1
1071
       10
1040
16.46099999998353
1040
5.432899999994561
1040
18.59199999998134
1040
-0.2368999999997641
1040
22.38199999997767
1040
8.763099999991255
1040
20.89099999997916
1040
8.763099999991255
1040
18.59799999998143
1040
3.315799999996671
1040
16.46099999998353
1040
8.999899999990987
1040
14.32399999998563
1040
3.315799999996671
1040
12.02999999998792
1040
8.763099999991255
1040
10.53899999998941
1040
8.763099999991255
1040
14.32899999998563
1040
-0.2368999999997641
1071
       10
1005
1FC4A
1005
1FC4B
1005
1FC6C
1005
1FC6A
1005
1FC6B
1005
1FC5E
1005
1FC63
1005
1FC67
1005
1FC4D
1005
1FC4C
1070
     0
1070
     1
1040
0.0
1040
0.15
1070
     0
1070
     2
1040
0.7853981633974483
1040
49.29960901727088
1040
-10.17736998311392
1040
-0.3367596045400932
1040
0.3367596045400932
1070
     0
1040
2.356194490192345
1040
49.29960901727088
1040
-10.17736998311392
1040
-0.3367596045400932
1040
-0.3367596045400932
1070
     0
1040
0.0110235143455945
1071
        1
1040
14.73245321214324
1040
2.798246178283421
1040
0.0
1002
}
  0
INSERT
  5
1FC8B
330
1FC46
100
AcDbEntity
  8
0
100
AcDbBlockReference
  2
*X140
 10
0.0
 20
0.0
 30
0.0
1001
ACAD
1000
HATCH
1002
{
1070
    19
1000
ANSI37
1040
0.15
1040
0.0
1000
ASC_BOUNDS
1070
     2
1070
     2
1070
    13
1005
1FC4E
1005
1FC5B
1005
1FC5C
1005
1FC5A
1005
1FC5D
1005
1FC84
1005
1FC88
1005
1FC83
1005
1FC82
1005
1FC85
1005
1FC87
1005
1FC86
1005
1FC4F
1070
     2
1070
     3
1005
1FC68
1005
1FC6D
1005
1FC69
1000
ASC_SEEDPOINT
1011
21.97929957367762
1021
3.294304244259308
1031
0.0
1000
R14_HATCH_DATA
1000
1FC8B
1011
1.0
1021
0.0
1031
0.0
1011
0.0
1021
1.0
1031
0.0
1011
0.0
1021
0.0
1031
1.0
1040
0.0
1010
0.0
1020
0.0
1030
1.0
1000
ANSI37
1070
     0
1070
     1
1071
        2
1071
        7
1070
     1
1070
     1
1071
       15
1040
23.56599999997638
1040
8.999899999990987
1040
0.0
1040
19.53899999998043
1040
-0.0001000000000317
1040
0.0
1040
19.53899999998043
1040
0.0
1040
0.0
1040
21.09599999997886
1040
0.0
1040
0.0
1040
21.09599999997886
1040
-0.0001000000000317
1040
0.0
1040
22.15599999997789
1040
2.368399999997621
1040
0.0
1040
24.97599999997499
1040
2.368399999997621
1040
0.0
1040
26.02015566812236
1040
0.0330999999912365
1040
0.0
1040
28.40199999996923
1040
0.0330999999912365
1040
0.414213562373095
1040
30.74199999996923
1040
2.373099999991211
1040
0.0
1040
30.74199999996927
1040
8.763099999991255
1040
0.0
1040
29.30199999996933
1040
8.763099999991255
1040
0.0
1040
29.30199999996933
1040
2.283099999991236
1040
-0.414213562373095
1040
28.40199999996923
1040
1.383099999991237
1040
0.0
1040
26.97358892824991
1040
1.383099999991202
1040
0.0
1071
       13
1005
1FC4E
1005
1FC5B
1005
1FC5C
1005
1FC5A
1005
1FC5D
1005
1FC84
1005
1FC88
1005
1FC83
1005
1FC82
1005
1FC85
1005
1FC87
1005
1FC86
1005
1FC4F
1071
       22
1070
     0
1070
     1
1071
        3
1040
22.7389999999773
1040
3.670999999996297
1040
23.56599999997638
1040
5.5200999999945
1040
24.39299999997559
1040
3.670999999996297
1071
        3
1005
1FC68
1005
1FC6D
1005
1FC69
1070
     0
1070
     1
1040
0.0
1040
0.15
1070
     0
1070
     2
1040
0.7853981633974483
1040
49.29960901727088
1040
-10.17736998311392
1040
-0.3367596045400932
1040
0.3367596045400932
1070
     0
1040
2.356194490192345
1040
49.29960901727088
1040
-10.17736998311392
1040
-0.3367596045400932
1040
-0.3367596045400932
1070
     0
1040
0.0110235143455945
1071
        2
1040
21.97929957367762
1040
3.294304244259308
1040
0.0
1040
21.97929957367762
1040
3.294304244259308
1040
0.0
1002
}
  0
INSERT
  5
1FC8C
330
1FC46
100
AcDbEntity
  8
0
100
AcDbBlockReference
  2
*X141
 10
0.0
 20
0.0
 30
0.0
1001
ACAD
1000
HATCH
1002
{
1070
    19
1000
ANSI37
1040
0.15
1040
0.0
1000
R14_HATCH_DATA
1000
1FC8C
1011
1.0
1021
0.0
1031
0.0
1011
0.0
1021
1.0
1031
0.0
1011
0.0
1021
0.0
1031
1.0
1040
0.0
1010
0.0
1020
0.0
1030
1.0
1000
ANSI37
1070
     0
1070
     1
1071
        1
1071
        7
1070
     1
1070
     1
1071
       12
1040
31.64199999996833
1040
2.481619422925121
1040
0.2679491924310942
1040
32.94699999997067
1040
0.2212931190493919
1040
0.2679491924301353
1040
36.36699999995983
1040
0.2212931190459813
1040
0.2679491924321411
1040
37.67199999996831
1040
2.481619422928361
1040
0.0
1040
37.67199999996831
1040
8.763099999991255
1040
0.0
1040
36.23199999996837
1040
8.763099999991255
1040
0.0
1040
36.23199999996837
1040
2.481619422925064
1040
-0.2679491924310291
1040
35.64699999996708
1040
1.468369700498386
1040
-0.267949192430519
1040
33.66699999997093
1040
1.468369700497703
1040
-0.267949192431809
1040
33.08199999996839
1040
2.481619422926997
1040
0.0
1040
33.08199999996839
1040
8.763099999991255
1040
0.0
1040
31.64199999996833
1040
8.763099999991255
1040
0.0
1071
        0
1070
     0
1070
     1
1040
0.0
1040
0.15
1070
     0
1070
     2
1040
0.7853981633974483
1040
49.29960901727088
1040
-10.17736998311392
1040
-0.3367596045400932
1040
0.3367596045400932
1070
     0
1040
2.356194490192345
1040
49.29960901727088
1040
-10.17736998311392
1040
-0.3367596045400932
1040
-0.3367596045400932
1070
     0
1040
0.0110235143455945
1071
        1
1040
32.30357378967278
1040
3.988785755459219
1040
0.0
1002
}
  0
INSERT
  5
1FC8D
330
1FC46
100
AcDbEntity
  8
0
100
AcDbBlockReference
  2
*X142
 10
0.0
 20
0.0
 30
0.0
1001
ACAD
1000
HATCH
1002
{
1070
    19
1000
ANSI37
1040
0.15
1040
0.0
1000
ASC_BOUNDS
1070
     1
1070
     2
1070
     8
1005
1FC6E
1005
1FC71
1005
1FC75
1005
1FC74
1005
1FC73
1005
1FC70
1005
1FC72
1005
1FC6F
1000
ASC_SEEDPOINT
1011
39.74896370716704
1021
4.484843821435049
1031
0.0
1000
R14_HATCH_DATA
1000
1FC8D
1011
1.0
1021
0.0
1031
0.0
1011
0.0
1021
1.0
1031
0.0
1011
0.0
1021
0.0
1031
1.0
1040
0.0
1010
0.0
1020
0.0
1030
1.0
1000
ANSI37
1070
     0
1070
     1
1071
        1
1071
        7
1070
     0
1070
     1
1071
        9
1040
40.02599999995994
1040
5.341799999994635
1040
44.99999999995498
1040
-0.2368999999997641
1040
44.99999999995498
1040
8.763099999991255
1040
43.57899999995641
1040
8.763099999991255
1040
43.57899999995641
1040
3.421199999996588
1040
38.60499999996136
1040
8.999899999990987
1040
38.60499999996136
1040
8.999999999991019
1040
38.60499999996136
1040
0.0
1040
40.02599999995994
1040
0.0
1071
        8
1005
1FC6E
1005
1FC71
1005
1FC75
1005
1FC74
1005
1FC73
1005
1FC70
1005
1FC72
1005
1FC6F
1070
     0
1070
     1
1040
0.0
1040
0.15
1070
     0
1070
     2
1040
0.7853981633974483
1040
49.29960901727088
1040
-10.17736998311392
1040
-0.3367596045400932
1040
0.3367596045400932
1070
     0
1040
2.356194490192345
1040
49.29960901727088
1040
-10.17736998311392
1040
-0.3367596045400932
1040
-0.3367596045400932
1070
     0
1040
0.0110235143455945
1071
        1
1040
39.74896370716704
1040
4.484843821435049
1040
0.0
1002
}
  0
INSERT
  5
1FC8E
330
1FC46
100
AcDbEntity
  8
0
100
AcDbBlockReference
  2
*X143
 10
0.0
 20
0.0
 30
0.0
1001
ACAD
1000
HATCH
1002
{
1070
    19
1000
ANSI37
1040
0.15
1040
0.0
1000
ASC_BOUNDS
1070
     1
1070
     2
1070
     4
1005
1FC52
1005
1FC61
1005
1FC53
1005
1FC55
1000
ASC_SEEDPOINT
1011
1.079051535452663
1021
4.148538732891836
1031
0.0
1000
R14_HATCH_DATA
1000
1FC8E
1011
1.0
1021
0.0
1031
0.0
1011
0.0
1021
1.0
1031
0.0
1011
0.0
1021
0.0
1031
1.0
1040
0.0
1010
0.0
1020
0.0
1030
1.0
1000
ANSI37
1070
     0
1070
     1
1071
        1
1071
        7
1070
     0
1070
     1
1071
        4
1040
1.420999999998571
1040
0.0
1040
1.420999999998571
1040
8.763099999991255
1040
0.0
1040
8.763099999991255
1040
0.0
1040
0.0
1071
        4
1005
1FC52
1005
1FC61
1005
1FC53
1005
1FC55
1070
     0
1070
     1
1040
0.0
1040
0.15
1070
     0
1070
     2
1040
0.7853981633974483
1040
49.29960901727088
1040
-10.17736998311392
1040
-0.3367596045400932
1040
0.3367596045400932
1070
     0
1040
2.356194490192345
1040
49.29960901727088
1040
-10.17736998311392
1040
-0.3367596045400932
1040
-0.3367596045400932
1070
     0
1040
0.0053004257112761
1071
        1
1040
1.079051535452663
1040
4.148538732891836
1040
0.0
1002
}
  0
ENDBLK
  5
20346
330
1FC46
100
AcDbEntity
  8
0
100
AcDbBlockEnd
  0
BLOCK
  5
20588
330
20460
100
AcDbEntity
  8
0
100
AcDbBlockBegin
  2
NOCIRCLE
 70
     2
 10
0.0
 20
0.0
 30
0.0
  3
NOCIRCLE
  1

  0
CIRCLE
  5
20464
330
20460
100
AcDbEntity
  8
0
  6
BYBLOCK
 62
     0
100
AcDbCircle
 10
0.0
 20
0.0
 30
0.0
 40
4.2
  0
ATTDEF
  5
20465
330
20460
100
AcDbEntity
  8
1TEXT
100
AcDbText
 10
-1.904761904761876
 20
-2.0
 30
0.0
 40
4.0
  1
0
 72
     4
 11
0.0
 21
0.0
 31
0.0
100
AcDbAttributeDefinition
  3
NO.
  2
NO
 70
     0
  0
ENDBLK
  5
20589
330
20460
100
AcDbEntity
  8
0
100
AcDbBlockEnd
  0
BLOCK
  5
22D83
330
22BF5
100
AcDbEntity
  8
0
100
AcDbBlockBegin
  2
*X138
 70
     1
 10
0.0
 20
0.0
 30
0.0
  3
*X138
  1

  0
LINE
  5
22BF6
330
22BF5
100
AcDbEntity
  8
0
  6
CONTINUOUS
100
AcDbLine
 10
3.418023043697893
 20
7.251849696850613
 30
0.0
 11
4.929273346838536
 21
8.763099999991255
 31
0.0
  0
LINE
  5
22BF7
330
22BF5
100
AcDbEntity
  8
0
  6
CONTINUOUS
100
AcDbLine
 10
1.483656411257782
 20
4.643963855330318
 30
0.0
 11
5.60279255591872
 21
8.763099999991255
 31
0.0
  0
LINE
  5
22BF8
330
22BF5
100
AcDbEntity
  8
0
  6
CONTINUOUS
100
AcDbLine
 10
1.755053947328235
 20
4.241842182320584
 30
0.0
 11
6.276311764998907
 21
8.763099999991255
 31
0.0
  0
LINE
  5
22BF9
330
22BF5
100
AcDbEntity
  8
0
  6
CONTINUOUS
100
AcDbLine
 10
2.026451483398688
 20
3.839720509310849
 30
0.0
 11
4.441040904851878
 21
6.254309930764039
 31
0.0
  0
LINE
  5
22BFA
330
22BF5
100
AcDbEntity
  8
0
  6
CONTINUOUS
100
AcDbLine
 10
2.297849019469139
 20
3.437598836301114
 30
0.0
 11
3.321765168359338
 21
4.461514985191313
 31
0.0
  0
LINE
  5
22BFB
330
22BF5
100
AcDbEntity
  8
0
  6
CONTINUOUS
100
AcDbLine
 10
2.569246555539591
 20
3.03547716329138
 30
0.0
 11
3.593163397972743
 21
4.059394005724531
 31
0.0
  0
LINE
  5
22BFC
330
22BF5
100
AcDbEntity
  8
0
  6
CONTINUOUS
100
AcDbLine
 10
2.840644091610043
 20
2.633355490281646
 30
0.0
 11
3.864561627586149
 21
3.657273026257751
 31
0.0
  0
LINE
  5
22BFD
330
22BF5
100
AcDbEntity
  8
0
  6
CONTINUOUS
100
AcDbLine
 10
3.112041627680496
 20
2.231233817271911
 30
0.0
 11
4.135959857199554
 21
3.25515204679097
 31
0.0
  0
LINE
  5
22BFE
330
22BF5
100
AcDbEntity
  8
0
  6
CONTINUOUS
100
AcDbLine
 10
3.383439163750948
 20
1.829112144262177
 30
0.0
 11
4.40735808681296
 21
2.853031067324189
 31
0.0
  0
LINE
  5
22BFF
330
22BF5
100
AcDbEntity
  8
0
  6
CONTINUOUS
100
AcDbLine
 10
3.654836699821399
 20
1.426990471252442
 30
0.0
 11
4.678756316426365
 21
2.450910087857407
 31
0.0
  0
LINE
  5
22C00
330
22BF5
100
AcDbEntity
  8
0
  6
CONTINUOUS
100
AcDbLine
 10
3.926234235891853
 20
1.024868798242709
 30
0.0
 11
4.95015454603977
 21
2.048789108390626
 31
0.0
  0
LINE
  5
22C01
330
22BF5
100
AcDbEntity
  8
0
  6
CONTINUOUS
100
AcDbLine
 10
4.197631771962304
 20
0.6227471252329737
 30
0.0
 11
5.221552775653176
 21
1.646668128923846
 31
0.0
  0
LINE
  5
22C02
330
22BF5
100
AcDbEntity
  8
0
  6
CONTINUOUS
100
AcDbLine
 10
8.715877546767851
 20
7.835069736359266
 30
0.0
 11
9.435953450375058
 21
8.555145639966472
 31
0.0
  0
LINE
  5
22C03
330
22BF5
100
AcDbEntity
  8
0
  6
CONTINUOUS
100
AcDbLine
 10
8.170620868422267
 20
6.616293848933497
 30
0.0
 11
9.644120833743461
 21
8.08979381425469
 31
0.0
  0
LINE
  5
22C04
330
22BF5
100
AcDbEntity
  8
0
  6
CONTINUOUS
100
AcDbLine
 10
7.625364190076684
 20
5.397517961507727
 30
0.0
 11
9.852288217111864
 21
7.624441988542907
 31
0.0
  0
LINE
  5
22C05
330
22BF5
100
AcDbEntity
  8
0
  6
CONTINUOUS
100
AcDbLine
 10
7.080107511731101
 20
4.178742074081957
 30
0.0
 11
10.06045560048027
 21
7.159090162831124
 31
0.0
  0
LINE
  5
22C06
330
22BF5
100
AcDbEntity
  8
0
  6
CONTINUOUS
100
AcDbLine
 10
6.534850833385518
 20
2.959966186656187
 30
0.0
 11
10.26862298384867
 21
6.693738337119342
 31
0.0
  0
LINE
  5
22C07
330
22BF5
100
AcDbEntity
  8
0
  6
CONTINUOUS
100
AcDbLine
 10
4.469029308032756
 20
0.2206254522232385
 30
0.0
 11
5.492951005266582
 21
1.244547149457064
 31
0.0
  0
LINE
  5
22C08
330
22BF5
100
AcDbEntity
  8
0
  6
CONTINUOUS
100
AcDbLine
 10
5.989594155039935
 20
1.741190299230417
 30
0.0
 11
8.806950407233131
 21
4.558546551423613
 31
0.0
  0
LINE
  5
22C09
330
22BF5
100
AcDbEntity
  8
0
  6
CONTINUOUS
100
AcDbLine
 10
9.401251593263643
 20
5.152847737454126
 30
0.0
 11
10.47679036721708
 21
6.228386511407559
 31
0.0
  0
LINE
  5
22C0A
330
22BF5
100
AcDbEntity
  8
0
  6
CONTINUOUS
100
AcDbLine
 10
4.921837203428691
 20
-0.0000858614610131
 30
0.0
 11
8.592923064886001
 21
3.670999999996297
 31
0.0
  0
LINE
  5
22C0B
330
22BF5
100
AcDbEntity
  8
0
  6
CONTINUOUS
100
AcDbLine
 10
9.609390446785305
 20
4.6874673818956
 30
0.0
 11
10.68495775058548
 21
5.763034685695775
 31
0.0
  0
LINE
  5
22C0C
330
22BF5
100
AcDbEntity
  8
0
  6
CONTINUOUS
100
AcDbLine
 10
5.595387755019432
 20
-0.0000545189504582
 30
0.0
 11
7.716137258923768
 21
2.120694984953879
 31
0.0
  0
LINE
  5
22C0D
330
22BF5
100
AcDbEntity
  8
0
  6
CONTINUOUS
100
AcDbLine
 10
6.268938306610172
 20
-0.000023176439905
 30
0.0
 11
7.170485805526503
 21
0.9015243224764267
 31
0.0
  0
LINE
  5
22C0E
330
22BF5
100
AcDbEntity
  8
0
  6
CONTINUOUS
100
AcDbLine
 10
7.963842273967511
 20
2.368399999997621
 30
0.0
 11
9.266442273966188
 21
3.670999999996297
 31
0.0
  0
LINE
  5
22C0F
330
22BF5
100
AcDbEntity
  8
0
  6
CONTINUOUS
100
AcDbLine
 10
8.637361483047696
 20
2.368399999997621
 30
0.0
 11
9.939961483046375
 21
3.670999999996297
 31
0.0
  0
LINE
  5
22C10
330
22BF5
100
AcDbEntity
  8
0
  6
CONTINUOUS
100
AcDbLine
 10
9.817529300306965
 20
4.222087026337075
 30
0.0
 11
10.89312513395388
 21
5.297682859983993
 31
0.0
  0
LINE
  5
22C11
330
22BF5
100
AcDbEntity
  8
0
  6
CONTINUOUS
100
AcDbLine
 10
10.02566815382863
 20
3.756706670778549
 30
0.0
 11
11.10129251732229
 21
4.832331034272211
 31
0.0
  0
LINE
  5
22C12
330
22BF5
100
AcDbEntity
  8
0
  6
CONTINUOUS
100
AcDbLine
 10
9.310880692127883
 20
2.368399999997621
 30
0.0
 11
11.30945990069069
 21
4.366979208560428
 31
0.0
  0
LINE
  5
22C13
330
22BF5
100
AcDbEntity
  8
0
  6
CONTINUOUS
100
AcDbLine
 10
9.98439990120807
 20
2.36839999999762
 30
0.0
 11
11.5176272840591
 21
3.901627382848645
 31
0.0
  0
LINE
  5
22C14
330
22BF5
100
AcDbEntity
  8
0
  6
CONTINUOUS
100
AcDbLine
 10
10.65037369446246
 20
2.36085458417182
 30
0.0
 11
11.7257946674275
 21
3.436275557136862
 31
0.0
  0
LINE
  5
22C15
330
22BF5
100
AcDbEntity
  8
0
  6
CONTINUOUS
100
AcDbLine
 10
10.85847197087848
 20
1.895433651507656
 30
0.0
 11
11.9339620507959
 21
2.97092373142508
 31
0.0
  0
LINE
  5
22C16
330
22BF5
100
AcDbEntity
  8
0
  6
CONTINUOUS
100
AcDbLine
 10
11.0665702472945
 20
1.430012718843491
 30
0.0
 11
12.14212943416431
 21
2.505571905713296
 31
0.0
  0
LINE
  5
22C17
330
22BF5
100
AcDbEntity
  8
0
  6
CONTINUOUS
100
AcDbLine
 10
11.27466852371052
 20
0.9645917861793256
 30
0.0
 11
12.35029681753271
 21
2.040220080001513
 31
0.0
  0
LINE
  5
22C18
330
22BF5
100
AcDbEntity
  8
0
  6
CONTINUOUS
100
AcDbLine
 10
11.48276680012654
 20
0.4991708535151611
 30
0.0
 11
12.55846420090111
 21
1.57486825428973
 31
0.0
  0
LINE
  5
22C19
330
22BF5
100
AcDbEntity
  8
0
  6
CONTINUOUS
100
AcDbLine
 10
11.69086507654257
 20
0.0337499208509957
 30
0.0
 11
12.76663158426952
 21
1.109516428577947
 31
0.0
  0
LINE
  5
22C1A
330
22BF5
100
AcDbEntity
  8
0
  6
CONTINUOUS
100
AcDbLine
 10
12.33057447873954
 20
-0.0000598860322123
 30
0.0
 11
12.97479896763792
 21
0.6441646028661663
 31
0.0
  0
LINE
  5
22C1B
330
22BF5
100
AcDbEntity
  8
0
  6
CONTINUOUS
100
AcDbLine
 10
13.00413694809395
 20
-0.0000166257579952
 30
0.0
 11
13.18296635100632
 21
0.1788127771543824
 31
0.0
  0
LINE
  5
22C1C
330
22BF5
100
AcDbEntity
  8
0
  6
CONTINUOUS
100
AcDbLine
 10
4.772852165289667
 20
-0.000092794222212
 30
0.0
 11
4.296495091028902
 21
0.4762642800385528
 31
0.0
  0
LINE
  5
22C1D
330
22BF5
100
AcDbEntity
  8
0
  6
CONTINUOUS
100
AcDbLine
 10
5.446340034776103
 20
-0.0000614546284616
 30
0.0
 11
2.898195908335625
 21
2.548082671812017
 31
0.0
  0
LINE
  5
22C1E
330
22BF5
100
AcDbEntity
  8
0
  6
CONTINUOUS
100
AcDbLine
 10
6.119827904262539
 20
-0.0000301150347113
 30
0.0
 11
1.499896725642348
 21
4.61990106358548
 31
0.0
  0
LINE
  5
22C1F
330
22BF5
100
AcDbEntity
  8
0
  6
CONTINUOUS
100
AcDbLine
 10
6.775136745476159
 20
0.0181802528318542
 30
0.0
 11
5.699826040202669
 21
1.093490958105344
 31
0.0
  0
LINE
  5
22C20
330
22BF5
100
AcDbEntity
  8
0
  6
CONTINUOUS
100
AcDbLine
 10
6.983376846288489
 20
0.4834593610997118
 30
0.0
 11
5.908008617934405
 21
1.558827589453796
 31
0.0
  0
LINE
  5
22C21
330
22BF5
100
AcDbEntity
  8
0
  6
CONTINUOUS
100
AcDbLine
 10
5.377063484962296
 20
1.416253513345719
 30
0.0
 11
1.702276957014131
 21
5.091040041293883
 31
0.0
  0
LINE
  5
22C22
330
22BF5
100
AcDbEntity
  8
0
  6
CONTINUOUS
100
AcDbLine
 10
3.978745891735324
 20
3.488090315652877
 30
0.0
 11
2.000373521109399
 21
5.466462686278803
 31
0.0
  0
LINE
  5
22C23
330
22BF5
100
AcDbEntity
  8
0
  6
CONTINUOUS
100
AcDbLine
 10
7.191616947100819
 20
0.948738469367568
 30
0.0
 11
6.11619119566614
 21
2.024164220802247
 31
0.0
  0
LINE
  5
22C24
330
22BF5
100
AcDbEntity
  8
0
  6
CONTINUOUS
100
AcDbLine
 10
7.399857047913149
 20
1.414017577635424
 30
0.0
 11
6.324373773397875
 21
2.489500852150698
 31
0.0
  0
LINE
  5
22C25
330
22BF5
100
AcDbEntity
  8
0
  6
CONTINUOUS
100
AcDbLine
 10
7.608097148725479
 20
1.879296685903281
 30
0.0
 11
6.53255635112961
 21
2.95483748349915
 31
0.0
  0
LINE
  5
22C26
330
22BF5
100
AcDbEntity
  8
0
  6
CONTINUOUS
100
AcDbLine
 10
7.816337249537808
 20
2.344575794171138
 30
0.0
 11
6.740738928861345
 21
3.420174114847601
 31
0.0
  0
LINE
  5
22C27
330
22BF5
100
AcDbEntity
  8
0
  6
CONTINUOUS
100
AcDbLine
 10
3.310241080789734
 20
4.830114335678653
 30
0.0
 11
2.298470085204666
 21
5.84188533126372
 31
0.0
  0
LINE
  5
22C28
330
22BF5
100
AcDbEntity
  8
0
  6
CONTINUOUS
100
AcDbLine
 10
3.60832983563551
 20
5.205544789913063
 30
0.0
 11
2.596566649299935
 21
6.217307976248638
 31
0.0
  0
LINE
  5
22C29
330
22BF5
100
AcDbEntity
  8
0
  6
CONTINUOUS
100
AcDbLine
 10
3.906418590481286
 20
5.580975244147473
 30
0.0
 11
2.894663213395203
 21
6.592730621233557
 31
0.0
  0
LINE
  5
22C2A
330
22BF5
100
AcDbEntity
  8
0
  6
CONTINUOUS
100
AcDbLine
 10
4.204507345327062
 20
5.956405698381884
 30
0.0
 11
3.192759777490472
 21
6.968153266218474
 31
0.0
  0
LINE
  5
22C2B
330
22BF5
100
AcDbEntity
  8
0
  6
CONTINUOUS
100
AcDbLine
 10
8.466032252791512
 20
2.368399999997621
 30
0.0
 11
6.948921506593081
 21
3.885510746196053
 31
0.0
  0
LINE
  5
22C2C
330
22BF5
100
AcDbEntity
  8
0
  6
CONTINUOUS
100
AcDbLine
 10
9.139551461871699
 20
2.36839999999762
 30
0.0
 11
7.157104084324816
 21
4.350847377544504
 31
0.0
  0
LINE
  5
22C2D
330
22BF5
100
AcDbEntity
  8
0
  6
CONTINUOUS
100
AcDbLine
 10
4.502596100172839
 20
6.331836152616295
 30
0.0
 11
3.49085634158574
 21
7.343575911203393
 31
0.0
  0
LINE
  5
22C2E
330
22BF5
100
AcDbEntity
  8
0
  6
CONTINUOUS
100
AcDbLine
 10
4.800684855018615
 20
6.707266606850705
 30
0.0
 11
3.788952905681008
 21
7.718998556188312
 31
0.0
  0
LINE
  5
22C2F
330
22BF5
100
AcDbEntity
  8
0
  6
CONTINUOUS
100
AcDbLine
 10
12.18154012887317
 20
-0.0000694579236642
 30
0.0
 11
11.32140332908496
 21
0.8600673418645499
 31
0.0
  0
LINE
  5
22C30
330
22BF5
100
AcDbEntity
  8
0
  6
CONTINUOUS
100
AcDbLine
 10
12.85501608323566
 20
-0.0000262032059659
 30
0.0
 11
10.77672456435345
 21
2.078265315676246
 31
0.0
  0
LINE
  5
22C31
330
22BF5
100
AcDbEntity
  8
0
  6
CONTINUOUS
100
AcDbLine
 10
9.813070670951886
 20
2.36839999999762
 30
0.0
 11
8.51047067095321
 21
3.670999999996297
 31
0.0
  0
LINE
  5
22C32
330
22BF5
100
AcDbEntity
  8
0
  6
CONTINUOUS
100
AcDbLine
 10
10.48658988003207
 20
2.36839999999762
 30
0.0
 11
9.183989880033396
 21
3.670999999996297
 31
0.0
  0
LINE
  5
22C33
330
22BF5
100
AcDbEntity
  8
0
  6
CONTINUOUS
100
AcDbLine
 10
8.441048632286794
 20
3.740422038662712
 30
0.0
 11
7.365286662056551
 21
4.816184008892956
 31
0.0
  0
LINE
  5
22C34
330
22BF5
100
AcDbEntity
  8
0
  6
CONTINUOUS
100
AcDbLine
 10
8.649187485808454
 20
4.205802394221237
 30
0.0
 11
7.573469239788285
 21
5.281520640241407
 31
0.0
  0
LINE
  5
22C35
330
22BF5
100
AcDbEntity
  8
0
  6
CONTINUOUS
100
AcDbLine
 10
5.098773609864391
 20
7.082697061085115
 30
0.0
 11
4.087049469776277
 21
8.09442120117323
 31
0.0
  0
LINE
  5
22C36
330
22BF5
100
AcDbEntity
  8
0
  6
CONTINUOUS
100
AcDbLine
 10
5.396862364710167
 20
7.458127515319526
 30
0.0
 11
4.385146033871544
 21
8.469843846158149
 31
0.0
  0
LINE
  5
22C37
330
22BF5
100
AcDbEntity
  8
0
  6
CONTINUOUS
100
AcDbLine
 10
13.04801363231285
 20
0.4804954567970334
 30
0.0
 11
9.85750908911358
 21
3.670999999996297
 31
0.0
  0
LINE
  5
22C38
330
22BF5
100
AcDbEntity
  8
0
  6
CONTINUOUS
100
AcDbLine
 10
8.857326339330116
 20
4.671182749779763
 30
0.0
 11
7.781651817520021
 21
5.746857271589858
 31
0.0
  0
LINE
  5
22C39
330
22BF5
100
AcDbEntity
  8
0
  6
CONTINUOUS
100
AcDbLine
 10
5.694951119555943
 20
7.833557969553937
 30
0.0
 11
4.765409089118624
 21
8.763099999991255
 31
0.0
  0
LINE
  5
22C3A
330
22BF5
100
AcDbEntity
  8
0
  6
CONTINUOUS
100
AcDbLine
 10
12.50286117236978
 20
1.699167125820288
 30
0.0
 11
9.68611877250287
 21
4.515909525687196
 31
0.0
  0
LINE
  5
22C3B
330
22BF5
100
AcDbEntity
  8
0
  6
CONTINUOUS
100
AcDbLine
 10
9.065465192851777
 20
5.136563105338288
 30
0.0
 11
7.989834395251757
 21
6.21219390293831
 31
0.0
  0
LINE
  5
22C3C
330
22BF5
100
AcDbEntity
  8
0
  6
CONTINUOUS
100
AcDbLine
 10
5.993039874401719
 20
8.208988423788346
 30
0.0
 11
5.43892829819881
 21
8.763099999991255
 31
0.0
  0
LINE
  5
22C3D
330
22BF5
100
AcDbEntity
  8
0
  6
CONTINUOUS
100
AcDbLine
 10
11.95770871242671
 20
2.917838794843543
 30
0.0
 11
8.19801697298349
 21
6.677530534286761
 31
0.0
  0
LINE
  5
22C3E
330
22BF5
100
AcDbEntity
  8
0
  6
CONTINUOUS
100
AcDbLine
 10
6.291128629247495
 20
8.584418878022756
 30
0.0
 11
6.112447507278997
 21
8.763099999991255
 31
0.0
  0
LINE
  5
22C3F
330
22BF5
100
AcDbEntity
  8
0
  6
CONTINUOUS
100
AcDbLine
 10
11.41255625248364
 20
4.136510463866797
 30
0.0
 11
8.406199550715227
 21
7.142867165635211
 31
0.0
  0
LINE
  5
22C40
330
22BF5
100
AcDbEntity
  8
0
  6
CONTINUOUS
100
AcDbLine
 10
10.86740379254057
 20
5.355182132890051
 30
0.0
 11
8.614382128446962
 21
7.608203796983664
 31
0.0
  0
LINE
  5
22C41
330
22BF5
100
AcDbEntity
  8
0
  6
CONTINUOUS
100
AcDbLine
 10
10.3222513325975
 20
6.573853801913305
 30
0.0
 11
8.822564706178696
 21
8.073540428332114
 31
0.0
  0
LINE
  5
22C42
330
22BF5
100
AcDbEntity
  8
0
  6
CONTINUOUS
100
AcDbLine
 10
9.777098872654436
 20
7.792525470936562
 30
0.0
 11
9.030747283910433
 21
8.538877059680566
 31
0.0
  0
ENDBLK
  5
22D84
330
22BF5
100
AcDbEntity
  8
0
100
AcDbBlockEnd
  0
BLOCK
  5
22D85
330
22C43
100
AcDbEntity
  8
0
100
AcDbBlockBegin
  2
*X139
 70
     1
 10
0.0
 20
0.0
 30
0.0
  3
*X139
  1

  0
LINE
  5
22C44
330
22C43
100
AcDbEntity
  8
0
  6
CONTINUOUS
100
AcDbLine
 10
10.67292308101235
 20
8.445076852443387
 30
0.0
 11
10.99094622856022
 21
8.763099999991255
 31
0.0
  0
LINE
  5
22C45
330
22C43
100
AcDbEntity
  8
0
  6
CONTINUOUS
100
AcDbLine
 10
10.87250383178748
 20
7.971138394138331
 30
0.0
 11
11.6644654376404
 21
8.763099999991255
 31
0.0
  0
LINE
  5
22C46
330
22C43
100
AcDbEntity
  8
0
  6
CONTINUOUS
100
AcDbLine
 10
11.07208458256261
 20
7.497199935833273
 30
0.0
 11
12.12126590876355
 21
8.546381262034211
 31
0.0
  0
LINE
  5
22C47
330
22C43
100
AcDbEntity
  8
0
  6
CONTINUOUS
100
AcDbLine
 10
11.27166533333774
 20
7.023261477528216
 30
0.0
 11
12.32085164573666
 21
8.072447789927136
 31
0.0
  0
LINE
  5
22C48
330
22C43
100
AcDbEntity
  8
0
  6
CONTINUOUS
100
AcDbLine
 10
11.47124608411287
 20
6.549323019223158
 30
0.0
 11
12.52043738270977
 21
7.59851431782006
 31
0.0
  0
LINE
  5
22C49
330
22C43
100
AcDbEntity
  8
0
  6
CONTINUOUS
100
AcDbLine
 10
11.670826834888
 20
6.075384560918101
 30
0.0
 11
12.72002311968288
 21
7.124580845712984
 31
0.0
  0
LINE
  5
22C4A
330
22C43
100
AcDbEntity
  8
0
  6
CONTINUOUS
100
AcDbLine
 10
11.87040758566313
 20
5.601446102613043
 30
0.0
 11
12.91960885665599
 21
6.650647373605907
 31
0.0
  0
LINE
  5
22C4B
330
22C43
100
AcDbEntity
  8
0
  6
CONTINUOUS
100
AcDbLine
 10
12.06998833643825
 20
5.127507644307986
 30
0.0
 11
13.1191945936291
 21
6.176713901498832
 31
0.0
  0
LINE
  5
22C4C
330
22C43
100
AcDbEntity
  8
0
  6
CONTINUOUS
100
AcDbLine
 10
12.26956908721338
 20
4.65356918600293
 30
0.0
 11
13.31878033060221
 21
5.702780429391757
 31
0.0
  0
LINE
  5
22C4D
330
22C43
100
AcDbEntity
  8
0
  6
CONTINUOUS
100
AcDbLine
 10
12.46914983798851
 20
4.179630727697873
 30
0.0
 11
13.51836606757532
 21
5.228846957284683
 31
0.0
  0
LINE
  5
22C4E
330
22C43
100
AcDbEntity
  8
0
  6
CONTINUOUS
100
AcDbLine
 10
12.66873058876364
 20
3.705692269392816
 30
0.0
 11
13.71795180454843
 21
4.754913485177607
 31
0.0
  0
LINE
  5
22C4F
330
22C43
100
AcDbEntity
  8
0
  6
CONTINUOUS
100
AcDbLine
 10
12.86831133953877
 20
3.231753811087759
 30
0.0
 11
13.91753754152154
 21
4.280980013070531
 31
0.0
  0
LINE
  5
22C50
330
22C43
100
AcDbEntity
  8
0
  6
CONTINUOUS
100
AcDbLine
 10
13.0678920903139
 20
2.757815352782702
 30
0.0
 11
14.11712327849465
 21
3.807046540963456
 31
0.0
  0
LINE
  5
22C51
330
22C43
100
AcDbEntity
  8
0
  6
CONTINUOUS
100
AcDbLine
 10
13.26747284108903
 20
2.283876894477644
 30
0.0
 11
14.31670901546777
 21
3.333113068856379
 31
0.0
  0
LINE
  5
22C52
330
22C43
100
AcDbEntity
  8
0
  6
CONTINUOUS
100
AcDbLine
 10
16.36767838827179
 20
8.751678487061342
 30
0.0
 11
16.50332410898388
 21
8.887324207773432
 31
0.0
  0
LINE
  5
22C53
330
22C43
100
AcDbEntity
  8
0
  6
CONTINUOUS
100
AcDbLine
 10
15.96190732182191
 20
7.67238821153127
 30
0.0
 11
16.68735328004734
 21
8.397834169756699
 31
0.0
  0
LINE
  5
22C54
330
22C43
100
AcDbEntity
  8
0
  6
CONTINUOUS
100
AcDbLine
 10
15.55613625537202
 20
6.593097936001196
 30
0.0
 11
16.87138245111079
 21
7.908344131739965
 31
0.0
  0
LINE
  5
22C55
330
22C43
100
AcDbEntity
  8
0
  6
CONTINUOUS
100
AcDbLine
 10
15.15036518892213
 20
5.513807660471122
 30
0.0
 11
17.05541162217424
 21
7.418854093723231
 31
0.0
  0
LINE
  5
22C56
330
22C43
100
AcDbEntity
  8
0
  6
CONTINUOUS
100
AcDbLine
 10
14.74459412247225
 20
4.434517384941048
 30
0.0
 11
17.2394407932377
 21
6.929364055706499
 31
0.0
  0
LINE
  5
22C57
330
22C43
100
AcDbEntity
  8
0
  6
CONTINUOUS
100
AcDbLine
 10
14.33882305602236
 20
3.355227109410975
 30
0.0
 11
17.42346996430115
 21
6.439874017689766
 31
0.0
  0
LINE
  5
22C58
330
22C43
100
AcDbEntity
  8
0
  6
CONTINUOUS
100
AcDbLine
 10
13.46705359186416
 20
1.809938436172586
 30
0.0
 11
16.0819338255367
 21
4.424818669845129
 31
0.0
  0
LINE
  5
22C59
330
22C43
100
AcDbEntity
  8
0
  6
CONTINUOUS
100
AcDbLine
 10
16.63283254238972
 20
4.975717386698149
 30
0.0
 11
17.60749913536461
 21
5.950383979673033
 31
0.0
  0
LINE
  5
22C5A
330
22C43
100
AcDbEntity
  8
0
  6
CONTINUOUS
100
AcDbLine
 10
13.66663434263929
 20
1.335999977867529
 30
0.0
 11
15.67604797733754
 21
3.345413612565779
 31
0.0
  0
LINE
  5
22C5B
330
22C43
100
AcDbEntity
  8
0
  6
CONTINUOUS
100
AcDbLine
 10
13.86621509341442
 20
0.8620615195624723
 30
0.0
 11
15.27016212913838
 21
2.26600855528643
 31
0.0
  0
LINE
  5
22C5C
330
22C43
100
AcDbEntity
  8
0
  6
CONTINUOUS
100
AcDbLine
 10
16.81682257348267
 20
4.486188208710908
 30
0.0
 11
17.79152830642806
 21
5.460893941656299
 31
0.0
  0
LINE
  5
22C5D
330
22C43
100
AcDbEntity
  8
0
  6
CONTINUOUS
100
AcDbLine
 10
17.00081260457561
 20
3.996659030723667
 30
0.0
 11
17.97555747749151
 21
4.971403903639565
 31
0.0
  0
LINE
  5
22C5E
330
22C43
100
AcDbEntity
  8
0
  6
CONTINUOUS
100
AcDbLine
 10
20.74362343514722
 20
8.412989070375462
 30
0.0
 11
21.09373436476302
 21
8.763099999991256
 31
0.0
  0
LINE
  5
22C5F
330
22C43
100
AcDbEntity
  8
0
  6
CONTINUOUS
100
AcDbLine
 10
20.25401257174777
 20
7.249858997895826
 30
0.0
 11
21.7672535738432
 21
8.763099999991255
 31
0.0
  0
LINE
  5
22C60
330
22C43
100
AcDbEntity
  8
0
  6
CONTINUOUS
100
AcDbLine
 10
14.06579584418955
 20
0.3881230612574149
 30
0.0
 11
14.86427628093921
 21
1.186603498007082
 31
0.0
  0
LINE
  5
22C61
330
22C43
100
AcDbEntity
  8
0
  6
CONTINUOUS
100
AcDbLine
 10
14.26537659496467
 20
-0.0858153970476412
 30
0.0
 11
14.45839043274005
 21
0.1071984407277329
 31
0.0
  0
LINE
  5
22C62
330
22C43
100
AcDbEntity
  8
0
  6
CONTINUOUS
100
AcDbLine
 10
17.18480263566856
 20
3.507129852736426
 30
0.0
 11
18.15958664855496
 21
4.481913865622833
 31
0.0
  0
LINE
  5
22C63
330
22C43
100
AcDbEntity
  8
0
  6
CONTINUOUS
100
AcDbLine
 10
17.3687926667615
 20
3.017600674749186
 30
0.0
 11
18.34361581961842
 21
3.9924238276061
 31
0.0
  0
LINE
  5
22C64
330
22C43
100
AcDbEntity
  8
0
  6
CONTINUOUS
100
AcDbLine
 10
19.76440170834832
 20
6.086728925416191
 30
0.0
 11
22.33924590259489
 21
8.661573119662755
 31
0.0
  0
LINE
  5
22C65
330
22C43
100
AcDbEntity
  8
0
  6
CONTINUOUS
100
AcDbLine
 10
19.27479084494887
 20
4.923598852936555
 30
0.0
 11
21.84929622842713
 21
7.498104236414807
 31
0.0
  0
LINE
  5
22C66
330
22C43
100
AcDbEntity
  8
0
  6
CONTINUOUS
100
AcDbLine
 10
17.55278269785445
 20
2.528071496761945
 30
0.0
 11
18.52764499068187
 21
3.502933789589366
 31
0.0
  0
LINE
  5
22C67
330
22C43
100
AcDbEntity
  8
0
  6
CONTINUOUS
100
AcDbLine
 10
18.78517998154942
 20
3.760468780456919
 30
0.0
 11
21.35934655425936
 21
6.33463535316686
 31
0.0
  0
LINE
  5
22C68
330
22C43
100
AcDbEntity
  8
0
  6
CONTINUOUS
100
AcDbLine
 10
17.73677272894739
 20
2.038542318774704
 30
0.0
 11
20.8693968800916
 21
5.171166469918914
 31
0.0
  0
LINE
  5
22C69
330
22C43
100
AcDbEntity
  8
0
  6
CONTINUOUS
100
AcDbLine
 10
17.92076276004034
 20
1.549013140787464
 30
0.0
 11
20.37944720592384
 21
4.007697586670968
 31
0.0
  0
LINE
  5
22C6A
330
22C43
100
AcDbEntity
  8
0
  6
CONTINUOUS
100
AcDbLine
 10
18.10475279113329
 20
1.059483962800223
 30
0.0
 11
19.88949753175608
 21
2.84422870342302
 31
0.0
  0
LINE
  5
22C6B
330
22C43
100
AcDbEntity
  8
0
  6
CONTINUOUS
100
AcDbLine
 10
18.28874282222623
 20
0.5699547848129822
 30
0.0
 11
19.39954785758832
 21
1.680759820175074
 31
0.0
  0
LINE
  5
22C6C
330
22C43
100
AcDbEntity
  8
0
  6
CONTINUOUS
100
AcDbLine
 10
18.47273285331918
 20
0.0804256068257416
 30
0.0
 11
18.90959818342056
 21
0.517290936927127
 31
0.0
  0
LINE
  5
22C6D
330
22C43
100
AcDbEntity
  8
0
  6
CONTINUOUS
100
AcDbLine
 10
14.3590401358224
 20
-0.1570118376323384
 30
0.0
 11
14.24903296539946
 21
-0.0470046672093929
 31
0.0
  0
LINE
  5
22C6E
330
22C43
100
AcDbEntity
  8
0
  6
CONTINUOUS
100
AcDbLine
 10
14.54309291258661
 20
0.332454594683643
 30
0.0
 11
13.75908329123172
 21
1.116464216038529
 31
0.0
  0
LINE
  5
22C6F
330
22C43
100
AcDbEntity
  8
0
  6
CONTINUOUS
100
AcDbLine
 10
14.72714568935081
 20
0.8219210269996244
 30
0.0
 11
13.26913361706399
 21
2.27993309928645
 31
0.0
  0
LINE
  5
22C70
330
22C43
100
AcDbEntity
  8
0
  6
CONTINUOUS
100
AcDbLine
 10
14.91119846611502
 20
1.311387459315606
 30
0.0
 11
12.77918394289625
 21
3.443401982534371
 31
0.0
  0
LINE
  5
22C71
330
22C43
100
AcDbEntity
  8
0
  6
CONTINUOUS
100
AcDbLine
 10
15.09525124287922
 20
1.800853891631587
 30
0.0
 11
12.28923426872852
 21
4.606870865782293
 31
0.0
  0
LINE
  5
22C72
330
22C43
100
AcDbEntity
  8
0
  6
CONTINUOUS
100
AcDbLine
 10
15.27930401964343
 20
2.290320323947569
 30
0.0
 11
11.79928459456078
 21
5.770339749030213
 31
0.0
  0
LINE
  5
22C73
330
22C43
100
AcDbEntity
  8
0
  6
CONTINUOUS
100
AcDbLine
 10
15.46335679640763
 20
2.77978675626355
 30
0.0
 11
14.48885470994921
 21
3.754288842721972
 31
0.0
  0
LINE
  5
22C74
330
22C43
100
AcDbEntity
  8
0
  6
CONTINUOUS
100
AcDbLine
 10
13.88507249233704
 20
4.358071060334137
 30
0.0
 11
11.30933492039305
 21
6.933808632278135
 31
0.0
  0
LINE
  5
22C75
330
22C43
100
AcDbEntity
  8
0
  6
CONTINUOUS
100
AcDbLine
 10
18.75840522805855
 20
0.1582575336928151
 30
0.0
 11
18.25383727664818
 21
0.6628254851031863
 31
0.0
  0
LINE
  5
22C76
330
22C43
100
AcDbEntity
  8
0
  6
CONTINUOUS
100
AcDbLine
 10
15.64740957317184
 20
3.269253188579531
 30
0.0
 11
14.67288388101266
 21
4.243778880738705
 31
0.0
  0
LINE
  5
22C77
330
22C43
100
AcDbEntity
  8
0
  6
CONTINUOUS
100
AcDbLine
 10
13.39509276772158
 20
5.521569994029786
 30
0.0
 11
10.81938524622531
 21
8.097277515526056
 31
0.0
  0
LINE
  5
22C78
330
22C43
100
AcDbEntity
  8
0
  6
CONTINUOUS
100
AcDbLine
 10
18.95798597883369
 20
0.6321959919978686
 30
0.0
 11
17.84825644852853
 21
1.741925522303024
 31
0.0
  0
LINE
  5
22C79
330
22C43
100
AcDbEntity
  8
0
  6
CONTINUOUS
100
AcDbLine
 10
19.15756672960882
 20
1.106134450302922
 30
0.0
 11
17.44267562040888
 21
2.821025559502861
 31
0.0
  0
LINE
  5
22C7A
330
22C43
100
AcDbEntity
  8
0
  6
CONTINUOUS
100
AcDbLine
 10
15.83146234993604
 20
3.758719620895513
 30
0.0
 11
14.85691305207612
 21
4.733268918755439
 31
0.0
  0
LINE
  5
22C7B
330
22C43
100
AcDbEntity
  8
0
  6
CONTINUOUS
100
AcDbLine
 10
16.01551512670025
 20
4.248186053211494
 30
0.0
 11
15.04094222313957
 21
5.222758956772172
 31
0.0
  0
LINE
  5
22C7C
330
22C43
100
AcDbEntity
  8
0
  6
CONTINUOUS
100
AcDbLine
 10
12.90511304310612
 20
6.685068927725435
 30
0.0
 11
10.8270819708403
 21
8.763099999991255
 31
0.0
  0
LINE
  5
22C7D
330
22C43
100
AcDbEntity
  8
0
  6
CONTINUOUS
100
AcDbLine
 10
12.41513331849066
 20
7.848567861421083
 30
0.0
 11
11.50060117992049
 21
8.763099999991255
 31
0.0
  0
LINE
  5
22C7E
330
22C43
100
AcDbEntity
  8
0
  6
CONTINUOUS
100
AcDbLine
 10
19.35714748038395
 20
1.580072908607975
 30
0.0
 11
17.03709479228923
 21
3.900125596702697
 31
0.0
  0
LINE
  5
22C7F
330
22C43
100
AcDbEntity
  8
0
  6
CONTINUOUS
100
AcDbLine
 10
19.55672823115909
 20
2.054011366913028
 30
0.0
 11
16.63151396416958
 21
4.979225633902534
 31
0.0
  0
LINE
  5
22C80
330
22C43
100
AcDbEntity
  8
0
  6
CONTINUOUS
100
AcDbLine
 10
16.19956790346445
 20
4.737652485527476
 30
0.0
 11
15.22497139420302
 21
5.712248994788904
 31
0.0
  0
LINE
  5
22C81
330
22C43
100
AcDbEntity
  8
0
  6
CONTINUOUS
100
AcDbLine
 10
16.38362068022866
 20
5.227118917843457
 30
0.0
 11
15.40900056526648
 21
6.201739032805637
 31
0.0
  0
LINE
  5
22C82
330
22C43
100
AcDbEntity
  8
0
  6
CONTINUOUS
100
AcDbLine
 10
19.75630898193422
 20
2.527949825218081
 30
0.0
 11
18.70774536448286
 21
3.576513442669441
 31
0.0
  0
LINE
  5
22C83
330
22C43
100
AcDbEntity
  8
0
  6
CONTINUOUS
100
AcDbLine
 10
19.95588973270936
 20
3.001888283523134
 30
0.0
 11
18.90726987211446
 21
4.050508144118028
 31
0.0
  0
LINE
  5
22C84
330
22C43
100
AcDbEntity
  8
0
  6
CONTINUOUS
100
AcDbLine
 10
20.15547048348449
 20
3.475826741828186
 30
0.0
 11
19.10679437974606
 21
4.524502845566614
 31
0.0
  0
LINE
  5
22C85
330
22C43
100
AcDbEntity
  8
0
  6
CONTINUOUS
100
AcDbLine
 10
20.35505123425962
 20
3.94976520013324
 30
0.0
 11
19.30631888737766
 21
4.998497547015201
 31
0.0
  0
LINE
  5
22C86
330
22C43
100
AcDbEntity
  8
0
  6
CONTINUOUS
100
AcDbLine
 10
20.55463198503475
 20
4.423703658438292
 30
0.0
 11
19.50584339500926
 21
5.472492248463787
 31
0.0
  0
LINE
  5
22C87
330
22C43
100
AcDbEntity
  8
0
  6
CONTINUOUS
100
AcDbLine
 10
18.37481191085755
 20
3.909446896294752
 30
0.0
 11
15.59302973632993
 21
6.691229070822371
 31
0.0
  0
LINE
  5
22C88
330
22C43
100
AcDbEntity
  8
0
  6
CONTINUOUS
100
AcDbLine
 10
17.96904084440766
 20
4.988737171824825
 30
0.0
 11
15.77705890739338
 21
7.180719108839104
 31
0.0
  0
LINE
  5
22C89
330
22C43
100
AcDbEntity
  8
0
  6
CONTINUOUS
100
AcDbLine
 10
17.56326977795777
 20
6.068027447354899
 30
0.0
 11
15.96108807845684
 21
7.670209146855838
 31
0.0
  0
LINE
  5
22C8A
330
22C43
100
AcDbEntity
  8
0
  6
CONTINUOUS
100
AcDbLine
 10
17.15749871150789
 20
7.147317722884972
 30
0.0
 11
16.14511724952029
 21
8.15969918487257
 31
0.0
  0
LINE
  5
22C8B
330
22C43
100
AcDbEntity
  8
0
  6
CONTINUOUS
100
AcDbLine
 10
16.751727645058
 20
8.226607998415046
 30
0.0
 11
16.32914642058374
 21
8.649189222889303
 31
0.0
  0
LINE
  5
22C8C
330
22C43
100
AcDbEntity
  8
0
  6
CONTINUOUS
100
AcDbLine
 10
20.75421273580989
 20
4.897642116743345
 30
0.0
 11
19.70536790264086
 21
5.946486949912374
 31
0.0
  0
LINE
  5
22C8D
330
22C43
100
AcDbEntity
  8
0
  6
CONTINUOUS
100
AcDbLine
 10
20.95379348658502
 20
5.371580575048398
 30
0.0
 11
19.90489241027246
 21
6.42048165136096
 31
0.0
  0
LINE
  5
22C8E
330
22C43
100
AcDbEntity
  8
0
  6
CONTINUOUS
100
AcDbLine
 10
21.15337423736015
 20
5.845519033353452
 30
0.0
 11
20.10441691790406
 21
6.894476352809547
 31
0.0
  0
LINE
  5
22C8F
330
22C43
100
AcDbEntity
  8
0
  6
CONTINUOUS
100
AcDbLine
 10
21.35295498813529
 20
6.319457491658505
 30
0.0
 11
20.30394142553566
 21
7.368471054258134
 31
0.0
  0
LINE
  5
22C90
330
22C43
100
AcDbEntity
  8
0
  6
CONTINUOUS
100
AcDbLine
 10
21.55253573891042
 20
6.793395949963558
 30
0.0
 11
20.50346593316726
 21
7.842465755706721
 31
0.0
  0
LINE
  5
22C91
330
22C43
100
AcDbEntity
  8
0
  6
CONTINUOUS
100
AcDbLine
 10
21.75211648968556
 20
7.267334408268612
 30
0.0
 11
20.70299044079886
 21
8.316460457155308
 31
0.0
  0
LINE
  5
22C92
330
22C43
100
AcDbEntity
  8
0
  6
CONTINUOUS
100
AcDbLine
 10
21.95169724046069
 20
7.741272866573663
 30
0.0
 11
20.9298701070431
 21
8.763099999991256
 31
0.0
  0
LINE
  5
22C93
330
22C43
100
AcDbEntity
  8
0
  6
CONTINUOUS
100
AcDbLine
 10
22.15127799123582
 20
8.215211324878716
 30
0.0
 11
21.60338931612328
 21
8.763099999991256
 31
0.0
  0
LINE
  5
22C94
330
22C43
100
AcDbEntity
  8
0
  6
CONTINUOUS
100
AcDbLine
 10
22.35085874201096
 20
8.689149783183769
 30
0.0
 11
22.27690852520347
 21
8.763099999991255
 31
0.0
  0
ENDBLK
  5
22D86
330
22C43
100
AcDbEntity
  8
0
100
AcDbBlockEnd
  0
BLOCK
  5
22D87
330
22C95
100
AcDbEntity
  8
0
100
AcDbBlockBegin
  2
*X140
 70
     1
 10
0.0
 20
0.0
 30
0.0
  3
*X140
  1

  0
LINE
  5
22C96
330
22C95
100
AcDbEntity
  8
0
  6
CONTINUOUS
100
AcDbLine
 10
23.19462913593892
 20
8.169917934846424
 30
0.0
 11
23.70775465517246
 21
8.683043454079957
 31
0.0
  0
LINE
  5
22C97
330
22C95
100
AcDbEntity
  8
0
  6
CONTINUOUS
100
AcDbLine
 10
22.64923161835078
 20
6.951001208178088
 30
0.0
 11
23.9159364069932
 21
8.217705996820516
 31
0.0
  0
LINE
  5
22C98
330
22C95
100
AcDbEntity
  8
0
  6
CONTINUOUS
100
AcDbLine
 10
22.10383410076263
 20
5.732084481509751
 30
0.0
 11
24.12411815881395
 21
7.752368539561078
 31
0.0
  0
LINE
  5
22C99
330
22C95
100
AcDbEntity
  8
0
  6
CONTINUOUS
100
AcDbLine
 10
21.55843658317447
 20
4.513167754841414
 30
0.0
 11
24.3322999106347
 21
7.287031082301639
 31
0.0
  0
LINE
  5
22C9A
330
22C95
100
AcDbEntity
  8
0
  6
CONTINUOUS
100
AcDbLine
 10
21.01303906558632
 20
3.294251028173077
 30
0.0
 11
24.54048166245544
 21
6.821693625042199
 31
0.0
  0
LINE
  5
22C9B
330
22C95
100
AcDbEntity
  8
0
  6
CONTINUOUS
100
AcDbLine
 10
20.46764154799817
 20
2.075334301504738
 30
0.0
 11
23.28571549467848
 21
4.89340824818505
 31
0.0
  0
LINE
  5
22C9C
330
22C95
100
AcDbEntity
  8
0
  6
CONTINUOUS
100
AcDbLine
 10
19.92224403041002
 20
0.8564175748364002
 30
0.0
 11
22.74075865492779
 21
3.674932199354171
 31
0.0
  0
LINE
  5
22C9D
330
22C95
100
AcDbEntity
  8
0
  6
CONTINUOUS
100
AcDbLine
 10
23.67305085490148
 20
5.280743608408048
 30
0.0
 11
24.74866341427619
 21
6.356356167782759
 31
0.0
  0
LINE
  5
22C9E
330
22C95
100
AcDbEntity
  8
0
  6
CONTINUOUS
100
AcDbLine
 10
23.88118970842314
 20
4.815363252849522
 30
0.0
 11
24.95684516609694
 21
5.89101871052332
 31
0.0
  0
LINE
  5
22C9F
330
22C95
100
AcDbEntity
  8
0
  6
CONTINUOUS
100
AcDbLine
 10
19.73925852647308
 20
-0.0000871381807288
 30
0.0
 11
23.4103456646501
 21
3.670999999996297
 31
0.0
  0
LINE
  5
22CA0
330
22C95
100
AcDbEntity
  8
0
  6
CONTINUOUS
100
AcDbLine
 10
24.0893285619448
 20
4.349982897290997
 30
0.0
 11
25.16502691791769
 21
5.42568125326388
 31
0.0
  0
LINE
  5
22CA1
330
22C95
100
AcDbEntity
  8
0
  6
CONTINUOUS
100
AcDbLine
 10
20.41282099582748
 20
-0.0000438779065108
 30
0.0
 11
21.64944178675636
 21
1.236576913022366
 31
0.0
  0
LINE
  5
22CA2
330
22C95
100
AcDbEntity
  8
0
  6
CONTINUOUS
100
AcDbLine
 10
22.78126487373161
 20
2.36839999999762
 30
0.0
 11
24.08386487373029
 21
3.670999999996297
 31
0.0
  0
LINE
  5
22CA3
330
22C95
100
AcDbEntity
  8
0
  6
CONTINUOUS
100
AcDbLine
 10
24.29746741546646
 20
3.884602541732471
 30
0.0
 11
25.37320866973843
 21
4.960343796004441
 31
0.0
  0
LINE
  5
22CA4
330
22C95
100
AcDbEntity
  8
0
  6
CONTINUOUS
100
AcDbLine
 10
21.08638346518189
 20
-0.0000006176322938
 30
0.0
 11
21.10379033335899
 21
0.0174062505448083
 31
0.0
  0
LINE
  5
22CA5
330
22C95
100
AcDbEntity
  8
0
  6
CONTINUOUS
100
AcDbLine
 10
23.4547840828118
 20
2.36839999999762
 30
0.0
 11
25.58139042155918
 21
4.495006338745002
 31
0.0
  0
LINE
  5
22CA6
330
22C95
100
AcDbEntity
  8
0
  6
CONTINUOUS
100
AcDbLine
 10
29.30199999996933
 20
8.215615917155148
 30
0.0
 11
29.84948408280543
 21
8.763099999991255
 31
0.0
  0
LINE
  5
22CA7
330
22C95
100
AcDbEntity
  8
0
  6
CONTINUOUS
100
AcDbLine
 10
24.12830329189199
 20
2.36839999999762
 30
0.0
 11
25.78957217337993
 21
4.029668881485562
 31
0.0
  0
LINE
  5
22CA8
330
22C95
100
AcDbEntity
  8
0
  6
CONTINUOUS
100
AcDbLine
 10
29.30199999996933
 20
7.54209670807496
 30
0.0
 11
30.52300329188562
 21
8.763099999991255
 31
0.0
  0
LINE
  5
22CA9
330
22C95
100
AcDbEntity
  8
0
  6
CONTINUOUS
100
AcDbLine
 10
24.80182250097217
 20
2.36839999999762
 30
0.0
 11
25.99775392520067
 21
3.564331424226122
 31
0.0
  0
LINE
  5
22CAA
330
22C95
100
AcDbEntity
  8
0
  6
CONTINUOUS
100
AcDbLine
 10
29.30199999996933
 20
6.868577498994774
 30
0.0
 11
30.74199999996926
 21
8.308577498994712
 31
0.0
  0
LINE
  5
22CAB
330
22C95
100
AcDbEntity
  8
0
  6
CONTINUOUS
100
AcDbLine
 10
25.13028238392013
 20
2.023340673865392
 30
0.0
 11
26.20593567702142
 21
3.098993966966683
 31
0.0
  0
LINE
  5
22CAC
330
22C95
100
AcDbEntity
  8
0
  6
CONTINUOUS
100
AcDbLine
 10
25.33838066033617
 20
1.557919741201244
 30
0.0
 11
26.41411742884217
 21
2.633656509707244
 31
0.0
  0
LINE
  5
22CAD
330
22C95
100
AcDbEntity
  8
0
  6
CONTINUOUS
100
AcDbLine
 10
25.54647893675221
 20
1.092498808537098
 30
0.0
 11
26.62229918066291
 21
2.168319052447804
 31
0.0
  0
LINE
  5
22CAE
330
22C95
100
AcDbEntity
  8
0
  6
CONTINUOUS
100
AcDbLine
 10
25.75457721316825
 20
0.62707787587295
 30
0.0
 11
26.83048093248366
 21
1.702981595188365
 31
0.0
  0
LINE
  5
22CAF
330
22C95
100
AcDbEntity
  8
0
  6
CONTINUOUS
100
AcDbLine
 10
29.30199999996933
 20
6.195058289914587
 30
0.0
 11
30.74199999996926
 21
7.635058289914522
 31
0.0
  0
LINE
  5
22CB0
330
22C95
100
AcDbEntity
  8
0
  6
CONTINUOUS
100
AcDbLine
 10
29.30199999996933
 20
5.521539080834401
 30
0.0
 11
30.74199999996926
 21
6.961539080834331
 31
0.0
  0
LINE
  5
22CB1
330
22C95
100
AcDbEntity
  8
0
  6
CONTINUOUS
100
AcDbLine
 10
29.30199999996933
 20
4.848019871754214
 30
0.0
 11
30.74199999996925
 21
6.288019871754143
 31
0.0
  0
LINE
  5
22CB2
330
22C95
100
AcDbEntity
  8
0
  6
CONTINUOUS
100
AcDbLine
 10
29.30199999996933
 20
4.174500662674028
 30
0.0
 11
30.74199999996925
 21
5.614500662673953
 31
0.0
  0
LINE
  5
22CB3
330
22C95
100
AcDbEntity
  8
0
  6
CONTINUOUS
100
AcDbLine
 10
25.96267548958429
 20
0.1616569432088024
 30
0.0
 11
27.18411854636669
 21
1.383099999991207
 31
0.0
  0
LINE
  5
22CB4
330
22C95
100
AcDbEntity
  8
0
  6
CONTINUOUS
100
AcDbLine
 10
29.30199999996933
 20
3.500981453593841
 30
0.0
 11
30.74199999996925
 21
4.940981453593762
 31
0.0
  0
LINE
  5
22CB5
330
22C95
100
AcDbEntity
  8
0
  6
CONTINUOUS
100
AcDbLine
 10
26.50763775544691
 20
0.0330999999912356
 30
0.0
 11
27.85763775544689
 21
1.383099999991223
 31
0.0
  0
LINE
  5
22CB6
330
22C95
100
AcDbEntity
  8
0
  6
CONTINUOUS
100
AcDbLine
 10
29.30199999996933
 20
2.827462244513656
 30
0.0
 11
30.74199999996925
 21
4.267462244513574
 31
0.0
  0
LINE
  5
22CB7
330
22C95
100
AcDbEntity
  8
0
  6
CONTINUOUS
100
AcDbLine
 10
27.18115696452709
 20
0.0330999999912356
 30
0.0
 11
28.54526759058215
 21
1.397210626046295
 31
0.0
  0
LINE
  5
22CB8
330
22C95
100
AcDbEntity
  8
0
  6
CONTINUOUS
100
AcDbLine
 10
29.2878893739142
 20
2.139832409378348
 30
0.0
 11
30.74199999996924
 21
3.593943035433383
 31
0.0
  0
LINE
  5
22CB9
330
22C95
100
AcDbEntity
  8
0
  6
CONTINUOUS
100
AcDbLine
 10
27.85467617360728
 20
0.0330999999912356
 30
0.0
 11
30.74199999996924
 21
2.920423826353195
 31
0.0
  0
LINE
  5
22CBA
330
22C95
100
AcDbEntity
  8
0
  6
CONTINUOUS
100
AcDbLine
 10
28.53704681883833
 20
0.0419514361420976
 30
0.0
 11
30.73314856381836
 21
2.23805318112213
 31
0.0
  0
LINE
  5
22CBB
330
22C95
100
AcDbEntity
  8
0
  6
CONTINUOUS
100
AcDbLine
 10
29.45996618203888
 20
0.291351590262467
 30
0.0
 11
30.48374840969798
 21
1.315133817921562
 31
0.0
  0
LINE
  5
22CBC
330
22C95
100
AcDbEntity
  8
0
  6
CONTINUOUS
100
AcDbLine
 10
19.59027867740337
 20
-0.0000967065718083
 30
0.0
 11
19.55485265190471
 21
0.035329318926844
 31
0.0
  0
LINE
  5
22CBD
330
22C95
100
AcDbEntity
  8
0
  6
CONTINUOUS
100
AcDbLine
 10
20.26375463176586
 20
-0.0000534518541091
 30
0.0
 11
19.76305575737534
 21
0.5006454225364014
 31
0.0
  0
LINE
  5
22CBE
330
22C95
100
AcDbEntity
  8
0
  6
CONTINUOUS
100
AcDbLine
 10
20.93723058612834
 20
-0.0000101971364099
 30
0.0
 11
19.97125886284597
 21
0.965961526145958
 31
0.0
  0
LINE
  5
22CBF
330
22C95
100
AcDbEntity
  8
0
  6
CONTINUOUS
100
AcDbLine
 10
21.25514828313686
 20
0.355591314935257
 30
0.0
 11
20.1794619683166
 21
1.431277629755512
 31
0.0
  0
LINE
  5
22CC0
330
22C95
100
AcDbEntity
  8
0
  6
CONTINUOUS
100
AcDbLine
 10
21.46338838394921
 20
0.8208704232030986
 30
0.0
 11
20.38766507378723
 21
1.896593733365069
 31
0.0
  0
LINE
  5
22CC1
330
22C95
100
AcDbEntity
  8
0
  6
CONTINUOUS
100
AcDbLine
 10
21.67162848476155
 20
1.28614953147094
 30
0.0
 11
20.59586817925786
 21
2.361909836974626
 31
0.0
  0
LINE
  5
22CC2
330
22C95
100
AcDbEntity
  8
0
  6
CONTINUOUS
100
AcDbLine
 10
21.8798685855739
 20
1.751428639738782
 30
0.0
 11
20.80407128472849
 21
2.827225940584183
 31
0.0
  0
LINE
  5
22CC3
330
22C95
100
AcDbEntity
  8
0
  6
CONTINUOUS
100
AcDbLine
 10
22.08810868638624
 20
2.216707748006623
 30
0.0
 11
21.01227439019912
 21
3.292542044193739
 31
0.0
  0
LINE
  5
22CC4
330
22C95
100
AcDbEntity
  8
0
  6
CONTINUOUS
100
AcDbLine
 10
22.60993564347543
 20
2.36839999999762
 30
0.0
 11
21.22047749566975
 21
3.757858147803296
 31
0.0
  0
LINE
  5
22CC5
330
22C95
100
AcDbEntity
  8
0
  6
CONTINUOUS
100
AcDbLine
 10
23.28345485255561
 20
2.36839999999762
 30
0.0
 11
21.42868060114038
 21
4.223174251412853
 31
0.0
  0
LINE
  5
22CC6
330
22C95
100
AcDbEntity
  8
0
  6
CONTINUOUS
100
AcDbLine
 10
26.29227406164219
 20
0.0330999999912356
 30
0.0
 11
25.80009199592872
 21
0.5252820657046957
 31
0.0
  0
LINE
  5
22CC7
330
22C95
100
AcDbEntity
  8
0
  6
CONTINUOUS
100
AcDbLine
 10
23.9569740616358
 20
2.36839999999762
 30
0.0
 11
21.63688370661101
 21
4.688490355022409
 31
0.0
  0
LINE
  5
22CC8
330
22C95
100
AcDbEntity
  8
0
  6
CONTINUOUS
100
AcDbLine
 10
26.96579327072237
 20
0.0330999999912356
 30
0.0
 11
25.2554132311971
 21
1.743480039516508
 31
0.0
  0
LINE
  5
22CC9
330
22C95
100
AcDbEntity
  8
0
  6
CONTINUOUS
100
AcDbLine
 10
24.63049327071599
 20
2.36839999999762
 30
0.0
 11
23.32789327071731
 21
3.670999999996297
 31
0.0
  0
LINE
  5
22CCA
330
22C95
100
AcDbEntity
  8
0
  6
CONTINUOUS
100
AcDbLine
 10
22.92098674744635
 20
4.077906523267254
 30
0.0
 11
21.84508681208164
 21
5.153806458631966
 31
0.0
  0
LINE
  5
22CCB
330
22C95
100
AcDbEntity
  8
0
  6
CONTINUOUS
100
AcDbLine
 10
27.63931247980256
 20
0.0330999999912356
 30
0.0
 11
24.0014124797975
 21
3.670999999996297
 31
0.0
  0
LINE
  5
22CCC
330
22C95
100
AcDbEntity
  8
0
  6
CONTINUOUS
100
AcDbLine
 10
23.129125600968
 20
4.5432868788258
 30
0.0
 11
22.05328991755227
 21
5.619122562241522
 31
0.0
  0
LINE
  5
22CCD
330
22C95
100
AcDbEntity
  8
0
  6
CONTINUOUS
100
AcDbLine
 10
28.31283168888275
 20
0.0330999999912356
 30
0.0
 11
24.16488385994816
 21
4.181047828925828
 31
0.0
  0
LINE
  5
22CCE
330
22C95
100
AcDbEntity
  8
0
  6
CONTINUOUS
100
AcDbLine
 10
23.33726445448964
 20
5.008667234384345
 30
0.0
 11
22.2614930230229
 21
6.084438665851079
 31
0.0
  0
LINE
  5
22CCF
330
22C95
100
AcDbEntity
  8
0
  6
CONTINUOUS
100
AcDbLine
 10
28.92337750139541
 20
0.0960733965587588
 30
0.0
 11
27.63635089796295
 21
1.383099999991217
 31
0.0
  0
LINE
  5
22CD0
330
22C95
100
AcDbEntity
  8
0
  6
CONTINUOUS
100
AcDbLine
 10
26.43704649509776
 20
2.582404402856405
 30
0.0
 11
23.61992702019732
 21
5.399523877756844
 31
0.0
  0
LINE
  5
22CD1
330
22C95
100
AcDbEntity
  8
0
  6
CONTINUOUS
100
AcDbLine
 10
23.54540330801128
 20
5.47404758994289
 30
0.0
 11
22.46969612849353
 21
6.549754769460635
 31
0.0
  0
LINE
  5
22CD2
330
22C95
100
AcDbEntity
  8
0
  6
CONTINUOUS
100
AcDbLine
 10
29.42088916767058
 20
0.2720809393637778
 30
0.0
 11
28.30987010704312
 21
1.383099999991234
 31
0.0
  0
LINE
  5
22CD3
330
22C95
100
AcDbEntity
  8
0
  6
CONTINUOUS
100
AcDbLine
 10
25.89179548232307
 20
3.801174624711282
 30
0.0
 11
22.67789923396416
 21
7.015070873070191
 31
0.0
  0
LINE
  5
22CD4
330
22C95
100
AcDbEntity
  8
0
  6
CONTINUOUS
100
AcDbLine
 10
29.83893364644151
 20
0.527555669673029
 30
0.0
 11
28.85619976405965
 21
1.510289552054886
 31
0.0
  0
LINE
  5
22CD5
330
22C95
100
AcDbEntity
  8
0
  6
CONTINUOUS
100
AcDbLine
 10
25.34654446954838
 20
5.01994484656616
 30
0.0
 11
22.88610233943479
 21
7.480386976679748
 31
0.0
  0
LINE
  5
22CD6
330
22C95
100
AcDbEntity
  8
0
  6
CONTINUOUS
100
AcDbLine
 10
30.18040261952632
 20
0.8596059056684049
 30
0.0
 11
29.18745395369615
 21
1.852554571498581
 31
0.0
  0
LINE
  5
22CD7
330
22C95
100
AcDbEntity
  8
0
  6
CONTINUOUS
100
AcDbLine
 10
24.80129345677369
 20
6.238715068421037
 30
0.0
 11
23.09430544490542
 21
7.945703080289305
 31
0.0
  0
LINE
  5
22CD8
330
22C95
100
AcDbEntity
  8
0
  6
CONTINUOUS
100
AcDbLine
 10
30.45555813616515
 20
1.257969598109762
 30
0.0
 11
29.30199999996933
 21
2.411527734305588
 31
0.0
  0
LINE
  5
22CD9
330
22C95
100
AcDbEntity
  8
0
  6
CONTINUOUS
100
AcDbLine
 10
24.256042443999
 20
7.457485290275915
 30
0.0
 11
23.30250855037605
 21
8.411019183898862
 31
0.0
  0
LINE
  5
22CDA
330
22C95
100
AcDbEntity
  8
0
  6
CONTINUOUS
100
AcDbLine
 10
30.65144941570831
 20
1.735597527646789
 30
0.0
 11
29.30199999996933
 21
3.085046943385775
 31
0.0
  0
LINE
  5
22CDB
330
22C95
100
AcDbEntity
  8
0
  6
CONTINUOUS
100
AcDbLine
 10
23.71079143122431
 20
8.676255512130794
 30
0.0
 11
23.51071165584668
 21
8.876335287508416
 31
0.0
  0
LINE
  5
22CDC
330
22C95
100
AcDbEntity
  8
0
  6
CONTINUOUS
100
AcDbLine
 10
30.73864552656466
 20
2.321920625870631
 30
0.0
 11
29.30199999996933
 21
3.758566152465961
 31
0.0
  0
LINE
  5
22CDD
330
22C95
100
AcDbEntity
  8
0
  6
CONTINUOUS
100
AcDbLine
 10
30.74199999996924
 20
2.992085361546236
 30
0.0
 11
29.30199999996933
 21
4.432085361546148
 31
0.0
  0
LINE
  5
22CDE
330
22C95
100
AcDbEntity
  8
0
  6
CONTINUOUS
100
AcDbLine
 10
30.74199999996924
 20
3.665604570626419
 30
0.0
 11
29.30199999996933
 21
5.105604570626333
 31
0.0
  0
LINE
  5
22CDF
330
22C95
100
AcDbEntity
  8
0
  6
CONTINUOUS
100
AcDbLine
 10
30.74199999996925
 20
4.339123779706602
 30
0.0
 11
29.30199999996933
 21
5.77912377970652
 31
0.0
  0
LINE
  5
22CE0
330
22C95
100
AcDbEntity
  8
0
  6
CONTINUOUS
100
AcDbLine
 10
30.74199999996925
 20
5.012642988786785
 30
0.0
 11
29.30199999996933
 21
6.452642988786707
 31
0.0
  0
LINE
  5
22CE1
330
22C95
100
AcDbEntity
  8
0
  6
CONTINUOUS
100
AcDbLine
 10
30.74199999996925
 20
5.68616219786697
 30
0.0
 11
29.30199999996933
 21
7.126162197866894
 31
0.0
  0
LINE
  5
22CE2
330
22C95
100
AcDbEntity
  8
0
  6
CONTINUOUS
100
AcDbLine
 10
30.74199999996925
 20
6.359681406947153
 30
0.0
 11
29.30199999996933
 21
7.799681406947081
 31
0.0
  0
LINE
  5
22CE3
330
22C95
100
AcDbEntity
  8
0
  6
CONTINUOUS
100
AcDbLine
 10
30.74199999996926
 20
7.033200616027337
 30
0.0
 11
29.30199999996933
 21
8.473200616027269
 31
0.0
  0
LINE
  5
22CE4
330
22C95
100
AcDbEntity
  8
0
  6
CONTINUOUS
100
AcDbLine
 10
30.74199999996926
 20
7.706719825107518
 30
0.0
 11
29.68561982508552
 21
8.763099999991255
 31
0.0
  0
LINE
  5
22CE5
330
22C95
100
AcDbEntity
  8
0
  6
CONTINUOUS
100
AcDbLine
 10
30.74199999996926
 20
8.380239034187703
 30
0.0
 11
30.35913903416571
 21
8.763099999991255
 31
0.0
  0
ENDBLK
  5
22D88
330
22C95
100
AcDbEntity
  8
0
100
AcDbBlockEnd
  0
BLOCK
  5
22D89
330
22CE6
100
AcDbEntity
  8
0
100
AcDbBlockBegin
  2
*X141
 70
     1
 10
0.0
 20
0.0
 30
0.0
  3
*X141
  1

  0
LINE
  5
22CE7
330
22CE6
100
AcDbEntity
  8
0
  6
CONTINUOUS
100
AcDbLine
 10
31.64199999996833
 20
8.5350582899136
 30
0.0
 11
31.87004171004599
 21
8.763099999991255
 31
0.0
  0
LINE
  5
22CE8
330
22CE6
100
AcDbEntity
  8
0
  6
CONTINUOUS
100
AcDbLine
 10
31.64199999996833
 20
7.861539080833413
 30
0.0
 11
32.54356091912618
 21
8.763099999991255
 31
0.0
  0
LINE
  5
22CE9
330
22CE6
100
AcDbEntity
  8
0
  6
CONTINUOUS
100
AcDbLine
 10
31.64199999996833
 20
7.188019871753227
 30
0.0
 11
33.08199999996839
 21
8.628019871753281
 31
0.0
  0
LINE
  5
22CEA
330
22CE6
100
AcDbEntity
  8
0
  6
CONTINUOUS
100
AcDbLine
 10
31.64199999996833
 20
6.514500662673041
 30
0.0
 11
33.08199999996839
 21
7.954500662673095
 31
0.0
  0
LINE
  5
22CEB
330
22CE6
100
AcDbEntity
  8
0
  6
CONTINUOUS
100
AcDbLine
 10
31.64199999996833
 20
5.840981453592855
 30
0.0
 11
33.08199999996839
 21
7.28098145359291
 31
0.0
  0
LINE
  5
22CEC
330
22CE6
100
AcDbEntity
  8
0
  6
CONTINUOUS
100
AcDbLine
 10
31.64199999996833
 20
5.167462244512668
 30
0.0
 11
33.08199999996839
 21
6.607462244512723
 31
0.0
  0
LINE
  5
22CED
330
22CE6
100
AcDbEntity
  8
0
  6
CONTINUOUS
100
AcDbLine
 10
31.64199999996833
 20
4.493943035432482
 30
0.0
 11
33.08199999996839
 21
5.933943035432536
 31
0.0
  0
LINE
  5
22CEE
330
22CE6
100
AcDbEntity
  8
0
  6
CONTINUOUS
100
AcDbLine
 10
31.64199999996833
 20
3.820423826352294
 30
0.0
 11
33.08199999996839
 21
5.260423826352349
 31
0.0
  0
LINE
  5
22CEF
330
22CE6
100
AcDbEntity
  8
0
  6
CONTINUOUS
100
AcDbLine
 10
31.64199999996833
 20
3.146904617272108
 30
0.0
 11
33.08199999996839
 21
4.586904617272163
 31
0.0
  0
LINE
  5
22CF0
330
22CE6
100
AcDbEntity
  8
0
  6
CONTINUOUS
100
AcDbLine
 10
36.23199999996837
 20
8.410423826352327
 30
0.0
 11
36.58467617360729
 21
8.763099999991255
 31
0.0
  0
LINE
  5
22CF1
330
22CE6
100
AcDbEntity
  8
0
  6
CONTINUOUS
100
AcDbLine
 10
36.23199999996837
 20
7.73690461727214
 30
0.0
 11
37.25819538268748
 21
8.763099999991255
 31
0.0
  0
LINE
  5
22CF2
330
22CE6
100
AcDbEntity
  8
0
  6
CONTINUOUS
100
AcDbLine
 10
31.64245318187395
 20
2.473838590097533
 30
0.0
 11
33.08199999996839
 21
3.913385408191976
 31
0.0
  0
LINE
  5
22CF3
330
22CE6
100
AcDbEntity
  8
0
  6
CONTINUOUS
100
AcDbLine
 10
36.23199999996837
 20
7.063385408191953
 30
0.0
 11
37.67199999996831
 21
8.503385408191894
 31
0.0
  0
LINE
  5
22CF4
330
22CE6
100
AcDbEntity
  8
0
  6
CONTINUOUS
100
AcDbLine
 10
31.71454007775861
 20
1.872406276902012
 30
0.0
 11
33.08199999996839
 21
3.239866199111789
 31
0.0
  0
LINE
  5
22CF5
330
22CE6
100
AcDbEntity
  8
0
  6
CONTINUOUS
100
AcDbLine
 10
36.23199999996837
 20
6.389866199111767
 30
0.0
 11
37.67199999996831
 21
7.829866199111708
 31
0.0
  0
LINE
  5
22CF6
330
22CE6
100
AcDbEntity
  8
0
  6
CONTINUOUS
100
AcDbLine
 10
31.89137743526572
 20
1.375724425328935
 30
0.0
 11
33.08199999996839
 21
2.566346990031603
 31
0.0
  0
LINE
  5
22CF7
330
22CE6
100
AcDbEntity
  8
0
  6
CONTINUOUS
100
AcDbLine
 10
36.23199999996837
 20
5.71634699003158
 30
0.0
 11
37.67199999996831
 21
7.156346990031522
 31
0.0
  0
LINE
  5
22CF8
330
22CE6
100
AcDbEntity
  8
0
  6
CONTINUOUS
100
AcDbLine
 10
32.14187615611716
 20
0.9527039371001833
 30
0.0
 11
33.19010715495784
 21
2.000934935940872
 31
0.0
  0
LINE
  5
22CF9
330
22CE6
100
AcDbEntity
  8
0
  6
CONTINUOUS
100
AcDbLine
 10
36.23199999996837
 20
5.042827780951393
 30
0.0
 11
37.67199999996831
 21
6.482827780951334
 31
0.0
  0
LINE
  5
22CFA
330
22CE6
100
AcDbEntity
  8
0
  6
CONTINUOUS
100
AcDbLine
 10
32.45360634899608
 20
0.5909149208989124
 30
0.0
 11
33.47398867460512
 21
1.611297246507967
 31
0.0
  0
LINE
  5
22CFB
330
22CE6
100
AcDbEntity
  8
0
  6
CONTINUOUS
100
AcDbLine
 10
36.23199999996837
 20
4.369308571871207
 30
0.0
 11
37.67199999996831
 21
5.809308571871148
 31
0.0
  0
LINE
  5
22CFC
330
22CE6
100
AcDbEntity
  8
0
  6
CONTINUOUS
100
AcDbLine
 10
32.83268796462238
 20
0.296477327445035
 30
0.0
 11
33.89485240336604
 21
1.358641766188692
 31
0.0
  0
LINE
  5
22CFD
330
22CE6
100
AcDbEntity
  8
0
  6
CONTINUOUS
100
AcDbLine
 10
36.23199999996837
 20
3.695789362791021
 30
0.0
 11
37.67199999996831
 21
5.135789362790963
 31
0.0
  0
LINE
  5
22CFE
330
22CE6
100
AcDbEntity
  8
0
  6
CONTINUOUS
100
AcDbLine
 10
33.26779879508795
 20
0.0580689488304138
 30
0.0
 11
34.43024232456766
 21
1.220512478310136
 31
0.0
  0
LINE
  5
22CFF
330
22CE6
100
AcDbEntity
  8
0
  6
CONTINUOUS
100
AcDbLine
 10
36.23199999996837
 20
3.022270153710834
 30
0.0
 11
37.67199999996831
 21
4.462270153710776
 31
0.0
  0
LINE
  5
22D00
330
22CE6
100
AcDbEntity
  8
0
  6
CONTINUOUS
100
AcDbLine
 10
33.76860229595987
 20
-0.1146467593778464
 30
0.0
 11
35.1531201138478
 21
1.269871058510077
 31
0.0
  0
LINE
  5
22D01
330
22CE6
100
AcDbEntity
  8
0
  6
CONTINUOUS
100
AcDbLine
 10
36.21926099594037
 20
2.336011940602655
 30
0.0
 11
37.67199999996831
 21
3.788750944630589
 31
0.0
  0
LINE
  5
22D02
330
22CE6
100
AcDbEntity
  8
0
  6
CONTINUOUS
100
AcDbLine
 10
34.33665674311174
 20
-0.2201115213061664
 30
0.0
 11
37.67199999996831
 21
3.115231735550402
 31
0.0
  0
LINE
  5
22D03
330
22CE6
100
AcDbEntity
  8
0
  6
CONTINUOUS
100
AcDbLine
 10
35.01199180569318
 20
-0.2182956678049122
 30
0.0
 11
37.66953193979786
 21
2.439244466299766
 31
0.0
  0
LINE
  5
22D04
330
22CE6
100
AcDbEntity
  8
0
  6
CONTINUOUS
100
AcDbLine
 10
35.9093392486654
 20
0.0055325660871235
 30
0.0
 11
37.52393194428191
 21
1.620125261703632
 31
0.0
  0
LINE
  5
22D05
330
22CE6
100
AcDbEntity
  8
0
  6
CONTINUOUS
100
AcDbLine
 10
32.56334917037493
 20
0.4972169820603449
 30
0.0
 11
32.24097481447853
 21
0.8195913379567479
 31
0.0
  0
LINE
  5
22D06
330
22CE6
100
AcDbEntity
  8
0
  6
CONTINUOUS
100
AcDbLine
 10
33.87806167241977
 20
-0.1439763109042991
 30
0.0
 11
31.68194999643856
 21
2.052135365076909
 31
0.0
  0
LINE
  5
22D07
330
22CE6
100
AcDbEntity
  8
0
  6
CONTINUOUS
100
AcDbLine
 10
34.6438134951692
 20
-0.2362089245735399
 30
0.0
 11
31.64199999996833
 21
2.765604570627322
 31
0.0
  0
LINE
  5
22D08
330
22CE6
100
AcDbEntity
  8
0
  6
CONTINUOUS
100
AcDbLine
 10
35.26034813768996
 20
-0.1792243580141184
 30
0.0
 11
31.64199999996833
 21
3.439123779707508
 31
0.0
  0
LINE
  5
22D09
330
22CE6
100
AcDbEntity
  8
0
  6
CONTINUOUS
100
AcDbLine
 10
35.79355560089346
 20
-0.0389126121374295
 30
0.0
 11
34.54600650718248
 21
1.208636481573547
 31
0.0
  0
LINE
  5
22D0A
330
22CE6
100
AcDbEntity
  8
0
  6
CONTINUOUS
100
AcDbLine
 10
33.08199999996839
 20
2.672642988787641
 30
0.0
 11
31.64199999996833
 21
4.112642988787695
 31
0.0
  0
LINE
  5
22D0B
330
22CE6
100
AcDbEntity
  8
0
  6
CONTINUOUS
100
AcDbLine
 10
36.26091969424284
 20
0.1672425035933776
 30
0.0
 11
35.15707210996673
 21
1.271090087869486
 31
0.0
  0
LINE
  5
22D0C
330
22CE6
100
AcDbEntity
  8
0
  6
CONTINUOUS
100
AcDbLine
 10
33.08199999996839
 20
3.346162197867827
 30
0.0
 11
31.64199999996833
 21
4.786162197867881
 31
0.0
  0
LINE
  5
22D0D
330
22CE6
100
AcDbEntity
  8
0
  6
CONTINUOUS
100
AcDbLine
 10
36.67116280062191
 20
0.430518606294497
 30
0.0
 11
35.63776098265718
 21
1.463920424259221
 31
0.0
  0
LINE
  5
22D0E
330
22CE6
100
AcDbEntity
  8
0
  6
CONTINUOUS
100
AcDbLine
 10
33.08199999996839
 20
4.019681406948013
 30
0.0
 11
31.64199999996833
 21
5.459681406948068
 31
0.0
  0
LINE
  5
22D0F
330
22CE6
100
AcDbEntity
  8
0
  6
CONTINUOUS
100
AcDbLine
 10
37.01762752504177
 20
0.7575730909548111
 30
0.0
 11
35.99425444172113
 21
1.780946174275458
 31
0.0
  0
LINE
  5
22D10
330
22CE6
100
AcDbEntity
  8
0
  6
CONTINUOUS
100
AcDbLine
 10
33.08199999996839
 20
4.6932006160282
 30
0.0
 11
31.64199999996833
 21
6.133200616028255
 31
0.0
  0
LINE
  5
22D11
330
22CE6
100
AcDbEntity
  8
0
  6
CONTINUOUS
100
AcDbLine
 10
37.30070982608557
 20
1.148009998991207
 30
0.0
 11
36.20493601160601
 21
2.243783813470765
 31
0.0
  0
LINE
  5
22D12
330
22CE6
100
AcDbEntity
  8
0
  6
CONTINUOUS
100
AcDbLine
 10
33.08199999996839
 20
5.366719825108387
 30
0.0
 11
31.64199999996833
 21
6.806719825108441
 31
0.0
  0
LINE
  5
22D13
330
22CE6
100
AcDbEntity
  8
0
  6
CONTINUOUS
100
AcDbLine
 10
37.51890498518586
 20
1.603334048971095
 30
0.0
 11
36.23199999996837
 21
2.890239034188595
 31
0.0
  0
LINE
  5
22D14
330
22CE6
100
AcDbEntity
  8
0
  6
CONTINUOUS
100
AcDbLine
 10
33.08199999996839
 20
6.040239034188573
 30
0.0
 11
31.64199999996833
 21
7.480239034188628
 31
0.0
  0
LINE
  5
22D15
330
22CE6
100
AcDbEntity
  8
0
  6
CONTINUOUS
100
AcDbLine
 10
37.64877435688007
 20
2.146983886357076
 30
0.0
 11
36.23199999996837
 21
3.563758243268782
 31
0.0
  0
LINE
  5
22D16
330
22CE6
100
AcDbEntity
  8
0
  6
CONTINUOUS
100
AcDbLine
 10
33.08199999996839
 20
6.713758243268759
 30
0.0
 11
31.64199999996833
 21
8.153758243268815
 31
0.0
  0
LINE
  5
22D17
330
22CE6
100
AcDbEntity
  8
0
  6
CONTINUOUS
100
AcDbLine
 10
37.67199999996831
 20
2.797277452349027
 30
0.0
 11
36.23199999996837
 21
4.237277452348969
 31
0.0
  0
LINE
  5
22D18
330
22CE6
100
AcDbEntity
  8
0
  6
CONTINUOUS
100
AcDbLine
 10
37.67199999996831
 20
3.470796661429214
 30
0.0
 11
36.23199999996837
 21
4.910796661429155
 31
0.0
  0
LINE
  5
22D19
330
22CE6
100
AcDbEntity
  8
0
  6
CONTINUOUS
100
AcDbLine
 10
37.67199999996831
 20
4.1443158705094
 30
0.0
 11
36.23199999996837
 21
5.584315870509341
 31
0.0
  0
LINE
  5
22D1A
330
22CE6
100
AcDbEntity
  8
0
  6
CONTINUOUS
100
AcDbLine
 10
33.08199999996839
 20
7.387277452348947
 30
0.0
 11
31.70617745232608
 21
8.763099999991255
 31
0.0
  0
LINE
  5
22D1B
330
22CE6
100
AcDbEntity
  8
0
  6
CONTINUOUS
100
AcDbLine
 10
33.08199999996839
 20
8.060796661429134
 30
0.0
 11
32.37969666140626
 21
8.763099999991255
 31
0.0
  0
LINE
  5
22D1C
330
22CE6
100
AcDbEntity
  8
0
  6
CONTINUOUS
100
AcDbLine
 10
33.08199999996839
 20
8.73431587050932
 30
0.0
 11
33.05321587048645
 21
8.763099999991255
 31
0.0
  0
LINE
  5
22D1D
330
22CE6
100
AcDbEntity
  8
0
  6
CONTINUOUS
100
AcDbLine
 10
37.67199999996831
 20
4.817835079589587
 30
0.0
 11
36.23199999996837
 21
6.257835079589528
 31
0.0
  0
LINE
  5
22D1E
330
22CE6
100
AcDbEntity
  8
0
  6
CONTINUOUS
100
AcDbLine
 10
37.67199999996831
 20
5.491354288669773
 30
0.0
 11
36.23199999996837
 21
6.931354288669715
 31
0.0
  0
LINE
  5
22D1F
330
22CE6
100
AcDbEntity
  8
0
  6
CONTINUOUS
100
AcDbLine
 10
37.67199999996831
 20
6.164873497749959
 30
0.0
 11
36.23199999996837
 21
7.6048734977499
 31
0.0
  0
LINE
  5
22D20
330
22CE6
100
AcDbEntity
  8
0
  6
CONTINUOUS
100
AcDbLine
 10
37.67199999996831
 20
6.838392706830145
 30
0.0
 11
36.23199999996837
 21
8.278392706830086
 31
0.0
  0
LINE
  5
22D21
330
22CE6
100
AcDbEntity
  8
0
  6
CONTINUOUS
100
AcDbLine
 10
37.67199999996831
 20
7.511911915910333
 30
0.0
 11
36.42081191588738
 21
8.763099999991255
 31
0.0
  0
LINE
  5
22D22
330
22CE6
100
AcDbEntity
  8
0
  6
CONTINUOUS
100
AcDbLine
 10
37.67199999996831
 20
8.18543112499052
 30
0.0
 11
37.09433112496757
 21
8.763099999991255
 31
0.0
  0
ENDBLK
  5
22D8A
330
22CE6
100
AcDbEntity
  8
0
100
AcDbBlockEnd
  0
BLOCK
  5
22D8B
330
22D23
100
AcDbEntity
  8
0
100
AcDbBlockBegin
  2
*X142
 70
     1
 10
0.0
 20
0.0
 30
0.0
  3
*X142
  1

  0
LINE
  5
22D24
330
22D23
100
AcDbEntity
  8
0
  6
CONTINUOUS
100
AcDbLine
 10
38.60499999996136
 20
8.762866199104765
 30
0.0
 11
38.71672554182345
 21
8.874591740966855
 31
0.0
  0
LINE
  5
22D25
330
22D23
100
AcDbEntity
  8
0
  6
CONTINUOUS
100
AcDbLine
 10
38.60499999996136
 20
8.089346990024577
 30
0.0
 11
39.03418785440363
 21
8.518534844466847
 31
0.0
  0
LINE
  5
22D26
330
22D23
100
AcDbEntity
  8
0
  6
CONTINUOUS
100
AcDbLine
 10
38.60499999996136
 20
7.41582778094439
 30
0.0
 11
39.35165016698382
 21
8.16247794796684
 31
0.0
  0
LINE
  5
22D27
330
22D23
100
AcDbEntity
  8
0
  6
CONTINUOUS
100
AcDbLine
 10
38.60499999996136
 20
6.742308571864204
 30
0.0
 11
39.66911247956399
 21
7.806421051466834
 31
0.0
  0
LINE
  5
22D28
330
22D23
100
AcDbEntity
  8
0
  6
CONTINUOUS
100
AcDbLine
 10
38.60499999996136
 20
6.068789362784018
 30
0.0
 11
39.98657479214418
 21
7.450364154966827
 31
0.0
  0
LINE
  5
22D29
330
22D23
100
AcDbEntity
  8
0
  6
CONTINUOUS
100
AcDbLine
 10
38.60499999996136
 20
5.395270153703832
 30
0.0
 11
40.30403710472435
 21
7.09430725846682
 31
0.0
  0
LINE
  5
22D2A
330
22D23
100
AcDbEntity
  8
0
  6
CONTINUOUS
100
AcDbLine
 10
38.60499999996136
 20
4.721750944623645
 30
0.0
 11
40.62149941730453
 21
6.738250361966813
 31
0.0
  0
LINE
  5
22D2B
330
22D23
100
AcDbEntity
  8
0
  6
CONTINUOUS
100
AcDbLine
 10
38.60499999996136
 20
4.048231735543458
 30
0.0
 11
40.93896172988471
 21
6.382193465466806
 31
0.0
  0
LINE
  5
22D2C
330
22D23
100
AcDbEntity
  8
0
  6
CONTINUOUS
100
AcDbLine
 10
38.60499999996136
 20
3.374712526463272
 30
0.0
 11
40.02599999995994
 21
4.795712526461843
 31
0.0
  0
LINE
  5
22D2D
330
22D23
100
AcDbEntity
  8
0
  6
CONTINUOUS
100
AcDbLine
 10
38.60499999996136
 20
2.701193317383085
 30
0.0
 11
40.02599999995994
 21
4.122193317381657
 31
0.0
  0
LINE
  5
22D2E
330
22D23
100
AcDbEntity
  8
0
  6
CONTINUOUS
100
AcDbLine
 10
40.28339754687704
 20
5.053110073378947
 30
0.0
 11
41.25642404246489
 21
6.026136568966799
 31
0.0
  0
LINE
  5
22D2F
330
22D23
100
AcDbEntity
  8
0
  6
CONTINUOUS
100
AcDbLine
 10
40.60085985945722
 20
4.697053176878939
 30
0.0
 11
41.57388635504507
 21
5.670079672466793
 31
0.0
  0
LINE
  5
22D30
330
22D23
100
AcDbEntity
  8
0
  6
CONTINUOUS
100
AcDbLine
 10
43.57899999995641
 20
8.348712526458318
 30
0.0
 11
43.99338747348935
 21
8.763099999991255
 31
0.0
  0
LINE
  5
22D31
330
22D23
100
AcDbEntity
  8
0
  6
CONTINUOUS
100
AcDbLine
 10
43.57899999995641
 20
7.675193317378131
 30
0.0
 11
44.66690668256953
 21
8.763099999991255
 31
0.0
  0
LINE
  5
22D32
330
22D23
100
AcDbEntity
  8
0
  6
CONTINUOUS
100
AcDbLine
 10
38.60499999996136
 20
2.027674108302898
 30
0.0
 11
40.02599999995994
 21
3.44867410830147
 31
0.0
  0
LINE
  5
22D33
330
22D23
100
AcDbEntity
  8
0
  6
CONTINUOUS
100
AcDbLine
 10
38.60499999996136
 20
1.354154899222712
 30
0.0
 11
40.02599999995994
 21
2.775154899221284
 31
0.0
  0
LINE
  5
22D34
330
22D23
100
AcDbEntity
  8
0
  6
CONTINUOUS
100
AcDbLine
 10
38.60499999996136
 20
0.6806356901425255
 30
0.0
 11
40.02599999995994
 21
2.101635690141098
 31
0.0
  0
LINE
  5
22D35
330
22D23
100
AcDbEntity
  8
0
  6
CONTINUOUS
100
AcDbLine
 10
38.60499999996136
 20
0.0071164810623383
 30
0.0
 11
40.02599999995994
 21
1.428116481060911
 31
0.0
  0
LINE
  5
22D36
330
22D23
100
AcDbEntity
  8
0
  6
CONTINUOUS
100
AcDbLine
 10
40.9183221720374
 20
4.340996280378933
 30
0.0
 11
41.89134866762525
 21
5.314022775966786
 31
0.0
  0
LINE
  5
22D37
330
22D23
100
AcDbEntity
  8
0
  6
CONTINUOUS
100
AcDbLine
 10
41.23578448461758
 20
3.984939383878926
 30
0.0
 11
42.20881098020543
 21
4.957965879466778
 31
0.0
  0
LINE
  5
22D38
330
22D23
100
AcDbEntity
  8
0
  6
CONTINUOUS
100
AcDbLine
 10
41.55324679719776
 20
3.628882487378919
 30
0.0
 11
42.52627329278561
 21
4.601908982966772
 31
0.0
  0
LINE
  5
22D39
330
22D23
100
AcDbEntity
  8
0
  6
CONTINUOUS
100
AcDbLine
 10
41.87070910977793
 20
3.272825590878912
 30
0.0
 11
42.84373560536579
 21
4.245852086466765
 31
0.0
  0
LINE
  5
22D3A
330
22D23
100
AcDbEntity
  8
0
  6
CONTINUOUS
100
AcDbLine
 10
43.57899999995641
 20
7.001674108297943
 30
0.0
 11
44.99999999995498
 21
8.422674108296516
 31
0.0
  0
LINE
  5
22D3B
330
22D23
100
AcDbEntity
  8
0
  6
CONTINUOUS
100
AcDbLine
 10
43.57899999995641
 20
6.328154899217758
 30
0.0
 11
44.99999999995498
 21
7.749154899216329
 31
0.0
  0
LINE
  5
22D3C
330
22D23
100
AcDbEntity
  8
0
  6
CONTINUOUS
100
AcDbLine
 10
43.57899999995641
 20
5.654635690137571
 30
0.0
 11
44.99999999995498
 21
7.075635690136142
 31
0.0
  0
LINE
  5
22D3D
330
22D23
100
AcDbEntity
  8
0
  6
CONTINUOUS
100
AcDbLine
 10
43.57899999995641
 20
4.981116481057384
 30
0.0
 11
44.99999999995498
 21
6.402116481055955
 31
0.0
  0
LINE
  5
22D3E
330
22D23
100
AcDbEntity
  8
0
  6
CONTINUOUS
100
AcDbLine
 10
39.27140272797921
 20
-0.0000000000000009
 30
0.0
 11
40.02599999995994
 21
0.7545972719807246
 31
0.0
  0
LINE
  5
22D3F
330
22D23
100
AcDbEntity
  8
0
  6
CONTINUOUS
100
AcDbLine
 10
39.9449219370594
 20
-0.0000000000000009
 30
0.0
 11
40.02599999995994
 21
0.0810780629005379
 31
0.0
  0
LINE
  5
22D40
330
22D23
100
AcDbEntity
  8
0
  6
CONTINUOUS
100
AcDbLine
 10
42.18817142235812
 20
2.916768694378905
 30
0.0
 11
43.16119791794597
 21
3.889795189966758
 31
0.0
  0
LINE
  5
22D41
330
22D23
100
AcDbEntity
  8
0
  6
CONTINUOUS
100
AcDbLine
 10
42.50563373493829
 20
2.560711797878898
 30
0.0
 11
43.47866023052615
 21
3.533738293466751
 31
0.0
  0
LINE
  5
22D42
330
22D23
100
AcDbEntity
  8
0
  6
CONTINUOUS
100
AcDbLine
 10
43.57899999995641
 20
4.307597271977198
 30
0.0
 11
44.99999999995498
 21
5.728597271975769
 31
0.0
  0
LINE
  5
22D43
330
22D23
100
AcDbEntity
  8
0
  6
CONTINUOUS
100
AcDbLine
 10
43.57899999995641
 20
3.634078062897011
 30
0.0
 11
44.99999999995498
 21
5.055078062895582
 31
0.0
  0
LINE
  5
22D44
330
22D23
100
AcDbEntity
  8
0
  6
CONTINUOUS
100
AcDbLine
 10
42.82309604751848
 20
2.204654901378891
 30
0.0
 11
44.99999999995498
 21
4.381558853815395
 31
0.0
  0
LINE
  5
22D45
330
22D23
100
AcDbEntity
  8
0
  6
CONTINUOUS
100
AcDbLine
 10
43.14055836009865
 20
1.848598004878885
 30
0.0
 11
44.99999999995498
 21
3.70803964473521
 31
0.0
  0
LINE
  5
22D46
330
22D23
100
AcDbEntity
  8
0
  6
CONTINUOUS
100
AcDbLine
 10
43.45802067267883
 20
1.492541108378878
 30
0.0
 11
44.99999999995498
 21
3.034520435655023
 31
0.0
  0
LINE
  5
22D47
330
22D23
100
AcDbEntity
  8
0
  6
CONTINUOUS
100
AcDbLine
 10
43.77548298525902
 20
1.136484211878871
 30
0.0
 11
44.99999999995498
 21
2.361001226574837
 31
0.0
  0
LINE
  5
22D48
330
22D23
100
AcDbEntity
  8
0
  6
CONTINUOUS
100
AcDbLine
 10
44.09294529783919
 20
0.7804273153788639
 30
0.0
 11
44.99999999995498
 21
1.687482017494649
 31
0.0
  0
LINE
  5
22D49
330
22D23
100
AcDbEntity
  8
0
  6
CONTINUOUS
100
AcDbLine
 10
44.41040761041938
 20
0.4243704188788566
 30
0.0
 11
44.99999999995498
 21
1.013962808414463
 31
0.0
  0
LINE
  5
22D4A
330
22D23
100
AcDbEntity
  8
0
  6
CONTINUOUS
100
AcDbLine
 10
44.72786992299955
 20
0.0683135223788494
 30
0.0
 11
44.99999999995498
 21
0.340443599334276
 31
0.0
  0
LINE
  5
22D4B
330
22D23
100
AcDbEntity
  8
0
  6
CONTINUOUS
100
AcDbLine
 10
39.12223903415696
 20
-0.0000000000000009
 30
0.0
 11
38.60499999996136
 21
0.5172390341955961
 31
0.0
  0
LINE
  5
22D4C
330
22D23
100
AcDbEntity
  8
0
  6
CONTINUOUS
100
AcDbLine
 10
39.79575824323715
 20
-0.0000000000000009
 30
0.0
 11
38.60499999996136
 21
1.190758243275783
 31
0.0
  0
LINE
  5
22D4D
330
22D23
100
AcDbEntity
  8
0
  6
CONTINUOUS
100
AcDbLine
 10
40.02599999995994
 20
0.443277452357397
 30
0.0
 11
38.60499999996136
 21
1.864277452355969
 31
0.0
  0
LINE
  5
22D4E
330
22D23
100
AcDbEntity
  8
0
  6
CONTINUOUS
100
AcDbLine
 10
40.02599999995994
 20
1.116796661437583
 30
0.0
 11
38.60499999996136
 21
2.537796661436155
 31
0.0
  0
LINE
  5
22D4F
330
22D23
100
AcDbEntity
  8
0
  6
CONTINUOUS
100
AcDbLine
 10
40.02599999995994
 20
1.79031587051777
 30
0.0
 11
38.60499999996136
 21
3.211315870516341
 31
0.0
  0
LINE
  5
22D50
330
22D23
100
AcDbEntity
  8
0
  6
CONTINUOUS
100
AcDbLine
 10
40.02599999995994
 20
2.463835079597956
 30
0.0
 11
38.60499999996136
 21
3.884835079596527
 31
0.0
  0
LINE
  5
22D51
330
22D23
100
AcDbEntity
  8
0
  6
CONTINUOUS
100
AcDbLine
 10
40.02599999995994
 20
3.137354288678143
 30
0.0
 11
38.60499999996136
 21
4.558354288676714
 31
0.0
  0
LINE
  5
22D52
330
22D23
100
AcDbEntity
  8
0
  6
CONTINUOUS
100
AcDbLine
 10
40.02599999995994
 20
3.810873497758329
 30
0.0
 11
38.60499999996136
 21
5.2318734977569
 31
0.0
  0
LINE
  5
22D53
330
22D23
100
AcDbEntity
  8
0
  6
CONTINUOUS
100
AcDbLine
 10
40.02599999995994
 20
4.484392706838515
 30
0.0
 11
38.60499999996136
 21
5.905392706837086
 31
0.0
  0
LINE
  5
22D54
330
22D23
100
AcDbEntity
  8
0
  6
CONTINUOUS
100
AcDbLine
 10
44.99999999995498
 20
0.183911915923658
 30
0.0
 11
41.53858364506288
 21
3.64532827081576
 31
0.0
  0
LINE
  5
22D55
330
22D23
100
AcDbEntity
  8
0
  6
CONTINUOUS
100
AcDbLine
 10
40.02599999995994
 20
5.157911915918703
 30
0.0
 11
38.60499999996136
 21
6.578911915917274
 31
0.0
  0
LINE
  5
22D56
330
22D23
100
AcDbEntity
  8
0
  6
CONTINUOUS
100
AcDbLine
 10
44.99999999995498
 20
0.8574311250038447
 30
0.0
 11
38.60499999996136
 21
7.25243112499746
 31
0.0
  0
LINE
  5
22D57
330
22D23
100
AcDbEntity
  8
0
  6
CONTINUOUS
100
AcDbLine
 10
44.99999999995498
 20
1.530950334084031
 30
0.0
 11
38.60499999996136
 21
7.925950334077647
 31
0.0
  0
LINE
  5
22D58
330
22D23
100
AcDbEntity
  8
0
  6
CONTINUOUS
100
AcDbLine
 10
44.99999999995498
 20
2.204469543164218
 30
0.0
 11
43.57899999995641
 21
3.625469543162789
 31
0.0
  0
LINE
  5
22D59
330
22D23
100
AcDbEntity
  8
0
  6
CONTINUOUS
100
AcDbLine
 10
41.89876730984767
 20
5.305702233271528
 30
0.0
 11
38.60499999996136
 21
8.599469543157834
 31
0.0
  0
LINE
  5
22D5A
330
22D23
100
AcDbEntity
  8
0
  6
CONTINUOUS
100
AcDbLine
 10
44.99999999995498
 20
2.877988752244405
 30
0.0
 11
43.57899999995641
 21
4.298988752242975
 31
0.0
  0
LINE
  5
22D5B
330
22D23
100
AcDbEntity
  8
0
  6
CONTINUOUS
100
AcDbLine
 10
44.99999999995498
 20
3.551507961324591
 30
0.0
 11
43.57899999995641
 21
4.972507961323163
 31
0.0
  0
LINE
  5
22D5C
330
22D23
100
AcDbEntity
  8
0
  6
CONTINUOUS
100
AcDbLine
 10
44.99999999995498
 20
4.225027170404777
 30
0.0
 11
43.57899999995641
 21
5.646027170403348
 31
0.0
  0
LINE
  5
22D5D
330
22D23
100
AcDbEntity
  8
0
  6
CONTINUOUS
100
AcDbLine
 10
44.99999999995498
 20
4.898546379484964
 30
0.0
 11
43.57899999995641
 21
6.319546379483535
 31
0.0
  0
LINE
  5
22D5E
330
22D23
100
AcDbEntity
  8
0
  6
CONTINUOUS
100
AcDbLine
 10
44.99999999995498
 20
5.572065588565151
 30
0.0
 11
43.57899999995641
 21
6.993065588563722
 31
0.0
  0
LINE
  5
22D5F
330
22D23
100
AcDbEntity
  8
0
  6
CONTINUOUS
100
AcDbLine
 10
44.99999999995498
 20
6.245584797645336
 30
0.0
 11
43.57899999995641
 21
7.666584797643908
 31
0.0
  0
LINE
  5
22D60
330
22D23
100
AcDbEntity
  8
0
  6
CONTINUOUS
100
AcDbLine
 10
44.99999999995498
 20
6.919104006725522
 30
0.0
 11
43.57899999995641
 21
8.340104006724093
 31
0.0
  0
LINE
  5
22D61
330
22D23
100
AcDbEntity
  8
0
  6
CONTINUOUS
100
AcDbLine
 10
44.99999999995498
 20
7.592623215805709
 30
0.0
 11
43.82952321576943
 21
8.763099999991255
 31
0.0
  0
LINE
  5
22D62
330
22D23
100
AcDbEntity
  8
0
  6
CONTINUOUS
100
AcDbLine
 10
44.99999999995498
 20
8.266142424885896
 30
0.0
 11
44.50304242484962
 21
8.763099999991255
 31
0.0
  0
ENDBLK
  5
22D8C
330
22D23
100
AcDbEntity
  8
0
100
AcDbBlockEnd
  0
BLOCK
  5
22D8D
330
22D63
100
AcDbEntity
  8
0
100
AcDbBlockBegin
  2
*X143
 70
     1
 10
0.0
 20
0.0
 30
0.0
  3
*X143
  1

  0
LINE
  5
22D64
330
22D63
100
AcDbEntity
  8
0
  6
CONTINUOUS
100
AcDbLine
 10
0.0
 20
8.548461116714023
 30
0.0
 11
0.2146388832772324
 21
8.763099999991255
 31
0.0
  0
LINE
  5
22D65
330
22D63
100
AcDbEntity
  8
0
  6
CONTINUOUS
100
AcDbLine
 10
-0.0000000000000002
 20
7.874941907633837
 30
0.0
 11
0.8881580923574184
 21
8.763099999991255
 31
0.0
  0
LINE
  5
22D66
330
22D63
100
AcDbEntity
  8
0
  6
CONTINUOUS
100
AcDbLine
 10
0.0
 20
7.20142269855365
 30
0.0
 11
1.420999999998572
 21
8.622422698552223
 31
0.0
  0
LINE
  5
22D67
330
22D63
100
AcDbEntity
  8
0
  6
CONTINUOUS
100
AcDbLine
 10
-0.0000000000000001
 20
6.527903489473465
 30
0.0
 11
1.420999999998571
 21
7.948903489472036
 31
0.0
  0
LINE
  5
22D68
330
22D63
100
AcDbEntity
  8
0
  6
CONTINUOUS
100
AcDbLine
 10
-0.0000000000000002
 20
5.854384280393278
 30
0.0
 11
1.420999999998571
 21
7.275384280391849
 31
0.0
  0
LINE
  5
22D69
330
22D63
100
AcDbEntity
  8
0
  6
CONTINUOUS
100
AcDbLine
 10
-0.0000000000000002
 20
5.180865071313091
 30
0.0
 11
1.420999999998571
 21
6.601865071311663
 31
0.0
  0
LINE
  5
22D6A
330
22D63
100
AcDbEntity
  8
0
  6
CONTINUOUS
100
AcDbLine
 10
0.0
 20
4.507345862232905
 30
0.0
 11
1.420999999998571
 21
5.928345862231477
 31
0.0
  0
LINE
  5
22D6B
330
22D63
100
AcDbEntity
  8
0
  6
CONTINUOUS
100
AcDbLine
 10
-0.0000000000000003
 20
3.833826653152718
 30
0.0
 11
1.420999999998571
 21
5.25482665315129
 31
0.0
  0
LINE
  5
22D6C
330
22D63
100
AcDbEntity
  8
0
  6
CONTINUOUS
100
AcDbLine
 10
-0.0000000000000002
 20
3.160307444072532
 30
0.0
 11
1.420999999998571
 21
4.581307444071103
 31
0.0
  0
LINE
  5
22D6D
330
22D63
100
AcDbEntity
  8
0
  6
CONTINUOUS
100
AcDbLine
 10
-0.0000000000000001
 20
2.486788234992345
 30
0.0
 11
1.420999999998571
 21
3.907788234990917
 31
0.0
  0
LINE
  5
22D6E
330
22D63
100
AcDbEntity
  8
0
  6
CONTINUOUS
100
AcDbLine
 10
-0.0000000000000006
 20
1.813269025912159
 30
0.0
 11
1.420999999998571
 21
3.234269025910731
 31
0.0
  0
LINE
  5
22D6F
330
22D63
100
AcDbEntity
  8
0
  6
CONTINUOUS
100
AcDbLine
 10
0.0
 20
1.139749816831973
 30
0.0
 11
1.420999999998571
 21
2.560749816830544
 31
0.0
  0
LINE
  5
22D70
330
22D63
100
AcDbEntity
  8
0
  6
CONTINUOUS
100
AcDbLine
 10
0.0000000000000002
 20
0.466230607751787
 30
0.0
 11
1.420999999998571
 21
1.887230607750358
 31
0.0
  0
LINE
  5
22D71
330
22D63
100
AcDbEntity
  8
0
  6
CONTINUOUS
100
AcDbLine
 10
0.2072886013284003
 20
-0.0000000000000009
 30
0.0
 11
1.420999999998571
 21
1.213711398670171
 31
0.0
  0
LINE
  5
22D72
330
22D63
100
AcDbEntity
  8
0
  6
CONTINUOUS
100
AcDbLine
 10
0.8808078104085864
 20
-0.0000000000000009
 30
0.0
 11
1.420999999998571
 21
0.5401921895899839
 31
0.0
  0
LINE
  5
22D73
330
22D63
100
AcDbEntity
  8
0
  6
CONTINUOUS
100
AcDbLine
 10
0.0581249075061505
 20
-0.0000000000000009
 30
0.0
 11
-0.0000000000000002
 21
0.0581249075061496
 31
0.0
  0
LINE
  5
22D74
330
22D63
100
AcDbEntity
  8
0
  6
CONTINUOUS
100
AcDbLine
 10
0.7316441165863372
 20
-0.0000000000000009
 30
0.0
 11
-0.0000000000000002
 21
0.7316441165863363
 31
0.0
  0
LINE
  5
22D75
330
22D63
100
AcDbEntity
  8
0
  6
CONTINUOUS
100
AcDbLine
 10
1.405163325666523
 20
-0.0000000000000009
 30
0.0
 11
-0.0000000000000002
 21
1.405163325666523
 31
0.0
  0
LINE
  5
22D76
330
22D63
100
AcDbEntity
  8
0
  6
CONTINUOUS
100
AcDbLine
 10
1.420999999998572
 20
0.6576825347481381
 30
0.0
 11
-0.0000000000000001
 21
2.07868253474671
 31
0.0
  0
LINE
  5
22D77
330
22D63
100
AcDbEntity
  8
0
  6
CONTINUOUS
100
AcDbLine
 10
1.420999999998571
 20
1.331201743828324
 30
0.0
 11
-0.0000000000000001
 21
2.752201743826896
 31
0.0
  0
LINE
  5
22D78
330
22D63
100
AcDbEntity
  8
0
  6
CONTINUOUS
100
AcDbLine
 10
1.420999999998571
 20
2.004720952908511
 30
0.0
 11
-0.0000000000000002
 21
3.425720952907082
 31
0.0
  0
LINE
  5
22D79
330
22D63
100
AcDbEntity
  8
0
  6
CONTINUOUS
100
AcDbLine
 10
1.420999999998571
 20
2.678240161988697
 30
0.0
 11
-0.0000000000000001
 21
4.099240161987269
 31
0.0
  0
LINE
  5
22D7A
330
22D63
100
AcDbEntity
  8
0
  6
CONTINUOUS
100
AcDbLine
 10
1.420999999998572
 20
3.351759371068884
 30
0.0
 11
0.0
 21
4.772759371067455
 31
0.0
  0
LINE
  5
22D7B
330
22D63
100
AcDbEntity
  8
0
  6
CONTINUOUS
100
AcDbLine
 10
1.420999999998571
 20
4.02527858014907
 30
0.0
 11
-0.0000000000000003
 21
5.446278580147642
 31
0.0
  0
LINE
  5
22D7C
330
22D63
100
AcDbEntity
  8
0
  6
CONTINUOUS
100
AcDbLine
 10
1.420999999998571
 20
4.698797789229257
 30
0.0
 11
0.0
 21
6.119797789227828
 31
0.0
  0
LINE
  5
22D7D
330
22D63
100
AcDbEntity
  8
0
  6
CONTINUOUS
100
AcDbLine
 10
1.420999999998571
 20
5.372316998309444
 30
0.0
 11
-0.0000000000000001
 21
6.793316998308015
 31
0.0
  0
LINE
  5
22D7E
330
22D63
100
AcDbEntity
  8
0
  6
CONTINUOUS
100
AcDbLine
 10
1.420999999998572
 20
6.045836207389629
 30
0.0
 11
-0.0000000000000004
 21
7.466836207388202
 31
0.0
  0
LINE
  5
22D7F
330
22D63
100
AcDbEntity
  8
0
  6
CONTINUOUS
100
AcDbLine
 10
1.420999999998571
 20
6.719355416469816
 30
0.0
 11
0.0
 21
8.140355416468388
 31
0.0
  0
LINE
  5
22D80
330
22D63
100
AcDbEntity
  8
0
  6
CONTINUOUS
100
AcDbLine
 10
1.420999999998571
 20
7.392874625550003
 30
0.0
 11
0.0507746255573185
 21
8.763099999991255
 31
0.0
  0
LINE
  5
22D81
330
22D63
100
AcDbEntity
  8
0
  6
CONTINUOUS
100
AcDbLine
 10
1.420999999998571
 20
8.06639383463019
 30
0.0
 11
0.7242938346375052
 21
8.763099999991255
 31
0.0
  0
LINE
  5
22D82
330
22D63
100
AcDbEntity
  8
0
  6
CONTINUOUS
100
AcDbLine
 10
1.420999999998571
 20
8.739913043710375
 30
0.0
 11
1.397813043717691
 21
8.763099999991255
 31
0.0
  0
ENDBLK
  5
22D8E
330
22D63
100
AcDbEntity
  8
0
100
AcDbBlockEnd
  0
ENDSEC
  0
SECTION
  2
ENTITIES
  0
LINE
  5
1D8CA
330
18
100
AcDbEntity
  8
01
100
AcDbLine
 10
826.8698837934124
 20
-679.8404999093121
 30
0.0
 11
826.8698837934124
 21
-701.9904999093136
 31
0.0
  0
LINE
  5
1D90A
330
18
100
AcDbEntity
  8
01
100
AcDbLine
 10
826.8698837934124
 20
-682.3404999093128
 30
0.0
 11
826.8698837934124
 21
-699.9904999093122
 31
0.0
  0
LINE
  5
1DBA4
102
{ACAD_REACTORS
330
1EDFD
102
}
330
18
100
AcDbEntity
  8
01
100
AcDbLine
 10
839.3698837934124
 20
-647.7623263240308
 30
0.0
 11
839.3698837934124
 21
-764.4832835461685
 31
0.0
  0
LINE
  5
1DBA5
102
{ACAD_REACTORS
330
1EDFD
102
}
330
18
100
AcDbEntity
  8
01
100
AcDbLine
 10
848.3698837934124
 20
-647.7623263240308
 30
0.0
 11
848.3698837934124
 21
-764.4832835461685
 31
0.0
  0
LINE
  5
1DBA6
102
{ACAD_REACTORS
330
1EDFD
102
}
330
18
100
AcDbEntity
  8
01
100
AcDbLine
 10
826.8698837934124
 20
-647.7623263240308
 30
0.0
 11
826.8698837934124
 21
-764.4832835461685
 31
0.0
  0
LINE
  5
1F823
330
18
100
AcDbEntity
  8
1DIM
100
AcDbLine
 10
696.4674818143865
 20
-434.0429532350872
 30
0.0
 11
906.4674818143865
 21
-434.0429532350872
 31
0.0
  0
LINE
  5
1F828
330
18
100
AcDbEntity
  8
1DIM
100
AcDbLine
 10
696.4674818143865
 20
-497.0429532350872
 30
0.0
 11
696.4674818143865
 21
-434.0429532350872
 31
0.0
  0
TEXT
  5
1F82A
330
18
100
AcDbEntity
  8
1TEXT
100
AcDbText
 10
696.4674818143865
 20
-419.0429532350872
 30
0.0
 40
24.0
  1
K-SE-084-A1-X
100
AcDbText
  0
TEXT
  5
1F830
330
18
100
AcDbEntity
  8
1TEXT
100
AcDbText
 10
823.2674818143854
 20
-450.5429532350872
 30
0.0
 40
12.0
  1
使用LED
 72
     1
 11
853.6674818143854
 21
-450.5429532350872
 31
0.0
100
AcDbText
  0
TEXT
  5
1F831
330
18
100
AcDbEntity
  8
1TEXT
100
AcDbText
 10
833.2674818143854
 20
-471.0488192136604
 30
0.0
 40
12.0
  1
昼光色
 72
     1
 11
853.6674818143854
 21
-471.0488192136604
 31
0.0
100
AcDbText
  0
LINE
  5
1F832
330
18
100
AcDbEntity
  8
1DIM
100
AcDbLine
 10
696.4674818143865
 20
-434.0429532350872
 30
0.0
 11
1011.467481814386
 21
-434.0429532350872
 31
0.0
  0
LINE
  5
1F833
330
18
100
AcDbEntity
  8
1DIM
100
AcDbLine
 10
801.4674818143865
 20
-476.0429532350872
 30
0.0
 11
1011.467481814386
 21
-476.0429532350872
 31
0.0
  0
LINE
  5
1F834
330
18
100
AcDbEntity
  8
1DIM
100
AcDbLine
 10
696.4674818143865
 20
-455.0429532350872
 30
0.0
 11
1011.467481814386
 21
-455.0429532350872
 31
0.0
  0
LINE
  5
1F835
330
18
100
AcDbEntity
  8
1DIM
100
AcDbLine
 10
696.4674818143865
 20
-497.0429532350872
 30
0.0
 11
1011.467481814386
 21
-497.0429532350872
 31
0.0
  0
LINE
  5
1F836
330
18
100
AcDbEntity
  8
1DIM
100
AcDbLine
 10
906.4674818143865
 20
-434.0429532350872
 30
0.0
 11
906.4674818143865
 21
-497.0429532350872
 31
0.0
  0
TEXT
  5
1F837
330
18
100
AcDbEntity
  8
1TEXT
100
AcDbText
 10
938.0674818143854
 20
-450.5429532350872
 30
0.0
 40
12.0
  1
コード
 72
     1
 11
958.6674818143854
 21
-450.5429532350872
 31
0.0
100
AcDbText
  0
LINE
  5
1F838
330
18
100
AcDbEntity
  8
1DIM
100
AcDbLine
 10
801.4674818143865
 20
-497.0429532350872
 30
0.0
 11
801.4674818143865
 21
-434.0429532350872
 31
0.0
  0
LINE
  5
1F839
330
18
100
AcDbEntity
  8
1DIM
100
AcDbLine
 10
1011.467481814386
 20
-497.0429532350872
 30
0.0
 11
1011.467481814386
 21
-434.0429532350872
 31
0.0
  0
TEXT
  5
1F83A
330
18
100
AcDbEntity
  8
1TEXT
100
AcDbText
 10
833.4674818143853
 20
-492.0488192136604
 30
0.0
 40
12.0
  1
温白色
 72
     1
 11
853.6674818143854
 21
-492.0488192136604
 31
0.0
100
AcDbText
  0
TEXT
  5
1F83B
330
18
100
AcDbEntity
  8
1TEXT
100
AcDbText
 10
706.8174818143854
 20
-450.5429532350872
 30
0.0
 40
12.0
  1
表面処理：カバー
 41
0.75
 72
     1
 11
748.6674818143854
 21
-450.5429532350872
 31
0.0
100
AcDbText
  0
TEXT
  5
1F83C
330
18
100
AcDbEntity
  8
1TEXT
100
AcDbText
 10
722.618745289918
 20
-482.0673501881394
 30
0.0
 40
12.0
  1
ホワイト
 72
     1
 11
749.418745289918
 21
-482.0673501881394
 31
0.0
100
AcDbText
  0
LINE
  5
1F83E
330
18
100
AcDbEntity
  8
1DIM
100
AcDbLine
 10
696.4674818143865
 20
-497.0429532350872
 30
0.0
 11
696.4674818143865
 21
-434.0429532350872
 31
0.0
  0
TEXT
  5
1F845
330
18
100
AcDbEntity
  8
1TEXT
100
AcDbText
 10
917.0379315412282
 20
-472.1860241860351
 30
0.0
 40
12.0
  1
K-SE-084-A1-067
 41
0.5
 72
     1
 11
959.0587648745616
 21
-472.1860241860351
 31
0.0
100
AcDbText
  0
TEXT
  5
1F846
330
18
100
AcDbEntity
  8
1TEXT
100
AcDbText
 10
912.9587648745616
 20
-493.1860241860351
 30
0.0
 40
12.0
  1
K-SE-084-A1-067-3
 41
0.48
 72
     1
 11
959.0587648745616
 21
-493.1860241860351
 31
0.0
100
AcDbText
  0
LINE
  5
20596
330
18
100
AcDbEntity
  8
1HIDDEN
100
AcDbLine
 10
694.8698837934124
 20
-665.2404999093111
 30
0.0
 11
826.8698837934124
 21
-665.2404999093111
 31
0.0
  0
LINE
  5
2059D
330
18
100
AcDbEntity
  8
1HIDDEN
100
AcDbLine
 10
826.8698837934124
 20
-665.2404999093111
 30
0.0
 11
826.8698837934124
 21
-681.2404999093111
 31
0.0
  0
LINE
  5
2059E
330
18
100
AcDbEntity
  8
1HIDDEN
100
AcDbLine
 10
30.18839407703683
 20
-665.2404999093112
 30
0.0
 11
630.1883940770368
 21
-665.2404999093112
 31
0.0
  0
LINE
  5
2059F
330
18
100
AcDbEntity
  8
1HIDDEN
100
AcDbLine
 10
30.18839407703683
 20
-681.2404999093112
 30
0.0
 11
629.1883940770367
 21
-681.2404999093112
 31
0.0
  0
LINE
  5
205A0
330
18
100
AcDbEntity
  8
1HIDDEN
100
AcDbLine
 10
630.1883940770367
 20
-407.0429532350865
 30
0.0
 11
30.18839407703649
 21
-407.0429532350865
 31
0.0
  0
LINE
  5
205A1
330
18
100
AcDbEntity
  8
1HIDDEN
100
AcDbLine
 10
630.1883940770367
 20
-539.042953235087
 30
0.0
 11
30.18839407703649
 21
-539.042953235087
 31
0.0
  0
LINE
  5
205A2
330
18
100
AcDbEntity
  8
1HIDDEN
100
AcDbLine
 10
30.18839407703649
 20
-539.042953235087
 30
0.0
 11
30.18839407703649
 21
-407.0429532350865
 31
0.0
  0
LINE
  5
205A3
330
18
100
AcDbEntity
  8
1HIDDEN
100
AcDbLine
 10
630.1883940770365
 20
-539.0429532350872
 30
0.0
 11
630.1883940770365
 21
-407.0429532350868
 31
0.0
  0
LINE
  5
205B0
330
18
100
AcDbEntity
  8
1HIDDEN
100
AcDbLine
 10
694.8698837934124
 20
-665.2404999093111
 30
0.0
 11
694.8698837934124
 21
-651.2404999093111
 31
0.0
  0
LINE
  5
205B1
330
18
100
AcDbEntity
  8
1HIDDEN
100
AcDbLine
 10
826.8698837934124
 20
-665.2404999093111
 30
0.0
 11
826.8698837934124
 21
-651.2404999093111
 31
0.0
  0
LINE
  5
205B2
330
18
100
AcDbEntity
  8
1HIDDEN
100
AcDbLine
 10
694.8698837934124
 20
-651.2404999093111
 30
0.0
 11
826.8698837934124
 21
-651.2404999093111
 31
0.0
  0
LINE
  5
205B3
330
18
100
AcDbEntity
  8
1HIDDEN
100
AcDbLine
 10
30.18839407703683
 20
-665.2404999093112
 30
0.0
 11
30.18839407703683
 21
-651.240499909311
 31
0.0
  0
LINE
  5
205B4
330
18
100
AcDbEntity
  8
1HIDDEN
100
AcDbLine
 10
630.1883940770368
 20
-665.2404999093112
 30
0.0
 11
630.1883940770368
 21
-651.2404999093112
 31
0.0
  0
LINE
  5
205B6
330
18
100
AcDbEntity
  8
1HIDDEN
100
AcDbLine
 10
630.1883940770368
 20
-651.2404999093112
 30
0.0
 11
30.18839407703672
 21
-651.2404999093112
 31
0.0
  0
LINE
  5
205B8
330
18
100
AcDbEntity
  8
1HIDDEN
100
AcDbLine
 10
826.8698837934124
 20
-735.2404999093111
 30
0.0
 11
810.8698837934124
 21
-735.2404999093111
 31
0.0
  0
LINE
  5
205BB
330
18
100
AcDbEntity
  8
1HIDDEN
100
AcDbLine
 10
30.18839407703683
 20
-681.2404999093112
 30
0.0
 11
629.1883940770367
 21
-681.2404999093112
 31
0.0
  0
LINE
  5
205CB
330
18
100
AcDbEntity
  8
1HIDDEN
100
AcDbLine
 10
488.1883940770368
 20
-719.2404999093111
 30
0.0
 11
488.1883940770368
 21
-681.2404999093111
 31
0.0
  0
LINE
  5
205CE
330
18
100
AcDbEntity
  8
1HIDDEN
100
AcDbLine
 10
338.1883940770366
 20
-719.2404999093112
 30
0.0
 11
472.1883940770368
 21
-719.2404999093112
 31
0.0
  0
LINE
  5
205CF
330
18
100
AcDbEntity
  8
1HIDDEN
100
AcDbLine
 10
330.1883940770371
 20
-719.2404999093111
 30
0.0
 11
472.1883940770368
 21
-719.2404999093111
 31
0.0
  0
LINE
  5
205D7
330
18
100
AcDbEntity
  8
1HIDDEN
100
AcDbLine
 10
172.1883940770373
 20
-719.2404999093111
 30
0.0
 11
172.1883940770373
 21
-681.2404999093111
 31
0.0
  0
LINE
  5
205DA
330
18
100
AcDbEntity
  8
1HIDDEN
100
AcDbLine
 10
322.1883940770371
 20
-719.240499909311
 30
0.0
 11
188.1883940770373
 21
-719.240499909311
 31
0.0
  0
LINE
  5
205DB
330
18
100
AcDbEntity
  8
1HIDDEN
100
AcDbLine
 10
330.1883940770371
 20
-719.2404999093111
 30
0.0
 11
188.1883940770373
 21
-719.2404999093111
 31
0.0
  0
LINE
  5
205E3
330
18
100
AcDbEntity
  8
1HIDDEN
100
AcDbLine
 10
176.8133476959732
 20
-700.2404706794496
 30
0.0
 11
183.5633476959732
 21
-700.2404706794496
 31
0.0
  0
LINE
  5
205E4
330
18
100
AcDbEntity
  8
1HIDDEN
100
AcDbLine
 10
180.1883476959732
 20
-703.6154706794496
 30
0.0
 11
180.1883476959732
 21
-696.8654706794496
 31
0.0
  0
LINE
  5
205E5
330
18
100
AcDbEntity
  8
1HIDDEN
100
AcDbLine
 10
476.8133476959732
 20
-700.2404706794496
 30
0.0
 11
483.5633476959732
 21
-700.2404706794496
 31
0.0
  0
LINE
  5
205E6
330
18
100
AcDbEntity
  8
1HIDDEN
100
AcDbLine
 10
480.1883476959732
 20
-703.6154706794496
 30
0.0
 11
480.1883476959732
 21
-696.8654706794496
 31
0.0
  0
LINE
  5
211B9
330
18
100
AcDbEntity
  8
01
100
AcDbLine
 10
740.1698837934122
 20
-665.2404999093111
 30
0.0
 11
740.1698837934122
 21
-680.0404999093113
 31
0.0
  0
LINE
  5
211BA
330
18
100
AcDbEntity
  8
01
100
AcDbLine
 10
780.1698837934124
 20
-665.2404999093111
 30
0.0
 11
780.1698837934124
 21
-675.0404999093113
 31
0.0
  0
LINE
  5
211BB
330
18
100
AcDbEntity
  8
01
100
AcDbLine
 10
740.1698837934122
 20
-665.2404999093111
 30
0.0
 11
780.1698837934124
 21
-665.2404999093111
 31
0.0
  0
LINE
  5
211BC
330
18
100
AcDbEntity
  8
01
100
AcDbLine
 10
740.1698837934122
 20
-680.0404999093113
 30
0.0
 11
775.1698837934124
 21
-680.0404999093113
 31
0.0
  0
ARC
  5
211BD
330
18
100
AcDbEntity
  8
01
100
AcDbCircle
 10
775.1698837934124
 20
-675.0404999093113
 30
0.0
 40
5.0
100
AcDbArc
 50
270.0
 51
0.0
  0
LINE
  5
211C8
330
18
100
AcDbEntity
  8
01
100
AcDbLine
 10
745.9277343778964
 20
-678.0404999093113
 30
0.0
 11
753.919912378048
 21
-678.0404999093113
 31
0.0
  0
LINE
  5
21480
330
18
100
AcDbEntity
  8
1DIM
100
AcDbLine
 10
696.4674818143865
 20
-539.0429532350872
 30
0.0
 11
696.4674818143865
 21
-497.0429532350872
 31
0.0
  0
TEXT
  5
21481
330
18
100
AcDbEntity
  8
1TEXT
100
AcDbText
 10
833.2674818143854
 20
-513.0488192136604
 30
0.0
 40
12.0
  1
昼光色
 72
     1
 11
853.6674818143854
 21
-513.0488192136604
 31
0.0
100
AcDbText
  0
LINE
  5
21482
330
18
100
AcDbEntity
  8
1DIM
100
AcDbLine
 10
801.4674818143865
 20
-518.0429532350872
 30
0.0
 11
1011.467481814386
 21
-518.0429532350872
 31
0.0
  0
LINE
  5
21483
330
18
100
AcDbEntity
  8
1DIM
100
AcDbLine
 10
696.4674818143865
 20
-497.0429532350872
 30
0.0
 11
1011.467481814386
 21
-497.0429532350872
 31
0.0
  0
LINE
  5
21484
330
18
100
AcDbEntity
  8
1DIM
100
AcDbLine
 10
696.4674818143865
 20
-539.0429532350872
 30
0.0
 11
1011.467481814386
 21
-539.0429532350872
 31
0.0
  0
LINE
  5
21485
330
18
100
AcDbEntity
  8
1DIM
100
AcDbLine
 10
906.4674818143865
 20
-497.0429532350872
 30
0.0
 11
906.4674818143865
 21
-539.0429532350872
 31
0.0
  0
LINE
  5
21486
330
18
100
AcDbEntity
  8
1DIM
100
AcDbLine
 10
801.4674818143865
 20
-539.0429532350872
 30
0.0
 11
801.4674818143865
 21
-497.0429532350872
 31
0.0
  0
LINE
  5
21487
330
18
100
AcDbEntity
  8
1DIM
100
AcDbLine
 10
1011.467481814386
 20
-539.0429532350872
 30
0.0
 11
1011.467481814386
 21
-497.0429532350872
 31
0.0
  0
TEXT
  5
21488
330
18
100
AcDbEntity
  8
1TEXT
100
AcDbText
 10
833.4674818143853
 20
-534.0488192136604
 30
0.0
 40
12.0
  1
温白色
 72
     1
 11
853.6674818143854
 21
-534.0488192136604
 31
0.0
100
AcDbText
  0
TEXT
  5
21489
330
18
100
AcDbEntity
  8
1TEXT
100
AcDbText
 10
722.418745289918
 20
-524.0673501881394
 30
0.0
 40
12.0
  1
ブラック
 72
     1
 11
749.418745289918
 21
-524.0673501881394
 31
0.0
100
AcDbText
  0
LINE
  5
2148A
330
18
100
AcDbEntity
  8
1DIM
100
AcDbLine
 10
696.4674818143865
 20
-539.0429532350872
 30
0.0
 11
696.4674818143865
 21
-497.0429532350872
 31
0.0
  0
TEXT
  5
2148B
330
18
100
AcDbEntity
  8
1TEXT
100
AcDbText
 10
917.0379315412282
 20
-514.1860241860351
 30
0.0
 40
12.0
  1
K-SE-084-A1-068
 41
0.5
 72
     1
 11
959.0587648745616
 21
-514.1860241860351
 31
0.0
100
AcDbText
  0
TEXT
  5
2148C
330
18
100
AcDbEntity
  8
1TEXT
100
AcDbText
 10
912.9587648745616
 20
-535.1860241860351
 30
0.0
 40
12.0
  1
K-SE-084-A1-068-3
 41
0.48
 72
     1
 11
959.0587648745616
 21
-535.1860241860351
 31
0.0
100
AcDbText
  0
LINE
  5
2159A
330
18
100
AcDbEntity
  8
01
100
AcDbLine
 10
331.4383940770366
 20
-407.0429532350865
 30
0.0
 11
331.4383940770366
 21
-443.1851194015816
 31
0.0
  0
LINE
  5
2159B
330
18
100
AcDbEntity
  8
01
100
AcDbLine
 10
328.9383940770439
 20
-407.0429532350865
 30
0.0
 11
328.9383940770439
 21
-443.1851194015816
 31
0.0
  0
LINE
  5
216A6
330
18
100
AcDbEntity
  8
01
100
AcDbLine
 10
534.1883940770366
 20
-453.7429532350865
 30
0.0
 11
534.1883940770366
 21
-493.7429532350865
 31
0.0
  0
LINE
  5
216A7
330
18
100
AcDbEntity
  8
01
100
AcDbLine
 10
534.1883940770371
 20
-493.7429532350865
 30
0.0
 11
126.1883940770365
 21
-493.7429532350865
 31
0.0
  0
LINE
  5
216A8
330
18
100
AcDbEntity
  8
01
100
AcDbLine
 10
534.1883940770366
 20
-453.7429532350865
 30
0.0
 11
126.188394077037
 21
-453.7429532350865
 31
0.0
  0
LINE
  5
216A9
330
18
100
AcDbEntity
  8
01
100
AcDbLine
 10
126.188394077037
 20
-453.7429532350865
 30
0.0
 11
126.1883940770365
 21
-493.7429532350865
 31
0.0
  0
LINE
  5
216AA
330
18
100
AcDbEntity
  8
01
100
AcDbLine
 10
534.1883940770366
 20
-493.7429532350865
 30
0.0
 11
534.1883940770366
 21
-453.7429532350865
 31
0.0
  0
LINE
  5
216AB
330
18
100
AcDbEntity
  8
01
100
AcDbLine
 10
534.1883940770366
 20
-453.7429532350865
 30
0.0
 11
126.1883940770365
 21
-453.7429532350865
 31
0.0
  0
LINE
  5
216AC
330
18
100
AcDbEntity
  8
01
100
AcDbLine
 10
534.1883940770371
 20
-493.7429532350865
 30
0.0
 11
126.188394077037
 21
-493.7429532350865
 31
0.0
  0
LINE
  5
216AD
330
18
100
AcDbEntity
  8
01
100
AcDbLine
 10
126.188394077037
 20
-493.7429532350865
 30
0.0
 11
126.1883940770365
 21
-453.7429532350865
 31
0.0
  0
LINE
  5
216AE
330
18
100
AcDbEntity
  8
1CENTER
100
AcDbLine
 10
514.6055788856071
 20
-463.4429301584448
 30
0.0
 11
530.5712788856071
 21
-463.4429301584448
 31
0.0
  0
LINE
  5
216AF
330
18
100
AcDbEntity
  8
1CENTER
100
AcDbLine
 10
522.5883788856071
 20
-455.4601301584448
 30
0.0
 11
522.5883788856071
 21
-471.4258301584447
 31
0.0
  0
LINE
  5
216B0
330
18
100
AcDbEntity
  8
1CENTER
100
AcDbLine
 10
145.7712716477354
 20
-463.4429301584448
 30
0.0
 11
129.8055716477355
 21
-463.4429301584448
 31
0.0
  0
LINE
  5
216B1
330
18
100
AcDbEntity
  8
1CENTER
100
AcDbLine
 10
137.7884716477354
 20
-455.4601301584448
 30
0.0
 11
137.7884716477354
 21
-471.4258301584447
 31
0.0
  0
LINE
  5
216B2
330
18
100
AcDbEntity
  8
1CENTER
100
AcDbLine
 10
145.7712716477354
 20
-463.4429301584448
 30
0.0
 11
129.8055716477355
 21
-463.4429301584448
 31
0.0
  0
LINE
  5
216B3
330
18
100
AcDbEntity
  8
1CENTER
100
AcDbLine
 10
137.7884716477354
 20
-455.4601301584448
 30
0.0
 11
137.7884716477354
 21
-471.4258301584447
 31
0.0
  0
LINE
  5
216BD
330
18
100
AcDbEntity
  8
1CENTER
100
AcDbLine
 10
145.7712092684661
 20
-463.4429301584448
 30
0.0
 11
129.8055092684661
 21
-463.4429301584448
 31
0.0
  0
LINE
  5
216C2
330
18
100
AcDbEntity
  8
01
100
AcDbLine
 10
534.1883940770371
 20
-493.7429532350819
 30
0.0
 11
534.1883940770366
 21
-453.7429532350819
 31
0.0
  0
LINE
  5
2171A
330
18
100
AcDbEntity
  8
1CENTER
100
AcDbLine
 10
330.1883940770368
 20
-654.0814210446086
 30
0.0
 11
330.1883940770368
 21
-696.5521610526122
 31
0.0
  0
LINE
  5
2171B
330
18
100
AcDbEntity
  8
01
100
AcDbLine
 10
534.1883940770368
 20
-665.2404999093112
 30
0.0
 11
534.1883940770368
 21
-680.0404999093112
 31
0.0
  0
LINE
  5
2171D
330
18
100
AcDbEntity
  8
01
100
AcDbLine
 10
534.1883940770368
 20
-665.2404999093112
 30
0.0
 11
126.1883940770372
 21
-665.2404999093112
 31
0.0
  0
LINE
  5
2171E
330
18
100
AcDbEntity
  8
01
100
AcDbLine
 10
126.1883940770372
 20
-665.2404999093112
 30
0.0
 11
126.1883940770371
 21
-680.0404999093112
 31
0.0
  0
LINE
  5
2171F
330
18
100
AcDbEntity
  8
01
100
AcDbLine
 10
534.1883940770368
 20
-680.0404999093112
 30
0.0
 11
534.1883940770368
 21
-665.2404999093112
 31
0.0
  0
LINE
  5
21720
330
18
100
AcDbEntity
  8
01
100
AcDbLine
 10
534.1883940770368
 20
-665.2404999093112
 30
0.0
 11
126.1883940770367
 21
-665.2404999093112
 31
0.0
  0
LINE
  5
21722
330
18
100
AcDbEntity
  8
01
100
AcDbLine
 10
126.1883940770368
 20
-680.0404999093112
 30
0.0
 11
126.1883940770367
 21
-665.2404999093112
 31
0.0
  0
LINE
  5
2172B
330
18
100
AcDbEntity
  8
01
100
AcDbLine
 10
534.1883940770371
 20
-680.0404999093112
 30
0.0
 11
534.1883940770368
 21
-665.2404999093065
 31
0.0
  0
LINE
  5
2172C
330
18
100
AcDbEntity
  8
01
100
AcDbLine
 10
534.1883940770368
 20
-680.0404999093112
 30
0.0
 11
126.1883940770367
 21
-680.0404999093112
 31
0.0
  0
LINE
  5
21829
330
18
100
AcDbEntity
  8
1HIDDEN
100
AcDbLine
 10
630.1883940770367
 20
-423.0429532350865
 30
0.0
 11
30.18839407703649
 21
-423.0429532350865
 31
0.0
  0
LINE
  5
21861
330
18
100
AcDbEntity
  8
01
100
AcDbLine
 10
534.1883940770375
 20
-421.0429532350865
 30
0.0
 11
534.1883940770375
 21
-422.5429532350865
 31
0.0
  0
LINE
  5
21862
330
18
100
AcDbEntity
  8
01
100
AcDbLine
 10
126.1883940770379
 20
-421.0429532350865
 30
0.0
 11
126.1883940770378
 21
-422.5429532350865
 31
0.0
  0
LINE
  5
21863
330
18
100
AcDbEntity
  8
01
100
AcDbLine
 10
534.1883940770375
 20
-422.5429532350865
 30
0.0
 11
534.1883940770375
 21
-421.0429532350865
 31
0.0
  0
LINE
  5
21864
330
18
100
AcDbEntity
  8
01
100
AcDbLine
 10
534.1883940770375
 20
-421.0429532350865
 30
0.0
 11
126.1883940770374
 21
-421.0429532350865
 31
0.0
  0
LINE
  5
21865
330
18
100
AcDbEntity
  8
01
100
AcDbLine
 10
126.1883940770374
 20
-422.5429532350865
 30
0.0
 11
126.1883940770374
 21
-421.0429532350865
 31
0.0
  0
LINE
  5
21866
330
18
100
AcDbEntity
  8
01
100
AcDbLine
 10
534.1883940770375
 20
-422.5429532350865
 30
0.0
 11
534.1883940770375
 21
-421.0429532350819
 31
0.0
  0
LINE
  5
21867
330
18
100
AcDbEntity
  8
01
100
AcDbLine
 10
534.1883940770375
 20
-422.5429532350865
 30
0.0
 11
126.1883940770374
 21
-422.5429532350865
 31
0.0
  0
ARC
  5
219F4
330
18
100
AcDbEntity
  8
01
  6
CONTINUOUS
100
AcDbCircle
 10
324.9017790725095
 20
-443.1851194015816
 30
0.0
 40
4.036615004534383
100
AcDbArc
 50
270.0
 51
0.0
  0
LINE
  5
219F5
330
18
100
AcDbEntity
  8
01
  6
CONTINUOUS
100
AcDbLine
 10
324.9017790725095
 20
-447.221734406116
 30
0.0
 11
319.9883440770413
 21
-447.221734406116
 31
0.0
  0
LINE
  5
219FF
330
18
100
AcDbEntity
  8
01
  6
CONTINUOUS
100
AcDbLine
 10
196.3905630409412
 20
-449.425772297316
 30
0.0
 11
310.3883440770414
 21
-449.425772297316
 31
0.0
  0
ARC
  5
21A00
330
18
100
AcDbEntity
  8
01
  6
CONTINUOUS
100
AcDbCircle
 10
325.1977411813021
 20
-443.1851194015816
 30
0.0
 40
6.240652895734456
100
AcDbArc
 50
270.0
 51
0.0
  0
LINE
  5
21B94
330
18
100
AcDbEntity
  8
1CENTER
100
AcDbLine
 10
141.9133592684718
 20
-437.0429032350842
 30
0.0
 11
133.6633592684718
 21
-437.0429032350842
 31
0.0
  0
LINE
  5
21B95
330
18
100
AcDbEntity
  8
1CENTER
100
AcDbLine
 10
137.7883592684718
 20
-441.1679032350842
 30
0.0
 11
137.7883592684718
 21
-432.9179032350842
 31
0.0
  0
LINE
  5
21B96
330
18
100
AcDbEntity
  8
1CENTER
100
AcDbLine
 10
133.6633592684718
 20
-437.0429032350842
 30
0.0
 11
141.9133592684718
 21
-437.0429032350842
 31
0.0
  0
LINE
  5
21B97
330
18
100
AcDbEntity
  8
1CENTER
100
AcDbLine
 10
137.7883592684718
 20
-432.9179032350842
 30
0.0
 11
137.7883592684718
 21
-441.1679032350842
 31
0.0
  0
LINE
  5
21B98
330
18
100
AcDbEntity
  8
1CENTER
100
AcDbLine
 10
319.313294077039
 20
-437.0429032350842
 30
0.0
 11
311.063294077039
 21
-437.0429032350842
 31
0.0
  0
LINE
  5
21B99
330
18
100
AcDbEntity
  8
1CENTER
100
AcDbLine
 10
315.188294077039
 20
-441.1679032350842
 30
0.0
 11
315.188294077039
 21
-432.9179032350842
 31
0.0
  0
LINE
  5
21B9A
330
18
100
AcDbEntity
  8
1CENTER
100
AcDbLine
 10
311.063294077039
 20
-437.0429032350842
 30
0.0
 11
319.313294077039
 21
-437.0429032350842
 31
0.0
  0
LINE
  5
21B9B
330
18
100
AcDbEntity
  8
1CENTER
100
AcDbLine
 10
315.188294077039
 20
-432.9179032350842
 30
0.0
 11
315.188294077039
 21
-441.1679032350842
 31
0.0
  0
LINE
  5
21BAA
330
18
100
AcDbEntity
  8
1CENTER
100
AcDbLine
 10
145.7712092684721
 20
-437.0429032350842
 30
0.0
 11
129.8055092684751
 21
-437.0429032350842
 31
0.0
  0
LINE
  5
21BAB
330
18
100
AcDbEntity
  8
1CENTER
100
AcDbLine
 10
137.7884092684742
 20
-429.0601032350862
 30
0.0
 11
137.7884092684742
 21
-445.0258032350869
 31
0.0
  0
LINE
  5
21BAC
330
18
100
AcDbEntity
  8
1CENTER
100
AcDbLine
 10
323.1711440770393
 20
-437.0429032350842
 30
0.0
 11
307.2054440770423
 21
-437.0429032350842
 31
0.0
  0
LINE
  5
21BAD
330
18
100
AcDbEntity
  8
1CENTER
100
AcDbLine
 10
315.1883440770414
 20
-429.0601032350862
 30
0.0
 11
315.1883440770414
 21
-445.0258032350869
 31
0.0
  0
LINE
  5
21C03
330
18
100
AcDbEntity
  8
1CENTER
100
AcDbLine
 10
30.18839407703649
 20
-519.9165976584011
 30
0.0
 11
30.18839407703649
 21
-407.0429532350865
 31
0.0
  0
LINE
  5
21C05
330
18
100
AcDbEntity
  8
1CENTER
100
AcDbLine
 10
311.0633440770414
 20
-437.0429532350865
 30
0.0
 11
319.3133440770414
 21
-437.0429532350865
 31
0.0
  0
LINE
  5
21C06
330
18
100
AcDbEntity
  8
1CENTER
100
AcDbLine
 10
315.1883440770414
 20
-441.1679532350865
 30
0.0
 11
315.1883440770414
 21
-432.9179532350865
 31
0.0
  0
LINE
  5
21C07
330
18
100
AcDbEntity
  8
1CENTER
100
AcDbLine
 10
319.3133440770414
 20
-437.0429532350865
 30
0.0
 11
311.0633440770414
 21
-437.0429532350865
 31
0.0
  0
LINE
  5
21C08
330
18
100
AcDbEntity
  8
1CENTER
100
AcDbLine
 10
315.1883440770414
 20
-432.9179532350865
 30
0.0
 11
315.1883440770414
 21
-441.1679532350865
 31
0.0
  0
LINE
  5
21C09
330
18
100
AcDbEntity
  8
1DIM
100
AcDbLine
 10
319.9883440770413
 20
-442.5136815029986
 30
0.0
 11
310.3883440770414
 21
-442.5136815029986
 31
0.0
  0
LINE
  5
21C0A
330
18
100
AcDbEntity
  8
01
100
AcDbLine
 10
310.3883440770414
 20
-451.6929532350866
 30
0.0
 11
319.9883440770413
 21
-451.6929532350866
 31
0.0
  0
LINE
  5
21C0B
330
18
100
AcDbEntity
  8
01
100
AcDbLine
 10
319.9883440770413
 20
-433.8423122446471
 30
0.0
 11
319.9883440770413
 21
-451.6929532350866
 31
0.0
  0
LINE
  5
21C0C
330
18
100
AcDbEntity
  8
01
100
AcDbLine
 10
310.3883440770414
 20
-433.8423122446471
 30
0.0
 11
310.3883440770414
 21
-451.6929532350866
 31
0.0
  0
CIRCLE
  5
21C0D
330
18
100
AcDbEntity
  8
01
100
AcDbCircle
 10
315.1883440770414
 20
-437.0429532350865
 30
0.0
 40
2.15
  0
ARC
  5
21C0E
330
18
100
AcDbEntity
  8
01
100
AcDbCircle
 10
315.1883440770414
 20
-436.2735661859672
 30
0.0
 40
5.380612950880589
100
AcDbArc
 50
26.86272635335148
 51
153.1372736466485
  0
LINE
  5
21C51
330
18
100
AcDbEntity
  8
1CENTER
100
AcDbLine
 10
133.6634092684742
 20
-437.0429532350865
 30
0.0
 11
141.9134092684742
 21
-437.0429532350865
 31
0.0
  0
LINE
  5
21C52
330
18
100
AcDbEntity
  8
1CENTER
100
AcDbLine
 10
137.7884092684742
 20
-441.1679532350865
 30
0.0
 11
137.7884092684742
 21
-432.9179532350865
 31
0.0
  0
LINE
  5
21C53
330
18
100
AcDbEntity
  8
1CENTER
100
AcDbLine
 10
141.9134092684742
 20
-437.0429532350865
 30
0.0
 11
133.6634092684742
 21
-437.0429532350865
 31
0.0
  0
LINE
  5
21C54
330
18
100
AcDbEntity
  8
1CENTER
100
AcDbLine
 10
137.7884092684742
 20
-432.9179532350865
 30
0.0
 11
137.7884092684742
 21
-441.1679532350865
 31
0.0
  0
LINE
  5
21C55
330
18
100
AcDbEntity
  8
1DIM
100
AcDbLine
 10
142.5884092684742
 20
-442.5136815029986
 30
0.0
 11
132.9884092684742
 21
-442.5136815029986
 31
0.0
  0
LINE
  5
21C56
330
18
100
AcDbEntity
  8
01
100
AcDbLine
 10
132.9884092684742
 20
-451.6929532350866
 30
0.0
 11
142.5884092684742
 21
-451.6929532350866
 31
0.0
  0
LINE
  5
21C57
330
18
100
AcDbEntity
  8
01
100
AcDbLine
 10
142.5884092684742
 20
-433.8423122446471
 30
0.0
 11
142.5884092684742
 21
-451.6929532350866
 31
0.0
  0
LINE
  5
21C58
330
18
100
AcDbEntity
  8
01
100
AcDbLine
 10
132.9884092684742
 20
-433.8423122446471
 30
0.0
 11
132.9884092684742
 21
-451.6929532350866
 31
0.0
  0
CIRCLE
  5
21C59
330
18
100
AcDbEntity
  8
01
100
AcDbCircle
 10
137.7884092684742
 20
-437.0429532350865
 30
0.0
 40
2.15
  0
ARC
  5
21C5A
330
18
100
AcDbEntity
  8
01
100
AcDbCircle
 10
137.7884092684742
 20
-436.2735661859672
 30
0.0
 40
5.380612950880589
100
AcDbArc
 50
26.86272635335148
 51
153.1372736466484
  0
LINE
  5
21C92
330
18
100
AcDbEntity
  8
01
100
AcDbLine
 10
122.2621888506187
 20
-457.015788617499
 30
0.0
 11
122.2621888506187
 21
-453.4623873018504
 31
0.0
  0
ARC
  5
21C94
330
18
100
AcDbEntity
  8
01
  6
CONTINUOUS
100
AcDbCircle
 10
128.7988038551458
 20
-453.4623873018504
 30
0.0
 40
4.036615004534383
100
AcDbArc
 50
90.0
 51
180.0
  0
LINE
  5
21C95
330
18
100
AcDbEntity
  8
01
  6
CONTINUOUS
100
AcDbLine
 10
128.7988038551458
 20
-449.425772297316
 30
0.0
 11
132.9884092684742
 21
-449.425772297316
 31
0.0
  0
LINE
  5
21C96
330
18
100
AcDbEntity
  8
01
  6
CONTINUOUS
100
AcDbLine
 10
257.3100198867141
 20
-447.221734406116
 30
0.0
 11
142.5884092684742
 21
-447.221734406116
 31
0.0
  0
ARC
  5
21C97
330
18
100
AcDbEntity
  8
01
  6
CONTINUOUS
100
AcDbCircle
 10
128.5028417463532
 20
-453.4623873018504
 30
0.0
 40
6.240652895734456
100
AcDbArc
 50
90.0
 51
180.0
  0
ARC
  5
21CC8
330
18
100
AcDbEntity
  8
01
  6
CONTINUOUS
100
AcDbCircle
 10
128.7988038551458
 20
-457.015788617499
 30
0.0
 40
4.036615004534383
100
AcDbArc
 50
180.0
 51
229.7080311094892
  0
ARC
  5
21CC9
330
18
100
AcDbEntity
  8
01
  6
CONTINUOUS
100
AcDbCircle
 10
128.5028417463532
 20
-457.015788617499
 30
0.0
 40
6.240652895734456
100
AcDbArc
 50
180.0
 51
248.2309476105085
  0
LINE
  5
21CCA
330
18
100
AcDbEntity
  8
01
100
AcDbLine
 10
124.7621888506115
 20
-457.015788617499
 30
0.0
 11
124.7621888506115
 21
-453.4623873018504
 31
0.0
  0
LINE
  5
21CCB
330
18
100
AcDbEntity
  8
01
  6
CONTINUOUS
100
AcDbLine
 10
142.5884092684742
 20
-449.425772297316
 30
0.0
 11
257.3100198867141
 21
-449.425772297316
 31
0.0
  0
LINE
  5
21CCC
330
18
100
AcDbEntity
  8
01
  6
CONTINUOUS
100
AcDbLine
 10
132.9884092684742
 20
-447.221734406116
 30
0.0
 11
128.5028417463532
 21
-447.221734406116
 31
0.0
  0
LINE
  5
21CCD
330
18
100
AcDbEntity
  8
01
  6
CONTINUOUS
100
AcDbLine
 10
310.3883440770414
 20
-447.221734406116
 30
0.0
 11
196.3905630409412
 21
-447.221734406116
 31
0.0
  0
LINE
  5
21CCE
330
18
100
AcDbEntity
  8
01
  6
CONTINUOUS
100
AcDbLine
 10
319.9883440770413
 20
-449.425772297316
 30
0.0
 11
325.1977411813021
 21
-449.425772297316
 31
0.0
  0
ARC
  5
2205C
330
18
100
AcDbEntity
  8
01
100
AcDbCircle
 10
330.1883940770366
 20
-407.0429532350865
 30
0.0
 40
1.25
100
AcDbArc
 50
0.0
 51
180.0
  0
LINE
  5
222B9
330
18
100
AcDbEntity
  8
1HIDDEN
100
AcDbLine
 10
695.8698837934124
 20
-681.2404999093111
 30
0.0
 11
760.8698837934124
 21
-681.2404999093111
 31
0.0
  0
LINE
  5
222BB
330
18
100
AcDbEntity
  8
1HIDDEN
100
AcDbLine
 10
810.8698837934124
 20
-681.2404999093111
 30
0.0
 11
760.8698837934124
 21
-681.2404999093111
 31
0.0
  0
LINE
  5
222C0
330
18
100
AcDbEntity
  8
1HIDDEN
100
AcDbLine
 10
31.18839407703683
 20
-681.2404999093112
 30
0.0
 11
629.1883940770364
 21
-681.2404999093112
 31
0.0
  0
LINE
  5
222CB
330
18
100
AcDbEntity
  8
1HIDDEN
100
AcDbLine
 10
826.8698837934124
 20
-735.2404999093111
 30
0.0
 11
810.8698837934124
 21
-735.2404999093111
 31
0.0
  0
LINE
  5
222CC
330
18
100
AcDbEntity
  8
1HIDDEN
100
AcDbLine
 10
31.18839407703683
 20
-735.2404999093112
 30
0.0
 11
629.1883940770364
 21
-735.2404999093112
 31
0.0
  0
LINE
  5
222CD
330
18
100
AcDbEntity
  8
1HIDDEN
100
AcDbLine
 10
31.18839407703683
 20
-681.2404999093112
 30
0.0
 11
629.1883940770364
 21
-681.2404999093112
 31
0.0
  0
LINE
  5
222CE
330
18
100
AcDbEntity
  8
1HIDDEN
100
AcDbLine
 10
31.18839407703683
 20
-735.2404999093112
 30
0.0
 11
629.1883940770364
 21
-735.2404999093112
 31
0.0
  0
LINE
  5
222CF
330
18
100
AcDbEntity
  8
1HIDDEN
100
AcDbLine
 10
31.18839407703683
 20
-735.2404999093112
 30
0.0
 11
629.1883940770364
 21
-735.2404999093112
 31
0.0
  0
LINE
  5
222D0
330
18
100
AcDbEntity
  8
1HIDDEN
100
AcDbLine
 10
31.18839407703683
 20
-735.2404999093112
 30
0.0
 11
629.1883940770359
 21
-735.2404999093112
 31
0.0
  0
LINE
  5
222D1
330
18
100
AcDbEntity
  8
1HIDDEN
100
AcDbLine
 10
31.18839407703683
 20
-735.2404999093112
 30
0.0
 11
629.1883940770359
 21
-735.2404999093112
 31
0.0
  0
LINE
  5
222D2
330
18
100
AcDbEntity
  8
1HIDDEN
100
AcDbLine
 10
31.18839407703683
 20
-735.2404999093112
 30
0.0
 11
629.1883940770359
 21
-735.2404999093112
 31
0.0
  0
LINE
  5
222DB
330
18
100
AcDbEntity
  8
1HIDDEN
100
AcDbLine
 10
695.8698837934124
 20
-665.2404999093111
 30
0.0
 11
695.8698837934124
 21
-681.2404999093111
 31
0.0
  0
LINE
  5
222E0
330
18
100
AcDbEntity
  8
01
100
AcDbLine
 10
812.0698837934123
 20
-718.7404999093111
 30
0.0
 11
811.2698837934121
 21
-718.7404999093111
 31
0.0
  0
LINE
  5
222E1
330
18
100
AcDbEntity
  8
01
100
AcDbLine
 10
812.0698837934123
 20
-681.7404999093111
 30
0.0
 11
811.2698837934121
 21
-681.7404999093111
 31
0.0
  0
LINE
  5
222E3
330
18
100
AcDbEntity
  8
1HIDDEN
100
AcDbLine
 10
695.8698837934124
 20
-681.2404999093111
 30
0.0
 11
760.8698837934124
 21
-681.2404999093111
 31
0.0
  0
LINE
  5
222E4
330
18
100
AcDbEntity
  8
1HIDDEN
100
AcDbLine
 10
810.8698837934124
 20
-681.2404999093111
 30
0.0
 11
760.8698837934124
 21
-681.2404999093111
 31
0.0
  0
LINE
  5
222E5
330
18
100
AcDbEntity
  8
1HIDDEN
100
AcDbLine
 10
826.8698837934124
 20
-735.2404999093111
 30
0.0
 11
810.8698837934124
 21
-735.2404999093111
 31
0.0
  0
LINE
  5
222E6
330
18
100
AcDbEntity
  8
1HIDDEN
100
AcDbLine
 10
812.8698837934124
 20
-681.2404999093111
 30
0.0
 11
760.8698837934124
 21
-681.2404999093111
 31
0.0
  0
LINE
  5
222E7
330
18
100
AcDbEntity
  8
1HIDDEN
100
AcDbLine
 10
810.8698837934124
 20
-735.2404999093111
 30
0.0
 11
810.8698837934124
 21
-719.2404999093111
 31
0.0
  0
LINE
  5
222E8
330
18
100
AcDbEntity
  8
1HIDDEN
100
AcDbLine
 10
826.8698837934124
 20
-719.2404999093111
 30
0.0
 11
810.8698837934124
 21
-719.2404999093111
 31
0.0
  0
LINE
  5
222FB
330
18
100
AcDbEntity
  8
1HIDDEN
100
AcDbLine
 10
330.1883940770368
 20
-735.2404999093112
 30
0.0
 11
629.1883940770367
 21
-735.2404999093112
 31
0.0
  0
LINE
  5
222FC
330
18
100
AcDbEntity
  8
1HIDDEN
100
AcDbLine
 10
613.1883940770367
 20
-719.2404999093112
 30
0.0
 11
613.1883940770367
 21
-681.2404999093112
 31
0.0
  0
LINE
  5
222FD
330
18
100
AcDbEntity
  8
1HIDDEN
100
AcDbLine
 10
330.1883940770368
 20
-735.2404999093112
 30
0.0
 11
629.1883940770367
 21
-735.2404999093112
 31
0.0
  0
LINE
  5
222FE
330
18
100
AcDbEntity
  8
1HIDDEN
100
AcDbLine
 10
330.1883940770368
 20
-735.2404999093112
 30
0.0
 11
629.1883940770367
 21
-735.2404999093112
 31
0.0
  0
LINE
  5
222FF
330
18
100
AcDbEntity
  8
1HIDDEN
100
AcDbLine
 10
629.1883940770367
 20
-665.2404999093112
 30
0.0
 11
629.1883940770367
 21
-735.2404999093112
 31
0.0
  0
LINE
  5
22302
330
18
100
AcDbEntity
  8
1HIDDEN
100
AcDbLine
 10
338.1883940770368
 20
-719.2404999093112
 30
0.0
 11
629.1883940770367
 21
-719.2404999093112
 31
0.0
  0
LINE
  5
22305
330
18
100
AcDbEntity
  8
1HIDDEN
100
AcDbLine
 10
629.1883940770367
 20
-665.2404999093112
 30
0.0
 11
629.1883940770367
 21
-735.2404999093112
 31
0.0
  0
LINE
  5
22307
330
18
100
AcDbEntity
  8
1HIDDEN
100
AcDbLine
 10
330.1883940770368
 20
-681.2404999093112
 30
0.0
 11
629.1883940770367
 21
-681.2404999093112
 31
0.0
  0
LINE
  5
22308
330
18
100
AcDbEntity
  8
1HIDDEN
100
AcDbLine
 10
613.1883940770367
 20
-681.2404999093112
 30
0.0
 11
629.1883940770367
 21
-681.2404999093112
 31
0.0
  0
LINE
  5
22309
330
18
100
AcDbEntity
  8
1HIDDEN
100
AcDbLine
 10
629.1883940770367
 20
-681.2404999093112
 30
0.0
 11
629.1883940770367
 21
-719.2404999093112
 31
0.0
  0
LINE
  5
2230A
330
18
100
AcDbEntity
  8
1HIDDEN
100
AcDbLine
 10
613.1883940770367
 20
-719.2404999093112
 30
0.0
 11
613.1883940770367
 21
-681.2404999093112
 31
0.0
  0
LINE
  5
2230B
330
18
100
AcDbEntity
  8
1HIDDEN
100
AcDbLine
 10
613.1883940770367
 20
-719.2404999093112
 30
0.0
 11
613.1883940770367
 21
-681.2404999093112
 31
0.0
  0
LINE
  5
2230C
330
18
100
AcDbEntity
  8
1HIDDEN
100
AcDbLine
 10
472.1883940770367
 20
-681.2404999093112
 30
0.0
 11
488.1883940770367
 21
-681.2404999093112
 31
0.0
  0
LINE
  5
22310
330
18
100
AcDbEntity
  8
1CENTER
100
AcDbLine
 10
476.8133476959729
 20
-700.2404706794498
 30
0.0
 11
483.5633476959729
 21
-700.2404706794498
 31
0.0
  0
LINE
  5
22311
330
18
100
AcDbEntity
  8
1CENTER
100
AcDbLine
 10
480.1883476959729
 20
-703.6154706794498
 30
0.0
 11
480.1883476959729
 21
-696.8654706794498
 31
0.0
  0
LINE
  5
22312
330
18
100
AcDbEntity
  8
1HIDDEN
100
AcDbLine
 10
330.1883940770368
 20
-735.2404999093112
 30
0.0
 11
31.18839407703683
 21
-735.2404999093112
 31
0.0
  0
LINE
  5
22313
330
18
100
AcDbEntity
  8
1HIDDEN
100
AcDbLine
 10
330.1883940770368
 20
-735.2404999093112
 30
0.0
 11
31.18839407703683
 21
-735.2404999093112
 31
0.0
  0
LINE
  5
22314
330
18
100
AcDbEntity
  8
1HIDDEN
100
AcDbLine
 10
330.1883940770368
 20
-735.2404999093112
 30
0.0
 11
31.18839407703683
 21
-735.2404999093112
 31
0.0
  0
LINE
  5
22315
330
18
100
AcDbEntity
  8
1HIDDEN
100
AcDbLine
 10
322.1883940770368
 20
-719.2404999093112
 30
0.0
 11
31.18839407703683
 21
-719.2404999093112
 31
0.0
  0
LINE
  5
22317
330
18
100
AcDbEntity
  8
1HIDDEN
100
AcDbLine
 10
47.18839407703683
 20
-681.2404999093112
 30
0.0
 11
31.18839407703683
 21
-681.2404999093112
 31
0.0
  0
LINE
  5
22318
330
18
100
AcDbEntity
  8
1HIDDEN
100
AcDbLine
 10
188.1883940770368
 20
-681.2404999093112
 30
0.0
 11
172.1883940770368
 21
-681.2404999093112
 31
0.0
  0
LINE
  5
22319
330
18
100
AcDbEntity
  8
1HIDDEN
100
AcDbLine
 10
627.1883940770367
 20
-718.7404999093112
 30
0.0
 11
615.1883940770367
 21
-718.7404999093112
 31
0.0
  0
LINE
  5
2231A
330
18
100
AcDbEntity
  8
1HIDDEN
100
AcDbLine
 10
613.1883940770367
 20
-716.7404999093112
 30
0.0
 11
613.1883940770367
 21
-683.7404999093112
 31
0.0
  0
LINE
  5
2231B
330
18
100
AcDbEntity
  8
1HIDDEN
100
AcDbLine
 10
615.1883940770367
 20
-681.7404999093112
 30
0.0
 11
627.1883940770367
 21
-681.7404999093112
 31
0.0
  0
LINE
  5
2231C
330
18
100
AcDbEntity
  8
1HIDDEN
100
AcDbLine
 10
629.1883940770367
 20
-683.7404999093112
 30
0.0
 11
629.1883940770367
 21
-716.7404999093112
 31
0.0
  0
ARC
  5
2231D
330
18
100
AcDbEntity
  8
1HIDDEN
100
AcDbCircle
 10
627.1883940770367
 20
-683.7404999093112
 30
0.0
 40
2.0
100
AcDbArc
 50
0.0
 51
90.0
  0
ARC
  5
2231E
330
18
100
AcDbEntity
  8
1HIDDEN
100
AcDbCircle
 10
615.1883940770367
 20
-683.7404999093112
 30
0.0
 40
2.0
100
AcDbArc
 50
90.0
 51
180.0
  0
ARC
  5
2231F
330
18
100
AcDbEntity
  8
1HIDDEN
100
AcDbCircle
 10
615.1883940770367
 20
-716.7404999093112
 30
0.0
 40
2.0
100
AcDbArc
 50
180.0
 51
270.0
  0
ARC
  5
22320
330
18
100
AcDbEntity
  8
1HIDDEN
100
AcDbCircle
 10
627.1883940770367
 20
-716.7404999093112
 30
0.0
 40
2.0
100
AcDbArc
 50
270.0
 51
0.0
  0
LINE
  5
22329
330
18
100
AcDbEntity
  8
1CENTER
100
AcDbLine
 10
617.8133476959729
 20
-700.2404706794498
 30
0.0
 11
624.5633476959729
 21
-700.2404706794498
 31
0.0
  0
LINE
  5
2232A
330
18
100
AcDbEntity
  8
1CENTER
100
AcDbLine
 10
621.1883476959729
 20
-703.6154706794498
 30
0.0
 11
621.1883476959729
 21
-696.8654706794498
 31
0.0
  0
LINE
  5
2232B
330
18
100
AcDbEntity
  8
1HIDDEN
100
AcDbLine
 10
47.18839407703695
 20
-719.2404999093112
 30
0.0
 11
47.18839407703695
 21
-681.2404999093112
 31
0.0
  0
LINE
  5
2232C
330
18
100
AcDbEntity
  8
1HIDDEN
100
AcDbLine
 10
31.18839407703695
 20
-665.2404999093112
 30
0.0
 11
31.18839407703695
 21
-735.2404999093112
 31
0.0
  0
LINE
  5
2232F
330
18
100
AcDbEntity
  8
1HIDDEN
100
AcDbLine
 10
31.18839407703695
 20
-665.2404999093112
 30
0.0
 11
31.18839407703695
 21
-735.2404999093112
 31
0.0
  0
LINE
  5
22330
330
18
100
AcDbEntity
  8
1HIDDEN
100
AcDbLine
 10
47.18839407703695
 20
-681.2404999093112
 30
0.0
 11
31.18839407703695
 21
-681.2404999093112
 31
0.0
  0
LINE
  5
22331
330
18
100
AcDbEntity
  8
1HIDDEN
100
AcDbLine
 10
31.18839407703695
 20
-681.2404999093112
 30
0.0
 11
31.18839407703695
 21
-719.2404999093112
 31
0.0
  0
LINE
  5
22332
330
18
100
AcDbEntity
  8
1HIDDEN
100
AcDbLine
 10
47.18839407703695
 20
-719.2404999093112
 30
0.0
 11
47.18839407703695
 21
-681.2404999093112
 31
0.0
  0
LINE
  5
22333
330
18
100
AcDbEntity
  8
1HIDDEN
100
AcDbLine
 10
47.18839407703695
 20
-719.2404999093112
 30
0.0
 11
47.18839407703695
 21
-681.2404999093112
 31
0.0
  0
LINE
  5
22334
330
18
100
AcDbEntity
  8
1HIDDEN
100
AcDbLine
 10
188.1883940770369
 20
-681.2404999093112
 30
0.0
 11
172.1883940770369
 21
-681.2404999093112
 31
0.0
  0
LINE
  5
22338
330
18
100
AcDbEntity
  8
1CENTER
100
AcDbLine
 10
183.5634404581008
 20
-700.2404706794498
 30
0.0
 11
176.8134404581008
 21
-700.2404706794498
 31
0.0
  0
LINE
  5
22339
330
18
100
AcDbEntity
  8
1CENTER
100
AcDbLine
 10
180.1884404581008
 20
-703.6154706794498
 30
0.0
 11
180.1884404581008
 21
-696.8654706794498
 31
0.0
  0
LINE
  5
2233A
330
18
100
AcDbEntity
  8
1HIDDEN
100
AcDbLine
 10
33.18839407703695
 20
-718.7404999093112
 30
0.0
 11
45.18839407703695
 21
-718.7404999093112
 31
0.0
  0
LINE
  5
2233B
330
18
100
AcDbEntity
  8
1HIDDEN
100
AcDbLine
 10
47.18839407703695
 20
-716.7404999093112
 30
0.0
 11
47.18839407703695
 21
-683.7404999093112
 31
0.0
  0
LINE
  5
2233C
330
18
100
AcDbEntity
  8
1HIDDEN
100
AcDbLine
 10
45.18839407703695
 20
-681.7404999093112
 30
0.0
 11
33.18839407703695
 21
-681.7404999093112
 31
0.0
  0
LINE
  5
2233D
330
18
100
AcDbEntity
  8
1HIDDEN
100
AcDbLine
 10
31.18839407703695
 20
-683.7404999093112
 30
0.0
 11
31.18839407703695
 21
-716.7404999093112
 31
0.0
  0
ARC
  5
2233E
330
18
100
AcDbEntity
  8
1HIDDEN
100
AcDbCircle
 10
33.18839407703695
 20
-683.7404999093112
 30
0.0
 40
2.0
100
AcDbArc
 50
90.0
 51
180.0
  0
ARC
  5
2233F
330
18
100
AcDbEntity
  8
1HIDDEN
100
AcDbCircle
 10
45.18839407703695
 20
-683.7404999093112
 30
0.0
 40
2.0
100
AcDbArc
 50
0.0
 51
90.0
  0
ARC
  5
22340
330
18
100
AcDbEntity
  8
1HIDDEN
100
AcDbCircle
 10
45.18839407703695
 20
-716.7404999093112
 30
0.0
 40
2.0
100
AcDbArc
 50
270.0
 51
0.0
  0
ARC
  5
22341
330
18
100
AcDbEntity
  8
1HIDDEN
100
AcDbCircle
 10
33.18839407703695
 20
-716.7404999093112
 30
0.0
 40
2.0
100
AcDbArc
 50
180.0
 51
270.0
  0
LINE
  5
2234A
330
18
100
AcDbEntity
  8
1CENTER
100
AcDbLine
 10
42.56344045810079
 20
-700.2404706794498
 30
0.0
 11
35.81344045810079
 21
-700.2404706794498
 31
0.0
  0
LINE
  5
2234B
330
18
100
AcDbEntity
  8
1CENTER
100
AcDbLine
 10
39.18844045810079
 20
-703.6154706794498
 30
0.0
 11
39.18844045810079
 21
-696.8654706794498
 31
0.0
  0
LINE
  5
228BC
330
18
100
AcDbEntity
  8
01
100
AcDbLine
 10
811.2698837934121
 20
-681.7404999093111
 30
0.0
 11
811.2698837934121
 21
-718.7404999093111
 31
0.0
  0
LINE
  5
228BD
330
18
100
AcDbEntity
  8
01
100
AcDbLine
 10
825.2698837934121
 20
-718.7404999093111
 30
0.0
 11
811.2698837934121
 21
-718.7404999093111
 31
0.0
  0
LINE
  5
228BE
330
18
100
AcDbEntity
  8
01
100
AcDbLine
 10
825.2698837934121
 20
-681.7404999093111
 30
0.0
 11
811.2698837934121
 21
-681.7404999093111
 31
0.0
  0
LINE
  5
228C1
330
18
100
AcDbEntity
  8
1HIDDEN
100
AcDbLine
 10
812.8698837934124
 20
-681.2404999093111
 30
0.0
 11
812.8698837934124
 21
-681.7404999093111
 31
0.0
  0
LINE
  5
228C7
330
18
100
AcDbEntity
  8
01
100
AcDbLine
 10
826.2698837934121
 20
-682.7404999093111
 30
0.0
 11
826.2698837934121
 21
-717.7404999093111
 31
0.0
  0
ARC
  5
228C8
330
18
100
AcDbEntity
  8
01
100
AcDbCircle
 10
825.2698837934121
 20
-717.7404999093111
 30
0.0
 40
1.0
100
AcDbArc
 50
270.0
 51
0.0
  0
ARC
  5
228C9
330
18
100
AcDbEntity
  8
01
100
AcDbCircle
 10
825.2698837934121
 20
-682.7404999093111
 30
0.0
 40
1.0
100
AcDbArc
 50
0.0
 51
90.0
  0
LINE
  5
22A16
330
18
100
AcDbEntity
  8
1CENTER
100
AcDbLine
 10
476.8133940770367
 20
-700.2404999093111
 30
0.0
 11
483.5633940770367
 21
-700.2404999093111
 31
0.0
  0
LINE
  5
22A17
330
18
100
AcDbEntity
  8
1CENTER
100
AcDbLine
 10
480.1883940770367
 20
-703.6154999093111
 30
0.0
 11
480.1883940770367
 21
-696.8654999093111
 31
0.0
  0
LINE
  5
22A18
330
18
100
AcDbEntity
  8
1CENTER
100
AcDbLine
 10
176.8133940770372
 20
-700.2404999093111
 30
0.0
 11
183.5633940770372
 21
-700.2404999093111
 31
0.0
  0
LINE
  5
22A19
330
18
100
AcDbEntity
  8
1CENTER
100
AcDbLine
 10
180.1883940770372
 20
-703.6154999093111
 30
0.0
 11
180.1883940770372
 21
-696.8654999093111
 31
0.0
  0
LINE
  5
22A1A
330
18
100
AcDbEntity
  8
01
100
AcDbLine
 10
186.1884404581011
 20
-718.7405291391725
 30
0.0
 11
174.1884404581011
 21
-718.7405291391725
 31
0.0
  0
LINE
  5
22A1B
330
18
100
AcDbEntity
  8
01
100
AcDbLine
 10
172.1884404581011
 20
-716.7405291391725
 30
0.0
 11
172.1884404581011
 21
-683.7405291391725
 31
0.0
  0
LINE
  5
22A1C
330
18
100
AcDbEntity
  8
01
100
AcDbLine
 10
174.1884404581011
 20
-681.7405291391725
 30
0.0
 11
186.1884404581011
 21
-681.7405291391725
 31
0.0
  0
LINE
  5
22A1E
330
18
100
AcDbEntity
  8
01
100
AcDbLine
 10
172.1883476959734
 20
-681.7405291391725
 30
0.0
 11
172.1883476959734
 21
-718.7405291391725
 31
0.0
  0
LINE
  5
22A1F
330
18
100
AcDbEntity
  8
01
100
AcDbLine
 10
172.1883476959734
 20
-718.7405291391725
 30
0.0
 11
488.1885332202278
 21
-718.7405291391725
 31
0.0
  0
LINE
  5
22A21
330
18
100
AcDbEntity
  8
01
100
AcDbLine
 10
488.1885332202278
 20
-681.7405291391725
 30
0.0
 11
172.1883476959734
 21
-681.7405291391725
 31
0.0
  0
LINE
  5
22A22
330
18
100
AcDbEntity
  8
01
100
AcDbLine
 10
172.1883476959734
 20
-681.7405291391725
 30
0.0
 11
172.1883476959734
 21
-718.7405291391725
 31
0.0
  0
LINE
  5
22A23
330
18
100
AcDbEntity
  8
01
100
AcDbLine
 10
187.1883476959734
 20
-719.2405291391725
 30
0.0
 11
187.1883476959734
 21
-718.7405291391725
 31
0.0
  0
LINE
  5
22A24
330
18
100
AcDbEntity
  8
01
100
AcDbLine
 10
173.1883476959734
 20
-681.2405291391725
 30
0.0
 11
173.1883476959734
 21
-681.7405291391725
 31
0.0
  0
LINE
  5
22A25
330
18
100
AcDbEntity
  8
01
100
AcDbLine
 10
187.1883476959734
 20
-681.7405291391725
 30
0.0
 11
187.1883476959734
 21
-681.2405291391725
 31
0.0
  0
LINE
  5
22A26
330
18
100
AcDbEntity
  8
01
100
AcDbLine
 10
173.1883476959734
 20
-719.2405291391725
 30
0.0
 11
173.1883476959734
 21
-718.7405291391725
 31
0.0
  0
LINE
  5
22A27
330
18
100
AcDbEntity
  8
01
100
AcDbLine
 10
173.1883476959734
 20
-681.7405291391725
 30
0.0
 11
173.1883476959734
 21
-681.2405291391725
 31
0.0
  0
LINE
  5
22A28
330
18
100
AcDbEntity
  8
01
100
AcDbLine
 10
172.1883476959734
 20
-681.7405291391725
 30
0.0
 11
172.1883476959734
 21
-718.7405291391725
 31
0.0
  0
LINE
  5
22A29
330
18
100
AcDbEntity
  8
01
100
AcDbLine
 10
172.1883476959734
 20
-681.7405291391725
 30
0.0
 11
172.1883476959734
 21
-718.7405291391725
 31
0.0
  0
LINE
  5
22A2A
330
18
100
AcDbEntity
  8
1CENTER
100
AcDbLine
 10
183.5633940770372
 20
-700.2404999093111
 30
0.0
 11
176.8133940770372
 21
-700.2404999093111
 31
0.0
  0
LINE
  5
22A2B
330
18
100
AcDbEntity
  8
1CENTER
100
AcDbLine
 10
180.1883940770372
 20
-703.6154999093111
 30
0.0
 11
180.1883940770372
 21
-696.8654999093111
 31
0.0
  0
LINE
  5
22A2C
330
18
100
AcDbEntity
  8
1CENTER
100
AcDbLine
 10
483.5634868391639
 20
-700.2404999093111
 30
0.0
 11
476.8134868391639
 21
-700.2404999093111
 31
0.0
  0
LINE
  5
22A2D
330
18
100
AcDbEntity
  8
1CENTER
100
AcDbLine
 10
480.1884868391639
 20
-703.6154999093111
 30
0.0
 11
480.1884868391639
 21
-696.8654999093111
 31
0.0
  0
LINE
  5
22A2E
330
18
100
AcDbEntity
  8
01
100
AcDbLine
 10
474.1884404581001
 20
-718.7405291391725
 30
0.0
 11
486.1884404581001
 21
-718.7405291391725
 31
0.0
  0
LINE
  5
22A2F
330
18
100
AcDbEntity
  8
01
100
AcDbLine
 10
488.1884404581001
 20
-716.7405291391725
 30
0.0
 11
488.1884404581001
 21
-683.7405291391725
 31
0.0
  0
LINE
  5
22A30
330
18
100
AcDbEntity
  8
01
100
AcDbLine
 10
486.1884404581001
 20
-681.7405291391725
 30
0.0
 11
474.1884404581001
 21
-681.7405291391725
 31
0.0
  0
LINE
  5
22A32
330
18
100
AcDbEntity
  8
01
100
AcDbLine
 10
488.1885332202278
 20
-681.7405291391725
 30
0.0
 11
488.1885332202278
 21
-718.7405291391725
 31
0.0
  0
LINE
  5
22A33
330
18
100
AcDbEntity
  8
01
100
AcDbLine
 10
488.1885332202278
 20
-718.7405291391725
 30
0.0
 11
472.1885332202278
 21
-718.7405291391725
 31
0.0
  0
LINE
  5
22A35
330
18
100
AcDbEntity
  8
01
100
AcDbLine
 10
472.1885332202278
 20
-681.7405291391725
 30
0.0
 11
488.1885332202278
 21
-681.7405291391725
 31
0.0
  0
LINE
  5
22A36
330
18
100
AcDbEntity
  8
01
100
AcDbLine
 10
488.1885332202278
 20
-681.7405291391725
 30
0.0
 11
488.1885332202278
 21
-718.7405291391725
 31
0.0
  0
LINE
  5
22A37
330
18
100
AcDbEntity
  8
01
100
AcDbLine
 10
473.1885332202278
 20
-719.2405291391725
 30
0.0
 11
473.1885332202278
 21
-718.7405291391725
 31
0.0
  0
LINE
  5
22A38
330
18
100
AcDbEntity
  8
01
100
AcDbLine
 10
487.1885332202278
 20
-681.2405291391725
 30
0.0
 11
487.1885332202278
 21
-681.7405291391725
 31
0.0
  0
LINE
  5
22A39
330
18
100
AcDbEntity
  8
01
100
AcDbLine
 10
473.1885332202278
 20
-681.7405291391725
 30
0.0
 11
473.1885332202278
 21
-681.2405291391725
 31
0.0
  0
LINE
  5
22A3A
330
18
100
AcDbEntity
  8
01
100
AcDbLine
 10
487.1885332202278
 20
-719.2405291391725
 30
0.0
 11
487.1885332202278
 21
-718.7405291391725
 31
0.0
  0
LINE
  5
22A3B
330
18
100
AcDbEntity
  8
01
100
AcDbLine
 10
487.1885332202278
 20
-681.7405291391725
 30
0.0
 11
487.1885332202278
 21
-681.2405291391725
 31
0.0
  0
LINE
  5
22A3C
330
18
100
AcDbEntity
  8
01
100
AcDbLine
 10
488.1885332202278
 20
-681.7405291391725
 30
0.0
 11
488.1885332202278
 21
-718.7405291391725
 31
0.0
  0
LINE
  5
22A3D
330
18
100
AcDbEntity
  8
01
100
AcDbLine
 10
488.1885332202278
 20
-681.7405291391725
 30
0.0
 11
488.1885332202278
 21
-718.7405291391725
 31
0.0
  0
LINE
  5
22A3E
330
18
100
AcDbEntity
  8
1CENTER
100
AcDbLine
 10
476.8134868391639
 20
-700.2404999093111
 30
0.0
 11
483.5634868391639
 21
-700.2404999093111
 31
0.0
  0
LINE
  5
22A3F
330
18
100
AcDbEntity
  8
1CENTER
100
AcDbLine
 10
480.1884868391639
 20
-703.6154999093111
 30
0.0
 11
480.1884868391639
 21
-696.8654999093111
 31
0.0
  0
LINE
  5
22B8F
330
18
100
AcDbEntity
  8
01
100
AcDbLine
 10
745.9277343778964
 20
-680.0404999093113
 30
0.0
 11
745.9277343778964
 21
-671.6261907473901
 31
0.0
  0
ARC
  5
22B90
330
18
100
AcDbEntity
  8
01
100
AcDbCircle
 10
749.4277343778964
 20
-671.6261907473901
 30
0.0
 40
3.5
100
AcDbArc
 50
90.0
 51
180.0
  0
LINE
  5
22B91
330
18
100
AcDbEntity
  8
01
100
AcDbLine
 10
749.4277343778964
 20
-668.1261907473901
 30
0.0
 11
750.419912378048
 21
-668.1261907473901
 31
0.0
  0
ARC
  5
22B92
330
18
100
AcDbEntity
  8
01
100
AcDbCircle
 10
750.419912378048
 20
-671.6261907473901
 30
0.0
 40
3.5
100
AcDbArc
 50
0.0
 51
90.0
  0
LINE
  5
22B93
330
18
100
AcDbEntity
  8
01
100
AcDbLine
 10
753.919912378048
 20
-671.6261907473901
 30
0.0
 11
753.919912378048
 21
-680.0404999093113
 31
0.0
  0
LINE
  5
22B94
330
18
100
AcDbEntity
  8
01
100
AcDbLine
 10
753.919912378048
 20
-680.0404999093113
 30
0.0
 11
745.9277343778964
 21
-680.0404999093113
 31
0.0
  0
SOLID
  5
22B95
330
18
100
AcDbEntity
  8
1DIM
100
AcDbTrace
 10
804.3924998702483
 20
-721.9581588384937
 30
0.0
 11
808.6263798307251
 21
-717.5907499407291
 31
0.0
 12
806.0378151863058
 22
-723.0952329393097
 32
0.0
 13
806.0378151863058
 23
-723.0952329393097
 33
0.0
1001
ACAD
1000
DSTYLE
1002
{
1070
    41
1040
6.0
1070
    45
1040
0.5
1002
}
  0
LINE
  5
22B96
330
18
100
AcDbEntity
  8
1DIM
100
AcDbLine
 10
805.215157528277
 20
-722.5266958889016
 30
0.0
 11
770.6332531739066
 21
-772.5657714881513
 31
0.0
1001
ACAD
1000
DSTYLE
1002
{
1070
    41
1040
6.0
1070
    45
1040
0.5
1002
}
  0
LINE
  5
22B97
330
18
100
AcDbEntity
  8
1DIM
100
AcDbLine
 10
770.6332531739066
 20
-772.5657714881513
 30
0.0
 11
652.9832531739066
 21
-772.5657714881513
 31
0.0
1001
ACAD
1000
DSTYLE
1002
{
1070
    41
1040
6.0
1070
    45
1040
0.5
1002
}
  0
TEXT
  5
22B98
330
18
100
AcDbEntity
  8
1DIM
  6
CONTINUOUS
100
AcDbText
 10
666.2832531739066
 20
-754.3657714881513
 30
0.0
 40
10.5
  1
材質：ステンレス
100
AcDbText
1001
ACADANNOTATIVE
1000
AnnotativeData
1002
{
1070
     1
1070
     0
1002
}
  0
TEXT
  5
22B99
330
18
100
AcDbEntity
  8
1DIM
  6
CONTINUOUS
100
AcDbText
 10
652.6332531739066
 20
-771.8657714881513
 30
0.0
 40
10.5
  1
仕上げ：各種仕上げ
100
AcDbText
1001
ACADANNOTATIVE
1000
AnnotativeData
1002
{
1070
     1
1070
     0
1002
}
  0
LINE
  5
22B9A
330
18
100
AcDbEntity
  8
1DIM1
100
AcDbLine
 10
180.1883476959732
 20
-703.6154706794496
 30
0.0
 11
180.1883476959732
 21
-783.5463290264331
 31
0.0
1001
ACAD
1000
DSTYLE
1002
{
1070
    45
1040
0.5
1070
    40
1040
3.0
1002
}
  0
LINE
  5
22B9B
330
18
100
AcDbEntity
  8
1DIM1
100
AcDbLine
 10
480.1883476959732
 20
-706.9904706794496
 30
0.0
 11
480.1883476959732
 21
-783.5463290264331
 31
0.0
1001
ACAD
1000
DSTYLE
1002
{
1070
    45
1040
0.5
1070
    40
1040
3.0
1002
}
  0
LINE
  5
22B9C
330
18
100
AcDbEntity
  8
1DIM1
100
AcDbLine
 10
186.1883476959732
 20
-780.5463290264331
 30
0.0
 11
474.1883476959732
 21
-780.5463290264331
 31
0.0
1001
ACAD
1000
DSTYLE
1002
{
1070
    45
1040
0.5
1070
    40
1040
3.0
1002
}
  0
LINE
  5
22BA0
330
18
100
AcDbEntity
  8
1DIM
100
AcDbLine
 10
740.1698837934122
 20
-665.2404999093111
 30
0.0
 11
740.1698837934122
 21
-626.8358514589239
 31
0.0
1001
ACAD
1000
DSTYLE
1002
{
1070
    40
1040
2.0
1002
}
  0
LINE
  5
22BA1
330
18
100
AcDbEntity
  8
1DIM
100
AcDbLine
 10
780.1698837934124
 20
-665.2404999093111
 30
0.0
 11
780.1698837934124
 21
-626.8358514589239
 31
0.0
1001
ACAD
1000
DSTYLE
1002
{
1070
    40
1040
2.0
1002
}
  0
LINE
  5
22BA2
330
18
100
AcDbEntity
  8
1DIM
100
AcDbLine
 10
744.1698837934122
 20
-628.8358514589239
 30
0.0
 11
776.1698837934124
 21
-628.8358514589239
 31
0.0
1001
ACAD
1000
DSTYLE
1002
{
1070
    40
1040
2.0
1002
}
  0
LINE
  5
22BA6
330
18
100
AcDbEntity
  8
1DIM
100
AcDbLine
 10
780.1698837934124
 20
-665.2404999093111
 30
0.0
 11
801.8375592070088
 21
-665.2404999093111
 31
0.0
1001
ACAD
1000
DSTYLE
1002
{
1070
   271
1070
     0
1070
    40
1040
2.0
1002
}
  0
LINE
  5
22BA7
330
18
100
AcDbEntity
  8
1DIM
100
AcDbLine
 10
775.1698837934124
 20
-680.0404999093113
 30
0.0
 11
801.8375592070088
 21
-680.0404999093113
 31
0.0
1001
ACAD
1000
DSTYLE
1002
{
1070
   271
1070
     0
1070
    40
1040
2.0
1002
}
  0
LINE
  5
22BA8
330
18
100
AcDbEntity
  8
1DIM
100
AcDbLine
 10
799.8375592070088
 20
-665.2404999093111
 30
0.0
 11
799.8375592070088
 21
-629.4049862722514
 31
0.0
1001
ACAD
1000
DSTYLE
1002
{
1070
   271
1070
     0
1070
    40
1040
2.0
1002
}
  0
LINE
  5
22BA9
330
18
100
AcDbEntity
  8
1DIM
100
AcDbLine
 10
799.8375592070088
 20
-669.2404999093111
 30
0.0
 11
799.8375592070088
 21
-676.0404999093113
 31
0.0
1001
ACAD
1000
DSTYLE
1002
{
1070
   271
1070
     0
1070
    40
1040
2.0
1002
}
  0
LINE
  5
22BAD
330
18
100
AcDbEntity
  8
1DIM
100
AcDbLine
 10
172.1884404581008
 20
-716.2405291391725
 30
0.0
 11
172.1884404581008
 21
-805.2637053623007
 31
0.0
1001
ACAD
1000
DSTYLE
1002
{
1070
    40
1040
3.0
1002
}
  0
LINE
  5
22BAE
330
18
100
AcDbEntity
  8
1DIM
100
AcDbLine
 10
488.1884404581003
 20
-716.2405291391725
 30
0.0
 11
488.1884404581003
 21
-805.2637053623007
 31
0.0
1001
ACAD
1000
DSTYLE
1002
{
1070
    40
1040
3.0
1002
}
  0
LINE
  5
22BAF
330
18
100
AcDbEntity
  8
1DIM
100
AcDbLine
 10
178.1884404581008
 20
-802.2637053623007
 30
0.0
 11
482.1884404581003
 21
-802.2637053623007
 31
0.0
1001
ACAD
1000
DSTYLE
1002
{
1070
    40
1040
3.0
1002
}
  0
LINE
  5
22BB3
330
18
100
AcDbEntity
  8
1DIM
100
AcDbLine
 10
126.1883940770372
 20
-665.2404999093112
 30
0.0
 11
126.1883940770372
 21
-634.1219772576716
 31
0.0
1001
ACAD
1000
DSTYLE
1002
{
1070
    40
1040
3.0
1002
}
  0
LINE
  5
22BB4
330
18
100
AcDbEntity
  8
1DIM
100
AcDbLine
 10
534.1883940770368
 20
-665.2404999093065
 30
0.0
 11
534.1883940770368
 21
-634.1219772576716
 31
0.0
1001
ACAD
1000
DSTYLE
1002
{
1070
    40
1040
3.0
1002
}
  0
LINE
  5
22BB5
330
18
100
AcDbEntity
  8
1DIM
100
AcDbLine
 10
132.1883940770372
 20
-637.1219772576716
 30
0.0
 11
528.1883940770368
 21
-637.1219772576716
 31
0.0
1001
ACAD
1000
DSTYLE
1002
{
1070
    40
1040
3.0
1002
}
  0
TEXT
  5
22BB9
330
18
100
AcDbEntity
  8
1DIM
  6
CONTINUOUS
100
AcDbText
 10
659.3769301707949
 20
-716.5092696131156
 30
0.0
 40
10.5
  1
LEDライト
100
AcDbText
1001
ACADANNOTATIVE
1000
AnnotativeData
1002
{
1070
     1
1070
     0
1002
}
  0
SOLID
  5
22BBA
330
18
100
AcDbEntity
  8
1DIM
100
AcDbTrace
 10
753.3730302496874
 20
-684.345967319916
 30
0.0
 11
757.6698837934123
 21
-680.0404999093113
 31
0.0
 12
755.001660412247
 22
-685.5068134740643
 32
0.0
 13
755.001660412247
 23
-685.5068134740643
 33
0.0
1001
ACAD
1000
DSTYLE
1002
{
1070
    41
1040
6.0
1070
    45
1040
0.5
1002
}
  0
LINE
  5
22BBB
330
18
100
AcDbEntity
  8
1DIM
100
AcDbLine
 10
754.1873453309672
 20
-684.9263903969901
 30
0.0
 11
731.176930170795
 21
-717.2092696131157
 31
0.0
1001
ACAD
1000
DSTYLE
1002
{
1070
    41
1040
6.0
1070
    45
1040
0.5
1002
}
  0
LINE
  5
22BBC
330
18
100
AcDbEntity
  8
1DIM
100
AcDbLine
 10
731.176930170795
 20
-717.2092696131157
 30
0.0
 11
664.376930170795
 21
-717.2092696131157
 31
0.0
1001
ACAD
1000
DSTYLE
1002
{
1070
    41
1040
6.0
1070
    45
1040
0.5
1002
}
  0
LINE
  5
22BBD
330
18
100
AcDbEntity
  8
1DIM
100
AcDbLine
 10
812.0698837934123
 20
-681.7404999093111
 30
0.0
 11
885.643541125682
 21
-681.7404999093111
 31
0.0
1001
ACAD
1000
DSTYLE
1002
{
1070
    40
1040
3.0
1002
}
  0
LINE
  5
22BBE
330
18
100
AcDbEntity
  8
1DIM
100
AcDbLine
 10
811.6698837934122
 20
-718.7404999093111
 30
0.0
 11
885.643541125682
 21
-718.7404999093111
 31
0.0
1001
ACAD
1000
DSTYLE
1002
{
1070
    40
1040
3.0
1002
}
  0
LINE
  5
22BBF
330
18
100
AcDbEntity
  8
1DIM
100
AcDbLine
 10
882.643541125682
 20
-687.7404999093111
 30
0.0
 11
882.643541125682
 21
-712.7404999093111
 31
0.0
1001
ACAD
1000
DSTYLE
1002
{
1070
    40
1040
3.0
1002
}
  0
TEXT
  5
22BC3
330
18
100
AcDbEntity
  8
1DIM
  6
CONTINUOUS
100
AcDbText
 10
135.466000509261
 20
-383.7428892834317
 30
0.0
 40
10.5
  1
接続コード
100
AcDbText
1001
ACADANNOTATIVE
1000
AnnotativeData
1002
{
1070
     1
1070
     0
1002
}
  0
SOLID
  5
22BC4
330
18
100
AcDbEntity
  8
1DIM
100
AcDbTrace
 10
221.8919458149392
 20
-441.2171428966167
 30
0.0
 11
222.8639956099853
 21
-447.221734406116
 31
0.0
 12
219.9970539629419
 22
-441.8569748036316
 32
0.0
 13
219.9970539629419
 23
-441.8569748036316
 33
0.0
1001
ACAD
1000
DSTYLE
1002
{
1070
    41
1040
6.0
1070
    45
1040
0.5
1002
}
  0
LINE
  5
22BC5
330
18
100
AcDbEntity
  8
1DIM
100
AcDbLine
 10
220.9444998889406
 20
-441.5370588501241
 30
0.0
 11
201.666000509261
 21
-384.4428892834317
 31
0.0
1001
ACAD
1000
DSTYLE
1002
{
1070
    41
1040
6.0
1070
    45
1040
0.5
1002
}
  0
LINE
  5
22BC6
330
18
100
AcDbEntity
  8
1DIM
100
AcDbLine
 10
201.666000509261
 20
-384.4428892834317
 30
0.0
 11
135.816000509261
 21
-384.4428892834317
 31
0.0
1001
ACAD
1000
DSTYLE
1002
{
1070
    41
1040
6.0
1070
    45
1040
0.5
1002
}
  0
LINE
  5
22BC7
330
18
100
AcDbEntity
  8
0
  6
BYBLOCK
100
AcDbLine
 10
186.1883476959732
 20
-782.1540241664331
 30
0.0
 11
180.1883476959732
 21
-780.5463290264331
 31
0.0
  0
LINE
  5
22BC8
330
18
100
AcDbEntity
  8
0
  6
BYBLOCK
100
AcDbLine
 10
180.1883476959732
 20
-780.5463290264331
 30
0.0
 11
186.1883476959732
 21
-778.9386338864331
 31
0.0
  0
LINE
  5
22BC9
330
18
100
AcDbEntity
  8
0
  6
BYBLOCK
100
AcDbLine
 10
180.1883476959732
 20
-780.5463290264331
 30
0.0
 11
186.1883476959732
 21
-780.5463290264331
 31
0.0
  0
LINE
  5
22BCA
330
18
100
AcDbEntity
  8
0
  6
BYBLOCK
100
AcDbLine
 10
474.1883476959732
 20
-778.9386338864331
 30
0.0
 11
480.1883476959732
 21
-780.5463290264331
 31
0.0
  0
LINE
  5
22BCB
330
18
100
AcDbEntity
  8
0
  6
BYBLOCK
100
AcDbLine
 10
480.1883476959732
 20
-780.5463290264331
 30
0.0
 11
474.1883476959732
 21
-782.1540241664331
 31
0.0
  0
LINE
  5
22BCC
330
18
100
AcDbEntity
  8
0
  6
BYBLOCK
100
AcDbLine
 10
480.1883476959732
 20
-780.5463290264331
 30
0.0
 11
474.1883476959732
 21
-780.5463290264331
 31
0.0
  0
TEXT
  5
22BCD
330
18
100
AcDbEntity
  8
1DIM1
  6
CONTINUOUS
100
AcDbText
 10
316.4695976959734
 20
-778.4463290264331
 30
0.0
 40
10.5
  1
P300
100
AcDbText
1001
ACAD
1000
DSTYLE
1002
{
1070
    45
1040
0.5
1070
    40
1040
3.0
1002
}
  0
LINE
  5
22BCE
330
18
100
AcDbEntity
  8
0
  6
BYBLOCK
100
AcDbLine
 10
744.1698837934122
 20
-629.9076482189239
 30
0.0
 11
740.1698837934122
 21
-628.8358514589239
 31
0.0
  0
LINE
  5
22BCF
330
18
100
AcDbEntity
  8
0
  6
BYBLOCK
100
AcDbLine
 10
740.1698837934122
 20
-628.8358514589239
 30
0.0
 11
744.1698837934122
 21
-627.7640546989239
 31
0.0
  0
LINE
  5
22BD0
330
18
100
AcDbEntity
  8
0
  6
BYBLOCK
100
AcDbLine
 10
740.1698837934122
 20
-628.8358514589239
 30
0.0
 11
744.1698837934122
 21
-628.8358514589239
 31
0.0
  0
LINE
  5
22BD1
330
18
100
AcDbEntity
  8
0
  6
BYBLOCK
100
AcDbLine
 10
776.1698837934124
 20
-627.7640546989239
 30
0.0
 11
780.1698837934124
 21
-628.8358514589239
 31
0.0
  0
LINE
  5
22BD2
330
18
100
AcDbEntity
  8
0
  6
BYBLOCK
100
AcDbLine
 10
780.1698837934124
 20
-628.8358514589239
 30
0.0
 11
776.1698837934124
 21
-629.9076482189239
 31
0.0
  0
LINE
  5
22BD3
330
18
100
AcDbEntity
  8
0
  6
BYBLOCK
100
AcDbLine
 10
780.1698837934124
 20
-628.8358514589239
 30
0.0
 11
776.1698837934124
 21
-628.8358514589239
 31
0.0
  0
TEXT
  5
22BD4
330
18
100
AcDbEntity
  8
1DIM
  6
CONTINUOUS
100
AcDbText
 10
754.774050460079
 20
-627.4358514589239
 30
0.0
 40
7.0
  1
40
100
AcDbText
1001
ACAD
1000
DSTYLE
1002
{
1070
    40
1040
2.0
1002
}
  0
LINE
  5
22BD5
330
18
100
AcDbEntity
  8
0
  6
BYBLOCK
100
AcDbLine
 10
798.7657624470088
 20
-669.2404999093111
 30
0.0
 11
799.8375592070088
 21
-665.2404999093111
 31
0.0
  0
LINE
  5
22BD6
330
18
100
AcDbEntity
  8
0
  6
BYBLOCK
100
AcDbLine
 10
799.8375592070088
 20
-665.2404999093111
 30
0.0
 11
800.9093559670088
 21
-669.2404999093111
 31
0.0
  0
LINE
  5
22BD7
330
18
100
AcDbEntity
  8
0
  6
BYBLOCK
100
AcDbLine
 10
799.8375592070088
 20
-665.2404999093111
 30
0.0
 11
799.8375592070088
 21
-669.2404999093111
 31
0.0
  0
LINE
  5
22BD8
330
18
100
AcDbEntity
  8
0
  6
BYBLOCK
100
AcDbLine
 10
800.9093559670088
 20
-676.0404999093113
 30
0.0
 11
799.8375592070088
 21
-680.0404999093113
 31
0.0
  0
LINE
  5
22BD9
330
18
100
AcDbEntity
  8
0
  6
BYBLOCK
100
AcDbLine
 10
799.8375592070088
 20
-680.0404999093113
 30
0.0
 11
798.7657624470088
 21
-676.0404999093113
 31
0.0
  0
LINE
  5
22BDA
330
18
100
AcDbEntity
  8
0
  6
BYBLOCK
100
AcDbLine
 10
799.8375592070088
 20
-680.0404999093113
 30
0.0
 11
799.8375592070088
 21
-676.0404999093113
 31
0.0
  0
TEXT
  5
22BDB
330
18
100
AcDbEntity
  8
1DIM
  6
CONTINUOUS
100
AcDbText
 10
798.4375592070087
 20
-640.6383196055847
 30
0.0
 40
7.0
  1
15
 50
90.0
100
AcDbText
1001
ACAD
1000
DSTYLE
1002
{
1070
   271
1070
     0
1070
    40
1040
2.0
1002
}
  0
LINE
  5
22BDC
330
18
100
AcDbEntity
  8
0
  6
BYBLOCK
100
AcDbLine
 10
178.1884404581008
 20
-803.8714005023007
 30
0.0
 11
172.1884404581008
 21
-802.2637053623007
 31
0.0
  0
LINE
  5
22BDD
330
18
100
AcDbEntity
  8
0
  6
BYBLOCK
100
AcDbLine
 10
172.1884404581008
 20
-802.2637053623007
 30
0.0
 11
178.1884404581008
 21
-800.6560102223007
 31
0.0
  0
LINE
  5
22BDE
330
18
100
AcDbEntity
  8
0
  6
BYBLOCK
100
AcDbLine
 10
172.1884404581008
 20
-802.2637053623007
 30
0.0
 11
178.1884404581008
 21
-802.2637053623007
 31
0.0
  0
LINE
  5
22BDF
330
18
100
AcDbEntity
  8
0
  6
BYBLOCK
100
AcDbLine
 10
482.1884404581003
 20
-800.6560102223007
 30
0.0
 11
488.1884404581003
 21
-802.2637053623007
 31
0.0
  0
LINE
  5
22BE0
330
18
100
AcDbEntity
  8
0
  6
BYBLOCK
100
AcDbLine
 10
488.1884404581003
 20
-802.2637053623007
 30
0.0
 11
482.1884404581003
 21
-803.8714005023007
 31
0.0
  0
LINE
  5
22BE1
330
18
100
AcDbEntity
  8
0
  6
BYBLOCK
100
AcDbLine
 10
488.1884404581003
 20
-802.2637053623007
 30
0.0
 11
482.1884404581003
 21
-802.2637053623007
 31
0.0
  0
TEXT
  5
22BE2
330
18
100
AcDbEntity
  8
1DIM
  6
CONTINUOUS
100
AcDbText
 10
317.9384404581006
 20
-800.1637053623007
 30
0.0
 40
10.5
  1
316
100
AcDbText
1001
ACAD
1000
DSTYLE
1002
{
1070
    40
1040
3.0
1002
}
  0
LINE
  5
22BE3
330
18
100
AcDbEntity
  8
0
  6
BYBLOCK
100
AcDbLine
 10
132.1883940770372
 20
-638.7296723976716
 30
0.0
 11
126.1883940770372
 21
-637.1219772576716
 31
0.0
  0
LINE
  5
22BE4
330
18
100
AcDbEntity
  8
0
  6
BYBLOCK
100
AcDbLine
 10
126.1883940770372
 20
-637.1219772576716
 30
0.0
 11
132.1883940770372
 21
-635.5142821176715
 31
0.0
  0
LINE
  5
22BE5
330
18
100
AcDbEntity
  8
0
  6
BYBLOCK
100
AcDbLine
 10
126.1883940770372
 20
-637.1219772576716
 30
0.0
 11
132.1883940770372
 21
-637.1219772576716
 31
0.0
  0
LINE
  5
22BE6
330
18
100
AcDbEntity
  8
0
  6
BYBLOCK
100
AcDbLine
 10
528.1883940770368
 20
-635.5142821176715
 30
0.0
 11
534.1883940770368
 21
-637.1219772576716
 31
0.0
  0
LINE
  5
22BE7
330
18
100
AcDbEntity
  8
0
  6
BYBLOCK
100
AcDbLine
 10
534.1883940770368
 20
-637.1219772576716
 30
0.0
 11
528.1883940770368
 21
-638.7296723976716
 31
0.0
  0
LINE
  5
22BE8
330
18
100
AcDbEntity
  8
0
  6
BYBLOCK
100
AcDbLine
 10
534.1883940770368
 20
-637.1219772576716
 30
0.0
 11
528.1883940770368
 21
-637.1219772576716
 31
0.0
  0
TEXT
  5
22BE9
330
18
100
AcDbEntity
  8
1DIM
  6
CONTINUOUS
100
AcDbText
 10
317.063394077037
 20
-635.0219772576716
 30
0.0
 40
10.5
  1
408
100
AcDbText
1001
ACAD
1000
DSTYLE
1002
{
1070
    40
1040
3.0
1002
}
  0
LINE
  5
22BEA
330
18
100
AcDbEntity
  8
0
  6
BYBLOCK
100
AcDbLine
 10
881.0358459856819
 20
-687.7404999093111
 30
0.0
 11
882.643541125682
 21
-681.7404999093111
 31
0.0
  0
LINE
  5
22BEB
330
18
100
AcDbEntity
  8
0
  6
BYBLOCK
100
AcDbLine
 10
882.643541125682
 20
-681.7404999093111
 30
0.0
 11
884.251236265682
 21
-687.7404999093111
 31
0.0
  0
LINE
  5
22BEC
330
18
100
AcDbEntity
  8
0
  6
BYBLOCK
100
AcDbLine
 10
882.643541125682
 20
-681.7404999093111
 30
0.0
 11
882.643541125682
 21
-687.7404999093111
 31
0.0
  0
LINE
  5
22BED
330
18
100
AcDbEntity
  8
0
  6
BYBLOCK
100
AcDbLine
 10
884.251236265682
 20
-712.7404999093111
 30
0.0
 11
882.643541125682
 21
-718.7404999093111
 31
0.0
  0
LINE
  5
22BEE
330
18
100
AcDbEntity
  8
0
  6
BYBLOCK
100
AcDbLine
 10
882.643541125682
 20
-718.7404999093111
 30
0.0
 11
881.0358459856819
 21
-712.7404999093111
 31
0.0
  0
LINE
  5
22BEF
330
18
100
AcDbEntity
  8
0
  6
BYBLOCK
100
AcDbLine
 10
882.643541125682
 20
-718.7404999093111
 30
0.0
 11
882.643541125682
 21
-712.7404999093111
 31
0.0
  0
TEXT
  5
22BF0
330
18
100
AcDbEntity
  8
1DIM
  6
CONTINUOUS
100
AcDbText
 10
880.5435411256819
 20
-708.9904999093112
 30
0.0
 40
10.5
  1
37
 50
90.0
100
AcDbText
1001
ACAD
1000
DSTYLE
1002
{
1070
    40
1040
3.0
1002
}
  0
VIEWPORT
  5
57
330
15
100
AcDbEntity
 67
     1
  8
0
100
AcDbViewport
 68
     1
 10
0.0
 20
0.0
 30
0.0
 40
535.5106132075472
 41
297.0
 68
     1
 69
     1
1001
ACAD
1000
MVIEW
1002
{
1070
    16
1010
0.0
1020
0.0
1030
0.0
1010
0.0
1020
0.0
1030
1.0
1040
0.0
1040
297.0
1040
-4.171999999925362
1040
12.83903210976956
1040
50.0
1040
0.0
1040
0.0
1070
    16
1070
   100
1070
     0
1070
     1
1070
     0
1070
     0
1070
     0
1070
     0
1040
0.0
1040
0.0
1040
0.0
1040
10.0
1040
10.0
1040
10.0
1040
10.0
1070
     0
1002
{
1002
}
1002
}
  0
ENDSEC
  0
SECTION
  2
OBJECTS
  0
DICTIONARY
  5
C
330
0
100
AcDbDictionary
  3
ACAD_COLOR
350
2D0
  3
ACAD_GROUP
350
D
  3
ACAD_LAYOUT
350
2D1
  3
ACAD_MATERIAL
350
2CF
  3
ACAD_MLEADERSTYLE
350
19E18
  3
ACAD_MLINESTYLE
350
1B
  3
ACAD_PLOTSETTINGS
350
2D2
  3
ACAD_SCALELIST
350
19DF6
  3
ACAD_VISUALSTYLE
350
19DE5
  3
ACDBHEADERROUNDTRIPXREC
350
22BF1
  3
ACDBVARIABLEDICTIONARY
350
37
  3
CONTENTDICTIONARY
350
D8
  3
DRAWINGVARIABLESDICT
350
20
  3
DWGPROPS
350
22BF4
1001
ACAD
1000
TREAT_AS_HARD
1070
     0
  0
DICTIONARY
  5
18FE8
330
2
100
AcDbDictionary
  3
ACAD_LAYERSTATES
360
18FE9
1001
ACAD
1000
TREAT_AS_HARD
1070
     1
  0
DICTIONARY
  5
1A20A
330
E
100
AcDbDictionary
  3
ADSK_XREC_LAYER_RECONCILED
360
1A20B
1001
ACAD
1000
TREAT_AS_HARD
1070
     1
  0
DICTIONARY
  5
1A20C
330
29
100
AcDbDictionary
  3
ADSK_XREC_LAYER_RECONCILED
360
1A20D
1001
ACAD
1000
TREAT_AS_HARD
1070
     1
  0
DICTIONARY
  5
1A20E
330
31
100
AcDbDictionary
  3
ADSK_XREC_LAYER_RECONCILED
360
1A20F
1001
ACAD
1000
TREAT_AS_HARD
1070
     1
  0
DICTIONARY
  5
1A218
330
101
100
AcDbDictionary
  3
ADSK_XREC_LAYER_RECONCILED
360
1A219
1001
ACAD
1000
TREAT_AS_HARD
1070
     1
  0
DICTIONARY
  5
1A21A
330
102
100
AcDbDictionary
  3
ADSK_XREC_LAYER_RECONCILED
360
1A21B
1001
ACAD
1000
TREAT_AS_HARD
1070
     1
  0
DICTIONARY
  5
1A220
330
25F
100
AcDbDictionary
  3
ADSK_XREC_LAYER_RECONCILED
360
1A221
1001
ACAD
1000
TREAT_AS_HARD
1070
     1
  0
DICTIONARY
  5
1A236
330
26A
100
AcDbDictionary
  3
ADSK_XREC_LAYER_RECONCILED
360
1A237
1001
ACAD
1000
TREAT_AS_HARD
1070
     1
  0
DICTIONARY
  5
6E9
330
18
100
AcDbDictionary
  3
ACAD_SORTENTS
360
6EA
1001
ACAD
1000
TREAT_AS_HARD
1070
     1
  0
DICTIONARY
  5
59B
330
15
100
AcDbDictionary
  3
ACAD_SORTENTS
360
59C
1001
ACAD
1000
TREAT_AS_HARD
1070
     1
  0
DICTIONARY
  5
20461
330
20460
100
AcDbDictionary
  3
ACAD_SORTENTS
360
20462
1001
ACAD
1000
TREAT_AS_HARD
1070
     1
  0
DICTIONARY
  5
2D0
102
{ACAD_REACTORS
330
C
102
}
330
C
100
AcDbDictionary
1001
ACAD
1000
TREAT_AS_HARD
1070
     0
  0
DICTIONARY
  5
D
102
{ACAD_REACTORS
330
C
102
}
330
C
100
AcDbDictionary
  3
*A1
350
1EDFD
1001
ACAD
1000
TREAT_AS_HARD
1070
     0
  0
DICTIONARY
  5
2D1
102
{ACAD_REACTORS
330
C
102
}
330
C
100
AcDbDictionary
1001
ACAD
1000
TREAT_AS_HARD
1070
     0
  0
DICTIONARY
  5
2CF
102
{ACAD_REACTORS
330
C
102
}
330
C
100
AcDbDictionary
  3
BYBLOCK
350
19DD5
  3
BYLAYER
350
19DCD
  3
GLOBAL
350
19DDD
1001
ACAD
1000
TREAT_AS_HARD
1070
     0
  0
DICTIONARY
  5
19E18
102
{ACAD_REACTORS
330
C
102
}
330
C
100
AcDbDictionary
  3
BALLOONS5
350
20459
  3
LEADERMULTIS2
350
21000
  3
LEADERMULTIS5
350
21A2A
  3
STANDARD
350
19E19
1001
ACAD
1000
TREAT_AS_HARD
1070
     0
  0
DICTIONARY
  5
1B
102
{ACAD_REACTORS
330
C
102
}
330
C
100
AcDbDictionary
  3
STANDARD
350
1C
1001
ACAD
1000
TREAT_AS_HARD
1070
     0
  0
DICTIONARY
  5
2D2
102
{ACAD_REACTORS
330
C
102
}
330
C
100
AcDbDictionary
1001
ACAD
1000
TREAT_AS_HARD
1070
     0
  0
DICTIONARY
  5
19DF6
102
{ACAD_REACTORS
330
C
102
}
330
C
100
AcDbDictionary
  3
A0
350
19DF7
  3
A1
350
19DF8
  3
A2
350
19DF9
  3
A3
350
19DFA
  3
A4
350
19DFB
  3
A5
350
19DFC
  3
A6
350
19DFD
  3
A7
350
19DFE
  3
A8
350
19DFF
  3
A9
350
19E00
  3
B0
350
19E01
  3
B1
350
19E02
  3
B2
350
19E03
  3
B3
350
19E04
  3
B4
350
19E05
  3
B5
350
19E06
  3
B6
350
19E07
  3
B7
350
19E08
  3
B8
350
19E09
  3
B9
350
19E0A
  3
C0
350
19E0B
  3
C1
350
19E0C
  3
C2
350
19E0D
  3
C3
350
19E0E
  3
C4
350
19E0F
  3
C5
350
19E10
  3
C6
350
19E11
  3
C7
350
19E12
  3
C8
350
19E13
  3
C9
350
19E14
  3
D0
350
19E15
  3
D1
350
19E16
  3
D2
350
19E17
1001
ACAD
1000
TREAT_AS_HARD
1070
     0
  0
DICTIONARY
  5
19DE5
102
{ACAD_REACTORS
330
C
102
}
330
C
100
AcDbDictionary
  3
2DWIREFRAME
350
19DEB
  3
3D_HIDDEN
350
19DED
  3
3DWIREFRAME
350
19DEC
  3
BASIC
350
19DEA
  3
BRIGHTEN
350
19DF1
  3
COLORCHANGE
350
19DF5
  3
CONCEPTUAL
350
19DEE
  3
DIM
350
19DF0
  3
EDGECOLOROFF
350
1E02A
  3
FACEPATTERN
350
19DF4
  3
FLAT
350
19DE6
  3
FLATWITHEDGES
350
19DE7
  3
GOURAUD
350
19DE8
  3
GOURAUDWITHEDGES
350
19DE9
  3
HIDDEN
350
1FBC7
  3
JITTEROFF
350
1E028
  3
LINEPATTERN
350
19DF3
  3
MODELING
350
1FBCD
  3
OVERHANGOFF
350
1E029
  3
REALISTIC
350
19DEF
  3
SHADED
350
1FBCC
  3
SHADED_WITH_EDGES
350
1FBCB
  3
SHADES_OF_GRAY
350
1FBC8
  3
SKETCHY
350
1FBC9
  3
THICKEN
350
19DF2
  3
WIREFRAME
350
1FBC6
  3
X-RAY
350
1FBCA
1001
ACAD
1000
TREAT_AS_HARD
1070
     0
  0
DICTIONARY
  5
22BF1
102
{ACAD_REACTORS
330
C
102
}
330
C
100
AcDbDictionary
  3
COLORDICT
350
22BF2
  3
MATERIALDICT
350
22BF3
1001
ACAD
1000
TREAT_AS_HARD
1070
     0
  0
DICTIONARY
  5
37
102
{ACAD_REACTORS
330
C
102
}
330
C
100
AcDbDictionary
  3
CANNOSCALE
350
20376
  3
CMLEADERSTYLE
350
1AC19
  3
CTABLESTYLE
350
4F1
  3
DIMADEC
350
38
  3
DIMASSOC
350
408
  3
HIDETEXT
350
1891
  3
INDEXCTL
350
1AC1C
  3
INTERSECTIONCOLOR
350
1895
  3
INTERSECTIONDISPLAY
350
1894
  3
MSLTSCALE
350
203CC
  3
OBSCOLOR
350
1892
  3
OBSLTYPE
350
1893
  3
PROJECTNAME
350
409
  3
SORTENTS
350
1AC1B
  3
XCLIPFRAME
350
1FBC5
1001
ACAD
1000
TREAT_AS_HARD
1070
     0
  0
DICTIONARY
  5
D8
102
{ACAD_REACTORS
330
C
102
}
330
C
100
AcDbDictionary
1001
CONTENTTABDATA
1070
    11
1000
Child
1000
D:\ACLT\TABset\CHILDREN.dwg
1070
     0
1070
     0
1070
     1
1000
PK
1000
D:\ACLT\TABset\PK.dwg
1070
     0
1070
     0
1070
     1
1000
Lev1
1000
D:\ACLT\TABset\Lever01.dwg
1070
     0
1070
     0
1070
     1
1000
Lev2
1000
D:\ACLT\TABset\Lever02.dwg
1070
     0
1070
     0
1070
     1
1000
L3
1000
D:\Aclt\TABset\Lever03.dwg
1070
     0
1070
     0
1070
     1
1000
Form
1000
D:\ACLT\FORMAT
1070
     1
1070
     0
1070
     1
1000
Jnt
1000
D:\ACLT\TABset\JOINTPARTS.dwg
1070
     0
1070
     0
1070
     1
1000
ISO
1000
D:\ACLT\TABset\Isome01.dwg
1070
     0
1070
     0
1070
     1
1000
R
1000
D:\ACLT\TABset\REGION.dwg
1070
     0
1070
     0
1070
     1
1000
std
1000
D:\ACLT\TABset\std_sym_all.dwg
1070
     0
1070
     0
1070
     1
1000
丸
1000
D:\Aclt\TABset\MARU.dwg
1070
     0
1070
     0
1070
     1
1001
CONTENTCURRENTTAB
1070
     0
1001
ACAD
1000
TREAT_AS_HARD
1070
     0
  0
DICTIONARY
  5
20
102
{ACAD_REACTORS
330
C
102
}
330
C
100
AcDbDictionary
1001
DRAWINGVARIABLESXDATA
1000
POLARANG
1000
0.261799387799149410000000
1000
POLARMODE
1000
1
1000
POLARSTYLE
1000
1
1001
ACAD
1000
TREAT_AS_HARD
1070
     0
  0
XRECORD
  5
22BF4
102
{ACAD_REACTORS
330
C
102
}
330
C
100
AcDbXrecord
  1
DWGPROPS COOKIE
  2

  3

  4

  6

  7

  8
3684
  9

300
=
301
=
302
=
303
=
304
=
305
=
306
=
307
=
308
=
309
=
 40
0.0
 41
2453033.357663484
 42
2458780.201299155
  1

 90
        0
  0
DICTIONARY
  5
18FE9
102
{ACAD_REACTORS
330
18FE8
102
}
330
18FE8
100
AcDbDictionary
1001
ACAD
1000
TREAT_AS_HARD
1070
     0
  0
ACAD_PROXY_OBJECT
  5
1A20B
102
{ACAD_REACTORS
330
1A20A
102
}
330
1A20A
100
AcDbZombieObject
 90
      499
 91
      519
 93
       34
310
40C8804040
  0
ACAD_PROXY_OBJECT
  5
1A20D
102
{ACAD_REACTORS
330
1A20C
102
}
330
1A20C
100
AcDbZombieObject
 90
      499
 91
      519
 93
       34
310
40C8804040
  0
ACAD_PROXY_OBJECT
  5
1A20F
102
{ACAD_REACTORS
330
1A20E
102
}
330
1A20E
100
AcDbZombieObject
 90
      499
 91
      519
 93
       34
310
40C8804040
  0
ACAD_PROXY_OBJECT
  5
1A219
102
{ACAD_REACTORS
330
1A218
102
}
330
1A218
100
AcDbZombieObject
 90
      499
 91
      519
 93
       34
310
40C8804040
  0
ACAD_PROXY_OBJECT
  5
1A21B
102
{ACAD_REACTORS
330
1A21A
102
}
330
1A21A
100
AcDbZombieObject
 90
      499
 91
      519
 93
       34
310
40C8804040
  0
ACAD_PROXY_OBJECT
  5
1A221
102
{ACAD_REACTORS
330
1A220
102
}
330
1A220
100
AcDbZombieObject
 90
      499
 91
      519
 93
       34
310
40C8804040
  0
ACAD_PROXY_OBJECT
  5
1A237
102
{ACAD_REACTORS
330
1A236
102
}
330
1A236
100
AcDbZombieObject
 90
      499
 91
      519
 93
       34
310
40C8804040
  0
SORTENTSTABLE
  5
6EA
102
{ACAD_REACTORS
330
6E9
102
}
330
6E9
100
AcDbSortentsTable
330
18
331
0
  5
99AB
331
0
  5
AB53
331
0
  5
AB54
331
0
  5
ECB5
331
1D8CA
  5
1F828
331
1D90A
  5
1F82D
331
1DBA4
  5
1F82F
331
1DBA5
  5
1F835
331
1DBA6
  5
1F836
331
1F823
  5
1F837
331
1F828
  5
1F838
331
1F82A
  5
1F839
331
1F830
  5
1F83A
331
1F831
  5
1F83B
331
1F832
  5
1F83C
331
1F833
  5
1F83D
331
1F834
  5
1F83E
331
1F835
  5
1F83F
331
1F836
  5
1F840
331
1F837
  5
1F841
331
1F838
  5
1F843
331
1F839
  5
1F89C
331
1F83A
  5
1F8EF
331
1F83B
  5
20596
331
1F83C
  5
2059D
331
1F83E
  5
2059E
331
1F845
  5
2059F
331
1F846
  5
205A0
331
20596
  5
205A1
331
2059D
  5
205A2
331
2059E
  5
205A3
331
2059F
  5
205B0
331
205A0
  5
205B1
331
205A1
  5
205B2
331
205A2
  5
205B3
331
205A3
  5
205B4
331
205B0
  5
205B6
331
205B1
  5
205B8
331
205B2
  5
205BB
331
205B3
  5
205CB
331
205B4
  5
205CE
331
205B6
  5
205CF
331
205B8
  5
205D7
331
205BB
  5
205DA
331
205CB
  5
205DB
331
205CE
  5
205E3
331
205CF
  5
205E4
331
205D7
  5
205E5
331
205DA
  5
205E6
331
205DB
  5
211B9
331
205E3
  5
211BA
331
205E4
  5
211BB
331
205E5
  5
211BC
331
205E6
  5
211BD
331
211B9
  5
2148C
331
211BA
  5
216A6
331
211BB
  5
216A7
331
211BC
  5
216A8
331
211BD
  5
216A9
331
211C8
  5
21B95
331
21480
  5
21B96
331
21481
  5
21B97
331
21482
  5
21B98
331
21483
  5
21B99
331
21484
  5
21B9A
331
21485
  5
21B9B
331
21486
  5
21BAA
331
21487
  5
21BAB
331
21488
  5
21BAC
331
21489
  5
21BAD
331
2148A
  5
21C03
331
2148B
  5
21C05
331
2148C
  5
21C06
331
2159A
  5
21C07
331
2159B
  5
21C08
331
0
  5
216AB
331
216A6
  5
21C58
331
216A7
  5
21C59
331
216A8
  5
21C5A
331
216A9
  5
21C92
331
216AA
  5
21C94
331
216AB
  5
21C95
331
216AC
  5
21C96
331
216AD
  5
21CCA
331
216AE
  5
21CCB
331
216AF
  5
21CCC
331
216B0
  5
21CCD
331
216B1
  5
21CCE
331
216B2
  5
21E22
331
216B3
  5
21E26
331
216BD
  5
2205C
331
216C2
  5
222B9
331
2171A
  5
222BB
331
2171B
  5
222C0
331
2171D
  5
222CD
331
2171E
  5
222CE
331
2171F
  5
222CF
331
21720
  5
222D0
331
21722
  5
222D1
331
2172B
  5
222D2
331
2172C
  5
222DB
331
0
  5
21862
331
0
  5
21863
331
0
  5
21864
331
0
  5
21865
331
21829
  5
22313
331
21861
  5
22314
331
21862
  5
22315
331
21863
  5
22317
331
21864
  5
22318
331
21865
  5
22319
331
21866
  5
2231A
331
21867
  5
2231B
331
219F4
  5
2231C
331
219F5
  5
2231D
331
219FF
  5
2231E
331
21A00
  5
2231F
331
21B94
  5
22320
331
21B95
  5
22329
331
21B96
  5
2232A
331
21B97
  5
2232B
331
21B98
  5
2232C
331
21B99
  5
2232F
331
21B9A
  5
22330
331
21B9B
  5
22331
331
21BAA
  5
22332
331
21BAB
  5
22333
331
21BAC
  5
22334
331
21BAD
  5
22338
331
21C03
  5
22339
331
21C05
  5
2233A
331
21C06
  5
2233B
331
21C07
  5
2233C
331
21C08
  5
2233D
331
21C09
  5
2233E
331
21C0A
  5
2233F
331
21C0B
  5
22340
331
21C0C
  5
22341
331
21C0D
  5
2234A
331
21C0E
  5
2234B
331
21C51
  5
228BC
331
21C52
  5
228BD
331
21C53
  5
228BE
331
21C54
  5
228C1
331
21C55
  5
228C7
331
21C56
  5
228C8
331
21C57
  5
228C9
331
21C58
  5
22A16
331
21C59
  5
22A17
331
21C5A
  5
22A18
331
21C92
  5
22A19
331
21C94
  5
22A1A
331
21C95
  5
22A1B
331
21C96
  5
22A1C
331
21C97
  5
22A1E
331
21CC8
  5
22A1F
331
21CC9
  5
22A21
331
21CCA
  5
22A22
331
21CCB
  5
22A23
331
21CCC
  5
22A24
331
21CCD
  5
22A25
331
21CCE
  5
22A26
331
0
  5
222CB
331
0
  5
222CC
331
2205C
  5
22A2B
331
222B9
  5
22A2C
331
222BB
  5
22A2D
331
222C0
  5
22A2E
331
222CB
  5
22A2F
331
222CC
  5
22A30
331
222CD
  5
22A32
331
222CE
  5
22A33
331
222CF
  5
22A35
331
222D0
  5
22A36
331
222D1
  5
22A37
331
222D2
  5
22A38
331
222DB
  5
22A39
331
222E0
  5
22A3A
331
222E1
  5
22A3B
331
222E3
  5
22A3C
331
222E4
  5
22A3D
331
222E5
  5
22A3E
331
222E6
  5
22A3F
331
222E7
  5
22B8F
331
222E8
  5
22B90
331
222FB
  5
22B91
331
222FC
  5
22B92
331
222FD
  5
22B93
331
222FE
  5
22B94
331
222FF
  5
22B95
331
22302
  5
22B96
331
22305
  5
22B97
331
22307
  5
22B98
331
22308
  5
22B99
331
22309
  5
22B9A
331
2230A
  5
22B9B
331
2230B
  5
22B9C
331
2230C
  5
22B9D
331
22310
  5
22B9E
331
22311
  5
22B9F
331
22312
  5
22BA0
331
22313
  5
22BA1
331
22314
  5
22BA2
331
22315
  5
22BA3
331
22317
  5
22BA4
331
22318
  5
22BA5
331
22319
  5
22BA6
331
2231A
  5
22BA7
331
2231B
  5
22BA8
331
2231C
  5
22BA9
331
2231D
  5
22BAA
331
2231E
  5
22BAB
331
2231F
  5
22BAC
331
22320
  5
22BAD
331
22329
  5
22BAE
331
2232A
  5
22BAF
331
2232B
  5
22BB0
331
2232C
  5
22BB1
331
2232F
  5
22BB2
331
22330
  5
22BB3
331
22331
  5
22BB4
331
22332
  5
22BB5
331
22333
  5
22BB6
331
22334
  5
22BB7
331
22338
  5
22BB8
331
22339
  5
22BB9
331
2233A
  5
22BBA
331
2233B
  5
22BBB
331
2233C
  5
22BBC
331
2233D
  5
22BBD
331
2233E
  5
22BBE
331
2233F
  5
22BBF
331
22340
  5
22BC0
331
22341
  5
22BC1
331
2234A
  5
22BC2
331
2234B
  5
22BC3
331
228BC
  5
22BC4
331
228BD
  5
22BC5
331
228BE
  5
22BC6
331
228C1
  5
22BC7
331
228C7
  5
22BC8
331
228C8
  5
22BC9
331
228C9
  5
22BCA
331
22A16
  5
22BCB
331
22A17
  5
22BCC
331
22A18
  5
22BCD
331
22A19
  5
22BCE
331
22A1A
  5
22BCF
331
22A1B
  5
22BD0
331
22A1C
  5
22BD1
331
22A1E
  5
22BD2
331
22A1F
  5
22BD3
331
22A21
  5
22BD4
331
22A22
  5
22BD5
331
22A23
  5
22BD6
331
22A24
  5
22BD7
331
22A25
  5
22BD8
331
22A26
  5
22BD9
331
22A27
  5
22BDA
331
22A28
  5
22BDB
331
22A29
  5
22BDC
331
22A2A
  5
22BDD
331
22A2B
  5
22BDE
331
22A2C
  5
22BDF
331
22A2D
  5
22BE0
331
22A2E
  5
22BE1
331
22A2F
  5
22BE2
331
22A30
  5
22BE3
331
22A32
  5
22BE4
331
22A33
  5
22BE5
331
22A35
  5
22BE6
331
22A36
  5
22BE7
331
22A37
  5
22BE8
331
22A38
  5
22BE9
331
22A39
  5
22BEA
331
22A3A
  5
22BEB
331
22A3B
  5
22BEC
331
22A3C
  5
22BED
331
22A3D
  5
22BEE
331
22A3E
  5
22BEF
331
22A3F
  5
22BF0
331
22B8F
  5
21829
331
22B90
  5
21861
331
22B91
  5
21866
331
22B92
  5
21867
331
22B93
  5
21A00
331
22B94
  5
21B94
331
22B95
  5
1D8CE
331
22B96
  5
1D910
331
22B97
  5
1DBA8
331
22B98
  5
1DF13
331
22B99
  5
1DFD9
331
22B9A
  5
211C8
331
22B9B
  5
21480
331
22B9C
  5
21481
331
0
  5
21482
331
0
  5
21483
331
0
  5
21484
331
22BA0
  5
216AE
331
22BA1
  5
216AF
331
22BA2
  5
216B0
331
0
  5
2159A
331
0
  5
2159B
331
0
  5
21634
331
22BA6
  5
2171D
331
22BA7
  5
2171E
331
22BA8
  5
2171F
331
22BA9
  5
21720
331
0
  5
216AA
331
0
  5
216AC
331
0
  5
216AD
331
22BAD
  5
21C09
331
22BAE
  5
21C0A
331
22BAF
  5
21C0B
331
0
  5
219F4
331
0
  5
219F5
331
0
  5
219FF
331
22BB3
  5
222E0
331
22BB4
  5
222E1
331
22BB5
  5
222E3
331
0
  5
21C55
331
0
  5
21C56
331
0
  5
21C57
331
22BB9
  5
222FD
331
22BBA
  5
222FE
331
22BBB
  5
222FF
331
22BBC
  5
22302
331
22BBD
  5
22305
331
22BBE
  5
22307
331
22BBF
  5
22308
331
0
  5
21C97
331
0
  5
21CC8
331
0
  5
21CC9
331
22BC3
  5
22A27
331
22BC4
  5
22A28
331
22BC5
  5
22A29
331
22BC6
  5
22A2A
331
22BC7
  5
21485
331
22BC8
  5
21486
331
22BC9
  5
21487
331
22BCA
  5
21488
331
22BCB
  5
21489
331
22BCC
  5
2148A
331
22BCD
  5
2148B
331
22BCE
  5
216B1
331
22BCF
  5
216B2
331
22BD0
  5
216B3
331
22BD1
  5
216BD
331
22BD2
  5
216C2
331
22BD3
  5
2171A
331
22BD4
  5
2171B
331
22BD5
  5
21722
331
22BD6
  5
2172B
331
22BD7
  5
2172C
331
22BD8
  5
2172D
331
22BD9
  5
21783
331
22BDA
  5
21787
331
22BDB
  5
21788
331
22BDC
  5
21C0C
331
22BDD
  5
21C0D
331
22BDE
  5
21C0E
331
22BDF
  5
21C51
331
22BE0
  5
21C52
331
22BE1
  5
21C53
331
22BE2
  5
21C54
331
22BE3
  5
222E4
331
22BE4
  5
222E5
331
22BE5
  5
222E6
331
22BE6
  5
222E7
331
22BE7
  5
222E8
331
22BE8
  5
222FB
331
22BE9
  5
222FC
331
22BEA
  5
22309
331
22BEB
  5
2230A
331
22BEC
  5
2230B
331
22BED
  5
2230C
331
22BEE
  5
22310
331
22BEF
  5
22311
331
22BF0
  5
22312
  0
SORTENTSTABLE
  5
59C
102
{ACAD_REACTORS
330
59B
102
}
330
59B
100
AcDbSortentsTable
330
15
331
57
  5
57
331
0
  5
70
  0
SORTENTSTABLE
  5
20462
102
{ACAD_REACTORS
330
20461
102
}
330
20461
100
AcDbSortentsTable
330
20460
331
20464
  5
20465
331
20465
  5
20464
  0
GROUP
  5
1EDFD
102
{ACAD_REACTORS
330
D
102
}
330
D
100
AcDbGroup
300

 70
     1
 71
     1
340
1DBA6
340
1DBA5
340
1DBA4
  0
MATERIAL
  5
19DD5
102
{ACAD_REACTORS
330
2CF
102
}
102
{ACAD_XDICTIONARY
360
22D8F
102
}
330
2CF
100
AcDbMaterial
  1
BYBLOCK
 72
     0
 73
     2
 43
0.0208333333333333
 43
0.0
 43
0.0
 43
0.0
 43
0.0
 43
0.0208333333333333
 43
0.0
 43
0.0
 43
0.0
 43
0.0
 43
1.0
 43
0.0
 43
0.0
 43
0.0
 43
0.0
 43
1.0
 77
     0
 78
     2
 47
0.0208333333333333
 47
0.0
 47
0.0
 47
0.0
 47
0.0
 47
0.0208333333333333
 47
0.0
 47
0.0
 47
0.0
 47
0.0
 47
1.0
 47
0.0
 47
0.0
 47
0.0
 47
0.0
 47
1.0
171
     0
172
     2
 49
0.0208333333333333
 49
0.0
 49
0.0
 49
0.0
 49
0.0
 49
0.0208333333333333
 49
0.0
 49
0.0
 49
0.0
 49
0.0
 49
1.0
 49
0.0
 49
0.0
 49
0.0
 49
0.0
 49
1.0
175
     0
176
     2
142
0.0208333333333333
142
0.0
142
0.0
142
0.0
142
0.0
142
0.0208333333333333
142
0.0
142
0.0
142
0.0
142
0.0
142
1.0
142
0.0
142
0.0
142
0.0
142
0.0
142
1.0
179
     0
270
     2
144
0.0208333333333333
144
0.0
144
0.0
144
0.0
144
0.0
144
0.0208333333333333
144
0.0
144
0.0
144
0.0
144
0.0
144
1.0
144
0.0
144
0.0
144
0.0
144
0.0
144
1.0
274
     2
147
0.0208333333333333
147
0.0
147
0.0
147
0.0
147
0.0
147
0.0208333333333333
147
0.0
147
0.0
147
0.0
147
0.0
147
1.0
147
0.0
147
0.0
147
0.0
147
0.0
147
1.0
  0
MATERIAL
  5
19DCD
102
{ACAD_REACTORS
330
2CF
102
}
102
{ACAD_XDICTIONARY
360
22D91
102
}
330
2CF
100
AcDbMaterial
  1
BYLAYER
 72
     0
 73
     2
 43
0.0208333333333333
 43
0.0
 43
0.0
 43
0.0
 43
0.0
 43
0.0208333333333333
 43
0.0
 43
0.0
 43
0.0
 43
0.0
 43
1.0
 43
0.0
 43
0.0
 43
0.0
 43
0.0
 43
1.0
 77
     0
 78
     2
 47
0.0208333333333333
 47
0.0
 47
0.0
 47
0.0
 47
0.0
 47
0.0208333333333333
 47
0.0
 47
0.0
 47
0.0
 47
0.0
 47
1.0
 47
0.0
 47
0.0
 47
0.0
 47
0.0
 47
1.0
171
     0
172
     2
 49
0.0208333333333333
 49
0.0
 49
0.0
 49
0.0
 49
0.0
 49
0.0208333333333333
 49
0.0
 49
0.0
 49
0.0
 49
0.0
 49
1.0
 49
0.0
 49
0.0
 49
0.0
 49
0.0
 49
1.0
175
     0
176
     2
142
0.0208333333333333
142
0.0
142
0.0
142
0.0
142
0.0
142
0.0208333333333333
142
0.0
142
0.0
142
0.0
142
0.0
142
1.0
142
0.0
142
0.0
142
0.0
142
0.0
142
1.0
179
     0
270
     2
144
0.0208333333333333
144
0.0
144
0.0
144
0.0
144
0.0
144
0.0208333333333333
144
0.0
144
0.0
144
0.0
144
0.0
144
1.0
144
0.0
144
0.0
144
0.0
144
0.0
144
1.0
274
     2
147
0.0208333333333333
147
0.0
147
0.0
147
0.0
147
0.0
147
0.0208333333333333
147
0.0
147
0.0
147
0.0
147
0.0
147
1.0
147
0.0
147
0.0
147
0.0
147
0.0
147
1.0
  0
MATERIAL
  5
19DDD
102
{ACAD_REACTORS
330
2CF
102
}
102
{ACAD_XDICTIONARY
360
22D93
102
}
330
2CF
100
AcDbMaterial
  1
GLOBAL
 72
     0
 73
     2
 43
0.0208333333333333
 43
0.0
 43
0.0
 43
0.0
 43
0.0
 43
0.0208333333333333
 43
0.0
 43
0.0
 43
0.0
 43
0.0
 43
1.0
 43
0.0
 43
0.0
 43
0.0
 43
0.0
 43
1.0
 77
     0
 78
     2
 47
0.0208333333333333
 47
0.0
 47
0.0
 47
0.0
 47
0.0
 47
0.0208333333333333
 47
0.0
 47
0.0
 47
0.0
 47
0.0
 47
1.0
 47
0.0
 47
0.0
 47
0.0
 47
0.0
 47
1.0
171
     0
172
     2
 49
0.0208333333333333
 49
0.0
 49
0.0
 49
0.0
 49
0.0
 49
0.0208333333333333
 49
0.0
 49
0.0
 49
0.0
 49
0.0
 49
1.0
 49
0.0
 49
0.0
 49
0.0
 49
0.0
 49
1.0
175
     0
176
     2
142
0.0208333333333333
142
0.0
142
0.0
142
0.0
142
0.0
142
0.0208333333333333
142
0.0
142
0.0
142
0.0
142
0.0
142
1.0
142
0.0
142
0.0
142
0.0
142
0.0
142
1.0
179
     0
270
     2
144
0.0208333333333333
144
0.0
144
0.0
144
0.0
144
0.0
144
0.0208333333333333
144
0.0
144
0.0
144
0.0
144
0.0
144
1.0
144
0.0
144
0.0
144
0.0
144
0.0
144
1.0
274
     2
147
0.0208333333333333
147
0.0
147
0.0
147
0.0
147
0.0
147
0.0208333333333333
147
0.0
147
0.0
147
0.0
147
0.0
147
1.0
147
0.0
147
0.0
147
0.0
147
0.0
147
1.0
  0
ACAD_PROXY_OBJECT
  5
20459
102
{ACAD_REACTORS
330
19E18
102
}
330
19E18
100
AcDbZombieObject
 90
      499
 91
      512
 93
      610
310
40501902A4063FBFFFFFE0000000000000020000000000000020408000000000000004090140501A00000000000004100000000000000041025750100000000000005100000000000000039000
340
12
340
6F0
340
F
340
20460
 94
        0
1001
ACAD_MLEADERVER
1070
     2
  0
ACAD_PROXY_OBJECT
  5
21000
102
{ACAD_REACTORS
330
19E18
102
}
330
19E18
100
AcDbZombieObject
 90
      499
 91
      512
 93
      610
310
40901902A4063FBFFFFFE0000000000000020400000000000020C080000000000000040905415019C9000000000000031000000000000000410257600000000000000100000000000000039000
340
12
340
42
340
F
340
0
 94
        0
1001
ACAD_MLEADERVER
1070
     2
  0
ACAD_PROXY_OBJECT
  5
21A2A
102
{ACAD_REACTORS
330
19E18
102
}
330
19E18
100
AcDbZombieObject
 90
      499
 91
      512
 93
      610
310
40901902A4063FBFFFFFE0000000000000020400000000000020C080000000000000040905415019C9000000000000031000000000000000410257600000000000005100000000000000039000
340
12
340
42
340
F
340
0
 94
        0
1001
ACAD_MLEADERVER
1070
     2
  0
ACAD_PROXY_OBJECT
  5
19E19
102
{ACAD_REACTORS
330
19E18
102
}
330
19E18
100
AcDbZombieObject
 90
      499
 91
      512
 93
      610
310
40901902A4063FBFFFFFE000000000000002040AD7A3703D0AD73F4214DD185B99185C990000000000000104090141901A00000000000004100000000000000041025764000000000000300FC0
340
12
340
0
340
F
340
0
 94
        0
1001
ACAD_MLEADERVER
1070
     2
  0
MLINESTYLE
  5
1C
102
{ACAD_REACTORS
330
1B
102
}
330
1B
100
AcDbMlineStyle
  2
STANDARD
 70
     0
  3

 62
   256
 51
90.0
 52
90.0
 71
     2
 49
0.5
 62
   256
  6
BYLAYER
 49
-0.5
 62
   256
  6
BYLAYER
  0
ACAD_PROXY_OBJECT
  5
19DF7
102
{ACAD_REACTORS
330
19DF6
102
}
330
19DF6
100
AcDbZombieObject
 90
      499
 91
      511
 93
       41
310
903313A31580
  0
ACAD_PROXY_OBJECT
  5
19DF8
102
{ACAD_REACTORS
330
19DF6
102
}
330
19DF6
100
AcDbZombieObject
 90
      499
 91
      511
 93
      105
310
903313A324000000000000004000
  0
ACAD_PROXY_OBJECT
  5
19DF9
102
{ACAD_REACTORS
330
19DF6
102
}
330
19DF6
100
AcDbZombieObject
 90
      499
 91
      511
 93
      105
310
903313A344000000000000104000
  0
ACAD_PROXY_OBJECT
  5
19DFA
102
{ACAD_REACTORS
330
19DF6
102
}
330
19DF6
100
AcDbZombieObject
 90
      499
 91
      511
 93
      105
310
903313A354000000000000144000
  0
ACAD_PROXY_OBJECT
  5
19DFB
102
{ACAD_REACTORS
330
19DF6
102
}
330
19DF6
100
AcDbZombieObject
 90
      499
 91
      511
 93
      105
310
903313A384000000000000204000
  0
ACAD_PROXY_OBJECT
  5
19DFC
102
{ACAD_REACTORS
330
19DF6
102
}
330
19DF6
100
AcDbZombieObject
 90
      499
 91
      511
 93
      113
310
904313A31304000000000000244000
  0
ACAD_PROXY_OBJECT
  5
19DFD
102
{ACAD_REACTORS
330
19DF6
102
}
330
19DF6
100
AcDbZombieObject
 90
      499
 91
      511
 93
      113
310
904313A31364000000000000304000
  0
ACAD_PROXY_OBJECT
  5
19DFE
102
{ACAD_REACTORS
330
19DF6
102
}
330
19DF6
100
AcDbZombieObject
 90
      499
 91
      511
 93
      113
310
904313A32304000000000000344000
  0
ACAD_PROXY_OBJECT
  5
19DFF
102
{ACAD_REACTORS
330
19DF6
102
}
330
19DF6
100
AcDbZombieObject
 90
      499
 91
      511
 93
      113
310
904313A333040000000000003E4000
  0
ACAD_PROXY_OBJECT
  5
19E00
102
{ACAD_REACTORS
330
19DF6
102
}
330
19DF6
100
AcDbZombieObject
 90
      499
 91
      511
 93
      113
310
904313A34304000000000000444000
  0
ACAD_PROXY_OBJECT
  5
19E01
102
{ACAD_REACTORS
330
19DF6
102
}
330
19DF6
100
AcDbZombieObject
 90
      499
 91
      511
 93
      113
310
904313A35304000000000000494000
  0
ACAD_PROXY_OBJECT
  5
19E02
102
{ACAD_REACTORS
330
19DF6
102
}
330
19DF6
100
AcDbZombieObject
 90
      499
 91
      511
 93
      121
310
905313A3130304000000000000594000
  0
ACAD_PROXY_OBJECT
  5
19E03
102
{ACAD_REACTORS
330
19DF6
102
}
330
19DF6
100
AcDbZombieObject
 90
      499
 91
      511
 93
      105
310
903323A310000000000000010100
  0
ACAD_PROXY_OBJECT
  5
19E04
102
{ACAD_REACTORS
330
19DF6
102
}
330
19DF6
100
AcDbZombieObject
 90
      499
 91
      511
 93
      105
310
903343A310000000000000410100
  0
ACAD_PROXY_OBJECT
  5
19E05
102
{ACAD_REACTORS
330
19DF6
102
}
330
19DF6
100
AcDbZombieObject
 90
      499
 91
      511
 93
      105
310
903383A310000000000000810100
  0
ACAD_PROXY_OBJECT
  5
19E06
102
{ACAD_REACTORS
330
19DF6
102
}
330
19DF6
100
AcDbZombieObject
 90
      499
 91
      511
 93
      113
310
90431303A310000000000000910100
  0
ACAD_PROXY_OBJECT
  5
19E07
102
{ACAD_REACTORS
330
19DF6
102
}
330
19DF6
100
AcDbZombieObject
 90
      499
 91
      511
 93
      121
310
9053130303A310000000000001650100
  0
ACAD_PROXY_OBJECT
  5
19E08
102
{ACAD_REACTORS
330
19DF6
102
}
330
19DF6
100
AcDbZombieObject
 90
      499
 91
      511
 93
      257
310
90E312F31323822203D2031272D3022000000000000200FC000000000000284000
  0
ACAD_PROXY_OBJECT
  5
19E09
102
{ACAD_REACTORS
330
19DF6
102
}
330
19DF6
100
AcDbZombieObject
 90
      499
 91
      511
 93
      249
310
90D312F363422203D2031272D3022000000000000240FC000000000000284000
  0
ACAD_PROXY_OBJECT
  5
19E0A
102
{ACAD_REACTORS
330
19DF6
102
}
330
19DF6
100
AcDbZombieObject
 90
      499
 91
      511
 93
      249
310
90D312F333222203D2031272D3022000000000000280FC000000000000284000
  0
ACAD_PROXY_OBJECT
  5
19E0B
102
{ACAD_REACTORS
330
19DF6
102
}
330
19DF6
100
AcDbZombieObject
 90
      499
 91
      511
 93
      249
310
90D312F313622203D2031272D30220000000000002C0FC000000000000284000
  0
ACAD_PROXY_OBJECT
  5
19E0C
102
{ACAD_REACTORS
330
19DF6
102
}
330
19DF6
100
AcDbZombieObject
 90
      499
 91
      511
 93
      249
310
90D332F333222203D2031272D30220000000000002E0FC000000000000284000
  0
ACAD_PROXY_OBJECT
  5
19E0D
102
{ACAD_REACTORS
330
19DF6
102
}
330
19DF6
100
AcDbZombieObject
 90
      499
 91
      511
 93
      241
310
90C312F3822203D2031272D3022000000000000300FC000000000000284000
  0
ACAD_PROXY_OBJECT
  5
19E0E
102
{ACAD_REACTORS
330
19DF6
102
}
330
19DF6
100
AcDbZombieObject
 90
      499
 91
      511
 93
      249
310
90D332F313622203D2031272D3022000000000000320FC000000000000284000
  0
ACAD_PROXY_OBJECT
  5
19E0F
102
{ACAD_REACTORS
330
19DF6
102
}
330
19DF6
100
AcDbZombieObject
 90
      499
 91
      511
 93
      241
310
90C312F3422203D2031272D3022000000000000340FC000000000000284000
  0
ACAD_PROXY_OBJECT
  5
19E10
102
{ACAD_REACTORS
330
19DF6
102
}
330
19DF6
100
AcDbZombieObject
 90
      499
 91
      511
 93
      241
310
90C332F3822203D2031272D3022000000000000360FC000000000000284000
  0
ACAD_PROXY_OBJECT
  5
19E11
102
{ACAD_REACTORS
330
19DF6
102
}
330
19DF6
100
AcDbZombieObject
 90
      499
 91
      511
 93
      241
310
90C312F3222203D2031272D3022000000000000380FC000000000000284000
  0
ACAD_PROXY_OBJECT
  5
19E12
102
{ACAD_REACTORS
330
19DF6
102
}
330
19DF6
100
AcDbZombieObject
 90
      499
 91
      511
 93
      241
310
90C332F3422203D2031272D30220000000000003A0FC000000000000284000
  0
ACAD_PROXY_OBJECT
  5
19E13
102
{ACAD_REACTORS
330
19DF6
102
}
330
19DF6
100
AcDbZombieObject
 90
      499
 91
      511
 93
      161
310
90A3122203D2031272D30224000000000000284000
  0
ACAD_PROXY_OBJECT
  5
19E14
102
{ACAD_REACTORS
330
19DF6
102
}
330
19DF6
100
AcDbZombieObject
 90
      499
 91
      511
 93
      257
310
90E312D312F3222203D2031272D30220000000000003E0FC000000000000284000
  0
ACAD_PROXY_OBJECT
  5
19E15
102
{ACAD_REACTORS
330
19DF6
102
}
330
19DF6
100
AcDbZombieObject
 90
      499
 91
      511
 93
      225
310
90A3322203D2031272D302200000000000002100000000000000284000
  0
ACAD_PROXY_OBJECT
  5
19E16
102
{ACAD_REACTORS
330
19DF6
102
}
330
19DF6
100
AcDbZombieObject
 90
      499
 91
      511
 93
      225
310
90A3622203D2031272D302200000000000006100000000000000284000
  0
ACAD_PROXY_OBJECT
  5
19E17
102
{ACAD_REACTORS
330
19DF6
102
}
330
19DF6
100
AcDbZombieObject
 90
      499
 91
      511
 93
      249
310
90D31272D3022203D2031272D30220000000000000A100000000000000284000
  0
ACAD_PROXY_OBJECT
  5
19DEB
102
{ACAD_REACTORS
330
19DE5
102
}
330
19DE5
100
AcDbZombieObject
 90
      499
 91
      510
 93
      436
310
42CC9915DA5C99599C985B595049028333333333333E3BF0000000000000FB0107901411070040501600405405064090741402480A0340
1001
ACAD
1000
AcDbSavedByObjectVersion
1070
     0
  0
ACAD_PROXY_OBJECT
  5
19DED
102
{ACAD_REACTORS
330
19DE5
102
}
330
19DE5
100
AcDbZombieObject
 90
      499
 91
      510
 93
      500
310
424CD108121A5919195B90640502408333333333333E3BF0000000000000FB01079024090700405020000000000001110200405405064090740C02480A0340
1001
ACAD
1000
AcDbSavedByObjectVersion
1070
     0
  0
ACAD_PROXY_OBJECT
  5
19DEC
102
{ACAD_REACTORS
330
19DE5
102
}
330
19DE5
100
AcDbZombieObject
 90
      499
 91
      510
 93
      436
310
42CCD915DA5C99599C985B595059028333333333333E3BF0000000000000FB0107901411070040501600405405064090741402480A0340
1001
ACAD
1000
AcDbSavedByObjectVersion
1070
     0
  0
ACAD_PROXY_OBJECT
  5
19DEA
102
{ACAD_REACTORS
330
19DE5
102
}
330
19DE5
100
AcDbZombieObject
 90
      499
 91
      510
 93
      388
310
4150985CDA58D07406404333333333333E3BF0000000000000FB0107A41107004050150841D405064090741402480A0350
1001
ACAD
1000
AcDbSavedByObjectVersion
1070
     0
  0
ACAD_PROXY_OBJECT
  5
19DF1
102
{ACAD_REACTORS
330
19DE5
102
}
330
19DE5
100
AcDbZombieObject
 90
      499
 91
      510
 93
      428
310
42109C9A59DA1D195B90C409028333333333333E3BF0000000000000FB010790141107004050150841D405064090741402480A029950
1001
ACAD
1000
AcDbSavedByObjectVersion
1070
     0
  0
ACAD_PROXY_OBJECT
  5
19DF5
102
{ACAD_REACTORS
330
19DE5
102
}
330
19DE5
100
AcDbZombieObject
 90
      499
 91
      510
 93
      452
310
42D0DBDB1BDC90DA185B99D95104090240C333333333333E3BF0000000000000FB0108901411070040501508421405064090741402480A0350
1001
ACAD
1000
AcDbSavedByObjectVersion
1070
     0
  0
ACAD_PROXY_OBJECT
  5
19DEE
102
{ACAD_REACTORS
330
19DE5
102
}
330
19DE5
100
AcDbZombieObject
 90
      499
 91
      510
 93
      500
310
4290DBDB98D95C1D1D585B10940D028333333333333E3BF0000000000000FB0107902409070040501000000000000111010841D405064090740C02480A0340
1001
ACAD
1000
AcDbSavedByObjectVersion
1070
     0
  0
ACAD_PROXY_OBJECT
  5
19DF0
102
{ACAD_REACTORS
330
19DE5
102
}
330
19DE5
100
AcDbZombieObject
 90
      499
 91
      510
 93
      412
310
40D11A5B50B409028333333333333E3BF0000000000000FB010790141107004050150841D405064090741402480A02677FFFFFD0
1001
ACAD
1000
AcDbSavedByObjectVersion
1070
     0
  0
ACAD_PROXY_OBJECT
  5
1E02A
102
{ACAD_REACTORS
330
19DE5
102
}
330
19DE5
100
AcDbZombieObject
 90
      499
 91
      510
 93
      452
310
43115919D950DBDB1BDC93D999916409028333333333333E3BF0000000000000FB010790141107004050150841D405064090741402480A0350
1001
ACAD
1000
AcDbSavedByObjectVersion
1070
     0
  0
ACAD_PROXY_OBJECT
  5
19DF4
102
{ACAD_REACTORS
330
19DE5
102
}
330
19DE5
100
AcDbZombieObject
 90
      499
 91
      510
 93
      444
310
42D19858D95C185D1D195C9B90F409028333333333333E3BF0000000000000FB010790141107004050150841D405064090741402480A0350
1001
ACAD
1000
AcDbSavedByObjectVersion
1070
     0
  0
ACAD_PROXY_OBJECT
  5
19DE6
102
{ACAD_REACTORS
330
19DE5
102
}
330
19DE5
100
AcDbZombieObject
 90
      499
 91
      510
 93
      388
310
41119B185D240901404333333333333E3BF0000000000000F9010740A41107004050150841D405064090741402480A1B50
1001
ACAD
1000
AcDbSavedByObjectVersion
1070
     0
  0
ACAD_PROXY_OBJECT
  5
19DE7
102
{ACAD_REACTORS
330
19DE5
102
}
330
19DE5
100
AcDbZombieObject
 90
      499
 91
      510
 93
      476
310
43519B185D15DA5D1A115919D95CD0140901404333333333333E3BF0000000000000F9010740901411070040501600405405064090741402480A1B50
1001
ACAD
1000
AcDbSavedByObjectVersion
1070
     0
  0
ACAD_PROXY_OBJECT
  5
19DE8
102
{ACAD_REACTORS
330
19DE5
102
}
330
19DE5
100
AcDbZombieObject
 90
      499
 91
      510
 93
      412
310
41D1DBDD5C985D5910240902404333333333333E3BF0000000000000F9010740A411070040501641D405064090741402480A1B50
1001
ACAD
1000
AcDbSavedByObjectVersion
1070
     0
  0
ACAD_PROXY_OBJECT
  5
19DE9
102
{ACAD_REACTORS
330
19DE5
102
}
330
19DE5
100
AcDbZombieObject
 90
      499
 91
      510
 93
      500
310
4411DBDD5C985D5915DA5D1A115919D95CD0340902404333333333333E3BF0000000000000F9010740901411070040501600405405064090741402480A1B50
1001
ACAD
1000
AcDbSavedByObjectVersion
1070
     0
  0
ACAD_PROXY_OBJECT
  5
1FBC7
102
{ACAD_REACTORS
330
19DE5
102
}
330
19DE5
100
AcDbZombieObject
 90
      499
 91
      510
 93
      476
310
41921A5919195B90640502408333333333333E33F0000000000000F901079024090700405020000000000001110200405405064090740C02480A0340
1001
ACAD
1000
AcDbSavedByObjectVersion
1070
     0
  0
ACAD_PROXY_OBJECT
  5
1E028
102
{ACAD_REACTORS
330
19DE5
102
}
330
19DE5
100
AcDbZombieObject
 90
      499
 91
      510
 93
      428
310
42529A5D1D195C93D999914409028333333333333E3BF0000000000000FB010790141107004050150A41D405064090741402480A0350
1001
ACAD
1000
AcDbSavedByObjectVersion
1070
     0
  0
ACAD_PROXY_OBJECT
  5
19DF3
102
{ACAD_REACTORS
330
19DE5
102
}
330
19DE5
100
AcDbZombieObject
 90
      499
 91
      510
 93
      444
310
42D31A5B995C185D1D195C9B90E409028333333333333E3BF0000000000000FB010790141107004050750841D405064090741402483A0350
1001
ACAD
1000
AcDbSavedByObjectVersion
1070
     0
  0
ACAD_PROXY_OBJECT
  5
1FBCD
102
{ACAD_REACTORS
330
19DE5
102
}
330
19DE5
100
AcDbZombieObject
 90
      499
 91
      510
 93
      484
310
42135BD9195B1A5B99D0A409038333333333333E33F0000000000000F901074090290700405010000000000201990108421405064090741402480A1B40
1001
ACAD
1000
AcDbSavedByObjectVersion
1070
     0
  0
ACAD_PROXY_OBJECT
  5
1E029
102
{ACAD_REACTORS
330
19DE5
102
}
330
19DE5
100
AcDbZombieObject
 90
      499
 91
      510
 93
      444
310
42D3DD995C9A185B99D3D999915409028333333333333E3BF0000000000000FB010790141107004050150941D405064090741402480A0350
1001
ACAD
1000
AcDbSavedByObjectVersion
1070
     0
  0
ACAD_PROXY_OBJECT
  5
19DEF
102
{ACAD_REACTORS
330
19DE5
102
}
330
19DE5
100
AcDbZombieObject
 90
      499
 91
      510
 93
      420
310
425499585B1A5CDD1A58D08409028333333333333E3BF0000000000000FB01079019070040501508421405064090741402480A1B40
1001
ACAD
1000
AcDbSavedByObjectVersion
1070
     0
  0
ACAD_PROXY_OBJECT
  5
1FBCC
102
{ACAD_REACTORS
330
19DE5
102
}
330
19DE5
100
AcDbZombieObject
 90
      499
 91
      510
 93
      420
310
4194DA1859195911B40902404333333333333E33F0000000000000F9010740A41107004050150800405405064090840C02480A0B40
1001
ACAD
1000
AcDbSavedByObjectVersion
1070
     0
  0
ACAD_PROXY_OBJECT
  5
1FBCB
102
{ACAD_REACTORS
330
19DE5
102
}
330
19DE5
100
AcDbZombieObject
 90
      499
 91
      510
 93
      516
310
4454DA18591959081DDA5D1A08195919D95CD1A40902404333333333333E33F0000000000000F901074090142907004050250800405405064090740C02480A0B40
1001
ACAD
1000
AcDbSavedByObjectVersion
1070
     0
  0
ACAD_PROXY_OBJECT
  5
1FBC8
102
{ACAD_REACTORS
330
19DE5
102
}
330
19DE5
100
AcDbZombieObject
 90
      499
 91
      510
 93
      532
310
4394DA1859195CC81BD98811DC985E5174090240C333333333333E33F0000000000000F901079024090741D01000000000000111010841D405064090740C02480A0340
1001
ACAD
1000
AcDbSavedByObjectVersion
1070
     0
  0
ACAD_PROXY_OBJECT
  5
1FBC9
102
{ACAD_REACTORS
330
19DE5
102
}
330
19DE5
100
AcDbZombieObject
 90
      499
 91
      510
 93
      476
310
41D4DAD95D18DA1E51840502408333333333333E33F0000000000000F901079024090741D01000000000000111010B41D405064090741802480A0340
1001
ACAD
1000
AcDbSavedByObjectVersion
1070
     0
  0
ACAD_PROXY_OBJECT
  5
19DF2
102
{ACAD_REACTORS
330
19DE5
102
}
330
19DE5
100
AcDbZombieObject
 90
      499
 91
      510
 93
      412
310
41D51A1A58DAD95B90D409028333333333333E3BF0000000000000FB010790141107004050150C41D405064090741402480A0350
1001
ACAD
1000
AcDbSavedByObjectVersion
1070
     0
  0
ACAD_PROXY_OBJECT
  5
1FBC6
102
{ACAD_REACTORS
330
19DE5
102
}
330
19DE5
100
AcDbZombieObject
 90
      499
 91
      510
 93
      420
310
4255DA5C99599C985B595059028333333333333E33F0000000000000F90107901411070040501600405405064090740C02480A0340
1001
ACAD
1000
AcDbSavedByObjectVersion
1070
     0
  0
ACAD_PROXY_OBJECT
  5
1FBCA
102
{ACAD_REACTORS
330
19DE5
102
}
330
19DE5
100
AcDbZombieObject
 90
      499
 91
      510
 93
      404
310
41560B54985E51940902404000000000000E03F0000000000000F9010740501907004050150841D405064090740C02480A1B40
1001
ACAD
1000
AcDbSavedByObjectVersion
1070
     0
  0
XRECORD
  5
22BF2
102
{ACAD_REACTORS
330
22BF1
102
}
330
22BF1
100
AcDbXrecord
340
2D0
  0
XRECORD
  5
22BF3
102
{ACAD_REACTORS
330
22BF1
102
}
330
22BF1
100
AcDbXrecord
340
2CF
  0
DICTIONARYVAR
  5
20376
102
{ACAD_REACTORS
330
37
102
}
330
37
100
DictionaryVariables
280
     0
  1
1:1
  0
DICTIONARYVAR
  5
1AC19
102
{ACAD_REACTORS
330
37
102
}
330
37
100
DictionaryVariables
280
     0
  1
Standard
  0
DICTIONARYVAR
  5
4F1
102
{ACAD_REACTORS
330
37
102
}
330
37
100
DictionaryVariables
280
     0
  1
Standard
  0
DICTIONARYVAR
  5
38
102
{ACAD_REACTORS
330
37
102
}
330
37
100
DictionaryVariables
280
     0
  1
-1
  0
DICTIONARYVAR
  5
408
102
{ACAD_REACTORS
330
37
102
}
330
37
100
DictionaryVariables
280
     0
  1
2
  0
DICTIONARYVAR
  5
1891
102
{ACAD_REACTORS
330
37
102
}
330
37
100
DictionaryVariables
280
     0
  1
1
  0
DICTIONARYVAR
  5
1AC1C
102
{ACAD_REACTORS
330
37
102
}
330
37
100
DictionaryVariables
280
     0
  1
0
  0
DICTIONARYVAR
  5
1895
102
{ACAD_REACTORS
330
37
102
}
330
37
100
DictionaryVariables
280
     0
  1
8
  0
DICTIONARYVAR
  5
1894
102
{ACAD_REACTORS
330
37
102
}
330
37
100
DictionaryVariables
280
     0
  1
1
  0
DICTIONARYVAR
  5
203CC
102
{ACAD_REACTORS
330
37
102
}
330
37
100
DictionaryVariables
280
     0
  1
0
  0
DICTIONARYVAR
  5
1892
102
{ACAD_REACTORS
330
37
102
}
330
37
100
DictionaryVariables
280
     0
  1
8
  0
DICTIONARYVAR
  5
1893
102
{ACAD_REACTORS
330
37
102
}
330
37
100
DictionaryVariables
280
     0
  1
2
  0
DICTIONARYVAR
  5
409
102
{ACAD_REACTORS
330
37
102
}
330
37
100
DictionaryVariables
280
     0
  1

  0
DICTIONARYVAR
  5
1AC1B
102
{ACAD_REACTORS
330
37
102
}
330
37
100
DictionaryVariables
280
     0
  1
127
  0
DICTIONARYVAR
  5
1FBC5
102
{ACAD_REACTORS
330
37
102
}
330
37
100
DictionaryVariables
280
     0
  1
2
  0
DICTIONARY
  5
22D8F
330
19DD5
100
AcDbDictionary
  3
ACAD_XREC_ROUNDTRIP
360
22D90
1001
ACAD
1000
TREAT_AS_HARD
1070
     1
  0
DICTIONARY
  5
22D91
330
19DCD
100
AcDbDictionary
  3
ACAD_XREC_ROUNDTRIP
360
22D92
1001
ACAD
1000
TREAT_AS_HARD
1070
     1
  0
DICTIONARY
  5
22D93
330
19DDD
100
AcDbDictionary
  3
ACAD_XREC_ROUNDTRIP
360
22D94
1001
ACAD
1000
TREAT_AS_HARD
1070
     1
  0
XRECORD
  5
22D90
102
{ACAD_REACTORS
330
22D8F
102
}
330
22D8F
100
AcDbXrecord
102
MATERIAL
148
0.0
149
0.0
149
0.0
 93
        0
 94
      127
282
     0
 72
     0
 77
     0
171
     0
175
     0
179
     0
273
     0
  0
XRECORD
  5
22D92
102
{ACAD_REACTORS
330
22D91
102
}
330
22D91
100
AcDbXrecord
102
MATERIAL
148
0.0
149
0.0
149
0.0
 93
        0
 94
      127
282
     0
 72
     0
 77
     0
171
     0
175
     0
179
     0
273
     0
  0
XRECORD
  5
22D94
102
{ACAD_REACTORS
330
22D93
102
}
330
22D93
100
AcDbXrecord
102
MATERIAL
148
0.0
149
0.0
149
0.0
 93
        0
 94
      127
282
     0
 72
     0
 77
     0
171
     0
175
     0
179
     0
273
     0
  0
ENDSEC
  0
EOF
