  0
SECTION
  2
HEADER
  9
$ACADVER
  1
AC1012
  9
$DWGCODEPAGE
  3
ansi_932
  9
$INSBASE
 10
0.0
 20
0.0
 30
0.0
  9
$EXTMIN
 10
4109.999999999999
 20
-601.8248259379246
 30
0.0
  9
$EXTMAX
 10
4857.523723289394
 20
-152.8294680344279
 30
0.0000000000029782
  9
$LIMMIN
 10
0.0
 20
0.0
  9
$LIMMAX
 10
420.0
 20
297.0
  9
$ORTHOMODE
 70
     0
  9
$REGENMODE
 70
     1
  9
$FILLMODE
 70
     1
  9
$QTEXTMODE
 70
     0
  9
$MIRRTEXT
 70
     0
  9
$DRAGMODE
 70
     2
  9
$LTSCALE
 40
0.5
  9
$OSMODE
 70
  2175
  9
$ATTMODE
 70
     1
  9
$TEXTSIZE
 40
4.0
  9
$TRACEWID
 40
1.0
  9
$TEXTSTYLE
  7
STANDARD
  9
$CLAYER
  8
1TEXT
  9
$CELTYPE
  6
BYLAYER
  9
$CECOLOR
 62
   256
  9
$CELTSCALE
 40
1.0
  9
$DELOBJ
 70
     1
  9
$DISPSILH
 70
     0
  9
$DIMSCALE
 40
2.0
  9
$DIMASZ
 40
2.0
  9
$DIMEXO
 40
0.0
  9
$DIMDLI
 40
7.0
  9
$DIMRND
 40
0.0
  9
$DIMDLE
 40
0.0
  9
$DIMEXE
 40
1.0
  9
$DIMTP
 40
0.0
  9
$DIMTM
 40
0.0
  9
$DIMTXT
 40
3.5
  9
$DIMCEN
 40
0.0
  9
$DIMTSZ
 40
0.0
  9
$DIMTOL
 70
     0
  9
$DIMLIM
 70
     0
  9
$DIMTIH
 70
     0
  9
$DIMTOH
 70
     0
  9
$DIMSE1
 70
     0
  9
$DIMSE2
 70
     0
  9
$DIMTAD
 70
     1
  9
$DIMZIN
 70
     8
  9
$DIMBLK
  1

  9
$DIMASO
 70
     1
  9
$DIMSHO
 70
     1
  9
$DIMPOST
  1
 
  9
$DIMAPOST
  1

  9
$DIMALT
 70
     0
  9
$DIMALTD
 70
     2
  9
$DIMALTF
 40
25.4
  9
$DIMLFAC
 40
1.0
  9
$DIMTOFL
 70
     1
  9
$DIMTVP
 40
0.0
  9
$DIMTIX
 70
     0
  9
$DIMSOXD
 70
     0
  9
$DIMSAH
 70
     1
  9
$DIMBLK1
  1
OPEN30
  9
$DIMBLK2
  1
OPEN30
  9
$DIMSTYLE
  2
NEWX10
  9
$DIMCLRD
 70
   256
  9
$DIMCLRE
 70
   256
  9
$DIMCLRT
 70
   201
  9
$DIMTFAC
 40
0.7
  9
$DIMGAP
 40
0.7
  9
$DIMJUST
 70
     0
  9
$DIMSD1
 70
     0
  9
$DIMSD2
 70
     0
  9
$DIMTOLJ
 70
     1
  9
$DIMTZIN
 70
     8
  9
$DIMALTZ
 70
     0
  9
$DIMALTTZ
 70
     0
  9
$DIMFIT
 70
     2
  9
$DIMUPT
 70
     0
  9
$DIMUNIT
 70
     2
  9
$DIMDEC
 70
     2
  9
$DIMTDEC
 70
     4
  9
$DIMALTU
 70
     2
  9
$DIMALTTD
 70
     2
  9
$DIMTXSTY
  7
STANDARD
  9
$DIMAUNIT
 70
     0
  9
$LUNITS
 70
     2
  9
$LUPREC
 70
     4
  9
$SKETCHINC
 40
1.0
  9
$FILLETRAD
 40
0.0
  9
$AUNITS
 70
     0
  9
$AUPREC
 70
     2
  9
$MENU
  1
acad
  9
$ELEVATION
 40
0.0
  9
$PELEVATION
 40
0.0
  9
$THICKNESS
 40
0.0
  9
$LIMCHECK
 70
     0
  9
$CHAMFERA
 40
1.0
  9
$CHAMFERB
 40
1.0
  9
$CHAMFERC
 40
20.0
  9
$CHAMFERD
 40
0.0
  9
$SKPOLY
 70
     0
  9
$TDCREATE
 40
2453033.732663484
  9
$TDUPDATE
 40
2459123.412492766
  9
$TDINDWG
 40
2.6992005093
  9
$TDUSRTIMER
 40
2.6992005093
  9
$USRTIMER
 70
     1
  9
$ANGBASE
 50
0.0
  9
$ANGDIR
 70
     0
  9
$PDMODE
 70
     0
  9
$PDSIZE
 40
0.0
  9
$PLINEWID
 40
0.0
  9
$COORDS
 70
     2
  9
$SPLFRAME
 70
     0
  9
$SPLINETYPE
 70
     6
  9
$SPLINESEGS
 70
     8
  9
$ATTDIA
 70
     0
  9
$ATTREQ
 70
     1
  9
$HANDLING
 70
     1
  9
$HANDSEED
  5
233C3
  9
$SURFTAB1
 70
     6
  9
$SURFTAB2
 70
     6
  9
$SURFTYPE
 70
     6
  9
$SURFU
 70
     6
  9
$SURFV
 70
     6
  9
$UCSNAME
  2

  9
$UCSORG
 10
0.0
 20
0.0
 30
0.0
  9
$UCSXDIR
 10
1.0
 20
0.0
 30
0.0
  9
$UCSYDIR
 10
0.0
 20
1.0
 30
0.0
  9
$PUCSNAME
  2

  9
$PUCSORG
 10
0.0
 20
0.0
 30
0.0
  9
$PUCSXDIR
 10
1.0
 20
0.0
 30
0.0
  9
$PUCSYDIR
 10
0.0
 20
1.0
 30
0.0
  9
$USERI1
 70
     0
  9
$USERI2
 70
     0
  9
$USERI3
 70
     0
  9
$USERI4
 70
     0
  9
$USERI5
 70
     0
  9
$USERR1
 40
0.0
  9
$USERR2
 40
0.0
  9
$USERR3
 40
0.0
  9
$USERR4
 40
0.0
  9
$USERR5
 40
0.0
  9
$WORLDVIEW
 70
     1
  9
$SHADEDGE
 70
     3
  9
$SHADEDIF
 70
    70
  9
$TILEMODE
 70
     1
  9
$MAXACTVP
 70
    48
  9
$PINSBASE
 10
0.0
 20
0.0
 30
0.0
  9
$PLIMCHECK
 70
     0
  9
$PEXTMIN
 10
1.000000000000000E+20
 20
1.000000000000000E+20
 30
1.000000000000000E+20
  9
$PEXTMAX
 10
-1.000000000000000E+20
 20
-1.000000000000000E+20
 30
-1.000000000000000E+20
  9
$PLIMMIN
 10
0.0
 20
0.0
  9
$PLIMMAX
 10
420.0
 20
297.0
  9
$UNITMODE
 70
     0
  9
$VISRETAIN
 70
     1
  9
$PLINEGEN
 70
     0
  9
$PSLTSCALE
 70
     1
  9
$TREEDEPTH
 70
  3020
  9
$PICKSTYLE
 70
     1
  9
$CMLSTYLE
  2
STANDARD
  9
$CMLJUST
 70
     0
  9
$CMLSCALE
 40
20.0
  9
$SAVEIMAGES
 70
     1
  0
ENDSEC
  0
SECTION
  2
CLASSES
  0
CLASS
  1
DICTIONARYVAR
  2
AcDbDictionaryVar
  3
ObjectDBX Classes
 90
        0
280
     0
281
     0
  0
CLASS
  1
IDBUFFER
  2
AcDbIdBuffer
  3
ObjectDBX Classes
 90
    32768
280
     0
281
     0
  0
CLASS
  1
LWPOLYLINE
  2
AcDbPolyline
  3
ObjectDBX Classes
 90
    32768
280
     0
281
     1
  0
CLASS
  1
ACDBDICTIONARYWDFLT
  2
AcDbDictionaryWithDefault
  3
ObjectDBX Classes
 90
    32768
280
     0
281
     0
  0
CLASS
  1
ACDBPLACEHOLDER
  2
AcDbPlaceHolder
  3
ObjectDBX Classes
 90
        0
280
     0
281
     0
  0
CLASS
  1
LAYOUT
  2
AcDbLayout
  3
ObjectDBX Classes
 90
        0
280
     0
281
     0
  0
CLASS
  1
TABLESTYLE
  2
AcDbTableStyle
  3
ObjectDBX Classes
 90
     4095
280
     0
281
     0
  0
CLASS
  1
SORTENTSTABLE
  2
AcDbSortentsTable
  3
ObjectDBX Classes
 90
    32768
280
     0
281
     0
  0
CLASS
  1
DIMASSOC
  2
AcDbDimAssoc
  3
"AcDbDimAssoc|Product Desc:     AcDim ARX App For Dimension|Company:          Autodesk, Inc.|WEB Address:      www.autodesk.com"
 90
        0
280
     0
281
     0
  0
CLASS
  1
MATERIAL
  2
AcDbMaterial
  3
ObjectDBX Classes
 90
     1153
280
     0
281
     0
  0
CLASS
  1
VISUALSTYLE
  2
AcDbVisualStyle
  3
ObjectDBX Classes
 90
     4095
280
     0
281
     0
  0
CLASS
  1
SCALE
  2
AcDbScale
  3
ObjectDBX Classes
 90
     1153
280
     0
281
     0
  0
CLASS
  1
MLEADERSTYLE
  2
AcDbMLeaderStyle
  3
ACDB_MLEADERSTYLE_CLASS
 90
     4095
280
     0
281
     0
  0
CLASS
  1
CELLSTYLEMAP
  2
AcDbCellStyleMap
  3
ObjectDBX Classes
 90
     1152
280
     0
281
     0
  0
CLASS
  1
EXACXREFPANELOBJECT
  2
ExAcXREFPanelObject
  3
EXAC_ESW
 90
     1025
280
     1
281
     0
  0
CLASS
  1
NPOCOLLECTION
  2
AcDbImpNonPersistentObjectsCollection
  3
ObjectDBX Classes
 90
     1153
280
     1
281
     0
  0
CLASS
  1
SUN
  2
AcDbSun
  3
SCENEOE
 90
     1153
280
     0
281
     0
  0
CLASS
  1
MULTILEADER
  2
AcDbMLeader
  3
ACDB_MLEADER_CLASS
 90
     1025
280
     0
281
     1
  0
CLASS
  1

  2
CaLongTransaction
  3

 90
        0
280
     0
281
     0
  0
CLASS
  1
XRECORD
  2
AcDbXrecord
  3
ObjectDBX Classes
 90
    32768
280
     0
281
     0
  0
CLASS
  1
HATCH
  2
AcDbHatch
  3
ObjectDBX Classes
 90
    32768
280
     0
281
     1
  0
ENDSEC
  0
SECTION
  2
TABLES
  0
TABLE
  2
VPORT
  5
8
330
0
100
AcDbSymbolTable
 70
     1
  0
VPORT
  5
19DC2
330
8
100
AcDbSymbolTableRecord
100
AcDbViewportTableRecord
  2
*ACTIVE
 70
     0
 10
0.0
 20
0.0
 11
1.0
 21
1.0
 12
4483.761861644696
 22
-377.3271469861763
 13
0.0
 23
0.0
 14
10.0
 24
10.0
 15
10.0
 25
10.0
 16
0.0
 26
0.0
 36
1.0
 17
0.0
 27
0.0
 37
0.0
 40
482.0792263805965
 41
1.807328605200946
 42
50.0
 43
0.0
 44
0.0
 50
0.0
 51
0.0
 71
    16
 72
   100
 73
     1
 74
     1
 75
     0
 76
     0
 77
     0
 78
     0
  0
ENDTAB
  0
TABLE
  2
LTYPE
  5
5
330
0
100
AcDbSymbolTable
 70
     3
  0
LTYPE
  5
12
330
5
100
AcDbSymbolTableRecord
100
AcDbLinetypeTableRecord
  2
BYBLOCK
 70
     0
  3

 72
    65
 73
     0
 40
0.0
  0
LTYPE
  5
13
330
5
100
AcDbSymbolTableRecord
100
AcDbLinetypeTableRecord
  2
BYLAYER
 70
     0
  3

 72
    65
 73
     0
 40
0.0
  0
LTYPE
  5
14
330
5
100
AcDbSymbolTableRecord
100
AcDbLinetypeTableRecord
  2
CONTINUOUS
 70
     0
  3
Solid line
 72
    65
 73
     0
 40
0.0
  0
LTYPE
  5
26
330
5
100
AcDbSymbolTableRecord
100
AcDbLinetypeTableRecord
  2
CENTER2
 70
     0
  3
Center (.5x) ___ _ ___ _ ___ _ ___ _ ___ _ ___
 72
    65
 73
     4
 40
28.575
 49
19.05
 74
     0
 49
-3.175
 74
     0
 49
3.175
 74
     0
 49
-3.175
 74
     0
  0
LTYPE
  5
100
330
5
100
AcDbSymbolTableRecord
100
AcDbLinetypeTableRecord
  2
PHANTOM2
 70
     0
  3
Phantom (0.5x) ___ _ _ ___ _ _ ___ _ _ ___ _ _
 72
    65
 73
     6
 40
31.75
 49
15.875
 74
     0
 49
-3.175
 74
     0
 49
3.175
 74
     0
 49
-3.175
 74
     0
 49
3.175
 74
     0
 49
-3.175
 74
     0
  0
ENDTAB
  0
TABLE
  2
LAYER
  5
2
102
{ACAD_XDICTIONARY
360
18FE8
102
}
330
0
100
AcDbSymbolTable
 70
     6
  0
LAYER
  5
E
102
{ACAD_XDICTIONARY
360
1A20A
102
}
330
2
100
AcDbSymbolTableRecord
100
AcDbLayerTableRecord
  2
0
 70
     0
 62
     7
  6
CONTINUOUS
  0
LAYER
  5
29
102
{ACAD_XDICTIONARY
360
1A20C
102
}
330
2
100
AcDbSymbolTableRecord
100
AcDbLayerTableRecord
  2
1CENTER
 70
     0
 62
     7
  6
CENTER2
  0
LAYER
  5
31
102
{ACAD_XDICTIONARY
360
1A20E
102
}
330
2
100
AcDbSymbolTableRecord
100
AcDbLayerTableRecord
  2
1TEXT
 70
     0
 62
     7
  6
CONTINUOUS
  0
LAYER
  5
101
102
{ACAD_XDICTIONARY
360
1A218
102
}
330
2
100
AcDbSymbolTableRecord
100
AcDbLayerTableRecord
  2
1DIM
 70
     0
 62
     7
  6
CONTINUOUS
  0
LAYER
  5
103
102
{ACAD_XDICTIONARY
360
1A21C
102
}
330
2
100
AcDbSymbolTableRecord
100
AcDbLayerTableRecord
  2
1PHANTOM
 70
     0
 62
     7
  6
PHANTOM2
  0
LAYER
  5
25F
102
{ACAD_XDICTIONARY
360
1A220
102
}
330
2
100
AcDbSymbolTableRecord
100
AcDbLayerTableRecord
  2
01
 70
     0
 62
     1
  6
CONTINUOUS
  0
ENDTAB
  0
TABLE
  2
STYLE
  5
3
330
0
100
AcDbSymbolTable
 70
     1
  0
STYLE
  5
F
330
3
100
AcDbSymbolTableRecord
100
AcDbTextStyleTableRecord
  2
STANDARD
 70
     0
 40
0.0
 41
1.0
 50
0.0
 71
     0
 42
4.0
  3
txt.shx
  4
extfont.shx
  0
ENDTAB
  0
TABLE
  2
VIEW
  5
6
330
0
100
AcDbSymbolTable
 70
     0
  0
ENDTAB
  0
TABLE
  2
UCS
  5
7
330
0
100
AcDbSymbolTable
 70
     0
  0
ENDTAB
  0
TABLE
  2
APPID
  5
9
330
0
100
AcDbSymbolTable
 70
    17
  0
APPID
  5
10
330
9
100
AcDbSymbolTableRecord
100
AcDbRegAppTableRecord
  2
ACAD
 70
     0
  0
APPID
  5
21
330
9
100
AcDbSymbolTableRecord
100
AcDbRegAppTableRecord
  2
DRAWINGVARIABLESXDATA
 70
     0
  0
APPID
  5
64
330
9
100
AcDbSymbolTableRecord
100
AcDbRegAppTableRecord
  2
CONTENTTABDATA
 70
     0
  0
APPID
  5
65
330
9
100
AcDbSymbolTableRecord
100
AcDbRegAppTableRecord
  2
CONTENTCURRENTTAB
 70
     0
  0
APPID
  5
66
330
9
100
AcDbSymbolTableRecord
100
AcDbRegAppTableRecord
  2
CONTENTBLOCKDESCRIPTION
 70
     0
  0
APPID
  5
67
330
9
100
AcDbSymbolTableRecord
100
AcDbRegAppTableRecord
  2
CONTENTBLOCKICON
 70
     0
  0
APPID
  5
68
330
9
100
AcDbSymbolTableRecord
100
AcDbRegAppTableRecord
  2
CONTENTLONGBLOCKNAME
 70
     0
  0
APPID
  5
5A9
330
9
100
AcDbSymbolTableRecord
100
AcDbRegAppTableRecord
  2
ACAD_PSEXT
 70
     0
  0
APPID
  5
18AC
330
9
100
AcDbSymbolTableRecord
100
AcDbRegAppTableRecord
  2
ACAD_DSTYLE_DIMTEXT_FILL
 70
     0
  0
APPID
  5
19E1A
330
9
100
AcDbSymbolTableRecord
100
AcDbRegAppTableRecord
  2
ACAD_MLEADERVER
 70
     0
  0
APPID
  5
1A2FA
330
9
100
AcDbSymbolTableRecord
100
AcDbRegAppTableRecord
  2
ACAD_DSTYLE_DIMRADIAL_EXTE
 70
     0
  0
APPID
  5
1DBC1
330
9
100
AcDbSymbolTableRecord
100
AcDbRegAppTableRecord
  2
ACADANNOTATIVE
 70
     0
  0
APPID
  5
1E991
330
9
100
AcDbSymbolTableRecord
100
AcDbRegAppTableRecord
  2
ACAD_EXEMPT_FROM_CAD_STAND
 70
     0
  0
APPID
  5
1FBF7
330
9
100
AcDbSymbolTableRecord
100
AcDbRegAppTableRecord
  2
ACDBBLOCKREPETAG
 70
     0
  0
APPID
  5
20360
330
9
100
AcDbSymbolTableRecord
100
AcDbRegAppTableRecord
  2
ACAD_OBJECT_CHANGE_GUID
 70
     0
  0
APPID
  5
20453
330
9
100
AcDbSymbolTableRecord
100
AcDbRegAppTableRecord
  2
ACLAYERTOOLS
 70
     0
  0
APPID
  5
20454
330
9
100
AcDbSymbolTableRecord
100
AcDbRegAppTableRecord
  2
ACAD_NAV_VCDISPLAY
 70
     0
  0
ENDTAB
  0
TABLE
  2
DIMSTYLE
  5
A
330
0
100
AcDbSymbolTable
 70
     2
  0
DIMSTYLE
105
48
330
A
100
AcDbSymbolTableRecord
100
AcDbDimStyleTableRecord
  2
NEWX10
 70
     0
  3
 
  4

  5

  6
OPEN30
  7
OPEN30
 40
1.0
 41
2.0
 42
0.0
 43
7.0
 44
1.0
 45
0.0
 46
0.0
 47
0.0
 48
0.0
140
3.5
141
0.0
142
0.0
143
25.4
144
1.0
145
0.0
146
0.7
147
0.7
 71
     0
 72
     0
 73
     0
 74
     0
 75
     0
 76
     0
 77
     1
 78
     8
170
     0
171
     2
172
     1
173
     1
174
     0
175
     0
176
   256
177
   256
178
   201
179
     2
270
     2
271
     2
272
     4
273
     2
274
     2
340
F
275
     0
280
     0
281
     0
282
     0
283
     1
284
     8
285
     0
286
     0
287
     2
288
     0
  0
DIMSTYLE
105
208CA
330
A
100
AcDbSymbolTableRecord
100
AcDbDimStyleTableRecord
  2
ISO-25
 70
     0
  3

  4

  5

  6

  7

 40
1.0
 41
2.5
 42
0.625
 43
3.75
 44
1.25
 45
0.0
 46
0.0
 47
0.0
 48
0.0
140
2.5
141
2.5
142
0.0
143
0.03937007874016
144
1.0
145
0.0
146
1.0
147
0.625
 71
     0
 72
     0
 73
     0
 74
     0
 75
     0
 76
     0
 77
     1
 78
     8
170
     0
171
     3
172
     1
173
     0
174
     0
175
     0
176
     0
177
     0
178
     0
270
     2
271
     2
272
     2
273
     2
274
     3
340
F
275
     0
280
     0
281
     0
282
     0
283
     0
284
     8
285
     0
286
     0
287
     3
288
     0
  0
ENDTAB
  0
TABLE
  2
BLOCK_RECORD
  5
1
330
0
100
AcDbSymbolTable
 70
    10
  0
BLOCK_RECORD
  5
18
102
{ACAD_XDICTIONARY
360
6E9
102
}
330
1
100
AcDbSymbolTableRecord
100
AcDbBlockTableRecord
  2
*MODEL_SPACE
  0
BLOCK_RECORD
  5
15
102
{ACAD_XDICTIONARY
360
59B
102
}
330
1
100
AcDbSymbolTableRecord
100
AcDbBlockTableRecord
  2
*PAPER_SPACE
  0
BLOCK_RECORD
  5
42
330
1
100
AcDbSymbolTableRecord
100
AcDbBlockTableRecord
  2
_OPEN30
  0
BLOCK_RECORD
  5
6F0
330
1
100
AcDbSymbolTableRecord
100
AcDbBlockTableRecord
  2
_OPEN
  0
BLOCK_RECORD
  5
1FC46
330
1
100
AcDbSymbolTableRecord
100
AcDbBlockTableRecord
  2
A3WAKUKAWAJUN2017_HYOUDAI_
  0
BLOCK_RECORD
  5
20460
102
{ACAD_XDICTIONARY
360
20461
102
}
330
1
100
AcDbSymbolTableRecord
100
AcDbBlockTableRecord
  2
NOCIRCLE
1001
ACADANNOTATIVE
1000
AnnotativeData
1002
{
1070
     1
1070
     0
1002
}
  0
BLOCK_RECORD
  5
23223
330
1
100
AcDbSymbolTableRecord
100
AcDbBlockTableRecord
  2
*X194
  0
BLOCK_RECORD
  5
23271
330
1
100
AcDbSymbolTableRecord
100
AcDbBlockTableRecord
  2
*X195
  0
BLOCK_RECORD
  5
232C3
330
1
100
AcDbSymbolTableRecord
100
AcDbBlockTableRecord
  2
*X196
  0
BLOCK_RECORD
  5
23314
330
1
100
AcDbSymbolTableRecord
100
AcDbBlockTableRecord
  2
*X197
  0
BLOCK_RECORD
  5
23351
330
1
100
AcDbSymbolTableRecord
100
AcDbBlockTableRecord
  2
*X198
  0
BLOCK_RECORD
  5
23391
330
1
100
AcDbSymbolTableRecord
100
AcDbBlockTableRecord
  2
*X199
  0
ENDTAB
  0
ENDSEC
  0
SECTION
  2
BLOCKS
  0
BLOCK
  5
19
330
18
100
AcDbEntity
  8
0
100
AcDbBlockBegin
  2
*MODEL_SPACE
 70
     0
 10
0.0
 20
0.0
 30
0.0
  3
*MODEL_SPACE
  1

  0
ENDBLK
  5
1A
330
18
100
AcDbEntity
  8
0
100
AcDbBlockEnd
  0
BLOCK
  5
16
330
15
100
AcDbEntity
 67
     1
  8
0
100
AcDbBlockBegin
  2
*PAPER_SPACE
 70
     0
 10
0.0
 20
0.0
 30
0.0
  3
*PAPER_SPACE
  1

  0
ENDBLK
  5
17
330
15
100
AcDbEntity
 67
     1
  8
0
100
AcDbBlockEnd
  0
BLOCK
  5
43
330
42
100
AcDbEntity
  8
0
100
AcDbBlockBegin
  2
_OPEN30
 70
     0
 10
0.0
 20
0.0
 30
0.0
  3
_OPEN30
  1

  0
LINE
  5
44
330
42
100
AcDbEntity
  8
0
  6
BYBLOCK
 62
     0
100
AcDbLine
 10
-1.0
 20
0.26794919
 30
0.0
 11
0.0
 21
0.0
 31
0.0
  0
LINE
  5
45
330
42
100
AcDbEntity
  8
0
  6
BYBLOCK
 62
     0
100
AcDbLine
 10
0.0
 20
0.0
 30
0.0
 11
-1.0
 21
-0.26794919
 31
0.0
  0
LINE
  5
46
330
42
100
AcDbEntity
  8
0
  6
BYBLOCK
 62
     0
100
AcDbLine
 10
0.0
 20
0.0
 30
0.0
 11
-1.0
 21
0.0
 31
0.0
  0
ENDBLK
  5
47
330
42
100
AcDbEntity
  8
0
100
AcDbBlockEnd
  0
BLOCK
  5
6F1
330
6F0
100
AcDbEntity
  8
0
100
AcDbBlockBegin
  2
_OPEN
 70
     0
 10
0.0
 20
0.0
 30
0.0
  3
_OPEN
  1
a3waku.dwg
  0
LINE
  5
6F2
330
6F0
100
AcDbEntity
  8
0
  6
BYBLOCK
 62
     0
100
AcDbLine
 10
-1.0
 20
0.1666666666666667
 30
0.0
 11
0.0
 21
0.0
 31
0.0
  0
LINE
  5
6F3
330
6F0
100
AcDbEntity
  8
0
  6
BYBLOCK
 62
     0
100
AcDbLine
 10
0.0
 20
0.0
 30
0.0
 11
-1.0
 21
-0.1666666666666667
 31
0.0
  0
LINE
  5
6F4
330
6F0
100
AcDbEntity
  8
0
  6
BYBLOCK
 62
     0
100
AcDbLine
 10
0.0
 20
0.0
 30
0.0
 11
-1.0
 21
0.0
 31
0.0
  0
ENDBLK
  5
6F5
330
6F0
100
AcDbEntity
  8
0
100
AcDbBlockEnd
  0
BLOCK
  5
20345
330
1FC46
100
AcDbEntity
  8
0
100
AcDbBlockBegin
  2
A3WAKUKAWAJUN2017_HYOUDAI_
 70
     0
 10
0.0
 20
0.0
 30
0.0
  3
A3WAKUKAWAJUN2017_HYOUDAI_
  1

  0
LINE
  5
1FC48
330
1FC46
100
AcDbEntity
  8
0
100
AcDbLine
 10
13.26299999998673
 20
-0.0001000000000317
 30
0.0
 11
9.236999999990758
 21
8.999899999990987
 31
0.0
1001
ACAD
1000
ASC_BOUNDS
1002
{
1070
    19
1005
1FC89
1002
}
  0
LINE
  5
1FC49
330
1FC46
100
AcDbEntity
  8
0
100
AcDbLine
 10
5.657999999994331
 20
0.9999999999989768
 30
0.0
 11
9.236999999990758
 21
8.999999999991019
 31
0.0
1001
ACAD
1000
ASC_BOUNDS
1002
{
1070
    19
1005
1FC89
1002
}
  0
LINE
  5
1FC4A
330
1FC46
100
AcDbEntity
  8
0
100
AcDbLine
 10
18.59199999998134
 20
-0.2368999999997641
 30
0.0
 11
16.46099999998353
 21
5.432899999994561
 31
0.0
1001
ACAD
1000
ASC_BOUNDS
1002
{
1070
    19
1005
1FC8A
1002
}
  0
LINE
  5
1FC4B
330
1FC46
100
AcDbEntity
  8
0
100
AcDbLine
 10
18.59199999998134
 20
-0.2368999999997641
 30
0.0
 11
22.38199999997767
 21
8.763099999991255
 31
0.0
1001
ACAD
1000
ASC_BOUNDS
1002
{
1070
    19
1005
1FC8A
1002
}
  0
LINE
  5
1FC4C
330
1FC46
100
AcDbEntity
  8
0
100
AcDbLine
 10
14.32899999998563
 20
-0.2368999999997641
 30
0.0
 11
16.46099999998353
 21
5.432899999994561
 31
0.0
1001
ACAD
1000
ASC_BOUNDS
1002
{
1070
    19
1005
1FC8A
1002
}
  0
LINE
  5
1FC4D
330
1FC46
100
AcDbEntity
  8
0
100
AcDbLine
 10
14.32899999998563
 20
-0.2368999999997641
 30
0.0
 11
10.53899999998941
 21
8.763099999991255
 31
0.0
1001
ACAD
1000
ASC_BOUNDS
1002
{
1070
    19
1005
1FC8A
1002
}
  0
LINE
  5
1FC4E
330
1FC46
100
AcDbEntity
  8
0
100
AcDbLine
 10
19.53899999998043
 20
-0.0001000000000317
 30
0.0
 11
23.56599999997638
 21
8.999899999990987
 31
0.0
1001
ACAD
1000
ASC_BOUNDS
1002
{
1070
    19
1005
1FC8B
1002
}
  0
LINE
  5
1FC4F
330
1FC46
100
AcDbEntity
  8
0
100
AcDbLine
 10
26.97358892824991
 20
1.383099999991202
 30
0.0
 11
23.56599999997638
 21
8.999899999990987
 31
0.0
1001
ACAD
1000
ASC_BOUNDS
1002
{
1070
    19
1005
1FC8B
1002
}
  0
LINE
  5
1FC50
330
1FC46
100
AcDbEntity
  8
0
100
AcDbLine
 10
5.657999999994331
 20
0.9999999999989768
 30
0.0
 11
3.181999999996833
 21
4.668599999995308
 31
0.0
1001
ACAD
1000
ASC_BOUNDS
1002
{
1070
    19
1005
1FC89
1002
}
  0
LINE
  5
1FC51
330
1FC46
100
AcDbEntity
  8
0
100
AcDbLine
 10
4.617999999995391
 20
-0.0001000000000317
 30
0.0
 11
1.420999999998571
 21
4.736799999995242
 31
0.0
1001
ACAD
1000
ASC_BOUNDS
1002
{
1070
    19
1005
1FC89
1002
}
  0
LINE
  5
1FC52
330
1FC46
100
AcDbEntity
  8
0
100
AcDbLine
 10
1.420999999998571
 20
8.763099999991255
 30
0.0
 11
1.420999999998571
 21
0.0
 31
0.0
1001
ACAD
1000
ASC_BOUNDS
1002
{
1070
    19
1005
1FC8E
1002
}
  0
LINE
  5
1FC53
330
1FC46
100
AcDbEntity
  8
0
100
AcDbLine
 10
0.0
 20
8.763099999991255
 30
0.0
 11
0.0
 21
0.0
 31
0.0
1001
ACAD
1000
ASC_BOUNDS
1002
{
1070
    19
1005
1FC8E
1002
}
  0
LINE
  5
1FC54
330
1FC46
100
AcDbEntity
  8
0
100
AcDbLine
 10
6.766999999993232
 20
-0.0001000000000317
 30
0.0
 11
7.826999999992154
 21
2.368399999997621
 31
0.0
1001
ACAD
1000
ASC_BOUNDS
1002
{
1070
    19
1005
1FC89
1002
}
  0
LINE
  5
1FC55
330
1FC46
100
AcDbEntity
  8
0
100
AcDbLine
 10
0.0
 20
0.0
 30
0.0
 11
1.420999999998571
 21
0.0
 31
0.0
1001
ACAD
1000
ASC_BOUNDS
1002
{
1070
    19
1005
1FC8E
1002
}
  0
LINE
  5
1FC56
330
1FC46
100
AcDbEntity
  8
0
100
AcDbLine
 10
4.617999999995391
 20
0.0
 30
0.0
 11
6.766999999993232
 21
0.0
 31
0.0
1001
ACAD
1000
ASC_BOUNDS
1002
{
1070
    19
1005
1FC89
1002
}
  0
LINE
  5
1FC57
330
1FC46
100
AcDbEntity
  8
0
100
AcDbLine
 10
11.70599999998831
 20
-0.0001000000000317
 30
0.0
 11
10.64699999998936
 21
2.368399999997621
 31
0.0
1001
ACAD
1000
ASC_BOUNDS
1002
{
1070
    19
1005
1FC89
1002
}
  0
LINE
  5
1FC58
330
1FC46
100
AcDbEntity
  8
0
100
AcDbLine
 10
7.826999999992154
 20
2.368399999997621
 30
0.0
 11
10.64699999998936
 21
2.368399999997621
 31
0.0
1001
ACAD
1000
ASC_BOUNDS
1002
{
1070
    19
1005
1FC89
1002
}
  0
LINE
  5
1FC59
330
1FC46
100
AcDbEntity
  8
0
100
AcDbLine
 10
11.70599999998831
 20
0.0
 30
0.0
 11
13.26299999998673
 21
0.0
 31
0.0
1001
ACAD
1000
ASC_BOUNDS
1002
{
1070
    19
1005
1FC89
1002
}
  0
LINE
  5
1FC5A
330
1FC46
100
AcDbEntity
  8
0
100
AcDbLine
 10
22.15599999997789
 20
2.368399999997621
 30
0.0
 11
24.97599999997499
 21
2.368399999997621
 31
0.0
1001
ACAD
1000
ASC_BOUNDS
1002
{
1070
    19
1005
1FC8B
1002
}
  0
LINE
  5
1FC5B
330
1FC46
100
AcDbEntity
  8
0
100
AcDbLine
 10
19.53899999998043
 20
0.0
 30
0.0
 11
21.09599999997886
 21
0.0
 31
0.0
1001
ACAD
1000
ASC_BOUNDS
1002
{
1070
    19
1005
1FC8B
1002
}
  0
LINE
  5
1FC5C
330
1FC46
100
AcDbEntity
  8
0
100
AcDbLine
 10
21.09599999997886
 20
-0.0001000000000317
 30
0.0
 11
22.15599999997789
 21
2.368399999997621
 31
0.0
1001
ACAD
1000
ASC_BOUNDS
1002
{
1070
    19
1005
1FC8B
1002
}
  0
LINE
  5
1FC5D
330
1FC46
100
AcDbEntity
  8
0
100
AcDbLine
 10
26.02015566812236
 20
0.0330999999912365
 30
0.0
 11
24.97599999997499
 21
2.368399999997621
 31
0.0
1001
ACAD
1000
ASC_BOUNDS
1002
{
1070
    19
1005
1FC8B
1002
}
  0
LINE
  5
1FC5E
330
1FC46
100
AcDbEntity
  8
0
100
AcDbLine
 10
14.32399999998563
 20
3.315799999996671
 30
0.0
 11
16.46099999998353
 21
8.999899999990987
 31
0.0
1001
ACAD
1000
ASC_BOUNDS
1002
{
1070
    19
1005
1FC8A
1002
}
  0
LINE
  5
1FC5F
330
1FC46
100
AcDbEntity
  8
0
100
AcDbLine
 10
6.432999999993513
 20
8.763099999991255
 30
0.0
 11
3.181999999996833
 21
4.668599999995308
 31
0.0
1001
ACAD
1000
ASC_BOUNDS
1002
{
1070
    19
1005
1FC89
1002
}
  0
LINE
  5
1FC60
330
1FC46
100
AcDbEntity
  8
0
100
AcDbLine
 10
4.617999999995391
 20
8.763099999991255
 30
0.0
 11
1.420999999998571
 21
4.736799999995242
 31
0.0
1001
ACAD
1000
ASC_BOUNDS
1002
{
1070
    19
1005
1FC89
1002
}
  0
LINE
  5
1FC61
330
1FC46
100
AcDbEntity
  8
0
100
AcDbLine
 10
0.0
 20
8.763099999991255
 30
0.0
 11
1.420999999998571
 21
8.763099999991255
 31
0.0
1001
ACAD
1000
ASC_BOUNDS
1002
{
1070
    19
1005
1FC8E
1002
}
  0
LINE
  5
1FC62
330
1FC46
100
AcDbEntity
  8
0
100
AcDbLine
 10
4.617999999995391
 20
8.763099999991255
 30
0.0
 11
6.432999999993513
 21
8.763099999991255
 31
0.0
1001
ACAD
1000
ASC_BOUNDS
1002
{
1070
    19
1005
1FC89
1002
}
  0
LINE
  5
1FC63
330
1FC46
100
AcDbEntity
  8
0
100
AcDbLine
 10
14.32399999998563
 20
3.315799999996671
 30
0.0
 11
12.02999999998792
 21
8.763099999991255
 31
0.0
1001
ACAD
1000
ASC_BOUNDS
1002
{
1070
    19
1005
1FC8A
1002
}
  0
LINE
  5
1FC64
330
1FC46
100
AcDbEntity
  8
0
100
AcDbLine
 10
10.06399999998996
 20
3.670999999996297
 30
0.0
 11
9.236999999990758
 21
5.5200999999945
 31
0.0
1001
ACAD
1000
ASC_BOUNDS
1002
{
1070
    19
1005
1FC89
1002
}
  0
LINE
  5
1FC65
330
1FC46
100
AcDbEntity
  8
0
100
AcDbLine
 10
8.409999999991555
 20
3.670999999996297
 30
0.0
 11
9.236999999990758
 21
5.5200999999945
 31
0.0
1001
ACAD
1000
ASC_BOUNDS
1002
{
1070
    19
1005
1FC89
1002
}
  0
LINE
  5
1FC66
330
1FC46
100
AcDbEntity
  8
0
100
AcDbLine
 10
8.409999999991555
 20
3.670999999996297
 30
0.0
 11
10.06399999998996
 21
3.670999999996297
 31
0.0
1001
ACAD
1000
ASC_BOUNDS
1002
{
1070
    19
1005
1FC89
1002
}
  0
LINE
  5
1FC67
330
1FC46
100
AcDbEntity
  8
0
100
AcDbLine
 10
10.53899999998941
 20
8.763099999991255
 30
0.0
 11
12.02999999998792
 21
8.763099999991255
 31
0.0
1001
ACAD
1000
ASC_BOUNDS
1002
{
1070
    19
1005
1FC8A
1002
}
  0
LINE
  5
1FC68
330
1FC46
100
AcDbEntity
  8
0
100
AcDbLine
 10
22.7389999999773
 20
3.670999999996297
 30
0.0
 11
23.56599999997638
 21
5.5200999999945
 31
0.0
1001
ACAD
1000
ASC_BOUNDS
1002
{
1070
    19
1005
1FC8B
1002
}
  0
LINE
  5
1FC69
330
1FC46
100
AcDbEntity
  8
0
100
AcDbLine
 10
22.7389999999773
 20
3.670999999996297
 30
0.0
 11
24.39299999997559
 21
3.670999999996297
 31
0.0
1001
ACAD
1000
ASC_BOUNDS
1002
{
1070
    19
1005
1FC8B
1002
}
  0
LINE
  5
1FC6A
330
1FC46
100
AcDbEntity
  8
0
100
AcDbLine
 10
18.59799999998143
 20
3.315799999996671
 30
0.0
 11
20.89099999997916
 21
8.763099999991255
 31
0.0
1001
ACAD
1000
ASC_BOUNDS
1002
{
1070
    19
1005
1FC8A
1002
}
  0
LINE
  5
1FC6B
330
1FC46
100
AcDbEntity
  8
0
100
AcDbLine
 10
18.59799999998143
 20
3.315799999996671
 30
0.0
 11
16.46099999998353
 21
8.999899999990987
 31
0.0
1001
ACAD
1000
ASC_BOUNDS
1002
{
1070
    19
1005
1FC8A
1002
}
  0
LINE
  5
1FC6C
330
1FC46
100
AcDbEntity
  8
0
100
AcDbLine
 10
20.89099999997916
 20
8.763099999991255
 30
0.0
 11
22.38199999997767
 21
8.763099999991255
 31
0.0
1001
ACAD
1000
ASC_BOUNDS
1002
{
1070
    19
1005
1FC8A
1002
}
  0
LINE
  5
1FC6D
330
1FC46
100
AcDbEntity
  8
0
100
AcDbLine
 10
24.39299999997559
 20
3.670999999996297
 30
0.0
 11
23.56599999997638
 21
5.5200999999945
 31
0.0
1001
ACAD
1000
ASC_BOUNDS
1002
{
1070
    19
1005
1FC8B
1002
}
  0
LINE
  5
1FC6E
330
1FC46
100
AcDbEntity
  8
0
100
AcDbLine
 10
44.99999999995498
 20
-0.2368999999997641
 30
0.0
 11
40.02599999995994
 21
5.341799999994635
 31
0.0
1001
ACAD
1000
ASC_BOUNDS
1002
{
1070
    19
1005
1FC8D
1002
}
  0
LINE
  5
1FC6F
330
1FC46
100
AcDbEntity
  8
0
100
AcDbLine
 10
40.02599999995994
 20
5.341799999994635
 30
0.0
 11
40.02599999995994
 21
0.0
 31
0.0
1001
ACAD
1000
ASC_BOUNDS
1002
{
1070
    19
1005
1FC8D
1002
}
  0
LINE
  5
1FC70
330
1FC46
100
AcDbEntity
  8
0
100
AcDbLine
 10
38.60499999996136
 20
8.999999999991019
 30
0.0
 11
38.60499999996136
 21
0.0
 31
0.0
1001
ACAD
1000
ASC_BOUNDS
1002
{
1070
    19
1005
1FC8D
1002
}
  0
LINE
  5
1FC71
330
1FC46
100
AcDbEntity
  8
0
100
AcDbLine
 10
44.99999999995498
 20
8.763099999991255
 30
0.0
 11
44.99999999995498
 21
-0.2368999999997641
 31
0.0
1001
ACAD
1000
ASC_BOUNDS
1002
{
1070
    19
1005
1FC8D
1002
}
  0
LINE
  5
1FC72
330
1FC46
100
AcDbEntity
  8
0
100
AcDbLine
 10
38.60499999996136
 20
0.0
 30
0.0
 11
40.02599999995994
 21
0.0
 31
0.0
1001
ACAD
1000
ASC_BOUNDS
1002
{
1070
    19
1005
1FC8D
1002
}
  0
LINE
  5
1FC73
330
1FC46
100
AcDbEntity
  8
0
100
AcDbLine
 10
43.57899999995641
 20
3.421199999996588
 30
0.0
 11
38.60499999996136
 21
8.999899999990987
 31
0.0
1001
ACAD
1000
ASC_BOUNDS
1002
{
1070
    19
1005
1FC8D
1002
}
  0
LINE
  5
1FC74
330
1FC46
100
AcDbEntity
  8
0
100
AcDbLine
 10
43.57899999995641
 20
8.763099999991255
 30
0.0
 11
43.57899999995641
 21
3.421199999996588
 31
0.0
1001
ACAD
1000
ASC_BOUNDS
1002
{
1070
    19
1005
1FC8D
1002
}
  0
LINE
  5
1FC75
330
1FC46
100
AcDbEntity
  8
0
100
AcDbLine
 10
43.57899999995641
 20
8.763099999991255
 30
0.0
 11
44.99999999995498
 21
8.763099999991255
 31
0.0
1001
ACAD
1000
ASC_BOUNDS
1002
{
1070
    19
1005
1FC8D
1002
}
  0
LINE
  5
1FC76
330
1FC46
100
AcDbEntity
  8
0
100
AcDbLine
 10
37.67199999996831
 20
8.763099999991255
 30
0.0
 11
36.23199999996837
 21
8.763099999991255
 31
0.0
  0
LINE
  5
1FC77
330
1FC46
100
AcDbEntity
  8
0
100
AcDbLine
 10
31.64199999996833
 20
8.763099999991255
 30
0.0
 11
31.64199999996833
 21
2.481619422925121
 31
0.0
  0
LINE
  5
1FC78
330
1FC46
100
AcDbEntity
  8
0
100
AcDbLine
 10
37.67199999996831
 20
8.763099999991255
 30
0.0
 11
37.67199999996831
 21
2.481619422925121
 31
0.0
  0
LINE
  5
1FC79
330
1FC46
100
AcDbEntity
  8
0
100
AcDbLine
 10
36.23199999996837
 20
8.763099999991255
 30
0.0
 11
36.23199999996837
 21
2.481619422925064
 31
0.0
  0
LINE
  5
1FC7A
330
1FC46
100
AcDbEntity
  8
0
100
AcDbLine
 10
33.08199999996839
 20
8.763099999991255
 30
0.0
 11
33.08199999996839
 21
2.481619422925121
 31
0.0
  0
ARC
  5
1FC7B
330
1FC46
100
AcDbEntity
  8
0
100
AcDbCircle
 10
34.65699999996832
 20
3.183099999991214
 30
0.0
 40
3.420000000000007
100
AcDbArc
 50
240.0000000000255
 51
299.9999999999766
  0
ARC
  5
1FC7C
330
1FC46
100
AcDbEntity
  8
0
100
AcDbCircle
 10
34.65699999996832
 20
3.183099999991214
 30
0.0
 40
1.97999999999999
100
AcDbArc
 50
240.000000000026
 51
299.9999999999703
  0
LINE
  5
1FC7D
330
1FC46
100
AcDbEntity
  8
0
100
AcDbLine
 10
33.08199999996828
 20
8.763099999991255
 30
0.0
 11
31.64199999996833
 21
8.763099999991255
 31
0.0
  0
ARC
  5
1FC7E
330
1FC46
100
AcDbEntity
  8
0
100
AcDbCircle
 10
35.06199999996829
 20
2.481619422925064
 30
0.0
 40
1.17
100
AcDbArc
 50
299.9999999999699
 51
0.0
  0
ARC
  5
1FC7F
330
1FC46
100
AcDbEntity
  8
0
100
AcDbCircle
 10
34.25199999996835
 20
2.481619422925121
 30
0.0
 40
1.17
100
AcDbArc
 50
180.0
 51
240.0000000000238
  0
ARC
  5
1FC80
330
1FC46
100
AcDbEntity
  8
0
100
AcDbCircle
 10
35.06199999996841
 20
2.481619422925121
 30
0.0
 40
2.61
100
AcDbArc
 50
299.9999999999756
 51
0.0
  0
ARC
  5
1FC81
330
1FC46
100
AcDbEntity
  8
0
100
AcDbCircle
 10
34.25199999996835
 20
2.481619422925121
 30
0.0
 40
2.61
100
AcDbArc
 50
180.0
 51
240.0000000000244
  0
LINE
  5
1FC82
330
1FC46
100
AcDbEntity
  8
0
100
AcDbLine
 10
29.30199999996933
 20
8.763099999991255
 30
0.0
 11
30.74199999996927
 21
8.763099999991255
 31
0.0
1001
ACAD
1000
ASC_BOUNDS
1002
{
1070
    19
1005
1FC8B
1002
}
  0
LINE
  5
1FC83
330
1FC46
100
AcDbEntity
  8
0
100
AcDbLine
 10
30.74199999996927
 20
8.763099999991255
 30
0.0
 11
30.74199999996927
 21
2.373099999991211
 31
0.0
1001
ACAD
1000
ASC_BOUNDS
1002
{
1070
    19
1005
1FC8B
1002
}
  0
LINE
  5
1FC84
330
1FC46
100
AcDbEntity
  8
0
100
AcDbLine
 10
26.02015566812236
 20
0.0330999999912365
 30
0.0
 11
28.40199999996923
 21
0.0330999999912365
 31
0.0
1001
ACAD
1000
ASC_BOUNDS
1002
{
1070
    19
1005
1FC8B
1002
}
  0
LINE
  5
1FC85
330
1FC46
100
AcDbEntity
  8
0
100
AcDbLine
 10
29.30199999996933
 20
8.763099999991255
 30
0.0
 11
29.30199999996933
 21
2.283099999991236
 31
0.0
1001
ACAD
1000
ASC_BOUNDS
1002
{
1070
    19
1005
1FC8B
1002
}
  0
LINE
  5
1FC86
330
1FC46
100
AcDbEntity
  8
0
100
AcDbLine
 10
26.97358892824991
 20
1.383099999991202
 30
0.0
 11
28.40199999996923
 21
1.383099999991202
 31
0.0
1001
ACAD
1000
ASC_BOUNDS
1002
{
1070
    19
1005
1FC8B
1002
}
  0
ARC
  5
1FC87
330
1FC46
100
AcDbEntity
  8
0
100
AcDbCircle
 10
28.40199999996923
 20
2.283099999991236
 30
0.0
 40
0.9
100
AcDbArc
 50
270.0
 51
0.0
1001
ACAD
1000
ASC_BOUNDS
1002
{
1070
    19
1005
1FC8B
1002
}
  0
ARC
  5
1FC88
330
1FC46
100
AcDbEntity
  8
0
100
AcDbCircle
 10
28.40199999996923
 20
2.373099999991211
 30
0.0
 40
2.34
100
AcDbArc
 50
270.0
 51
0.0
1001
ACAD
1000
ASC_BOUNDS
1002
{
1070
    19
1005
1FC8B
1002
}
  0
INSERT
  5
1FC89
330
1FC46
100
AcDbEntity
  8
0
100
AcDbBlockReference
  2
*X194
 10
0.0
 20
0.0
 30
0.0
1001
ACAD
1000
HATCH
1002
{
1070
    19
1000
ANSI37
1040
0.15
1040
0.0
1000
ASC_BOUNDS
1070
     2
1070
     2
1070
    12
1005
1FC48
1005
1FC49
1005
1FC50
1005
1FC5F
1005
1FC62
1005
1FC60
1005
1FC51
1005
1FC56
1005
1FC54
1005
1FC58
1005
1FC57
1005
1FC59
1070
     2
1070
     3
1005
1FC64
1005
1FC66
1005
1FC65
1000
ASC_SEEDPOINT
1011
3.614004224891801
1021
2.996669441146025
1031
0.0
1000
R14_HATCH_DATA
1000
1FC89
1011
1.0
1021
0.0
1031
0.0
1011
0.0
1021
1.0
1031
0.0
1011
0.0
1021
0.0
1031
1.0
1040
0.0
1010
0.0
1020
0.0
1030
1.0
1000
ANSI37
1070
     0
1070
     1
1071
        2
1071
        7
1070
     0
1070
     1
1071
       17
1040
13.26299999998673
1040
-0.0001000000000317
1040
9.236999999990758
1040
8.999899999990987
1040
9.236999999990758
1040
8.999999999991019
1040
5.657999999994331
1040
0.9999999999989768
1040
3.181999999996833
1040
4.668599999995308
1040
6.432999999993513
1040
8.763099999991255
1040
4.617999999995391
1040
8.763099999991255
1040
1.420999999998571
1040
4.736799999995242
1040
4.617999999995391
1040
-0.0001000000000317
1040
4.617999999995391
1040
0.0
1040
6.766999999993232
1040
0.0
1040
6.766999999993232
1040
-0.0001000000000317
1040
7.826999999992154
1040
2.368399999997621
1040
10.64699999998936
1040
2.368399999997621
1040
11.70599999998831
1040
-0.0001000000000317
1040
11.70599999998831
1040
0.0
1040
13.26299999998673
1040
0.0
1071
       12
1005
1FC48
1005
1FC49
1005
1FC50
1005
1FC5F
1005
1FC62
1005
1FC60
1005
1FC51
1005
1FC56
1005
1FC54
1005
1FC58
1005
1FC57
1005
1FC59
1071
       22
1070
     0
1070
     1
1071
        3
1040
9.236999999990758
1040
5.5200999999945
1040
10.06399999998996
1040
3.670999999996297
1040
8.409999999991555
1040
3.670999999996297
1071
        3
1005
1FC64
1005
1FC66
1005
1FC65
1070
     0
1070
     1
1040
0.0
1040
0.15
1070
     0
1070
     2
1040
0.7853981633974483
1040
49.29960901727088
1040
-10.17736998311392
1040
-0.3367596045400932
1040
0.3367596045400932
1070
     0
1040
2.356194490192345
1040
49.29960901727088
1040
-10.17736998311392
1040
-0.3367596045400932
1040
-0.3367596045400932
1070
     0
1040
0.0110235143455945
1071
        2
1040
3.614004224891801
1040
2.996669441146025
1040
0.0
1040
3.614004224891801
1040
2.996669441146025
1040
0.0
1002
}
  0
INSERT
  5
1FC8A
330
1FC46
100
AcDbEntity
  8
0
100
AcDbBlockReference
  2
*X195
 10
0.0
 20
0.0
 30
0.0
1001
ACAD
1000
HATCH
1002
{
1070
    19
1000
ANSI37
1040
0.15
1040
0.0
1000
ASC_BOUNDS
1070
     1
1070
     2
1070
    10
1005
1FC4A
1005
1FC4B
1005
1FC6C
1005
1FC6A
1005
1FC6B
1005
1FC5E
1005
1FC63
1005
1FC67
1005
1FC4D
1005
1FC4C
1000
ASC_SEEDPOINT
1011
14.73245321214324
1021
2.798246178283421
1031
0.0
1000
R14_HATCH_DATA
1000
1FC8A
1011
1.0
1021
0.0
1031
0.0
1011
0.0
1021
1.0
1031
0.0
1011
0.0
1021
0.0
1031
1.0
1040
0.0
1010
0.0
1020
0.0
1030
1.0
1000
ANSI37
1070
     0
1070
     1
1071
        1
1071
        7
1070
     0
1070
     1
1071
       10
1040
16.46099999998353
1040
5.432899999994561
1040
18.59199999998134
1040
-0.2368999999997641
1040
22.38199999997767
1040
8.763099999991255
1040
20.89099999997916
1040
8.763099999991255
1040
18.59799999998143
1040
3.315799999996671
1040
16.46099999998353
1040
8.999899999990987
1040
14.32399999998563
1040
3.315799999996671
1040
12.02999999998792
1040
8.763099999991255
1040
10.53899999998941
1040
8.763099999991255
1040
14.32899999998563
1040
-0.2368999999997641
1071
       10
1005
1FC4A
1005
1FC4B
1005
1FC6C
1005
1FC6A
1005
1FC6B
1005
1FC5E
1005
1FC63
1005
1FC67
1005
1FC4D
1005
1FC4C
1070
     0
1070
     1
1040
0.0
1040
0.15
1070
     0
1070
     2
1040
0.7853981633974483
1040
49.29960901727088
1040
-10.17736998311392
1040
-0.3367596045400932
1040
0.3367596045400932
1070
     0
1040
2.356194490192345
1040
49.29960901727088
1040
-10.17736998311392
1040
-0.3367596045400932
1040
-0.3367596045400932
1070
     0
1040
0.0110235143455945
1071
        1
1040
14.73245321214324
1040
2.798246178283421
1040
0.0
1002
}
  0
INSERT
  5
1FC8B
330
1FC46
100
AcDbEntity
  8
0
100
AcDbBlockReference
  2
*X196
 10
0.0
 20
0.0
 30
0.0
1001
ACAD
1000
HATCH
1002
{
1070
    19
1000
ANSI37
1040
0.15
1040
0.0
1000
ASC_BOUNDS
1070
     2
1070
     2
1070
    13
1005
1FC4E
1005
1FC5B
1005
1FC5C
1005
1FC5A
1005
1FC5D
1005
1FC84
1005
1FC88
1005
1FC83
1005
1FC82
1005
1FC85
1005
1FC87
1005
1FC86
1005
1FC4F
1070
     2
1070
     3
1005
1FC68
1005
1FC6D
1005
1FC69
1000
ASC_SEEDPOINT
1011
21.97929957367762
1021
3.294304244259308
1031
0.0
1000
R14_HATCH_DATA
1000
1FC8B
1011
1.0
1021
0.0
1031
0.0
1011
0.0
1021
1.0
1031
0.0
1011
0.0
1021
0.0
1031
1.0
1040
0.0
1010
0.0
1020
0.0
1030
1.0
1000
ANSI37
1070
     0
1070
     1
1071
        2
1071
        7
1070
     1
1070
     1
1071
       15
1040
23.56599999997638
1040
8.999899999990987
1040
0.0
1040
19.53899999998043
1040
-0.0001000000000317
1040
0.0
1040
19.53899999998043
1040
0.0
1040
0.0
1040
21.09599999997886
1040
0.0
1040
0.0
1040
21.09599999997886
1040
-0.0001000000000317
1040
0.0
1040
22.15599999997789
1040
2.368399999997621
1040
0.0
1040
24.97599999997499
1040
2.368399999997621
1040
0.0
1040
26.02015566812236
1040
0.0330999999912365
1040
0.0
1040
28.40199999996923
1040
0.0330999999912365
1040
0.414213562373095
1040
30.74199999996923
1040
2.373099999991211
1040
0.0
1040
30.74199999996927
1040
8.763099999991255
1040
0.0
1040
29.30199999996933
1040
8.763099999991255
1040
0.0
1040
29.30199999996933
1040
2.283099999991236
1040
-0.414213562373095
1040
28.40199999996923
1040
1.383099999991237
1040
0.0
1040
26.97358892824991
1040
1.383099999991202
1040
0.0
1071
       13
1005
1FC4E
1005
1FC5B
1005
1FC5C
1005
1FC5A
1005
1FC5D
1005
1FC84
1005
1FC88
1005
1FC83
1005
1FC82
1005
1FC85
1005
1FC87
1005
1FC86
1005
1FC4F
1071
       22
1070
     0
1070
     1
1071
        3
1040
22.7389999999773
1040
3.670999999996297
1040
23.56599999997638
1040
5.5200999999945
1040
24.39299999997559
1040
3.670999999996297
1071
        3
1005
1FC68
1005
1FC6D
1005
1FC69
1070
     0
1070
     1
1040
0.0
1040
0.15
1070
     0
1070
     2
1040
0.7853981633974483
1040
49.29960901727088
1040
-10.17736998311392
1040
-0.3367596045400932
1040
0.3367596045400932
1070
     0
1040
2.356194490192345
1040
49.29960901727088
1040
-10.17736998311392
1040
-0.3367596045400932
1040
-0.3367596045400932
1070
     0
1040
0.0110235143455945
1071
        2
1040
21.97929957367762
1040
3.294304244259308
1040
0.0
1040
21.97929957367762
1040
3.294304244259308
1040
0.0
1002
}
  0
INSERT
  5
1FC8C
330
1FC46
100
AcDbEntity
  8
0
100
AcDbBlockReference
  2
*X197
 10
0.0
 20
0.0
 30
0.0
1001
ACAD
1000
HATCH
1002
{
1070
    19
1000
ANSI37
1040
0.15
1040
0.0
1000
R14_HATCH_DATA
1000
1FC8C
1011
1.0
1021
0.0
1031
0.0
1011
0.0
1021
1.0
1031
0.0
1011
0.0
1021
0.0
1031
1.0
1040
0.0
1010
0.0
1020
0.0
1030
1.0
1000
ANSI37
1070
     0
1070
     1
1071
        1
1071
        7
1070
     1
1070
     1
1071
       12
1040
31.64199999996833
1040
2.481619422925121
1040
0.2679491924310942
1040
32.94699999997067
1040
0.2212931190493919
1040
0.2679491924301353
1040
36.36699999995983
1040
0.2212931190459813
1040
0.2679491924321411
1040
37.67199999996831
1040
2.481619422928361
1040
0.0
1040
37.67199999996831
1040
8.763099999991255
1040
0.0
1040
36.23199999996837
1040
8.763099999991255
1040
0.0
1040
36.23199999996837
1040
2.481619422925064
1040
-0.2679491924310291
1040
35.64699999996708
1040
1.468369700498386
1040
-0.267949192430519
1040
33.66699999997093
1040
1.468369700497703
1040
-0.267949192431809
1040
33.08199999996839
1040
2.481619422926997
1040
0.0
1040
33.08199999996839
1040
8.763099999991255
1040
0.0
1040
31.64199999996833
1040
8.763099999991255
1040
0.0
1071
        0
1070
     0
1070
     1
1040
0.0
1040
0.15
1070
     0
1070
     2
1040
0.7853981633974483
1040
49.29960901727088
1040
-10.17736998311392
1040
-0.3367596045400932
1040
0.3367596045400932
1070
     0
1040
2.356194490192345
1040
49.29960901727088
1040
-10.17736998311392
1040
-0.3367596045400932
1040
-0.3367596045400932
1070
     0
1040
0.0110235143455945
1071
        1
1040
32.30357378967278
1040
3.988785755459219
1040
0.0
1002
}
  0
INSERT
  5
1FC8D
330
1FC46
100
AcDbEntity
  8
0
100
AcDbBlockReference
  2
*X198
 10
0.0
 20
0.0
 30
0.0
1001
ACAD
1000
HATCH
1002
{
1070
    19
1000
ANSI37
1040
0.15
1040
0.0
1000
ASC_BOUNDS
1070
     1
1070
     2
1070
     8
1005
1FC6E
1005
1FC71
1005
1FC75
1005
1FC74
1005
1FC73
1005
1FC70
1005
1FC72
1005
1FC6F
1000
ASC_SEEDPOINT
1011
39.74896370716704
1021
4.484843821435049
1031
0.0
1000
R14_HATCH_DATA
1000
1FC8D
1011
1.0
1021
0.0
1031
0.0
1011
0.0
1021
1.0
1031
0.0
1011
0.0
1021
0.0
1031
1.0
1040
0.0
1010
0.0
1020
0.0
1030
1.0
1000
ANSI37
1070
     0
1070
     1
1071
        1
1071
        7
1070
     0
1070
     1
1071
        9
1040
40.02599999995994
1040
5.341799999994635
1040
44.99999999995498
1040
-0.2368999999997641
1040
44.99999999995498
1040
8.763099999991255
1040
43.57899999995641
1040
8.763099999991255
1040
43.57899999995641
1040
3.421199999996588
1040
38.60499999996136
1040
8.999899999990987
1040
38.60499999996136
1040
8.999999999991019
1040
38.60499999996136
1040
0.0
1040
40.02599999995994
1040
0.0
1071
        8
1005
1FC6E
1005
1FC71
1005
1FC75
1005
1FC74
1005
1FC73
1005
1FC70
1005
1FC72
1005
1FC6F
1070
     0
1070
     1
1040
0.0
1040
0.15
1070
     0
1070
     2
1040
0.7853981633974483
1040
49.29960901727088
1040
-10.17736998311392
1040
-0.3367596045400932
1040
0.3367596045400932
1070
     0
1040
2.356194490192345
1040
49.29960901727088
1040
-10.17736998311392
1040
-0.3367596045400932
1040
-0.3367596045400932
1070
     0
1040
0.0110235143455945
1071
        1
1040
39.74896370716704
1040
4.484843821435049
1040
0.0
1002
}
  0
INSERT
  5
1FC8E
330
1FC46
100
AcDbEntity
  8
0
100
AcDbBlockReference
  2
*X199
 10
0.0
 20
0.0
 30
0.0
1001
ACAD
1000
HATCH
1002
{
1070
    19
1000
ANSI37
1040
0.15
1040
0.0
1000
ASC_BOUNDS
1070
     1
1070
     2
1070
     4
1005
1FC52
1005
1FC61
1005
1FC53
1005
1FC55
1000
ASC_SEEDPOINT
1011
1.079051535452663
1021
4.148538732891836
1031
0.0
1000
R14_HATCH_DATA
1000
1FC8E
1011
1.0
1021
0.0
1031
0.0
1011
0.0
1021
1.0
1031
0.0
1011
0.0
1021
0.0
1031
1.0
1040
0.0
1010
0.0
1020
0.0
1030
1.0
1000
ANSI37
1070
     0
1070
     1
1071
        1
1071
        7
1070
     0
1070
     1
1071
        4
1040
1.420999999998571
1040
0.0
1040
1.420999999998571
1040
8.763099999991255
1040
0.0
1040
8.763099999991255
1040
0.0
1040
0.0
1071
        4
1005
1FC52
1005
1FC61
1005
1FC53
1005
1FC55
1070
     0
1070
     1
1040
0.0
1040
0.15
1070
     0
1070
     2
1040
0.7853981633974483
1040
49.29960901727088
1040
-10.17736998311392
1040
-0.3367596045400932
1040
0.3367596045400932
1070
     0
1040
2.356194490192345
1040
49.29960901727088
1040
-10.17736998311392
1040
-0.3367596045400932
1040
-0.3367596045400932
1070
     0
1040
0.0053004257112761
1071
        1
1040
1.079051535452663
1040
4.148538732891836
1040
0.0
1002
}
  0
ENDBLK
  5
20346
330
1FC46
100
AcDbEntity
  8
0
100
AcDbBlockEnd
  0
BLOCK
  5
20588
330
20460
100
AcDbEntity
  8
0
100
AcDbBlockBegin
  2
NOCIRCLE
 70
     2
 10
0.0
 20
0.0
 30
0.0
  3
NOCIRCLE
  1

  0
CIRCLE
  5
20464
330
20460
100
AcDbEntity
  8
0
  6
BYBLOCK
 62
     0
100
AcDbCircle
 10
0.0
 20
0.0
 30
0.0
 40
4.2
  0
ATTDEF
  5
20465
330
20460
100
AcDbEntity
  8
1TEXT
100
AcDbText
 10
-1.904761904761876
 20
-2.0
 30
0.0
 40
4.0
  1
0
 72
     4
 11
0.0
 21
0.0
 31
0.0
100
AcDbAttributeDefinition
  3
NO.
  2
NO
 70
     0
  0
ENDBLK
  5
20589
330
20460
100
AcDbEntity
  8
0
100
AcDbBlockEnd
  0
BLOCK
  5
233B1
330
23223
100
AcDbEntity
  8
0
100
AcDbBlockBegin
  2
*X194
 70
     1
 10
0.0
 20
0.0
 30
0.0
  3
*X194
  1

  0
LINE
  5
23224
330
23223
100
AcDbEntity
  8
0
  6
CONTINUOUS
100
AcDbLine
 10
3.418023043697893
 20
7.251849696850613
 30
0.0
 11
4.929273346838536
 21
8.763099999991255
 31
0.0
  0
LINE
  5
23225
330
23223
100
AcDbEntity
  8
0
  6
CONTINUOUS
100
AcDbLine
 10
1.483656411257782
 20
4.643963855330318
 30
0.0
 11
5.60279255591872
 21
8.763099999991255
 31
0.0
  0
LINE
  5
23226
330
23223
100
AcDbEntity
  8
0
  6
CONTINUOUS
100
AcDbLine
 10
1.755053947328235
 20
4.241842182320584
 30
0.0
 11
6.276311764998907
 21
8.763099999991255
 31
0.0
  0
LINE
  5
23227
330
23223
100
AcDbEntity
  8
0
  6
CONTINUOUS
100
AcDbLine
 10
2.026451483398688
 20
3.839720509310849
 30
0.0
 11
4.441040904851878
 21
6.254309930764039
 31
0.0
  0
LINE
  5
23228
330
23223
100
AcDbEntity
  8
0
  6
CONTINUOUS
100
AcDbLine
 10
2.297849019469139
 20
3.437598836301114
 30
0.0
 11
3.321765168359338
 21
4.461514985191313
 31
0.0
  0
LINE
  5
23229
330
23223
100
AcDbEntity
  8
0
  6
CONTINUOUS
100
AcDbLine
 10
2.569246555539591
 20
3.03547716329138
 30
0.0
 11
3.593163397972743
 21
4.059394005724531
 31
0.0
  0
LINE
  5
2322A
330
23223
100
AcDbEntity
  8
0
  6
CONTINUOUS
100
AcDbLine
 10
2.840644091610043
 20
2.633355490281646
 30
0.0
 11
3.864561627586149
 21
3.657273026257751
 31
0.0
  0
LINE
  5
2322B
330
23223
100
AcDbEntity
  8
0
  6
CONTINUOUS
100
AcDbLine
 10
3.112041627680496
 20
2.231233817271911
 30
0.0
 11
4.135959857199554
 21
3.25515204679097
 31
0.0
  0
LINE
  5
2322C
330
23223
100
AcDbEntity
  8
0
  6
CONTINUOUS
100
AcDbLine
 10
3.383439163750948
 20
1.829112144262177
 30
0.0
 11
4.40735808681296
 21
2.853031067324189
 31
0.0
  0
LINE
  5
2322D
330
23223
100
AcDbEntity
  8
0
  6
CONTINUOUS
100
AcDbLine
 10
3.654836699821399
 20
1.426990471252442
 30
0.0
 11
4.678756316426365
 21
2.450910087857407
 31
0.0
  0
LINE
  5
2322E
330
23223
100
AcDbEntity
  8
0
  6
CONTINUOUS
100
AcDbLine
 10
3.926234235891853
 20
1.024868798242709
 30
0.0
 11
4.95015454603977
 21
2.048789108390626
 31
0.0
  0
LINE
  5
2322F
330
23223
100
AcDbEntity
  8
0
  6
CONTINUOUS
100
AcDbLine
 10
4.197631771962304
 20
0.6227471252329737
 30
0.0
 11
5.221552775653176
 21
1.646668128923846
 31
0.0
  0
LINE
  5
23230
330
23223
100
AcDbEntity
  8
0
  6
CONTINUOUS
100
AcDbLine
 10
8.715877546767851
 20
7.835069736359266
 30
0.0
 11
9.435953450375058
 21
8.555145639966472
 31
0.0
  0
LINE
  5
23231
330
23223
100
AcDbEntity
  8
0
  6
CONTINUOUS
100
AcDbLine
 10
8.170620868422267
 20
6.616293848933497
 30
0.0
 11
9.644120833743461
 21
8.08979381425469
 31
0.0
  0
LINE
  5
23232
330
23223
100
AcDbEntity
  8
0
  6
CONTINUOUS
100
AcDbLine
 10
7.625364190076684
 20
5.397517961507727
 30
0.0
 11
9.852288217111864
 21
7.624441988542907
 31
0.0
  0
LINE
  5
23233
330
23223
100
AcDbEntity
  8
0
  6
CONTINUOUS
100
AcDbLine
 10
7.080107511731101
 20
4.178742074081957
 30
0.0
 11
10.06045560048027
 21
7.159090162831124
 31
0.0
  0
LINE
  5
23234
330
23223
100
AcDbEntity
  8
0
  6
CONTINUOUS
100
AcDbLine
 10
6.534850833385518
 20
2.959966186656187
 30
0.0
 11
10.26862298384867
 21
6.693738337119342
 31
0.0
  0
LINE
  5
23235
330
23223
100
AcDbEntity
  8
0
  6
CONTINUOUS
100
AcDbLine
 10
4.469029308032756
 20
0.2206254522232385
 30
0.0
 11
5.492951005266582
 21
1.244547149457064
 31
0.0
  0
LINE
  5
23236
330
23223
100
AcDbEntity
  8
0
  6
CONTINUOUS
100
AcDbLine
 10
5.989594155039935
 20
1.741190299230417
 30
0.0
 11
8.806950407233131
 21
4.558546551423613
 31
0.0
  0
LINE
  5
23237
330
23223
100
AcDbEntity
  8
0
  6
CONTINUOUS
100
AcDbLine
 10
9.401251593263643
 20
5.152847737454126
 30
0.0
 11
10.47679036721708
 21
6.228386511407559
 31
0.0
  0
LINE
  5
23238
330
23223
100
AcDbEntity
  8
0
  6
CONTINUOUS
100
AcDbLine
 10
4.921837203428691
 20
-0.0000858614610131
 30
0.0
 11
8.592923064886001
 21
3.670999999996297
 31
0.0
  0
LINE
  5
23239
330
23223
100
AcDbEntity
  8
0
  6
CONTINUOUS
100
AcDbLine
 10
9.609390446785305
 20
4.6874673818956
 30
0.0
 11
10.68495775058548
 21
5.763034685695775
 31
0.0
  0
LINE
  5
2323A
330
23223
100
AcDbEntity
  8
0
  6
CONTINUOUS
100
AcDbLine
 10
5.595387755019432
 20
-0.0000545189504582
 30
0.0
 11
7.716137258923768
 21
2.120694984953879
 31
0.0
  0
LINE
  5
2323B
330
23223
100
AcDbEntity
  8
0
  6
CONTINUOUS
100
AcDbLine
 10
6.268938306610172
 20
-0.000023176439905
 30
0.0
 11
7.170485805526503
 21
0.9015243224764267
 31
0.0
  0
LINE
  5
2323C
330
23223
100
AcDbEntity
  8
0
  6
CONTINUOUS
100
AcDbLine
 10
7.963842273967511
 20
2.368399999997621
 30
0.0
 11
9.266442273966188
 21
3.670999999996297
 31
0.0
  0
LINE
  5
2323D
330
23223
100
AcDbEntity
  8
0
  6
CONTINUOUS
100
AcDbLine
 10
8.637361483047696
 20
2.368399999997621
 30
0.0
 11
9.939961483046375
 21
3.670999999996297
 31
0.0
  0
LINE
  5
2323E
330
23223
100
AcDbEntity
  8
0
  6
CONTINUOUS
100
AcDbLine
 10
9.817529300306965
 20
4.222087026337075
 30
0.0
 11
10.89312513395388
 21
5.297682859983993
 31
0.0
  0
LINE
  5
2323F
330
23223
100
AcDbEntity
  8
0
  6
CONTINUOUS
100
AcDbLine
 10
10.02566815382863
 20
3.756706670778549
 30
0.0
 11
11.10129251732229
 21
4.832331034272211
 31
0.0
  0
LINE
  5
23240
330
23223
100
AcDbEntity
  8
0
  6
CONTINUOUS
100
AcDbLine
 10
9.310880692127883
 20
2.368399999997621
 30
0.0
 11
11.30945990069069
 21
4.366979208560428
 31
0.0
  0
LINE
  5
23241
330
23223
100
AcDbEntity
  8
0
  6
CONTINUOUS
100
AcDbLine
 10
9.98439990120807
 20
2.36839999999762
 30
0.0
 11
11.5176272840591
 21
3.901627382848645
 31
0.0
  0
LINE
  5
23242
330
23223
100
AcDbEntity
  8
0
  6
CONTINUOUS
100
AcDbLine
 10
10.65037369446246
 20
2.36085458417182
 30
0.0
 11
11.7257946674275
 21
3.436275557136862
 31
0.0
  0
LINE
  5
23243
330
23223
100
AcDbEntity
  8
0
  6
CONTINUOUS
100
AcDbLine
 10
10.85847197087848
 20
1.895433651507656
 30
0.0
 11
11.9339620507959
 21
2.97092373142508
 31
0.0
  0
LINE
  5
23244
330
23223
100
AcDbEntity
  8
0
  6
CONTINUOUS
100
AcDbLine
 10
11.0665702472945
 20
1.430012718843491
 30
0.0
 11
12.14212943416431
 21
2.505571905713296
 31
0.0
  0
LINE
  5
23245
330
23223
100
AcDbEntity
  8
0
  6
CONTINUOUS
100
AcDbLine
 10
11.27466852371052
 20
0.9645917861793256
 30
0.0
 11
12.35029681753271
 21
2.040220080001513
 31
0.0
  0
LINE
  5
23246
330
23223
100
AcDbEntity
  8
0
  6
CONTINUOUS
100
AcDbLine
 10
11.48276680012654
 20
0.4991708535151611
 30
0.0
 11
12.55846420090111
 21
1.57486825428973
 31
0.0
  0
LINE
  5
23247
330
23223
100
AcDbEntity
  8
0
  6
CONTINUOUS
100
AcDbLine
 10
11.69086507654257
 20
0.0337499208509957
 30
0.0
 11
12.76663158426952
 21
1.109516428577947
 31
0.0
  0
LINE
  5
23248
330
23223
100
AcDbEntity
  8
0
  6
CONTINUOUS
100
AcDbLine
 10
12.33057447873954
 20
-0.0000598860322123
 30
0.0
 11
12.97479896763792
 21
0.6441646028661663
 31
0.0
  0
LINE
  5
23249
330
23223
100
AcDbEntity
  8
0
  6
CONTINUOUS
100
AcDbLine
 10
13.00413694809395
 20
-0.0000166257579952
 30
0.0
 11
13.18296635100632
 21
0.1788127771543824
 31
0.0
  0
LINE
  5
2324A
330
23223
100
AcDbEntity
  8
0
  6
CONTINUOUS
100
AcDbLine
 10
4.772852165289667
 20
-0.000092794222212
 30
0.0
 11
4.296495091028902
 21
0.4762642800385528
 31
0.0
  0
LINE
  5
2324B
330
23223
100
AcDbEntity
  8
0
  6
CONTINUOUS
100
AcDbLine
 10
5.446340034776103
 20
-0.0000614546284616
 30
0.0
 11
2.898195908335625
 21
2.548082671812017
 31
0.0
  0
LINE
  5
2324C
330
23223
100
AcDbEntity
  8
0
  6
CONTINUOUS
100
AcDbLine
 10
6.119827904262539
 20
-0.0000301150347113
 30
0.0
 11
1.499896725642348
 21
4.61990106358548
 31
0.0
  0
LINE
  5
2324D
330
23223
100
AcDbEntity
  8
0
  6
CONTINUOUS
100
AcDbLine
 10
6.775136745476159
 20
0.0181802528318542
 30
0.0
 11
5.699826040202669
 21
1.093490958105344
 31
0.0
  0
LINE
  5
2324E
330
23223
100
AcDbEntity
  8
0
  6
CONTINUOUS
100
AcDbLine
 10
6.983376846288489
 20
0.4834593610997118
 30
0.0
 11
5.908008617934405
 21
1.558827589453796
 31
0.0
  0
LINE
  5
2324F
330
23223
100
AcDbEntity
  8
0
  6
CONTINUOUS
100
AcDbLine
 10
5.377063484962296
 20
1.416253513345719
 30
0.0
 11
1.702276957014131
 21
5.091040041293883
 31
0.0
  0
LINE
  5
23250
330
23223
100
AcDbEntity
  8
0
  6
CONTINUOUS
100
AcDbLine
 10
3.978745891735324
 20
3.488090315652877
 30
0.0
 11
2.000373521109399
 21
5.466462686278803
 31
0.0
  0
LINE
  5
23251
330
23223
100
AcDbEntity
  8
0
  6
CONTINUOUS
100
AcDbLine
 10
7.191616947100819
 20
0.948738469367568
 30
0.0
 11
6.11619119566614
 21
2.024164220802247
 31
0.0
  0
LINE
  5
23252
330
23223
100
AcDbEntity
  8
0
  6
CONTINUOUS
100
AcDbLine
 10
7.399857047913149
 20
1.414017577635424
 30
0.0
 11
6.324373773397875
 21
2.489500852150698
 31
0.0
  0
LINE
  5
23253
330
23223
100
AcDbEntity
  8
0
  6
CONTINUOUS
100
AcDbLine
 10
7.608097148725479
 20
1.879296685903281
 30
0.0
 11
6.53255635112961
 21
2.95483748349915
 31
0.0
  0
LINE
  5
23254
330
23223
100
AcDbEntity
  8
0
  6
CONTINUOUS
100
AcDbLine
 10
7.816337249537808
 20
2.344575794171138
 30
0.0
 11
6.740738928861345
 21
3.420174114847601
 31
0.0
  0
LINE
  5
23255
330
23223
100
AcDbEntity
  8
0
  6
CONTINUOUS
100
AcDbLine
 10
3.310241080789734
 20
4.830114335678653
 30
0.0
 11
2.298470085204666
 21
5.84188533126372
 31
0.0
  0
LINE
  5
23256
330
23223
100
AcDbEntity
  8
0
  6
CONTINUOUS
100
AcDbLine
 10
3.60832983563551
 20
5.205544789913063
 30
0.0
 11
2.596566649299935
 21
6.217307976248638
 31
0.0
  0
LINE
  5
23257
330
23223
100
AcDbEntity
  8
0
  6
CONTINUOUS
100
AcDbLine
 10
3.906418590481286
 20
5.580975244147473
 30
0.0
 11
2.894663213395203
 21
6.592730621233557
 31
0.0
  0
LINE
  5
23258
330
23223
100
AcDbEntity
  8
0
  6
CONTINUOUS
100
AcDbLine
 10
4.204507345327062
 20
5.956405698381884
 30
0.0
 11
3.192759777490472
 21
6.968153266218474
 31
0.0
  0
LINE
  5
23259
330
23223
100
AcDbEntity
  8
0
  6
CONTINUOUS
100
AcDbLine
 10
8.466032252791512
 20
2.368399999997621
 30
0.0
 11
6.948921506593081
 21
3.885510746196053
 31
0.0
  0
LINE
  5
2325A
330
23223
100
AcDbEntity
  8
0
  6
CONTINUOUS
100
AcDbLine
 10
9.139551461871699
 20
2.36839999999762
 30
0.0
 11
7.157104084324816
 21
4.350847377544504
 31
0.0
  0
LINE
  5
2325B
330
23223
100
AcDbEntity
  8
0
  6
CONTINUOUS
100
AcDbLine
 10
4.502596100172839
 20
6.331836152616295
 30
0.0
 11
3.49085634158574
 21
7.343575911203393
 31
0.0
  0
LINE
  5
2325C
330
23223
100
AcDbEntity
  8
0
  6
CONTINUOUS
100
AcDbLine
 10
4.800684855018615
 20
6.707266606850705
 30
0.0
 11
3.788952905681008
 21
7.718998556188312
 31
0.0
  0
LINE
  5
2325D
330
23223
100
AcDbEntity
  8
0
  6
CONTINUOUS
100
AcDbLine
 10
12.18154012887317
 20
-0.0000694579236642
 30
0.0
 11
11.32140332908496
 21
0.8600673418645499
 31
0.0
  0
LINE
  5
2325E
330
23223
100
AcDbEntity
  8
0
  6
CONTINUOUS
100
AcDbLine
 10
12.85501608323566
 20
-0.0000262032059659
 30
0.0
 11
10.77672456435345
 21
2.078265315676246
 31
0.0
  0
LINE
  5
2325F
330
23223
100
AcDbEntity
  8
0
  6
CONTINUOUS
100
AcDbLine
 10
9.813070670951886
 20
2.36839999999762
 30
0.0
 11
8.51047067095321
 21
3.670999999996297
 31
0.0
  0
LINE
  5
23260
330
23223
100
AcDbEntity
  8
0
  6
CONTINUOUS
100
AcDbLine
 10
10.48658988003207
 20
2.36839999999762
 30
0.0
 11
9.183989880033396
 21
3.670999999996297
 31
0.0
  0
LINE
  5
23261
330
23223
100
AcDbEntity
  8
0
  6
CONTINUOUS
100
AcDbLine
 10
8.441048632286794
 20
3.740422038662712
 30
0.0
 11
7.365286662056551
 21
4.816184008892956
 31
0.0
  0
LINE
  5
23262
330
23223
100
AcDbEntity
  8
0
  6
CONTINUOUS
100
AcDbLine
 10
8.649187485808454
 20
4.205802394221237
 30
0.0
 11
7.573469239788285
 21
5.281520640241407
 31
0.0
  0
LINE
  5
23263
330
23223
100
AcDbEntity
  8
0
  6
CONTINUOUS
100
AcDbLine
 10
5.098773609864391
 20
7.082697061085115
 30
0.0
 11
4.087049469776277
 21
8.09442120117323
 31
0.0
  0
LINE
  5
23264
330
23223
100
AcDbEntity
  8
0
  6
CONTINUOUS
100
AcDbLine
 10
5.396862364710167
 20
7.458127515319526
 30
0.0
 11
4.385146033871544
 21
8.469843846158149
 31
0.0
  0
LINE
  5
23265
330
23223
100
AcDbEntity
  8
0
  6
CONTINUOUS
100
AcDbLine
 10
13.04801363231285
 20
0.4804954567970334
 30
0.0
 11
9.85750908911358
 21
3.670999999996297
 31
0.0
  0
LINE
  5
23266
330
23223
100
AcDbEntity
  8
0
  6
CONTINUOUS
100
AcDbLine
 10
8.857326339330116
 20
4.671182749779763
 30
0.0
 11
7.781651817520021
 21
5.746857271589858
 31
0.0
  0
LINE
  5
23267
330
23223
100
AcDbEntity
  8
0
  6
CONTINUOUS
100
AcDbLine
 10
5.694951119555943
 20
7.833557969553937
 30
0.0
 11
4.765409089118624
 21
8.763099999991255
 31
0.0
  0
LINE
  5
23268
330
23223
100
AcDbEntity
  8
0
  6
CONTINUOUS
100
AcDbLine
 10
12.50286117236978
 20
1.699167125820288
 30
0.0
 11
9.68611877250287
 21
4.515909525687196
 31
0.0
  0
LINE
  5
23269
330
23223
100
AcDbEntity
  8
0
  6
CONTINUOUS
100
AcDbLine
 10
9.065465192851777
 20
5.136563105338288
 30
0.0
 11
7.989834395251757
 21
6.21219390293831
 31
0.0
  0
LINE
  5
2326A
330
23223
100
AcDbEntity
  8
0
  6
CONTINUOUS
100
AcDbLine
 10
5.993039874401719
 20
8.208988423788346
 30
0.0
 11
5.43892829819881
 21
8.763099999991255
 31
0.0
  0
LINE
  5
2326B
330
23223
100
AcDbEntity
  8
0
  6
CONTINUOUS
100
AcDbLine
 10
11.95770871242671
 20
2.917838794843543
 30
0.0
 11
8.19801697298349
 21
6.677530534286761
 31
0.0
  0
LINE
  5
2326C
330
23223
100
AcDbEntity
  8
0
  6
CONTINUOUS
100
AcDbLine
 10
6.291128629247495
 20
8.584418878022756
 30
0.0
 11
6.112447507278997
 21
8.763099999991255
 31
0.0
  0
LINE
  5
2326D
330
23223
100
AcDbEntity
  8
0
  6
CONTINUOUS
100
AcDbLine
 10
11.41255625248364
 20
4.136510463866797
 30
0.0
 11
8.406199550715227
 21
7.142867165635211
 31
0.0
  0
LINE
  5
2326E
330
23223
100
AcDbEntity
  8
0
  6
CONTINUOUS
100
AcDbLine
 10
10.86740379254057
 20
5.355182132890051
 30
0.0
 11
8.614382128446962
 21
7.608203796983664
 31
0.0
  0
LINE
  5
2326F
330
23223
100
AcDbEntity
  8
0
  6
CONTINUOUS
100
AcDbLine
 10
10.3222513325975
 20
6.573853801913305
 30
0.0
 11
8.822564706178696
 21
8.073540428332114
 31
0.0
  0
LINE
  5
23270
330
23223
100
AcDbEntity
  8
0
  6
CONTINUOUS
100
AcDbLine
 10
9.777098872654436
 20
7.792525470936562
 30
0.0
 11
9.030747283910433
 21
8.538877059680566
 31
0.0
  0
ENDBLK
  5
233B2
330
23223
100
AcDbEntity
  8
0
100
AcDbBlockEnd
  0
BLOCK
  5
233B3
330
23271
100
AcDbEntity
  8
0
100
AcDbBlockBegin
  2
*X195
 70
     1
 10
0.0
 20
0.0
 30
0.0
  3
*X195
  1

  0
LINE
  5
23272
330
23271
100
AcDbEntity
  8
0
  6
CONTINUOUS
100
AcDbLine
 10
10.67292308101235
 20
8.445076852443387
 30
0.0
 11
10.99094622856022
 21
8.763099999991255
 31
0.0
  0
LINE
  5
23273
330
23271
100
AcDbEntity
  8
0
  6
CONTINUOUS
100
AcDbLine
 10
10.87250383178748
 20
7.971138394138331
 30
0.0
 11
11.6644654376404
 21
8.763099999991255
 31
0.0
  0
LINE
  5
23274
330
23271
100
AcDbEntity
  8
0
  6
CONTINUOUS
100
AcDbLine
 10
11.07208458256261
 20
7.497199935833273
 30
0.0
 11
12.12126590876355
 21
8.546381262034211
 31
0.0
  0
LINE
  5
23275
330
23271
100
AcDbEntity
  8
0
  6
CONTINUOUS
100
AcDbLine
 10
11.27166533333774
 20
7.023261477528216
 30
0.0
 11
12.32085164573666
 21
8.072447789927136
 31
0.0
  0
LINE
  5
23276
330
23271
100
AcDbEntity
  8
0
  6
CONTINUOUS
100
AcDbLine
 10
11.47124608411287
 20
6.549323019223158
 30
0.0
 11
12.52043738270977
 21
7.59851431782006
 31
0.0
  0
LINE
  5
23277
330
23271
100
AcDbEntity
  8
0
  6
CONTINUOUS
100
AcDbLine
 10
11.670826834888
 20
6.075384560918101
 30
0.0
 11
12.72002311968288
 21
7.124580845712984
 31
0.0
  0
LINE
  5
23278
330
23271
100
AcDbEntity
  8
0
  6
CONTINUOUS
100
AcDbLine
 10
11.87040758566313
 20
5.601446102613043
 30
0.0
 11
12.91960885665599
 21
6.650647373605907
 31
0.0
  0
LINE
  5
23279
330
23271
100
AcDbEntity
  8
0
  6
CONTINUOUS
100
AcDbLine
 10
12.06998833643825
 20
5.127507644307986
 30
0.0
 11
13.1191945936291
 21
6.176713901498832
 31
0.0
  0
LINE
  5
2327A
330
23271
100
AcDbEntity
  8
0
  6
CONTINUOUS
100
AcDbLine
 10
12.26956908721338
 20
4.65356918600293
 30
0.0
 11
13.31878033060221
 21
5.702780429391757
 31
0.0
  0
LINE
  5
2327B
330
23271
100
AcDbEntity
  8
0
  6
CONTINUOUS
100
AcDbLine
 10
12.46914983798851
 20
4.179630727697873
 30
0.0
 11
13.51836606757532
 21
5.228846957284683
 31
0.0
  0
LINE
  5
2327C
330
23271
100
AcDbEntity
  8
0
  6
CONTINUOUS
100
AcDbLine
 10
12.66873058876364
 20
3.705692269392816
 30
0.0
 11
13.71795180454843
 21
4.754913485177607
 31
0.0
  0
LINE
  5
2327D
330
23271
100
AcDbEntity
  8
0
  6
CONTINUOUS
100
AcDbLine
 10
12.86831133953877
 20
3.231753811087759
 30
0.0
 11
13.91753754152154
 21
4.280980013070531
 31
0.0
  0
LINE
  5
2327E
330
23271
100
AcDbEntity
  8
0
  6
CONTINUOUS
100
AcDbLine
 10
13.0678920903139
 20
2.757815352782702
 30
0.0
 11
14.11712327849465
 21
3.807046540963456
 31
0.0
  0
LINE
  5
2327F
330
23271
100
AcDbEntity
  8
0
  6
CONTINUOUS
100
AcDbLine
 10
13.26747284108903
 20
2.283876894477644
 30
0.0
 11
14.31670901546777
 21
3.333113068856379
 31
0.0
  0
LINE
  5
23280
330
23271
100
AcDbEntity
  8
0
  6
CONTINUOUS
100
AcDbLine
 10
16.36767838827179
 20
8.751678487061342
 30
0.0
 11
16.50332410898388
 21
8.887324207773432
 31
0.0
  0
LINE
  5
23281
330
23271
100
AcDbEntity
  8
0
  6
CONTINUOUS
100
AcDbLine
 10
15.96190732182191
 20
7.67238821153127
 30
0.0
 11
16.68735328004734
 21
8.397834169756699
 31
0.0
  0
LINE
  5
23282
330
23271
100
AcDbEntity
  8
0
  6
CONTINUOUS
100
AcDbLine
 10
15.55613625537202
 20
6.593097936001196
 30
0.0
 11
16.87138245111079
 21
7.908344131739965
 31
0.0
  0
LINE
  5
23283
330
23271
100
AcDbEntity
  8
0
  6
CONTINUOUS
100
AcDbLine
 10
15.15036518892213
 20
5.513807660471122
 30
0.0
 11
17.05541162217424
 21
7.418854093723231
 31
0.0
  0
LINE
  5
23284
330
23271
100
AcDbEntity
  8
0
  6
CONTINUOUS
100
AcDbLine
 10
14.74459412247225
 20
4.434517384941048
 30
0.0
 11
17.2394407932377
 21
6.929364055706499
 31
0.0
  0
LINE
  5
23285
330
23271
100
AcDbEntity
  8
0
  6
CONTINUOUS
100
AcDbLine
 10
14.33882305602236
 20
3.355227109410975
 30
0.0
 11
17.42346996430115
 21
6.439874017689766
 31
0.0
  0
LINE
  5
23286
330
23271
100
AcDbEntity
  8
0
  6
CONTINUOUS
100
AcDbLine
 10
13.46705359186416
 20
1.809938436172586
 30
0.0
 11
16.0819338255367
 21
4.424818669845129
 31
0.0
  0
LINE
  5
23287
330
23271
100
AcDbEntity
  8
0
  6
CONTINUOUS
100
AcDbLine
 10
16.63283254238972
 20
4.975717386698149
 30
0.0
 11
17.60749913536461
 21
5.950383979673033
 31
0.0
  0
LINE
  5
23288
330
23271
100
AcDbEntity
  8
0
  6
CONTINUOUS
100
AcDbLine
 10
13.66663434263929
 20
1.335999977867529
 30
0.0
 11
15.67604797733754
 21
3.345413612565779
 31
0.0
  0
LINE
  5
23289
330
23271
100
AcDbEntity
  8
0
  6
CONTINUOUS
100
AcDbLine
 10
13.86621509341442
 20
0.8620615195624723
 30
0.0
 11
15.27016212913838
 21
2.26600855528643
 31
0.0
  0
LINE
  5
2328A
330
23271
100
AcDbEntity
  8
0
  6
CONTINUOUS
100
AcDbLine
 10
16.81682257348267
 20
4.486188208710908
 30
0.0
 11
17.79152830642806
 21
5.460893941656299
 31
0.0
  0
LINE
  5
2328B
330
23271
100
AcDbEntity
  8
0
  6
CONTINUOUS
100
AcDbLine
 10
17.00081260457561
 20
3.996659030723667
 30
0.0
 11
17.97555747749151
 21
4.971403903639565
 31
0.0
  0
LINE
  5
2328C
330
23271
100
AcDbEntity
  8
0
  6
CONTINUOUS
100
AcDbLine
 10
20.74362343514722
 20
8.412989070375462
 30
0.0
 11
21.09373436476302
 21
8.763099999991256
 31
0.0
  0
LINE
  5
2328D
330
23271
100
AcDbEntity
  8
0
  6
CONTINUOUS
100
AcDbLine
 10
20.25401257174777
 20
7.249858997895826
 30
0.0
 11
21.7672535738432
 21
8.763099999991255
 31
0.0
  0
LINE
  5
2328E
330
23271
100
AcDbEntity
  8
0
  6
CONTINUOUS
100
AcDbLine
 10
14.06579584418955
 20
0.3881230612574149
 30
0.0
 11
14.86427628093921
 21
1.186603498007082
 31
0.0
  0
LINE
  5
2328F
330
23271
100
AcDbEntity
  8
0
  6
CONTINUOUS
100
AcDbLine
 10
14.26537659496467
 20
-0.0858153970476412
 30
0.0
 11
14.45839043274005
 21
0.1071984407277329
 31
0.0
  0
LINE
  5
23290
330
23271
100
AcDbEntity
  8
0
  6
CONTINUOUS
100
AcDbLine
 10
17.18480263566856
 20
3.507129852736426
 30
0.0
 11
18.15958664855496
 21
4.481913865622833
 31
0.0
  0
LINE
  5
23291
330
23271
100
AcDbEntity
  8
0
  6
CONTINUOUS
100
AcDbLine
 10
17.3687926667615
 20
3.017600674749186
 30
0.0
 11
18.34361581961842
 21
3.9924238276061
 31
0.0
  0
LINE
  5
23292
330
23271
100
AcDbEntity
  8
0
  6
CONTINUOUS
100
AcDbLine
 10
19.76440170834832
 20
6.086728925416191
 30
0.0
 11
22.33924590259489
 21
8.661573119662755
 31
0.0
  0
LINE
  5
23293
330
23271
100
AcDbEntity
  8
0
  6
CONTINUOUS
100
AcDbLine
 10
19.27479084494887
 20
4.923598852936555
 30
0.0
 11
21.84929622842713
 21
7.498104236414807
 31
0.0
  0
LINE
  5
23294
330
23271
100
AcDbEntity
  8
0
  6
CONTINUOUS
100
AcDbLine
 10
17.55278269785445
 20
2.528071496761945
 30
0.0
 11
18.52764499068187
 21
3.502933789589366
 31
0.0
  0
LINE
  5
23295
330
23271
100
AcDbEntity
  8
0
  6
CONTINUOUS
100
AcDbLine
 10
18.78517998154942
 20
3.760468780456919
 30
0.0
 11
21.35934655425936
 21
6.33463535316686
 31
0.0
  0
LINE
  5
23296
330
23271
100
AcDbEntity
  8
0
  6
CONTINUOUS
100
AcDbLine
 10
17.73677272894739
 20
2.038542318774704
 30
0.0
 11
20.8693968800916
 21
5.171166469918914
 31
0.0
  0
LINE
  5
23297
330
23271
100
AcDbEntity
  8
0
  6
CONTINUOUS
100
AcDbLine
 10
17.92076276004034
 20
1.549013140787464
 30
0.0
 11
20.37944720592384
 21
4.007697586670968
 31
0.0
  0
LINE
  5
23298
330
23271
100
AcDbEntity
  8
0
  6
CONTINUOUS
100
AcDbLine
 10
18.10475279113329
 20
1.059483962800223
 30
0.0
 11
19.88949753175608
 21
2.84422870342302
 31
0.0
  0
LINE
  5
23299
330
23271
100
AcDbEntity
  8
0
  6
CONTINUOUS
100
AcDbLine
 10
18.28874282222623
 20
0.5699547848129822
 30
0.0
 11
19.39954785758832
 21
1.680759820175074
 31
0.0
  0
LINE
  5
2329A
330
23271
100
AcDbEntity
  8
0
  6
CONTINUOUS
100
AcDbLine
 10
18.47273285331918
 20
0.0804256068257416
 30
0.0
 11
18.90959818342056
 21
0.517290936927127
 31
0.0
  0
LINE
  5
2329B
330
23271
100
AcDbEntity
  8
0
  6
CONTINUOUS
100
AcDbLine
 10
14.3590401358224
 20
-0.1570118376323384
 30
0.0
 11
14.24903296539946
 21
-0.0470046672093929
 31
0.0
  0
LINE
  5
2329C
330
23271
100
AcDbEntity
  8
0
  6
CONTINUOUS
100
AcDbLine
 10
14.54309291258661
 20
0.332454594683643
 30
0.0
 11
13.75908329123172
 21
1.116464216038529
 31
0.0
  0
LINE
  5
2329D
330
23271
100
AcDbEntity
  8
0
  6
CONTINUOUS
100
AcDbLine
 10
14.72714568935081
 20
0.8219210269996244
 30
0.0
 11
13.26913361706399
 21
2.27993309928645
 31
0.0
  0
LINE
  5
2329E
330
23271
100
AcDbEntity
  8
0
  6
CONTINUOUS
100
AcDbLine
 10
14.91119846611502
 20
1.311387459315606
 30
0.0
 11
12.77918394289625
 21
3.443401982534371
 31
0.0
  0
LINE
  5
2329F
330
23271
100
AcDbEntity
  8
0
  6
CONTINUOUS
100
AcDbLine
 10
15.09525124287922
 20
1.800853891631587
 30
0.0
 11
12.28923426872852
 21
4.606870865782293
 31
0.0
  0
LINE
  5
232A0
330
23271
100
AcDbEntity
  8
0
  6
CONTINUOUS
100
AcDbLine
 10
15.27930401964343
 20
2.290320323947569
 30
0.0
 11
11.79928459456078
 21
5.770339749030213
 31
0.0
  0
LINE
  5
232A1
330
23271
100
AcDbEntity
  8
0
  6
CONTINUOUS
100
AcDbLine
 10
15.46335679640763
 20
2.77978675626355
 30
0.0
 11
14.48885470994921
 21
3.754288842721972
 31
0.0
  0
LINE
  5
232A2
330
23271
100
AcDbEntity
  8
0
  6
CONTINUOUS
100
AcDbLine
 10
13.88507249233704
 20
4.358071060334137
 30
0.0
 11
11.30933492039305
 21
6.933808632278135
 31
0.0
  0
LINE
  5
232A3
330
23271
100
AcDbEntity
  8
0
  6
CONTINUOUS
100
AcDbLine
 10
18.75840522805855
 20
0.1582575336928151
 30
0.0
 11
18.25383727664818
 21
0.6628254851031863
 31
0.0
  0
LINE
  5
232A4
330
23271
100
AcDbEntity
  8
0
  6
CONTINUOUS
100
AcDbLine
 10
15.64740957317184
 20
3.269253188579531
 30
0.0
 11
14.67288388101266
 21
4.243778880738705
 31
0.0
  0
LINE
  5
232A5
330
23271
100
AcDbEntity
  8
0
  6
CONTINUOUS
100
AcDbLine
 10
13.39509276772158
 20
5.521569994029786
 30
0.0
 11
10.81938524622531
 21
8.097277515526056
 31
0.0
  0
LINE
  5
232A6
330
23271
100
AcDbEntity
  8
0
  6
CONTINUOUS
100
AcDbLine
 10
18.95798597883369
 20
0.6321959919978686
 30
0.0
 11
17.84825644852853
 21
1.741925522303024
 31
0.0
  0
LINE
  5
232A7
330
23271
100
AcDbEntity
  8
0
  6
CONTINUOUS
100
AcDbLine
 10
19.15756672960882
 20
1.106134450302922
 30
0.0
 11
17.44267562040888
 21
2.821025559502861
 31
0.0
  0
LINE
  5
232A8
330
23271
100
AcDbEntity
  8
0
  6
CONTINUOUS
100
AcDbLine
 10
15.83146234993604
 20
3.758719620895513
 30
0.0
 11
14.85691305207612
 21
4.733268918755439
 31
0.0
  0
LINE
  5
232A9
330
23271
100
AcDbEntity
  8
0
  6
CONTINUOUS
100
AcDbLine
 10
16.01551512670025
 20
4.248186053211494
 30
0.0
 11
15.04094222313957
 21
5.222758956772172
 31
0.0
  0
LINE
  5
232AA
330
23271
100
AcDbEntity
  8
0
  6
CONTINUOUS
100
AcDbLine
 10
12.90511304310612
 20
6.685068927725435
 30
0.0
 11
10.8270819708403
 21
8.763099999991255
 31
0.0
  0
LINE
  5
232AB
330
23271
100
AcDbEntity
  8
0
  6
CONTINUOUS
100
AcDbLine
 10
12.41513331849066
 20
7.848567861421083
 30
0.0
 11
11.50060117992049
 21
8.763099999991255
 31
0.0
  0
LINE
  5
232AC
330
23271
100
AcDbEntity
  8
0
  6
CONTINUOUS
100
AcDbLine
 10
19.35714748038395
 20
1.580072908607975
 30
0.0
 11
17.03709479228923
 21
3.900125596702697
 31
0.0
  0
LINE
  5
232AD
330
23271
100
AcDbEntity
  8
0
  6
CONTINUOUS
100
AcDbLine
 10
19.55672823115909
 20
2.054011366913028
 30
0.0
 11
16.63151396416958
 21
4.979225633902534
 31
0.0
  0
LINE
  5
232AE
330
23271
100
AcDbEntity
  8
0
  6
CONTINUOUS
100
AcDbLine
 10
16.19956790346445
 20
4.737652485527476
 30
0.0
 11
15.22497139420302
 21
5.712248994788904
 31
0.0
  0
LINE
  5
232AF
330
23271
100
AcDbEntity
  8
0
  6
CONTINUOUS
100
AcDbLine
 10
16.38362068022866
 20
5.227118917843457
 30
0.0
 11
15.40900056526648
 21
6.201739032805637
 31
0.0
  0
LINE
  5
232B0
330
23271
100
AcDbEntity
  8
0
  6
CONTINUOUS
100
AcDbLine
 10
19.75630898193422
 20
2.527949825218081
 30
0.0
 11
18.70774536448286
 21
3.576513442669441
 31
0.0
  0
LINE
  5
232B1
330
23271
100
AcDbEntity
  8
0
  6
CONTINUOUS
100
AcDbLine
 10
19.95588973270936
 20
3.001888283523134
 30
0.0
 11
18.90726987211446
 21
4.050508144118028
 31
0.0
  0
LINE
  5
232B2
330
23271
100
AcDbEntity
  8
0
  6
CONTINUOUS
100
AcDbLine
 10
20.15547048348449
 20
3.475826741828186
 30
0.0
 11
19.10679437974606
 21
4.524502845566614
 31
0.0
  0
LINE
  5
232B3
330
23271
100
AcDbEntity
  8
0
  6
CONTINUOUS
100
AcDbLine
 10
20.35505123425962
 20
3.94976520013324
 30
0.0
 11
19.30631888737766
 21
4.998497547015201
 31
0.0
  0
LINE
  5
232B4
330
23271
100
AcDbEntity
  8
0
  6
CONTINUOUS
100
AcDbLine
 10
20.55463198503475
 20
4.423703658438292
 30
0.0
 11
19.50584339500926
 21
5.472492248463787
 31
0.0
  0
LINE
  5
232B5
330
23271
100
AcDbEntity
  8
0
  6
CONTINUOUS
100
AcDbLine
 10
18.37481191085755
 20
3.909446896294752
 30
0.0
 11
15.59302973632993
 21
6.691229070822371
 31
0.0
  0
LINE
  5
232B6
330
23271
100
AcDbEntity
  8
0
  6
CONTINUOUS
100
AcDbLine
 10
17.96904084440766
 20
4.988737171824825
 30
0.0
 11
15.77705890739338
 21
7.180719108839104
 31
0.0
  0
LINE
  5
232B7
330
23271
100
AcDbEntity
  8
0
  6
CONTINUOUS
100
AcDbLine
 10
17.56326977795777
 20
6.068027447354899
 30
0.0
 11
15.96108807845684
 21
7.670209146855838
 31
0.0
  0
LINE
  5
232B8
330
23271
100
AcDbEntity
  8
0
  6
CONTINUOUS
100
AcDbLine
 10
17.15749871150789
 20
7.147317722884972
 30
0.0
 11
16.14511724952029
 21
8.15969918487257
 31
0.0
  0
LINE
  5
232B9
330
23271
100
AcDbEntity
  8
0
  6
CONTINUOUS
100
AcDbLine
 10
16.751727645058
 20
8.226607998415046
 30
0.0
 11
16.32914642058374
 21
8.649189222889303
 31
0.0
  0
LINE
  5
232BA
330
23271
100
AcDbEntity
  8
0
  6
CONTINUOUS
100
AcDbLine
 10
20.75421273580989
 20
4.897642116743345
 30
0.0
 11
19.70536790264086
 21
5.946486949912374
 31
0.0
  0
LINE
  5
232BB
330
23271
100
AcDbEntity
  8
0
  6
CONTINUOUS
100
AcDbLine
 10
20.95379348658502
 20
5.371580575048398
 30
0.0
 11
19.90489241027246
 21
6.42048165136096
 31
0.0
  0
LINE
  5
232BC
330
23271
100
AcDbEntity
  8
0
  6
CONTINUOUS
100
AcDbLine
 10
21.15337423736015
 20
5.845519033353452
 30
0.0
 11
20.10441691790406
 21
6.894476352809547
 31
0.0
  0
LINE
  5
232BD
330
23271
100
AcDbEntity
  8
0
  6
CONTINUOUS
100
AcDbLine
 10
21.35295498813529
 20
6.319457491658505
 30
0.0
 11
20.30394142553566
 21
7.368471054258134
 31
0.0
  0
LINE
  5
232BE
330
23271
100
AcDbEntity
  8
0
  6
CONTINUOUS
100
AcDbLine
 10
21.55253573891042
 20
6.793395949963558
 30
0.0
 11
20.50346593316726
 21
7.842465755706721
 31
0.0
  0
LINE
  5
232BF
330
23271
100
AcDbEntity
  8
0
  6
CONTINUOUS
100
AcDbLine
 10
21.75211648968556
 20
7.267334408268612
 30
0.0
 11
20.70299044079886
 21
8.316460457155308
 31
0.0
  0
LINE
  5
232C0
330
23271
100
AcDbEntity
  8
0
  6
CONTINUOUS
100
AcDbLine
 10
21.95169724046069
 20
7.741272866573663
 30
0.0
 11
20.9298701070431
 21
8.763099999991256
 31
0.0
  0
LINE
  5
232C1
330
23271
100
AcDbEntity
  8
0
  6
CONTINUOUS
100
AcDbLine
 10
22.15127799123582
 20
8.215211324878716
 30
0.0
 11
21.60338931612328
 21
8.763099999991256
 31
0.0
  0
LINE
  5
232C2
330
23271
100
AcDbEntity
  8
0
  6
CONTINUOUS
100
AcDbLine
 10
22.35085874201096
 20
8.689149783183769
 30
0.0
 11
22.27690852520347
 21
8.763099999991255
 31
0.0
  0
ENDBLK
  5
233B4
330
23271
100
AcDbEntity
  8
0
100
AcDbBlockEnd
  0
BLOCK
  5
233B5
330
232C3
100
AcDbEntity
  8
0
100
AcDbBlockBegin
  2
*X196
 70
     1
 10
0.0
 20
0.0
 30
0.0
  3
*X196
  1

  0
LINE
  5
232C4
330
232C3
100
AcDbEntity
  8
0
  6
CONTINUOUS
100
AcDbLine
 10
23.19462913593892
 20
8.169917934846424
 30
0.0
 11
23.70775465517246
 21
8.683043454079957
 31
0.0
  0
LINE
  5
232C5
330
232C3
100
AcDbEntity
  8
0
  6
CONTINUOUS
100
AcDbLine
 10
22.64923161835078
 20
6.951001208178088
 30
0.0
 11
23.9159364069932
 21
8.217705996820516
 31
0.0
  0
LINE
  5
232C6
330
232C3
100
AcDbEntity
  8
0
  6
CONTINUOUS
100
AcDbLine
 10
22.10383410076263
 20
5.732084481509751
 30
0.0
 11
24.12411815881395
 21
7.752368539561078
 31
0.0
  0
LINE
  5
232C7
330
232C3
100
AcDbEntity
  8
0
  6
CONTINUOUS
100
AcDbLine
 10
21.55843658317447
 20
4.513167754841414
 30
0.0
 11
24.3322999106347
 21
7.287031082301639
 31
0.0
  0
LINE
  5
232C8
330
232C3
100
AcDbEntity
  8
0
  6
CONTINUOUS
100
AcDbLine
 10
21.01303906558632
 20
3.294251028173077
 30
0.0
 11
24.54048166245544
 21
6.821693625042199
 31
0.0
  0
LINE
  5
232C9
330
232C3
100
AcDbEntity
  8
0
  6
CONTINUOUS
100
AcDbLine
 10
20.46764154799817
 20
2.075334301504738
 30
0.0
 11
23.28571549467848
 21
4.89340824818505
 31
0.0
  0
LINE
  5
232CA
330
232C3
100
AcDbEntity
  8
0
  6
CONTINUOUS
100
AcDbLine
 10
19.92224403041002
 20
0.8564175748364002
 30
0.0
 11
22.74075865492779
 21
3.674932199354171
 31
0.0
  0
LINE
  5
232CB
330
232C3
100
AcDbEntity
  8
0
  6
CONTINUOUS
100
AcDbLine
 10
23.67305085490148
 20
5.280743608408048
 30
0.0
 11
24.74866341427619
 21
6.356356167782759
 31
0.0
  0
LINE
  5
232CC
330
232C3
100
AcDbEntity
  8
0
  6
CONTINUOUS
100
AcDbLine
 10
23.88118970842314
 20
4.815363252849522
 30
0.0
 11
24.95684516609694
 21
5.89101871052332
 31
0.0
  0
LINE
  5
232CD
330
232C3
100
AcDbEntity
  8
0
  6
CONTINUOUS
100
AcDbLine
 10
19.73925852647308
 20
-0.0000871381807288
 30
0.0
 11
23.4103456646501
 21
3.670999999996297
 31
0.0
  0
LINE
  5
232CE
330
232C3
100
AcDbEntity
  8
0
  6
CONTINUOUS
100
AcDbLine
 10
24.0893285619448
 20
4.349982897290997
 30
0.0
 11
25.16502691791769
 21
5.42568125326388
 31
0.0
  0
LINE
  5
232CF
330
232C3
100
AcDbEntity
  8
0
  6
CONTINUOUS
100
AcDbLine
 10
20.41282099582748
 20
-0.0000438779065108
 30
0.0
 11
21.64944178675636
 21
1.236576913022366
 31
0.0
  0
LINE
  5
232D0
330
232C3
100
AcDbEntity
  8
0
  6
CONTINUOUS
100
AcDbLine
 10
22.78126487373161
 20
2.36839999999762
 30
0.0
 11
24.08386487373029
 21
3.670999999996297
 31
0.0
  0
LINE
  5
232D1
330
232C3
100
AcDbEntity
  8
0
  6
CONTINUOUS
100
AcDbLine
 10
24.29746741546646
 20
3.884602541732471
 30
0.0
 11
25.37320866973843
 21
4.960343796004441
 31
0.0
  0
LINE
  5
232D2
330
232C3
100
AcDbEntity
  8
0
  6
CONTINUOUS
100
AcDbLine
 10
21.08638346518189
 20
-0.0000006176322938
 30
0.0
 11
21.10379033335899
 21
0.0174062505448083
 31
0.0
  0
LINE
  5
232D3
330
232C3
100
AcDbEntity
  8
0
  6
CONTINUOUS
100
AcDbLine
 10
23.4547840828118
 20
2.36839999999762
 30
0.0
 11
25.58139042155918
 21
4.495006338745002
 31
0.0
  0
LINE
  5
232D4
330
232C3
100
AcDbEntity
  8
0
  6
CONTINUOUS
100
AcDbLine
 10
29.30199999996933
 20
8.215615917155148
 30
0.0
 11
29.84948408280543
 21
8.763099999991255
 31
0.0
  0
LINE
  5
232D5
330
232C3
100
AcDbEntity
  8
0
  6
CONTINUOUS
100
AcDbLine
 10
24.12830329189199
 20
2.36839999999762
 30
0.0
 11
25.78957217337993
 21
4.029668881485562
 31
0.0
  0
LINE
  5
232D6
330
232C3
100
AcDbEntity
  8
0
  6
CONTINUOUS
100
AcDbLine
 10
29.30199999996933
 20
7.54209670807496
 30
0.0
 11
30.52300329188562
 21
8.763099999991255
 31
0.0
  0
LINE
  5
232D7
330
232C3
100
AcDbEntity
  8
0
  6
CONTINUOUS
100
AcDbLine
 10
24.80182250097217
 20
2.36839999999762
 30
0.0
 11
25.99775392520067
 21
3.564331424226122
 31
0.0
  0
LINE
  5
232D8
330
232C3
100
AcDbEntity
  8
0
  6
CONTINUOUS
100
AcDbLine
 10
29.30199999996933
 20
6.868577498994774
 30
0.0
 11
30.74199999996926
 21
8.308577498994712
 31
0.0
  0
LINE
  5
232D9
330
232C3
100
AcDbEntity
  8
0
  6
CONTINUOUS
100
AcDbLine
 10
25.13028238392013
 20
2.023340673865392
 30
0.0
 11
26.20593567702142
 21
3.098993966966683
 31
0.0
  0
LINE
  5
232DA
330
232C3
100
AcDbEntity
  8
0
  6
CONTINUOUS
100
AcDbLine
 10
25.33838066033617
 20
1.557919741201244
 30
0.0
 11
26.41411742884217
 21
2.633656509707244
 31
0.0
  0
LINE
  5
232DB
330
232C3
100
AcDbEntity
  8
0
  6
CONTINUOUS
100
AcDbLine
 10
25.54647893675221
 20
1.092498808537098
 30
0.0
 11
26.62229918066291
 21
2.168319052447804
 31
0.0
  0
LINE
  5
232DC
330
232C3
100
AcDbEntity
  8
0
  6
CONTINUOUS
100
AcDbLine
 10
25.75457721316825
 20
0.62707787587295
 30
0.0
 11
26.83048093248366
 21
1.702981595188365
 31
0.0
  0
LINE
  5
232DD
330
232C3
100
AcDbEntity
  8
0
  6
CONTINUOUS
100
AcDbLine
 10
29.30199999996933
 20
6.195058289914587
 30
0.0
 11
30.74199999996926
 21
7.635058289914522
 31
0.0
  0
LINE
  5
232DE
330
232C3
100
AcDbEntity
  8
0
  6
CONTINUOUS
100
AcDbLine
 10
29.30199999996933
 20
5.521539080834401
 30
0.0
 11
30.74199999996926
 21
6.961539080834331
 31
0.0
  0
LINE
  5
232DF
330
232C3
100
AcDbEntity
  8
0
  6
CONTINUOUS
100
AcDbLine
 10
29.30199999996933
 20
4.848019871754214
 30
0.0
 11
30.74199999996925
 21
6.288019871754143
 31
0.0
  0
LINE
  5
232E0
330
232C3
100
AcDbEntity
  8
0
  6
CONTINUOUS
100
AcDbLine
 10
29.30199999996933
 20
4.174500662674028
 30
0.0
 11
30.74199999996925
 21
5.614500662673953
 31
0.0
  0
LINE
  5
232E1
330
232C3
100
AcDbEntity
  8
0
  6
CONTINUOUS
100
AcDbLine
 10
25.96267548958429
 20
0.1616569432088024
 30
0.0
 11
27.18411854636669
 21
1.383099999991207
 31
0.0
  0
LINE
  5
232E2
330
232C3
100
AcDbEntity
  8
0
  6
CONTINUOUS
100
AcDbLine
 10
29.30199999996933
 20
3.500981453593841
 30
0.0
 11
30.74199999996925
 21
4.940981453593762
 31
0.0
  0
LINE
  5
232E3
330
232C3
100
AcDbEntity
  8
0
  6
CONTINUOUS
100
AcDbLine
 10
26.50763775544691
 20
0.0330999999912356
 30
0.0
 11
27.85763775544689
 21
1.383099999991223
 31
0.0
  0
LINE
  5
232E4
330
232C3
100
AcDbEntity
  8
0
  6
CONTINUOUS
100
AcDbLine
 10
29.30199999996933
 20
2.827462244513656
 30
0.0
 11
30.74199999996925
 21
4.267462244513574
 31
0.0
  0
LINE
  5
232E5
330
232C3
100
AcDbEntity
  8
0
  6
CONTINUOUS
100
AcDbLine
 10
27.18115696452709
 20
0.0330999999912356
 30
0.0
 11
28.55073879889363
 21
1.402681834357775
 31
0.0
  0
LINE
  5
232E6
330
232C3
100
AcDbEntity
  8
0
  6
CONTINUOUS
100
AcDbLine
 10
29.28241816560272
 20
2.134361201066866
 30
0.0
 11
30.74199999996924
 21
3.593943035433383
 31
0.0
  0
LINE
  5
232E7
330
232C3
100
AcDbEntity
  8
0
  6
CONTINUOUS
100
AcDbLine
 10
27.85467617360728
 20
0.0330999999912356
 30
0.0
 11
30.74199999996924
 21
2.920423826353195
 31
0.0
  0
LINE
  5
232E8
330
232C3
100
AcDbEntity
  8
0
  6
CONTINUOUS
100
AcDbLine
 10
28.53897559587887
 20
0.0438802131826428
 30
0.0
 11
30.73121978677781
 21
2.236124404081585
 31
0.0
  0
LINE
  5
232E9
330
232C3
100
AcDbEntity
  8
0
  6
CONTINUOUS
100
AcDbLine
 10
29.45140055588722
 20
0.2827859641107988
 30
0.0
 11
30.49231403584965
 21
1.323699444073236
 31
0.0
  0
LINE
  5
232EA
330
232C3
100
AcDbEntity
  8
0
  6
CONTINUOUS
100
AcDbLine
 10
19.59027867740337
 20
-0.0000967065718083
 30
0.0
 11
19.55485265190471
 21
0.035329318926844
 31
0.0
  0
LINE
  5
232EB
330
232C3
100
AcDbEntity
  8
0
  6
CONTINUOUS
100
AcDbLine
 10
20.26375463176586
 20
-0.0000534518541091
 30
0.0
 11
19.76305575737534
 21
0.5006454225364014
 31
0.0
  0
LINE
  5
232EC
330
232C3
100
AcDbEntity
  8
0
  6
CONTINUOUS
100
AcDbLine
 10
20.93723058612834
 20
-0.0000101971364099
 30
0.0
 11
19.97125886284597
 21
0.965961526145958
 31
0.0
  0
LINE
  5
232ED
330
232C3
100
AcDbEntity
  8
0
  6
CONTINUOUS
100
AcDbLine
 10
21.25514828313686
 20
0.355591314935257
 30
0.0
 11
20.1794619683166
 21
1.431277629755512
 31
0.0
  0
LINE
  5
232EE
330
232C3
100
AcDbEntity
  8
0
  6
CONTINUOUS
100
AcDbLine
 10
21.46338838394921
 20
0.8208704232030986
 30
0.0
 11
20.38766507378723
 21
1.896593733365069
 31
0.0
  0
LINE
  5
232EF
330
232C3
100
AcDbEntity
  8
0
  6
CONTINUOUS
100
AcDbLine
 10
21.67162848476155
 20
1.28614953147094
 30
0.0
 11
20.59586817925786
 21
2.361909836974626
 31
0.0
  0
LINE
  5
232F0
330
232C3
100
AcDbEntity
  8
0
  6
CONTINUOUS
100
AcDbLine
 10
21.8798685855739
 20
1.751428639738782
 30
0.0
 11
20.80407128472849
 21
2.827225940584183
 31
0.0
  0
LINE
  5
232F1
330
232C3
100
AcDbEntity
  8
0
  6
CONTINUOUS
100
AcDbLine
 10
22.08810868638624
 20
2.216707748006623
 30
0.0
 11
21.01227439019912
 21
3.292542044193739
 31
0.0
  0
LINE
  5
232F2
330
232C3
100
AcDbEntity
  8
0
  6
CONTINUOUS
100
AcDbLine
 10
22.60993564347543
 20
2.36839999999762
 30
0.0
 11
21.22047749566975
 21
3.757858147803296
 31
0.0
  0
LINE
  5
232F3
330
232C3
100
AcDbEntity
  8
0
  6
CONTINUOUS
100
AcDbLine
 10
23.28345485255561
 20
2.36839999999762
 30
0.0
 11
21.42868060114038
 21
4.223174251412853
 31
0.0
  0
LINE
  5
232F4
330
232C3
100
AcDbEntity
  8
0
  6
CONTINUOUS
100
AcDbLine
 10
26.29227406164219
 20
0.0330999999912356
 30
0.0
 11
25.80009199592872
 21
0.5252820657046957
 31
0.0
  0
LINE
  5
232F5
330
232C3
100
AcDbEntity
  8
0
  6
CONTINUOUS
100
AcDbLine
 10
23.9569740616358
 20
2.36839999999762
 30
0.0
 11
21.63688370661101
 21
4.688490355022409
 31
0.0
  0
LINE
  5
232F6
330
232C3
100
AcDbEntity
  8
0
  6
CONTINUOUS
100
AcDbLine
 10
26.96579327072237
 20
0.0330999999912356
 30
0.0
 11
25.2554132311971
 21
1.743480039516508
 31
0.0
  0
LINE
  5
232F7
330
232C3
100
AcDbEntity
  8
0
  6
CONTINUOUS
100
AcDbLine
 10
24.63049327071599
 20
2.36839999999762
 30
0.0
 11
23.32789327071731
 21
3.670999999996297
 31
0.0
  0
LINE
  5
232F8
330
232C3
100
AcDbEntity
  8
0
  6
CONTINUOUS
100
AcDbLine
 10
22.92098674744635
 20
4.077906523267254
 30
0.0
 11
21.84508681208164
 21
5.153806458631966
 31
0.0
  0
LINE
  5
232F9
330
232C3
100
AcDbEntity
  8
0
  6
CONTINUOUS
100
AcDbLine
 10
27.63931247980256
 20
0.0330999999912356
 30
0.0
 11
24.0014124797975
 21
3.670999999996297
 31
0.0
  0
LINE
  5
232FA
330
232C3
100
AcDbEntity
  8
0
  6
CONTINUOUS
100
AcDbLine
 10
23.129125600968
 20
4.5432868788258
 30
0.0
 11
22.05328991755227
 21
5.619122562241522
 31
0.0
  0
LINE
  5
232FB
330
232C3
100
AcDbEntity
  8
0
  6
CONTINUOUS
100
AcDbLine
 10
28.31283168888275
 20
0.0330999999912356
 30
0.0
 11
24.16488385994816
 21
4.181047828925828
 31
0.0
  0
LINE
  5
232FC
330
232C3
100
AcDbEntity
  8
0
  6
CONTINUOUS
100
AcDbLine
 10
23.33726445448964
 20
5.008667234384345
 30
0.0
 11
22.2614930230229
 21
6.084438665851079
 31
0.0
  0
LINE
  5
232FD
330
232C3
100
AcDbEntity
  8
0
  6
CONTINUOUS
100
AcDbLine
 10
28.92085740005492
 20
0.0985934978992438
 30
0.0
 11
27.63635089796295
 21
1.383099999991217
 31
0.0
  0
LINE
  5
232FE
330
232C3
100
AcDbEntity
  8
0
  6
CONTINUOUS
100
AcDbLine
 10
26.43704649509776
 20
2.582404402856405
 30
0.0
 11
23.61992702019732
 21
5.399523877756844
 31
0.0
  0
LINE
  5
232FF
330
232C3
100
AcDbEntity
  8
0
  6
CONTINUOUS
100
AcDbLine
 10
23.54540330801128
 20
5.47404758994289
 30
0.0
 11
22.46969612849353
 21
6.549754769460635
 31
0.0
  0
LINE
  5
23300
330
232C3
100
AcDbEntity
  8
0
  6
CONTINUOUS
100
AcDbLine
 10
29.42225615078443
 20
0.2707139562499279
 30
0.0
 11
28.30987010704312
 21
1.383099999991234
 31
0.0
  0
LINE
  5
23301
330
232C3
100
AcDbEntity
  8
0
  6
CONTINUOUS
100
AcDbLine
 10
25.89179548232307
 20
3.801174624711282
 30
0.0
 11
22.67789923396416
 21
7.015070873070191
 31
0.0
  0
LINE
  5
23302
330
232C3
100
AcDbEntity
  8
0
  6
CONTINUOUS
100
AcDbLine
 10
29.83624534690007
 20
0.5302439692144705
 30
0.0
 11
28.85811781497101
 21
1.508371501143527
 31
0.0
  0
LINE
  5
23303
330
232C3
100
AcDbEntity
  8
0
  6
CONTINUOUS
100
AcDbLine
 10
25.34654446954838
 20
5.01994484656616
 30
0.0
 11
22.88610233943479
 21
7.480386976679748
 31
0.0
  0
LINE
  5
23304
330
232C3
100
AcDbEntity
  8
0
  6
CONTINUOUS
100
AcDbLine
 10
30.17865975401872
 20
0.8613487711760022
 30
0.0
 11
29.18888744090175
 21
1.851121084292977
 31
0.0
  0
LINE
  5
23305
330
232C3
100
AcDbEntity
  8
0
  6
CONTINUOUS
100
AcDbLine
 10
24.80129345677369
 20
6.238715068421037
 30
0.0
 11
23.09430544490542
 21
7.945703080289305
 31
0.0
  0
LINE
  5
23306
330
232C3
100
AcDbEntity
  8
0
  6
CONTINUOUS
100
AcDbLine
 10
30.45496647202376
 20
1.258561262251155
 30
0.0
 11
29.30199999996933
 21
2.411527734305588
 31
0.0
  0
LINE
  5
23307
330
232C3
100
AcDbEntity
  8
0
  6
CONTINUOUS
100
AcDbLine
 10
24.256042443999
 20
7.457485290275915
 30
0.0
 11
23.30250855037605
 21
8.411019183898862
 31
0.0
  0
LINE
  5
23308
330
232C3
100
AcDbEntity
  8
0
  6
CONTINUOUS
100
AcDbLine
 10
30.64868582078271
 20
1.738361122572387
 30
0.0
 11
29.30199999996933
 21
3.085046943385775
 31
0.0
  0
LINE
  5
23309
330
232C3
100
AcDbEntity
  8
0
  6
CONTINUOUS
100
AcDbLine
 10
23.71079143122431
 20
8.676255512130794
 30
0.0
 11
23.51071165584668
 21
8.876335287508416
 31
0.0
  0
LINE
  5
2330A
330
232C3
100
AcDbEntity
  8
0
  6
CONTINUOUS
100
AcDbLine
 10
30.73802122914428
 20
2.322544923291007
 30
0.0
 11
29.30199999996933
 21
3.758566152465961
 31
0.0
  0
LINE
  5
2330B
330
232C3
100
AcDbEntity
  8
0
  6
CONTINUOUS
100
AcDbLine
 10
30.74199999996924
 20
2.992085361546236
 30
0.0
 11
29.30199999996933
 21
4.432085361546148
 31
0.0
  0
LINE
  5
2330C
330
232C3
100
AcDbEntity
  8
0
  6
CONTINUOUS
100
AcDbLine
 10
30.74199999996924
 20
3.665604570626419
 30
0.0
 11
29.30199999996933
 21
5.105604570626333
 31
0.0
  0
LINE
  5
2330D
330
232C3
100
AcDbEntity
  8
0
  6
CONTINUOUS
100
AcDbLine
 10
30.74199999996925
 20
4.339123779706602
 30
0.0
 11
29.30199999996933
 21
5.77912377970652
 31
0.0
  0
LINE
  5
2330E
330
232C3
100
AcDbEntity
  8
0
  6
CONTINUOUS
100
AcDbLine
 10
30.74199999996925
 20
5.012642988786785
 30
0.0
 11
29.30199999996933
 21
6.452642988786707
 31
0.0
  0
LINE
  5
2330F
330
232C3
100
AcDbEntity
  8
0
  6
CONTINUOUS
100
AcDbLine
 10
30.74199999996925
 20
5.68616219786697
 30
0.0
 11
29.30199999996933
 21
7.126162197866894
 31
0.0
  0
LINE
  5
23310
330
232C3
100
AcDbEntity
  8
0
  6
CONTINUOUS
100
AcDbLine
 10
30.74199999996925
 20
6.359681406947153
 30
0.0
 11
29.30199999996933
 21
7.799681406947081
 31
0.0
  0
LINE
  5
23311
330
232C3
100
AcDbEntity
  8
0
  6
CONTINUOUS
100
AcDbLine
 10
30.74199999996926
 20
7.033200616027337
 30
0.0
 11
29.30199999996933
 21
8.473200616027269
 31
0.0
  0
LINE
  5
23312
330
232C3
100
AcDbEntity
  8
0
  6
CONTINUOUS
100
AcDbLine
 10
30.74199999996926
 20
7.706719825107518
 30
0.0
 11
29.68561982508552
 21
8.763099999991255
 31
0.0
  0
LINE
  5
23313
330
232C3
100
AcDbEntity
  8
0
  6
CONTINUOUS
100
AcDbLine
 10
30.74199999996926
 20
8.380239034187703
 30
0.0
 11
30.35913903416571
 21
8.763099999991255
 31
0.0
  0
ENDBLK
  5
233B6
330
232C3
100
AcDbEntity
  8
0
100
AcDbBlockEnd
  0
BLOCK
  5
233B7
330
23314
100
AcDbEntity
  8
0
100
AcDbBlockBegin
  2
*X197
 70
     1
 10
0.0
 20
0.0
 30
0.0
  3
*X197
  1

  0
LINE
  5
23315
330
23314
100
AcDbEntity
  8
0
  6
CONTINUOUS
100
AcDbLine
 10
31.64199999996833
 20
8.535058289913598
 30
0.0
 11
31.87004171004599
 21
8.763099999991255
 31
0.0
  0
LINE
  5
23316
330
23314
100
AcDbEntity
  8
0
  6
CONTINUOUS
100
AcDbLine
 10
31.64199999996833
 20
7.861539080833412
 30
0.0
 11
32.54356091912618
 21
8.763099999991255
 31
0.0
  0
LINE
  5
23317
330
23314
100
AcDbEntity
  8
0
  6
CONTINUOUS
100
AcDbLine
 10
31.64199999996833
 20
7.188019871753226
 30
0.0
 11
33.08199999996839
 21
8.628019871753281
 31
0.0
  0
LINE
  5
23318
330
23314
100
AcDbEntity
  8
0
  6
CONTINUOUS
100
AcDbLine
 10
31.64199999996833
 20
6.51450066267304
 30
0.0
 11
33.08199999996839
 21
7.954500662673095
 31
0.0
  0
LINE
  5
23319
330
23314
100
AcDbEntity
  8
0
  6
CONTINUOUS
100
AcDbLine
 10
31.64199999996833
 20
5.840981453592853
 30
0.0
 11
33.08199999996839
 21
7.280981453592908
 31
0.0
  0
LINE
  5
2331A
330
23314
100
AcDbEntity
  8
0
  6
CONTINUOUS
100
AcDbLine
 10
31.64199999996833
 20
5.167462244512667
 30
0.0
 11
33.08199999996839
 21
6.607462244512721
 31
0.0
  0
LINE
  5
2331B
330
23314
100
AcDbEntity
  8
0
  6
CONTINUOUS
100
AcDbLine
 10
31.64199999996833
 20
4.493943035432481
 30
0.0
 11
33.08199999996839
 21
5.933943035432535
 31
0.0
  0
LINE
  5
2331C
330
23314
100
AcDbEntity
  8
0
  6
CONTINUOUS
100
AcDbLine
 10
31.64199999996833
 20
3.820423826352293
 30
0.0
 11
33.08199999996839
 21
5.260423826352348
 31
0.0
  0
LINE
  5
2331D
330
23314
100
AcDbEntity
  8
0
  6
CONTINUOUS
100
AcDbLine
 10
31.64199999996833
 20
3.146904617272106
 30
0.0
 11
33.08199999996839
 21
4.586904617272161
 31
0.0
  0
LINE
  5
2331E
330
23314
100
AcDbEntity
  8
0
  6
CONTINUOUS
100
AcDbLine
 10
36.23199999996837
 20
8.410423826352325
 30
0.0
 11
36.5846761736073
 21
8.763099999991255
 31
0.0
  0
LINE
  5
2331F
330
23314
100
AcDbEntity
  8
0
  6
CONTINUOUS
100
AcDbLine
 10
36.23199999996837
 20
7.73690461727214
 30
0.0
 11
37.25819538268748
 21
8.763099999991255
 31
0.0
  0
LINE
  5
23320
330
23314
100
AcDbEntity
  8
0
  6
CONTINUOUS
100
AcDbLine
 10
31.64257403601376
 20
2.473959444237348
 30
0.0
 11
33.08199999996839
 21
3.913385408191974
 31
0.0
  0
LINE
  5
23321
330
23314
100
AcDbEntity
  8
0
  6
CONTINUOUS
100
AcDbLine
 10
36.23199999996837
 20
7.063385408191953
 30
0.0
 11
37.67199999996831
 21
8.503385408191894
 31
0.0
  0
LINE
  5
23322
330
23314
100
AcDbEntity
  8
0
  6
CONTINUOUS
100
AcDbLine
 10
31.72013636841932
 20
1.87800256756272
 30
0.0
 11
33.08199999996839
 21
3.239866199111788
 31
0.0
  0
LINE
  5
23323
330
23314
100
AcDbEntity
  8
0
  6
CONTINUOUS
100
AcDbLine
 10
36.23199999996837
 20
6.389866199111767
 30
0.0
 11
37.67199999996831
 21
7.829866199111708
 31
0.0
  0
LINE
  5
23324
330
23314
100
AcDbEntity
  8
0
  6
CONTINUOUS
100
AcDbLine
 10
31.89042734314753
 20
1.374774333210744
 30
0.0
 11
33.08199999996839
 21
2.566346990031601
 31
0.0
  0
LINE
  5
23325
330
23314
100
AcDbEntity
  8
0
  6
CONTINUOUS
100
AcDbLine
 10
36.23199999996837
 20
5.71634699003158
 30
0.0
 11
37.67199999996831
 21
7.156346990031521
 31
0.0
  0
LINE
  5
23326
330
23314
100
AcDbEntity
  8
0
  6
CONTINUOUS
100
AcDbLine
 10
32.14210568064475
 20
0.952933461627778
 30
0.0
 11
33.18745552475986
 21
1.998283305742888
 31
0.0
  0
LINE
  5
23327
330
23314
100
AcDbEntity
  8
0
  6
CONTINUOUS
100
AcDbLine
 10
36.23199999996837
 20
5.042827780951393
 30
0.0
 11
37.67199999996831
 21
6.482827780951334
 31
0.0
  0
LINE
  5
23328
330
23314
100
AcDbEntity
  8
0
  6
CONTINUOUS
100
AcDbLine
 10
32.45820639400955
 20
0.5955149659123915
 30
0.0
 11
33.47242681921943
 21
1.60973539112227
 31
0.0
  0
LINE
  5
23329
330
23314
100
AcDbEntity
  8
0
  6
CONTINUOUS
100
AcDbLine
 10
36.23199999996837
 20
4.369308571871207
 30
0.0
 11
37.67199999996831
 21
5.809308571871147
 31
0.0
  0
LINE
  5
2332A
330
23314
100
AcDbEntity
  8
0
  6
CONTINUOUS
100
AcDbLine
 10
32.83432456621412
 20
0.2981139290367771
 30
0.0
 11
33.89722476612215
 21
1.361014128944803
 31
0.0
  0
LINE
  5
2332B
330
23314
100
AcDbEntity
  8
0
  6
CONTINUOUS
100
AcDbLine
 10
36.23199999996837
 20
3.69578936279102
 30
0.0
 11
37.67199999996831
 21
5.135789362790962
 31
0.0
  0
LINE
  5
2332C
330
23314
100
AcDbEntity
  8
0
  6
CONTINUOUS
100
AcDbLine
 10
33.2711633111245
 20
0.0614334648669672
 30
0.0
 11
34.43247338014423
 21
1.222743533886696
 31
0.0
  0
LINE
  5
2332D
330
23314
100
AcDbEntity
  8
0
  6
CONTINUOUS
100
AcDbLine
 10
36.23199999996837
 20
3.022270153710834
 30
0.0
 11
37.67199999996831
 21
4.462270153710775
 31
0.0
  0
LINE
  5
2332E
330
23314
100
AcDbEntity
  8
0
  6
CONTINUOUS
100
AcDbLine
 10
33.76515245874577
 20
-0.1180965965919523
 30
0.0
 11
35.1587445516215
 21
1.27549549628378
 31
0.0
  0
LINE
  5
2332F
330
23314
100
AcDbEntity
  8
0
  6
CONTINUOUS
100
AcDbLine
 10
36.21639478609585
 20
2.333145730758136
 30
0.0
 11
37.67199999996831
 21
3.788750944630588
 31
0.0
  0
LINE
  5
23330
330
23314
100
AcDbEntity
  8
0
  6
CONTINUOUS
100
AcDbLine
 10
34.34060583368432
 20
-0.2161624307335863
 30
0.0
 11
37.67199999996831
 21
3.115231735550401
 31
0.0
  0
LINE
  5
23331
330
23314
100
AcDbEntity
  8
0
  6
CONTINUOUS
100
AcDbLine
 10
35.01698193613905
 20
-0.2133055373590427
 30
0.0
 11
37.66876712070525
 21
2.438479647207154
 31
0.0
  0
LINE
  5
23332
330
23314
100
AcDbEntity
  8
0
  6
CONTINUOUS
100
AcDbLine
 10
35.90743367693304
 20
0.0036269943547609
 30
0.0
 11
37.51723902192366
 21
1.613432339345381
 31
0.0
  0
LINE
  5
23333
330
23314
100
AcDbEntity
  8
0
  6
CONTINUOUS
100
AcDbLine
 10
32.55309425579761
 20
0.5074718966376706
 30
0.0
 11
32.27784730925847
 21
0.7827188431768102
 31
0.0
  0
LINE
  5
23334
330
23314
100
AcDbEntity
  8
0
  6
CONTINUOUS
100
AcDbLine
 10
33.87496468909684
 20
-0.1408793275813673
 30
0.0
 11
31.67993083278052
 21
2.054154528734943
 31
0.0
  0
LINE
  5
23335
330
23314
100
AcDbEntity
  8
0
  6
CONTINUOUS
100
AcDbLine
 10
34.64362813207632
 20
-0.2360235614806649
 30
0.0
 11
31.64199999996833
 21
2.765604570627322
 31
0.0
  0
LINE
  5
23336
330
23314
100
AcDbEntity
  8
0
  6
CONTINUOUS
100
AcDbLine
 10
35.25801106796118
 20
-0.1768872882853429
 30
0.0
 11
31.64199999996833
 21
3.439123779707508
 31
0.0
  0
LINE
  5
23337
330
23314
100
AcDbEntity
  8
0
  6
CONTINUOUS
100
AcDbLine
 10
35.79065650332146
 20
-0.0360135145654361
 30
0.0
 11
34.54143210838231
 21
1.213210880373721
 31
0.0
  0
LINE
  5
23338
330
23314
100
AcDbEntity
  8
0
  6
CONTINUOUS
100
AcDbLine
 10
33.08199999996839
 20
2.67264298878764
 30
0.0
 11
31.64199999996833
 21
4.112642988787695
 31
0.0
  0
LINE
  5
23339
330
23314
100
AcDbEntity
  8
0
  6
CONTINUOUS
100
AcDbLine
 10
36.25975597779143
 20
0.1684062200447833
 30
0.0
 11
35.15395110240023
 21
1.274211095435983
 31
0.0
  0
LINE
  5
2333A
330
23314
100
AcDbEntity
  8
0
  6
CONTINUOUS
100
AcDbLine
 10
33.08199999996839
 20
3.346162197867826
 30
0.0
 11
31.64199999996833
 21
4.786162197867881
 31
0.0
  0
LINE
  5
2333B
330
23314
100
AcDbEntity
  8
0
  6
CONTINUOUS
100
AcDbLine
 10
36.67226329638774
 20
0.4294181105286579
 30
0.0
 11
35.63766478748767
 21
1.464016619428737
 31
0.0
  0
LINE
  5
2333C
330
23314
100
AcDbEntity
  8
0
  6
CONTINUOUS
100
AcDbLine
 10
33.08199999996839
 20
4.019681406948012
 30
0.0
 11
31.64199999996833
 21
5.459681406948068
 31
0.0
  0
LINE
  5
2333D
330
23314
100
AcDbEntity
  8
0
  6
CONTINUOUS
100
AcDbLine
 10
37.01677749710036
 20
0.7584231188962329
 30
0.0
 11
35.99563422741351
 21
1.779566388583076
 31
0.0
  0
LINE
  5
2333E
330
23314
100
AcDbEntity
  8
0
  6
CONTINUOUS
100
AcDbLine
 10
33.08199999996839
 20
4.693200616028199
 30
0.0
 11
31.64199999996833
 21
6.133200616028255
 31
0.0
  0
LINE
  5
2333F
330
23314
100
AcDbEntity
  8
0
  6
CONTINUOUS
100
AcDbLine
 10
37.29859977568887
 20
1.1501200493879
 30
0.0
 11
36.20680593341555
 21
2.241913891661226
 31
0.0
  0
LINE
  5
23340
330
23314
100
AcDbEntity
  8
0
  6
CONTINUOUS
100
AcDbLine
 10
33.08199999996839
 20
5.366719825108386
 30
0.0
 11
31.64199999996833
 21
6.80671982510844
 31
0.0
  0
LINE
  5
23341
330
23314
100
AcDbEntity
  8
0
  6
CONTINUOUS
100
AcDbLine
 10
37.5148623517228
 20
1.607376682434161
 30
0.0
 11
36.23199999996837
 21
2.890239034188594
 31
0.0
  0
LINE
  5
23342
330
23314
100
AcDbEntity
  8
0
  6
CONTINUOUS
100
AcDbLine
 10
33.08199999996839
 20
6.040239034188573
 30
0.0
 11
31.64199999996833
 21
7.480239034188627
 31
0.0
  0
LINE
  5
23343
330
23314
100
AcDbEntity
  8
0
  6
CONTINUOUS
100
AcDbLine
 10
37.64705163358367
 20
2.148706609653477
 30
0.0
 11
36.23199999996837
 21
3.56375824326878
 31
0.0
  0
LINE
  5
23344
330
23314
100
AcDbEntity
  8
0
  6
CONTINUOUS
100
AcDbLine
 10
33.08199999996839
 20
6.713758243268758
 30
0.0
 11
31.64199999996833
 21
8.153758243268815
 31
0.0
  0
LINE
  5
23345
330
23314
100
AcDbEntity
  8
0
  6
CONTINUOUS
100
AcDbLine
 10
37.67199999996831
 20
2.797277452349026
 30
0.0
 11
36.23199999996837
 21
4.237277452348967
 31
0.0
  0
LINE
  5
23346
330
23314
100
AcDbEntity
  8
0
  6
CONTINUOUS
100
AcDbLine
 10
37.67199999996831
 20
3.470796661429213
 30
0.0
 11
36.23199999996837
 21
4.910796661429154
 31
0.0
  0
LINE
  5
23347
330
23314
100
AcDbEntity
  8
0
  6
CONTINUOUS
100
AcDbLine
 10
37.67199999996831
 20
4.144315870509399
 30
0.0
 11
36.23199999996837
 21
5.58431587050934
 31
0.0
  0
LINE
  5
23348
330
23314
100
AcDbEntity
  8
0
  6
CONTINUOUS
100
AcDbLine
 10
33.08199999996839
 20
7.387277452348945
 30
0.0
 11
31.70617745232608
 21
8.763099999991255
 31
0.0
  0
LINE
  5
23349
330
23314
100
AcDbEntity
  8
0
  6
CONTINUOUS
100
AcDbLine
 10
33.08199999996839
 20
8.060796661429132
 30
0.0
 11
32.37969666140626
 21
8.763099999991255
 31
0.0
  0
LINE
  5
2334A
330
23314
100
AcDbEntity
  8
0
  6
CONTINUOUS
100
AcDbLine
 10
33.08199999996839
 20
8.734315870509318
 30
0.0
 11
33.05321587048645
 21
8.763099999991255
 31
0.0
  0
LINE
  5
2334B
330
23314
100
AcDbEntity
  8
0
  6
CONTINUOUS
100
AcDbLine
 10
37.67199999996831
 20
4.817835079589585
 30
0.0
 11
36.23199999996837
 21
6.257835079589526
 31
0.0
  0
LINE
  5
2334C
330
23314
100
AcDbEntity
  8
0
  6
CONTINUOUS
100
AcDbLine
 10
37.67199999996831
 20
5.491354288669771
 30
0.0
 11
36.23199999996837
 21
6.931354288669713
 31
0.0
  0
LINE
  5
2334D
330
23314
100
AcDbEntity
  8
0
  6
CONTINUOUS
100
AcDbLine
 10
37.67199999996831
 20
6.164873497749958
 30
0.0
 11
36.23199999996837
 21
7.6048734977499
 31
0.0
  0
LINE
  5
2334E
330
23314
100
AcDbEntity
  8
0
  6
CONTINUOUS
100
AcDbLine
 10
37.67199999996831
 20
6.838392706830144
 30
0.0
 11
36.23199999996837
 21
8.278392706830086
 31
0.0
  0
LINE
  5
2334F
330
23314
100
AcDbEntity
  8
0
  6
CONTINUOUS
100
AcDbLine
 10
37.67199999996831
 20
7.511911915910332
 30
0.0
 11
36.42081191588738
 21
8.763099999991255
 31
0.0
  0
LINE
  5
23350
330
23314
100
AcDbEntity
  8
0
  6
CONTINUOUS
100
AcDbLine
 10
37.67199999996831
 20
8.185431124990519
 30
0.0
 11
37.09433112496757
 21
8.763099999991255
 31
0.0
  0
ENDBLK
  5
233B8
330
23314
100
AcDbEntity
  8
0
100
AcDbBlockEnd
  0
BLOCK
  5
233B9
330
23351
100
AcDbEntity
  8
0
100
AcDbBlockBegin
  2
*X198
 70
     1
 10
0.0
 20
0.0
 30
0.0
  3
*X198
  1

  0
LINE
  5
23352
330
23351
100
AcDbEntity
  8
0
  6
CONTINUOUS
100
AcDbLine
 10
38.60499999996136
 20
8.762866199104765
 30
0.0
 11
38.71672554182345
 21
8.874591740966855
 31
0.0
  0
LINE
  5
23353
330
23351
100
AcDbEntity
  8
0
  6
CONTINUOUS
100
AcDbLine
 10
38.60499999996136
 20
8.089346990024577
 30
0.0
 11
39.03418785440363
 21
8.518534844466847
 31
0.0
  0
LINE
  5
23354
330
23351
100
AcDbEntity
  8
0
  6
CONTINUOUS
100
AcDbLine
 10
38.60499999996136
 20
7.41582778094439
 30
0.0
 11
39.35165016698382
 21
8.16247794796684
 31
0.0
  0
LINE
  5
23355
330
23351
100
AcDbEntity
  8
0
  6
CONTINUOUS
100
AcDbLine
 10
38.60499999996136
 20
6.742308571864204
 30
0.0
 11
39.66911247956399
 21
7.806421051466834
 31
0.0
  0
LINE
  5
23356
330
23351
100
AcDbEntity
  8
0
  6
CONTINUOUS
100
AcDbLine
 10
38.60499999996136
 20
6.068789362784018
 30
0.0
 11
39.98657479214418
 21
7.450364154966827
 31
0.0
  0
LINE
  5
23357
330
23351
100
AcDbEntity
  8
0
  6
CONTINUOUS
100
AcDbLine
 10
38.60499999996136
 20
5.395270153703832
 30
0.0
 11
40.30403710472435
 21
7.09430725846682
 31
0.0
  0
LINE
  5
23358
330
23351
100
AcDbEntity
  8
0
  6
CONTINUOUS
100
AcDbLine
 10
38.60499999996136
 20
4.721750944623645
 30
0.0
 11
40.62149941730453
 21
6.738250361966813
 31
0.0
  0
LINE
  5
23359
330
23351
100
AcDbEntity
  8
0
  6
CONTINUOUS
100
AcDbLine
 10
38.60499999996136
 20
4.048231735543458
 30
0.0
 11
40.93896172988471
 21
6.382193465466806
 31
0.0
  0
LINE
  5
2335A
330
23351
100
AcDbEntity
  8
0
  6
CONTINUOUS
100
AcDbLine
 10
38.60499999996136
 20
3.374712526463272
 30
0.0
 11
40.02599999995994
 21
4.795712526461843
 31
0.0
  0
LINE
  5
2335B
330
23351
100
AcDbEntity
  8
0
  6
CONTINUOUS
100
AcDbLine
 10
38.60499999996136
 20
2.701193317383085
 30
0.0
 11
40.02599999995994
 21
4.122193317381657
 31
0.0
  0
LINE
  5
2335C
330
23351
100
AcDbEntity
  8
0
  6
CONTINUOUS
100
AcDbLine
 10
40.28339754687704
 20
5.053110073378947
 30
0.0
 11
41.25642404246489
 21
6.026136568966799
 31
0.0
  0
LINE
  5
2335D
330
23351
100
AcDbEntity
  8
0
  6
CONTINUOUS
100
AcDbLine
 10
40.60085985945722
 20
4.697053176878939
 30
0.0
 11
41.57388635504507
 21
5.670079672466793
 31
0.0
  0
LINE
  5
2335E
330
23351
100
AcDbEntity
  8
0
  6
CONTINUOUS
100
AcDbLine
 10
43.57899999995641
 20
8.348712526458318
 30
0.0
 11
43.99338747348935
 21
8.763099999991255
 31
0.0
  0
LINE
  5
2335F
330
23351
100
AcDbEntity
  8
0
  6
CONTINUOUS
100
AcDbLine
 10
43.57899999995641
 20
7.675193317378131
 30
0.0
 11
44.66690668256953
 21
8.763099999991255
 31
0.0
  0
LINE
  5
23360
330
23351
100
AcDbEntity
  8
0
  6
CONTINUOUS
100
AcDbLine
 10
38.60499999996136
 20
2.027674108302898
 30
0.0
 11
40.02599999995994
 21
3.44867410830147
 31
0.0
  0
LINE
  5
23361
330
23351
100
AcDbEntity
  8
0
  6
CONTINUOUS
100
AcDbLine
 10
38.60499999996136
 20
1.354154899222712
 30
0.0
 11
40.02599999995994
 21
2.775154899221284
 31
0.0
  0
LINE
  5
23362
330
23351
100
AcDbEntity
  8
0
  6
CONTINUOUS
100
AcDbLine
 10
38.60499999996136
 20
0.6806356901425255
 30
0.0
 11
40.02599999995994
 21
2.101635690141098
 31
0.0
  0
LINE
  5
23363
330
23351
100
AcDbEntity
  8
0
  6
CONTINUOUS
100
AcDbLine
 10
38.60499999996136
 20
0.0071164810623383
 30
0.0
 11
40.02599999995994
 21
1.428116481060911
 31
0.0
  0
LINE
  5
23364
330
23351
100
AcDbEntity
  8
0
  6
CONTINUOUS
100
AcDbLine
 10
40.9183221720374
 20
4.340996280378933
 30
0.0
 11
41.89134866762525
 21
5.314022775966786
 31
0.0
  0
LINE
  5
23365
330
23351
100
AcDbEntity
  8
0
  6
CONTINUOUS
100
AcDbLine
 10
41.23578448461758
 20
3.984939383878926
 30
0.0
 11
42.20881098020543
 21
4.957965879466778
 31
0.0
  0
LINE
  5
23366
330
23351
100
AcDbEntity
  8
0
  6
CONTINUOUS
100
AcDbLine
 10
41.55324679719776
 20
3.628882487378919
 30
0.0
 11
42.52627329278561
 21
4.601908982966772
 31
0.0
  0
LINE
  5
23367
330
23351
100
AcDbEntity
  8
0
  6
CONTINUOUS
100
AcDbLine
 10
41.87070910977793
 20
3.272825590878912
 30
0.0
 11
42.84373560536579
 21
4.245852086466765
 31
0.0
  0
LINE
  5
23368
330
23351
100
AcDbEntity
  8
0
  6
CONTINUOUS
100
AcDbLine
 10
43.57899999995641
 20
7.001674108297943
 30
0.0
 11
44.99999999995498
 21
8.422674108296516
 31
0.0
  0
LINE
  5
23369
330
23351
100
AcDbEntity
  8
0
  6
CONTINUOUS
100
AcDbLine
 10
43.57899999995641
 20
6.328154899217758
 30
0.0
 11
44.99999999995498
 21
7.749154899216329
 31
0.0
  0
LINE
  5
2336A
330
23351
100
AcDbEntity
  8
0
  6
CONTINUOUS
100
AcDbLine
 10
43.57899999995641
 20
5.654635690137571
 30
0.0
 11
44.99999999995498
 21
7.075635690136142
 31
0.0
  0
LINE
  5
2336B
330
23351
100
AcDbEntity
  8
0
  6
CONTINUOUS
100
AcDbLine
 10
43.57899999995641
 20
4.981116481057384
 30
0.0
 11
44.99999999995498
 21
6.402116481055955
 31
0.0
  0
LINE
  5
2336C
330
23351
100
AcDbEntity
  8
0
  6
CONTINUOUS
100
AcDbLine
 10
39.27140272797921
 20
-0.0000000000000009
 30
0.0
 11
40.02599999995994
 21
0.7545972719807246
 31
0.0
  0
LINE
  5
2336D
330
23351
100
AcDbEntity
  8
0
  6
CONTINUOUS
100
AcDbLine
 10
39.9449219370594
 20
-0.0000000000000009
 30
0.0
 11
40.02599999995994
 21
0.0810780629005379
 31
0.0
  0
LINE
  5
2336E
330
23351
100
AcDbEntity
  8
0
  6
CONTINUOUS
100
AcDbLine
 10
42.18817142235812
 20
2.916768694378905
 30
0.0
 11
43.16119791794597
 21
3.889795189966758
 31
0.0
  0
LINE
  5
2336F
330
23351
100
AcDbEntity
  8
0
  6
CONTINUOUS
100
AcDbLine
 10
42.50563373493829
 20
2.560711797878898
 30
0.0
 11
43.47866023052615
 21
3.533738293466751
 31
0.0
  0
LINE
  5
23370
330
23351
100
AcDbEntity
  8
0
  6
CONTINUOUS
100
AcDbLine
 10
43.57899999995641
 20
4.307597271977198
 30
0.0
 11
44.99999999995498
 21
5.728597271975769
 31
0.0
  0
LINE
  5
23371
330
23351
100
AcDbEntity
  8
0
  6
CONTINUOUS
100
AcDbLine
 10
43.57899999995641
 20
3.634078062897011
 30
0.0
 11
44.99999999995498
 21
5.055078062895582
 31
0.0
  0
LINE
  5
23372
330
23351
100
AcDbEntity
  8
0
  6
CONTINUOUS
100
AcDbLine
 10
42.82309604751848
 20
2.204654901378891
 30
0.0
 11
44.99999999995498
 21
4.381558853815395
 31
0.0
  0
LINE
  5
23373
330
23351
100
AcDbEntity
  8
0
  6
CONTINUOUS
100
AcDbLine
 10
43.14055836009865
 20
1.848598004878885
 30
0.0
 11
44.99999999995498
 21
3.70803964473521
 31
0.0
  0
LINE
  5
23374
330
23351
100
AcDbEntity
  8
0
  6
CONTINUOUS
100
AcDbLine
 10
43.45802067267883
 20
1.492541108378878
 30
0.0
 11
44.99999999995498
 21
3.034520435655023
 31
0.0
  0
LINE
  5
23375
330
23351
100
AcDbEntity
  8
0
  6
CONTINUOUS
100
AcDbLine
 10
43.77548298525902
 20
1.136484211878871
 30
0.0
 11
44.99999999995498
 21
2.361001226574837
 31
0.0
  0
LINE
  5
23376
330
23351
100
AcDbEntity
  8
0
  6
CONTINUOUS
100
AcDbLine
 10
44.09294529783919
 20
0.7804273153788639
 30
0.0
 11
44.99999999995498
 21
1.687482017494649
 31
0.0
  0
LINE
  5
23377
330
23351
100
AcDbEntity
  8
0
  6
CONTINUOUS
100
AcDbLine
 10
44.41040761041938
 20
0.4243704188788566
 30
0.0
 11
44.99999999995498
 21
1.013962808414463
 31
0.0
  0
LINE
  5
23378
330
23351
100
AcDbEntity
  8
0
  6
CONTINUOUS
100
AcDbLine
 10
44.72786992299955
 20
0.0683135223788494
 30
0.0
 11
44.99999999995498
 21
0.340443599334276
 31
0.0
  0
LINE
  5
23379
330
23351
100
AcDbEntity
  8
0
  6
CONTINUOUS
100
AcDbLine
 10
39.12223903415696
 20
-0.0000000000000009
 30
0.0
 11
38.60499999996136
 21
0.5172390341955961
 31
0.0
  0
LINE
  5
2337A
330
23351
100
AcDbEntity
  8
0
  6
CONTINUOUS
100
AcDbLine
 10
39.79575824323715
 20
-0.0000000000000009
 30
0.0
 11
38.60499999996136
 21
1.190758243275783
 31
0.0
  0
LINE
  5
2337B
330
23351
100
AcDbEntity
  8
0
  6
CONTINUOUS
100
AcDbLine
 10
40.02599999995994
 20
0.443277452357397
 30
0.0
 11
38.60499999996136
 21
1.864277452355969
 31
0.0
  0
LINE
  5
2337C
330
23351
100
AcDbEntity
  8
0
  6
CONTINUOUS
100
AcDbLine
 10
40.02599999995994
 20
1.116796661437583
 30
0.0
 11
38.60499999996136
 21
2.537796661436155
 31
0.0
  0
LINE
  5
2337D
330
23351
100
AcDbEntity
  8
0
  6
CONTINUOUS
100
AcDbLine
 10
40.02599999995994
 20
1.79031587051777
 30
0.0
 11
38.60499999996136
 21
3.211315870516341
 31
0.0
  0
LINE
  5
2337E
330
23351
100
AcDbEntity
  8
0
  6
CONTINUOUS
100
AcDbLine
 10
40.02599999995994
 20
2.463835079597956
 30
0.0
 11
38.60499999996136
 21
3.884835079596527
 31
0.0
  0
LINE
  5
2337F
330
23351
100
AcDbEntity
  8
0
  6
CONTINUOUS
100
AcDbLine
 10
40.02599999995994
 20
3.137354288678143
 30
0.0
 11
38.60499999996136
 21
4.558354288676714
 31
0.0
  0
LINE
  5
23380
330
23351
100
AcDbEntity
  8
0
  6
CONTINUOUS
100
AcDbLine
 10
40.02599999995994
 20
3.810873497758329
 30
0.0
 11
38.60499999996136
 21
5.2318734977569
 31
0.0
  0
LINE
  5
23381
330
23351
100
AcDbEntity
  8
0
  6
CONTINUOUS
100
AcDbLine
 10
40.02599999995994
 20
4.484392706838515
 30
0.0
 11
38.60499999996136
 21
5.905392706837086
 31
0.0
  0
LINE
  5
23382
330
23351
100
AcDbEntity
  8
0
  6
CONTINUOUS
100
AcDbLine
 10
44.99999999995498
 20
0.183911915923658
 30
0.0
 11
41.53858364506288
 21
3.64532827081576
 31
0.0
  0
LINE
  5
23383
330
23351
100
AcDbEntity
  8
0
  6
CONTINUOUS
100
AcDbLine
 10
40.02599999995994
 20
5.157911915918703
 30
0.0
 11
38.60499999996136
 21
6.578911915917274
 31
0.0
  0
LINE
  5
23384
330
23351
100
AcDbEntity
  8
0
  6
CONTINUOUS
100
AcDbLine
 10
44.99999999995498
 20
0.8574311250038447
 30
0.0
 11
38.60499999996136
 21
7.25243112499746
 31
0.0
  0
LINE
  5
23385
330
23351
100
AcDbEntity
  8
0
  6
CONTINUOUS
100
AcDbLine
 10
44.99999999995498
 20
1.530950334084031
 30
0.0
 11
38.60499999996136
 21
7.925950334077647
 31
0.0
  0
LINE
  5
23386
330
23351
100
AcDbEntity
  8
0
  6
CONTINUOUS
100
AcDbLine
 10
44.99999999995498
 20
2.204469543164218
 30
0.0
 11
43.57899999995641
 21
3.625469543162789
 31
0.0
  0
LINE
  5
23387
330
23351
100
AcDbEntity
  8
0
  6
CONTINUOUS
100
AcDbLine
 10
41.89876730984767
 20
5.305702233271528
 30
0.0
 11
38.60499999996136
 21
8.599469543157834
 31
0.0
  0
LINE
  5
23388
330
23351
100
AcDbEntity
  8
0
  6
CONTINUOUS
100
AcDbLine
 10
44.99999999995498
 20
2.877988752244405
 30
0.0
 11
43.57899999995641
 21
4.298988752242975
 31
0.0
  0
LINE
  5
23389
330
23351
100
AcDbEntity
  8
0
  6
CONTINUOUS
100
AcDbLine
 10
44.99999999995498
 20
3.551507961324591
 30
0.0
 11
43.57899999995641
 21
4.972507961323163
 31
0.0
  0
LINE
  5
2338A
330
23351
100
AcDbEntity
  8
0
  6
CONTINUOUS
100
AcDbLine
 10
44.99999999995498
 20
4.225027170404777
 30
0.0
 11
43.57899999995641
 21
5.646027170403348
 31
0.0
  0
LINE
  5
2338B
330
23351
100
AcDbEntity
  8
0
  6
CONTINUOUS
100
AcDbLine
 10
44.99999999995498
 20
4.898546379484964
 30
0.0
 11
43.57899999995641
 21
6.319546379483535
 31
0.0
  0
LINE
  5
2338C
330
23351
100
AcDbEntity
  8
0
  6
CONTINUOUS
100
AcDbLine
 10
44.99999999995498
 20
5.572065588565151
 30
0.0
 11
43.57899999995641
 21
6.993065588563722
 31
0.0
  0
LINE
  5
2338D
330
23351
100
AcDbEntity
  8
0
  6
CONTINUOUS
100
AcDbLine
 10
44.99999999995498
 20
6.245584797645336
 30
0.0
 11
43.57899999995641
 21
7.666584797643908
 31
0.0
  0
LINE
  5
2338E
330
23351
100
AcDbEntity
  8
0
  6
CONTINUOUS
100
AcDbLine
 10
44.99999999995498
 20
6.919104006725522
 30
0.0
 11
43.57899999995641
 21
8.340104006724093
 31
0.0
  0
LINE
  5
2338F
330
23351
100
AcDbEntity
  8
0
  6
CONTINUOUS
100
AcDbLine
 10
44.99999999995498
 20
7.592623215805709
 30
0.0
 11
43.82952321576943
 21
8.763099999991255
 31
0.0
  0
LINE
  5
23390
330
23351
100
AcDbEntity
  8
0
  6
CONTINUOUS
100
AcDbLine
 10
44.99999999995498
 20
8.266142424885896
 30
0.0
 11
44.50304242484962
 21
8.763099999991255
 31
0.0
  0
ENDBLK
  5
233BA
330
23351
100
AcDbEntity
  8
0
100
AcDbBlockEnd
  0
BLOCK
  5
233BB
330
23391
100
AcDbEntity
  8
0
100
AcDbBlockBegin
  2
*X199
 70
     1
 10
0.0
 20
0.0
 30
0.0
  3
*X199
  1

  0
LINE
  5
23392
330
23391
100
AcDbEntity
  8
0
  6
CONTINUOUS
100
AcDbLine
 10
0.0
 20
8.548461116714023
 30
0.0
 11
0.2146388832772324
 21
8.763099999991255
 31
0.0
  0
LINE
  5
23393
330
23391
100
AcDbEntity
  8
0
  6
CONTINUOUS
100
AcDbLine
 10
-0.0000000000000002
 20
7.874941907633837
 30
0.0
 11
0.8881580923574184
 21
8.763099999991255
 31
0.0
  0
LINE
  5
23394
330
23391
100
AcDbEntity
  8
0
  6
CONTINUOUS
100
AcDbLine
 10
0.0
 20
7.20142269855365
 30
0.0
 11
1.420999999998572
 21
8.622422698552223
 31
0.0
  0
LINE
  5
23395
330
23391
100
AcDbEntity
  8
0
  6
CONTINUOUS
100
AcDbLine
 10
-0.0000000000000001
 20
6.527903489473465
 30
0.0
 11
1.420999999998571
 21
7.948903489472036
 31
0.0
  0
LINE
  5
23396
330
23391
100
AcDbEntity
  8
0
  6
CONTINUOUS
100
AcDbLine
 10
-0.0000000000000002
 20
5.854384280393278
 30
0.0
 11
1.420999999998571
 21
7.275384280391849
 31
0.0
  0
LINE
  5
23397
330
23391
100
AcDbEntity
  8
0
  6
CONTINUOUS
100
AcDbLine
 10
-0.0000000000000002
 20
5.180865071313091
 30
0.0
 11
1.420999999998571
 21
6.601865071311663
 31
0.0
  0
LINE
  5
23398
330
23391
100
AcDbEntity
  8
0
  6
CONTINUOUS
100
AcDbLine
 10
0.0
 20
4.507345862232905
 30
0.0
 11
1.420999999998571
 21
5.928345862231477
 31
0.0
  0
LINE
  5
23399
330
23391
100
AcDbEntity
  8
0
  6
CONTINUOUS
100
AcDbLine
 10
-0.0000000000000003
 20
3.833826653152718
 30
0.0
 11
1.420999999998571
 21
5.25482665315129
 31
0.0
  0
LINE
  5
2339A
330
23391
100
AcDbEntity
  8
0
  6
CONTINUOUS
100
AcDbLine
 10
-0.0000000000000002
 20
3.160307444072532
 30
0.0
 11
1.420999999998571
 21
4.581307444071103
 31
0.0
  0
LINE
  5
2339B
330
23391
100
AcDbEntity
  8
0
  6
CONTINUOUS
100
AcDbLine
 10
-0.0000000000000001
 20
2.486788234992345
 30
0.0
 11
1.420999999998571
 21
3.907788234990917
 31
0.0
  0
LINE
  5
2339C
330
23391
100
AcDbEntity
  8
0
  6
CONTINUOUS
100
AcDbLine
 10
-0.0000000000000006
 20
1.813269025912159
 30
0.0
 11
1.420999999998571
 21
3.234269025910731
 31
0.0
  0
LINE
  5
2339D
330
23391
100
AcDbEntity
  8
0
  6
CONTINUOUS
100
AcDbLine
 10
0.0
 20
1.139749816831973
 30
0.0
 11
1.420999999998571
 21
2.560749816830544
 31
0.0
  0
LINE
  5
2339E
330
23391
100
AcDbEntity
  8
0
  6
CONTINUOUS
100
AcDbLine
 10
0.0000000000000002
 20
0.466230607751787
 30
0.0
 11
1.420999999998571
 21
1.887230607750358
 31
0.0
  0
LINE
  5
2339F
330
23391
100
AcDbEntity
  8
0
  6
CONTINUOUS
100
AcDbLine
 10
0.2072886013284003
 20
-0.0000000000000009
 30
0.0
 11
1.420999999998571
 21
1.213711398670171
 31
0.0
  0
LINE
  5
233A0
330
23391
100
AcDbEntity
  8
0
  6
CONTINUOUS
100
AcDbLine
 10
0.8808078104085864
 20
-0.0000000000000009
 30
0.0
 11
1.420999999998571
 21
0.5401921895899839
 31
0.0
  0
LINE
  5
233A1
330
23391
100
AcDbEntity
  8
0
  6
CONTINUOUS
100
AcDbLine
 10
0.0581249075061505
 20
-0.0000000000000009
 30
0.0
 11
-0.0000000000000002
 21
0.0581249075061496
 31
0.0
  0
LINE
  5
233A2
330
23391
100
AcDbEntity
  8
0
  6
CONTINUOUS
100
AcDbLine
 10
0.7316441165863372
 20
-0.0000000000000009
 30
0.0
 11
-0.0000000000000002
 21
0.7316441165863363
 31
0.0
  0
LINE
  5
233A3
330
23391
100
AcDbEntity
  8
0
  6
CONTINUOUS
100
AcDbLine
 10
1.405163325666523
 20
-0.0000000000000009
 30
0.0
 11
-0.0000000000000002
 21
1.405163325666523
 31
0.0
  0
LINE
  5
233A4
330
23391
100
AcDbEntity
  8
0
  6
CONTINUOUS
100
AcDbLine
 10
1.420999999998572
 20
0.6576825347481381
 30
0.0
 11
-0.0000000000000001
 21
2.07868253474671
 31
0.0
  0
LINE
  5
233A5
330
23391
100
AcDbEntity
  8
0
  6
CONTINUOUS
100
AcDbLine
 10
1.420999999998571
 20
1.331201743828324
 30
0.0
 11
-0.0000000000000001
 21
2.752201743826896
 31
0.0
  0
LINE
  5
233A6
330
23391
100
AcDbEntity
  8
0
  6
CONTINUOUS
100
AcDbLine
 10
1.420999999998571
 20
2.004720952908511
 30
0.0
 11
-0.0000000000000002
 21
3.425720952907082
 31
0.0
  0
LINE
  5
233A7
330
23391
100
AcDbEntity
  8
0
  6
CONTINUOUS
100
AcDbLine
 10
1.420999999998571
 20
2.678240161988697
 30
0.0
 11
-0.0000000000000001
 21
4.099240161987269
 31
0.0
  0
LINE
  5
233A8
330
23391
100
AcDbEntity
  8
0
  6
CONTINUOUS
100
AcDbLine
 10
1.420999999998572
 20
3.351759371068884
 30
0.0
 11
0.0
 21
4.772759371067455
 31
0.0
  0
LINE
  5
233A9
330
23391
100
AcDbEntity
  8
0
  6
CONTINUOUS
100
AcDbLine
 10
1.420999999998571
 20
4.02527858014907
 30
0.0
 11
-0.0000000000000003
 21
5.446278580147642
 31
0.0
  0
LINE
  5
233AA
330
23391
100
AcDbEntity
  8
0
  6
CONTINUOUS
100
AcDbLine
 10
1.420999999998571
 20
4.698797789229257
 30
0.0
 11
0.0
 21
6.119797789227828
 31
0.0
  0
LINE
  5
233AB
330
23391
100
AcDbEntity
  8
0
  6
CONTINUOUS
100
AcDbLine
 10
1.420999999998571
 20
5.372316998309444
 30
0.0
 11
-0.0000000000000001
 21
6.793316998308015
 31
0.0
  0
LINE
  5
233AC
330
23391
100
AcDbEntity
  8
0
  6
CONTINUOUS
100
AcDbLine
 10
1.420999999998572
 20
6.045836207389629
 30
0.0
 11
-0.0000000000000004
 21
7.466836207388202
 31
0.0
  0
LINE
  5
233AD
330
23391
100
AcDbEntity
  8
0
  6
CONTINUOUS
100
AcDbLine
 10
1.420999999998571
 20
6.719355416469816
 30
0.0
 11
0.0
 21
8.140355416468388
 31
0.0
  0
LINE
  5
233AE
330
23391
100
AcDbEntity
  8
0
  6
CONTINUOUS
100
AcDbLine
 10
1.420999999998571
 20
7.392874625550003
 30
0.0
 11
0.0507746255573185
 21
8.763099999991255
 31
0.0
  0
LINE
  5
233AF
330
23391
100
AcDbEntity
  8
0
  6
CONTINUOUS
100
AcDbLine
 10
1.420999999998571
 20
8.06639383463019
 30
0.0
 11
0.7242938346375052
 21
8.763099999991255
 31
0.0
  0
LINE
  5
233B0
330
23391
100
AcDbEntity
  8
0
  6
CONTINUOUS
100
AcDbLine
 10
1.420999999998571
 20
8.739913043710375
 30
0.0
 11
1.397813043717691
 21
8.763099999991255
 31
0.0
  0
ENDBLK
  5
233BC
330
23391
100
AcDbEntity
  8
0
100
AcDbBlockEnd
  0
ENDSEC
  0
SECTION
  2
ENTITIES
  0
LINE
  5
228D8
330
18
100
AcDbEntity
  8
01
  6
CONTINUOUS
100
AcDbLine
 10
4553.5
 20
-498.8499900099559
 30
0.0
 11
4555.0
 21
-498.849990009955
 31
0.0
  0
LINE
  5
228D9
330
18
100
AcDbEntity
  8
01
  6
CONTINUOUS
100
AcDbLine
 10
4557.5
 20
-493.8499900099559
 30
0.0
 11
4553.5
 21
-493.8499900099559
 31
0.0
  0
LINE
  5
228DA
330
18
100
AcDbEntity
  8
01
  6
CONTINUOUS
100
AcDbLine
 10
4553.5
 20
-493.8499900099559
 30
0.0
 11
4116.5
 21
-493.8499900099559
 31
0.0
  0
LINE
  5
228DC
330
18
100
AcDbEntity
  8
01
  6
CONTINUOUS
100
AcDbLine
 10
4116.5
 20
-498.8499900099559
 30
0.0
 11
4334.379106426324
 21
-498.8499900099559
 31
0.0
  0
LINE
  5
228DD
330
18
100
AcDbEntity
  8
01
  6
CONTINUOUS
100
AcDbLine
 10
4335.620893573676
 20
-498.8499900099559
 30
0.0
 11
4553.5
 21
-498.8499900099559
 31
0.0
  0
LINE
  5
228DE
330
18
100
AcDbEntity
  8
01
  6
CONTINUOUS
100
AcDbLine
 10
4115.0
 20
-498.8499900099559
 30
0.0
 11
4116.5
 21
-498.8499900099559
 31
0.0
  0
LINE
  5
228DF
330
18
100
AcDbEntity
  8
01
  6
CONTINUOUS
100
AcDbLine
 10
4116.5
 20
-493.8499900099559
 30
0.0
 11
4112.5
 21
-493.8499900099559
 31
0.0
  0
SPLINE
  5
228E0
330
18
100
AcDbEntity
  8
01
  6
CONTINUOUS
100
AcDbSpline
210
0.0
220
0.0
230
1.0
 70
     8
 71
     3
 72
     9
 73
     5
 74
     0
 42
0.0000000001
 43
0.0000000001
 40
0.0
 40
0.0
 40
0.0
 40
0.0
 40
0.352858222452085
 40
1.0
 40
1.0
 40
1.0
 40
1.0
 10
4338.921699931565
 20
-499.3647578819828
 30
0.0
 10
4338.712459341452
 20
-499.2854486352717
 30
0.0
 10
4338.119471629114
 20
-499.0606862755913
 30
0.0
 10
4337.44024651896
 20
-498.9327699853802
 30
0.0
 10
4337.000691573823
 20
-498.8499900099559
 30
0.0
  0
SPLINE
  5
228E1
330
18
100
AcDbEntity
  8
01
  6
CONTINUOUS
100
AcDbSpline
210
0.0
220
0.0
230
1.0
 70
     8
 71
     3
 72
    10
 73
     6
 74
     0
 42
0.0000000001
 43
0.0000000001
 40
0.0
 40
0.0
 40
0.0
 40
0.0
 40
0.0582237562662124
 40
0.6973111228464177
 40
1.0
 40
1.0
 40
1.0
 40
1.0
 10
4333.021345432244
 20
-498.8499900099559
 30
0.0
 10
4332.979480124697
 20
-498.8545170453144
 30
0.0
 10
4332.478084363109
 20
-498.9087346415572
 30
0.0
 10
4331.826045133093
 20
-499.0865197928151
 30
0.0
 10
4331.260172673959
 20
-499.2970825623788
 30
0.0
 10
4331.078300068435
 20
-499.3647578819828
 30
0.0
  0
LINE
  5
228E2
330
18
100
AcDbEntity
  8
01
  6
CONTINUOUS
100
AcDbLine
 10
4331.078300068435
 20
-499.3647578819828
 30
0.0
 11
4115.0
 21
-587.62826489085
 31
0.0
  0
LINE
  5
228E3
330
18
100
AcDbEntity
  8
01
  6
CONTINUOUS
100
AcDbLine
 10
4555.0
 20
-587.62826489085
 30
0.0
 11
4338.921699931565
 21
-499.3647578819828
 31
0.0
  0
ARC
  5
228E4
330
18
100
AcDbEntity
  8
01
  6
CONTINUOUS
100
AcDbCircle
 10
4112.5
 20
-496.3499900099559
 30
0.0
 40
2.5
100
AcDbArc
 50
90.0
 51
180.0
  0
ARC
  5
228E5
330
18
100
AcDbEntity
  8
01
  6
CONTINUOUS
100
AcDbCircle
 10
4557.5
 20
-496.3499900099559
 30
0.0
 40
2.5
100
AcDbArc
 50
0.0
 51
90.0
  0
LINE
  5
228E6
330
18
100
AcDbEntity
  8
01
  6
CONTINUOUS
100
AcDbLine
 10
4560.0
 20
-591.349990009956
 30
0.0
 11
4560.0
 21
-496.3499900099559
 31
0.0
  0
LINE
  5
228E8
330
18
100
AcDbEntity
  8
01
  6
CONTINUOUS
100
AcDbLine
 10
4555.0
 20
-498.8499900099559
 30
0.0
 11
4555.0
 21
-588.8181630014487
 31
0.0
  0
LINE
  5
228E9
330
18
100
AcDbEntity
  8
01
  6
CONTINUOUS
100
AcDbLine
 10
4115.0
 20
-588.8181630014487
 30
0.0
 11
4115.0
 21
-498.8499900099559
 31
0.0
  0
LINE
  5
228EA
330
18
100
AcDbEntity
  8
01
  6
CONTINUOUS
100
AcDbLine
 10
4110.0
 20
-496.3499900099559
 30
0.0
 11
4110.0
 21
-591.349990009956
 31
0.0
  0
LINE
  5
228EC
330
18
100
AcDbEntity
  8
01
  6
CONTINUOUS
100
AcDbLine
 10
4113.440284486172
 20
-593.6664237096466
 30
0.0
 11
4334.435829308295
 21
-503.9601297901418
 31
0.0
  0
LINE
  5
228EE
330
18
100
AcDbEntity
  8
01
  6
CONTINUOUS
100
AcDbLine
 10
4335.564170691705
 20
-503.9601297901418
 30
0.0
 11
4556.559715513828
 21
-593.6664237096466
 31
0.0
  0
ARC
  5
228F1
330
18
100
AcDbEntity
  8
01
  6
CONTINUOUS
100
AcDbCircle
 10
4335.0
 20
-505.3499900099559
 30
0.0
 40
1.499999999999998
100
AcDbArc
 50
67.90683112778245
 51
89.86822958430204
  0
ARC
  5
228F2
330
18
100
AcDbEntity
  8
01
  6
CONTINUOUS
100
AcDbCircle
 10
4335.0
 20
-505.3499900099559
 30
0.0
 40
1.499999999999998
100
AcDbArc
 50
89.86822958430204
 51
112.0931688722175
  0
ARC
  5
228F3
330
18
100
AcDbEntity
  8
01
  6
CONTINUOUS
100
AcDbCircle
 10
4112.5
 20
-591.349990009956
 30
0.0
 40
2.500000000000052
100
AcDbArc
 50
180.0
 51
292.0931688722156
  0
ARC
  5
228F4
330
18
100
AcDbEntity
  8
01
  6
CONTINUOUS
100
AcDbCircle
 10
4557.5
 20
-591.349990009956
 30
0.0
 40
2.500000000000036
100
AcDbArc
 50
247.9068311277844
 51
0.0
  0
ARC
  5
228F5
330
18
100
AcDbEntity
  8
01
  6
CONTINUOUS
100
AcDbCircle
 10
4125.0
 20
-503.0999900099559
 30
0.0
 40
5.750000000000002
100
AcDbArc
 50
132.3426054522431
 51
180.0
  0
ARC
  5
228F6
330
18
100
AcDbEntity
  8
01
  6
CONTINUOUS
100
AcDbCircle
 10
4125.0
 20
-503.0999900099559
 30
0.0
 40
5.750000000000002
100
AcDbArc
 50
180.0
 51
47.65739454775689
  0
ARC
  5
228F7
330
18
100
AcDbEntity
  8
01
  6
CONTINUOUS
100
AcDbCircle
 10
4125.0
 20
-503.0999900099559
 30
0.0
 40
6.749999999999998
100
AcDbArc
 50
140.9771974348229
 51
0.0
  0
ARC
  5
228F8
330
18
100
AcDbEntity
  8
01
  6
CONTINUOUS
100
AcDbCircle
 10
4125.0
 20
-503.0999900099559
 30
0.0
 40
6.749999999999998
100
AcDbArc
 50
0.0
 51
39.02280256517716
  0
ARC
  5
228FB
330
18
100
AcDbEntity
  8
01
  6
CONTINUOUS
100
AcDbCircle
 10
4545.099999999999
 20
-503.0999900099559
 30
0.0
 40
6.750000000000044
100
AcDbArc
 50
140.9771974348229
 51
0.0
  0
ARC
  5
228FC
330
18
100
AcDbEntity
  8
01
  6
CONTINUOUS
100
AcDbCircle
 10
4545.099999999999
 20
-503.0999900099559
 30
0.0
 40
6.750000000000089
100
AcDbArc
 50
0.0
 51
39.02280256517753
  0
ARC
  5
228FD
330
18
100
AcDbEntity
  8
01
  6
CONTINUOUS
100
AcDbCircle
 10
4545.099999999999
 20
-503.0999900099559
 30
0.0
 40
5.750000000000053
100
AcDbArc
 50
132.3426054522334
 51
180.0
  0
ARC
  5
228FE
330
18
100
AcDbEntity
  8
01
  6
CONTINUOUS
100
AcDbCircle
 10
4545.099999999999
 20
-503.0999900099559
 30
0.0
 40
5.750000000000053
100
AcDbArc
 50
180.0
 51
47.65739454776664
  0
ARC
  5
22901
330
18
100
AcDbEntity
  8
01
  6
CONTINUOUS
100
AcDbCircle
 10
4545.099999999999
 20
-579.0316889800797
 30
0.0
 40
5.750000000000011
100
AcDbArc
 50
290.2494365799133
 51
337.9068311276488
  0
ARC
  5
22902
330
18
100
AcDbEntity
  8
01
  6
CONTINUOUS
100
AcDbCircle
 10
4545.099999999999
 20
-579.0316889800797
 30
0.0
 40
5.749999999999983
100
AcDbArc
 50
337.9068311276488
 51
205.5642256754674
  0
ARC
  5
22903
330
18
100
AcDbEntity
  8
01
  6
CONTINUOUS
100
AcDbCircle
 10
4545.099999999999
 20
-579.0316889800797
 30
0.0
 40
6.750000000000073
100
AcDbArc
 50
298.8840285624181
 51
157.9068311276639
  0
ARC
  5
22904
330
18
100
AcDbEntity
  8
01
  6
CONTINUOUS
100
AcDbCircle
 10
4545.099999999999
 20
-579.0316889800797
 30
0.0
 40
6.750000000000073
100
AcDbArc
 50
157.9068311276639
 51
196.929633692919
  0
ARC
  5
22908
330
18
100
AcDbEntity
  8
01
  6
CONTINUOUS
100
AcDbCircle
 10
4405.099999999999
 20
-503.0999900099559
 30
0.0
 40
5.750000000000053
100
AcDbArc
 50
132.3426054522334
 51
180.0
  0
ARC
  5
22909
330
18
100
AcDbEntity
  8
01
  6
CONTINUOUS
100
AcDbCircle
 10
4405.099999999999
 20
-503.0999900099559
 30
0.0
 40
5.750000000000015
100
AcDbArc
 50
180.0
 51
47.65739454775728
  0
ARC
  5
2290A
330
18
100
AcDbEntity
  8
01
  6
CONTINUOUS
100
AcDbCircle
 10
4405.099999999999
 20
-503.0999900099559
 30
0.0
 40
6.750000000000009
100
AcDbArc
 50
140.9771974348229
 51
0.0
  0
ARC
  5
2290B
330
18
100
AcDbEntity
  8
01
  6
CONTINUOUS
100
AcDbCircle
 10
4405.099999999999
 20
-503.0999900099559
 30
0.0
 40
6.749999999999964
100
AcDbArc
 50
0.0
 51
39.02280256517716
  0
ARC
  5
2290E
330
18
100
AcDbEntity
  8
01
  6
CONTINUOUS
100
AcDbCircle
 10
4265.0
 20
-503.0999900099559
 30
0.0
 40
5.750000000000053
100
AcDbArc
 50
132.3426054522334
 51
180.0
  0
ARC
  5
2290F
330
18
100
AcDbEntity
  8
01
  6
CONTINUOUS
100
AcDbCircle
 10
4265.0
 20
-503.0999900099559
 30
0.0
 40
5.750000000000035
100
AcDbArc
 50
180.0
 51
47.65739454775728
  0
ARC
  5
22910
330
18
100
AcDbEntity
  8
01
  6
CONTINUOUS
100
AcDbCircle
 10
4265.0
 20
-503.0999900099559
 30
0.0
 40
6.750000000000009
100
AcDbArc
 50
140.9771974348229
 51
0.0
  0
ARC
  5
22911
330
18
100
AcDbEntity
  8
01
  6
CONTINUOUS
100
AcDbCircle
 10
4265.0
 20
-503.0999900099559
 30
0.0
 40
6.750000000000009
100
AcDbArc
 50
0.0
 51
39.02280256517716
  0
ARC
  5
22914
330
18
100
AcDbEntity
  8
01
  6
CONTINUOUS
100
AcDbCircle
 10
4125.0
 20
-578.9910970785595
 30
0.0
 40
6.750000000000004
100
AcDbArc
 50
343.0703663070819
 51
202.0931688723361
  0
ARC
  5
22915
330
18
100
AcDbEntity
  8
01
  6
CONTINUOUS
100
AcDbCircle
 10
4125.0
 20
-578.9910970785595
 30
0.0
 40
6.749999999999993
100
AcDbArc
 50
202.0931688723361
 51
241.1159714375805
  0
ARC
  5
22916
330
18
100
AcDbEntity
  8
01
  6
CONTINUOUS
100
AcDbCircle
 10
4125.0
 20
-578.9910970785595
 30
0.0
 40
5.749999999999988
100
AcDbArc
 50
334.4357743245325
 51
22.09316887235113
  0
ARC
  5
22917
330
18
100
AcDbEntity
  8
01
  6
CONTINUOUS
100
AcDbCircle
 10
4125.0
 20
-578.9910970785595
 30
0.0
 40
5.750000000000002
100
AcDbArc
 50
22.09316887235113
 51
249.7505634200867
  0
ARC
  5
2291B
330
18
100
AcDbEntity
  8
01
  6
CONTINUOUS
100
AcDbCircle
 10
4112.954849594313
 20
-592.3762207591108
 30
0.0
 40
1.378496510282129
100
AcDbArc
 50
247.8647289013889
 51
290.6186479167392
  0
ELLIPSE
  5
2291C
330
18
100
AcDbEntity
  8
01
  6
CONTINUOUS
100
AcDbEllipse
 10
4112.5
 20
-591.349990009956
 30
0.0
 11
2.207503530207049
 21
3.28628853555449
 31
0.0
210
0.0
220
0.0
230
1.0
 40
0.3570671933319206
 41
4.197984412276218
 42
5.794607766860525
  0
ARC
  5
2291D
330
18
100
AcDbEntity
  8
01
  6
CONTINUOUS
100
AcDbCircle
 10
4557.045150405687
 20
-592.3762207591108
 30
0.0
 40
1.37849651028246
100
AcDbArc
 50
249.3813520832658
 51
292.1352710986075
  0
ELLIPSE
  5
2291E
330
18
100
AcDbEntity
  8
01
  6
CONTINUOUS
100
AcDbEllipse
 10
4557.5
 20
-591.349990009956
 30
0.0
 11
-2.207503530207078
 21
3.28628853555449
 31
0.0
210
0.0
220
0.0
230
1.0
 40
0.357067193331941
 41
0.488577540319069
 42
2.085200894903347
  0
ARC
  5
2291F
330
18
100
AcDbEntity
  8
01
  6
CONTINUOUS
100
AcDbCircle
 10
4557.599952582314
 20
-591.251302980706
 30
0.0
 40
2.402075506075465
100
AcDbArc
 50
269.1557731930033
 51
357.6453936908695
  0
ARC
  5
22920
330
18
100
AcDbEntity
  8
01
  6
CONTINUOUS
100
AcDbCircle
 10
4112.400047417686
 20
-591.251302980706
 30
0.0
 40
2.402075506075578
100
AcDbArc
 50
182.3546063091296
 51
270.8442268069967
  0
LINE
  5
22922
330
18
100
AcDbEntity
  8
01
  6
CONTINUOUS
100
AcDbLine
 10
4118.25
 20
-188.6339642250659
 30
0.0
 11
4118.25
 21
-190.1339642250659
 31
0.0
  0
LINE
  5
22923
330
18
100
AcDbEntity
  8
01
  6
CONTINUOUS
100
AcDbLine
 10
4131.75
 20
-190.1339642250659
 30
0.0
 11
4131.75
 21
-188.6339642250659
 31
0.0
  0
ARC
  5
22924
330
18
100
AcDbEntity
  8
01
  6
CONTINUOUS
100
AcDbCircle
 10
4131.25
 20
-190.1339642250659
 30
0.0
 40
0.5
100
AcDbArc
 50
270.0
 51
0.0
  0
ARC
  5
22925
330
18
100
AcDbEntity
  8
01
  6
CONTINUOUS
100
AcDbCircle
 10
4118.75
 20
-190.1339642250659
 30
0.0
 40
0.5
100
AcDbArc
 50
180.0
 51
270.0
  0
LINE
  5
22926
330
18
100
AcDbEntity
  8
01
  6
CONTINUOUS
100
AcDbLine
 10
4538.349999999999
 20
-188.633964225065
 30
0.0
 11
4538.349999999999
 21
-190.1339642250659
 31
0.0
  0
LINE
  5
22927
330
18
100
AcDbEntity
  8
01
  6
CONTINUOUS
100
AcDbLine
 10
4551.849999999999
 20
-190.1339642250659
 30
0.0
 11
4551.849999999999
 21
-188.6339642250659
 31
0.0
  0
ARC
  5
22928
330
18
100
AcDbEntity
  8
01
  6
CONTINUOUS
100
AcDbCircle
 10
4551.349999999999
 20
-190.1339642250659
 30
0.0
 40
0.5000000000001137
100
AcDbArc
 50
270.0
 51
0.0
  0
ARC
  5
22929
330
18
100
AcDbEntity
  8
01
  6
CONTINUOUS
100
AcDbCircle
 10
4538.849999999999
 20
-190.1339642250659
 30
0.0
 40
0.5000000000001137
100
AcDbArc
 50
180.0
 51
270.0
  0
LINE
  5
2292A
330
18
100
AcDbEntity
  8
01
  6
CONTINUOUS
100
AcDbLine
 10
4398.349999999999
 20
-188.6339642250659
 30
0.0
 11
4398.349999999999
 21
-190.1339642250659
 31
0.0
  0
LINE
  5
2292B
330
18
100
AcDbEntity
  8
01
  6
CONTINUOUS
100
AcDbLine
 10
4411.849999999999
 20
-190.1339642250659
 30
0.0
 11
4411.849999999999
 21
-188.6339642250659
 31
0.0
  0
ARC
  5
2292C
330
18
100
AcDbEntity
  8
01
  6
CONTINUOUS
100
AcDbCircle
 10
4411.349999999999
 20
-190.1339642250659
 30
0.0
 40
0.5000000000001137
100
AcDbArc
 50
270.0
 51
0.0
  0
ARC
  5
2292D
330
18
100
AcDbEntity
  8
01
  6
CONTINUOUS
100
AcDbCircle
 10
4398.849999999999
 20
-190.1339642250659
 30
0.0
 40
0.5000000000001137
100
AcDbArc
 50
180.0
 51
270.0
  0
LINE
  5
2292E
330
18
100
AcDbEntity
  8
01
  6
CONTINUOUS
100
AcDbLine
 10
4258.25
 20
-188.6339642250659
 30
0.0
 11
4258.25
 21
-190.1339642250659
 31
0.0
  0
LINE
  5
2292F
330
18
100
AcDbEntity
  8
01
  6
CONTINUOUS
100
AcDbLine
 10
4271.75
 20
-190.1339642250659
 30
0.0
 11
4271.75
 21
-188.6339642250659
 31
0.0
  0
ARC
  5
22930
330
18
100
AcDbEntity
  8
01
  6
CONTINUOUS
100
AcDbCircle
 10
4271.25
 20
-190.1339642250659
 30
0.0
 40
0.5000000000001137
100
AcDbArc
 50
270.0
 51
0.0
  0
ARC
  5
22931
330
18
100
AcDbEntity
  8
01
  6
CONTINUOUS
100
AcDbCircle
 10
4258.75
 20
-190.1339642250659
 30
0.0
 40
0.5000000000001137
100
AcDbArc
 50
180.0
 51
270.0
  0
LINE
  5
22932
330
18
100
AcDbEntity
  8
01
  6
CONTINUOUS
100
AcDbLine
 10
4110.0
 20
-183.6339642250659
 30
0.0
 11
4110.0
 21
-411.6339642250659
 31
0.0
  0
LINE
  5
22934
330
18
100
AcDbEntity
  8
01
  6
CONTINUOUS
100
AcDbLine
 10
4115.0
 20
-411.6339642250659
 30
0.0
 11
4115.0
 21
-395.6339642250659
 31
0.0
  0
LINE
  5
22935
330
18
100
AcDbEntity
  8
01
  6
CONTINUOUS
100
AcDbLine
 10
4115.0
 20
-390.6339642250659
 30
0.0
 11
4115.0
 21
-372.6339642250659
 31
0.0
  0
LINE
  5
22936
330
18
100
AcDbEntity
  8
01
  6
CONTINUOUS
100
AcDbLine
 10
4115.0
 20
-367.6339642250659
 30
0.0
 11
4115.0
 21
-349.6339642250659
 31
0.0
  0
LINE
  5
22937
330
18
100
AcDbEntity
  8
01
  6
CONTINUOUS
100
AcDbLine
 10
4115.0
 20
-344.6339642250659
 30
0.0
 11
4115.0
 21
-326.6339642250659
 31
0.0
  0
LINE
  5
22938
330
18
100
AcDbEntity
  8
01
  6
CONTINUOUS
100
AcDbLine
 10
4115.0
 20
-321.6339642250659
 30
0.0
 11
4115.0
 21
-303.6339642250659
 31
0.0
  0
LINE
  5
22939
330
18
100
AcDbEntity
  8
01
  6
CONTINUOUS
100
AcDbLine
 10
4115.0
 20
-298.6339642250659
 30
0.0
 11
4115.0
 21
-280.6339642250659
 31
0.0
  0
LINE
  5
2293A
330
18
100
AcDbEntity
  8
01
  6
CONTINUOUS
100
AcDbLine
 10
4115.0
 20
-275.6339642250659
 30
0.0
 11
4115.0
 21
-257.6339642250659
 31
0.0
  0
LINE
  5
2293B
330
18
100
AcDbEntity
  8
01
  6
CONTINUOUS
100
AcDbLine
 10
4115.0
 20
-252.6339642250659
 30
0.0
 11
4115.0
 21
-234.6339642250659
 31
0.0
  0
LINE
  5
2293C
330
18
100
AcDbEntity
  8
01
  6
CONTINUOUS
100
AcDbLine
 10
4115.0
 20
-229.6339642250659
 30
0.0
 11
4115.0
 21
-211.6339642250659
 31
0.0
  0
LINE
  5
2293D
330
18
100
AcDbEntity
  8
01
  6
CONTINUOUS
100
AcDbLine
 10
4115.0
 20
-206.6339642250659
 30
0.0
 11
4115.0
 21
-188.6339642250659
 31
0.0
  0
LINE
  5
2293E
330
18
100
AcDbEntity
  8
01
  6
CONTINUOUS
100
AcDbLine
 10
4555.0
 20
-188.6339642250659
 30
0.0
 11
4555.0
 21
-206.6339642250659
 31
0.0
  0
LINE
  5
2293F
330
18
100
AcDbEntity
  8
01
  6
CONTINUOUS
100
AcDbLine
 10
4555.0
 20
-211.6339642250659
 30
0.0
 11
4555.0
 21
-229.6339642250659
 31
0.0
  0
LINE
  5
22940
330
18
100
AcDbEntity
  8
01
  6
CONTINUOUS
100
AcDbLine
 10
4555.0
 20
-234.6339642250659
 30
0.0
 11
4555.0
 21
-252.6339642250659
 31
0.0
  0
LINE
  5
22941
330
18
100
AcDbEntity
  8
01
  6
CONTINUOUS
100
AcDbLine
 10
4555.0
 20
-257.6339642250659
 30
0.0
 11
4555.0
 21
-275.6339642250659
 31
0.0
  0
LINE
  5
22942
330
18
100
AcDbEntity
  8
01
  6
CONTINUOUS
100
AcDbLine
 10
4555.0
 20
-280.6339642250659
 30
0.0
 11
4555.0
 21
-298.6339642250659
 31
0.0
  0
LINE
  5
22943
330
18
100
AcDbEntity
  8
01
  6
CONTINUOUS
100
AcDbLine
 10
4555.0
 20
-303.6339642250659
 30
0.0
 11
4555.0
 21
-321.6339642250659
 31
0.0
  0
LINE
  5
22944
330
18
100
AcDbEntity
  8
01
  6
CONTINUOUS
100
AcDbLine
 10
4555.0
 20
-326.6339642250659
 30
0.0
 11
4555.0
 21
-344.6339642250659
 31
0.0
  0
LINE
  5
22945
330
18
100
AcDbEntity
  8
01
  6
CONTINUOUS
100
AcDbLine
 10
4555.0
 20
-349.6339642250659
 30
0.0
 11
4555.0
 21
-367.6339642250659
 31
0.0
  0
LINE
  5
22946
330
18
100
AcDbEntity
  8
01
  6
CONTINUOUS
100
AcDbLine
 10
4555.0
 20
-372.6339642250659
 30
0.0
 11
4555.0
 21
-390.6339642250659
 31
0.0
  0
LINE
  5
22947
330
18
100
AcDbEntity
  8
01
  6
CONTINUOUS
100
AcDbLine
 10
4555.0
 20
-395.6339642250659
 30
0.0
 11
4555.0
 21
-411.6339642250659
 31
0.0
  0
LINE
  5
2294A
330
18
100
AcDbEntity
  8
01
  6
CONTINUOUS
100
AcDbLine
 10
4560.0
 20
-411.6339642250659
 30
0.0
 11
4560.0
 21
-183.6339642250659
 31
0.0
  0
LINE
  5
2294B
330
18
100
AcDbEntity
  8
01
  6
CONTINUOUS
100
AcDbLine
 10
4553.5
 20
-413.1339642250659
 30
0.0
 11
4116.5
 21
-413.1339642250659
 31
0.0
  0
LINE
  5
2294C
330
18
100
AcDbEntity
  8
01
  6
CONTINUOUS
100
AcDbLine
 10
4116.5
 20
-418.1339642250659
 30
0.0
 11
4553.5
 21
-418.1339642250659
 31
0.0
  0
ARC
  5
2294F
330
18
100
AcDbEntity
  8
01
  6
CONTINUOUS
100
AcDbCircle
 10
4116.5
 20
-411.6339642250659
 30
0.0
 40
1.499999999999972
100
AcDbArc
 50
180.0
 51
270.0
  0
ARC
  5
22950
330
18
100
AcDbEntity
  8
01
  6
CONTINUOUS
100
AcDbCircle
 10
4116.5
 20
-411.6339642250659
 30
0.0
 40
6.499999999999972
100
AcDbArc
 50
180.0
 51
270.0
  0
ARC
  5
22951
330
18
100
AcDbEntity
  8
01
  6
CONTINUOUS
100
AcDbCircle
 10
4553.5
 20
-411.6339642250659
 30
0.0
 40
1.499999999999886
100
AcDbArc
 50
270.0
 51
0.0
  0
ARC
  5
22952
330
18
100
AcDbEntity
  8
01
  6
CONTINUOUS
100
AcDbCircle
 10
4553.5
 20
-411.6339642250659
 30
0.0
 40
6.499999999999886
100
AcDbArc
 50
270.0
 51
0.0
  0
LINE
  5
22953
330
18
100
AcDbEntity
  8
01
  6
CONTINUOUS
100
AcDbLine
 10
4555.0
 20
-183.6339642250659
 30
0.0
 11
4115.0
 21
-183.6339642250659
 31
0.0
  0
LINE
  5
22954
330
18
100
AcDbEntity
  8
01
  6
CONTINUOUS
100
AcDbLine
 10
4115.0
 20
-188.6339642250659
 30
0.0
 11
4555.0
 21
-188.6339642250659
 31
0.0
  0
LINE
  5
22955
330
18
100
AcDbEntity
  8
01
  6
CONTINUOUS
100
AcDbLine
 10
4555.0
 20
-206.6339642250659
 30
0.0
 11
4115.0
 21
-206.6339642250659
 31
0.0
  0
LINE
  5
22957
330
18
100
AcDbEntity
  8
01
  6
CONTINUOUS
100
AcDbLine
 10
4115.0
 20
-211.6339642250659
 30
0.0
 11
4555.0
 21
-211.6339642250659
 31
0.0
  0
LINE
  5
22958
330
18
100
AcDbEntity
  8
01
  6
CONTINUOUS
100
AcDbLine
 10
4555.0
 20
-229.6339642250659
 30
0.0
 11
4115.0
 21
-229.6339642250659
 31
0.0
  0
LINE
  5
2295A
330
18
100
AcDbEntity
  8
01
  6
CONTINUOUS
100
AcDbLine
 10
4115.0
 20
-234.6339642250659
 30
0.0
 11
4555.0
 21
-234.6339642250659
 31
0.0
  0
LINE
  5
2295B
330
18
100
AcDbEntity
  8
01
  6
CONTINUOUS
100
AcDbLine
 10
4555.0
 20
-252.6339642250659
 30
0.0
 11
4115.0
 21
-252.6339642250659
 31
0.0
  0
LINE
  5
2295D
330
18
100
AcDbEntity
  8
01
  6
CONTINUOUS
100
AcDbLine
 10
4115.0
 20
-257.6339642250659
 30
0.0
 11
4555.0
 21
-257.6339642250659
 31
0.0
  0
LINE
  5
2295E
330
18
100
AcDbEntity
  8
01
  6
CONTINUOUS
100
AcDbLine
 10
4555.0
 20
-275.6339642250659
 30
0.0
 11
4115.0
 21
-275.6339642250659
 31
0.0
  0
LINE
  5
22960
330
18
100
AcDbEntity
  8
01
  6
CONTINUOUS
100
AcDbLine
 10
4115.0
 20
-280.6339642250659
 30
0.0
 11
4555.0
 21
-280.6339642250659
 31
0.0
  0
LINE
  5
22961
330
18
100
AcDbEntity
  8
01
  6
CONTINUOUS
100
AcDbLine
 10
4555.0
 20
-298.6339642250659
 30
0.0
 11
4115.0
 21
-298.6339642250659
 31
0.0
  0
LINE
  5
22963
330
18
100
AcDbEntity
  8
01
  6
CONTINUOUS
100
AcDbLine
 10
4115.0
 20
-303.6339642250659
 30
0.0
 11
4555.0
 21
-303.6339642250659
 31
0.0
  0
LINE
  5
22964
330
18
100
AcDbEntity
  8
01
  6
CONTINUOUS
100
AcDbLine
 10
4555.0
 20
-321.6339642250659
 30
0.0
 11
4115.0
 21
-321.6339642250659
 31
0.0
  0
LINE
  5
22966
330
18
100
AcDbEntity
  8
01
  6
CONTINUOUS
100
AcDbLine
 10
4115.0
 20
-326.6339642250659
 30
0.0
 11
4555.0
 21
-326.6339642250659
 31
0.0
  0
LINE
  5
22967
330
18
100
AcDbEntity
  8
01
  6
CONTINUOUS
100
AcDbLine
 10
4555.0
 20
-344.6339642250659
 30
0.0
 11
4115.0
 21
-344.6339642250659
 31
0.0
  0
LINE
  5
22969
330
18
100
AcDbEntity
  8
01
  6
CONTINUOUS
100
AcDbLine
 10
4115.0
 20
-349.6339642250659
 30
0.0
 11
4555.0
 21
-349.6339642250659
 31
0.0
  0
LINE
  5
2296A
330
18
100
AcDbEntity
  8
01
  6
CONTINUOUS
100
AcDbLine
 10
4555.0
 20
-367.6339642250659
 30
0.0
 11
4115.0
 21
-367.6339642250659
 31
0.0
  0
LINE
  5
2296C
330
18
100
AcDbEntity
  8
01
  6
CONTINUOUS
100
AcDbLine
 10
4115.0
 20
-372.6339642250659
 30
0.0
 11
4555.0
 21
-372.6339642250659
 31
0.0
  0
LINE
  5
2296D
330
18
100
AcDbEntity
  8
01
  6
CONTINUOUS
100
AcDbLine
 10
4555.0
 20
-390.6339642250659
 30
0.0
 11
4115.0
 21
-390.6339642250659
 31
0.0
  0
LINE
  5
2296F
330
18
100
AcDbEntity
  8
01
  6
CONTINUOUS
100
AcDbLine
 10
4115.0
 20
-395.6339642250659
 30
0.0
 11
4555.0
 21
-395.6339642250659
 31
0.0
  0
LINE
  5
22970
330
18
100
AcDbEntity
  8
01
  6
CONTINUOUS
100
AcDbLine
 10
4333.5
 20
-188.6339642250659
 30
0.0
 11
4333.5
 21
-206.6339642250659
 31
0.0
  0
LINE
  5
22971
330
18
100
AcDbEntity
  8
01
  6
CONTINUOUS
100
AcDbLine
 10
4333.5
 20
-211.6339642250659
 30
0.0
 11
4333.5
 21
-229.6339642250659
 31
0.0
  0
LINE
  5
22972
330
18
100
AcDbEntity
  8
01
  6
CONTINUOUS
100
AcDbLine
 10
4333.5
 20
-234.6339642250659
 30
0.0
 11
4333.5
 21
-252.6339642250659
 31
0.0
  0
LINE
  5
22973
330
18
100
AcDbEntity
  8
01
  6
CONTINUOUS
100
AcDbLine
 10
4333.5
 20
-257.6339642250659
 30
0.0
 11
4333.5
 21
-275.6339642250659
 31
0.0
  0
LINE
  5
22974
330
18
100
AcDbEntity
  8
01
  6
CONTINUOUS
100
AcDbLine
 10
4333.5
 20
-280.6339642250659
 30
0.0
 11
4333.5
 21
-298.6339642250659
 31
0.0
  0
LINE
  5
22975
330
18
100
AcDbEntity
  8
01
  6
CONTINUOUS
100
AcDbLine
 10
4333.5
 20
-303.6339642250659
 30
0.0
 11
4333.5
 21
-321.6339642250659
 31
0.0
  0
LINE
  5
22976
330
18
100
AcDbEntity
  8
01
  6
CONTINUOUS
100
AcDbLine
 10
4333.5
 20
-326.6339642250659
 30
0.0
 11
4333.5
 21
-344.6339642250659
 31
0.0
  0
LINE
  5
22977
330
18
100
AcDbEntity
  8
01
  6
CONTINUOUS
100
AcDbLine
 10
4333.5
 20
-349.6339642250659
 30
0.0
 11
4333.5
 21
-367.6339642250659
 31
0.0
  0
LINE
  5
22978
330
18
100
AcDbEntity
  8
01
  6
CONTINUOUS
100
AcDbLine
 10
4333.5
 20
-372.6339642250659
 30
0.0
 11
4333.5
 21
-390.6339642250659
 31
0.0
  0
LINE
  5
22979
330
18
100
AcDbEntity
  8
01
  6
CONTINUOUS
100
AcDbLine
 10
4333.5
 20
-395.6339642250659
 30
0.0
 11
4333.5
 21
-411.5206982653872
 31
0.0
  0
LINE
  5
2297B
330
18
100
AcDbEntity
  8
01
  6
CONTINUOUS
100
AcDbLine
 10
4336.5
 20
-411.5206982653872
 30
0.0
 11
4336.5
 21
-395.6339642250659
 31
0.0
  0
LINE
  5
2297C
330
18
100
AcDbEntity
  8
01
  6
CONTINUOUS
100
AcDbLine
 10
4336.5
 20
-390.6339642250659
 30
0.0
 11
4336.5
 21
-372.6339642250659
 31
0.0
  0
LINE
  5
2297D
330
18
100
AcDbEntity
  8
01
  6
CONTINUOUS
100
AcDbLine
 10
4336.5
 20
-367.6339642250659
 30
0.0
 11
4336.5
 21
-349.6339642250659
 31
0.0
  0
LINE
  5
2297E
330
18
100
AcDbEntity
  8
01
  6
CONTINUOUS
100
AcDbLine
 10
4336.5
 20
-344.6339642250659
 30
0.0
 11
4336.5
 21
-326.6339642250659
 31
0.0
  0
LINE
  5
2297F
330
18
100
AcDbEntity
  8
01
  6
CONTINUOUS
100
AcDbLine
 10
4336.5
 20
-321.6339642250659
 30
0.0
 11
4336.5
 21
-303.6339642250659
 31
0.0
  0
LINE
  5
22980
330
18
100
AcDbEntity
  8
01
  6
CONTINUOUS
100
AcDbLine
 10
4336.5
 20
-298.6339642250659
 30
0.0
 11
4336.5
 21
-280.6339642250659
 31
0.0
  0
LINE
  5
22981
330
18
100
AcDbEntity
  8
01
  6
CONTINUOUS
100
AcDbLine
 10
4336.5
 20
-275.6339642250659
 30
0.0
 11
4336.5
 21
-257.6339642250659
 31
0.0
  0
LINE
  5
22982
330
18
100
AcDbEntity
  8
01
  6
CONTINUOUS
100
AcDbLine
 10
4336.5
 20
-252.6339642250659
 30
0.0
 11
4336.5
 21
-234.6339642250659
 31
0.0
  0
LINE
  5
22983
330
18
100
AcDbEntity
  8
01
  6
CONTINUOUS
100
AcDbLine
 10
4336.5
 20
-229.6339642250659
 30
0.0
 11
4336.5
 21
-211.6339642250659
 31
0.0
  0
LINE
  5
22984
330
18
100
AcDbEntity
  8
01
  6
CONTINUOUS
100
AcDbLine
 10
4336.5
 20
-206.6339642250659
 30
0.0
 11
4336.5
 21
-188.6339642250659
 31
0.0
  0
LINE
  5
22985
330
18
100
AcDbEntity
  8
01
  6
CONTINUOUS
100
AcDbLine
 10
4549.682529465124
 20
-190.6339642250659
 30
0.0
 11
4534.24058594479
 21
-206.6339642250659
 31
0.0
  0
LINE
  5
22987
330
18
100
AcDbEntity
  8
01
  6
CONTINUOUS
100
AcDbLine
 10
4529.414978594683
 20
-211.6339642250659
 30
0.0
 11
4512.042792134307
 21
-229.6339642250659
 31
0.0
  0
LINE
  5
22988
330
18
100
AcDbEntity
  8
01
  6
CONTINUOUS
100
AcDbLine
 10
4507.217184784204
 20
-234.6339642250659
 30
0.0
 11
4489.844998323824
 21
-252.6339642250659
 31
0.0
  0
LINE
  5
22989
330
18
100
AcDbEntity
  8
01
  6
CONTINUOUS
100
AcDbLine
 10
4485.019390973721
 20
-257.6339642250659
 30
0.0
 11
4467.647204513341
 21
-275.6339642250659
 31
0.0
  0
LINE
  5
2298A
330
18
100
AcDbEntity
  8
01
  6
CONTINUOUS
100
AcDbLine
 10
4462.821597163238
 20
-280.6339642250659
 30
0.0
 11
4445.449410702862
 21
-298.6339642250659
 31
0.0
  0
LINE
  5
2298B
330
18
100
AcDbEntity
  8
01
  6
CONTINUOUS
100
AcDbLine
 10
4440.623803352755
 20
-303.6339642250659
 30
0.0
 11
4423.251616892379
 21
-321.6339642250659
 31
0.0
  0
LINE
  5
2298C
330
18
100
AcDbEntity
  8
01
  6
CONTINUOUS
100
AcDbLine
 10
4418.426009542272
 20
-326.6339642250659
 30
0.0
 11
4401.053823081897
 21
-344.6339642250659
 31
0.0
  0
LINE
  5
2298D
330
18
100
AcDbEntity
  8
01
  6
CONTINUOUS
100
AcDbLine
 10
4396.228215731793
 20
-349.6339642250659
 30
0.0
 11
4378.856029271414
 21
-367.6339642250659
 31
0.0
  0
LINE
  5
2298E
330
18
100
AcDbEntity
  8
01
  6
CONTINUOUS
100
AcDbLine
 10
4374.03042192131
 20
-372.6339642250659
 30
0.0
 11
4356.658235460931
 21
-390.6339642250659
 31
0.0
  0
LINE
  5
2298F
330
18
100
AcDbEntity
  8
01
  6
CONTINUOUS
100
AcDbLine
 10
4351.832628110827
 20
-395.6339642250659
 30
0.0
 11
4336.5
 21
-411.5206982653872
 31
0.0
  0
LINE
  5
22990
330
18
100
AcDbEntity
  8
01
  6
CONTINUOUS
100
AcDbLine
 10
4341.891850225024
 20
-413.1339642250659
 30
0.0
 11
4358.781475950389
 21
-395.6339642250659
 31
0.0
  0
LINE
  5
22991
330
18
100
AcDbEntity
  8
01
  6
CONTINUOUS
100
AcDbLine
 10
4363.607083300492
 20
-390.6339642250659
 30
0.0
 11
4380.979269760872
 21
-372.6339642250659
 31
0.0
  0
LINE
  5
22992
330
18
100
AcDbEntity
  8
01
  6
CONTINUOUS
100
AcDbLine
 10
4385.804877110975
 20
-367.6339642250659
 30
0.0
 11
4403.177063571355
 21
-349.6339642250659
 31
0.0
  0
LINE
  5
22993
330
18
100
AcDbEntity
  8
01
  6
CONTINUOUS
100
AcDbLine
 10
4408.002670921458
 20
-344.6339642250659
 30
0.0
 11
4425.374857381834
 21
-326.6339642250659
 31
0.0
  0
LINE
  5
22994
330
18
100
AcDbEntity
  8
01
  6
CONTINUOUS
100
AcDbLine
 10
4430.200464731941
 20
-321.6339642250659
 30
0.0
 11
4447.572651192317
 21
-303.6339642250659
 31
0.0
  0
LINE
  5
22995
330
18
100
AcDbEntity
  8
01
  6
CONTINUOUS
100
AcDbLine
 10
4452.398258542424
 20
-298.6339642250659
 30
0.0
 11
4469.7704450028
 21
-280.6339642250659
 31
0.0
  0
LINE
  5
22996
330
18
100
AcDbEntity
  8
01
  6
CONTINUOUS
100
AcDbLine
 10
4474.596052352903
 20
-275.6339642250659
 30
0.0
 11
4491.968238813282
 21
-257.6339642250659
 31
0.0
  0
LINE
  5
22997
330
18
100
AcDbEntity
  8
01
  6
CONTINUOUS
100
AcDbLine
 10
4496.793846163386
 20
-252.6339642250659
 30
0.0
 11
4514.166032623765
 21
-234.6339642250659
 31
0.0
  0
LINE
  5
22998
330
18
100
AcDbEntity
  8
01
  6
CONTINUOUS
100
AcDbLine
 10
4518.991639973869
 20
-229.6339642250659
 30
0.0
 11
4536.363826434248
 21
-211.6339642250659
 31
0.0
  0
LINE
  5
22999
330
18
100
AcDbEntity
  8
01
  6
CONTINUOUS
100
AcDbLine
 10
4541.189433784351
 20
-206.6339642250659
 30
0.0
 11
4555.0
 21
-192.3242978829121
 31
0.0
  0
LINE
  5
2299A
330
18
100
AcDbEntity
  8
01
  6
CONTINUOUS
100
AcDbLine
 10
4115.0
 20
-192.3242978829121
 30
0.0
 11
4128.810566215649
 21
-206.6339642250659
 31
0.0
  0
LINE
  5
2299B
330
18
100
AcDbEntity
  8
01
  6
CONTINUOUS
100
AcDbLine
 10
4133.636173565756
 20
-211.6339642250659
 30
0.0
 11
4151.008360026131
 21
-229.6339642250659
 31
0.0
  0
LINE
  5
2299C
330
18
100
AcDbEntity
  8
01
  6
CONTINUOUS
100
AcDbLine
 10
4155.833967376235
 20
-234.6339642250659
 30
0.0
 11
4173.206153836614
 21
-252.6339642250659
 31
0.0
  0
LINE
  5
2299D
330
18
100
AcDbEntity
  8
01
  6
CONTINUOUS
100
AcDbLine
 10
4178.031761186718
 20
-257.6339642250659
 30
0.0
 11
4195.403947647097
 21
-275.6339642250659
 31
0.0
  0
LINE
  5
2299E
330
18
100
AcDbEntity
  8
01
  6
CONTINUOUS
100
AcDbLine
 10
4200.2295549972
 20
-280.6339642250659
 30
0.0
 11
4217.60174145758
 21
-298.6339642250659
 31
0.0
  0
LINE
  5
2299F
330
18
100
AcDbEntity
  8
01
  6
CONTINUOUS
100
AcDbLine
 10
4222.427348807683
 20
-303.6339642250659
 30
0.0
 11
4239.799535268059
 21
-321.6339642250659
 31
0.0
  0
LINE
  5
229A0
330
18
100
AcDbEntity
  8
01
  6
CONTINUOUS
100
AcDbLine
 10
4244.625142618166
 20
-326.6339642250659
 30
0.0
 11
4261.997329078542
 21
-344.6339642250659
 31
0.0
  0
LINE
  5
229A1
330
18
100
AcDbEntity
  8
01
  6
CONTINUOUS
100
AcDbLine
 10
4266.822936428649
 20
-349.6339642250659
 30
0.0
 11
4284.195122889025
 21
-367.6339642250659
 31
0.0
  0
LINE
  5
229A2
330
18
100
AcDbEntity
  8
01
  6
CONTINUOUS
100
AcDbLine
 10
4289.020730239128
 20
-372.6339642250659
 30
0.0
 11
4306.392916699508
 21
-390.6339642250659
 31
0.0
  0
LINE
  5
229A3
330
18
100
AcDbEntity
  8
01
  6
CONTINUOUS
100
AcDbLine
 10
4311.218524049611
 20
-395.6339642250659
 30
0.0
 11
4328.10814977498
 21
-413.1339642250659
 31
0.0
  0
LINE
  5
229A4
330
18
100
AcDbEntity
  8
01
  6
CONTINUOUS
100
AcDbLine
 10
4333.5
 20
-411.5206982653872
 30
0.0
 11
4318.167371889173
 21
-395.6339642250659
 31
0.0
  0
LINE
  5
229A5
330
18
100
AcDbEntity
  8
01
  6
CONTINUOUS
100
AcDbLine
 10
4313.341764539069
 20
-390.6339642250659
 30
0.0
 11
4295.96957807869
 21
-372.6339642250659
 31
0.0
  0
LINE
  5
229A6
330
18
100
AcDbEntity
  8
01
  6
CONTINUOUS
100
AcDbLine
 10
4291.143970728586
 20
-367.6339642250659
 30
0.0
 11
4273.77178426821
 21
-349.6339642250659
 31
0.0
  0
LINE
  5
229A7
330
18
100
AcDbEntity
  8
01
  6
CONTINUOUS
100
AcDbLine
 10
4268.946176918103
 20
-344.6339642250659
 30
0.0
 11
4251.573990457728
 21
-326.6339642250659
 31
0.0
  0
LINE
  5
229A8
330
18
100
AcDbEntity
  8
01
  6
CONTINUOUS
100
AcDbLine
 10
4246.748383107621
 20
-321.6339642250659
 30
0.0
 11
4229.376196647245
 21
-303.6339642250659
 31
0.0
  0
LINE
  5
229A9
330
18
100
AcDbEntity
  8
01
  6
CONTINUOUS
100
AcDbLine
 10
4224.550589297141
 20
-298.6339642250659
 30
0.0
 11
4207.178402836762
 21
-280.6339642250659
 31
0.0
  0
LINE
  5
229AA
330
18
100
AcDbEntity
  8
01
  6
CONTINUOUS
100
AcDbLine
 10
4202.352795486659
 20
-275.6339642250659
 30
0.0
 11
4184.980609026279
 21
-257.6339642250659
 31
0.0
  0
LINE
  5
229AB
330
18
100
AcDbEntity
  8
01
  6
CONTINUOUS
100
AcDbLine
 10
4180.155001676176
 20
-252.6339642250659
 30
0.0
 11
4162.7828152158
 21
-234.6339642250659
 31
0.0
  0
LINE
  5
229AC
330
18
100
AcDbEntity
  8
01
  6
CONTINUOUS
100
AcDbLine
 10
4157.957207865693
 20
-229.6339642250659
 30
0.0
 11
4140.585021405317
 21
-211.6339642250659
 31
0.0
  0
LINE
  5
229AD
330
18
100
AcDbEntity
  8
01
  6
CONTINUOUS
100
AcDbLine
 10
4135.75941405521
 20
-206.6339642250659
 30
0.0
 11
4120.317470534876
 21
-190.6339642250659
 31
0.0
  0
LINE
  5
229AF
330
18
100
AcDbEntity
  8
01
  6
CONTINUOUS
100
AcDbLine
 10
4131.25
 20
-190.6339642250659
 30
0.0
 11
4118.75
 21
-190.6339642250659
 31
0.0
  0
LINE
  5
229B0
330
18
100
AcDbEntity
  8
01
  6
CONTINUOUS
100
AcDbLine
 10
4119.755955759148
 20
-183.6339642250659
 30
0.0
 11
4130.244044240852
 21
-183.6339642250659
 31
0.0
  0
LINE
  5
229B1
330
18
100
AcDbEntity
  8
01
  6
CONTINUOUS
100
AcDbLine
 10
4551.349999999999
 20
-190.6339642250659
 30
0.0
 11
4538.849999999999
 21
-190.6339642250659
 31
0.0
  0
LINE
  5
229B2
330
18
100
AcDbEntity
  8
01
  6
CONTINUOUS
100
AcDbLine
 10
4539.855955759151
 20
-183.6339642250659
 30
0.0
 11
4550.34404424085
 21
-183.6339642250659
 31
0.0
  0
LINE
  5
229B4
330
18
100
AcDbEntity
  8
01
  6
CONTINUOUS
100
AcDbLine
 10
4411.349999999999
 20
-190.6339642250659
 30
0.0
 11
4398.849999999999
 21
-190.6339642250659
 31
0.0
  0
LINE
  5
229B5
330
18
100
AcDbEntity
  8
01
  6
CONTINUOUS
100
AcDbLine
 10
4399.855955759151
 20
-183.6339642250659
 30
0.0
 11
4410.34404424085
 21
-183.6339642250659
 31
0.0
  0
LINE
  5
229B6
330
18
100
AcDbEntity
  8
01
  6
CONTINUOUS
100
AcDbLine
 10
4271.25
 20
-190.6339642250659
 30
0.0
 11
4258.75
 21
-190.6339642250659
 31
0.0
  0
LINE
  5
229B7
330
18
100
AcDbEntity
  8
01
  6
CONTINUOUS
100
AcDbLine
 10
4259.755955759148
 20
-183.6339642250659
 30
0.0
 11
4270.244044240852
 21
-183.6339642250659
 31
0.0
  0
LINE
  5
229B8
330
18
100
AcDbEntity
  8
01
  6
CONTINUOUS
100
AcDbLine
 10
4115.0
 20
-183.6339642250659
 30
0.0
 11
4110.0
 21
-183.6339642250659
 31
0.0
  0
LINE
  5
229B9
330
18
100
AcDbEntity
  8
01
  6
CONTINUOUS
100
AcDbLine
 10
4555.0
 20
-183.6339642250659
 30
0.0
 11
4560.0
 21
-183.6339642250659
 31
0.0
  0
LINE
  5
229BA
330
18
100
AcDbEntity
  8
01
  6
CONTINUOUS
100
AcDbLine
 10
4115.0
 20
-188.6339642250659
 30
0.0
 11
4115.0
 21
-183.6339642250659
 31
0.0
  0
LINE
  5
229BB
330
18
100
AcDbEntity
  8
01
  6
CONTINUOUS
100
AcDbLine
 10
4555.0
 20
-188.6339642250659
 30
0.0
 11
4555.0
 21
-183.6339642250659
 31
0.0
  0
LINE
  5
229BC
330
18
100
AcDbEntity
  8
01
  6
CONTINUOUS
100
AcDbLine
 10
4555.0
 20
-211.6339642250659
 30
0.0
 11
4555.0
 21
-206.6339642250659
 31
0.0
  0
LINE
  5
229BD
330
18
100
AcDbEntity
  8
01
  6
CONTINUOUS
100
AcDbLine
 10
4115.0
 20
-211.6339642250659
 30
0.0
 11
4115.0
 21
-206.6339642250659
 31
0.0
  0
LINE
  5
229BE
330
18
100
AcDbEntity
  8
01
  6
CONTINUOUS
100
AcDbLine
 10
4555.0
 20
-234.6339642250659
 30
0.0
 11
4555.0
 21
-229.6339642250659
 31
0.0
  0
LINE
  5
229BF
330
18
100
AcDbEntity
  8
01
  6
CONTINUOUS
100
AcDbLine
 10
4115.0
 20
-234.6339642250659
 30
0.0
 11
4115.0
 21
-229.6339642250659
 31
0.0
  0
LINE
  5
229C0
330
18
100
AcDbEntity
  8
01
  6
CONTINUOUS
100
AcDbLine
 10
4115.0
 20
-257.6339642250659
 30
0.0
 11
4115.0
 21
-252.6339642250659
 31
0.0
  0
LINE
  5
229C1
330
18
100
AcDbEntity
  8
01
  6
CONTINUOUS
100
AcDbLine
 10
4555.0
 20
-257.6339642250659
 30
0.0
 11
4555.0
 21
-252.6339642250659
 31
0.0
  0
LINE
  5
229C2
330
18
100
AcDbEntity
  8
01
  6
CONTINUOUS
100
AcDbLine
 10
4555.0
 20
-280.6339642250659
 30
0.0
 11
4555.0
 21
-275.6339642250659
 31
0.0
  0
LINE
  5
229C3
330
18
100
AcDbEntity
  8
01
  6
CONTINUOUS
100
AcDbLine
 10
4115.0
 20
-280.6339642250659
 30
0.0
 11
4115.0
 21
-275.6339642250659
 31
0.0
  0
LINE
  5
229C4
330
18
100
AcDbEntity
  8
01
  6
CONTINUOUS
100
AcDbLine
 10
4555.0
 20
-303.6339642250659
 30
0.0
 11
4555.0
 21
-298.6339642250659
 31
0.0
  0
LINE
  5
229C5
330
18
100
AcDbEntity
  8
01
  6
CONTINUOUS
100
AcDbLine
 10
4115.0
 20
-303.6339642250659
 30
0.0
 11
4115.0
 21
-298.6339642250659
 31
0.0
  0
LINE
  5
229C6
330
18
100
AcDbEntity
  8
01
  6
CONTINUOUS
100
AcDbLine
 10
4555.0
 20
-326.6339642250659
 30
0.0
 11
4555.0
 21
-321.6339642250659
 31
0.0
  0
LINE
  5
229C7
330
18
100
AcDbEntity
  8
01
  6
CONTINUOUS
100
AcDbLine
 10
4115.0
 20
-326.6339642250659
 30
0.0
 11
4115.0
 21
-321.6339642250659
 31
0.0
  0
LINE
  5
229C8
330
18
100
AcDbEntity
  8
01
  6
CONTINUOUS
100
AcDbLine
 10
4555.0
 20
-349.6339642250659
 30
0.0
 11
4555.0
 21
-344.6339642250659
 31
0.0
  0
LINE
  5
229C9
330
18
100
AcDbEntity
  8
01
  6
CONTINUOUS
100
AcDbLine
 10
4115.0
 20
-349.6339642250659
 30
0.0
 11
4115.0
 21
-344.6339642250659
 31
0.0
  0
LINE
  5
229CA
330
18
100
AcDbEntity
  8
01
  6
CONTINUOUS
100
AcDbLine
 10
4115.0
 20
-372.6339642250659
 30
0.0
 11
4115.0
 21
-367.6339642250659
 31
0.0
  0
LINE
  5
229CB
330
18
100
AcDbEntity
  8
01
  6
CONTINUOUS
100
AcDbLine
 10
4555.0
 20
-372.6339642250659
 30
0.0
 11
4555.0
 21
-367.6339642250659
 31
0.0
  0
LINE
  5
229CC
330
18
100
AcDbEntity
  8
01
  6
CONTINUOUS
100
AcDbLine
 10
4555.0
 20
-395.6339642250659
 30
0.0
 11
4555.0
 21
-390.6339642250659
 31
0.0
  0
LINE
  5
229CD
330
18
100
AcDbEntity
  8
01
  6
CONTINUOUS
100
AcDbLine
 10
4115.0
 20
-395.6339642250659
 30
0.0
 11
4115.0
 21
-390.6339642250659
 31
0.0
  0
LINE
  5
229CE
330
18
100
AcDbEntity
  8
01
  6
CONTINUOUS
100
AcDbLine
 10
4336.365561143142
 20
-412.1339642250659
 30
0.0
 11
4333.634438856858
 21
-412.1339642250659
 31
0.0
  0
SPLINE
  5
229CF
330
18
100
AcDbEntity
  8
01
  6
CONTINUOUS
100
AcDbSpline
210
0.0
220
0.0
230
1.0
 70
     8
 71
     3
 72
    13
 73
     9
 74
     0
 42
0.0000000001
 43
0.0000000001
 40
0.0
 40
0.0
 40
0.0
 40
0.0
 40
0.1806174645122488
 40
0.606425496734204
 40
1.0
 40
1.0
 40
1.0
 40
1.17316306781065
 40
1.17316306781065
 40
1.17316306781065
 40
1.17316306781065
 10
4333.5
 20
-411.5206982653872
 30
0.0
 10
4333.502154334819
 20
-411.572445845105
 30
0.0
 10
4333.509387542119
 20
-411.7461890200539
 30
0.0
 10
4333.659079833924
 20
-412.2384515230769
 30
0.0
 10
4333.837594386576
 20
-412.6619956714894
 30
0.0
 10
4333.923340388403
 20
-412.8654368855778
 30
0.0
 10
4333.961066512955
 20
-412.9549459987411
 30
0.0
 10
4333.998792637503
 20
-413.0444551119035
 30
0.0
 10
4334.036518762048
 20
-413.1339642250659
 30
0.0
  0
LINE
  5
229D7
330
18
100
AcDbEntity
  8
01
  6
CONTINUOUS
100
AcDbLine
 10
4799.712540107343
 20
-509.8499900099559
 30
0.0
 11
4801.712540107346
 21
-509.8499900099559
 31
0.0
  0
ARC
  5
229D8
330
18
100
AcDbEntity
  8
01
  6
CONTINUOUS
100
AcDbCircle
 10
4799.712540107343
 20
-509.3499900099559
 30
0.0
 40
0.4999999999999432
100
AcDbArc
 50
180.0
 51
270.0
  0
LINE
  5
229D9
330
18
100
AcDbEntity
  8
01
  6
CONTINUOUS
100
AcDbLine
 10
4801.712540107346
 20
-572.2816889800806
 30
0.0
 11
4799.712540107343
 21
-572.2816889800806
 31
0.0
  0
LINE
  5
229DA
330
18
100
AcDbEntity
  8
01
  6
CONTINUOUS
100
AcDbLine
 10
4799.712540107343
 20
-585.7816889800797
 30
0.0
 11
4801.712540107343
 21
-585.7816889800797
 31
0.0
  0
ARC
  5
229DB
330
18
100
AcDbEntity
  8
01
  6
CONTINUOUS
100
AcDbCircle
 10
4799.712540107343
 20
-585.2816889800806
 30
0.0
 40
0.4999999999999432
100
AcDbArc
 50
180.0
 51
270.0
  0
ARC
  5
229DC
330
18
100
AcDbEntity
  8
01
  6
CONTINUOUS
100
AcDbCircle
 10
4799.712540107343
 20
-572.7816889800806
 30
0.0
 40
0.5
100
AcDbArc
 50
90.0
 51
180.0
  0
LINE
  5
229DF
330
18
100
AcDbEntity
  8
01
  6
CONTINUOUS
100
AcDbLine
 10
4806.712540107346
 20
-493.8499900099559
 30
0.0
 11
4578.712540107346
 21
-493.8499900099559
 31
0.0
  0
LINE
  5
229E1
330
18
100
AcDbEntity
  8
01
  6
CONTINUOUS
100
AcDbLine
 10
4577.197208772574
 20
-498.8499900099559
 30
0.0
 11
4801.712540107346
 21
-498.8499900099559
 31
0.0
  0
LINE
  5
229E2
330
18
100
AcDbEntity
  8
01
  6
CONTINUOUS
100
AcDbLine
 10
4574.712540107346
 20
-498.8499900099559
 30
0.0
 11
4577.197208772574
 21
-498.8499900099559
 31
0.0
  0
LINE
  5
229E3
330
18
100
AcDbEntity
  8
01
  6
CONTINUOUS
100
AcDbLine
 10
4578.712540107346
 20
-493.8499900099559
 30
0.0
 11
4574.712540107346
 21
-493.8499900099559
 31
0.0
  0
LINE
  5
229E4
330
18
100
AcDbEntity
  8
01
  6
CONTINUOUS
100
AcDbLine
 10
4801.712540107343
 20
-587.5839789577713
 30
0.0
 11
4591.086071604899
 21
-498.8499900099559
 31
0.0
  0
LINE
  5
229E6
330
18
100
AcDbEntity
  8
01
  6
CONTINUOUS
100
AcDbLine
 10
4578.207429662421
 20
-498.8499900099559
 30
0.0
 11
4803.086692171804
 21
-593.588481976215
 31
0.0
  0
LINE
  5
229E8
330
18
100
AcDbEntity
  8
01
  6
CONTINUOUS
100
AcDbLine
 10
4801.712540107343
 20
-498.8499900099559
 30
0.0
 11
4801.712540107343
 21
-587.5839789577713
 31
0.0
  0
LINE
  5
229E9
330
18
100
AcDbEntity
  8
01
  6
CONTINUOUS
100
AcDbLine
 10
4806.712540107343
 20
-591.349990009956
 30
0.0
 11
4806.712540107343
 21
-498.8499900099559
 31
0.0
  0
ARC
  5
229EB
330
18
100
AcDbEntity
  8
01
  6
CONTINUOUS
100
AcDbCircle
 10
4804.212540107346
 20
-591.349990009956
 30
0.0
 40
2.50000000000006
100
AcDbArc
 50
248.4840484655768
 51
0.0
  0
LINE
  5
229EC
330
18
100
AcDbEntity
  8
01
  6
CONTINUOUS
100
AcDbLine
 10
4604.60902472465
 20
-509.9726132069045
 30
0.0
 11
4577.672404215758
 21
-499.3533322838603
 31
0.0
  0
LINE
  5
229ED
330
18
100
AcDbEntity
  8
01
  6
CONTINUOUS
100
AcDbLine
 10
4575.838602980293
 20
-504.0049097613201
 30
0.0
 11
4803.295639489614
 21
-593.6757787486858
 31
0.0
  0
ARC
  5
229EF
330
18
100
AcDbEntity
  8
01
  6
CONTINUOUS
100
AcDbCircle
 10
4575.520370559399
 20
-501.192191910226
 30
0.0
 40
2.500000000000056
100
AcDbArc
 50
110.4119298620261
 51
248.4840484655764
  0
LINE
  5
229F0
330
18
100
AcDbEntity
  8
01
  6
CONTINUOUS
100
AcDbLine
 10
4574.603469941667
 20
-503.5179806489559
 30
0.0
 11
4575.838602980293
 21
-504.0049097613201
 31
0.0
  0
LINE
  5
229F1
330
18
100
AcDbEntity
  8
01
  6
CONTINUOUS
100
AcDbLine
 10
4577.672404215758
 20
-499.3533322838603
 30
0.0
 11
4576.437271177132
 21
-498.8664031714961
 31
0.0
  0
LINE
  5
229F3
330
18
100
AcDbEntity
  8
01
  6
CONTINUOUS
100
AcDbLine
 10
4584.005368019597
 20
-501.8499900099559
 30
0.0
 11
4585.328482294
 21
-501.8499900099559
 31
0.0
  0
LINE
  5
229F4
330
18
100
AcDbEntity
  8
01
  6
CONTINUOUS
100
AcDbLine
 10
4799.212540107346
 20
-503.0999900099559
 30
0.0
 11
4799.212540107346
 21
-498.8499900099559
 31
0.0
  0
LINE
  5
229F5
330
18
100
AcDbEntity
  8
01
  6
CONTINUOUS
100
AcDbLine
 10
4799.212540107346
 20
-509.3499900099559
 30
0.0
 11
4799.212540107346
 21
-503.0999900099559
 31
0.0
  0
LINE
  5
229F6
330
18
100
AcDbEntity
  8
01
  6
CONTINUOUS
100
AcDbLine
 10
4799.212540107346
 20
-585.2816889800806
 30
0.0
 11
4799.212540107346
 21
-572.7816889800806
 31
0.0
  0
LINE
  5
229F7
330
18
100
AcDbEntity
  8
01
  6
CONTINUOUS
100
AcDbLine
 10
4799.212540107346
 20
-572.7816889800806
 30
0.0
 11
4799.212540107346
 21
-572.7410970785595
 31
0.0
  0
LINE
  5
229F8
330
18
100
AcDbEntity
  8
01
  6
CONTINUOUS
100
AcDbLine
 10
4806.712540107346
 20
-493.8499900099559
 30
0.0
 11
4806.712540107346
 21
-498.8499900099559
 31
0.0
  0
ARC
  5
229F9
330
18
100
AcDbEntity
  8
01
  6
CONTINUOUS
100
AcDbCircle
 10
4574.712540107346
 20
-496.3499900099559
 30
0.0
 40
2.5
100
AcDbArc
 50
90.0
 51
270.0
  0
ELLIPSE
  5
229FA
330
18
100
AcDbEntity
  8
01
  6
CONTINUOUS
100
AcDbEllipse
 10
4804.212540107346
 20
-591.349990009956
 30
0.0
 11
6.041078942929175
 21
-2.462918333342998
 31
0.0
210
0.0
220
0.0
230
1.0
 40
0.3830595943776257
 41
4.68211896446291
 42
4.707945992252337
  0
LINE
  5
229FD
330
18
100
AcDbEntity
  8
01
  6
CONTINUOUS
100
AcDbLine
 10
4801.712540107343
 20
-498.8499900099559
 30
0.0
 11
4806.712540107343
 21
-498.8499900099559
 31
0.0
  0
LINE
  5
229FF
330
18
100
AcDbEntity
  8
01
  6
CONTINUOUS
100
AcDbLine
 10
4803.242264567692
 20
-593.6531177382849
 30
0.0
 11
4803.295639489614
 21
-593.6757787486858
 31
0.0
  0
SPLINE
  5
22B4B
330
18
100
AcDbEntity
  8
01
  6
CONTINUOUS
100
AcDbSpline
210
0.0
220
0.0
230
1.0
 70
     8
 71
     3
 72
    13
 73
     9
 74
     0
 42
0.0000000001
 43
0.0000000001
 40
0.0
 40
0.0
 40
0.0
 40
0.0
 40
0.1806174645122488
 40
0.606425496734204
 40
1.0
 40
1.0
 40
1.0
 40
1.17316306781065
 40
1.17316306781065
 40
1.17316306781065
 40
1.17316306781065
 10
4336.5
 20
-411.5206982653872
 30
0.0
 10
4336.497845665181
 20
-411.572445845105
 30
0.0
 10
4336.490612457881
 20
-411.7461890200539
 30
0.0
 10
4336.340920166076
 20
-412.2384515230769
 30
0.0
 10
4336.162405613424
 20
-412.6619956714894
 30
0.0
 10
4336.076659611597
 20
-412.8654368855778
 30
0.0
 10
4336.038933487045
 20
-412.9549459987411
 30
0.0
 10
4336.001207362497
 20
-413.0444551119035
 30
0.0
 10
4335.963481237952
 20
-413.1339642250659
 30
0.0
  0
LINE
  5
22C7E
330
18
100
AcDbEntity
  8
01
  6
CONTINUOUS
100
AcDbLine
 10
4598.207124236478
 20
-501.8499900099559
 30
0.0
 11
4799.212540107343
 21
-501.8499900099559
 31
0.0
  0
LINE
  5
22C7F
330
18
100
AcDbEntity
  8
01
100
AcDbLine
 10
4578.212540107346
 20
-498.8521429690152
 30
0.0
 11
4578.212540107346
 21
-499.5662711997683
 31
0.0
  0
LINE
  5
22C80
330
18
100
AcDbEntity
  8
1CENTER
100
AcDbLine
 10
4117.03125
 20
-503.0999900099559
 30
0.0
 11
4132.96875
 21
-503.0999900099559
 31
0.0
  0
LINE
  5
22C81
330
18
100
AcDbEntity
  8
1CENTER
100
AcDbLine
 10
4125.0
 20
-511.0687400099559
 30
0.0
 11
4125.0
 21
-495.1312400099559
 31
0.0
  0
ARC
  5
22C82
330
18
100
AcDbEntity
  8
01
100
AcDbCircle
 10
4125.0
 20
-503.0999900099559
 30
0.0
 40
5.25
100
AcDbArc
 50
125.9505676196194
 51
54.04943238038054
  0
LINE
  5
22C83
330
18
100
AcDbEntity
  8
1CENTER
100
AcDbLine
 10
4117.03125
 20
-578.9910970785595
 30
0.0
 11
4132.96875
 21
-578.9910970785595
 31
0.0
  0
LINE
  5
22C84
330
18
100
AcDbEntity
  8
1CENTER
100
AcDbLine
 10
4125.0
 20
-586.9598470785595
 30
0.0
 11
4125.0
 21
-571.0223470785595
 31
0.0
  0
ARC
  5
22C85
330
18
100
AcDbEntity
  8
01
100
AcDbCircle
 10
4125.0
 20
-578.9910970785595
 30
0.0
 40
5.25
100
AcDbArc
 50
328.8272718874273
 51
255.6107223282355
  0
LINE
  5
22C86
330
18
100
AcDbEntity
  8
1CENTER
100
AcDbLine
 10
4257.03125
 20
-503.0999900099559
 30
0.0
 11
4272.96875
 21
-503.0999900099559
 31
0.0
  0
LINE
  5
22C87
330
18
100
AcDbEntity
  8
1CENTER
100
AcDbLine
 10
4265.0
 20
-511.0687400099559
 30
0.0
 11
4265.0
 21
-495.1312400099559
 31
0.0
  0
ARC
  5
22C88
330
18
100
AcDbEntity
  8
01
100
AcDbCircle
 10
4265.0
 20
-503.0999900099559
 30
0.0
 40
5.25
100
AcDbArc
 50
125.9505676196194
 51
54.04943238038054
  0
LINE
  5
22C89
330
18
100
AcDbEntity
  8
1CENTER
100
AcDbLine
 10
4397.131249999999
 20
-503.0999900099559
 30
0.0
 11
4413.068749999999
 21
-503.0999900099559
 31
0.0
  0
LINE
  5
22C8A
330
18
100
AcDbEntity
  8
1CENTER
100
AcDbLine
 10
4405.099999999999
 20
-511.0687400099559
 30
0.0
 11
4405.099999999999
 21
-495.1312400099559
 31
0.0
  0
ARC
  5
22C8B
330
18
100
AcDbEntity
  8
01
100
AcDbCircle
 10
4405.099999999999
 20
-503.0999900099559
 30
0.0
 40
5.25
100
AcDbArc
 50
125.9505676196194
 51
54.04943238038054
  0
LINE
  5
22C8C
330
18
100
AcDbEntity
  8
1CENTER
100
AcDbLine
 10
4537.131249999999
 20
-503.0999900099559
 30
0.0
 11
4553.068749999999
 21
-503.0999900099559
 31
0.0
  0
LINE
  5
22C8D
330
18
100
AcDbEntity
  8
1CENTER
100
AcDbLine
 10
4545.099999999999
 20
-511.0687400099559
 30
0.0
 11
4545.099999999999
 21
-495.1312400099559
 31
0.0
  0
ARC
  5
22C8E
330
18
100
AcDbEntity
  8
01
100
AcDbCircle
 10
4545.099999999999
 20
-503.0999900099559
 30
0.0
 40
5.25
100
AcDbArc
 50
125.9505676196194
 51
54.04943238038054
  0
LINE
  5
22C8F
330
18
100
AcDbEntity
  8
1CENTER
100
AcDbLine
 10
4537.131249999999
 20
-579.0316889800797
 30
0.0
 11
4553.068749999999
 21
-579.0316889800797
 31
0.0
  0
LINE
  5
22C90
330
18
100
AcDbEntity
  8
1CENTER
100
AcDbLine
 10
4545.099999999999
 20
-587.0004389800797
 30
0.0
 11
4545.099999999999
 21
-571.0629389800797
 31
0.0
  0
ARC
  5
22C91
330
18
100
AcDbEntity
  8
01
100
AcDbCircle
 10
4545.099999999999
 20
-579.0316889800797
 30
0.0
 40
5.25
100
AcDbArc
 50
284.3849399051128
 51
211.1770658792242
  0
LINE
  5
22C92
330
18
100
AcDbEntity
  8
01
100
AcDbLine
 10
4819.212540107343
 20
-485.1038687157869
 30
0.0000000000029782
 11
4819.212540107343
 21
-601.8248259379246
 31
0.0000000000029782
  0
LINE
  5
22C93
330
18
100
AcDbEntity
  8
01
100
AcDbLine
 10
4828.212540107343
 20
-485.1038687157869
 30
0.0000000000029782
 11
4828.212540107343
 21
-601.8248259379246
 31
0.0000000000029782
  0
LINE
  5
22C94
330
18
100
AcDbEntity
  8
01
100
AcDbLine
 10
4806.712540107343
 20
-485.1038687157869
 30
0.0000000000029782
 11
4806.712540107343
 21
-601.8248259379246
 31
0.0000000000029782
  0
TEXT
  5
22D10
330
18
100
AcDbEntity
  8
1TEXT
100
AcDbText
 10
4588.465116401156
 20
-331.621994472693
 30
0.0
 40
16.0
  1
K-SE-379-X
100
AcDbText
  0
LINE
  5
22D9D
330
18
100
AcDbEntity
  8
1DIM
100
AcDbLine
 10
4661.588996157458
 20
-342.4921948690111
 30
0.0
 11
4731.588996157458
 21
-342.4921948690111
 31
0.0
  0
LINE
  5
22D9E
330
18
100
AcDbEntity
  8
1DIM
100
AcDbLine
 10
4661.588996157458
 20
-384.4921948690111
 30
0.0
 11
4661.588996157458
 21
-342.4921948690111
 31
0.0
  0
LINE
  5
22D9F
330
18
100
AcDbEntity
  8
1DIM
100
AcDbLine
 10
4661.588996157458
 20
-342.4921948690111
 30
0.0
 11
4731.588996157458
 21
-342.4921948690111
 31
0.0
  0
LINE
  5
22DA0
330
18
100
AcDbEntity
  8
1DIM
100
AcDbLine
 10
4661.588996157458
 20
-370.4921948690111
 30
0.0
 11
4731.588996157458
 21
-370.4921948690111
 31
0.0
  0
LINE
  5
22DA1
330
18
100
AcDbEntity
  8
1DIM
100
AcDbLine
 10
4661.588996157458
 20
-356.4921948690111
 30
0.0
 11
4731.588996157458
 21
-356.4921948690111
 31
0.0
  0
LINE
  5
22DA2
330
18
100
AcDbEntity
  8
1DIM
100
AcDbLine
 10
4661.588996157458
 20
-384.4921948690111
 30
0.0
 11
4731.588996157458
 21
-384.4921948690111
 31
0.0
  0
LINE
  5
22DA3
330
18
100
AcDbEntity
  8
1DIM
100
AcDbLine
 10
4731.588996157458
 20
-342.4921948690111
 30
0.0
 11
4731.588996157458
 21
-384.4921948690111
 31
0.0
  0
TEXT
  5
22DA4
330
18
100
AcDbEntity
  8
1TEXT
100
AcDbText
 10
4752.655662824123
 20
-353.4921948690111
 30
0.0
 40
8.0
  1
コード
 72
     1
 11
4766.388996157457
 21
-353.4921948690111
 31
0.0
100
AcDbText
  0
LINE
  5
22DA5
330
18
100
AcDbEntity
  8
1DIM
100
AcDbLine
 10
4731.588996157458
 20
-384.4921948690111
 30
0.0
 11
4731.588996157458
 21
-342.4921948690111
 31
0.0
  0
LINE
  5
22DA6
330
18
100
AcDbEntity
  8
1DIM
100
AcDbLine
 10
4801.588996157458
 20
-384.4921948690111
 30
0.0
 11
4801.588996157458
 21
-342.4921948690111
 31
0.0
  0
TEXT
  5
22DA7
330
18
100
AcDbEntity
  8
1TEXT
100
AcDbText
 10
4664.488996157457
 20
-353.4921948690111
 30
0.0
 40
8.0
  1
表面処理：キャップ
 41
0.75
 72
     1
 11
4696.388996157457
 21
-353.4921948690111
 31
0.0
100
AcDbText
  0
TEXT
  5
22DA8
330
18
100
AcDbEntity
  8
1TEXT
100
AcDbText
 10
4665.988996157457
 20
-367.1627721880599
 30
0.0
 40
8.0
  1
SUS電解研磨
 72
     1
 11
4696.388996157457
 21
-367.1627721880599
 31
0.0
100
AcDbText
  0
TEXT
  5
22DA9
330
18
100
AcDbEntity
  8
1TEXT
100
AcDbText
 10
4662.938996157457
 20
-381.1627721880599
 30
0.0
 40
8.0
  1
ブラック(ABS樹脂)
 41
0.75
 72
     1
 11
4696.388996157457
 21
-381.1627721880599
 31
0.0
100
AcDbText
  0
LINE
  5
22DAA
330
18
100
AcDbEntity
  8
1DIM
100
AcDbLine
 10
4661.588996157458
 20
-384.4921948690111
 30
0.0
 11
4661.588996157458
 21
-342.4921948690111
 31
0.0
  0
TEXT
  5
22DAB
330
18
100
AcDbEntity
  8
1TEXT
100
AcDbText
 10
4741.048740419797
 20
-367.9209088363096
 30
0.0
 40
8.0
  1
K-SE-379-XU
 41
0.6
 72
     1
 11
4766.649851530908
 21
-367.9209088363096
 31
0.0
100
AcDbText
  0
TEXT
  5
22DAC
330
18
100
AcDbEntity
  8
1TEXT
100
AcDbText
 10
4739.03207375313
 20
-381.9209088363096
 30
0.0
 40
8.0
  1
K-SE-379-068
 41
0.6
 72
     1
 11
4766.649851530908
 21
-381.9209088363096
 31
0.0
100
AcDbText
  0
LINE
  5
22DAD
330
18
100
AcDbEntity
  8
1DIM
100
AcDbLine
 10
4731.588996157458
 20
-342.4921948690111
 30
0.0
 11
4801.588996157458
 21
-342.4921948690111
 31
0.0
  0
LINE
  5
22DAE
330
18
100
AcDbEntity
  8
1DIM
100
AcDbLine
 10
4731.588996157458
 20
-384.4921948690111
 30
0.0
 11
4801.588996157458
 21
-384.4921948690111
 31
0.0
  0
LINE
  5
22DAF
330
18
100
AcDbEntity
  8
1DIM
100
AcDbLine
 10
4731.588996157458
 20
-356.4921948690111
 30
0.0
 11
4801.588996157458
 21
-356.4921948690111
 31
0.0
  0
LINE
  5
22DB0
330
18
100
AcDbEntity
  8
1DIM
100
AcDbLine
 10
4731.588996157458
 20
-370.4921948690111
 30
0.0
 11
4801.588996157458
 21
-370.4921948690111
 31
0.0
  0
LINE
  5
22DB6
330
18
100
AcDbEntity
  8
1DIM
100
AcDbLine
 10
4591.588996157458
 20
-342.4921948690111
 30
0.0
 11
4661.588996157458
 21
-342.4921948690111
 31
0.0
  0
LINE
  5
22DB7
330
18
100
AcDbEntity
  8
1DIM
100
AcDbLine
 10
4591.588996157458
 20
-384.4921948690111
 30
0.0
 11
4591.588996157458
 21
-342.4921948690111
 31
0.0
  0
LINE
  5
22DB8
330
18
100
AcDbEntity
  8
1DIM
100
AcDbLine
 10
4591.588996157458
 20
-342.4921948690111
 30
0.0
 11
4661.588996157458
 21
-342.4921948690111
 31
0.0
  0
LINE
  5
22DB9
330
18
100
AcDbEntity
  8
1DIM
100
AcDbLine
 10
4591.588996157458
 20
-370.4921948690111
 30
0.0
 11
4661.588996157458
 21
-370.4921948690111
 31
0.0
  0
LINE
  5
22DBA
330
18
100
AcDbEntity
  8
1DIM
100
AcDbLine
 10
4591.588996157458
 20
-356.4921948690111
 30
0.0
 11
4661.588996157458
 21
-356.4921948690111
 31
0.0
  0
LINE
  5
22DBB
330
18
100
AcDbEntity
  8
1DIM
100
AcDbLine
 10
4591.588996157458
 20
-384.4921948690111
 30
0.0
 11
4661.588996157458
 21
-384.4921948690111
 31
0.0
  0
TEXT
  5
22DBC
330
18
100
AcDbEntity
  8
1TEXT
100
AcDbText
 10
4601.688996157457
 20
-353.4921948690111
 30
0.0
 40
8.0
  1
表面処理：本体
 41
0.75
 72
     1
 11
4626.388996157457
 21
-353.4921948690111
 31
0.0
100
AcDbText
  0
TEXT
  5
22DBD
330
18
100
AcDbEntity
  8
1TEXT
100
AcDbText
 10
4595.988996157457
 20
-367.1627721880599
 30
0.0
 40
8.0
  1
SUS電解研磨
 72
     1
 11
4626.388996157457
 21
-367.1627721880599
 31
0.0
100
AcDbText
  0
TEXT
  5
22DBE
330
18
100
AcDbEntity
  8
1TEXT
100
AcDbText
 10
4608.388996157457
 20
-381.1627721880599
 30
0.0
 40
8.0
  1
ブラック
 72
     1
 11
4626.388996157457
 21
-381.1627721880599
 31
0.0
100
AcDbText
  0
LINE
  5
22DBF
330
18
100
AcDbEntity
  8
1DIM
100
AcDbLine
 10
4591.588996157458
 20
-384.4921948690111
 30
0.0
 11
4591.588996157458
 21
-342.4921948690111
 31
0.0
  0
CIRCLE
  5
22DC0
330
18
100
AcDbEntity
  8
1PHANTOM
 48
0.25
100
AcDbCircle
 10
4125.0
 20
-503.0999900099559
 30
0.0
 40
2.25
  0
CIRCLE
  5
22DC1
330
18
100
AcDbEntity
  8
1PHANTOM
 48
0.25
100
AcDbCircle
 10
4125.0
 20
-578.9910970785595
 30
0.0
 40
2.25
  0
CIRCLE
  5
22DC2
330
18
100
AcDbEntity
  8
1PHANTOM
 48
0.25
100
AcDbCircle
 10
4265.0
 20
-503.0999900099559
 30
0.0
 40
2.25
  0
CIRCLE
  5
22DC3
330
18
100
AcDbEntity
  8
1PHANTOM
 48
0.25
100
AcDbCircle
 10
4405.099999999999
 20
-503.0999900099559
 30
0.0
 40
2.25
  0
CIRCLE
  5
22DC4
330
18
100
AcDbEntity
  8
1PHANTOM
 48
0.25
100
AcDbCircle
 10
4545.099999999999
 20
-503.0999900099559
 30
0.0
 40
2.25
  0
CIRCLE
  5
22DC5
330
18
100
AcDbEntity
  8
1PHANTOM
 48
0.25
100
AcDbCircle
 10
4545.099999999999
 20
-579.0316889800797
 30
0.0
 40
2.25
  0
LINE
  5
22FF9
330
18
100
AcDbEntity
  8
1CENTER
100
AcDbLine
 10
4545.099999999999
 20
-152.8294680344279
 30
0.0
 11
4545.099999999999
 21
-190.6626010818026
 31
0.0
  0
LINE
  5
22FFA
330
18
100
AcDbEntity
  8
01
100
AcDbLine
 10
4543.600046535897
 20
-161.4839607350887
 30
0.0
 11
4543.100046535897
 21
-161.3839595716916
 31
0.0
  0
LINE
  5
22FFB
330
18
100
AcDbEntity
  8
01
100
AcDbLine
 10
4543.100046535897
 20
-161.3839595716916
 30
0.0
 11
4547.100046535897
 21
-160.583968878869
 31
0.0
  0
LINE
  5
22FFC
330
18
100
AcDbEntity
  8
01
100
AcDbLine
 10
4547.100046535897
 20
-160.583968878869
 30
0.0
 11
4546.600046535897
 21
-160.4839677154719
 31
0.0
  0
LINE
  5
22FFD
330
18
100
AcDbEntity
  8
01
100
AcDbLine
 10
4543.600046535897
 20
-163.0839607350887
 30
0.0
 11
4543.100046535897
 21
-162.9839595716916
 31
0.0
  0
LINE
  5
22FFE
330
18
100
AcDbEntity
  8
01
100
AcDbLine
 10
4547.100046535897
 20
-162.1839688788691
 30
0.0
 11
4546.600046535897
 21
-162.0839677154719
 31
0.0
  0
LINE
  5
22FFF
330
18
100
AcDbEntity
  8
01
100
AcDbLine
 10
4543.100046535897
 20
-162.9839595716916
 30
0.0
 11
4547.100046535897
 21
-162.1839688788691
 31
0.0
  0
LINE
  5
23000
330
18
100
AcDbEntity
  8
01
100
AcDbLine
 10
4543.600046535897
 20
-164.6839607350888
 30
0.0
 11
4543.100046535897
 21
-164.5839595716917
 31
0.0
  0
LINE
  5
23001
330
18
100
AcDbEntity
  8
01
100
AcDbLine
 10
4543.100046535897
 20
-164.5839595716917
 30
0.0
 11
4547.100046535897
 21
-163.7839688788691
 31
0.0
  0
LINE
  5
23002
330
18
100
AcDbEntity
  8
01
100
AcDbLine
 10
4547.100046535897
 20
-163.7839688788691
 30
0.0
 11
4546.600046535897
 21
-163.683967715472
 31
0.0
  0
LINE
  5
23003
330
18
100
AcDbEntity
  8
01
100
AcDbLine
 10
4543.600046535897
 20
-172.6839607350889
 30
0.0
 11
4543.100046535897
 21
-172.5839595716918
 31
0.0
  0
LINE
  5
23004
330
18
100
AcDbEntity
  8
01
100
AcDbLine
 10
4547.100046535897
 20
-171.7839688788692
 30
0.0
 11
4546.600046535897
 21
-171.683967715472
 31
0.0
  0
LINE
  5
23005
330
18
100
AcDbEntity
  8
01
100
AcDbLine
 10
4547.100046535897
 20
-170.1839688788691
 30
0.0
 11
4546.600046535897
 21
-170.0839677154719
 31
0.0
  0
LINE
  5
23006
330
18
100
AcDbEntity
  8
01
100
AcDbLine
 10
4543.600046535897
 20
-171.0839607350887
 30
0.0
 11
4543.100046535897
 21
-170.9839595716916
 31
0.0
  0
LINE
  5
23007
330
18
100
AcDbEntity
  8
01
100
AcDbLine
 10
4543.600046535897
 20
-169.4839607350888
 30
0.0
 11
4543.100046535897
 21
-169.3839595716917
 31
0.0
  0
LINE
  5
23008
330
18
100
AcDbEntity
  8
01
100
AcDbLine
 10
4543.100046535897
 20
-170.9839595716916
 30
0.0
 11
4547.100046535897
 21
-170.1839688788691
 31
0.0
  0
LINE
  5
23009
330
18
100
AcDbEntity
  8
01
100
AcDbLine
 10
4543.100046535897
 20
-172.5839595716918
 30
0.0
 11
4547.100046535897
 21
-171.7839688788692
 31
0.0
  0
LINE
  5
2300A
330
18
100
AcDbEntity
  8
01
100
AcDbLine
 10
4543.600046535897
 20
-167.8839607350889
 30
0.0
 11
4543.100046535897
 21
-167.7839595716917
 31
0.0
  0
LINE
  5
2300B
330
18
100
AcDbEntity
  8
01
100
AcDbLine
 10
4543.600046535897
 20
-159.6839607350889
 30
0.0
 11
4543.100046535897
 21
-159.5839595716918
 31
0.0
  0
LINE
  5
2300C
330
18
100
AcDbEntity
  8
01
100
AcDbLine
 10
4543.100046535897
 20
-159.5839595716918
 30
0.0
 11
4546.873639483692
 21
-158.7839683520665
 31
0.0
  0
LINE
  5
2300D
330
18
100
AcDbEntity
  8
01
100
AcDbLine
 10
4546.873639483692
 20
-158.7839683520665
 30
0.0
 11
4546.337045748422
 21
-158.6546976544366
 31
0.0
  0
LINE
  5
2300E
330
18
100
AcDbEntity
  8
01
100
AcDbLine
 10
4547.100046535897
 20
-166.9839688788691
 30
0.0
 11
4546.600046535897
 21
-166.8839677154721
 31
0.0
  0
LINE
  5
2300F
330
18
100
AcDbEntity
  8
01
100
AcDbLine
 10
4547.100046535897
 20
-165.3839688788691
 30
0.0
 11
4546.600046535897
 21
-165.283967715472
 31
0.0
  0
LINE
  5
23010
330
18
100
AcDbEntity
  8
01
100
AcDbLine
 10
4543.600046535897
 20
-166.2839607350888
 30
0.0
 11
4543.100046535897
 21
-166.1839595716917
 31
0.0
  0
LINE
  5
23011
330
18
100
AcDbEntity
  8
01
100
AcDbLine
 10
4543.100046535897
 20
-166.1839595716917
 30
0.0
 11
4547.100046535897
 21
-165.3839688788691
 31
0.0
  0
LINE
  5
23012
330
18
100
AcDbEntity
  8
01
100
AcDbLine
 10
4543.100046535897
 20
-167.7839595716917
 30
0.0
 11
4547.100046535897
 21
-166.9839688788691
 31
0.0
  0
LINE
  5
23013
330
18
100
AcDbEntity
  8
01
100
AcDbLine
 10
4543.552862677955
 20
-157.9839606253019
 30
0.0
 11
4546.420825379286
 21
-157.1839672984608
 31
0.0
  0
LINE
  5
23014
330
18
100
AcDbEntity
  8
01
100
AcDbLine
 10
4544.005676186003
 20
-156.3839616789062
 30
0.0
 11
4545.968011274879
 21
-155.5839662448552
 31
0.0
  0
LINE
  5
23015
330
18
100
AcDbEntity
  8
01
100
AcDbLine
 10
4546.420825379286
 20
-157.1839672984608
 30
0.0
 11
4545.869075915482
 21
-157.0012031558328
 31
0.0
  0
LINE
  5
23016
330
18
100
AcDbEntity
  8
01
100
AcDbLine
 10
4544.462848026635
 20
-156.5353974753466
 30
0.0
 11
4544.005676186003
 21
-156.3839616789062
 31
0.0
  0
LINE
  5
23017
330
18
100
AcDbEntity
  8
01
100
AcDbLine
 10
4545.968011274879
 20
-155.5839662448552
 30
0.0
 11
4545.379734699836
 21
-155.2721963886031
 31
0.0
  0
LINE
  5
23018
330
18
100
AcDbEntity
  8
01
100
AcDbLine
 10
4544.020961133106
 20
-158.096730137652
 30
0.0
 11
4543.552862677955
 21
-157.9839606253019
 31
0.0
  0
LINE
  5
23019
330
18
100
AcDbEntity
  8
01
100
AcDbLine
 10
4547.100046535897
 20
-168.5839688788691
 30
0.0
 11
4546.600046535897
 21
-168.4839677154719
 31
0.0
  0
LINE
  5
2301A
330
18
100
AcDbEntity
  8
01
100
AcDbLine
 10
4543.100046535897
 20
-169.3839595716917
 30
0.0
 11
4547.100046535897
 21
-168.5839688788691
 31
0.0
  0
LINE
  5
2301B
330
18
100
AcDbEntity
  8
01
100
AcDbLine
 10
4546.600046535897
 20
-186.2839677154888
 30
0.0
 11
4547.100046535897
 21
-186.1839688788866
 31
0.0
  0
LINE
  5
2301C
330
18
100
AcDbEntity
  8
01
100
AcDbLine
 10
4543.100046535897
 20
-185.3839595717005
 30
0.0
 11
4547.100046535897
 21
-184.5839688788822
 31
0.0
  0
LINE
  5
2301D
330
18
100
AcDbEntity
  8
01
100
AcDbLine
 10
4543.100046535897
 20
-182.1839595717004
 30
0.0
 11
4547.100046535897
 21
-181.3839688788822
 31
0.0
  0
LINE
  5
2301E
330
18
100
AcDbEntity
  8
01
100
AcDbLine
 10
4547.100046535897
 20
-181.3839688788822
 30
0.0
 11
4546.600046535897
 21
-181.2839677154845
 31
0.0
  0
LINE
  5
2301F
330
18
100
AcDbEntity
  8
01
100
AcDbLine
 10
4547.100046535897
 20
-184.5839688788822
 30
0.0
 11
4546.600046535897
 21
-184.4839677154845
 31
0.0
  0
LINE
  5
23020
330
18
100
AcDbEntity
  8
01
100
AcDbLine
 10
4543.600046535897
 20
-183.8839607350982
 30
0.0
 11
4543.100046535897
 21
-183.7839595717006
 31
0.0
  0
LINE
  5
23021
330
18
100
AcDbEntity
  8
01
100
AcDbLine
 10
4547.100046535897
 20
-182.9839688788823
 30
0.0
 11
4546.600046535897
 21
-182.8839677154846
 31
0.0
  0
LINE
  5
23022
330
18
100
AcDbEntity
  8
01
100
AcDbLine
 10
4543.100046535897
 20
-183.7839595717006
 30
0.0
 11
4547.100046535897
 21
-182.9839688788823
 31
0.0
  0
LINE
  5
23023
330
18
100
AcDbEntity
  8
01
100
AcDbLine
 10
4543.600046535897
 20
-182.2839607350981
 30
0.0
 11
4543.100046535897
 21
-182.1839595717004
 31
0.0
  0
LINE
  5
23024
330
18
100
AcDbEntity
  8
01
100
AcDbLine
 10
4547.100046535897
 20
-186.1839688788866
 30
0.0
 11
4546.600046535897
 21
-186.0839677154889
 31
0.0
  0
LINE
  5
23025
330
18
100
AcDbEntity
  8
01
100
AcDbLine
 10
4543.600046535897
 20
-185.4839607350982
 30
0.0
 11
4543.100046535897
 21
-185.3839595717005
 31
0.0
  0
LINE
  5
23026
330
18
100
AcDbEntity
  8
01
100
AcDbLine
 10
4541.099999999999
 20
-188.9839549178853
 30
0.0
 11
4549.099999999999
 21
-188.9839735322444
 31
0.0
  0
LINE
  5
23027
330
18
100
AcDbEntity
  8
01
100
AcDbLine
 10
4543.600046535897
 20
-180.6839607350938
 30
0.0
 11
4543.100046535897
 21
-180.5839595716961
 31
0.0
  0
LINE
  5
23028
330
18
100
AcDbEntity
  8
01
100
AcDbLine
 10
4543.600046535897
 20
-179.0839607350894
 30
0.0
 11
4543.100046535897
 21
-178.9839595716917
 31
0.0
  0
LINE
  5
23029
330
18
100
AcDbEntity
  8
01
100
AcDbLine
 10
4547.100046535897
 20
-179.7839688788778
 30
0.0
 11
4546.600046535897
 21
-179.6839677154802
 31
0.0
  0
LINE
  5
2302A
330
18
100
AcDbEntity
  8
01
100
AcDbLine
 10
4543.600046535897
 20
-175.8839607350894
 30
0.0
 11
4543.100046535897
 21
-175.7839595716917
 31
0.0
  0
LINE
  5
2302B
330
18
100
AcDbEntity
  8
01
100
AcDbLine
 10
4543.100046535897
 20
-177.3839595716918
 30
0.0
 11
4547.100046535897
 21
-176.5839688788736
 31
0.0
  0
LINE
  5
2302C
330
18
100
AcDbEntity
  8
01
100
AcDbLine
 10
4547.100046535897
 20
-176.5839688788736
 30
0.0
 11
4546.600046535897
 21
-176.4839677154759
 31
0.0
  0
LINE
  5
2302D
330
18
100
AcDbEntity
  8
01
100
AcDbLine
 10
4543.600046535897
 20
-177.4839607350895
 30
0.0
 11
4543.100046535897
 21
-177.3839595716918
 31
0.0
  0
LINE
  5
2302E
330
18
100
AcDbEntity
  8
01
100
AcDbLine
 10
4547.100046535897
 20
-178.1839688788735
 30
0.0
 11
4546.600046535897
 21
-178.0839677154758
 31
0.0
  0
LINE
  5
2302F
330
18
100
AcDbEntity
  8
01
100
AcDbLine
 10
4547.100046535897
 20
-173.3839688788691
 30
0.0
 11
4546.600046535897
 21
-173.283967715472
 31
0.0
  0
LINE
  5
23030
330
18
100
AcDbEntity
  8
01
100
AcDbLine
 10
4547.100046535897
 20
-174.9839688788734
 30
0.0
 11
4546.600046535897
 21
-174.8839677154758
 31
0.0
  0
LINE
  5
23031
330
18
100
AcDbEntity
  8
01
100
AcDbLine
 10
4543.600046535897
 20
-174.2839607350895
 30
0.0
 11
4543.100046535897
 21
-174.1839595716917
 31
0.0
  0
LINE
  5
23032
330
18
100
AcDbEntity
  8
01
100
AcDbLine
 10
4543.100046535897
 20
-174.1839595716917
 30
0.0
 11
4547.100046535897
 21
-173.3839688788691
 31
0.0
  0
LINE
  5
23033
330
18
100
AcDbEntity
  8
01
100
AcDbLine
 10
4543.100046535897
 20
-175.7839595716917
 30
0.0
 11
4547.100046535897
 21
-174.9839688788734
 31
0.0
  0
LINE
  5
23034
330
18
100
AcDbEntity
  8
01
100
AcDbLine
 10
4543.100046535897
 20
-178.9839595716917
 30
0.0
 11
4547.100046535897
 21
-178.1839688788735
 31
0.0
  0
LINE
  5
23035
330
18
100
AcDbEntity
  8
01
100
AcDbLine
 10
4543.100046535897
 20
-180.5839595716961
 30
0.0
 11
4547.100046535897
 21
-179.7839688788778
 31
0.0
  0
LINE
  5
23037
330
18
100
AcDbEntity
  8
1CENTER
100
AcDbLine
 10
4837.517036297981
 20
-579.0316889800797
 30
0.0
 11
4799.683903250606
 21
-579.0316889800797
 31
0.0
  0
LINE
  5
23038
330
18
100
AcDbEntity
  8
01
100
AcDbLine
 10
4828.86254359732
 20
-577.5317355159776
 30
0.0
 11
4828.962544760718
 21
-577.0317355159776
 31
0.0
  0
LINE
  5
23039
330
18
100
AcDbEntity
  8
01
100
AcDbLine
 10
4828.962544760718
 20
-577.0317355159776
 30
0.0
 11
4829.76253545354
 21
-581.0317355159776
 31
0.0
  0
LINE
  5
2303A
330
18
100
AcDbEntity
  8
01
100
AcDbLine
 10
4829.76253545354
 20
-581.0317355159776
 30
0.0
 11
4829.862536616937
 21
-580.5317355159776
 31
0.0
  0
LINE
  5
2303B
330
18
100
AcDbEntity
  8
01
100
AcDbLine
 10
4827.26254359732
 20
-577.5317355159776
 30
0.0
 11
4827.362544760717
 21
-577.0317355159776
 31
0.0
  0
LINE
  5
2303C
330
18
100
AcDbEntity
  8
01
100
AcDbLine
 10
4828.16253545354
 20
-581.0317355159776
 30
0.0
 11
4828.262536616937
 21
-580.5317355159776
 31
0.0
  0
LINE
  5
2303D
330
18
100
AcDbEntity
  8
01
100
AcDbLine
 10
4827.362544760717
 20
-577.0317355159776
 30
0.0
 11
4828.16253545354
 21
-581.0317355159776
 31
0.0
  0
LINE
  5
2303E
330
18
100
AcDbEntity
  8
01
100
AcDbLine
 10
4825.66254359732
 20
-577.5317355159776
 30
0.0
 11
4825.762544760717
 21
-577.0317355159776
 31
0.0
  0
LINE
  5
2303F
330
18
100
AcDbEntity
  8
01
100
AcDbLine
 10
4825.762544760717
 20
-577.0317355159776
 30
0.0
 11
4826.56253545354
 21
-581.0317355159776
 31
0.0
  0
LINE
  5
23040
330
18
100
AcDbEntity
  8
01
100
AcDbLine
 10
4826.56253545354
 20
-581.0317355159776
 30
0.0
 11
4826.662536616937
 21
-580.5317355159776
 31
0.0
  0
LINE
  5
23041
330
18
100
AcDbEntity
  8
01
100
AcDbLine
 10
4817.66254359732
 20
-577.5317355159776
 30
0.0
 11
4817.762544760717
 21
-577.0317355159776
 31
0.0
  0
LINE
  5
23042
330
18
100
AcDbEntity
  8
01
100
AcDbLine
 10
4818.56253545354
 20
-581.0317355159776
 30
0.0
 11
4818.662536616937
 21
-580.5317355159776
 31
0.0
  0
LINE
  5
23043
330
18
100
AcDbEntity
  8
01
100
AcDbLine
 10
4820.16253545354
 20
-581.0317355159776
 30
0.0
 11
4820.262536616937
 21
-580.5317355159776
 31
0.0
  0
LINE
  5
23044
330
18
100
AcDbEntity
  8
01
100
AcDbLine
 10
4819.26254359732
 20
-577.5317355159776
 30
0.0
 11
4819.362544760717
 21
-577.0317355159776
 31
0.0
  0
LINE
  5
23045
330
18
100
AcDbEntity
  8
01
100
AcDbLine
 10
4820.86254359732
 20
-577.5317355159776
 30
0.0
 11
4820.962544760717
 21
-577.0317355159776
 31
0.0
  0
LINE
  5
23046
330
18
100
AcDbEntity
  8
01
100
AcDbLine
 10
4819.362544760717
 20
-577.0317355159776
 30
0.0
 11
4820.16253545354
 21
-581.0317355159776
 31
0.0
  0
LINE
  5
23047
330
18
100
AcDbEntity
  8
01
100
AcDbLine
 10
4817.762544760717
 20
-577.0317355159776
 30
0.0
 11
4818.56253545354
 21
-581.0317355159776
 31
0.0
  0
LINE
  5
23048
330
18
100
AcDbEntity
  8
01
100
AcDbLine
 10
4822.46254359732
 20
-577.5317355159776
 30
0.0
 11
4822.562544760717
 21
-577.0317355159776
 31
0.0
  0
LINE
  5
23049
330
18
100
AcDbEntity
  8
01
100
AcDbLine
 10
4830.66254359732
 20
-577.5317355159776
 30
0.0
 11
4830.762544760717
 21
-577.0317355159776
 31
0.0
  0
LINE
  5
2304A
330
18
100
AcDbEntity
  8
01
100
AcDbLine
 10
4830.762544760717
 20
-577.0317355159776
 30
0.0
 11
4831.562535980343
 21
-580.8053284637737
 31
0.0
  0
LINE
  5
2304B
330
18
100
AcDbEntity
  8
01
100
AcDbLine
 10
4831.562535980343
 20
-580.8053284637737
 30
0.0
 11
4831.691806677973
 21
-580.2687347285025
 31
0.0
  0
LINE
  5
2304C
330
18
100
AcDbEntity
  8
01
100
AcDbLine
 10
4823.36253545354
 20
-581.0317355159776
 30
0.0
 11
4823.462536616937
 21
-580.5317355159776
 31
0.0
  0
LINE
  5
2304D
330
18
100
AcDbEntity
  8
01
100
AcDbLine
 10
4824.96253545354
 20
-581.0317355159776
 30
0.0
 11
4825.062536616937
 21
-580.5317355159776
 31
0.0
  0
LINE
  5
2304E
330
18
100
AcDbEntity
  8
01
100
AcDbLine
 10
4824.06254359732
 20
-577.5317355159776
 30
0.0
 11
4824.162544760718
 21
-577.0317355159776
 31
0.0
  0
LINE
  5
2304F
330
18
100
AcDbEntity
  8
01
100
AcDbLine
 10
4824.162544760718
 20
-577.0317355159776
 30
0.0
 11
4824.96253545354
 21
-581.0317355159776
 31
0.0
  0
LINE
  5
23050
330
18
100
AcDbEntity
  8
01
100
AcDbLine
 10
4822.562544760717
 20
-577.0317355159776
 30
0.0
 11
4823.36253545354
 21
-581.0317355159776
 31
0.0
  0
LINE
  5
23051
330
18
100
AcDbEntity
  8
01
100
AcDbLine
 10
4832.362543707107
 20
-577.4845516580364
 30
0.0
 11
4833.162537033948
 21
-580.3525143593669
 31
0.0
  0
LINE
  5
23052
330
18
100
AcDbEntity
  8
01
100
AcDbLine
 10
4833.962542653503
 20
-577.9373651660846
 30
0.0
 11
4834.762538087553
 21
-579.8997002549601
 31
0.0
  0
LINE
  5
23053
330
18
100
AcDbEntity
  8
01
100
AcDbLine
 10
4833.162537033948
 20
-580.3525143593669
 30
0.0
 11
4833.345301176576
 21
-579.8007648955636
 31
0.0
  0
LINE
  5
23054
330
18
100
AcDbEntity
  8
01
100
AcDbLine
 10
4833.811106857062
 20
-578.3945370067157
 30
0.0
 11
4833.962542653503
 21
-577.9373651660846
 31
0.0
  0
LINE
  5
23055
330
18
100
AcDbEntity
  8
01
100
AcDbLine
 10
4834.762538087553
 20
-579.8997002549601
 30
0.0
 11
4835.074307943806
 21
-579.3114236799177
 31
0.0
  0
LINE
  5
23056
330
18
100
AcDbEntity
  8
01
100
AcDbLine
 10
4832.249774194757
 20
-577.9526501131863
 30
0.0
 11
4832.362543707107
 21
-577.4845516580364
 31
0.0
  0
LINE
  5
23057
330
18
100
AcDbEntity
  8
01
100
AcDbLine
 10
4821.762535453539
 20
-581.0317355159776
 30
0.0
 11
4821.862536616937
 21
-580.5317355159776
 31
0.0
  0
LINE
  5
23058
330
18
100
AcDbEntity
  8
01
100
AcDbLine
 10
4820.962544760717
 20
-577.0317355159776
 30
0.0
 11
4821.762535453539
 21
-581.0317355159776
 31
0.0
  0
LINE
  5
23059
330
18
100
AcDbEntity
  8
01
100
AcDbLine
 10
4804.06253661692
 20
-580.5317355159776
 30
0.0
 11
4804.162535453523
 21
-581.0317355159776
 31
0.0
  0
LINE
  5
2305A
330
18
100
AcDbEntity
  8
01
100
AcDbLine
 10
4804.962544760709
 20
-577.0317355159776
 30
0.0
 11
4805.762535453527
 21
-581.0317355159776
 31
0.0
  0
LINE
  5
2305B
330
18
100
AcDbEntity
  8
01
100
AcDbLine
 10
4808.162544760708
 20
-577.0317355159776
 30
0.0
 11
4808.962535453526
 21
-581.0317355159776
 31
0.0
  0
LINE
  5
2305C
330
18
100
AcDbEntity
  8
01
100
AcDbLine
 10
4808.962535453526
 20
-581.0317355159776
 30
0.0
 11
4809.062536616924
 21
-580.5317355159776
 31
0.0
  0
LINE
  5
2305D
330
18
100
AcDbEntity
  8
01
100
AcDbLine
 10
4805.762535453527
 20
-581.0317355159776
 30
0.0
 11
4805.862536616924
 21
-580.5317355159776
 31
0.0
  0
LINE
  5
2305E
330
18
100
AcDbEntity
  8
01
100
AcDbLine
 10
4806.46254359731
 20
-577.5317355159776
 30
0.0
 11
4806.562544760708
 21
-577.0317355159776
 31
0.0
  0
LINE
  5
2305F
330
18
100
AcDbEntity
  8
01
100
AcDbLine
 10
4807.362535453527
 20
-581.0317355159776
 30
0.0
 11
4807.462536616924
 21
-580.5317355159776
 31
0.0
  0
LINE
  5
23060
330
18
100
AcDbEntity
  8
01
100
AcDbLine
 10
4806.562544760708
 20
-577.0317355159776
 30
0.0
 11
4807.362535453527
 21
-581.0317355159776
 31
0.0
  0
LINE
  5
23061
330
18
100
AcDbEntity
  8
01
100
AcDbLine
 10
4808.062543597311
 20
-577.5317355159776
 30
0.0
 11
4808.162544760708
 21
-577.0317355159776
 31
0.0
  0
LINE
  5
23062
330
18
100
AcDbEntity
  8
01
100
AcDbLine
 10
4804.162535453523
 20
-581.0317355159776
 30
0.0
 11
4804.26253661692
 21
-580.5317355159776
 31
0.0
  0
LINE
  5
23063
330
18
100
AcDbEntity
  8
01
100
AcDbLine
 10
4804.862543597311
 20
-577.5317355159776
 30
0.0
 11
4804.962544760709
 21
-577.0317355159776
 31
0.0
  0
LINE
  5
23064
330
18
100
AcDbEntity
  8
01
100
AcDbLine
 10
4801.362549414524
 20
-575.0316889800797
 30
0.0
 11
4801.362530800165
 21
-583.0316889800797
 31
0.0
  0
LINE
  5
23065
330
18
100
AcDbEntity
  8
01
100
AcDbLine
 10
4809.662543597316
 20
-577.5317355159776
 30
0.0
 11
4809.762544760712
 21
-577.0317355159776
 31
0.0
  0
LINE
  5
23066
330
18
100
AcDbEntity
  8
01
100
AcDbLine
 10
4811.26254359732
 20
-577.5317355159776
 30
0.0
 11
4811.362544760717
 21
-577.0317355159776
 31
0.0
  0
LINE
  5
23067
330
18
100
AcDbEntity
  8
01
100
AcDbLine
 10
4810.562535453531
 20
-581.0317355159776
 30
0.0
 11
4810.662536616929
 21
-580.5317355159776
 31
0.0
  0
LINE
  5
23068
330
18
100
AcDbEntity
  8
01
100
AcDbLine
 10
4814.462543597319
 20
-577.5317355159776
 30
0.0
 11
4814.562544760717
 21
-577.0317355159776
 31
0.0
  0
LINE
  5
23069
330
18
100
AcDbEntity
  8
01
100
AcDbLine
 10
4812.962544760717
 20
-577.0317355159776
 30
0.0
 11
4813.762535453536
 21
-581.0317355159776
 31
0.0
  0
LINE
  5
2306A
330
18
100
AcDbEntity
  8
01
100
AcDbLine
 10
4813.762535453536
 20
-581.0317355159776
 30
0.0
 11
4813.862536616933
 21
-580.5317355159776
 31
0.0
  0
LINE
  5
2306B
330
18
100
AcDbEntity
  8
01
100
AcDbLine
 10
4812.862543597319
 20
-577.5317355159776
 30
0.0
 11
4812.962544760717
 21
-577.0317355159776
 31
0.0
  0
LINE
  5
2306C
330
18
100
AcDbEntity
  8
01
100
AcDbLine
 10
4812.162535453535
 20
-581.0317355159776
 30
0.0
 11
4812.262536616933
 21
-580.5317355159776
 31
0.0
  0
LINE
  5
2306D
330
18
100
AcDbEntity
  8
01
100
AcDbLine
 10
4816.96253545354
 20
-581.0317355159776
 30
0.0
 11
4817.062536616937
 21
-580.5317355159776
 31
0.0
  0
LINE
  5
2306E
330
18
100
AcDbEntity
  8
01
100
AcDbLine
 10
4815.362535453535
 20
-581.0317355159776
 30
0.0
 11
4815.462536616933
 21
-580.5317355159776
 31
0.0
  0
LINE
  5
2306F
330
18
100
AcDbEntity
  8
01
100
AcDbLine
 10
4816.06254359732
 20
-577.5317355159776
 30
0.0
 11
4816.162544760718
 21
-577.0317355159776
 31
0.0
  0
LINE
  5
23070
330
18
100
AcDbEntity
  8
01
100
AcDbLine
 10
4816.162544760718
 20
-577.0317355159776
 30
0.0
 11
4816.96253545354
 21
-581.0317355159776
 31
0.0
  0
LINE
  5
23071
330
18
100
AcDbEntity
  8
01
100
AcDbLine
 10
4814.562544760717
 20
-577.0317355159776
 30
0.0
 11
4815.362535453535
 21
-581.0317355159776
 31
0.0
  0
LINE
  5
23072
330
18
100
AcDbEntity
  8
01
100
AcDbLine
 10
4811.362544760717
 20
-577.0317355159776
 30
0.0
 11
4812.162535453535
 21
-581.0317355159776
 31
0.0
  0
LINE
  5
23073
330
18
100
AcDbEntity
  8
01
100
AcDbLine
 10
4809.762544760712
 20
-577.0317355159776
 30
0.0
 11
4810.562535453531
 21
-581.0317355159776
 31
0.0
  0
LINE
  5
23075
330
18
100
AcDbEntity
  8
1CENTER
100
AcDbLine
 10
4837.517036297981
 20
-503.0999900099559
 30
0.0
 11
4799.683903250606
 21
-503.0999900099559
 31
0.0
  0
LINE
  5
23076
330
18
100
AcDbEntity
  8
01
100
AcDbLine
 10
4828.86254359732
 20
-501.6000365458539
 30
0.0
 11
4828.962544760718
 21
-501.1000365458539
 31
0.0
  0
LINE
  5
23077
330
18
100
AcDbEntity
  8
01
100
AcDbLine
 10
4828.962544760718
 20
-501.1000365458539
 30
0.0
 11
4829.76253545354
 21
-505.1000365458539
 31
0.0
  0
LINE
  5
23078
330
18
100
AcDbEntity
  8
01
100
AcDbLine
 10
4829.76253545354
 20
-505.1000365458539
 30
0.0
 11
4829.862536616937
 21
-504.6000365458539
 31
0.0
  0
LINE
  5
23079
330
18
100
AcDbEntity
  8
01
100
AcDbLine
 10
4827.26254359732
 20
-501.6000365458539
 30
0.0
 11
4827.362544760717
 21
-501.1000365458539
 31
0.0
  0
LINE
  5
2307A
330
18
100
AcDbEntity
  8
01
100
AcDbLine
 10
4828.16253545354
 20
-505.1000365458539
 30
0.0
 11
4828.262536616937
 21
-504.6000365458539
 31
0.0
  0
LINE
  5
2307B
330
18
100
AcDbEntity
  8
01
100
AcDbLine
 10
4827.362544760717
 20
-501.1000365458539
 30
0.0
 11
4828.16253545354
 21
-505.1000365458539
 31
0.0
  0
LINE
  5
2307C
330
18
100
AcDbEntity
  8
01
100
AcDbLine
 10
4825.66254359732
 20
-501.6000365458539
 30
0.0
 11
4825.762544760717
 21
-501.1000365458539
 31
0.0
  0
LINE
  5
2307D
330
18
100
AcDbEntity
  8
01
100
AcDbLine
 10
4825.762544760717
 20
-501.1000365458539
 30
0.0
 11
4826.56253545354
 21
-505.1000365458539
 31
0.0
  0
LINE
  5
2307E
330
18
100
AcDbEntity
  8
01
100
AcDbLine
 10
4826.56253545354
 20
-505.1000365458539
 30
0.0
 11
4826.662536616937
 21
-504.6000365458539
 31
0.0
  0
LINE
  5
2307F
330
18
100
AcDbEntity
  8
01
100
AcDbLine
 10
4817.66254359732
 20
-501.6000365458539
 30
0.0
 11
4817.762544760717
 21
-501.1000365458539
 31
0.0
  0
LINE
  5
23080
330
18
100
AcDbEntity
  8
01
100
AcDbLine
 10
4818.56253545354
 20
-505.1000365458539
 30
0.0
 11
4818.662536616937
 21
-504.6000365458539
 31
0.0
  0
LINE
  5
23081
330
18
100
AcDbEntity
  8
01
100
AcDbLine
 10
4820.16253545354
 20
-505.1000365458539
 30
0.0
 11
4820.262536616937
 21
-504.6000365458539
 31
0.0
  0
LINE
  5
23082
330
18
100
AcDbEntity
  8
01
100
AcDbLine
 10
4819.26254359732
 20
-501.6000365458539
 30
0.0
 11
4819.362544760717
 21
-501.1000365458539
 31
0.0
  0
LINE
  5
23083
330
18
100
AcDbEntity
  8
01
100
AcDbLine
 10
4820.86254359732
 20
-501.6000365458539
 30
0.0
 11
4820.962544760717
 21
-501.1000365458539
 31
0.0
  0
LINE
  5
23084
330
18
100
AcDbEntity
  8
01
100
AcDbLine
 10
4819.362544760717
 20
-501.1000365458539
 30
0.0
 11
4820.16253545354
 21
-505.1000365458539
 31
0.0
  0
LINE
  5
23085
330
18
100
AcDbEntity
  8
01
100
AcDbLine
 10
4817.762544760717
 20
-501.1000365458539
 30
0.0
 11
4818.56253545354
 21
-505.1000365458539
 31
0.0
  0
LINE
  5
23086
330
18
100
AcDbEntity
  8
01
100
AcDbLine
 10
4822.46254359732
 20
-501.6000365458539
 30
0.0
 11
4822.562544760717
 21
-501.1000365458539
 31
0.0
  0
LINE
  5
23087
330
18
100
AcDbEntity
  8
01
100
AcDbLine
 10
4830.66254359732
 20
-501.6000365458539
 30
0.0
 11
4830.762544760717
 21
-501.1000365458539
 31
0.0
  0
LINE
  5
23088
330
18
100
AcDbEntity
  8
01
100
AcDbLine
 10
4830.762544760717
 20
-501.1000365458539
 30
0.0
 11
4831.562535980343
 21
-504.8736294936499
 31
0.0
  0
LINE
  5
23089
330
18
100
AcDbEntity
  8
01
100
AcDbLine
 10
4831.562535980343
 20
-504.8736294936499
 30
0.0
 11
4831.691806677973
 21
-504.3370357583788
 31
0.0
  0
LINE
  5
2308A
330
18
100
AcDbEntity
  8
01
100
AcDbLine
 10
4823.36253545354
 20
-505.1000365458539
 30
0.0
 11
4823.462536616937
 21
-504.6000365458539
 31
0.0
  0
LINE
  5
2308B
330
18
100
AcDbEntity
  8
01
100
AcDbLine
 10
4824.96253545354
 20
-505.1000365458539
 30
0.0
 11
4825.062536616937
 21
-504.6000365458539
 31
0.0
  0
LINE
  5
2308C
330
18
100
AcDbEntity
  8
01
100
AcDbLine
 10
4824.06254359732
 20
-501.6000365458539
 30
0.0
 11
4824.162544760718
 21
-501.1000365458539
 31
0.0
  0
LINE
  5
2308D
330
18
100
AcDbEntity
  8
01
100
AcDbLine
 10
4824.162544760718
 20
-501.1000365458539
 30
0.0
 11
4824.96253545354
 21
-505.1000365458539
 31
0.0
  0
LINE
  5
2308E
330
18
100
AcDbEntity
  8
01
100
AcDbLine
 10
4822.562544760717
 20
-501.1000365458539
 30
0.0
 11
4823.36253545354
 21
-505.1000365458539
 31
0.0
  0
LINE
  5
2308F
330
18
100
AcDbEntity
  8
01
100
AcDbLine
 10
4832.362543707107
 20
-501.5528526879126
 30
0.0
 11
4833.162537033948
 21
-504.4208153892431
 31
0.0
  0
LINE
  5
23090
330
18
100
AcDbEntity
  8
01
100
AcDbLine
 10
4833.962542653503
 20
-502.0056661959609
 30
0.0
 11
4834.762538087553
 21
-503.9680012848363
 31
0.0
  0
LINE
  5
23091
330
18
100
AcDbEntity
  8
01
100
AcDbLine
 10
4833.162537033948
 20
-504.4208153892431
 30
0.0
 11
4833.345301176576
 21
-503.8690659254398
 31
0.0
  0
LINE
  5
23092
330
18
100
AcDbEntity
  8
01
100
AcDbLine
 10
4833.811106857062
 20
-502.462838036592
 30
0.0
 11
4833.962542653503
 21
-502.0056661959609
 31
0.0
  0
LINE
  5
23093
330
18
100
AcDbEntity
  8
01
100
AcDbLine
 10
4834.762538087553
 20
-503.9680012848363
 30
0.0
 11
4835.074307943806
 21
-503.3797247097939
 31
0.0
  0
LINE
  5
23094
330
18
100
AcDbEntity
  8
01
100
AcDbLine
 10
4832.249774194757
 20
-502.0209511430626
 30
0.0
 11
4832.362543707107
 21
-501.5528526879126
 31
0.0
  0
LINE
  5
23095
330
18
100
AcDbEntity
  8
01
100
AcDbLine
 10
4821.762535453539
 20
-505.1000365458539
 30
0.0
 11
4821.862536616937
 21
-504.6000365458539
 31
0.0
  0
LINE
  5
23096
330
18
100
AcDbEntity
  8
01
100
AcDbLine
 10
4820.962544760717
 20
-501.1000365458539
 30
0.0
 11
4821.762535453539
 21
-505.1000365458539
 31
0.0
  0
LINE
  5
23097
330
18
100
AcDbEntity
  8
01
100
AcDbLine
 10
4804.06253661692
 20
-504.6000365458539
 30
0.0
 11
4804.162535453523
 21
-505.1000365458539
 31
0.0
  0
LINE
  5
23098
330
18
100
AcDbEntity
  8
01
100
AcDbLine
 10
4804.962544760709
 20
-501.1000365458539
 30
0.0
 11
4805.762535453527
 21
-505.1000365458539
 31
0.0
  0
LINE
  5
23099
330
18
100
AcDbEntity
  8
01
100
AcDbLine
 10
4808.162544760708
 20
-501.1000365458539
 30
0.0
 11
4808.962535453526
 21
-505.1000365458539
 31
0.0
  0
LINE
  5
2309A
330
18
100
AcDbEntity
  8
01
100
AcDbLine
 10
4808.962535453526
 20
-505.1000365458539
 30
0.0
 11
4809.062536616924
 21
-504.6000365458539
 31
0.0
  0
LINE
  5
2309B
330
18
100
AcDbEntity
  8
01
100
AcDbLine
 10
4805.762535453527
 20
-505.1000365458539
 30
0.0
 11
4805.862536616924
 21
-504.6000365458539
 31
0.0
  0
LINE
  5
2309C
330
18
100
AcDbEntity
  8
01
100
AcDbLine
 10
4806.46254359731
 20
-501.6000365458539
 30
0.0
 11
4806.562544760708
 21
-501.1000365458539
 31
0.0
  0
LINE
  5
2309D
330
18
100
AcDbEntity
  8
01
100
AcDbLine
 10
4807.362535453527
 20
-505.1000365458539
 30
0.0
 11
4807.462536616924
 21
-504.6000365458539
 31
0.0
  0
LINE
  5
2309E
330
18
100
AcDbEntity
  8
01
100
AcDbLine
 10
4806.562544760708
 20
-501.1000365458539
 30
0.0
 11
4807.362535453527
 21
-505.1000365458539
 31
0.0
  0
LINE
  5
2309F
330
18
100
AcDbEntity
  8
01
100
AcDbLine
 10
4808.062543597311
 20
-501.6000365458539
 30
0.0
 11
4808.162544760708
 21
-501.1000365458539
 31
0.0
  0
LINE
  5
230A0
330
18
100
AcDbEntity
  8
01
100
AcDbLine
 10
4804.162535453523
 20
-505.1000365458539
 30
0.0
 11
4804.26253661692
 21
-504.6000365458539
 31
0.0
  0
LINE
  5
230A1
330
18
100
AcDbEntity
  8
01
100
AcDbLine
 10
4804.862543597311
 20
-501.6000365458539
 30
0.0
 11
4804.962544760709
 21
-501.1000365458539
 31
0.0
  0
LINE
  5
230A2
330
18
100
AcDbEntity
  8
01
100
AcDbLine
 10
4801.362549414524
 20
-499.0999900099559
 30
0.0
 11
4801.362530800165
 21
-507.0999900099559
 31
0.0
  0
LINE
  5
230A3
330
18
100
AcDbEntity
  8
01
100
AcDbLine
 10
4809.662543597316
 20
-501.6000365458539
 30
0.0
 11
4809.762544760712
 21
-501.1000365458539
 31
0.0
  0
LINE
  5
230A4
330
18
100
AcDbEntity
  8
01
100
AcDbLine
 10
4811.26254359732
 20
-501.6000365458539
 30
0.0
 11
4811.362544760717
 21
-501.1000365458539
 31
0.0
  0
LINE
  5
230A5
330
18
100
AcDbEntity
  8
01
100
AcDbLine
 10
4810.562535453531
 20
-505.1000365458539
 30
0.0
 11
4810.662536616929
 21
-504.6000365458539
 31
0.0
  0
LINE
  5
230A6
330
18
100
AcDbEntity
  8
01
100
AcDbLine
 10
4814.462543597319
 20
-501.6000365458539
 30
0.0
 11
4814.562544760717
 21
-501.1000365458539
 31
0.0
  0
LINE
  5
230A7
330
18
100
AcDbEntity
  8
01
100
AcDbLine
 10
4812.962544760717
 20
-501.1000365458539
 30
0.0
 11
4813.762535453536
 21
-505.1000365458539
 31
0.0
  0
LINE
  5
230A8
330
18
100
AcDbEntity
  8
01
100
AcDbLine
 10
4813.762535453536
 20
-505.1000365458539
 30
0.0
 11
4813.862536616933
 21
-504.6000365458539
 31
0.0
  0
LINE
  5
230A9
330
18
100
AcDbEntity
  8
01
100
AcDbLine
 10
4812.862543597319
 20
-501.6000365458539
 30
0.0
 11
4812.962544760717
 21
-501.1000365458539
 31
0.0
  0
LINE
  5
230AA
330
18
100
AcDbEntity
  8
01
100
AcDbLine
 10
4812.162535453535
 20
-505.1000365458539
 30
0.0
 11
4812.262536616933
 21
-504.6000365458539
 31
0.0
  0
LINE
  5
230AB
330
18
100
AcDbEntity
  8
01
100
AcDbLine
 10
4816.96253545354
 20
-505.1000365458539
 30
0.0
 11
4817.062536616937
 21
-504.6000365458539
 31
0.0
  0
LINE
  5
230AC
330
18
100
AcDbEntity
  8
01
100
AcDbLine
 10
4815.362535453535
 20
-505.1000365458539
 30
0.0
 11
4815.462536616933
 21
-504.6000365458539
 31
0.0
  0
LINE
  5
230AD
330
18
100
AcDbEntity
  8
01
100
AcDbLine
 10
4816.06254359732
 20
-501.6000365458539
 30
0.0
 11
4816.162544760718
 21
-501.1000365458539
 31
0.0
  0
LINE
  5
230AE
330
18
100
AcDbEntity
  8
01
100
AcDbLine
 10
4816.162544760718
 20
-501.1000365458539
 30
0.0
 11
4816.96253545354
 21
-505.1000365458539
 31
0.0
  0
LINE
  5
230AF
330
18
100
AcDbEntity
  8
01
100
AcDbLine
 10
4814.562544760717
 20
-501.1000365458539
 30
0.0
 11
4815.362535453535
 21
-505.1000365458539
 31
0.0
  0
LINE
  5
230B0
330
18
100
AcDbEntity
  8
01
100
AcDbLine
 10
4811.362544760717
 20
-501.1000365458539
 30
0.0
 11
4812.162535453535
 21
-505.1000365458539
 31
0.0
  0
LINE
  5
230B1
330
18
100
AcDbEntity
  8
01
100
AcDbLine
 10
4809.762544760712
 20
-501.1000365458539
 30
0.0
 11
4810.562535453531
 21
-505.1000365458539
 31
0.0
  0
LINE
  5
230B3
330
18
100
AcDbEntity
  8
1CENTER
100
AcDbLine
 10
4405.099999999999
 20
-152.8294680344279
 30
0.0
 11
4405.099999999999
 21
-190.6626010818026
 31
0.0
  0
LINE
  5
230B4
330
18
100
AcDbEntity
  8
01
100
AcDbLine
 10
4403.600046535897
 20
-161.4839607350887
 30
0.0
 11
4403.100046535897
 21
-161.3839595716916
 31
0.0
  0
LINE
  5
230B5
330
18
100
AcDbEntity
  8
01
100
AcDbLine
 10
4403.100046535897
 20
-161.3839595716916
 30
0.0
 11
4407.100046535897
 21
-160.583968878869
 31
0.0
  0
LINE
  5
230B6
330
18
100
AcDbEntity
  8
01
100
AcDbLine
 10
4407.100046535897
 20
-160.583968878869
 30
0.0
 11
4406.600046535897
 21
-160.4839677154719
 31
0.0
  0
LINE
  5
230B7
330
18
100
AcDbEntity
  8
01
100
AcDbLine
 10
4403.600046535897
 20
-163.0839607350887
 30
0.0
 11
4403.100046535897
 21
-162.9839595716916
 31
0.0
  0
LINE
  5
230B8
330
18
100
AcDbEntity
  8
01
100
AcDbLine
 10
4407.100046535897
 20
-162.1839688788691
 30
0.0
 11
4406.600046535897
 21
-162.0839677154719
 31
0.0
  0
LINE
  5
230B9
330
18
100
AcDbEntity
  8
01
100
AcDbLine
 10
4403.100046535897
 20
-162.9839595716916
 30
0.0
 11
4407.100046535897
 21
-162.1839688788691
 31
0.0
  0
LINE
  5
230BA
330
18
100
AcDbEntity
  8
01
100
AcDbLine
 10
4403.600046535897
 20
-164.6839607350888
 30
0.0
 11
4403.100046535897
 21
-164.5839595716917
 31
0.0
  0
LINE
  5
230BB
330
18
100
AcDbEntity
  8
01
100
AcDbLine
 10
4403.100046535897
 20
-164.5839595716917
 30
0.0
 11
4407.100046535897
 21
-163.7839688788691
 31
0.0
  0
LINE
  5
230BC
330
18
100
AcDbEntity
  8
01
100
AcDbLine
 10
4407.100046535897
 20
-163.7839688788691
 30
0.0
 11
4406.600046535897
 21
-163.683967715472
 31
0.0
  0
LINE
  5
230BD
330
18
100
AcDbEntity
  8
01
100
AcDbLine
 10
4403.600046535897
 20
-172.6839607350889
 30
0.0
 11
4403.100046535897
 21
-172.5839595716918
 31
0.0
  0
LINE
  5
230BE
330
18
100
AcDbEntity
  8
01
100
AcDbLine
 10
4407.100046535897
 20
-171.7839688788692
 30
0.0
 11
4406.600046535897
 21
-171.683967715472
 31
0.0
  0
LINE
  5
230BF
330
18
100
AcDbEntity
  8
01
100
AcDbLine
 10
4407.100046535897
 20
-170.1839688788691
 30
0.0
 11
4406.600046535897
 21
-170.0839677154719
 31
0.0
  0
LINE
  5
230C0
330
18
100
AcDbEntity
  8
01
100
AcDbLine
 10
4403.600046535897
 20
-171.0839607350887
 30
0.0
 11
4403.100046535897
 21
-170.9839595716916
 31
0.0
  0
LINE
  5
230C1
330
18
100
AcDbEntity
  8
01
100
AcDbLine
 10
4403.600046535897
 20
-169.4839607350888
 30
0.0
 11
4403.100046535897
 21
-169.3839595716917
 31
0.0
  0
LINE
  5
230C2
330
18
100
AcDbEntity
  8
01
100
AcDbLine
 10
4403.100046535897
 20
-170.9839595716916
 30
0.0
 11
4407.100046535897
 21
-170.1839688788691
 31
0.0
  0
LINE
  5
230C3
330
18
100
AcDbEntity
  8
01
100
AcDbLine
 10
4403.100046535897
 20
-172.5839595716918
 30
0.0
 11
4407.100046535897
 21
-171.7839688788692
 31
0.0
  0
LINE
  5
230C4
330
18
100
AcDbEntity
  8
01
100
AcDbLine
 10
4403.600046535897
 20
-167.8839607350889
 30
0.0
 11
4403.100046535897
 21
-167.7839595716917
 31
0.0
  0
LINE
  5
230C5
330
18
100
AcDbEntity
  8
01
100
AcDbLine
 10
4403.600046535897
 20
-159.6839607350889
 30
0.0
 11
4403.100046535897
 21
-159.5839595716918
 31
0.0
  0
LINE
  5
230C6
330
18
100
AcDbEntity
  8
01
100
AcDbLine
 10
4403.100046535897
 20
-159.5839595716918
 30
0.0
 11
4406.873639483692
 21
-158.7839683520665
 31
0.0
  0
LINE
  5
230C7
330
18
100
AcDbEntity
  8
01
100
AcDbLine
 10
4406.873639483692
 20
-158.7839683520665
 30
0.0
 11
4406.337045748422
 21
-158.6546976544366
 31
0.0
  0
LINE
  5
230C8
330
18
100
AcDbEntity
  8
01
100
AcDbLine
 10
4407.100046535897
 20
-166.9839688788691
 30
0.0
 11
4406.600046535897
 21
-166.8839677154721
 31
0.0
  0
LINE
  5
230C9
330
18
100
AcDbEntity
  8
01
100
AcDbLine
 10
4407.100046535897
 20
-165.3839688788691
 30
0.0
 11
4406.600046535897
 21
-165.283967715472
 31
0.0
  0
LINE
  5
230CA
330
18
100
AcDbEntity
  8
01
100
AcDbLine
 10
4403.600046535897
 20
-166.2839607350888
 30
0.0
 11
4403.100046535897
 21
-166.1839595716917
 31
0.0
  0
LINE
  5
230CB
330
18
100
AcDbEntity
  8
01
100
AcDbLine
 10
4403.100046535897
 20
-166.1839595716917
 30
0.0
 11
4407.100046535897
 21
-165.3839688788691
 31
0.0
  0
LINE
  5
230CC
330
18
100
AcDbEntity
  8
01
100
AcDbLine
 10
4403.100046535897
 20
-167.7839595716917
 30
0.0
 11
4407.100046535897
 21
-166.9839688788691
 31
0.0
  0
LINE
  5
230CD
330
18
100
AcDbEntity
  8
01
100
AcDbLine
 10
4403.552862677955
 20
-157.9839606253019
 30
0.0
 11
4406.420825379286
 21
-157.1839672984608
 31
0.0
  0
LINE
  5
230CE
330
18
100
AcDbEntity
  8
01
100
AcDbLine
 10
4404.005676186003
 20
-156.3839616789062
 30
0.0
 11
4405.968011274879
 21
-155.5839662448552
 31
0.0
  0
LINE
  5
230CF
330
18
100
AcDbEntity
  8
01
100
AcDbLine
 10
4406.420825379286
 20
-157.1839672984608
 30
0.0
 11
4405.869075915482
 21
-157.0012031558328
 31
0.0
  0
LINE
  5
230D0
330
18
100
AcDbEntity
  8
01
100
AcDbLine
 10
4404.462848026635
 20
-156.5353974753466
 30
0.0
 11
4404.005676186003
 21
-156.3839616789062
 31
0.0
  0
LINE
  5
230D1
330
18
100
AcDbEntity
  8
01
100
AcDbLine
 10
4405.968011274879
 20
-155.5839662448552
 30
0.0
 11
4405.379734699836
 21
-155.2721963886031
 31
0.0
  0
LINE
  5
230D2
330
18
100
AcDbEntity
  8
01
100
AcDbLine
 10
4404.020961133106
 20
-158.096730137652
 30
0.0
 11
4403.552862677955
 21
-157.9839606253019
 31
0.0
  0
LINE
  5
230D3
330
18
100
AcDbEntity
  8
01
100
AcDbLine
 10
4407.100046535897
 20
-168.5839688788691
 30
0.0
 11
4406.600046535897
 21
-168.4839677154719
 31
0.0
  0
LINE
  5
230D4
330
18
100
AcDbEntity
  8
01
100
AcDbLine
 10
4403.100046535897
 20
-169.3839595716917
 30
0.0
 11
4407.100046535897
 21
-168.5839688788691
 31
0.0
  0
LINE
  5
230D5
330
18
100
AcDbEntity
  8
01
100
AcDbLine
 10
4406.600046535897
 20
-186.2839677154888
 30
0.0
 11
4407.100046535897
 21
-186.1839688788866
 31
0.0
  0
LINE
  5
230D6
330
18
100
AcDbEntity
  8
01
100
AcDbLine
 10
4403.100046535897
 20
-185.3839595717005
 30
0.0
 11
4407.100046535897
 21
-184.5839688788822
 31
0.0
  0
LINE
  5
230D7
330
18
100
AcDbEntity
  8
01
100
AcDbLine
 10
4403.100046535897
 20
-182.1839595717004
 30
0.0
 11
4407.100046535897
 21
-181.3839688788822
 31
0.0
  0
LINE
  5
230D8
330
18
100
AcDbEntity
  8
01
100
AcDbLine
 10
4407.100046535897
 20
-181.3839688788822
 30
0.0
 11
4406.600046535897
 21
-181.2839677154845
 31
0.0
  0
LINE
  5
230D9
330
18
100
AcDbEntity
  8
01
100
AcDbLine
 10
4407.100046535897
 20
-184.5839688788822
 30
0.0
 11
4406.600046535897
 21
-184.4839677154845
 31
0.0
  0
LINE
  5
230DA
330
18
100
AcDbEntity
  8
01
100
AcDbLine
 10
4403.600046535897
 20
-183.8839607350982
 30
0.0
 11
4403.100046535897
 21
-183.7839595717006
 31
0.0
  0
LINE
  5
230DB
330
18
100
AcDbEntity
  8
01
100
AcDbLine
 10
4407.100046535897
 20
-182.9839688788823
 30
0.0
 11
4406.600046535897
 21
-182.8839677154846
 31
0.0
  0
LINE
  5
230DC
330
18
100
AcDbEntity
  8
01
100
AcDbLine
 10
4403.100046535897
 20
-183.7839595717006
 30
0.0
 11
4407.100046535897
 21
-182.9839688788823
 31
0.0
  0
LINE
  5
230DD
330
18
100
AcDbEntity
  8
01
100
AcDbLine
 10
4403.600046535897
 20
-182.2839607350981
 30
0.0
 11
4403.100046535897
 21
-182.1839595717004
 31
0.0
  0
LINE
  5
230DE
330
18
100
AcDbEntity
  8
01
100
AcDbLine
 10
4407.100046535897
 20
-186.1839688788866
 30
0.0
 11
4406.600046535897
 21
-186.0839677154889
 31
0.0
  0
LINE
  5
230DF
330
18
100
AcDbEntity
  8
01
100
AcDbLine
 10
4403.600046535897
 20
-185.4839607350982
 30
0.0
 11
4403.100046535897
 21
-185.3839595717005
 31
0.0
  0
LINE
  5
230E0
330
18
100
AcDbEntity
  8
01
100
AcDbLine
 10
4401.099999999999
 20
-188.9839549178853
 30
0.0
 11
4409.099999999999
 21
-188.9839735322444
 31
0.0
  0
LINE
  5
230E1
330
18
100
AcDbEntity
  8
01
100
AcDbLine
 10
4403.600046535897
 20
-180.6839607350938
 30
0.0
 11
4403.100046535897
 21
-180.5839595716961
 31
0.0
  0
LINE
  5
230E2
330
18
100
AcDbEntity
  8
01
100
AcDbLine
 10
4403.600046535897
 20
-179.0839607350894
 30
0.0
 11
4403.100046535897
 21
-178.9839595716917
 31
0.0
  0
LINE
  5
230E3
330
18
100
AcDbEntity
  8
01
100
AcDbLine
 10
4407.100046535897
 20
-179.7839688788778
 30
0.0
 11
4406.600046535897
 21
-179.6839677154802
 31
0.0
  0
LINE
  5
230E4
330
18
100
AcDbEntity
  8
01
100
AcDbLine
 10
4403.600046535897
 20
-175.8839607350894
 30
0.0
 11
4403.100046535897
 21
-175.7839595716917
 31
0.0
  0
LINE
  5
230E5
330
18
100
AcDbEntity
  8
01
100
AcDbLine
 10
4403.100046535897
 20
-177.3839595716918
 30
0.0
 11
4407.100046535897
 21
-176.5839688788736
 31
0.0
  0
LINE
  5
230E6
330
18
100
AcDbEntity
  8
01
100
AcDbLine
 10
4407.100046535897
 20
-176.5839688788736
 30
0.0
 11
4406.600046535897
 21
-176.4839677154759
 31
0.0
  0
LINE
  5
230E7
330
18
100
AcDbEntity
  8
01
100
AcDbLine
 10
4403.600046535897
 20
-177.4839607350895
 30
0.0
 11
4403.100046535897
 21
-177.3839595716918
 31
0.0
  0
LINE
  5
230E8
330
18
100
AcDbEntity
  8
01
100
AcDbLine
 10
4407.100046535897
 20
-178.1839688788735
 30
0.0
 11
4406.600046535897
 21
-178.0839677154758
 31
0.0
  0
LINE
  5
230E9
330
18
100
AcDbEntity
  8
01
100
AcDbLine
 10
4407.100046535897
 20
-173.3839688788691
 30
0.0
 11
4406.600046535897
 21
-173.283967715472
 31
0.0
  0
LINE
  5
230EA
330
18
100
AcDbEntity
  8
01
100
AcDbLine
 10
4407.100046535897
 20
-174.9839688788734
 30
0.0
 11
4406.600046535897
 21
-174.8839677154758
 31
0.0
  0
LINE
  5
230EB
330
18
100
AcDbEntity
  8
01
100
AcDbLine
 10
4403.600046535897
 20
-174.2839607350895
 30
0.0
 11
4403.100046535897
 21
-174.1839595716917
 31
0.0
  0
LINE
  5
230EC
330
18
100
AcDbEntity
  8
01
100
AcDbLine
 10
4403.100046535897
 20
-174.1839595716917
 30
0.0
 11
4407.100046535897
 21
-173.3839688788691
 31
0.0
  0
LINE
  5
230ED
330
18
100
AcDbEntity
  8
01
100
AcDbLine
 10
4403.100046535897
 20
-175.7839595716917
 30
0.0
 11
4407.100046535897
 21
-174.9839688788734
 31
0.0
  0
LINE
  5
230EE
330
18
100
AcDbEntity
  8
01
100
AcDbLine
 10
4403.100046535897
 20
-178.9839595716917
 30
0.0
 11
4407.100046535897
 21
-178.1839688788735
 31
0.0
  0
LINE
  5
230EF
330
18
100
AcDbEntity
  8
01
100
AcDbLine
 10
4403.100046535897
 20
-180.5839595716961
 30
0.0
 11
4407.100046535897
 21
-179.7839688788778
 31
0.0
  0
LINE
  5
230F1
330
18
100
AcDbEntity
  8
1CENTER
100
AcDbLine
 10
4265.0
 20
-152.8294680344279
 30
0.0
 11
4265.0
 21
-190.6626010818026
 31
0.0
  0
LINE
  5
230F2
330
18
100
AcDbEntity
  8
01
100
AcDbLine
 10
4263.500046535898
 20
-161.4839607350887
 30
0.0
 11
4263.000046535898
 21
-161.3839595716916
 31
0.0
  0
LINE
  5
230F3
330
18
100
AcDbEntity
  8
01
100
AcDbLine
 10
4263.000046535898
 20
-161.3839595716916
 30
0.0
 11
4267.000046535898
 21
-160.583968878869
 31
0.0
  0
LINE
  5
230F4
330
18
100
AcDbEntity
  8
01
100
AcDbLine
 10
4267.000046535898
 20
-160.583968878869
 30
0.0
 11
4266.500046535898
 21
-160.4839677154719
 31
0.0
  0
LINE
  5
230F5
330
18
100
AcDbEntity
  8
01
100
AcDbLine
 10
4263.500046535898
 20
-163.0839607350887
 30
0.0
 11
4263.000046535898
 21
-162.9839595716916
 31
0.0
  0
LINE
  5
230F6
330
18
100
AcDbEntity
  8
01
100
AcDbLine
 10
4267.000046535898
 20
-162.1839688788691
 30
0.0
 11
4266.500046535898
 21
-162.0839677154719
 31
0.0
  0
LINE
  5
230F7
330
18
100
AcDbEntity
  8
01
100
AcDbLine
 10
4263.000046535898
 20
-162.9839595716916
 30
0.0
 11
4267.000046535898
 21
-162.1839688788691
 31
0.0
  0
LINE
  5
230F8
330
18
100
AcDbEntity
  8
01
100
AcDbLine
 10
4263.500046535898
 20
-164.6839607350888
 30
0.0
 11
4263.000046535898
 21
-164.5839595716917
 31
0.0
  0
LINE
  5
230F9
330
18
100
AcDbEntity
  8
01
100
AcDbLine
 10
4263.000046535898
 20
-164.5839595716917
 30
0.0
 11
4267.000046535898
 21
-163.7839688788691
 31
0.0
  0
LINE
  5
230FA
330
18
100
AcDbEntity
  8
01
100
AcDbLine
 10
4267.000046535898
 20
-163.7839688788691
 30
0.0
 11
4266.500046535898
 21
-163.683967715472
 31
0.0
  0
LINE
  5
230FB
330
18
100
AcDbEntity
  8
01
100
AcDbLine
 10
4263.500046535898
 20
-172.6839607350889
 30
0.0
 11
4263.000046535898
 21
-172.5839595716918
 31
0.0
  0
LINE
  5
230FC
330
18
100
AcDbEntity
  8
01
100
AcDbLine
 10
4267.000046535898
 20
-171.7839688788692
 30
0.0
 11
4266.500046535898
 21
-171.683967715472
 31
0.0
  0
LINE
  5
230FD
330
18
100
AcDbEntity
  8
01
100
AcDbLine
 10
4267.000046535898
 20
-170.1839688788691
 30
0.0
 11
4266.500046535898
 21
-170.0839677154719
 31
0.0
  0
LINE
  5
230FE
330
18
100
AcDbEntity
  8
01
100
AcDbLine
 10
4263.500046535898
 20
-171.0839607350887
 30
0.0
 11
4263.000046535898
 21
-170.9839595716916
 31
0.0
  0
LINE
  5
230FF
330
18
100
AcDbEntity
  8
01
100
AcDbLine
 10
4263.500046535898
 20
-169.4839607350888
 30
0.0
 11
4263.000046535898
 21
-169.3839595716917
 31
0.0
  0
LINE
  5
23100
330
18
100
AcDbEntity
  8
01
100
AcDbLine
 10
4263.000046535898
 20
-170.9839595716916
 30
0.0
 11
4267.000046535898
 21
-170.1839688788691
 31
0.0
  0
LINE
  5
23101
330
18
100
AcDbEntity
  8
01
100
AcDbLine
 10
4263.000046535898
 20
-172.5839595716918
 30
0.0
 11
4267.000046535898
 21
-171.7839688788692
 31
0.0
  0
LINE
  5
23102
330
18
100
AcDbEntity
  8
01
100
AcDbLine
 10
4263.500046535898
 20
-167.8839607350889
 30
0.0
 11
4263.000046535898
 21
-167.7839595716917
 31
0.0
  0
LINE
  5
23103
330
18
100
AcDbEntity
  8
01
100
AcDbLine
 10
4263.500046535898
 20
-159.6839607350889
 30
0.0
 11
4263.000046535898
 21
-159.5839595716918
 31
0.0
  0
LINE
  5
23104
330
18
100
AcDbEntity
  8
01
100
AcDbLine
 10
4263.000046535898
 20
-159.5839595716918
 30
0.0
 11
4266.773639483694
 21
-158.7839683520665
 31
0.0
  0
LINE
  5
23105
330
18
100
AcDbEntity
  8
01
100
AcDbLine
 10
4266.773639483694
 20
-158.7839683520665
 30
0.0
 11
4266.237045748423
 21
-158.6546976544366
 31
0.0
  0
LINE
  5
23106
330
18
100
AcDbEntity
  8
01
100
AcDbLine
 10
4267.000046535898
 20
-166.9839688788691
 30
0.0
 11
4266.500046535898
 21
-166.8839677154721
 31
0.0
  0
LINE
  5
23107
330
18
100
AcDbEntity
  8
01
100
AcDbLine
 10
4267.000046535898
 20
-165.3839688788691
 30
0.0
 11
4266.500046535898
 21
-165.283967715472
 31
0.0
  0
LINE
  5
23108
330
18
100
AcDbEntity
  8
01
100
AcDbLine
 10
4263.500046535898
 20
-166.2839607350888
 30
0.0
 11
4263.000046535898
 21
-166.1839595716917
 31
0.0
  0
LINE
  5
23109
330
18
100
AcDbEntity
  8
01
100
AcDbLine
 10
4263.000046535898
 20
-166.1839595716917
 30
0.0
 11
4267.000046535898
 21
-165.3839688788691
 31
0.0
  0
LINE
  5
2310A
330
18
100
AcDbEntity
  8
01
100
AcDbLine
 10
4263.000046535898
 20
-167.7839595716917
 30
0.0
 11
4267.000046535898
 21
-166.9839688788691
 31
0.0
  0
LINE
  5
2310B
330
18
100
AcDbEntity
  8
01
100
AcDbLine
 10
4263.452862677957
 20
-157.9839606253019
 30
0.0
 11
4266.320825379287
 21
-157.1839672984608
 31
0.0
  0
LINE
  5
2310C
330
18
100
AcDbEntity
  8
01
100
AcDbLine
 10
4263.905676186005
 20
-156.3839616789062
 30
0.0
 11
4265.868011274881
 21
-155.5839662448552
 31
0.0
  0
LINE
  5
2310D
330
18
100
AcDbEntity
  8
01
100
AcDbLine
 10
4266.320825379287
 20
-157.1839672984608
 30
0.0
 11
4265.769075915484
 21
-157.0012031558328
 31
0.0
  0
LINE
  5
2310E
330
18
100
AcDbEntity
  8
01
100
AcDbLine
 10
4264.362848026636
 20
-156.5353974753466
 30
0.0
 11
4263.905676186005
 21
-156.3839616789062
 31
0.0
  0
LINE
  5
2310F
330
18
100
AcDbEntity
  8
01
100
AcDbLine
 10
4265.868011274881
 20
-155.5839662448552
 30
0.0
 11
4265.279734699838
 21
-155.2721963886031
 31
0.0
  0
LINE
  5
23110
330
18
100
AcDbEntity
  8
01
100
AcDbLine
 10
4263.920961133107
 20
-158.096730137652
 30
0.0
 11
4263.452862677957
 21
-157.9839606253019
 31
0.0
  0
LINE
  5
23111
330
18
100
AcDbEntity
  8
01
100
AcDbLine
 10
4267.000046535898
 20
-168.5839688788691
 30
0.0
 11
4266.500046535898
 21
-168.4839677154719
 31
0.0
  0
LINE
  5
23112
330
18
100
AcDbEntity
  8
01
100
AcDbLine
 10
4263.000046535898
 20
-169.3839595716917
 30
0.0
 11
4267.000046535898
 21
-168.5839688788691
 31
0.0
  0
LINE
  5
23113
330
18
100
AcDbEntity
  8
01
100
AcDbLine
 10
4266.500046535898
 20
-186.2839677154888
 30
0.0
 11
4267.000046535898
 21
-186.1839688788866
 31
0.0
  0
LINE
  5
23114
330
18
100
AcDbEntity
  8
01
100
AcDbLine
 10
4263.000046535898
 20
-185.3839595717005
 30
0.0
 11
4267.000046535898
 21
-184.5839688788822
 31
0.0
  0
LINE
  5
23115
330
18
100
AcDbEntity
  8
01
100
AcDbLine
 10
4263.000046535898
 20
-182.1839595717004
 30
0.0
 11
4267.000046535898
 21
-181.3839688788822
 31
0.0
  0
LINE
  5
23116
330
18
100
AcDbEntity
  8
01
100
AcDbLine
 10
4267.000046535898
 20
-181.3839688788822
 30
0.0
 11
4266.500046535898
 21
-181.2839677154845
 31
0.0
  0
LINE
  5
23117
330
18
100
AcDbEntity
  8
01
100
AcDbLine
 10
4267.000046535898
 20
-184.5839688788822
 30
0.0
 11
4266.500046535898
 21
-184.4839677154845
 31
0.0
  0
LINE
  5
23118
330
18
100
AcDbEntity
  8
01
100
AcDbLine
 10
4263.500046535898
 20
-183.8839607350982
 30
0.0
 11
4263.000046535898
 21
-183.7839595717006
 31
0.0
  0
LINE
  5
23119
330
18
100
AcDbEntity
  8
01
100
AcDbLine
 10
4267.000046535898
 20
-182.9839688788823
 30
0.0
 11
4266.500046535898
 21
-182.8839677154846
 31
0.0
  0
LINE
  5
2311A
330
18
100
AcDbEntity
  8
01
100
AcDbLine
 10
4263.000046535898
 20
-183.7839595717006
 30
0.0
 11
4267.000046535898
 21
-182.9839688788823
 31
0.0
  0
LINE
  5
2311B
330
18
100
AcDbEntity
  8
01
100
AcDbLine
 10
4263.500046535898
 20
-182.2839607350981
 30
0.0
 11
4263.000046535898
 21
-182.1839595717004
 31
0.0
  0
LINE
  5
2311C
330
18
100
AcDbEntity
  8
01
100
AcDbLine
 10
4267.000046535898
 20
-186.1839688788866
 30
0.0
 11
4266.500046535898
 21
-186.0839677154889
 31
0.0
  0
LINE
  5
2311D
330
18
100
AcDbEntity
  8
01
100
AcDbLine
 10
4263.500046535898
 20
-185.4839607350982
 30
0.0
 11
4263.000046535898
 21
-185.3839595717005
 31
0.0
  0
LINE
  5
2311E
330
18
100
AcDbEntity
  8
01
100
AcDbLine
 10
4261.0
 20
-188.9839549178853
 30
0.0
 11
4269.0
 21
-188.9839735322444
 31
0.0
  0
LINE
  5
2311F
330
18
100
AcDbEntity
  8
01
100
AcDbLine
 10
4263.500046535898
 20
-180.6839607350938
 30
0.0
 11
4263.000046535898
 21
-180.5839595716961
 31
0.0
  0
LINE
  5
23120
330
18
100
AcDbEntity
  8
01
100
AcDbLine
 10
4263.500046535898
 20
-179.0839607350894
 30
0.0
 11
4263.000046535898
 21
-178.9839595716917
 31
0.0
  0
LINE
  5
23121
330
18
100
AcDbEntity
  8
01
100
AcDbLine
 10
4267.000046535898
 20
-179.7839688788778
 30
0.0
 11
4266.500046535898
 21
-179.6839677154802
 31
0.0
  0
LINE
  5
23122
330
18
100
AcDbEntity
  8
01
100
AcDbLine
 10
4263.500046535898
 20
-175.8839607350894
 30
0.0
 11
4263.000046535898
 21
-175.7839595716917
 31
0.0
  0
LINE
  5
23123
330
18
100
AcDbEntity
  8
01
100
AcDbLine
 10
4263.000046535898
 20
-177.3839595716918
 30
0.0
 11
4267.000046535898
 21
-176.5839688788736
 31
0.0
  0
LINE
  5
23124
330
18
100
AcDbEntity
  8
01
100
AcDbLine
 10
4267.000046535898
 20
-176.5839688788736
 30
0.0
 11
4266.500046535898
 21
-176.4839677154759
 31
0.0
  0
LINE
  5
23125
330
18
100
AcDbEntity
  8
01
100
AcDbLine
 10
4263.500046535898
 20
-177.4839607350895
 30
0.0
 11
4263.000046535898
 21
-177.3839595716918
 31
0.0
  0
LINE
  5
23126
330
18
100
AcDbEntity
  8
01
100
AcDbLine
 10
4267.000046535898
 20
-178.1839688788735
 30
0.0
 11
4266.500046535898
 21
-178.0839677154758
 31
0.0
  0
LINE
  5
23127
330
18
100
AcDbEntity
  8
01
100
AcDbLine
 10
4267.000046535898
 20
-173.3839688788691
 30
0.0
 11
4266.500046535898
 21
-173.283967715472
 31
0.0
  0
LINE
  5
23128
330
18
100
AcDbEntity
  8
01
100
AcDbLine
 10
4267.000046535898
 20
-174.9839688788734
 30
0.0
 11
4266.500046535898
 21
-174.8839677154758
 31
0.0
  0
LINE
  5
23129
330
18
100
AcDbEntity
  8
01
100
AcDbLine
 10
4263.500046535898
 20
-174.2839607350895
 30
0.0
 11
4263.000046535898
 21
-174.1839595716917
 31
0.0
  0
LINE
  5
2312A
330
18
100
AcDbEntity
  8
01
100
AcDbLine
 10
4263.000046535898
 20
-174.1839595716917
 30
0.0
 11
4267.000046535898
 21
-173.3839688788691
 31
0.0
  0
LINE
  5
2312B
330
18
100
AcDbEntity
  8
01
100
AcDbLine
 10
4263.000046535898
 20
-175.7839595716917
 30
0.0
 11
4267.000046535898
 21
-174.9839688788734
 31
0.0
  0
LINE
  5
2312C
330
18
100
AcDbEntity
  8
01
100
AcDbLine
 10
4263.000046535898
 20
-178.9839595716917
 30
0.0
 11
4267.000046535898
 21
-178.1839688788735
 31
0.0
  0
LINE
  5
2312D
330
18
100
AcDbEntity
  8
01
100
AcDbLine
 10
4263.000046535898
 20
-180.5839595716961
 30
0.0
 11
4267.000046535898
 21
-179.7839688788778
 31
0.0
  0
LINE
  5
2312F
330
18
100
AcDbEntity
  8
1CENTER
100
AcDbLine
 10
4125.0
 20
-152.8294680344279
 30
0.0
 11
4125.0
 21
-190.6626010818026
 31
0.0
  0
LINE
  5
23130
330
18
100
AcDbEntity
  8
01
100
AcDbLine
 10
4123.500046535898
 20
-161.4839607350887
 30
0.0
 11
4123.000046535898
 21
-161.3839595716916
 31
0.0
  0
LINE
  5
23131
330
18
100
AcDbEntity
  8
01
100
AcDbLine
 10
4123.000046535898
 20
-161.3839595716916
 30
0.0
 11
4127.000046535898
 21
-160.583968878869
 31
0.0
  0
LINE
  5
23132
330
18
100
AcDbEntity
  8
01
100
AcDbLine
 10
4127.000046535898
 20
-160.583968878869
 30
0.0
 11
4126.500046535898
 21
-160.4839677154719
 31
0.0
  0
LINE
  5
23133
330
18
100
AcDbEntity
  8
01
100
AcDbLine
 10
4123.500046535898
 20
-163.0839607350887
 30
0.0
 11
4123.000046535898
 21
-162.9839595716916
 31
0.0
  0
LINE
  5
23134
330
18
100
AcDbEntity
  8
01
100
AcDbLine
 10
4127.000046535898
 20
-162.1839688788691
 30
0.0
 11
4126.500046535898
 21
-162.0839677154719
 31
0.0
  0
LINE
  5
23135
330
18
100
AcDbEntity
  8
01
100
AcDbLine
 10
4123.000046535898
 20
-162.9839595716916
 30
0.0
 11
4127.000046535898
 21
-162.1839688788691
 31
0.0
  0
LINE
  5
23136
330
18
100
AcDbEntity
  8
01
100
AcDbLine
 10
4123.500046535898
 20
-164.6839607350888
 30
0.0
 11
4123.000046535898
 21
-164.5839595716917
 31
0.0
  0
LINE
  5
23137
330
18
100
AcDbEntity
  8
01
100
AcDbLine
 10
4123.000046535898
 20
-164.5839595716917
 30
0.0
 11
4127.000046535898
 21
-163.7839688788691
 31
0.0
  0
LINE
  5
23138
330
18
100
AcDbEntity
  8
01
100
AcDbLine
 10
4127.000046535898
 20
-163.7839688788691
 30
0.0
 11
4126.500046535898
 21
-163.683967715472
 31
0.0
  0
LINE
  5
23139
330
18
100
AcDbEntity
  8
01
100
AcDbLine
 10
4123.500046535898
 20
-172.6839607350889
 30
0.0
 11
4123.000046535898
 21
-172.5839595716918
 31
0.0
  0
LINE
  5
2313A
330
18
100
AcDbEntity
  8
01
100
AcDbLine
 10
4127.000046535898
 20
-171.7839688788692
 30
0.0
 11
4126.500046535898
 21
-171.683967715472
 31
0.0
  0
LINE
  5
2313B
330
18
100
AcDbEntity
  8
01
100
AcDbLine
 10
4127.000046535898
 20
-170.1839688788691
 30
0.0
 11
4126.500046535898
 21
-170.0839677154719
 31
0.0
  0
LINE
  5
2313C
330
18
100
AcDbEntity
  8
01
100
AcDbLine
 10
4123.500046535898
 20
-171.0839607350887
 30
0.0
 11
4123.000046535898
 21
-170.9839595716916
 31
0.0
  0
LINE
  5
2313D
330
18
100
AcDbEntity
  8
01
100
AcDbLine
 10
4123.500046535898
 20
-169.4839607350888
 30
0.0
 11
4123.000046535898
 21
-169.3839595716917
 31
0.0
  0
LINE
  5
2313E
330
18
100
AcDbEntity
  8
01
100
AcDbLine
 10
4123.000046535898
 20
-170.9839595716916
 30
0.0
 11
4127.000046535898
 21
-170.1839688788691
 31
0.0
  0
LINE
  5
2313F
330
18
100
AcDbEntity
  8
01
100
AcDbLine
 10
4123.000046535898
 20
-172.5839595716918
 30
0.0
 11
4127.000046535898
 21
-171.7839688788692
 31
0.0
  0
LINE
  5
23140
330
18
100
AcDbEntity
  8
01
100
AcDbLine
 10
4123.500046535898
 20
-167.8839607350889
 30
0.0
 11
4123.000046535898
 21
-167.7839595716917
 31
0.0
  0
LINE
  5
23141
330
18
100
AcDbEntity
  8
01
100
AcDbLine
 10
4123.500046535898
 20
-159.6839607350889
 30
0.0
 11
4123.000046535898
 21
-159.5839595716918
 31
0.0
  0
LINE
  5
23142
330
18
100
AcDbEntity
  8
01
100
AcDbLine
 10
4123.000046535898
 20
-159.5839595716918
 30
0.0
 11
4126.773639483694
 21
-158.7839683520665
 31
0.0
  0
LINE
  5
23143
330
18
100
AcDbEntity
  8
01
100
AcDbLine
 10
4126.773639483694
 20
-158.7839683520665
 30
0.0
 11
4126.237045748423
 21
-158.6546976544366
 31
0.0
  0
LINE
  5
23144
330
18
100
AcDbEntity
  8
01
100
AcDbLine
 10
4127.000046535898
 20
-166.9839688788691
 30
0.0
 11
4126.500046535898
 21
-166.8839677154721
 31
0.0
  0
LINE
  5
23145
330
18
100
AcDbEntity
  8
01
100
AcDbLine
 10
4127.000046535898
 20
-165.3839688788691
 30
0.0
 11
4126.500046535898
 21
-165.283967715472
 31
0.0
  0
LINE
  5
23146
330
18
100
AcDbEntity
  8
01
100
AcDbLine
 10
4123.500046535898
 20
-166.2839607350888
 30
0.0
 11
4123.000046535898
 21
-166.1839595716917
 31
0.0
  0
LINE
  5
23147
330
18
100
AcDbEntity
  8
01
100
AcDbLine
 10
4123.000046535898
 20
-166.1839595716917
 30
0.0
 11
4127.000046535898
 21
-165.3839688788691
 31
0.0
  0
LINE
  5
23148
330
18
100
AcDbEntity
  8
01
100
AcDbLine
 10
4123.000046535898
 20
-167.7839595716917
 30
0.0
 11
4127.000046535898
 21
-166.9839688788691
 31
0.0
  0
LINE
  5
23149
330
18
100
AcDbEntity
  8
01
100
AcDbLine
 10
4123.452862677957
 20
-157.9839606253019
 30
0.0
 11
4126.320825379287
 21
-157.1839672984608
 31
0.0
  0
LINE
  5
2314A
330
18
100
AcDbEntity
  8
01
100
AcDbLine
 10
4123.905676186005
 20
-156.3839616789062
 30
0.0
 11
4125.868011274881
 21
-155.5839662448552
 31
0.0
  0
LINE
  5
2314B
330
18
100
AcDbEntity
  8
01
100
AcDbLine
 10
4126.320825379287
 20
-157.1839672984608
 30
0.0
 11
4125.769075915484
 21
-157.0012031558328
 31
0.0
  0
LINE
  5
2314C
330
18
100
AcDbEntity
  8
01
100
AcDbLine
 10
4124.362848026636
 20
-156.5353974753466
 30
0.0
 11
4123.905676186005
 21
-156.3839616789062
 31
0.0
  0
LINE
  5
2314D
330
18
100
AcDbEntity
  8
01
100
AcDbLine
 10
4125.868011274881
 20
-155.5839662448552
 30
0.0
 11
4125.279734699838
 21
-155.2721963886031
 31
0.0
  0
LINE
  5
2314E
330
18
100
AcDbEntity
  8
01
100
AcDbLine
 10
4123.920961133107
 20
-158.096730137652
 30
0.0
 11
4123.452862677957
 21
-157.9839606253019
 31
0.0
  0
LINE
  5
2314F
330
18
100
AcDbEntity
  8
01
100
AcDbLine
 10
4127.000046535898
 20
-168.5839688788691
 30
0.0
 11
4126.500046535898
 21
-168.4839677154719
 31
0.0
  0
LINE
  5
23150
330
18
100
AcDbEntity
  8
01
100
AcDbLine
 10
4123.000046535898
 20
-169.3839595716917
 30
0.0
 11
4127.000046535898
 21
-168.5839688788691
 31
0.0
  0
LINE
  5
23151
330
18
100
AcDbEntity
  8
01
100
AcDbLine
 10
4126.500046535898
 20
-186.2839677154888
 30
0.0
 11
4127.000046535898
 21
-186.1839688788866
 31
0.0
  0
LINE
  5
23152
330
18
100
AcDbEntity
  8
01
100
AcDbLine
 10
4123.000046535898
 20
-185.3839595717005
 30
0.0
 11
4127.000046535898
 21
-184.5839688788822
 31
0.0
  0
LINE
  5
23153
330
18
100
AcDbEntity
  8
01
100
AcDbLine
 10
4123.000046535898
 20
-182.1839595717004
 30
0.0
 11
4127.000046535898
 21
-181.3839688788822
 31
0.0
  0
LINE
  5
23154
330
18
100
AcDbEntity
  8
01
100
AcDbLine
 10
4127.000046535898
 20
-181.3839688788822
 30
0.0
 11
4126.500046535898
 21
-181.2839677154845
 31
0.0
  0
LINE
  5
23155
330
18
100
AcDbEntity
  8
01
100
AcDbLine
 10
4127.000046535898
 20
-184.5839688788822
 30
0.0
 11
4126.500046535898
 21
-184.4839677154845
 31
0.0
  0
LINE
  5
23156
330
18
100
AcDbEntity
  8
01
100
AcDbLine
 10
4123.500046535898
 20
-183.8839607350982
 30
0.0
 11
4123.000046535898
 21
-183.7839595717006
 31
0.0
  0
LINE
  5
23157
330
18
100
AcDbEntity
  8
01
100
AcDbLine
 10
4127.000046535898
 20
-182.9839688788823
 30
0.0
 11
4126.500046535898
 21
-182.8839677154846
 31
0.0
  0
LINE
  5
23158
330
18
100
AcDbEntity
  8
01
100
AcDbLine
 10
4123.000046535898
 20
-183.7839595717006
 30
0.0
 11
4127.000046535898
 21
-182.9839688788823
 31
0.0
  0
LINE
  5
23159
330
18
100
AcDbEntity
  8
01
100
AcDbLine
 10
4123.500046535898
 20
-182.2839607350981
 30
0.0
 11
4123.000046535898
 21
-182.1839595717004
 31
0.0
  0
LINE
  5
2315A
330
18
100
AcDbEntity
  8
01
100
AcDbLine
 10
4127.000046535898
 20
-186.1839688788866
 30
0.0
 11
4126.500046535898
 21
-186.0839677154889
 31
0.0
  0
LINE
  5
2315B
330
18
100
AcDbEntity
  8
01
100
AcDbLine
 10
4123.500046535898
 20
-185.4839607350982
 30
0.0
 11
4123.000046535898
 21
-185.3839595717005
 31
0.0
  0
LINE
  5
2315C
330
18
100
AcDbEntity
  8
01
100
AcDbLine
 10
4121.0
 20
-188.9839549178853
 30
0.0
 11
4129.0
 21
-188.9839735322444
 31
0.0
  0
LINE
  5
2315D
330
18
100
AcDbEntity
  8
01
100
AcDbLine
 10
4123.500046535898
 20
-180.6839607350938
 30
0.0
 11
4123.000046535898
 21
-180.5839595716961
 31
0.0
  0
LINE
  5
2315E
330
18
100
AcDbEntity
  8
01
100
AcDbLine
 10
4123.500046535898
 20
-179.0839607350894
 30
0.0
 11
4123.000046535898
 21
-178.9839595716917
 31
0.0
  0
LINE
  5
2315F
330
18
100
AcDbEntity
  8
01
100
AcDbLine
 10
4127.000046535898
 20
-179.7839688788778
 30
0.0
 11
4126.500046535898
 21
-179.6839677154802
 31
0.0
  0
LINE
  5
23160
330
18
100
AcDbEntity
  8
01
100
AcDbLine
 10
4123.500046535898
 20
-175.8839607350894
 30
0.0
 11
4123.000046535898
 21
-175.7839595716917
 31
0.0
  0
LINE
  5
23161
330
18
100
AcDbEntity
  8
01
100
AcDbLine
 10
4123.000046535898
 20
-177.3839595716918
 30
0.0
 11
4127.000046535898
 21
-176.5839688788736
 31
0.0
  0
LINE
  5
23162
330
18
100
AcDbEntity
  8
01
100
AcDbLine
 10
4127.000046535898
 20
-176.5839688788736
 30
0.0
 11
4126.500046535898
 21
-176.4839677154759
 31
0.0
  0
LINE
  5
23163
330
18
100
AcDbEntity
  8
01
100
AcDbLine
 10
4123.500046535898
 20
-177.4839607350895
 30
0.0
 11
4123.000046535898
 21
-177.3839595716918
 31
0.0
  0
LINE
  5
23164
330
18
100
AcDbEntity
  8
01
100
AcDbLine
 10
4127.000046535898
 20
-178.1839688788735
 30
0.0
 11
4126.500046535898
 21
-178.0839677154758
 31
0.0
  0
LINE
  5
23165
330
18
100
AcDbEntity
  8
01
100
AcDbLine
 10
4127.000046535898
 20
-173.3839688788691
 30
0.0
 11
4126.500046535898
 21
-173.283967715472
 31
0.0
  0
LINE
  5
23166
330
18
100
AcDbEntity
  8
01
100
AcDbLine
 10
4127.000046535898
 20
-174.9839688788734
 30
0.0
 11
4126.500046535898
 21
-174.8839677154758
 31
0.0
  0
LINE
  5
23167
330
18
100
AcDbEntity
  8
01
100
AcDbLine
 10
4123.500046535898
 20
-174.2839607350895
 30
0.0
 11
4123.000046535898
 21
-174.1839595716917
 31
0.0
  0
LINE
  5
23168
330
18
100
AcDbEntity
  8
01
100
AcDbLine
 10
4123.000046535898
 20
-174.1839595716917
 30
0.0
 11
4127.000046535898
 21
-173.3839688788691
 31
0.0
  0
LINE
  5
23169
330
18
100
AcDbEntity
  8
01
100
AcDbLine
 10
4123.000046535898
 20
-175.7839595716917
 30
0.0
 11
4127.000046535898
 21
-174.9839688788734
 31
0.0
  0
LINE
  5
2316A
330
18
100
AcDbEntity
  8
01
100
AcDbLine
 10
4123.000046535898
 20
-178.9839595716917
 30
0.0
 11
4127.000046535898
 21
-178.1839688788735
 31
0.0
  0
LINE
  5
2316B
330
18
100
AcDbEntity
  8
01
100
AcDbLine
 10
4123.000046535898
 20
-180.5839595716961
 30
0.0
 11
4127.000046535898
 21
-179.7839688788778
 31
0.0
  0
LINE
  5
2316C
330
18
100
AcDbEntity
  8
01
100
AcDbLine
 10
4543.600046535897
 20
-159.5839607350894
 30
0.0
 11
4543.600046535897
 21
-186.4839258332132
 31
0.0
  0
LINE
  5
2316D
330
18
100
AcDbEntity
  8
01
100
AcDbLine
 10
4543.600046535897
 20
-186.4839258332132
 30
0.0
 11
4541.099999999999
 21
-188.9839549178853
 31
0.0
  0
LINE
  5
2316E
330
18
100
AcDbEntity
  8
01
100
AcDbLine
 10
4541.099999999999
 20
-188.9839549178853
 30
0.0
 11
4541.099999999999
 21
-189.2839549178863
 31
0.0
  0
LINE
  5
2316F
330
18
100
AcDbEntity
  8
01
100
AcDbLine
 10
4541.099999999999
 20
-189.2839549178863
 30
0.0
 11
4549.099999999999
 21
-189.2839735322455
 31
0.0
  0
LINE
  5
23170
330
18
100
AcDbEntity
  8
01
100
AcDbLine
 10
4549.099999999999
 20
-189.2839735322455
 30
0.0
 11
4549.099999999999
 21
-188.9839735322444
 31
0.0
  0
LINE
  5
23171
330
18
100
AcDbEntity
  8
01
100
AcDbLine
 10
4549.099999999999
 20
-188.9839735322444
 30
0.0
 11
4546.600046535897
 21
-186.4839909835784
 31
0.0
  0
LINE
  5
23172
330
18
100
AcDbEntity
  8
01
100
AcDbLine
 10
4546.600046535897
 20
-186.4839909835784
 30
0.0
 11
4546.600046535897
 21
-159.5839677154737
 31
0.0
  0
LINE
  5
23173
330
18
100
AcDbEntity
  8
01
100
AcDbLine
 10
4546.600046535897
 20
-159.5839677154737
 30
0.0
 11
4545.100046535897
 21
-154.2839642252283
 31
0.0
  0
LINE
  5
23174
330
18
100
AcDbEntity
  8
01
100
AcDbLine
 10
4545.100046535897
 20
-154.2839642252283
 30
0.0
 11
4543.600046535897
 21
-159.5839607350894
 31
0.0
  0
LINE
  5
23175
330
18
100
AcDbEntity
  8
01
100
AcDbLine
 10
4830.76254359732
 20
-577.5317355159776
 30
0.0
 11
4803.862578499195
 21
-577.5317355159776
 31
0.0
  0
LINE
  5
23176
330
18
100
AcDbEntity
  8
01
100
AcDbLine
 10
4803.862578499195
 20
-577.5317355159776
 30
0.0
 11
4801.362549414524
 21
-575.0316889800797
 31
0.0
  0
LINE
  5
23177
330
18
100
AcDbEntity
  8
01
100
AcDbLine
 10
4801.362549414524
 20
-575.0316889800797
 30
0.0
 11
4801.062549414522
 21
-575.0316889800797
 31
0.0
  0
LINE
  5
23178
330
18
100
AcDbEntity
  8
01
100
AcDbLine
 10
4801.062549414522
 20
-575.0316889800797
 30
0.0
 11
4801.062530800164
 21
-583.0316889800797
 31
0.0
  0
LINE
  5
23179
330
18
100
AcDbEntity
  8
01
100
AcDbLine
 10
4801.062530800164
 20
-583.0316889800797
 30
0.0
 11
4801.362530800165
 21
-583.0316889800797
 31
0.0
  0
LINE
  5
2317A
330
18
100
AcDbEntity
  8
01
100
AcDbLine
 10
4801.362530800165
 20
-583.0316889800797
 30
0.0
 11
4803.86251334883
 21
-580.5317355159776
 31
0.0
  0
LINE
  5
2317B
330
18
100
AcDbEntity
  8
01
100
AcDbLine
 10
4803.86251334883
 20
-580.5317355159776
 30
0.0
 11
4830.762536616935
 21
-580.5317355159776
 31
0.0
  0
LINE
  5
2317C
330
18
100
AcDbEntity
  8
01
100
AcDbLine
 10
4830.762536616935
 20
-580.5317355159776
 30
0.0
 11
4836.06254010718
 21
-579.0317355159776
 31
0.0
  0
LINE
  5
2317D
330
18
100
AcDbEntity
  8
01
100
AcDbLine
 10
4836.06254010718
 20
-579.0317355159776
 30
0.0
 11
4830.76254359732
 21
-577.5317355159776
 31
0.0
  0
LINE
  5
2317E
330
18
100
AcDbEntity
  8
01
100
AcDbLine
 10
4830.76254359732
 20
-501.6000365458539
 30
0.0
 11
4803.862578499195
 21
-501.6000365458539
 31
0.0
  0
LINE
  5
2317F
330
18
100
AcDbEntity
  8
01
100
AcDbLine
 10
4803.862578499195
 20
-501.6000365458539
 30
0.0
 11
4801.362549414524
 21
-499.0999900099559
 31
0.0
  0
LINE
  5
23180
330
18
100
AcDbEntity
  8
01
100
AcDbLine
 10
4801.362549414524
 20
-499.0999900099559
 30
0.0
 11
4801.062549414522
 21
-499.0999900099559
 31
0.0
  0
LINE
  5
23181
330
18
100
AcDbEntity
  8
01
100
AcDbLine
 10
4801.062549414522
 20
-499.0999900099559
 30
0.0
 11
4801.062530800164
 21
-507.0999900099559
 31
0.0
  0
LINE
  5
23182
330
18
100
AcDbEntity
  8
01
100
AcDbLine
 10
4801.062530800164
 20
-507.0999900099559
 30
0.0
 11
4801.362530800165
 21
-507.0999900099559
 31
0.0
  0
LINE
  5
23183
330
18
100
AcDbEntity
  8
01
100
AcDbLine
 10
4801.362530800165
 20
-507.0999900099559
 30
0.0
 11
4803.86251334883
 21
-504.6000365458539
 31
0.0
  0
LINE
  5
23184
330
18
100
AcDbEntity
  8
01
100
AcDbLine
 10
4803.86251334883
 20
-504.6000365458539
 30
0.0
 11
4830.762536616935
 21
-504.6000365458539
 31
0.0
  0
LINE
  5
23185
330
18
100
AcDbEntity
  8
01
100
AcDbLine
 10
4830.762536616935
 20
-504.6000365458539
 30
0.0
 11
4836.06254010718
 21
-503.1000365458539
 31
0.0
  0
LINE
  5
23186
330
18
100
AcDbEntity
  8
01
100
AcDbLine
 10
4836.06254010718
 20
-503.1000365458539
 30
0.0
 11
4830.76254359732
 21
-501.6000365458539
 31
0.0
  0
LINE
  5
23187
330
18
100
AcDbEntity
  8
01
100
AcDbLine
 10
4403.600046535897
 20
-159.5839607350894
 30
0.0
 11
4403.600046535897
 21
-186.4839258332132
 31
0.0
  0
LINE
  5
23188
330
18
100
AcDbEntity
  8
01
100
AcDbLine
 10
4403.600046535897
 20
-186.4839258332132
 30
0.0
 11
4401.099999999999
 21
-188.9839549178853
 31
0.0
  0
LINE
  5
23189
330
18
100
AcDbEntity
  8
01
100
AcDbLine
 10
4401.099999999999
 20
-188.9839549178853
 30
0.0
 11
4401.099999999999
 21
-189.2839549178863
 31
0.0
  0
LINE
  5
2318A
330
18
100
AcDbEntity
  8
01
100
AcDbLine
 10
4401.099999999999
 20
-189.2839549178863
 30
0.0
 11
4409.099999999999
 21
-189.2839735322455
 31
0.0
  0
LINE
  5
2318B
330
18
100
AcDbEntity
  8
01
100
AcDbLine
 10
4409.099999999999
 20
-189.2839735322455
 30
0.0
 11
4409.099999999999
 21
-188.9839735322444
 31
0.0
  0
LINE
  5
2318C
330
18
100
AcDbEntity
  8
01
100
AcDbLine
 10
4409.099999999999
 20
-188.9839735322444
 30
0.0
 11
4406.600046535897
 21
-186.4839909835784
 31
0.0
  0
LINE
  5
2318D
330
18
100
AcDbEntity
  8
01
100
AcDbLine
 10
4406.600046535897
 20
-186.4839909835784
 30
0.0
 11
4406.600046535897
 21
-159.5839677154737
 31
0.0
  0
LINE
  5
2318E
330
18
100
AcDbEntity
  8
01
100
AcDbLine
 10
4406.600046535897
 20
-159.5839677154737
 30
0.0
 11
4405.100046535897
 21
-154.2839642252283
 31
0.0
  0
LINE
  5
2318F
330
18
100
AcDbEntity
  8
01
100
AcDbLine
 10
4405.100046535897
 20
-154.2839642252283
 30
0.0
 11
4403.600046535897
 21
-159.5839607350894
 31
0.0
  0
LINE
  5
23190
330
18
100
AcDbEntity
  8
01
100
AcDbLine
 10
4263.500046535898
 20
-159.5839607350894
 30
0.0
 11
4263.500046535898
 21
-186.4839258332132
 31
0.0
  0
LINE
  5
23191
330
18
100
AcDbEntity
  8
01
100
AcDbLine
 10
4263.500046535898
 20
-186.4839258332132
 30
0.0
 11
4261.0
 21
-188.9839549178853
 31
0.0
  0
LINE
  5
23192
330
18
100
AcDbEntity
  8
01
100
AcDbLine
 10
4261.0
 20
-188.9839549178853
 30
0.0
 11
4261.0
 21
-189.2839549178863
 31
0.0
  0
LINE
  5
23193
330
18
100
AcDbEntity
  8
01
100
AcDbLine
 10
4261.0
 20
-189.2839549178863
 30
0.0
 11
4269.0
 21
-189.2839735322455
 31
0.0
  0
LINE
  5
23194
330
18
100
AcDbEntity
  8
01
100
AcDbLine
 10
4269.0
 20
-189.2839735322455
 30
0.0
 11
4269.0
 21
-188.9839735322444
 31
0.0
  0
LINE
  5
23195
330
18
100
AcDbEntity
  8
01
100
AcDbLine
 10
4269.0
 20
-188.9839735322444
 30
0.0
 11
4266.500046535898
 21
-186.4839909835784
 31
0.0
  0
LINE
  5
23196
330
18
100
AcDbEntity
  8
01
100
AcDbLine
 10
4266.500046535898
 20
-186.4839909835784
 30
0.0
 11
4266.500046535898
 21
-159.5839677154737
 31
0.0
  0
LINE
  5
23197
330
18
100
AcDbEntity
  8
01
100
AcDbLine
 10
4266.500046535898
 20
-159.5839677154737
 30
0.0
 11
4265.000046535898
 21
-154.2839642252283
 31
0.0
  0
LINE
  5
23198
330
18
100
AcDbEntity
  8
01
100
AcDbLine
 10
4265.000046535898
 20
-154.2839642252283
 30
0.0
 11
4263.500046535898
 21
-159.5839607350894
 31
0.0
  0
LINE
  5
23199
330
18
100
AcDbEntity
  8
01
100
AcDbLine
 10
4123.500046535898
 20
-159.5839607350894
 30
0.0
 11
4123.500046535898
 21
-186.4839258332132
 31
0.0
  0
LINE
  5
2319A
330
18
100
AcDbEntity
  8
01
100
AcDbLine
 10
4123.500046535898
 20
-186.4839258332132
 30
0.0
 11
4121.0
 21
-188.9839549178853
 31
0.0
  0
LINE
  5
2319B
330
18
100
AcDbEntity
  8
01
100
AcDbLine
 10
4121.0
 20
-188.9839549178853
 30
0.0
 11
4121.0
 21
-189.2839549178863
 31
0.0
  0
LINE
  5
2319C
330
18
100
AcDbEntity
  8
01
100
AcDbLine
 10
4121.0
 20
-189.2839549178863
 30
0.0
 11
4129.0
 21
-189.2839735322455
 31
0.0
  0
LINE
  5
2319D
330
18
100
AcDbEntity
  8
01
100
AcDbLine
 10
4129.0
 20
-189.2839735322455
 30
0.0
 11
4129.0
 21
-188.9839735322444
 31
0.0
  0
LINE
  5
2319E
330
18
100
AcDbEntity
  8
01
100
AcDbLine
 10
4129.0
 20
-188.9839735322444
 30
0.0
 11
4126.500046535898
 21
-186.4839909835784
 31
0.0
  0
LINE
  5
2319F
330
18
100
AcDbEntity
  8
01
100
AcDbLine
 10
4126.500046535898
 20
-186.4839909835784
 30
0.0
 11
4126.500046535898
 21
-159.5839677154737
 31
0.0
  0
LINE
  5
231A0
330
18
100
AcDbEntity
  8
01
100
AcDbLine
 10
4126.500046535898
 20
-159.5839677154737
 30
0.0
 11
4125.000046535898
 21
-154.2839642252283
 31
0.0
  0
LINE
  5
231A1
330
18
100
AcDbEntity
  8
01
100
AcDbLine
 10
4125.000046535898
 20
-154.2839642252283
 30
0.0
 11
4123.500046535898
 21
-159.5839607350894
 31
0.0
  0
SOLID
  5
231A2
330
18
100
AcDbEntity
  8
1DIM
100
AcDbTrace
 10
4814.436781594833
 20
-489.8032789564237
 30
0.0000000000029782
 11
4814.698648151812
 21
-493.8499900099559
 31
0.0000000000029782
 12
4813.138489715686
 22
-490.1069497886079
 32
0.0000000000029782
 13
4813.138489715686
 23
-490.1069497886079
 33
0.0000000000029782
1001
ACAD
1000
DSTYLE
1002
{
1070
    41
1040
4.0
1070
    45
1040
0.5
1002
}
  0
LINE
  5
231A3
330
18
100
AcDbEntity
  8
1DIM
100
AcDbLine
 10
4813.78763565526
 20
-489.9551143725158
 30
0.0000000000026182
 11
4807.162444222184
 21
-461.6302595503219
 31
0.0
1001
ACAD
1000
DSTYLE
1002
{
1070
    41
1040
4.0
1070
    45
1040
0.5
1002
}
  0
LINE
  5
231A4
330
18
100
AcDbEntity
  8
1DIM
100
AcDbLine
 10
4807.162444222184
 20
-461.6302595503219
 30
0.0
 11
4790.795777555517
 21
-461.6302595503219
 31
0.0
1001
ACAD
1000
DSTYLE
1002
{
1070
    41
1040
4.0
1070
    45
1040
0.5
1002
}
  0
TEXT
  5
231A5
330
18
100
AcDbEntity
  8
1DIM
  6
CONTINUOUS
100
AcDbText
 10
4790.795777555517
 20
-460.9302595503219
 30
0.0
 40
7.0
  1
PB
100
AcDbText
  0
SOLID
  5
231A6
330
18
100
AcDbEntity
  8
1DIM
100
AcDbTrace
 10
4822.479209801187
 20
-489.2881723315018
 30
0.0000000000029782
 11
4822.761629830215
 21
-493.3335009178651
 31
0.0000000000029782
 12
4821.182477288259
 22
-489.5984344266656
 32
0.0000000000029782
 13
4821.182477288259
 23
-489.5984344266656
 33
0.0000000000029782
1001
ACAD
1000
DSTYLE
1002
{
1070
    41
1040
4.0
1070
    45
1040
0.5
1002
}
  0
LINE
  5
231A7
330
18
100
AcDbEntity
  8
1DIM
100
AcDbLine
 10
4821.830843544723
 20
-489.4433033790837
 30
0.0000000000029782
 11
4811.239437786524
 21
-445.1767931661314
 31
0.0000000000029782
1001
ACAD
1000
DSTYLE
1002
{
1070
    41
1040
4.0
1070
    45
1040
0.5
1002
}
  0
LINE
  5
231A8
330
18
100
AcDbEntity
  8
1DIM
100
AcDbLine
 10
4811.239437786524
 20
-445.1767931661314
 30
0.0000000000029782
 11
4747.672771119857
 21
-445.1767931661314
 31
0.0000000000029782
1001
ACAD
1000
DSTYLE
1002
{
1070
    41
1040
4.0
1070
    45
1040
0.5
1002
}
  0
TEXT
  5
231A9
330
18
100
AcDbEntity
  8
1DIM
  6
CONTINUOUS
100
AcDbText
 10
4753.336197045784
 20
-444.4767931661314
 30
0.0000000000029782
 40
7.0
  1
合板9mm以上
100
AcDbText
  0
LINE
  5
231AA
330
18
100
AcDbEntity
  8
1DIM
100
AcDbLine
 10
4806.712540107346
 20
-493.8499900099559
 30
0.0
 11
4845.231107781497
 21
-493.8499900099559
 31
0.0
1001
ACAD
1000
DSTYLE
1002
{
1070
    45
1040
0.5
1070
    40
1040
2.0
1002
}
  0
LINE
  5
231AB
330
18
100
AcDbEntity
  8
1DIM
100
AcDbLine
 10
4837.517036297981
 20
-503.0999900099559
 30
0.0
 11
4845.231107781497
 21
-503.0999900099559
 31
0.0
1001
ACAD
1000
DSTYLE
1002
{
1070
    45
1040
0.5
1070
    40
1040
2.0
1002
}
  0
LINE
  5
231AC
330
18
100
AcDbEntity
  8
1DIM
100
AcDbLine
 10
4843.231107781497
 20
-493.8499900099559
 30
0.0
 11
4843.231107781497
 21
-478.7166566766227
 31
0.0
1001
ACAD
1000
DSTYLE
1002
{
1070
    45
1040
0.5
1070
    40
1040
2.0
1002
}
  0
LINE
  5
231AD
330
18
100
AcDbEntity
  8
1DIM
100
AcDbLine
 10
4843.231107781497
 20
-493.8499900099559
 30
0.0
 11
4843.231107781497
 21
-503.0999900099559
 31
0.0
1001
ACAD
1000
DSTYLE
1002
{
1070
    45
1040
0.5
1070
    40
1040
2.0
1002
}
  0
LINE
  5
231AE
330
18
100
AcDbEntity
  8
1DIM
100
AcDbLine
 10
4843.231107781497
 20
-489.8499900099559
 30
0.0
 11
4843.231107781497
 21
-485.8499900099559
 31
0.0
1001
ACAD
1000
DSTYLE
1002
{
1070
    45
1040
0.5
1070
    40
1040
2.0
1002
}
  0
LINE
  5
231AF
330
18
100
AcDbEntity
  8
1DIM
100
AcDbLine
 10
4843.231107781497
 20
-507.0999900099559
 30
0.0
 11
4843.231107781497
 21
-511.0999900099559
 31
0.0
1001
ACAD
1000
DSTYLE
1002
{
1070
    45
1040
0.5
1070
    40
1040
2.0
1002
}
  0
LINE
  5
231B3
330
18
100
AcDbEntity
  8
1DIM
100
AcDbLine
 10
4837.517036297981
 20
-503.0999900099559
 30
0.0
 11
4845.231107781497
 21
-503.0999900099559
 31
0.0
1001
ACAD
1000
DSTYLE
1002
{
1070
    70
1070
     0
1070
    69
1070
     0
1070
    45
1040
0.5
1070
    40
1040
2.0
1002
}
  0
LINE
  5
231B4
330
18
100
AcDbEntity
  8
1DIM
100
AcDbLine
 10
4837.517036297981
 20
-579.0316889800797
 30
0.0
 11
4845.231107781497
 21
-579.0316889800797
 31
0.0
1001
ACAD
1000
DSTYLE
1002
{
1070
    70
1070
     0
1070
    69
1070
     0
1070
    45
1040
0.5
1070
    40
1040
2.0
1002
}
  0
LINE
  5
231B5
330
18
100
AcDbEntity
  8
1DIM
100
AcDbLine
 10
4843.231107781497
 20
-507.0999900099559
 30
0.0
 11
4843.231107781497
 21
-575.0316889800797
 31
0.0
1001
ACAD
1000
DSTYLE
1002
{
1070
    70
1070
     0
1070
    69
1070
     0
1070
    45
1040
0.5
1070
    40
1040
2.0
1002
}
  0
LINE
  5
231B9
330
18
100
AcDbEntity
  8
1DIM
100
AcDbLine
 10
4572.212540107346
 20
-496.3499900099559
 30
0.0
 11
4572.212540107346
 21
-474.080770628303
 31
0.0
1001
ACAD
1000
DSTYLE
1002
{
1070
    40
1040
2.0
1002
}
  0
LINE
  5
231BA
330
18
100
AcDbEntity
  8
1DIM
100
AcDbLine
 10
4806.712540107346
 20
-493.8499900099559
 30
0.0
 11
4806.712540107346
 21
-474.080770628303
 31
0.0
1001
ACAD
1000
DSTYLE
1002
{
1070
    40
1040
2.0
1002
}
  0
LINE
  5
231BB
330
18
100
AcDbEntity
  8
1DIM
100
AcDbLine
 10
4576.212540107346
 20
-476.080770628303
 30
0.0
 11
4802.712540107346
 21
-476.080770628303
 31
0.0
1001
ACAD
1000
DSTYLE
1002
{
1070
    40
1040
2.0
1002
}
  0
LINE
  5
231BF
330
18
100
AcDbEntity
  8
1DIM
100
AcDbLine
 10
4806.712540107346
 20
-493.8499900099559
 30
0.0
 11
4857.523723289394
 21
-493.8499900099559
 31
0.0
1001
ACAD
1000
DSTYLE
1002
{
1070
    40
1040
2.0
1002
}
  0
LINE
  5
231C0
330
18
100
AcDbEntity
  8
1DIM
100
AcDbLine
 10
4804.212540107346
 20
-593.8499900099561
 30
0.0
 11
4857.523723289394
 21
-593.8499900099561
 31
0.0
1001
ACAD
1000
DSTYLE
1002
{
1070
    40
1040
2.0
1002
}
  0
LINE
  5
231C1
330
18
100
AcDbEntity
  8
1DIM
100
AcDbLine
 10
4855.523723289394
 20
-497.8499900099559
 30
0.0
 11
4855.523723289394
 21
-589.8499900099561
 31
0.0
1001
ACAD
1000
DSTYLE
1002
{
1070
    40
1040
2.0
1002
}
  0
LINE
  5
231C5
330
18
100
AcDbEntity
  8
1DIM
100
AcDbLine
 10
4405.099999999999
 20
-495.1312400099559
 30
0.0
 11
4405.099999999999
 21
-474.231240009956
 31
0.0
1001
ACAD
1000
DSTYLE
1002
{
1070
    70
1070
     0
1070
    69
1070
     0
1070
    40
1040
2.0
1002
}
  0
LINE
  5
231C6
330
18
100
AcDbEntity
  8
1DIM
100
AcDbLine
 10
4545.099999999999
 20
-495.1312400099559
 30
0.0
 11
4545.099999999999
 21
-474.231240009956
 31
0.0
1001
ACAD
1000
DSTYLE
1002
{
1070
    70
1070
     0
1070
    69
1070
     0
1070
    40
1040
2.0
1002
}
  0
LINE
  5
231C7
330
18
100
AcDbEntity
  8
1DIM
100
AcDbLine
 10
4409.099999999999
 20
-476.231240009956
 30
0.0
 11
4541.099999999999
 21
-476.231240009956
 31
0.0
1001
ACAD
1000
DSTYLE
1002
{
1070
    70
1070
     0
1070
    69
1070
     0
1070
    40
1040
2.0
1002
}
  0
LINE
  5
231CB
330
18
100
AcDbEntity
  8
1DIM
100
AcDbLine
 10
4265.0
 20
-495.1312400099559
 30
0.0
 11
4265.0
 21
-474.231240009956
 31
0.0
1001
ACAD
1000
DSTYLE
1002
{
1070
    70
1070
     0
1070
    69
1070
     0
1070
    45
1040
0.5
1070
    40
1040
2.0
1002
}
  0
LINE
  5
231CC
330
18
100
AcDbEntity
  8
1DIM
100
AcDbLine
 10
4405.099999999999
 20
-495.1312400099559
 30
0.0
 11
4405.099999999999
 21
-474.231240009956
 31
0.0
1001
ACAD
1000
DSTYLE
1002
{
1070
    70
1070
     0
1070
    69
1070
     0
1070
    45
1040
0.5
1070
    40
1040
2.0
1002
}
  0
LINE
  5
231CD
330
18
100
AcDbEntity
  8
1DIM
100
AcDbLine
 10
4269.0
 20
-476.231240009956
 30
0.0
 11
4401.099999999999
 21
-476.231240009956
 31
0.0
1001
ACAD
1000
DSTYLE
1002
{
1070
    70
1070
     0
1070
    69
1070
     0
1070
    45
1040
0.5
1070
    40
1040
2.0
1002
}
  0
LINE
  5
231D1
330
18
100
AcDbEntity
  8
1DIM
100
AcDbLine
 10
4125.0
 20
-495.1312400099559
 30
0.0
 11
4125.0
 21
-474.231240009956
 31
0.0
1001
ACAD
1000
DSTYLE
1002
{
1070
    70
1070
     0
1070
    69
1070
     0
1070
    40
1040
2.0
1002
}
  0
LINE
  5
231D2
330
18
100
AcDbEntity
  8
1DIM
100
AcDbLine
 10
4265.0
 20
-495.1312400099559
 30
0.0
 11
4265.0
 21
-474.231240009956
 31
0.0
1001
ACAD
1000
DSTYLE
1002
{
1070
    70
1070
     0
1070
    69
1070
     0
1070
    40
1040
2.0
1002
}
  0
LINE
  5
231D3
330
18
100
AcDbEntity
  8
1DIM
100
AcDbLine
 10
4129.0
 20
-476.231240009956
 30
0.0
 11
4261.0
 21
-476.231240009956
 31
0.0
1001
ACAD
1000
DSTYLE
1002
{
1070
    70
1070
     0
1070
    69
1070
     0
1070
    40
1040
2.0
1002
}
  0
LINE
  5
231D7
330
18
100
AcDbEntity
  8
1DIM
100
AcDbLine
 10
4110.0
 20
-496.3499900099559
 30
0.0
 11
4110.0
 21
-450.649990009956
 31
0.0
1001
ACAD
1000
DSTYLE
1002
{
1070
    40
1040
2.0
1002
}
  0
LINE
  5
231D8
330
18
100
AcDbEntity
  8
1DIM
100
AcDbLine
 10
4560.0
 20
-496.3499900099559
 30
0.0
 11
4560.0
 21
-450.649990009956
 31
0.0
1001
ACAD
1000
DSTYLE
1002
{
1070
    40
1040
2.0
1002
}
  0
LINE
  5
231D9
330
18
100
AcDbEntity
  8
1DIM
100
AcDbLine
 10
4114.0
 20
-452.649990009956
 30
0.0
 11
4556.0
 21
-452.649990009956
 31
0.0
1001
ACAD
1000
DSTYLE
1002
{
1070
    40
1040
2.0
1002
}
  0
SOLID
  5
231DD
330
18
100
AcDbEntity
  8
1DIM
100
AcDbTrace
 10
4467.744926467692
 20
-556.3899983473468
 30
0.0
 11
4469.244162933704
 21
-555.0249338323549
 31
0.0
 12
4468.268689903149
 22
-556.802449930108
 32
0.0
 13
4468.268689903149
 23
-556.802449930108
 33
0.0
1001
ACAD
1000
DSTYLE
1002
{
1070
    45
1040
0.5
1002
}
  0
LINE
  5
231DE
330
18
100
AcDbEntity
  8
1DIM
100
AcDbLine
 10
4468.00680818542
 20
-556.5962241387274
 30
0.0
 11
4451.046692137262
 21
-578.1335124373267
 31
0.0
1001
ACAD
1000
DSTYLE
1002
{
1070
    45
1040
0.5
1002
}
  0
LINE
  5
231DF
330
18
100
AcDbEntity
  8
1DIM
100
AcDbLine
 10
4451.046692137262
 20
-578.1335124373267
 30
0.0
 11
4339.213358803929
 21
-578.1335124373267
 31
0.0
1001
ACAD
1000
DSTYLE
1002
{
1070
    45
1040
0.5
1002
}
  0
TEXT
  5
231E0
330
18
100
AcDbEntity
  8
1DIM
  6
CONTINUOUS
100
AcDbText
 10
4337.746692137262
 20
-565.76684577066
 30
0.0
 40
7.0
  1
材質：ステンレス/ABS樹脂
100
AcDbText
1001
ACADANNOTATIVE
1000
AnnotativeData
1002
{
1070
     1
1070
     0
1002
}
  0
TEXT
  5
231E1
330
18
100
AcDbEntity
  8
1DIM
  6
CONTINUOUS
100
AcDbText
 10
4374.146692137262
 20
-577.4335124373266
 30
0.0
 40
7.0
  1
仕上げ：各種仕上げ
100
AcDbText
1001
ACADANNOTATIVE
1000
AnnotativeData
1002
{
1070
     1
1070
     0
1002
}
  0
SOLID
  5
231E2
330
18
100
AcDbEntity
  8
1DIM
100
AcDbTrace
 10
4403.579548134854
 20
-507.5413837764881
 30
0.0
 11
4405.099999999999
 21
-506.199990009956
 31
0.0
 12
4404.096781349143
 22
-507.9619955291547
 32
0.0
 13
4404.096781349143
 23
-507.9619955291547
 33
0.0
1001
ACAD
1000
DSTYLE
1002
{
1070
    45
1040
0.5
1002
}
  0
LINE
  5
231E3
330
18
100
AcDbEntity
  8
1DIM
100
AcDbLine
 10
4403.838164741999
 20
-507.7516896528214
 30
0.0
 11
4376.842010129858
 21
-540.949306540467
 31
0.0
1001
ACAD
1000
DSTYLE
1002
{
1070
    45
1040
0.5
1002
}
  0
LINE
  5
231E4
330
18
100
AcDbEntity
  8
1DIM
100
AcDbLine
 10
4376.842010129858
 20
-540.949306540467
 30
0.0
 11
4300.175343463191
 21
-540.949306540467
 31
0.0
1001
ACAD
1000
DSTYLE
1002
{
1070
    45
1040
0.5
1002
}
  0
TEXT
  5
231E5
330
18
100
AcDbEntity
  8
1DIM
  6
CONTINUOUS
100
AcDbText
 10
4309.042010129859
 20
-528.5826398738003
 30
0.0
 40
7.0
  1
材質：ステンレス
100
AcDbText
1001
ACADANNOTATIVE
1000
AnnotativeData
1002
{
1070
     1
1070
     0
1002
}
  0
TEXT
  5
231E6
330
18
100
AcDbEntity
  8
1DIM
  6
CONTINUOUS
100
AcDbText
 10
4299.942010129858
 20
-540.2493065404669
 30
0.0
 40
7.0
  1
仕上げ：各種仕上げ
100
AcDbText
1001
ACADANNOTATIVE
1000
AnnotativeData
1002
{
1070
     1
1070
     0
1002
}
  0
LINE
  5
231E7
330
18
100
AcDbEntity
  8
0
  6
BYBLOCK
100
AcDbLine
 10
4844.302904541497
 20
-489.8499900099559
 30
0.0
 11
4843.231107781497
 21
-493.8499900099559
 31
0.0
  0
LINE
  5
231E8
330
18
100
AcDbEntity
  8
0
  6
BYBLOCK
100
AcDbLine
 10
4843.231107781497
 20
-493.8499900099559
 30
0.0
 11
4842.159311021496
 21
-489.8499900099559
 31
0.0
  0
LINE
  5
231E9
330
18
100
AcDbEntity
  8
0
  6
BYBLOCK
100
AcDbLine
 10
4843.231107781497
 20
-493.8499900099559
 30
0.0
 11
4843.231107781497
 21
-489.8499900099559
 31
0.0
  0
LINE
  5
231EA
330
18
100
AcDbEntity
  8
0
  6
BYBLOCK
100
AcDbLine
 10
4842.159311021496
 20
-507.0999900099559
 30
0.0
 11
4843.231107781497
 21
-503.0999900099559
 31
0.0
  0
LINE
  5
231EB
330
18
100
AcDbEntity
  8
0
  6
BYBLOCK
100
AcDbLine
 10
4843.231107781497
 20
-503.0999900099559
 30
0.0
 11
4844.302904541497
 21
-507.0999900099559
 31
0.0
  0
LINE
  5
231EC
330
18
100
AcDbEntity
  8
0
  6
BYBLOCK
100
AcDbLine
 10
4843.231107781497
 20
-503.0999900099559
 30
0.0
 11
4843.231107781497
 21
-507.0999900099559
 31
0.0
  0
TEXT
  5
231ED
330
18
100
AcDbEntity
  8
1DIM
  6
CONTINUOUS
100
AcDbText
 10
4841.831107781497
 20
-484.6198974173631
 30
0.0
 40
7.0
  1
9
 50
90.0
100
AcDbText
1001
ACAD
1000
DSTYLE
1002
{
1070
    45
1040
0.5
1070
    40
1040
2.0
1002
}
  0
LINE
  5
231EE
330
18
100
AcDbEntity
  8
0
  6
BYBLOCK
100
AcDbLine
 10
4842.159311021496
 20
-507.0999900099559
 30
0.0
 11
4843.231107781497
 21
-503.0999900099559
 31
0.0
  0
LINE
  5
231EF
330
18
100
AcDbEntity
  8
0
  6
BYBLOCK
100
AcDbLine
 10
4843.231107781497
 20
-503.0999900099559
 30
0.0
 11
4844.302904541497
 21
-507.0999900099559
 31
0.0
  0
LINE
  5
231F0
330
18
100
AcDbEntity
  8
0
  6
BYBLOCK
100
AcDbLine
 10
4843.231107781497
 20
-503.0999900099559
 30
0.0
 11
4843.231107781497
 21
-507.0999900099559
 31
0.0
  0
LINE
  5
231F1
330
18
100
AcDbEntity
  8
0
  6
BYBLOCK
100
AcDbLine
 10
4844.302904541497
 20
-575.0316889800797
 30
0.0
 11
4843.231107781497
 21
-579.0316889800797
 31
0.0
  0
LINE
  5
231F2
330
18
100
AcDbEntity
  8
0
  6
BYBLOCK
100
AcDbLine
 10
4843.231107781497
 20
-579.0316889800797
 30
0.0
 11
4842.159311021496
 21
-575.0316889800797
 31
0.0
  0
LINE
  5
231F3
330
18
100
AcDbEntity
  8
0
  6
BYBLOCK
100
AcDbLine
 10
4843.231107781497
 20
-579.0316889800797
 30
0.0
 11
4843.231107781497
 21
-575.0316889800797
 31
0.0
  0
TEXT
  5
231F4
330
18
100
AcDbEntity
  8
1DIM
  6
CONTINUOUS
100
AcDbText
 10
4841.831107781497
 20
-550.3991728283509
 30
0.0
 40
7.0
  1
P76
 50
90.0
100
AcDbText
1001
ACAD
1000
DSTYLE
1002
{
1070
    70
1070
     0
1070
    69
1070
     0
1070
    45
1040
0.5
1070
    40
1040
2.0
1002
}
  0
LINE
  5
231F5
330
18
100
AcDbEntity
  8
0
  6
BYBLOCK
100
AcDbLine
 10
4576.212540107346
 20
-477.152567388303
 30
0.0
 11
4572.212540107346
 21
-476.080770628303
 31
0.0
  0
LINE
  5
231F6
330
18
100
AcDbEntity
  8
0
  6
BYBLOCK
100
AcDbLine
 10
4572.212540107346
 20
-476.080770628303
 30
0.0
 11
4576.212540107346
 21
-475.008973868303
 31
0.0
  0
LINE
  5
231F7
330
18
100
AcDbEntity
  8
0
  6
BYBLOCK
100
AcDbLine
 10
4572.212540107346
 20
-476.080770628303
 30
0.0
 11
4576.212540107346
 21
-476.080770628303
 31
0.0
  0
LINE
  5
231F8
330
18
100
AcDbEntity
  8
0
  6
BYBLOCK
100
AcDbLine
 10
4802.712540107346
 20
-475.008973868303
 30
0.0
 11
4806.712540107346
 21
-476.080770628303
 31
0.0
  0
LINE
  5
231F9
330
18
100
AcDbEntity
  8
0
  6
BYBLOCK
100
AcDbLine
 10
4806.712540107346
 20
-476.080770628303
 30
0.0
 11
4802.712540107346
 21
-477.152567388303
 31
0.0
  0
LINE
  5
231FA
330
18
100
AcDbEntity
  8
0
  6
BYBLOCK
100
AcDbLine
 10
4806.712540107346
 20
-476.080770628303
 30
0.0
 11
4802.712540107346
 21
-476.080770628303
 31
0.0
  0
TEXT
  5
231FB
330
18
100
AcDbEntity
  8
1DIM
  6
CONTINUOUS
100
AcDbText
 10
4675.462540107346
 20
-474.680770628303
 30
0.0
 40
7.0
  1
234.5
100
AcDbText
1001
ACAD
1000
DSTYLE
1002
{
1070
    40
1040
2.0
1002
}
  0
LINE
  5
231FC
330
18
100
AcDbEntity
  8
0
  6
BYBLOCK
100
AcDbLine
 10
4854.451926529394
 20
-497.8499900099559
 30
0.0
 11
4855.523723289394
 21
-493.8499900099559
 31
0.0
  0
LINE
  5
231FD
330
18
100
AcDbEntity
  8
0
  6
BYBLOCK
100
AcDbLine
 10
4855.523723289394
 20
-493.8499900099559
 30
0.0
 11
4856.595520049395
 21
-497.8499900099559
 31
0.0
  0
LINE
  5
231FE
330
18
100
AcDbEntity
  8
0
  6
BYBLOCK
100
AcDbLine
 10
4855.523723289394
 20
-493.8499900099559
 30
0.0
 11
4855.523723289394
 21
-497.8499900099559
 31
0.0
  0
LINE
  5
231FF
330
18
100
AcDbEntity
  8
0
  6
BYBLOCK
100
AcDbLine
 10
4856.595520049395
 20
-589.8499900099561
 30
0.0
 11
4855.523723289394
 21
-593.8499900099561
 31
0.0
  0
LINE
  5
23200
330
18
100
AcDbEntity
  8
0
  6
BYBLOCK
100
AcDbLine
 10
4855.523723289394
 20
-593.8499900099561
 30
0.0
 11
4854.451926529394
 21
-589.8499900099561
 31
0.0
  0
LINE
  5
23201
330
18
100
AcDbEntity
  8
0
  6
BYBLOCK
100
AcDbLine
 10
4855.523723289394
 20
-593.8499900099561
 30
0.0
 11
4855.523723289394
 21
-589.8499900099561
 31
0.0
  0
TEXT
  5
23202
330
18
100
AcDbEntity
  8
1DIM
  6
CONTINUOUS
100
AcDbText
 10
4854.123723289395
 20
-550.995823343289
 30
0.0
 40
7.0
  1
100
 50
90.0
100
AcDbText
1001
ACAD
1000
DSTYLE
1002
{
1070
    40
1040
2.0
1002
}
  0
LINE
  5
23203
330
18
100
AcDbEntity
  8
0
  6
BYBLOCK
100
AcDbLine
 10
4409.099999999999
 20
-477.303036769956
 30
0.0
 11
4405.099999999999
 21
-476.231240009956
 31
0.0
  0
LINE
  5
23204
330
18
100
AcDbEntity
  8
0
  6
BYBLOCK
100
AcDbLine
 10
4405.099999999999
 20
-476.231240009956
 30
0.0
 11
4409.099999999999
 21
-475.159443249956
 31
0.0
  0
LINE
  5
23205
330
18
100
AcDbEntity
  8
0
  6
BYBLOCK
100
AcDbLine
 10
4405.099999999999
 20
-476.231240009956
 30
0.0
 11
4409.099999999999
 21
-476.231240009956
 31
0.0
  0
LINE
  5
23206
330
18
100
AcDbEntity
  8
0
  6
BYBLOCK
100
AcDbLine
 10
4541.099999999999
 20
-475.159443249956
 30
0.0
 11
4545.099999999999
 21
-476.231240009956
 31
0.0
  0
LINE
  5
23207
330
18
100
AcDbEntity
  8
0
  6
BYBLOCK
100
AcDbLine
 10
4545.099999999999
 20
-476.231240009956
 30
0.0
 11
4541.099999999999
 21
-477.303036769956
 31
0.0
  0
LINE
  5
23208
330
18
100
AcDbEntity
  8
0
  6
BYBLOCK
100
AcDbLine
 10
4545.099999999999
 20
-476.231240009956
 30
0.0
 11
4541.099999999999
 21
-476.231240009956
 31
0.0
  0
TEXT
  5
23209
330
18
100
AcDbEntity
  8
1DIM
  6
CONTINUOUS
100
AcDbText
 10
4463.870833333332
 20
-474.831240009956
 30
0.0
 40
7.0
  1
P140
100
AcDbText
1001
ACAD
1000
DSTYLE
1002
{
1070
    70
1070
     0
1070
    69
1070
     0
1070
    40
1040
2.0
1002
}
  0
LINE
  5
2320A
330
18
100
AcDbEntity
  8
0
  6
BYBLOCK
100
AcDbLine
 10
4269.0
 20
-477.303036769956
 30
0.0
 11
4265.0
 21
-476.231240009956
 31
0.0
  0
LINE
  5
2320B
330
18
100
AcDbEntity
  8
0
  6
BYBLOCK
100
AcDbLine
 10
4265.0
 20
-476.231240009956
 30
0.0
 11
4269.0
 21
-475.159443249956
 31
0.0
  0
LINE
  5
2320C
330
18
100
AcDbEntity
  8
0
  6
BYBLOCK
100
AcDbLine
 10
4265.0
 20
-476.231240009956
 30
0.0
 11
4269.0
 21
-476.231240009956
 31
0.0
  0
LINE
  5
2320D
330
18
100
AcDbEntity
  8
0
  6
BYBLOCK
100
AcDbLine
 10
4401.099999999999
 20
-475.159443249956
 30
0.0
 11
4405.099999999999
 21
-476.231240009956
 31
0.0
  0
LINE
  5
2320E
330
18
100
AcDbEntity
  8
0
  6
BYBLOCK
100
AcDbLine
 10
4405.099999999999
 20
-476.231240009956
 30
0.0
 11
4401.099999999999
 21
-477.303036769956
 31
0.0
  0
LINE
  5
2320F
330
18
100
AcDbEntity
  8
0
  6
BYBLOCK
100
AcDbLine
 10
4405.099999999999
 20
-476.231240009956
 30
0.0
 11
4401.099999999999
 21
-476.231240009956
 31
0.0
  0
TEXT
  5
23210
330
18
100
AcDbEntity
  8
1DIM
  6
CONTINUOUS
100
AcDbText
 10
4323.820833333332
 20
-474.831240009956
 30
0.0
 40
7.0
  1
P140
100
AcDbText
1001
ACAD
1000
DSTYLE
1002
{
1070
    70
1070
     0
1070
    69
1070
     0
1070
    45
1040
0.5
1070
    40
1040
2.0
1002
}
  0
LINE
  5
23211
330
18
100
AcDbEntity
  8
0
  6
BYBLOCK
100
AcDbLine
 10
4129.0
 20
-477.303036769956
 30
0.0
 11
4125.0
 21
-476.231240009956
 31
0.0
  0
LINE
  5
23212
330
18
100
AcDbEntity
  8
0
  6
BYBLOCK
100
AcDbLine
 10
4125.0
 20
-476.231240009956
 30
0.0
 11
4129.0
 21
-475.159443249956
 31
0.0
  0
LINE
  5
23213
330
18
100
AcDbEntity
  8
0
  6
BYBLOCK
100
AcDbLine
 10
4125.0
 20
-476.231240009956
 30
0.0
 11
4129.0
 21
-476.231240009956
 31
0.0
  0
LINE
  5
23214
330
18
100
AcDbEntity
  8
0
  6
BYBLOCK
100
AcDbLine
 10
4261.0
 20
-475.159443249956
 30
0.0
 11
4265.0
 21
-476.231240009956
 31
0.0
  0
LINE
  5
23215
330
18
100
AcDbEntity
  8
0
  6
BYBLOCK
100
AcDbLine
 10
4265.0
 20
-476.231240009956
 30
0.0
 11
4261.0
 21
-477.303036769956
 31
0.0
  0
LINE
  5
23216
330
18
100
AcDbEntity
  8
0
  6
BYBLOCK
100
AcDbLine
 10
4265.0
 20
-476.231240009956
 30
0.0
 11
4261.0
 21
-476.231240009956
 31
0.0
  0
TEXT
  5
23217
330
18
100
AcDbEntity
  8
1DIM
  6
CONTINUOUS
100
AcDbText
 10
4183.770833333333
 20
-474.831240009956
 30
0.0
 40
7.0
  1
P140
100
AcDbText
1001
ACAD
1000
DSTYLE
1002
{
1070
    70
1070
     0
1070
    69
1070
     0
1070
    40
1040
2.0
1002
}
  0
LINE
  5
23218
330
18
100
AcDbEntity
  8
0
  6
BYBLOCK
100
AcDbLine
 10
4114.0
 20
-453.7217867699559
 30
0.0
 11
4110.0
 21
-452.649990009956
 31
0.0
  0
LINE
  5
23219
330
18
100
AcDbEntity
  8
0
  6
BYBLOCK
100
AcDbLine
 10
4110.0
 20
-452.649990009956
 30
0.0
 11
4114.0
 21
-451.578193249956
 31
0.0
  0
LINE
  5
2321A
330
18
100
AcDbEntity
  8
0
  6
BYBLOCK
100
AcDbLine
 10
4110.0
 20
-452.649990009956
 30
0.0
 11
4114.0
 21
-452.649990009956
 31
0.0
  0
LINE
  5
2321B
330
18
100
AcDbEntity
  8
0
  6
BYBLOCK
100
AcDbLine
 10
4556.0
 20
-451.578193249956
 30
0.0
 11
4560.0
 21
-452.649990009956
 31
0.0
  0
LINE
  5
2321C
330
18
100
AcDbEntity
  8
0
  6
BYBLOCK
100
AcDbLine
 10
4560.0
 20
-452.649990009956
 30
0.0
 11
4556.0
 21
-453.7217867699559
 31
0.0
  0
LINE
  5
2321D
330
18
100
AcDbEntity
  8
0
  6
BYBLOCK
100
AcDbLine
 10
4560.0
 20
-452.649990009956
 30
0.0
 11
4556.0
 21
-452.649990009956
 31
0.0
  0
TEXT
  5
2321E
330
18
100
AcDbEntity
  8
1DIM
  6
CONTINUOUS
100
AcDbText
 10
4326.079861111111
 20
-451.249990009956
 30
0.0
 40
7.0
  1
450
100
AcDbText
1001
ACAD
1000
DSTYLE
1002
{
1070
    40
1040
2.0
1002
}
  0
VIEWPORT
  5
57
330
15
100
AcDbEntity
 67
     1
  8
0
100
AcDbViewport
 68
     1
 10
0.0
 20
0.0
 30
0.0
 40
536.7765957446809
 41
297.0
 68
     1
 69
     1
1001
ACAD
1000
MVIEW
1002
{
1070
    16
1010
0.0
1020
0.0
1030
0.0
1010
0.0
1020
0.0
1030
1.0
1040
0.0
1040
297.0
1040
-4.171999999925362
1040
12.83903210976956
1040
50.0
1040
0.0
1040
0.0
1070
    16
1070
   100
1070
     0
1070
     1
1070
     0
1070
     0
1070
     0
1070
     0
1040
0.0
1040
0.0
1040
0.0
1040
10.0
1040
10.0
1040
10.0
1040
10.0
1070
     0
1002
{
1002
}
1002
}
  0
ENDSEC
  0
SECTION
  2
OBJECTS
  0
DICTIONARY
  5
C
330
0
100
AcDbDictionary
  3
ACAD_COLOR
350
2D0
  3
ACAD_GROUP
350
D
  3
ACAD_LAYOUT
350
2D1
  3
ACAD_MATERIAL
350
2CF
  3
ACAD_MLEADERSTYLE
350
19E18
  3
ACAD_MLINESTYLE
350
1B
  3
ACAD_PLOTSETTINGS
350
2D2
  3
ACAD_SCALELIST
350
19DF6
  3
ACAD_VISUALSTYLE
350
19DE5
  3
ACDBHEADERROUNDTRIPXREC
350
2321F
  3
ACDBVARIABLEDICTIONARY
350
37
  3
CONTENTDICTIONARY
350
D8
  3
DRAWINGVARIABLESDICT
350
20
  3
DWGPROPS
350
23222
1001
ACAD
1000
TREAT_AS_HARD
1070
     0
  0
DICTIONARY
  5
18FE8
330
2
100
AcDbDictionary
  3
ACAD_LAYERSTATES
360
18FE9
1001
ACAD
1000
TREAT_AS_HARD
1070
     1
  0
DICTIONARY
  5
1A20A
330
E
100
AcDbDictionary
  3
ADSK_XREC_LAYER_RECONCILED
360
1A20B
1001
ACAD
1000
TREAT_AS_HARD
1070
     1
  0
DICTIONARY
  5
1A20C
330
29
100
AcDbDictionary
  3
ADSK_XREC_LAYER_RECONCILED
360
1A20D
1001
ACAD
1000
TREAT_AS_HARD
1070
     1
  0
DICTIONARY
  5
1A20E
330
31
100
AcDbDictionary
  3
ADSK_XREC_LAYER_RECONCILED
360
1A20F
1001
ACAD
1000
TREAT_AS_HARD
1070
     1
  0
DICTIONARY
  5
1A218
330
101
100
AcDbDictionary
  3
ADSK_XREC_LAYER_RECONCILED
360
1A219
1001
ACAD
1000
TREAT_AS_HARD
1070
     1
  0
DICTIONARY
  5
1A21C
330
103
100
AcDbDictionary
  3
ADSK_XREC_LAYER_RECONCILED
360
1A21D
1001
ACAD
1000
TREAT_AS_HARD
1070
     1
  0
DICTIONARY
  5
1A220
330
25F
100
AcDbDictionary
  3
ADSK_XREC_LAYER_RECONCILED
360
1A221
1001
ACAD
1000
TREAT_AS_HARD
1070
     1
  0
DICTIONARY
  5
6E9
330
18
100
AcDbDictionary
  3
ACAD_SORTENTS
360
6EA
1001
ACAD
1000
TREAT_AS_HARD
1070
     1
  0
DICTIONARY
  5
59B
330
15
100
AcDbDictionary
  3
ACAD_SORTENTS
360
59C
1001
ACAD
1000
TREAT_AS_HARD
1070
     1
  0
DICTIONARY
  5
20461
330
20460
100
AcDbDictionary
  3
ACAD_SORTENTS
360
20462
1001
ACAD
1000
TREAT_AS_HARD
1070
     1
  0
DICTIONARY
  5
2D0
102
{ACAD_REACTORS
330
C
102
}
330
C
100
AcDbDictionary
1001
ACAD
1000
TREAT_AS_HARD
1070
     0
  0
DICTIONARY
  5
D
102
{ACAD_REACTORS
330
C
102
}
330
C
100
AcDbDictionary
1001
ACAD
1000
TREAT_AS_HARD
1070
     0
  0
DICTIONARY
  5
2D1
102
{ACAD_REACTORS
330
C
102
}
330
C
100
AcDbDictionary
1001
ACAD
1000
TREAT_AS_HARD
1070
     0
  0
DICTIONARY
  5
2CF
102
{ACAD_REACTORS
330
C
102
}
330
C
100
AcDbDictionary
  3
BYBLOCK
350
19DD5
  3
BYLAYER
350
19DCD
  3
GLOBAL
350
19DDD
1001
ACAD
1000
TREAT_AS_HARD
1070
     0
  0
DICTIONARY
  5
19E18
102
{ACAD_REACTORS
330
C
102
}
330
C
100
AcDbDictionary
  3
BALLOONS5
350
20459
  3
STANDARD
350
19E19
1001
ACAD
1000
TREAT_AS_HARD
1070
     0
  0
DICTIONARY
  5
1B
102
{ACAD_REACTORS
330
C
102
}
330
C
100
AcDbDictionary
  3
STANDARD
350
1C
1001
ACAD
1000
TREAT_AS_HARD
1070
     0
  0
DICTIONARY
  5
2D2
102
{ACAD_REACTORS
330
C
102
}
330
C
100
AcDbDictionary
1001
ACAD
1000
TREAT_AS_HARD
1070
     0
  0
DICTIONARY
  5
19DF6
102
{ACAD_REACTORS
330
C
102
}
330
C
100
AcDbDictionary
  3
A0
350
19DF7
  3
A1
350
19DF8
  3
A2
350
19DF9
  3
A3
350
19DFA
  3
A4
350
19DFB
  3
A5
350
19DFC
  3
A6
350
19DFD
  3
A7
350
19DFE
  3
A8
350
19DFF
  3
A9
350
19E00
  3
B0
350
19E01
  3
B1
350
19E02
  3
B2
350
19E03
  3
B3
350
19E04
  3
B4
350
19E05
  3
B5
350
19E06
  3
B6
350
19E07
  3
B7
350
19E08
  3
B8
350
19E09
  3
B9
350
19E0A
  3
C0
350
19E0B
  3
C1
350
19E0C
  3
C2
350
19E0D
  3
C3
350
19E0E
  3
C4
350
19E0F
  3
C5
350
19E10
  3
C6
350
19E11
  3
C7
350
19E12
  3
C8
350
19E13
  3
C9
350
19E14
  3
D0
350
19E15
  3
D1
350
19E16
  3
D2
350
19E17
1001
ACAD
1000
TREAT_AS_HARD
1070
     0
  0
DICTIONARY
  5
19DE5
102
{ACAD_REACTORS
330
C
102
}
330
C
100
AcDbDictionary
  3
2DWIREFRAME
350
19DEB
  3
3D_HIDDEN
350
19DED
  3
3DWIREFRAME
350
19DEC
  3
BASIC
350
19DEA
  3
BRIGHTEN
350
19DF1
  3
COLORCHANGE
350
19DF5
  3
CONCEPTUAL
350
19DEE
  3
DIM
350
19DF0
  3
EDGECOLOROFF
350
1E02A
  3
FACEPATTERN
350
19DF4
  3
FLAT
350
19DE6
  3
FLATWITHEDGES
350
19DE7
  3
GOURAUD
350
19DE8
  3
GOURAUDWITHEDGES
350
19DE9
  3
HIDDEN
350
1FBC7
  3
JITTEROFF
350
1E028
  3
LINEPATTERN
350
19DF3
  3
MODELING
350
1FBCD
  3
OVERHANGOFF
350
1E029
  3
REALISTIC
350
19DEF
  3
SHADED
350
1FBCC
  3
SHADED_WITH_EDGES
350
1FBCB
  3
SHADES_OF_GRAY
350
1FBC8
  3
SKETCHY
350
1FBC9
  3
THICKEN
350
19DF2
  3
WIREFRAME
350
1FBC6
  3
X-RAY
350
1FBCA
1001
ACAD
1000
TREAT_AS_HARD
1070
     0
  0
DICTIONARY
  5
2321F
102
{ACAD_REACTORS
330
C
102
}
330
C
100
AcDbDictionary
  3
COLORDICT
350
23220
  3
MATERIALDICT
350
23221
1001
ACAD
1000
TREAT_AS_HARD
1070
     0
  0
DICTIONARY
  5
37
102
{ACAD_REACTORS
330
C
102
}
330
C
100
AcDbDictionary
  3
CANNOSCALE
350
20376
  3
CMLEADERSTYLE
350
1AC19
  3
CTABLESTYLE
350
4F1
  3
DIMADEC
350
38
  3
DIMASSOC
350
408
  3
HIDETEXT
350
1891
  3
INDEXCTL
350
1AC1C
  3
INTERSECTIONCOLOR
350
1895
  3
INTERSECTIONDISPLAY
350
1894
  3
MSLTSCALE
350
203CC
  3
OBSCOLOR
350
1892
  3
OBSLTYPE
350
1893
  3
PROJECTNAME
350
409
  3
SORTENTS
350
1AC1B
  3
XCLIPFRAME
350
1FBC5
1001
ACAD
1000
TREAT_AS_HARD
1070
     0
  0
DICTIONARY
  5
D8
102
{ACAD_REACTORS
330
C
102
}
330
C
100
AcDbDictionary
1001
CONTENTTABDATA
1070
    11
1000
Child
1000
D:\ACLT\TABset\CHILDREN.dwg
1070
     0
1070
     0
1070
     1
1000
PK
1000
D:\ACLT\TABset\PK.dwg
1070
     0
1070
     0
1070
     1
1000
Lev1
1000
D:\ACLT\TABset\Lever01.dwg
1070
     0
1070
     0
1070
     1
1000
Lev2
1000
D:\ACLT\TABset\Lever02.dwg
1070
     0
1070
     0
1070
     1
1000
L3
1000
D:\Aclt\TABset\Lever03.dwg
1070
     0
1070
     0
1070
     1
1000
Form
1000
D:\ACLT\FORMAT
1070
     1
1070
     0
1070
     1
1000
Jnt
1000
D:\ACLT\TABset\JOINTPARTS.dwg
1070
     0
1070
     0
1070
     1
1000
ISO
1000
D:\ACLT\TABset\Isome01.dwg
1070
     0
1070
     0
1070
     1
1000
R
1000
D:\ACLT\TABset\REGION.dwg
1070
     0
1070
     0
1070
     1
1000
std
1000
D:\ACLT\TABset\std_sym_all.dwg
1070
     0
1070
     0
1070
     1
1000
丸
1000
D:\Aclt\TABset\MARU.dwg
1070
     0
1070
     0
1070
     1
1001
CONTENTCURRENTTAB
1070
     0
1001
ACAD
1000
TREAT_AS_HARD
1070
     0
  0
DICTIONARY
  5
20
102
{ACAD_REACTORS
330
C
102
}
330
C
100
AcDbDictionary
1001
DRAWINGVARIABLESXDATA
1000
POLARANG
1000
0.261799387799149410000000
1000
POLARMODE
1000
1
1000
POLARSTYLE
1000
1
1001
ACAD
1000
TREAT_AS_HARD
1070
     0
  0
XRECORD
  5
23222
102
{ACAD_REACTORS
330
C
102
}
330
C
100
AcDbXrecord
  1
DWGPROPS COOKIE
  2

  3

  4

  6

  7

  8
3684
  9

300
=
301
=
302
=
303
=
304
=
305
=
306
=
307
=
308
=
309
=
 40
0.0
 41
2453033.357663484
 42
2459123.037492766
  1

 90
        0
  0
DICTIONARY
  5
18FE9
102
{ACAD_REACTORS
330
18FE8
102
}
330
18FE8
100
AcDbDictionary
1001
ACAD
1000
TREAT_AS_HARD
1070
     0
  0
ACAD_PROXY_OBJECT
  5
1A20B
102
{ACAD_REACTORS
330
1A20A
102
}
330
1A20A
100
AcDbZombieObject
 90
      499
 91
      519
 93
       34
310
40C8804040
  0
ACAD_PROXY_OBJECT
  5
1A20D
102
{ACAD_REACTORS
330
1A20C
102
}
330
1A20C
100
AcDbZombieObject
 90
      499
 91
      519
 93
       34
310
40C8804040
  0
ACAD_PROXY_OBJECT
  5
1A20F
102
{ACAD_REACTORS
330
1A20E
102
}
330
1A20E
100
AcDbZombieObject
 90
      499
 91
      519
 93
       34
310
40C8804040
  0
ACAD_PROXY_OBJECT
  5
1A219
102
{ACAD_REACTORS
330
1A218
102
}
330
1A218
100
AcDbZombieObject
 90
      499
 91
      519
 93
       34
310
40C8804040
  0
ACAD_PROXY_OBJECT
  5
1A21D
102
{ACAD_REACTORS
330
1A21C
102
}
330
1A21C
100
AcDbZombieObject
 90
      499
 91
      519
 93
       34
310
40C8804040
  0
ACAD_PROXY_OBJECT
  5
1A221
102
{ACAD_REACTORS
330
1A220
102
}
330
1A220
100
AcDbZombieObject
 90
      499
 91
      519
 93
       34
310
40C8804040
  0
SORTENTSTABLE
  5
6EA
102
{ACAD_REACTORS
330
6E9
102
}
330
6E9
100
AcDbSortentsTable
330
18
331
0
  5
99AB
331
0
  5
AB53
331
0
  5
AB54
331
0
  5
ECB5
331
0
  5
23171
331
0
  5
23172
331
0
  5
23173
331
0
  5
23174
331
0
  5
23175
331
0
  5
23176
331
0
  5
23177
331
22D10
  5
231E6
331
0
  5
23179
331
0
  5
2317A
331
0
  5
2317B
331
0
  5
2317C
331
0
  5
2317D
331
22D9D
  5
231FB
331
22D9E
  5
231FC
331
22D9F
  5
231FD
331
22DA0
  5
231FE
331
22DA1
  5
231FF
331
22DA2
  5
23200
331
22DA3
  5
23201
331
22DA4
  5
23202
331
22DA5
  5
23203
331
22DA6
  5
23204
331
22DA7
  5
23205
331
22DA8
  5
23206
331
22DA9
  5
23207
331
22DAA
  5
23208
331
22DAB
  5
23209
331
22DAC
  5
2320A
331
22DAD
  5
2320B
331
22DAE
  5
2320C
331
22DAF
  5
2320D
331
22DB0
  5
2320E
331
22DB6
  5
2320F
331
22DB7
  5
23210
331
22DB8
  5
23211
331
22DB9
  5
23212
331
22DBA
  5
23213
331
22DBB
  5
23214
331
22DBC
  5
23215
331
22DBD
  5
23216
331
22DBE
  5
23217
331
22DBF
  5
23218
331
22DC0
  5
23219
331
22DC1
  5
2321A
331
22DC2
  5
2321B
331
22DC3
  5
2321C
331
22DC4
  5
2321D
331
22DC5
  5
2321E
331
0
  5
22CA2
331
22FF9
  5
22DA2
331
22FFA
  5
22DA3
331
22FFB
  5
22DA4
331
22FFC
  5
22DA5
331
22FFD
  5
22DA6
331
22FFE
  5
22DA7
331
22FFF
  5
22DA8
331
23000
  5
22DA9
331
23001
  5
22DAA
331
23002
  5
22DAB
331
23003
  5
22DAC
331
23004
  5
22DAD
331
23005
  5
22DAE
331
23006
  5
22DAF
331
23007
  5
22DB0
331
23008
  5
22DB6
331
23009
  5
22DB7
331
2300A
  5
22DB8
331
2300B
  5
22DB9
331
2300C
  5
22DBA
331
2300D
  5
22DBB
331
2300E
  5
22DBC
331
2300F
  5
22DBD
331
23010
  5
22DBE
331
23011
  5
22DBF
331
23012
  5
22DC0
331
23013
  5
22DC1
331
23014
  5
22DC2
331
23015
  5
22DC3
331
23016
  5
22DC4
331
23017
  5
22DC5
331
23018
  5
22FF8
331
23019
  5
22FF9
331
2301A
  5
22FFA
331
2301B
  5
22FFB
331
2301C
  5
22FFC
331
2301D
  5
22FFD
331
2301E
  5
22FFE
331
2301F
  5
22FFF
331
23020
  5
23000
331
23021
  5
23001
331
23022
  5
23002
331
23023
  5
23003
331
23024
  5
23004
331
23025
  5
23006
331
23026
  5
23007
331
23027
  5
23008
331
23028
  5
23009
331
23029
  5
2300A
331
2302A
  5
2300B
331
2302B
  5
2300C
331
2302C
  5
2300D
331
2302D
  5
2300E
331
2302E
  5
2300F
331
2302F
  5
23010
331
23030
  5
23011
331
23031
  5
23012
331
23032
  5
23013
331
23033
  5
23014
331
23034
  5
23015
331
23035
  5
23016
331
0
  5
23005
331
23037
  5
23020
331
23038
  5
23021
331
23039
  5
23022
331
2303A
  5
23023
331
2303B
  5
23024
331
2303C
  5
23025
331
2303D
  5
23026
331
2303E
  5
23027
331
2303F
  5
23028
331
23040
  5
23029
331
23041
  5
2302A
331
23042
  5
2302B
331
23043
  5
2302C
331
23044
  5
2302D
331
23045
  5
2302E
331
23046
  5
2302F
331
23047
  5
23030
331
23048
  5
23031
331
23049
  5
23032
331
2304A
  5
23033
331
2304B
  5
23034
331
2304C
  5
23035
331
2304D
  5
23036
331
2304E
  5
23037
331
2304F
  5
23038
331
23050
  5
23039
331
23051
  5
2303A
331
23052
  5
2303B
331
23053
  5
2303C
331
23054
  5
2303D
331
23055
  5
2303E
331
23056
  5
2303F
331
23057
  5
23040
331
23058
  5
23041
331
23059
  5
23042
331
2305A
  5
23044
331
2305B
  5
23045
331
2305C
  5
23046
331
2305D
  5
23047
331
2305E
  5
23048
331
2305F
  5
23049
331
23060
  5
2304A
331
23061
  5
2304B
331
23062
  5
2304C
331
23063
  5
2304D
331
23064
  5
2304E
331
23065
  5
2304F
331
23066
  5
23050
331
23067
  5
23051
331
23068
  5
23052
331
23069
  5
23053
331
2306A
  5
23054
331
2306B
  5
23055
331
2306C
  5
23056
331
2306D
  5
23057
331
2306E
  5
23058
331
2306F
  5
23059
331
23070
  5
2305A
331
23071
  5
2305B
331
23072
  5
2305C
331
23073
  5
2305D
331
0
  5
23043
331
23075
  5
23067
331
23076
  5
23068
331
23077
  5
23069
331
23078
  5
2306A
331
23079
  5
2306B
331
2307A
  5
2306C
331
2307B
  5
2306D
331
2307C
  5
2306E
331
2307D
  5
2306F
331
2307E
  5
23070
331
2307F
  5
23071
331
23080
  5
23072
331
23081
  5
23073
331
23082
  5
23074
331
23083
  5
23075
331
23084
  5
23076
331
23085
  5
23077
331
23086
  5
23078
331
23087
  5
23079
331
23088
  5
2307A
331
23089
  5
2307B
331
2308A
  5
2307C
331
2308B
  5
2307D
331
2308C
  5
2307E
331
2308D
  5
2307F
331
2308E
  5
23080
331
2308F
  5
23082
331
23090
  5
23083
331
23091
  5
23084
331
23092
  5
23085
331
23093
  5
23086
331
23094
  5
23087
331
23095
  5
23088
331
23096
  5
23089
331
23097
  5
2308A
331
23098
  5
2308B
331
23099
  5
2308C
331
2309A
  5
2308D
331
2309B
  5
2308E
331
2309C
  5
2308F
331
2309D
  5
23090
331
2309E
  5
23091
331
2309F
  5
23092
331
230A0
  5
23093
331
230A1
  5
23094
331
230A2
  5
23095
331
230A3
  5
23096
331
230A4
  5
23097
331
230A5
  5
23098
331
230A6
  5
23099
331
230A7
  5
2309A
331
230A8
  5
2309B
331
230A9
  5
2309C
331
230AA
  5
2309D
331
230AB
  5
2309E
331
230AC
  5
2309F
331
230AD
  5
230A0
331
230AE
  5
230A1
331
230AF
  5
230A2
331
230B0
  5
230A3
331
230B1
  5
230A4
331
0
  5
23081
331
230B3
  5
230AE
331
230B4
  5
230AF
331
230B5
  5
230B0
331
230B6
  5
230B1
331
230B7
  5
230B2
331
230B8
  5
230B3
331
230B9
  5
230B4
331
230BA
  5
230B5
331
230BB
  5
230B6
331
230BC
  5
230B7
331
230BD
  5
230B8
331
230BE
  5
230B9
331
230BF
  5
230BA
331
230C0
  5
230BB
331
230C1
  5
230BC
331
230C2
  5
230BD
331
230C3
  5
230BE
331
230C4
  5
230C0
331
230C5
  5
230C1
331
230C6
  5
230C2
331
230C7
  5
230C3
331
230C8
  5
230C4
331
230C9
  5
230C5
331
230CA
  5
230C6
331
230CB
  5
230C7
331
230CC
  5
230C8
331
230CD
  5
230C9
331
230CE
  5
230CA
331
230CF
  5
230CB
331
230D0
  5
230CC
331
230D1
  5
230CD
331
230D2
  5
230CE
331
230D3
  5
230CF
331
230D4
  5
230D0
331
230D5
  5
230D1
331
230D6
  5
230D2
331
230D7
  5
230D3
331
230D8
  5
230D4
331
230D9
  5
230D5
331
230DA
  5
230D6
331
230DB
  5
230D7
331
230DC
  5
230D8
331
230DD
  5
230D9
331
230DE
  5
230DA
331
230DF
  5
230DB
331
230E0
  5
230DC
331
230E1
  5
230DD
331
230E2
  5
230DE
331
230E3
  5
230DF
331
230E4
  5
230E0
331
230E5
  5
230E1
331
230E6
  5
230E2
331
230E7
  5
230E3
331
230E8
  5
230E4
331
230E9
  5
230E5
331
230EA
  5
230E6
331
230EB
  5
230E7
331
230EC
  5
230E8
331
230ED
  5
230E9
331
230EE
  5
230EA
331
230EF
  5
230EB
331
0
  5
230BF
331
230F1
  5
230F5
331
230F2
  5
230F6
331
230F3
  5
230F7
331
230F4
  5
230F8
331
230F5
  5
230F9
331
230F6
  5
230FA
331
230F7
  5
230FB
331
230F8
  5
230FC
331
230F9
  5
230FE
331
230FA
  5
230FF
331
230FB
  5
23100
331
230FC
  5
23101
331
230FD
  5
23102
331
230FE
  5
23103
331
230FF
  5
23104
331
23100
  5
23105
331
23101
  5
23106
331
23102
  5
23107
331
23103
  5
23108
331
23104
  5
23109
331
23105
  5
2310A
331
23106
  5
2310B
331
23107
  5
2310C
331
23108
  5
2310D
331
23109
  5
2310E
331
2310A
  5
2310F
331
2310B
  5
23110
331
2310C
  5
23111
331
2310D
  5
23112
331
2310E
  5
23113
331
2310F
  5
23114
331
23110
  5
23115
331
23111
  5
23116
331
23112
  5
23117
331
23113
  5
23118
331
23114
  5
23119
331
23115
  5
2311A
331
23116
  5
2311B
331
23117
  5
2311C
331
23118
  5
2311D
331
23119
  5
2311E
331
2311A
  5
2311F
331
2311B
  5
23120
331
2311C
  5
23121
331
2311D
  5
23122
331
2311E
  5
23123
331
2311F
  5
23124
331
23120
  5
23125
331
23121
  5
23126
331
23122
  5
23127
331
23123
  5
23128
331
23124
  5
23129
331
23125
  5
2312A
331
23126
  5
2312B
331
23127
  5
2312C
331
23128
  5
2312D
331
23129
  5
2312E
331
2312A
  5
2312F
331
2312B
  5
23130
331
2312C
  5
23131
331
2312D
  5
23132
331
0
  5
230FD
331
2312F
  5
2313C
331
23130
  5
2313D
331
23131
  5
2313E
331
23132
  5
2313F
331
23133
  5
23140
331
23134
  5
23141
331
23135
  5
23142
331
23136
  5
23143
331
23137
  5
23144
331
23138
  5
23145
331
23139
  5
23146
331
2313A
  5
23147
331
2313B
  5
23148
331
2313C
  5
23149
331
2313D
  5
2314A
331
2313E
  5
2314B
331
2313F
  5
2314C
331
23140
  5
2314D
331
23141
  5
2314E
331
23142
  5
2314F
331
23143
  5
23150
331
23144
  5
23151
331
23145
  5
23152
331
23146
  5
23153
331
23147
  5
23154
331
23148
  5
23155
331
23149
  5
23156
331
2314A
  5
23157
331
2314B
  5
23158
331
2314C
  5
23159
331
2314D
  5
2315A
331
2314E
  5
2315B
331
2314F
  5
2315C
331
23150
  5
2315D
331
23151
  5
2315E
331
23152
  5
2315F
331
23153
  5
23160
331
23154
  5
23161
331
23155
  5
23162
331
23156
  5
23163
331
23157
  5
23164
331
23158
  5
23165
331
23159
  5
23166
331
2315A
  5
23167
331
2315B
  5
23168
331
2315C
  5
23169
331
2315D
  5
2316A
331
2315E
  5
2316B
331
2315F
  5
2316C
331
23160
  5
2316D
331
23161
  5
2316E
331
23162
  5
2316F
331
23163
  5
23170
331
23164
  5
23178
331
23165
  5
2317E
331
23166
  5
2317F
331
23167
  5
23180
331
23168
  5
23181
331
23169
  5
23182
331
2316A
  5
23183
331
2316B
  5
23184
331
2316C
  5
22D30
331
2316D
  5
22D31
331
2316E
  5
22D3A
331
2316F
  5
22D3B
331
23170
  5
22D9D
331
23171
  5
22D9E
331
23172
  5
22D9F
331
23173
  5
22DA0
331
23174
  5
22DA1
331
23175
  5
23017
331
23176
  5
23018
331
23177
  5
23019
331
23178
  5
2301A
331
23179
  5
2301B
331
2317A
  5
2301C
331
2317B
  5
2301D
331
2317C
  5
2301E
331
2317D
  5
2301F
331
2317E
  5
2305E
331
2317F
  5
2305F
331
23180
  5
23060
331
23181
  5
23061
331
23182
  5
23062
331
23183
  5
23063
331
23184
  5
23064
331
23185
  5
23065
331
23186
  5
23066
331
23187
  5
230A5
331
23188
  5
230A6
331
23189
  5
230A7
331
2318A
  5
230A8
331
2318B
  5
230A9
331
2318C
  5
230AA
331
2318D
  5
230AB
331
2318E
  5
230AC
331
2318F
  5
230AD
331
23190
  5
230EC
331
23191
  5
230ED
331
23192
  5
230EE
331
23193
  5
230EF
331
23194
  5
230F0
331
23195
  5
230F1
331
23196
  5
230F2
331
23197
  5
230F3
331
23198
  5
230F4
331
23199
  5
23133
331
2319A
  5
23134
331
2319B
  5
23135
331
2319C
  5
23136
331
2319D
  5
23137
331
2319E
  5
23138
331
2319F
  5
23139
331
231A0
  5
2313A
331
231A1
  5
2313B
331
231A2
  5
22CB2
331
231A3
  5
22CBF
331
231A4
  5
22CCC
331
231A5
  5
22CE7
331
231A6
  5
22CF4
331
231A7
  5
22D01
331
231A8
  5
22D10
331
231A9
  5
22D23
331
231AA
  5
23185
331
231AB
  5
23186
331
231AC
  5
23187
331
231AD
  5
23188
331
231AE
  5
23189
331
231AF
  5
2318A
331
0
  5
2318B
331
0
  5
2318C
331
0
  5
2318D
331
231B3
  5
2319B
331
231B4
  5
2319C
331
231B5
  5
231A0
331
0
  5
23191
331
0
  5
23192
331
0
  5
23193
331
231B9
  5
231AE
331
231BA
  5
231B2
331
231BB
  5
231B3
331
0
  5
23197
331
0
  5
23198
331
0
  5
23199
331
231BF
  5
231BE
331
231C0
  5
231BF
331
231C1
  5
231C0
331
0
  5
2319D
331
0
  5
2319E
331
0
  5
2319F
331
231C5
  5
231C8
331
231C6
  5
231C9
331
231C7
  5
231CA
331
0
  5
231A3
331
0
  5
231A4
331
0
  5
231A5
331
231CB
  5
231D2
331
231CC
  5
231D3
331
231CD
  5
231D4
331
0
  5
231A9
331
0
  5
231AA
331
0
  5
231AB
331
231D1
  5
231DC
331
231D2
  5
231DD
331
231D3
  5
231DE
331
0
  5
231AF
331
0
  5
231B0
331
0
  5
231B1
331
231D7
  5
231E7
331
231D8
  5
231E8
331
231D9
  5
231E9
331
0
  5
231B6
331
0
  5
231B7
331
0
  5
231B8
331
231DD
  5
231F1
331
231DE
  5
231F2
331
231DF
  5
231F3
331
231E0
  5
231F4
331
231E1
  5
231F5
331
231E2
  5
231F6
331
231E3
  5
231F7
331
231E4
  5
231F8
331
231E5
  5
231F9
331
231E6
  5
231FA
331
231E7
  5
2318E
331
231E8
  5
2318F
331
231E9
  5
23190
331
231EA
  5
23194
331
231EB
  5
23195
331
231EC
  5
23196
331
231ED
  5
2319A
331
231EE
  5
231A1
331
231EF
  5
231A2
331
231F0
  5
231A6
331
231F1
  5
231A7
331
231F2
  5
231A8
331
231F3
  5
231AC
331
231F4
  5
231AD
331
231F5
  5
231B4
331
231F6
  5
231B5
331
231F7
  5
231B9
331
231F8
  5
231BA
331
231F9
  5
231BB
331
231FA
  5
231BC
331
231FB
  5
231BD
331
231FC
  5
231C1
331
231FD
  5
231C2
331
231FE
  5
231C3
331
231FF
  5
231C4
331
23200
  5
231C5
331
23201
  5
231C6
331
23202
  5
231C7
331
23203
  5
231CB
331
23204
  5
231CC
331
23205
  5
231CD
331
23206
  5
231CE
331
23207
  5
231CF
331
23208
  5
231D0
331
23209
  5
231D1
331
2320A
  5
231D5
331
2320B
  5
231D6
331
2320C
  5
231D7
331
2320D
  5
231D8
331
2320E
  5
231D9
331
2320F
  5
231DA
331
23210
  5
231DB
331
23211
  5
231DF
331
23212
  5
231E0
331
23213
  5
231E1
331
23214
  5
231E2
331
23215
  5
231E3
331
23216
  5
231E4
331
23217
  5
231E5
331
23218
  5
231EA
331
23219
  5
231EB
331
2321A
  5
231EC
331
2321B
  5
231ED
331
2321C
  5
231EE
331
2321D
  5
231EF
331
2321E
  5
231F0
  0
SORTENTSTABLE
  5
59C
102
{ACAD_REACTORS
330
59B
102
}
330
59B
100
AcDbSortentsTable
330
15
331
0
  5
22D40
331
0
  5
22D41
331
0
  5
22D42
331
0
  5
22D43
331
0
  5
22D44
331
0
  5
20355
331
0
  5
20356
331
0
  5
20357
331
0
  5
20358
331
0
  5
20359
331
0
  5
22D3F
  0
SORTENTSTABLE
  5
20462
102
{ACAD_REACTORS
330
20461
102
}
330
20461
100
AcDbSortentsTable
330
20460
331
20464
  5
20465
331
20465
  5
20464
  0
MATERIAL
  5
19DD5
102
{ACAD_REACTORS
330
2CF
102
}
102
{ACAD_XDICTIONARY
360
233BD
102
}
330
2CF
100
AcDbMaterial
  1
BYBLOCK
 72
     0
 73
     2
 43
0.0208333333333333
 43
0.0
 43
0.0
 43
0.0
 43
0.0
 43
0.0208333333333333
 43
0.0
 43
0.0
 43
0.0
 43
0.0
 43
1.0
 43
0.0
 43
0.0
 43
0.0
 43
0.0
 43
1.0
 77
     0
 78
     2
 47
0.0208333333333333
 47
0.0
 47
0.0
 47
0.0
 47
0.0
 47
0.0208333333333333
 47
0.0
 47
0.0
 47
0.0
 47
0.0
 47
1.0
 47
0.0
 47
0.0
 47
0.0
 47
0.0
 47
1.0
171
     0
172
     2
 49
0.0208333333333333
 49
0.0
 49
0.0
 49
0.0
 49
0.0
 49
0.0208333333333333
 49
0.0
 49
0.0
 49
0.0
 49
0.0
 49
1.0
 49
0.0
 49
0.0
 49
0.0
 49
0.0
 49
1.0
175
     0
176
     2
142
0.0208333333333333
142
0.0
142
0.0
142
0.0
142
0.0
142
0.0208333333333333
142
0.0
142
0.0
142
0.0
142
0.0
142
1.0
142
0.0
142
0.0
142
0.0
142
0.0
142
1.0
179
     0
270
     2
144
0.0208333333333333
144
0.0
144
0.0
144
0.0
144
0.0
144
0.0208333333333333
144
0.0
144
0.0
144
0.0
144
0.0
144
1.0
144
0.0
144
0.0
144
0.0
144
0.0
144
1.0
274
     2
147
0.0208333333333333
147
0.0
147
0.0
147
0.0
147
0.0
147
0.0208333333333333
147
0.0
147
0.0
147
0.0
147
0.0
147
1.0
147
0.0
147
0.0
147
0.0
147
0.0
147
1.0
  0
MATERIAL
  5
19DCD
102
{ACAD_REACTORS
330
2CF
102
}
102
{ACAD_XDICTIONARY
360
233BF
102
}
330
2CF
100
AcDbMaterial
  1
BYLAYER
 72
     0
 73
     2
 43
0.0208333333333333
 43
0.0
 43
0.0
 43
0.0
 43
0.0
 43
0.0208333333333333
 43
0.0
 43
0.0
 43
0.0
 43
0.0
 43
1.0
 43
0.0
 43
0.0
 43
0.0
 43
0.0
 43
1.0
 77
     0
 78
     2
 47
0.0208333333333333
 47
0.0
 47
0.0
 47
0.0
 47
0.0
 47
0.0208333333333333
 47
0.0
 47
0.0
 47
0.0
 47
0.0
 47
1.0
 47
0.0
 47
0.0
 47
0.0
 47
0.0
 47
1.0
171
     0
172
     2
 49
0.0208333333333333
 49
0.0
 49
0.0
 49
0.0
 49
0.0
 49
0.0208333333333333
 49
0.0
 49
0.0
 49
0.0
 49
0.0
 49
1.0
 49
0.0
 49
0.0
 49
0.0
 49
0.0
 49
1.0
175
     0
176
     2
142
0.0208333333333333
142
0.0
142
0.0
142
0.0
142
0.0
142
0.0208333333333333
142
0.0
142
0.0
142
0.0
142
0.0
142
1.0
142
0.0
142
0.0
142
0.0
142
0.0
142
1.0
179
     0
270
     2
144
0.0208333333333333
144
0.0
144
0.0
144
0.0
144
0.0
144
0.0208333333333333
144
0.0
144
0.0
144
0.0
144
0.0
144
1.0
144
0.0
144
0.0
144
0.0
144
0.0
144
1.0
274
     2
147
0.0208333333333333
147
0.0
147
0.0
147
0.0
147
0.0
147
0.0208333333333333
147
0.0
147
0.0
147
0.0
147
0.0
147
1.0
147
0.0
147
0.0
147
0.0
147
0.0
147
1.0
  0
MATERIAL
  5
19DDD
102
{ACAD_REACTORS
330
2CF
102
}
102
{ACAD_XDICTIONARY
360
233C1
102
}
330
2CF
100
AcDbMaterial
  1
GLOBAL
 72
     0
 73
     2
 43
0.0208333333333333
 43
0.0
 43
0.0
 43
0.0
 43
0.0
 43
0.0208333333333333
 43
0.0
 43
0.0
 43
0.0
 43
0.0
 43
1.0
 43
0.0
 43
0.0
 43
0.0
 43
0.0
 43
1.0
 77
     0
 78
     2
 47
0.0208333333333333
 47
0.0
 47
0.0
 47
0.0
 47
0.0
 47
0.0208333333333333
 47
0.0
 47
0.0
 47
0.0
 47
0.0
 47
1.0
 47
0.0
 47
0.0
 47
0.0
 47
0.0
 47
1.0
171
     0
172
     2
 49
0.0208333333333333
 49
0.0
 49
0.0
 49
0.0
 49
0.0
 49
0.0208333333333333
 49
0.0
 49
0.0
 49
0.0
 49
0.0
 49
1.0
 49
0.0
 49
0.0
 49
0.0
 49
0.0
 49
1.0
175
     0
176
     2
142
0.0208333333333333
142
0.0
142
0.0
142
0.0
142
0.0
142
0.0208333333333333
142
0.0
142
0.0
142
0.0
142
0.0
142
1.0
142
0.0
142
0.0
142
0.0
142
0.0
142
1.0
179
     0
270
     2
144
0.0208333333333333
144
0.0
144
0.0
144
0.0
144
0.0
144
0.0208333333333333
144
0.0
144
0.0
144
0.0
144
0.0
144
1.0
144
0.0
144
0.0
144
0.0
144
0.0
144
1.0
274
     2
147
0.0208333333333333
147
0.0
147
0.0
147
0.0
147
0.0
147
0.0208333333333333
147
0.0
147
0.0
147
0.0
147
0.0
147
1.0
147
0.0
147
0.0
147
0.0
147
0.0
147
1.0
  0
ACAD_PROXY_OBJECT
  5
20459
102
{ACAD_REACTORS
330
19E18
102
}
330
19E18
100
AcDbZombieObject
 90
      499
 91
      512
 93
      610
310
40501902A4063FBFFFFFE0000000000000020000000000000020408000000000000004090140501A00000000000004100000000000000041025750100000000000005100000000000000039000
340
12
340
6F0
340
F
340
20460
 94
        0
1001
ACAD_MLEADERVER
1070
     2
  0
ACAD_PROXY_OBJECT
  5
19E19
102
{ACAD_REACTORS
330
19E18
102
}
330
19E18
100
AcDbZombieObject
 90
      499
 91
      512
 93
      610
310
40901902A4063FBFFFFFE000000000000002040AD7A3703D0AD73F4214DD185B99185C990000000000000104090141901A00000000000004100000000000000041025764000000000000300FC0
340
12
340
0
340
F
340
0
 94
        0
1001
ACAD_MLEADERVER
1070
     2
  0
MLINESTYLE
  5
1C
102
{ACAD_REACTORS
330
1B
102
}
330
1B
100
AcDbMlineStyle
  2
STANDARD
 70
     0
  3

 62
   256
 51
90.0
 52
90.0
 71
     2
 49
0.5
 62
   256
  6
BYLAYER
 49
-0.5
 62
   256
  6
BYLAYER
  0
ACAD_PROXY_OBJECT
  5
19DF7
102
{ACAD_REACTORS
330
19DF6
102
}
330
19DF6
100
AcDbZombieObject
 90
      499
 91
      511
 93
       41
310
903313A31580
  0
ACAD_PROXY_OBJECT
  5
19DF8
102
{ACAD_REACTORS
330
19DF6
102
}
330
19DF6
100
AcDbZombieObject
 90
      499
 91
      511
 93
      105
310
903313A324000000000000004000
  0
ACAD_PROXY_OBJECT
  5
19DF9
102
{ACAD_REACTORS
330
19DF6
102
}
330
19DF6
100
AcDbZombieObject
 90
      499
 91
      511
 93
      105
310
903313A344000000000000104000
  0
ACAD_PROXY_OBJECT
  5
19DFA
102
{ACAD_REACTORS
330
19DF6
102
}
330
19DF6
100
AcDbZombieObject
 90
      499
 91
      511
 93
      105
310
903313A354000000000000144000
  0
ACAD_PROXY_OBJECT
  5
19DFB
102
{ACAD_REACTORS
330
19DF6
102
}
330
19DF6
100
AcDbZombieObject
 90
      499
 91
      511
 93
      105
310
903313A384000000000000204000
  0
ACAD_PROXY_OBJECT
  5
19DFC
102
{ACAD_REACTORS
330
19DF6
102
}
330
19DF6
100
AcDbZombieObject
 90
      499
 91
      511
 93
      113
310
904313A31304000000000000244000
  0
ACAD_PROXY_OBJECT
  5
19DFD
102
{ACAD_REACTORS
330
19DF6
102
}
330
19DF6
100
AcDbZombieObject
 90
      499
 91
      511
 93
      113
310
904313A31364000000000000304000
  0
ACAD_PROXY_OBJECT
  5
19DFE
102
{ACAD_REACTORS
330
19DF6
102
}
330
19DF6
100
AcDbZombieObject
 90
      499
 91
      511
 93
      113
310
904313A32304000000000000344000
  0
ACAD_PROXY_OBJECT
  5
19DFF
102
{ACAD_REACTORS
330
19DF6
102
}
330
19DF6
100
AcDbZombieObject
 90
      499
 91
      511
 93
      113
310
904313A333040000000000003E4000
  0
ACAD_PROXY_OBJECT
  5
19E00
102
{ACAD_REACTORS
330
19DF6
102
}
330
19DF6
100
AcDbZombieObject
 90
      499
 91
      511
 93
      113
310
904313A34304000000000000444000
  0
ACAD_PROXY_OBJECT
  5
19E01
102
{ACAD_REACTORS
330
19DF6
102
}
330
19DF6
100
AcDbZombieObject
 90
      499
 91
      511
 93
      113
310
904313A35304000000000000494000
  0
ACAD_PROXY_OBJECT
  5
19E02
102
{ACAD_REACTORS
330
19DF6
102
}
330
19DF6
100
AcDbZombieObject
 90
      499
 91
      511
 93
      121
310
905313A3130304000000000000594000
  0
ACAD_PROXY_OBJECT
  5
19E03
102
{ACAD_REACTORS
330
19DF6
102
}
330
19DF6
100
AcDbZombieObject
 90
      499
 91
      511
 93
      105
310
903323A310000000000000010100
  0
ACAD_PROXY_OBJECT
  5
19E04
102
{ACAD_REACTORS
330
19DF6
102
}
330
19DF6
100
AcDbZombieObject
 90
      499
 91
      511
 93
      105
310
903343A310000000000000410100
  0
ACAD_PROXY_OBJECT
  5
19E05
102
{ACAD_REACTORS
330
19DF6
102
}
330
19DF6
100
AcDbZombieObject
 90
      499
 91
      511
 93
      105
310
903383A310000000000000810100
  0
ACAD_PROXY_OBJECT
  5
19E06
102
{ACAD_REACTORS
330
19DF6
102
}
330
19DF6
100
AcDbZombieObject
 90
      499
 91
      511
 93
      113
310
90431303A310000000000000910100
  0
ACAD_PROXY_OBJECT
  5
19E07
102
{ACAD_REACTORS
330
19DF6
102
}
330
19DF6
100
AcDbZombieObject
 90
      499
 91
      511
 93
      121
310
9053130303A310000000000001650100
  0
ACAD_PROXY_OBJECT
  5
19E08
102
{ACAD_REACTORS
330
19DF6
102
}
330
19DF6
100
AcDbZombieObject
 90
      499
 91
      511
 93
      257
310
90E312F31323822203D2031272D3022000000000000200FC000000000000284000
  0
ACAD_PROXY_OBJECT
  5
19E09
102
{ACAD_REACTORS
330
19DF6
102
}
330
19DF6
100
AcDbZombieObject
 90
      499
 91
      511
 93
      249
310
90D312F363422203D2031272D3022000000000000240FC000000000000284000
  0
ACAD_PROXY_OBJECT
  5
19E0A
102
{ACAD_REACTORS
330
19DF6
102
}
330
19DF6
100
AcDbZombieObject
 90
      499
 91
      511
 93
      249
310
90D312F333222203D2031272D3022000000000000280FC000000000000284000
  0
ACAD_PROXY_OBJECT
  5
19E0B
102
{ACAD_REACTORS
330
19DF6
102
}
330
19DF6
100
AcDbZombieObject
 90
      499
 91
      511
 93
      249
310
90D312F313622203D2031272D30220000000000002C0FC000000000000284000
  0
ACAD_PROXY_OBJECT
  5
19E0C
102
{ACAD_REACTORS
330
19DF6
102
}
330
19DF6
100
AcDbZombieObject
 90
      499
 91
      511
 93
      249
310
90D332F333222203D2031272D30220000000000002E0FC000000000000284000
  0
ACAD_PROXY_OBJECT
  5
19E0D
102
{ACAD_REACTORS
330
19DF6
102
}
330
19DF6
100
AcDbZombieObject
 90
      499
 91
      511
 93
      241
310
90C312F3822203D2031272D3022000000000000300FC000000000000284000
  0
ACAD_PROXY_OBJECT
  5
19E0E
102
{ACAD_REACTORS
330
19DF6
102
}
330
19DF6
100
AcDbZombieObject
 90
      499
 91
      511
 93
      249
310
90D332F313622203D2031272D3022000000000000320FC000000000000284000
  0
ACAD_PROXY_OBJECT
  5
19E0F
102
{ACAD_REACTORS
330
19DF6
102
}
330
19DF6
100
AcDbZombieObject
 90
      499
 91
      511
 93
      241
310
90C312F3422203D2031272D3022000000000000340FC000000000000284000
  0
ACAD_PROXY_OBJECT
  5
19E10
102
{ACAD_REACTORS
330
19DF6
102
}
330
19DF6
100
AcDbZombieObject
 90
      499
 91
      511
 93
      241
310
90C332F3822203D2031272D3022000000000000360FC000000000000284000
  0
ACAD_PROXY_OBJECT
  5
19E11
102
{ACAD_REACTORS
330
19DF6
102
}
330
19DF6
100
AcDbZombieObject
 90
      499
 91
      511
 93
      241
310
90C312F3222203D2031272D3022000000000000380FC000000000000284000
  0
ACAD_PROXY_OBJECT
  5
19E12
102
{ACAD_REACTORS
330
19DF6
102
}
330
19DF6
100
AcDbZombieObject
 90
      499
 91
      511
 93
      241
310
90C332F3422203D2031272D30220000000000003A0FC000000000000284000
  0
ACAD_PROXY_OBJECT
  5
19E13
102
{ACAD_REACTORS
330
19DF6
102
}
330
19DF6
100
AcDbZombieObject
 90
      499
 91
      511
 93
      161
310
90A3122203D2031272D30224000000000000284000
  0
ACAD_PROXY_OBJECT
  5
19E14
102
{ACAD_REACTORS
330
19DF6
102
}
330
19DF6
100
AcDbZombieObject
 90
      499
 91
      511
 93
      257
310
90E312D312F3222203D2031272D30220000000000003E0FC000000000000284000
  0
ACAD_PROXY_OBJECT
  5
19E15
102
{ACAD_REACTORS
330
19DF6
102
}
330
19DF6
100
AcDbZombieObject
 90
      499
 91
      511
 93
      225
310
90A3322203D2031272D302200000000000002100000000000000284000
  0
ACAD_PROXY_OBJECT
  5
19E16
102
{ACAD_REACTORS
330
19DF6
102
}
330
19DF6
100
AcDbZombieObject
 90
      499
 91
      511
 93
      225
310
90A3622203D2031272D302200000000000006100000000000000284000
  0
ACAD_PROXY_OBJECT
  5
19E17
102
{ACAD_REACTORS
330
19DF6
102
}
330
19DF6
100
AcDbZombieObject
 90
      499
 91
      511
 93
      249
310
90D31272D3022203D2031272D30220000000000000A100000000000000284000
  0
ACAD_PROXY_OBJECT
  5
19DEB
102
{ACAD_REACTORS
330
19DE5
102
}
330
19DE5
100
AcDbZombieObject
 90
      499
 91
      510
 93
      436
310
42CC9915DA5C99599C985B595049028333333333333E3BF0000000000000FB0107901411070040501600405405064090741402480A0340
1001
ACAD
1000
AcDbSavedByObjectVersion
1070
     0
  0
ACAD_PROXY_OBJECT
  5
19DED
102
{ACAD_REACTORS
330
19DE5
102
}
330
19DE5
100
AcDbZombieObject
 90
      499
 91
      510
 93
      500
310
424CD108121A5919195B90640502408333333333333E3BF0000000000000FB01079024090700405020000000000001110200405405064090740C02480A0340
1001
ACAD
1000
AcDbSavedByObjectVersion
1070
     0
  0
ACAD_PROXY_OBJECT
  5
19DEC
102
{ACAD_REACTORS
330
19DE5
102
}
330
19DE5
100
AcDbZombieObject
 90
      499
 91
      510
 93
      436
310
42CCD915DA5C99599C985B595059028333333333333E3BF0000000000000FB0107901411070040501600405405064090741402480A0340
1001
ACAD
1000
AcDbSavedByObjectVersion
1070
     0
  0
ACAD_PROXY_OBJECT
  5
19DEA
102
{ACAD_REACTORS
330
19DE5
102
}
330
19DE5
100
AcDbZombieObject
 90
      499
 91
      510
 93
      388
310
4150985CDA58D07406404333333333333E3BF0000000000000FB0107A41107004050150841D405064090741402480A0350
1001
ACAD
1000
AcDbSavedByObjectVersion
1070
     0
  0
ACAD_PROXY_OBJECT
  5
19DF1
102
{ACAD_REACTORS
330
19DE5
102
}
330
19DE5
100
AcDbZombieObject
 90
      499
 91
      510
 93
      428
310
42109C9A59DA1D195B90C409028333333333333E3BF0000000000000FB010790141107004050150841D405064090741402480A029950
1001
ACAD
1000
AcDbSavedByObjectVersion
1070
     0
  0
ACAD_PROXY_OBJECT
  5
19DF5
102
{ACAD_REACTORS
330
19DE5
102
}
330
19DE5
100
AcDbZombieObject
 90
      499
 91
      510
 93
      452
310
42D0DBDB1BDC90DA185B99D95104090240C333333333333E3BF0000000000000FB0108901411070040501508421405064090741402480A0350
1001
ACAD
1000
AcDbSavedByObjectVersion
1070
     0
  0
ACAD_PROXY_OBJECT
  5
19DEE
102
{ACAD_REACTORS
330
19DE5
102
}
330
19DE5
100
AcDbZombieObject
 90
      499
 91
      510
 93
      500
310
4290DBDB98D95C1D1D585B10940D028333333333333E3BF0000000000000FB0107902409070040501000000000000111010841D405064090740C02480A0340
1001
ACAD
1000
AcDbSavedByObjectVersion
1070
     0
  0
ACAD_PROXY_OBJECT
  5
19DF0
102
{ACAD_REACTORS
330
19DE5
102
}
330
19DE5
100
AcDbZombieObject
 90
      499
 91
      510
 93
      412
310
40D11A5B50B409028333333333333E3BF0000000000000FB010790141107004050150841D405064090741402480A02677FFFFFD0
1001
ACAD
1000
AcDbSavedByObjectVersion
1070
     0
  0
ACAD_PROXY_OBJECT
  5
1E02A
102
{ACAD_REACTORS
330
19DE5
102
}
330
19DE5
100
AcDbZombieObject
 90
      499
 91
      510
 93
      452
310
43115919D950DBDB1BDC93D999916409028333333333333E3BF0000000000000FB010790141107004050150841D405064090741402480A0350
1001
ACAD
1000
AcDbSavedByObjectVersion
1070
     0
  0
ACAD_PROXY_OBJECT
  5
19DF4
102
{ACAD_REACTORS
330
19DE5
102
}
330
19DE5
100
AcDbZombieObject
 90
      499
 91
      510
 93
      444
310
42D19858D95C185D1D195C9B90F409028333333333333E3BF0000000000000FB010790141107004050150841D405064090741402480A0350
1001
ACAD
1000
AcDbSavedByObjectVersion
1070
     0
  0
ACAD_PROXY_OBJECT
  5
19DE6
102
{ACAD_REACTORS
330
19DE5
102
}
330
19DE5
100
AcDbZombieObject
 90
      499
 91
      510
 93
      388
310
41119B185D240901404333333333333E3BF0000000000000F9010740A41107004050150841D405064090741402480A1B50
1001
ACAD
1000
AcDbSavedByObjectVersion
1070
     0
  0
ACAD_PROXY_OBJECT
  5
19DE7
102
{ACAD_REACTORS
330
19DE5
102
}
330
19DE5
100
AcDbZombieObject
 90
      499
 91
      510
 93
      476
310
43519B185D15DA5D1A115919D95CD0140901404333333333333E3BF0000000000000F9010740901411070040501600405405064090741402480A1B50
1001
ACAD
1000
AcDbSavedByObjectVersion
1070
     0
  0
ACAD_PROXY_OBJECT
  5
19DE8
102
{ACAD_REACTORS
330
19DE5
102
}
330
19DE5
100
AcDbZombieObject
 90
      499
 91
      510
 93
      412
310
41D1DBDD5C985D5910240902404333333333333E3BF0000000000000F9010740A411070040501641D405064090741402480A1B50
1001
ACAD
1000
AcDbSavedByObjectVersion
1070
     0
  0
ACAD_PROXY_OBJECT
  5
19DE9
102
{ACAD_REACTORS
330
19DE5
102
}
330
19DE5
100
AcDbZombieObject
 90
      499
 91
      510
 93
      500
310
4411DBDD5C985D5915DA5D1A115919D95CD0340902404333333333333E3BF0000000000000F9010740901411070040501600405405064090741402480A1B50
1001
ACAD
1000
AcDbSavedByObjectVersion
1070
     0
  0
ACAD_PROXY_OBJECT
  5
1FBC7
102
{ACAD_REACTORS
330
19DE5
102
}
330
19DE5
100
AcDbZombieObject
 90
      499
 91
      510
 93
      476
310
41921A5919195B90640502408333333333333E33F0000000000000F901079024090700405020000000000001110200405405064090740C02480A0340
1001
ACAD
1000
AcDbSavedByObjectVersion
1070
     0
  0
ACAD_PROXY_OBJECT
  5
1E028
102
{ACAD_REACTORS
330
19DE5
102
}
330
19DE5
100
AcDbZombieObject
 90
      499
 91
      510
 93
      428
310
42529A5D1D195C93D999914409028333333333333E3BF0000000000000FB010790141107004050150A41D405064090741402480A0350
1001
ACAD
1000
AcDbSavedByObjectVersion
1070
     0
  0
ACAD_PROXY_OBJECT
  5
19DF3
102
{ACAD_REACTORS
330
19DE5
102
}
330
19DE5
100
AcDbZombieObject
 90
      499
 91
      510
 93
      444
310
42D31A5B995C185D1D195C9B90E409028333333333333E3BF0000000000000FB010790141107004050750841D405064090741402483A0350
1001
ACAD
1000
AcDbSavedByObjectVersion
1070
     0
  0
ACAD_PROXY_OBJECT
  5
1FBCD
102
{ACAD_REACTORS
330
19DE5
102
}
330
19DE5
100
AcDbZombieObject
 90
      499
 91
      510
 93
      484
310
42135BD9195B1A5B99D0A409038333333333333E33F0000000000000F901074090290700405010000000000201990108421405064090741402480A1B40
1001
ACAD
1000
AcDbSavedByObjectVersion
1070
     0
  0
ACAD_PROXY_OBJECT
  5
1E029
102
{ACAD_REACTORS
330
19DE5
102
}
330
19DE5
100
AcDbZombieObject
 90
      499
 91
      510
 93
      444
310
42D3DD995C9A185B99D3D999915409028333333333333E3BF0000000000000FB010790141107004050150941D405064090741402480A0350
1001
ACAD
1000
AcDbSavedByObjectVersion
1070
     0
  0
ACAD_PROXY_OBJECT
  5
19DEF
102
{ACAD_REACTORS
330
19DE5
102
}
330
19DE5
100
AcDbZombieObject
 90
      499
 91
      510
 93
      420
310
425499585B1A5CDD1A58D08409028333333333333E3BF0000000000000FB01079019070040501508421405064090741402480A1B40
1001
ACAD
1000
AcDbSavedByObjectVersion
1070
     0
  0
ACAD_PROXY_OBJECT
  5
1FBCC
102
{ACAD_REACTORS
330
19DE5
102
}
330
19DE5
100
AcDbZombieObject
 90
      499
 91
      510
 93
      420
310
4194DA1859195911B40902404333333333333E33F0000000000000F9010740A41107004050150800405405064090840C02480A0B40
1001
ACAD
1000
AcDbSavedByObjectVersion
1070
     0
  0
ACAD_PROXY_OBJECT
  5
1FBCB
102
{ACAD_REACTORS
330
19DE5
102
}
330
19DE5
100
AcDbZombieObject
 90
      499
 91
      510
 93
      516
310
4454DA18591959081DDA5D1A08195919D95CD1A40902404333333333333E33F0000000000000F901074090142907004050250800405405064090740C02480A0B40
1001
ACAD
1000
AcDbSavedByObjectVersion
1070
     0
  0
ACAD_PROXY_OBJECT
  5
1FBC8
102
{ACAD_REACTORS
330
19DE5
102
}
330
19DE5
100
AcDbZombieObject
 90
      499
 91
      510
 93
      532
310
4394DA1859195CC81BD98811DC985E5174090240C333333333333E33F0000000000000F901079024090741D01000000000000111010841D405064090740C02480A0340
1001
ACAD
1000
AcDbSavedByObjectVersion
1070
     0
  0
ACAD_PROXY_OBJECT
  5
1FBC9
102
{ACAD_REACTORS
330
19DE5
102
}
330
19DE5
100
AcDbZombieObject
 90
      499
 91
      510
 93
      476
310
41D4DAD95D18DA1E51840502408333333333333E33F0000000000000F901079024090741D01000000000000111010B41D405064090741802480A0340
1001
ACAD
1000
AcDbSavedByObjectVersion
1070
     0
  0
ACAD_PROXY_OBJECT
  5
19DF2
102
{ACAD_REACTORS
330
19DE5
102
}
330
19DE5
100
AcDbZombieObject
 90
      499
 91
      510
 93
      412
310
41D51A1A58DAD95B90D409028333333333333E3BF0000000000000FB010790141107004050150C41D405064090741402480A0350
1001
ACAD
1000
AcDbSavedByObjectVersion
1070
     0
  0
ACAD_PROXY_OBJECT
  5
1FBC6
102
{ACAD_REACTORS
330
19DE5
102
}
330
19DE5
100
AcDbZombieObject
 90
      499
 91
      510
 93
      420
310
4255DA5C99599C985B595059028333333333333E33F0000000000000F90107901411070040501600405405064090740C02480A0340
1001
ACAD
1000
AcDbSavedByObjectVersion
1070
     0
  0
ACAD_PROXY_OBJECT
  5
1FBCA
102
{ACAD_REACTORS
330
19DE5
102
}
330
19DE5
100
AcDbZombieObject
 90
      499
 91
      510
 93
      404
310
41560B54985E51940902404000000000000E03F0000000000000F9010740501907004050150841D405064090740C02480A1B40
1001
ACAD
1000
AcDbSavedByObjectVersion
1070
     0
  0
XRECORD
  5
23220
102
{ACAD_REACTORS
330
2321F
102
}
330
2321F
100
AcDbXrecord
340
2D0
  0
XRECORD
  5
23221
102
{ACAD_REACTORS
330
2321F
102
}
330
2321F
100
AcDbXrecord
340
2CF
  0
DICTIONARYVAR
  5
20376
102
{ACAD_REACTORS
330
37
102
}
330
37
100
DictionaryVariables
280
     0
  1
1:1
  0
DICTIONARYVAR
  5
1AC19
102
{ACAD_REACTORS
330
37
102
}
330
37
100
DictionaryVariables
280
     0
  1
Standard
  0
DICTIONARYVAR
  5
4F1
102
{ACAD_REACTORS
330
37
102
}
330
37
100
DictionaryVariables
280
     0
  1
Standard
  0
DICTIONARYVAR
  5
38
102
{ACAD_REACTORS
330
37
102
}
330
37
100
DictionaryVariables
280
     0
  1
-1
  0
DICTIONARYVAR
  5
408
102
{ACAD_REACTORS
330
37
102
}
330
37
100
DictionaryVariables
280
     0
  1
2
  0
DICTIONARYVAR
  5
1891
102
{ACAD_REACTORS
330
37
102
}
330
37
100
DictionaryVariables
280
     0
  1
1
  0
DICTIONARYVAR
  5
1AC1C
102
{ACAD_REACTORS
330
37
102
}
330
37
100
DictionaryVariables
280
     0
  1
0
  0
DICTIONARYVAR
  5
1895
102
{ACAD_REACTORS
330
37
102
}
330
37
100
DictionaryVariables
280
     0
  1
8
  0
DICTIONARYVAR
  5
1894
102
{ACAD_REACTORS
330
37
102
}
330
37
100
DictionaryVariables
280
     0
  1
1
  0
DICTIONARYVAR
  5
203CC
102
{ACAD_REACTORS
330
37
102
}
330
37
100
DictionaryVariables
280
     0
  1
0
  0
DICTIONARYVAR
  5
1892
102
{ACAD_REACTORS
330
37
102
}
330
37
100
DictionaryVariables
280
     0
  1
8
  0
DICTIONARYVAR
  5
1893
102
{ACAD_REACTORS
330
37
102
}
330
37
100
DictionaryVariables
280
     0
  1
2
  0
DICTIONARYVAR
  5
409
102
{ACAD_REACTORS
330
37
102
}
330
37
100
DictionaryVariables
280
     0
  1

  0
DICTIONARYVAR
  5
1AC1B
102
{ACAD_REACTORS
330
37
102
}
330
37
100
DictionaryVariables
280
     0
  1
127
  0
DICTIONARYVAR
  5
1FBC5
102
{ACAD_REACTORS
330
37
102
}
330
37
100
DictionaryVariables
280
     0
  1
2
  0
DICTIONARY
  5
233BD
330
19DD5
100
AcDbDictionary
  3
ACAD_XREC_ROUNDTRIP
360
233BE
1001
ACAD
1000
TREAT_AS_HARD
1070
     1
  0
DICTIONARY
  5
233BF
330
19DCD
100
AcDbDictionary
  3
ACAD_XREC_ROUNDTRIP
360
233C0
1001
ACAD
1000
TREAT_AS_HARD
1070
     1
  0
DICTIONARY
  5
233C1
330
19DDD
100
AcDbDictionary
  3
ACAD_XREC_ROUNDTRIP
360
233C2
1001
ACAD
1000
TREAT_AS_HARD
1070
     1
  0
XRECORD
  5
233BE
102
{ACAD_REACTORS
330
233BD
102
}
330
233BD
100
AcDbXrecord
102
MATERIAL
148
0.0
149
0.0
149
0.0
 93
        0
 94
      127
282
     0
 72
     0
 77
     0
171
     0
175
     0
179
     0
273
     0
  0
XRECORD
  5
233C0
102
{ACAD_REACTORS
330
233BF
102
}
330
233BF
100
AcDbXrecord
102
MATERIAL
148
0.0
149
0.0
149
0.0
 93
        0
 94
      127
282
     0
 72
     0
 77
     0
171
     0
175
     0
179
     0
273
     0
  0
XRECORD
  5
233C2
102
{ACAD_REACTORS
330
233C1
102
}
330
233C1
100
AcDbXrecord
102
MATERIAL
148
0.0
149
0.0
149
0.0
 93
        0
 94
      127
282
     0
 72
     0
 77
     0
171
     0
175
     0
179
     0
273
     0
  0
ENDSEC
  0
EOF
