  0
SECTION
  2
HEADER
  9
$ACADVER
  1
AC1009
  9
$INSBASE
 10
0.0
 20
0.0
 30
0.0
  9
$EXTMIN
 10
-70.482158626556355
 20
-104.0832488118216
 30
-0.00000000000091
  9
$EXTMAX
 10
257.93598637344599
 20
148.4753380261829
 30
0.0000000000025623
  9
$LIMMIN
 10
0.0
 20
0.0
  9
$LIMMAX
 10
420.0
 20
297.0
  9
$ORTHOMODE
 70
     0
  9
$REGENMODE
 70
     1
  9
$FILLMODE
 70
     1
  9
$QTEXTMODE
 70
     0
  9
$MIRRTEXT
 70
     0
  9
$DRAGMODE
 70
     2
  9
$LTSCALE
 40
0.5
  9
$OSMODE
 70
    63
  9
$ATTMODE
 70
     1
  9
$TEXTSIZE
 40
2.7999999999999989
  9
$TRACEWID
 40
1.0
  9
$TEXTSTYLE
  7
STANDARD
  9
$CLAYER
  8
1TEXT
  9
$CELTYPE
  6
BYLAYER
  9
$CECOLOR
 62
   256
  9
$DIMSCALE
 40
1.3
  9
$DIMASZ
 40
2.0
  9
$DIMEXO
 40
0.0
  9
$DIMDLI
 40
7.0
  9
$DIMRND
 40
0.0
  9
$DIMDLE
 40
0.0
  9
$DIMEXE
 40
1.0
  9
$DIMTP
 40
0.0
  9
$DIMTM
 40
0.0
  9
$DIMTXT
 40
3.5
  9
$DIMCEN
 40
0.0
  9
$DIMTSZ
 40
0.0
  9
$DIMTOL
 70
     0
  9
$DIMLIM
 70
     0
  9
$DIMTIH
 70
     0
  9
$DIMTOH
 70
     0
  9
$DIMSE1
 70
     0
  9
$DIMSE2
 70
     0
  9
$DIMTAD
 70
     1
  9
$DIMZIN
 70
     8
  9
$DIMBLK
  1

  9
$DIMASO
 70
     1
  9
$DIMSHO
 70
     1
  9
$DIMPOST
  1
 
  9
$DIMAPOST
  1

  9
$DIMALT
 70
     0
  9
$DIMALTD
 70
     2
  9
$DIMALTF
 40
25.399999999999999
  9
$DIMLFAC
 40
1.0
  9
$DIMTOFL
 70
     1
  9
$DIMTVP
 40
0.0
  9
$DIMTIX
 70
     0
  9
$DIMSOXD
 70
     0
  9
$DIMSAH
 70
     1
  9
$DIMBLK1
  1
OPEN30
  9
$DIMBLK2
  1
OPEN30
  9
$DIMSTYLE
  2
NEWX10
  9
$DIMCLRD
 70
   256
  9
$DIMCLRE
 70
   256
  9
$DIMCLRT
 70
   201
  9
$DIMTFAC
 40
0.7
  9
$DIMGAP
 40
0.7
  9
$LUNITS
 70
     2
  9
$LUPREC
 70
     4
  9
$SKETCHINC
 40
1.0
  9
$FILLETRAD
 40
0.0
  9
$AUNITS
 70
     0
  9
$AUPREC
 70
     2
  9
$MENU
  1
acad
  9
$ELEVATION
 40
0.0
  9
$PELEVATION
 40
0.0
  9
$THICKNESS
 40
0.0
  9
$LIMCHECK
 70
     0
  9
$BLIPMODE
 70
     0
  9
$CHAMFERA
 40
10.0
  9
$CHAMFERB
 40
10.0
  9
$SKPOLY
 70
     0
  9
$TDCREATE
 40
2451318.621352917
  9
$TDUPDATE
 40
2457014.6591554512
  9
$TDINDWG
 40
0.5187015394
  9
$TDUSRTIMER
 40
0.5187015394
  9
$USRTIMER
 70
     1
  9
$ANGBASE
 50
0.0
  9
$ANGDIR
 70
     0
  9
$PDMODE
 70
     0
  9
$PDSIZE
 40
0.0
  9
$PLINEWID
 40
0.0
  9
$COORDS
 70
     0
  9
$SPLFRAME
 70
     0
  9
$SPLINETYPE
 70
     6
  9
$SPLINESEGS
 70
     8
  9
$ATTDIA
 70
     0
  9
$ATTREQ
 70
     1
  9
$HANDLING
 70
     1
  9
$HANDSEED
  5
21A8
  9
$SURFTAB1
 70
     6
  9
$SURFTAB2
 70
     6
  9
$SURFTYPE
 70
     6
  9
$SURFU
 70
     6
  9
$SURFV
 70
     6
  9
$UCSNAME
  2

  9
$UCSORG
 10
0.0
 20
0.0
 30
0.0
  9
$UCSXDIR
 10
1.0
 20
0.0
 30
0.0
  9
$UCSYDIR
 10
0.0
 20
1.0
 30
0.0
  9
$PUCSNAME
  2

  9
$PUCSORG
 10
0.0
 20
0.0
 30
0.0
  9
$PUCSXDIR
 10
1.0
 20
0.0
 30
0.0
  9
$PUCSYDIR
 10
0.0
 20
1.0
 30
0.0
  9
$USERI1
 70
     0
  9
$USERI2
 70
     0
  9
$USERI3
 70
     0
  9
$USERI4
 70
     0
  9
$USERI5
 70
     0
  9
$USERR1
 40
0.0
  9
$USERR2
 40
0.0
  9
$USERR3
 40
0.0
  9
$USERR4
 40
0.0
  9
$USERR5
 40
0.0
  9
$WORLDVIEW
 70
     1
  9
$SHADEDGE
 70
     3
  9
$SHADEDIF
 70
    70
  9
$TILEMODE
 70
     1
  9
$MAXACTVP
 70
    48
  9
$PLIMCHECK
 70
     0
  9
$PEXTMIN
 10
1.0000000000000000E+020
 20
1.0000000000000000E+020
 30
1.0000000000000000E+020
  9
$PEXTMAX
 10
-1.0000000000000000E+020
 20
-1.0000000000000000E+020
 30
-1.0000000000000000E+020
  9
$PLIMMIN
 10
0.0
 20
0.0
  9
$PLIMMAX
 10
420.0
 20
297.0
  9
$UNITMODE
 70
     0
  9
$VISRETAIN
 70
     1
  9
$PLINEGEN
 70
     0
  9
$PSLTSCALE
 70
     1
  0
ENDSEC
  0
SECTION
  2
TABLES
  0
TABLE
  2
VPORT
 70
     1
  0
VPORT
  2
*ACTIVE
 70
     0
 10
0.0
 20
0.0
 11
1.0
 21
1.0
 12
93.724138218004384
 22
22.19163412684804
 13
0.0
 23
0.0
 14
10.0
 24
10.0
 15
10.0
 25
10.0
 16
0.0
 26
0.0
 36
1.0
 17
0.0
 27
0.0
 37
0.0
 40
267.8443364314889
 41
2.1749379652605461
 42
50.0
 43
0.0
 44
0.0
 50
0.0
 51
0.0
 71
     0
 72
   100
 73
     1
 74
     1
 75
     0
 76
     0
 77
     0
 78
     0
  0
ENDTAB
  0
TABLE
  2
LTYPE
 70
    12
  0
LTYPE
  2
CONTINUOUS
 70
     0
  3
Solid line
 72
    65
 73
     0
 40
0.0
  0
LTYPE
  2
XREF1|CENTER2
 70
    48
  3
Center (.5x) ___ _ ___ _ ___ _ ___ _ ___ _ ___
 72
    65
 73
     4
 40
28.574999999999999
 49
19.050000000000001
 49
-3.1749999999999989
 49
3.1749999999999989
 49
-3.1749999999999989
  0
LTYPE
  2
A3WAKUDAKE|CENTER2
 70
    48
  3
Center (.5x) ___ _ ___ _ ___ _ ___ _ ___ _ ___
 72
    65
 73
     4
 40
28.574999999999999
 49
19.050000000000001
 49
-3.1749999999999989
 49
3.1749999999999989
 49
-3.1749999999999989
  0
ENDTAB
  0
TABLE
  2
LAYER
 70
    50
  0
LAYER
  2
0
 70
     0
 62
     7
  6
CONTINUOUS
  0
LAYER
  2
1TEXT
 70
     0
 62
     7
  6
CONTINUOUS
  0
LAYER
  2
01
 70
     0
 62
     1
  6
CONTINUOUS
  0
LAYER
  2
A3WAKUDAKE|THICK
 70
    48
 62
     7
  6
CONTINUOUS
  0
LAYER
  2
A3WAKUDAKE|POINT
 70
    48
 62
     7
  6
CONTINUOUS
  0
LAYER
  2
A3WAKUDAKE|1CENTER
 70
    48
 62
     7
  6
A3WAKUDAKE|CENTER2
  0
LAYER
  2
A3WAKUDAKE|0-6
 70
    48
 62
     7
  6
CONTINUOUS
  0
LAYER
  2
A3WAKUDAKE|1DIM
 70
    48
 62
     7
  6
CONTINUOUS
  0
LAYER
  2
XREF1|1CENTER
 70
    48
 62
     7
  6
XREF1|CENTER2
  0
ENDTAB
  0
TABLE
  2
STYLE
 70
     7
  0
STYLE
  2
STANDARD
 70
     0
 40
0.0
 41
1.0
 50
0.0
 71
     0
 42
2.7999999999999989
  3
romans.shx
  4
extfont.shx
  0
ENDTAB
  0
TABLE
  2
VIEW
 70
     5
  0
ENDTAB
  0
TABLE
  2
UCS
 70
     0
  0
ENDTAB
  0
TABLE
  2
APPID
 70
    12
  0
APPID
  2
ACAD
 70
     0
  0
APPID
  2
DRAWINGVARIABLESXDATA
 70
     0
  0
APPID
  2
CONTENTTABDATA
 70
     0
  0
APPID
  2
CONTENTCURRENTTAB
 70
     0
  0
APPID
  2
CONTENTBLOCKDESCRIPTION
 70
     0
  0
APPID
  2
CONTENTBLOCKICON
 70
     0
  0
APPID
  2
CONTENTLONGBLOCKNAME
 70
     0
  0
APPID
  2
ACAD_MLEADERVER
 70
     0
  0
APPID
  2
ACAD_PSEXT
 70
     0
  0
APPID
  2
ACADANNOTATIVE
 70
     0
  0
APPID
  2
ACAD_NAV_VCDISPLAY
 70
     0
  0
APPID
  2
ACAD_EXEMPT_FROM_CAD_STANDARDS
 70
     0
  0
ENDTAB
  0
TABLE
  2
DIMSTYLE
 70
     8
  0
DIMSTYLE
  2
NEWX10
 70
     0
  3
 
  4

  5

  6
OPEN30
  7
OPEN30
 40
1.0
 41
2.0
 42
0.0
 43
7.0
 44
1.0
 45
0.0
 46
0.0
 47
0.0
 48
0.0
140
3.5
141
0.0
142
0.0
143
25.399999999999999
144
1.0
145
0.0
146
0.7
147
0.7
 71
     0
 72
     0
 73
     0
 74
     0
 75
     0
 76
     0
 77
     1
 78
     8
170
     0
171
     2
172
     1
173
     1
174
     0
175
     0
176
   256
177
   256
178
   201
  0
ENDTAB
  0
ENDSEC
  0
SECTION
  2
BLOCKS
  0
BLOCK
  8
0
  2
$MODEL_SPACE
 70
     0
 10
0.0
 20
0.0
 30
0.0
  3
$MODEL_SPACE
  1

  0
ENDBLK
  5
1A
  8
0
  0
BLOCK
 67
     1
  8
0
  2
$PAPER_SPACE
 70
     0
 10
0.0
 20
0.0
 30
0.0
  3
$PAPER_SPACE
  1

  0
ENDBLK
  5
17
 67
     1
  8
0
  0
BLOCK
  8
0
  2
_OPEN30
 70
     0
 10
0.0
 20
0.0
 30
0.0
  3
_OPEN30
  1

  0
LINE
  5
44
  8
0
  6
BYBLOCK
 62
     0
 10
-1.0
 20
0.26794919
 30
0.0
 11
0.0
 21
0.0
 31
0.0
  0
LINE
  5
45
  8
0
  6
BYBLOCK
 62
     0
 10
0.0
 20
0.0
 30
0.0
 11
-1.0
 21
-0.26794919
 31
0.0
  0
LINE
  5
46
  8
0
  6
BYBLOCK
 62
     0
 10
0.0
 20
0.0
 30
0.0
 11
-1.0
 21
0.0
 31
0.0
  0
ENDBLK
  5
47
  8
0
  0
BLOCK
  8
0
  2
XREF1
 70
    36
 10
0.0
 20
0.0
 30
0.0
  3
XREF1
  1
D:\ACLT\FORMAT\KAWAJUN(9)図面用.dwg
  0
ENDBLK
  5
5D
  8
0
  0
BLOCK
  8
0
  2
A3WAKUDAKE
 70
    36
 10
0.0
 20
0.0
 30
0.0
  3
A3WAKUDAKE
  1
D:\ACLT\FORMAT\A3WAKUdake.dwg
  0
ENDBLK
  5
1584
  8
0
  0
ENDSEC
  0
SECTION
  2
ENTITIES
  0
LINE
  5
1028
  8
01
 10
57.024283011644677
 20
58.598523930515292
 30
0.0
 11
57.024282687120603
 21
51.17426911013478
 31
0.0
  0
LINE
  5
1029
  8
01
 10
57.02427741990391
 20
-69.325762727866035
 30
0.0
 11
57.02427709537983
 21
-76.750017548245864
 31
0.0
  0
LINE
  5
1030
  8
01
 10
91.124280108155062
 20
-24.825737234650319
 30
0.0
 11
91.124279299493324
 21
-43.325737234649857
 31
0.0
  0
LINE
  5
1031
  8
01
 10
91.124280108155062
 20
-24.825737234650319
 30
0.0
 11
90.524278960729816
 21
-24.825737208423359
 31
0.0
  0
LINE
  5
1032
  8
01
 10
91.124279299493324
 20
-43.325737234649857
 30
0.0
 11
90.524278960729802
 21
-43.325737208423106
 31
0.0
  0
LINE
  5
1041
  8
01
 10
51.201166761692321
 20
54.924279110131351
 30
0.0
 11
92.227640458201449
 21
54.924279110131351
 31
0.0
  0
LINE
  5
1042
  8
01
 10
51.201166761692321
 20
-73.075772727861931
 30
0.0
 11
92.227640458201449
 21
-73.075772727861931
 31
0.0
  0
LINE
  5
1054
  8
01
 10
82.024282687120589
 20
51.174269110135349
 30
0.0
 11
57.024282687119687
 21
51.17426911013478
 31
0.0
  0
LINE
  5
1055
  8
01
 10
82.024283011644684
 20
58.598523930515292
 30
0.0
 11
57.024283011643782
 21
58.598523930515171
 31
0.0
  0
LINE
  5
1056
  8
01
 10
82.024277419904806
 20
-69.325762727865936
 30
0.0
 11
57.02427741990482
 21
-69.325762727865936
 31
0.0
  0
LINE
  5
1057
  8
01
 10
82.024277095381649
 20
-76.750017548245864
 30
0.0
 11
57.024277095380739
 21
-76.750017548245864
 31
0.0
  0
LINE
  5
105E
  8
01
 10
33.524278960729823
 20
79.424279110129305
 30
0.0
 11
33.524278960729823
 21
-97.575720889870695
 31
0.0
  0
ARC
  5
105F
  8
01
 10
34.024278960729823
 20
-97.575720889870695
 30
0.0
 40
0.5
 50
180.0
 51
270.0
  0
LINE
  5
1060
  8
01
 10
42.024278960729823
 20
79.924279110129305
 30
0.0
 11
42.024278960729823
 21
-98.075720889870695
 31
0.0
  0
LINE
  5
1061
  8
01
 10
34.024278960729823
 20
79.924279110129305
 30
0.0
 11
42.024278960729823
 21
79.924279110129305
 31
0.0
  0
ARC
  5
1062
  8
01
 10
34.024278960729823
 20
79.424279110129305
 30
0.0
 40
0.5
 50
90.0
 51
180.0
  0
LINE
  5
1063
  8
01
 10
34.024278960729823
 20
-98.075720889870695
 30
0.0
 11
42.024278960729823
 21
-98.075720889870695
 31
0.0
  0
LINE
  5
1064
  8
01
 10
27.649687202387899
 20
-34.075720889870702
 30
0.0
 11
48.786562900030503
 21
-34.075720889870702
 31
0.0
  0
LINE
  5
1065
  8
01
 10
-49.996449097579671
 20
79.424279110129305
 30
0.0
 11
-49.996449097579671
 21
-97.575720889870695
 31
0.0
  0
ARC
  5
1066
  8
01
 10
-49.496449097579671
 20
-97.575720889870695
 30
0.0
 40
0.5
 50
180.0
 51
270.0
  0
LINE
  5
1067
  8
01
 10
-24.996449097579671
 20
132.5878892591893
 30
0.0
 11
-24.996449097579671
 21
100.87922699396999
 31
0.0
  0
LINE
  5
1068
  8
01
 10
0.0035509024203293
 20
79.424279110129305
 30
0.0
 11
0.0035509024203293
 21
-97.575720889870695
 31
0.0
  0
ARC
  5
1069
  8
01
 10
-0.4964490975796707
 20
79.424279110129305
 30
0.0
 40
0.5
 50
0.0
 51
90.0
  0
LINE
  5
106A
  8
01
 10
-0.4964490975796707
 20
-98.075720889870695
 30
0.0
 11
-49.496449097579671
 21
-98.075720889870695
 31
0.0
  0
ARC
  5
106B
  8
01
 10
-0.4964490975796707
 20
-97.575720889870695
 30
0.0
 40
0.5
 50
270.0
 51
0.0
  0
LINE
  5
106C
  8
01
 10
-12.79821477912787
 20
-34.075720889870702
 30
0.0
 11
-37.83463798371281
 21
-34.075720889870702
 31
0.0
  0
LINE
  5
106D
  8
01
 10
-49.496449097579671
 20
79.924279110129305
 30
0.0
 11
-0.4964490975796707
 21
79.924279110129305
 31
0.0
  0
ARC
  5
106E
  8
01
 10
-49.496449097579671
 20
79.424279110129305
 30
0.0
 40
0.5
 50
90.0
 51
180.0
  0
CIRCLE
  5
106F
  8
01
 10
-24.996449097579671
 20
-34.075720889870702
 30
0.0
 40
9.5
  0
LINE
  5
1072
  8
01
 10
123.2639079073972
 20
79.424263358198445
 30
0.0
 11
123.2639079073972
 21
-97.575736641801555
 31
0.0
  0
ARC
  5
1073
  8
01
 10
123.7639079073972
 20
-97.575736641801555
 30
0.0
 40
0.5
 50
180.0
 51
270.0
  0
LINE
  5
1074
  8
01
 10
148.2639079073972
 20
84.173509972172965
 30
0.0
 11
148.2639079073972
 21
-101.6687713191631
 31
0.0
  0
LINE
  5
1075
  8
01
 10
173.2639079073972
 20
79.424263358198445
 30
0.0
 11
173.2639079073972
 21
-97.575736641801555
 31
0.0
  0
ARC
  5
1076
  8
01
 10
172.7639079073972
 20
79.424263358198445
 30
0.0
 40
0.5
 50
0.0
 51
90.0
  0
LINE
  5
1077
  8
01
 10
172.7639079073972
 20
-98.075736641801541
 30
0.0
 11
123.7639079073972
 21
-98.075736641801541
 31
0.0
  0
ARC
  5
1078
  8
01
 10
172.7639079073972
 20
-97.575736641801555
 30
0.0
 40
0.5
 50
270.0
 51
0.0
  0
LINE
  5
1079
  8
01
 10
160.46214222584899
 20
-34.075736641801541
 30
0.0
 11
135.425719021264
 21
-34.075736641801541
 31
0.0
  0
LINE
  5
107A
  8
01
 10
123.7639079073972
 20
79.924263358198459
 30
0.0
 11
172.7639079073972
 21
79.924263358198459
 31
0.0
  0
ARC
  5
107B
  8
01
 10
123.7639079073972
 20
79.424263358198445
 30
0.0
 40
0.5
 50
90.0
 51
180.0
  0
CIRCLE
  5
107C
  8
01
 10
148.2639079073972
 20
-34.075736641801541
 30
0.0
 40
9.5
  0
LINE
  5
107F
  8
01
 10
90.524278960729816
 20
79.424263163123442
 30
0.0
 11
90.524278960729774
 21
-97.575736836876558
 31
0.0
  0
ARC
  5
1083
  8
01
 10
90.024278960729816
 20
-97.575736836876558
 30
0.0
 40
0.5
 50
270.0
 51
0.0
  0
LINE
  5
1084
  8
01
 10
82.024278960729816
 20
79.924263163123442
 30
0.0
 11
82.024278960729816
 21
-98.075736836876573
 31
0.0
  0
LINE
  5
1086
  8
01
 10
90.024278960729816
 20
79.924263163123442
 30
0.0
 11
82.024278960729816
 21
79.924263163123442
 31
0.0
  0
ARC
  5
1088
  8
01
 10
90.024278960729816
 20
79.424263163123442
 30
0.0
 40
0.5
 50
0.0
 51
90.0
  0
LINE
  5
1089
  8
01
 10
90.024278960729816
 20
-98.075736836876573
 30
0.0
 11
82.024278960729816
 21
-98.075736836876573
 31
0.0
  0
LINE
  5
108B
  8
01
 10
96.398870719071752
 20
-34.075736836876558
 30
0.0
 11
75.261995021429129
 21
-34.075736836876558
 31
0.0
  0
LINE
  5
1503
  8
01
 10
32.924278621966323
 20
-43.325737234649857
 30
0.0
 11
33.524278960729831
 21
-43.325737208423106
 31
0.0
  0
LINE
  5
1504
  8
01
 10
32.92427781330457
 20
-24.825737234650319
 30
0.0
 11
33.524278960729823
 21
-24.825737208423359
 31
0.0
  0
LINE
  5
1505
  8
01
 10
32.92427781330457
 20
-24.825737234650319
 30
0.0
 11
32.924278621966323
 21
-43.325737234649857
 31
0.0
  0
TEXT
  5
1514
  8
01
 10
211.7938538501686
 20
-49.886469716769881
 30
0.0
 40
4.0
  1
付属ねじ
  0
LINE
  5
1557
  8
01
 10
-49.996449097579671
 20
128.44813664630581
 30
0.0
 11
-49.996449097579671
 21
120.4481366463058
 31
0.0
  0
LINE
  5
1558
  8
01
 10
0.0035509024203293
 20
128.44813664630581
 30
0.0
 11
0.0035509024203293
 21
120.4481366463058
 31
0.0
  0
LINE
  5
1559
  8
01
 10
-49.996449097579671
 20
128.44813664630581
 30
0.0
 11
0.0035509024203293
 21
128.44813664630581
 31
0.0
  0
LINE
  5
155A
  8
01
 10
-49.496449097579671
 20
119.9481366463058
 30
0.0
 11
-0.4964490975796707
 21
119.9481366463058
 31
0.0
  0
ARC
  5
155B
  8
01
 10
-49.496449097579671
 20
120.4481366463058
 30
0.0
 40
0.5
 50
180.0
 51
270.0
  0
ARC
  5
155C
  8
01
 10
-0.4964490975796707
 20
120.4481366463058
 30
0.0
 40
0.5
 50
269.9999999999992
 51
359.99999999999682
  0
LINE
  5
155D
  8
01
 10
-24.996449097579671
 20
86.211114350129037
 30
0.0
 11
-24.996449097579671
 21
-101.6687555672323
 31
0.0
  0
LINE
  5
156A
  8
01
 10
42.82087528858824
 20
13.92440068548842
 30
0.0000000000001137
 11
42.820879129223378
 21
17.924400685486599
 31
0.0000000000001137
  0
TEXT
  5
1570
  8
01
 10
-72.005968150365874
 20
137.5575908209307
 30
0.0
 40
8.0
  1
K3-X
  0
LINE
  5
1574
  8
01
 10
157.51392425217631
 20
106.865430338244
 30
0.0
 11
157.51392422594961
 21
107.4654306770075
 31
0.0
  0
LINE
  5
1575
  8
01
 10
139.01392425217679
 20
106.8654295295822
 30
0.0
 11
139.01392422594981
 21
107.4654306770074
 31
0.0
  0
LINE
  5
1576
  8
01
 10
139.01392425217679
 20
106.8654295295822
 30
0.0
 11
144.7639066020345
 21
106.8654297809222
 31
0.0
  0
ARC
  5
1577
  8
01
 10
172.7639079073972
 20
107.9654306770075
 30
0.0
 40
0.5
 50
269.9999999999992
 51
359.99999999999682
  0
ARC
  5
1578
  8
01
 10
123.7639079073972
 20
107.9654306770075
 30
0.0
 40
0.5
 50
180.0
 51
270.0
  0
LINE
  5
1579
  8
01
 10
123.7639079073972
 20
107.4654306770074
 30
0.0
 11
172.7639079073972
 21
107.4654306770074
 31
0.0
  0
LINE
  5
157A
  8
01
 10
123.2639079073972
 20
115.9654306770075
 30
0.0
 11
173.2639079073972
 21
115.9654306770075
 31
0.0
  0
LINE
  5
157B
  8
01
 10
173.2639079073972
 20
115.9654306770075
 30
0.0
 11
173.2639079073972
 21
107.9654306770075
 31
0.0
  0
LINE
  5
157C
  8
01
 10
123.2639079073972
 20
115.9654306770075
 30
0.0
 11
123.2639079073972
 21
107.9654306770075
 31
0.0
  0
LINE
  5
157D
  8
01
 10
148.2639079073972
 20
148.4753380261829
 30
0.0
 11
148.2639079073972
 21
101.9992946422345
 31
0.0
  0
LINE
  5
157F
  8
01
 10
144.5138979074012
 20
115.9654269506166
 30
0.0
 11
144.5138979074006
 21
140.9654269506176
 31
0.0
  0
LINE
  5
1580
  8
01
 10
152.0139179073937
 20
140.9654266227808
 30
0.0
 11
144.5138979074006
 21
140.96542695061669
 31
0.0
  0
CIRCLE
  5
1613
  8
01
 10
-24.996449097580339
 20
-34.075720889870702
 30
0.0
 40
9.2499995171551745
  0
CIRCLE
  5
1614
  8
01
 10
-24.996449097580339
 20
-34.075720889870702
 30
0.0
 40
8.0500000000000007
  0
CIRCLE
  5
1615
  8
01
 10
148.26390790739649
 20
-34.075736641801541
 30
0.0
 40
9.2499995171551745
  0
CIRCLE
  5
1616
  8
01
 10
148.26390790739649
 20
-34.075736641801541
 30
0.0
 40
8.0500000000000007
  0
LINE
  5
1640
  8
01
 10
152.01391790739319
 20
115.9654269506166
 30
0.0
 11
152.0139179073937
 21
140.9654269506176
 31
0.0
  0
LINE
  5
1655
  8
01
 10
147.5139079073972
 20
140.96542681948219
 30
0.0
 11
147.5139079073972
 21
116.7154306770074
 31
0.0
  0
LINE
  5
1656
  8
01
 10
149.0139079073972
 20
140.96542675391521
 30
0.0
 11
149.0139079073972
 21
116.7154306770074
 31
0.0
  0
LINE
  5
1657
  8
01
 10
148.2639079073972
 20
148.4753380261829
 30
0.0
 11
148.2639079073972
 21
101.9992946422345
 31
0.0
  0
ARC
  5
1658
  8
01
 10
148.2639079073972
 20
116.7154306770074
 30
0.0
 40
0.7500000000000157
 50
180.0
 51
0.0
  0
CIRCLE
  5
188D
  8
01
 10
-24.996449097580349
 20
15.9242791101293
 30
0.0
 40
11.199999999999999
  0
LINE
  5
188E
  8
01
 10
-39.789547683881672
 20
15.9242791101293
 30
0.0
 11
-10.491291111339249
 21
15.9242791101293
 31
0.0
  0
CIRCLE
  5
188F
  8
01
 10
148.2639079073972
 20
15.924262592092759
 30
0.0
 40
3.7000000000000002
  0
LINE
  5
1890
  8
01
 10
163.05700649369939
 20
15.924262592092759
 30
0.0
 11
133.7587499211561
 21
15.924262592092759
 31
0.0
  0
LINE
  5
1892
  8
01
 10
19.02086779250984
 20
4.924267592085811
 30
0.0000000000023235
 11
33.524278960729823
 21
4.9242675920854957
 31
0.0000000000023235
  0
ARC
  5
1893
  8
01
 10
19.02086779250984
 20
5.9242675920845613
 30
0.0000000000023235
 40
1.0
 50
180.0
 51
270.0
  0
LINE
  5
1894
  8
01
 10
18.020867792508021
 20
5.9242675920845613
 30
0.0000000000023235
 11
18.020867792508021
 21
25.924267592082401
 31
0.0000000000023235
  0
LINE
  5
1895
  8
01
 10
19.02086779250984
 20
4.924267592085811
 30
0.0000000000023235
 11
19.02086779250984
 21
4.9256577222773776
 31
0.0000000000023235
  0
LINE
  5
1896
  8
01
 10
43.720887403517359
 20
11.92426391303081
 30
0.0000000000025497
 11
43.720887403517359
 21
19.924261271154698
 31
0.0000000000025497
  0
LINE
  5
1897
  8
01
 10
42.820886082578532
 20
11.02426259209278
 30
0.0000000000025623
 11
42.820886082578532
 21
20.824264592092849
 31
0.0000000000025623
  0
LINE
  5
1898
  8
01
 10
19.020867792508021
 20
26.924267592084789
 30
0.0000000000023235
 11
33.524278960729823
 21
26.924267592085211
 31
0.0000000000023235
  0
LINE
  5
1899
  8
01
 10
32.520890736719217
 20
5.4242675920853571
 30
0.0000000000023235
 11
32.520890736714669
 21
26.42426759208513
 31
0.0000000000023235
  0
LINE
  5
189A
  8
01
 10
43.720887403517359
 20
19.924261271154698
 30
0.0000000000025497
 11
42.820884082578758
 21
20.824264592092732
 31
0.0000000000025623
  0
LINE
  5
189C
  8
01
 10
43.720887403517359
 20
11.92426391303081
 30
0.0000000000025497
 11
42.820886082578532
 21
11.024262592092891
 31
0.0000000000025623
  0
ARC
  5
189E
  8
01
 10
19.020867792508021
 20
25.924267592082401
 30
0.0000000000023235
 40
1.0
 50
90.0
 51
180.0
  0
ARC
  5
189F
  8
01
 10
33.020890736714669
 20
5.4242675920854699
 30
0.0000000000023235
 40
0.5
 50
180.00000000001299
 51
270.0
  0
ARC
  5
18A0
  8
01
 10
33.020890736714669
 20
26.42426759208524
 30
0.0000000000023235
 40
0.5
 50
90.0
 51
180.00000000001299
  0
LINE
  5
18A1
  8
01
 10
43.720887403517359
 20
15.924274592092839
 30
0.000000000002436
 11
48.720887403517359
 21
15.924274592092839
 31
0.000000000002436
  0
LINE
  5
18A2
  8
01
 10
48.720887403517359
 20
19.252690210888769
 30
0.000000000002436
 11
48.720887403517359
 21
12.5958249732962
 31
0.000000000002436
  0
LINE
  5
18A3
  8
01
 10
49.720887403517359
 20
19.252686210888889
 30
0.000000000002436
 11
49.720887403517359
 21
12.59582497329597
 31
0.000000000002436
  0
LINE
  5
18A4
  8
01
 10
49.220887403517352
 20
18.468891592092739
 30
0.000000000002436
 11
49.220887403517352
 21
16.33881759209282
 31
0.000000000002436
  0
LINE
  5
18A5
  8
01
 10
55.220887403517359
 20
19.252690210889
 30
0.000000000002436
 11
55.220887403517359
 21
12.59582497329597
 31
0.000000000002436
  0
LINE
  5
18A6
  8
01
 10
55.720887403517359
 20
18.752700592092761
 30
0.000000000002436
 11
55.720887403517359
 21
13.095847592092809
 31
0.000000000002436
  0
LINE
  5
18A7
  8
01
 10
55.720887403517359
 20
18.752700592092761
 30
0.000000000002436
 11
55.720887403517359
 21
13.095847592092809
 31
0.000000000002436
  0
LINE
  5
18A8
  8
01
 10
49.220887403517352
 20
15.674560592092799
 30
0.000000000002436
 11
49.220887403517352
 21
13.371387592092789
 31
0.000000000002436
  0
LINE
  5
18A9
  8
01
 10
49.720887403517359
 20
15.924274592092839
 30
0.000000000002436
 11
55.720887403517359
 21
15.924274592092839
 31
0.000000000002436
  0
ARC
  5
18AA
  8
01
 10
49.220884575174367
 20
12.78332497329597
 30
0.0000000000015259
 40
0.30000001
 50
35.264380000022413
 51
144.73560999998381
  0
LINE
  5
18AB
  8
01
 10
49.465834575174618
 20
12.956526973295921
 30
0.0000000000015259
 11
49.720884575174367
 21
12.59582497329597
 31
0.0000000000015259
  0
LINE
  5
18AC
  8
01
 10
48.975934575175039
 20
12.956526973295921
 30
0.0000000000015259
 11
48.720884575174367
 21
12.59582097329598
 31
0.0000000000015259
  0
ARC
  5
18AD
  8
01
 10
49.220887403517352
 20
19.065197210888979
 30
0.0000000000015259
 40
0.30000001
 50
215.26439000001619
 51
324.73561999997759
  0
LINE
  5
18AE
  8
01
 10
49.465837403516701
 20
18.891995210889029
 30
0.0000000000015259
 11
49.720887403517359
 21
19.25268621088901
 31
0.0000000000015259
  0
LINE
  5
18AF
  8
01
 10
48.975937403517122
 20
18.891998210889032
 30
0.0000000000015259
 11
48.720907403516847
 21
19.252690210889
 31
0.0000000000015259
  0
LINE
  5
18B0
  8
01
 10
55.720887403517359
 20
18.752700592092989
 30
0.000000000002436
 11
55.720887403517359
 21
13.09584759209303
 31
0.000000000002436
  0
LINE
  5
18B1
  8
01
 10
55.720887403517359
 20
18.752700592092989
 30
0.000000000002436
 11
55.720887403517359
 21
13.09584759209303
 31
0.000000000002436
  0
LINE
  5
18B2
  8
01
 10
43.720887403517359
 20
12.59582497329597
 30
0.0000000000015259
 11
48.720887403517359
 21
12.59582497329597
 31
0.0000000000015259
  0
LINE
  5
18B3
  8
01
 10
49.720884575174367
 20
12.59582497329597
 30
0.0000000000015259
 11
55.220887403517359
 21
12.59582497329597
 31
0.0000000000015259
  0
LINE
  5
18B4
  8
01
 10
43.720887403517359
 20
19.252690210889
 30
0.0000000000015259
 11
48.720907403516847
 21
19.252690210889
 31
0.0000000000015259
  0
LINE
  5
18B5
  8
01
 10
49.720887403517359
 20
19.252690210889
 30
0.0000000000015259
 11
55.220887403517359
 21
19.252690210889
 31
0.0000000000015259
  0
LINE
  5
18B6
  8
01
 10
55.720887403517359
 20
18.752704592092979
 30
0.000000000002436
 11
55.220887403517359
 21
19.252690210889
 31
0.0000000000015259
  0
LINE
  5
18B7
  8
01
 10
55.720887403517359
 20
13.09584759209303
 30
0.000000000002436
 11
55.220887403517359
 21
12.59582497329597
 31
0.0000000000015259
  0
LINE
  5
18B8
  8
01
 10
15.846801185027459
 20
15.924262592092759
 30
0.0000000000023235
 11
57.85611337768767
 21
15.924262592092759
 31
0.0000000000023235
  0
LINE
  5
18BA
  8
01
 10
74.374278711967378
 20
12.59580870332333
 30
-0.00000000000091
 11
68.874275883625302
 21
12.5958085129579
 31
-0.00000000000091
  0
LINE
  5
18BD
  8
01
 10
80.374275906869258
 20
11.924250529791159
 30
-0.00000000000011
 11
81.274269938019842
 21
11.02425656094176
 31
-0.00000000000011
  0
LINE
  5
18BE
  8
01
 10
80.374275629974505
 20
19.924247887915062
 30
-0.00000000000011
 11
81.274269598823508
 21
20.824241919065241
 31
-0.00000000000011
  0
LINE
  5
18C0
  8
01
 10
80.374275906869258
 20
11.924250529791159
 30
-0.00000000000011
 11
80.374275629974505
 21
19.924247887915062
 31
-0.00000000000011
  0
LINE
  5
18C1
  8
01
 10
92.024051191293566
 20
14.92426162475261
 30
-0.0000000000001137
 11
90.524278960729788
 21
14.924261560572839
 31
-0.0000000000001137
  0
ARC
  5
18C3
  8
01
 10
92.024051101302703
 20
17.22426061207365
 30
-0.0000000000001137
 40
0.3000000099999999
 50
269.99999898312137
 51
13.18348198311592
  0
ARC
  5
18C4
  8
01
 10
86.474281146297614
 20
15.92426141998579
 30
-0.0000000000001137
 40
5.9999999999999991
 50
324.31466798312272
 51
346.81651998312168
  0
ARC
  5
18C5
  8
01
 10
92.024051191293566
 20
14.62425861207363
 30
-0.0000000000001137
 40
0.3000000099999999
 50
346.81651998312168
 51
90.000001983106074
  0
LINE
  5
18C6
  8
01
 10
91.347681267439071
 20
12.424261588663301
 30
-0.0000000000001137
 11
90.524278960729802
 21
12.424261560163769
 31
-0.0000000000001137
  0
LINE
  5
18C7
  8
01
 10
91.347681025156959
 20
19.424261588663299
 30
-0.0000000000001137
 11
90.524278960729788
 21
19.424261560163821
 31
-0.0000000000001137
  0
ARC
  5
18C8
  8
01
 10
86.501295708520189
 20
15.936548956539029
 30
-0.0000000000001137
 40
5.9708929506941821
 50
13.12780478885565
 51
35.740778260957313
  0
LINE
  5
18C9
  8
01
 10
92.024829571135484
 20
16.92426161210075
 30
-0.0000000000001137
 11
90.524278960729802
 21
16.92426156016381
 31
-0.0000000000001137
  0
LINE
  5
18CA
  8
01
 10
80.374275768421427
 20
15.92425852979126
 30
0.0
 11
75.374275768421427
 21
15.92425835673192
 31
0.0
  0
LINE
  5
18CB
  8
01
 10
75.374275653218461
 20
19.252673975527848
 30
0.0
 11
75.374275883625302
 21
12.59580873793529
 31
0.0
  0
LINE
  5
18CC
  8
01
 10
74.374275653218461
 20
19.252669940916132
 30
0.0
 11
74.374275883625302
 21
12.595808703323209
 31
0.0
  0
LINE
  5
18CD
  8
01
 10
74.874275680347779
 20
18.46887533942585
 30
0.0
 11
74.874275754073224
 21
16.338801339425931
 31
0.0
  0
LINE
  5
18CE
  8
01
 10
68.874275653218461
 20
19.252673750550919
 30
0.0
 11
68.874275883625302
 21
12.5958085129579
 31
0.0
  0
LINE
  5
18CF
  8
01
 10
68.374275670524327
 20
18.752684114448709
 30
0.0
 11
68.374275866318527
 21
13.09583111444875
 31
0.0
  0
LINE
  5
18D0
  8
01
 10
68.374275670524327
 20
18.752684114448709
 30
0.0
 11
68.374275866318527
 21
13.09583111444875
 31
0.0
  0
LINE
  5
18D1
  8
01
 10
74.874275777064355
 20
15.674544339426021
 30
0.0
 11
74.874275856781566
 21
13.371371339426
 31
0.0
  0
LINE
  5
18D2
  8
01
 10
74.374275768421427
 20
15.92425832212008
 30
0.0
 11
68.374275768421427
 21
15.9242581144489
 31
0.0
  0
ARC
  5
18D3
  8
01
 10
74.874278705477224
 20
12.78330872062919
 30
-0.00000000000091
 40
0.3000000099999999
 50
35.264391983109981
 51
144.73562198311569
  0
LINE
  5
18D4
  8
01
 10
74.629328699483409
 20
12.95651071215106
 30
-0.00000000000091
 11
74.374278711967378
 21
12.59580870332333
 31
-0.00000000000091
  0
LINE
  5
18D5
  8
01
 10
75.119228699482989
 20
12.956510729107331
 30
-0.00000000000091
 11
75.374278711967364
 21
12.595804737935181
 31
-0.00000000000091
  0
ARC
  5
18D6
  8
01
 10
74.874275659708616
 20
19.0651809582222
 30
-0.00000000000091
 40
0.3000000099999999
 50
215.26438198310129
 51
324.73561198310108
  0
LINE
  5
18D7
  8
01
 10
74.629325665702851
 20
18.891978949744061
 30
-0.00000000000091
 11
74.374275653218461
 21
19.252669940916249
 31
-0.00000000000091
  0
LINE
  5
18D8
  8
01
 10
75.11922566570243
 20
18.891981966700332
 30
-0.00000000000091
 11
75.374255653218967
 21
19.252673975527401
 31
-0.00000000000091
  0
LINE
  5
18D9
  8
01
 10
68.374275670524327
 20
18.75268411444894
 30
0.0
 11
68.374275866318527
 21
13.095831114448981
 31
0.0
  0
LINE
  5
18DA
  8
01
 10
68.374275670524327
 20
18.75268411444894
 30
0.0
 11
68.374275866318527
 21
13.095831114448981
 31
0.0
  0
LINE
  5
18DB
  8
01
 10
80.374275883625316
 20
12.595808910994389
 30
-0.00000000000091
 11
75.374275883625302
 21
12.595808737935061
 31
-0.00000000000091
  0
LINE
  5
18DC
  8
01
 10
80.374275653218476
 20
19.25267414858742
 30
-0.00000000000091
 11
75.374255653218967
 21
19.252673975527401
 31
-0.00000000000091
  0
LINE
  5
18DD
  8
01
 10
74.374275653218461
 20
19.252673940916239
 30
-0.00000000000091
 11
68.874275653218461
 21
19.252673750550919
 31
-0.00000000000091
  0
LINE
  5
18DE
  8
01
 10
68.374275670524327
 20
18.752688114448929
 30
0.0
 11
68.874275653218461
 21
19.252673750550919
 31
-0.00000000000091
  0
LINE
  5
18DF
  8
01
 10
68.374275866318527
 20
13.095831114448981
 30
0.0
 11
68.874275883625302
 21
12.5958085129579
 31
-0.00000000000091
  0
CIRCLE
  5
18E2
  8
01
 10
-24.996449097579671
 20
15.9242791101293
 30
0.0
 40
10.999988481953091
  0
LINE
  5
1B08
  8
01
 10
147.2639079073972
 20
12.57015958796489
 30
0.0
 11
147.2639079073972
 21
19.278366387964859
 31
0.0
  0
LINE
  5
1B09
  8
01
 10
149.2639079073972
 20
12.57015958796489
 30
0.0
 11
149.2639079073972
 21
19.278366387964859
 31
0.0
  0
CIRCLE
  5
1B0A
  8
01
 10
148.2639079073972
 20
15.924262387964861
 30
0.0
 40
3.5000004999999992
  0
LINE
  5
1BD2
  8
01
 10
-27.496449097579671
 20
26.232031441319052
 30
0.0
 11
-27.496449097579671
 21
5.6165267789395559
 31
0.0
  0
LINE
  5
1BD3
  8
01
 10
-22.496449097579671
 20
26.232031441319052
 30
0.0
 11
-22.496449097579671
 21
5.6165267789395559
 31
0.0
  0
ARC
  5
1BD5
  8
01
 10
-26.996449097579671
 20
26.232031441319052
 30
0.0
 40
0.5
 50
100.9805876225102
 51
180.0
  0
ARC
  5
1BD6
  8
01
 10
-22.996449097579671
 20
26.232031441319052
 30
0.0
 40
0.5
 50
0.0
 51
79.019412377489417
  0
ARC
  5
1BD7
  8
01
 10
-26.996449097579671
 20
5.6165267789395559
 30
0.0
 40
0.5
 50
180.0
 51
259.01941237748969
  0
ARC
  5
1BD8
  8
01
 10
-22.996449097579671
 20
5.6165267789395559
 30
0.0
 40
0.5
 50
280.98058762251071
 51
0.0
  0
LINE
  5
1C07
  8
01
 10
147.2639066458562
 20
105.9656584464437
 30
0.0
 11
147.26390658167639
 21
107.4654306770074
 31
0.0
  0
ARC
  5
1C08
  8
01
 10
149.5639056331772
 20
105.9656585364346
 30
0.0
 40
0.3000000099999999
 50
179.9999989831214
 51
283.18348198311588
  0
ARC
  5
1C09
  8
01
 10
148.26390644108929
 20
111.51542849143959
 30
0.0
 40
5.9999999999999991
 50
234.3146679831224
 51
256.81651998312168
  0
ARC
  5
1C0A
  8
01
 10
146.96390363317721
 20
105.9656584464437
 30
0.0
 40
0.3000000099999999
 50
256.81651998312168
 51
0.0000019831060719
  0
LINE
  5
1C0B
  8
01
 10
144.76390660976679
 20
106.64202837029821
 30
0.0
 11
144.76390658126729
 21
107.4654306770074
 31
0.0
  0
LINE
  5
1C0C
  8
01
 10
151.76390660976679
 20
106.6420286125803
 30
0.0
 11
151.76390658126729
 21
107.4654306770074
 31
0.0
  0
ARC
  5
1C0D
  8
01
 10
148.27619397764261
 20
111.4884139292171
 30
0.0
 40
5.9708929506941821
 50
283.1278047888556
 51
305.74077826095731
  0
LINE
  5
1C0E
  8
01
 10
149.2639066332043
 20
105.96488006660179
 30
0.0
 11
149.26390658126729
 21
107.4654306770074
 31
0.0
  0
LINE
  5
1C41
  8
01
 10
151.7639066020345
 20
106.86543008690241
 30
0.0
 11
157.51392425217631
 21
106.865430338244
 31
0.0
  0
LINE
  5
1C42
  8
01
 10
81.274269938019842
 20
11.02425656094176
 30
-0.00000000000011
 11
81.274269598823508
 21
20.824241919065241
 31
-0.00000000000011
  0
LINE
  5
1CAA
  8
01
 10
-35.996454097572048
 20
119.4481595905126
 30
0.0
 11
-35.996454097572048
 21
119.9481366463058
 31
0.0
  0
LINE
  5
1CAB
  8
01
 10
-13.99645409757227
 20
119.4481595905124
 30
0.0
 11
-13.99645409757227
 21
119.9481366463058
 31
0.0
  0
LINE
  5
1CAC
  8
01
 10
-14.49645409757227
 20
118.9481595905124
 30
0.0
 11
-21.496449097572281
 21
118.9481595905124
 31
0.0
  0
LINE
  5
1CAD
  8
01
 10
-27.496449097572292
 20
105.4481366463076
 30
0.0
 11
-27.496449097574111
 21
117.94815959051419
 31
0.0
  0
ARC
  5
1CAE
  8
01
 10
-26.496449097571372
 20
105.4481366463076
 30
0.0
 40
1.0
 50
180.0
 51
270.0
  0
LINE
  5
1CAF
  8
01
 10
-23.496449097572281
 20
104.4481366463058
 30
0.0
 11
-26.496449097571379
 21
104.4481366463058
 31
0.0
  0
ARC
  5
1CB0
  8
01
 10
-23.496449097571372
 20
105.4481366463076
 30
0.0
 40
1.0
 50
270.0
 51
359.99999999994787
  0
LINE
  5
1CB1
  8
01
 10
-22.496449097572281
 20
105.44813664630939
 30
0.0
 11
-22.496449097572281
 21
117.9481595905124
 31
0.0
  0
ARC
  5
1CB2
  8
01
 10
-14.49645409757227
 20
119.4481595905124
 30
0.0
 40
0.5
 50
270.0
 51
0.0
  0
ARC
  5
1CB3
  8
01
 10
-21.496449097571372
 20
117.9481595905124
 30
0.0
 40
1.0
 50
90.0
 51
180.0
  0
ARC
  5
1CB4
  8
01
 10
-35.496454097572041
 20
119.4481595905126
 30
0.0
 40
0.5
 50
180.0
 51
270.00000000001302
  0
LINE
  5
1CB5
  8
01
 10
-28.496449097574111
 20
118.94815959051419
 30
0.0
 11
-35.496454097571927
 21
118.9481595905126
 31
0.0
  0
ARC
  5
1CB6
  8
01
 10
-28.496449097573191
 20
117.94815959051419
 30
0.0
 40
1.0
 50
0.0
 51
90.000000000013031
  0
LINE
  5
1CDC
  8
01
 10
64.267470948359261
 20
15.924262592092759
 30
0.0000000000023235
 11
96.686260447947475
 21
15.924262592092759
 31
0.0000000000023235
  0
CIRCLE
  5
1D0A
  8
01
 10
148.2639079073972
 20
23.32426238796484
 30
0.0
 40
2.2999999999999989
  0
LINE
  5
1D0B
  8
01
 10
153.14572356850951
 20
23.32426238796484
 30
0.0
 11
143.64376234091671
 21
23.32426238796484
 31
0.0
  0
LINE
  5
1DD9
  8
01
 10
81.274269598823508
 20
20.824241919065241
 30
-0.00000000000011
 11
82.024278960729816
 21
20.824241919065241
 31
0.0
  0
LINE
  5
1DDA
  8
01
 10
81.274269938019842
 20
11.02425656094176
 30
-0.00000000000011
 11
82.024278960729816
 21
11.02425656094176
 31
0.0
  0
LINE
  5
1DDB
  8
01
 10
42.820886082578532
 20
20.824262592092971
 30
0.0000000000025623
 11
42.024278960729823
 21
20.824262592092971
 31
0.0
  0
LINE
  5
1DDC
  8
01
 10
42.820886082578532
 20
11.02426259209278
 30
0.0000000000025623
 11
42.024278960729823
 21
11.02426259209278
 31
0.0
  0
TEXT
  5
1F96
  8
01
 10
188.6139698698718
 20
86.833814002277208
 30
0.0
 40
4.0
  1
材質：真鍮・亜鉛ダイキャスト
 11
188.6139698698718
 21
88.833814002277222
 31
0.0
 73
     2
  0
TEXT
  5
1F97
  8
01
 10
196.26931970677941
 20
74.06778641595497
 30
0.0
 40
4.0
  1
表面処理
 72
     1
 11
205.3359863734461
 21
74.06778641595497
 31
0.0
  0
TEXT
  5
1F98
  8
01
 10
196.00265304011279
 20
60.232497756430583
 30
0.0
 40
4.0
  1
クローム
 72
     1
 11
205.3359863734461
 21
60.232497756430583
 31
0.0
  0
TEXT
  5
1F99
  8
01
 10
194.13598637344609
 20
67.089891395970653
 30
0.0
 40
4.0
  1
本金メッキ
 72
     1
 11
205.3359863734461
 21
67.089891395970653
 31
0.0
  0
LINE
  5
1F9A
  8
01
 10
187.9359863734461
 20
79.56778641595497
 30
0.0
 11
257.93598637344599
 21
79.56778641595497
 31
0.0
  0
LINE
  5
1F9B
  8
01
 10
187.93598637344601
 20
65.56778641595497
 30
0.0
 11
257.93598637344599
 21
65.56778641595497
 31
0.0
  0
LINE
  5
1F9C
  8
01
 10
187.93598637344601
 20
72.56778641595497
 30
0.0
 11
257.93598637344599
 21
72.56778641595497
 31
0.0
  0
LINE
  5
1F9D
  8
01
 10
187.93598637344601
 20
58.567786415954963
 30
0.0
 11
257.93598637344599
 21
58.567786415954963
 31
0.0
  0
LINE
  5
1F9E
  8
01
 10
187.93598637344601
 20
58.567786415954963
 30
0.0
 11
257.93598637344599
 21
58.567786415954963
 31
0.0
  0
LINE
  5
1F9F
  8
01
 10
222.93598637344601
 20
79.56778641595497
 30
0.0
 11
222.93598637344601
 21
16.56778641595497
 31
0.0
  0
TEXT
  5
1FA0
  8
01
 10
231.85979589725611
 20
66.853429432305575
 30
0.0
 40
4.0
  1
K3-G
 72
     1
 11
240.33598637344659
 21
66.853429432305575
 31
0.0
  0
TEXT
  5
1FA1
  8
01
 10
233.53598637344609
 20
74.06778641595497
 30
0.0
 40
4.0
  1
コード
 72
     1
 11
240.3359863734461
 21
74.06778641595497
 31
0.0
  0
LINE
  5
1FA2
  8
01
 10
187.93598637344601
 20
16.56778641595497
 30
0.0
 11
187.93598637344601
 21
79.56778641595497
 31
0.0
  0
LINE
  5
1FA3
  8
01
 10
257.93598637344599
 20
16.56778641595497
 30
0.0
 11
257.93598637344599
 21
79.56778641595497
 31
0.0
  0
LINE
  5
1FA4
  8
01
 10
187.93598637344601
 20
51.56778641595497
 30
0.0
 11
257.93598637344599
 21
51.56778641595497
 31
0.0
  0
LINE
  5
1FA5
  8
01
 10
187.93598637344601
 20
51.56778641595497
 30
0.0
 11
257.93598637344599
 21
51.56778641595497
 31
0.0
  0
LINE
  5
1FA6
  8
01
 10
187.93598637344601
 20
44.56778641595497
 30
0.0
 11
257.93598637344599
 21
44.56778641595497
 31
0.0
  0
LINE
  5
1FA7
  8
01
 10
187.93598637344601
 20
44.56778641595497
 30
0.0
 11
257.93598637344599
 21
44.56778641595497
 31
0.0
  0
TEXT
  5
1FA8
  8
01
 10
189.06931970677951
 20
46.232497756430568
 30
0.0
 40
4.0
  1
サテンニッケル
 72
     1
 11
205.3359863734461
 21
46.232497756430568
 31
0.0
  0
LINE
  5
1FA9
  8
01
 10
187.93598637344601
 20
37.56778641595497
 30
0.0
 11
257.93598637344599
 21
37.56778641595497
 31
0.0
  0
LINE
  5
1FAA
  8
01
 10
187.93598637344601
 20
37.56778641595497
 30
0.0
 11
257.93598637344599
 21
37.56778641595497
 31
0.0
  0
TEXT
  5
1FAB
  8
01
 10
188.9359863734461
 20
53.232497756430568
 30
0.0
 40
4.0
  1
パールクローム
 72
     1
 11
205.3359863734461
 21
53.232497756430568
 31
0.0
  0
TEXT
  5
1FAC
  8
01
 10
231.85979589725611
 20
59.853429432305568
 30
0.0
 40
4.0
  1
K3-C
 72
     1
 11
240.33598637344659
 21
59.853429432305568
 31
0.0
  0
TEXT
  5
1FAD
  8
01
 10
231.85979589725611
 20
45.853429432305568
 30
0.0
 40
4.0
  1
K3-N
 72
     1
 11
240.33598637344659
 21
45.853429432305568
 31
0.0
  0
TEXT
  5
1FAE
  8
01
 10
231.85979589725611
 20
52.853429432305568
 30
0.0
 40
4.0
  1
K3-B
 72
     1
 11
240.33598637344659
 21
52.853429432305568
 31
0.0
  0
TEXT
  5
1FAF
  8
01
 10
231.9550339924935
 20
32.06778641595497
 30
0.0
 40
4.0
  1
K3-4Q
 41
0.8
 72
     1
 11
240.33598637344591
 21
32.06778641595497
 31
0.0
  0
TEXT
  5
1FB0
  8
01
 10
188.9359863734459
 20
32.06778641595497
 30
0.0
 40
4.0
  1
ダークアンバー
 72
     1
 11
205.33598637344591
 21
32.06778641595497
 31
0.0
  0
LINE
  5
1FB1
  8
01
 10
187.9359863734461
 20
16.56778641595497
 30
0.0
 11
257.93598637344599
 21
16.56778641595497
 31
0.0
  0
LINE
  5
1FB2
  8
01
 10
187.93598637344601
 20
30.56778641595497
 30
0.0
 11
257.93598637344599
 21
30.56778641595497
 31
0.0
  0
LINE
  5
1FB3
  8
01
 10
187.93598637344601
 20
23.56778641595497
 30
0.0
 11
257.93598637344599
 21
23.56778641595497
 31
0.0
  0
TEXT
  5
1FB4
  8
01
 10
231.8597958972554
 20
39.06778641595497
 30
0.0
 40
4.0
  1
K3-D
 72
     1
 11
240.33598637344591
 21
39.06778641595497
 31
0.0
  0
TEXT
  5
1FB5
  8
01
 10
188.80265304011249
 20
39.06778641595497
 30
0.0
 40
4.0
  1
ミラーニッケル
 72
     1
 11
205.33598637344591
 21
39.06778641595497
 31
0.0
  0
TEXT
  5
1FB6
  8
01
 10
231.9550339924935
 20
18.06778641595497
 30
0.0
 40
4.0
  1
K3-8Q
 41
0.8
 72
     1
 11
240.33598637344591
 21
18.06778641595497
 31
0.0
  0
TEXT
  5
1FB7
  8
01
 10
188.80265304011249
 20
18.06778641595497
 30
0.0
 40
4.0
  1
ミラーブラック
 72
     1
 11
205.33598637344591
 21
18.06778641595497
 31
0.0
  0
TEXT
  5
1FB8
  8
01
 10
231.87884351630311
 20
25.06778641595497
 30
0.0
 40
4.0
  1
K3-GQ
 41
0.8
 72
     1
 11
240.33598637344591
 21
25.06778641595497
 31
0.0
  0
TEXT
  5
1FB9
  8
01
 10
189.0693197067792
 20
25.06778641595497
 30
0.0
 40
4.0
  1
パールブラック
 72
     1
 11
205.33598637344591
 21
25.06778641595497
 31
0.0
  0
TEXT
  5
1FBA
  8
01
 10
188.6139698698718
 20
81.333814002277222
 30
0.0
 40
4.0
  1
      ポリアセタール
 11
188.6139698698718
 21
83.333814002277222
 31
0.0
 73
     2
  0
TEXT
  5
20DE
  8
01
 10
56.179022388822197
 20
-19.140799138093261
 30
0.0
 40
4.5499999999999989
  1
亜鉛ダイ
  0
TEXT
  5
20DF
  8
01
 10
56.179022388822197
 20
-26.7241324714266
 30
0.0
 40
4.5499999999999989
  1
キャスト
  0
LINE
  5
20E2
  8
01
 10
92.324051111302722
 20
17.22426061207365
 30
0.0
 11
92.324051111302722
 21
94.217833372028778
 31
0.0
  0
LINE
  5
20E3
  8
01
 10
82.024278960729816
 20
79.924263163123442
 30
0.0
 11
82.024278960729816
 21
94.217833372028778
 31
0.0
  0
LINE
  5
20E4
  8
01
 10
89.724051111302728
 20
92.917833372028767
 30
0.0
 11
84.624278960729811
 21
92.917833372028767
 31
0.0
  0
LINE
  5
20E5
  8
01
 10
82.024278960729816
 20
92.917833372028767
 30
0.0
 11
64.387612294063132
 21
92.917833372028767
 31
0.0
  0
LINE
  5
20E9
  8
01
 10
42.024278960729823
 20
79.924279110129305
 30
0.0
 11
42.024278960729823
 21
94.217833372028778
 31
0.0
  0
LINE
  5
20EA
  8
01
 10
18.020867792508021
 20
25.924267592082401
 30
0.0
 11
18.020867792508021
 21
94.217833372028778
 31
0.0
  0
LINE
  5
20EB
  8
01
 10
39.424278960729808
 20
92.917833372028767
 30
0.0
 11
20.620867792508029
 21
92.917833372028767
 31
0.0
  0
LINE
  5
20EF
  8
01
 10
90.524278960729816
 20
79.424263163123442
 30
0.0
 11
90.524278960729816
 21
86.130940601921054
 31
0.0
  0
LINE
  5
20F0
  8
01
 10
82.024278960729816
 20
79.924263163123442
 30
0.0
 11
82.024278960729816
 21
86.130940601921054
 31
0.0
  0
LINE
  5
20F1
  8
01
 10
87.924278960729822
 20
84.830940601921057
 30
0.0
 11
84.624278960729811
 21
84.830940601921057
 31
0.0
  0
LINE
  5
20F2
  8
01
 10
82.024278960729816
 20
84.830940601921057
 30
0.0
 11
68.070945627396469
 21
84.830940601921057
 31
0.0
  0
TEXT
  5
20F8
  8
01
 10
102.0195933112994
 20
97.227021663437398
 30
0.0
 40
3.5
  1
材質：真鍮
  0
TEXT
  5
20F9
  8
01
 10
102.0195933112994
 20
91.393688330104055
 30
0.0
 40
3.5
  1
仕上げ：各種メッキ
  0
TEXT
  5
20FC
  8
01
 10
24.843010333097379
 20
-103.17324881182159
 30
0.0
 40
3.5
  1
材質：ポリアセタール
  0
LINE
  5
20FD
  8
01
 10
42.024278960729823
 20
79.924279110129305
 30
0.0
 11
42.024278960729823
 21
86.130940601921054
 31
0.0
  0
LINE
  5
20FE
  8
01
 10
33.524278960729823
 20
79.424279110129305
 30
0.0
 11
33.524278960729823
 21
86.130940601921054
 31
0.0
  0
LINE
  5
20FF
  8
01
 10
39.424278960729808
 20
84.830940601921057
 30
0.0
 11
36.124278960729818
 21
84.830940601921057
 31
0.0
  0
LINE
  5
2100
  8
01
 10
33.524278960729823
 20
84.830940601921057
 30
0.0
 11
19.57094562739649
 21
84.830940601921057
 31
0.0
  0
LINE
  5
2104
  8
01
 10
-0.4964490975796707
 20
79.924279110129305
 30
0.0
 11
14.592682642088009
 21
79.924279110129305
 31
0.0
  0
LINE
  5
2105
  8
01
 10
-0.4964490975797027
 20
-98.075720889870695
 30
0.0
 11
14.59268264208797
 21
-98.075720889870695
 31
0.0
  0
LINE
  5
2106
  8
01
 10
13.29268264208801
 20
77.324279110129311
 30
0.0
 11
13.29268264208797
 21
-95.475720889870701
 31
0.0
  0
LINE
  5
210A
  8
01
 10
-49.996449097579671
 20
79.424279110129305
 30
0.0
 11
-49.996449097579671
 21
94.217833372028778
 31
0.0
  0
LINE
  5
210B
  8
01
 10
0.0035509024203293
 20
79.424279110129305
 30
0.0
 11
0.0035509024203302
 21
94.217833372028778
 31
0.0
  0
LINE
  5
210C
  8
01
 10
-47.396449097579662
 20
92.917833372028767
 30
0.0
 11
-2.596449097579669
 21
92.917833372028767
 31
0.0
  0
LINE
  5
2110
  8
01
 10
234.1703788383636
 20
-23.642396811343168
 30
0.0
 11
234.1703788383636
 21
-7.8010015048562131
 31
0.0
  0
LINE
  5
2111
  8
01
 10
204.1703952431879
 20
-21.292164131905249
 30
0.0
 11
204.1703952431879
 21
-7.8010015048562131
 31
0.0
  0
LINE
  5
2112
  8
01
 10
231.57037883836361
 20
-9.1010015048562138
 30
0.0
 11
206.77039524318789
 21
-9.1010015048562138
 31
0.0
  0
LINE
  5
2117
  8
01
 10
234.17037802398539
 20
-39.101456165825688
 30
0.0
 11
206.82040071120099
 21
-39.101248150572957
 31
0.0
  0
LINE
  5
2118
  8
01
 10
234.17035661747241
 20
-42.401456165769368
 30
0.0
 11
206.82034486802169
 21
-42.40124815019626
 31
0.0
  0
LINE
  5
2119
  8
01
 10
236.1318524800914
 20
-40.751474421692173
 30
0.0
 11
202.23061607821251
 21
-40.751205432694647
 31
0.0
  0
LINE
  5
211A
  8
01
 10
233.82035335996969
 20
-42.751453496239968
 30
0.0
 11
233.8203812815085
 21
-38.751453496327173
 31
0.0
  0
LINE
  5
211B
  8
01
 10
204.47033940009831
 20
-44.751226278375178
 30
0.0
 11
204.47039524317569
 21
-36.75122627854833
 31
0.0
  0
LINE
  5
211C
  8
01
 10
206.82040071120099
 20
-39.101248150572957
 30
0.0
 11
206.47039989681431
 21
-38.751244893037473
 31
0.0
  0
LINE
  5
211D
  8
01
 10
206.82034486802169
 20
-42.40124815019626
 30
0.0
 11
206.47034405365
 21
-42.751244892690949
 31
0.0
  0
LINE
  5
211F
  8
01
 10
234.17037802398539
 20
-23.642396811336461
 30
0.0
 11
206.82040071120099
 21
-23.64218879608373
 31
0.0
  0
LINE
  5
2120
  8
01
 10
234.17035661747241
 20
-26.94239681128014
 30
0.0
 11
206.82034486802169
 21
-26.94218879570704
 31
0.0
  0
LINE
  5
2121
  8
01
 10
236.1318524800914
 20
-25.292415067202938
 30
0.0
 11
202.23061607821251
 21
-25.292146078205441
 31
0.0
  0
LINE
  5
2122
  8
01
 10
233.82035335996969
 20
-27.292394141750751
 30
0.0
 11
233.8203812815085
 21
-23.292394141837949
 31
0.0
  0
LINE
  5
2123
  8
01
 10
204.47033940009831
 20
-29.292166923885961
 30
0.0
 11
204.47039524317569
 21
-21.292166924059099
 31
0.0
  0
LINE
  5
2124
  8
01
 10
206.82040071120099
 20
-23.64218879608373
 30
0.0
 11
206.47039989681431
 21
-23.292185538548239
 31
0.0
  0
LINE
  5
2125
  8
01
 10
206.82034486802169
 20
-26.94218879570704
 30
0.0
 11
206.47034405365
 21
-27.292185538201721
 31
0.0
  0
LINE
  5
2126
  8
01
 10
233.8203812815085
 20
-23.292394141837949
 30
0.0
 11
206.47039989681431
 21
-23.292185538548239
 31
0.0
  0
LINE
  5
2127
  8
01
 10
204.47039524317569
 20
-21.292166924059099
 30
0.0
 11
206.47039989681431
 21
-23.292185538548239
 31
0.0
  0
LINE
  5
2128
  8
01
 10
234.1703788383636
 20
-23.642396811343161
 30
0.0
 11
233.8203812815085
 21
-23.292394141837949
 31
0.0
  0
LINE
  5
2129
  8
01
 10
204.47039524317569
 20
-21.292166924059099
 30
0.0
 11
204.1703952431879
 21
-21.292164131905249
 31
0.0
  0
LINE
  5
212A
  8
01
 10
234.1703558030942
 20
-26.94239681127355
 30
0.0
 11
234.1703788383636
 21
-23.642396811343161
 31
0.0
  0
LINE
  5
212B
  8
01
 10
204.17033940011029
 20
-29.292164131732111
 30
0.0
 11
204.1703952431879
 21
-21.292164131905249
 31
0.0
  0
LINE
  5
212C
  8
01
 10
234.1703558030942
 20
-26.94239681127355
 30
0.0
 11
233.82035335996969
 21
-27.292394141750751
 31
0.0
  0
LINE
  5
212D
  8
01
 10
204.47033940009831
 20
-29.292166923885961
 30
0.0
 11
204.17033940011029
 21
-29.292164131732111
 31
0.0
  0
LINE
  5
212E
  8
01
 10
233.82035335996969
 20
-27.292394141750751
 30
0.0
 11
206.47034405365
 21
-27.292185538201721
 31
0.0
  0
LINE
  5
212F
  8
01
 10
204.47033940009831
 20
-29.292166923885961
 30
0.0
 11
206.47034405365
 21
-27.292185538201721
 31
0.0
  0
LINE
  5
2130
  8
01
 10
233.8203812815085
 20
-38.751453496327173
 30
0.0
 11
206.47039989681431
 21
-38.751244893037473
 31
0.0
  0
LINE
  5
2131
  8
01
 10
204.47039524317569
 20
-36.75122627854833
 30
0.0
 11
206.47039989681431
 21
-38.751244893037473
 31
0.0
  0
LINE
  5
2132
  8
01
 10
234.1703788383636
 20
-39.101456165832388
 30
0.0
 11
233.8203812815085
 21
-38.751453496327173
 31
0.0
  0
LINE
  5
2133
  8
01
 10
204.47039524317569
 20
-36.75122627854833
 30
0.0
 11
204.1703952431879
 21
-36.75122348639448
 31
0.0
  0
LINE
  5
2134
  8
01
 10
234.1703558030942
 20
-42.401456165762767
 30
0.0
 11
234.1703788383636
 21
-39.101456165832388
 31
0.0
  0
LINE
  5
2135
  8
01
 10
204.17033940011029
 20
-44.751223486221328
 30
0.0
 11
204.1703952431879
 21
-36.75122348639448
 31
0.0
  0
LINE
  5
2136
  8
01
 10
234.1703558030942
 20
-42.401456165762767
 30
0.0
 11
233.82035335996969
 21
-42.751453496239968
 31
0.0
  0
LINE
  5
2137
  8
01
 10
204.47033940009831
 20
-44.751226278375178
 30
0.0
 11
204.17033940011029
 21
-44.751223486221328
 31
0.0
  0
LINE
  5
2138
  8
01
 10
233.82035335996969
 20
-42.751453496239968
 30
0.0
 11
206.47034405365
 21
-42.751244892690949
 31
0.0
  0
LINE
  5
2139
  8
01
 10
204.47033940009831
 20
-44.751226278375178
 30
0.0
 11
206.47034405365
 21
-42.751244892690949
 31
0.0
  0
TEXT
  5
213A
  8
01
 10
214.83705370744241
 20
-8.1910015048562137
 30
0.0
 40
4.5499999999999989
  1
30
  0
LINE
  5
213B
  8
01
  6
BYBLOCK
 10
206.77039524318789
 20
-9.7976693988562147
 30
0.0
 11
204.1703952431879
 21
-9.1010015048562138
 31
0.0
  0
LINE
  5
213C
  8
01
  6
BYBLOCK
 10
204.1703952431879
 20
-9.1010015048562138
 30
0.0
 11
206.77039524318789
 21
-8.4043336108562148
 31
0.0
  0
LINE
  5
213D
  8
01
  6
BYBLOCK
 10
204.1703952431879
 20
-9.1010015048562138
 30
0.0
 11
206.77039524318789
 21
-9.1010015048562138
 31
0.0
  0
LINE
  5
213E
  8
01
  6
BYBLOCK
 10
231.57037883836361
 20
-8.4043336108562112
 30
0.0
 11
234.1703788383636
 21
-9.1010015048562138
 31
0.0
  0
LINE
  5
213F
  8
01
  6
BYBLOCK
 10
234.1703788383636
 20
-9.1010015048562138
 30
0.0
 11
231.57037883836361
 21
-9.7976693988562147
 31
0.0
  0
LINE
  5
2140
  8
01
  6
BYBLOCK
 10
234.1703788383636
 20
-9.1010015048562138
 30
0.0
 11
231.57037883836361
 21
-9.1010015048562138
 31
0.0
  0
TEXT
  5
2141
  8
01
 10
-29.329782430912999
 20
93.827833372028778
 30
0.0
 40
4.5499999999999989
  1
50
  0
LINE
  5
2142
  8
01
  6
BYBLOCK
 10
-2.596449097579669
 20
93.614501266028782
 30
0.0
 11
0.0035509024203301
 21
92.917833372028767
 31
0.0
  0
LINE
  5
2143
  8
01
  6
BYBLOCK
 10
0.0035509024203301
 20
92.917833372028767
 30
0.0
 11
-2.596449097579669
 21
92.22116547802878
 31
0.0
  0
LINE
  5
2144
  8
01
  6
BYBLOCK
 10
0.0035509024203301
 20
92.917833372028767
 30
0.0
 11
-2.596449097579669
 21
92.917833372028767
 31
0.0
  0
LINE
  5
2145
  8
01
  6
BYBLOCK
 10
-47.396449097579662
 20
92.22116547802878
 30
0.0
 11
-49.996449097579671
 21
92.917833372028767
 31
0.0
  0
LINE
  5
2146
  8
01
  6
BYBLOCK
 10
-49.996449097579671
 20
92.917833372028767
 30
0.0
 11
-47.396449097579662
 21
93.614501266028782
 31
0.0
  0
LINE
  5
2147
  8
01
  6
BYBLOCK
 10
-49.996449097579671
 20
92.917833372028767
 30
0.0
 11
-47.396449097579662
 21
92.917833372028767
 31
0.0
  0
TEXT
  5
2148
  8
01
 10
12.382682642087991
 20
-15.900720889870691
 30
0.0
 40
4.5499999999999989
  1
178
 50
90.0
  0
LINE
  5
2149
  8
01
  6
BYBLOCK
 10
13.98935053608797
 20
-95.475720889870701
 30
0.0
 11
13.29268264208797
 21
-98.075720889870695
 31
0.0
  0
LINE
  5
214A
  8
01
  6
BYBLOCK
 10
13.29268264208797
 20
-98.075720889870695
 30
0.0
 11
12.596014748087971
 21
-95.475720889870701
 31
0.0
  0
LINE
  5
214B
  8
01
  6
BYBLOCK
 10
13.29268264208797
 20
-98.075720889870695
 30
0.0
 11
13.29268264208797
 21
-95.475720889870701
 31
0.0
  0
LINE
  5
214C
  8
01
  6
BYBLOCK
 10
12.59601474808801
 20
77.324279110129311
 30
0.0
 11
13.29268264208801
 21
79.924279110129305
 31
0.0
  0
LINE
  5
214D
  8
01
  6
BYBLOCK
 10
13.29268264208801
 20
79.924279110129305
 30
0.0
 11
13.989350536088009
 21
77.324279110129311
 31
0.0
  0
LINE
  5
214E
  8
01
  6
BYBLOCK
 10
13.29268264208801
 20
79.924279110129305
 30
0.0
 11
13.29268264208801
 21
77.324279110129311
 31
0.0
  0
TEXT
  5
214F
  8
01
 10
19.830945627396488
 20
85.740940601921068
 30
0.0
 40
4.5499999999999989
  1
8.5
  0
LINE
  5
2150
  8
01
  6
BYBLOCK
 10
36.124278960729818
 20
84.134272707921056
 30
0.0
 11
33.524278960729823
 21
84.830940601921057
 31
0.0
  0
LINE
  5
2151
  8
01
  6
BYBLOCK
 10
33.524278960729823
 20
84.830940601921057
 30
0.0
 11
36.124278960729818
 21
85.527608495921058
 31
0.0
  0
LINE
  5
2152
  8
01
  6
BYBLOCK
 10
33.524278960729823
 20
84.830940601921057
 30
0.0
 11
36.124278960729818
 21
84.830940601921057
 31
0.0
  0
LINE
  5
2153
  8
01
  6
BYBLOCK
 10
39.424278960729808
 20
85.527608495921058
 30
0.0
 11
42.024278960729823
 21
84.830940601921057
 31
0.0
  0
LINE
  5
2154
  8
01
  6
BYBLOCK
 10
42.024278960729823
 20
84.830940601921057
 30
0.0
 11
39.424278960729808
 21
84.134272707921056
 31
0.0
  0
LINE
  5
2155
  8
01
  6
BYBLOCK
 10
42.024278960729823
 20
84.830940601921057
 30
0.0
 11
39.424278960729808
 21
84.830940601921057
 31
0.0
  0
LINE
  5
2156
  8
01
 10
76.138711108658214
 20
-79.247580546602507
 30
0.0
 11
68.953010333097382
 21
-104.0832488118216
 31
0.0
1001
ACAD
1000
DSTYLE
1002
{
1070
    40
1040
1.3
1002
}
  0
LINE
  5
2157
  8
01
 10
68.953010333097382
 20
-104.0832488118216
 30
0.0
 11
24.843010333097379
 21
-104.0832488118216
 31
0.0
1001
ACAD
1000
DSTYLE
1002
{
1070
    40
1040
1.3
1002
}
  0
LINE
  5
2158
  8
01
  6
BYBLOCK
 10
75.46949112627459
 20
-79.053955213268139
 30
0.0
 11
76.861330696850928
 21
-76.750017548245864
 31
0.0
  0
LINE
  5
2159
  8
01
  6
BYBLOCK
 10
76.861330696850928
 20
-76.750017548245864
 30
0.0
 11
76.807931091041851
 21
-79.441205879936874
 31
0.0
  0
LINE
  5
215A
  8
01
  6
BYBLOCK
 10
76.861330696850928
 20
-76.750017548245864
 30
0.0
 11
76.138711108658214
 21
-79.247580546602507
 31
0.0
  0
LINE
  5
215B
  8
01
 10
151.51327032547039
 20
67.764469928803493
 30
0.0
 11
141.92959331129941
 21
90.483688330104044
 31
0.0
1001
ACAD
1000
DSTYLE
1002
{
1070
    40
1040
1.3
1002
}
  0
LINE
  5
215C
  8
01
 10
141.92959331129941
 20
90.483688330104044
 30
0.0
 11
102.0195933112994
 21
90.483688330104044
 31
0.0
1001
ACAD
1000
DSTYLE
1002
{
1070
    40
1040
1.3
1002
}
  0
LINE
  5
215D
  8
01
  6
BYBLOCK
 10
152.1551652048577
 20
68.035241268399687
 30
0.0
 11
152.5238027312455
 21
65.368885604076354
 31
0.0
  0
LINE
  5
215E
  8
01
  6
BYBLOCK
 10
152.5238027312455
 20
65.368885604076354
 30
0.0
 11
150.87137544608311
 21
67.493698589207312
 31
0.0
  0
LINE
  5
215F
  8
01
  6
BYBLOCK
 10
152.5238027312455
 20
65.368885604076354
 30
0.0
 11
151.51327032547039
 21
67.764469928803493
 31
0.0
  0
TEXT
  5
2160
  8
01
 10
68.330945627396474
 20
85.740940601921068
 30
0.0
 40
4.5499999999999989
  1
8.5
  0
LINE
  5
2161
  8
01
  6
BYBLOCK
 10
84.624278960729811
 20
84.134272707921056
 30
0.0
 11
82.024278960729816
 21
84.830940601921057
 31
0.0
  0
LINE
  5
2162
  8
01
  6
BYBLOCK
 10
82.024278960729816
 20
84.830940601921057
 30
0.0
 11
84.624278960729811
 21
85.527608495921058
 31
0.0
  0
LINE
  5
2163
  8
01
  6
BYBLOCK
 10
82.024278960729816
 20
84.830940601921057
 30
0.0
 11
84.624278960729811
 21
84.830940601921057
 31
0.0
  0
LINE
  5
2164
  8
01
  6
BYBLOCK
 10
87.924278960729822
 20
85.527608495921058
 30
0.0
 11
90.524278960729816
 21
84.830940601921057
 31
0.0
  0
LINE
  5
2165
  8
01
  6
BYBLOCK
 10
90.524278960729816
 20
84.830940601921057
 30
0.0
 11
87.924278960729822
 21
84.134272707921056
 31
0.0
  0
LINE
  5
2166
  8
01
  6
BYBLOCK
 10
90.524278960729816
 20
84.830940601921057
 30
0.0
 11
87.924278960729822
 21
84.830940601921057
 31
0.0
  0
TEXT
  5
2167
  8
01
 10
25.580906709952259
 20
93.827833372028778
 30
0.0
 40
4.5499999999999989
  1
24
  0
LINE
  5
2168
  8
01
  6
BYBLOCK
 10
20.620867792508029
 20
92.22116547802878
 30
0.0
 11
18.020867792508021
 21
92.917833372028767
 31
0.0
  0
LINE
  5
2169
  8
01
  6
BYBLOCK
 10
18.020867792508021
 20
92.917833372028767
 30
0.0
 11
20.620867792508029
 21
93.614501266028782
 31
0.0
  0
LINE
  5
216A
  8
01
  6
BYBLOCK
 10
18.020867792508021
 20
92.917833372028767
 30
0.0
 11
20.620867792508029
 21
92.917833372028767
 31
0.0
  0
LINE
  5
216B
  8
01
  6
BYBLOCK
 10
39.424278960729808
 20
93.614501266028782
 30
0.0
 11
42.024278960729823
 21
92.917833372028767
 31
0.0
  0
LINE
  5
216C
  8
01
  6
BYBLOCK
 10
42.024278960729823
 20
92.917833372028767
 30
0.0
 11
39.424278960729808
 21
92.22116547802878
 31
0.0
  0
LINE
  5
216D
  8
01
  6
BYBLOCK
 10
42.024278960729823
 20
92.917833372028767
 30
0.0
 11
39.424278960729808
 21
92.917833372028767
 31
0.0
  0
TEXT
  5
216E
  8
01
 10
63.997612294063153
 20
93.827833372028778
 30
0.0
 40
4.5499999999999989
  1
10.3
  0
LINE
  5
216F
  8
01
  6
BYBLOCK
 10
84.624278960729811
 20
92.22116547802878
 30
0.0
 11
82.024278960729816
 21
92.917833372028767
 31
0.0
  0
LINE
  5
2170
  8
01
  6
BYBLOCK
 10
82.024278960729816
 20
92.917833372028767
 30
0.0
 11
84.624278960729811
 21
93.614501266028782
 31
0.0
  0
LINE
  5
2171
  8
01
  6
BYBLOCK
 10
82.024278960729816
 20
92.917833372028767
 30
0.0
 11
84.624278960729811
 21
92.917833372028767
 31
0.0
  0
LINE
  5
2172
  8
01
  6
BYBLOCK
 10
89.724051111302728
 20
93.614501266028782
 30
0.0
 11
92.324051111302722
 21
92.917833372028767
 31
0.0
  0
LINE
  5
2173
  8
01
  6
BYBLOCK
 10
92.324051111302722
 20
92.917833372028767
 30
0.0
 11
89.724051111302728
 21
92.22116547802878
 31
0.0
  0
LINE
  5
2174
  8
01
  6
BYBLOCK
 10
92.324051111302722
 20
92.917833372028767
 30
0.0
 11
89.724051111302728
 21
92.917833372028767
 31
0.0
  0
LINE
  5
2175
  8
01
 10
78.638159976081198
 20
6.6893408718487937
 30
0.0
 11
79.405689055488864
 21
-27.6341324714266
 31
0.0
1001
ACAD
1000
DSTYLE
1002
{
1070
    40
1040
1.3
1002
}
  0
LINE
  5
2176
  8
01
 10
79.405689055488864
 20
-27.6341324714266
 30
0.0
 11
75.895689055488873
 21
-27.6341324714266
 31
0.0
1001
ACAD
1000
DSTYLE
1002
{
1070
    40
1040
1.3
1002
}
  0
LINE
  5
2177
  8
01
  6
BYBLOCK
 10
77.941666198682711
 20
6.6737661302591711
 30
0.0
 11
78.580034248626575
 21
9.2886910598396071
 31
0.0
  0
LINE
  5
2178
  8
01
  6
BYBLOCK
 10
78.580034248626575
 20
9.2886910598396071
 30
0.0
 11
79.334653753479685
 21
6.704915613438418
 31
0.0
  0
LINE
  5
2179
  8
01
  6
BYBLOCK
 10
78.580034248626575
 20
9.2886910598396071
 30
0.0
 11
78.638159976081198
 21
6.6893408718487937
 31
0.0
  0
LINE
  5
217A
  8
01
 10
56.95363120059212
 20
8.5505386873668883
 30
0.0
 11
79.405689055488864
 21
-27.6341324714266
 31
0.0
1001
ACAD
1000
DSTYLE
1002
{
1070
    40
1040
1.3
1002
}
  0
LINE
  5
217B
  8
01
  6
BYBLOCK
 10
56.36165998749896
 20
8.1832292300976803
 30
0.0
 11
55.582813631525369
 21
10.7598053512936
 31
0.0
  0
LINE
  5
217C
  8
01
  6
BYBLOCK
 10
55.582813631525369
 20
10.7598053512936
 30
0.0
 11
57.545602413685302
 21
8.9178481446360962
 31
0.0
  0
LINE
  5
217D
  8
01
  6
BYBLOCK
 10
55.582813631525369
 20
10.7598053512936
 30
0.0
 11
56.95363120059212
 21
8.5505386873668883
 31
0.0
  0
VIEWPORT
  5
57
 67
     1
  8
0
 10
-3.7702760854331241
 20
10.09791912461025
 30
0.0
 40
584.17743674633994
 41
268.5949880305476
 68
     1
 69
     1
1001
ACAD
1000
MVIEW
1002
{
1070
    16
1010
0.0
1020
0.0
1030
0.0
1010
0.0
1020
0.0
1030
1.0
1040
0.0
1040
268.5949880305476
1040
-3.7702760854331241
1040
10.09791912461025
1040
50.0
1040
0.0
1040
0.0
1070
     0
1070
   100
1070
     1
1070
     1
1070
     0
1070
     0
1070
     0
1070
     0
1040
0.0
1040
0.0
1040
0.0
1040
10.0
1040
10.0
1040
10.0
1040
10.0
1070
     0
1002
{
1002
}
1002
}
  0
ENDSEC
  0
EOF
