  0
SECTION
  2
HEADER
  9
$ACADVER
  1
AC1012
  9
$DWGCODEPAGE
  3
ansi_932
  9
$INSBASE
 10
0.0
 20
0.0
 30
0.0
  9
$EXTMIN
 10
6312.307993930197
 20
222.2228512248153
 30
0.0
  9
$EXTMAX
 10
6630.736279312628
 20
487.2228512248153
 30
0.0
  9
$LIMMIN
 10
0.0
 20
0.0
  9
$LIMMAX
 10
420.0
 20
297.0
  9
$ORTHOMODE
 70
     0
  9
$REGENMODE
 70
     1
  9
$FILLMODE
 70
     1
  9
$QTEXTMODE
 70
     0
  9
$MIRRTEXT
 70
     0
  9
$DRAGMODE
 70
     2
  9
$LTSCALE
 40
0.5
  9
$OSMODE
 70
 14463
  9
$ATTMODE
 70
     1
  9
$TEXTSIZE
 40
4.0
  9
$TRACEWID
 40
1.0
  9
$TEXTSTYLE
  7
STANDARD
  9
$CLAYER
  8
1TEXT
  9
$CELTYPE
  6
BYLAYER
  9
$CECOLOR
 62
   256
  9
$CELTSCALE
 40
1.0
  9
$DELOBJ
 70
     1
  9
$DISPSILH
 70
     0
  9
$DIMSCALE
 40
1.0
  9
$DIMASZ
 40
2.0
  9
$DIMEXO
 40
0.0
  9
$DIMDLI
 40
7.0
  9
$DIMRND
 40
0.0
  9
$DIMDLE
 40
0.0
  9
$DIMEXE
 40
1.0
  9
$DIMTP
 40
0.0
  9
$DIMTM
 40
0.0
  9
$DIMTXT
 40
3.5
  9
$DIMCEN
 40
0.0
  9
$DIMTSZ
 40
0.0
  9
$DIMTOL
 70
     0
  9
$DIMLIM
 70
     0
  9
$DIMTIH
 70
     0
  9
$DIMTOH
 70
     0
  9
$DIMSE1
 70
     0
  9
$DIMSE2
 70
     0
  9
$DIMTAD
 70
     1
  9
$DIMZIN
 70
     8
  9
$DIMBLK
  1

  9
$DIMASO
 70
     1
  9
$DIMSHO
 70
     1
  9
$DIMPOST
  1
 
  9
$DIMAPOST
  1

  9
$DIMALT
 70
     0
  9
$DIMALTD
 70
     2
  9
$DIMALTF
 40
25.4
  9
$DIMLFAC
 40
1.0
  9
$DIMTOFL
 70
     1
  9
$DIMTVP
 40
0.0
  9
$DIMTIX
 70
     0
  9
$DIMSOXD
 70
     0
  9
$DIMSAH
 70
     1
  9
$DIMBLK1
  1
OPEN30
  9
$DIMBLK2
  1
OPEN30
  9
$DIMSTYLE
  2
NEWX10
  9
$DIMCLRD
 70
   256
  9
$DIMCLRE
 70
   256
  9
$DIMCLRT
 70
   201
  9
$DIMTFAC
 40
0.7
  9
$DIMGAP
 40
0.7
  9
$DIMJUST
 70
     0
  9
$DIMSD1
 70
     0
  9
$DIMSD2
 70
     0
  9
$DIMTOLJ
 70
     1
  9
$DIMTZIN
 70
     8
  9
$DIMALTZ
 70
     0
  9
$DIMALTTZ
 70
     0
  9
$DIMFIT
 70
     2
  9
$DIMUPT
 70
     0
  9
$DIMUNIT
 70
     2
  9
$DIMDEC
 70
     2
  9
$DIMTDEC
 70
     4
  9
$DIMALTU
 70
     2
  9
$DIMALTTD
 70
     2
  9
$DIMTXSTY
  7
STANDARD
  9
$DIMAUNIT
 70
     0
  9
$LUNITS
 70
     2
  9
$LUPREC
 70
     4
  9
$SKETCHINC
 40
1.0
  9
$FILLETRAD
 40
0.0
  9
$AUNITS
 70
     0
  9
$AUPREC
 70
     2
  9
$MENU
  1
acad
  9
$ELEVATION
 40
0.0
  9
$PELEVATION
 40
0.0
  9
$THICKNESS
 40
0.0
  9
$LIMCHECK
 70
     0
  9
$CHAMFERA
 40
10.0
  9
$CHAMFERB
 40
10.0
  9
$CHAMFERC
 40
20.0
  9
$CHAMFERD
 40
0.0
  9
$SKPOLY
 70
     0
  9
$TDCREATE
 40
2451318.621352917
  9
$TDUPDATE
 40
2458150.473201412
  9
$TDINDWG
 40
1.2490936343
  9
$TDUSRTIMER
 40
1.2490936343
  9
$USRTIMER
 70
     1
  9
$ANGBASE
 50
0.0
  9
$ANGDIR
 70
     0
  9
$PDMODE
 70
     0
  9
$PDSIZE
 40
0.0
  9
$PLINEWID
 40
0.0
  9
$COORDS
 70
     2
  9
$SPLFRAME
 70
     0
  9
$SPLINETYPE
 70
     6
  9
$SPLINESEGS
 70
     8
  9
$ATTDIA
 70
     0
  9
$ATTREQ
 70
     1
  9
$HANDLING
 70
     1
  9
$HANDSEED
  5
B00E
  9
$SURFTAB1
 70
     6
  9
$SURFTAB2
 70
     6
  9
$SURFTYPE
 70
     6
  9
$SURFU
 70
     6
  9
$SURFV
 70
     6
  9
$UCSNAME
  2

  9
$UCSORG
 10
0.0
 20
0.0
 30
0.0
  9
$UCSXDIR
 10
1.0
 20
0.0
 30
0.0
  9
$UCSYDIR
 10
0.0
 20
1.0
 30
0.0
  9
$PUCSNAME
  2

  9
$PUCSORG
 10
0.0
 20
0.0
 30
0.0
  9
$PUCSXDIR
 10
1.0
 20
0.0
 30
0.0
  9
$PUCSYDIR
 10
0.0
 20
1.0
 30
0.0
  9
$USERI1
 70
     0
  9
$USERI2
 70
     0
  9
$USERI3
 70
     0
  9
$USERI4
 70
     0
  9
$USERI5
 70
     0
  9
$USERR1
 40
0.0
  9
$USERR2
 40
0.0
  9
$USERR3
 40
0.0
  9
$USERR4
 40
0.0
  9
$USERR5
 40
0.0
  9
$WORLDVIEW
 70
     1
  9
$SHADEDGE
 70
     3
  9
$SHADEDIF
 70
    70
  9
$TILEMODE
 70
     1
  9
$MAXACTVP
 70
    48
  9
$PINSBASE
 10
0.0
 20
0.0
 30
0.0
  9
$PLIMCHECK
 70
     0
  9
$PEXTMIN
 10
1.000000000000000E+20
 20
1.000000000000000E+20
 30
1.000000000000000E+20
  9
$PEXTMAX
 10
-1.000000000000000E+20
 20
-1.000000000000000E+20
 30
-1.000000000000000E+20
  9
$PLIMMIN
 10
0.0
 20
0.0
  9
$PLIMMAX
 10
420.0
 20
297.0
  9
$UNITMODE
 70
     0
  9
$VISRETAIN
 70
     1
  9
$PLINEGEN
 70
     0
  9
$PSLTSCALE
 70
     1
  9
$TREEDEPTH
 70
  3020
  9
$PICKSTYLE
 70
     1
  9
$CMLSTYLE
  2
STANDARD
  9
$CMLJUST
 70
     0
  9
$CMLSCALE
 40
20.0
  9
$SAVEIMAGES
 70
     1
  0
ENDSEC
  0
SECTION
  2
CLASSES
  0
CLASS
  1
DICTIONARYVAR
  2
AcDbDictionaryVar
  3
ObjectDBX Classes
 90
        0
280
     0
281
     0
  0
CLASS
  1
IDBUFFER
  2
AcDbIdBuffer
  3
ObjectDBX Classes
 90
    32768
280
     0
281
     0
  0
CLASS
  1
LWPOLYLINE
  2
AcDbPolyline
  3
ObjectDBX Classes
 90
    32768
280
     0
281
     1
  0
CLASS
  1
ACDBDICTIONARYWDFLT
  2
AcDbDictionaryWithDefault
  3
ObjectDBX Classes
 90
    32768
280
     0
281
     0
  0
CLASS
  1
ACDBPLACEHOLDER
  2
AcDbPlaceHolder
  3
ObjectDBX Classes
 90
        0
280
     0
281
     0
  0
CLASS
  1
LAYOUT
  2
AcDbLayout
  3
ObjectDBX Classes
 90
        0
280
     0
281
     0
  0
CLASS
  1
TABLESTYLE
  2
AcDbTableStyle
  3
ObjectDBX Classes
 90
     4095
280
     0
281
     0
  0
CLASS
  1
SORTENTSTABLE
  2
AcDbSortentsTable
  3
ObjectDBX Classes
 90
    32768
280
     0
281
     0
  0
CLASS
  1
MATERIAL
  2
AcDbMaterial
  3
ObjectDBX Classes
 90
     1153
280
     0
281
     0
  0
CLASS
  1
VISUALSTYLE
  2
AcDbVisualStyle
  3
ObjectDBX Classes
 90
     4095
280
     0
281
     0
  0
CLASS
  1
SCALE
  2
AcDbScale
  3
ObjectDBX Classes
 90
     1153
280
     0
281
     0
  0
CLASS
  1
MLEADERSTYLE
  2
AcDbMLeaderStyle
  3
ACDB_MLEADERSTYLE_CLASS
 90
     4095
280
     0
281
     0
  0
CLASS
  1
CELLSTYLEMAP
  2
AcDbCellStyleMap
  3
ObjectDBX Classes
 90
     1152
280
     0
281
     0
  0
CLASS
  1
SUN
  2
AcDbSun
  3
SCENEOE
 90
     1153
280
     0
281
     0
  0
CLASS
  1
XRECORD
  2
AcDbXrecord
  3
ObjectDBX Classes
 90
    32768
280
     0
281
     0
  0
CLASS
  1
HATCH
  2
AcDbHatch
  3
ObjectDBX Classes
 90
    32768
280
     0
281
     1
  0
ENDSEC
  0
SECTION
  2
TABLES
  0
TABLE
  2
VPORT
  5
8
330
0
100
AcDbSymbolTable
 70
     1
  0
VPORT
  5
952D
330
8
100
AcDbSymbolTableRecord
100
AcDbViewportTableRecord
  2
*ACTIVE
 70
     0
 10
0.0
 20
0.0
 11
1.0
 21
1.0
 12
6471.522136621412
 22
354.7228512248153
 13
0.0
 23
0.0
 14
10.0
 24
10.0
 15
10.0
 25
10.0
 16
0.0
 26
0.0
 36
1.0
 17
0.0
 27
0.0
 37
0.0
 40
284.5263157894738
 41
2.233782129742962
 42
50.0
 43
0.0
 44
0.0
 50
0.0
 51
0.0
 71
    16
 72
   100
 73
     1
 74
     1
 75
     0
 76
     0
 77
     0
 78
     0
  0
ENDTAB
  0
TABLE
  2
LTYPE
  5
5
330
0
100
AcDbSymbolTable
 70
     4
  0
LTYPE
  5
12
330
5
100
AcDbSymbolTableRecord
100
AcDbLinetypeTableRecord
  2
BYBLOCK
 70
     0
  3

 72
    65
 73
     0
 40
0.0
  0
LTYPE
  5
13
330
5
100
AcDbSymbolTableRecord
100
AcDbLinetypeTableRecord
  2
BYLAYER
 70
     0
  3

 72
    65
 73
     0
 40
0.0
  0
LTYPE
  5
14
330
5
100
AcDbSymbolTableRecord
100
AcDbLinetypeTableRecord
  2
CONTINUOUS
 70
     0
  3
Solid line
 72
    65
 73
     0
 40
0.0
  0
LTYPE
  5
6A
330
5
100
AcDbSymbolTableRecord
100
AcDbLinetypeTableRecord
  2
XREF1|CENTER2
 70
    48
  3
Center (.5x) ___ _ ___ _ ___ _ ___ _ ___ _ ___
 72
    65
 73
     4
 40
28.575
 49
19.05
 74
     0
 49
-3.175
 74
     0
 49
3.175
 74
     0
 49
-3.175
 74
     0
  0
LTYPE
  5
6A6
330
5
100
AcDbSymbolTableRecord
100
AcDbLinetypeTableRecord
  2
A3WAKUDAKE|CENTER2
 70
    48
  3
Center (.5x) ___ _ ___ _ ___ _ ___ _ ___ _ ___
 72
    65
 73
     4
 40
28.575
 49
19.05
 74
     0
 49
-3.175
 74
     0
 49
3.175
 74
     0
 49
-3.175
 74
     0
  0
LTYPE
  5
9837
330
5
100
AcDbSymbolTableRecord
100
AcDbLinetypeTableRecord
  2
CENTER2
 70
     0
  3
Center (.5x) ___ _ ___ _ ___ _ ___ _ ___ _ ___
 72
    65
 73
     4
 40
28.575
 49
19.05
 74
     0
 49
-3.175
 74
     0
 49
3.175
 74
     0
 49
-3.175
 74
     0
  0
ENDTAB
  0
TABLE
  2
LAYER
  5
2
102
{ACAD_XDICTIONARY
360
96D9
102
}
330
0
100
AcDbSymbolTable
 70
     9
  0
LAYER
  5
E
102
{ACAD_XDICTIONARY
360
9593
102
}
330
2
100
AcDbSymbolTableRecord
100
AcDbLayerTableRecord
  2
0
 70
     0
 62
     7
  6
CONTINUOUS
  0
LAYER
  5
29
102
{ACAD_XDICTIONARY
360
9595
102
}
330
2
100
AcDbSymbolTableRecord
100
AcDbLayerTableRecord
  2
1CENTER
 70
     0
 62
     7
  6
CENTER2
  0
LAYER
  5
31
102
{ACAD_XDICTIONARY
360
9597
102
}
330
2
100
AcDbSymbolTableRecord
100
AcDbLayerTableRecord
  2
1TEXT
 70
     0
 62
     7
  6
CONTINUOUS
  0
LAYER
  5
243
102
{ACAD_XDICTIONARY
360
959D
102
}
330
2
100
AcDbSymbolTableRecord
100
AcDbLayerTableRecord
  2
01
 70
     0
 62
     1
  6
CONTINUOUS
  0
LAYER
  5
24E
102
{ACAD_XDICTIONARY
360
95A3
102
}
330
2
100
AcDbSymbolTableRecord
100
AcDbLayerTableRecord
  2
1DIM
 70
     0
 62
     7
  6
CONTINUOUS
  0
LAYER
  5
6A1
102
{ACAD_XDICTIONARY
360
95A7
102
}
330
2
100
AcDbSymbolTableRecord
100
AcDbLayerTableRecord
  2
A3WAKUDAKE|THICK
 70
    48
 62
     7
  6
CONTINUOUS
  0
LAYER
  5
6A2
102
{ACAD_XDICTIONARY
360
95A9
102
}
330
2
100
AcDbSymbolTableRecord
100
AcDbLayerTableRecord
  2
A3WAKUDAKE|POINT
 70
    48
 62
     7
  6
CONTINUOUS
  0
LAYER
  5
6A3
102
{ACAD_XDICTIONARY
360
95AB
102
}
330
2
100
AcDbSymbolTableRecord
100
AcDbLayerTableRecord
  2
A3WAKUDAKE|1CENTER
 70
    48
 62
     7
  6
A3WAKUDAKE|CENTER2
  0
LAYER
  5
6A4
102
{ACAD_XDICTIONARY
360
95AD
102
}
330
2
100
AcDbSymbolTableRecord
100
AcDbLayerTableRecord
  2
A3WAKUDAKE|0-6
 70
    48
 62
     7
  6
CONTINUOUS
  0
ENDTAB
  0
TABLE
  2
STYLE
  5
3
330
0
100
AcDbSymbolTable
 70
     3
  0
STYLE
  5
F
330
3
100
AcDbSymbolTableRecord
100
AcDbTextStyleTableRecord
  2
STANDARD
 70
     0
 40
0.0
 41
1.0
 50
0.0
 71
     0
 42
4.0
  3
txt.shx
  4
extfont.shx
  0
STYLE
  5
A599
330
3
100
AcDbSymbolTableRecord
100
AcDbTextStyleTableRecord
  2
A3WAKUDAKE|STANDARD
 70
    48
 40
0.0
 41
1.0
 50
0.0
 71
     0
 42
4.0
  3
romans.shx
  4
extfont.shx
  0
STYLE
  5
A5C1
330
3
100
AcDbSymbolTableRecord
100
AcDbTextStyleTableRecord
  2
XREF1|STANDARD
 70
    48
 40
0.0
 41
1.0
 50
0.0
 71
     0
 42
4.0
  3
romans.shx
  4
extfont.shx
  0
ENDTAB
  0
TABLE
  2
VIEW
  5
6
330
0
100
AcDbSymbolTable
 70
     0
  0
ENDTAB
  0
TABLE
  2
UCS
  5
7
330
0
100
AcDbSymbolTable
 70
     0
  0
ENDTAB
  0
TABLE
  2
APPID
  5
9
330
0
100
AcDbSymbolTable
 70
    14
  0
APPID
  5
10
330
9
100
AcDbSymbolTableRecord
100
AcDbRegAppTableRecord
  2
ACAD
 70
     0
  0
APPID
  5
21
330
9
100
AcDbSymbolTableRecord
100
AcDbRegAppTableRecord
  2
DRAWINGVARIABLESXDATA
 70
     0
  0
APPID
  5
64
330
9
100
AcDbSymbolTableRecord
100
AcDbRegAppTableRecord
  2
CONTENTTABDATA
 70
     0
  0
APPID
  5
65
330
9
100
AcDbSymbolTableRecord
100
AcDbRegAppTableRecord
  2
CONTENTCURRENTTAB
 70
     0
  0
APPID
  5
66
330
9
100
AcDbSymbolTableRecord
100
AcDbRegAppTableRecord
  2
CONTENTBLOCKDESCRIPTION
 70
     0
  0
APPID
  5
67
330
9
100
AcDbSymbolTableRecord
100
AcDbRegAppTableRecord
  2
CONTENTBLOCKICON
 70
     0
  0
APPID
  5
68
330
9
100
AcDbSymbolTableRecord
100
AcDbRegAppTableRecord
  2
CONTENTLONGBLOCKNAME
 70
     0
  0
APPID
  5
2AE
330
9
100
AcDbSymbolTableRecord
100
AcDbRegAppTableRecord
  2
ACAD_PSEXT
 70
     0
  0
APPID
  5
9585
330
9
100
AcDbSymbolTableRecord
100
AcDbRegAppTableRecord
  2
ACAD_MLEADERVER
 70
     0
  0
APPID
  5
A265
330
9
100
AcDbSymbolTableRecord
100
AcDbRegAppTableRecord
  2
ACLAYERTOOLS
 70
     0
  0
APPID
  5
A266
330
9
100
AcDbSymbolTableRecord
100
AcDbRegAppTableRecord
  2
ACAD_NAV_VCDISPLAY
 70
     0
  0
APPID
  5
A2FE
330
9
100
AcDbSymbolTableRecord
100
AcDbRegAppTableRecord
  2
ACAECLAYERSTANDARD
 70
     0
  0
APPID
  5
A606
330
9
100
AcDbSymbolTableRecord
100
AcDbRegAppTableRecord
  2
ACADANNOTATIVE
 70
     0
  0
APPID
  5
A607
330
9
100
AcDbSymbolTableRecord
100
AcDbRegAppTableRecord
  2
ACDBBLOCKREPETAG
 70
     0
  0
ENDTAB
  0
TABLE
  2
DIMSTYLE
  5
A
330
0
100
AcDbSymbolTable
 70
     1
  0
DIMSTYLE
105
48
330
A
100
AcDbSymbolTableRecord
100
AcDbDimStyleTableRecord
  2
NEWX10
 70
     0
  3
 
  4

  5

  6
OPEN30
  7
OPEN30
 40
1.0
 41
2.0
 42
0.0
 43
7.0
 44
1.0
 45
0.0
 46
0.0
 47
0.0
 48
0.0
140
3.5
141
0.0
142
0.0
143
25.4
144
1.0
145
0.0
146
0.7
147
0.7
 71
     0
 72
     0
 73
     0
 74
     0
 75
     0
 76
     0
 77
     1
 78
     8
170
     0
171
     2
172
     1
173
     1
174
     0
175
     0
176
   256
177
   256
178
   201
179
     2
270
     2
271
     2
272
     4
273
     2
274
     2
340
F
275
     0
280
     0
281
     0
282
     0
283
     1
284
     8
285
     0
286
     0
287
     2
288
     0
  0
ENDTAB
  0
TABLE
  2
BLOCK_RECORD
  5
1
330
0
100
AcDbSymbolTable
 70
    10
  0
BLOCK_RECORD
  5
18
102
{ACAD_XDICTIONARY
360
88F
102
}
330
1
100
AcDbSymbolTableRecord
100
AcDbBlockTableRecord
  2
*MODEL_SPACE
  0
BLOCK_RECORD
  5
15
330
1
100
AcDbSymbolTableRecord
100
AcDbBlockTableRecord
  2
*PAPER_SPACE
  0
BLOCK_RECORD
  5
42
330
1
100
AcDbSymbolTableRecord
100
AcDbBlockTableRecord
  2
_OPEN30
  0
BLOCK_RECORD
  5
5B
330
1
100
AcDbSymbolTableRecord
100
AcDbBlockTableRecord
  2
XREF1
  0
BLOCK_RECORD
  5
69E
330
1
100
AcDbSymbolTableRecord
100
AcDbBlockTableRecord
  2
A3WAKUDAKE
  0
BLOCK_RECORD
  5
A656
330
1
100
AcDbSymbolTableRecord
100
AcDbBlockTableRecord
  2
A3WAKUKAWAJUN2017_HYOUDAI_
  0
BLOCK_RECORD
  5
AE6E
330
1
100
AcDbSymbolTableRecord
100
AcDbBlockTableRecord
  2
*X27
  0
BLOCK_RECORD
  5
AEBC
330
1
100
AcDbSymbolTableRecord
100
AcDbBlockTableRecord
  2
*X28
  0
BLOCK_RECORD
  5
AF0E
330
1
100
AcDbSymbolTableRecord
100
AcDbBlockTableRecord
  2
*X29
  0
BLOCK_RECORD
  5
AF5F
330
1
100
AcDbSymbolTableRecord
100
AcDbBlockTableRecord
  2
*X30
  0
BLOCK_RECORD
  5
AF9C
330
1
100
AcDbSymbolTableRecord
100
AcDbBlockTableRecord
  2
*X31
  0
BLOCK_RECORD
  5
AFDC
330
1
100
AcDbSymbolTableRecord
100
AcDbBlockTableRecord
  2
*X32
  0
ENDTAB
  0
ENDSEC
  0
SECTION
  2
BLOCKS
  0
BLOCK
  5
19
330
18
100
AcDbEntity
  8
0
100
AcDbBlockBegin
  2
*MODEL_SPACE
 70
     0
 10
0.0
 20
0.0
 30
0.0
  3
*MODEL_SPACE
  1

  0
ENDBLK
  5
1A
330
18
100
AcDbEntity
  8
0
100
AcDbBlockEnd
  0
BLOCK
  5
16
330
15
100
AcDbEntity
 67
     1
  8
0
100
AcDbBlockBegin
  2
*PAPER_SPACE
 70
     0
 10
0.0
 20
0.0
 30
0.0
  3
*PAPER_SPACE
  1

  0
ENDBLK
  5
17
330
15
100
AcDbEntity
 67
     1
  8
0
100
AcDbBlockEnd
  0
BLOCK
  5
43
330
42
100
AcDbEntity
  8
0
100
AcDbBlockBegin
  2
_OPEN30
 70
     0
 10
0.0
 20
0.0
 30
0.0
  3
_OPEN30
  1

  0
LINE
  5
44
330
42
100
AcDbEntity
  8
0
  6
BYBLOCK
 62
     0
100
AcDbLine
 10
-1.0
 20
0.26794919
 30
0.0
 11
0.0
 21
0.0
 31
0.0
  0
LINE
  5
45
330
42
100
AcDbEntity
  8
0
  6
BYBLOCK
 62
     0
100
AcDbLine
 10
0.0
 20
0.0
 30
0.0
 11
-1.0
 21
-0.26794919
 31
0.0
  0
LINE
  5
46
330
42
100
AcDbEntity
  8
0
  6
BYBLOCK
 62
     0
100
AcDbLine
 10
0.0
 20
0.0
 30
0.0
 11
-1.0
 21
0.0
 31
0.0
  0
ENDBLK
  5
47
330
42
100
AcDbEntity
  8
0
100
AcDbBlockEnd
  0
BLOCK
  5
5C
330
5B
100
AcDbEntity
  8
0
100
AcDbBlockBegin
  2
XREF1
 70
    36
 10
0.0
 20
0.0
 30
0.0
  3
XREF1
  1
D:\ACLT\FORMAT\KAWAJUN(9)図面用.dwg
  0
ENDBLK
  5
5D
330
5B
100
AcDbEntity
  8
0
100
AcDbBlockEnd
  0
BLOCK
  5
69F
330
69E
100
AcDbEntity
  8
0
100
AcDbBlockBegin
  2
A3WAKUDAKE
 70
    36
 10
0.0
 20
0.0
 30
0.0
  3
A3WAKUDAKE
  1
D:\ACLT\FORMAT\A3WAKUdake.dwg
  0
ENDBLK
  5
6A0
330
69E
100
AcDbEntity
  8
0
100
AcDbBlockEnd
  0
BLOCK
  5
AD5E
330
A656
100
AcDbEntity
  8
0
100
AcDbBlockBegin
  2
A3WAKUKAWAJUN2017_HYOUDAI_
 70
     0
 10
0.0
 20
0.0
 30
0.0
  3
A3WAKUKAWAJUN2017_HYOUDAI_
  1

  0
LINE
  5
A658
330
A656
100
AcDbEntity
  8
0
100
AcDbLine
 10
13.26299999998673
 20
-0.0001000000000317
 30
0.0
 11
9.236999999990758
 21
8.999899999990987
 31
0.0
1001
ACAD
1000
ASC_BOUNDS
1002
{
1070
    19
1005
A699
1002
}
  0
LINE
  5
A659
330
A656
100
AcDbEntity
  8
0
100
AcDbLine
 10
5.657999999994331
 20
0.9999999999989768
 30
0.0
 11
9.236999999990758
 21
8.999999999991019
 31
0.0
1001
ACAD
1000
ASC_BOUNDS
1002
{
1070
    19
1005
A699
1002
}
  0
LINE
  5
A65A
330
A656
100
AcDbEntity
  8
0
100
AcDbLine
 10
18.59199999998134
 20
-0.2368999999997641
 30
0.0
 11
16.46099999998353
 21
5.432899999994561
 31
0.0
1001
ACAD
1000
ASC_BOUNDS
1002
{
1070
    19
1005
A69A
1002
}
  0
LINE
  5
A65B
330
A656
100
AcDbEntity
  8
0
100
AcDbLine
 10
18.59199999998134
 20
-0.2368999999997641
 30
0.0
 11
22.38199999997767
 21
8.763099999991255
 31
0.0
1001
ACAD
1000
ASC_BOUNDS
1002
{
1070
    19
1005
A69A
1002
}
  0
LINE
  5
A65C
330
A656
100
AcDbEntity
  8
0
100
AcDbLine
 10
14.32899999998563
 20
-0.2368999999997641
 30
0.0
 11
16.46099999998353
 21
5.432899999994561
 31
0.0
1001
ACAD
1000
ASC_BOUNDS
1002
{
1070
    19
1005
A69A
1002
}
  0
LINE
  5
A65D
330
A656
100
AcDbEntity
  8
0
100
AcDbLine
 10
14.32899999998563
 20
-0.2368999999997641
 30
0.0
 11
10.53899999998941
 21
8.763099999991255
 31
0.0
1001
ACAD
1000
ASC_BOUNDS
1002
{
1070
    19
1005
A69A
1002
}
  0
LINE
  5
A65E
330
A656
100
AcDbEntity
  8
0
100
AcDbLine
 10
19.53899999998043
 20
-0.0001000000000317
 30
0.0
 11
23.56599999997638
 21
8.999899999990987
 31
0.0
1001
ACAD
1000
ASC_BOUNDS
1002
{
1070
    19
1005
A69B
1002
}
  0
LINE
  5
A65F
330
A656
100
AcDbEntity
  8
0
100
AcDbLine
 10
26.97358892824991
 20
1.383099999991202
 30
0.0
 11
23.56599999997638
 21
8.999899999990987
 31
0.0
1001
ACAD
1000
ASC_BOUNDS
1002
{
1070
    19
1005
A69B
1002
}
  0
LINE
  5
A660
330
A656
100
AcDbEntity
  8
0
100
AcDbLine
 10
5.657999999994331
 20
0.9999999999989768
 30
0.0
 11
3.181999999996833
 21
4.668599999995308
 31
0.0
1001
ACAD
1000
ASC_BOUNDS
1002
{
1070
    19
1005
A699
1002
}
  0
LINE
  5
A661
330
A656
100
AcDbEntity
  8
0
100
AcDbLine
 10
4.617999999995391
 20
-0.0001000000000317
 30
0.0
 11
1.420999999998571
 21
4.736799999995242
 31
0.0
1001
ACAD
1000
ASC_BOUNDS
1002
{
1070
    19
1005
A699
1002
}
  0
LINE
  5
A662
330
A656
100
AcDbEntity
  8
0
100
AcDbLine
 10
1.420999999998571
 20
8.763099999991255
 30
0.0
 11
1.420999999998571
 21
0.0
 31
0.0
1001
ACAD
1000
ASC_BOUNDS
1002
{
1070
    19
1005
A69E
1002
}
  0
LINE
  5
A663
330
A656
100
AcDbEntity
  8
0
100
AcDbLine
 10
0.0
 20
8.763099999991255
 30
0.0
 11
0.0
 21
0.0
 31
0.0
1001
ACAD
1000
ASC_BOUNDS
1002
{
1070
    19
1005
A69E
1002
}
  0
LINE
  5
A664
330
A656
100
AcDbEntity
  8
0
100
AcDbLine
 10
6.766999999993232
 20
-0.0001000000000317
 30
0.0
 11
7.826999999992154
 21
2.368399999997621
 31
0.0
1001
ACAD
1000
ASC_BOUNDS
1002
{
1070
    19
1005
A699
1002
}
  0
LINE
  5
A665
330
A656
100
AcDbEntity
  8
0
100
AcDbLine
 10
0.0
 20
0.0
 30
0.0
 11
1.420999999998571
 21
0.0
 31
0.0
1001
ACAD
1000
ASC_BOUNDS
1002
{
1070
    19
1005
A69E
1002
}
  0
LINE
  5
A666
330
A656
100
AcDbEntity
  8
0
100
AcDbLine
 10
4.617999999995391
 20
0.0
 30
0.0
 11
6.766999999993232
 21
0.0
 31
0.0
1001
ACAD
1000
ASC_BOUNDS
1002
{
1070
    19
1005
A699
1002
}
  0
LINE
  5
A667
330
A656
100
AcDbEntity
  8
0
100
AcDbLine
 10
11.70599999998831
 20
-0.0001000000000317
 30
0.0
 11
10.64699999998936
 21
2.368399999997621
 31
0.0
1001
ACAD
1000
ASC_BOUNDS
1002
{
1070
    19
1005
A699
1002
}
  0
LINE
  5
A668
330
A656
100
AcDbEntity
  8
0
100
AcDbLine
 10
7.826999999992154
 20
2.368399999997621
 30
0.0
 11
10.64699999998936
 21
2.368399999997621
 31
0.0
1001
ACAD
1000
ASC_BOUNDS
1002
{
1070
    19
1005
A699
1002
}
  0
LINE
  5
A669
330
A656
100
AcDbEntity
  8
0
100
AcDbLine
 10
11.70599999998831
 20
0.0
 30
0.0
 11
13.26299999998673
 21
0.0
 31
0.0
1001
ACAD
1000
ASC_BOUNDS
1002
{
1070
    19
1005
A699
1002
}
  0
LINE
  5
A66A
330
A656
100
AcDbEntity
  8
0
100
AcDbLine
 10
22.15599999997789
 20
2.368399999997621
 30
0.0
 11
24.97599999997499
 21
2.368399999997621
 31
0.0
1001
ACAD
1000
ASC_BOUNDS
1002
{
1070
    19
1005
A69B
1002
}
  0
LINE
  5
A66B
330
A656
100
AcDbEntity
  8
0
100
AcDbLine
 10
19.53899999998043
 20
0.0
 30
0.0
 11
21.09599999997886
 21
0.0
 31
0.0
1001
ACAD
1000
ASC_BOUNDS
1002
{
1070
    19
1005
A69B
1002
}
  0
LINE
  5
A66C
330
A656
100
AcDbEntity
  8
0
100
AcDbLine
 10
21.09599999997886
 20
-0.0001000000000317
 30
0.0
 11
22.15599999997789
 21
2.368399999997621
 31
0.0
1001
ACAD
1000
ASC_BOUNDS
1002
{
1070
    19
1005
A69B
1002
}
  0
LINE
  5
A66D
330
A656
100
AcDbEntity
  8
0
100
AcDbLine
 10
26.02015566812236
 20
0.0330999999912365
 30
0.0
 11
24.97599999997499
 21
2.368399999997621
 31
0.0
1001
ACAD
1000
ASC_BOUNDS
1002
{
1070
    19
1005
A69B
1002
}
  0
LINE
  5
A66E
330
A656
100
AcDbEntity
  8
0
100
AcDbLine
 10
14.32399999998563
 20
3.315799999996671
 30
0.0
 11
16.46099999998353
 21
8.999899999990987
 31
0.0
1001
ACAD
1000
ASC_BOUNDS
1002
{
1070
    19
1005
A69A
1002
}
  0
LINE
  5
A66F
330
A656
100
AcDbEntity
  8
0
100
AcDbLine
 10
6.432999999993513
 20
8.763099999991255
 30
0.0
 11
3.181999999996833
 21
4.668599999995308
 31
0.0
1001
ACAD
1000
ASC_BOUNDS
1002
{
1070
    19
1005
A699
1002
}
  0
LINE
  5
A670
330
A656
100
AcDbEntity
  8
0
100
AcDbLine
 10
4.617999999995391
 20
8.763099999991255
 30
0.0
 11
1.420999999998571
 21
4.736799999995242
 31
0.0
1001
ACAD
1000
ASC_BOUNDS
1002
{
1070
    19
1005
A699
1002
}
  0
LINE
  5
A671
330
A656
100
AcDbEntity
  8
0
100
AcDbLine
 10
0.0
 20
8.763099999991255
 30
0.0
 11
1.420999999998571
 21
8.763099999991255
 31
0.0
1001
ACAD
1000
ASC_BOUNDS
1002
{
1070
    19
1005
A69E
1002
}
  0
LINE
  5
A672
330
A656
100
AcDbEntity
  8
0
100
AcDbLine
 10
4.617999999995391
 20
8.763099999991255
 30
0.0
 11
6.432999999993513
 21
8.763099999991255
 31
0.0
1001
ACAD
1000
ASC_BOUNDS
1002
{
1070
    19
1005
A699
1002
}
  0
LINE
  5
A673
330
A656
100
AcDbEntity
  8
0
100
AcDbLine
 10
14.32399999998563
 20
3.315799999996671
 30
0.0
 11
12.02999999998792
 21
8.763099999991255
 31
0.0
1001
ACAD
1000
ASC_BOUNDS
1002
{
1070
    19
1005
A69A
1002
}
  0
LINE
  5
A674
330
A656
100
AcDbEntity
  8
0
100
AcDbLine
 10
10.06399999998996
 20
3.670999999996297
 30
0.0
 11
9.236999999990758
 21
5.5200999999945
 31
0.0
1001
ACAD
1000
ASC_BOUNDS
1002
{
1070
    19
1005
A699
1002
}
  0
LINE
  5
A675
330
A656
100
AcDbEntity
  8
0
100
AcDbLine
 10
8.409999999991555
 20
3.670999999996297
 30
0.0
 11
9.236999999990758
 21
5.5200999999945
 31
0.0
1001
ACAD
1000
ASC_BOUNDS
1002
{
1070
    19
1005
A699
1002
}
  0
LINE
  5
A676
330
A656
100
AcDbEntity
  8
0
100
AcDbLine
 10
8.409999999991555
 20
3.670999999996297
 30
0.0
 11
10.06399999998996
 21
3.670999999996297
 31
0.0
1001
ACAD
1000
ASC_BOUNDS
1002
{
1070
    19
1005
A699
1002
}
  0
LINE
  5
A677
330
A656
100
AcDbEntity
  8
0
100
AcDbLine
 10
10.53899999998941
 20
8.763099999991255
 30
0.0
 11
12.02999999998792
 21
8.763099999991255
 31
0.0
1001
ACAD
1000
ASC_BOUNDS
1002
{
1070
    19
1005
A69A
1002
}
  0
LINE
  5
A678
330
A656
100
AcDbEntity
  8
0
100
AcDbLine
 10
22.7389999999773
 20
3.670999999996297
 30
0.0
 11
23.56599999997638
 21
5.5200999999945
 31
0.0
1001
ACAD
1000
ASC_BOUNDS
1002
{
1070
    19
1005
A69B
1002
}
  0
LINE
  5
A679
330
A656
100
AcDbEntity
  8
0
100
AcDbLine
 10
22.7389999999773
 20
3.670999999996297
 30
0.0
 11
24.39299999997559
 21
3.670999999996297
 31
0.0
1001
ACAD
1000
ASC_BOUNDS
1002
{
1070
    19
1005
A69B
1002
}
  0
LINE
  5
A67A
330
A656
100
AcDbEntity
  8
0
100
AcDbLine
 10
18.59799999998143
 20
3.315799999996671
 30
0.0
 11
20.89099999997916
 21
8.763099999991255
 31
0.0
1001
ACAD
1000
ASC_BOUNDS
1002
{
1070
    19
1005
A69A
1002
}
  0
LINE
  5
A67B
330
A656
100
AcDbEntity
  8
0
100
AcDbLine
 10
18.59799999998143
 20
3.315799999996671
 30
0.0
 11
16.46099999998353
 21
8.999899999990987
 31
0.0
1001
ACAD
1000
ASC_BOUNDS
1002
{
1070
    19
1005
A69A
1002
}
  0
LINE
  5
A67C
330
A656
100
AcDbEntity
  8
0
100
AcDbLine
 10
20.89099999997916
 20
8.763099999991255
 30
0.0
 11
22.38199999997767
 21
8.763099999991255
 31
0.0
1001
ACAD
1000
ASC_BOUNDS
1002
{
1070
    19
1005
A69A
1002
}
  0
LINE
  5
A67D
330
A656
100
AcDbEntity
  8
0
100
AcDbLine
 10
24.39299999997559
 20
3.670999999996297
 30
0.0
 11
23.56599999997638
 21
5.5200999999945
 31
0.0
1001
ACAD
1000
ASC_BOUNDS
1002
{
1070
    19
1005
A69B
1002
}
  0
LINE
  5
A67E
330
A656
100
AcDbEntity
  8
0
100
AcDbLine
 10
44.99999999995498
 20
-0.2368999999997641
 30
0.0
 11
40.02599999995994
 21
5.341799999994635
 31
0.0
1001
ACAD
1000
ASC_BOUNDS
1002
{
1070
    19
1005
A69D
1002
}
  0
LINE
  5
A67F
330
A656
100
AcDbEntity
  8
0
100
AcDbLine
 10
40.02599999995994
 20
5.341799999994635
 30
0.0
 11
40.02599999995994
 21
0.0
 31
0.0
1001
ACAD
1000
ASC_BOUNDS
1002
{
1070
    19
1005
A69D
1002
}
  0
LINE
  5
A680
330
A656
100
AcDbEntity
  8
0
100
AcDbLine
 10
38.60499999996136
 20
8.999999999991019
 30
0.0
 11
38.60499999996136
 21
0.0
 31
0.0
1001
ACAD
1000
ASC_BOUNDS
1002
{
1070
    19
1005
A69D
1002
}
  0
LINE
  5
A681
330
A656
100
AcDbEntity
  8
0
100
AcDbLine
 10
44.99999999995498
 20
8.763099999991255
 30
0.0
 11
44.99999999995498
 21
-0.2368999999997641
 31
0.0
1001
ACAD
1000
ASC_BOUNDS
1002
{
1070
    19
1005
A69D
1002
}
  0
LINE
  5
A682
330
A656
100
AcDbEntity
  8
0
100
AcDbLine
 10
38.60499999996136
 20
0.0
 30
0.0
 11
40.02599999995994
 21
0.0
 31
0.0
1001
ACAD
1000
ASC_BOUNDS
1002
{
1070
    19
1005
A69D
1002
}
  0
LINE
  5
A683
330
A656
100
AcDbEntity
  8
0
100
AcDbLine
 10
43.57899999995641
 20
3.421199999996588
 30
0.0
 11
38.60499999996136
 21
8.999899999990987
 31
0.0
1001
ACAD
1000
ASC_BOUNDS
1002
{
1070
    19
1005
A69D
1002
}
  0
LINE
  5
A684
330
A656
100
AcDbEntity
  8
0
100
AcDbLine
 10
43.57899999995641
 20
8.763099999991255
 30
0.0
 11
43.57899999995641
 21
3.421199999996588
 31
0.0
1001
ACAD
1000
ASC_BOUNDS
1002
{
1070
    19
1005
A69D
1002
}
  0
LINE
  5
A685
330
A656
100
AcDbEntity
  8
0
100
AcDbLine
 10
43.57899999995641
 20
8.763099999991255
 30
0.0
 11
44.99999999995498
 21
8.763099999991255
 31
0.0
1001
ACAD
1000
ASC_BOUNDS
1002
{
1070
    19
1005
A69D
1002
}
  0
LINE
  5
A686
330
A656
100
AcDbEntity
  8
0
100
AcDbLine
 10
37.67199999996831
 20
8.763099999991255
 30
0.0
 11
36.23199999996837
 21
8.763099999991255
 31
0.0
  0
LINE
  5
A687
330
A656
100
AcDbEntity
  8
0
100
AcDbLine
 10
31.64199999996833
 20
8.763099999991255
 30
0.0
 11
31.64199999996833
 21
2.481619422925121
 31
0.0
  0
LINE
  5
A688
330
A656
100
AcDbEntity
  8
0
100
AcDbLine
 10
37.67199999996831
 20
8.763099999991255
 30
0.0
 11
37.67199999996831
 21
2.481619422925121
 31
0.0
  0
LINE
  5
A689
330
A656
100
AcDbEntity
  8
0
100
AcDbLine
 10
36.23199999996837
 20
8.763099999991255
 30
0.0
 11
36.23199999996837
 21
2.481619422925064
 31
0.0
  0
LINE
  5
A68A
330
A656
100
AcDbEntity
  8
0
100
AcDbLine
 10
33.08199999996839
 20
8.763099999991255
 30
0.0
 11
33.08199999996839
 21
2.481619422925121
 31
0.0
  0
ARC
  5
A68B
330
A656
100
AcDbEntity
  8
0
100
AcDbCircle
 10
34.65699999996832
 20
3.183099999991214
 30
0.0
 40
3.420000000000007
100
AcDbArc
 50
240.0000000000255
 51
299.9999999999766
  0
ARC
  5
A68C
330
A656
100
AcDbEntity
  8
0
100
AcDbCircle
 10
34.65699999996832
 20
3.183099999991214
 30
0.0
 40
1.97999999999999
100
AcDbArc
 50
240.000000000026
 51
299.9999999999703
  0
LINE
  5
A68D
330
A656
100
AcDbEntity
  8
0
100
AcDbLine
 10
33.08199999996828
 20
8.763099999991255
 30
0.0
 11
31.64199999996833
 21
8.763099999991255
 31
0.0
  0
ARC
  5
A68E
330
A656
100
AcDbEntity
  8
0
100
AcDbCircle
 10
35.06199999996829
 20
2.481619422925064
 30
0.0
 40
1.17
100
AcDbArc
 50
299.9999999999699
 51
0.0
  0
ARC
  5
A68F
330
A656
100
AcDbEntity
  8
0
100
AcDbCircle
 10
34.25199999996835
 20
2.481619422925121
 30
0.0
 40
1.17
100
AcDbArc
 50
180.0
 51
240.0000000000238
  0
ARC
  5
A690
330
A656
100
AcDbEntity
  8
0
100
AcDbCircle
 10
35.06199999996841
 20
2.481619422925121
 30
0.0
 40
2.61
100
AcDbArc
 50
299.9999999999756
 51
0.0
  0
ARC
  5
A691
330
A656
100
AcDbEntity
  8
0
100
AcDbCircle
 10
34.25199999996835
 20
2.481619422925121
 30
0.0
 40
2.61
100
AcDbArc
 50
180.0
 51
240.0000000000244
  0
LINE
  5
A692
330
A656
100
AcDbEntity
  8
0
100
AcDbLine
 10
29.30199999996933
 20
8.763099999991255
 30
0.0
 11
30.74199999996927
 21
8.763099999991255
 31
0.0
1001
ACAD
1000
ASC_BOUNDS
1002
{
1070
    19
1005
A69B
1002
}
  0
LINE
  5
A693
330
A656
100
AcDbEntity
  8
0
100
AcDbLine
 10
30.74199999996927
 20
8.763099999991255
 30
0.0
 11
30.74199999996927
 21
2.373099999991211
 31
0.0
1001
ACAD
1000
ASC_BOUNDS
1002
{
1070
    19
1005
A69B
1002
}
  0
LINE
  5
A694
330
A656
100
AcDbEntity
  8
0
100
AcDbLine
 10
26.02015566812236
 20
0.0330999999912365
 30
0.0
 11
28.40199999996923
 21
0.0330999999912365
 31
0.0
1001
ACAD
1000
ASC_BOUNDS
1002
{
1070
    19
1005
A69B
1002
}
  0
LINE
  5
A695
330
A656
100
AcDbEntity
  8
0
100
AcDbLine
 10
29.30199999996933
 20
8.763099999991255
 30
0.0
 11
29.30199999996933
 21
2.283099999991236
 31
0.0
1001
ACAD
1000
ASC_BOUNDS
1002
{
1070
    19
1005
A69B
1002
}
  0
LINE
  5
A696
330
A656
100
AcDbEntity
  8
0
100
AcDbLine
 10
26.97358892824991
 20
1.383099999991202
 30
0.0
 11
28.40199999996923
 21
1.383099999991202
 31
0.0
1001
ACAD
1000
ASC_BOUNDS
1002
{
1070
    19
1005
A69B
1002
}
  0
ARC
  5
A697
330
A656
100
AcDbEntity
  8
0
100
AcDbCircle
 10
28.40199999996923
 20
2.283099999991236
 30
0.0
 40
0.9
100
AcDbArc
 50
270.0
 51
0.0
1001
ACAD
1000
ASC_BOUNDS
1002
{
1070
    19
1005
A69B
1002
}
  0
ARC
  5
A698
330
A656
100
AcDbEntity
  8
0
100
AcDbCircle
 10
28.40199999996923
 20
2.373099999991211
 30
0.0
 40
2.34
100
AcDbArc
 50
270.0
 51
0.0
1001
ACAD
1000
ASC_BOUNDS
1002
{
1070
    19
1005
A69B
1002
}
  0
INSERT
  5
A699
330
A656
100
AcDbEntity
  8
0
100
AcDbBlockReference
  2
*X27
 10
0.0
 20
0.0
 30
0.0
1001
ACAD
1000
HATCH
1002
{
1070
    19
1000
ANSI37
1040
0.15
1040
0.0
1000
ASC_BOUNDS
1070
     2
1070
     2
1070
    12
1005
A658
1005
A659
1005
A660
1005
A66F
1005
A672
1005
A670
1005
A661
1005
A666
1005
A664
1005
A668
1005
A667
1005
A669
1070
     2
1070
     3
1005
A674
1005
A676
1005
A675
1000
ASC_SEEDPOINT
1011
3.614004224891801
1021
2.996669441146025
1031
0.0
1000
R14_HATCH_DATA
1000
A699
1011
1.0
1021
0.0
1031
0.0
1011
0.0
1021
1.0
1031
0.0
1011
0.0
1021
0.0
1031
1.0
1040
0.0
1010
0.0
1020
0.0
1030
1.0
1000
ANSI37
1070
     0
1070
     1
1071
        2
1071
        7
1070
     0
1070
     1
1071
       17
1040
13.26299999998673
1040
-0.0001000000000317
1040
9.236999999990758
1040
8.999899999990987
1040
9.236999999990758
1040
8.999999999991019
1040
5.657999999994331
1040
0.9999999999989768
1040
3.181999999996833
1040
4.668599999995308
1040
6.432999999993513
1040
8.763099999991255
1040
4.617999999995391
1040
8.763099999991255
1040
1.420999999998571
1040
4.736799999995242
1040
4.617999999995391
1040
-0.0001000000000317
1040
4.617999999995391
1040
0.0
1040
6.766999999993232
1040
0.0
1040
6.766999999993232
1040
-0.0001000000000317
1040
7.826999999992154
1040
2.368399999997621
1040
10.64699999998936
1040
2.368399999997621
1040
11.70599999998831
1040
-0.0001000000000317
1040
11.70599999998831
1040
0.0
1040
13.26299999998673
1040
0.0
1071
       12
1005
A658
1005
A659
1005
A660
1005
A66F
1005
A672
1005
A670
1005
A661
1005
A666
1005
A664
1005
A668
1005
A667
1005
A669
1071
       22
1070
     0
1070
     1
1071
        3
1040
9.236999999990758
1040
5.5200999999945
1040
10.06399999998996
1040
3.670999999996297
1040
8.409999999991555
1040
3.670999999996297
1071
        3
1005
A674
1005
A676
1005
A675
1070
     0
1070
     1
1040
0.0
1040
0.15
1070
     0
1070
     2
1040
0.7853981633974483
1040
49.29960901727088
1040
-10.17736998311392
1040
-0.3367596045400932
1040
0.3367596045400932
1070
     0
1040
2.356194490192345
1040
49.29960901727088
1040
-10.17736998311392
1040
-0.3367596045400932
1040
-0.3367596045400932
1070
     0
1040
0.0110235143455945
1071
        2
1040
3.614004224891801
1040
2.996669441146025
1040
0.0
1040
3.614004224891801
1040
2.996669441146025
1040
0.0
1002
}
  0
INSERT
  5
A69A
330
A656
100
AcDbEntity
  8
0
100
AcDbBlockReference
  2
*X28
 10
0.0
 20
0.0
 30
0.0
1001
ACAD
1000
HATCH
1002
{
1070
    19
1000
ANSI37
1040
0.15
1040
0.0
1000
ASC_BOUNDS
1070
     1
1070
     2
1070
    10
1005
A65A
1005
A65B
1005
A67C
1005
A67A
1005
A67B
1005
A66E
1005
A673
1005
A677
1005
A65D
1005
A65C
1000
ASC_SEEDPOINT
1011
14.73245321214324
1021
2.798246178283421
1031
0.0
1000
R14_HATCH_DATA
1000
A69A
1011
1.0
1021
0.0
1031
0.0
1011
0.0
1021
1.0
1031
0.0
1011
0.0
1021
0.0
1031
1.0
1040
0.0
1010
0.0
1020
0.0
1030
1.0
1000
ANSI37
1070
     0
1070
     1
1071
        1
1071
        7
1070
     0
1070
     1
1071
       10
1040
16.46099999998353
1040
5.432899999994561
1040
18.59199999998134
1040
-0.2368999999997641
1040
22.38199999997767
1040
8.763099999991255
1040
20.89099999997916
1040
8.763099999991255
1040
18.59799999998143
1040
3.315799999996671
1040
16.46099999998353
1040
8.999899999990987
1040
14.32399999998563
1040
3.315799999996671
1040
12.02999999998792
1040
8.763099999991255
1040
10.53899999998941
1040
8.763099999991255
1040
14.32899999998563
1040
-0.2368999999997641
1071
       10
1005
A65A
1005
A65B
1005
A67C
1005
A67A
1005
A67B
1005
A66E
1005
A673
1005
A677
1005
A65D
1005
A65C
1070
     0
1070
     1
1040
0.0
1040
0.15
1070
     0
1070
     2
1040
0.7853981633974483
1040
49.29960901727088
1040
-10.17736998311392
1040
-0.3367596045400932
1040
0.3367596045400932
1070
     0
1040
2.356194490192345
1040
49.29960901727088
1040
-10.17736998311392
1040
-0.3367596045400932
1040
-0.3367596045400932
1070
     0
1040
0.0110235143455945
1071
        1
1040
14.73245321214324
1040
2.798246178283421
1040
0.0
1002
}
  0
INSERT
  5
A69B
330
A656
100
AcDbEntity
  8
0
100
AcDbBlockReference
  2
*X29
 10
0.0
 20
0.0
 30
0.0
1001
ACAD
1000
HATCH
1002
{
1070
    19
1000
ANSI37
1040
0.15
1040
0.0
1000
ASC_BOUNDS
1070
     2
1070
     2
1070
    13
1005
A65E
1005
A66B
1005
A66C
1005
A66A
1005
A66D
1005
A694
1005
A698
1005
A693
1005
A692
1005
A695
1005
A697
1005
A696
1005
A65F
1070
     2
1070
     3
1005
A678
1005
A67D
1005
A679
1000
ASC_SEEDPOINT
1011
21.97929957367762
1021
3.294304244259308
1031
0.0
1000
R14_HATCH_DATA
1000
A69B
1011
1.0
1021
0.0
1031
0.0
1011
0.0
1021
1.0
1031
0.0
1011
0.0
1021
0.0
1031
1.0
1040
0.0
1010
0.0
1020
0.0
1030
1.0
1000
ANSI37
1070
     0
1070
     1
1071
        2
1071
        7
1070
     1
1070
     1
1071
       15
1040
23.56599999997638
1040
8.999899999990987
1040
0.0
1040
19.53899999998043
1040
-0.0001000000000317
1040
0.0
1040
19.53899999998043
1040
0.0
1040
0.0
1040
21.09599999997886
1040
0.0
1040
0.0
1040
21.09599999997886
1040
-0.0001000000000317
1040
0.0
1040
22.15599999997789
1040
2.368399999997621
1040
0.0
1040
24.97599999997499
1040
2.368399999997621
1040
0.0
1040
26.02015566812236
1040
0.0330999999912365
1040
0.0
1040
28.40199999996923
1040
0.0330999999912365
1040
0.414213562373095
1040
30.74199999996923
1040
2.373099999991211
1040
0.0
1040
30.74199999996927
1040
8.763099999991255
1040
0.0
1040
29.30199999996933
1040
8.763099999991255
1040
0.0
1040
29.30199999996933
1040
2.283099999991236
1040
-0.414213562373095
1040
28.40199999996923
1040
1.383099999991237
1040
0.0
1040
26.97358892824991
1040
1.383099999991202
1040
0.0
1071
       13
1005
A65E
1005
A66B
1005
A66C
1005
A66A
1005
A66D
1005
A694
1005
A698
1005
A693
1005
A692
1005
A695
1005
A697
1005
A696
1005
A65F
1071
       22
1070
     0
1070
     1
1071
        3
1040
22.7389999999773
1040
3.670999999996297
1040
23.56599999997638
1040
5.5200999999945
1040
24.39299999997559
1040
3.670999999996297
1071
        3
1005
A678
1005
A67D
1005
A679
1070
     0
1070
     1
1040
0.0
1040
0.15
1070
     0
1070
     2
1040
0.7853981633974483
1040
49.29960901727088
1040
-10.17736998311392
1040
-0.3367596045400932
1040
0.3367596045400932
1070
     0
1040
2.356194490192345
1040
49.29960901727088
1040
-10.17736998311392
1040
-0.3367596045400932
1040
-0.3367596045400932
1070
     0
1040
0.0110235143455945
1071
        2
1040
21.97929957367762
1040
3.294304244259308
1040
0.0
1040
21.97929957367762
1040
3.294304244259308
1040
0.0
1002
}
  0
INSERT
  5
A69C
330
A656
100
AcDbEntity
  8
0
100
AcDbBlockReference
  2
*X30
 10
0.0
 20
0.0
 30
0.0
1001
ACAD
1000
HATCH
1002
{
1070
    19
1000
ANSI37
1040
0.15
1040
0.0
1000
R14_HATCH_DATA
1000
A69C
1011
1.0
1021
0.0
1031
0.0
1011
0.0
1021
1.0
1031
0.0
1011
0.0
1021
0.0
1031
1.0
1040
0.0
1010
0.0
1020
0.0
1030
1.0
1000
ANSI37
1070
     0
1070
     1
1071
        1
1071
        7
1070
     1
1070
     1
1071
       12
1040
31.64199999996833
1040
2.481619422925121
1040
0.2679491924310942
1040
32.94699999997067
1040
0.2212931190493919
1040
0.2679491924301353
1040
36.36699999995983
1040
0.2212931190459813
1040
0.2679491924321411
1040
37.67199999996831
1040
2.481619422928361
1040
0.0
1040
37.67199999996831
1040
8.763099999991255
1040
0.0
1040
36.23199999996837
1040
8.763099999991255
1040
0.0
1040
36.23199999996837
1040
2.481619422925064
1040
-0.2679491924310291
1040
35.64699999996708
1040
1.468369700498386
1040
-0.267949192430519
1040
33.66699999997093
1040
1.468369700497703
1040
-0.267949192431809
1040
33.08199999996839
1040
2.481619422926997
1040
0.0
1040
33.08199999996839
1040
8.763099999991255
1040
0.0
1040
31.64199999996833
1040
8.763099999991255
1040
0.0
1071
        0
1070
     0
1070
     1
1040
0.0
1040
0.15
1070
     0
1070
     2
1040
0.7853981633974483
1040
49.29960901727088
1040
-10.17736998311392
1040
-0.3367596045400932
1040
0.3367596045400932
1070
     0
1040
2.356194490192345
1040
49.29960901727088
1040
-10.17736998311392
1040
-0.3367596045400932
1040
-0.3367596045400932
1070
     0
1040
0.0110235143455945
1071
        1
1040
32.30357378967278
1040
3.988785755459219
1040
0.0
1002
}
  0
INSERT
  5
A69D
330
A656
100
AcDbEntity
  8
0
100
AcDbBlockReference
  2
*X31
 10
0.0
 20
0.0
 30
0.0
1001
ACAD
1000
HATCH
1002
{
1070
    19
1000
ANSI37
1040
0.15
1040
0.0
1000
ASC_BOUNDS
1070
     1
1070
     2
1070
     8
1005
A67E
1005
A681
1005
A685
1005
A684
1005
A683
1005
A680
1005
A682
1005
A67F
1000
ASC_SEEDPOINT
1011
39.74896370716704
1021
4.484843821435049
1031
0.0
1000
R14_HATCH_DATA
1000
A69D
1011
1.0
1021
0.0
1031
0.0
1011
0.0
1021
1.0
1031
0.0
1011
0.0
1021
0.0
1031
1.0
1040
0.0
1010
0.0
1020
0.0
1030
1.0
1000
ANSI37
1070
     0
1070
     1
1071
        1
1071
        7
1070
     0
1070
     1
1071
        9
1040
40.02599999995994
1040
5.341799999994635
1040
44.99999999995498
1040
-0.2368999999997641
1040
44.99999999995498
1040
8.763099999991255
1040
43.57899999995641
1040
8.763099999991255
1040
43.57899999995641
1040
3.421199999996588
1040
38.60499999996136
1040
8.999899999990987
1040
38.60499999996136
1040
8.999999999991019
1040
38.60499999996136
1040
0.0
1040
40.02599999995994
1040
0.0
1071
        8
1005
A67E
1005
A681
1005
A685
1005
A684
1005
A683
1005
A680
1005
A682
1005
A67F
1070
     0
1070
     1
1040
0.0
1040
0.15
1070
     0
1070
     2
1040
0.7853981633974483
1040
49.29960901727088
1040
-10.17736998311392
1040
-0.3367596045400932
1040
0.3367596045400932
1070
     0
1040
2.356194490192345
1040
49.29960901727088
1040
-10.17736998311392
1040
-0.3367596045400932
1040
-0.3367596045400932
1070
     0
1040
0.0110235143455945
1071
        1
1040
39.74896370716704
1040
4.484843821435049
1040
0.0
1002
}
  0
INSERT
  5
A69E
330
A656
100
AcDbEntity
  8
0
100
AcDbBlockReference
  2
*X32
 10
0.0
 20
0.0
 30
0.0
1001
ACAD
1000
HATCH
1002
{
1070
    19
1000
ANSI37
1040
0.15
1040
0.0
1000
ASC_BOUNDS
1070
     1
1070
     2
1070
     4
1005
A662
1005
A671
1005
A663
1005
A665
1000
ASC_SEEDPOINT
1011
1.079051535452663
1021
4.148538732891836
1031
0.0
1000
R14_HATCH_DATA
1000
A69E
1011
1.0
1021
0.0
1031
0.0
1011
0.0
1021
1.0
1031
0.0
1011
0.0
1021
0.0
1031
1.0
1040
0.0
1010
0.0
1020
0.0
1030
1.0
1000
ANSI37
1070
     0
1070
     1
1071
        1
1071
        7
1070
     0
1070
     1
1071
        4
1040
1.420999999998571
1040
0.0
1040
1.420999999998571
1040
8.763099999991255
1040
0.0
1040
8.763099999991255
1040
0.0
1040
0.0
1071
        4
1005
A662
1005
A671
1005
A663
1005
A665
1070
     0
1070
     1
1040
0.0
1040
0.15
1070
     0
1070
     2
1040
0.7853981633974483
1040
49.29960901727088
1040
-10.17736998311392
1040
-0.3367596045400932
1040
0.3367596045400932
1070
     0
1040
2.356194490192345
1040
49.29960901727088
1040
-10.17736998311392
1040
-0.3367596045400932
1040
-0.3367596045400932
1070
     0
1040
0.0053004257112761
1071
        1
1040
1.079051535452663
1040
4.148538732891836
1040
0.0
1002
}
  0
ENDBLK
  5
AD5F
330
A656
100
AcDbEntity
  8
0
100
AcDbBlockEnd
  0
BLOCK
  5
AFFC
330
AE6E
100
AcDbEntity
  8
0
100
AcDbBlockBegin
  2
*X27
 70
     1
 10
0.0
 20
0.0
 30
0.0
  3
*X27
  1

  0
LINE
  5
AE6F
330
AE6E
100
AcDbEntity
  8
0
  6
CONTINUOUS
100
AcDbLine
 10
3.418023043697893
 20
7.251849696850613
 30
0.0
 11
4.929273346838536
 21
8.763099999991255
 31
0.0
  0
LINE
  5
AE70
330
AE6E
100
AcDbEntity
  8
0
  6
CONTINUOUS
100
AcDbLine
 10
1.483656411257782
 20
4.643963855330318
 30
0.0
 11
5.60279255591872
 21
8.763099999991255
 31
0.0
  0
LINE
  5
AE71
330
AE6E
100
AcDbEntity
  8
0
  6
CONTINUOUS
100
AcDbLine
 10
1.755053947328235
 20
4.241842182320584
 30
0.0
 11
6.276311764998907
 21
8.763099999991255
 31
0.0
  0
LINE
  5
AE72
330
AE6E
100
AcDbEntity
  8
0
  6
CONTINUOUS
100
AcDbLine
 10
2.026451483398688
 20
3.839720509310849
 30
0.0
 11
4.441040904851878
 21
6.254309930764039
 31
0.0
  0
LINE
  5
AE73
330
AE6E
100
AcDbEntity
  8
0
  6
CONTINUOUS
100
AcDbLine
 10
2.297849019469139
 20
3.437598836301114
 30
0.0
 11
3.321765168359338
 21
4.461514985191313
 31
0.0
  0
LINE
  5
AE74
330
AE6E
100
AcDbEntity
  8
0
  6
CONTINUOUS
100
AcDbLine
 10
2.569246555539591
 20
3.03547716329138
 30
0.0
 11
3.593163397972743
 21
4.059394005724531
 31
0.0
  0
LINE
  5
AE75
330
AE6E
100
AcDbEntity
  8
0
  6
CONTINUOUS
100
AcDbLine
 10
2.840644091610043
 20
2.633355490281646
 30
0.0
 11
3.864561627586149
 21
3.657273026257751
 31
0.0
  0
LINE
  5
AE76
330
AE6E
100
AcDbEntity
  8
0
  6
CONTINUOUS
100
AcDbLine
 10
3.112041627680496
 20
2.231233817271911
 30
0.0
 11
4.135959857199554
 21
3.25515204679097
 31
0.0
  0
LINE
  5
AE77
330
AE6E
100
AcDbEntity
  8
0
  6
CONTINUOUS
100
AcDbLine
 10
3.383439163750948
 20
1.829112144262177
 30
0.0
 11
4.40735808681296
 21
2.853031067324189
 31
0.0
  0
LINE
  5
AE78
330
AE6E
100
AcDbEntity
  8
0
  6
CONTINUOUS
100
AcDbLine
 10
3.654836699821399
 20
1.426990471252442
 30
0.0
 11
4.678756316426365
 21
2.450910087857407
 31
0.0
  0
LINE
  5
AE79
330
AE6E
100
AcDbEntity
  8
0
  6
CONTINUOUS
100
AcDbLine
 10
3.926234235891853
 20
1.024868798242709
 30
0.0
 11
4.95015454603977
 21
2.048789108390626
 31
0.0
  0
LINE
  5
AE7A
330
AE6E
100
AcDbEntity
  8
0
  6
CONTINUOUS
100
AcDbLine
 10
4.197631771962304
 20
0.6227471252329737
 30
0.0
 11
5.221552775653176
 21
1.646668128923846
 31
0.0
  0
LINE
  5
AE7B
330
AE6E
100
AcDbEntity
  8
0
  6
CONTINUOUS
100
AcDbLine
 10
8.715877546767851
 20
7.835069736359266
 30
0.0
 11
9.435953450375058
 21
8.555145639966472
 31
0.0
  0
LINE
  5
AE7C
330
AE6E
100
AcDbEntity
  8
0
  6
CONTINUOUS
100
AcDbLine
 10
8.170620868422267
 20
6.616293848933497
 30
0.0
 11
9.644120833743461
 21
8.08979381425469
 31
0.0
  0
LINE
  5
AE7D
330
AE6E
100
AcDbEntity
  8
0
  6
CONTINUOUS
100
AcDbLine
 10
7.625364190076684
 20
5.397517961507727
 30
0.0
 11
9.852288217111864
 21
7.624441988542907
 31
0.0
  0
LINE
  5
AE7E
330
AE6E
100
AcDbEntity
  8
0
  6
CONTINUOUS
100
AcDbLine
 10
7.080107511731101
 20
4.178742074081957
 30
0.0
 11
10.06045560048027
 21
7.159090162831124
 31
0.0
  0
LINE
  5
AE7F
330
AE6E
100
AcDbEntity
  8
0
  6
CONTINUOUS
100
AcDbLine
 10
6.534850833385518
 20
2.959966186656187
 30
0.0
 11
10.26862298384867
 21
6.693738337119342
 31
0.0
  0
LINE
  5
AE80
330
AE6E
100
AcDbEntity
  8
0
  6
CONTINUOUS
100
AcDbLine
 10
4.469029308032756
 20
0.2206254522232385
 30
0.0
 11
5.492951005266582
 21
1.244547149457064
 31
0.0
  0
LINE
  5
AE81
330
AE6E
100
AcDbEntity
  8
0
  6
CONTINUOUS
100
AcDbLine
 10
5.989594155039935
 20
1.741190299230417
 30
0.0
 11
8.806950407233131
 21
4.558546551423613
 31
0.0
  0
LINE
  5
AE82
330
AE6E
100
AcDbEntity
  8
0
  6
CONTINUOUS
100
AcDbLine
 10
9.401251593263643
 20
5.152847737454126
 30
0.0
 11
10.47679036721708
 21
6.228386511407559
 31
0.0
  0
LINE
  5
AE83
330
AE6E
100
AcDbEntity
  8
0
  6
CONTINUOUS
100
AcDbLine
 10
4.921837203428691
 20
-0.0000858614610131
 30
0.0
 11
8.592923064886001
 21
3.670999999996297
 31
0.0
  0
LINE
  5
AE84
330
AE6E
100
AcDbEntity
  8
0
  6
CONTINUOUS
100
AcDbLine
 10
9.609390446785305
 20
4.6874673818956
 30
0.0
 11
10.68495775058548
 21
5.763034685695775
 31
0.0
  0
LINE
  5
AE85
330
AE6E
100
AcDbEntity
  8
0
  6
CONTINUOUS
100
AcDbLine
 10
5.595387755019432
 20
-0.0000545189504582
 30
0.0
 11
7.716137258923768
 21
2.120694984953879
 31
0.0
  0
LINE
  5
AE86
330
AE6E
100
AcDbEntity
  8
0
  6
CONTINUOUS
100
AcDbLine
 10
6.268938306610172
 20
-0.000023176439905
 30
0.0
 11
7.170485805526503
 21
0.9015243224764267
 31
0.0
  0
LINE
  5
AE87
330
AE6E
100
AcDbEntity
  8
0
  6
CONTINUOUS
100
AcDbLine
 10
7.963842273967511
 20
2.368399999997621
 30
0.0
 11
9.266442273966188
 21
3.670999999996297
 31
0.0
  0
LINE
  5
AE88
330
AE6E
100
AcDbEntity
  8
0
  6
CONTINUOUS
100
AcDbLine
 10
8.637361483047696
 20
2.368399999997621
 30
0.0
 11
9.939961483046375
 21
3.670999999996297
 31
0.0
  0
LINE
  5
AE89
330
AE6E
100
AcDbEntity
  8
0
  6
CONTINUOUS
100
AcDbLine
 10
9.817529300306965
 20
4.222087026337075
 30
0.0
 11
10.89312513395388
 21
5.297682859983993
 31
0.0
  0
LINE
  5
AE8A
330
AE6E
100
AcDbEntity
  8
0
  6
CONTINUOUS
100
AcDbLine
 10
10.02566815382863
 20
3.756706670778549
 30
0.0
 11
11.10129251732229
 21
4.832331034272211
 31
0.0
  0
LINE
  5
AE8B
330
AE6E
100
AcDbEntity
  8
0
  6
CONTINUOUS
100
AcDbLine
 10
9.310880692127883
 20
2.368399999997621
 30
0.0
 11
11.30945990069069
 21
4.366979208560428
 31
0.0
  0
LINE
  5
AE8C
330
AE6E
100
AcDbEntity
  8
0
  6
CONTINUOUS
100
AcDbLine
 10
9.98439990120807
 20
2.36839999999762
 30
0.0
 11
11.5176272840591
 21
3.901627382848645
 31
0.0
  0
LINE
  5
AE8D
330
AE6E
100
AcDbEntity
  8
0
  6
CONTINUOUS
100
AcDbLine
 10
10.65037369446246
 20
2.36085458417182
 30
0.0
 11
11.7257946674275
 21
3.436275557136862
 31
0.0
  0
LINE
  5
AE8E
330
AE6E
100
AcDbEntity
  8
0
  6
CONTINUOUS
100
AcDbLine
 10
10.85847197087848
 20
1.895433651507656
 30
0.0
 11
11.9339620507959
 21
2.97092373142508
 31
0.0
  0
LINE
  5
AE8F
330
AE6E
100
AcDbEntity
  8
0
  6
CONTINUOUS
100
AcDbLine
 10
11.0665702472945
 20
1.430012718843491
 30
0.0
 11
12.14212943416431
 21
2.505571905713296
 31
0.0
  0
LINE
  5
AE90
330
AE6E
100
AcDbEntity
  8
0
  6
CONTINUOUS
100
AcDbLine
 10
11.27466852371052
 20
0.9645917861793256
 30
0.0
 11
12.35029681753271
 21
2.040220080001513
 31
0.0
  0
LINE
  5
AE91
330
AE6E
100
AcDbEntity
  8
0
  6
CONTINUOUS
100
AcDbLine
 10
11.48276680012654
 20
0.4991708535151611
 30
0.0
 11
12.55846420090111
 21
1.57486825428973
 31
0.0
  0
LINE
  5
AE92
330
AE6E
100
AcDbEntity
  8
0
  6
CONTINUOUS
100
AcDbLine
 10
11.69086507654257
 20
0.0337499208509957
 30
0.0
 11
12.76663158426952
 21
1.109516428577947
 31
0.0
  0
LINE
  5
AE93
330
AE6E
100
AcDbEntity
  8
0
  6
CONTINUOUS
100
AcDbLine
 10
12.33057447873954
 20
-0.0000598860322123
 30
0.0
 11
12.97479896763792
 21
0.6441646028661663
 31
0.0
  0
LINE
  5
AE94
330
AE6E
100
AcDbEntity
  8
0
  6
CONTINUOUS
100
AcDbLine
 10
13.00413694809395
 20
-0.0000166257579952
 30
0.0
 11
13.18296635100632
 21
0.1788127771543824
 31
0.0
  0
LINE
  5
AE95
330
AE6E
100
AcDbEntity
  8
0
  6
CONTINUOUS
100
AcDbLine
 10
4.772852165289667
 20
-0.000092794222212
 30
0.0
 11
4.296495091028902
 21
0.4762642800385528
 31
0.0
  0
LINE
  5
AE96
330
AE6E
100
AcDbEntity
  8
0
  6
CONTINUOUS
100
AcDbLine
 10
5.446340034776103
 20
-0.0000614546284616
 30
0.0
 11
2.898195908335625
 21
2.548082671812017
 31
0.0
  0
LINE
  5
AE97
330
AE6E
100
AcDbEntity
  8
0
  6
CONTINUOUS
100
AcDbLine
 10
6.119827904262539
 20
-0.0000301150347113
 30
0.0
 11
1.499896725642348
 21
4.61990106358548
 31
0.0
  0
LINE
  5
AE98
330
AE6E
100
AcDbEntity
  8
0
  6
CONTINUOUS
100
AcDbLine
 10
6.775136745476159
 20
0.0181802528318542
 30
0.0
 11
5.699826040202669
 21
1.093490958105344
 31
0.0
  0
LINE
  5
AE99
330
AE6E
100
AcDbEntity
  8
0
  6
CONTINUOUS
100
AcDbLine
 10
6.983376846288489
 20
0.4834593610997118
 30
0.0
 11
5.908008617934405
 21
1.558827589453796
 31
0.0
  0
LINE
  5
AE9A
330
AE6E
100
AcDbEntity
  8
0
  6
CONTINUOUS
100
AcDbLine
 10
5.377063484962296
 20
1.416253513345719
 30
0.0
 11
1.702276957014131
 21
5.091040041293883
 31
0.0
  0
LINE
  5
AE9B
330
AE6E
100
AcDbEntity
  8
0
  6
CONTINUOUS
100
AcDbLine
 10
3.978745891735324
 20
3.488090315652877
 30
0.0
 11
2.000373521109399
 21
5.466462686278803
 31
0.0
  0
LINE
  5
AE9C
330
AE6E
100
AcDbEntity
  8
0
  6
CONTINUOUS
100
AcDbLine
 10
7.191616947100819
 20
0.948738469367568
 30
0.0
 11
6.11619119566614
 21
2.024164220802247
 31
0.0
  0
LINE
  5
AE9D
330
AE6E
100
AcDbEntity
  8
0
  6
CONTINUOUS
100
AcDbLine
 10
7.399857047913149
 20
1.414017577635424
 30
0.0
 11
6.324373773397875
 21
2.489500852150698
 31
0.0
  0
LINE
  5
AE9E
330
AE6E
100
AcDbEntity
  8
0
  6
CONTINUOUS
100
AcDbLine
 10
7.608097148725479
 20
1.879296685903281
 30
0.0
 11
6.53255635112961
 21
2.95483748349915
 31
0.0
  0
LINE
  5
AE9F
330
AE6E
100
AcDbEntity
  8
0
  6
CONTINUOUS
100
AcDbLine
 10
7.816337249537808
 20
2.344575794171138
 30
0.0
 11
6.740738928861345
 21
3.420174114847601
 31
0.0
  0
LINE
  5
AEA0
330
AE6E
100
AcDbEntity
  8
0
  6
CONTINUOUS
100
AcDbLine
 10
3.310241080789734
 20
4.830114335678653
 30
0.0
 11
2.298470085204666
 21
5.84188533126372
 31
0.0
  0
LINE
  5
AEA1
330
AE6E
100
AcDbEntity
  8
0
  6
CONTINUOUS
100
AcDbLine
 10
3.60832983563551
 20
5.205544789913063
 30
0.0
 11
2.596566649299935
 21
6.217307976248638
 31
0.0
  0
LINE
  5
AEA2
330
AE6E
100
AcDbEntity
  8
0
  6
CONTINUOUS
100
AcDbLine
 10
3.906418590481286
 20
5.580975244147473
 30
0.0
 11
2.894663213395203
 21
6.592730621233557
 31
0.0
  0
LINE
  5
AEA3
330
AE6E
100
AcDbEntity
  8
0
  6
CONTINUOUS
100
AcDbLine
 10
4.204507345327062
 20
5.956405698381884
 30
0.0
 11
3.192759777490472
 21
6.968153266218474
 31
0.0
  0
LINE
  5
AEA4
330
AE6E
100
AcDbEntity
  8
0
  6
CONTINUOUS
100
AcDbLine
 10
8.466032252791512
 20
2.368399999997621
 30
0.0
 11
6.948921506593081
 21
3.885510746196053
 31
0.0
  0
LINE
  5
AEA5
330
AE6E
100
AcDbEntity
  8
0
  6
CONTINUOUS
100
AcDbLine
 10
9.139551461871699
 20
2.36839999999762
 30
0.0
 11
7.157104084324816
 21
4.350847377544504
 31
0.0
  0
LINE
  5
AEA6
330
AE6E
100
AcDbEntity
  8
0
  6
CONTINUOUS
100
AcDbLine
 10
4.502596100172839
 20
6.331836152616295
 30
0.0
 11
3.49085634158574
 21
7.343575911203393
 31
0.0
  0
LINE
  5
AEA7
330
AE6E
100
AcDbEntity
  8
0
  6
CONTINUOUS
100
AcDbLine
 10
4.800684855018615
 20
6.707266606850705
 30
0.0
 11
3.788952905681008
 21
7.718998556188312
 31
0.0
  0
LINE
  5
AEA8
330
AE6E
100
AcDbEntity
  8
0
  6
CONTINUOUS
100
AcDbLine
 10
12.18154012887317
 20
-0.0000694579236642
 30
0.0
 11
11.32140332908496
 21
0.8600673418645499
 31
0.0
  0
LINE
  5
AEA9
330
AE6E
100
AcDbEntity
  8
0
  6
CONTINUOUS
100
AcDbLine
 10
12.85501608323566
 20
-0.0000262032059659
 30
0.0
 11
10.77672456435345
 21
2.078265315676246
 31
0.0
  0
LINE
  5
AEAA
330
AE6E
100
AcDbEntity
  8
0
  6
CONTINUOUS
100
AcDbLine
 10
9.813070670951886
 20
2.36839999999762
 30
0.0
 11
8.51047067095321
 21
3.670999999996297
 31
0.0
  0
LINE
  5
AEAB
330
AE6E
100
AcDbEntity
  8
0
  6
CONTINUOUS
100
AcDbLine
 10
10.48658988003207
 20
2.36839999999762
 30
0.0
 11
9.183989880033396
 21
3.670999999996297
 31
0.0
  0
LINE
  5
AEAC
330
AE6E
100
AcDbEntity
  8
0
  6
CONTINUOUS
100
AcDbLine
 10
8.441048632286794
 20
3.740422038662712
 30
0.0
 11
7.365286662056551
 21
4.816184008892956
 31
0.0
  0
LINE
  5
AEAD
330
AE6E
100
AcDbEntity
  8
0
  6
CONTINUOUS
100
AcDbLine
 10
8.649187485808454
 20
4.205802394221237
 30
0.0
 11
7.573469239788285
 21
5.281520640241407
 31
0.0
  0
LINE
  5
AEAE
330
AE6E
100
AcDbEntity
  8
0
  6
CONTINUOUS
100
AcDbLine
 10
5.098773609864391
 20
7.082697061085115
 30
0.0
 11
4.087049469776277
 21
8.09442120117323
 31
0.0
  0
LINE
  5
AEAF
330
AE6E
100
AcDbEntity
  8
0
  6
CONTINUOUS
100
AcDbLine
 10
5.396862364710167
 20
7.458127515319526
 30
0.0
 11
4.385146033871544
 21
8.469843846158149
 31
0.0
  0
LINE
  5
AEB0
330
AE6E
100
AcDbEntity
  8
0
  6
CONTINUOUS
100
AcDbLine
 10
13.04801363231285
 20
0.4804954567970334
 30
0.0
 11
9.85750908911358
 21
3.670999999996297
 31
0.0
  0
LINE
  5
AEB1
330
AE6E
100
AcDbEntity
  8
0
  6
CONTINUOUS
100
AcDbLine
 10
8.857326339330116
 20
4.671182749779763
 30
0.0
 11
7.781651817520021
 21
5.746857271589858
 31
0.0
  0
LINE
  5
AEB2
330
AE6E
100
AcDbEntity
  8
0
  6
CONTINUOUS
100
AcDbLine
 10
5.694951119555943
 20
7.833557969553937
 30
0.0
 11
4.765409089118624
 21
8.763099999991255
 31
0.0
  0
LINE
  5
AEB3
330
AE6E
100
AcDbEntity
  8
0
  6
CONTINUOUS
100
AcDbLine
 10
12.50286117236978
 20
1.699167125820288
 30
0.0
 11
9.68611877250287
 21
4.515909525687196
 31
0.0
  0
LINE
  5
AEB4
330
AE6E
100
AcDbEntity
  8
0
  6
CONTINUOUS
100
AcDbLine
 10
9.065465192851777
 20
5.136563105338288
 30
0.0
 11
7.989834395251757
 21
6.21219390293831
 31
0.0
  0
LINE
  5
AEB5
330
AE6E
100
AcDbEntity
  8
0
  6
CONTINUOUS
100
AcDbLine
 10
5.993039874401719
 20
8.208988423788346
 30
0.0
 11
5.43892829819881
 21
8.763099999991255
 31
0.0
  0
LINE
  5
AEB6
330
AE6E
100
AcDbEntity
  8
0
  6
CONTINUOUS
100
AcDbLine
 10
11.95770871242671
 20
2.917838794843543
 30
0.0
 11
8.19801697298349
 21
6.677530534286761
 31
0.0
  0
LINE
  5
AEB7
330
AE6E
100
AcDbEntity
  8
0
  6
CONTINUOUS
100
AcDbLine
 10
6.291128629247495
 20
8.584418878022756
 30
0.0
 11
6.112447507278997
 21
8.763099999991255
 31
0.0
  0
LINE
  5
AEB8
330
AE6E
100
AcDbEntity
  8
0
  6
CONTINUOUS
100
AcDbLine
 10
11.41255625248364
 20
4.136510463866797
 30
0.0
 11
8.406199550715227
 21
7.142867165635211
 31
0.0
  0
LINE
  5
AEB9
330
AE6E
100
AcDbEntity
  8
0
  6
CONTINUOUS
100
AcDbLine
 10
10.86740379254057
 20
5.355182132890051
 30
0.0
 11
8.614382128446962
 21
7.608203796983664
 31
0.0
  0
LINE
  5
AEBA
330
AE6E
100
AcDbEntity
  8
0
  6
CONTINUOUS
100
AcDbLine
 10
10.3222513325975
 20
6.573853801913305
 30
0.0
 11
8.822564706178696
 21
8.073540428332114
 31
0.0
  0
LINE
  5
AEBB
330
AE6E
100
AcDbEntity
  8
0
  6
CONTINUOUS
100
AcDbLine
 10
9.777098872654436
 20
7.792525470936562
 30
0.0
 11
9.030747283910433
 21
8.538877059680566
 31
0.0
  0
ENDBLK
  5
AFFD
330
AE6E
100
AcDbEntity
  8
0
100
AcDbBlockEnd
  0
BLOCK
  5
AFFE
330
AEBC
100
AcDbEntity
  8
0
100
AcDbBlockBegin
  2
*X28
 70
     1
 10
0.0
 20
0.0
 30
0.0
  3
*X28
  1

  0
LINE
  5
AEBD
330
AEBC
100
AcDbEntity
  8
0
  6
CONTINUOUS
100
AcDbLine
 10
10.67292308101235
 20
8.445076852443387
 30
0.0
 11
10.99094622856022
 21
8.763099999991255
 31
0.0
  0
LINE
  5
AEBE
330
AEBC
100
AcDbEntity
  8
0
  6
CONTINUOUS
100
AcDbLine
 10
10.87250383178748
 20
7.971138394138331
 30
0.0
 11
11.6644654376404
 21
8.763099999991255
 31
0.0
  0
LINE
  5
AEBF
330
AEBC
100
AcDbEntity
  8
0
  6
CONTINUOUS
100
AcDbLine
 10
11.07208458256261
 20
7.497199935833273
 30
0.0
 11
12.12126590876355
 21
8.546381262034211
 31
0.0
  0
LINE
  5
AEC0
330
AEBC
100
AcDbEntity
  8
0
  6
CONTINUOUS
100
AcDbLine
 10
11.27166533333774
 20
7.023261477528216
 30
0.0
 11
12.32085164573666
 21
8.072447789927136
 31
0.0
  0
LINE
  5
AEC1
330
AEBC
100
AcDbEntity
  8
0
  6
CONTINUOUS
100
AcDbLine
 10
11.47124608411287
 20
6.549323019223158
 30
0.0
 11
12.52043738270977
 21
7.59851431782006
 31
0.0
  0
LINE
  5
AEC2
330
AEBC
100
AcDbEntity
  8
0
  6
CONTINUOUS
100
AcDbLine
 10
11.670826834888
 20
6.075384560918101
 30
0.0
 11
12.72002311968288
 21
7.124580845712984
 31
0.0
  0
LINE
  5
AEC3
330
AEBC
100
AcDbEntity
  8
0
  6
CONTINUOUS
100
AcDbLine
 10
11.87040758566313
 20
5.601446102613043
 30
0.0
 11
12.91960885665599
 21
6.650647373605907
 31
0.0
  0
LINE
  5
AEC4
330
AEBC
100
AcDbEntity
  8
0
  6
CONTINUOUS
100
AcDbLine
 10
12.06998833643825
 20
5.127507644307986
 30
0.0
 11
13.1191945936291
 21
6.176713901498832
 31
0.0
  0
LINE
  5
AEC5
330
AEBC
100
AcDbEntity
  8
0
  6
CONTINUOUS
100
AcDbLine
 10
12.26956908721338
 20
4.65356918600293
 30
0.0
 11
13.31878033060221
 21
5.702780429391757
 31
0.0
  0
LINE
  5
AEC6
330
AEBC
100
AcDbEntity
  8
0
  6
CONTINUOUS
100
AcDbLine
 10
12.46914983798851
 20
4.179630727697873
 30
0.0
 11
13.51836606757532
 21
5.228846957284683
 31
0.0
  0
LINE
  5
AEC7
330
AEBC
100
AcDbEntity
  8
0
  6
CONTINUOUS
100
AcDbLine
 10
12.66873058876364
 20
3.705692269392816
 30
0.0
 11
13.71795180454843
 21
4.754913485177607
 31
0.0
  0
LINE
  5
AEC8
330
AEBC
100
AcDbEntity
  8
0
  6
CONTINUOUS
100
AcDbLine
 10
12.86831133953877
 20
3.231753811087759
 30
0.0
 11
13.91753754152154
 21
4.280980013070531
 31
0.0
  0
LINE
  5
AEC9
330
AEBC
100
AcDbEntity
  8
0
  6
CONTINUOUS
100
AcDbLine
 10
13.0678920903139
 20
2.757815352782702
 30
0.0
 11
14.11712327849465
 21
3.807046540963456
 31
0.0
  0
LINE
  5
AECA
330
AEBC
100
AcDbEntity
  8
0
  6
CONTINUOUS
100
AcDbLine
 10
13.26747284108903
 20
2.283876894477644
 30
0.0
 11
14.31670901546777
 21
3.333113068856379
 31
0.0
  0
LINE
  5
AECB
330
AEBC
100
AcDbEntity
  8
0
  6
CONTINUOUS
100
AcDbLine
 10
16.36767838827179
 20
8.751678487061342
 30
0.0
 11
16.50332410898388
 21
8.887324207773432
 31
0.0
  0
LINE
  5
AECC
330
AEBC
100
AcDbEntity
  8
0
  6
CONTINUOUS
100
AcDbLine
 10
15.96190732182191
 20
7.67238821153127
 30
0.0
 11
16.68735328004734
 21
8.397834169756699
 31
0.0
  0
LINE
  5
AECD
330
AEBC
100
AcDbEntity
  8
0
  6
CONTINUOUS
100
AcDbLine
 10
15.55613625537202
 20
6.593097936001196
 30
0.0
 11
16.87138245111079
 21
7.908344131739965
 31
0.0
  0
LINE
  5
AECE
330
AEBC
100
AcDbEntity
  8
0
  6
CONTINUOUS
100
AcDbLine
 10
15.15036518892213
 20
5.513807660471122
 30
0.0
 11
17.05541162217424
 21
7.418854093723231
 31
0.0
  0
LINE
  5
AECF
330
AEBC
100
AcDbEntity
  8
0
  6
CONTINUOUS
100
AcDbLine
 10
14.74459412247225
 20
4.434517384941048
 30
0.0
 11
17.2394407932377
 21
6.929364055706499
 31
0.0
  0
LINE
  5
AED0
330
AEBC
100
AcDbEntity
  8
0
  6
CONTINUOUS
100
AcDbLine
 10
14.33882305602236
 20
3.355227109410975
 30
0.0
 11
17.42346996430115
 21
6.439874017689766
 31
0.0
  0
LINE
  5
AED1
330
AEBC
100
AcDbEntity
  8
0
  6
CONTINUOUS
100
AcDbLine
 10
13.46705359186416
 20
1.809938436172586
 30
0.0
 11
16.0819338255367
 21
4.424818669845129
 31
0.0
  0
LINE
  5
AED2
330
AEBC
100
AcDbEntity
  8
0
  6
CONTINUOUS
100
AcDbLine
 10
16.63283254238972
 20
4.975717386698149
 30
0.0
 11
17.60749913536461
 21
5.950383979673033
 31
0.0
  0
LINE
  5
AED3
330
AEBC
100
AcDbEntity
  8
0
  6
CONTINUOUS
100
AcDbLine
 10
13.66663434263929
 20
1.335999977867529
 30
0.0
 11
15.67604797733754
 21
3.345413612565779
 31
0.0
  0
LINE
  5
AED4
330
AEBC
100
AcDbEntity
  8
0
  6
CONTINUOUS
100
AcDbLine
 10
13.86621509341442
 20
0.8620615195624723
 30
0.0
 11
15.27016212913838
 21
2.26600855528643
 31
0.0
  0
LINE
  5
AED5
330
AEBC
100
AcDbEntity
  8
0
  6
CONTINUOUS
100
AcDbLine
 10
16.81682257348267
 20
4.486188208710908
 30
0.0
 11
17.79152830642806
 21
5.460893941656299
 31
0.0
  0
LINE
  5
AED6
330
AEBC
100
AcDbEntity
  8
0
  6
CONTINUOUS
100
AcDbLine
 10
17.00081260457561
 20
3.996659030723667
 30
0.0
 11
17.97555747749151
 21
4.971403903639565
 31
0.0
  0
LINE
  5
AED7
330
AEBC
100
AcDbEntity
  8
0
  6
CONTINUOUS
100
AcDbLine
 10
20.74362343514722
 20
8.412989070375462
 30
0.0
 11
21.09373436476302
 21
8.763099999991256
 31
0.0
  0
LINE
  5
AED8
330
AEBC
100
AcDbEntity
  8
0
  6
CONTINUOUS
100
AcDbLine
 10
20.25401257174777
 20
7.249858997895826
 30
0.0
 11
21.7672535738432
 21
8.763099999991255
 31
0.0
  0
LINE
  5
AED9
330
AEBC
100
AcDbEntity
  8
0
  6
CONTINUOUS
100
AcDbLine
 10
14.06579584418955
 20
0.3881230612574149
 30
0.0
 11
14.86427628093921
 21
1.186603498007082
 31
0.0
  0
LINE
  5
AEDA
330
AEBC
100
AcDbEntity
  8
0
  6
CONTINUOUS
100
AcDbLine
 10
14.26537659496467
 20
-0.0858153970476412
 30
0.0
 11
14.45839043274005
 21
0.1071984407277329
 31
0.0
  0
LINE
  5
AEDB
330
AEBC
100
AcDbEntity
  8
0
  6
CONTINUOUS
100
AcDbLine
 10
17.18480263566856
 20
3.507129852736426
 30
0.0
 11
18.15958664855496
 21
4.481913865622833
 31
0.0
  0
LINE
  5
AEDC
330
AEBC
100
AcDbEntity
  8
0
  6
CONTINUOUS
100
AcDbLine
 10
17.3687926667615
 20
3.017600674749186
 30
0.0
 11
18.34361581961842
 21
3.9924238276061
 31
0.0
  0
LINE
  5
AEDD
330
AEBC
100
AcDbEntity
  8
0
  6
CONTINUOUS
100
AcDbLine
 10
19.76440170834832
 20
6.086728925416191
 30
0.0
 11
22.33924590259489
 21
8.661573119662755
 31
0.0
  0
LINE
  5
AEDE
330
AEBC
100
AcDbEntity
  8
0
  6
CONTINUOUS
100
AcDbLine
 10
19.27479084494887
 20
4.923598852936555
 30
0.0
 11
21.84929622842713
 21
7.498104236414807
 31
0.0
  0
LINE
  5
AEDF
330
AEBC
100
AcDbEntity
  8
0
  6
CONTINUOUS
100
AcDbLine
 10
17.55278269785445
 20
2.528071496761945
 30
0.0
 11
18.52764499068187
 21
3.502933789589366
 31
0.0
  0
LINE
  5
AEE0
330
AEBC
100
AcDbEntity
  8
0
  6
CONTINUOUS
100
AcDbLine
 10
18.78517998154942
 20
3.760468780456919
 30
0.0
 11
21.35934655425936
 21
6.33463535316686
 31
0.0
  0
LINE
  5
AEE1
330
AEBC
100
AcDbEntity
  8
0
  6
CONTINUOUS
100
AcDbLine
 10
17.73677272894739
 20
2.038542318774704
 30
0.0
 11
20.8693968800916
 21
5.171166469918914
 31
0.0
  0
LINE
  5
AEE2
330
AEBC
100
AcDbEntity
  8
0
  6
CONTINUOUS
100
AcDbLine
 10
17.92076276004034
 20
1.549013140787464
 30
0.0
 11
20.37944720592384
 21
4.007697586670968
 31
0.0
  0
LINE
  5
AEE3
330
AEBC
100
AcDbEntity
  8
0
  6
CONTINUOUS
100
AcDbLine
 10
18.10475279113329
 20
1.059483962800223
 30
0.0
 11
19.88949753175608
 21
2.84422870342302
 31
0.0
  0
LINE
  5
AEE4
330
AEBC
100
AcDbEntity
  8
0
  6
CONTINUOUS
100
AcDbLine
 10
18.28874282222623
 20
0.5699547848129822
 30
0.0
 11
19.39954785758832
 21
1.680759820175074
 31
0.0
  0
LINE
  5
AEE5
330
AEBC
100
AcDbEntity
  8
0
  6
CONTINUOUS
100
AcDbLine
 10
18.47273285331918
 20
0.0804256068257416
 30
0.0
 11
18.90959818342056
 21
0.517290936927127
 31
0.0
  0
LINE
  5
AEE6
330
AEBC
100
AcDbEntity
  8
0
  6
CONTINUOUS
100
AcDbLine
 10
14.3590401358224
 20
-0.1570118376323384
 30
0.0
 11
14.24903296539946
 21
-0.0470046672093929
 31
0.0
  0
LINE
  5
AEE7
330
AEBC
100
AcDbEntity
  8
0
  6
CONTINUOUS
100
AcDbLine
 10
14.54309291258661
 20
0.332454594683643
 30
0.0
 11
13.75908329123172
 21
1.116464216038529
 31
0.0
  0
LINE
  5
AEE8
330
AEBC
100
AcDbEntity
  8
0
  6
CONTINUOUS
100
AcDbLine
 10
14.72714568935081
 20
0.8219210269996244
 30
0.0
 11
13.26913361706399
 21
2.27993309928645
 31
0.0
  0
LINE
  5
AEE9
330
AEBC
100
AcDbEntity
  8
0
  6
CONTINUOUS
100
AcDbLine
 10
14.91119846611502
 20
1.311387459315606
 30
0.0
 11
12.77918394289625
 21
3.443401982534371
 31
0.0
  0
LINE
  5
AEEA
330
AEBC
100
AcDbEntity
  8
0
  6
CONTINUOUS
100
AcDbLine
 10
15.09525124287922
 20
1.800853891631587
 30
0.0
 11
12.28923426872852
 21
4.606870865782293
 31
0.0
  0
LINE
  5
AEEB
330
AEBC
100
AcDbEntity
  8
0
  6
CONTINUOUS
100
AcDbLine
 10
15.27930401964343
 20
2.290320323947569
 30
0.0
 11
11.79928459456078
 21
5.770339749030213
 31
0.0
  0
LINE
  5
AEEC
330
AEBC
100
AcDbEntity
  8
0
  6
CONTINUOUS
100
AcDbLine
 10
15.46335679640763
 20
2.77978675626355
 30
0.0
 11
14.48885470994921
 21
3.754288842721972
 31
0.0
  0
LINE
  5
AEED
330
AEBC
100
AcDbEntity
  8
0
  6
CONTINUOUS
100
AcDbLine
 10
13.88507249233704
 20
4.358071060334137
 30
0.0
 11
11.30933492039305
 21
6.933808632278135
 31
0.0
  0
LINE
  5
AEEE
330
AEBC
100
AcDbEntity
  8
0
  6
CONTINUOUS
100
AcDbLine
 10
18.75840522805855
 20
0.1582575336928151
 30
0.0
 11
18.25383727664818
 21
0.6628254851031863
 31
0.0
  0
LINE
  5
AEEF
330
AEBC
100
AcDbEntity
  8
0
  6
CONTINUOUS
100
AcDbLine
 10
15.64740957317184
 20
3.269253188579531
 30
0.0
 11
14.67288388101266
 21
4.243778880738705
 31
0.0
  0
LINE
  5
AEF0
330
AEBC
100
AcDbEntity
  8
0
  6
CONTINUOUS
100
AcDbLine
 10
13.39509276772158
 20
5.521569994029786
 30
0.0
 11
10.81938524622531
 21
8.097277515526056
 31
0.0
  0
LINE
  5
AEF1
330
AEBC
100
AcDbEntity
  8
0
  6
CONTINUOUS
100
AcDbLine
 10
18.95798597883369
 20
0.6321959919978686
 30
0.0
 11
17.84825644852853
 21
1.741925522303024
 31
0.0
  0
LINE
  5
AEF2
330
AEBC
100
AcDbEntity
  8
0
  6
CONTINUOUS
100
AcDbLine
 10
19.15756672960882
 20
1.106134450302922
 30
0.0
 11
17.44267562040888
 21
2.821025559502861
 31
0.0
  0
LINE
  5
AEF3
330
AEBC
100
AcDbEntity
  8
0
  6
CONTINUOUS
100
AcDbLine
 10
15.83146234993604
 20
3.758719620895513
 30
0.0
 11
14.85691305207612
 21
4.733268918755439
 31
0.0
  0
LINE
  5
AEF4
330
AEBC
100
AcDbEntity
  8
0
  6
CONTINUOUS
100
AcDbLine
 10
16.01551512670025
 20
4.248186053211494
 30
0.0
 11
15.04094222313957
 21
5.222758956772172
 31
0.0
  0
LINE
  5
AEF5
330
AEBC
100
AcDbEntity
  8
0
  6
CONTINUOUS
100
AcDbLine
 10
12.90511304310612
 20
6.685068927725435
 30
0.0
 11
10.8270819708403
 21
8.763099999991255
 31
0.0
  0
LINE
  5
AEF6
330
AEBC
100
AcDbEntity
  8
0
  6
CONTINUOUS
100
AcDbLine
 10
12.41513331849066
 20
7.848567861421083
 30
0.0
 11
11.50060117992049
 21
8.763099999991255
 31
0.0
  0
LINE
  5
AEF7
330
AEBC
100
AcDbEntity
  8
0
  6
CONTINUOUS
100
AcDbLine
 10
19.35714748038395
 20
1.580072908607975
 30
0.0
 11
17.03709479228923
 21
3.900125596702697
 31
0.0
  0
LINE
  5
AEF8
330
AEBC
100
AcDbEntity
  8
0
  6
CONTINUOUS
100
AcDbLine
 10
19.55672823115909
 20
2.054011366913028
 30
0.0
 11
16.63151396416958
 21
4.979225633902534
 31
0.0
  0
LINE
  5
AEF9
330
AEBC
100
AcDbEntity
  8
0
  6
CONTINUOUS
100
AcDbLine
 10
16.19956790346445
 20
4.737652485527476
 30
0.0
 11
15.22497139420302
 21
5.712248994788904
 31
0.0
  0
LINE
  5
AEFA
330
AEBC
100
AcDbEntity
  8
0
  6
CONTINUOUS
100
AcDbLine
 10
16.38362068022866
 20
5.227118917843457
 30
0.0
 11
15.40900056526648
 21
6.201739032805637
 31
0.0
  0
LINE
  5
AEFB
330
AEBC
100
AcDbEntity
  8
0
  6
CONTINUOUS
100
AcDbLine
 10
19.75630898193422
 20
2.527949825218081
 30
0.0
 11
18.70774536448286
 21
3.576513442669441
 31
0.0
  0
LINE
  5
AEFC
330
AEBC
100
AcDbEntity
  8
0
  6
CONTINUOUS
100
AcDbLine
 10
19.95588973270936
 20
3.001888283523134
 30
0.0
 11
18.90726987211446
 21
4.050508144118028
 31
0.0
  0
LINE
  5
AEFD
330
AEBC
100
AcDbEntity
  8
0
  6
CONTINUOUS
100
AcDbLine
 10
20.15547048348449
 20
3.475826741828186
 30
0.0
 11
19.10679437974606
 21
4.524502845566614
 31
0.0
  0
LINE
  5
AEFE
330
AEBC
100
AcDbEntity
  8
0
  6
CONTINUOUS
100
AcDbLine
 10
20.35505123425962
 20
3.94976520013324
 30
0.0
 11
19.30631888737766
 21
4.998497547015201
 31
0.0
  0
LINE
  5
AEFF
330
AEBC
100
AcDbEntity
  8
0
  6
CONTINUOUS
100
AcDbLine
 10
20.55463198503475
 20
4.423703658438292
 30
0.0
 11
19.50584339500926
 21
5.472492248463787
 31
0.0
  0
LINE
  5
AF00
330
AEBC
100
AcDbEntity
  8
0
  6
CONTINUOUS
100
AcDbLine
 10
18.37481191085755
 20
3.909446896294752
 30
0.0
 11
15.59302973632993
 21
6.691229070822371
 31
0.0
  0
LINE
  5
AF01
330
AEBC
100
AcDbEntity
  8
0
  6
CONTINUOUS
100
AcDbLine
 10
17.96904084440766
 20
4.988737171824825
 30
0.0
 11
15.77705890739338
 21
7.180719108839104
 31
0.0
  0
LINE
  5
AF02
330
AEBC
100
AcDbEntity
  8
0
  6
CONTINUOUS
100
AcDbLine
 10
17.56326977795777
 20
6.068027447354899
 30
0.0
 11
15.96108807845684
 21
7.670209146855838
 31
0.0
  0
LINE
  5
AF03
330
AEBC
100
AcDbEntity
  8
0
  6
CONTINUOUS
100
AcDbLine
 10
17.15749871150789
 20
7.147317722884972
 30
0.0
 11
16.14511724952029
 21
8.15969918487257
 31
0.0
  0
LINE
  5
AF04
330
AEBC
100
AcDbEntity
  8
0
  6
CONTINUOUS
100
AcDbLine
 10
16.751727645058
 20
8.226607998415046
 30
0.0
 11
16.32914642058374
 21
8.649189222889303
 31
0.0
  0
LINE
  5
AF05
330
AEBC
100
AcDbEntity
  8
0
  6
CONTINUOUS
100
AcDbLine
 10
20.75421273580989
 20
4.897642116743345
 30
0.0
 11
19.70536790264086
 21
5.946486949912374
 31
0.0
  0
LINE
  5
AF06
330
AEBC
100
AcDbEntity
  8
0
  6
CONTINUOUS
100
AcDbLine
 10
20.95379348658502
 20
5.371580575048398
 30
0.0
 11
19.90489241027246
 21
6.42048165136096
 31
0.0
  0
LINE
  5
AF07
330
AEBC
100
AcDbEntity
  8
0
  6
CONTINUOUS
100
AcDbLine
 10
21.15337423736015
 20
5.845519033353452
 30
0.0
 11
20.10441691790406
 21
6.894476352809547
 31
0.0
  0
LINE
  5
AF08
330
AEBC
100
AcDbEntity
  8
0
  6
CONTINUOUS
100
AcDbLine
 10
21.35295498813529
 20
6.319457491658505
 30
0.0
 11
20.30394142553566
 21
7.368471054258134
 31
0.0
  0
LINE
  5
AF09
330
AEBC
100
AcDbEntity
  8
0
  6
CONTINUOUS
100
AcDbLine
 10
21.55253573891042
 20
6.793395949963558
 30
0.0
 11
20.50346593316726
 21
7.842465755706721
 31
0.0
  0
LINE
  5
AF0A
330
AEBC
100
AcDbEntity
  8
0
  6
CONTINUOUS
100
AcDbLine
 10
21.75211648968556
 20
7.267334408268612
 30
0.0
 11
20.70299044079886
 21
8.316460457155308
 31
0.0
  0
LINE
  5
AF0B
330
AEBC
100
AcDbEntity
  8
0
  6
CONTINUOUS
100
AcDbLine
 10
21.95169724046069
 20
7.741272866573663
 30
0.0
 11
20.9298701070431
 21
8.763099999991256
 31
0.0
  0
LINE
  5
AF0C
330
AEBC
100
AcDbEntity
  8
0
  6
CONTINUOUS
100
AcDbLine
 10
22.15127799123582
 20
8.215211324878716
 30
0.0
 11
21.60338931612328
 21
8.763099999991256
 31
0.0
  0
LINE
  5
AF0D
330
AEBC
100
AcDbEntity
  8
0
  6
CONTINUOUS
100
AcDbLine
 10
22.35085874201096
 20
8.689149783183769
 30
0.0
 11
22.27690852520347
 21
8.763099999991255
 31
0.0
  0
ENDBLK
  5
AFFF
330
AEBC
100
AcDbEntity
  8
0
100
AcDbBlockEnd
  0
BLOCK
  5
B000
330
AF0E
100
AcDbEntity
  8
0
100
AcDbBlockBegin
  2
*X29
 70
     1
 10
0.0
 20
0.0
 30
0.0
  3
*X29
  1

  0
LINE
  5
AF0F
330
AF0E
100
AcDbEntity
  8
0
  6
CONTINUOUS
100
AcDbLine
 10
23.19462913593892
 20
8.169917934846424
 30
0.0
 11
23.70775465517246
 21
8.683043454079957
 31
0.0
  0
LINE
  5
AF10
330
AF0E
100
AcDbEntity
  8
0
  6
CONTINUOUS
100
AcDbLine
 10
22.64923161835078
 20
6.951001208178088
 30
0.0
 11
23.9159364069932
 21
8.217705996820516
 31
0.0
  0
LINE
  5
AF11
330
AF0E
100
AcDbEntity
  8
0
  6
CONTINUOUS
100
AcDbLine
 10
22.10383410076263
 20
5.732084481509751
 30
0.0
 11
24.12411815881395
 21
7.752368539561078
 31
0.0
  0
LINE
  5
AF12
330
AF0E
100
AcDbEntity
  8
0
  6
CONTINUOUS
100
AcDbLine
 10
21.55843658317447
 20
4.513167754841414
 30
0.0
 11
24.3322999106347
 21
7.287031082301639
 31
0.0
  0
LINE
  5
AF13
330
AF0E
100
AcDbEntity
  8
0
  6
CONTINUOUS
100
AcDbLine
 10
21.01303906558632
 20
3.294251028173077
 30
0.0
 11
24.54048166245544
 21
6.821693625042199
 31
0.0
  0
LINE
  5
AF14
330
AF0E
100
AcDbEntity
  8
0
  6
CONTINUOUS
100
AcDbLine
 10
20.46764154799817
 20
2.075334301504738
 30
0.0
 11
23.28571549467848
 21
4.89340824818505
 31
0.0
  0
LINE
  5
AF15
330
AF0E
100
AcDbEntity
  8
0
  6
CONTINUOUS
100
AcDbLine
 10
19.92224403041002
 20
0.8564175748364002
 30
0.0
 11
22.74075865492779
 21
3.674932199354171
 31
0.0
  0
LINE
  5
AF16
330
AF0E
100
AcDbEntity
  8
0
  6
CONTINUOUS
100
AcDbLine
 10
23.67305085490148
 20
5.280743608408048
 30
0.0
 11
24.74866341427619
 21
6.356356167782759
 31
0.0
  0
LINE
  5
AF17
330
AF0E
100
AcDbEntity
  8
0
  6
CONTINUOUS
100
AcDbLine
 10
23.88118970842314
 20
4.815363252849522
 30
0.0
 11
24.95684516609694
 21
5.89101871052332
 31
0.0
  0
LINE
  5
AF18
330
AF0E
100
AcDbEntity
  8
0
  6
CONTINUOUS
100
AcDbLine
 10
19.73925852647308
 20
-0.0000871381807288
 30
0.0
 11
23.4103456646501
 21
3.670999999996297
 31
0.0
  0
LINE
  5
AF19
330
AF0E
100
AcDbEntity
  8
0
  6
CONTINUOUS
100
AcDbLine
 10
24.0893285619448
 20
4.349982897290997
 30
0.0
 11
25.16502691791769
 21
5.42568125326388
 31
0.0
  0
LINE
  5
AF1A
330
AF0E
100
AcDbEntity
  8
0
  6
CONTINUOUS
100
AcDbLine
 10
20.41282099582748
 20
-0.0000438779065108
 30
0.0
 11
21.64944178675636
 21
1.236576913022366
 31
0.0
  0
LINE
  5
AF1B
330
AF0E
100
AcDbEntity
  8
0
  6
CONTINUOUS
100
AcDbLine
 10
22.78126487373161
 20
2.36839999999762
 30
0.0
 11
24.08386487373029
 21
3.670999999996297
 31
0.0
  0
LINE
  5
AF1C
330
AF0E
100
AcDbEntity
  8
0
  6
CONTINUOUS
100
AcDbLine
 10
24.29746741546646
 20
3.884602541732471
 30
0.0
 11
25.37320866973843
 21
4.960343796004441
 31
0.0
  0
LINE
  5
AF1D
330
AF0E
100
AcDbEntity
  8
0
  6
CONTINUOUS
100
AcDbLine
 10
21.08638346518189
 20
-0.0000006176322938
 30
0.0
 11
21.10379033335899
 21
0.0174062505448083
 31
0.0
  0
LINE
  5
AF1E
330
AF0E
100
AcDbEntity
  8
0
  6
CONTINUOUS
100
AcDbLine
 10
23.4547840828118
 20
2.36839999999762
 30
0.0
 11
25.58139042155918
 21
4.495006338745002
 31
0.0
  0
LINE
  5
AF1F
330
AF0E
100
AcDbEntity
  8
0
  6
CONTINUOUS
100
AcDbLine
 10
29.30199999996933
 20
8.215615917155148
 30
0.0
 11
29.84948408280543
 21
8.763099999991255
 31
0.0
  0
LINE
  5
AF20
330
AF0E
100
AcDbEntity
  8
0
  6
CONTINUOUS
100
AcDbLine
 10
24.12830329189199
 20
2.36839999999762
 30
0.0
 11
25.78957217337993
 21
4.029668881485562
 31
0.0
  0
LINE
  5
AF21
330
AF0E
100
AcDbEntity
  8
0
  6
CONTINUOUS
100
AcDbLine
 10
29.30199999996933
 20
7.54209670807496
 30
0.0
 11
30.52300329188562
 21
8.763099999991255
 31
0.0
  0
LINE
  5
AF22
330
AF0E
100
AcDbEntity
  8
0
  6
CONTINUOUS
100
AcDbLine
 10
24.80182250097217
 20
2.36839999999762
 30
0.0
 11
25.99775392520067
 21
3.564331424226122
 31
0.0
  0
LINE
  5
AF23
330
AF0E
100
AcDbEntity
  8
0
  6
CONTINUOUS
100
AcDbLine
 10
29.30199999996933
 20
6.868577498994774
 30
0.0
 11
30.74199999996926
 21
8.308577498994712
 31
0.0
  0
LINE
  5
AF24
330
AF0E
100
AcDbEntity
  8
0
  6
CONTINUOUS
100
AcDbLine
 10
25.13028238392013
 20
2.023340673865392
 30
0.0
 11
26.20593567702142
 21
3.098993966966683
 31
0.0
  0
LINE
  5
AF25
330
AF0E
100
AcDbEntity
  8
0
  6
CONTINUOUS
100
AcDbLine
 10
25.33838066033617
 20
1.557919741201244
 30
0.0
 11
26.41411742884217
 21
2.633656509707244
 31
0.0
  0
LINE
  5
AF26
330
AF0E
100
AcDbEntity
  8
0
  6
CONTINUOUS
100
AcDbLine
 10
25.54647893675221
 20
1.092498808537098
 30
0.0
 11
26.62229918066291
 21
2.168319052447804
 31
0.0
  0
LINE
  5
AF27
330
AF0E
100
AcDbEntity
  8
0
  6
CONTINUOUS
100
AcDbLine
 10
25.75457721316825
 20
0.62707787587295
 30
0.0
 11
26.83048093248366
 21
1.702981595188365
 31
0.0
  0
LINE
  5
AF28
330
AF0E
100
AcDbEntity
  8
0
  6
CONTINUOUS
100
AcDbLine
 10
29.30199999996933
 20
6.195058289914587
 30
0.0
 11
30.74199999996926
 21
7.635058289914522
 31
0.0
  0
LINE
  5
AF29
330
AF0E
100
AcDbEntity
  8
0
  6
CONTINUOUS
100
AcDbLine
 10
29.30199999996933
 20
5.521539080834401
 30
0.0
 11
30.74199999996926
 21
6.961539080834331
 31
0.0
  0
LINE
  5
AF2A
330
AF0E
100
AcDbEntity
  8
0
  6
CONTINUOUS
100
AcDbLine
 10
29.30199999996933
 20
4.848019871754214
 30
0.0
 11
30.74199999996925
 21
6.288019871754143
 31
0.0
  0
LINE
  5
AF2B
330
AF0E
100
AcDbEntity
  8
0
  6
CONTINUOUS
100
AcDbLine
 10
29.30199999996933
 20
4.174500662674028
 30
0.0
 11
30.74199999996925
 21
5.614500662673953
 31
0.0
  0
LINE
  5
AF2C
330
AF0E
100
AcDbEntity
  8
0
  6
CONTINUOUS
100
AcDbLine
 10
25.96267548958429
 20
0.1616569432088024
 30
0.0
 11
27.18411854636669
 21
1.383099999991207
 31
0.0
  0
LINE
  5
AF2D
330
AF0E
100
AcDbEntity
  8
0
  6
CONTINUOUS
100
AcDbLine
 10
29.30199999996933
 20
3.500981453593841
 30
0.0
 11
30.74199999996925
 21
4.940981453593762
 31
0.0
  0
LINE
  5
AF2E
330
AF0E
100
AcDbEntity
  8
0
  6
CONTINUOUS
100
AcDbLine
 10
26.50763775544691
 20
0.0330999999912356
 30
0.0
 11
27.85763775544689
 21
1.383099999991223
 31
0.0
  0
LINE
  5
AF2F
330
AF0E
100
AcDbEntity
  8
0
  6
CONTINUOUS
100
AcDbLine
 10
29.30199999996933
 20
2.827462244513656
 30
0.0
 11
30.74199999996925
 21
4.267462244513574
 31
0.0
  0
LINE
  5
AF30
330
AF0E
100
AcDbEntity
  8
0
  6
CONTINUOUS
100
AcDbLine
 10
27.18115696452709
 20
0.0330999999912356
 30
0.0
 11
28.55073879889363
 21
1.402681834357775
 31
0.0
  0
LINE
  5
AF31
330
AF0E
100
AcDbEntity
  8
0
  6
CONTINUOUS
100
AcDbLine
 10
29.28241816560272
 20
2.134361201066866
 30
0.0
 11
30.74199999996924
 21
3.593943035433383
 31
0.0
  0
LINE
  5
AF32
330
AF0E
100
AcDbEntity
  8
0
  6
CONTINUOUS
100
AcDbLine
 10
27.85467617360728
 20
0.0330999999912356
 30
0.0
 11
30.74199999996924
 21
2.920423826353195
 31
0.0
  0
LINE
  5
AF33
330
AF0E
100
AcDbEntity
  8
0
  6
CONTINUOUS
100
AcDbLine
 10
28.53897559587887
 20
0.0438802131826428
 30
0.0
 11
30.73121978677781
 21
2.236124404081585
 31
0.0
  0
LINE
  5
AF34
330
AF0E
100
AcDbEntity
  8
0
  6
CONTINUOUS
100
AcDbLine
 10
29.45140055588722
 20
0.2827859641107988
 30
0.0
 11
30.49231403584965
 21
1.323699444073236
 31
0.0
  0
LINE
  5
AF35
330
AF0E
100
AcDbEntity
  8
0
  6
CONTINUOUS
100
AcDbLine
 10
19.59027867740337
 20
-0.0000967065718083
 30
0.0
 11
19.55485265190471
 21
0.035329318926844
 31
0.0
  0
LINE
  5
AF36
330
AF0E
100
AcDbEntity
  8
0
  6
CONTINUOUS
100
AcDbLine
 10
20.26375463176586
 20
-0.0000534518541091
 30
0.0
 11
19.76305575737534
 21
0.5006454225364014
 31
0.0
  0
LINE
  5
AF37
330
AF0E
100
AcDbEntity
  8
0
  6
CONTINUOUS
100
AcDbLine
 10
20.93723058612834
 20
-0.0000101971364099
 30
0.0
 11
19.97125886284597
 21
0.965961526145958
 31
0.0
  0
LINE
  5
AF38
330
AF0E
100
AcDbEntity
  8
0
  6
CONTINUOUS
100
AcDbLine
 10
21.25514828313686
 20
0.355591314935257
 30
0.0
 11
20.1794619683166
 21
1.431277629755512
 31
0.0
  0
LINE
  5
AF39
330
AF0E
100
AcDbEntity
  8
0
  6
CONTINUOUS
100
AcDbLine
 10
21.46338838394921
 20
0.8208704232030986
 30
0.0
 11
20.38766507378723
 21
1.896593733365069
 31
0.0
  0
LINE
  5
AF3A
330
AF0E
100
AcDbEntity
  8
0
  6
CONTINUOUS
100
AcDbLine
 10
21.67162848476155
 20
1.28614953147094
 30
0.0
 11
20.59586817925786
 21
2.361909836974626
 31
0.0
  0
LINE
  5
AF3B
330
AF0E
100
AcDbEntity
  8
0
  6
CONTINUOUS
100
AcDbLine
 10
21.8798685855739
 20
1.751428639738782
 30
0.0
 11
20.80407128472849
 21
2.827225940584183
 31
0.0
  0
LINE
  5
AF3C
330
AF0E
100
AcDbEntity
  8
0
  6
CONTINUOUS
100
AcDbLine
 10
22.08810868638624
 20
2.216707748006623
 30
0.0
 11
21.01227439019912
 21
3.292542044193739
 31
0.0
  0
LINE
  5
AF3D
330
AF0E
100
AcDbEntity
  8
0
  6
CONTINUOUS
100
AcDbLine
 10
22.60993564347543
 20
2.36839999999762
 30
0.0
 11
21.22047749566975
 21
3.757858147803296
 31
0.0
  0
LINE
  5
AF3E
330
AF0E
100
AcDbEntity
  8
0
  6
CONTINUOUS
100
AcDbLine
 10
23.28345485255561
 20
2.36839999999762
 30
0.0
 11
21.42868060114038
 21
4.223174251412853
 31
0.0
  0
LINE
  5
AF3F
330
AF0E
100
AcDbEntity
  8
0
  6
CONTINUOUS
100
AcDbLine
 10
26.29227406164219
 20
0.0330999999912356
 30
0.0
 11
25.80009199592872
 21
0.5252820657046957
 31
0.0
  0
LINE
  5
AF40
330
AF0E
100
AcDbEntity
  8
0
  6
CONTINUOUS
100
AcDbLine
 10
23.9569740616358
 20
2.36839999999762
 30
0.0
 11
21.63688370661101
 21
4.688490355022409
 31
0.0
  0
LINE
  5
AF41
330
AF0E
100
AcDbEntity
  8
0
  6
CONTINUOUS
100
AcDbLine
 10
26.96579327072237
 20
0.0330999999912356
 30
0.0
 11
25.2554132311971
 21
1.743480039516508
 31
0.0
  0
LINE
  5
AF42
330
AF0E
100
AcDbEntity
  8
0
  6
CONTINUOUS
100
AcDbLine
 10
24.63049327071599
 20
2.36839999999762
 30
0.0
 11
23.32789327071731
 21
3.670999999996297
 31
0.0
  0
LINE
  5
AF43
330
AF0E
100
AcDbEntity
  8
0
  6
CONTINUOUS
100
AcDbLine
 10
22.92098674744635
 20
4.077906523267254
 30
0.0
 11
21.84508681208164
 21
5.153806458631966
 31
0.0
  0
LINE
  5
AF44
330
AF0E
100
AcDbEntity
  8
0
  6
CONTINUOUS
100
AcDbLine
 10
27.63931247980256
 20
0.0330999999912356
 30
0.0
 11
24.0014124797975
 21
3.670999999996297
 31
0.0
  0
LINE
  5
AF45
330
AF0E
100
AcDbEntity
  8
0
  6
CONTINUOUS
100
AcDbLine
 10
23.129125600968
 20
4.5432868788258
 30
0.0
 11
22.05328991755227
 21
5.619122562241522
 31
0.0
  0
LINE
  5
AF46
330
AF0E
100
AcDbEntity
  8
0
  6
CONTINUOUS
100
AcDbLine
 10
28.31283168888275
 20
0.0330999999912356
 30
0.0
 11
24.16488385994816
 21
4.181047828925828
 31
0.0
  0
LINE
  5
AF47
330
AF0E
100
AcDbEntity
  8
0
  6
CONTINUOUS
100
AcDbLine
 10
23.33726445448964
 20
5.008667234384345
 30
0.0
 11
22.2614930230229
 21
6.084438665851079
 31
0.0
  0
LINE
  5
AF48
330
AF0E
100
AcDbEntity
  8
0
  6
CONTINUOUS
100
AcDbLine
 10
28.92085740005492
 20
0.0985934978992438
 30
0.0
 11
27.63635089796295
 21
1.383099999991217
 31
0.0
  0
LINE
  5
AF49
330
AF0E
100
AcDbEntity
  8
0
  6
CONTINUOUS
100
AcDbLine
 10
26.43704649509776
 20
2.582404402856405
 30
0.0
 11
23.61992702019732
 21
5.399523877756844
 31
0.0
  0
LINE
  5
AF4A
330
AF0E
100
AcDbEntity
  8
0
  6
CONTINUOUS
100
AcDbLine
 10
23.54540330801128
 20
5.47404758994289
 30
0.0
 11
22.46969612849353
 21
6.549754769460635
 31
0.0
  0
LINE
  5
AF4B
330
AF0E
100
AcDbEntity
  8
0
  6
CONTINUOUS
100
AcDbLine
 10
29.42225615078443
 20
0.2707139562499279
 30
0.0
 11
28.30987010704312
 21
1.383099999991234
 31
0.0
  0
LINE
  5
AF4C
330
AF0E
100
AcDbEntity
  8
0
  6
CONTINUOUS
100
AcDbLine
 10
25.89179548232307
 20
3.801174624711282
 30
0.0
 11
22.67789923396416
 21
7.015070873070191
 31
0.0
  0
LINE
  5
AF4D
330
AF0E
100
AcDbEntity
  8
0
  6
CONTINUOUS
100
AcDbLine
 10
29.83624534690007
 20
0.5302439692144705
 30
0.0
 11
28.85811781497101
 21
1.508371501143527
 31
0.0
  0
LINE
  5
AF4E
330
AF0E
100
AcDbEntity
  8
0
  6
CONTINUOUS
100
AcDbLine
 10
25.34654446954838
 20
5.01994484656616
 30
0.0
 11
22.88610233943479
 21
7.480386976679748
 31
0.0
  0
LINE
  5
AF4F
330
AF0E
100
AcDbEntity
  8
0
  6
CONTINUOUS
100
AcDbLine
 10
30.17865975401872
 20
0.8613487711760022
 30
0.0
 11
29.18888744090175
 21
1.851121084292977
 31
0.0
  0
LINE
  5
AF50
330
AF0E
100
AcDbEntity
  8
0
  6
CONTINUOUS
100
AcDbLine
 10
24.80129345677369
 20
6.238715068421037
 30
0.0
 11
23.09430544490542
 21
7.945703080289305
 31
0.0
  0
LINE
  5
AF51
330
AF0E
100
AcDbEntity
  8
0
  6
CONTINUOUS
100
AcDbLine
 10
30.45496647202376
 20
1.258561262251155
 30
0.0
 11
29.30199999996933
 21
2.411527734305588
 31
0.0
  0
LINE
  5
AF52
330
AF0E
100
AcDbEntity
  8
0
  6
CONTINUOUS
100
AcDbLine
 10
24.256042443999
 20
7.457485290275915
 30
0.0
 11
23.30250855037605
 21
8.411019183898862
 31
0.0
  0
LINE
  5
AF53
330
AF0E
100
AcDbEntity
  8
0
  6
CONTINUOUS
100
AcDbLine
 10
30.64868582078271
 20
1.738361122572387
 30
0.0
 11
29.30199999996933
 21
3.085046943385775
 31
0.0
  0
LINE
  5
AF54
330
AF0E
100
AcDbEntity
  8
0
  6
CONTINUOUS
100
AcDbLine
 10
23.71079143122431
 20
8.676255512130794
 30
0.0
 11
23.51071165584668
 21
8.876335287508416
 31
0.0
  0
LINE
  5
AF55
330
AF0E
100
AcDbEntity
  8
0
  6
CONTINUOUS
100
AcDbLine
 10
30.73802122914428
 20
2.322544923291007
 30
0.0
 11
29.30199999996933
 21
3.758566152465961
 31
0.0
  0
LINE
  5
AF56
330
AF0E
100
AcDbEntity
  8
0
  6
CONTINUOUS
100
AcDbLine
 10
30.74199999996924
 20
2.992085361546236
 30
0.0
 11
29.30199999996933
 21
4.432085361546148
 31
0.0
  0
LINE
  5
AF57
330
AF0E
100
AcDbEntity
  8
0
  6
CONTINUOUS
100
AcDbLine
 10
30.74199999996924
 20
3.665604570626419
 30
0.0
 11
29.30199999996933
 21
5.105604570626333
 31
0.0
  0
LINE
  5
AF58
330
AF0E
100
AcDbEntity
  8
0
  6
CONTINUOUS
100
AcDbLine
 10
30.74199999996925
 20
4.339123779706602
 30
0.0
 11
29.30199999996933
 21
5.77912377970652
 31
0.0
  0
LINE
  5
AF59
330
AF0E
100
AcDbEntity
  8
0
  6
CONTINUOUS
100
AcDbLine
 10
30.74199999996925
 20
5.012642988786785
 30
0.0
 11
29.30199999996933
 21
6.452642988786707
 31
0.0
  0
LINE
  5
AF5A
330
AF0E
100
AcDbEntity
  8
0
  6
CONTINUOUS
100
AcDbLine
 10
30.74199999996925
 20
5.68616219786697
 30
0.0
 11
29.30199999996933
 21
7.126162197866894
 31
0.0
  0
LINE
  5
AF5B
330
AF0E
100
AcDbEntity
  8
0
  6
CONTINUOUS
100
AcDbLine
 10
30.74199999996925
 20
6.359681406947153
 30
0.0
 11
29.30199999996933
 21
7.799681406947081
 31
0.0
  0
LINE
  5
AF5C
330
AF0E
100
AcDbEntity
  8
0
  6
CONTINUOUS
100
AcDbLine
 10
30.74199999996926
 20
7.033200616027337
 30
0.0
 11
29.30199999996933
 21
8.473200616027269
 31
0.0
  0
LINE
  5
AF5D
330
AF0E
100
AcDbEntity
  8
0
  6
CONTINUOUS
100
AcDbLine
 10
30.74199999996926
 20
7.706719825107518
 30
0.0
 11
29.68561982508552
 21
8.763099999991255
 31
0.0
  0
LINE
  5
AF5E
330
AF0E
100
AcDbEntity
  8
0
  6
CONTINUOUS
100
AcDbLine
 10
30.74199999996926
 20
8.380239034187703
 30
0.0
 11
30.35913903416571
 21
8.763099999991255
 31
0.0
  0
ENDBLK
  5
B001
330
AF0E
100
AcDbEntity
  8
0
100
AcDbBlockEnd
  0
BLOCK
  5
B002
330
AF5F
100
AcDbEntity
  8
0
100
AcDbBlockBegin
  2
*X30
 70
     1
 10
0.0
 20
0.0
 30
0.0
  3
*X30
  1

  0
LINE
  5
AF60
330
AF5F
100
AcDbEntity
  8
0
  6
CONTINUOUS
100
AcDbLine
 10
31.64199999996833
 20
8.535058289913598
 30
0.0
 11
31.87004171004599
 21
8.763099999991255
 31
0.0
  0
LINE
  5
AF61
330
AF5F
100
AcDbEntity
  8
0
  6
CONTINUOUS
100
AcDbLine
 10
31.64199999996833
 20
7.861539080833412
 30
0.0
 11
32.54356091912618
 21
8.763099999991255
 31
0.0
  0
LINE
  5
AF62
330
AF5F
100
AcDbEntity
  8
0
  6
CONTINUOUS
100
AcDbLine
 10
31.64199999996833
 20
7.188019871753226
 30
0.0
 11
33.08199999996839
 21
8.628019871753281
 31
0.0
  0
LINE
  5
AF63
330
AF5F
100
AcDbEntity
  8
0
  6
CONTINUOUS
100
AcDbLine
 10
31.64199999996833
 20
6.51450066267304
 30
0.0
 11
33.08199999996839
 21
7.954500662673095
 31
0.0
  0
LINE
  5
AF64
330
AF5F
100
AcDbEntity
  8
0
  6
CONTINUOUS
100
AcDbLine
 10
31.64199999996833
 20
5.840981453592853
 30
0.0
 11
33.08199999996839
 21
7.280981453592908
 31
0.0
  0
LINE
  5
AF65
330
AF5F
100
AcDbEntity
  8
0
  6
CONTINUOUS
100
AcDbLine
 10
31.64199999996833
 20
5.167462244512667
 30
0.0
 11
33.08199999996839
 21
6.607462244512721
 31
0.0
  0
LINE
  5
AF66
330
AF5F
100
AcDbEntity
  8
0
  6
CONTINUOUS
100
AcDbLine
 10
31.64199999996833
 20
4.493943035432481
 30
0.0
 11
33.08199999996839
 21
5.933943035432535
 31
0.0
  0
LINE
  5
AF67
330
AF5F
100
AcDbEntity
  8
0
  6
CONTINUOUS
100
AcDbLine
 10
31.64199999996833
 20
3.820423826352293
 30
0.0
 11
33.08199999996839
 21
5.260423826352348
 31
0.0
  0
LINE
  5
AF68
330
AF5F
100
AcDbEntity
  8
0
  6
CONTINUOUS
100
AcDbLine
 10
31.64199999996833
 20
3.146904617272106
 30
0.0
 11
33.08199999996839
 21
4.586904617272161
 31
0.0
  0
LINE
  5
AF69
330
AF5F
100
AcDbEntity
  8
0
  6
CONTINUOUS
100
AcDbLine
 10
36.23199999996837
 20
8.410423826352325
 30
0.0
 11
36.5846761736073
 21
8.763099999991255
 31
0.0
  0
LINE
  5
AF6A
330
AF5F
100
AcDbEntity
  8
0
  6
CONTINUOUS
100
AcDbLine
 10
36.23199999996837
 20
7.73690461727214
 30
0.0
 11
37.25819538268748
 21
8.763099999991255
 31
0.0
  0
LINE
  5
AF6B
330
AF5F
100
AcDbEntity
  8
0
  6
CONTINUOUS
100
AcDbLine
 10
31.64257403601376
 20
2.473959444237348
 30
0.0
 11
33.08199999996839
 21
3.913385408191974
 31
0.0
  0
LINE
  5
AF6C
330
AF5F
100
AcDbEntity
  8
0
  6
CONTINUOUS
100
AcDbLine
 10
36.23199999996837
 20
7.063385408191953
 30
0.0
 11
37.67199999996831
 21
8.503385408191894
 31
0.0
  0
LINE
  5
AF6D
330
AF5F
100
AcDbEntity
  8
0
  6
CONTINUOUS
100
AcDbLine
 10
31.72013636841932
 20
1.87800256756272
 30
0.0
 11
33.08199999996839
 21
3.239866199111788
 31
0.0
  0
LINE
  5
AF6E
330
AF5F
100
AcDbEntity
  8
0
  6
CONTINUOUS
100
AcDbLine
 10
36.23199999996837
 20
6.389866199111767
 30
0.0
 11
37.67199999996831
 21
7.829866199111708
 31
0.0
  0
LINE
  5
AF6F
330
AF5F
100
AcDbEntity
  8
0
  6
CONTINUOUS
100
AcDbLine
 10
31.89042734314753
 20
1.374774333210744
 30
0.0
 11
33.08199999996839
 21
2.566346990031601
 31
0.0
  0
LINE
  5
AF70
330
AF5F
100
AcDbEntity
  8
0
  6
CONTINUOUS
100
AcDbLine
 10
36.23199999996837
 20
5.71634699003158
 30
0.0
 11
37.67199999996831
 21
7.156346990031521
 31
0.0
  0
LINE
  5
AF71
330
AF5F
100
AcDbEntity
  8
0
  6
CONTINUOUS
100
AcDbLine
 10
32.14210568064475
 20
0.952933461627778
 30
0.0
 11
33.18745552475986
 21
1.998283305742888
 31
0.0
  0
LINE
  5
AF72
330
AF5F
100
AcDbEntity
  8
0
  6
CONTINUOUS
100
AcDbLine
 10
36.23199999996837
 20
5.042827780951393
 30
0.0
 11
37.67199999996831
 21
6.482827780951334
 31
0.0
  0
LINE
  5
AF73
330
AF5F
100
AcDbEntity
  8
0
  6
CONTINUOUS
100
AcDbLine
 10
32.45820639400955
 20
0.5955149659123915
 30
0.0
 11
33.47242681921943
 21
1.60973539112227
 31
0.0
  0
LINE
  5
AF74
330
AF5F
100
AcDbEntity
  8
0
  6
CONTINUOUS
100
AcDbLine
 10
36.23199999996837
 20
4.369308571871207
 30
0.0
 11
37.67199999996831
 21
5.809308571871147
 31
0.0
  0
LINE
  5
AF75
330
AF5F
100
AcDbEntity
  8
0
  6
CONTINUOUS
100
AcDbLine
 10
32.83432456621412
 20
0.2981139290367771
 30
0.0
 11
33.89722476612215
 21
1.361014128944803
 31
0.0
  0
LINE
  5
AF76
330
AF5F
100
AcDbEntity
  8
0
  6
CONTINUOUS
100
AcDbLine
 10
36.23199999996837
 20
3.69578936279102
 30
0.0
 11
37.67199999996831
 21
5.135789362790962
 31
0.0
  0
LINE
  5
AF77
330
AF5F
100
AcDbEntity
  8
0
  6
CONTINUOUS
100
AcDbLine
 10
33.2711633111245
 20
0.0614334648669672
 30
0.0
 11
34.43247338014423
 21
1.222743533886696
 31
0.0
  0
LINE
  5
AF78
330
AF5F
100
AcDbEntity
  8
0
  6
CONTINUOUS
100
AcDbLine
 10
36.23199999996837
 20
3.022270153710834
 30
0.0
 11
37.67199999996831
 21
4.462270153710775
 31
0.0
  0
LINE
  5
AF79
330
AF5F
100
AcDbEntity
  8
0
  6
CONTINUOUS
100
AcDbLine
 10
33.76515245874577
 20
-0.1180965965919523
 30
0.0
 11
35.1587445516215
 21
1.27549549628378
 31
0.0
  0
LINE
  5
AF7A
330
AF5F
100
AcDbEntity
  8
0
  6
CONTINUOUS
100
AcDbLine
 10
36.21639478609585
 20
2.333145730758136
 30
0.0
 11
37.67199999996831
 21
3.788750944630588
 31
0.0
  0
LINE
  5
AF7B
330
AF5F
100
AcDbEntity
  8
0
  6
CONTINUOUS
100
AcDbLine
 10
34.34060583368432
 20
-0.2161624307335863
 30
0.0
 11
37.67199999996831
 21
3.115231735550401
 31
0.0
  0
LINE
  5
AF7C
330
AF5F
100
AcDbEntity
  8
0
  6
CONTINUOUS
100
AcDbLine
 10
35.01698193613905
 20
-0.2133055373590427
 30
0.0
 11
37.66876712070525
 21
2.438479647207154
 31
0.0
  0
LINE
  5
AF7D
330
AF5F
100
AcDbEntity
  8
0
  6
CONTINUOUS
100
AcDbLine
 10
35.90743367693304
 20
0.0036269943547609
 30
0.0
 11
37.51723902192366
 21
1.613432339345381
 31
0.0
  0
LINE
  5
AF7E
330
AF5F
100
AcDbEntity
  8
0
  6
CONTINUOUS
100
AcDbLine
 10
32.55309425579761
 20
0.5074718966376706
 30
0.0
 11
32.27784730925847
 21
0.7827188431768102
 31
0.0
  0
LINE
  5
AF7F
330
AF5F
100
AcDbEntity
  8
0
  6
CONTINUOUS
100
AcDbLine
 10
33.87496468909684
 20
-0.1408793275813673
 30
0.0
 11
31.67993083278052
 21
2.054154528734943
 31
0.0
  0
LINE
  5
AF80
330
AF5F
100
AcDbEntity
  8
0
  6
CONTINUOUS
100
AcDbLine
 10
34.64362813207632
 20
-0.2360235614806649
 30
0.0
 11
31.64199999996833
 21
2.765604570627322
 31
0.0
  0
LINE
  5
AF81
330
AF5F
100
AcDbEntity
  8
0
  6
CONTINUOUS
100
AcDbLine
 10
35.25801106796118
 20
-0.1768872882853429
 30
0.0
 11
31.64199999996833
 21
3.439123779707508
 31
0.0
  0
LINE
  5
AF82
330
AF5F
100
AcDbEntity
  8
0
  6
CONTINUOUS
100
AcDbLine
 10
35.79065650332146
 20
-0.0360135145654361
 30
0.0
 11
34.54143210838231
 21
1.213210880373721
 31
0.0
  0
LINE
  5
AF83
330
AF5F
100
AcDbEntity
  8
0
  6
CONTINUOUS
100
AcDbLine
 10
33.08199999996839
 20
2.67264298878764
 30
0.0
 11
31.64199999996833
 21
4.112642988787695
 31
0.0
  0
LINE
  5
AF84
330
AF5F
100
AcDbEntity
  8
0
  6
CONTINUOUS
100
AcDbLine
 10
36.25975597779143
 20
0.1684062200447833
 30
0.0
 11
35.15395110240023
 21
1.274211095435983
 31
0.0
  0
LINE
  5
AF85
330
AF5F
100
AcDbEntity
  8
0
  6
CONTINUOUS
100
AcDbLine
 10
33.08199999996839
 20
3.346162197867826
 30
0.0
 11
31.64199999996833
 21
4.786162197867881
 31
0.0
  0
LINE
  5
AF86
330
AF5F
100
AcDbEntity
  8
0
  6
CONTINUOUS
100
AcDbLine
 10
36.67226329638774
 20
0.4294181105286579
 30
0.0
 11
35.63766478748767
 21
1.464016619428737
 31
0.0
  0
LINE
  5
AF87
330
AF5F
100
AcDbEntity
  8
0
  6
CONTINUOUS
100
AcDbLine
 10
33.08199999996839
 20
4.019681406948012
 30
0.0
 11
31.64199999996833
 21
5.459681406948068
 31
0.0
  0
LINE
  5
AF88
330
AF5F
100
AcDbEntity
  8
0
  6
CONTINUOUS
100
AcDbLine
 10
37.01677749710036
 20
0.7584231188962329
 30
0.0
 11
35.99563422741351
 21
1.779566388583076
 31
0.0
  0
LINE
  5
AF89
330
AF5F
100
AcDbEntity
  8
0
  6
CONTINUOUS
100
AcDbLine
 10
33.08199999996839
 20
4.693200616028199
 30
0.0
 11
31.64199999996833
 21
6.133200616028255
 31
0.0
  0
LINE
  5
AF8A
330
AF5F
100
AcDbEntity
  8
0
  6
CONTINUOUS
100
AcDbLine
 10
37.29859977568887
 20
1.1501200493879
 30
0.0
 11
36.20680593341555
 21
2.241913891661226
 31
0.0
  0
LINE
  5
AF8B
330
AF5F
100
AcDbEntity
  8
0
  6
CONTINUOUS
100
AcDbLine
 10
33.08199999996839
 20
5.366719825108386
 30
0.0
 11
31.64199999996833
 21
6.80671982510844
 31
0.0
  0
LINE
  5
AF8C
330
AF5F
100
AcDbEntity
  8
0
  6
CONTINUOUS
100
AcDbLine
 10
37.5148623517228
 20
1.607376682434161
 30
0.0
 11
36.23199999996837
 21
2.890239034188594
 31
0.0
  0
LINE
  5
AF8D
330
AF5F
100
AcDbEntity
  8
0
  6
CONTINUOUS
100
AcDbLine
 10
33.08199999996839
 20
6.040239034188573
 30
0.0
 11
31.64199999996833
 21
7.480239034188627
 31
0.0
  0
LINE
  5
AF8E
330
AF5F
100
AcDbEntity
  8
0
  6
CONTINUOUS
100
AcDbLine
 10
37.64705163358367
 20
2.148706609653477
 30
0.0
 11
36.23199999996837
 21
3.56375824326878
 31
0.0
  0
LINE
  5
AF8F
330
AF5F
100
AcDbEntity
  8
0
  6
CONTINUOUS
100
AcDbLine
 10
33.08199999996839
 20
6.713758243268758
 30
0.0
 11
31.64199999996833
 21
8.153758243268815
 31
0.0
  0
LINE
  5
AF90
330
AF5F
100
AcDbEntity
  8
0
  6
CONTINUOUS
100
AcDbLine
 10
37.67199999996831
 20
2.797277452349026
 30
0.0
 11
36.23199999996837
 21
4.237277452348967
 31
0.0
  0
LINE
  5
AF91
330
AF5F
100
AcDbEntity
  8
0
  6
CONTINUOUS
100
AcDbLine
 10
37.67199999996831
 20
3.470796661429213
 30
0.0
 11
36.23199999996837
 21
4.910796661429154
 31
0.0
  0
LINE
  5
AF92
330
AF5F
100
AcDbEntity
  8
0
  6
CONTINUOUS
100
AcDbLine
 10
37.67199999996831
 20
4.144315870509399
 30
0.0
 11
36.23199999996837
 21
5.58431587050934
 31
0.0
  0
LINE
  5
AF93
330
AF5F
100
AcDbEntity
  8
0
  6
CONTINUOUS
100
AcDbLine
 10
33.08199999996839
 20
7.387277452348945
 30
0.0
 11
31.70617745232608
 21
8.763099999991255
 31
0.0
  0
LINE
  5
AF94
330
AF5F
100
AcDbEntity
  8
0
  6
CONTINUOUS
100
AcDbLine
 10
33.08199999996839
 20
8.060796661429132
 30
0.0
 11
32.37969666140626
 21
8.763099999991255
 31
0.0
  0
LINE
  5
AF95
330
AF5F
100
AcDbEntity
  8
0
  6
CONTINUOUS
100
AcDbLine
 10
33.08199999996839
 20
8.734315870509318
 30
0.0
 11
33.05321587048645
 21
8.763099999991255
 31
0.0
  0
LINE
  5
AF96
330
AF5F
100
AcDbEntity
  8
0
  6
CONTINUOUS
100
AcDbLine
 10
37.67199999996831
 20
4.817835079589585
 30
0.0
 11
36.23199999996837
 21
6.257835079589526
 31
0.0
  0
LINE
  5
AF97
330
AF5F
100
AcDbEntity
  8
0
  6
CONTINUOUS
100
AcDbLine
 10
37.67199999996831
 20
5.491354288669771
 30
0.0
 11
36.23199999996837
 21
6.931354288669713
 31
0.0
  0
LINE
  5
AF98
330
AF5F
100
AcDbEntity
  8
0
  6
CONTINUOUS
100
AcDbLine
 10
37.67199999996831
 20
6.164873497749958
 30
0.0
 11
36.23199999996837
 21
7.6048734977499
 31
0.0
  0
LINE
  5
AF99
330
AF5F
100
AcDbEntity
  8
0
  6
CONTINUOUS
100
AcDbLine
 10
37.67199999996831
 20
6.838392706830144
 30
0.0
 11
36.23199999996837
 21
8.278392706830086
 31
0.0
  0
LINE
  5
AF9A
330
AF5F
100
AcDbEntity
  8
0
  6
CONTINUOUS
100
AcDbLine
 10
37.67199999996831
 20
7.511911915910332
 30
0.0
 11
36.42081191588738
 21
8.763099999991255
 31
0.0
  0
LINE
  5
AF9B
330
AF5F
100
AcDbEntity
  8
0
  6
CONTINUOUS
100
AcDbLine
 10
37.67199999996831
 20
8.185431124990519
 30
0.0
 11
37.09433112496757
 21
8.763099999991255
 31
0.0
  0
ENDBLK
  5
B003
330
AF5F
100
AcDbEntity
  8
0
100
AcDbBlockEnd
  0
BLOCK
  5
B004
330
AF9C
100
AcDbEntity
  8
0
100
AcDbBlockBegin
  2
*X31
 70
     1
 10
0.0
 20
0.0
 30
0.0
  3
*X31
  1

  0
LINE
  5
AF9D
330
AF9C
100
AcDbEntity
  8
0
  6
CONTINUOUS
100
AcDbLine
 10
38.60499999996136
 20
8.762866199104765
 30
0.0
 11
38.71672554182345
 21
8.874591740966855
 31
0.0
  0
LINE
  5
AF9E
330
AF9C
100
AcDbEntity
  8
0
  6
CONTINUOUS
100
AcDbLine
 10
38.60499999996136
 20
8.089346990024577
 30
0.0
 11
39.03418785440363
 21
8.518534844466847
 31
0.0
  0
LINE
  5
AF9F
330
AF9C
100
AcDbEntity
  8
0
  6
CONTINUOUS
100
AcDbLine
 10
38.60499999996136
 20
7.41582778094439
 30
0.0
 11
39.35165016698382
 21
8.16247794796684
 31
0.0
  0
LINE
  5
AFA0
330
AF9C
100
AcDbEntity
  8
0
  6
CONTINUOUS
100
AcDbLine
 10
38.60499999996136
 20
6.742308571864204
 30
0.0
 11
39.66911247956399
 21
7.806421051466834
 31
0.0
  0
LINE
  5
AFA1
330
AF9C
100
AcDbEntity
  8
0
  6
CONTINUOUS
100
AcDbLine
 10
38.60499999996136
 20
6.068789362784018
 30
0.0
 11
39.98657479214418
 21
7.450364154966827
 31
0.0
  0
LINE
  5
AFA2
330
AF9C
100
AcDbEntity
  8
0
  6
CONTINUOUS
100
AcDbLine
 10
38.60499999996136
 20
5.395270153703832
 30
0.0
 11
40.30403710472435
 21
7.09430725846682
 31
0.0
  0
LINE
  5
AFA3
330
AF9C
100
AcDbEntity
  8
0
  6
CONTINUOUS
100
AcDbLine
 10
38.60499999996136
 20
4.721750944623645
 30
0.0
 11
40.62149941730453
 21
6.738250361966813
 31
0.0
  0
LINE
  5
AFA4
330
AF9C
100
AcDbEntity
  8
0
  6
CONTINUOUS
100
AcDbLine
 10
38.60499999996136
 20
4.048231735543458
 30
0.0
 11
40.93896172988471
 21
6.382193465466806
 31
0.0
  0
LINE
  5
AFA5
330
AF9C
100
AcDbEntity
  8
0
  6
CONTINUOUS
100
AcDbLine
 10
38.60499999996136
 20
3.374712526463272
 30
0.0
 11
40.02599999995994
 21
4.795712526461843
 31
0.0
  0
LINE
  5
AFA6
330
AF9C
100
AcDbEntity
  8
0
  6
CONTINUOUS
100
AcDbLine
 10
38.60499999996136
 20
2.701193317383085
 30
0.0
 11
40.02599999995994
 21
4.122193317381657
 31
0.0
  0
LINE
  5
AFA7
330
AF9C
100
AcDbEntity
  8
0
  6
CONTINUOUS
100
AcDbLine
 10
40.28339754687704
 20
5.053110073378947
 30
0.0
 11
41.25642404246489
 21
6.026136568966799
 31
0.0
  0
LINE
  5
AFA8
330
AF9C
100
AcDbEntity
  8
0
  6
CONTINUOUS
100
AcDbLine
 10
40.60085985945722
 20
4.697053176878939
 30
0.0
 11
41.57388635504507
 21
5.670079672466793
 31
0.0
  0
LINE
  5
AFA9
330
AF9C
100
AcDbEntity
  8
0
  6
CONTINUOUS
100
AcDbLine
 10
43.57899999995641
 20
8.348712526458318
 30
0.0
 11
43.99338747348935
 21
8.763099999991255
 31
0.0
  0
LINE
  5
AFAA
330
AF9C
100
AcDbEntity
  8
0
  6
CONTINUOUS
100
AcDbLine
 10
43.57899999995641
 20
7.675193317378131
 30
0.0
 11
44.66690668256953
 21
8.763099999991255
 31
0.0
  0
LINE
  5
AFAB
330
AF9C
100
AcDbEntity
  8
0
  6
CONTINUOUS
100
AcDbLine
 10
38.60499999996136
 20
2.027674108302898
 30
0.0
 11
40.02599999995994
 21
3.44867410830147
 31
0.0
  0
LINE
  5
AFAC
330
AF9C
100
AcDbEntity
  8
0
  6
CONTINUOUS
100
AcDbLine
 10
38.60499999996136
 20
1.354154899222712
 30
0.0
 11
40.02599999995994
 21
2.775154899221284
 31
0.0
  0
LINE
  5
AFAD
330
AF9C
100
AcDbEntity
  8
0
  6
CONTINUOUS
100
AcDbLine
 10
38.60499999996136
 20
0.6806356901425255
 30
0.0
 11
40.02599999995994
 21
2.101635690141098
 31
0.0
  0
LINE
  5
AFAE
330
AF9C
100
AcDbEntity
  8
0
  6
CONTINUOUS
100
AcDbLine
 10
38.60499999996136
 20
0.0071164810623383
 30
0.0
 11
40.02599999995994
 21
1.428116481060911
 31
0.0
  0
LINE
  5
AFAF
330
AF9C
100
AcDbEntity
  8
0
  6
CONTINUOUS
100
AcDbLine
 10
40.9183221720374
 20
4.340996280378933
 30
0.0
 11
41.89134866762525
 21
5.314022775966786
 31
0.0
  0
LINE
  5
AFB0
330
AF9C
100
AcDbEntity
  8
0
  6
CONTINUOUS
100
AcDbLine
 10
41.23578448461758
 20
3.984939383878926
 30
0.0
 11
42.20881098020543
 21
4.957965879466778
 31
0.0
  0
LINE
  5
AFB1
330
AF9C
100
AcDbEntity
  8
0
  6
CONTINUOUS
100
AcDbLine
 10
41.55324679719776
 20
3.628882487378919
 30
0.0
 11
42.52627329278561
 21
4.601908982966772
 31
0.0
  0
LINE
  5
AFB2
330
AF9C
100
AcDbEntity
  8
0
  6
CONTINUOUS
100
AcDbLine
 10
41.87070910977793
 20
3.272825590878912
 30
0.0
 11
42.84373560536579
 21
4.245852086466765
 31
0.0
  0
LINE
  5
AFB3
330
AF9C
100
AcDbEntity
  8
0
  6
CONTINUOUS
100
AcDbLine
 10
43.57899999995641
 20
7.001674108297943
 30
0.0
 11
44.99999999995498
 21
8.422674108296516
 31
0.0
  0
LINE
  5
AFB4
330
AF9C
100
AcDbEntity
  8
0
  6
CONTINUOUS
100
AcDbLine
 10
43.57899999995641
 20
6.328154899217758
 30
0.0
 11
44.99999999995498
 21
7.749154899216329
 31
0.0
  0
LINE
  5
AFB5
330
AF9C
100
AcDbEntity
  8
0
  6
CONTINUOUS
100
AcDbLine
 10
43.57899999995641
 20
5.654635690137571
 30
0.0
 11
44.99999999995498
 21
7.075635690136142
 31
0.0
  0
LINE
  5
AFB6
330
AF9C
100
AcDbEntity
  8
0
  6
CONTINUOUS
100
AcDbLine
 10
43.57899999995641
 20
4.981116481057384
 30
0.0
 11
44.99999999995498
 21
6.402116481055955
 31
0.0
  0
LINE
  5
AFB7
330
AF9C
100
AcDbEntity
  8
0
  6
CONTINUOUS
100
AcDbLine
 10
39.27140272797921
 20
-0.0000000000000009
 30
0.0
 11
40.02599999995994
 21
0.7545972719807246
 31
0.0
  0
LINE
  5
AFB8
330
AF9C
100
AcDbEntity
  8
0
  6
CONTINUOUS
100
AcDbLine
 10
39.9449219370594
 20
-0.0000000000000009
 30
0.0
 11
40.02599999995994
 21
0.0810780629005379
 31
0.0
  0
LINE
  5
AFB9
330
AF9C
100
AcDbEntity
  8
0
  6
CONTINUOUS
100
AcDbLine
 10
42.18817142235812
 20
2.916768694378905
 30
0.0
 11
43.16119791794597
 21
3.889795189966758
 31
0.0
  0
LINE
  5
AFBA
330
AF9C
100
AcDbEntity
  8
0
  6
CONTINUOUS
100
AcDbLine
 10
42.50563373493829
 20
2.560711797878898
 30
0.0
 11
43.47866023052615
 21
3.533738293466751
 31
0.0
  0
LINE
  5
AFBB
330
AF9C
100
AcDbEntity
  8
0
  6
CONTINUOUS
100
AcDbLine
 10
43.57899999995641
 20
4.307597271977198
 30
0.0
 11
44.99999999995498
 21
5.728597271975769
 31
0.0
  0
LINE
  5
AFBC
330
AF9C
100
AcDbEntity
  8
0
  6
CONTINUOUS
100
AcDbLine
 10
43.57899999995641
 20
3.634078062897011
 30
0.0
 11
44.99999999995498
 21
5.055078062895582
 31
0.0
  0
LINE
  5
AFBD
330
AF9C
100
AcDbEntity
  8
0
  6
CONTINUOUS
100
AcDbLine
 10
42.82309604751848
 20
2.204654901378891
 30
0.0
 11
44.99999999995498
 21
4.381558853815395
 31
0.0
  0
LINE
  5
AFBE
330
AF9C
100
AcDbEntity
  8
0
  6
CONTINUOUS
100
AcDbLine
 10
43.14055836009865
 20
1.848598004878885
 30
0.0
 11
44.99999999995498
 21
3.70803964473521
 31
0.0
  0
LINE
  5
AFBF
330
AF9C
100
AcDbEntity
  8
0
  6
CONTINUOUS
100
AcDbLine
 10
43.45802067267883
 20
1.492541108378878
 30
0.0
 11
44.99999999995498
 21
3.034520435655023
 31
0.0
  0
LINE
  5
AFC0
330
AF9C
100
AcDbEntity
  8
0
  6
CONTINUOUS
100
AcDbLine
 10
43.77548298525902
 20
1.136484211878871
 30
0.0
 11
44.99999999995498
 21
2.361001226574837
 31
0.0
  0
LINE
  5
AFC1
330
AF9C
100
AcDbEntity
  8
0
  6
CONTINUOUS
100
AcDbLine
 10
44.09294529783919
 20
0.7804273153788639
 30
0.0
 11
44.99999999995498
 21
1.687482017494649
 31
0.0
  0
LINE
  5
AFC2
330
AF9C
100
AcDbEntity
  8
0
  6
CONTINUOUS
100
AcDbLine
 10
44.41040761041938
 20
0.4243704188788566
 30
0.0
 11
44.99999999995498
 21
1.013962808414463
 31
0.0
  0
LINE
  5
AFC3
330
AF9C
100
AcDbEntity
  8
0
  6
CONTINUOUS
100
AcDbLine
 10
44.72786992299955
 20
0.0683135223788494
 30
0.0
 11
44.99999999995498
 21
0.340443599334276
 31
0.0
  0
LINE
  5
AFC4
330
AF9C
100
AcDbEntity
  8
0
  6
CONTINUOUS
100
AcDbLine
 10
39.12223903415696
 20
-0.0000000000000009
 30
0.0
 11
38.60499999996136
 21
0.5172390341955961
 31
0.0
  0
LINE
  5
AFC5
330
AF9C
100
AcDbEntity
  8
0
  6
CONTINUOUS
100
AcDbLine
 10
39.79575824323715
 20
-0.0000000000000009
 30
0.0
 11
38.60499999996136
 21
1.190758243275783
 31
0.0
  0
LINE
  5
AFC6
330
AF9C
100
AcDbEntity
  8
0
  6
CONTINUOUS
100
AcDbLine
 10
40.02599999995994
 20
0.443277452357397
 30
0.0
 11
38.60499999996136
 21
1.864277452355969
 31
0.0
  0
LINE
  5
AFC7
330
AF9C
100
AcDbEntity
  8
0
  6
CONTINUOUS
100
AcDbLine
 10
40.02599999995994
 20
1.116796661437583
 30
0.0
 11
38.60499999996136
 21
2.537796661436155
 31
0.0
  0
LINE
  5
AFC8
330
AF9C
100
AcDbEntity
  8
0
  6
CONTINUOUS
100
AcDbLine
 10
40.02599999995994
 20
1.79031587051777
 30
0.0
 11
38.60499999996136
 21
3.211315870516341
 31
0.0
  0
LINE
  5
AFC9
330
AF9C
100
AcDbEntity
  8
0
  6
CONTINUOUS
100
AcDbLine
 10
40.02599999995994
 20
2.463835079597956
 30
0.0
 11
38.60499999996136
 21
3.884835079596527
 31
0.0
  0
LINE
  5
AFCA
330
AF9C
100
AcDbEntity
  8
0
  6
CONTINUOUS
100
AcDbLine
 10
40.02599999995994
 20
3.137354288678143
 30
0.0
 11
38.60499999996136
 21
4.558354288676714
 31
0.0
  0
LINE
  5
AFCB
330
AF9C
100
AcDbEntity
  8
0
  6
CONTINUOUS
100
AcDbLine
 10
40.02599999995994
 20
3.810873497758329
 30
0.0
 11
38.60499999996136
 21
5.2318734977569
 31
0.0
  0
LINE
  5
AFCC
330
AF9C
100
AcDbEntity
  8
0
  6
CONTINUOUS
100
AcDbLine
 10
40.02599999995994
 20
4.484392706838515
 30
0.0
 11
38.60499999996136
 21
5.905392706837086
 31
0.0
  0
LINE
  5
AFCD
330
AF9C
100
AcDbEntity
  8
0
  6
CONTINUOUS
100
AcDbLine
 10
44.99999999995498
 20
0.183911915923658
 30
0.0
 11
41.53858364506288
 21
3.64532827081576
 31
0.0
  0
LINE
  5
AFCE
330
AF9C
100
AcDbEntity
  8
0
  6
CONTINUOUS
100
AcDbLine
 10
40.02599999995994
 20
5.157911915918703
 30
0.0
 11
38.60499999996136
 21
6.578911915917274
 31
0.0
  0
LINE
  5
AFCF
330
AF9C
100
AcDbEntity
  8
0
  6
CONTINUOUS
100
AcDbLine
 10
44.99999999995498
 20
0.8574311250038447
 30
0.0
 11
38.60499999996136
 21
7.25243112499746
 31
0.0
  0
LINE
  5
AFD0
330
AF9C
100
AcDbEntity
  8
0
  6
CONTINUOUS
100
AcDbLine
 10
44.99999999995498
 20
1.530950334084031
 30
0.0
 11
38.60499999996136
 21
7.925950334077647
 31
0.0
  0
LINE
  5
AFD1
330
AF9C
100
AcDbEntity
  8
0
  6
CONTINUOUS
100
AcDbLine
 10
44.99999999995498
 20
2.204469543164218
 30
0.0
 11
43.57899999995641
 21
3.625469543162789
 31
0.0
  0
LINE
  5
AFD2
330
AF9C
100
AcDbEntity
  8
0
  6
CONTINUOUS
100
AcDbLine
 10
41.89876730984767
 20
5.305702233271528
 30
0.0
 11
38.60499999996136
 21
8.599469543157834
 31
0.0
  0
LINE
  5
AFD3
330
AF9C
100
AcDbEntity
  8
0
  6
CONTINUOUS
100
AcDbLine
 10
44.99999999995498
 20
2.877988752244405
 30
0.0
 11
43.57899999995641
 21
4.298988752242975
 31
0.0
  0
LINE
  5
AFD4
330
AF9C
100
AcDbEntity
  8
0
  6
CONTINUOUS
100
AcDbLine
 10
44.99999999995498
 20
3.551507961324591
 30
0.0
 11
43.57899999995641
 21
4.972507961323163
 31
0.0
  0
LINE
  5
AFD5
330
AF9C
100
AcDbEntity
  8
0
  6
CONTINUOUS
100
AcDbLine
 10
44.99999999995498
 20
4.225027170404777
 30
0.0
 11
43.57899999995641
 21
5.646027170403348
 31
0.0
  0
LINE
  5
AFD6
330
AF9C
100
AcDbEntity
  8
0
  6
CONTINUOUS
100
AcDbLine
 10
44.99999999995498
 20
4.898546379484964
 30
0.0
 11
43.57899999995641
 21
6.319546379483535
 31
0.0
  0
LINE
  5
AFD7
330
AF9C
100
AcDbEntity
  8
0
  6
CONTINUOUS
100
AcDbLine
 10
44.99999999995498
 20
5.572065588565151
 30
0.0
 11
43.57899999995641
 21
6.993065588563722
 31
0.0
  0
LINE
  5
AFD8
330
AF9C
100
AcDbEntity
  8
0
  6
CONTINUOUS
100
AcDbLine
 10
44.99999999995498
 20
6.245584797645336
 30
0.0
 11
43.57899999995641
 21
7.666584797643908
 31
0.0
  0
LINE
  5
AFD9
330
AF9C
100
AcDbEntity
  8
0
  6
CONTINUOUS
100
AcDbLine
 10
44.99999999995498
 20
6.919104006725522
 30
0.0
 11
43.57899999995641
 21
8.340104006724093
 31
0.0
  0
LINE
  5
AFDA
330
AF9C
100
AcDbEntity
  8
0
  6
CONTINUOUS
100
AcDbLine
 10
44.99999999995498
 20
7.592623215805709
 30
0.0
 11
43.82952321576943
 21
8.763099999991255
 31
0.0
  0
LINE
  5
AFDB
330
AF9C
100
AcDbEntity
  8
0
  6
CONTINUOUS
100
AcDbLine
 10
44.99999999995498
 20
8.266142424885896
 30
0.0
 11
44.50304242484962
 21
8.763099999991255
 31
0.0
  0
ENDBLK
  5
B005
330
AF9C
100
AcDbEntity
  8
0
100
AcDbBlockEnd
  0
BLOCK
  5
B006
330
AFDC
100
AcDbEntity
  8
0
100
AcDbBlockBegin
  2
*X32
 70
     1
 10
0.0
 20
0.0
 30
0.0
  3
*X32
  1

  0
LINE
  5
AFDD
330
AFDC
100
AcDbEntity
  8
0
  6
CONTINUOUS
100
AcDbLine
 10
0.0
 20
8.548461116714023
 30
0.0
 11
0.2146388832772324
 21
8.763099999991255
 31
0.0
  0
LINE
  5
AFDE
330
AFDC
100
AcDbEntity
  8
0
  6
CONTINUOUS
100
AcDbLine
 10
-0.0000000000000002
 20
7.874941907633837
 30
0.0
 11
0.8881580923574184
 21
8.763099999991255
 31
0.0
  0
LINE
  5
AFDF
330
AFDC
100
AcDbEntity
  8
0
  6
CONTINUOUS
100
AcDbLine
 10
0.0
 20
7.20142269855365
 30
0.0
 11
1.420999999998572
 21
8.622422698552223
 31
0.0
  0
LINE
  5
AFE0
330
AFDC
100
AcDbEntity
  8
0
  6
CONTINUOUS
100
AcDbLine
 10
-0.0000000000000001
 20
6.527903489473465
 30
0.0
 11
1.420999999998571
 21
7.948903489472036
 31
0.0
  0
LINE
  5
AFE1
330
AFDC
100
AcDbEntity
  8
0
  6
CONTINUOUS
100
AcDbLine
 10
-0.0000000000000002
 20
5.854384280393278
 30
0.0
 11
1.420999999998571
 21
7.275384280391849
 31
0.0
  0
LINE
  5
AFE2
330
AFDC
100
AcDbEntity
  8
0
  6
CONTINUOUS
100
AcDbLine
 10
-0.0000000000000002
 20
5.180865071313091
 30
0.0
 11
1.420999999998571
 21
6.601865071311663
 31
0.0
  0
LINE
  5
AFE3
330
AFDC
100
AcDbEntity
  8
0
  6
CONTINUOUS
100
AcDbLine
 10
0.0
 20
4.507345862232905
 30
0.0
 11
1.420999999998571
 21
5.928345862231477
 31
0.0
  0
LINE
  5
AFE4
330
AFDC
100
AcDbEntity
  8
0
  6
CONTINUOUS
100
AcDbLine
 10
-0.0000000000000003
 20
3.833826653152718
 30
0.0
 11
1.420999999998571
 21
5.25482665315129
 31
0.0
  0
LINE
  5
AFE5
330
AFDC
100
AcDbEntity
  8
0
  6
CONTINUOUS
100
AcDbLine
 10
-0.0000000000000002
 20
3.160307444072532
 30
0.0
 11
1.420999999998571
 21
4.581307444071103
 31
0.0
  0
LINE
  5
AFE6
330
AFDC
100
AcDbEntity
  8
0
  6
CONTINUOUS
100
AcDbLine
 10
-0.0000000000000001
 20
2.486788234992345
 30
0.0
 11
1.420999999998571
 21
3.907788234990917
 31
0.0
  0
LINE
  5
AFE7
330
AFDC
100
AcDbEntity
  8
0
  6
CONTINUOUS
100
AcDbLine
 10
-0.0000000000000006
 20
1.813269025912159
 30
0.0
 11
1.420999999998571
 21
3.234269025910731
 31
0.0
  0
LINE
  5
AFE8
330
AFDC
100
AcDbEntity
  8
0
  6
CONTINUOUS
100
AcDbLine
 10
0.0
 20
1.139749816831973
 30
0.0
 11
1.420999999998571
 21
2.560749816830544
 31
0.0
  0
LINE
  5
AFE9
330
AFDC
100
AcDbEntity
  8
0
  6
CONTINUOUS
100
AcDbLine
 10
0.0000000000000002
 20
0.466230607751787
 30
0.0
 11
1.420999999998571
 21
1.887230607750358
 31
0.0
  0
LINE
  5
AFEA
330
AFDC
100
AcDbEntity
  8
0
  6
CONTINUOUS
100
AcDbLine
 10
0.2072886013284003
 20
-0.0000000000000009
 30
0.0
 11
1.420999999998571
 21
1.213711398670171
 31
0.0
  0
LINE
  5
AFEB
330
AFDC
100
AcDbEntity
  8
0
  6
CONTINUOUS
100
AcDbLine
 10
0.8808078104085864
 20
-0.0000000000000009
 30
0.0
 11
1.420999999998571
 21
0.5401921895899839
 31
0.0
  0
LINE
  5
AFEC
330
AFDC
100
AcDbEntity
  8
0
  6
CONTINUOUS
100
AcDbLine
 10
0.0581249075061505
 20
-0.0000000000000009
 30
0.0
 11
-0.0000000000000002
 21
0.0581249075061496
 31
0.0
  0
LINE
  5
AFED
330
AFDC
100
AcDbEntity
  8
0
  6
CONTINUOUS
100
AcDbLine
 10
0.7316441165863372
 20
-0.0000000000000009
 30
0.0
 11
-0.0000000000000002
 21
0.7316441165863363
 31
0.0
  0
LINE
  5
AFEE
330
AFDC
100
AcDbEntity
  8
0
  6
CONTINUOUS
100
AcDbLine
 10
1.405163325666523
 20
-0.0000000000000009
 30
0.0
 11
-0.0000000000000002
 21
1.405163325666523
 31
0.0
  0
LINE
  5
AFEF
330
AFDC
100
AcDbEntity
  8
0
  6
CONTINUOUS
100
AcDbLine
 10
1.420999999998572
 20
0.6576825347481381
 30
0.0
 11
-0.0000000000000001
 21
2.07868253474671
 31
0.0
  0
LINE
  5
AFF0
330
AFDC
100
AcDbEntity
  8
0
  6
CONTINUOUS
100
AcDbLine
 10
1.420999999998571
 20
1.331201743828324
 30
0.0
 11
-0.0000000000000001
 21
2.752201743826896
 31
0.0
  0
LINE
  5
AFF1
330
AFDC
100
AcDbEntity
  8
0
  6
CONTINUOUS
100
AcDbLine
 10
1.420999999998571
 20
2.004720952908511
 30
0.0
 11
-0.0000000000000002
 21
3.425720952907082
 31
0.0
  0
LINE
  5
AFF2
330
AFDC
100
AcDbEntity
  8
0
  6
CONTINUOUS
100
AcDbLine
 10
1.420999999998571
 20
2.678240161988697
 30
0.0
 11
-0.0000000000000001
 21
4.099240161987269
 31
0.0
  0
LINE
  5
AFF3
330
AFDC
100
AcDbEntity
  8
0
  6
CONTINUOUS
100
AcDbLine
 10
1.420999999998572
 20
3.351759371068884
 30
0.0
 11
0.0
 21
4.772759371067455
 31
0.0
  0
LINE
  5
AFF4
330
AFDC
100
AcDbEntity
  8
0
  6
CONTINUOUS
100
AcDbLine
 10
1.420999999998571
 20
4.02527858014907
 30
0.0
 11
-0.0000000000000003
 21
5.446278580147642
 31
0.0
  0
LINE
  5
AFF5
330
AFDC
100
AcDbEntity
  8
0
  6
CONTINUOUS
100
AcDbLine
 10
1.420999999998571
 20
4.698797789229257
 30
0.0
 11
0.0
 21
6.119797789227828
 31
0.0
  0
LINE
  5
AFF6
330
AFDC
100
AcDbEntity
  8
0
  6
CONTINUOUS
100
AcDbLine
 10
1.420999999998571
 20
5.372316998309444
 30
0.0
 11
-0.0000000000000001
 21
6.793316998308015
 31
0.0
  0
LINE
  5
AFF7
330
AFDC
100
AcDbEntity
  8
0
  6
CONTINUOUS
100
AcDbLine
 10
1.420999999998572
 20
6.045836207389629
 30
0.0
 11
-0.0000000000000004
 21
7.466836207388202
 31
0.0
  0
LINE
  5
AFF8
330
AFDC
100
AcDbEntity
  8
0
  6
CONTINUOUS
100
AcDbLine
 10
1.420999999998571
 20
6.719355416469816
 30
0.0
 11
0.0
 21
8.140355416468388
 31
0.0
  0
LINE
  5
AFF9
330
AFDC
100
AcDbEntity
  8
0
  6
CONTINUOUS
100
AcDbLine
 10
1.420999999998571
 20
7.392874625550003
 30
0.0
 11
0.0507746255573185
 21
8.763099999991255
 31
0.0
  0
LINE
  5
AFFA
330
AFDC
100
AcDbEntity
  8
0
  6
CONTINUOUS
100
AcDbLine
 10
1.420999999998571
 20
8.06639383463019
 30
0.0
 11
0.7242938346375052
 21
8.763099999991255
 31
0.0
  0
LINE
  5
AFFB
330
AFDC
100
AcDbEntity
  8
0
  6
CONTINUOUS
100
AcDbLine
 10
1.420999999998571
 20
8.739913043710375
 30
0.0
 11
1.397813043717691
 21
8.763099999991255
 31
0.0
  0
ENDBLK
  5
B007
330
AFDC
100
AcDbEntity
  8
0
100
AcDbBlockEnd
  0
ENDSEC
  0
SECTION
  2
ENTITIES
  0
LINE
  5
A3E8
330
18
100
AcDbEntity
  8
01
100
AcDbLine
 10
6314.436279312627
 20
317.2228512248153
 30
0.0
 11
6314.436279312627
 21
267.2228512248153
 31
0.0
  0
LINE
  5
A3E9
330
18
100
AcDbEntity
  8
01
100
AcDbLine
 10
6312.307993930197
 20
292.2228512248153
 30
0.0
 11
6334.936279312627
 21
292.2228512248153
 31
0.0
  0
TEXT
  5
A3EA
330
18
100
AcDbEntity
  8
1TEXT
100
AcDbText
 10
6314.436279312627
 20
452.2228512248153
 30
0.0
 40
10.0
  1
K6B
 41
1.0171875
100
AcDbText
  0
LINE
  5
A3EB
330
18
100
AcDbEntity
  8
01
100
AcDbLine
 10
6439.436279312627
 20
482.2228512248153
 30
0.0
 11
6489.436279312627
 21
482.2228512248153
 31
0.0
  0
LINE
  5
A3EC
330
18
100
AcDbEntity
  8
01
  6
BYBLOCK
100
AcDbLine
 10
6413.437047154945
 20
482.2228512248153
 30
0.0
 11
6567.191427309976
 21
482.2228512248153
 31
0.0
  0
LINE
  5
A3ED
330
18
100
AcDbEntity
  8
01
100
AcDbLine
 10
6464.436279312627
 20
487.2228512248153
 30
0.0
 11
6464.436279312627
 21
460.7228512248153
 31
0.0
  0
LINE
  5
A3F3
330
18
100
AcDbEntity
  8
01
100
AcDbLine
 10
6314.436279312627
 20
412.2228512248153
 30
0.0
 11
6314.436279312627
 21
222.2228512248153
 31
0.0
  0
LINE
  5
A3F4
330
18
100
AcDbEntity
  8
1CENTER
100
AcDbLine
 10
6328.936279312627
 20
277.2228512248153
 30
0.0
 11
6328.936279312627
 21
285.2228512248153
 31
0.0
  0
LINE
  5
A3F5
330
18
100
AcDbEntity
  8
01
100
AcDbLine
 10
6434.436279312627
 20
292.2228512248153
 30
0.0
 11
6494.436279312627
 21
292.2228512248153
 31
0.0
  0
LINE
  5
A3F6
330
18
100
AcDbEntity
  8
01
100
AcDbLine
 10
6464.436279312627
 20
322.2228512248153
 30
0.0
 11
6464.436279312627
 21
262.2228512248153
 31
0.0
  0
LINE
  5
A3F7
330
18
100
AcDbEntity
  8
01
100
AcDbLine
 10
6435.936279312626
 20
482.2228512248153
 30
0.0
 11
6435.936279312626
 21
478.6903576327841
 31
0.0
  0
ARC
  5
A3F8
330
18
100
AcDbEntity
  8
01
100
AcDbCircle
 10
6436.436279312626
 20
478.6903576327841
 30
0.0
 40
0.5
100
AcDbArc
 50
180.0
 51
236.2947042117073
  0
LINE
  5
A3F9
330
18
100
AcDbEntity
  8
01
100
AcDbLine
 10
6439.655382376433
 20
474.2895045696591
 30
0.0
 11
6439.450701519972
 21
475.2330903534807
 31
0.0
  0
LINE
  5
A3FA
330
18
100
AcDbEntity
  8
01
100
AcDbLine
 10
6492.936279312629
 20
482.2228512248153
 30
0.0
 11
6492.936279312628
 21
478.6806475741059
 31
0.0
  0
LINE
  5
A3FB
330
18
100
AcDbEntity
  8
01
100
AcDbLine
 10
6473.936279312622
 20
473.4228512248133
 30
0.0
 11
6454.936279312633
 21
473.4228512248187
 31
0.0
  0
LINE
  5
A3FC
330
18
100
AcDbEntity
  8
01
100
AcDbLine
 10
6438.394824185605
 20
476.7828772841212
 30
0.0
 11
6436.158818651767
 21
478.2744062153374
 31
0.0
  0
ARC
  5
A3FD
330
18
100
AcDbEntity
  8
01
100
AcDbCircle
 10
6437.007520881312
 20
474.7031201968875
 30
0.0
 40
2.5
100
AcDbArc
 50
12.23888328831309
 51
56.29470421170728
  0
ARC
  5
A3FE
330
18
100
AcDbEntity
  8
01
100
AcDbCircle
 10
6492.436279312628
 20
478.6806475741059
 30
0.0
 40
0.5
100
AcDbArc
 50
303.5799834520478
 51
0.0
  0
ARC
  5
A3FF
330
18
100
AcDbEntity
  8
01
100
AcDbCircle
 10
6453.906915859015
 20
673.4202022344716
 30
0.0
 40
200.0
100
AcDbArc
 50
266.0441967006435
 51
270.2948922093163
  0
ARC
  5
A400
330
18
100
AcDbEntity
  8
01
100
AcDbCircle
 10
6440.144018504165
 20
474.395498600978
 30
0.0
 40
0.5
100
AcDbArc
 50
192.238883288364
 51
266.0441967006435
  0
ARC
  5
A401
330
18
100
AcDbEntity
  8
01
100
AcDbCircle
 10
6474.965642766244
 20
673.4202022344716
 30
0.0
 40
200.0
100
AcDbArc
 50
269.7051077906316
 51
273.9558032993565
  0
LINE
  5
A402
330
18
100
AcDbEntity
  8
01
100
AcDbLine
 10
6436.013857341493
 20
478.4228512248155
 30
0.0
 11
6492.864696215063
 21
478.4228512248155
 31
0.0
  0
LINE
  5
A403
330
18
100
AcDbEntity
  8
01
100
AcDbLine
 10
6438.993538850906
 20
476.2215840998006
 30
0.0
 11
6489.862425607622
 21
476.2215840998006
 31
0.0
  0
LINE
  5
A404
330
18
100
AcDbEntity
  8
01
100
AcDbLine
 10
6439.980909774151
 20
473.9228512248155
 30
0.0
 11
6488.891648851108
 21
473.9228512248155
 31
0.0
  0
ARC
  5
A405
330
18
100
AcDbEntity
  8
01
100
AcDbCircle
 10
6488.728548304173
 20
474.395498600978
 30
0.0
 40
0.5
100
AcDbArc
 50
273.9558032993565
 51
347.761116711636
  0
LINE
  5
A406
330
18
100
AcDbEntity
  8
01
100
AcDbLine
 10
6490.477742622734
 20
476.7828772841212
 30
0.0
 11
6492.713748156571
 21
478.2744062153374
 31
0.0
  0
ARC
  5
A407
330
18
100
AcDbEntity
  8
01
100
AcDbCircle
 10
6491.865045927027
 20
474.7031201968875
 30
0.0
 40
2.5
100
AcDbArc
 50
123.7052957882927
 51
167.7611167116869
  0
LINE
  5
A408
330
18
100
AcDbEntity
  8
01
100
AcDbLine
 10
6489.217184431905
 20
474.2895045696591
 30
0.0
 11
6489.421865288366
 21
475.2330903534807
 31
0.0
  0
LINE
  5
A409
330
18
100
AcDbEntity
  8
01
100
AcDbLine
 10
6435.936279312626
 20
482.2228512248153
 30
0.0
 11
6492.936279312629
 21
482.2228512248153
 31
0.0
  0
LINE
  5
A40A
330
18
100
AcDbEntity
  8
01
100
AcDbLine
 10
6314.436279312627
 20
320.7228512248166
 30
0.0
 11
6317.968772904658
 21
320.7228512248166
 31
0.0
  0
ARC
  5
A40B
330
18
100
AcDbEntity
  8
01
100
AcDbCircle
 10
6317.968772904658
 20
320.2228512248166
 30
0.0
 40
0.5
100
AcDbArc
 50
33.70529578829273
 51
90.0
  0
LINE
  5
A40C
330
18
100
AcDbEntity
  8
01
100
AcDbLine
 10
6322.369625967784
 20
317.0037481610093
 30
0.0
 11
6321.426040183962
 21
317.2084290174712
 31
0.0
  0
LINE
  5
A40D
330
18
100
AcDbEntity
  8
01
100
AcDbLine
 10
6314.436279312627
 20
263.7228512248139
 30
0.0
 11
6317.978482963337
 21
263.7228512248143
 31
0.0
  0
LINE
  5
A40E
330
18
100
AcDbEntity
  8
01
100
AcDbLine
 10
6323.236279312629
 20
282.7228512248207
 30
0.0
 11
6323.236279312624
 21
301.7228512248103
 31
0.0
  0
LINE
  5
A40F
330
18
100
AcDbEntity
  8
01
100
AcDbLine
 10
6319.876253253322
 20
318.2643063518376
 30
0.0
 11
6318.384724322106
 21
320.5003118856753
 31
0.0
  0
ARC
  5
A410
330
18
100
AcDbEntity
  8
01
100
AcDbCircle
 10
6321.956010340555
 20
319.6516096561304
 30
0.0
 40
2.5
100
AcDbArc
 50
213.7052957882927
 51
257.761116711695
  0
ARC
  5
A411
330
18
100
AcDbEntity
  8
01
100
AcDbCircle
 10
6317.978482963337
 20
264.2228512248143
 30
0.0
 40
0.5
100
AcDbArc
 50
270.0
 51
326.4200165479666
  0
ARC
  5
A412
330
18
100
AcDbEntity
  8
01
100
AcDbCircle
 10
6123.238928302972
 20
302.7522146784281
 30
0.0
 40
200.0
100
AcDbArc
 50
359.7051077906838
 51
3.955803299331885
  0
ARC
  5
A413
330
18
100
AcDbEntity
  8
01
100
AcDbCircle
 10
6322.263631936465
 20
316.5151120332775
 30
0.0
 40
0.5
100
AcDbArc
 50
3.955803299331885
 51
77.76111671164125
  0
ARC
  5
A414
330
18
100
AcDbEntity
  8
01
100
AcDbCircle
 10
6123.238928302972
 20
281.6934877711988
 30
0.0
 40
200.0
100
AcDbArc
 50
356.0441967006681
 51
0.2948922093422571
  0
LINE
  5
A415
330
18
100
AcDbEntity
  8
01
100
AcDbLine
 10
6318.236279312628
 20
320.6452731959494
 30
0.0
 11
6318.236279312628
 21
263.7944343223785
 31
0.0
  0
LINE
  5
A416
330
18
100
AcDbEntity
  8
01
100
AcDbLine
 10
6320.437546437643
 20
317.6655916865366
 30
0.0
 11
6320.437546437643
 21
266.7967049298204
 31
0.0
  0
LINE
  5
A417
330
18
100
AcDbEntity
  8
01
100
AcDbLine
 10
6322.736279312627
 20
316.6782207632909
 30
0.0
 11
6322.736279312627
 21
267.7674816863355
 31
0.0
  0
ARC
  5
A418
330
18
100
AcDbEntity
  8
01
100
AcDbCircle
 10
6322.263631936465
 20
267.9305822332694
 30
0.0
 40
0.5
100
AcDbArc
 50
282.2388832883587
 51
356.0441967006681
  0
LINE
  5
A419
330
18
100
AcDbEntity
  8
01
100
AcDbLine
 10
6319.876253253322
 20
266.1813879147089
 30
0.0
 11
6318.384724322106
 21
263.9453823808717
 31
0.0
  0
ARC
  5
A41A
330
18
100
AcDbEntity
  8
01
100
AcDbCircle
 10
6321.956010340555
 20
264.7940846104161
 30
0.0
 40
2.5
100
AcDbArc
 50
102.2388832883051
 51
146.2947042117073
  0
LINE
  5
A41B
330
18
100
AcDbEntity
  8
01
100
AcDbLine
 10
6322.369625967784
 20
267.4419461055377
 30
0.0
 11
6321.426040183962
 21
267.2372652490758
 31
0.0
  0
LINE
  5
A41C
330
18
100
AcDbEntity
  8
01
100
AcDbLine
 10
6314.436279312627
 20
320.7228512248166
 30
0.0
 11
6314.436279312627
 21
263.7228512248139
 31
0.0
  0
ARC
  5
A41D
330
18
100
AcDbEntity
  8
01
100
AcDbCircle
 10
6464.436279312605
 20
292.2228512248284
 30
0.0
 40
28.49999999998931
100
AcDbArc
 50
16.63503848829183
 51
1.949589905329545
  0
ARC
  5
A41E
330
18
100
AcDbEntity
  8
01
100
AcDbCircle
 10
6464.436279312627
 20
292.2228512248153
 30
0.0
 40
24.70000000000277
100
AcDbArc
 50
18.55880605564795
 51
348.4056852360343
  0
ARC
  5
A41F
330
18
100
AcDbEntity
  8
01
100
AcDbCircle
 10
6464.436279312627
 20
292.2228512248153
 30
0.0
 40
25.20000000001778
100
AcDbArc
 50
18.15071937410993
 51
349.0805729282726
  0
SPLINE
  5
A420
330
18
100
AcDbEntity
  8
01
100
AcDbSpline
210
0.0
220
0.0
230
1.0
 70
    12
 71
     2
 72
     6
 73
     3
 74
     0
 42
0.0000000001
 43
0.0000000001
 40
0.0
 40
0.0
 40
0.0
 40
0.0013395827079208
 40
0.0013395827079208
 40
0.0013395827079208
 10
6452.420957419718
 20
442.7296064007287
 30
0.0
 41
1.0
 10
6452.420287685347
 20
442.729616509775
 30
0.0
 41
0.9999567668452998
 10
6452.419617878801
 20
442.7296141623933
 30
0.0
 41
1.0
  0
SPLINE
  5
A421
330
18
100
AcDbEntity
  8
01
100
AcDbSpline
210
0.0
220
0.0
230
1.0
 70
    12
 71
     3
 72
    10
 73
     6
 74
     0
 42
0.0000000001
 43
0.0000000001
 40
-1.813485387651938
 40
-1.813485387651938
 40
-1.813485387651938
 40
-1.813485387651938
 40
-0.9067426938259688
 40
-0.9067426938259688
 40
-0.5464298820974417
 40
-0.5464298820974417
 40
-0.5464298820974417
 40
-0.5464298820974417
 10
6452.419617878801
 20
442.7296141623933
 30
0.0
 41
1.0
 10
6452.381387306412
 20
442.72287382071
 30
0.0
 41
1.0
 10
6452.356794710298
 20
442.7194916586559
 30
0.0
 41
1.0
 10
6452.341612113386
 20
442.7194780641198
 30
0.0
 41
1.0
 10
6452.339462211123
 20
442.7200066360174
 30
0.0
 41
1.0
 10
6452.339478870309
 20
442.7210669419833
 30
0.0
 41
1.0
  0
SPLINE
  5
A422
330
18
100
AcDbEntity
  8
01
100
AcDbSpline
210
0.0
220
0.0
230
1.0
 70
    12
 71
     2
 72
     6
 73
     3
 74
     0
 42
0.0000000001
 43
0.0000000001
 40
0.0
 40
0.0
 40
0.0
 40
0.8393070270468792
 40
0.8393070270468792
 40
0.8393070270468792
 10
6468.979525347213
 20
443.2229044379801
 30
0.0
 41
1.0
 10
6468.55987183356
 20
443.2229210204955
 30
0.0
 41
0.999999998364316
 10
6468.140218320755
 20
443.2228895981111
 30
0.0
 41
1.0
  0
SPLINE
  5
A423
330
18
100
AcDbEntity
  8
01
100
AcDbSpline
210
0.0
220
0.0
230
1.0
 70
    28
 71
     2
 72
     6
 73
     3
 74
     0
 42
0.0000000001
 43
0.0000000001
 40
0.0
 40
0.0
 40
0.0
 40
0.0103935807839264
 40
0.0103935807839264
 40
0.0103935807839264
 10
6472.257426780302
 20
444.7208138027045
 30
0.0
 41
1.0
 10
6472.25222998991
 20
444.7208138027036
 30
0.0
 41
1.0
 10
6472.247033199518
 20
444.7208138027027
 30
0.0
 41
1.0
  0
SPLINE
  5
A424
330
18
100
AcDbEntity
  8
01
100
AcDbSpline
210
0.0
220
0.0
230
1.0
 70
    24
 71
     2
 72
     6
 73
     3
 74
     0
 42
0.0000000001
 43
0.0000000001
 40
0.0
 40
0.0
 40
0.0
 40
0.0065067653709345
 40
0.0065067653709345
 40
0.0065067653709345
 10
6452.827802364633
 20
423.9343365262348
 30
0.0
 10
6452.830459768143
 20
423.9324596390547
 30
0.0
 10
6452.833117171652
 20
423.9305827518738
 30
0.0
  0
SPLINE
  5
A425
330
18
100
AcDbEntity
  8
01
100
AcDbSpline
210
0.0
220
0.0
230
1.0
 70
    12
 71
     2
 72
     6
 73
     3
 74
     0
 42
0.0000000001
 43
0.0000000001
 40
0.0
 40
0.0
 40
0.0
 40
1.397383692346342
 40
1.397383692346342
 40
1.397383692346342
 10
6457.312345251834
 20
443.2231891038782
 30
0.0
 41
1.0
 10
6458.011037065601
 20
443.2229714748287
 30
0.0
 41
0.9999999968067866
 10
6458.709728905227
 20
443.2228655178606
 30
0.0
 41
1.0
  0
ARC
  5
A426
330
18
100
AcDbEntity
  8
01
100
AcDbCircle
 10
6572.233912659191
 20
442.5382055950126
 30
0.0
 40
99.99998213032752
100
AcDbArc
 50
163.3308644494415
 51
178.7493580827824
  0
ARC
  5
A427
330
18
100
AcDbEntity
  8
01
100
AcDbCircle
 10
6356.623344072937
 20
442.536871984124
 30
0.0
 40
100.0152929694723
100
AcDbArc
 50
1.251207414917098
 51
16.66742605628705
  0
ARC
  5
A428
330
18
100
AcDbEntity
  8
01
100
AcDbCircle
 10
6474.756652904542
 20
444.7263542213586
 30
0.0
 40
2.498892888404389
100
AcDbArc
 50
180.1270334960531
 51
237.6266239015992
  0
ARC
  5
A429
330
18
100
AcDbEntity
  8
01
100
AcDbCircle
 10
6455.115284836172
 20
444.6879323420485
 30
0.0
 40
1.499865471824866
100
AcDbArc
 50
282.5177558499036
 51
1.255713268887652
  0
LINE
  5
A42A
330
18
100
AcDbEntity
  8
01
100
AcDbLine
 10
6452.436273610143
 20
473.2228512248153
 30
0.0
 11
6476.436567348451
 21
473.2228512248153
 31
0.0
  0
LINE
  5
A42B
330
18
100
AcDbEntity
  8
01
100
AcDbLine
 10
6452.452069985276
 20
471.2229343405211
 30
0.0
 11
6476.472835501438
 21
471.222983199496
 31
0.0
  0
ARC
  5
A42C
330
18
100
AcDbEntity
  8
01
100
AcDbCircle
 10
6476.430797071176
 20
472.2226376592798
 30
0.0
 40
1.000230209892093
100
AcDbArc
 50
269.3942691040925
 51
89.98686230959804
  0
ARC
  5
A42D
330
18
100
AcDbEntity
  8
01
100
AcDbCircle
 10
6452.441531344188
 20
472.2229039681624
 30
0.0
 40
1.0
100
AcDbArc
 50
89.51301208651535
 51
270.5587286472999
  0
LINE
  5
A42E
330
18
100
AcDbEntity
  8
01
100
AcDbLine
 10
6468.979525347168
 20
443.2229044379801
 30
0.0
 11
6452.916503599952
 21
443.2229044379801
 31
0.0
  0
LINE
  5
A42F
330
18
100
AcDbEntity
  8
01
100
AcDbLine
 10
6452.339490788539
 20
442.7211939166677
 30
0.0
 11
6452.103163698401
 21
442.7845175696198
 31
0.0
  0
ARC
  5
A430
330
18
100
AcDbEntity
  8
01
100
AcDbCircle
 10
6452.933493457755
 20
442.6205612213962
 30
0.0
 40
0.6024648237837208
100
AcDbArc
 50
91.61598848660466
 51
170.4450890593592
  0
LINE
  5
A431
330
18
100
AcDbEntity
  8
01
100
AcDbLine
 10
6452.339478870309
 20
442.7211939166673
 30
0.0
 11
6450.494660109771
 21
431.51831645325
 31
0.0
  0
LINE
  5
A432
330
18
100
AcDbEntity
  8
01
100
AcDbLine
 10
6450.527110901363
 20
430.9334389196765
 30
0.0
 11
6452.283810343908
 21
424.7040537251278
 31
0.0
  0
LINE
  5
A433
330
18
100
AcDbEntity
  8
01
100
AcDbLine
 10
6450.466626339363
 20
431.2288052873032
 30
0.0
 11
6587.105537208734
 21
431.2288052873032
 31
0.0
  0
ARC
  5
A434
330
18
100
AcDbEntity
  8
01
100
AcDbCircle
 10
6451.461253521576
 20
431.278607006112
 30
0.0
 40
0.9958732061823392
100
AcDbArc
 50
166.0719774183275
 51
200.2794002486805
  0
ARC
  5
A435
330
18
100
AcDbEntity
  8
01
100
AcDbCircle
 10
6453.71873312457
 20
425.1410851453425
 30
0.0
 40
1.499999949571897
100
AcDbArc
 50
196.9390527900529
 51
233.561908975347
  0
ARC
  5
A436
330
18
100
AcDbEntity
  8
01
100
AcDbCircle
 10
6498.506469924974
 20
536.9514153478958
 30
0.0
 40
98.27151549253304
100
AcDbArc
 50
261.2304273430789
 51
271.073742515855
  0
ARC
  5
A437
330
18
100
AcDbEntity
  8
01
100
AcDbCircle
 10
6567.578433825565
 20
389.9778819640669
 30
0.0
 40
52.44772918761024
100
AcDbArc
 50
81.29577016520103
 51
94.32816317518153
  0
ARC
  5
A438
330
18
100
AcDbEntity
  8
01
100
AcDbCircle
 10
6490.259614143852
 20
749.4897397924874
 30
0.0
 40
310.9562764169622
100
AcDbArc
 50
271.8591797321027
 51
273.8049460953969
  0
ARC
  5
A439
330
18
100
AcDbEntity
  8
01
100
AcDbCircle
 10
-12439.17353753784
 20
327720.7483177463
 30
0.0
 40
327829.6883896326
100
AcDbArc
 50
273.3138075480736
 51
273.3230380330241
  0
ARC
  5
A43A
330
18
100
AcDbEntity
  8
01
100
AcDbCircle
 10
6408.378842824979
 20
-41.25727272341874
 30
0.0
 40
486.9194335513303
100
AcDbArc
 50
81.12220518342285
 51
83.30850590084833
  0
ARC
  5
A43B
330
18
100
AcDbEntity
  8
01
100
AcDbCircle
 10
6455.11733624054
 20
319.6215554218024
 30
0.0
 40
123.1303513140988
100
AcDbArc
 50
85.34209157602992
 51
91.29276243720943
  0
ARC
  5
A43C
330
18
100
AcDbEntity
  8
01
100
AcDbCircle
 10
6502.892867605609
 20
671.3471130623157
 30
0.0
 40
230.6312410399213
100
AcDbArc
 50
261.5442383457327
 51
267.3987478687325
  0
ARC
  5
A43D
330
18
100
AcDbEntity
  8
01
100
AcDbCircle
 10
6496.473841339357
 20
649.8468476274052
 30
0.0
 40
208.9325487046367
100
AcDbArc
 50
268.8898075722782
 51
273.9577886226641
  0
ARC
  5
A43E
330
18
100
AcDbEntity
  8
01
100
AcDbCircle
 10
25206.00276161963
 20
-224528.1324355289
 30
0.0
 40
225744.9960571131
100
AcDbArc
 50
94.73548170678482
 51
94.75039974923742
  0
ARC
  5
A43F
330
18
100
AcDbEntity
  8
01
100
AcDbCircle
 10
6570.777122789417
 20
441.5701067160221
 30
0.0
 40
4.727838001509311
100
AcDbArc
 50
70.47030809701242
 51
89.81899388427601
  0
ARC
  5
A440
330
18
100
AcDbEntity
  8
01
100
AcDbCircle
 10
6570.668789711019
 20
418.2629028580891
 30
0.0
 40
28.03528927048084
100
AcDbArc
 50
89.74807404223525
 51
92.44989210311935
  0
LINE
  5
A441
330
18
100
AcDbEntity
  8
01
100
AcDbLine
 10
6582.79657606623
 20
440.9982820049522
 30
0.0
 11
6575.515547719817
 21
441.821555830476
 31
0.0
  0
LINE
  5
A442
330
18
100
AcDbEntity
  8
01
100
AcDbLine
 10
6459.485169839257
 20
419.2227794150458
 30
0.0
 11
6452.833117171652
 21
423.9305827518738
 31
0.0
  0
LINE
  5
A443
330
18
100
AcDbEntity
  8
01
100
AcDbLine
 10
6465.116298987356
 20
423.9447099274694
 30
0.0
 11
6452.827802364632
 21
423.9343365262371
 31
0.0
  0
ARC
  5
A444
330
18
100
AcDbEntity
  8
01
100
AcDbCircle
 10
6468.333922128897
 20
892.3906236989974
 30
0.0
 40
468.4569641150861
100
AcDbArc
 50
269.6064576048595
 51
271.8581727194107
  0
ARC
  5
A445
330
18
100
AcDbEntity
  8
01
100
AcDbCircle
 10
6491.355769564641
 20
260.0156862971066
 30
0.0
 40
164.3510231640577
100
AcDbArc
 50
86.32809763129387
 51
92.73136927505918
  0
ARC
  5
A446
330
18
100
AcDbEntity
  8
01
100
AcDbCircle
 10
7421.653558374051
 20
15750.53235172962
 30
0.0
 40
15354.07685890451
100
AcDbArc
 50
266.5656913775657
 51
266.7690675911474
  0
ARC
  5
A447
330
18
100
AcDbEntity
  8
01
100
AcDbCircle
 10
6567.844032252677
 20
568.4614845560468
 30
0.0
 40
148.0519665957841
100
AcDbArc
 50
265.5239433060218
 51
270.6837716932069
  0
ARC
  5
A448
330
18
100
AcDbEntity
  8
01
100
AcDbCircle
 10
6566.801965284335
 20
476.5837806007985
 30
0.0
 40
56.23391568607433
100
AcDbArc
 50
272.8631187567489
 51
280.061702366444
  0
ARC
  5
A449
330
18
100
AcDbEntity
  8
01
100
AcDbCircle
 10
6755.289873849944
 20
-463.5819786796869
 30
0.0
 40
902.654870786004
100
AcDbArc
 50
101.0164170783736
 51
101.4159940810515
  0
LINE
  5
A44A
330
18
100
AcDbEntity
  8
01
100
AcDbLine
 10
6572.357616866604
 20
446.0259445317974
 30
0.0
 11
6582.803883594318
 21
440.9947290726664
 31
0.0
  0
LINE
  5
A44B
330
18
100
AcDbEntity
  8
01
100
AcDbLine
 10
6583.448435496931
 20
440.3144996619185
 30
0.0
 11
6587.115760563556
 21
431.4825248465954
 31
0.0
  0
ARC
  5
A44C
330
18
100
AcDbEntity
  8
01
100
AcDbCircle
 10
6582.236319584294
 20
439.8115189252876
 30
0.0
 40
1.312331744296452
100
AcDbArc
 50
22.53653996582811
 51
64.7279483168578
  0
LINE
  5
A44D
330
18
100
AcDbEntity
  8
01
100
AcDbLine
 10
6587.105537208734
 20
430.9672710574323
 30
0.0
 11
6583.467242566308
 21
423.1124707613621
 31
0.0
  0
LINE
  5
A44E
330
18
100
AcDbEntity
  8
01
100
AcDbLine
 10
6587.170368052513
 20
431.2288052873032
 30
0.0
 11
6450.466626339363
 21
431.2288052873032
 31
0.0
  0
ARC
  5
A44F
330
18
100
AcDbEntity
  8
01
100
AcDbCircle
 10
6586.584036098402
 20
431.2353466852328
 30
0.0
 40
0.5863684424474561
100
AcDbArc
 50
332.7947453742659
 51
24.93189634146966
  0
ARC
  5
A450
330
18
100
AcDbEntity
  8
01
100
AcDbCircle
 10
6582.338842755107
 20
423.5617826058533
 30
0.0
 40
1.214613938904644
100
AcDbArc
 50
292.139008387382
 51
338.3303838825544
  0
LINE
  5
A451
330
18
100
AcDbEntity
  8
01
100
AcDbLine
 10
6572.382178170387
 20
417.4205816867079
 30
0.0
 11
6582.79657606623
 21
422.4367193914204
 31
0.0
  0
ARC
  5
A452
330
18
100
AcDbEntity
  8
01
100
AcDbCircle
 10
6570.292212460683
 20
424.2211329759048
 30
0.0
 40
7.114453914724517
100
AcDbArc
 50
262.6585319245964
 51
287.0833963465749
  0
ARC
  5
A453
330
18
100
AcDbEntity
  8
01
100
AcDbCircle
 10
8973.35950462853
 20
29586.98796366205
 30
0.0
 40
29268.71493818182
100
AcDbArc
 50
265.1866179129454
 51
265.2887224711559
  0
ARC
  5
A454
330
18
100
AcDbEntity
  8
01
100
AcDbCircle
 10
6502.346596497675
 20
273.6900899920256
 30
0.0
 40
148.5703096773504
100
AcDbArc
 50
84.1829450701235
 51
88.23257626988902
  0
ARC
  5
A455
330
18
100
AcDbEntity
  8
01
100
AcDbCircle
 10
6500.632689244976
 20
238.2776637940215
 30
0.0
 40
184.0182813075427
100
AcDbArc
 50
88.03924305662004
 51
95.16540129933806
  0
ARC
  5
A456
330
18
100
AcDbEntity
  8
01
100
AcDbCircle
 10
6462.708859455419
 20
500.1505359911557
 30
0.0
 40
80.99193761840408
100
AcDbArc
 50
267.7188764819298
 51
277.4067486010153
  0
ARC
  5
A457
330
18
100
AcDbEntity
  8
01
100
AcDbCircle
 10
4849.215517625325
 20
10795.98996189365
 30
0.0
 40
10502.46478831743
100
AcDbArc
 50
278.8949961710713
 51
278.955275557538
  0
ARC
  5
A458
330
18
100
AcDbEntity
  8
01
100
AcDbCircle
 10
6465.197994861936
 20
450.7090168700624
 30
0.0
 40
32.00030498000669
100
AcDbArc
 50
259.7161965363715
 51
271.7126654851306
  0
ARC
  5
A459
330
18
100
AcDbEntity
  8
01
100
AcDbCircle
 10
6462.178832160759
 20
477.4278450509514
 30
0.0
 40
58.83929888010844
100
AcDbArc
 50
273.8742243743466
 51
280.7459846808493
  0
ARC
  5
A45A
330
18
100
AcDbEntity
  8
01
100
AcDbCircle
 10
6525.230613131503
 20
156.6575095699591
 30
0.0
 40
268.070684731483
100
AcDbArc
 50
98.83337141128266
 51
101.2026915456256
  0
SPLINE
  5
A45B
330
18
100
AcDbEntity
  8
01
100
AcDbSpline
210
0.0
220
0.0
230
1.0
 70
    12
 71
     2
 72
     6
 73
     3
 74
     0
 42
0.0000000001
 43
0.0000000001
 40
0.0
 40
0.0
 40
0.0
 40
6.482204741765053
 40
6.482204741765053
 40
6.482204741765053
 10
6365.724498510592
 20
306.1494187803114
 30
0.0
 41
1.0
 10
6368.840177439736
 20
305.2565081524158
 30
0.0
 41
0.9999999999728528
 10
6371.955869527287
 20
304.3636434401583
 30
0.0
 41
1.0
  0
SPLINE
  5
A45C
330
18
100
AcDbEntity
  8
01
100
AcDbSpline
210
0.0
220
0.0
230
1.0
 70
    12
 71
     2
 72
     6
 73
     3
 74
     0
 42
0.0000000001
 43
0.0000000001
 40
0.0
 40
0.0
 40
0.0
 40
1.256427847601297
 40
1.256427847601297
 40
1.256427847601297
 10
6377.436341868452
 20
290.296059465189
 30
0.0
 41
1.0
 10
6377.437404348282
 20
290.924273264905
 30
0.0
 41
0.9999981509877678
 10
6377.436050684379
 20
291.552486504665
 30
0.0
 41
1.0
  0
LINE
  5
A45D
330
18
100
AcDbEntity
  8
01
100
AcDbLine
 10
6365.43998879247
 20
278.3024833364821
 30
0.0
 11
6365.43998879247
 21
313.9430411040262
 31
0.0
  0
ARC
  5
A45E
330
18
100
AcDbEntity
  8
01
100
AcDbCircle
 10
6354.122474704548
 20
184.4037575199313
 30
0.0
 40
100.0214706608298
100
AcDbArc
 50
91.25126115874929
 51
102.7573082311633
  0
ARC
  5
A45F
330
18
100
AcDbEntity
  8
01
100
AcDbCircle
 10
6354.123862413789
 20
400.0331734984334
 30
0.0
 40
100.0129711933267
100
AcDbArc
 50
253.3312414934061
 51
268.7478669098187
  0
ARC
  5
A460
330
18
100
AcDbEntity
  8
01
100
AcDbCircle
 10
6331.603730401643
 20
270.9045113485904
 30
0.0
 40
11.06003468591635
100
AcDbArc
 50
87.76242126747357
 51
121.430754245211
  0
LINE
  5
A461
330
18
100
AcDbEntity
  8
01
100
AcDbLine
 10
6323.436279312627
 20
304.2228569273016
 30
0.0
 11
6323.436279312627
 21
280.2225631889937
 31
0.0
  0
LINE
  5
A462
330
18
100
AcDbEntity
  8
01
100
AcDbLine
 10
6325.436196196922
 20
304.2070605521681
 30
0.0
 11
6325.436147337947
 21
280.1862950360069
 31
0.0
  0
ARC
  5
A463
330
18
100
AcDbEntity
  8
01
100
AcDbCircle
 10
6324.436492878162
 20
280.2283334662684
 30
0.0
 40
1.000230209892093
100
AcDbArc
 50
180.013137690402
 51
0.6057308959076626
  0
ARC
  5
A464
330
18
100
AcDbEntity
  8
01
100
AcDbCircle
 10
6324.43622656928
 20
304.2175991932568
 30
0.0
 40
1.0
100
AcDbArc
 50
359.4412713527002
 51
180.4869879134847
  0
LINE
  5
A465
330
18
100
AcDbEntity
  8
01
100
AcDbLine
 10
6325.436147337947
 20
280.1862950360069
 30
0.0
 11
6325.83627942916
 21
280.3417183789393
 31
0.0
  0
ARC
  5
A466
330
18
100
AcDbEntity
  8
01
100
AcDbCircle
 10
6481.833465898831
 20
352.8422091379539
 30
0.0
 40
114.0973060853399
100
AcDbArc
 50
202.3280051586018
 51
205.5098830169162
  0
ARC
  5
A467
330
18
100
AcDbEntity
  8
01
100
AcDbCircle
 10
6365.42552619517
 20
313.2779924739111
 30
0.0
 40
0.6652058682388038
100
AcDbArc
 50
65.51469266068733
 51
112.7359020912712
  0
ARC
  5
A468
330
18
100
AcDbEntity
  8
01
100
AcDbCircle
 10
6375.256307007659
 20
309.0668442331194
 30
0.0
 40
1.119770678805215
100
AcDbArc
 50
22.51822428846991
 51
71.52664590719478
  0
ARC
  5
A469
330
18
100
AcDbEntity
  8
01
100
AcDbCircle
 10
6476.143212281344
 20
590.4390694011067
 30
0.0
 40
297.7926867303047
100
AcDbArc
 50
248.2307981078778
 51
250.2698356529302
  0
ARC
  5
A46A
330
18
100
AcDbEntity
  8
01
100
AcDbCircle
 10
6354.618734703497
 20
309.0602538034695
 30
0.0
 40
1.117568886033102
100
AcDbArc
 50
107.8103602753417
 51
156.4373678502642
  0
ARC
  5
A46B
330
18
100
AcDbEntity
  8
01
100
AcDbCircle
 10
6244.844124295153
 20
644.1344725968615
 30
0.0
 40
351.4802334783013
100
AcDbArc
 50
288.1405056936199
 51
290.0192552320018
  0
ARC
  5
A46C
330
18
100
AcDbEntity
  8
01
100
AcDbCircle
 10
6351.674416681387
 20
301.9202280446148
 30
0.0
 40
1.894620559952811
100
AcDbArc
 50
278.0082914513652
 51
338.3482156793324
  0
ARC
  5
A46D
330
18
100
AcDbEntity
  8
01
100
AcDbCircle
 10
6351.843658618189
 20
282.73976913262
 30
0.0
 40
1.664302641012247
100
AcDbArc
 50
16.99170842634507
 51
86.73951192444461
  0
ARC
  5
A46E
330
18
100
AcDbEntity
  8
01
100
AcDbCircle
 10
6247.789471776476
 20
353.0035316782537
 30
0.0
 40
114.3967617239392
100
AcDbArc
 50
334.4521317421098
 51
337.652369054859
  0
ARC
  5
A46F
330
18
100
AcDbEntity
  8
01
100
AcDbCircle
 10
6369.026120855681
 20
296.9504243098604
 30
0.0
 40
10.14146238656113
100
AcDbArc
 50
331.1125947001183
 51
350.0115493174599
  0
ARC
  5
A470
330
18
100
AcDbEntity
  8
01
100
AcDbCircle
 10
6335.169918549764
 20
302.4506486721543
 30
0.0
 40
44.44084366360534
100
AcDbArc
 50
350.5988055237699
 51
356.5313040584934
  0
ARC
  5
A471
330
18
100
AcDbEntity
  8
01
100
AcDbCircle
 10
6368.215924393457
 20
299.9000693712974
 30
0.0
 40
11.31426684038564
100
AcDbArc
 50
359.2999639027486
 51
9.897301223139129
  0
ARC
  5
A472
330
18
100
AcDbEntity
  8
01
100
AcDbCircle
 10
6372.045047575461
 20
300.8655079694349
 30
0.0
 40
7.382002167728297
100
AcDbArc
 50
7.623265835799359
 51
22.61608400749991
  0
ARC
  5
A473
330
18
100
AcDbEntity
  8
01
100
AcDbCircle
 10
6386.869841624715
 20
294.6021705908074
 30
0.0
 40
13.01473394257641
100
AcDbArc
 50
142.5423887989164
 51
154.4537153139185
  0
ARC
  5
A474
330
18
100
AcDbEntity
  8
01
100
AcDbCircle
 10
6380.434218823768
 20
299.5609944813864
 30
0.0
 40
4.890335769639966
100
AcDbArc
 50
115.3301024859005
 51
142.804259531797
  0
ARC
  5
A475
330
18
100
AcDbEntity
  8
01
100
AcDbCircle
 10
6378.090548560438
 20
303.3354594909492
 30
0.0
 40
0.8523387062045001
100
AcDbArc
 50
26.51155431598742
 51
45.16212824940317
  0
ARC
  5
A476
330
18
100
AcDbEntity
  8
01
100
AcDbCircle
 10
6378.49616341208
 20
303.7466763622147
 30
0.0
 40
0.274752412209964
100
AcDbArc
 50
44.67689452800679
 51
87.38524339785627
  0
ARC
  5
A477
330
18
100
AcDbEntity
  8
01
100
AcDbCircle
 10
6378.521233583733
 20
303.601233226877
 30
0.0
 40
0.4200965702907623
100
AcDbArc
 50
91.70998854448014
 51
115.2591582735714
  0
LINE
  5
A478
330
18
100
AcDbEntity
  8
01
100
AcDbLine
 10
6372.394294251174
 20
303.9831044410116
 30
0.0
 11
6372.394294251174
 21
280.4983310186785
 31
0.0
  0
LINE
  5
A479
330
18
100
AcDbEntity
  8
01
100
AcDbLine
 10
6353.436328962028
 20
281.0960361970997
 30
0.0
 11
6353.436328962028
 21
303.3405425566511
 31
0.0
  0
ARC
  5
A47A
330
18
100
AcDbEntity
  8
01
100
AcDbCircle
 10
6354.436328962028
 20
303.3405425566511
 30
0.0
 40
1.0
100
AcDbArc
 50
99.68490544003532
 51
180.0
  0
LINE
  5
A47B
330
18
100
AcDbEntity
  8
01
100
AcDbLine
 10
6365.140543804542
 20
306.181803457454
 30
0.0
 11
6354.26809927166
 21
304.326290380021
 31
0.0
  0
LINE
  5
A47C
330
18
100
AcDbEntity
  8
01
100
AcDbLine
 10
6365.140508469213
 20
278.2864571132036
 30
0.0
 11
6354.270892252734
 21
280.1098157880547
 31
0.0
  0
ARC
  5
A47D
330
18
100
AcDbEntity
  8
01
100
AcDbCircle
 10
6354.436328962028
 20
281.0960361970997
 30
0.0
 40
1.0
100
AcDbArc
 50
180.0
 51
260.4773952685774
  0
ARC
  5
A47E
330
18
100
AcDbEntity
  8
01
100
AcDbCircle
 10
6360.747480128091
 20
300.0844360174856
 30
0.0
 40
10.38435824665062
100
AcDbArc
 50
159.8113238327129
 51
179.9629982510867
  0
ARC
  5
A47F
330
18
100
AcDbEntity
  8
01
100
AcDbCircle
 10
6323.847696982602
 20
294.1631721665995
 30
0.0
 40
33.53428282041581
100
AcDbArc
 50
18.08860116136813
 51
27.17029892953017
  0
ARC
  5
A480
330
18
100
AcDbEntity
  8
01
100
AcDbCircle
 10
6353.619633722805
 20
309.4397440026464
 30
0.0
 40
0.0718565721831292
100
AcDbArc
 50
30.45011999083793
 51
110.6059150151103
  0
ARC
  5
A481
330
18
100
AcDbEntity
  8
01
100
AcDbCircle
 10
6376.263258500109
 20
309.4787299185605
 30
0.0
 40
0.0322633681526885
100
AcDbArc
 50
31.71576511131991
 51
126.5994687430103
  0
ARC
  5
A482
330
18
100
AcDbEntity
  8
01
100
AcDbCircle
 10
6376.561855415628
 20
309.1271912958396
 30
0.0
 40
0.4934359170330506
100
AcDbArc
 50
130.0998731039046
 51
153.2278881549823
  0
ARC
  5
A483
330
18
100
AcDbEntity
  8
01
100
AcDbCircle
 10
6416.799044422018
 20
289.7624281620742
 30
0.0
 40
45.14786233942119
100
AcDbArc
 50
154.2883845083995
 51
163.4636310301211
  0
ARC
  5
A484
330
18
100
AcDbEntity
  8
01
100
AcDbCircle
 10
6365.351056153418
 20
304.6966487345476
 30
0.0
 40
1.5
100
AcDbArc
 50
75.58392814967193
 51
98.06761167016009
  0
ARC
  5
A485
330
18
100
AcDbEntity
  8
01
100
AcDbCircle
 10
6365.3527884466
 20
279.7713602114559
 30
0.0
 40
1.5
100
AcDbArc
 50
261.8641892255993
 51
284.3625560051321
  0
LINE
  5
A486
330
18
100
AcDbEntity
  8
01
100
AcDbLine
 10
6371.968422935782
 20
280.0912749124095
 30
0.0
 11
6365.724873713607
 21
278.3182419939399
 31
0.0
  0
ARC
  5
A487
330
18
100
AcDbEntity
  8
01
100
AcDbCircle
 10
4480.813375124092
 20
1715.340118119799
 30
0.0
 40
2374.412548442643
100
AcDbArc
 50
322.8258697098938
 51
323.0133231746947
  0
ARC
  5
A488
330
18
100
AcDbEntity
  8
01
100
AcDbCircle
 10
2584.168260453412
 20
-2240.845383118774
 30
0.0
 40
4563.80964354034
100
AcDbArc
 50
33.78156373550539
 51
33.88809993826702
  0
ARC
  5
A489
330
18
100
AcDbEntity
  8
01
100
AcDbCircle
 10
6371.757483009907
 20
303.2941945602893
 30
0.0
 40
1.087693944513467
100
AcDbArc
 50
28.32741366131863
 51
79.49089024174592
  0
ARC
  5
A48A
330
18
100
AcDbEntity
  8
01
100
AcDbCircle
 10
6371.600881227564
 20
281.4705700643303
 30
0.0
 40
1.427424962438384
100
AcDbArc
 50
284.9209326227713
 51
323.7479636731885
  0
ARC
  5
A48B
330
18
100
AcDbEntity
  8
01
100
AcDbCircle
 10
6349.402277158035
 20
299.4687068124354
 30
0.0
 40
4.990953061929885
100
AcDbArc
 50
36.07247519688868
 51
64.64144626273092
  0
ARC
  5
A48C
330
18
100
AcDbEntity
  8
01
100
AcDbCircle
 10
6351.372133515696
 20
303.6464139646328
 30
0.0
 40
0.3722475939957445
100
AcDbArc
 50
63.22779637987671
 51
94.96025087743543
  0
ARC
  5
A48D
330
18
100
AcDbEntity
  8
01
100
AcDbCircle
 10
6351.403248487793
 20
303.7007277238849
 30
0.0
 40
0.3228071405838271
100
AcDbArc
 50
101.308760579724
 51
141.3054009618243
  0
ARC
  5
A48E
330
18
100
AcDbEntity
  8
01
100
AcDbCircle
 10
6351.966367276284
 20
303.2124308661573
 30
0.0
 40
1.067979056617281
100
AcDbArc
 50
139.745850936164
 51
152.623721714628
  0
LINE
  5
A48F
330
18
100
AcDbEntity
  8
01
100
AcDbLine
 10
6377.439926000987
 20
296.7614685873236
 30
0.0
 11
6377.43578061099
 21
286.8239644810042
 31
0.0
  0
LINE
  5
A490
330
18
100
AcDbEntity
  8
01
100
AcDbLine
 10
6377.952304486657
 20
291.5797568255443
 30
0.0
 11
6377.43578061099
 21
286.8239644810042
 31
0.0
  0
LINE
  5
A491
330
18
100
AcDbEntity
  8
01
100
AcDbLine
 10
6377.952304486657
 20
291.5797568255443
 30
0.0
 11
6377.439926000987
 21
296.7614685871727
 31
0.0
  0
ARC
  5
A492
330
18
100
AcDbEntity
  8
01
100
AcDbCircle
 10
6464.262016077861
 20
292.8397955401815
 30
0.0
 40
13.94598431367899
100
AcDbArc
 50
89.89923029413266
 51
180.1720232896277
  0
ARC
  5
A493
330
18
100
AcDbEntity
  8
01
100
AcDbCircle
 10
6464.295038153121
 20
292.840883541638
 30
0.0
 40
13.97900954166145
100
AcDbArc
 50
180.176076298742
 51
269.9651839739574
  0
ARC
  5
A494
330
18
100
AcDbEntity
  8
01
100
AcDbCircle
 10
6464.046733832187
 20
294.3106893332661
 30
0.0
 40
15.45067390946209
100
AcDbArc
 50
270.8893235274263
 51
291.9202197093401
  0
ARC
  5
A495
330
18
100
AcDbEntity
  8
01
100
AcDbCircle
 10
6659.662985990677
 20
-182.6855009398396
 30
0.0
 40
500.0989761460431
100
AcDbArc
 50
109.9841175822228
 51
112.3102341920338
  0
ARC
  5
A496
330
18
100
AcDbEntity
  8
01
100
AcDbCircle
 10
6464.177208870045
 20
291.8644641118508
 30
0.0
 40
14.92169473979298
100
AcDbArc
 50
67.80219220161106
 51
89.58017616240755
  0
ARC
  5
A497
330
18
100
AcDbEntity
  8
01
100
AcDbCircle
 10
7391.640123972011
 20
2742.276548339885
 30
0.0
 40
2605.141777732708
100
AcDbArc
 50
249.2771140472021
 51
249.5052673870365
  0
ARC
  5
A498
330
18
100
AcDbEntity
  8
01
100
AcDbCircle
 10
6488.580669897462
 20
322.0081647321417
 30
0.0
 40
21.93596351396337
100
AcDbArc
 50
245.6165021975634
 51
270.4405540635539
  0
ARC
  5
A499
330
18
100
AcDbEntity
  8
01
100
AcDbCircle
 10
6487.372720062389
 20
328.0889460464991
 30
0.0
 40
28.0498971282177
100
AcDbArc
 50
272.8130586980893
 51
287.246963147312
  0
ARC
  5
A49A
330
18
100
AcDbEntity
  8
01
100
AcDbCircle
 10
6645.439215829037
 20
-280.7285530785139
 30
0.0
 40
600.9847151582663
100
AcDbArc
 50
98.52455634537284
 51
104.4286578146181
  0
ARC
  5
A49B
330
18
100
AcDbEntity
  8
01
100
AcDbCircle
 10
6553.842253865711
 20
98.6353054179749
 30
0.0
 40
199.579338122567
100
AcDbArc
 50
89.27910850316985
 51
109.0352972595844
  0
ARC
  5
A49C
330
18
100
AcDbEntity
  8
01
100
AcDbCircle
 10
6564.821004534105
 20
273.0755054814831
 30
0.0
 40
41.41610569670181
100
AcDbArc
 50
84.44468913609404
 51
101.7975882802529
  0
ARC
  5
A49D
330
18
100
AcDbEntity
  8
01
100
AcDbCircle
 10
6566.38725269128
 20
288.0150614596405
 30
0.0
 40
26.39533485569225
100
AcDbArc
 50
58.42872213394871
 51
84.68920353743128
  0
ARC
  5
A49E
330
18
100
AcDbEntity
  8
01
100
AcDbCircle
 10
6573.390694259593
 20
298.3932281400844
 30
0.0
 40
13.89676766828562
100
AcDbArc
 50
19.75345417946133
 51
60.62794214763583
  0
ARC
  5
A49F
330
18
100
AcDbEntity
  8
01
100
AcDbCircle
 10
6571.15395590122
 20
302.102649161196
 30
0.0
 40
16.35433971603726
100
AcDbArc
 50
303.6103274432846
 51
338.9480138523441
  0
ARC
  5
A4A0
330
18
100
AcDbEntity
  8
01
100
AcDbCircle
 10
6576.549974372214
 20
299.7353477475103
 30
0.0
 40
10.47161562455105
100
AcDbArc
 50
340.4307760219147
 51
18.68430613386223
  0
ARC
  5
A4A1
330
18
100
AcDbEntity
  8
01
100
AcDbCircle
 10
6565.254134206292
 20
310.4224310688192
 30
0.0
 40
26.55081825004758
100
AcDbArc
 50
289.8309284782296
 51
304.2753246221349
  0
ARC
  5
A4A2
330
18
100
AcDbEntity
  8
01
100
AcDbCircle
 10
6576.37842464514
 20
289.02659740427
 30
0.0
 40
5.205398371516098
100
AcDbArc
 50
199.2727755691117
 51
214.0642132710547
  0
ARC
  5
A4A3
330
18
100
AcDbEntity
  8
01
100
AcDbCircle
 10
6573.593368856865
 20
287.2457411706514
 30
0.0
 40
1.902618980417264
100
AcDbArc
 50
216.6154369037036
 51
251.6708814128549
  0
ARC
  5
A4A4
330
18
100
AcDbEntity
  8
01
100
AcDbCircle
 10
6573.618726905106
 20
287.2955674323925
 30
0.0
 40
1.957909845661393
100
AcDbArc
 50
251.424994437439
 51
289.1618472131413
  0
ARC
  5
A4A5
330
18
100
AcDbEntity
  8
01
100
AcDbCircle
 10
6541.536075887294
 20
275.838043014608
 30
0.0
 40
32.05146116233109
100
AcDbArc
 50
20.96977501725812
 51
27.40712568168262
  0
ARC
  5
A4A6
330
18
100
AcDbEntity
  8
01
100
AcDbCircle
 10
6557.054413228957
 20
283.2929160932304
 30
0.0
 40
14.8526626543399
100
AcDbArc
 50
29.43327386826314
 51
60.56203797209298
  0
ARC
  5
A4A7
330
18
100
AcDbEntity
  8
01
100
AcDbCircle
 10
6556.791298483097
 20
283.0558784972109
 30
0.0
 40
15.18882950979673
100
AcDbArc
 50
60.13711431862019
 51
75.69094988759953
  0
ARC
  5
A4A8
330
18
100
AcDbEntity
  8
01
100
AcDbCircle
 10
6556.187469873849
 20
275.6952115003451
 30
0.0
 40
22.50424590357229
100
AcDbArc
 50
78.83456473848602
 51
89.57784151058671
  0
ARC
  5
A4A9
330
18
100
AcDbEntity
  8
01
100
AcDbCircle
 10
6575.544811792344
 20
299.7659248037107
 30
0.0
 40
7.102865038882732
100
AcDbArc
 50
307.7239333968193
 51
52.27606660318065
  0
ARC
  5
A4AA
330
18
100
AcDbEntity
  8
01
100
AcDbCircle
 10
6567.959076892185
 20
291.4358792835642
 30
0.0
 40
18.35529211194335
100
AcDbArc
 50
49.45537393791361
 51
78.23627281702619
  0
ARC
  5
A4AB
330
18
100
AcDbEntity
  8
01
100
AcDbCircle
 10
6623.342804866325
 20
-257.2247908253275
 30
0.0
 40
570.5476810445965
100
AcDbArc
 50
96.15246578498781
 51
99.10603896286736
  0
ARC
  5
A4AC
330
18
100
AcDbEntity
  8
01
100
AcDbCircle
 10
6621.63225153342
 20
-249.5709708504055
 30
0.0
 40
562.7198080770245
100
AcDbArc
 50
99.05740131472422
 51
101.5942650645004
  0
ARC
  5
A4AD
330
18
100
AcDbEntity
  8
01
100
AcDbCircle
 10
6564.977018458769
 20
280.0276077150857
 30
0.0
 40
30.13776828239433
100
AcDbArc
 50
77.10778689345959
 51
95.29724486062675
  0
ARC
  5
A4AE
330
18
100
AcDbEntity
  8
01
100
AcDbCircle
 10
6587.518165907652
 20
-94.5129333937657
 30
0.0
 40
403.9757185136047
100
AcDbArc
 50
101.2745144487161
 51
103.5511067041571
  0
ARC
  5
A4AF
330
18
100
AcDbEntity
  8
01
100
AcDbCircle
 10
6488.345810072635
 20
320.533974101199
 30
0.0
 40
22.76962770925223
100
AcDbArc
 50
247.0743462404436
 51
281.438939876955
  0
ARC
  5
A4B0
330
18
100
AcDbEntity
  8
01
100
AcDbCircle
 10
6464.289706962301
 20
292.9137764493776
 30
0.0
 40
11.57456072410946
100
AcDbArc
 50
67.59596448949317
 51
290.9305196693204
  0
ARC
  5
A4B1
330
18
100
AcDbEntity
  8
01
100
AcDbCircle
 10
7026.706976496485
 20
1771.182430045611
 30
0.0
 40
1570.071834906941
100
AcDbArc
 50
249.181950188318
 51
249.6020397372611
  0
ARC
  5
A4B2
330
18
100
AcDbEntity
  8
01
100
AcDbCircle
 10
6421.03126597138
 20
415.9556522846992
 30
0.0
 40
141.99529507985
100
AcDbArc
 50
289.4975525201216
 51
297.2288950892182
  0
ARC
  5
A4B3
330
18
100
AcDbEntity
  8
01
100
AcDbCircle
 10
6566.207953659849
 20
-8.715588773879517
 30
0.0
 40
313.5012052155228
100
AcDbArc
 50
91.80767445438003
 51
95.86945797025083
  0
ARC
  5
A4B4
330
18
100
AcDbEntity
  8
01
100
AcDbCircle
 10
6557.390954977865
 20
276.6803468409139
 30
0.0
 40
27.96981557512763
100
AcDbArc
 50
76.98320000197369
 51
92.19709547993203
  0
ARC
  5
A4B5
330
18
100
AcDbEntity
  8
01
100
AcDbCircle
 10
6559.886008250391
 20
287.1755329621005
 30
0.0
 40
17.18246618931606
100
AcDbArc
 50
54.71409983538328
 51
77.20674536273208
  0
ARC
  5
A4B6
330
18
100
AcDbEntity
  8
01
100
AcDbCircle
 10
6564.905146724917
 20
295.4319400793374
 30
0.0
 40
7.573492198737812
100
AcDbArc
 50
13.568254836155
 51
49.62087515488629
  0
ARC
  5
A4B7
330
18
100
AcDbEntity
  8
01
100
AcDbCircle
 10
6546.876265219536
 20
292.4983213119494
 30
0.0
 40
25.82423159006799
100
AcDbArc
 50
1.1136610995957
 51
10.50969065113858
  0
ARC
  5
A4B8
330
18
100
AcDbEntity
  8
01
100
AcDbCircle
 10
6575.85797924187
 20
292.5887356678859
 30
0.0
 40
3.166391007131514
100
AcDbArc
 50
181.1298119186478
 51
208.7311665515214
  0
ARC
  5
A4B9
330
18
100
AcDbEntity
  8
01
100
AcDbCircle
 10
6574.498935793778
 20
291.9267477299477
 30
0.0
 40
1.658047719275196
100
AcDbArc
 50
211.2478645201365
 51
240.3568382529712
  0
ARC
  5
A4BA
330
18
100
AcDbEntity
  8
01
100
AcDbCircle
 10
6574.23159387866
 20
291.6437625282178
 30
0.0
 40
1.283202743813971
100
AcDbArc
 50
244.4856507747925
 51
280.1839737204183
  0
ARC
  5
A4BB
330
18
100
AcDbEntity
  8
01
100
AcDbCircle
 10
6573.120400176063
 20
295.9154242936588
 30
0.0
 40
5.694099895032224
100
AcDbArc
 50
283.5912354905144
 51
304.3572806917327
  0
LINE
  5
A4BC
330
18
100
AcDbEntity
  8
01
100
AcDbLine
 10
6572.6956187784
 20
293.0002366632384
 30
0.0
 11
6572.69220381901
 21
292.5263018465025
 31
0.0
  0
ARC
  5
A4BD
330
18
100
AcDbEntity
  8
01
100
AcDbCircle
 10
6551.728410846411
 20
324.6768802058486
 30
0.0
 40
41.53484231037286
100
AcDbArc
 50
306.327887616687
 51
312.6907791690024
  0
ARC
  5
A4BE
330
18
100
AcDbEntity
  8
01
100
AcDbCircle
 10
6545.309897805324
 20
158.8438148319101
 30
0.0
 40
144.729274758388
100
AcDbArc
 50
94.42295200258748
 51
106.4624799633222
  0
ARC
  5
A4BF
330
18
100
AcDbEntity
  8
01
100
AcDbCircle
 10
6536.718174282475
 20
197.9396578301107
 30
0.0
 40
104.8398262811099
100
AcDbArc
 50
108.0146202329374
 51
118.9313601843153
  0
ARC
  5
A4C0
330
18
100
AcDbEntity
  8
01
100
AcDbCircle
 10
6472.435049408861
 20
379.977037769223
 30
0.0
 40
87.40922869124708
100
AcDbArc
 50
278.9282248524768
 51
284.7493000757077
  0
ARC
  5
A4C1
330
18
100
AcDbEntity
  8
01
100
AcDbCircle
 10
6550.418747697666
 20
73.34371477431023
 30
0.0
 40
228.9894694775989
100
AcDbArc
 50
101.6200714349422
 51
104.0857859799337
  0
ARC
  5
A4C2
330
18
100
AcDbEntity
  8
01
100
AcDbCircle
 10
6482.075216867755
 20
329.4294874018847
 30
0.0
 40
36.0171446197743
100
AcDbArc
 50
254.4593554362779
 51
276.257062600421
  0
ARC
  5
A4C3
330
18
100
AcDbEntity
  8
01
100
AcDbCircle
 10
6481.267487835118
 20
327.8119343857129
 30
0.0
 40
34.24405615753381
100
AcDbArc
 50
243.7577034283412
 51
255.0363060225311
  0
ARC
  5
A4C4
330
18
100
AcDbEntity
  8
01
100
AcDbCircle
 10
6498.260989585483
 20
231.0911298197007
 30
0.0
 40
65.17874511740274
100
AcDbArc
 50
113.3520720219811
 51
119.5399849070124
  0
ARC
  5
A4C5
330
18
100
AcDbEntity
  8
01
100
AcDbCircle
 10
6485.948369336473
 20
256.9352428570569
 30
0.0
 40
36.58649370408944
100
AcDbArc
 50
93.78921153600707
 51
111.6919077517091
  0
ARC
  5
A4C6
330
18
100
AcDbEntity
  8
01
100
AcDbCircle
 10
6464.319284540029
 20
292.4079555085737
 30
0.0
 40
5.025337376345225
100
AcDbArc
 50
68.93093258985184
 51
130.7070117400881
  0
ARC
  5
A4C7
330
18
100
AcDbEntity
  8
01
100
AcDbCircle
 10
6464.319870165524
 20
292.6644580970883
 30
0.0
 40
5.191315342240318
100
AcDbArc
 50
230.8426719224737
 51
290.3580965644928
  0
ARC
  5
A4C8
330
18
100
AcDbEntity
  8
01
100
AcDbCircle
 10
6464.401428388499
 20
292.4282348191077
 30
0.0
 40
5.064100820383231
100
AcDbArc
 50
131.5612076041034
 51
228.4387924047356
  0
LINE
  5
AE1C
330
18
100
AcDbEntity
  8
01
100
AcDbLine
 10
6464.436279312605
 20
320.7228512248178
 30
0.0
 11
6428.136279312627
 21
320.7228512248178
 31
0.0
1001
ACAD
1000
DSTYLE
1002
{
1070
     3
1000
φ<>
1070
    40
1040
1.3
1070
    45
1040
0.5
1002
}
  0
LINE
  5
AE1D
330
18
100
AcDbEntity
  8
01
100
AcDbLine
 10
6464.436279312605
 20
263.7228512248391
 30
0.0
 11
6428.136279312627
 21
263.7228512248391
 31
0.0
1001
ACAD
1000
DSTYLE
1002
{
1070
     3
1000
φ<>
1070
    40
1040
1.3
1070
    45
1040
0.5
1002
}
  0
LINE
  5
AE1E
330
18
100
AcDbEntity
  8
01
100
AcDbLine
 10
6429.436279312627
 20
318.1228512248177
 30
0.0
 11
6429.436279312627
 21
266.3228512248392
 31
0.0
1001
ACAD
1000
DSTYLE
1002
{
1070
     3
1000
φ<>
1070
    40
1040
1.3
1070
    45
1040
0.5
1002
}
  0
LINE
  5
AE22
330
18
100
AcDbEntity
  8
01
  6
BYBLOCK
100
AcDbLine
 10
6428.739611418628
 20
318.1228512248177
 30
0.0
 11
6429.436279312627
 21
320.7228512248178
 31
0.0
  0
LINE
  5
AE23
330
18
100
AcDbEntity
  8
01
  6
BYBLOCK
100
AcDbLine
 10
6429.436279312627
 20
320.7228512248178
 30
0.0
 11
6430.132947206627
 21
318.1228512248177
 31
0.0
  0
LINE
  5
AE24
330
18
100
AcDbEntity
  8
01
  6
BYBLOCK
100
AcDbLine
 10
6429.436279312627
 20
320.7228512248178
 30
0.0
 11
6429.436279312627
 21
318.1228512248177
 31
0.0
  0
LINE
  5
AE25
330
18
100
AcDbEntity
  8
01
  6
BYBLOCK
100
AcDbLine
 10
6430.132947206627
 20
266.3228512248392
 30
0.0
 11
6429.436279312627
 21
263.7228512248391
 31
0.0
  0
LINE
  5
AE26
330
18
100
AcDbEntity
  8
01
  6
BYBLOCK
100
AcDbLine
 10
6429.436279312627
 20
263.7228512248391
 30
0.0
 11
6428.739611418628
 21
266.3228512248392
 31
0.0
  0
LINE
  5
AE27
330
18
100
AcDbEntity
  8
01
  6
BYBLOCK
100
AcDbLine
 10
6429.436279312627
 20
263.7228512248391
 30
0.0
 11
6429.436279312627
 21
266.3228512248392
 31
0.0
  0
TEXT
  5
AE28
330
18
100
AcDbEntity
  8
01
  6
CONTINUOUS
100
AcDbText
 10
6428.526279312627
 20
283.7389733182163
 30
0.0
 40
4.55
  1
φ57
 50
90.0
100
AcDbText
1001
ACAD
1000
DSTYLE
1002
{
1070
     3
1000
φ<>
1070
    40
1040
1.3
1070
    45
1040
0.5
1002
}
  0
LINE
  5
AE29
330
18
100
AcDbEntity
  8
1DIM
100
AcDbLine
 10
6464.436279312627
 20
460.7228512248153
 30
0.0
 11
6464.436279312627
 21
395.9228512248152
 31
0.0
1001
ACAD
1000
DSTYLE
1002
{
1070
    40
1040
1.3
1070
    45
1040
0.5
1070
   271
1070
     0
1002
}
  0
LINE
  5
AE2A
330
18
100
AcDbEntity
  8
1DIM
100
AcDbLine
 10
6587.105537208734
 20
430.9672710574323
 30
0.0
 11
6587.105537208734
 21
395.9228512248152
 31
0.0
1001
ACAD
1000
DSTYLE
1002
{
1070
    40
1040
1.3
1070
    45
1040
0.5
1070
   271
1070
     0
1002
}
  0
LINE
  5
AE2B
330
18
100
AcDbEntity
  8
1DIM
100
AcDbLine
 10
6467.036279312628
 20
397.2228512248153
 30
0.0
 11
6584.505537208734
 21
397.2228512248153
 31
0.0
1001
ACAD
1000
DSTYLE
1002
{
1070
    40
1040
1.3
1070
    45
1040
0.5
1070
   271
1070
     0
1002
}
  0
LINE
  5
AE2F
330
18
100
AcDbEntity
  8
1DIM
100
AcDbLine
 10
6450.466626339363
 20
431.2288052873032
 30
0.0
 11
6450.466626339363
 21
385.9228512248152
 31
0.0
1001
ACAD
1000
DSTYLE
1002
{
1070
    40
1040
1.3
1070
    45
1040
0.5
1070
   271
1070
     0
1002
}
  0
LINE
  5
AE30
330
18
100
AcDbEntity
  8
1DIM
100
AcDbLine
 10
6587.105537208734
 20
430.9672710574323
 30
0.0
 11
6587.105537208734
 21
385.9228512248152
 31
0.0
1001
ACAD
1000
DSTYLE
1002
{
1070
    40
1040
1.3
1070
    45
1040
0.5
1070
   271
1070
     0
1002
}
  0
LINE
  5
AE31
330
18
100
AcDbEntity
  8
1DIM
100
AcDbLine
 10
6453.066626339363
 20
387.2228512248153
 30
0.0
 11
6584.505537208734
 21
387.2228512248153
 31
0.0
1001
ACAD
1000
DSTYLE
1002
{
1070
    40
1040
1.3
1070
    45
1040
0.5
1070
   271
1070
     0
1002
}
  0
LINE
  5
AE35
330
18
100
AcDbEntity
  8
1DIM
100
AcDbLine
 10
6570.792058726696
 20
446.2979211250586
 30
0.0
 11
6620.736279312628
 21
446.2979211250586
 31
0.0
1001
ACAD
1000
DSTYLE
1002
{
1070
    40
1040
1.3
1070
    45
1040
0.5
1002
}
  0
LINE
  5
AE36
330
18
100
AcDbEntity
  8
1DIM
100
AcDbLine
 10
6567.191427309976
 20
482.2228512248153
 30
0.0
 11
6620.736279312628
 21
482.2228512248153
 31
0.0
1001
ACAD
1000
DSTYLE
1002
{
1070
    40
1040
1.3
1070
    45
1040
0.5
1002
}
  0
LINE
  5
AE37
330
18
100
AcDbEntity
  8
1DIM
100
AcDbLine
 10
6619.436279312627
 20
448.8979211250586
 30
0.0
 11
6619.436279312627
 21
479.6228512248152
 31
0.0
1001
ACAD
1000
DSTYLE
1002
{
1070
    40
1040
1.3
1070
    45
1040
0.5
1002
}
  0
LINE
  5
AE3B
330
18
100
AcDbEntity
  8
1DIM
100
AcDbLine
 10
6570.292212460683
 20
417.1066790611803
 30
0.0
 11
6630.736279312628
 21
417.1066790611803
 31
0.0
1001
ACAD
1000
DSTYLE
1002
{
1070
    40
1040
1.3
1070
    45
1040
0.5
1002
}
  0
LINE
  5
AE3C
330
18
100
AcDbEntity
  8
1DIM
100
AcDbLine
 10
6567.191427309976
 20
482.2228512248153
 30
0.0
 11
6630.736279312628
 21
482.2228512248153
 31
0.0
1001
ACAD
1000
DSTYLE
1002
{
1070
    40
1040
1.3
1070
    45
1040
0.5
1002
}
  0
LINE
  5
AE3D
330
18
100
AcDbEntity
  8
1DIM
100
AcDbLine
 10
6629.436279312627
 20
419.7066790611804
 30
0.0
 11
6629.436279312627
 21
479.6228512248152
 31
0.0
1001
ACAD
1000
DSTYLE
1002
{
1070
    40
1040
1.3
1070
    45
1040
0.5
1002
}
  0
LINE
  5
AE41
330
18
100
AcDbEntity
  8
1DIM
100
AcDbLine
 10
6573.646385045538
 20
285.3378529509102
 30
0.0
 11
6620.736279312628
 21
285.3378529509102
 31
0.0
1001
ACAD
1000
DSTYLE
1002
{
1070
    40
1040
1.3
1070
    45
1040
0.5
1002
}
  0
LINE
  5
AE42
330
18
100
AcDbEntity
  8
1DIM
100
AcDbLine
 10
6564.821004534105
 20
314.4916111781849
 30
0.0
 11
6620.736279312628
 21
314.4916111781849
 31
0.0
1001
ACAD
1000
DSTYLE
1002
{
1070
    40
1040
1.3
1070
    45
1040
0.5
1002
}
  0
LINE
  5
AE43
330
18
100
AcDbEntity
  8
1DIM
100
AcDbLine
 10
6619.436279312627
 20
287.9378529509103
 30
0.0
 11
6619.436279312627
 21
311.8916111781849
 31
0.0
1001
ACAD
1000
DSTYLE
1002
{
1070
    40
1040
1.3
1070
    45
1040
0.5
1002
}
  0
LINE
  5
AE47
330
18
100
AcDbEntity
  8
0
  6
BYBLOCK
100
AcDbLine
 10
6467.036279312628
 20
396.5261833308153
 30
0.0
 11
6464.436279312627
 21
397.2228512248153
 31
0.0
  0
LINE
  5
AE48
330
18
100
AcDbEntity
  8
0
  6
BYBLOCK
100
AcDbLine
 10
6464.436279312627
 20
397.2228512248153
 30
0.0
 11
6467.036279312628
 21
397.9195191188152
 31
0.0
  0
LINE
  5
AE49
330
18
100
AcDbEntity
  8
0
  6
BYBLOCK
100
AcDbLine
 10
6464.436279312627
 20
397.2228512248153
 30
0.0
 11
6467.036279312628
 21
397.2228512248153
 31
0.0
  0
LINE
  5
AE4A
330
18
100
AcDbEntity
  8
0
  6
BYBLOCK
100
AcDbLine
 10
6584.505537208734
 20
397.9195191188152
 30
0.0
 11
6587.105537208734
 21
397.2228512248153
 31
0.0
  0
LINE
  5
AE4B
330
18
100
AcDbEntity
  8
0
  6
BYBLOCK
100
AcDbLine
 10
6587.105537208734
 20
397.2228512248153
 30
0.0
 11
6584.505537208734
 21
396.5261833308153
 31
0.0
  0
LINE
  5
AE4C
330
18
100
AcDbEntity
  8
0
  6
BYBLOCK
100
AcDbLine
 10
6587.105537208734
 20
397.2228512248153
 30
0.0
 11
6584.505537208734
 21
397.2228512248153
 31
0.0
  0
TEXT
  5
AE4D
330
18
100
AcDbEntity
  8
1DIM
  6
CONTINUOUS
100
AcDbText
 10
6520.462574927347
 20
398.1328512248152
 30
0.0
 40
4.55
  1
123
100
AcDbText
1001
ACAD
1000
DSTYLE
1002
{
1070
    40
1040
1.3
1070
    45
1040
0.5
1070
   271
1070
     0
1002
}
  0
LINE
  5
AE4E
330
18
100
AcDbEntity
  8
0
  6
BYBLOCK
100
AcDbLine
 10
6453.066626339363
 20
386.5261833308153
 30
0.0
 11
6450.466626339363
 21
387.2228512248153
 31
0.0
  0
LINE
  5
AE4F
330
18
100
AcDbEntity
  8
0
  6
BYBLOCK
100
AcDbLine
 10
6450.466626339363
 20
387.2228512248153
 30
0.0
 11
6453.066626339363
 21
387.9195191188152
 31
0.0
  0
LINE
  5
AE50
330
18
100
AcDbEntity
  8
0
  6
BYBLOCK
100
AcDbLine
 10
6450.466626339363
 20
387.2228512248153
 30
0.0
 11
6453.066626339363
 21
387.2228512248153
 31
0.0
  0
LINE
  5
AE51
330
18
100
AcDbEntity
  8
0
  6
BYBLOCK
100
AcDbLine
 10
6584.505537208734
 20
387.9195191188152
 30
0.0
 11
6587.105537208734
 21
387.2228512248153
 31
0.0
  0
LINE
  5
AE52
330
18
100
AcDbEntity
  8
0
  6
BYBLOCK
100
AcDbLine
 10
6587.105537208734
 20
387.2228512248153
 30
0.0
 11
6584.505537208734
 21
386.5261833308153
 31
0.0
  0
LINE
  5
AE53
330
18
100
AcDbEntity
  8
0
  6
BYBLOCK
100
AcDbLine
 10
6587.105537208734
 20
387.2228512248153
 30
0.0
 11
6584.505537208734
 21
387.2228512248153
 31
0.0
  0
TEXT
  5
AE54
330
18
100
AcDbEntity
  8
1DIM
  6
CONTINUOUS
100
AcDbText
 10
6513.477748440715
 20
388.1328512248152
 30
0.0
 40
4.55
  1
137
100
AcDbText
1001
ACAD
1000
DSTYLE
1002
{
1070
    40
1040
1.3
1070
    45
1040
0.5
1070
   271
1070
     0
1002
}
  0
LINE
  5
AE55
330
18
100
AcDbEntity
  8
0
  6
BYBLOCK
100
AcDbLine
 10
6620.132947206627
 20
448.8979211250586
 30
0.0
 11
6619.436279312627
 21
446.2979211250586
 31
0.0
  0
LINE
  5
AE56
330
18
100
AcDbEntity
  8
0
  6
BYBLOCK
100
AcDbLine
 10
6619.436279312627
 20
446.2979211250586
 30
0.0
 11
6618.739611418628
 21
448.8979211250586
 31
0.0
  0
LINE
  5
AE57
330
18
100
AcDbEntity
  8
0
  6
BYBLOCK
100
AcDbLine
 10
6619.436279312627
 20
446.2979211250586
 30
0.0
 11
6619.436279312627
 21
448.8979211250586
 31
0.0
  0
LINE
  5
AE58
330
18
100
AcDbEntity
  8
0
  6
BYBLOCK
100
AcDbLine
 10
6618.739611418628
 20
479.6228512248152
 30
0.0
 11
6619.436279312627
 21
482.2228512248153
 31
0.0
  0
LINE
  5
AE59
330
18
100
AcDbEntity
  8
0
  6
BYBLOCK
100
AcDbLine
 10
6619.436279312627
 20
482.2228512248153
 30
0.0
 11
6620.132947206627
 21
479.6228512248152
 31
0.0
  0
LINE
  5
AE5A
330
18
100
AcDbEntity
  8
0
  6
BYBLOCK
100
AcDbLine
 10
6619.436279312627
 20
482.2228512248153
 30
0.0
 11
6619.436279312627
 21
479.6228512248152
 31
0.0
  0
TEXT
  5
AE5B
330
18
100
AcDbEntity
  8
1DIM
  6
CONTINUOUS
100
AcDbText
 10
6618.526279312627
 20
460.4687195082706
 30
0.0
 40
4.55
  1
36
 50
90.0
100
AcDbText
1001
ACAD
1000
DSTYLE
1002
{
1070
    40
1040
1.3
1070
    45
1040
0.5
1002
}
  0
LINE
  5
AE5C
330
18
100
AcDbEntity
  8
0
  6
BYBLOCK
100
AcDbLine
 10
6630.132947206627
 20
419.7066790611804
 30
0.0
 11
6629.436279312627
 21
417.1066790611803
 31
0.0
  0
LINE
  5
AE5D
330
18
100
AcDbEntity
  8
0
  6
BYBLOCK
100
AcDbLine
 10
6629.436279312627
 20
417.1066790611803
 30
0.0
 11
6628.739611418628
 21
419.7066790611804
 31
0.0
  0
LINE
  5
AE5E
330
18
100
AcDbEntity
  8
0
  6
BYBLOCK
100
AcDbLine
 10
6629.436279312627
 20
417.1066790611803
 30
0.0
 11
6629.436279312627
 21
419.7066790611804
 31
0.0
  0
LINE
  5
AE5F
330
18
100
AcDbEntity
  8
0
  6
BYBLOCK
100
AcDbLine
 10
6628.739611418628
 20
479.6228512248152
 30
0.0
 11
6629.436279312627
 21
482.2228512248153
 31
0.0
  0
LINE
  5
AE60
330
18
100
AcDbEntity
  8
0
  6
BYBLOCK
100
AcDbLine
 10
6629.436279312627
 20
482.2228512248153
 30
0.0
 11
6630.132947206627
 21
479.6228512248152
 31
0.0
  0
LINE
  5
AE61
330
18
100
AcDbEntity
  8
0
  6
BYBLOCK
100
AcDbLine
 10
6629.436279312627
 20
482.2228512248153
 30
0.0
 11
6629.436279312627
 21
479.6228512248152
 31
0.0
  0
TEXT
  5
AE62
330
18
100
AcDbEntity
  8
1DIM
  6
CONTINUOUS
100
AcDbText
 10
6628.526279312627
 20
445.8572998652207
 30
0.0
 40
4.55
  1
65
 50
90.0
100
AcDbText
1001
ACAD
1000
DSTYLE
1002
{
1070
    40
1040
1.3
1070
    45
1040
0.5
1002
}
  0
LINE
  5
AE63
330
18
100
AcDbEntity
  8
0
  6
BYBLOCK
100
AcDbLine
 10
6620.132947206627
 20
287.9378529509103
 30
0.0
 11
6619.436279312627
 21
285.3378529509102
 31
0.0
  0
LINE
  5
AE64
330
18
100
AcDbEntity
  8
0
  6
BYBLOCK
100
AcDbLine
 10
6619.436279312627
 20
285.3378529509102
 30
0.0
 11
6618.739611418628
 21
287.9378529509103
 31
0.0
  0
LINE
  5
AE65
330
18
100
AcDbEntity
  8
0
  6
BYBLOCK
100
AcDbLine
 10
6619.436279312627
 20
285.3378529509102
 30
0.0
 11
6619.436279312627
 21
287.9378529509103
 31
0.0
  0
LINE
  5
AE66
330
18
100
AcDbEntity
  8
0
  6
BYBLOCK
100
AcDbLine
 10
6618.739611418628
 20
311.8916111781849
 30
0.0
 11
6619.436279312627
 21
314.4916111781849
 31
0.0
  0
LINE
  5
AE67
330
18
100
AcDbEntity
  8
0
  6
BYBLOCK
100
AcDbLine
 10
6619.436279312627
 20
314.4916111781849
 30
0.0
 11
6620.132947206627
 21
311.8916111781849
 31
0.0
  0
LINE
  5
AE68
330
18
100
AcDbEntity
  8
0
  6
BYBLOCK
100
AcDbLine
 10
6619.436279312627
 20
314.4916111781849
 30
0.0
 11
6619.436279312627
 21
311.8916111781849
 31
0.0
  0
TEXT
  5
AE69
330
18
100
AcDbEntity
  8
1DIM
  6
CONTINUOUS
100
AcDbText
 10
6618.526279312627
 20
296.1220121571414
 30
0.0
 40
4.55
  1
29
 50
90.0
100
AcDbText
1001
ACAD
1000
DSTYLE
1002
{
1070
    40
1040
1.3
1070
    45
1040
0.5
1002
}
  0
VIEWPORT
  5
57
330
15
100
AcDbEntity
 67
     1
  8
0
100
AcDbViewport
 68
     1
 10
0.0
 20
0.0
 30
0.0
 40
663.4332925336597
 41
297.0
 68
     1
 69
     1
1001
ACAD
1000
MVIEW
1002
{
1070
    16
1010
0.0
1020
0.0
1030
0.0
1010
0.0
1020
0.0
1030
1.0
1040
0.0
1040
297.0
1040
-5.432831725808001
1040
12.04318030234199
1040
50.0
1040
0.0
1040
0.0
1070
    16
1070
   100
1070
     0
1070
     1
1070
     0
1070
     0
1070
     0
1070
     0
1040
0.0
1040
0.0
1040
0.0
1040
10.0
1040
10.0
1040
10.0
1040
10.0
1070
     0
1002
{
1002
}
1002
}
  0
ENDSEC
  0
SECTION
  2
OBJECTS
  0
DICTIONARY
  5
C
330
0
100
AcDbDictionary
  3
ACAD_COLOR
350
18D
  3
ACAD_GROUP
350
D
  3
ACAD_LAYOUT
350
18E
  3
ACAD_MATERIAL
350
18C
  3
ACAD_MLEADERSTYLE
350
9583
  3
ACAD_MLINESTYLE
350
1B
  3
ACAD_PLOTSETTINGS
350
18F
  3
ACAD_SCALELIST
350
9561
  3
ACAD_VISUALSTYLE
350
9550
  3
ACDBHEADERROUNDTRIPXREC
350
AE6A
  3
ACDBVARIABLEDICTIONARY
350
37
  3
CONTENTDICTIONARY
350
D8
  3
DRAWINGVARIABLESDICT
350
20
  3
DWGPROPS
350
AE6D
1001
ACAD
1000
TREAT_AS_HARD
1070
     0
  0
DICTIONARY
  5
96D9
330
2
100
AcDbDictionary
  3
ACAD_LAYERSTATES
360
96DA
1001
ACAD
1000
TREAT_AS_HARD
1070
     1
  0
DICTIONARY
  5
9593
330
E
100
AcDbDictionary
  3
ADSK_XREC_LAYER_RECONCILED
360
9594
1001
ACAD
1000
TREAT_AS_HARD
1070
     1
  0
DICTIONARY
  5
9595
330
29
100
AcDbDictionary
  3
ADSK_XREC_LAYER_RECONCILED
360
9596
1001
ACAD
1000
TREAT_AS_HARD
1070
     1
  0
DICTIONARY
  5
9597
330
31
100
AcDbDictionary
  3
ADSK_XREC_LAYER_RECONCILED
360
9598
1001
ACAD
1000
TREAT_AS_HARD
1070
     1
  0
DICTIONARY
  5
959D
330
243
100
AcDbDictionary
  3
ADSK_XREC_LAYER_RECONCILED
360
959E
1001
ACAD
1000
TREAT_AS_HARD
1070
     1
  0
DICTIONARY
  5
95A3
330
24E
100
AcDbDictionary
  3
ADSK_XREC_LAYER_RECONCILED
360
95A4
1001
ACAD
1000
TREAT_AS_HARD
1070
     1
  0
DICTIONARY
  5
95A7
330
6A1
100
AcDbDictionary
  3
ADSK_XREC_LAYER_RECONCILED
360
95A8
1001
ACAD
1000
TREAT_AS_HARD
1070
     1
  0
DICTIONARY
  5
95A9
330
6A2
100
AcDbDictionary
  3
ADSK_XREC_LAYER_RECONCILED
360
95AA
1001
ACAD
1000
TREAT_AS_HARD
1070
     1
  0
DICTIONARY
  5
95AB
330
6A3
100
AcDbDictionary
  3
ADSK_XREC_LAYER_RECONCILED
360
95AC
1001
ACAD
1000
TREAT_AS_HARD
1070
     1
  0
DICTIONARY
  5
95AD
330
6A4
100
AcDbDictionary
  3
ADSK_XREC_LAYER_RECONCILED
360
95AE
1001
ACAD
1000
TREAT_AS_HARD
1070
     1
  0
DICTIONARY
  5
88F
330
18
100
AcDbDictionary
  3
ACAD_SORTENTS
360
890
1001
ACAD
1000
TREAT_AS_HARD
1070
     1
  0
DICTIONARY
  5
18D
102
{ACAD_REACTORS
330
C
102
}
330
C
100
AcDbDictionary
1001
ACAD
1000
TREAT_AS_HARD
1070
     0
  0
DICTIONARY
  5
D
102
{ACAD_REACTORS
330
C
102
}
330
C
100
AcDbDictionary
1001
ACAD
1000
TREAT_AS_HARD
1070
     0
  0
DICTIONARY
  5
18E
102
{ACAD_REACTORS
330
C
102
}
330
C
100
AcDbDictionary
1001
ACAD
1000
TREAT_AS_HARD
1070
     0
  0
DICTIONARY
  5
18C
102
{ACAD_REACTORS
330
C
102
}
330
C
100
AcDbDictionary
  3
BYBLOCK
350
9540
  3
BYLAYER
350
9538
  3
GLOBAL
350
9548
1001
ACAD
1000
TREAT_AS_HARD
1070
     0
  0
DICTIONARY
  5
9583
102
{ACAD_REACTORS
330
C
102
}
330
C
100
AcDbDictionary
  3
STANDARD
350
9584
1001
ACAD
1000
TREAT_AS_HARD
1070
     0
  0
DICTIONARY
  5
1B
102
{ACAD_REACTORS
330
C
102
}
330
C
100
AcDbDictionary
  3
STANDARD
350
1C
1001
ACAD
1000
TREAT_AS_HARD
1070
     0
  0
DICTIONARY
  5
18F
102
{ACAD_REACTORS
330
C
102
}
330
C
100
AcDbDictionary
1001
ACAD
1000
TREAT_AS_HARD
1070
     0
  0
DICTIONARY
  5
9561
102
{ACAD_REACTORS
330
C
102
}
330
C
100
AcDbDictionary
  3
A0
350
9562
  3
A1
350
9563
  3
A2
350
9564
  3
A3
350
9565
  3
A4
350
9566
  3
A5
350
9567
  3
A6
350
9568
  3
A7
350
9569
  3
A8
350
956A
  3
A9
350
956B
  3
B0
350
956C
  3
B1
350
956D
  3
B2
350
956E
  3
B3
350
956F
  3
B4
350
9570
  3
B5
350
9571
  3
B6
350
9572
  3
B7
350
9573
  3
B8
350
9574
  3
B9
350
9575
  3
C0
350
9576
  3
C1
350
9577
  3
C2
350
9578
  3
C3
350
9579
  3
C4
350
957A
  3
C5
350
957B
  3
C6
350
957C
  3
C7
350
957D
  3
C8
350
957E
  3
C9
350
957F
  3
D0
350
9580
  3
D1
350
9581
  3
D2
350
9582
1001
ACAD
1000
TREAT_AS_HARD
1070
     0
  0
DICTIONARY
  5
9550
102
{ACAD_REACTORS
330
C
102
}
330
C
100
AcDbDictionary
  3
2DWIREFRAME
350
9556
  3
3D_HIDDEN
350
9558
  3
3DWIREFRAME
350
9557
  3
BASIC
350
9555
  3
BRIGHTEN
350
955C
  3
COLORCHANGE
350
9560
  3
CONCEPTUAL
350
9559
  3
DIM
350
955B
  3
EDGECOLOROFF
350
A211
  3
FACEPATTERN
350
955F
  3
FLAT
350
9551
  3
FLATWITHEDGES
350
9552
  3
GOURAUD
350
9553
  3
GOURAUDWITHEDGES
350
9554
  3
HIDDEN
350
A585
  3
JITTEROFF
350
A20F
  3
LINEPATTERN
350
955E
  3
MODELING
350
A58B
  3
OVERHANGOFF
350
A210
  3
REALISTIC
350
955A
  3
SHADED
350
A58A
  3
SHADED_WITH_EDGES
350
A589
  3
SHADES_OF_GRAY
350
A586
  3
SKETCHY
350
A587
  3
THICKEN
350
955D
  3
WIREFRAME
350
A584
  3
X-RAY
350
A588
1001
ACAD
1000
TREAT_AS_HARD
1070
     0
  0
DICTIONARY
  5
AE6A
102
{ACAD_REACTORS
330
C
102
}
330
C
100
AcDbDictionary
  3
COLORDICT
350
AE6B
  3
MATERIALDICT
350
AE6C
1001
ACAD
1000
TREAT_AS_HARD
1070
     0
  0
DICTIONARY
  5
37
102
{ACAD_REACTORS
330
C
102
}
330
C
100
AcDbDictionary
  3
CANNOSCALE
350
AD9F
  3
CMLEADERSTYLE
350
9627
  3
CTABLESTYLE
350
29E
  3
DIMADEC
350
38
  3
DIMASSOC
350
1CE
  3
HIDETEXT
350
704E
  3
INDEXCTL
350
962A
  3
INTERSECTIONCOLOR
350
7052
  3
INTERSECTIONDISPLAY
350
7051
  3
MSLTSCALE
350
ADEF
  3
OBSCOLOR
350
704F
  3
OBSLTYPE
350
7050
  3
PROJECTNAME
350
1CF
  3
SORTENTS
350
9629
  3
XCLIPFRAME
350
A583
1001
ACAD
1000
TREAT_AS_HARD
1070
     0
  0
DICTIONARY
  5
D8
102
{ACAD_REACTORS
330
C
102
}
330
C
100
AcDbDictionary
1001
ACAD
1000
TREAT_AS_HARD
1070
     0
  0
DICTIONARY
  5
20
102
{ACAD_REACTORS
330
C
102
}
330
C
100
AcDbDictionary
1001
DRAWINGVARIABLESXDATA
1000
POLARANG
1000
0.261799387799149410000000
1000
POLARMODE
1000
1
1000
POLARSTYLE
1000
1
1001
ACAD
1000
TREAT_AS_HARD
1070
     0
  0
XRECORD
  5
AE6D
102
{ACAD_REACTORS
330
C
102
}
330
C
100
AcDbXrecord
  1
DWGPROPS COOKIE
  2

  3

  4

  6

  7

  8
3684
  9

300
=
301
=
302
=
303
=
304
=
305
=
306
=
307
=
308
=
309
=
 40
0.0
 41
2451318.246352917
 42
2458150.098201412
  1

 90
        0
  0
DICTIONARY
  5
96DA
102
{ACAD_REACTORS
330
96D9
102
}
330
96D9
100
AcDbDictionary
1001
ACAD
1000
TREAT_AS_HARD
1070
     0
  0
ACAD_PROXY_OBJECT
  5
9594
102
{ACAD_REACTORS
330
9593
102
}
330
9593
100
AcDbZombieObject
 90
      499
 91
      514
 93
       34
310
40C8804040
  0
ACAD_PROXY_OBJECT
  5
9596
102
{ACAD_REACTORS
330
9595
102
}
330
9595
100
AcDbZombieObject
 90
      499
 91
      514
 93
       34
310
40C8804040
  0
ACAD_PROXY_OBJECT
  5
9598
102
{ACAD_REACTORS
330
9597
102
}
330
9597
100
AcDbZombieObject
 90
      499
 91
      514
 93
       34
310
40C8804040
  0
ACAD_PROXY_OBJECT
  5
959E
102
{ACAD_REACTORS
330
959D
102
}
330
959D
100
AcDbZombieObject
 90
      499
 91
      514
 93
       34
310
40C8804040
  0
ACAD_PROXY_OBJECT
  5
95A4
102
{ACAD_REACTORS
330
95A3
102
}
330
95A3
100
AcDbZombieObject
 90
      499
 91
      514
 93
       34
310
40C8804040
  0
ACAD_PROXY_OBJECT
  5
95A8
102
{ACAD_REACTORS
330
95A7
102
}
330
95A7
100
AcDbZombieObject
 90
      499
 91
      514
 93
       34
310
40C8804040
  0
ACAD_PROXY_OBJECT
  5
95AA
102
{ACAD_REACTORS
330
95A9
102
}
330
95A9
100
AcDbZombieObject
 90
      499
 91
      514
 93
       34
310
40C8804040
  0
ACAD_PROXY_OBJECT
  5
95AC
102
{ACAD_REACTORS
330
95AB
102
}
330
95AB
100
AcDbZombieObject
 90
      499
 91
      514
 93
       34
310
40C8804040
  0
ACAD_PROXY_OBJECT
  5
95AE
102
{ACAD_REACTORS
330
95AD
102
}
330
95AD
100
AcDbZombieObject
 90
      499
 91
      514
 93
       34
310
40C8804040
  0
SORTENTSTABLE
  5
890
102
{ACAD_REACTORS
330
88F
102
}
330
88F
100
AcDbSortentsTable
330
18
331
A3E8
  5
A3F5
331
A3E9
  5
A3F6
331
A3EA
  5
A3F7
331
A3EB
  5
A3F8
331
A3EC
  5
A3F9
331
A3ED
  5
A3FA
331
0
  5
A3FB
331
0
  5
A3FC
331
0
  5
A3FD
331
0
  5
A3FE
331
0
  5
A3FF
331
A3F3
  5
A441
331
A3F4
  5
A442
331
A3F5
  5
A443
331
A3F6
  5
A444
331
A3F7
  5
A445
331
A3F8
  5
A446
331
A3F9
  5
A447
331
A3FA
  5
A448
331
A3FB
  5
A449
331
A3FC
  5
A44A
331
A3FD
  5
A44B
331
A3FE
  5
A44C
331
A3FF
  5
A44D
331
A400
  5
A44E
331
A401
  5
A44F
331
A402
  5
A450
331
A403
  5
A451
331
A404
  5
A452
331
A405
  5
A453
331
A406
  5
A454
331
A407
  5
A455
331
A408
  5
A456
331
A409
  5
A457
331
A40A
  5
A458
331
A40B
  5
A459
331
A40C
  5
A45A
331
A40D
  5
A45B
331
A40E
  5
A45C
331
A40F
  5
A45D
331
A410
  5
A45E
331
A411
  5
A45F
331
A412
  5
A460
331
A413
  5
A461
331
A414
  5
A462
331
A415
  5
A463
331
A416
  5
A464
331
A417
  5
A465
331
A418
  5
A466
331
A419
  5
A467
331
A41A
  5
A468
331
A41B
  5
A469
331
A41C
  5
A46A
331
A41D
  5
A46B
331
A41E
  5
A46C
331
A41F
  5
A46D
331
A420
  5
A46E
331
A421
  5
A46F
331
A422
  5
A470
331
A423
  5
A471
331
A424
  5
A472
331
A425
  5
A473
331
A426
  5
A474
331
A427
  5
A475
331
A428
  5
A476
331
A429
  5
A477
331
A42A
  5
A478
331
A42B
  5
A479
331
A42C
  5
A47A
331
A42D
  5
A47B
331
A42E
  5
A47C
331
A42F
  5
A47D
331
A430
  5
A47E
331
A431
  5
A47F
331
A432
  5
A480
331
A433
  5
A481
331
A434
  5
A482
331
A435
  5
A483
331
A436
  5
A484
331
A437
  5
A485
331
A438
  5
A486
331
A439
  5
A487
331
A43A
  5
A488
331
A43B
  5
A489
331
A43C
  5
A48A
331
A43D
  5
A48B
331
A43E
  5
A48C
331
A43F
  5
A48D
331
A440
  5
A48E
331
A441
  5
A48F
331
A442
  5
A490
331
A443
  5
A491
331
A444
  5
A492
331
A445
  5
A493
331
A446
  5
A494
331
A447
  5
A495
331
A448
  5
A496
331
A449
  5
A497
331
A44A
  5
A498
331
A44B
  5
A499
331
A44C
  5
A49A
331
A44D
  5
A49B
331
A44E
  5
A49C
331
A44F
  5
A49D
331
A450
  5
A49E
331
A451
  5
A49F
331
A452
  5
A4A0
331
A453
  5
A4A1
331
A454
  5
A4A2
331
A455
  5
A4A3
331
A456
  5
A4A4
331
A457
  5
A4A5
331
A458
  5
A4A6
331
A459
  5
A4A7
331
A45A
  5
A4A8
331
A45B
  5
A4A9
331
A45C
  5
A4AA
331
A45D
  5
A4AB
331
A45E
  5
A4AC
331
A45F
  5
A4AD
331
A460
  5
A4AE
331
A461
  5
A4AF
331
A462
  5
A4B0
331
A463
  5
A4B1
331
A464
  5
A4B2
331
A465
  5
A4B3
331
A466
  5
A4B4
331
A467
  5
A4B5
331
A468
  5
A4B6
331
A469
  5
A4B7
331
A46A
  5
A4B8
331
A46B
  5
A4B9
331
A46C
  5
A4BA
331
A46D
  5
A4BB
331
A46E
  5
A4BC
331
A46F
  5
A4BD
331
A470
  5
A4BE
331
A471
  5
A4BF
331
A472
  5
A4C0
331
A473
  5
A4C1
331
A474
  5
A4C2
331
A475
  5
A4C3
331
A476
  5
A4C4
331
A477
  5
A4C5
331
A478
  5
A4C6
331
A479
  5
A4C7
331
A47A
  5
A4C8
331
A47B
  5
AE1C
331
A47C
  5
AE1D
331
A47D
  5
AE1E
331
A47E
  5
AE1F
331
A47F
  5
AE20
331
A480
  5
AE21
331
A481
  5
AE22
331
A482
  5
AE23
331
A483
  5
AE24
331
A484
  5
AE25
331
A485
  5
AE26
331
A486
  5
AE27
331
A487
  5
AE28
331
A488
  5
AE29
331
A489
  5
AE2A
331
A48A
  5
AE2B
331
A48B
  5
AE2C
331
A48C
  5
AE2D
331
A48D
  5
AE2E
331
A48E
  5
AE2F
331
A48F
  5
AE30
331
A490
  5
AE31
331
A491
  5
AE32
331
A492
  5
AE33
331
A493
  5
AE34
331
A494
  5
AE35
331
A495
  5
AE36
331
A496
  5
AE37
331
A497
  5
AE38
331
A498
  5
AE39
331
A499
  5
AE3A
331
A49A
  5
AE3B
331
A49B
  5
AE3C
331
A49C
  5
AE3D
331
A49D
  5
AE3E
331
A49E
  5
AE3F
331
A49F
  5
AE40
331
A4A0
  5
AE41
331
A4A1
  5
AE42
331
A4A2
  5
AE43
331
A4A3
  5
AE44
331
A4A4
  5
AE45
331
A4A5
  5
AE46
331
A4A6
  5
AE47
331
A4A7
  5
AE48
331
A4A8
  5
AE49
331
A4A9
  5
AE4A
331
A4AA
  5
AE4B
331
A4AB
  5
AE4C
331
A4AC
  5
AE4D
331
A4AD
  5
AE4E
331
A4AE
  5
AE4F
331
A4AF
  5
AE50
331
A4B0
  5
AE51
331
A4B1
  5
AE52
331
A4B2
  5
AE53
331
A4B3
  5
AE54
331
A4B4
  5
AE55
331
A4B5
  5
AE56
331
A4B6
  5
AE57
331
A4B7
  5
AE58
331
A4B8
  5
AE59
331
A4B9
  5
AE5A
331
A4BA
  5
AE5B
331
A4BB
  5
AE5C
331
A4BC
  5
AE5D
331
A4BD
  5
AE5E
331
A4BE
  5
AE5F
331
A4BF
  5
AE60
331
A4C0
  5
AE61
331
A4C1
  5
AE62
331
A4C2
  5
AE63
331
A4C3
  5
AE64
331
A4C4
  5
AE65
331
A4C5
  5
AE66
331
A4C6
  5
AE67
331
A4C7
  5
AE68
331
A4C8
  5
AE69
331
AE1C
  5
A3E8
331
AE1D
  5
A3E9
331
AE1E
  5
A3EA
331
0
  5
A3EB
331
0
  5
A3EC
331
0
  5
A3ED
331
AE22
  5
A3EE
331
AE23
  5
A3EF
331
AE24
  5
A3F0
331
AE25
  5
A3F1
331
AE26
  5
A3F2
331
AE27
  5
A3F3
331
AE28
  5
A3F4
331
AE29
  5
A400
331
AE2A
  5
A401
331
AE2B
  5
A402
331
0
  5
A403
331
0
  5
A404
331
0
  5
A405
331
AE2F
  5
A413
331
AE30
  5
A414
331
AE31
  5
A418
331
0
  5
A409
331
0
  5
A40A
331
0
  5
A40B
331
AE35
  5
A423
331
AE36
  5
A424
331
AE37
  5
A425
331
0
  5
A40F
331
0
  5
A410
331
0
  5
A411
331
AE3B
  5
A42D
331
AE3C
  5
A42E
331
AE3D
  5
A42F
331
0
  5
A415
331
0
  5
A416
331
0
  5
A417
331
AE41
  5
A437
331
AE42
  5
A438
331
AE43
  5
A439
331
0
  5
A41B
331
0
  5
A41C
331
0
  5
A41D
331
AE47
  5
A406
331
AE48
  5
A407
331
AE49
  5
A408
331
AE4A
  5
A40C
331
AE4B
  5
A40D
331
AE4C
  5
A40E
331
AE4D
  5
A412
331
AE4E
  5
A419
331
AE4F
  5
A41A
331
AE50
  5
A41E
331
AE51
  5
A41F
331
AE52
  5
A420
331
AE53
  5
A421
331
AE54
  5
A422
331
AE55
  5
A426
331
AE56
  5
A427
331
AE57
  5
A428
331
AE58
  5
A429
331
AE59
  5
A42A
331
AE5A
  5
A42B
331
AE5B
  5
A42C
331
AE5C
  5
A430
331
AE5D
  5
A431
331
AE5E
  5
A432
331
AE5F
  5
A433
331
AE60
  5
A434
331
AE61
  5
A435
331
AE62
  5
A436
331
AE63
  5
A43A
331
AE64
  5
A43B
331
AE65
  5
A43C
331
AE66
  5
A43D
331
AE67
  5
A43E
331
AE68
  5
A43F
331
AE69
  5
A440
  0
MATERIAL
  5
9540
102
{ACAD_REACTORS
330
18C
102
}
102
{ACAD_XDICTIONARY
360
B008
102
}
330
18C
100
AcDbMaterial
  1
BYBLOCK
 72
     0
 73
     2
 43
0.0208333333333333
 43
0.0
 43
0.0
 43
0.0
 43
0.0
 43
0.0208333333333333
 43
0.0
 43
0.0
 43
0.0
 43
0.0
 43
1.0
 43
0.0
 43
0.0
 43
0.0
 43
0.0
 43
1.0
 77
     0
 78
     2
 47
0.0208333333333333
 47
0.0
 47
0.0
 47
0.0
 47
0.0
 47
0.0208333333333333
 47
0.0
 47
0.0
 47
0.0
 47
0.0
 47
1.0
 47
0.0
 47
0.0
 47
0.0
 47
0.0
 47
1.0
171
     0
172
     2
 49
0.0208333333333333
 49
0.0
 49
0.0
 49
0.0
 49
0.0
 49
0.0208333333333333
 49
0.0
 49
0.0
 49
0.0
 49
0.0
 49
1.0
 49
0.0
 49
0.0
 49
0.0
 49
0.0
 49
1.0
175
     0
176
     2
142
0.0208333333333333
142
0.0
142
0.0
142
0.0
142
0.0
142
0.0208333333333333
142
0.0
142
0.0
142
0.0
142
0.0
142
1.0
142
0.0
142
0.0
142
0.0
142
0.0
142
1.0
179
     0
270
     2
144
0.0208333333333333
144
0.0
144
0.0
144
0.0
144
0.0
144
0.0208333333333333
144
0.0
144
0.0
144
0.0
144
0.0
144
1.0
144
0.0
144
0.0
144
0.0
144
0.0
144
1.0
274
     2
147
0.0208333333333333
147
0.0
147
0.0
147
0.0
147
0.0
147
0.0208333333333333
147
0.0
147
0.0
147
0.0
147
0.0
147
1.0
147
0.0
147
0.0
147
0.0
147
0.0
147
1.0
  0
MATERIAL
  5
9538
102
{ACAD_REACTORS
330
18C
102
}
102
{ACAD_XDICTIONARY
360
B00A
102
}
330
18C
100
AcDbMaterial
  1
BYLAYER
 72
     0
 73
     2
 43
0.0208333333333333
 43
0.0
 43
0.0
 43
0.0
 43
0.0
 43
0.0208333333333333
 43
0.0
 43
0.0
 43
0.0
 43
0.0
 43
1.0
 43
0.0
 43
0.0
 43
0.0
 43
0.0
 43
1.0
 77
     0
 78
     2
 47
0.0208333333333333
 47
0.0
 47
0.0
 47
0.0
 47
0.0
 47
0.0208333333333333
 47
0.0
 47
0.0
 47
0.0
 47
0.0
 47
1.0
 47
0.0
 47
0.0
 47
0.0
 47
0.0
 47
1.0
171
     0
172
     2
 49
0.0208333333333333
 49
0.0
 49
0.0
 49
0.0
 49
0.0
 49
0.0208333333333333
 49
0.0
 49
0.0
 49
0.0
 49
0.0
 49
1.0
 49
0.0
 49
0.0
 49
0.0
 49
0.0
 49
1.0
175
     0
176
     2
142
0.0208333333333333
142
0.0
142
0.0
142
0.0
142
0.0
142
0.0208333333333333
142
0.0
142
0.0
142
0.0
142
0.0
142
1.0
142
0.0
142
0.0
142
0.0
142
0.0
142
1.0
179
     0
270
     2
144
0.0208333333333333
144
0.0
144
0.0
144
0.0
144
0.0
144
0.0208333333333333
144
0.0
144
0.0
144
0.0
144
0.0
144
1.0
144
0.0
144
0.0
144
0.0
144
0.0
144
1.0
274
     2
147
0.0208333333333333
147
0.0
147
0.0
147
0.0
147
0.0
147
0.0208333333333333
147
0.0
147
0.0
147
0.0
147
0.0
147
1.0
147
0.0
147
0.0
147
0.0
147
0.0
147
1.0
  0
MATERIAL
  5
9548
102
{ACAD_REACTORS
330
18C
102
}
102
{ACAD_XDICTIONARY
360
B00C
102
}
330
18C
100
AcDbMaterial
  1
GLOBAL
 72
     0
 73
     2
 43
0.0208333333333333
 43
0.0
 43
0.0
 43
0.0
 43
0.0
 43
0.0208333333333333
 43
0.0
 43
0.0
 43
0.0
 43
0.0
 43
1.0
 43
0.0
 43
0.0
 43
0.0
 43
0.0
 43
1.0
 77
     0
 78
     2
 47
0.0208333333333333
 47
0.0
 47
0.0
 47
0.0
 47
0.0
 47
0.0208333333333333
 47
0.0
 47
0.0
 47
0.0
 47
0.0
 47
1.0
 47
0.0
 47
0.0
 47
0.0
 47
0.0
 47
1.0
171
     0
172
     2
 49
0.0208333333333333
 49
0.0
 49
0.0
 49
0.0
 49
0.0
 49
0.0208333333333333
 49
0.0
 49
0.0
 49
0.0
 49
0.0
 49
1.0
 49
0.0
 49
0.0
 49
0.0
 49
0.0
 49
1.0
175
     0
176
     2
142
0.0208333333333333
142
0.0
142
0.0
142
0.0
142
0.0
142
0.0208333333333333
142
0.0
142
0.0
142
0.0
142
0.0
142
1.0
142
0.0
142
0.0
142
0.0
142
0.0
142
1.0
179
     0
270
     2
144
0.0208333333333333
144
0.0
144
0.0
144
0.0
144
0.0
144
0.0208333333333333
144
0.0
144
0.0
144
0.0
144
0.0
144
1.0
144
0.0
144
0.0
144
0.0
144
0.0
144
1.0
274
     2
147
0.0208333333333333
147
0.0
147
0.0
147
0.0
147
0.0
147
0.0208333333333333
147
0.0
147
0.0
147
0.0
147
0.0
147
1.0
147
0.0
147
0.0
147
0.0
147
0.0
147
1.0
  0
ACAD_PROXY_OBJECT
  5
9584
102
{ACAD_REACTORS
330
9583
102
}
330
9583
100
AcDbZombieObject
 90
      499
 91
      511
 93
      610
310
40901902A4063FBFFFFFE000000000000002040AD7A3703D0AD73F4214DD185B99185C990000000000000104090141901A00000000000004100000000000000041025764000000000000300FC0
340
12
340
0
340
F
340
0
 94
        0
1001
ACAD_MLEADERVER
1070
     2
  0
MLINESTYLE
  5
1C
102
{ACAD_REACTORS
330
1B
102
}
330
1B
100
AcDbMlineStyle
  2
STANDARD
 70
     0
  3

 62
   256
 51
90.0
 52
90.0
 71
     2
 49
0.5
 62
   256
  6
BYLAYER
 49
-0.5
 62
   256
  6
BYLAYER
  0
ACAD_PROXY_OBJECT
  5
9562
102
{ACAD_REACTORS
330
9561
102
}
330
9561
100
AcDbZombieObject
 90
      499
 91
      510
 93
       41
310
903313A31580
  0
ACAD_PROXY_OBJECT
  5
9563
102
{ACAD_REACTORS
330
9561
102
}
330
9561
100
AcDbZombieObject
 90
      499
 91
      510
 93
      105
310
903313A324000000000000004000
  0
ACAD_PROXY_OBJECT
  5
9564
102
{ACAD_REACTORS
330
9561
102
}
330
9561
100
AcDbZombieObject
 90
      499
 91
      510
 93
      105
310
903313A344000000000000104000
  0
ACAD_PROXY_OBJECT
  5
9565
102
{ACAD_REACTORS
330
9561
102
}
330
9561
100
AcDbZombieObject
 90
      499
 91
      510
 93
      105
310
903313A354000000000000144000
  0
ACAD_PROXY_OBJECT
  5
9566
102
{ACAD_REACTORS
330
9561
102
}
330
9561
100
AcDbZombieObject
 90
      499
 91
      510
 93
      105
310
903313A384000000000000204000
  0
ACAD_PROXY_OBJECT
  5
9567
102
{ACAD_REACTORS
330
9561
102
}
330
9561
100
AcDbZombieObject
 90
      499
 91
      510
 93
      113
310
904313A31304000000000000244000
  0
ACAD_PROXY_OBJECT
  5
9568
102
{ACAD_REACTORS
330
9561
102
}
330
9561
100
AcDbZombieObject
 90
      499
 91
      510
 93
      113
310
904313A31364000000000000304000
  0
ACAD_PROXY_OBJECT
  5
9569
102
{ACAD_REACTORS
330
9561
102
}
330
9561
100
AcDbZombieObject
 90
      499
 91
      510
 93
      113
310
904313A32304000000000000344000
  0
ACAD_PROXY_OBJECT
  5
956A
102
{ACAD_REACTORS
330
9561
102
}
330
9561
100
AcDbZombieObject
 90
      499
 91
      510
 93
      113
310
904313A333040000000000003E4000
  0
ACAD_PROXY_OBJECT
  5
956B
102
{ACAD_REACTORS
330
9561
102
}
330
9561
100
AcDbZombieObject
 90
      499
 91
      510
 93
      113
310
904313A34304000000000000444000
  0
ACAD_PROXY_OBJECT
  5
956C
102
{ACAD_REACTORS
330
9561
102
}
330
9561
100
AcDbZombieObject
 90
      499
 91
      510
 93
      113
310
904313A35304000000000000494000
  0
ACAD_PROXY_OBJECT
  5
956D
102
{ACAD_REACTORS
330
9561
102
}
330
9561
100
AcDbZombieObject
 90
      499
 91
      510
 93
      121
310
905313A3130304000000000000594000
  0
ACAD_PROXY_OBJECT
  5
956E
102
{ACAD_REACTORS
330
9561
102
}
330
9561
100
AcDbZombieObject
 90
      499
 91
      510
 93
      105
310
903323A310000000000000010100
  0
ACAD_PROXY_OBJECT
  5
956F
102
{ACAD_REACTORS
330
9561
102
}
330
9561
100
AcDbZombieObject
 90
      499
 91
      510
 93
      105
310
903343A310000000000000410100
  0
ACAD_PROXY_OBJECT
  5
9570
102
{ACAD_REACTORS
330
9561
102
}
330
9561
100
AcDbZombieObject
 90
      499
 91
      510
 93
      105
310
903383A310000000000000810100
  0
ACAD_PROXY_OBJECT
  5
9571
102
{ACAD_REACTORS
330
9561
102
}
330
9561
100
AcDbZombieObject
 90
      499
 91
      510
 93
      113
310
90431303A310000000000000910100
  0
ACAD_PROXY_OBJECT
  5
9572
102
{ACAD_REACTORS
330
9561
102
}
330
9561
100
AcDbZombieObject
 90
      499
 91
      510
 93
      121
310
9053130303A310000000000001650100
  0
ACAD_PROXY_OBJECT
  5
9573
102
{ACAD_REACTORS
330
9561
102
}
330
9561
100
AcDbZombieObject
 90
      499
 91
      510
 93
      257
310
90E312F31323822203D2031272D3022000000000000200FC000000000000284000
  0
ACAD_PROXY_OBJECT
  5
9574
102
{ACAD_REACTORS
330
9561
102
}
330
9561
100
AcDbZombieObject
 90
      499
 91
      510
 93
      249
310
90D312F363422203D2031272D3022000000000000240FC000000000000284000
  0
ACAD_PROXY_OBJECT
  5
9575
102
{ACAD_REACTORS
330
9561
102
}
330
9561
100
AcDbZombieObject
 90
      499
 91
      510
 93
      249
310
90D312F333222203D2031272D3022000000000000280FC000000000000284000
  0
ACAD_PROXY_OBJECT
  5
9576
102
{ACAD_REACTORS
330
9561
102
}
330
9561
100
AcDbZombieObject
 90
      499
 91
      510
 93
      249
310
90D312F313622203D2031272D30220000000000002C0FC000000000000284000
  0
ACAD_PROXY_OBJECT
  5
9577
102
{ACAD_REACTORS
330
9561
102
}
330
9561
100
AcDbZombieObject
 90
      499
 91
      510
 93
      249
310
90D332F333222203D2031272D30220000000000002E0FC000000000000284000
  0
ACAD_PROXY_OBJECT
  5
9578
102
{ACAD_REACTORS
330
9561
102
}
330
9561
100
AcDbZombieObject
 90
      499
 91
      510
 93
      241
310
90C312F3822203D2031272D3022000000000000300FC000000000000284000
  0
ACAD_PROXY_OBJECT
  5
9579
102
{ACAD_REACTORS
330
9561
102
}
330
9561
100
AcDbZombieObject
 90
      499
 91
      510
 93
      249
310
90D332F313622203D2031272D3022000000000000320FC000000000000284000
  0
ACAD_PROXY_OBJECT
  5
957A
102
{ACAD_REACTORS
330
9561
102
}
330
9561
100
AcDbZombieObject
 90
      499
 91
      510
 93
      241
310
90C312F3422203D2031272D3022000000000000340FC000000000000284000
  0
ACAD_PROXY_OBJECT
  5
957B
102
{ACAD_REACTORS
330
9561
102
}
330
9561
100
AcDbZombieObject
 90
      499
 91
      510
 93
      241
310
90C332F3822203D2031272D3022000000000000360FC000000000000284000
  0
ACAD_PROXY_OBJECT
  5
957C
102
{ACAD_REACTORS
330
9561
102
}
330
9561
100
AcDbZombieObject
 90
      499
 91
      510
 93
      241
310
90C312F3222203D2031272D3022000000000000380FC000000000000284000
  0
ACAD_PROXY_OBJECT
  5
957D
102
{ACAD_REACTORS
330
9561
102
}
330
9561
100
AcDbZombieObject
 90
      499
 91
      510
 93
      241
310
90C332F3422203D2031272D30220000000000003A0FC000000000000284000
  0
ACAD_PROXY_OBJECT
  5
957E
102
{ACAD_REACTORS
330
9561
102
}
330
9561
100
AcDbZombieObject
 90
      499
 91
      510
 93
      161
310
90A3122203D2031272D30224000000000000284000
  0
ACAD_PROXY_OBJECT
  5
957F
102
{ACAD_REACTORS
330
9561
102
}
330
9561
100
AcDbZombieObject
 90
      499
 91
      510
 93
      257
310
90E312D312F3222203D2031272D30220000000000003E0FC000000000000284000
  0
ACAD_PROXY_OBJECT
  5
9580
102
{ACAD_REACTORS
330
9561
102
}
330
9561
100
AcDbZombieObject
 90
      499
 91
      510
 93
      225
310
90A3322203D2031272D302200000000000002100000000000000284000
  0
ACAD_PROXY_OBJECT
  5
9581
102
{ACAD_REACTORS
330
9561
102
}
330
9561
100
AcDbZombieObject
 90
      499
 91
      510
 93
      225
310
90A3622203D2031272D302200000000000006100000000000000284000
  0
ACAD_PROXY_OBJECT
  5
9582
102
{ACAD_REACTORS
330
9561
102
}
330
9561
100
AcDbZombieObject
 90
      499
 91
      510
 93
      249
310
90D31272D3022203D2031272D30220000000000000A100000000000000284000
  0
ACAD_PROXY_OBJECT
  5
9556
102
{ACAD_REACTORS
330
9550
102
}
330
9550
100
AcDbZombieObject
 90
      499
 91
      509
 93
      436
310
42CC9915DA5C99599C985B595049028333333333333E3BF0000000000000FB0107901411070040501600405405064090741402480A0340
1001
ACAD
1000
AcDbSavedByObjectVersion
1070
     0
  0
ACAD_PROXY_OBJECT
  5
9558
102
{ACAD_REACTORS
330
9550
102
}
330
9550
100
AcDbZombieObject
 90
      499
 91
      509
 93
      500
310
424CD108121A5919195B90640502408333333333333E3BF0000000000000FB01079024090700405020000000000001110200405405064090740C02480A0340
1001
ACAD
1000
AcDbSavedByObjectVersion
1070
     0
  0
ACAD_PROXY_OBJECT
  5
9557
102
{ACAD_REACTORS
330
9550
102
}
330
9550
100
AcDbZombieObject
 90
      499
 91
      509
 93
      436
310
42CCD915DA5C99599C985B595059028333333333333E3BF0000000000000FB0107901411070040501600405405064090741402480A0340
1001
ACAD
1000
AcDbSavedByObjectVersion
1070
     0
  0
ACAD_PROXY_OBJECT
  5
9555
102
{ACAD_REACTORS
330
9550
102
}
330
9550
100
AcDbZombieObject
 90
      499
 91
      509
 93
      388
310
4150985CDA58D07406404333333333333E3BF0000000000000FB0107A41107004050150841D405064090741402480A0350
1001
ACAD
1000
AcDbSavedByObjectVersion
1070
     0
  0
ACAD_PROXY_OBJECT
  5
955C
102
{ACAD_REACTORS
330
9550
102
}
330
9550
100
AcDbZombieObject
 90
      499
 91
      509
 93
      428
310
42109C9A59DA1D195B90C409028333333333333E3BF0000000000000FB010790141107004050150841D405064090741402480A029950
1001
ACAD
1000
AcDbSavedByObjectVersion
1070
     0
  0
ACAD_PROXY_OBJECT
  5
9560
102
{ACAD_REACTORS
330
9550
102
}
330
9550
100
AcDbZombieObject
 90
      499
 91
      509
 93
      452
310
42D0DBDB1BDC90DA185B99D95104090240C333333333333E3BF0000000000000FB0108901411070040501508421405064090741402480A0350
1001
ACAD
1000
AcDbSavedByObjectVersion
1070
     0
  0
ACAD_PROXY_OBJECT
  5
9559
102
{ACAD_REACTORS
330
9550
102
}
330
9550
100
AcDbZombieObject
 90
      499
 91
      509
 93
      500
310
4290DBDB98D95C1D1D585B10940D028333333333333E3BF0000000000000FB0107902409070040501000000000000111010841D405064090740C02480A0340
1001
ACAD
1000
AcDbSavedByObjectVersion
1070
     0
  0
ACAD_PROXY_OBJECT
  5
955B
102
{ACAD_REACTORS
330
9550
102
}
330
9550
100
AcDbZombieObject
 90
      499
 91
      509
 93
      412
310
40D11A5B50B409028333333333333E3BF0000000000000FB010790141107004050150841D405064090741402480A02677FFFFFD0
1001
ACAD
1000
AcDbSavedByObjectVersion
1070
     0
  0
ACAD_PROXY_OBJECT
  5
A211
102
{ACAD_REACTORS
330
9550
102
}
330
9550
100
AcDbZombieObject
 90
      499
 91
      509
 93
      452
310
43115919D950DBDB1BDC93D999916409028333333333333E3BF0000000000000FB010790141107004050150841D405064090741402480A0350
1001
ACAD
1000
AcDbSavedByObjectVersion
1070
     0
  0
ACAD_PROXY_OBJECT
  5
955F
102
{ACAD_REACTORS
330
9550
102
}
330
9550
100
AcDbZombieObject
 90
      499
 91
      509
 93
      444
310
42D19858D95C185D1D195C9B90F409028333333333333E3BF0000000000000FB010790141107004050150841D405064090741402480A0350
1001
ACAD
1000
AcDbSavedByObjectVersion
1070
     0
  0
ACAD_PROXY_OBJECT
  5
9551
102
{ACAD_REACTORS
330
9550
102
}
330
9550
100
AcDbZombieObject
 90
      499
 91
      509
 93
      388
310
41119B185D240901404333333333333E3BF0000000000000F9010740A41107004050150841D405064090741402480A1B50
1001
ACAD
1000
AcDbSavedByObjectVersion
1070
     0
  0
ACAD_PROXY_OBJECT
  5
9552
102
{ACAD_REACTORS
330
9550
102
}
330
9550
100
AcDbZombieObject
 90
      499
 91
      509
 93
      476
310
43519B185D15DA5D1A115919D95CD0140901404333333333333E3BF0000000000000F9010740901411070040501600405405064090741402480A1B50
1001
ACAD
1000
AcDbSavedByObjectVersion
1070
     0
  0
ACAD_PROXY_OBJECT
  5
9553
102
{ACAD_REACTORS
330
9550
102
}
330
9550
100
AcDbZombieObject
 90
      499
 91
      509
 93
      412
310
41D1DBDD5C985D5910240902404333333333333E3BF0000000000000F9010740A411070040501641D405064090741402480A1B50
1001
ACAD
1000
AcDbSavedByObjectVersion
1070
     0
  0
ACAD_PROXY_OBJECT
  5
9554
102
{ACAD_REACTORS
330
9550
102
}
330
9550
100
AcDbZombieObject
 90
      499
 91
      509
 93
      500
310
4411DBDD5C985D5915DA5D1A115919D95CD0340902404333333333333E3BF0000000000000F9010740901411070040501600405405064090741402480A1B50
1001
ACAD
1000
AcDbSavedByObjectVersion
1070
     0
  0
ACAD_PROXY_OBJECT
  5
A585
102
{ACAD_REACTORS
330
9550
102
}
330
9550
100
AcDbZombieObject
 90
      499
 91
      509
 93
      476
310
41921A5919195B90640502408333333333333E33F0000000000000F901079024090700405020000000000001110200405405064090740C02480A0340
1001
ACAD
1000
AcDbSavedByObjectVersion
1070
     0
  0
ACAD_PROXY_OBJECT
  5
A20F
102
{ACAD_REACTORS
330
9550
102
}
330
9550
100
AcDbZombieObject
 90
      499
 91
      509
 93
      428
310
42529A5D1D195C93D999914409028333333333333E3BF0000000000000FB010790141107004050150A41D405064090741402480A0350
1001
ACAD
1000
AcDbSavedByObjectVersion
1070
     0
  0
ACAD_PROXY_OBJECT
  5
955E
102
{ACAD_REACTORS
330
9550
102
}
330
9550
100
AcDbZombieObject
 90
      499
 91
      509
 93
      444
310
42D31A5B995C185D1D195C9B90E409028333333333333E3BF0000000000000FB010790141107004050750841D405064090741402483A0350
1001
ACAD
1000
AcDbSavedByObjectVersion
1070
     0
  0
ACAD_PROXY_OBJECT
  5
A58B
102
{ACAD_REACTORS
330
9550
102
}
330
9550
100
AcDbZombieObject
 90
      499
 91
      509
 93
      484
310
42135BD9195B1A5B99D0A409038333333333333E33F0000000000000F901074090290700405010000000000201990108421405064090741402480A1B40
1001
ACAD
1000
AcDbSavedByObjectVersion
1070
     0
  0
ACAD_PROXY_OBJECT
  5
A210
102
{ACAD_REACTORS
330
9550
102
}
330
9550
100
AcDbZombieObject
 90
      499
 91
      509
 93
      444
310
42D3DD995C9A185B99D3D999915409028333333333333E3BF0000000000000FB010790141107004050150941D405064090741402480A0350
1001
ACAD
1000
AcDbSavedByObjectVersion
1070
     0
  0
ACAD_PROXY_OBJECT
  5
955A
102
{ACAD_REACTORS
330
9550
102
}
330
9550
100
AcDbZombieObject
 90
      499
 91
      509
 93
      420
310
425499585B1A5CDD1A58D08409028333333333333E3BF0000000000000FB01079019070040501508421405064090741402480A1B40
1001
ACAD
1000
AcDbSavedByObjectVersion
1070
     0
  0
ACAD_PROXY_OBJECT
  5
A58A
102
{ACAD_REACTORS
330
9550
102
}
330
9550
100
AcDbZombieObject
 90
      499
 91
      509
 93
      420
310
4194DA1859195911B40902404333333333333E33F0000000000000F9010740A41107004050150800405405064090840C02480A0B40
1001
ACAD
1000
AcDbSavedByObjectVersion
1070
     0
  0
ACAD_PROXY_OBJECT
  5
A589
102
{ACAD_REACTORS
330
9550
102
}
330
9550
100
AcDbZombieObject
 90
      499
 91
      509
 93
      516
310
4454DA18591959081DDA5D1A08195919D95CD1A40902404333333333333E33F0000000000000F901074090142907004050250800405405064090740C02480A0B40
1001
ACAD
1000
AcDbSavedByObjectVersion
1070
     0
  0
ACAD_PROXY_OBJECT
  5
A586
102
{ACAD_REACTORS
330
9550
102
}
330
9550
100
AcDbZombieObject
 90
      499
 91
      509
 93
      532
310
4394DA1859195CC81BD98811DC985E5174090240C333333333333E33F0000000000000F901079024090741D01000000000000111010841D405064090740C02480A0340
1001
ACAD
1000
AcDbSavedByObjectVersion
1070
     0
  0
ACAD_PROXY_OBJECT
  5
A587
102
{ACAD_REACTORS
330
9550
102
}
330
9550
100
AcDbZombieObject
 90
      499
 91
      509
 93
      476
310
41D4DAD95D18DA1E51840502408333333333333E33F0000000000000F901079024090741D01000000000000111010B41D405064090741802480A0340
1001
ACAD
1000
AcDbSavedByObjectVersion
1070
     0
  0
ACAD_PROXY_OBJECT
  5
955D
102
{ACAD_REACTORS
330
9550
102
}
330
9550
100
AcDbZombieObject
 90
      499
 91
      509
 93
      412
310
41D51A1A58DAD95B90D409028333333333333E3BF0000000000000FB010790141107004050150C41D405064090741402480A0350
1001
ACAD
1000
AcDbSavedByObjectVersion
1070
     0
  0
ACAD_PROXY_OBJECT
  5
A584
102
{ACAD_REACTORS
330
9550
102
}
330
9550
100
AcDbZombieObject
 90
      499
 91
      509
 93
      420
310
4255DA5C99599C985B595059028333333333333E33F0000000000000F90107901411070040501600405405064090740C02480A0340
1001
ACAD
1000
AcDbSavedByObjectVersion
1070
     0
  0
ACAD_PROXY_OBJECT
  5
A588
102
{ACAD_REACTORS
330
9550
102
}
330
9550
100
AcDbZombieObject
 90
      499
 91
      509
 93
      404
310
41560B54985E51940902404000000000000E03F0000000000000F9010740501907004050150841D405064090740C02480A1B40
1001
ACAD
1000
AcDbSavedByObjectVersion
1070
     0
  0
XRECORD
  5
AE6B
102
{ACAD_REACTORS
330
AE6A
102
}
330
AE6A
100
AcDbXrecord
340
18D
  0
XRECORD
  5
AE6C
102
{ACAD_REACTORS
330
AE6A
102
}
330
AE6A
100
AcDbXrecord
340
18C
  0
DICTIONARYVAR
  5
AD9F
102
{ACAD_REACTORS
330
37
102
}
330
37
100
DictionaryVariables
280
     0
  1
1:1
  0
DICTIONARYVAR
  5
9627
102
{ACAD_REACTORS
330
37
102
}
330
37
100
DictionaryVariables
280
     0
  1
Standard
  0
DICTIONARYVAR
  5
29E
102
{ACAD_REACTORS
330
37
102
}
330
37
100
DictionaryVariables
280
     0
  1
Standard
  0
DICTIONARYVAR
  5
38
102
{ACAD_REACTORS
330
37
102
}
330
37
100
DictionaryVariables
280
     0
  1
-1
  0
DICTIONARYVAR
  5
1CE
102
{ACAD_REACTORS
330
37
102
}
330
37
100
DictionaryVariables
280
     0
  1
2
  0
DICTIONARYVAR
  5
704E
102
{ACAD_REACTORS
330
37
102
}
330
37
100
DictionaryVariables
280
     0
  1
1
  0
DICTIONARYVAR
  5
962A
102
{ACAD_REACTORS
330
37
102
}
330
37
100
DictionaryVariables
280
     0
  1
0
  0
DICTIONARYVAR
  5
7052
102
{ACAD_REACTORS
330
37
102
}
330
37
100
DictionaryVariables
280
     0
  1
8
  0
DICTIONARYVAR
  5
7051
102
{ACAD_REACTORS
330
37
102
}
330
37
100
DictionaryVariables
280
     0
  1
1
  0
DICTIONARYVAR
  5
ADEF
102
{ACAD_REACTORS
330
37
102
}
330
37
100
DictionaryVariables
280
     0
  1
0
  0
DICTIONARYVAR
  5
704F
102
{ACAD_REACTORS
330
37
102
}
330
37
100
DictionaryVariables
280
     0
  1
8
  0
DICTIONARYVAR
  5
7050
102
{ACAD_REACTORS
330
37
102
}
330
37
100
DictionaryVariables
280
     0
  1
2
  0
DICTIONARYVAR
  5
1CF
102
{ACAD_REACTORS
330
37
102
}
330
37
100
DictionaryVariables
280
     0
  1

  0
DICTIONARYVAR
  5
9629
102
{ACAD_REACTORS
330
37
102
}
330
37
100
DictionaryVariables
280
     0
  1
127
  0
DICTIONARYVAR
  5
A583
102
{ACAD_REACTORS
330
37
102
}
330
37
100
DictionaryVariables
280
     0
  1
2
  0
DICTIONARY
  5
B008
330
9540
100
AcDbDictionary
  3
ACAD_XREC_ROUNDTRIP
360
B009
1001
ACAD
1000
TREAT_AS_HARD
1070
     1
  0
DICTIONARY
  5
B00A
330
9538
100
AcDbDictionary
  3
ACAD_XREC_ROUNDTRIP
360
B00B
1001
ACAD
1000
TREAT_AS_HARD
1070
     1
  0
DICTIONARY
  5
B00C
330
9548
100
AcDbDictionary
  3
ACAD_XREC_ROUNDTRIP
360
B00D
1001
ACAD
1000
TREAT_AS_HARD
1070
     1
  0
XRECORD
  5
B009
102
{ACAD_REACTORS
330
B008
102
}
330
B008
100
AcDbXrecord
102
MATERIAL
148
0.0
149
0.0
149
0.0
 93
        0
 94
      127
282
     0
 72
     0
 77
     0
171
     0
175
     0
179
     0
273
     0
  0
XRECORD
  5
B00B
102
{ACAD_REACTORS
330
B00A
102
}
330
B00A
100
AcDbXrecord
102
MATERIAL
148
0.0
149
0.0
149
0.0
 93
        0
 94
      127
282
     0
 72
     0
 77
     0
171
     0
175
     0
179
     0
273
     0
  0
XRECORD
  5
B00D
102
{ACAD_REACTORS
330
B00C
102
}
330
B00C
100
AcDbXrecord
102
MATERIAL
148
0.0
149
0.0
149
0.0
 93
        0
 94
      127
282
     0
 72
     0
 77
     0
171
     0
175
     0
179
     0
273
     0
  0
ENDSEC
  0
EOF
