  0
SECTION
  2
HEADER
  9
$ACADVER
  1
AC1009
  9
$INSBASE
 10
0.0
 20
0.0
 30
0.0
  9
$EXTMIN
 10
5315.8363922149256
 20
-368.46620152473128
 30
0.0
  9
$EXTMAX
 10
5614.2646775973581
 20
-168.2898775912108
 30
0.0
  9
$LIMMIN
 10
0.0
 20
0.0
  9
$LIMMAX
 10
420.0
 20
297.0
  9
$ORTHOMODE
 70
     0
  9
$REGENMODE
 70
     1
  9
$FILLMODE
 70
     1
  9
$QTEXTMODE
 70
     0
  9
$MIRRTEXT
 70
     0
  9
$DRAGMODE
 70
     2
  9
$LTSCALE
 40
0.5
  9
$OSMODE
 70
   127
  9
$ATTMODE
 70
     1
  9
$TEXTSIZE
 40
4.0
  9
$TRACEWID
 40
1.0
  9
$TEXTSTYLE
  7
STANDARD
  9
$CLAYER
  8
1TEXT
  9
$CELTYPE
  6
BYLAYER
  9
$CECOLOR
 62
   256
  9
$DIMSCALE
 40
1.0
  9
$DIMASZ
 40
2.0
  9
$DIMEXO
 40
0.0
  9
$DIMDLI
 40
7.0
  9
$DIMRND
 40
0.0
  9
$DIMDLE
 40
0.0
  9
$DIMEXE
 40
1.0
  9
$DIMTP
 40
0.0
  9
$DIMTM
 40
0.0
  9
$DIMTXT
 40
3.5
  9
$DIMCEN
 40
0.0
  9
$DIMTSZ
 40
0.0
  9
$DIMTOL
 70
     0
  9
$DIMLIM
 70
     0
  9
$DIMTIH
 70
     0
  9
$DIMTOH
 70
     0
  9
$DIMSE1
 70
     0
  9
$DIMSE2
 70
     0
  9
$DIMTAD
 70
     1
  9
$DIMZIN
 70
     8
  9
$DIMBLK
  1

  9
$DIMASO
 70
     1
  9
$DIMSHO
 70
     1
  9
$DIMPOST
  1
 
  9
$DIMAPOST
  1

  9
$DIMALT
 70
     0
  9
$DIMALTD
 70
     2
  9
$DIMALTF
 40
25.399999999999999
  9
$DIMLFAC
 40
1.0
  9
$DIMTOFL
 70
     1
  9
$DIMTVP
 40
0.0
  9
$DIMTIX
 70
     0
  9
$DIMSOXD
 70
     0
  9
$DIMSAH
 70
     1
  9
$DIMBLK1
  1
OPEN30
  9
$DIMBLK2
  1
OPEN30
  9
$DIMSTYLE
  2
NEWX10
  9
$DIMCLRD
 70
   256
  9
$DIMCLRE
 70
   256
  9
$DIMCLRT
 70
   201
  9
$DIMTFAC
 40
0.7
  9
$DIMGAP
 40
0.7
  9
$LUNITS
 70
     2
  9
$LUPREC
 70
     4
  9
$SKETCHINC
 40
1.0
  9
$FILLETRAD
 40
0.5
  9
$AUNITS
 70
     0
  9
$AUPREC
 70
     2
  9
$MENU
  1
acad
  9
$ELEVATION
 40
0.0
  9
$PELEVATION
 40
0.0
  9
$THICKNESS
 40
0.0
  9
$LIMCHECK
 70
     0
  9
$BLIPMODE
 70
     0
  9
$CHAMFERA
 40
10.0
  9
$CHAMFERB
 40
10.0
  9
$SKPOLY
 70
     0
  9
$TDCREATE
 40
2451318.621352917
  9
$TDUPDATE
 40
2454918.601335533
  9
$TDINDWG
 40
0.7516268171
  9
$TDUSRTIMER
 40
0.7516268171
  9
$USRTIMER
 70
     1
  9
$ANGBASE
 50
0.0
  9
$ANGDIR
 70
     0
  9
$PDMODE
 70
     0
  9
$PDSIZE
 40
0.0
  9
$PLINEWID
 40
0.0
  9
$COORDS
 70
     2
  9
$SPLFRAME
 70
     0
  9
$SPLINETYPE
 70
     6
  9
$SPLINESEGS
 70
     8
  9
$ATTDIA
 70
     0
  9
$ATTREQ
 70
     1
  9
$HANDLING
 70
     1
  9
$HANDSEED
  5
A161
  9
$SURFTAB1
 70
     6
  9
$SURFTAB2
 70
     6
  9
$SURFTYPE
 70
     6
  9
$SURFU
 70
     6
  9
$SURFV
 70
     6
  9
$UCSNAME
  2

  9
$UCSORG
 10
0.0
 20
0.0
 30
0.0
  9
$UCSXDIR
 10
1.0
 20
0.0
 30
0.0
  9
$UCSYDIR
 10
0.0
 20
1.0
 30
0.0
  9
$PUCSNAME
  2

  9
$PUCSORG
 10
0.0
 20
0.0
 30
0.0
  9
$PUCSXDIR
 10
1.0
 20
0.0
 30
0.0
  9
$PUCSYDIR
 10
0.0
 20
1.0
 30
0.0
  9
$USERI1
 70
     0
  9
$USERI2
 70
     0
  9
$USERI3
 70
     0
  9
$USERI4
 70
     0
  9
$USERI5
 70
     0
  9
$USERR1
 40
0.0
  9
$USERR2
 40
0.0
  9
$USERR3
 40
0.0
  9
$USERR4
 40
0.0
  9
$USERR5
 40
0.0
  9
$WORLDVIEW
 70
     1
  9
$SHADEDGE
 70
     3
  9
$SHADEDIF
 70
    70
  9
$TILEMODE
 70
     1
  9
$MAXACTVP
 70
    48
  9
$PLIMCHECK
 70
     0
  9
$PEXTMIN
 10
1.0000000000000000E+020
 20
1.0000000000000000E+020
 30
1.0000000000000000E+020
  9
$PEXTMAX
 10
-1.0000000000000000E+020
 20
-1.0000000000000000E+020
 30
-1.0000000000000000E+020
  9
$PLIMMIN
 10
0.0
 20
0.0
  9
$PLIMMAX
 10
420.0
 20
297.0
  9
$UNITMODE
 70
     0
  9
$VISRETAIN
 70
     1
  9
$PLINEGEN
 70
     0
  9
$PSLTSCALE
 70
     1
  0
ENDSEC
  0
SECTION
  2
TABLES
  0
TABLE
  2
VPORT
 70
     4
  0
VPORT
  2
*ACTIVE
 70
     0
 10
0.0
 20
0.0
 11
1.0
 21
1.0
 12
5464.9473211275072
 22
-268.36601386566753
 13
0.0
 23
0.0
 14
10.0
 24
10.0
 15
10.0
 25
10.0
 16
0.0
 26
0.0
 36
1.0
 17
0.0
 27
0.0
 37
0.0
 40
212.48211489786229
 41
1.508086253369272
 42
50.0
 43
0.0
 44
0.0
 50
0.0
 51
0.0
 71
     0
 72
   100
 73
     1
 74
     1
 75
     0
 76
     0
 77
     0
 78
     0
  0
ENDTAB
  0
TABLE
  2
LTYPE
 70
    15
  0
LTYPE
  2
CONTINUOUS
 70
     0
  3
Solid line
 72
    65
 73
     0
 40
0.0
  0
LTYPE
  2
XREF1|CENTER2
 70
    48
  3
Center (.5x) ___ _ ___ _ ___ _ ___ _ ___ _ ___
 72
    65
 73
     4
 40
28.574999999999999
 49
19.050000000000001
 49
-3.1749999999999989
 49
3.1749999999999989
 49
-3.1749999999999989
  0
LTYPE
  2
A3WAKUDAKE|CENTER2
 70
    48
  3
Center (.5x) ___ _ ___ _ ___ _ ___ _ ___ _ ___
 72
    65
 73
     4
 40
28.574999999999999
 49
19.050000000000001
 49
-3.1749999999999989
 49
3.1749999999999989
 49
-3.1749999999999989
  0
LTYPE
  2
CENTER2
 70
     0
  3
Center (.5x) ___ _ ___ _ ___ _ ___ _ ___ _ ___
 72
    65
 73
     4
 40
28.574999999999999
 49
19.050000000000001
 49
-3.1749999999999989
 49
3.1749999999999989
 49
-3.1749999999999989
  0
ENDTAB
  0
TABLE
  2
LAYER
 70
    43
  0
LAYER
  2
0
 70
     0
 62
     7
  6
CONTINUOUS
  0
LAYER
  2
1CENTER
 70
     0
 62
     7
  6
CENTER2
  0
LAYER
  2
1TEXT
 70
     0
 62
     7
  6
CONTINUOUS
  0
LAYER
  2
01
 70
     0
 62
     1
  6
CONTINUOUS
  0
LAYER
  2
1DIM
 70
     0
 62
     7
  6
CONTINUOUS
  0
LAYER
  2
A3WAKUDAKE|THICK
 70
    48
 62
     7
  6
CONTINUOUS
  0
LAYER
  2
A3WAKUDAKE|POINT
 70
    48
 62
     7
  6
CONTINUOUS
  0
LAYER
  2
A3WAKUDAKE|1CENTER
 70
    48
 62
     7
  6
A3WAKUDAKE|CENTER2
  0
LAYER
  2
A3WAKUDAKE|0-6
 70
    48
 62
     7
  6
CONTINUOUS
  0
LAYER
  2
A3WAKUDAKE|1DIM
 70
    48
 62
     7
  6
CONTINUOUS
  0
LAYER
  2
XREF1|1CENTER
 70
    48
 62
     7
  6
XREF1|CENTER2
  0
ENDTAB
  0
TABLE
  2
STYLE
 70
    21
  0
STYLE
  2
STANDARD
 70
     0
 40
0.0
 41
1.0
 50
0.0
 71
     0
 42
4.0
  3
txt.shx
  4
extfont.shx
  0
ENDTAB
  0
TABLE
  2
VIEW
 70
     0
  0
ENDTAB
  0
TABLE
  2
UCS
 70
     0
  0
ENDTAB
  0
TABLE
  2
APPID
 70
     9
  0
APPID
  2
ACAD
 70
     0
  0
APPID
  2
DRAWINGVARIABLESXDATA
 70
     0
  0
APPID
  2
CONTENTTABDATA
 70
     0
  0
APPID
  2
CONTENTCURRENTTAB
 70
     0
  0
APPID
  2
CONTENTBLOCKDESCRIPTION
 70
     0
  0
APPID
  2
CONTENTBLOCKICON
 70
     0
  0
APPID
  2
CONTENTLONGBLOCKNAME
 70
     0
  0
APPID
  2
ACAD_PSEXT
 70
     0
  0
APPID
  2
ACAD_MLEADERVER
 70
     0
  0
ENDTAB
  0
TABLE
  2
DIMSTYLE
 70
     7
  0
DIMSTYLE
  2
NEWX10
 70
     0
  3
 
  4

  5

  6
OPEN30
  7
OPEN30
 40
1.0
 41
2.0
 42
0.0
 43
7.0
 44
1.0
 45
0.0
 46
0.0
 47
0.0
 48
0.0
140
3.5
141
0.0
142
0.0
143
25.399999999999999
144
1.0
145
0.0
146
0.7
147
0.7
 71
     0
 72
     0
 73
     0
 74
     0
 75
     0
 76
     0
 77
     1
 78
     8
170
     0
171
     2
172
     1
173
     1
174
     0
175
     0
176
   256
177
   256
178
   201
  0
ENDTAB
  0
ENDSEC
  0
SECTION
  2
BLOCKS
  0
BLOCK
  8
0
  2
$MODEL_SPACE
 70
     0
 10
0.0
 20
0.0
 30
0.0
  3
$MODEL_SPACE
  1

  0
ENDBLK
  5
1A
  8
0
  0
BLOCK
 67
     1
  8
0
  2
$PAPER_SPACE
 70
     0
 10
0.0
 20
0.0
 30
0.0
  3
$PAPER_SPACE
  1

  0
ENDBLK
  5
17
 67
     1
  8
0
  0
BLOCK
  8
0
  2
_OPEN30
 70
     0
 10
0.0
 20
0.0
 30
0.0
  3
_OPEN30
  1

  0
LINE
  5
44
  8
0
  6
BYBLOCK
 62
     0
 10
-1.0
 20
0.26794919
 30
0.0
 11
0.0
 21
0.0
 31
0.0
  0
LINE
  5
45
  8
0
  6
BYBLOCK
 62
     0
 10
0.0
 20
0.0
 30
0.0
 11
-1.0
 21
-0.26794919
 31
0.0
  0
LINE
  5
46
  8
0
  6
BYBLOCK
 62
     0
 10
0.0
 20
0.0
 30
0.0
 11
-1.0
 21
0.0
 31
0.0
  0
ENDBLK
  5
47
  8
0
  0
BLOCK
  8
0
  2
XREF1
 70
    36
 10
0.0
 20
0.0
 30
0.0
  3
XREF1
  1
D:\ACLT\FORMAT\KAWAJUN(9)図面用.dwg
  0
ENDBLK
  5
5D
  8
0
  0
BLOCK
  8
0
  2
A3WAKUDAKE
 70
    36
 10
0.0
 20
0.0
 30
0.0
  3
A3WAKUDAKE
  1
D:\ACLT\FORMAT\A3WAKUdake.dwg
  0
ENDBLK
  5
6A0
  8
0
  0
BLOCK
  8
0
  2
*U13
 70
     1
 10
0.0
 20
0.0
 30
0.0
  3
*U13
  1

  0
CIRCLE
  5
A143
  8
0
 10
0.0
 20
0.0
 30
0.0
 40
3.0
  0
ENDBLK
  5
A145
  8
0
  0
BLOCK
  8
0
  2
*U14
 70
     1
 10
0.0
 20
0.0
 30
0.0
  3
*U14
  1

  0
TEXT
  5
A14A
  8
1DIM
 62
   201
 10
5432.0546775973571
 20
-336.22712355336552
 30
0.0
 40
4.5499999999999989
  1
φ50
 50
90.0
  0
ENDBLK
  5
A14C
  8
0
  0
BLOCK
  8
0
  2
*U15
 70
     1
 10
0.0
 20
0.0
 30
0.0
  3
*U15
  1

  0
TEXT
  5
A14E
  8
1DIM
 62
   201
 10
5523.0355109306911
 20
-256.8798775912108
 30
0.0
 40
4.5499999999999989
  1
120 
  0
ENDBLK
  5
A150
  8
0
  0
BLOCK
  8
0
  2
*U16
 70
     1
 10
0.0
 20
0.0
 30
0.0
  3
*U16
  1

  0
TEXT
  5
A152
  8
1DIM
 62
   201
 10
5509.6563442640236
 20
-266.8798775912108
 30
0.0
 40
4.5499999999999989
  1
146 
  0
ENDBLK
  5
A154
  8
0
  0
BLOCK
  8
0
  2
*U17
 70
     1
 10
0.0
 20
0.0
 30
0.0
  3
*U17
  1

  0
TEXT
  5
A156
  8
1DIM
 62
   201
 10
5602.0546775973571
 20
-206.3648775912099
 30
0.0
 40
4.5499999999999989
  1
42.5 
 50
90.0
  0
ENDBLK
  5
A158
  8
0
  0
BLOCK
  8
0
  2
*U18
 70
     1
 10
0.0
 20
0.0
 30
0.0
  3
*U18
  1

  0
TEXT
  5
A15A
  8
1DIM
 62
   201
 10
5612.0546775973571
 20
-217.3648775912099
 30
0.0
 40
4.5499999999999989
  1
64.5 
 50
90.0
  0
ENDBLK
  5
A15C
  8
0
  0
BLOCK
  8
0
  2
*U19
 70
     1
 10
0.0
 20
0.0
 30
0.0
  3
*U19
  1

  0
TEXT
  5
A15E
  8
1DIM
 62
   201
 10
5602.0546775973571
 20
-330.94404306787692
 30
0.0
 40
4.5499999999999989
  1
10 
 50
90.0
  0
ENDBLK
  5
A160
  8
0
  0
ENDSEC
  0
SECTION
  2
ENTITIES
  0
LINE
  5
71B4
  8
01
 10
5443.4646775973588
 20
-186.78987759121071
 30
0.0
 11
5492.464677597357
 21
-186.78987759121071
 31
0.0
  0
LINE
  5
71B5
  8
01
 10
5442.9646775973579
 20
-178.2898775912108
 30
0.0
 11
5442.9646775973588
 21
-186.28987759121071
 31
0.0
  0
LINE
  5
71B7
  8
01
 10
5492.9646775973579
 20
-178.2898775912108
 30
0.0
 11
5492.9646775973579
 21
-186.28987759121071
 31
0.0
  0
ARC
  5
71B9
  8
01
 10
5467.9646775973579
 20
-328.28987759121082
 30
0.0
 40
25.0
 50
11.536959734541361
 51
168.4630402654586
  0
LINE
  5
71BC
  8
1CENTER
 10
5467.9646775973579
 20
-334.28987759121082
 30
0.0
 11
5467.9646775973579
 21
-322.28987759121082
 31
0.0
  0
LINE
  5
71BD
  8
1CENTER
 10
5461.964677597357
 20
-328.28987759121082
 30
0.0
 11
5473.9646775973579
 21
-328.28987759121082
 31
0.0
  0
LINE
  5
71C0
  8
1CENTER
 10
5467.9646775973579
 20
-175.45280209562671
 30
0.0
 11
5467.9646775973579
 21
-198.08108747805809
 31
0.0
  0
LINE
  5
7206
  8
01
 10
5317.9646775973579
 20
-303.28987759121082
 30
0.0
 11
5317.9646775973579
 21
-353.28987759121082
 31
0.0
  0
LINE
  5
7207
  8
01
 10
5326.4646775973579
 20
-352.78987759121082
 30
0.0
 11
5326.4646775973579
 21
-303.78987759121082
 31
0.0
  0
LINE
  5
7208
  8
01
 10
5317.9646775973579
 20
-353.28987759121082
 30
0.0
 11
5325.9646775973579
 21
-353.28987759121082
 31
0.0
  0
LINE
  5
720A
  8
01
 10
5317.9646775973579
 20
-303.28987759121082
 30
0.0
 11
5325.9646775973579
 21
-303.28987759121082
 31
0.0
  0
LINE
  5
78AF
  8
1CENTER
 10
5332.464677597357
 20
-334.28987759121082
 30
0.0
 11
5332.464677597357
 21
-322.28987759121082
 31
0.0
  0
LINE
  5
78B0
  8
1CENTER
 10
5315.8363922149256
 20
-328.28987759121082
 30
0.0
 11
5338.464677597357
 21
-328.28987759121082
 31
0.0
  0
TEXT
  5
78D4
  8
1TEXT
 10
5317.9646775973579
 20
-178.2898775912108
 30
0.0
 40
10.0
  1
KAC
 41
1.017187499999999
  0
LINE
  5
79A8
  8
01
 10
5442.9646775973579
 20
-178.2898775912108
 30
0.0
 11
5492.9646775973579
 21
-178.2898775912108
 31
0.0
  0
LINE
  5
8262
  8
01
 10
5427.9646775973579
 20
-178.2898775912108
 30
0.0
 11
5570.7198255947051
 21
-178.2898775912108
 31
0.0
  0
LINE
  5
88CA
  8
01
 10
5317.9646775973579
 20
-288.11355365769032
 30
0.0
 11
5317.9646775973579
 21
-368.46620152473128
 31
0.0
  0
LINE
  5
906B
  8
1CENTER
 10
5451.8810028334156
 20
-192.78986955795739
 30
0.0
 11
5460.0146751952643
 21
-192.7898775912081
 31
0.0
  0
POINT
  5
91A9
  8
01
 10
5467.9646775973579
 20
-187.28987759121071
 30
0.0
  0
POINT
  5
91B3
  8
01
 10
5326.9646775973579
 20
-328.28987759121082
 30
0.0
  0
POINT
  5
91B4
  8
01
 10
5326.9646775973579
 20
-328.28987759121082
 30
0.0
  0
POINT
  5
91B5
  8
01
 10
5326.9646775973579
 20
-328.28987759121082
 30
0.0
  0
LINE
  5
91B7
  8
01
 10
5442.9646775973579
 20
-242.7898775912108
 30
0.0
 11
5586.964677597357
 21
-242.7898775912108
 31
0.0
  0
LINE
  5
91B8
  8
01
 10
5479.9646775973579
 20
-220.7898775912108
 30
0.0
 11
5586.964677597357
 21
-220.7898775912108
 31
0.0
  0
LINE
  5
91B9
  8
01
 10
5442.9646775973579
 20
-220.7898775912108
 30
0.0
 11
5455.9646775973579
 21
-220.7898775912108
 31
0.0
  0
LINE
  5
91BA
  8
01
 10
5441.9646775973579
 20
-241.7898775912108
 30
0.0
 11
5441.9646775973579
 21
-221.7898775912108
 31
0.0
  0
ARC
  5
91BB
  8
01
 10
5442.9646775973579
 20
-241.7898775912108
 30
0.0
 40
1.0
 50
180.0
 51
270.0
  0
ARC
  5
91BC
  8
01
 10
5442.9646775973579
 20
-221.7898775912108
 30
0.0
 40
1.0
 50
90.0
 51
180.0
  0
LINE
  5
91BD
  8
01
 10
5455.9646775973579
 20
-236.34926459121101
 30
0.0
 11
5455.9646775973579
 21
-187.28987759121071
 31
0.0
  0
LINE
  5
91BE
  8
01
 10
5479.9646775973579
 20
-236.34926459121101
 30
0.0
 11
5479.9646775973579
 21
-187.28987759121071
 31
0.0
  0
LINE
  5
91BF
  8
01
 10
5478.9646775973579
 20
-237.34926459121101
 30
0.0
 11
5456.9646775973579
 21
-237.34926459121101
 31
0.0
  0
ARC
  5
91C0
  8
01
 10
5456.9646775973579
 20
-236.34926459121101
 30
0.0
 40
1.0
 50
180.0
 51
270.0
  0
ARC
  5
91C1
  8
01
 10
5478.9646775973579
 20
-236.34926459121101
 30
0.0
 40
1.0
 50
270.0
 51
0.0
  0
LINE
  5
91C2
  8
01
 10
5479.9646775973579
 20
-187.28987759121071
 30
0.0
 11
5455.9646775973579
 21
-187.28987759121071
 31
0.0
  0
LINE
  5
91C3
  8
01
 10
5587.9646775973588
 20
-241.7898775912108
 30
0.0
 11
5587.9646775973588
 21
-221.7898775912108
 31
0.0
  0
ARC
  5
91C4
  8
01
 10
5586.964677597357
 20
-241.7898775912108
 30
0.0
 40
1.0
 50
270.0
 51
0.0
  0
ARC
  5
91C5
  8
01
 10
5586.964677597357
 20
-221.7898775912108
 30
0.0
 40
1.0
 50
0.0
 51
90.0
  0
LINE
  5
91C6
  8
01
 10
5443.0660105973566
 20
-323.28987729121133
 30
0.0
 11
5586.863343597357
 21
-323.28987729121133
 31
0.0
  0
LINE
  5
91C7
  8
01
 10
5443.0660105973566
 20
-333.28987551121099
 30
0.0
 11
5586.863343597357
 21
-333.28987551121099
 31
0.0
  0
ARC
  5
91C8
  8
01
 10
5521.964678097358
 20
-328.28987759121082
 30
0.0
 40
80.0
 50
177.0977099999794
 51
182.9022900000206
  0
ARC
  5
91C9
  8
01
 10
5443.0660105973566
 20
-332.28987549121121
 30
0.0
 40
1.0
 50
182.9022900000206
 51
270.0
  0
ARC
  5
91CA
  8
01
 10
5443.0660105973566
 20
-324.28987759121082
 30
0.0
 40
1.0
 50
90.0
 51
177.09772999999649
  0
LINE
  5
91CC
  8
01
 10
5457.2077645973577
 20
-340.28986239121059
 30
0.0
 11
5478.7215855973591
 21
-340.28986239121059
 31
0.0
  0
LINE
  5
91CD
  8
01
 10
5455.9646775973579
 20
-333.4838624012109
 30
0.0
 11
5479.9646775973579
 21
-333.4838624012109
 31
0.0
  0
ARC
  5
91CE
  8
01
 10
5460.9646775973579
 20
-332.48386239121101
 30
0.0
 40
1.0
 50
233.70828000003431
 51
270.0
  0
ARC
  5
91CF
  8
01
 10
5705.9646765973584
 20
-328.28987759121082
 30
0.0
 40
250.0
 50
181.1459900000041
 51
182.531959999983
  0
ARC
  5
91D0
  8
01
 10
5457.2077645973577
 20
-339.28986239121059
 30
0.0
 40
1.0
 50
182.531959999983
 51
270.0
  0
ARC
  5
91D1
  8
01
 10
5474.9646775973579
 20
-332.48386239121101
 30
0.0
 40
1.0
 50
270.0
 51
306.29171000001247
  0
ARC
  5
91D2
  8
01
 10
5229.9646765973584
 20
-328.28987759121082
 30
0.0
 40
250.0
 50
357.46804000001703
 51
358.85400999999592
  0
ARC
  5
91D3
  8
01
 10
5478.7215855973591
 20
-339.28986239121059
 30
0.0
 40
1.0
 50
270.0
 51
357.46804000001703
  0
LINE
  5
91D4
  8
01
 10
5457.2077645973577
 20
-316.28987729121133
 30
0.0
 11
5478.7215855973591
 21
-316.28987729121133
 31
0.0
  0
LINE
  5
91D5
  8
01
 10
5455.9646775973579
 20
-323.09587729121091
 30
0.0
 11
5479.9646775973579
 21
-323.09587729121091
 31
0.0
  0
ARC
  5
91D6
  8
01
 10
5705.9646765973584
 20
-328.28987759121082
 30
0.0
 40
250.0
 50
177.46804000001691
 51
178.8540099999959
  0
ARC
  5
91D7
  8
01
 10
5460.9646775973579
 20
-324.09587739121071
 30
0.0
 40
1.0
 50
90.0
 51
126.2930499999693
  0
ARC
  5
91D8
  8
01
 10
5457.2077645973577
 20
-317.28987729121133
 30
0.0
 40
1.0
 50
90.0
 51
177.4680700000205
  0
ARC
  5
91D9
  8
01
 10
5229.9646765973584
 20
-328.28987759121082
 30
0.0
 40
250.0
 50
1.1459919999774411
 51
2.5319626999997671
  0
ARC
  5
91DA
  8
01
 10
5474.9646775973579
 20
-324.09587739121071
 30
0.0
 40
1.0
 50
53.706952000003859
 51
90.0
  0
ARC
  5
91DB
  8
01
 10
5478.7215855973591
 20
-317.28987729121133
 30
0.0
 40
1.0
 50
2.5319289999978092
 51
90.0
  0
ARC
  5
91DC
  8
01
 10
5507.9646785973573
 20
-328.28987759121082
 30
0.0
 40
80.0
 50
357.09770999997937
 51
2.9022935999821802
  0
ARC
  5
91DD
  8
01
 10
5586.863343597357
 20
-332.28987549121121
 30
0.0
 40
1.0
 50
270.0
 51
357.09770999997937
  0
ARC
  5
91DE
  8
01
 10
5586.863343597357
 20
-324.28987759121082
 30
0.0
 40
1.0
 50
2.9022656000107978
 51
90.0
  0
LINE
  5
91E0
  8
01
 10
5375.9733575973578
 20
-316.28987729121133
 30
0.0
 11
5326.9646775973579
 21
-316.28987729121133
 31
0.0
  0
LINE
  5
91E1
  8
01
 10
5375.9733575973578
 20
-340.28986239121059
 30
0.0
 11
5326.9646775973579
 21
-340.28986239121059
 31
0.0
  0
LINE
  5
91E2
  8
01
 10
5326.9646775973579
 20
-340.28986239121059
 30
0.0
 11
5326.9646775973579
 21
-316.28987729121133
 31
0.0
  0
LINE
  5
91E8
  8
01
 10
5353.6903519823536
 20
-323.34899428924382
 30
0.0
 11
5381.3451519823548
 21
-323.10765428924418
 31
0.0
  0
ARC
  5
91E9
  8
01
 10
5381.3538719823546
 20
-324.10761598924461
 30
0.0
 40
1.0
 50
3.034682900017688
 51
90.500085999987206
  0
ARC
  5
91EA
  8
01
 10
5302.4646419823539
 20
-328.28987458924439
 30
0.0
 40
80.0
 50
356.96533999998331
 51
3.0346557000027081
  0
ARC
  5
91EB
  8
01
 10
5381.3538719823546
 20
-332.47213328924408
 30
0.0
 40
1.0
 50
269.49990999998511
 51
356.96533999998331
  0
ARC
  5
91EC
  8
01
 10
5353.699081982355
 20
-324.34895658924421
 30
0.0
 40
1.0
 50
90.500085999987206
 51
179.49996999998331
  0
LINE
  5
91ED
  8
01
 10
5352.6991319823546
 20
-324.34023238924419
 30
0.0
 11
5352.664661982355
 21
-328.2898736892439
 31
0.0
  0
LINE
  5
91EE
  8
01
 10
5352.6991119823542
 20
-332.23952038924381
 30
0.0
 11
5352.6646419823546
 21
-328.28987988924382
 31
0.0
  0
ARC
  5
91EF
  8
01
 10
5353.699081982355
 20
-332.23080028924409
 30
0.0
 40
1.0
 50
180.50000000001771
 51
269.49990999998511
  0
LINE
  5
91F0
  8
01
 10
5353.6882564159296
 20
-333.23074169108349
 30
0.0
 11
5381.3451419823541
 21
-333.47209961924449
 31
0.0
  0
LINE
  5
91F1
  8
01
 10
5377.0240575973567
 20
-333.48437700121121
 30
0.0
 11
5376.973317597357
 21
-339.29860899121098
 31
0.0
  0
ARC
  5
91F2
  8
01
 10
5375.9733575973578
 20
-339.28986239121059
 30
0.0
 40
1.0
 50
270.0
 51
359.49999999998232
  0
LINE
  5
91F3
  8
01
 10
5377.0240675973582
 20
-323.09536329121062
 30
0.0
 11
5376.973317597357
 21
-317.28114529121098
 31
0.0
  0
ARC
  5
91F4
  8
01
 10
5375.9733575973578
 20
-317.28987729121133
 30
0.0
 40
1.0
 50
0.4999762299791222
 51
90.0
  0
LINE
  5
91F5
  8
01
 10
5353.6903675973581
 20
-333.28074697121059
 30
0.0
 11
5364.9646775973579
 21
-333.37913634487268
 31
0.0
  0
LINE
  5
91F6
  8
01
 10
5361.9646575973584
 20
-333.35295567121102
 30
0.0
 11
5353.4613375973577
 21
-333.2787481612113
 31
0.0
  0
LINE
  5
91F7
  8
01
 10
5352.4646775973579
 20
-324.30100129121092
 30
0.0
 11
5352.4646775973579
 21
-332.27875369121102
 31
0.0
  0
ARC
  5
91F8
  8
01
 10
5353.4646775973579
 20
-332.27875369121102
 30
0.0
 40
1.0
 50
180.00001000000091
 51
269.49990999998511
  0
ARC
  5
91F9
  8
01
 10
5353.4646775973579
 20
-324.30100129121092
 30
0.0
 40
1.0
 50
90.500085999987206
 51
180.0
  0
LINE
  5
91FA
  8
01
 10
5377.0240675973582
 20
-323.09536329121062
 30
0.0
 11
5353.4559475973592
 21
-323.30103829121072
 31
0.0
  0
LINE
  5
91FB
  8
01
 10
5377.0240575973567
 20
-333.48437700121121
 30
0.0
 11
5364.9646775973579
 21
-333.37913637139633
 31
0.0
  0
ARC
  5
9818
  8
01
 10
5467.9646775973579
 20
-328.28987759121082
 30
0.0
 40
25.0
 50
191.53695416750779
 51
348.46304583249213
  0
ARC
  5
9F51
  8
01
 10
5443.4646775973588
 20
-186.28987759121071
 30
0.0
 40
0.5
 50
180.0
 51
270.0
  0
ARC
  5
9F52
  8
01
 10
5492.464677597357
 20
-186.28987759121071
 30
0.0
 40
0.5
 50
270.0
 51
0.0
  0
ARC
  5
9F53
  8
01
 10
5325.9646775973579
 20
-303.78987759121082
 30
0.0
 40
0.5
 50
0.0
 51
90.0
  0
ARC
  5
9F54
  8
01
 10
5325.9646775973579
 20
-352.78987759121082
 30
0.0
 40
0.5
 50
270.0
 51
0.0
  0
POINT
  5
A0D4
  8
01
 10
5332.464677597357
 20
-328.28987759121082
 30
0.0
  0
LINE
  5
A0D5
  8
01
 10
5332.0646775873574
 20
-330.03987759121082
 30
0.0
 11
5332.0646775873574
 21
-329.18987757121067
 31
0.0
  0
LINE
  5
A0D6
  8
01
 10
5332.8646776073583
 20
-330.03987759121082
 30
0.0
 11
5332.8646776073583
 21
-329.18987757121067
 31
0.0
  0
LINE
  5
A0D7
  8
01
 10
5331.5646776173571
 20
-328.68987760121081
 30
0.0
 11
5330.7146775973579
 21
-328.68987760121081
 31
0.0
  0
LINE
  5
A0D8
  8
01
 10
5331.5646776173571
 20
-327.8898775812109
 30
0.0
 11
5330.7146775973579
 21
-327.8898775812109
 31
0.0
  0
LINE
  5
A0D9
  8
01
 10
5330.7146775973579
 20
-328.68987760121081
 30
0.0
 11
5330.7146775973579
 21
-327.8898775812109
 31
0.0
  0
LINE
  5
A0DA
  8
01
 10
5332.8646776073583
 20
-330.03987759121082
 30
0.0
 11
5332.0646775873574
 21
-330.03987759121082
 31
0.0
  0
LINE
  5
A0DB
  8
01
 10
5332.8646776073583
 20
-326.53987759121082
 30
0.0
 11
5332.8646776073583
 21
-327.38987761121098
 31
0.0
  0
LINE
  5
A0DC
  8
01
 10
5332.0646775873574
 20
-326.53987759121082
 30
0.0
 11
5332.0646775873574
 21
-327.38987761121098
 31
0.0
  0
LINE
  5
A0DD
  8
01
 10
5333.3646775773577
 20
-327.8898775812109
 30
0.0
 11
5334.2146775973579
 21
-327.8898775812109
 31
0.0
  0
LINE
  5
A0DE
  8
01
 10
5333.3646775773577
 20
-328.68987760121081
 30
0.0
 11
5334.2146775973579
 21
-328.68987760121081
 31
0.0
  0
LINE
  5
A0DF
  8
01
 10
5334.2146775973579
 20
-327.8898775812109
 30
0.0
 11
5334.2146775973579
 21
-328.68987760121081
 31
0.0
  0
LINE
  5
A0E0
  8
01
 10
5332.0646775873574
 20
-326.53987759121082
 30
0.0
 11
5332.8646776073583
 21
-326.53987759121082
 31
0.0
  0
CIRCLE
  5
A0E1
  8
01
 10
5332.464677597357
 20
-328.28987759121082
 30
0.0
 40
2.5
  0
ARC
  5
A0E2
  8
01
 10
5333.3646775773577
 20
-327.38987761121098
 30
0.0
 40
0.5
 50
179.999989999999
 51
270.0
  0
ARC
  5
A0E3
  8
01
 10
5333.3646775773577
 20
-329.18987757121067
 30
0.0
 40
0.5
 50
90.000002999984659
 51
180.000010000001
  0
ARC
  5
A0E4
  8
01
 10
5331.5646776173571
 20
-329.18987757121067
 30
0.0
 40
0.5
 50
0.0
 51
90.000002999984659
  0
ARC
  5
A0E5
  8
01
 10
5331.5646776173571
 20
-327.38987761121098
 30
0.0
 40
0.5
 50
270.0
 51
0.0
  0
CIRCLE
  5
A0E7
  8
01
 10
5332.464677597357
 20
-328.28987759121082
 30
0.0
 40
3.0
  0
LINE
  5
A0E8
  8
1DIM
 10
5586.863343597357
 20
-323.28987729121133
 30
0.0
 11
5604.2646775973581
 21
-323.28987729121133
 31
0.0
  0
LINE
  5
A0E9
  8
1DIM
 10
5586.863343597357
 20
-333.28987551121099
 30
0.0
 11
5604.2646775973581
 21
-333.28987551121099
 31
0.0
  0
LINE
  5
A0EA
  8
1DIM
 10
5602.9646775973579
 20
-325.88987729121129
 30
0.0
 11
5602.9646775973579
 21
-330.68987551121103
 31
0.0
  0
LINE
  5
A0EE
  8
1DIM
 10
5570.7198255947051
 20
-178.2898775912108
 30
0.0
 11
5614.2646775973581
 21
-178.2898775912108
 31
0.0
  0
LINE
  5
A0EF
  8
1DIM
 10
5586.964677597357
 20
-242.7898775912108
 30
0.0
 11
5614.2646775973581
 21
-242.7898775912108
 31
0.0
  0
LINE
  5
A0F0
  8
1DIM
 10
5612.9646775973579
 20
-180.88987759121079
 30
0.0
 11
5612.9646775973579
 21
-240.1898775912108
 31
0.0
  0
LINE
  5
A0F4
  8
1DIM
 10
5570.7198255947051
 20
-178.2898775912108
 30
0.0
 11
5604.2646775973581
 21
-178.2898775912108
 31
0.0
  0
LINE
  5
A0F5
  8
1DIM
 10
5586.964677597357
 20
-220.7898775912108
 30
0.0
 11
5604.2646775973581
 21
-220.7898775912108
 31
0.0
  0
LINE
  5
A0F6
  8
1DIM
 10
5602.9646775973579
 20
-180.88987759121079
 30
0.0
 11
5602.9646775973579
 21
-218.1898775912108
 31
0.0
  0
LINE
  5
A0FA
  8
1DIM
 10
5441.9646775973579
 20
-241.7898775912108
 30
0.0
 11
5441.9646775973579
 21
-269.08987759121078
 31
0.0
  0
LINE
  5
A0FB
  8
1DIM
 10
5587.9646775973588
 20
-241.7898775912108
 30
0.0
 11
5587.9646775973588
 21
-269.08987759121078
 31
0.0
  0
LINE
  5
A0FC
  8
1DIM
 10
5444.5646775973592
 20
-267.78987759121082
 30
0.0
 11
5585.3646775973566
 21
-267.78987759121082
 31
0.0
  0
LINE
  5
A100
  8
1DIM
 10
5467.9646775973579
 20
-198.08108747805809
 30
0.0
 11
5467.9646775973579
 21
-259.08987759121078
 31
0.0
  0
LINE
  5
A101
  8
1DIM
 10
5587.9646775973588
 20
-241.7898775912108
 30
0.0
 11
5587.9646775973588
 21
-259.08987759121078
 31
0.0
  0
LINE
  5
A102
  8
1DIM
 10
5470.5646775973592
 20
-257.78987759121082
 30
0.0
 11
5585.3646775973566
 21
-257.78987759121082
 31
0.0
  0
LINE
  5
A106
  8
1DIM
 10
5467.9646775973579
 20
-303.28987759121082
 30
0.0
 11
5431.6646775973577
 21
-303.28987759121082
 31
0.0
  0
LINE
  5
A107
  8
1DIM
 10
5467.9646775973579
 20
-353.28987759120992
 30
0.0
 11
5431.6646775973577
 21
-353.28987759120992
 31
0.0
  0
LINE
  5
A108
  8
1DIM
 10
5432.964677597357
 20
-305.88987759121079
 30
0.0
 11
5432.964677597357
 21
-350.68987759120989
 31
0.0
  0
TEXT
  5
A10C
  8
1DIM
 10
5432.0546775973571
 20
-336.22712355336552
 30
0.0
 40
4.5499999999999989
  1
φ50
 50
90.0
  0
LINE
  5
A10D
  8
0
  6
BYBLOCK
 10
5433.6613454913577
 20
-350.68987759120989
 30
0.0
 11
5432.964677597357
 21
-353.28987759120992
 31
0.0
  0
LINE
  5
A10E
  8
0
  6
BYBLOCK
 10
5432.964677597357
 20
-353.28987759120992
 30
0.0
 11
5432.2680097033581
 21
-350.68987759120989
 31
0.0
  0
LINE
  5
A10F
  8
0
  6
BYBLOCK
 10
5432.964677597357
 20
-353.28987759120992
 30
0.0
 11
5432.964677597357
 21
-350.68987759120989
 31
0.0
  0
LINE
  5
A110
  8
0
  6
BYBLOCK
 10
5432.2680097033581
 20
-305.88987759121079
 30
0.0
 11
5432.964677597357
 21
-303.28987759121082
 31
0.0
  0
LINE
  5
A111
  8
0
  6
BYBLOCK
 10
5432.964677597357
 20
-303.28987759121082
 30
0.0
 11
5433.6613454913577
 21
-305.88987759121079
 31
0.0
  0
LINE
  5
A112
  8
0
  6
BYBLOCK
 10
5432.964677597357
 20
-303.28987759121082
 30
0.0
 11
5432.964677597357
 21
-305.88987759121079
 31
0.0
  0
TEXT
  5
A113
  8
1DIM
 10
5523.0355109306911
 20
-256.8798775912108
 30
0.0
 40
4.5499999999999989
  1
120 
  0
LINE
  5
A114
  8
0
  6
BYBLOCK
 10
5585.3646775973566
 20
-257.0932096972108
 30
0.0
 11
5587.9646775973588
 21
-257.78987759121082
 31
0.0
  0
LINE
  5
A115
  8
0
  6
BYBLOCK
 10
5587.9646775973588
 20
-257.78987759121082
 30
0.0
 11
5585.3646775973566
 21
-258.48654548521068
 31
0.0
  0
LINE
  5
A116
  8
0
  6
BYBLOCK
 10
5587.9646775973588
 20
-257.78987759121082
 30
0.0
 11
5585.3646775973566
 21
-257.78987759121082
 31
0.0
  0
LINE
  5
A117
  8
0
  6
BYBLOCK
 10
5470.5646775973592
 20
-258.48654548521068
 30
0.0
 11
5467.9646775973579
 21
-257.78987759121082
 31
0.0
  0
LINE
  5
A118
  8
0
  6
BYBLOCK
 10
5467.9646775973579
 20
-257.78987759121082
 30
0.0
 11
5470.5646775973592
 21
-257.0932096972108
 31
0.0
  0
LINE
  5
A119
  8
0
  6
BYBLOCK
 10
5467.9646775973579
 20
-257.78987759121082
 30
0.0
 11
5470.5646775973592
 21
-257.78987759121082
 31
0.0
  0
TEXT
  5
A11A
  8
1DIM
 10
5509.6563442640236
 20
-266.8798775912108
 30
0.0
 40
4.5499999999999989
  1
146 
  0
LINE
  5
A11B
  8
0
  6
BYBLOCK
 10
5585.3646775973566
 20
-267.0932096972108
 30
0.0
 11
5587.9646775973588
 21
-267.78987759121082
 31
0.0
  0
LINE
  5
A11C
  8
0
  6
BYBLOCK
 10
5587.9646775973588
 20
-267.78987759121082
 30
0.0
 11
5585.3646775973566
 21
-268.48654548521068
 31
0.0
  0
LINE
  5
A11D
  8
0
  6
BYBLOCK
 10
5587.9646775973588
 20
-267.78987759121082
 30
0.0
 11
5585.3646775973566
 21
-267.78987759121082
 31
0.0
  0
LINE
  5
A11E
  8
0
  6
BYBLOCK
 10
5444.5646775973592
 20
-268.48654548521068
 30
0.0
 11
5441.9646775973579
 21
-267.78987759121082
 31
0.0
  0
LINE
  5
A11F
  8
0
  6
BYBLOCK
 10
5441.9646775973579
 20
-267.78987759121082
 30
0.0
 11
5444.5646775973592
 21
-267.0932096972108
 31
0.0
  0
LINE
  5
A120
  8
0
  6
BYBLOCK
 10
5441.9646775973579
 20
-267.78987759121082
 30
0.0
 11
5444.5646775973592
 21
-267.78987759121082
 31
0.0
  0
TEXT
  5
A121
  8
1DIM
 10
5602.0546775973571
 20
-206.3648775912099
 30
0.0
 40
4.5499999999999989
  1
42.5 
 50
90.0
  0
LINE
  5
A122
  8
0
  6
BYBLOCK
 10
5603.6613454913568
 20
-218.1898775912108
 30
0.0
 11
5602.9646775973579
 21
-220.7898775912108
 31
0.0
  0
LINE
  5
A123
  8
0
  6
BYBLOCK
 10
5602.9646775973579
 20
-220.7898775912108
 30
0.0
 11
5602.2680097033581
 21
-218.1898775912108
 31
0.0
  0
LINE
  5
A124
  8
0
  6
BYBLOCK
 10
5602.9646775973579
 20
-220.7898775912108
 30
0.0
 11
5602.9646775973579
 21
-218.1898775912108
 31
0.0
  0
LINE
  5
A125
  8
0
  6
BYBLOCK
 10
5602.2680097033581
 20
-180.88987759121079
 30
0.0
 11
5602.9646775973579
 21
-178.2898775912108
 31
0.0
  0
LINE
  5
A126
  8
0
  6
BYBLOCK
 10
5602.9646775973579
 20
-178.2898775912108
 30
0.0
 11
5603.6613454913568
 21
-180.88987759121079
 31
0.0
  0
LINE
  5
A127
  8
0
  6
BYBLOCK
 10
5602.9646775973579
 20
-178.2898775912108
 30
0.0
 11
5602.9646775973579
 21
-180.88987759121079
 31
0.0
  0
TEXT
  5
A128
  8
1DIM
 10
5612.0546775973571
 20
-217.3648775912099
 30
0.0
 40
4.5499999999999989
  1
64.5 
 50
90.0
  0
LINE
  5
A129
  8
0
  6
BYBLOCK
 10
5613.6613454913577
 20
-240.1898775912108
 30
0.0
 11
5612.9646775973579
 21
-242.7898775912108
 31
0.0
  0
LINE
  5
A12A
  8
0
  6
BYBLOCK
 10
5612.9646775973579
 20
-242.7898775912108
 30
0.0
 11
5612.2680097033581
 21
-240.1898775912108
 31
0.0
  0
LINE
  5
A12B
  8
0
  6
BYBLOCK
 10
5612.9646775973579
 20
-242.7898775912108
 30
0.0
 11
5612.9646775973579
 21
-240.1898775912108
 31
0.0
  0
LINE
  5
A12C
  8
0
  6
BYBLOCK
 10
5612.2680097033581
 20
-180.88987759121079
 30
0.0
 11
5612.9646775973579
 21
-178.2898775912108
 31
0.0
  0
LINE
  5
A12D
  8
0
  6
BYBLOCK
 10
5612.9646775973579
 20
-178.2898775912108
 30
0.0
 11
5613.6613454913577
 21
-180.88987759121079
 31
0.0
  0
LINE
  5
A12E
  8
0
  6
BYBLOCK
 10
5612.9646775973579
 20
-178.2898775912108
 30
0.0
 11
5612.9646775973579
 21
-180.88987759121079
 31
0.0
  0
TEXT
  5
A12F
  8
1DIM
 10
5602.0546775973571
 20
-330.94404306787692
 30
0.0
 40
4.5499999999999989
  1
10 
 50
90.0
  0
LINE
  5
A130
  8
0
  6
BYBLOCK
 10
5603.6613454913568
 20
-330.68987551121103
 30
0.0
 11
5602.9646775973579
 21
-333.28987551121099
 31
0.0
  0
LINE
  5
A131
  8
0
  6
BYBLOCK
 10
5602.9646775973579
 20
-333.28987551121099
 30
0.0
 11
5602.2680097033581
 21
-330.68987551121103
 31
0.0
  0
LINE
  5
A132
  8
0
  6
BYBLOCK
 10
5602.9646775973579
 20
-333.28987551121099
 30
0.0
 11
5602.9646775973579
 21
-330.68987551121103
 31
0.0
  0
LINE
  5
A133
  8
0
  6
BYBLOCK
 10
5602.2680097033581
 20
-325.88987729121129
 30
0.0
 11
5602.9646775973579
 21
-323.28987729121133
 31
0.0
  0
LINE
  5
A134
  8
0
  6
BYBLOCK
 10
5602.9646775973579
 20
-323.28987729121133
 30
0.0
 11
5603.6613454913568
 21
-325.88987729121129
 31
0.0
  0
LINE
  5
A135
  8
0
  6
BYBLOCK
 10
5602.9646775973579
 20
-323.28987729121133
 30
0.0
 11
5602.9646775973579
 21
-325.88987729121129
 31
0.0
  0
VIEWPORT
  5
57
 67
     1
  8
0
 10
-0.9387615863834355
 20
10.09791912461027
 30
0.0
 40
409.14624962126101
 41
271.30162396691298
 68
     1
 69
     1
1001
ACAD
1000
MVIEW
1002
{
1070
    16
1010
0.0
1020
0.0
1030
0.0
1010
0.0
1020
0.0
1030
1.0
1040
0.0
1040
271.30162396691298
1040
-0.9387615863834355
1040
10.09791912461027
1040
50.0
1040
0.0
1040
0.0
1070
     0
1070
   100
1070
     1
1070
     1
1070
     0
1070
     0
1070
     0
1070
     0
1040
0.0
1040
0.0
1040
0.0
1040
10.0
1040
10.0
1040
10.0
1040
10.0
1070
     0
1002
{
1002
}
1002
}
  0
ENDSEC
  0
EOF
