  0
SECTION
  2
HEADER
  9
$ACADVER
  1
AC1009
  9
$INSBASE
 10
0.0
 20
0.0
 30
0.0
  9
$EXTMIN
 10
2043.3274920334959
 20
-160.76750736468841
 30
0.0
  9
$EXTMAX
 10
3855.556452908188
 20
503.67317922344768
 30
0.0
  9
$LIMMIN
 10
0.0
 20
0.0
  9
$LIMMAX
 10
12.0
 20
9.0
  9
$ORTHOMODE
 70
     0
  9
$REGENMODE
 70
     1
  9
$FILLMODE
 70
     1
  9
$QTEXTMODE
 70
     0
  9
$MIRRTEXT
 70
     0
  9
$DRAGMODE
 70
     2
  9
$LTSCALE
 40
0.5
  9
$OSMODE
 70
  2173
  9
$ATTMODE
 70
     1
  9
$TEXTSIZE
 40
4.0
  9
$TRACEWID
 40
0.05
  9
$TEXTSTYLE
  7
STANDARD
  9
$CLAYER
  8
1TEXT
  9
$CELTYPE
  6
BYLAYER
  9
$CECOLOR
 62
   256
  9
$DIMSCALE
 40
5.0
  9
$DIMASZ
 40
2.0
  9
$DIMEXO
 40
0.0
  9
$DIMDLI
 40
7.0
  9
$DIMRND
 40
0.0
  9
$DIMDLE
 40
0.0
  9
$DIMEXE
 40
1.0
  9
$DIMTP
 40
0.0
  9
$DIMTM
 40
0.0
  9
$DIMTXT
 40
3.5
  9
$DIMCEN
 40
0.0
  9
$DIMTSZ
 40
0.0
  9
$DIMTOL
 70
     0
  9
$DIMLIM
 70
     0
  9
$DIMTIH
 70
     0
  9
$DIMTOH
 70
     0
  9
$DIMSE1
 70
     0
  9
$DIMSE2
 70
     0
  9
$DIMTAD
 70
     1
  9
$DIMZIN
 70
     8
  9
$DIMBLK
  1

  9
$DIMASO
 70
     1
  9
$DIMSHO
 70
     1
  9
$DIMPOST
  1
 
  9
$DIMAPOST
  1

  9
$DIMALT
 70
     0
  9
$DIMALTD
 70
     2
  9
$DIMALTF
 40
25.399999999999999
  9
$DIMLFAC
 40
1.0
  9
$DIMTOFL
 70
     1
  9
$DIMTVP
 40
0.0
  9
$DIMTIX
 70
     0
  9
$DIMSOXD
 70
     0
  9
$DIMSAH
 70
     1
  9
$DIMBLK1
  1
OPEN30
  9
$DIMBLK2
  1
OPEN30
  9
$DIMSTYLE
  2
NEWX10
  9
$DIMCLRD
 70
   256
  9
$DIMCLRE
 70
   256
  9
$DIMCLRT
 70
   201
  9
$DIMTFAC
 40
0.7
  9
$DIMGAP
 40
0.7
  9
$LUNITS
 70
     2
  9
$LUPREC
 70
     4
  9
$SKETCHINC
 40
0.1
  9
$FILLETRAD
 40
1.0
  9
$AUNITS
 70
     0
  9
$AUPREC
 70
     2
  9
$MENU
  1
acad
  9
$ELEVATION
 40
0.0
  9
$PELEVATION
 40
0.0
  9
$THICKNESS
 40
0.0
  9
$LIMCHECK
 70
     0
  9
$BLIPMODE
 70
     0
  9
$CHAMFERA
 40
0.0
  9
$CHAMFERB
 40
0.0
  9
$SKPOLY
 70
     0
  9
$TDCREATE
 40
2451010.570073646
  9
$TDUPDATE
 40
2453564.771509687
  9
$TDINDWG
 40
5.0181713309999996
  9
$TDUSRTIMER
 40
5.0181713309999996
  9
$USRTIMER
 70
     1
  9
$ANGBASE
 50
0.0
  9
$ANGDIR
 70
     0
  9
$PDMODE
 70
     0
  9
$PDSIZE
 40
0.0
  9
$PLINEWID
 40
0.0
  9
$COORDS
 70
     2
  9
$SPLFRAME
 70
     0
  9
$SPLINETYPE
 70
     6
  9
$SPLINESEGS
 70
     8
  9
$ATTDIA
 70
     0
  9
$ATTREQ
 70
     1
  9
$HANDLING
 70
     1
  9
$HANDSEED
  5
2D2C4
  9
$SURFTAB1
 70
     6
  9
$SURFTAB2
 70
     6
  9
$SURFTYPE
 70
     6
  9
$SURFU
 70
     6
  9
$SURFV
 70
     6
  9
$UCSNAME
  2

  9
$UCSORG
 10
0.0
 20
0.0
 30
0.0
  9
$UCSXDIR
 10
1.0
 20
0.0
 30
0.0
  9
$UCSYDIR
 10
0.0
 20
1.0
 30
0.0
  9
$PUCSNAME
  2

  9
$PUCSORG
 10
0.0
 20
0.0
 30
0.0
  9
$PUCSXDIR
 10
1.0
 20
0.0
 30
0.0
  9
$PUCSYDIR
 10
0.0
 20
1.0
 30
0.0
  9
$USERI1
 70
     0
  9
$USERI2
 70
     0
  9
$USERI3
 70
     0
  9
$USERI4
 70
     0
  9
$USERI5
 70
     0
  9
$USERR1
 40
0.0
  9
$USERR2
 40
0.0
  9
$USERR3
 40
0.0
  9
$USERR4
 40
0.0
  9
$USERR5
 40
0.0
  9
$WORLDVIEW
 70
     1
  9
$SHADEDGE
 70
     3
  9
$SHADEDIF
 70
    70
  9
$TILEMODE
 70
     1
  9
$MAXACTVP
 70
    48
  9
$PLIMCHECK
 70
     0
  9
$PEXTMIN
 10
1.0000000000000000E+020
 20
1.0000000000000000E+020
 30
1.0000000000000000E+020
  9
$PEXTMAX
 10
-1.0000000000000000E+020
 20
-1.0000000000000000E+020
 30
-1.0000000000000000E+020
  9
$PLIMMIN
 10
0.0
 20
0.0
  9
$PLIMMAX
 10
12.0
 20
9.0
  9
$UNITMODE
 70
     0
  9
$VISRETAIN
 70
     1
  9
$PLINEGEN
 70
     0
  9
$PSLTSCALE
 70
     1
  0
ENDSEC
  0
SECTION
  2
TABLES
  0
TABLE
  2
VPORT
 70
     4
  0
VPORT
  2
*ACTIVE
 70
     0
 10
0.0
 20
0.0
 11
1.0
 21
1.0
 12
2949.3806811508111
 22
171.45283747640121
 13
0.0
 23
0.0
 14
1.0
 24
1.0
 15
0.0
 25
0.0
 16
0.0
 26
0.0
 36
1.0
 17
0.0
 27
0.0
 37
0.0
 40
1271.9450968286881
 41
1.508086253369272
 42
50.0
 43
0.0
 44
0.0
 50
0.0
 51
0.0
 71
     0
 72
   100
 73
     1
 74
     1
 75
     0
 76
     0
 77
     0
 78
     1
  0
ENDTAB
  0
TABLE
  2
LTYPE
 70
    16
  0
LTYPE
  2
CONTINUOUS
 70
     0
  3
Solid line
 72
    65
 73
     0
 40
0.0
  0
LTYPE
  2
CENTER2
 70
     0
  3
Center (.5x) ___ _ ___ _ ___ _ ___ _ ___ _ ___
 72
    65
 73
     4
 40
28.574999999999999
 49
19.050000000000001
 49
-3.1749999999999989
 49
3.1749999999999989
 49
-3.1749999999999989
  0
LTYPE
  2
A3WAKUDAKE|CENTER2
 70
    48
  3
Center (.5x) ___ _ ___ _ ___ _ ___ _ ___ _ ___
 72
    65
 73
     4
 40
28.574999999999999
 49
19.050000000000001
 49
-3.1749999999999989
 49
3.1749999999999989
 49
-3.1749999999999989
  0
LTYPE
  2
XREF1|CENTER2
 70
    48
  3
Center (.5x) ___ _ ___ _ ___ _ ___ _ ___ _ ___
 72
    65
 73
     4
 40
28.574999999999999
 49
19.050000000000001
 49
-3.1749999999999989
 49
3.1749999999999989
 49
-3.1749999999999989
  0
ENDTAB
  0
TABLE
  2
LAYER
 70
    44
  0
LAYER
  2
0
 70
     0
 62
     7
  6
CONTINUOUS
  0
LAYER
  2
1CENTER
 70
     0
 62
     7
  6
CENTER2
  0
LAYER
  2
1DIM
 70
     0
 62
     7
  6
CONTINUOUS
  0
LAYER
  2
1TEXT
 70
     0
 62
     7
  6
CONTINUOUS
  0
LAYER
  2
01
 70
     0
 62
     1
  6
CONTINUOUS
  0
LAYER
  2
A3WAKUDAKE|THICK
 70
    48
 62
     7
  6
CONTINUOUS
  0
LAYER
  2
A3WAKUDAKE|POINT
 70
    48
 62
     7
  6
CONTINUOUS
  0
LAYER
  2
A3WAKUDAKE|1CENTER
 70
    48
 62
     7
  6
A3WAKUDAKE|CENTER2
  0
LAYER
  2
A3WAKUDAKE|0-6
 70
    48
 62
     7
  6
CONTINUOUS
  0
LAYER
  2
A3WAKUDAKE|1DIM
 70
    48
 62
     7
  6
CONTINUOUS
  0
LAYER
  2
XREF1|1CENTER
 70
    48
 62
     7
  6
XREF1|CENTER2
  0
ENDTAB
  0
TABLE
  2
STYLE
 70
    20
  0
STYLE
  2
STANDARD
 70
     0
 40
0.0
 41
1.0
 50
0.0
 71
     0
 42
4.0
  3
txt.shx
  4
extfont.shx
  0
ENDTAB
  0
TABLE
  2
VIEW
 70
     0
  0
ENDTAB
  0
TABLE
  2
UCS
 70
     0
  0
ENDTAB
  0
TABLE
  2
APPID
 70
     7
  0
APPID
  2
ACAD
 70
     0
  0
APPID
  2
CONTENTTABDATA
 70
     0
  0
APPID
  2
CONTENTCURRENTTAB
 70
     0
  0
APPID
  2
CONTENTBLOCKICON
 70
     0
  0
APPID
  2
CONTENTBLOCKDESCRIPTION
 70
     0
  0
APPID
  2
DRAWINGVARIABLESXDATA
 70
     0
  0
APPID
  2
CONTENTLONGBLOCKNAME
 70
     0
  0
ENDTAB
  0
TABLE
  2
DIMSTYLE
 70
     7
  0
DIMSTYLE
  2
NEWX10
 70
     0
  3
 
  4

  5

  6
OPEN30
  7
OPEN30
 40
1.0
 41
2.0
 42
0.0
 43
7.0
 44
1.0
 45
0.0
 46
0.0
 47
0.0
 48
0.0
140
3.5
141
0.0
142
0.0
143
25.399999999999999
144
1.0
145
0.0
146
0.7
147
0.7
 71
     0
 72
     0
 73
     0
 74
     0
 75
     0
 76
     0
 77
     1
 78
     8
170
     0
171
     2
172
     1
173
     1
174
     0
175
     0
176
   256
177
   256
178
   201
  0
ENDTAB
  0
ENDSEC
  0
SECTION
  2
BLOCKS
  0
BLOCK
  8
0
  2
$MODEL_SPACE
 70
     0
 10
0.0
 20
0.0
 30
0.0
  3
$MODEL_SPACE
  1

  0
ENDBLK
  5
1A
  8
0
  0
BLOCK
 67
     1
  8
0
  2
$PAPER_SPACE
 70
     0
 10
0.0
 20
0.0
 30
0.0
  3
$PAPER_SPACE
  1

  0
ENDBLK
  5
17
 67
     1
  8
0
  0
BLOCK
  8
0
  2
_OPEN30
 70
     0
 10
0.0
 20
0.0
 30
0.0
  3
_OPEN30
  1

  0
LINE
  5
1030
  8
0
  6
BYBLOCK
 62
     0
 10
-1.0
 20
0.26794919
 30
0.0
 11
0.0
 21
0.0
 31
0.0
  0
LINE
  5
1031
  8
0
  6
BYBLOCK
 62
     0
 10
0.0
 20
0.0
 30
0.0
 11
-1.0
 21
-0.26794919
 31
0.0
  0
LINE
  5
1032
  8
0
  6
BYBLOCK
 62
     0
 10
0.0
 20
0.0
 30
0.0
 11
-1.0
 21
0.0
 31
0.0
  0
ENDBLK
  5
1033
  8
0
  0
BLOCK
  8
0
  2
A3WAKUDAKE
 70
    36
 10
0.0
 20
0.0
 30
0.0
  3
A3WAKUDAKE
  1
D:\ACLT\FORMAT\A3WAKUdake.dwg
  0
ENDBLK
  5
2CE75
  8
0
  0
BLOCK
  8
0
  2
XREF1
 70
    36
 10
0.0
 20
0.0
 30
0.0
  3
XREF1
  1
D:\ACLT\FORMAT\KAWAJUN(9)図面用.dwg
  0
ENDBLK
  5
2CE78
  8
0
  0
BLOCK
  8
0
  2
*U23
 70
     1
 10
0.0
 20
0.0
 30
0.0
  3
*U23
  1

  0
TEXT
  5
2D28D
  8
0
 62
   201
 10
1655.2491355712359
 20
1641.9442599125809
 30
0.0
 40
3.5
  1
50 
 50
90.0
  0
ENDBLK
  5
2D28F
  8
0
  0
BLOCK
  8
0
  2
*U24
 70
     1
 10
0.0
 20
0.0
 30
0.0
  3
*U24
  1

  0
TEXT
  5
2D291
  8
0
 62
   201
 10
1618.4701224403179
 20
1599.876343734483
 30
0.0
 40
3.5
  1
24 
  0
ENDBLK
  5
2D293
  8
0
  0
BLOCK
  8
0
  2
*U25
 70
     1
 10
0.0
 20
0.0
 30
0.0
  3
*U25
  1

  0
TEXT
  5
2D295
  8
0
 62
   201
 10
1676.8242652890031
 20
1599.876343734483
 30
0.0
 40
3.5
  1
21 
  0
ENDBLK
  5
2D297
  8
0
  0
BLOCK
  8
0
  2
*U26
 70
     1
 10
0.0
 20
0.0
 30
0.0
  3
*U26
  1

  0
TEXT
  5
2D299
  8
0
 62
   201
 10
1649.5231503731691
 20
1635.652593245914
 30
0.0
 40
3.5
  1
38 
 50
90.0
  0
ENDBLK
  5
2D29B
  8
0
  0
BLOCK
  8
0
  2
*U27
 70
     1
 10
0.0
 20
0.0
 30
0.0
  3
*U27
  1

  0
TEXT
  5
2D29D
  8
0
 62
   201
 10
1597.9249228383751
 20
1672.9933656036189
 30
0.0
 40
3.5
  1
φ15.3
 50
328.10717639620441
  0
ENDBLK
  5
2D29F
  8
0
  0
BLOCK
  8
0
  2
*U28
 70
     1
 10
0.0
 20
0.0
 30
0.0
  3
*U28
  1

  0
TEXT
  5
2D2A1
  8
0
 62
   201
 10
3782.3177652079839
 20
-764.29268138299119
 30
0.0
 40
3.5
  1
φ15
 50
90.0
  0
ENDBLK
  5
2D2A3
  8
0
  0
BLOCK
  8
0
  2
*U29
 70
     1
 10
0.0
 20
0.0
 30
0.0
  3
*U29
  1

  0
TEXT
  5
2D2A5
  8
0
 62
   201
 10
3635.271787714918
 20
-780.39068805174929
 30
0.0
 40
3.5
  1
L=595.1195.1795
  0
ENDBLK
  5
2D2A7
  8
0
  0
BLOCK
  8
0
  2
*U30
 70
     1
 10
0.0
 20
0.0
 30
0.0
  3
*U30
  1

  0
TEXT
  5
2D2A9
  8
0
 62
   201
 10
3540.9382411781871
 20
-747.8926813829911
 30
0.0
 40
3.5
  1
t1 
 50
90.0
  0
ENDBLK
  5
2D2AB
  8
0
  0
BLOCK
  8
0
  2
*U31
 70
     1
 10
0.0
 20
0.0
 30
0.0
  3
*U31
  1

  0
TEXT
  5
2D2B1
  8
1DIM
 62
   201
 10
2923.479516368011
 20
295.91809516817011
 30
0.0
 40
17.5
  1
1795 
  0
ENDBLK
  5
2D2B3
  8
0
  0
BLOCK
  8
0
  2
*U32
 70
     1
 10
0.0
 20
0.0
 30
0.0
  3
*U32
  1

  0
TEXT
  5
2D2B5
  8
1DIM
 62
   201
 10
3226.3961830346771
 20
195.9180951681702
 30
0.0
 40
17.5
  1
1195 
  0
ENDBLK
  5
2D2B7
  8
0
  0
BLOCK
  8
0
  2
*U33
 70
     1
 10
0.0
 20
0.0
 30
0.0
  3
*U33
  1

  0
TEXT
  5
2D2B9
  8
1DIM
 62
   201
 10
3529.3128497013449
 20
95.918095168170169
 30
0.0
 40
17.5
  1
595 
  0
ENDBLK
  5
2D2BB
  8
0
  0
BLOCK
  8
0
  2
*U34
 70
     1
 10
0.0
 20
0.0
 30
0.0
  3
*U34
  1

  0
TEXT
  5
2D2BD
  8
1DIM
 62
   201
 10
3117.399117587589
 20
64.954278059245596
 30
0.0
 40
17.5
  1
内径φ13
 50
41.82092634067731
  0
ENDBLK
  5
2D2BF
  8
0
  0
BLOCK
  8
0
  2
*U35
 70
     1
 10
0.0
 20
0.0
 30
0.0
  3
*U35
  1

  0
TEXT
  5
2D2C1
  8
1DIM
 62
   201
 10
3137.294841643909
 20
175.4752059753861
 30
0.0
 40
17.5
  1
φ15
 50
337.85126596239132
  0
ENDBLK
  5
2D2C3
  8
0
  0
ENDSEC
  0
SECTION
  2
ENTITIES
  0
LINE
  5
2CF16
  8
1DIM
 10
3570.1461830346798
 20
-89.490829474382281
 30
0.0
 11
3850.146183034678
 21
-89.490829474382281
 31
0.0
  0
LINE
  5
2CF17
  8
1DIM
 10
3570.1461830346798
 20
-61.49082947438216
 30
0.0
 11
3850.146183034678
 21
-61.490829474382508
 31
0.0
  0
TEXT
  5
2CF18
  8
1TEXT
 10
3586.4128497013471
 20
-84.348257408980203
 30
0.0
 40
16.0
  1
KC01C180
 72
     1
 11
3639.7461830346801
 21
-84.348257408980203
 31
0.0
  0
TEXT
  5
2CF19
  8
1TEXT
 10
3586.4128497013471
 20
-56.348257408980082
 30
0.0
 40
16.0
  1
KC01C120
 72
     1
 11
3639.7461830346801
 21
-56.348257408980082
 31
0.0
  0
TEXT
  5
2CF1A
  8
1TEXT
 10
3591.7461830346801
 20
-28.348257408979968
 30
0.0
 40
16.0
  1
KC01C60
 72
     1
 11
3639.7461830346801
 21
-28.348257408979968
 31
0.0
  0
TEXT
  5
2CF1B
  8
1TEXT
 10
3612.5461830346781
 20
0.5091705256177193
 30
0.0
 40
16.0
  1
コード
 72
     1
 11
3639.7461830346779
 21
0.5091705256177193
 31
0.0
  0
LINE
  5
2CF1C
  8
1DIM
 10
3570.1461830346798
 20
-5.4908294743820534
 30
0.0
 11
3850.146183034678
 21
-5.4908294743820534
 31
0.0
  0
LINE
  5
2CF1D
  8
1DIM
 10
3570.1461830346798
 20
-33.490829474382508
 30
0.0
 11
3850.146183034678
 21
-33.490829474381371
 31
0.0
  0
LINE
  5
2CF1E
  8
1DIM
 10
3570.1461830346798
 20
22.509170525617719
 30
0.0
 11
3850.146183034678
 21
22.50917052561886
 31
0.0
  0
LINE
  5
2CF1F
  8
1DIM
 10
3570.146183034678
 20
22.509170525618291
 30
0.0
 11
3570.146183034678
 21
-89.490829474382281
 31
0.0
  0
LINE
  5
2CF20
  8
1DIM
 10
3710.1461830346748
 20
22.509170525617719
 30
0.0
 11
3710.1461830346771
 21
-89.490829474382281
 31
0.0
  0
LINE
  5
2CF21
  8
1CENTER
 10
3855.556452908188
 20
142.41809516817011
 30
0.0
 11
3243.3274920334961
 21
142.41809516817011
 31
0.0
  0
LINE
  5
2CF22
  8
01
 10
3255.146183034678
 20
134.91809516816971
 30
0.0
 11
3255.146183034678
 21
149.9180951681696
 31
0.0
  0
LINE
  5
2CF23
  8
01
 10
3850.146183034678
 20
149.9180951681696
 30
0.0
 11
3255.146183034678
 21
149.9180951681696
 31
0.0
  0
LINE
  5
2CF24
  8
01
 10
3850.146183034678
 20
134.91809516816971
 30
0.0
 11
3255.146183034678
 21
134.9180951681696
 31
0.0
  0
LINE
  5
2CF25
  8
01
 10
3850.146183034678
 20
149.9180951681696
 30
0.0
 11
3850.146183034678
 21
134.91809516816971
 31
0.0
  0
LINE
  5
2CF26
  8
1CENTER
 10
3855.556452908188
 20
242.41809516817011
 30
0.0
 11
2643.3274920334961
 21
242.41809516817011
 31
0.0
  0
LINE
  5
2CF27
  8
01
 10
2655.1461830346771
 20
234.9180951681698
 30
0.0
 11
2655.1461830346771
 21
249.9180951681696
 31
0.0
  0
LINE
  5
2CF28
  8
01
 10
3850.146183034678
 20
249.9180951681696
 30
0.0
 11
2655.1461830346771
 21
249.9180951681696
 31
0.0
  0
LINE
  5
2CF29
  8
01
 10
3850.146183034678
 20
234.9180951681698
 30
0.0
 11
2655.1461830346771
 21
234.91809516816971
 31
0.0
  0
LINE
  5
2CF2A
  8
01
 10
3850.146183034678
 20
249.9180951681696
 30
0.0
 11
3850.146183034678
 21
234.9180951681698
 31
0.0
  0
LINE
  5
2CF2B
  8
1CENTER
 10
3855.556452908188
 20
342.41809516817011
 30
0.0
 11
2043.3274920334959
 21
342.41809516817011
 31
0.0
  0
LINE
  5
2CF2C
  8
01
 10
2055.1461830346771
 20
334.91809516816971
 30
0.0
 11
2055.1461830346771
 21
349.9180951681696
 31
0.0
  0
LINE
  5
2CF2D
  8
01
 10
3850.146183034678
 20
349.9180951681696
 30
0.0
 11
2055.1461830346771
 21
349.9180951681696
 31
0.0
  0
LINE
  5
2CF2E
  8
01
 10
3850.146183034678
 20
334.91809516816971
 30
0.0
 11
2055.146183034678
 21
334.91809516816971
 31
0.0
  0
LINE
  5
2CF2F
  8
01
 10
3850.146183034678
 20
349.9180951681696
 30
0.0
 11
3850.146183034678
 21
334.91809516816971
 31
0.0
  0
TEXT
  5
2CF30
  8
1TEXT
 10
3755.746183034677
 20
-55.402409554320002
 30
0.0
 40
16.0
  1
1195
 72
     1
 11
3779.7461830346779
 21
-55.402409554320002
 31
0.0
  0
TEXT
  5
2CF31
  8
1TEXT
 10
3753.0795163680109
 20
-83.402409554320215
 30
0.0
 40
16.0
  1
1795
 72
     1
 11
3779.7461830346779
 21
-83.402409554320215
 31
0.0
  0
TEXT
  5
2CF32
  8
1TEXT
 10
3758.4128497013439
 20
-27.402409554319998
 30
0.0
 40
16.0
  1
595
 72
     1
 11
3779.7461830346779
 21
-27.402409554319998
 31
0.0
  0
TEXT
  5
2CF33
  8
1TEXT
 10
3763.746183034677
 20
0.5091705256177193
 30
0.0
 40
16.0
  1
長さ
 72
     1
 11
3779.7461830346779
 21
0.5091705256177193
 31
0.0
  0
LINE
  5
2CF34
  8
1DIM
 10
3850.146183034678
 20
22.509170525618291
 30
0.0
 11
3850.146183034678
 21
-89.490829474382281
 31
0.0
  0
CIRCLE
  5
2CF35
  8
01
 10
3209.2229379359042
 20
142.4180951681702
 30
0.0
 40
7.5
  0
CIRCLE
  5
2CF36
  8
01
 10
3209.2229379359042
 20
142.4180951681702
 30
0.0
 40
6.5
  0
LINE
  5
2CF37
  8
1CENTER
 10
3220.5159538115158
 20
142.4180951681702
 30
0.0
 11
3197.9299220602911
 21
142.4180951681702
 31
0.0
  0
LINE
  5
2CF38
  8
1CENTER
 10
3209.2229379359042
 20
153.71111104378289
 30
0.0
 11
3209.2229379359042
 21
131.12507929255759
 31
0.0
  0
TEXT
  5
2CF3F
  8
1TEXT
 10
2103.1534695293199
 20
473.67317922344768
 30
0.0
 40
30.0
  1
KC01C
  0
TEXT
  5
2CF49
  8
1TEXT
 10
3613.005696316151
 20
-130.50212671354399
 30
0.0
 40
20.0
  1
材　質：ステンレス
  0
TEXT
  5
2CF4A
  8
1TEXT
 10
3613.005696316151
 20
-160.7675073646883
 30
0.0
 40
20.0
  1
仕上げ：鏡面仕上げ
  0
LINE
  5
2D037
  8
1DIM
 10
3221.5192743500729
 20
153.4203726955559
 30
0.0
 11
3228.9715994495682
 21
160.0884196818499
 31
0.0
  0
LINE
  5
2D038
  8
1DIM
 10
3196.9266015217358
 20
131.41581764078501
 30
0.0
 11
3115.199436263933
 21
58.28956902442701
 31
0.0
  0
LINE
  5
2D039
  8
1DIM
 10
3214.0669492505772
 20
146.75232570926181
 30
0.0
 11
3204.3789266212311
 21
138.08386462707901
 31
0.0
  0
LINE
  5
2D03D
  8
1DIM
 10
3225.431583026696
 20
135.82038160051729
 30
0.0
 11
3234.6936659357189
 21
132.05025956185881
 31
0.0
  0
LINE
  5
2D03E
  8
1DIM
 10
3193.0142928451128
 20
149.01580873582239
 30
0.0
 11
3132.5020178394939
 21
173.6472727217249
 31
0.0
  0
LINE
  5
2D03F
  8
1DIM
 10
3216.1695001176722
 20
139.59050363917589
 30
0.0
 11
3202.276375754137
 21
145.24568669716379
 31
0.0
  0
LINE
  5
2D043
  8
1DIM
 10
3255.146183034678
 20
134.9180951681696
 30
0.0
 11
3255.146183034678
 21
87.418095168170169
 31
0.0
  0
LINE
  5
2D044
  8
1DIM
 10
3850.146183034678
 20
134.91809516816971
 30
0.0
 11
3850.146183034678
 21
87.418095168170169
 31
0.0
  0
LINE
  5
2D045
  8
1DIM
 10
3265.1461830346789
 20
92.418095168170169
 30
0.0
 11
3840.146183034678
 21
92.418095168170169
 31
0.0
  0
LINE
  5
2D049
  8
1DIM
 10
2655.1461830346771
 20
234.91809516816971
 30
0.0
 11
2655.1461830346771
 21
187.41809516817011
 31
0.0
  0
LINE
  5
2D04A
  8
1DIM
 10
3850.146183034678
 20
234.9180951681698
 30
0.0
 11
3850.146183034678
 21
187.41809516817011
 31
0.0
  0
LINE
  5
2D04B
  8
1DIM
 10
2665.1461830346771
 20
192.41809516817011
 30
0.0
 11
3840.146183034678
 21
192.41809516817011
 31
0.0
  0
LINE
  5
2D04F
  8
1DIM
 10
2055.1461830346771
 20
334.91809516816971
 30
0.0
 11
2055.1461830346771
 21
287.41809516817011
 31
0.0
  0
LINE
  5
2D050
  8
1DIM
 10
3850.146183034678
 20
334.91809516816971
 30
0.0
 11
3850.146183034678
 21
287.41809516817011
 31
0.0
  0
LINE
  5
2D051
  8
1DIM
 10
2065.1461830346771
 20
292.41809516817011
 30
0.0
 11
3840.146183034678
 21
292.41809516817011
 31
0.0
  0
TEXT
  5
2D055
  8
1DIM
 10
2923.479516368011
 20
295.91809516817011
 30
0.0
 40
17.5
  1
1795 
  0
LINE
  5
2D056
  8
0
  6
BYBLOCK
 10
3840.146183034678
 20
295.09758706817018
 30
0.0
 11
3850.146183034678
 21
292.41809516817011
 31
0.0
  0
LINE
  5
2D057
  8
0
  6
BYBLOCK
 10
3850.146183034678
 20
292.41809516817011
 30
0.0
 11
3840.146183034678
 21
289.7386032681701
 31
0.0
  0
LINE
  5
2D058
  8
0
  6
BYBLOCK
 10
3850.146183034678
 20
292.41809516817011
 30
0.0
 11
3840.146183034678
 21
292.41809516817011
 31
0.0
  0
LINE
  5
2D059
  8
0
  6
BYBLOCK
 10
2065.1461830346771
 20
289.7386032681701
 30
0.0
 11
2055.1461830346771
 21
292.41809516817011
 31
0.0
  0
LINE
  5
2D05A
  8
0
  6
BYBLOCK
 10
2055.1461830346771
 20
292.41809516817011
 30
0.0
 11
2065.1461830346771
 21
295.09758706817018
 31
0.0
  0
LINE
  5
2D05B
  8
0
  6
BYBLOCK
 10
2055.1461830346771
 20
292.41809516817011
 30
0.0
 11
2065.1461830346771
 21
292.41809516817011
 31
0.0
  0
TEXT
  5
2D05C
  8
1DIM
 10
3226.3961830346771
 20
195.9180951681702
 30
0.0
 40
17.5
  1
1195 
  0
LINE
  5
2D05D
  8
0
  6
BYBLOCK
 10
3840.146183034678
 20
195.0975870681701
 30
0.0
 11
3850.146183034678
 21
192.41809516817011
 31
0.0
  0
LINE
  5
2D05E
  8
0
  6
BYBLOCK
 10
3850.146183034678
 20
192.41809516817011
 30
0.0
 11
3840.146183034678
 21
189.7386032681701
 31
0.0
  0
LINE
  5
2D05F
  8
0
  6
BYBLOCK
 10
3850.146183034678
 20
192.41809516817011
 30
0.0
 11
3840.146183034678
 21
192.41809516817011
 31
0.0
  0
LINE
  5
2D060
  8
0
  6
BYBLOCK
 10
2665.1461830346771
 20
189.7386032681701
 30
0.0
 11
2655.1461830346771
 21
192.41809516817011
 31
0.0
  0
LINE
  5
2D061
  8
0
  6
BYBLOCK
 10
2655.1461830346771
 20
192.41809516817011
 30
0.0
 11
2665.1461830346771
 21
195.0975870681701
 31
0.0
  0
LINE
  5
2D062
  8
0
  6
BYBLOCK
 10
2655.1461830346771
 20
192.41809516817011
 30
0.0
 11
2665.1461830346771
 21
192.41809516817011
 31
0.0
  0
TEXT
  5
2D063
  8
1DIM
 10
3529.3128497013449
 20
95.918095168170169
 30
0.0
 40
17.5
  1
595 
  0
LINE
  5
2D064
  8
0
  6
BYBLOCK
 10
3840.146183034678
 20
95.097587068170171
 30
0.0
 11
3850.146183034678
 21
92.418095168170169
 31
0.0
  0
LINE
  5
2D065
  8
0
  6
BYBLOCK
 10
3850.146183034678
 20
92.418095168170169
 30
0.0
 11
3840.146183034678
 21
89.738603268170166
 31
0.0
  0
LINE
  5
2D066
  8
0
  6
BYBLOCK
 10
3850.146183034678
 20
92.418095168170169
 30
0.0
 11
3840.146183034678
 21
92.418095168170169
 31
0.0
  0
LINE
  5
2D067
  8
0
  6
BYBLOCK
 10
3265.1461830346789
 20
89.738603268170166
 30
0.0
 11
3255.146183034678
 21
92.418095168170169
 31
0.0
  0
LINE
  5
2D068
  8
0
  6
BYBLOCK
 10
3255.146183034678
 20
92.418095168170169
 30
0.0
 11
3265.1461830346789
 21
95.097587068170171
 31
0.0
  0
LINE
  5
2D069
  8
0
  6
BYBLOCK
 10
3255.146183034678
 20
92.418095168170169
 30
0.0
 11
3265.1461830346789
 21
92.418095168170169
 31
0.0
  0
TEXT
  5
2D06A
  8
1DIM
 10
3137.294841643909
 20
175.4752059753861
 30
0.0
 40
17.5
  1
φ15
 50
337.85126596239132
  0
LINE
  5
2D06B
  8
0
  6
BYBLOCK
 10
3194.0244939915729
 20
151.497576349008
 30
0.0
 11
3202.276375754137
 21
145.24568669716379
 31
0.0
  0
LINE
  5
2D06C
  8
0
  6
BYBLOCK
 10
3202.276375754137
 20
145.24568669716379
 30
0.0
 11
3192.0040916986541
 21
146.53404112263669
 31
0.0
  0
LINE
  5
2D06D
  8
0
  6
BYBLOCK
 10
3202.276375754137
 20
145.24568669716379
 30
0.0
 11
3193.0142928451128
 21
149.0158087358223
 31
0.0
  0
LINE
  5
2D06E
  8
0
  6
BYBLOCK
 10
3224.4213818802359
 20
133.3386139873318
 30
0.0
 11
3216.1695001176722
 21
139.59050363917589
 31
0.0
  0
LINE
  5
2D06F
  8
0
  6
BYBLOCK
 10
3216.1695001176722
 20
139.59050363917589
 30
0.0
 11
3226.4417841731552
 21
138.30214921370299
 31
0.0
  0
LINE
  5
2D070
  8
0
  6
BYBLOCK
 10
3216.1695001176722
 20
139.59050363917589
 30
0.0
 11
3225.431583026696
 21
135.82038160051741
 31
0.0
  0
TEXT
  5
2D071
  8
1DIM
 10
3117.399117587589
 20
64.954278059245596
 30
0.0
 40
17.5
  1
内径φ13
 50
41.82092634067731
  0
LINE
  5
2D072
  8
0
  6
BYBLOCK
 10
3195.139903732877
 20
133.4126621148115
 30
0.0
 11
3204.3789266212311
 21
138.08386462707901
 31
0.0
  0
LINE
  5
2D073
  8
0
  6
BYBLOCK
 10
3204.3789266212311
 20
138.08386462707901
 30
0.0
 11
3198.7132993105961
 21
129.41897316675841
 31
0.0
  0
LINE
  5
2D074
  8
0
  6
BYBLOCK
 10
3204.3789266212311
 20
138.08386462707901
 30
0.0
 11
3196.9266015217358
 21
131.41581764078501
 31
0.0
  0
LINE
  5
2D075
  8
0
  6
BYBLOCK
 10
3223.3059721389318
 20
151.4235282215293
 30
0.0
 11
3214.0669492505772
 21
146.75232570926181
 31
0.0
  0
LINE
  5
2D076
  8
0
  6
BYBLOCK
 10
3214.0669492505772
 20
146.75232570926181
 30
0.0
 11
3219.7325765612131
 21
155.41721716958239
 31
0.0
  0
LINE
  5
2D077
  8
0
  6
BYBLOCK
 10
3214.0669492505772
 20
146.75232570926181
 30
0.0
 11
3221.519274350072
 21
153.4203726955559
 31
0.0
  0
VIEWPORT
  5
148C
 67
     1
  8
0
  6
CONTINUOUS
 10
-12.72202255415419
 20
10.089047842247
 30
0.0
 40
426.48627910250337
 41
282.79965960148132
 68
     1
 69
     1
1001
ACAD
1000
MVIEW
1002
{
1070
    16
1010
0.0
1020
0.0
1030
0.0
1010
0.0
1020
0.0
1030
1.0
1040
0.0
1040
282.79965960148132
1040
-12.72202255415419
1040
10.089047842247
1040
50.0
1040
0.0
1040
0.0
1070
     0
1070
   100
1070
     1
1070
     1
1070
     0
1070
     0
1070
     0
1070
     0
1040
0.0
1040
0.0
1040
0.0
1040
10.0
1040
10.0
1040
10.0
1040
10.0
1070
     0
1002
{
1002
}
1002
}
  0
ENDSEC
  0
EOF
