  0
SECTION
  2
HEADER
  9
$ACADVER
  1
AC1009
  9
$INSBASE
 10
0.0
 20
0.0
 30
0.0
  9
$EXTMIN
 10
971.88625770137355
 20
-52.680230250861428
 30
0.0
  9
$EXTMAX
 10
1097.430644806564
 20
83.848591642826278
 30
0.0
  9
$LIMMIN
 10
0.0
 20
0.0
  9
$LIMMAX
 10
12.0
 20
9.0
  9
$ORTHOMODE
 70
     0
  9
$REGENMODE
 70
     1
  9
$FILLMODE
 70
     1
  9
$QTEXTMODE
 70
     0
  9
$MIRRTEXT
 70
     0
  9
$DRAGMODE
 70
     2
  9
$LTSCALE
 40
0.5
  9
$OSMODE
 70
  2173
  9
$ATTMODE
 70
     1
  9
$TEXTSIZE
 40
4.0
  9
$TRACEWID
 40
0.05
  9
$TEXTSTYLE
  7
STANDARD
  9
$CLAYER
  8
1TEXT
  9
$CELTYPE
  6
BYLAYER
  9
$CECOLOR
 62
   256
  9
$DIMSCALE
 40
1.0
  9
$DIMASZ
 40
2.0
  9
$DIMEXO
 40
0.0
  9
$DIMDLI
 40
7.0
  9
$DIMRND
 40
0.0
  9
$DIMDLE
 40
0.0
  9
$DIMEXE
 40
1.0
  9
$DIMTP
 40
0.0
  9
$DIMTM
 40
0.0
  9
$DIMTXT
 40
3.5
  9
$DIMCEN
 40
0.0
  9
$DIMTSZ
 40
0.0
  9
$DIMTOL
 70
     0
  9
$DIMLIM
 70
     0
  9
$DIMTIH
 70
     0
  9
$DIMTOH
 70
     0
  9
$DIMSE1
 70
     0
  9
$DIMSE2
 70
     0
  9
$DIMTAD
 70
     1
  9
$DIMZIN
 70
     8
  9
$DIMBLK
  1

  9
$DIMASO
 70
     1
  9
$DIMSHO
 70
     1
  9
$DIMPOST
  1
 
  9
$DIMAPOST
  1

  9
$DIMALT
 70
     0
  9
$DIMALTD
 70
     2
  9
$DIMALTF
 40
25.399999999999999
  9
$DIMLFAC
 40
1.0
  9
$DIMTOFL
 70
     1
  9
$DIMTVP
 40
0.0
  9
$DIMTIX
 70
     0
  9
$DIMSOXD
 70
     0
  9
$DIMSAH
 70
     1
  9
$DIMBLK1
  1
OPEN30
  9
$DIMBLK2
  1
OPEN30
  9
$DIMSTYLE
  2
NEWX10
  9
$DIMCLRD
 70
   256
  9
$DIMCLRE
 70
   256
  9
$DIMCLRT
 70
   201
  9
$DIMTFAC
 40
0.7
  9
$DIMGAP
 40
0.7
  9
$LUNITS
 70
     2
  9
$LUPREC
 70
     4
  9
$SKETCHINC
 40
0.1
  9
$FILLETRAD
 40
1.0
  9
$AUNITS
 70
     0
  9
$AUPREC
 70
     2
  9
$MENU
  1
acad
  9
$ELEVATION
 40
0.0
  9
$PELEVATION
 40
0.0
  9
$THICKNESS
 40
0.0
  9
$LIMCHECK
 70
     0
  9
$BLIPMODE
 70
     0
  9
$CHAMFERA
 40
0.0
  9
$CHAMFERB
 40
0.0
  9
$SKPOLY
 70
     0
  9
$TDCREATE
 40
2451010.570073646
  9
$TDUPDATE
 40
2453564.747759873
  9
$TDINDWG
 40
4.8882914005
  9
$TDUSRTIMER
 40
4.8882914005
  9
$USRTIMER
 70
     1
  9
$ANGBASE
 50
0.0
  9
$ANGDIR
 70
     0
  9
$PDMODE
 70
     0
  9
$PDSIZE
 40
0.0
  9
$PLINEWID
 40
0.0
  9
$COORDS
 70
     2
  9
$SPLFRAME
 70
     0
  9
$SPLINETYPE
 70
     6
  9
$SPLINESEGS
 70
     8
  9
$ATTDIA
 70
     0
  9
$ATTREQ
 70
     1
  9
$HANDLING
 70
     1
  9
$HANDSEED
  5
27418
  9
$SURFTAB1
 70
     6
  9
$SURFTAB2
 70
     6
  9
$SURFTYPE
 70
     6
  9
$SURFU
 70
     6
  9
$SURFV
 70
     6
  9
$UCSNAME
  2

  9
$UCSORG
 10
0.0
 20
0.0
 30
0.0
  9
$UCSXDIR
 10
1.0
 20
0.0
 30
0.0
  9
$UCSYDIR
 10
0.0
 20
1.0
 30
0.0
  9
$PUCSNAME
  2

  9
$PUCSORG
 10
0.0
 20
0.0
 30
0.0
  9
$PUCSXDIR
 10
1.0
 20
0.0
 30
0.0
  9
$PUCSYDIR
 10
0.0
 20
1.0
 30
0.0
  9
$USERI1
 70
     0
  9
$USERI2
 70
     0
  9
$USERI3
 70
     0
  9
$USERI4
 70
     0
  9
$USERI5
 70
     0
  9
$USERR1
 40
0.0
  9
$USERR2
 40
0.0
  9
$USERR3
 40
0.0
  9
$USERR4
 40
0.0
  9
$USERR5
 40
0.0
  9
$WORLDVIEW
 70
     1
  9
$SHADEDGE
 70
     3
  9
$SHADEDIF
 70
    70
  9
$TILEMODE
 70
     1
  9
$MAXACTVP
 70
    48
  9
$PLIMCHECK
 70
     0
  9
$PEXTMIN
 10
1.0000000000000000E+020
 20
1.0000000000000000E+020
 30
1.0000000000000000E+020
  9
$PEXTMAX
 10
-1.0000000000000000E+020
 20
-1.0000000000000000E+020
 30
-1.0000000000000000E+020
  9
$PLIMMIN
 10
0.0
 20
0.0
  9
$PLIMMAX
 10
12.0
 20
9.0
  9
$UNITMODE
 70
     0
  9
$VISRETAIN
 70
     1
  9
$PLINEGEN
 70
     0
  9
$PSLTSCALE
 70
     1
  0
ENDSEC
  0
SECTION
  2
TABLES
  0
TABLE
  2
VPORT
 70
     8
  0
VPORT
  2
*ACTIVE
 70
     0
 10
0.0
 20
0.0
 11
1.0
 21
1.0
 12
1034.6442097910131
 22
15.58111974892347
 13
0.0
 23
0.0
 14
1.0
 24
1.0
 15
0.0
 25
0.0
 16
0.0
 26
0.0
 36
1.0
 17
0.0
 27
0.0
 37
0.0
 40
144.8895082523795
 41
1.508086253369272
 42
50.0
 43
0.0
 44
0.0
 50
0.0
 51
0.0
 71
     0
 72
   100
 73
     1
 74
     1
 75
     0
 76
     0
 77
     0
 78
     1
  0
ENDTAB
  0
TABLE
  2
LTYPE
 70
    16
  0
LTYPE
  2
CONTINUOUS
 70
     0
  3
Solid line
 72
    65
 73
     0
 40
0.0
  0
LTYPE
  2
CENTER2
 70
     0
  3
Center (.5x) ___ _ ___ _ ___ _ ___ _ ___ _ ___
 72
    65
 73
     4
 40
28.574999999999999
 49
19.050000000000001
 49
-3.1749999999999989
 49
3.1749999999999989
 49
-3.1749999999999989
  0
LTYPE
  2
A3WAKUDAKE|CENTER2
 70
    48
  3
Center (.5x) ___ _ ___ _ ___ _ ___ _ ___ _ ___
 72
    65
 73
     4
 40
28.574999999999999
 49
19.050000000000001
 49
-3.1749999999999989
 49
3.1749999999999989
 49
-3.1749999999999989
  0
LTYPE
  2
XREF1|CENTER2
 70
    48
  3
Center (.5x) ___ _ ___ _ ___ _ ___ _ ___ _ ___
 72
    65
 73
     4
 40
28.574999999999999
 49
19.050000000000001
 49
-3.1749999999999989
 49
3.1749999999999989
 49
-3.1749999999999989
  0
ENDTAB
  0
TABLE
  2
LAYER
 70
    42
  0
LAYER
  2
0
 70
     0
 62
     7
  6
CONTINUOUS
  0
LAYER
  2
1CENTER
 70
     0
 62
     7
  6
CENTER2
  0
LAYER
  2
1DIM
 70
     0
 62
     7
  6
CONTINUOUS
  0
LAYER
  2
1TEXT
 70
     0
 62
     7
  6
CONTINUOUS
  0
LAYER
  2
01
 70
     0
 62
     1
  6
CONTINUOUS
  0
LAYER
  2
A3WAKUDAKE|THICK
 70
    48
 62
     7
  6
CONTINUOUS
  0
LAYER
  2
A3WAKUDAKE|POINT
 70
    48
 62
     7
  6
CONTINUOUS
  0
LAYER
  2
A3WAKUDAKE|1CENTER
 70
    48
 62
     7
  6
A3WAKUDAKE|CENTER2
  0
LAYER
  2
A3WAKUDAKE|0-6
 70
    48
 62
     7
  6
CONTINUOUS
  0
LAYER
  2
A3WAKUDAKE|1DIM
 70
    48
 62
     7
  6
CONTINUOUS
  0
LAYER
  2
XREF1|1CENTER
 70
    48
 62
     7
  6
XREF1|CENTER2
  0
ENDTAB
  0
TABLE
  2
STYLE
 70
    20
  0
STYLE
  2
STANDARD
 70
     0
 40
0.0
 41
1.0
 50
0.0
 71
     0
 42
4.0
  3
txt.shx
  4
extfont.shx
  0
ENDTAB
  0
TABLE
  2
VIEW
 70
     0
  0
ENDTAB
  0
TABLE
  2
UCS
 70
     0
  0
ENDTAB
  0
TABLE
  2
APPID
 70
     7
  0
APPID
  2
ACAD
 70
     0
  0
APPID
  2
CONTENTTABDATA
 70
     0
  0
APPID
  2
CONTENTCURRENTTAB
 70
     0
  0
APPID
  2
CONTENTBLOCKICON
 70
     0
  0
APPID
  2
CONTENTBLOCKDESCRIPTION
 70
     0
  0
APPID
  2
DRAWINGVARIABLESXDATA
 70
     0
  0
APPID
  2
CONTENTLONGBLOCKNAME
 70
     0
  0
ENDTAB
  0
TABLE
  2
DIMSTYLE
 70
     7
  0
DIMSTYLE
  2
NEWX10
 70
     0
  3
 
  4

  5

  6
OPEN30
  7
OPEN30
 40
1.0
 41
2.0
 42
0.0
 43
7.0
 44
1.0
 45
0.0
 46
0.0
 47
0.0
 48
0.0
140
3.5
141
0.0
142
0.0
143
25.399999999999999
144
1.0
145
0.0
146
0.7
147
0.7
 71
     0
 72
     0
 73
     0
 74
     0
 75
     0
 76
     0
 77
     1
 78
     8
170
     0
171
     2
172
     1
173
     1
174
     0
175
     0
176
   256
177
   256
178
   201
  0
ENDTAB
  0
ENDSEC
  0
SECTION
  2
BLOCKS
  0
BLOCK
  8
0
  2
$MODEL_SPACE
 70
     0
 10
0.0
 20
0.0
 30
0.0
  3
$MODEL_SPACE
  1

  0
ENDBLK
  5
1A
  8
0
  0
BLOCK
 67
     1
  8
0
  2
$PAPER_SPACE
 70
     0
 10
0.0
 20
0.0
 30
0.0
  3
$PAPER_SPACE
  1

  0
ENDBLK
  5
17
 67
     1
  8
0
  0
BLOCK
  8
0
  2
_OPEN30
 70
     0
 10
0.0
 20
0.0
 30
0.0
  3
_OPEN30
  1

  0
LINE
  5
1030
  8
0
  6
BYBLOCK
 62
     0
 10
-1.0
 20
0.26794919
 30
0.0
 11
0.0
 21
0.0
 31
0.0
  0
LINE
  5
1031
  8
0
  6
BYBLOCK
 62
     0
 10
0.0
 20
0.0
 30
0.0
 11
-1.0
 21
-0.26794919
 31
0.0
  0
LINE
  5
1032
  8
0
  6
BYBLOCK
 62
     0
 10
0.0
 20
0.0
 30
0.0
 11
-1.0
 21
0.0
 31
0.0
  0
ENDBLK
  5
1033
  8
0
  0
BLOCK
  8
0
  2
A3WAKUDAKE
 70
    36
 10
0.0
 20
0.0
 30
0.0
  3
A3WAKUDAKE
  1
D:\ACLT\FORMAT\A3WAKUdake.dwg
  0
ENDBLK
  5
2716D
  8
0
  0
BLOCK
  8
0
  2
XREF1
 70
    36
 10
0.0
 20
0.0
 30
0.0
  3
XREF1
  1
D:\ACLT\FORMAT\KAWAJUN(9)図面用.dwg
  0
ENDBLK
  5
27170
  8
0
  0
BLOCK
  8
0
  2
*U28
 70
     1
 10
0.0
 20
0.0
 30
0.0
  3
*U28
  1

  0
TEXT
  5
273D5
  8
1DIM
 62
   201
 10
9.6927502245625305
 20
15.880752326560801
 30
0.0
 40
3.5
  1
M4 P=0.7
  0
TEXT
  5
273D6
  8
1DIM
 62
   201
 10
9.6927502245625305
 20
10.04741899322747
 30
0.0
 40
3.5
  1
有効10 
  0
ENDBLK
  5
273D8
  8
0
  0
BLOCK
  8
0
  2
*U29
 70
     1
 10
0.0
 20
0.0
 30
0.0
  3
*U29
  1

  0
INSERT
  5
273DA
  8
1DIM
  2
_OPEN30
 10
0.0
 20
0.0
 30
0.0
 41
2.0
 42
2.0
 43
2.0
 50
233.20004951412949
  0
POLYLINE
  5
273DB
  8
1DIM
 66
     1
 10
0.0
 20
0.0
 30
0.0
  0
VERTEX
  5
273DC
  8
1DIM
 10
1.1980458130713061
 20
1.6014637772307909
 30
0.0
  0
VERTEX
  5
273DD
  8
1DIM
 10
6.9927502245625313
 20
9.3474189932274712
 30
0.0
  0
VERTEX
  5
273DE
  8
1DIM
 10
34.126083557895861
 20
9.3474189932274712
 30
0.0
  0
SEQEND
  5
273DF
  8
1DIM
  0
ENDBLK
  5
273E1
  8
0
  0
BLOCK
  8
0
  2
*U30
 70
     1
 10
0.0
 20
0.0
 30
0.0
  3
*U30
  1

  0
TEXT
  5
273E6
  8
0
 62
   201
 10
1655.2491355712359
 20
1641.9442599125809
 30
0.0
 40
3.5
  1
50 
 50
90.0
  0
ENDBLK
  5
273E8
  8
0
  0
BLOCK
  8
0
  2
*U31
 70
     1
 10
0.0
 20
0.0
 30
0.0
  3
*U31
  1

  0
TEXT
  5
273EA
  8
0
 62
   201
 10
1618.4701224403179
 20
1599.876343734483
 30
0.0
 40
3.5
  1
24 
  0
ENDBLK
  5
273EC
  8
0
  0
BLOCK
  8
0
  2
*U32
 70
     1
 10
0.0
 20
0.0
 30
0.0
  3
*U32
  1

  0
TEXT
  5
273EE
  8
0
 62
   201
 10
1676.8242652890031
 20
1599.876343734483
 30
0.0
 40
3.5
  1
21 
  0
ENDBLK
  5
273F0
  8
0
  0
BLOCK
  8
0
  2
*U33
 70
     1
 10
0.0
 20
0.0
 30
0.0
  3
*U33
  1

  0
TEXT
  5
273F2
  8
0
 62
   201
 10
1649.5231503731691
 20
1635.652593245914
 30
0.0
 40
3.5
  1
38 
 50
90.0
  0
ENDBLK
  5
273F4
  8
0
  0
BLOCK
  8
0
  2
*U34
 70
     1
 10
0.0
 20
0.0
 30
0.0
  3
*U34
  1

  0
TEXT
  5
273F6
  8
0
 62
   201
 10
1048.634880334002
 20
-20.916718563071569
 30
0.0
 40
3.5
  1
21 
  0
ENDBLK
  5
273F8
  8
0
  0
BLOCK
  8
0
  2
*U35
 70
     1
 10
0.0
 20
0.0
 30
0.0
  3
*U35
  1

  0
TEXT
  5
273FA
  8
0
 62
   201
 10
990.28073748531688
 20
-20.916718563071569
 30
0.0
 40
3.5
  1
24 
  0
ENDBLK
  5
273FC
  8
0
  0
BLOCK
  8
0
  2
*U36
 70
     1
 10
0.0
 20
0.0
 30
0.0
  3
*U36
  1

  0
TEXT
  5
273FE
  8
0
 62
   201
 10
1027.0597506162351
 20
21.151197615026259
 30
0.0
 40
3.5
  1
50 
 50
90.0
  0
ENDBLK
  5
27400
  8
0
  0
BLOCK
  8
0
  2
*U37
 70
     1
 10
0.0
 20
0.0
 30
0.0
  3
*U37
  1

  0
TEXT
  5
27402
  8
0
 62
   201
 10
1021.333765418168
 20
14.8595309483596
 30
0.0
 40
3.5
  1
38 
 50
90.0
  0
ENDBLK
  5
27404
  8
0
  0
BLOCK
  8
0
  2
*U38
 70
     1
 10
0.0
 20
0.0
 30
0.0
  3
*U38
  1

  0
LINE
  5
2740A
  8
0
 10
-6.0
 20
2.5
 30
0.0
 11
-5.5
 21
3.0
 31
0.0
  0
LINE
  5
2740B
  8
0
 10
-6.0
 20
2.5
 30
0.0
 11
-6.0
 21
-2.5
 31
0.0
  0
LINE
  5
2740C
  8
0
 10
-5.5
 20
3.0
 30
0.0
 11
-0.4999999999999432
 21
3.0
 31
0.0
  0
LINE
  5
2740D
  8
0
 10
-5.5
 20
-3.0
 30
0.0
 11
-6.0
 21
-2.5
 31
0.0
  0
LINE
  5
2740E
  8
0
 10
-0.4999999999999432
 20
3.0
 30
0.0
 11
0.0
 21
2.5
 31
0.0
  0
LINE
  5
2740F
  8
0
 10
-5.5
 20
-3.0
 30
0.0
 11
-0.5
 21
-3.0
 31
0.0
  0
LINE
  5
27410
  8
0
 10
0.0
 20
2.5
 30
0.0
 11
0.0
 21
-2.5
 31
0.0
  0
LINE
  5
27411
  8
0
 10
0.0
 20
-2.5
 30
0.0
 11
-0.5
 21
-3.0
 31
0.0
  0
ENDBLK
  5
27413
  8
0
  0
BLOCK
  8
0
  2
*U39
 70
     1
 10
0.0
 20
0.0
 30
0.0
  3
*U39
  1

  0
TEXT
  5
27415
  8
1DIM
 62
   201
 10
973.22909003504174
 20
57.811947701578852
 30
0.0
 40
3.5
  1
\U+220515.3 
 50
314.89172135271781
  0
ENDBLK
  5
27417
  8
0
  0
ENDSEC
  0
SECTION
  2
ENTITIES
  0
TEXT
  5
1C39A
  8
1TEXT
 10
979.80730501924882
 20
76.84859164282625
 30
0.0
 40
7.0
  1
KC01XC
 41
1.0098214000000001
  0
LINE
  5
270CC
  8
1CENTER
 10
1056.2331835918369
 20
14.77619252962813
 30
0.0
 11
1045.703243742619
 21
14.77619252962813
 31
0.0
  0
LINE
  5
270CD
  8
1CENTER
 10
1056.2331835918369
 20
14.77619252962813
 30
0.0
 11
1045.703243742619
 21
14.77619252962813
 31
0.0
  0
LINE
  5
270CE
  8
1CENTER
 10
1056.2331835918369
 20
14.77619252962813
 30
0.0
 11
1045.703243742619
 21
14.77619252962813
 31
0.0
  0
LINE
  5
270CF
  8
1CENTER
 10
1058.9682136672279
 20
14.77619252962813
 30
0.0
 11
1042.9682136672279
 21
14.77619252962813
 31
0.0
  0
LINE
  5
270D0
  8
01
 10
1061.4682136672279
 20
-1.223808600460415
 30
0.0
 11
1040.4682136674419
 21
-1.223784868602706
 31
0.0
  0
LINE
  5
270D1
  8
1CENTER
 10
1055.968213667227
 20
31.776203265468212
 30
0.0
 11
1045.9682136672279
 21
31.776203265468212
 31
0.0
  0
ARC
  5
270D2
  8
01
 10
1050.968213667227
 20
-451.22379673453202
 30
0.0
 40
500.0
 50
88.886610495620758
 51
91.113389504379896
  0
CIRCLE
  5
270D3
  8
01
 10
1050.9682136672279
 20
14.776192529627901
 30
0.0
 40
5.0
  0
LINE
  5
270D4
  8
1CENTER
 10
1006.6936964191279
 20
36.776191964583859
 30
0.0
 11
979.70111188483793
 21
36.776191964583859
 31
0.0
  0
ARC
  5
270D5
  8
01
 10
993.19740415198362
 20
36.776191964583859
 30
0.0
 40
12.00000000000005
 50
0.0000000000000799
 51
180.0
  0
CIRCLE
  5
270D6
  8
01
 10
993.19740415198305
 20
36.776191964583859
 30
0.0
 40
7.6500000000000004
  0
LINE
  5
270D7
  8
01
 10
1005.1974041519831
 20
-1.223796734531333
 30
0.0
 11
981.19740415198351
 21
-1.223796734531333
 31
0.0
  0
LINE
  5
270D8
  8
01
 10
981.19740415198351
 20
-1.223796734531333
 30
0.0
 11
981.19740415198351
 21
36.776191964584093
 31
0.0
  0
LINE
  5
270D9
  8
1CENTER
 10
993.19740415198305
 20
50.272484231729102
 30
0.0
 11
993.19740415198305
 21
-4.8093999436764534
 31
0.0
  0
LINE
  5
270DB
  8
01
 10
1040.4682136674419
 20
-1.223785433647208
 30
0.0
 11
1040.468213667443
 21
47.881934541694591
 31
0.0
  0
LINE
  5
270DE
  8
01
 10
1005.1974041519831
 20
-1.223796734531333
 30
0.0
 11
1005.1974041519831
 21
36.776191964584093
 31
0.0
  0
ARC
  5
270DF
  8
01
 10
1041.268213667224
 20
47.881953582973658
 30
0.0
 40
0.8
 50
91.113389504379654
 51
180.00136373115541
  0
LINE
  5
270E0
  8
01
 10
1061.4682136672279
 20
-1.223808600460415
 30
0.0
 11
1061.468213667227
 21
47.881953582973892
 31
0.0
  0
LINE
  5
270E1
  8
01
 10
1061.1682136672271
 20
-1.2238306371855281
 30
0.0
 11
1061.1682136672271
 21
-1.2238082614339869
 31
0.0
  0
LINE
  5
270E2
  8
01
 10
1049.7182136672279
 20
15.497880366115171
 30
0.0
 11
1050.9682136672279
 21
16.219568202602201
 31
0.0
  0
LINE
  5
270E3
  8
01
 10
1049.7182136672279
 20
15.497880366115171
 30
0.0
 11
1049.7182136672279
 21
14.0545046931411
 31
0.0
  0
LINE
  5
270E4
  8
01
 10
1050.9682136672279
 20
16.219568202602201
 30
0.0
 11
1052.2182136672279
 21
15.497880366115171
 31
0.0
  0
LINE
  5
270E5
  8
01
 10
1052.2182136672279
 20
15.497880366115171
 30
0.0
 11
1052.2182136672279
 21
14.0545046931411
 31
0.0
  0
CIRCLE
  5
270E6
  8
1DIM
 10
1050.9682136672279
 20
14.776192529627901
 30
0.0
 40
2.5
  0
LINE
  5
270E7
  8
01
 10
1050.9682136672279
 20
13.332816856654061
 30
0.0
 11
1052.2182136672279
 21
14.0545046931411
 31
0.0
  0
LINE
  5
270E8
  8
01
 10
1049.7182136672279
 20
14.0545046931411
 30
0.0
 11
1050.9682136672279
 21
13.332816856654061
 31
0.0
  0
LINE
  5
270E9
  8
01
 10
1049.7182136672279
 20
31.05451542898118
 30
0.0
 11
1050.9682136672279
 21
30.332827592494141
 31
0.0
  0
LINE
  5
270EA
  8
01
 10
1049.7182136672279
 20
32.497891101955247
 30
0.0
 11
1050.9682136672279
 21
33.219578938442282
 31
0.0
  0
LINE
  5
270EB
  8
01
 10
1049.7182136672279
 20
32.497891101955247
 30
0.0
 11
1049.7182136672279
 21
31.05451542898118
 31
0.0
  0
LINE
  5
270EC
  8
01
 10
1050.9682136672279
 20
30.332827592494141
 30
0.0
 11
1052.2182136672279
 21
31.05451542898118
 31
0.0
  0
LINE
  5
270ED
  8
01
 10
1052.2182136672279
 20
32.497891101955247
 30
0.0
 11
1052.2182136672279
 21
31.05451542898118
 31
0.0
  0
LINE
  5
270EE
  8
01
 10
1050.9682136672279
 20
33.219578938442282
 30
0.0
 11
1052.2182136672279
 21
32.497891101955247
 31
0.0
  0
LINE
  5
270EF
  8
1CENTER
 10
1050.9682136672279
 20
36.776203265468212
 30
0.0
 11
1050.9682136672279
 21
26.776203265468212
 31
0.0
  0
CIRCLE
  5
270F0
  8
1DIM
 10
1050.9682136672279
 20
31.776203265468212
 30
0.0
 40
2.5
  0
CIRCLE
  5
270F1
  8
01
 10
1050.9682136672279
 20
31.776203265468212
 30
0.0
 40
2.5
  0
CIRCLE
  5
270F2
  8
01
 10
1050.9682136672279
 20
31.776203265468212
 30
0.0
 40
2.1000000000009318
  0
LINE
  5
270F3
  8
1CENTER
 10
1050.9682136672279
 20
22.77619252962813
 30
0.0
 11
1050.9682136672279
 21
6.7761925296281333
 31
0.0
  0
ARC
  5
270F4
  8
01
 10
1060.6682136672241
 20
47.881953582973658
 30
0.0
 40
0.8
 50
0.0000000000009592
 51
90.0
  0
LINE
  5
27388
  8
1DIM
 10
997.18500021974785
 20
32.773495673288778
 30
0.0
 11
989.20980808421871
 21
40.778888255879053
 31
0.0
  0
LINE
  5
27389
  8
1DIM
 10
987.79826965315135
 20
42.195771898815387
 30
0.0
 11
971.88625770137355
 21
58.168039436467041
 31
0.0
  0
TEXT
  5
2738F
  8
1TEXT
 10
1036.897311473231
 20
-52.680230250861428
 30
0.0
 40
4.0
  1
表面処理：クロムめっき
  0
LINE
  5
27390
  8
1DIM
 10
1005.1974041519831
 20
-1.223796734531333
 30
0.0
 11
1023.0337654181679
 21
-1.223796734531335
 31
0.0
  0
LINE
  5
27391
  8
1DIM
 10
1006.6936964191279
 20
36.776191964583859
 30
0.0
 11
1023.0337654181679
 21
36.776191964583859
 31
0.0
  0
LINE
  5
27392
  8
1DIM
 10
1022.0337654181679
 20
0.7762032654686643
 30
0.0
 11
1022.0337654181679
 21
34.776191964583859
 31
0.0
  0
LINE
  5
27396
  8
1DIM
 10
1005.1974041519831
 20
-1.223796734531333
 30
0.0
 11
1028.7597506162349
 21
-1.2237967345313361
 31
0.0
  0
LINE
  5
27397
  8
1DIM
 10
993.19740415198362
 20
48.776191964583859
 30
0.0
 11
1028.7597506162349
 21
48.776191964583859
 31
0.0
  0
LINE
  5
27398
  8
1DIM
 10
1027.7597506162349
 20
0.7762032654686636
 30
0.0
 11
1027.7597506162349
 21
46.776191964583859
 31
0.0
  0
LINE
  5
2739C
  8
1DIM
 10
981.19740415198351
 20
-1.223796734531333
 30
0.0
 11
981.19740415198351
 21
-22.616718563071569
 31
0.0
  0
LINE
  5
2739D
  8
1DIM
 10
1005.1974041519831
 20
-1.223796734531333
 30
0.0
 11
1005.1974041519831
 21
-22.616718563071569
 31
0.0
  0
LINE
  5
2739E
  8
1DIM
 10
983.19740415198373
 20
-21.616718563071569
 30
0.0
 11
1003.1974041519831
 21
-21.616718563071569
 31
0.0
  0
LINE
  5
273A2
  8
1DIM
 10
1040.4682136674419
 20
-1.223784868602706
 30
0.0
 11
1040.4682136674419
 21
-22.616718563071569
 31
0.0
  0
LINE
  5
273A3
  8
1DIM
 10
1061.4682136672279
 20
-1.223808600460415
 30
0.0
 11
1061.4682136672279
 21
-22.616718563071569
 31
0.0
  0
LINE
  5
273A4
  8
1DIM
 10
1042.4682136674419
 20
-21.616718563071569
 30
0.0
 11
1059.4682136672279
 21
-21.616718563071569
 31
0.0
  0
TEXT
  5
273A8
  8
1TEXT
 10
1036.897311473231
 20
-45.516080651288689
 30
0.0
 40
4.0
  1
材　　質：亜鉛ダイキャスト
  0
TEXT
  5
273A9
  8
1DIM
 10
1048.634880334002
 20
-20.916718563071569
 30
0.0
 40
3.5
  1
21 
  0
LINE
  5
273AA
  8
0
  6
BYBLOCK
 10
1059.4682136672279
 20
-21.08082018307158
 30
0.0
 11
1061.4682136672279
 21
-21.616718563071569
 31
0.0
  0
LINE
  5
273AB
  8
0
  6
BYBLOCK
 10
1061.4682136672279
 20
-21.616718563071569
 30
0.0
 11
1059.4682136672279
 21
-22.152616943071571
 31
0.0
  0
LINE
  5
273AC
  8
0
  6
BYBLOCK
 10
1061.4682136672279
 20
-21.616718563071569
 30
0.0
 11
1059.4682136672279
 21
-21.616718563071569
 31
0.0
  0
LINE
  5
273AD
  8
0
  6
BYBLOCK
 10
1042.4682136674419
 20
-22.152616943071571
 30
0.0
 11
1040.4682136674419
 21
-21.616718563071569
 31
0.0
  0
LINE
  5
273AE
  8
0
  6
BYBLOCK
 10
1040.4682136674419
 20
-21.616718563071569
 30
0.0
 11
1042.4682136674419
 21
-21.08082018307158
 31
0.0
  0
LINE
  5
273AF
  8
0
  6
BYBLOCK
 10
1040.4682136674419
 20
-21.616718563071569
 30
0.0
 11
1042.4682136674419
 21
-21.616718563071569
 31
0.0
  0
TEXT
  5
273B0
  8
1DIM
 10
990.28073748531688
 20
-20.916718563071569
 30
0.0
 40
3.5
  1
24 
  0
LINE
  5
273B1
  8
0
  6
BYBLOCK
 10
1003.1974041519831
 20
-21.08082018307158
 30
0.0
 11
1005.1974041519831
 21
-21.616718563071569
 31
0.0
  0
LINE
  5
273B2
  8
0
  6
BYBLOCK
 10
1005.1974041519831
 20
-21.616718563071569
 30
0.0
 11
1003.1974041519831
 21
-22.152616943071571
 31
0.0
  0
LINE
  5
273B3
  8
0
  6
BYBLOCK
 10
1005.1974041519831
 20
-21.616718563071569
 30
0.0
 11
1003.1974041519831
 21
-21.616718563071569
 31
0.0
  0
LINE
  5
273B4
  8
0
  6
BYBLOCK
 10
983.19740415198373
 20
-22.152616943071571
 30
0.0
 11
981.19740415198351
 21
-21.616718563071569
 31
0.0
  0
LINE
  5
273B5
  8
0
  6
BYBLOCK
 10
981.19740415198351
 20
-21.616718563071569
 30
0.0
 11
983.19740415198373
 21
-21.08082018307158
 31
0.0
  0
LINE
  5
273B6
  8
0
  6
BYBLOCK
 10
981.19740415198351
 20
-21.616718563071569
 30
0.0
 11
983.19740415198373
 21
-21.616718563071569
 31
0.0
  0
TEXT
  5
273B7
  8
1DIM
 10
1027.0597506162351
 20
21.151197615026259
 30
0.0
 40
3.5
  1
50 
 50
90.0
  0
LINE
  5
273B8
  8
0
  6
BYBLOCK
 10
1027.223852236235
 20
46.776191964583859
 30
0.0
 11
1027.7597506162349
 21
48.776191964583859
 31
0.0
  0
LINE
  5
273B9
  8
0
  6
BYBLOCK
 10
1027.7597506162349
 20
48.776191964583859
 30
0.0
 11
1028.2956489962351
 21
46.776191964583859
 31
0.0
  0
LINE
  5
273BA
  8
0
  6
BYBLOCK
 10
1027.7597506162349
 20
48.776191964583859
 30
0.0
 11
1027.7597506162349
 21
46.776191964583859
 31
0.0
  0
LINE
  5
273BB
  8
0
  6
BYBLOCK
 10
1028.2956489962351
 20
0.7762032654686637
 30
0.0
 11
1027.7597506162349
 21
-1.2237967345313361
 31
0.0
  0
LINE
  5
273BC
  8
0
  6
BYBLOCK
 10
1027.7597506162349
 20
-1.2237967345313361
 30
0.0
 11
1027.223852236235
 21
0.7762032654686637
 31
0.0
  0
LINE
  5
273BD
  8
0
  6
BYBLOCK
 10
1027.7597506162349
 20
-1.2237967345313361
 30
0.0
 11
1027.7597506162349
 21
0.7762032654686637
 31
0.0
  0
TEXT
  5
273BE
  8
1DIM
 10
1021.333765418168
 20
14.8595309483596
 30
0.0
 40
3.5
  1
38 
 50
90.0
  0
LINE
  5
273BF
  8
0
  6
BYBLOCK
 10
1021.497867038168
 20
34.776191964583859
 30
0.0
 11
1022.0337654181679
 21
36.776191964583859
 31
0.0
  0
LINE
  5
273C0
  8
0
  6
BYBLOCK
 10
1022.0337654181679
 20
36.776191964583859
 30
0.0
 11
1022.569663798168
 21
34.776191964583859
 31
0.0
  0
LINE
  5
273C1
  8
0
  6
BYBLOCK
 10
1022.0337654181679
 20
36.776191964583859
 30
0.0
 11
1022.0337654181679
 21
34.776191964583859
 31
0.0
  0
LINE
  5
273C2
  8
0
  6
BYBLOCK
 10
1022.569663798168
 20
0.7762032654686643
 30
0.0
 11
1022.0337654181679
 21
-1.223796734531335
 31
0.0
  0
LINE
  5
273C3
  8
0
  6
BYBLOCK
 10
1022.0337654181679
 20
-1.223796734531335
 30
0.0
 11
1021.497867038168
 21
0.7762032654686643
 31
0.0
  0
LINE
  5
273C4
  8
0
  6
BYBLOCK
 10
1022.0337654181679
 20
-1.223796734531335
 30
0.0
 11
1022.0337654181679
 21
0.7762032654686643
 31
0.0
  0
TEXT
  5
273C5
  8
1DIM
 10
973.22909003504174
 20
57.811947701578852
 30
0.0
 40
3.5
  1
\U+220515.3 
 50
314.89172135271781
  0
LINE
  5
273C6
  8
0
  6
BYBLOCK
 10
988.83015525976953
 20
40.400667676620749
 30
0.0
 11
987.79826965315135
 21
42.195771898815387
 31
0.0
  0
LINE
  5
273C7
  8
0
  6
BYBLOCK
 10
987.79826965315135
 20
42.195771898815387
 30
0.0
 11
989.58946090866755
 21
41.157108835137372
 31
0.0
  0
LINE
  5
273C8
  8
0
  6
BYBLOCK
 10
987.79826965315135
 20
42.195771898815387
 30
0.0
 11
989.20980808421871
 21
40.778888255879068
 31
0.0
  0
LINE
  5
273C9
  8
0
  6
BYBLOCK
 10
997.56465304419703
 20
33.151716252547082
 30
0.0
 11
998.59653865081509
 21
31.356612030352441
 31
0.0
  0
LINE
  5
273CA
  8
0
  6
BYBLOCK
 10
998.59653865081509
 20
31.356612030352441
 30
0.0
 11
996.80534739529901
 21
32.39527509403046
 31
0.0
  0
LINE
  5
273CB
  8
0
  6
BYBLOCK
 10
998.59653865081509
 20
31.356612030352441
 30
0.0
 11
997.18500021974785
 21
32.773495673288757
 31
0.0
  0
VIEWPORT
  5
148C
 67
     1
  8
0
  6
CONTINUOUS
 10
-12.72202349275179
 20
10.08904718911719
 30
0.0
 40
426.46025003447789
 41
282.78239993349649
 68
     1
 69
     1
1001
ACAD
1000
MVIEW
1002
{
1070
    16
1010
0.0
1020
0.0
1030
0.0
1010
0.0
1020
0.0
1030
1.0
1040
0.0
1040
282.78239993349649
1040
-12.72202349275179
1040
10.08904718911719
1040
50.0
1040
0.0
1040
0.0
1070
     0
1070
   100
1070
     1
1070
     1
1070
     0
1070
     0
1070
     0
1070
     0
1040
0.0
1040
0.0
1040
0.0
1040
10.0
1040
10.0
1040
10.0
1040
10.0
1070
     0
1002
{
1002
}
1002
}
  0
ENDSEC
  0
EOF
