  0
SECTION
  2
HEADER
  9
$ACADVER
  1
AC1012
  9
$DWGCODEPAGE
  3
ansi_932
  9
$INSBASE
 10
0.0
 20
0.0
 30
0.0
  9
$EXTMIN
 10
1829.393632313577
 20
-635.89044553239
 30
0.0
  9
$EXTMAX
 10
3757.123324781504
 20
-306.6435892477957
 30
0.0
  9
$LIMMIN
 10
0.0
 20
0.0
  9
$LIMMAX
 10
420.0
 20
297.0
  9
$ORTHOMODE
 70
     0
  9
$REGENMODE
 70
     1
  9
$FILLMODE
 70
     1
  9
$QTEXTMODE
 70
     0
  9
$MIRRTEXT
 70
     0
  9
$DRAGMODE
 70
     2
  9
$LTSCALE
 40
0.5
  9
$OSMODE
 70
  2175
  9
$ATTMODE
 70
     1
  9
$TEXTSIZE
 40
4.0
  9
$TRACEWID
 40
1.0
  9
$TEXTSTYLE
  7
STANDARD
  9
$CLAYER
  8
1TEXT
  9
$CELTYPE
  6
BYLAYER
  9
$CECOLOR
 62
   256
  9
$CELTSCALE
 40
1.0
  9
$DELOBJ
 70
     1
  9
$DISPSILH
 70
     0
  9
$DIMSCALE
 40
1.0
  9
$DIMASZ
 40
2.0
  9
$DIMEXO
 40
0.0
  9
$DIMDLI
 40
7.0
  9
$DIMRND
 40
0.0
  9
$DIMDLE
 40
0.0
  9
$DIMEXE
 40
1.0
  9
$DIMTP
 40
0.0
  9
$DIMTM
 40
0.0
  9
$DIMTXT
 40
3.5
  9
$DIMCEN
 40
0.0
  9
$DIMTSZ
 40
0.0
  9
$DIMTOL
 70
     0
  9
$DIMLIM
 70
     0
  9
$DIMTIH
 70
     0
  9
$DIMTOH
 70
     0
  9
$DIMSE1
 70
     0
  9
$DIMSE2
 70
     0
  9
$DIMTAD
 70
     1
  9
$DIMZIN
 70
     8
  9
$DIMBLK
  1

  9
$DIMASO
 70
     1
  9
$DIMSHO
 70
     1
  9
$DIMPOST
  1
 
  9
$DIMAPOST
  1

  9
$DIMALT
 70
     0
  9
$DIMALTD
 70
     2
  9
$DIMALTF
 40
25.4
  9
$DIMLFAC
 40
1.0
  9
$DIMTOFL
 70
     1
  9
$DIMTVP
 40
0.0
  9
$DIMTIX
 70
     0
  9
$DIMSOXD
 70
     0
  9
$DIMSAH
 70
     1
  9
$DIMBLK1
  1
OPEN30
  9
$DIMBLK2
  1
OPEN30
  9
$DIMSTYLE
  2
NEWX10
  9
$DIMCLRD
 70
   256
  9
$DIMCLRE
 70
   256
  9
$DIMCLRT
 70
   201
  9
$DIMTFAC
 40
0.7
  9
$DIMGAP
 40
0.7
  9
$DIMJUST
 70
     0
  9
$DIMSD1
 70
     0
  9
$DIMSD2
 70
     0
  9
$DIMTOLJ
 70
     1
  9
$DIMTZIN
 70
     8
  9
$DIMALTZ
 70
     0
  9
$DIMALTTZ
 70
     0
  9
$DIMFIT
 70
     2
  9
$DIMUPT
 70
     0
  9
$DIMUNIT
 70
     2
  9
$DIMDEC
 70
     6
  9
$DIMTDEC
 70
     4
  9
$DIMALTU
 70
     2
  9
$DIMALTTD
 70
     2
  9
$DIMTXSTY
  7
STANDARD
  9
$DIMAUNIT
 70
     0
  9
$LUNITS
 70
     2
  9
$LUPREC
 70
     4
  9
$SKETCHINC
 40
1.0
  9
$FILLETRAD
 40
0.0
  9
$AUNITS
 70
     0
  9
$AUPREC
 70
     2
  9
$MENU
  1
acad
  9
$ELEVATION
 40
0.0
  9
$PELEVATION
 40
0.0
  9
$THICKNESS
 40
0.0
  9
$LIMCHECK
 70
     0
  9
$CHAMFERA
 40
10.0
  9
$CHAMFERB
 40
10.0
  9
$CHAMFERC
 40
20.0
  9
$CHAMFERD
 40
0.0
  9
$SKPOLY
 70
     0
  9
$TDCREATE
 40
2453783.491995984
  9
$TDUPDATE
 40
2458618.380722373
  9
$TDINDWG
 40
0.1829192245
  9
$TDUSRTIMER
 40
0.1829192245
  9
$USRTIMER
 70
     1
  9
$ANGBASE
 50
0.0
  9
$ANGDIR
 70
     0
  9
$PDMODE
 70
     0
  9
$PDSIZE
 40
0.0
  9
$PLINEWID
 40
0.0
  9
$COORDS
 70
     2
  9
$SPLFRAME
 70
     0
  9
$SPLINETYPE
 70
     6
  9
$SPLINESEGS
 70
     8
  9
$ATTDIA
 70
     0
  9
$ATTREQ
 70
     1
  9
$HANDLING
 70
     1
  9
$HANDSEED
  5
314F
  9
$SURFTAB1
 70
     6
  9
$SURFTAB2
 70
     6
  9
$SURFTYPE
 70
     6
  9
$SURFU
 70
     6
  9
$SURFV
 70
     6
  9
$UCSNAME
  2

  9
$UCSORG
 10
0.0
 20
0.0
 30
0.0
  9
$UCSXDIR
 10
1.0
 20
0.0
 30
0.0
  9
$UCSYDIR
 10
0.0
 20
1.0
 30
0.0
  9
$PUCSNAME
  2

  9
$PUCSORG
 10
0.0
 20
0.0
 30
0.0
  9
$PUCSXDIR
 10
1.0
 20
0.0
 30
0.0
  9
$PUCSYDIR
 10
0.0
 20
1.0
 30
0.0
  9
$USERI1
 70
     0
  9
$USERI2
 70
     0
  9
$USERI3
 70
     0
  9
$USERI4
 70
     0
  9
$USERI5
 70
     0
  9
$USERR1
 40
0.0
  9
$USERR2
 40
0.0
  9
$USERR3
 40
0.0
  9
$USERR4
 40
0.0
  9
$USERR5
 40
0.0
  9
$WORLDVIEW
 70
     1
  9
$SHADEDGE
 70
     3
  9
$SHADEDIF
 70
    70
  9
$TILEMODE
 70
     1
  9
$MAXACTVP
 70
    48
  9
$PINSBASE
 10
0.0
 20
0.0
 30
0.0
  9
$PLIMCHECK
 70
     0
  9
$PEXTMIN
 10
1.000000000000000E+20
 20
1.000000000000000E+20
 30
1.000000000000000E+20
  9
$PEXTMAX
 10
-1.000000000000000E+20
 20
-1.000000000000000E+20
 30
-1.000000000000000E+20
  9
$PLIMMIN
 10
0.0
 20
0.0
  9
$PLIMMAX
 10
420.0
 20
297.0
  9
$UNITMODE
 70
     0
  9
$VISRETAIN
 70
     1
  9
$PLINEGEN
 70
     0
  9
$PSLTSCALE
 70
     1
  9
$TREEDEPTH
 70
  3020
  9
$PICKSTYLE
 70
     1
  9
$CMLSTYLE
  2
STANDARD
  9
$CMLJUST
 70
     0
  9
$CMLSCALE
 40
20.0
  9
$SAVEIMAGES
 70
     1
  0
ENDSEC
  0
SECTION
  2
CLASSES
  0
CLASS
  1
DICTIONARYVAR
  2
AcDbDictionaryVar
  3
ObjectDBX Classes
 90
        0
280
     0
281
     0
  0
CLASS
  1
IDBUFFER
  2
AcDbIdBuffer
  3
ObjectDBX Classes
 90
    32768
280
     0
281
     0
  0
CLASS
  1
LWPOLYLINE
  2
AcDbPolyline
  3
ObjectDBX Classes
 90
    32768
280
     0
281
     1
  0
CLASS
  1
ACDBDICTIONARYWDFLT
  2
AcDbDictionaryWithDefault
  3
ObjectDBX Classes
 90
    32768
280
     0
281
     0
  0
CLASS
  1
ACDBPLACEHOLDER
  2
AcDbPlaceHolder
  3
ObjectDBX Classes
 90
        0
280
     0
281
     0
  0
CLASS
  1
LAYOUT
  2
AcDbLayout
  3
ObjectDBX Classes
 90
        0
280
     0
281
     0
  0
CLASS
  1
TABLESTYLE
  2
AcDbTableStyle
  3
ObjectDBX Classes
 90
     4095
280
     0
281
     0
  0
CLASS
  1
SORTENTSTABLE
  2
AcDbSortentsTable
  3
ObjectDBX Classes
 90
    32768
280
     0
281
     0
  0
CLASS
  1
DIMASSOC
  2
AcDbDimAssoc
  3
"AcDbDimAssoc|Product Desc:     AcDim ARX App For Dimension|Company:          Autodesk, Inc.|WEB Address:      www.autodesk.com"
 90
        0
280
     0
281
     0
  0
CLASS
  1
VISUALSTYLE
  2
AcDbVisualStyle
  3
ObjectDBX Classes
 90
     4095
280
     0
281
     0
  0
CLASS
  1
SCALE
  2
AcDbScale
  3
ObjectDBX Classes
 90
     1153
280
     0
281
     0
  0
CLASS
  1
MATERIAL
  2
AcDbMaterial
  3
ObjectDBX Classes
 90
     1153
280
     0
281
     0
  0
CLASS
  1
MLEADERSTYLE
  2
AcDbMLeaderStyle
  3
ACDB_MLEADERSTYLE_CLASS
 90
     4095
280
     0
281
     0
  0
CLASS
  1
SUN
  2
AcDbSun
  3
SCENEOE
 90
     1153
280
     0
281
     0
  0
CLASS
  1
CELLSTYLEMAP
  2
AcDbCellStyleMap
  3
ObjectDBX Classes
 90
     1152
280
     0
281
     0
  0
CLASS
  1
XRECORD
  2
AcDbXrecord
  3
ObjectDBX Classes
 90
    32768
280
     0
281
     0
  0
CLASS
  1
HATCH
  2
AcDbHatch
  3
ObjectDBX Classes
 90
    32768
280
     0
281
     1
  0
ENDSEC
  0
SECTION
  2
TABLES
  0
TABLE
  2
VPORT
  5
8
330
0
100
AcDbSymbolTable
 70
     1
  0
VPORT
  5
259C
330
8
100
AcDbSymbolTableRecord
100
AcDbViewportTableRecord
  2
*ACTIVE
 70
     0
 10
0.0
 20
0.0
 11
1.0
 21
1.0
 12
2793.258478547541
 22
-471.2670173900929
 13
0.0
 23
0.0
 14
10.0
 24
10.0
 15
10.0
 25
10.0
 16
0.0
 26
0.0
 36
1.0
 17
0.0
 27
0.0
 37
0.0
 40
1147.918539669587
 41
1.803066037735849
 42
50.0
 43
0.0
 44
0.0
 50
0.0
 51
0.0
 71
    16
 72
  1000
 73
     1
 74
     1
 75
     0
 76
     0
 77
     0
 78
     0
  0
ENDTAB
  0
TABLE
  2
LTYPE
  5
5
330
0
100
AcDbSymbolTable
 70
     5
  0
LTYPE
  5
12
330
5
100
AcDbSymbolTableRecord
100
AcDbLinetypeTableRecord
  2
BYBLOCK
 70
     0
  3

 72
    65
 73
     0
 40
0.0
  0
LTYPE
  5
13
330
5
100
AcDbSymbolTableRecord
100
AcDbLinetypeTableRecord
  2
BYLAYER
 70
     0
  3

 72
    65
 73
     0
 40
0.0
  0
LTYPE
  5
14
330
5
100
AcDbSymbolTableRecord
100
AcDbLinetypeTableRecord
  2
CONTINUOUS
 70
     0
  3
Solid line
 72
    65
 73
     0
 40
0.0
  0
LTYPE
  5
26
330
5
100
AcDbSymbolTableRecord
100
AcDbLinetypeTableRecord
  2
CENTER2
 70
     0
  3
Center (.5x) ___ _ ___ _ ___ _ ___ _ ___ _ ___
 72
    65
 73
     4
 40
28.575
 49
19.05
 74
     0
 49
-3.175
 74
     0
 49
3.175
 74
     0
 49
-3.175
 74
     0
  0
LTYPE
  5
6A
330
5
100
AcDbSymbolTableRecord
100
AcDbLinetypeTableRecord
  2
XREF1|CENTER2
 70
    16
  3
Center (.5x) ___ _ ___ _ ___ _ ___ _ ___ _ ___
 72
    65
 73
     4
 40
28.575
 49
19.05
 74
     0
 49
-3.175
 74
     0
 49
3.175
 74
     0
 49
-3.175
 74
     0
  0
LTYPE
  5
100
330
5
100
AcDbSymbolTableRecord
100
AcDbLinetypeTableRecord
  2
PHANTOM2
 70
     0
  3
Phantom (0.5x) ___ _ _ ___ _ _ ___ _ _ ___ _ _
 72
    65
 73
     6
 40
31.75
 49
15.875
 74
     0
 49
-3.175
 74
     0
 49
3.175
 74
     0
 49
-3.175
 74
     0
 49
3.175
 74
     0
 49
-3.175
 74
     0
  0
LTYPE
  5
21DA
330
5
100
AcDbSymbolTableRecord
100
AcDbLinetypeTableRecord
  2
A3WAKUDAKE|CENTER2
 70
    16
  3
Center (.5x) ___ _ ___ _ ___ _ ___ _ ___ _ ___
 72
    65
 73
     4
 40
28.575
 49
19.05
 74
     0
 49
-3.175
 74
     0
 49
3.175
 74
     0
 49
-3.175
 74
     0
  0
ENDTAB
  0
TABLE
  2
LAYER
  5
2
102
{ACAD_XDICTIONARY
360
2DA0
102
}
330
0
100
AcDbSymbolTable
 70
    11
  0
LAYER
  5
E
330
2
100
AcDbSymbolTableRecord
100
AcDbLayerTableRecord
  2
0
 70
     0
 62
     7
  6
CONTINUOUS
  0
LAYER
  5
29
330
2
100
AcDbSymbolTableRecord
100
AcDbLayerTableRecord
  2
1CENTER
 70
     0
 62
     7
  6
CENTER2
  0
LAYER
  5
31
330
2
100
AcDbSymbolTableRecord
100
AcDbLayerTableRecord
  2
1TEXT
 70
     0
 62
     7
  6
CONTINUOUS
  0
LAYER
  5
101
330
2
100
AcDbSymbolTableRecord
100
AcDbLayerTableRecord
  2
1DIM
 70
     0
 62
     7
  6
CONTINUOUS
  0
LAYER
  5
103
330
2
100
AcDbSymbolTableRecord
100
AcDbLayerTableRecord
  2
1PHANTOM
 70
     0
 62
     7
  6
PHANTOM2
  0
LAYER
  5
25F
330
2
100
AcDbSymbolTableRecord
100
AcDbLayerTableRecord
  2
01
 70
     0
 62
     1
  6
CONTINUOUS
  0
LAYER
  5
26A
330
2
100
AcDbSymbolTableRecord
100
AcDbLayerTableRecord
  2
1DIM1
 70
     0
 62
     7
  6
CONTINUOUS
  0
LAYER
  5
21D5
330
2
100
AcDbSymbolTableRecord
100
AcDbLayerTableRecord
  2
A3WAKUDAKE|THICK
 70
    16
 62
     7
  6
CONTINUOUS
  0
LAYER
  5
21D6
330
2
100
AcDbSymbolTableRecord
100
AcDbLayerTableRecord
  2
A3WAKUDAKE|POINT
 70
    16
 62
     7
  6
CONTINUOUS
  0
LAYER
  5
21D7
330
2
100
AcDbSymbolTableRecord
100
AcDbLayerTableRecord
  2
A3WAKUDAKE|1CENTER
 70
    16
 62
     7
  6
A3WAKUDAKE|CENTER2
  0
LAYER
  5
21D8
330
2
100
AcDbSymbolTableRecord
100
AcDbLayerTableRecord
  2
A3WAKUDAKE|0-6
 70
    16
 62
     7
  6
CONTINUOUS
  0
ENDTAB
  0
TABLE
  2
STYLE
  5
3
330
0
100
AcDbSymbolTable
 70
     3
  0
STYLE
  5
F
330
3
100
AcDbSymbolTableRecord
100
AcDbTextStyleTableRecord
  2
STANDARD
 70
     0
 40
0.0
 41
1.0
 50
0.0
 71
     0
 42
4.0
  3
txt.shx
  4
extfont.shx
  0
STYLE
  5
25F6
330
3
100
AcDbSymbolTableRecord
100
AcDbTextStyleTableRecord
  2
A3WAKUDAKE|STANDARD
 70
    16
 40
0.0
 41
1.0
 50
0.0
 71
     0
 42
4.0
  3
romans.shx
  4
extfont.shx
  0
STYLE
  5
261E
330
3
100
AcDbSymbolTableRecord
100
AcDbTextStyleTableRecord
  2
XREF1|STANDARD
 70
    16
 40
0.0
 41
1.0
 50
0.0
 71
     0
 42
4.0
  3
romans.shx
  4
extfont.shx
  0
ENDTAB
  0
TABLE
  2
VIEW
  5
6
330
0
100
AcDbSymbolTable
 70
     0
  0
ENDTAB
  0
TABLE
  2
UCS
  5
7
330
0
100
AcDbSymbolTable
 70
     0
  0
ENDTAB
  0
TABLE
  2
APPID
  5
9
330
0
100
AcDbSymbolTable
 70
    11
  0
APPID
  5
10
330
9
100
AcDbSymbolTableRecord
100
AcDbRegAppTableRecord
  2
ACAD
 70
     0
  0
APPID
  5
21
330
9
100
AcDbSymbolTableRecord
100
AcDbRegAppTableRecord
  2
DRAWINGVARIABLESXDATA
 70
     0
  0
APPID
  5
64
330
9
100
AcDbSymbolTableRecord
100
AcDbRegAppTableRecord
  2
CONTENTTABDATA
 70
     0
  0
APPID
  5
65
330
9
100
AcDbSymbolTableRecord
100
AcDbRegAppTableRecord
  2
CONTENTCURRENTTAB
 70
     0
  0
APPID
  5
66
330
9
100
AcDbSymbolTableRecord
100
AcDbRegAppTableRecord
  2
CONTENTBLOCKDESCRIPTION
 70
     0
  0
APPID
  5
67
330
9
100
AcDbSymbolTableRecord
100
AcDbRegAppTableRecord
  2
CONTENTBLOCKICON
 70
     0
  0
APPID
  5
68
330
9
100
AcDbSymbolTableRecord
100
AcDbRegAppTableRecord
  2
CONTENTLONGBLOCKNAME
 70
     0
  0
APPID
  5
156D
330
9
100
AcDbSymbolTableRecord
100
AcDbRegAppTableRecord
  2
ACAD_PSEXT
 70
     0
  0
APPID
  5
2656
330
9
100
AcDbSymbolTableRecord
100
AcDbRegAppTableRecord
  2
ACADANNOTATIVE
 70
     0
  0
APPID
  5
2657
330
9
100
AcDbSymbolTableRecord
100
AcDbRegAppTableRecord
  2
ACDBBLOCKREPETAG
 70
     0
  0
APPID
  5
2E2B
330
9
100
AcDbSymbolTableRecord
100
AcDbRegAppTableRecord
  2
ACAD_MLEADERVER
 70
     0
  0
ENDTAB
  0
TABLE
  2
DIMSTYLE
  5
A
330
0
100
AcDbSymbolTable
 70
     1
  0
DIMSTYLE
105
48
330
A
100
AcDbSymbolTableRecord
100
AcDbDimStyleTableRecord
  2
NEWX10
 70
     0
  3
 
  4

  5

  6
OPEN30
  7
OPEN30
 40
1.0
 41
2.0
 42
0.0
 43
7.0
 44
1.0
 45
0.0
 46
0.0
 47
0.0
 48
0.0
140
3.5
141
0.0
142
0.0
143
25.4
144
1.0
145
0.0
146
0.7
147
0.7
 71
     0
 72
     0
 73
     0
 74
     0
 75
     0
 76
     0
 77
     1
 78
     8
170
     0
171
     2
172
     1
173
     1
174
     0
175
     0
176
   256
177
   256
178
   201
179
     3
270
     2
271
     6
272
     4
273
     2
274
     2
340
F
275
     0
280
     0
281
     0
282
     0
283
     1
284
     8
285
     0
286
     0
287
     2
288
     0
  0
ENDTAB
  0
TABLE
  2
BLOCK_RECORD
  5
1
330
0
100
AcDbSymbolTable
 70
    10
  0
BLOCK_RECORD
  5
18
102
{ACAD_XDICTIONARY
360
510
102
}
330
1
100
AcDbSymbolTableRecord
100
AcDbBlockTableRecord
  2
*MODEL_SPACE
  0
BLOCK_RECORD
  5
15
330
1
100
AcDbSymbolTableRecord
100
AcDbBlockTableRecord
  2
*PAPER_SPACE
  0
BLOCK_RECORD
  5
42
330
1
100
AcDbSymbolTableRecord
100
AcDbBlockTableRecord
  2
_OPEN30
  0
BLOCK_RECORD
  5
5B
330
1
100
AcDbSymbolTableRecord
100
AcDbBlockTableRecord
  2
XREF1
  0
BLOCK_RECORD
  5
21D2
330
1
100
AcDbSymbolTableRecord
100
AcDbBlockTableRecord
  2
A3WAKUDAKE
  0
BLOCK_RECORD
  5
26A7
330
1
100
AcDbSymbolTableRecord
100
AcDbBlockTableRecord
  2
A3WAKUKAWAJUN2017_HYOUDAI_
  0
BLOCK_RECORD
  5
2FAF
330
1
100
AcDbSymbolTableRecord
100
AcDbBlockTableRecord
  2
*X86
  0
BLOCK_RECORD
  5
2FFD
330
1
100
AcDbSymbolTableRecord
100
AcDbBlockTableRecord
  2
*X87
  0
BLOCK_RECORD
  5
304F
330
1
100
AcDbSymbolTableRecord
100
AcDbBlockTableRecord
  2
*X88
  0
BLOCK_RECORD
  5
30A0
330
1
100
AcDbSymbolTableRecord
100
AcDbBlockTableRecord
  2
*X89
  0
BLOCK_RECORD
  5
30DD
330
1
100
AcDbSymbolTableRecord
100
AcDbBlockTableRecord
  2
*X90
  0
BLOCK_RECORD
  5
311D
330
1
100
AcDbSymbolTableRecord
100
AcDbBlockTableRecord
  2
*X91
  0
ENDTAB
  0
ENDSEC
  0
SECTION
  2
BLOCKS
  0
BLOCK
  5
19
330
18
100
AcDbEntity
  8
0
100
AcDbBlockBegin
  2
*MODEL_SPACE
 70
     0
 10
0.0
 20
0.0
 30
0.0
  3
*MODEL_SPACE
  1

  0
ENDBLK
  5
1A
330
18
100
AcDbEntity
  8
0
100
AcDbBlockEnd
  0
BLOCK
  5
16
330
15
100
AcDbEntity
 67
     1
  8
0
100
AcDbBlockBegin
  2
*PAPER_SPACE
 70
     0
 10
0.0
 20
0.0
 30
0.0
  3
*PAPER_SPACE
  1

  0
ENDBLK
  5
17
330
15
100
AcDbEntity
 67
     1
  8
0
100
AcDbBlockEnd
  0
BLOCK
  5
43
330
42
100
AcDbEntity
  8
0
100
AcDbBlockBegin
  2
_OPEN30
 70
     0
 10
0.0
 20
0.0
 30
0.0
  3
_OPEN30
  1

  0
LINE
  5
44
330
42
100
AcDbEntity
  8
0
  6
BYBLOCK
 62
     0
100
AcDbLine
 10
-1.0
 20
0.26794919
 30
0.0
 11
0.0
 21
0.0
 31
0.0
  0
LINE
  5
45
330
42
100
AcDbEntity
  8
0
  6
BYBLOCK
 62
     0
100
AcDbLine
 10
0.0
 20
0.0
 30
0.0
 11
-1.0
 21
-0.26794919
 31
0.0
  0
LINE
  5
46
330
42
100
AcDbEntity
  8
0
  6
BYBLOCK
 62
     0
100
AcDbLine
 10
0.0
 20
0.0
 30
0.0
 11
-1.0
 21
0.0
 31
0.0
  0
ENDBLK
  5
47
330
42
100
AcDbEntity
  8
0
100
AcDbBlockEnd
  0
BLOCK
  5
5C
330
5B
100
AcDbEntity
  8
0
100
AcDbBlockBegin
  2
XREF1
 70
     4
 10
0.0
 20
0.0
 30
0.0
  3
XREF1
  1
D:\ACLT\FORMAT\KAWAJUN(9)図面用.dwg
  0
ENDBLK
  5
5D
330
5B
100
AcDbEntity
  8
0
100
AcDbBlockEnd
  0
BLOCK
  5
21D3
330
21D2
100
AcDbEntity
  8
0
100
AcDbBlockBegin
  2
A3WAKUDAKE
 70
     4
 10
0.0
 20
0.0
 30
0.0
  3
A3WAKUDAKE
  1
D:\ACLT\FORMAT\A3WAKUdake.dwg
  0
ENDBLK
  5
21D4
330
21D2
100
AcDbEntity
  8
0
100
AcDbBlockEnd
  0
BLOCK
  5
2DA8
330
26A7
100
AcDbEntity
  8
0
100
AcDbBlockBegin
  2
A3WAKUKAWAJUN2017_HYOUDAI_
 70
     0
 10
0.0
 20
0.0
 30
0.0
  3
A3WAKUKAWAJUN2017_HYOUDAI_
  1

  0
LINE
  5
26A9
330
26A7
100
AcDbEntity
  8
0
100
AcDbLine
 10
13.26299999998673
 20
-0.0001000000000317
 30
0.0
 11
9.236999999990758
 21
8.999899999990987
 31
0.0
1001
ACAD
1000
ASC_BOUNDS
1002
{
1070
    19
1005
26EA
1002
}
  0
LINE
  5
26AA
330
26A7
100
AcDbEntity
  8
0
100
AcDbLine
 10
5.657999999994331
 20
0.9999999999989768
 30
0.0
 11
9.236999999990758
 21
8.999999999991019
 31
0.0
1001
ACAD
1000
ASC_BOUNDS
1002
{
1070
    19
1005
26EA
1002
}
  0
LINE
  5
26AB
330
26A7
100
AcDbEntity
  8
0
100
AcDbLine
 10
18.59199999998134
 20
-0.2368999999997641
 30
0.0
 11
16.46099999998353
 21
5.432899999994561
 31
0.0
1001
ACAD
1000
ASC_BOUNDS
1002
{
1070
    19
1005
26EB
1002
}
  0
LINE
  5
26AC
330
26A7
100
AcDbEntity
  8
0
100
AcDbLine
 10
18.59199999998134
 20
-0.2368999999997641
 30
0.0
 11
22.38199999997767
 21
8.763099999991255
 31
0.0
1001
ACAD
1000
ASC_BOUNDS
1002
{
1070
    19
1005
26EB
1002
}
  0
LINE
  5
26AD
330
26A7
100
AcDbEntity
  8
0
100
AcDbLine
 10
14.32899999998563
 20
-0.2368999999997641
 30
0.0
 11
16.46099999998353
 21
5.432899999994561
 31
0.0
1001
ACAD
1000
ASC_BOUNDS
1002
{
1070
    19
1005
26EB
1002
}
  0
LINE
  5
26AE
330
26A7
100
AcDbEntity
  8
0
100
AcDbLine
 10
14.32899999998563
 20
-0.2368999999997641
 30
0.0
 11
10.53899999998941
 21
8.763099999991255
 31
0.0
1001
ACAD
1000
ASC_BOUNDS
1002
{
1070
    19
1005
26EB
1002
}
  0
LINE
  5
26AF
330
26A7
100
AcDbEntity
  8
0
100
AcDbLine
 10
19.53899999998043
 20
-0.0001000000000317
 30
0.0
 11
23.56599999997638
 21
8.999899999990987
 31
0.0
1001
ACAD
1000
ASC_BOUNDS
1002
{
1070
    19
1005
26EC
1002
}
  0
LINE
  5
26B0
330
26A7
100
AcDbEntity
  8
0
100
AcDbLine
 10
26.97358892824991
 20
1.383099999991202
 30
0.0
 11
23.56599999997638
 21
8.999899999990987
 31
0.0
1001
ACAD
1000
ASC_BOUNDS
1002
{
1070
    19
1005
26EC
1002
}
  0
LINE
  5
26B1
330
26A7
100
AcDbEntity
  8
0
100
AcDbLine
 10
5.657999999994331
 20
0.9999999999989768
 30
0.0
 11
3.181999999996833
 21
4.668599999995308
 31
0.0
1001
ACAD
1000
ASC_BOUNDS
1002
{
1070
    19
1005
26EA
1002
}
  0
LINE
  5
26B2
330
26A7
100
AcDbEntity
  8
0
100
AcDbLine
 10
4.617999999995391
 20
-0.0001000000000317
 30
0.0
 11
1.420999999998571
 21
4.736799999995242
 31
0.0
1001
ACAD
1000
ASC_BOUNDS
1002
{
1070
    19
1005
26EA
1002
}
  0
LINE
  5
26B3
330
26A7
100
AcDbEntity
  8
0
100
AcDbLine
 10
1.420999999998571
 20
8.763099999991255
 30
0.0
 11
1.420999999998571
 21
0.0
 31
0.0
1001
ACAD
1000
ASC_BOUNDS
1002
{
1070
    19
1005
26EF
1002
}
  0
LINE
  5
26B4
330
26A7
100
AcDbEntity
  8
0
100
AcDbLine
 10
0.0
 20
8.763099999991255
 30
0.0
 11
0.0
 21
0.0
 31
0.0
1001
ACAD
1000
ASC_BOUNDS
1002
{
1070
    19
1005
26EF
1002
}
  0
LINE
  5
26B5
330
26A7
100
AcDbEntity
  8
0
100
AcDbLine
 10
6.766999999993232
 20
-0.0001000000000317
 30
0.0
 11
7.826999999992154
 21
2.368399999997621
 31
0.0
1001
ACAD
1000
ASC_BOUNDS
1002
{
1070
    19
1005
26EA
1002
}
  0
LINE
  5
26B6
330
26A7
100
AcDbEntity
  8
0
100
AcDbLine
 10
0.0
 20
0.0
 30
0.0
 11
1.420999999998571
 21
0.0
 31
0.0
1001
ACAD
1000
ASC_BOUNDS
1002
{
1070
    19
1005
26EF
1002
}
  0
LINE
  5
26B7
330
26A7
100
AcDbEntity
  8
0
100
AcDbLine
 10
4.617999999995391
 20
0.0
 30
0.0
 11
6.766999999993232
 21
0.0
 31
0.0
1001
ACAD
1000
ASC_BOUNDS
1002
{
1070
    19
1005
26EA
1002
}
  0
LINE
  5
26B8
330
26A7
100
AcDbEntity
  8
0
100
AcDbLine
 10
11.70599999998831
 20
-0.0001000000000317
 30
0.0
 11
10.64699999998936
 21
2.368399999997621
 31
0.0
1001
ACAD
1000
ASC_BOUNDS
1002
{
1070
    19
1005
26EA
1002
}
  0
LINE
  5
26B9
330
26A7
100
AcDbEntity
  8
0
100
AcDbLine
 10
7.826999999992154
 20
2.368399999997621
 30
0.0
 11
10.64699999998936
 21
2.368399999997621
 31
0.0
1001
ACAD
1000
ASC_BOUNDS
1002
{
1070
    19
1005
26EA
1002
}
  0
LINE
  5
26BA
330
26A7
100
AcDbEntity
  8
0
100
AcDbLine
 10
11.70599999998831
 20
0.0
 30
0.0
 11
13.26299999998673
 21
0.0
 31
0.0
1001
ACAD
1000
ASC_BOUNDS
1002
{
1070
    19
1005
26EA
1002
}
  0
LINE
  5
26BB
330
26A7
100
AcDbEntity
  8
0
100
AcDbLine
 10
22.15599999997789
 20
2.368399999997621
 30
0.0
 11
24.97599999997499
 21
2.368399999997621
 31
0.0
1001
ACAD
1000
ASC_BOUNDS
1002
{
1070
    19
1005
26EC
1002
}
  0
LINE
  5
26BC
330
26A7
100
AcDbEntity
  8
0
100
AcDbLine
 10
19.53899999998043
 20
0.0
 30
0.0
 11
21.09599999997886
 21
0.0
 31
0.0
1001
ACAD
1000
ASC_BOUNDS
1002
{
1070
    19
1005
26EC
1002
}
  0
LINE
  5
26BD
330
26A7
100
AcDbEntity
  8
0
100
AcDbLine
 10
21.09599999997886
 20
-0.0001000000000317
 30
0.0
 11
22.15599999997789
 21
2.368399999997621
 31
0.0
1001
ACAD
1000
ASC_BOUNDS
1002
{
1070
    19
1005
26EC
1002
}
  0
LINE
  5
26BE
330
26A7
100
AcDbEntity
  8
0
100
AcDbLine
 10
26.02015566812236
 20
0.0330999999912365
 30
0.0
 11
24.97599999997499
 21
2.368399999997621
 31
0.0
1001
ACAD
1000
ASC_BOUNDS
1002
{
1070
    19
1005
26EC
1002
}
  0
LINE
  5
26BF
330
26A7
100
AcDbEntity
  8
0
100
AcDbLine
 10
14.32399999998563
 20
3.315799999996671
 30
0.0
 11
16.46099999998353
 21
8.999899999990987
 31
0.0
1001
ACAD
1000
ASC_BOUNDS
1002
{
1070
    19
1005
26EB
1002
}
  0
LINE
  5
26C0
330
26A7
100
AcDbEntity
  8
0
100
AcDbLine
 10
6.432999999993513
 20
8.763099999991255
 30
0.0
 11
3.181999999996833
 21
4.668599999995308
 31
0.0
1001
ACAD
1000
ASC_BOUNDS
1002
{
1070
    19
1005
26EA
1002
}
  0
LINE
  5
26C1
330
26A7
100
AcDbEntity
  8
0
100
AcDbLine
 10
4.617999999995391
 20
8.763099999991255
 30
0.0
 11
1.420999999998571
 21
4.736799999995242
 31
0.0
1001
ACAD
1000
ASC_BOUNDS
1002
{
1070
    19
1005
26EA
1002
}
  0
LINE
  5
26C2
330
26A7
100
AcDbEntity
  8
0
100
AcDbLine
 10
0.0
 20
8.763099999991255
 30
0.0
 11
1.420999999998571
 21
8.763099999991255
 31
0.0
1001
ACAD
1000
ASC_BOUNDS
1002
{
1070
    19
1005
26EF
1002
}
  0
LINE
  5
26C3
330
26A7
100
AcDbEntity
  8
0
100
AcDbLine
 10
4.617999999995391
 20
8.763099999991255
 30
0.0
 11
6.432999999993513
 21
8.763099999991255
 31
0.0
1001
ACAD
1000
ASC_BOUNDS
1002
{
1070
    19
1005
26EA
1002
}
  0
LINE
  5
26C4
330
26A7
100
AcDbEntity
  8
0
100
AcDbLine
 10
14.32399999998563
 20
3.315799999996671
 30
0.0
 11
12.02999999998792
 21
8.763099999991255
 31
0.0
1001
ACAD
1000
ASC_BOUNDS
1002
{
1070
    19
1005
26EB
1002
}
  0
LINE
  5
26C5
330
26A7
100
AcDbEntity
  8
0
100
AcDbLine
 10
10.06399999998996
 20
3.670999999996297
 30
0.0
 11
9.236999999990758
 21
5.5200999999945
 31
0.0
1001
ACAD
1000
ASC_BOUNDS
1002
{
1070
    19
1005
26EA
1002
}
  0
LINE
  5
26C6
330
26A7
100
AcDbEntity
  8
0
100
AcDbLine
 10
8.409999999991555
 20
3.670999999996297
 30
0.0
 11
9.236999999990758
 21
5.5200999999945
 31
0.0
1001
ACAD
1000
ASC_BOUNDS
1002
{
1070
    19
1005
26EA
1002
}
  0
LINE
  5
26C7
330
26A7
100
AcDbEntity
  8
0
100
AcDbLine
 10
8.409999999991555
 20
3.670999999996297
 30
0.0
 11
10.06399999998996
 21
3.670999999996297
 31
0.0
1001
ACAD
1000
ASC_BOUNDS
1002
{
1070
    19
1005
26EA
1002
}
  0
LINE
  5
26C8
330
26A7
100
AcDbEntity
  8
0
100
AcDbLine
 10
10.53899999998941
 20
8.763099999991255
 30
0.0
 11
12.02999999998792
 21
8.763099999991255
 31
0.0
1001
ACAD
1000
ASC_BOUNDS
1002
{
1070
    19
1005
26EB
1002
}
  0
LINE
  5
26C9
330
26A7
100
AcDbEntity
  8
0
100
AcDbLine
 10
22.7389999999773
 20
3.670999999996297
 30
0.0
 11
23.56599999997638
 21
5.5200999999945
 31
0.0
1001
ACAD
1000
ASC_BOUNDS
1002
{
1070
    19
1005
26EC
1002
}
  0
LINE
  5
26CA
330
26A7
100
AcDbEntity
  8
0
100
AcDbLine
 10
22.7389999999773
 20
3.670999999996297
 30
0.0
 11
24.39299999997559
 21
3.670999999996297
 31
0.0
1001
ACAD
1000
ASC_BOUNDS
1002
{
1070
    19
1005
26EC
1002
}
  0
LINE
  5
26CB
330
26A7
100
AcDbEntity
  8
0
100
AcDbLine
 10
18.59799999998143
 20
3.315799999996671
 30
0.0
 11
20.89099999997916
 21
8.763099999991255
 31
0.0
1001
ACAD
1000
ASC_BOUNDS
1002
{
1070
    19
1005
26EB
1002
}
  0
LINE
  5
26CC
330
26A7
100
AcDbEntity
  8
0
100
AcDbLine
 10
18.59799999998143
 20
3.315799999996671
 30
0.0
 11
16.46099999998353
 21
8.999899999990987
 31
0.0
1001
ACAD
1000
ASC_BOUNDS
1002
{
1070
    19
1005
26EB
1002
}
  0
LINE
  5
26CD
330
26A7
100
AcDbEntity
  8
0
100
AcDbLine
 10
20.89099999997916
 20
8.763099999991255
 30
0.0
 11
22.38199999997767
 21
8.763099999991255
 31
0.0
1001
ACAD
1000
ASC_BOUNDS
1002
{
1070
    19
1005
26EB
1002
}
  0
LINE
  5
26CE
330
26A7
100
AcDbEntity
  8
0
100
AcDbLine
 10
24.39299999997559
 20
3.670999999996297
 30
0.0
 11
23.56599999997638
 21
5.5200999999945
 31
0.0
1001
ACAD
1000
ASC_BOUNDS
1002
{
1070
    19
1005
26EC
1002
}
  0
LINE
  5
26CF
330
26A7
100
AcDbEntity
  8
0
100
AcDbLine
 10
44.99999999995498
 20
-0.2368999999997641
 30
0.0
 11
40.02599999995994
 21
5.341799999994635
 31
0.0
1001
ACAD
1000
ASC_BOUNDS
1002
{
1070
    19
1005
26EE
1002
}
  0
LINE
  5
26D0
330
26A7
100
AcDbEntity
  8
0
100
AcDbLine
 10
40.02599999995994
 20
5.341799999994635
 30
0.0
 11
40.02599999995994
 21
0.0
 31
0.0
1001
ACAD
1000
ASC_BOUNDS
1002
{
1070
    19
1005
26EE
1002
}
  0
LINE
  5
26D1
330
26A7
100
AcDbEntity
  8
0
100
AcDbLine
 10
38.60499999996136
 20
8.999999999991019
 30
0.0
 11
38.60499999996136
 21
0.0
 31
0.0
1001
ACAD
1000
ASC_BOUNDS
1002
{
1070
    19
1005
26EE
1002
}
  0
LINE
  5
26D2
330
26A7
100
AcDbEntity
  8
0
100
AcDbLine
 10
44.99999999995498
 20
8.763099999991255
 30
0.0
 11
44.99999999995498
 21
-0.2368999999997641
 31
0.0
1001
ACAD
1000
ASC_BOUNDS
1002
{
1070
    19
1005
26EE
1002
}
  0
LINE
  5
26D3
330
26A7
100
AcDbEntity
  8
0
100
AcDbLine
 10
38.60499999996136
 20
0.0
 30
0.0
 11
40.02599999995994
 21
0.0
 31
0.0
1001
ACAD
1000
ASC_BOUNDS
1002
{
1070
    19
1005
26EE
1002
}
  0
LINE
  5
26D4
330
26A7
100
AcDbEntity
  8
0
100
AcDbLine
 10
43.57899999995641
 20
3.421199999996588
 30
0.0
 11
38.60499999996136
 21
8.999899999990987
 31
0.0
1001
ACAD
1000
ASC_BOUNDS
1002
{
1070
    19
1005
26EE
1002
}
  0
LINE
  5
26D5
330
26A7
100
AcDbEntity
  8
0
100
AcDbLine
 10
43.57899999995641
 20
8.763099999991255
 30
0.0
 11
43.57899999995641
 21
3.421199999996588
 31
0.0
1001
ACAD
1000
ASC_BOUNDS
1002
{
1070
    19
1005
26EE
1002
}
  0
LINE
  5
26D6
330
26A7
100
AcDbEntity
  8
0
100
AcDbLine
 10
43.57899999995641
 20
8.763099999991255
 30
0.0
 11
44.99999999995498
 21
8.763099999991255
 31
0.0
1001
ACAD
1000
ASC_BOUNDS
1002
{
1070
    19
1005
26EE
1002
}
  0
LINE
  5
26D7
330
26A7
100
AcDbEntity
  8
0
100
AcDbLine
 10
37.67199999996831
 20
8.763099999991255
 30
0.0
 11
36.23199999996837
 21
8.763099999991255
 31
0.0
  0
LINE
  5
26D8
330
26A7
100
AcDbEntity
  8
0
100
AcDbLine
 10
31.64199999996833
 20
8.763099999991255
 30
0.0
 11
31.64199999996833
 21
2.481619422925121
 31
0.0
  0
LINE
  5
26D9
330
26A7
100
AcDbEntity
  8
0
100
AcDbLine
 10
37.67199999996831
 20
8.763099999991255
 30
0.0
 11
37.67199999996831
 21
2.481619422925121
 31
0.0
  0
LINE
  5
26DA
330
26A7
100
AcDbEntity
  8
0
100
AcDbLine
 10
36.23199999996837
 20
8.763099999991255
 30
0.0
 11
36.23199999996837
 21
2.481619422925064
 31
0.0
  0
LINE
  5
26DB
330
26A7
100
AcDbEntity
  8
0
100
AcDbLine
 10
33.08199999996839
 20
8.763099999991255
 30
0.0
 11
33.08199999996839
 21
2.481619422925121
 31
0.0
  0
ARC
  5
26DC
330
26A7
100
AcDbEntity
  8
0
100
AcDbCircle
 10
34.65699999996832
 20
3.183099999991214
 30
0.0
 40
3.420000000000007
100
AcDbArc
 50
240.0000000000255
 51
299.9999999999766
  0
ARC
  5
26DD
330
26A7
100
AcDbEntity
  8
0
100
AcDbCircle
 10
34.65699999996832
 20
3.183099999991214
 30
0.0
 40
1.97999999999999
100
AcDbArc
 50
240.000000000026
 51
299.9999999999703
  0
LINE
  5
26DE
330
26A7
100
AcDbEntity
  8
0
100
AcDbLine
 10
33.08199999996828
 20
8.763099999991255
 30
0.0
 11
31.64199999996833
 21
8.763099999991255
 31
0.0
  0
ARC
  5
26DF
330
26A7
100
AcDbEntity
  8
0
100
AcDbCircle
 10
35.06199999996829
 20
2.481619422925064
 30
0.0
 40
1.17
100
AcDbArc
 50
299.9999999999699
 51
0.0
  0
ARC
  5
26E0
330
26A7
100
AcDbEntity
  8
0
100
AcDbCircle
 10
34.25199999996835
 20
2.481619422925121
 30
0.0
 40
1.17
100
AcDbArc
 50
180.0
 51
240.0000000000238
  0
ARC
  5
26E1
330
26A7
100
AcDbEntity
  8
0
100
AcDbCircle
 10
35.06199999996841
 20
2.481619422925121
 30
0.0
 40
2.61
100
AcDbArc
 50
299.9999999999756
 51
0.0
  0
ARC
  5
26E2
330
26A7
100
AcDbEntity
  8
0
100
AcDbCircle
 10
34.25199999996835
 20
2.481619422925121
 30
0.0
 40
2.61
100
AcDbArc
 50
180.0
 51
240.0000000000244
  0
LINE
  5
26E3
330
26A7
100
AcDbEntity
  8
0
100
AcDbLine
 10
29.30199999996933
 20
8.763099999991255
 30
0.0
 11
30.74199999996927
 21
8.763099999991255
 31
0.0
1001
ACAD
1000
ASC_BOUNDS
1002
{
1070
    19
1005
26EC
1002
}
  0
LINE
  5
26E4
330
26A7
100
AcDbEntity
  8
0
100
AcDbLine
 10
30.74199999996927
 20
8.763099999991255
 30
0.0
 11
30.74199999996927
 21
2.373099999991211
 31
0.0
1001
ACAD
1000
ASC_BOUNDS
1002
{
1070
    19
1005
26EC
1002
}
  0
LINE
  5
26E5
330
26A7
100
AcDbEntity
  8
0
100
AcDbLine
 10
26.02015566812236
 20
0.0330999999912365
 30
0.0
 11
28.40199999996923
 21
0.0330999999912365
 31
0.0
1001
ACAD
1000
ASC_BOUNDS
1002
{
1070
    19
1005
26EC
1002
}
  0
LINE
  5
26E6
330
26A7
100
AcDbEntity
  8
0
100
AcDbLine
 10
29.30199999996933
 20
8.763099999991255
 30
0.0
 11
29.30199999996933
 21
2.283099999991236
 31
0.0
1001
ACAD
1000
ASC_BOUNDS
1002
{
1070
    19
1005
26EC
1002
}
  0
LINE
  5
26E7
330
26A7
100
AcDbEntity
  8
0
100
AcDbLine
 10
26.97358892824991
 20
1.383099999991202
 30
0.0
 11
28.40199999996923
 21
1.383099999991202
 31
0.0
1001
ACAD
1000
ASC_BOUNDS
1002
{
1070
    19
1005
26EC
1002
}
  0
ARC
  5
26E8
330
26A7
100
AcDbEntity
  8
0
100
AcDbCircle
 10
28.40199999996923
 20
2.283099999991236
 30
0.0
 40
0.9
100
AcDbArc
 50
270.0
 51
0.0
1001
ACAD
1000
ASC_BOUNDS
1002
{
1070
    19
1005
26EC
1002
}
  0
ARC
  5
26E9
330
26A7
100
AcDbEntity
  8
0
100
AcDbCircle
 10
28.40199999996923
 20
2.373099999991211
 30
0.0
 40
2.34
100
AcDbArc
 50
270.0
 51
0.0
1001
ACAD
1000
ASC_BOUNDS
1002
{
1070
    19
1005
26EC
1002
}
  0
INSERT
  5
26EA
330
26A7
100
AcDbEntity
  8
0
100
AcDbBlockReference
  2
*X86
 10
0.0
 20
0.0
 30
0.0
1001
ACAD
1000
HATCH
1002
{
1070
    19
1000
ANSI37
1040
0.15
1040
0.0
1000
ASC_BOUNDS
1070
     2
1070
     2
1070
    12
1005
26A9
1005
26AA
1005
26B1
1005
26C0
1005
26C3
1005
26C1
1005
26B2
1005
26B7
1005
26B5
1005
26B9
1005
26B8
1005
26BA
1070
     2
1070
     3
1005
26C5
1005
26C7
1005
26C6
1000
ASC_SEEDPOINT
1011
3.614004224891801
1021
2.996669441146025
1031
0.0
1000
R14_HATCH_DATA
1000
26EA
1011
1.0
1021
0.0
1031
0.0
1011
0.0
1021
1.0
1031
0.0
1011
0.0
1021
0.0
1031
1.0
1040
0.0
1010
0.0
1020
0.0
1030
1.0
1000
ANSI37
1070
     0
1070
     1
1071
        2
1071
        7
1070
     0
1070
     1
1071
       17
1040
13.26299999998673
1040
-0.0001000000000317
1040
9.236999999990758
1040
8.999899999990987
1040
9.236999999990758
1040
8.999999999991019
1040
5.657999999994331
1040
0.9999999999989768
1040
3.181999999996833
1040
4.668599999995308
1040
6.432999999993513
1040
8.763099999991255
1040
4.617999999995391
1040
8.763099999991255
1040
1.420999999998571
1040
4.736799999995242
1040
4.617999999995391
1040
-0.0001000000000317
1040
4.617999999995391
1040
0.0
1040
6.766999999993232
1040
0.0
1040
6.766999999993232
1040
-0.0001000000000317
1040
7.826999999992154
1040
2.368399999997621
1040
10.64699999998936
1040
2.368399999997621
1040
11.70599999998831
1040
-0.0001000000000317
1040
11.70599999998831
1040
0.0
1040
13.26299999998673
1040
0.0
1071
       12
1005
26A9
1005
26AA
1005
26B1
1005
26C0
1005
26C3
1005
26C1
1005
26B2
1005
26B7
1005
26B5
1005
26B9
1005
26B8
1005
26BA
1071
       22
1070
     0
1070
     1
1071
        3
1040
9.236999999990758
1040
5.5200999999945
1040
10.06399999998996
1040
3.670999999996297
1040
8.409999999991555
1040
3.670999999996297
1071
        3
1005
26C5
1005
26C7
1005
26C6
1070
     0
1070
     1
1040
0.0
1040
0.15
1070
     0
1070
     2
1040
0.7853981633974483
1040
49.29960901727088
1040
-10.17736998311392
1040
-0.3367596045400932
1040
0.3367596045400932
1070
     0
1040
2.356194490192345
1040
49.29960901727088
1040
-10.17736998311392
1040
-0.3367596045400932
1040
-0.3367596045400932
1070
     0
1040
0.0110235143455945
1071
        2
1040
3.614004224891801
1040
2.996669441146025
1040
0.0
1040
3.614004224891801
1040
2.996669441146025
1040
0.0
1002
}
  0
INSERT
  5
26EB
330
26A7
100
AcDbEntity
  8
0
100
AcDbBlockReference
  2
*X87
 10
0.0
 20
0.0
 30
0.0
1001
ACAD
1000
HATCH
1002
{
1070
    19
1000
ANSI37
1040
0.15
1040
0.0
1000
ASC_BOUNDS
1070
     1
1070
     2
1070
    10
1005
26AB
1005
26AC
1005
26CD
1005
26CB
1005
26CC
1005
26BF
1005
26C4
1005
26C8
1005
26AE
1005
26AD
1000
ASC_SEEDPOINT
1011
14.73245321214324
1021
2.798246178283421
1031
0.0
1000
R14_HATCH_DATA
1000
26EB
1011
1.0
1021
0.0
1031
0.0
1011
0.0
1021
1.0
1031
0.0
1011
0.0
1021
0.0
1031
1.0
1040
0.0
1010
0.0
1020
0.0
1030
1.0
1000
ANSI37
1070
     0
1070
     1
1071
        1
1071
        7
1070
     0
1070
     1
1071
       10
1040
16.46099999998353
1040
5.432899999994561
1040
18.59199999998134
1040
-0.2368999999997641
1040
22.38199999997767
1040
8.763099999991255
1040
20.89099999997916
1040
8.763099999991255
1040
18.59799999998143
1040
3.315799999996671
1040
16.46099999998353
1040
8.999899999990987
1040
14.32399999998563
1040
3.315799999996671
1040
12.02999999998792
1040
8.763099999991255
1040
10.53899999998941
1040
8.763099999991255
1040
14.32899999998563
1040
-0.2368999999997641
1071
       10
1005
26AB
1005
26AC
1005
26CD
1005
26CB
1005
26CC
1005
26BF
1005
26C4
1005
26C8
1005
26AE
1005
26AD
1070
     0
1070
     1
1040
0.0
1040
0.15
1070
     0
1070
     2
1040
0.7853981633974483
1040
49.29960901727088
1040
-10.17736998311392
1040
-0.3367596045400932
1040
0.3367596045400932
1070
     0
1040
2.356194490192345
1040
49.29960901727088
1040
-10.17736998311392
1040
-0.3367596045400932
1040
-0.3367596045400932
1070
     0
1040
0.0110235143455945
1071
        1
1040
14.73245321214324
1040
2.798246178283421
1040
0.0
1002
}
  0
INSERT
  5
26EC
330
26A7
100
AcDbEntity
  8
0
100
AcDbBlockReference
  2
*X88
 10
0.0
 20
0.0
 30
0.0
1001
ACAD
1000
HATCH
1002
{
1070
    19
1000
ANSI37
1040
0.15
1040
0.0
1000
ASC_BOUNDS
1070
     2
1070
     2
1070
    13
1005
26AF
1005
26BC
1005
26BD
1005
26BB
1005
26BE
1005
26E5
1005
26E9
1005
26E4
1005
26E3
1005
26E6
1005
26E8
1005
26E7
1005
26B0
1070
     2
1070
     3
1005
26C9
1005
26CE
1005
26CA
1000
ASC_SEEDPOINT
1011
21.97929957367762
1021
3.294304244259308
1031
0.0
1000
R14_HATCH_DATA
1000
26EC
1011
1.0
1021
0.0
1031
0.0
1011
0.0
1021
1.0
1031
0.0
1011
0.0
1021
0.0
1031
1.0
1040
0.0
1010
0.0
1020
0.0
1030
1.0
1000
ANSI37
1070
     0
1070
     1
1071
        2
1071
        7
1070
     1
1070
     1
1071
       15
1040
23.56599999997638
1040
8.999899999990987
1040
0.0
1040
19.53899999998043
1040
-0.0001000000000317
1040
0.0
1040
19.53899999998043
1040
0.0
1040
0.0
1040
21.09599999997886
1040
0.0
1040
0.0
1040
21.09599999997886
1040
-0.0001000000000317
1040
0.0
1040
22.15599999997789
1040
2.368399999997621
1040
0.0
1040
24.97599999997499
1040
2.368399999997621
1040
0.0
1040
26.02015566812236
1040
0.0330999999912365
1040
0.0
1040
28.40199999996923
1040
0.0330999999912365
1040
0.414213562373095
1040
30.74199999996923
1040
2.373099999991211
1040
0.0
1040
30.74199999996927
1040
8.763099999991255
1040
0.0
1040
29.30199999996933
1040
8.763099999991255
1040
0.0
1040
29.30199999996933
1040
2.283099999991236
1040
-0.414213562373095
1040
28.40199999996923
1040
1.383099999991237
1040
0.0
1040
26.97358892824991
1040
1.383099999991202
1040
0.0
1071
       13
1005
26AF
1005
26BC
1005
26BD
1005
26BB
1005
26BE
1005
26E5
1005
26E9
1005
26E4
1005
26E3
1005
26E6
1005
26E8
1005
26E7
1005
26B0
1071
       22
1070
     0
1070
     1
1071
        3
1040
22.7389999999773
1040
3.670999999996297
1040
23.56599999997638
1040
5.5200999999945
1040
24.39299999997559
1040
3.670999999996297
1071
        3
1005
26C9
1005
26CE
1005
26CA
1070
     0
1070
     1
1040
0.0
1040
0.15
1070
     0
1070
     2
1040
0.7853981633974483
1040
49.29960901727088
1040
-10.17736998311392
1040
-0.3367596045400932
1040
0.3367596045400932
1070
     0
1040
2.356194490192345
1040
49.29960901727088
1040
-10.17736998311392
1040
-0.3367596045400932
1040
-0.3367596045400932
1070
     0
1040
0.0110235143455945
1071
        2
1040
21.97929957367762
1040
3.294304244259308
1040
0.0
1040
21.97929957367762
1040
3.294304244259308
1040
0.0
1002
}
  0
INSERT
  5
26ED
330
26A7
100
AcDbEntity
  8
0
100
AcDbBlockReference
  2
*X89
 10
0.0
 20
0.0
 30
0.0
1001
ACAD
1000
HATCH
1002
{
1070
    19
1000
ANSI37
1040
0.15
1040
0.0
1000
R14_HATCH_DATA
1000
26ED
1011
1.0
1021
0.0
1031
0.0
1011
0.0
1021
1.0
1031
0.0
1011
0.0
1021
0.0
1031
1.0
1040
0.0
1010
0.0
1020
0.0
1030
1.0
1000
ANSI37
1070
     0
1070
     1
1071
        1
1071
        7
1070
     1
1070
     1
1071
       12
1040
31.64199999996833
1040
2.481619422925121
1040
0.2679491924310942
1040
32.94699999997067
1040
0.2212931190493919
1040
0.2679491924301353
1040
36.36699999995983
1040
0.2212931190459813
1040
0.2679491924321411
1040
37.67199999996831
1040
2.481619422928361
1040
0.0
1040
37.67199999996831
1040
8.763099999991255
1040
0.0
1040
36.23199999996837
1040
8.763099999991255
1040
0.0
1040
36.23199999996837
1040
2.481619422925064
1040
-0.2679491924310291
1040
35.64699999996708
1040
1.468369700498386
1040
-0.267949192430519
1040
33.66699999997093
1040
1.468369700497703
1040
-0.267949192431809
1040
33.08199999996839
1040
2.481619422926997
1040
0.0
1040
33.08199999996839
1040
8.763099999991255
1040
0.0
1040
31.64199999996833
1040
8.763099999991255
1040
0.0
1071
        0
1070
     0
1070
     1
1040
0.0
1040
0.15
1070
     0
1070
     2
1040
0.7853981633974483
1040
49.29960901727088
1040
-10.17736998311392
1040
-0.3367596045400932
1040
0.3367596045400932
1070
     0
1040
2.356194490192345
1040
49.29960901727088
1040
-10.17736998311392
1040
-0.3367596045400932
1040
-0.3367596045400932
1070
     0
1040
0.0110235143455945
1071
        1
1040
32.30357378967278
1040
3.988785755459219
1040
0.0
1002
}
  0
INSERT
  5
26EE
330
26A7
100
AcDbEntity
  8
0
100
AcDbBlockReference
  2
*X90
 10
0.0
 20
0.0
 30
0.0
1001
ACAD
1000
HATCH
1002
{
1070
    19
1000
ANSI37
1040
0.15
1040
0.0
1000
ASC_BOUNDS
1070
     1
1070
     2
1070
     8
1005
26CF
1005
26D2
1005
26D6
1005
26D5
1005
26D4
1005
26D1
1005
26D3
1005
26D0
1000
ASC_SEEDPOINT
1011
39.74896370716704
1021
4.484843821435049
1031
0.0
1000
R14_HATCH_DATA
1000
26EE
1011
1.0
1021
0.0
1031
0.0
1011
0.0
1021
1.0
1031
0.0
1011
0.0
1021
0.0
1031
1.0
1040
0.0
1010
0.0
1020
0.0
1030
1.0
1000
ANSI37
1070
     0
1070
     1
1071
        1
1071
        7
1070
     0
1070
     1
1071
        9
1040
40.02599999995994
1040
5.341799999994635
1040
44.99999999995498
1040
-0.2368999999997641
1040
44.99999999995498
1040
8.763099999991255
1040
43.57899999995641
1040
8.763099999991255
1040
43.57899999995641
1040
3.421199999996588
1040
38.60499999996136
1040
8.999899999990987
1040
38.60499999996136
1040
8.999999999991019
1040
38.60499999996136
1040
0.0
1040
40.02599999995994
1040
0.0
1071
        8
1005
26CF
1005
26D2
1005
26D6
1005
26D5
1005
26D4
1005
26D1
1005
26D3
1005
26D0
1070
     0
1070
     1
1040
0.0
1040
0.15
1070
     0
1070
     2
1040
0.7853981633974483
1040
49.29960901727088
1040
-10.17736998311392
1040
-0.3367596045400932
1040
0.3367596045400932
1070
     0
1040
2.356194490192345
1040
49.29960901727088
1040
-10.17736998311392
1040
-0.3367596045400932
1040
-0.3367596045400932
1070
     0
1040
0.0110235143455945
1071
        1
1040
39.74896370716704
1040
4.484843821435049
1040
0.0
1002
}
  0
INSERT
  5
26EF
330
26A7
100
AcDbEntity
  8
0
100
AcDbBlockReference
  2
*X91
 10
0.0
 20
0.0
 30
0.0
1001
ACAD
1000
HATCH
1002
{
1070
    19
1000
ANSI37
1040
0.15
1040
0.0
1000
ASC_BOUNDS
1070
     1
1070
     2
1070
     4
1005
26B3
1005
26C2
1005
26B4
1005
26B6
1000
ASC_SEEDPOINT
1011
1.079051535452663
1021
4.148538732891836
1031
0.0
1000
R14_HATCH_DATA
1000
26EF
1011
1.0
1021
0.0
1031
0.0
1011
0.0
1021
1.0
1031
0.0
1011
0.0
1021
0.0
1031
1.0
1040
0.0
1010
0.0
1020
0.0
1030
1.0
1000
ANSI37
1070
     0
1070
     1
1071
        1
1071
        7
1070
     0
1070
     1
1071
        4
1040
1.420999999998571
1040
0.0
1040
1.420999999998571
1040
8.763099999991255
1040
0.0
1040
8.763099999991255
1040
0.0
1040
0.0
1071
        4
1005
26B3
1005
26C2
1005
26B4
1005
26B6
1070
     0
1070
     1
1040
0.0
1040
0.15
1070
     0
1070
     2
1040
0.7853981633974483
1040
49.29960901727088
1040
-10.17736998311392
1040
-0.3367596045400932
1040
0.3367596045400932
1070
     0
1040
2.356194490192345
1040
49.29960901727088
1040
-10.17736998311392
1040
-0.3367596045400932
1040
-0.3367596045400932
1070
     0
1040
0.0053004257112761
1071
        1
1040
1.079051535452663
1040
4.148538732891836
1040
0.0
1002
}
  0
ENDBLK
  5
2DA9
330
26A7
100
AcDbEntity
  8
0
100
AcDbBlockEnd
  0
BLOCK
  5
313D
330
2FAF
100
AcDbEntity
  8
0
100
AcDbBlockBegin
  2
*X86
 70
     1
 10
0.0
 20
0.0
 30
0.0
  3
*X86
  1

  0
LINE
  5
2FB0
330
2FAF
100
AcDbEntity
  8
0
  6
CONTINUOUS
100
AcDbLine
 10
3.418023043697893
 20
7.251849696850613
 30
0.0
 11
4.929273346838536
 21
8.763099999991255
 31
0.0
  0
LINE
  5
2FB1
330
2FAF
100
AcDbEntity
  8
0
  6
CONTINUOUS
100
AcDbLine
 10
1.483656411257782
 20
4.643963855330318
 30
0.0
 11
5.60279255591872
 21
8.763099999991255
 31
0.0
  0
LINE
  5
2FB2
330
2FAF
100
AcDbEntity
  8
0
  6
CONTINUOUS
100
AcDbLine
 10
1.755053947328235
 20
4.241842182320584
 30
0.0
 11
6.276311764998907
 21
8.763099999991255
 31
0.0
  0
LINE
  5
2FB3
330
2FAF
100
AcDbEntity
  8
0
  6
CONTINUOUS
100
AcDbLine
 10
2.026451483398688
 20
3.839720509310849
 30
0.0
 11
4.441040904851878
 21
6.254309930764039
 31
0.0
  0
LINE
  5
2FB4
330
2FAF
100
AcDbEntity
  8
0
  6
CONTINUOUS
100
AcDbLine
 10
2.297849019469139
 20
3.437598836301114
 30
0.0
 11
3.321765168359338
 21
4.461514985191313
 31
0.0
  0
LINE
  5
2FB5
330
2FAF
100
AcDbEntity
  8
0
  6
CONTINUOUS
100
AcDbLine
 10
2.569246555539591
 20
3.03547716329138
 30
0.0
 11
3.593163397972743
 21
4.059394005724531
 31
0.0
  0
LINE
  5
2FB6
330
2FAF
100
AcDbEntity
  8
0
  6
CONTINUOUS
100
AcDbLine
 10
2.840644091610043
 20
2.633355490281646
 30
0.0
 11
3.864561627586149
 21
3.657273026257751
 31
0.0
  0
LINE
  5
2FB7
330
2FAF
100
AcDbEntity
  8
0
  6
CONTINUOUS
100
AcDbLine
 10
3.112041627680496
 20
2.231233817271911
 30
0.0
 11
4.135959857199554
 21
3.25515204679097
 31
0.0
  0
LINE
  5
2FB8
330
2FAF
100
AcDbEntity
  8
0
  6
CONTINUOUS
100
AcDbLine
 10
3.383439163750948
 20
1.829112144262177
 30
0.0
 11
4.40735808681296
 21
2.853031067324189
 31
0.0
  0
LINE
  5
2FB9
330
2FAF
100
AcDbEntity
  8
0
  6
CONTINUOUS
100
AcDbLine
 10
3.654836699821399
 20
1.426990471252442
 30
0.0
 11
4.678756316426365
 21
2.450910087857407
 31
0.0
  0
LINE
  5
2FBA
330
2FAF
100
AcDbEntity
  8
0
  6
CONTINUOUS
100
AcDbLine
 10
3.926234235891853
 20
1.024868798242709
 30
0.0
 11
4.95015454603977
 21
2.048789108390626
 31
0.0
  0
LINE
  5
2FBB
330
2FAF
100
AcDbEntity
  8
0
  6
CONTINUOUS
100
AcDbLine
 10
4.197631771962304
 20
0.6227471252329737
 30
0.0
 11
5.221552775653176
 21
1.646668128923846
 31
0.0
  0
LINE
  5
2FBC
330
2FAF
100
AcDbEntity
  8
0
  6
CONTINUOUS
100
AcDbLine
 10
8.715877546767851
 20
7.835069736359266
 30
0.0
 11
9.435953450375058
 21
8.555145639966472
 31
0.0
  0
LINE
  5
2FBD
330
2FAF
100
AcDbEntity
  8
0
  6
CONTINUOUS
100
AcDbLine
 10
8.170620868422267
 20
6.616293848933497
 30
0.0
 11
9.644120833743461
 21
8.08979381425469
 31
0.0
  0
LINE
  5
2FBE
330
2FAF
100
AcDbEntity
  8
0
  6
CONTINUOUS
100
AcDbLine
 10
7.625364190076684
 20
5.397517961507727
 30
0.0
 11
9.852288217111864
 21
7.624441988542907
 31
0.0
  0
LINE
  5
2FBF
330
2FAF
100
AcDbEntity
  8
0
  6
CONTINUOUS
100
AcDbLine
 10
7.080107511731101
 20
4.178742074081957
 30
0.0
 11
10.06045560048027
 21
7.159090162831124
 31
0.0
  0
LINE
  5
2FC0
330
2FAF
100
AcDbEntity
  8
0
  6
CONTINUOUS
100
AcDbLine
 10
6.534850833385518
 20
2.959966186656187
 30
0.0
 11
10.26862298384867
 21
6.693738337119342
 31
0.0
  0
LINE
  5
2FC1
330
2FAF
100
AcDbEntity
  8
0
  6
CONTINUOUS
100
AcDbLine
 10
4.469029308032756
 20
0.2206254522232385
 30
0.0
 11
5.492951005266582
 21
1.244547149457064
 31
0.0
  0
LINE
  5
2FC2
330
2FAF
100
AcDbEntity
  8
0
  6
CONTINUOUS
100
AcDbLine
 10
5.989594155039935
 20
1.741190299230417
 30
0.0
 11
8.806950407233131
 21
4.558546551423613
 31
0.0
  0
LINE
  5
2FC3
330
2FAF
100
AcDbEntity
  8
0
  6
CONTINUOUS
100
AcDbLine
 10
9.401251593263643
 20
5.152847737454126
 30
0.0
 11
10.47679036721708
 21
6.228386511407559
 31
0.0
  0
LINE
  5
2FC4
330
2FAF
100
AcDbEntity
  8
0
  6
CONTINUOUS
100
AcDbLine
 10
4.921837203428691
 20
-0.0000858614610131
 30
0.0
 11
8.592923064886001
 21
3.670999999996297
 31
0.0
  0
LINE
  5
2FC5
330
2FAF
100
AcDbEntity
  8
0
  6
CONTINUOUS
100
AcDbLine
 10
9.609390446785305
 20
4.6874673818956
 30
0.0
 11
10.68495775058548
 21
5.763034685695775
 31
0.0
  0
LINE
  5
2FC6
330
2FAF
100
AcDbEntity
  8
0
  6
CONTINUOUS
100
AcDbLine
 10
5.595387755019432
 20
-0.0000545189504582
 30
0.0
 11
7.716137258923768
 21
2.120694984953879
 31
0.0
  0
LINE
  5
2FC7
330
2FAF
100
AcDbEntity
  8
0
  6
CONTINUOUS
100
AcDbLine
 10
6.268938306610172
 20
-0.000023176439905
 30
0.0
 11
7.170485805526503
 21
0.9015243224764267
 31
0.0
  0
LINE
  5
2FC8
330
2FAF
100
AcDbEntity
  8
0
  6
CONTINUOUS
100
AcDbLine
 10
7.963842273967511
 20
2.368399999997621
 30
0.0
 11
9.266442273966188
 21
3.670999999996297
 31
0.0
  0
LINE
  5
2FC9
330
2FAF
100
AcDbEntity
  8
0
  6
CONTINUOUS
100
AcDbLine
 10
8.637361483047696
 20
2.368399999997621
 30
0.0
 11
9.939961483046375
 21
3.670999999996297
 31
0.0
  0
LINE
  5
2FCA
330
2FAF
100
AcDbEntity
  8
0
  6
CONTINUOUS
100
AcDbLine
 10
9.817529300306965
 20
4.222087026337075
 30
0.0
 11
10.89312513395388
 21
5.297682859983993
 31
0.0
  0
LINE
  5
2FCB
330
2FAF
100
AcDbEntity
  8
0
  6
CONTINUOUS
100
AcDbLine
 10
10.02566815382863
 20
3.756706670778549
 30
0.0
 11
11.10129251732229
 21
4.832331034272211
 31
0.0
  0
LINE
  5
2FCC
330
2FAF
100
AcDbEntity
  8
0
  6
CONTINUOUS
100
AcDbLine
 10
9.310880692127883
 20
2.368399999997621
 30
0.0
 11
11.30945990069069
 21
4.366979208560428
 31
0.0
  0
LINE
  5
2FCD
330
2FAF
100
AcDbEntity
  8
0
  6
CONTINUOUS
100
AcDbLine
 10
9.98439990120807
 20
2.36839999999762
 30
0.0
 11
11.5176272840591
 21
3.901627382848645
 31
0.0
  0
LINE
  5
2FCE
330
2FAF
100
AcDbEntity
  8
0
  6
CONTINUOUS
100
AcDbLine
 10
10.65037369446246
 20
2.36085458417182
 30
0.0
 11
11.7257946674275
 21
3.436275557136862
 31
0.0
  0
LINE
  5
2FCF
330
2FAF
100
AcDbEntity
  8
0
  6
CONTINUOUS
100
AcDbLine
 10
10.85847197087848
 20
1.895433651507656
 30
0.0
 11
11.9339620507959
 21
2.97092373142508
 31
0.0
  0
LINE
  5
2FD0
330
2FAF
100
AcDbEntity
  8
0
  6
CONTINUOUS
100
AcDbLine
 10
11.0665702472945
 20
1.430012718843491
 30
0.0
 11
12.14212943416431
 21
2.505571905713296
 31
0.0
  0
LINE
  5
2FD1
330
2FAF
100
AcDbEntity
  8
0
  6
CONTINUOUS
100
AcDbLine
 10
11.27466852371052
 20
0.9645917861793256
 30
0.0
 11
12.35029681753271
 21
2.040220080001513
 31
0.0
  0
LINE
  5
2FD2
330
2FAF
100
AcDbEntity
  8
0
  6
CONTINUOUS
100
AcDbLine
 10
11.48276680012654
 20
0.4991708535151611
 30
0.0
 11
12.55846420090111
 21
1.57486825428973
 31
0.0
  0
LINE
  5
2FD3
330
2FAF
100
AcDbEntity
  8
0
  6
CONTINUOUS
100
AcDbLine
 10
11.69086507654257
 20
0.0337499208509957
 30
0.0
 11
12.76663158426952
 21
1.109516428577947
 31
0.0
  0
LINE
  5
2FD4
330
2FAF
100
AcDbEntity
  8
0
  6
CONTINUOUS
100
AcDbLine
 10
12.33057447873954
 20
-0.0000598860322123
 30
0.0
 11
12.97479896763792
 21
0.6441646028661663
 31
0.0
  0
LINE
  5
2FD5
330
2FAF
100
AcDbEntity
  8
0
  6
CONTINUOUS
100
AcDbLine
 10
13.00413694809395
 20
-0.0000166257579952
 30
0.0
 11
13.18296635100632
 21
0.1788127771543824
 31
0.0
  0
LINE
  5
2FD6
330
2FAF
100
AcDbEntity
  8
0
  6
CONTINUOUS
100
AcDbLine
 10
4.772852165289667
 20
-0.000092794222212
 30
0.0
 11
4.296495091028902
 21
0.4762642800385528
 31
0.0
  0
LINE
  5
2FD7
330
2FAF
100
AcDbEntity
  8
0
  6
CONTINUOUS
100
AcDbLine
 10
5.446340034776103
 20
-0.0000614546284616
 30
0.0
 11
2.898195908335625
 21
2.548082671812017
 31
0.0
  0
LINE
  5
2FD8
330
2FAF
100
AcDbEntity
  8
0
  6
CONTINUOUS
100
AcDbLine
 10
6.119827904262539
 20
-0.0000301150347113
 30
0.0
 11
1.499896725642348
 21
4.61990106358548
 31
0.0
  0
LINE
  5
2FD9
330
2FAF
100
AcDbEntity
  8
0
  6
CONTINUOUS
100
AcDbLine
 10
6.775136745476159
 20
0.0181802528318542
 30
0.0
 11
5.699826040202669
 21
1.093490958105344
 31
0.0
  0
LINE
  5
2FDA
330
2FAF
100
AcDbEntity
  8
0
  6
CONTINUOUS
100
AcDbLine
 10
6.983376846288489
 20
0.4834593610997118
 30
0.0
 11
5.908008617934405
 21
1.558827589453796
 31
0.0
  0
LINE
  5
2FDB
330
2FAF
100
AcDbEntity
  8
0
  6
CONTINUOUS
100
AcDbLine
 10
5.377063484962296
 20
1.416253513345719
 30
0.0
 11
1.702276957014131
 21
5.091040041293883
 31
0.0
  0
LINE
  5
2FDC
330
2FAF
100
AcDbEntity
  8
0
  6
CONTINUOUS
100
AcDbLine
 10
3.978745891735324
 20
3.488090315652877
 30
0.0
 11
2.000373521109399
 21
5.466462686278803
 31
0.0
  0
LINE
  5
2FDD
330
2FAF
100
AcDbEntity
  8
0
  6
CONTINUOUS
100
AcDbLine
 10
7.191616947100819
 20
0.948738469367568
 30
0.0
 11
6.11619119566614
 21
2.024164220802247
 31
0.0
  0
LINE
  5
2FDE
330
2FAF
100
AcDbEntity
  8
0
  6
CONTINUOUS
100
AcDbLine
 10
7.399857047913149
 20
1.414017577635424
 30
0.0
 11
6.324373773397875
 21
2.489500852150698
 31
0.0
  0
LINE
  5
2FDF
330
2FAF
100
AcDbEntity
  8
0
  6
CONTINUOUS
100
AcDbLine
 10
7.608097148725479
 20
1.879296685903281
 30
0.0
 11
6.53255635112961
 21
2.95483748349915
 31
0.0
  0
LINE
  5
2FE0
330
2FAF
100
AcDbEntity
  8
0
  6
CONTINUOUS
100
AcDbLine
 10
7.816337249537808
 20
2.344575794171138
 30
0.0
 11
6.740738928861345
 21
3.420174114847601
 31
0.0
  0
LINE
  5
2FE1
330
2FAF
100
AcDbEntity
  8
0
  6
CONTINUOUS
100
AcDbLine
 10
3.310241080789734
 20
4.830114335678653
 30
0.0
 11
2.298470085204666
 21
5.84188533126372
 31
0.0
  0
LINE
  5
2FE2
330
2FAF
100
AcDbEntity
  8
0
  6
CONTINUOUS
100
AcDbLine
 10
3.60832983563551
 20
5.205544789913063
 30
0.0
 11
2.596566649299935
 21
6.217307976248638
 31
0.0
  0
LINE
  5
2FE3
330
2FAF
100
AcDbEntity
  8
0
  6
CONTINUOUS
100
AcDbLine
 10
3.906418590481286
 20
5.580975244147473
 30
0.0
 11
2.894663213395203
 21
6.592730621233557
 31
0.0
  0
LINE
  5
2FE4
330
2FAF
100
AcDbEntity
  8
0
  6
CONTINUOUS
100
AcDbLine
 10
4.204507345327062
 20
5.956405698381884
 30
0.0
 11
3.192759777490472
 21
6.968153266218474
 31
0.0
  0
LINE
  5
2FE5
330
2FAF
100
AcDbEntity
  8
0
  6
CONTINUOUS
100
AcDbLine
 10
8.466032252791512
 20
2.368399999997621
 30
0.0
 11
6.948921506593081
 21
3.885510746196053
 31
0.0
  0
LINE
  5
2FE6
330
2FAF
100
AcDbEntity
  8
0
  6
CONTINUOUS
100
AcDbLine
 10
9.139551461871699
 20
2.36839999999762
 30
0.0
 11
7.157104084324816
 21
4.350847377544504
 31
0.0
  0
LINE
  5
2FE7
330
2FAF
100
AcDbEntity
  8
0
  6
CONTINUOUS
100
AcDbLine
 10
4.502596100172839
 20
6.331836152616295
 30
0.0
 11
3.49085634158574
 21
7.343575911203393
 31
0.0
  0
LINE
  5
2FE8
330
2FAF
100
AcDbEntity
  8
0
  6
CONTINUOUS
100
AcDbLine
 10
4.800684855018615
 20
6.707266606850705
 30
0.0
 11
3.788952905681008
 21
7.718998556188312
 31
0.0
  0
LINE
  5
2FE9
330
2FAF
100
AcDbEntity
  8
0
  6
CONTINUOUS
100
AcDbLine
 10
12.18154012887317
 20
-0.0000694579236642
 30
0.0
 11
11.32140332908496
 21
0.8600673418645499
 31
0.0
  0
LINE
  5
2FEA
330
2FAF
100
AcDbEntity
  8
0
  6
CONTINUOUS
100
AcDbLine
 10
12.85501608323566
 20
-0.0000262032059659
 30
0.0
 11
10.77672456435345
 21
2.078265315676246
 31
0.0
  0
LINE
  5
2FEB
330
2FAF
100
AcDbEntity
  8
0
  6
CONTINUOUS
100
AcDbLine
 10
9.813070670951886
 20
2.36839999999762
 30
0.0
 11
8.51047067095321
 21
3.670999999996297
 31
0.0
  0
LINE
  5
2FEC
330
2FAF
100
AcDbEntity
  8
0
  6
CONTINUOUS
100
AcDbLine
 10
10.48658988003207
 20
2.36839999999762
 30
0.0
 11
9.183989880033396
 21
3.670999999996297
 31
0.0
  0
LINE
  5
2FED
330
2FAF
100
AcDbEntity
  8
0
  6
CONTINUOUS
100
AcDbLine
 10
8.441048632286794
 20
3.740422038662712
 30
0.0
 11
7.365286662056551
 21
4.816184008892956
 31
0.0
  0
LINE
  5
2FEE
330
2FAF
100
AcDbEntity
  8
0
  6
CONTINUOUS
100
AcDbLine
 10
8.649187485808454
 20
4.205802394221237
 30
0.0
 11
7.573469239788285
 21
5.281520640241407
 31
0.0
  0
LINE
  5
2FEF
330
2FAF
100
AcDbEntity
  8
0
  6
CONTINUOUS
100
AcDbLine
 10
5.098773609864391
 20
7.082697061085115
 30
0.0
 11
4.087049469776277
 21
8.09442120117323
 31
0.0
  0
LINE
  5
2FF0
330
2FAF
100
AcDbEntity
  8
0
  6
CONTINUOUS
100
AcDbLine
 10
5.396862364710167
 20
7.458127515319526
 30
0.0
 11
4.385146033871544
 21
8.469843846158149
 31
0.0
  0
LINE
  5
2FF1
330
2FAF
100
AcDbEntity
  8
0
  6
CONTINUOUS
100
AcDbLine
 10
13.04801363231285
 20
0.4804954567970334
 30
0.0
 11
9.85750908911358
 21
3.670999999996297
 31
0.0
  0
LINE
  5
2FF2
330
2FAF
100
AcDbEntity
  8
0
  6
CONTINUOUS
100
AcDbLine
 10
8.857326339330116
 20
4.671182749779763
 30
0.0
 11
7.781651817520021
 21
5.746857271589858
 31
0.0
  0
LINE
  5
2FF3
330
2FAF
100
AcDbEntity
  8
0
  6
CONTINUOUS
100
AcDbLine
 10
5.694951119555943
 20
7.833557969553937
 30
0.0
 11
4.765409089118624
 21
8.763099999991255
 31
0.0
  0
LINE
  5
2FF4
330
2FAF
100
AcDbEntity
  8
0
  6
CONTINUOUS
100
AcDbLine
 10
12.50286117236978
 20
1.699167125820288
 30
0.0
 11
9.68611877250287
 21
4.515909525687196
 31
0.0
  0
LINE
  5
2FF5
330
2FAF
100
AcDbEntity
  8
0
  6
CONTINUOUS
100
AcDbLine
 10
9.065465192851777
 20
5.136563105338288
 30
0.0
 11
7.989834395251757
 21
6.21219390293831
 31
0.0
  0
LINE
  5
2FF6
330
2FAF
100
AcDbEntity
  8
0
  6
CONTINUOUS
100
AcDbLine
 10
5.993039874401719
 20
8.208988423788346
 30
0.0
 11
5.43892829819881
 21
8.763099999991255
 31
0.0
  0
LINE
  5
2FF7
330
2FAF
100
AcDbEntity
  8
0
  6
CONTINUOUS
100
AcDbLine
 10
11.95770871242671
 20
2.917838794843543
 30
0.0
 11
8.19801697298349
 21
6.677530534286761
 31
0.0
  0
LINE
  5
2FF8
330
2FAF
100
AcDbEntity
  8
0
  6
CONTINUOUS
100
AcDbLine
 10
6.291128629247495
 20
8.584418878022756
 30
0.0
 11
6.112447507278997
 21
8.763099999991255
 31
0.0
  0
LINE
  5
2FF9
330
2FAF
100
AcDbEntity
  8
0
  6
CONTINUOUS
100
AcDbLine
 10
11.41255625248364
 20
4.136510463866797
 30
0.0
 11
8.406199550715227
 21
7.142867165635211
 31
0.0
  0
LINE
  5
2FFA
330
2FAF
100
AcDbEntity
  8
0
  6
CONTINUOUS
100
AcDbLine
 10
10.86740379254057
 20
5.355182132890051
 30
0.0
 11
8.614382128446962
 21
7.608203796983664
 31
0.0
  0
LINE
  5
2FFB
330
2FAF
100
AcDbEntity
  8
0
  6
CONTINUOUS
100
AcDbLine
 10
10.3222513325975
 20
6.573853801913305
 30
0.0
 11
8.822564706178696
 21
8.073540428332114
 31
0.0
  0
LINE
  5
2FFC
330
2FAF
100
AcDbEntity
  8
0
  6
CONTINUOUS
100
AcDbLine
 10
9.777098872654436
 20
7.792525470936562
 30
0.0
 11
9.030747283910433
 21
8.538877059680566
 31
0.0
  0
ENDBLK
  5
313E
330
2FAF
100
AcDbEntity
  8
0
100
AcDbBlockEnd
  0
BLOCK
  5
313F
330
2FFD
100
AcDbEntity
  8
0
100
AcDbBlockBegin
  2
*X87
 70
     1
 10
0.0
 20
0.0
 30
0.0
  3
*X87
  1

  0
LINE
  5
2FFE
330
2FFD
100
AcDbEntity
  8
0
  6
CONTINUOUS
100
AcDbLine
 10
10.67292308101235
 20
8.445076852443387
 30
0.0
 11
10.99094622856022
 21
8.763099999991255
 31
0.0
  0
LINE
  5
2FFF
330
2FFD
100
AcDbEntity
  8
0
  6
CONTINUOUS
100
AcDbLine
 10
10.87250383178748
 20
7.971138394138331
 30
0.0
 11
11.6644654376404
 21
8.763099999991255
 31
0.0
  0
LINE
  5
3000
330
2FFD
100
AcDbEntity
  8
0
  6
CONTINUOUS
100
AcDbLine
 10
11.07208458256261
 20
7.497199935833273
 30
0.0
 11
12.12126590876355
 21
8.546381262034211
 31
0.0
  0
LINE
  5
3001
330
2FFD
100
AcDbEntity
  8
0
  6
CONTINUOUS
100
AcDbLine
 10
11.27166533333774
 20
7.023261477528216
 30
0.0
 11
12.32085164573666
 21
8.072447789927136
 31
0.0
  0
LINE
  5
3002
330
2FFD
100
AcDbEntity
  8
0
  6
CONTINUOUS
100
AcDbLine
 10
11.47124608411287
 20
6.549323019223158
 30
0.0
 11
12.52043738270977
 21
7.59851431782006
 31
0.0
  0
LINE
  5
3003
330
2FFD
100
AcDbEntity
  8
0
  6
CONTINUOUS
100
AcDbLine
 10
11.670826834888
 20
6.075384560918101
 30
0.0
 11
12.72002311968288
 21
7.124580845712984
 31
0.0
  0
LINE
  5
3004
330
2FFD
100
AcDbEntity
  8
0
  6
CONTINUOUS
100
AcDbLine
 10
11.87040758566313
 20
5.601446102613043
 30
0.0
 11
12.91960885665599
 21
6.650647373605907
 31
0.0
  0
LINE
  5
3005
330
2FFD
100
AcDbEntity
  8
0
  6
CONTINUOUS
100
AcDbLine
 10
12.06998833643825
 20
5.127507644307986
 30
0.0
 11
13.1191945936291
 21
6.176713901498832
 31
0.0
  0
LINE
  5
3006
330
2FFD
100
AcDbEntity
  8
0
  6
CONTINUOUS
100
AcDbLine
 10
12.26956908721338
 20
4.65356918600293
 30
0.0
 11
13.31878033060221
 21
5.702780429391757
 31
0.0
  0
LINE
  5
3007
330
2FFD
100
AcDbEntity
  8
0
  6
CONTINUOUS
100
AcDbLine
 10
12.46914983798851
 20
4.179630727697873
 30
0.0
 11
13.51836606757532
 21
5.228846957284683
 31
0.0
  0
LINE
  5
3008
330
2FFD
100
AcDbEntity
  8
0
  6
CONTINUOUS
100
AcDbLine
 10
12.66873058876364
 20
3.705692269392816
 30
0.0
 11
13.71795180454843
 21
4.754913485177607
 31
0.0
  0
LINE
  5
3009
330
2FFD
100
AcDbEntity
  8
0
  6
CONTINUOUS
100
AcDbLine
 10
12.86831133953877
 20
3.231753811087759
 30
0.0
 11
13.91753754152154
 21
4.280980013070531
 31
0.0
  0
LINE
  5
300A
330
2FFD
100
AcDbEntity
  8
0
  6
CONTINUOUS
100
AcDbLine
 10
13.0678920903139
 20
2.757815352782702
 30
0.0
 11
14.11712327849465
 21
3.807046540963456
 31
0.0
  0
LINE
  5
300B
330
2FFD
100
AcDbEntity
  8
0
  6
CONTINUOUS
100
AcDbLine
 10
13.26747284108903
 20
2.283876894477644
 30
0.0
 11
14.31670901546777
 21
3.333113068856379
 31
0.0
  0
LINE
  5
300C
330
2FFD
100
AcDbEntity
  8
0
  6
CONTINUOUS
100
AcDbLine
 10
16.36767838827179
 20
8.751678487061342
 30
0.0
 11
16.50332410898388
 21
8.887324207773432
 31
0.0
  0
LINE
  5
300D
330
2FFD
100
AcDbEntity
  8
0
  6
CONTINUOUS
100
AcDbLine
 10
15.96190732182191
 20
7.67238821153127
 30
0.0
 11
16.68735328004734
 21
8.397834169756699
 31
0.0
  0
LINE
  5
300E
330
2FFD
100
AcDbEntity
  8
0
  6
CONTINUOUS
100
AcDbLine
 10
15.55613625537202
 20
6.593097936001196
 30
0.0
 11
16.87138245111079
 21
7.908344131739965
 31
0.0
  0
LINE
  5
300F
330
2FFD
100
AcDbEntity
  8
0
  6
CONTINUOUS
100
AcDbLine
 10
15.15036518892213
 20
5.513807660471122
 30
0.0
 11
17.05541162217424
 21
7.418854093723231
 31
0.0
  0
LINE
  5
3010
330
2FFD
100
AcDbEntity
  8
0
  6
CONTINUOUS
100
AcDbLine
 10
14.74459412247225
 20
4.434517384941048
 30
0.0
 11
17.2394407932377
 21
6.929364055706499
 31
0.0
  0
LINE
  5
3011
330
2FFD
100
AcDbEntity
  8
0
  6
CONTINUOUS
100
AcDbLine
 10
14.33882305602236
 20
3.355227109410975
 30
0.0
 11
17.42346996430115
 21
6.439874017689766
 31
0.0
  0
LINE
  5
3012
330
2FFD
100
AcDbEntity
  8
0
  6
CONTINUOUS
100
AcDbLine
 10
13.46705359186416
 20
1.809938436172586
 30
0.0
 11
16.0819338255367
 21
4.424818669845129
 31
0.0
  0
LINE
  5
3013
330
2FFD
100
AcDbEntity
  8
0
  6
CONTINUOUS
100
AcDbLine
 10
16.63283254238972
 20
4.975717386698149
 30
0.0
 11
17.60749913536461
 21
5.950383979673033
 31
0.0
  0
LINE
  5
3014
330
2FFD
100
AcDbEntity
  8
0
  6
CONTINUOUS
100
AcDbLine
 10
13.66663434263929
 20
1.335999977867529
 30
0.0
 11
15.67604797733754
 21
3.345413612565779
 31
0.0
  0
LINE
  5
3015
330
2FFD
100
AcDbEntity
  8
0
  6
CONTINUOUS
100
AcDbLine
 10
13.86621509341442
 20
0.8620615195624723
 30
0.0
 11
15.27016212913838
 21
2.26600855528643
 31
0.0
  0
LINE
  5
3016
330
2FFD
100
AcDbEntity
  8
0
  6
CONTINUOUS
100
AcDbLine
 10
16.81682257348267
 20
4.486188208710908
 30
0.0
 11
17.79152830642806
 21
5.460893941656299
 31
0.0
  0
LINE
  5
3017
330
2FFD
100
AcDbEntity
  8
0
  6
CONTINUOUS
100
AcDbLine
 10
17.00081260457561
 20
3.996659030723667
 30
0.0
 11
17.97555747749151
 21
4.971403903639565
 31
0.0
  0
LINE
  5
3018
330
2FFD
100
AcDbEntity
  8
0
  6
CONTINUOUS
100
AcDbLine
 10
20.74362343514722
 20
8.412989070375462
 30
0.0
 11
21.09373436476302
 21
8.763099999991256
 31
0.0
  0
LINE
  5
3019
330
2FFD
100
AcDbEntity
  8
0
  6
CONTINUOUS
100
AcDbLine
 10
20.25401257174777
 20
7.249858997895826
 30
0.0
 11
21.7672535738432
 21
8.763099999991255
 31
0.0
  0
LINE
  5
301A
330
2FFD
100
AcDbEntity
  8
0
  6
CONTINUOUS
100
AcDbLine
 10
14.06579584418955
 20
0.3881230612574149
 30
0.0
 11
14.86427628093921
 21
1.186603498007082
 31
0.0
  0
LINE
  5
301B
330
2FFD
100
AcDbEntity
  8
0
  6
CONTINUOUS
100
AcDbLine
 10
14.26537659496467
 20
-0.0858153970476412
 30
0.0
 11
14.45839043274005
 21
0.1071984407277329
 31
0.0
  0
LINE
  5
301C
330
2FFD
100
AcDbEntity
  8
0
  6
CONTINUOUS
100
AcDbLine
 10
17.18480263566856
 20
3.507129852736426
 30
0.0
 11
18.15958664855496
 21
4.481913865622833
 31
0.0
  0
LINE
  5
301D
330
2FFD
100
AcDbEntity
  8
0
  6
CONTINUOUS
100
AcDbLine
 10
17.3687926667615
 20
3.017600674749186
 30
0.0
 11
18.34361581961842
 21
3.9924238276061
 31
0.0
  0
LINE
  5
301E
330
2FFD
100
AcDbEntity
  8
0
  6
CONTINUOUS
100
AcDbLine
 10
19.76440170834832
 20
6.086728925416191
 30
0.0
 11
22.33924590259489
 21
8.661573119662755
 31
0.0
  0
LINE
  5
301F
330
2FFD
100
AcDbEntity
  8
0
  6
CONTINUOUS
100
AcDbLine
 10
19.27479084494887
 20
4.923598852936555
 30
0.0
 11
21.84929622842713
 21
7.498104236414807
 31
0.0
  0
LINE
  5
3020
330
2FFD
100
AcDbEntity
  8
0
  6
CONTINUOUS
100
AcDbLine
 10
17.55278269785445
 20
2.528071496761945
 30
0.0
 11
18.52764499068187
 21
3.502933789589366
 31
0.0
  0
LINE
  5
3021
330
2FFD
100
AcDbEntity
  8
0
  6
CONTINUOUS
100
AcDbLine
 10
18.78517998154942
 20
3.760468780456919
 30
0.0
 11
21.35934655425936
 21
6.33463535316686
 31
0.0
  0
LINE
  5
3022
330
2FFD
100
AcDbEntity
  8
0
  6
CONTINUOUS
100
AcDbLine
 10
17.73677272894739
 20
2.038542318774704
 30
0.0
 11
20.8693968800916
 21
5.171166469918914
 31
0.0
  0
LINE
  5
3023
330
2FFD
100
AcDbEntity
  8
0
  6
CONTINUOUS
100
AcDbLine
 10
17.92076276004034
 20
1.549013140787464
 30
0.0
 11
20.37944720592384
 21
4.007697586670968
 31
0.0
  0
LINE
  5
3024
330
2FFD
100
AcDbEntity
  8
0
  6
CONTINUOUS
100
AcDbLine
 10
18.10475279113329
 20
1.059483962800223
 30
0.0
 11
19.88949753175608
 21
2.84422870342302
 31
0.0
  0
LINE
  5
3025
330
2FFD
100
AcDbEntity
  8
0
  6
CONTINUOUS
100
AcDbLine
 10
18.28874282222623
 20
0.5699547848129822
 30
0.0
 11
19.39954785758832
 21
1.680759820175074
 31
0.0
  0
LINE
  5
3026
330
2FFD
100
AcDbEntity
  8
0
  6
CONTINUOUS
100
AcDbLine
 10
18.47273285331918
 20
0.0804256068257416
 30
0.0
 11
18.90959818342056
 21
0.517290936927127
 31
0.0
  0
LINE
  5
3027
330
2FFD
100
AcDbEntity
  8
0
  6
CONTINUOUS
100
AcDbLine
 10
14.3590401358224
 20
-0.1570118376323384
 30
0.0
 11
14.24903296539946
 21
-0.0470046672093929
 31
0.0
  0
LINE
  5
3028
330
2FFD
100
AcDbEntity
  8
0
  6
CONTINUOUS
100
AcDbLine
 10
14.54309291258661
 20
0.332454594683643
 30
0.0
 11
13.75908329123172
 21
1.116464216038529
 31
0.0
  0
LINE
  5
3029
330
2FFD
100
AcDbEntity
  8
0
  6
CONTINUOUS
100
AcDbLine
 10
14.72714568935081
 20
0.8219210269996244
 30
0.0
 11
13.26913361706399
 21
2.27993309928645
 31
0.0
  0
LINE
  5
302A
330
2FFD
100
AcDbEntity
  8
0
  6
CONTINUOUS
100
AcDbLine
 10
14.91119846611502
 20
1.311387459315606
 30
0.0
 11
12.77918394289625
 21
3.443401982534371
 31
0.0
  0
LINE
  5
302B
330
2FFD
100
AcDbEntity
  8
0
  6
CONTINUOUS
100
AcDbLine
 10
15.09525124287922
 20
1.800853891631587
 30
0.0
 11
12.28923426872852
 21
4.606870865782293
 31
0.0
  0
LINE
  5
302C
330
2FFD
100
AcDbEntity
  8
0
  6
CONTINUOUS
100
AcDbLine
 10
15.27930401964343
 20
2.290320323947569
 30
0.0
 11
11.79928459456078
 21
5.770339749030213
 31
0.0
  0
LINE
  5
302D
330
2FFD
100
AcDbEntity
  8
0
  6
CONTINUOUS
100
AcDbLine
 10
15.46335679640763
 20
2.77978675626355
 30
0.0
 11
14.48885470994921
 21
3.754288842721972
 31
0.0
  0
LINE
  5
302E
330
2FFD
100
AcDbEntity
  8
0
  6
CONTINUOUS
100
AcDbLine
 10
13.88507249233704
 20
4.358071060334137
 30
0.0
 11
11.30933492039305
 21
6.933808632278135
 31
0.0
  0
LINE
  5
302F
330
2FFD
100
AcDbEntity
  8
0
  6
CONTINUOUS
100
AcDbLine
 10
18.75840522805855
 20
0.1582575336928151
 30
0.0
 11
18.25383727664818
 21
0.6628254851031863
 31
0.0
  0
LINE
  5
3030
330
2FFD
100
AcDbEntity
  8
0
  6
CONTINUOUS
100
AcDbLine
 10
15.64740957317184
 20
3.269253188579531
 30
0.0
 11
14.67288388101266
 21
4.243778880738705
 31
0.0
  0
LINE
  5
3031
330
2FFD
100
AcDbEntity
  8
0
  6
CONTINUOUS
100
AcDbLine
 10
13.39509276772158
 20
5.521569994029786
 30
0.0
 11
10.81938524622531
 21
8.097277515526056
 31
0.0
  0
LINE
  5
3032
330
2FFD
100
AcDbEntity
  8
0
  6
CONTINUOUS
100
AcDbLine
 10
18.95798597883369
 20
0.6321959919978686
 30
0.0
 11
17.84825644852853
 21
1.741925522303024
 31
0.0
  0
LINE
  5
3033
330
2FFD
100
AcDbEntity
  8
0
  6
CONTINUOUS
100
AcDbLine
 10
19.15756672960882
 20
1.106134450302922
 30
0.0
 11
17.44267562040888
 21
2.821025559502861
 31
0.0
  0
LINE
  5
3034
330
2FFD
100
AcDbEntity
  8
0
  6
CONTINUOUS
100
AcDbLine
 10
15.83146234993604
 20
3.758719620895513
 30
0.0
 11
14.85691305207612
 21
4.733268918755439
 31
0.0
  0
LINE
  5
3035
330
2FFD
100
AcDbEntity
  8
0
  6
CONTINUOUS
100
AcDbLine
 10
16.01551512670025
 20
4.248186053211494
 30
0.0
 11
15.04094222313957
 21
5.222758956772172
 31
0.0
  0
LINE
  5
3036
330
2FFD
100
AcDbEntity
  8
0
  6
CONTINUOUS
100
AcDbLine
 10
12.90511304310612
 20
6.685068927725435
 30
0.0
 11
10.8270819708403
 21
8.763099999991255
 31
0.0
  0
LINE
  5
3037
330
2FFD
100
AcDbEntity
  8
0
  6
CONTINUOUS
100
AcDbLine
 10
12.41513331849066
 20
7.848567861421083
 30
0.0
 11
11.50060117992049
 21
8.763099999991255
 31
0.0
  0
LINE
  5
3038
330
2FFD
100
AcDbEntity
  8
0
  6
CONTINUOUS
100
AcDbLine
 10
19.35714748038395
 20
1.580072908607975
 30
0.0
 11
17.03709479228923
 21
3.900125596702697
 31
0.0
  0
LINE
  5
3039
330
2FFD
100
AcDbEntity
  8
0
  6
CONTINUOUS
100
AcDbLine
 10
19.55672823115909
 20
2.054011366913028
 30
0.0
 11
16.63151396416958
 21
4.979225633902534
 31
0.0
  0
LINE
  5
303A
330
2FFD
100
AcDbEntity
  8
0
  6
CONTINUOUS
100
AcDbLine
 10
16.19956790346445
 20
4.737652485527476
 30
0.0
 11
15.22497139420302
 21
5.712248994788904
 31
0.0
  0
LINE
  5
303B
330
2FFD
100
AcDbEntity
  8
0
  6
CONTINUOUS
100
AcDbLine
 10
16.38362068022866
 20
5.227118917843457
 30
0.0
 11
15.40900056526648
 21
6.201739032805637
 31
0.0
  0
LINE
  5
303C
330
2FFD
100
AcDbEntity
  8
0
  6
CONTINUOUS
100
AcDbLine
 10
19.75630898193422
 20
2.527949825218081
 30
0.0
 11
18.70774536448286
 21
3.576513442669441
 31
0.0
  0
LINE
  5
303D
330
2FFD
100
AcDbEntity
  8
0
  6
CONTINUOUS
100
AcDbLine
 10
19.95588973270936
 20
3.001888283523134
 30
0.0
 11
18.90726987211446
 21
4.050508144118028
 31
0.0
  0
LINE
  5
303E
330
2FFD
100
AcDbEntity
  8
0
  6
CONTINUOUS
100
AcDbLine
 10
20.15547048348449
 20
3.475826741828186
 30
0.0
 11
19.10679437974606
 21
4.524502845566614
 31
0.0
  0
LINE
  5
303F
330
2FFD
100
AcDbEntity
  8
0
  6
CONTINUOUS
100
AcDbLine
 10
20.35505123425962
 20
3.94976520013324
 30
0.0
 11
19.30631888737766
 21
4.998497547015201
 31
0.0
  0
LINE
  5
3040
330
2FFD
100
AcDbEntity
  8
0
  6
CONTINUOUS
100
AcDbLine
 10
20.55463198503475
 20
4.423703658438292
 30
0.0
 11
19.50584339500926
 21
5.472492248463787
 31
0.0
  0
LINE
  5
3041
330
2FFD
100
AcDbEntity
  8
0
  6
CONTINUOUS
100
AcDbLine
 10
18.37481191085755
 20
3.909446896294752
 30
0.0
 11
15.59302973632993
 21
6.691229070822371
 31
0.0
  0
LINE
  5
3042
330
2FFD
100
AcDbEntity
  8
0
  6
CONTINUOUS
100
AcDbLine
 10
17.96904084440766
 20
4.988737171824825
 30
0.0
 11
15.77705890739338
 21
7.180719108839104
 31
0.0
  0
LINE
  5
3043
330
2FFD
100
AcDbEntity
  8
0
  6
CONTINUOUS
100
AcDbLine
 10
17.56326977795777
 20
6.068027447354899
 30
0.0
 11
15.96108807845684
 21
7.670209146855838
 31
0.0
  0
LINE
  5
3044
330
2FFD
100
AcDbEntity
  8
0
  6
CONTINUOUS
100
AcDbLine
 10
17.15749871150789
 20
7.147317722884972
 30
0.0
 11
16.14511724952029
 21
8.15969918487257
 31
0.0
  0
LINE
  5
3045
330
2FFD
100
AcDbEntity
  8
0
  6
CONTINUOUS
100
AcDbLine
 10
16.751727645058
 20
8.226607998415046
 30
0.0
 11
16.32914642058374
 21
8.649189222889303
 31
0.0
  0
LINE
  5
3046
330
2FFD
100
AcDbEntity
  8
0
  6
CONTINUOUS
100
AcDbLine
 10
20.75421273580989
 20
4.897642116743345
 30
0.0
 11
19.70536790264086
 21
5.946486949912374
 31
0.0
  0
LINE
  5
3047
330
2FFD
100
AcDbEntity
  8
0
  6
CONTINUOUS
100
AcDbLine
 10
20.95379348658502
 20
5.371580575048398
 30
0.0
 11
19.90489241027246
 21
6.42048165136096
 31
0.0
  0
LINE
  5
3048
330
2FFD
100
AcDbEntity
  8
0
  6
CONTINUOUS
100
AcDbLine
 10
21.15337423736015
 20
5.845519033353452
 30
0.0
 11
20.10441691790406
 21
6.894476352809547
 31
0.0
  0
LINE
  5
3049
330
2FFD
100
AcDbEntity
  8
0
  6
CONTINUOUS
100
AcDbLine
 10
21.35295498813529
 20
6.319457491658505
 30
0.0
 11
20.30394142553566
 21
7.368471054258134
 31
0.0
  0
LINE
  5
304A
330
2FFD
100
AcDbEntity
  8
0
  6
CONTINUOUS
100
AcDbLine
 10
21.55253573891042
 20
6.793395949963558
 30
0.0
 11
20.50346593316726
 21
7.842465755706721
 31
0.0
  0
LINE
  5
304B
330
2FFD
100
AcDbEntity
  8
0
  6
CONTINUOUS
100
AcDbLine
 10
21.75211648968556
 20
7.267334408268612
 30
0.0
 11
20.70299044079886
 21
8.316460457155308
 31
0.0
  0
LINE
  5
304C
330
2FFD
100
AcDbEntity
  8
0
  6
CONTINUOUS
100
AcDbLine
 10
21.95169724046069
 20
7.741272866573663
 30
0.0
 11
20.9298701070431
 21
8.763099999991256
 31
0.0
  0
LINE
  5
304D
330
2FFD
100
AcDbEntity
  8
0
  6
CONTINUOUS
100
AcDbLine
 10
22.15127799123582
 20
8.215211324878716
 30
0.0
 11
21.60338931612328
 21
8.763099999991256
 31
0.0
  0
LINE
  5
304E
330
2FFD
100
AcDbEntity
  8
0
  6
CONTINUOUS
100
AcDbLine
 10
22.35085874201096
 20
8.689149783183769
 30
0.0
 11
22.27690852520347
 21
8.763099999991255
 31
0.0
  0
ENDBLK
  5
3140
330
2FFD
100
AcDbEntity
  8
0
100
AcDbBlockEnd
  0
BLOCK
  5
3141
330
304F
100
AcDbEntity
  8
0
100
AcDbBlockBegin
  2
*X88
 70
     1
 10
0.0
 20
0.0
 30
0.0
  3
*X88
  1

  0
LINE
  5
3050
330
304F
100
AcDbEntity
  8
0
  6
CONTINUOUS
100
AcDbLine
 10
23.19462913593892
 20
8.169917934846424
 30
0.0
 11
23.70775465517246
 21
8.683043454079957
 31
0.0
  0
LINE
  5
3051
330
304F
100
AcDbEntity
  8
0
  6
CONTINUOUS
100
AcDbLine
 10
22.64923161835078
 20
6.951001208178088
 30
0.0
 11
23.9159364069932
 21
8.217705996820516
 31
0.0
  0
LINE
  5
3052
330
304F
100
AcDbEntity
  8
0
  6
CONTINUOUS
100
AcDbLine
 10
22.10383410076263
 20
5.732084481509751
 30
0.0
 11
24.12411815881395
 21
7.752368539561078
 31
0.0
  0
LINE
  5
3053
330
304F
100
AcDbEntity
  8
0
  6
CONTINUOUS
100
AcDbLine
 10
21.55843658317447
 20
4.513167754841414
 30
0.0
 11
24.3322999106347
 21
7.287031082301639
 31
0.0
  0
LINE
  5
3054
330
304F
100
AcDbEntity
  8
0
  6
CONTINUOUS
100
AcDbLine
 10
21.01303906558632
 20
3.294251028173077
 30
0.0
 11
24.54048166245544
 21
6.821693625042199
 31
0.0
  0
LINE
  5
3055
330
304F
100
AcDbEntity
  8
0
  6
CONTINUOUS
100
AcDbLine
 10
20.46764154799817
 20
2.075334301504738
 30
0.0
 11
23.28571549467848
 21
4.89340824818505
 31
0.0
  0
LINE
  5
3056
330
304F
100
AcDbEntity
  8
0
  6
CONTINUOUS
100
AcDbLine
 10
19.92224403041002
 20
0.8564175748364002
 30
0.0
 11
22.74075865492779
 21
3.674932199354171
 31
0.0
  0
LINE
  5
3057
330
304F
100
AcDbEntity
  8
0
  6
CONTINUOUS
100
AcDbLine
 10
23.67305085490148
 20
5.280743608408048
 30
0.0
 11
24.74866341427619
 21
6.356356167782759
 31
0.0
  0
LINE
  5
3058
330
304F
100
AcDbEntity
  8
0
  6
CONTINUOUS
100
AcDbLine
 10
23.88118970842314
 20
4.815363252849522
 30
0.0
 11
24.95684516609694
 21
5.89101871052332
 31
0.0
  0
LINE
  5
3059
330
304F
100
AcDbEntity
  8
0
  6
CONTINUOUS
100
AcDbLine
 10
19.73925852647308
 20
-0.0000871381807288
 30
0.0
 11
23.4103456646501
 21
3.670999999996297
 31
0.0
  0
LINE
  5
305A
330
304F
100
AcDbEntity
  8
0
  6
CONTINUOUS
100
AcDbLine
 10
24.0893285619448
 20
4.349982897290997
 30
0.0
 11
25.16502691791769
 21
5.42568125326388
 31
0.0
  0
LINE
  5
305B
330
304F
100
AcDbEntity
  8
0
  6
CONTINUOUS
100
AcDbLine
 10
20.41282099582748
 20
-0.0000438779065108
 30
0.0
 11
21.64944178675636
 21
1.236576913022366
 31
0.0
  0
LINE
  5
305C
330
304F
100
AcDbEntity
  8
0
  6
CONTINUOUS
100
AcDbLine
 10
22.78126487373161
 20
2.36839999999762
 30
0.0
 11
24.08386487373029
 21
3.670999999996297
 31
0.0
  0
LINE
  5
305D
330
304F
100
AcDbEntity
  8
0
  6
CONTINUOUS
100
AcDbLine
 10
24.29746741546646
 20
3.884602541732471
 30
0.0
 11
25.37320866973843
 21
4.960343796004441
 31
0.0
  0
LINE
  5
305E
330
304F
100
AcDbEntity
  8
0
  6
CONTINUOUS
100
AcDbLine
 10
21.08638346518189
 20
-0.0000006176322938
 30
0.0
 11
21.10379033335899
 21
0.0174062505448083
 31
0.0
  0
LINE
  5
305F
330
304F
100
AcDbEntity
  8
0
  6
CONTINUOUS
100
AcDbLine
 10
23.4547840828118
 20
2.36839999999762
 30
0.0
 11
25.58139042155918
 21
4.495006338745002
 31
0.0
  0
LINE
  5
3060
330
304F
100
AcDbEntity
  8
0
  6
CONTINUOUS
100
AcDbLine
 10
29.30199999996933
 20
8.215615917155148
 30
0.0
 11
29.84948408280543
 21
8.763099999991255
 31
0.0
  0
LINE
  5
3061
330
304F
100
AcDbEntity
  8
0
  6
CONTINUOUS
100
AcDbLine
 10
24.12830329189199
 20
2.36839999999762
 30
0.0
 11
25.78957217337993
 21
4.029668881485562
 31
0.0
  0
LINE
  5
3062
330
304F
100
AcDbEntity
  8
0
  6
CONTINUOUS
100
AcDbLine
 10
29.30199999996933
 20
7.54209670807496
 30
0.0
 11
30.52300329188562
 21
8.763099999991255
 31
0.0
  0
LINE
  5
3063
330
304F
100
AcDbEntity
  8
0
  6
CONTINUOUS
100
AcDbLine
 10
24.80182250097217
 20
2.36839999999762
 30
0.0
 11
25.99775392520067
 21
3.564331424226122
 31
0.0
  0
LINE
  5
3064
330
304F
100
AcDbEntity
  8
0
  6
CONTINUOUS
100
AcDbLine
 10
29.30199999996933
 20
6.868577498994774
 30
0.0
 11
30.74199999996926
 21
8.308577498994712
 31
0.0
  0
LINE
  5
3065
330
304F
100
AcDbEntity
  8
0
  6
CONTINUOUS
100
AcDbLine
 10
25.13028238392013
 20
2.023340673865392
 30
0.0
 11
26.20593567702142
 21
3.098993966966683
 31
0.0
  0
LINE
  5
3066
330
304F
100
AcDbEntity
  8
0
  6
CONTINUOUS
100
AcDbLine
 10
25.33838066033617
 20
1.557919741201244
 30
0.0
 11
26.41411742884217
 21
2.633656509707244
 31
0.0
  0
LINE
  5
3067
330
304F
100
AcDbEntity
  8
0
  6
CONTINUOUS
100
AcDbLine
 10
25.54647893675221
 20
1.092498808537098
 30
0.0
 11
26.62229918066291
 21
2.168319052447804
 31
0.0
  0
LINE
  5
3068
330
304F
100
AcDbEntity
  8
0
  6
CONTINUOUS
100
AcDbLine
 10
25.75457721316825
 20
0.62707787587295
 30
0.0
 11
26.83048093248366
 21
1.702981595188365
 31
0.0
  0
LINE
  5
3069
330
304F
100
AcDbEntity
  8
0
  6
CONTINUOUS
100
AcDbLine
 10
29.30199999996933
 20
6.195058289914587
 30
0.0
 11
30.74199999996926
 21
7.635058289914522
 31
0.0
  0
LINE
  5
306A
330
304F
100
AcDbEntity
  8
0
  6
CONTINUOUS
100
AcDbLine
 10
29.30199999996933
 20
5.521539080834401
 30
0.0
 11
30.74199999996926
 21
6.961539080834331
 31
0.0
  0
LINE
  5
306B
330
304F
100
AcDbEntity
  8
0
  6
CONTINUOUS
100
AcDbLine
 10
29.30199999996933
 20
4.848019871754214
 30
0.0
 11
30.74199999996925
 21
6.288019871754143
 31
0.0
  0
LINE
  5
306C
330
304F
100
AcDbEntity
  8
0
  6
CONTINUOUS
100
AcDbLine
 10
29.30199999996933
 20
4.174500662674028
 30
0.0
 11
30.74199999996925
 21
5.614500662673953
 31
0.0
  0
LINE
  5
306D
330
304F
100
AcDbEntity
  8
0
  6
CONTINUOUS
100
AcDbLine
 10
25.96267548958429
 20
0.1616569432088024
 30
0.0
 11
27.18411854636669
 21
1.383099999991207
 31
0.0
  0
LINE
  5
306E
330
304F
100
AcDbEntity
  8
0
  6
CONTINUOUS
100
AcDbLine
 10
29.30199999996933
 20
3.500981453593841
 30
0.0
 11
30.74199999996925
 21
4.940981453593762
 31
0.0
  0
LINE
  5
306F
330
304F
100
AcDbEntity
  8
0
  6
CONTINUOUS
100
AcDbLine
 10
26.50763775544691
 20
0.0330999999912356
 30
0.0
 11
27.85763775544689
 21
1.383099999991223
 31
0.0
  0
LINE
  5
3070
330
304F
100
AcDbEntity
  8
0
  6
CONTINUOUS
100
AcDbLine
 10
29.30199999996933
 20
2.827462244513656
 30
0.0
 11
30.74199999996925
 21
4.267462244513574
 31
0.0
  0
LINE
  5
3071
330
304F
100
AcDbEntity
  8
0
  6
CONTINUOUS
100
AcDbLine
 10
27.18115696452709
 20
0.0330999999912356
 30
0.0
 11
28.55073879889363
 21
1.402681834357775
 31
0.0
  0
LINE
  5
3072
330
304F
100
AcDbEntity
  8
0
  6
CONTINUOUS
100
AcDbLine
 10
29.28241816560272
 20
2.134361201066866
 30
0.0
 11
30.74199999996924
 21
3.593943035433383
 31
0.0
  0
LINE
  5
3073
330
304F
100
AcDbEntity
  8
0
  6
CONTINUOUS
100
AcDbLine
 10
27.85467617360728
 20
0.0330999999912356
 30
0.0
 11
30.74199999996924
 21
2.920423826353195
 31
0.0
  0
LINE
  5
3074
330
304F
100
AcDbEntity
  8
0
  6
CONTINUOUS
100
AcDbLine
 10
28.53897559587887
 20
0.0438802131826428
 30
0.0
 11
30.73121978677781
 21
2.236124404081585
 31
0.0
  0
LINE
  5
3075
330
304F
100
AcDbEntity
  8
0
  6
CONTINUOUS
100
AcDbLine
 10
29.45140055588722
 20
0.2827859641107988
 30
0.0
 11
30.49231403584965
 21
1.323699444073236
 31
0.0
  0
LINE
  5
3076
330
304F
100
AcDbEntity
  8
0
  6
CONTINUOUS
100
AcDbLine
 10
19.59027867740337
 20
-0.0000967065718083
 30
0.0
 11
19.55485265190471
 21
0.035329318926844
 31
0.0
  0
LINE
  5
3077
330
304F
100
AcDbEntity
  8
0
  6
CONTINUOUS
100
AcDbLine
 10
20.26375463176586
 20
-0.0000534518541091
 30
0.0
 11
19.76305575737534
 21
0.5006454225364014
 31
0.0
  0
LINE
  5
3078
330
304F
100
AcDbEntity
  8
0
  6
CONTINUOUS
100
AcDbLine
 10
20.93723058612834
 20
-0.0000101971364099
 30
0.0
 11
19.97125886284597
 21
0.965961526145958
 31
0.0
  0
LINE
  5
3079
330
304F
100
AcDbEntity
  8
0
  6
CONTINUOUS
100
AcDbLine
 10
21.25514828313686
 20
0.355591314935257
 30
0.0
 11
20.1794619683166
 21
1.431277629755512
 31
0.0
  0
LINE
  5
307A
330
304F
100
AcDbEntity
  8
0
  6
CONTINUOUS
100
AcDbLine
 10
21.46338838394921
 20
0.8208704232030986
 30
0.0
 11
20.38766507378723
 21
1.896593733365069
 31
0.0
  0
LINE
  5
307B
330
304F
100
AcDbEntity
  8
0
  6
CONTINUOUS
100
AcDbLine
 10
21.67162848476155
 20
1.28614953147094
 30
0.0
 11
20.59586817925786
 21
2.361909836974626
 31
0.0
  0
LINE
  5
307C
330
304F
100
AcDbEntity
  8
0
  6
CONTINUOUS
100
AcDbLine
 10
21.8798685855739
 20
1.751428639738782
 30
0.0
 11
20.80407128472849
 21
2.827225940584183
 31
0.0
  0
LINE
  5
307D
330
304F
100
AcDbEntity
  8
0
  6
CONTINUOUS
100
AcDbLine
 10
22.08810868638624
 20
2.216707748006623
 30
0.0
 11
21.01227439019912
 21
3.292542044193739
 31
0.0
  0
LINE
  5
307E
330
304F
100
AcDbEntity
  8
0
  6
CONTINUOUS
100
AcDbLine
 10
22.60993564347543
 20
2.36839999999762
 30
0.0
 11
21.22047749566975
 21
3.757858147803296
 31
0.0
  0
LINE
  5
307F
330
304F
100
AcDbEntity
  8
0
  6
CONTINUOUS
100
AcDbLine
 10
23.28345485255561
 20
2.36839999999762
 30
0.0
 11
21.42868060114038
 21
4.223174251412853
 31
0.0
  0
LINE
  5
3080
330
304F
100
AcDbEntity
  8
0
  6
CONTINUOUS
100
AcDbLine
 10
26.29227406164219
 20
0.0330999999912356
 30
0.0
 11
25.80009199592872
 21
0.5252820657046957
 31
0.0
  0
LINE
  5
3081
330
304F
100
AcDbEntity
  8
0
  6
CONTINUOUS
100
AcDbLine
 10
23.9569740616358
 20
2.36839999999762
 30
0.0
 11
21.63688370661101
 21
4.688490355022409
 31
0.0
  0
LINE
  5
3082
330
304F
100
AcDbEntity
  8
0
  6
CONTINUOUS
100
AcDbLine
 10
26.96579327072237
 20
0.0330999999912356
 30
0.0
 11
25.2554132311971
 21
1.743480039516508
 31
0.0
  0
LINE
  5
3083
330
304F
100
AcDbEntity
  8
0
  6
CONTINUOUS
100
AcDbLine
 10
24.63049327071599
 20
2.36839999999762
 30
0.0
 11
23.32789327071731
 21
3.670999999996297
 31
0.0
  0
LINE
  5
3084
330
304F
100
AcDbEntity
  8
0
  6
CONTINUOUS
100
AcDbLine
 10
22.92098674744635
 20
4.077906523267254
 30
0.0
 11
21.84508681208164
 21
5.153806458631966
 31
0.0
  0
LINE
  5
3085
330
304F
100
AcDbEntity
  8
0
  6
CONTINUOUS
100
AcDbLine
 10
27.63931247980256
 20
0.0330999999912356
 30
0.0
 11
24.0014124797975
 21
3.670999999996297
 31
0.0
  0
LINE
  5
3086
330
304F
100
AcDbEntity
  8
0
  6
CONTINUOUS
100
AcDbLine
 10
23.129125600968
 20
4.5432868788258
 30
0.0
 11
22.05328991755227
 21
5.619122562241522
 31
0.0
  0
LINE
  5
3087
330
304F
100
AcDbEntity
  8
0
  6
CONTINUOUS
100
AcDbLine
 10
28.31283168888275
 20
0.0330999999912356
 30
0.0
 11
24.16488385994816
 21
4.181047828925828
 31
0.0
  0
LINE
  5
3088
330
304F
100
AcDbEntity
  8
0
  6
CONTINUOUS
100
AcDbLine
 10
23.33726445448964
 20
5.008667234384345
 30
0.0
 11
22.2614930230229
 21
6.084438665851079
 31
0.0
  0
LINE
  5
3089
330
304F
100
AcDbEntity
  8
0
  6
CONTINUOUS
100
AcDbLine
 10
28.92085740005492
 20
0.0985934978992438
 30
0.0
 11
27.63635089796295
 21
1.383099999991217
 31
0.0
  0
LINE
  5
308A
330
304F
100
AcDbEntity
  8
0
  6
CONTINUOUS
100
AcDbLine
 10
26.43704649509776
 20
2.582404402856405
 30
0.0
 11
23.61992702019732
 21
5.399523877756844
 31
0.0
  0
LINE
  5
308B
330
304F
100
AcDbEntity
  8
0
  6
CONTINUOUS
100
AcDbLine
 10
23.54540330801128
 20
5.47404758994289
 30
0.0
 11
22.46969612849353
 21
6.549754769460635
 31
0.0
  0
LINE
  5
308C
330
304F
100
AcDbEntity
  8
0
  6
CONTINUOUS
100
AcDbLine
 10
29.42225615078443
 20
0.2707139562499279
 30
0.0
 11
28.30987010704312
 21
1.383099999991234
 31
0.0
  0
LINE
  5
308D
330
304F
100
AcDbEntity
  8
0
  6
CONTINUOUS
100
AcDbLine
 10
25.89179548232307
 20
3.801174624711282
 30
0.0
 11
22.67789923396416
 21
7.015070873070191
 31
0.0
  0
LINE
  5
308E
330
304F
100
AcDbEntity
  8
0
  6
CONTINUOUS
100
AcDbLine
 10
29.83624534690007
 20
0.5302439692144705
 30
0.0
 11
28.85811781497101
 21
1.508371501143527
 31
0.0
  0
LINE
  5
308F
330
304F
100
AcDbEntity
  8
0
  6
CONTINUOUS
100
AcDbLine
 10
25.34654446954838
 20
5.01994484656616
 30
0.0
 11
22.88610233943479
 21
7.480386976679748
 31
0.0
  0
LINE
  5
3090
330
304F
100
AcDbEntity
  8
0
  6
CONTINUOUS
100
AcDbLine
 10
30.17865975401872
 20
0.8613487711760022
 30
0.0
 11
29.18888744090175
 21
1.851121084292977
 31
0.0
  0
LINE
  5
3091
330
304F
100
AcDbEntity
  8
0
  6
CONTINUOUS
100
AcDbLine
 10
24.80129345677369
 20
6.238715068421037
 30
0.0
 11
23.09430544490542
 21
7.945703080289305
 31
0.0
  0
LINE
  5
3092
330
304F
100
AcDbEntity
  8
0
  6
CONTINUOUS
100
AcDbLine
 10
30.45496647202376
 20
1.258561262251155
 30
0.0
 11
29.30199999996933
 21
2.411527734305588
 31
0.0
  0
LINE
  5
3093
330
304F
100
AcDbEntity
  8
0
  6
CONTINUOUS
100
AcDbLine
 10
24.256042443999
 20
7.457485290275915
 30
0.0
 11
23.30250855037605
 21
8.411019183898862
 31
0.0
  0
LINE
  5
3094
330
304F
100
AcDbEntity
  8
0
  6
CONTINUOUS
100
AcDbLine
 10
30.64868582078271
 20
1.738361122572387
 30
0.0
 11
29.30199999996933
 21
3.085046943385775
 31
0.0
  0
LINE
  5
3095
330
304F
100
AcDbEntity
  8
0
  6
CONTINUOUS
100
AcDbLine
 10
23.71079143122431
 20
8.676255512130794
 30
0.0
 11
23.51071165584668
 21
8.876335287508416
 31
0.0
  0
LINE
  5
3096
330
304F
100
AcDbEntity
  8
0
  6
CONTINUOUS
100
AcDbLine
 10
30.73802122914428
 20
2.322544923291007
 30
0.0
 11
29.30199999996933
 21
3.758566152465961
 31
0.0
  0
LINE
  5
3097
330
304F
100
AcDbEntity
  8
0
  6
CONTINUOUS
100
AcDbLine
 10
30.74199999996924
 20
2.992085361546236
 30
0.0
 11
29.30199999996933
 21
4.432085361546148
 31
0.0
  0
LINE
  5
3098
330
304F
100
AcDbEntity
  8
0
  6
CONTINUOUS
100
AcDbLine
 10
30.74199999996924
 20
3.665604570626419
 30
0.0
 11
29.30199999996933
 21
5.105604570626333
 31
0.0
  0
LINE
  5
3099
330
304F
100
AcDbEntity
  8
0
  6
CONTINUOUS
100
AcDbLine
 10
30.74199999996925
 20
4.339123779706602
 30
0.0
 11
29.30199999996933
 21
5.77912377970652
 31
0.0
  0
LINE
  5
309A
330
304F
100
AcDbEntity
  8
0
  6
CONTINUOUS
100
AcDbLine
 10
30.74199999996925
 20
5.012642988786785
 30
0.0
 11
29.30199999996933
 21
6.452642988786707
 31
0.0
  0
LINE
  5
309B
330
304F
100
AcDbEntity
  8
0
  6
CONTINUOUS
100
AcDbLine
 10
30.74199999996925
 20
5.68616219786697
 30
0.0
 11
29.30199999996933
 21
7.126162197866894
 31
0.0
  0
LINE
  5
309C
330
304F
100
AcDbEntity
  8
0
  6
CONTINUOUS
100
AcDbLine
 10
30.74199999996925
 20
6.359681406947153
 30
0.0
 11
29.30199999996933
 21
7.799681406947081
 31
0.0
  0
LINE
  5
309D
330
304F
100
AcDbEntity
  8
0
  6
CONTINUOUS
100
AcDbLine
 10
30.74199999996926
 20
7.033200616027337
 30
0.0
 11
29.30199999996933
 21
8.473200616027269
 31
0.0
  0
LINE
  5
309E
330
304F
100
AcDbEntity
  8
0
  6
CONTINUOUS
100
AcDbLine
 10
30.74199999996926
 20
7.706719825107518
 30
0.0
 11
29.68561982508552
 21
8.763099999991255
 31
0.0
  0
LINE
  5
309F
330
304F
100
AcDbEntity
  8
0
  6
CONTINUOUS
100
AcDbLine
 10
30.74199999996926
 20
8.380239034187703
 30
0.0
 11
30.35913903416571
 21
8.763099999991255
 31
0.0
  0
ENDBLK
  5
3142
330
304F
100
AcDbEntity
  8
0
100
AcDbBlockEnd
  0
BLOCK
  5
3143
330
30A0
100
AcDbEntity
  8
0
100
AcDbBlockBegin
  2
*X89
 70
     1
 10
0.0
 20
0.0
 30
0.0
  3
*X89
  1

  0
LINE
  5
30A1
330
30A0
100
AcDbEntity
  8
0
  6
CONTINUOUS
100
AcDbLine
 10
31.64199999996833
 20
8.535058289913598
 30
0.0
 11
31.87004171004599
 21
8.763099999991255
 31
0.0
  0
LINE
  5
30A2
330
30A0
100
AcDbEntity
  8
0
  6
CONTINUOUS
100
AcDbLine
 10
31.64199999996833
 20
7.861539080833412
 30
0.0
 11
32.54356091912618
 21
8.763099999991255
 31
0.0
  0
LINE
  5
30A3
330
30A0
100
AcDbEntity
  8
0
  6
CONTINUOUS
100
AcDbLine
 10
31.64199999996833
 20
7.188019871753226
 30
0.0
 11
33.08199999996839
 21
8.628019871753281
 31
0.0
  0
LINE
  5
30A4
330
30A0
100
AcDbEntity
  8
0
  6
CONTINUOUS
100
AcDbLine
 10
31.64199999996833
 20
6.51450066267304
 30
0.0
 11
33.08199999996839
 21
7.954500662673095
 31
0.0
  0
LINE
  5
30A5
330
30A0
100
AcDbEntity
  8
0
  6
CONTINUOUS
100
AcDbLine
 10
31.64199999996833
 20
5.840981453592853
 30
0.0
 11
33.08199999996839
 21
7.280981453592908
 31
0.0
  0
LINE
  5
30A6
330
30A0
100
AcDbEntity
  8
0
  6
CONTINUOUS
100
AcDbLine
 10
31.64199999996833
 20
5.167462244512667
 30
0.0
 11
33.08199999996839
 21
6.607462244512721
 31
0.0
  0
LINE
  5
30A7
330
30A0
100
AcDbEntity
  8
0
  6
CONTINUOUS
100
AcDbLine
 10
31.64199999996833
 20
4.493943035432481
 30
0.0
 11
33.08199999996839
 21
5.933943035432535
 31
0.0
  0
LINE
  5
30A8
330
30A0
100
AcDbEntity
  8
0
  6
CONTINUOUS
100
AcDbLine
 10
31.64199999996833
 20
3.820423826352293
 30
0.0
 11
33.08199999996839
 21
5.260423826352348
 31
0.0
  0
LINE
  5
30A9
330
30A0
100
AcDbEntity
  8
0
  6
CONTINUOUS
100
AcDbLine
 10
31.64199999996833
 20
3.146904617272106
 30
0.0
 11
33.08199999996839
 21
4.586904617272161
 31
0.0
  0
LINE
  5
30AA
330
30A0
100
AcDbEntity
  8
0
  6
CONTINUOUS
100
AcDbLine
 10
36.23199999996837
 20
8.410423826352325
 30
0.0
 11
36.5846761736073
 21
8.763099999991255
 31
0.0
  0
LINE
  5
30AB
330
30A0
100
AcDbEntity
  8
0
  6
CONTINUOUS
100
AcDbLine
 10
36.23199999996837
 20
7.73690461727214
 30
0.0
 11
37.25819538268748
 21
8.763099999991255
 31
0.0
  0
LINE
  5
30AC
330
30A0
100
AcDbEntity
  8
0
  6
CONTINUOUS
100
AcDbLine
 10
31.64257403601376
 20
2.473959444237348
 30
0.0
 11
33.08199999996839
 21
3.913385408191974
 31
0.0
  0
LINE
  5
30AD
330
30A0
100
AcDbEntity
  8
0
  6
CONTINUOUS
100
AcDbLine
 10
36.23199999996837
 20
7.063385408191953
 30
0.0
 11
37.67199999996831
 21
8.503385408191894
 31
0.0
  0
LINE
  5
30AE
330
30A0
100
AcDbEntity
  8
0
  6
CONTINUOUS
100
AcDbLine
 10
31.72013636841932
 20
1.87800256756272
 30
0.0
 11
33.08199999996839
 21
3.239866199111788
 31
0.0
  0
LINE
  5
30AF
330
30A0
100
AcDbEntity
  8
0
  6
CONTINUOUS
100
AcDbLine
 10
36.23199999996837
 20
6.389866199111767
 30
0.0
 11
37.67199999996831
 21
7.829866199111708
 31
0.0
  0
LINE
  5
30B0
330
30A0
100
AcDbEntity
  8
0
  6
CONTINUOUS
100
AcDbLine
 10
31.89042734314753
 20
1.374774333210744
 30
0.0
 11
33.08199999996839
 21
2.566346990031601
 31
0.0
  0
LINE
  5
30B1
330
30A0
100
AcDbEntity
  8
0
  6
CONTINUOUS
100
AcDbLine
 10
36.23199999996837
 20
5.71634699003158
 30
0.0
 11
37.67199999996831
 21
7.156346990031521
 31
0.0
  0
LINE
  5
30B2
330
30A0
100
AcDbEntity
  8
0
  6
CONTINUOUS
100
AcDbLine
 10
32.14210568064475
 20
0.952933461627778
 30
0.0
 11
33.18745552475986
 21
1.998283305742888
 31
0.0
  0
LINE
  5
30B3
330
30A0
100
AcDbEntity
  8
0
  6
CONTINUOUS
100
AcDbLine
 10
36.23199999996837
 20
5.042827780951393
 30
0.0
 11
37.67199999996831
 21
6.482827780951334
 31
0.0
  0
LINE
  5
30B4
330
30A0
100
AcDbEntity
  8
0
  6
CONTINUOUS
100
AcDbLine
 10
32.45820639400955
 20
0.5955149659123915
 30
0.0
 11
33.47242681921943
 21
1.60973539112227
 31
0.0
  0
LINE
  5
30B5
330
30A0
100
AcDbEntity
  8
0
  6
CONTINUOUS
100
AcDbLine
 10
36.23199999996837
 20
4.369308571871207
 30
0.0
 11
37.67199999996831
 21
5.809308571871147
 31
0.0
  0
LINE
  5
30B6
330
30A0
100
AcDbEntity
  8
0
  6
CONTINUOUS
100
AcDbLine
 10
32.83432456621412
 20
0.2981139290367771
 30
0.0
 11
33.89722476612215
 21
1.361014128944803
 31
0.0
  0
LINE
  5
30B7
330
30A0
100
AcDbEntity
  8
0
  6
CONTINUOUS
100
AcDbLine
 10
36.23199999996837
 20
3.69578936279102
 30
0.0
 11
37.67199999996831
 21
5.135789362790962
 31
0.0
  0
LINE
  5
30B8
330
30A0
100
AcDbEntity
  8
0
  6
CONTINUOUS
100
AcDbLine
 10
33.2711633111245
 20
0.0614334648669672
 30
0.0
 11
34.43247338014423
 21
1.222743533886696
 31
0.0
  0
LINE
  5
30B9
330
30A0
100
AcDbEntity
  8
0
  6
CONTINUOUS
100
AcDbLine
 10
36.23199999996837
 20
3.022270153710834
 30
0.0
 11
37.67199999996831
 21
4.462270153710775
 31
0.0
  0
LINE
  5
30BA
330
30A0
100
AcDbEntity
  8
0
  6
CONTINUOUS
100
AcDbLine
 10
33.76515245874577
 20
-0.1180965965919523
 30
0.0
 11
35.1587445516215
 21
1.27549549628378
 31
0.0
  0
LINE
  5
30BB
330
30A0
100
AcDbEntity
  8
0
  6
CONTINUOUS
100
AcDbLine
 10
36.21639478609585
 20
2.333145730758136
 30
0.0
 11
37.67199999996831
 21
3.788750944630588
 31
0.0
  0
LINE
  5
30BC
330
30A0
100
AcDbEntity
  8
0
  6
CONTINUOUS
100
AcDbLine
 10
34.34060583368432
 20
-0.2161624307335863
 30
0.0
 11
37.67199999996831
 21
3.115231735550401
 31
0.0
  0
LINE
  5
30BD
330
30A0
100
AcDbEntity
  8
0
  6
CONTINUOUS
100
AcDbLine
 10
35.01698193613905
 20
-0.2133055373590427
 30
0.0
 11
37.66876712070525
 21
2.438479647207154
 31
0.0
  0
LINE
  5
30BE
330
30A0
100
AcDbEntity
  8
0
  6
CONTINUOUS
100
AcDbLine
 10
35.90743367693304
 20
0.0036269943547609
 30
0.0
 11
37.51723902192366
 21
1.613432339345381
 31
0.0
  0
LINE
  5
30BF
330
30A0
100
AcDbEntity
  8
0
  6
CONTINUOUS
100
AcDbLine
 10
32.55309425579761
 20
0.5074718966376706
 30
0.0
 11
32.27784730925847
 21
0.7827188431768102
 31
0.0
  0
LINE
  5
30C0
330
30A0
100
AcDbEntity
  8
0
  6
CONTINUOUS
100
AcDbLine
 10
33.87496468909684
 20
-0.1408793275813673
 30
0.0
 11
31.67993083278052
 21
2.054154528734943
 31
0.0
  0
LINE
  5
30C1
330
30A0
100
AcDbEntity
  8
0
  6
CONTINUOUS
100
AcDbLine
 10
34.64362813207632
 20
-0.2360235614806649
 30
0.0
 11
31.64199999996833
 21
2.765604570627322
 31
0.0
  0
LINE
  5
30C2
330
30A0
100
AcDbEntity
  8
0
  6
CONTINUOUS
100
AcDbLine
 10
35.25801106796118
 20
-0.1768872882853429
 30
0.0
 11
31.64199999996833
 21
3.439123779707508
 31
0.0
  0
LINE
  5
30C3
330
30A0
100
AcDbEntity
  8
0
  6
CONTINUOUS
100
AcDbLine
 10
35.79065650332146
 20
-0.0360135145654361
 30
0.0
 11
34.54143210838231
 21
1.213210880373721
 31
0.0
  0
LINE
  5
30C4
330
30A0
100
AcDbEntity
  8
0
  6
CONTINUOUS
100
AcDbLine
 10
33.08199999996839
 20
2.67264298878764
 30
0.0
 11
31.64199999996833
 21
4.112642988787695
 31
0.0
  0
LINE
  5
30C5
330
30A0
100
AcDbEntity
  8
0
  6
CONTINUOUS
100
AcDbLine
 10
36.25975597779143
 20
0.1684062200447833
 30
0.0
 11
35.15395110240023
 21
1.274211095435983
 31
0.0
  0
LINE
  5
30C6
330
30A0
100
AcDbEntity
  8
0
  6
CONTINUOUS
100
AcDbLine
 10
33.08199999996839
 20
3.346162197867826
 30
0.0
 11
31.64199999996833
 21
4.786162197867881
 31
0.0
  0
LINE
  5
30C7
330
30A0
100
AcDbEntity
  8
0
  6
CONTINUOUS
100
AcDbLine
 10
36.67226329638774
 20
0.4294181105286579
 30
0.0
 11
35.63766478748767
 21
1.464016619428737
 31
0.0
  0
LINE
  5
30C8
330
30A0
100
AcDbEntity
  8
0
  6
CONTINUOUS
100
AcDbLine
 10
33.08199999996839
 20
4.019681406948012
 30
0.0
 11
31.64199999996833
 21
5.459681406948068
 31
0.0
  0
LINE
  5
30C9
330
30A0
100
AcDbEntity
  8
0
  6
CONTINUOUS
100
AcDbLine
 10
37.01677749710036
 20
0.7584231188962329
 30
0.0
 11
35.99563422741351
 21
1.779566388583076
 31
0.0
  0
LINE
  5
30CA
330
30A0
100
AcDbEntity
  8
0
  6
CONTINUOUS
100
AcDbLine
 10
33.08199999996839
 20
4.693200616028199
 30
0.0
 11
31.64199999996833
 21
6.133200616028255
 31
0.0
  0
LINE
  5
30CB
330
30A0
100
AcDbEntity
  8
0
  6
CONTINUOUS
100
AcDbLine
 10
37.29859977568887
 20
1.1501200493879
 30
0.0
 11
36.20680593341555
 21
2.241913891661226
 31
0.0
  0
LINE
  5
30CC
330
30A0
100
AcDbEntity
  8
0
  6
CONTINUOUS
100
AcDbLine
 10
33.08199999996839
 20
5.366719825108386
 30
0.0
 11
31.64199999996833
 21
6.80671982510844
 31
0.0
  0
LINE
  5
30CD
330
30A0
100
AcDbEntity
  8
0
  6
CONTINUOUS
100
AcDbLine
 10
37.5148623517228
 20
1.607376682434161
 30
0.0
 11
36.23199999996837
 21
2.890239034188594
 31
0.0
  0
LINE
  5
30CE
330
30A0
100
AcDbEntity
  8
0
  6
CONTINUOUS
100
AcDbLine
 10
33.08199999996839
 20
6.040239034188573
 30
0.0
 11
31.64199999996833
 21
7.480239034188627
 31
0.0
  0
LINE
  5
30CF
330
30A0
100
AcDbEntity
  8
0
  6
CONTINUOUS
100
AcDbLine
 10
37.64705163358367
 20
2.148706609653477
 30
0.0
 11
36.23199999996837
 21
3.56375824326878
 31
0.0
  0
LINE
  5
30D0
330
30A0
100
AcDbEntity
  8
0
  6
CONTINUOUS
100
AcDbLine
 10
33.08199999996839
 20
6.713758243268758
 30
0.0
 11
31.64199999996833
 21
8.153758243268815
 31
0.0
  0
LINE
  5
30D1
330
30A0
100
AcDbEntity
  8
0
  6
CONTINUOUS
100
AcDbLine
 10
37.67199999996831
 20
2.797277452349026
 30
0.0
 11
36.23199999996837
 21
4.237277452348967
 31
0.0
  0
LINE
  5
30D2
330
30A0
100
AcDbEntity
  8
0
  6
CONTINUOUS
100
AcDbLine
 10
37.67199999996831
 20
3.470796661429213
 30
0.0
 11
36.23199999996837
 21
4.910796661429154
 31
0.0
  0
LINE
  5
30D3
330
30A0
100
AcDbEntity
  8
0
  6
CONTINUOUS
100
AcDbLine
 10
37.67199999996831
 20
4.144315870509399
 30
0.0
 11
36.23199999996837
 21
5.58431587050934
 31
0.0
  0
LINE
  5
30D4
330
30A0
100
AcDbEntity
  8
0
  6
CONTINUOUS
100
AcDbLine
 10
33.08199999996839
 20
7.387277452348945
 30
0.0
 11
31.70617745232608
 21
8.763099999991255
 31
0.0
  0
LINE
  5
30D5
330
30A0
100
AcDbEntity
  8
0
  6
CONTINUOUS
100
AcDbLine
 10
33.08199999996839
 20
8.060796661429132
 30
0.0
 11
32.37969666140626
 21
8.763099999991255
 31
0.0
  0
LINE
  5
30D6
330
30A0
100
AcDbEntity
  8
0
  6
CONTINUOUS
100
AcDbLine
 10
33.08199999996839
 20
8.734315870509318
 30
0.0
 11
33.05321587048645
 21
8.763099999991255
 31
0.0
  0
LINE
  5
30D7
330
30A0
100
AcDbEntity
  8
0
  6
CONTINUOUS
100
AcDbLine
 10
37.67199999996831
 20
4.817835079589585
 30
0.0
 11
36.23199999996837
 21
6.257835079589526
 31
0.0
  0
LINE
  5
30D8
330
30A0
100
AcDbEntity
  8
0
  6
CONTINUOUS
100
AcDbLine
 10
37.67199999996831
 20
5.491354288669771
 30
0.0
 11
36.23199999996837
 21
6.931354288669713
 31
0.0
  0
LINE
  5
30D9
330
30A0
100
AcDbEntity
  8
0
  6
CONTINUOUS
100
AcDbLine
 10
37.67199999996831
 20
6.164873497749958
 30
0.0
 11
36.23199999996837
 21
7.6048734977499
 31
0.0
  0
LINE
  5
30DA
330
30A0
100
AcDbEntity
  8
0
  6
CONTINUOUS
100
AcDbLine
 10
37.67199999996831
 20
6.838392706830144
 30
0.0
 11
36.23199999996837
 21
8.278392706830086
 31
0.0
  0
LINE
  5
30DB
330
30A0
100
AcDbEntity
  8
0
  6
CONTINUOUS
100
AcDbLine
 10
37.67199999996831
 20
7.511911915910332
 30
0.0
 11
36.42081191588738
 21
8.763099999991255
 31
0.0
  0
LINE
  5
30DC
330
30A0
100
AcDbEntity
  8
0
  6
CONTINUOUS
100
AcDbLine
 10
37.67199999996831
 20
8.185431124990519
 30
0.0
 11
37.09433112496757
 21
8.763099999991255
 31
0.0
  0
ENDBLK
  5
3144
330
30A0
100
AcDbEntity
  8
0
100
AcDbBlockEnd
  0
BLOCK
  5
3145
330
30DD
100
AcDbEntity
  8
0
100
AcDbBlockBegin
  2
*X90
 70
     1
 10
0.0
 20
0.0
 30
0.0
  3
*X90
  1

  0
LINE
  5
30DE
330
30DD
100
AcDbEntity
  8
0
  6
CONTINUOUS
100
AcDbLine
 10
38.60499999996136
 20
8.762866199104765
 30
0.0
 11
38.71672554182345
 21
8.874591740966855
 31
0.0
  0
LINE
  5
30DF
330
30DD
100
AcDbEntity
  8
0
  6
CONTINUOUS
100
AcDbLine
 10
38.60499999996136
 20
8.089346990024577
 30
0.0
 11
39.03418785440363
 21
8.518534844466847
 31
0.0
  0
LINE
  5
30E0
330
30DD
100
AcDbEntity
  8
0
  6
CONTINUOUS
100
AcDbLine
 10
38.60499999996136
 20
7.41582778094439
 30
0.0
 11
39.35165016698382
 21
8.16247794796684
 31
0.0
  0
LINE
  5
30E1
330
30DD
100
AcDbEntity
  8
0
  6
CONTINUOUS
100
AcDbLine
 10
38.60499999996136
 20
6.742308571864204
 30
0.0
 11
39.66911247956399
 21
7.806421051466834
 31
0.0
  0
LINE
  5
30E2
330
30DD
100
AcDbEntity
  8
0
  6
CONTINUOUS
100
AcDbLine
 10
38.60499999996136
 20
6.068789362784018
 30
0.0
 11
39.98657479214418
 21
7.450364154966827
 31
0.0
  0
LINE
  5
30E3
330
30DD
100
AcDbEntity
  8
0
  6
CONTINUOUS
100
AcDbLine
 10
38.60499999996136
 20
5.395270153703832
 30
0.0
 11
40.30403710472435
 21
7.09430725846682
 31
0.0
  0
LINE
  5
30E4
330
30DD
100
AcDbEntity
  8
0
  6
CONTINUOUS
100
AcDbLine
 10
38.60499999996136
 20
4.721750944623645
 30
0.0
 11
40.62149941730453
 21
6.738250361966813
 31
0.0
  0
LINE
  5
30E5
330
30DD
100
AcDbEntity
  8
0
  6
CONTINUOUS
100
AcDbLine
 10
38.60499999996136
 20
4.048231735543458
 30
0.0
 11
40.93896172988471
 21
6.382193465466806
 31
0.0
  0
LINE
  5
30E6
330
30DD
100
AcDbEntity
  8
0
  6
CONTINUOUS
100
AcDbLine
 10
38.60499999996136
 20
3.374712526463272
 30
0.0
 11
40.02599999995994
 21
4.795712526461843
 31
0.0
  0
LINE
  5
30E7
330
30DD
100
AcDbEntity
  8
0
  6
CONTINUOUS
100
AcDbLine
 10
38.60499999996136
 20
2.701193317383085
 30
0.0
 11
40.02599999995994
 21
4.122193317381657
 31
0.0
  0
LINE
  5
30E8
330
30DD
100
AcDbEntity
  8
0
  6
CONTINUOUS
100
AcDbLine
 10
40.28339754687704
 20
5.053110073378947
 30
0.0
 11
41.25642404246489
 21
6.026136568966799
 31
0.0
  0
LINE
  5
30E9
330
30DD
100
AcDbEntity
  8
0
  6
CONTINUOUS
100
AcDbLine
 10
40.60085985945722
 20
4.697053176878939
 30
0.0
 11
41.57388635504507
 21
5.670079672466793
 31
0.0
  0
LINE
  5
30EA
330
30DD
100
AcDbEntity
  8
0
  6
CONTINUOUS
100
AcDbLine
 10
43.57899999995641
 20
8.348712526458318
 30
0.0
 11
43.99338747348935
 21
8.763099999991255
 31
0.0
  0
LINE
  5
30EB
330
30DD
100
AcDbEntity
  8
0
  6
CONTINUOUS
100
AcDbLine
 10
43.57899999995641
 20
7.675193317378131
 30
0.0
 11
44.66690668256953
 21
8.763099999991255
 31
0.0
  0
LINE
  5
30EC
330
30DD
100
AcDbEntity
  8
0
  6
CONTINUOUS
100
AcDbLine
 10
38.60499999996136
 20
2.027674108302898
 30
0.0
 11
40.02599999995994
 21
3.44867410830147
 31
0.0
  0
LINE
  5
30ED
330
30DD
100
AcDbEntity
  8
0
  6
CONTINUOUS
100
AcDbLine
 10
38.60499999996136
 20
1.354154899222712
 30
0.0
 11
40.02599999995994
 21
2.775154899221284
 31
0.0
  0
LINE
  5
30EE
330
30DD
100
AcDbEntity
  8
0
  6
CONTINUOUS
100
AcDbLine
 10
38.60499999996136
 20
0.6806356901425255
 30
0.0
 11
40.02599999995994
 21
2.101635690141098
 31
0.0
  0
LINE
  5
30EF
330
30DD
100
AcDbEntity
  8
0
  6
CONTINUOUS
100
AcDbLine
 10
38.60499999996136
 20
0.0071164810623383
 30
0.0
 11
40.02599999995994
 21
1.428116481060911
 31
0.0
  0
LINE
  5
30F0
330
30DD
100
AcDbEntity
  8
0
  6
CONTINUOUS
100
AcDbLine
 10
40.9183221720374
 20
4.340996280378933
 30
0.0
 11
41.89134866762525
 21
5.314022775966786
 31
0.0
  0
LINE
  5
30F1
330
30DD
100
AcDbEntity
  8
0
  6
CONTINUOUS
100
AcDbLine
 10
41.23578448461758
 20
3.984939383878926
 30
0.0
 11
42.20881098020543
 21
4.957965879466778
 31
0.0
  0
LINE
  5
30F2
330
30DD
100
AcDbEntity
  8
0
  6
CONTINUOUS
100
AcDbLine
 10
41.55324679719776
 20
3.628882487378919
 30
0.0
 11
42.52627329278561
 21
4.601908982966772
 31
0.0
  0
LINE
  5
30F3
330
30DD
100
AcDbEntity
  8
0
  6
CONTINUOUS
100
AcDbLine
 10
41.87070910977793
 20
3.272825590878912
 30
0.0
 11
42.84373560536579
 21
4.245852086466765
 31
0.0
  0
LINE
  5
30F4
330
30DD
100
AcDbEntity
  8
0
  6
CONTINUOUS
100
AcDbLine
 10
43.57899999995641
 20
7.001674108297943
 30
0.0
 11
44.99999999995498
 21
8.422674108296516
 31
0.0
  0
LINE
  5
30F5
330
30DD
100
AcDbEntity
  8
0
  6
CONTINUOUS
100
AcDbLine
 10
43.57899999995641
 20
6.328154899217758
 30
0.0
 11
44.99999999995498
 21
7.749154899216329
 31
0.0
  0
LINE
  5
30F6
330
30DD
100
AcDbEntity
  8
0
  6
CONTINUOUS
100
AcDbLine
 10
43.57899999995641
 20
5.654635690137571
 30
0.0
 11
44.99999999995498
 21
7.075635690136142
 31
0.0
  0
LINE
  5
30F7
330
30DD
100
AcDbEntity
  8
0
  6
CONTINUOUS
100
AcDbLine
 10
43.57899999995641
 20
4.981116481057384
 30
0.0
 11
44.99999999995498
 21
6.402116481055955
 31
0.0
  0
LINE
  5
30F8
330
30DD
100
AcDbEntity
  8
0
  6
CONTINUOUS
100
AcDbLine
 10
39.27140272797921
 20
-0.0000000000000009
 30
0.0
 11
40.02599999995994
 21
0.7545972719807246
 31
0.0
  0
LINE
  5
30F9
330
30DD
100
AcDbEntity
  8
0
  6
CONTINUOUS
100
AcDbLine
 10
39.9449219370594
 20
-0.0000000000000009
 30
0.0
 11
40.02599999995994
 21
0.0810780629005379
 31
0.0
  0
LINE
  5
30FA
330
30DD
100
AcDbEntity
  8
0
  6
CONTINUOUS
100
AcDbLine
 10
42.18817142235812
 20
2.916768694378905
 30
0.0
 11
43.16119791794597
 21
3.889795189966758
 31
0.0
  0
LINE
  5
30FB
330
30DD
100
AcDbEntity
  8
0
  6
CONTINUOUS
100
AcDbLine
 10
42.50563373493829
 20
2.560711797878898
 30
0.0
 11
43.47866023052615
 21
3.533738293466751
 31
0.0
  0
LINE
  5
30FC
330
30DD
100
AcDbEntity
  8
0
  6
CONTINUOUS
100
AcDbLine
 10
43.57899999995641
 20
4.307597271977198
 30
0.0
 11
44.99999999995498
 21
5.728597271975769
 31
0.0
  0
LINE
  5
30FD
330
30DD
100
AcDbEntity
  8
0
  6
CONTINUOUS
100
AcDbLine
 10
43.57899999995641
 20
3.634078062897011
 30
0.0
 11
44.99999999995498
 21
5.055078062895582
 31
0.0
  0
LINE
  5
30FE
330
30DD
100
AcDbEntity
  8
0
  6
CONTINUOUS
100
AcDbLine
 10
42.82309604751848
 20
2.204654901378891
 30
0.0
 11
44.99999999995498
 21
4.381558853815395
 31
0.0
  0
LINE
  5
30FF
330
30DD
100
AcDbEntity
  8
0
  6
CONTINUOUS
100
AcDbLine
 10
43.14055836009865
 20
1.848598004878885
 30
0.0
 11
44.99999999995498
 21
3.70803964473521
 31
0.0
  0
LINE
  5
3100
330
30DD
100
AcDbEntity
  8
0
  6
CONTINUOUS
100
AcDbLine
 10
43.45802067267883
 20
1.492541108378878
 30
0.0
 11
44.99999999995498
 21
3.034520435655023
 31
0.0
  0
LINE
  5
3101
330
30DD
100
AcDbEntity
  8
0
  6
CONTINUOUS
100
AcDbLine
 10
43.77548298525902
 20
1.136484211878871
 30
0.0
 11
44.99999999995498
 21
2.361001226574837
 31
0.0
  0
LINE
  5
3102
330
30DD
100
AcDbEntity
  8
0
  6
CONTINUOUS
100
AcDbLine
 10
44.09294529783919
 20
0.7804273153788639
 30
0.0
 11
44.99999999995498
 21
1.687482017494649
 31
0.0
  0
LINE
  5
3103
330
30DD
100
AcDbEntity
  8
0
  6
CONTINUOUS
100
AcDbLine
 10
44.41040761041938
 20
0.4243704188788566
 30
0.0
 11
44.99999999995498
 21
1.013962808414463
 31
0.0
  0
LINE
  5
3104
330
30DD
100
AcDbEntity
  8
0
  6
CONTINUOUS
100
AcDbLine
 10
44.72786992299955
 20
0.0683135223788494
 30
0.0
 11
44.99999999995498
 21
0.340443599334276
 31
0.0
  0
LINE
  5
3105
330
30DD
100
AcDbEntity
  8
0
  6
CONTINUOUS
100
AcDbLine
 10
39.12223903415696
 20
-0.0000000000000009
 30
0.0
 11
38.60499999996136
 21
0.5172390341955961
 31
0.0
  0
LINE
  5
3106
330
30DD
100
AcDbEntity
  8
0
  6
CONTINUOUS
100
AcDbLine
 10
39.79575824323715
 20
-0.0000000000000009
 30
0.0
 11
38.60499999996136
 21
1.190758243275783
 31
0.0
  0
LINE
  5
3107
330
30DD
100
AcDbEntity
  8
0
  6
CONTINUOUS
100
AcDbLine
 10
40.02599999995994
 20
0.443277452357397
 30
0.0
 11
38.60499999996136
 21
1.864277452355969
 31
0.0
  0
LINE
  5
3108
330
30DD
100
AcDbEntity
  8
0
  6
CONTINUOUS
100
AcDbLine
 10
40.02599999995994
 20
1.116796661437583
 30
0.0
 11
38.60499999996136
 21
2.537796661436155
 31
0.0
  0
LINE
  5
3109
330
30DD
100
AcDbEntity
  8
0
  6
CONTINUOUS
100
AcDbLine
 10
40.02599999995994
 20
1.79031587051777
 30
0.0
 11
38.60499999996136
 21
3.211315870516341
 31
0.0
  0
LINE
  5
310A
330
30DD
100
AcDbEntity
  8
0
  6
CONTINUOUS
100
AcDbLine
 10
40.02599999995994
 20
2.463835079597956
 30
0.0
 11
38.60499999996136
 21
3.884835079596527
 31
0.0
  0
LINE
  5
310B
330
30DD
100
AcDbEntity
  8
0
  6
CONTINUOUS
100
AcDbLine
 10
40.02599999995994
 20
3.137354288678143
 30
0.0
 11
38.60499999996136
 21
4.558354288676714
 31
0.0
  0
LINE
  5
310C
330
30DD
100
AcDbEntity
  8
0
  6
CONTINUOUS
100
AcDbLine
 10
40.02599999995994
 20
3.810873497758329
 30
0.0
 11
38.60499999996136
 21
5.2318734977569
 31
0.0
  0
LINE
  5
310D
330
30DD
100
AcDbEntity
  8
0
  6
CONTINUOUS
100
AcDbLine
 10
40.02599999995994
 20
4.484392706838515
 30
0.0
 11
38.60499999996136
 21
5.905392706837086
 31
0.0
  0
LINE
  5
310E
330
30DD
100
AcDbEntity
  8
0
  6
CONTINUOUS
100
AcDbLine
 10
44.99999999995498
 20
0.183911915923658
 30
0.0
 11
41.53858364506288
 21
3.64532827081576
 31
0.0
  0
LINE
  5
310F
330
30DD
100
AcDbEntity
  8
0
  6
CONTINUOUS
100
AcDbLine
 10
40.02599999995994
 20
5.157911915918703
 30
0.0
 11
38.60499999996136
 21
6.578911915917274
 31
0.0
  0
LINE
  5
3110
330
30DD
100
AcDbEntity
  8
0
  6
CONTINUOUS
100
AcDbLine
 10
44.99999999995498
 20
0.8574311250038447
 30
0.0
 11
38.60499999996136
 21
7.25243112499746
 31
0.0
  0
LINE
  5
3111
330
30DD
100
AcDbEntity
  8
0
  6
CONTINUOUS
100
AcDbLine
 10
44.99999999995498
 20
1.530950334084031
 30
0.0
 11
38.60499999996136
 21
7.925950334077647
 31
0.0
  0
LINE
  5
3112
330
30DD
100
AcDbEntity
  8
0
  6
CONTINUOUS
100
AcDbLine
 10
44.99999999995498
 20
2.204469543164218
 30
0.0
 11
43.57899999995641
 21
3.625469543162789
 31
0.0
  0
LINE
  5
3113
330
30DD
100
AcDbEntity
  8
0
  6
CONTINUOUS
100
AcDbLine
 10
41.89876730984767
 20
5.305702233271528
 30
0.0
 11
38.60499999996136
 21
8.599469543157834
 31
0.0
  0
LINE
  5
3114
330
30DD
100
AcDbEntity
  8
0
  6
CONTINUOUS
100
AcDbLine
 10
44.99999999995498
 20
2.877988752244405
 30
0.0
 11
43.57899999995641
 21
4.298988752242975
 31
0.0
  0
LINE
  5
3115
330
30DD
100
AcDbEntity
  8
0
  6
CONTINUOUS
100
AcDbLine
 10
44.99999999995498
 20
3.551507961324591
 30
0.0
 11
43.57899999995641
 21
4.972507961323163
 31
0.0
  0
LINE
  5
3116
330
30DD
100
AcDbEntity
  8
0
  6
CONTINUOUS
100
AcDbLine
 10
44.99999999995498
 20
4.225027170404777
 30
0.0
 11
43.57899999995641
 21
5.646027170403348
 31
0.0
  0
LINE
  5
3117
330
30DD
100
AcDbEntity
  8
0
  6
CONTINUOUS
100
AcDbLine
 10
44.99999999995498
 20
4.898546379484964
 30
0.0
 11
43.57899999995641
 21
6.319546379483535
 31
0.0
  0
LINE
  5
3118
330
30DD
100
AcDbEntity
  8
0
  6
CONTINUOUS
100
AcDbLine
 10
44.99999999995498
 20
5.572065588565151
 30
0.0
 11
43.57899999995641
 21
6.993065588563722
 31
0.0
  0
LINE
  5
3119
330
30DD
100
AcDbEntity
  8
0
  6
CONTINUOUS
100
AcDbLine
 10
44.99999999995498
 20
6.245584797645336
 30
0.0
 11
43.57899999995641
 21
7.666584797643908
 31
0.0
  0
LINE
  5
311A
330
30DD
100
AcDbEntity
  8
0
  6
CONTINUOUS
100
AcDbLine
 10
44.99999999995498
 20
6.919104006725522
 30
0.0
 11
43.57899999995641
 21
8.340104006724093
 31
0.0
  0
LINE
  5
311B
330
30DD
100
AcDbEntity
  8
0
  6
CONTINUOUS
100
AcDbLine
 10
44.99999999995498
 20
7.592623215805709
 30
0.0
 11
43.82952321576943
 21
8.763099999991255
 31
0.0
  0
LINE
  5
311C
330
30DD
100
AcDbEntity
  8
0
  6
CONTINUOUS
100
AcDbLine
 10
44.99999999995498
 20
8.266142424885896
 30
0.0
 11
44.50304242484962
 21
8.763099999991255
 31
0.0
  0
ENDBLK
  5
3146
330
30DD
100
AcDbEntity
  8
0
100
AcDbBlockEnd
  0
BLOCK
  5
3147
330
311D
100
AcDbEntity
  8
0
100
AcDbBlockBegin
  2
*X91
 70
     1
 10
0.0
 20
0.0
 30
0.0
  3
*X91
  1

  0
LINE
  5
311E
330
311D
100
AcDbEntity
  8
0
  6
CONTINUOUS
100
AcDbLine
 10
0.0
 20
8.548461116714023
 30
0.0
 11
0.2146388832772324
 21
8.763099999991255
 31
0.0
  0
LINE
  5
311F
330
311D
100
AcDbEntity
  8
0
  6
CONTINUOUS
100
AcDbLine
 10
-0.0000000000000002
 20
7.874941907633837
 30
0.0
 11
0.8881580923574184
 21
8.763099999991255
 31
0.0
  0
LINE
  5
3120
330
311D
100
AcDbEntity
  8
0
  6
CONTINUOUS
100
AcDbLine
 10
0.0
 20
7.20142269855365
 30
0.0
 11
1.420999999998572
 21
8.622422698552223
 31
0.0
  0
LINE
  5
3121
330
311D
100
AcDbEntity
  8
0
  6
CONTINUOUS
100
AcDbLine
 10
-0.0000000000000001
 20
6.527903489473465
 30
0.0
 11
1.420999999998571
 21
7.948903489472036
 31
0.0
  0
LINE
  5
3122
330
311D
100
AcDbEntity
  8
0
  6
CONTINUOUS
100
AcDbLine
 10
-0.0000000000000002
 20
5.854384280393278
 30
0.0
 11
1.420999999998571
 21
7.275384280391849
 31
0.0
  0
LINE
  5
3123
330
311D
100
AcDbEntity
  8
0
  6
CONTINUOUS
100
AcDbLine
 10
-0.0000000000000002
 20
5.180865071313091
 30
0.0
 11
1.420999999998571
 21
6.601865071311663
 31
0.0
  0
LINE
  5
3124
330
311D
100
AcDbEntity
  8
0
  6
CONTINUOUS
100
AcDbLine
 10
0.0
 20
4.507345862232905
 30
0.0
 11
1.420999999998571
 21
5.928345862231477
 31
0.0
  0
LINE
  5
3125
330
311D
100
AcDbEntity
  8
0
  6
CONTINUOUS
100
AcDbLine
 10
-0.0000000000000003
 20
3.833826653152718
 30
0.0
 11
1.420999999998571
 21
5.25482665315129
 31
0.0
  0
LINE
  5
3126
330
311D
100
AcDbEntity
  8
0
  6
CONTINUOUS
100
AcDbLine
 10
-0.0000000000000002
 20
3.160307444072532
 30
0.0
 11
1.420999999998571
 21
4.581307444071103
 31
0.0
  0
LINE
  5
3127
330
311D
100
AcDbEntity
  8
0
  6
CONTINUOUS
100
AcDbLine
 10
-0.0000000000000001
 20
2.486788234992345
 30
0.0
 11
1.420999999998571
 21
3.907788234990917
 31
0.0
  0
LINE
  5
3128
330
311D
100
AcDbEntity
  8
0
  6
CONTINUOUS
100
AcDbLine
 10
-0.0000000000000006
 20
1.813269025912159
 30
0.0
 11
1.420999999998571
 21
3.234269025910731
 31
0.0
  0
LINE
  5
3129
330
311D
100
AcDbEntity
  8
0
  6
CONTINUOUS
100
AcDbLine
 10
0.0
 20
1.139749816831973
 30
0.0
 11
1.420999999998571
 21
2.560749816830544
 31
0.0
  0
LINE
  5
312A
330
311D
100
AcDbEntity
  8
0
  6
CONTINUOUS
100
AcDbLine
 10
0.0000000000000002
 20
0.466230607751787
 30
0.0
 11
1.420999999998571
 21
1.887230607750358
 31
0.0
  0
LINE
  5
312B
330
311D
100
AcDbEntity
  8
0
  6
CONTINUOUS
100
AcDbLine
 10
0.2072886013284003
 20
-0.0000000000000009
 30
0.0
 11
1.420999999998571
 21
1.213711398670171
 31
0.0
  0
LINE
  5
312C
330
311D
100
AcDbEntity
  8
0
  6
CONTINUOUS
100
AcDbLine
 10
0.8808078104085864
 20
-0.0000000000000009
 30
0.0
 11
1.420999999998571
 21
0.5401921895899839
 31
0.0
  0
LINE
  5
312D
330
311D
100
AcDbEntity
  8
0
  6
CONTINUOUS
100
AcDbLine
 10
0.0581249075061505
 20
-0.0000000000000009
 30
0.0
 11
-0.0000000000000002
 21
0.0581249075061496
 31
0.0
  0
LINE
  5
312E
330
311D
100
AcDbEntity
  8
0
  6
CONTINUOUS
100
AcDbLine
 10
0.7316441165863372
 20
-0.0000000000000009
 30
0.0
 11
-0.0000000000000002
 21
0.7316441165863363
 31
0.0
  0
LINE
  5
312F
330
311D
100
AcDbEntity
  8
0
  6
CONTINUOUS
100
AcDbLine
 10
1.405163325666523
 20
-0.0000000000000009
 30
0.0
 11
-0.0000000000000002
 21
1.405163325666523
 31
0.0
  0
LINE
  5
3130
330
311D
100
AcDbEntity
  8
0
  6
CONTINUOUS
100
AcDbLine
 10
1.420999999998572
 20
0.6576825347481381
 30
0.0
 11
-0.0000000000000001
 21
2.07868253474671
 31
0.0
  0
LINE
  5
3131
330
311D
100
AcDbEntity
  8
0
  6
CONTINUOUS
100
AcDbLine
 10
1.420999999998571
 20
1.331201743828324
 30
0.0
 11
-0.0000000000000001
 21
2.752201743826896
 31
0.0
  0
LINE
  5
3132
330
311D
100
AcDbEntity
  8
0
  6
CONTINUOUS
100
AcDbLine
 10
1.420999999998571
 20
2.004720952908511
 30
0.0
 11
-0.0000000000000002
 21
3.425720952907082
 31
0.0
  0
LINE
  5
3133
330
311D
100
AcDbEntity
  8
0
  6
CONTINUOUS
100
AcDbLine
 10
1.420999999998571
 20
2.678240161988697
 30
0.0
 11
-0.0000000000000001
 21
4.099240161987269
 31
0.0
  0
LINE
  5
3134
330
311D
100
AcDbEntity
  8
0
  6
CONTINUOUS
100
AcDbLine
 10
1.420999999998572
 20
3.351759371068884
 30
0.0
 11
0.0
 21
4.772759371067455
 31
0.0
  0
LINE
  5
3135
330
311D
100
AcDbEntity
  8
0
  6
CONTINUOUS
100
AcDbLine
 10
1.420999999998571
 20
4.02527858014907
 30
0.0
 11
-0.0000000000000003
 21
5.446278580147642
 31
0.0
  0
LINE
  5
3136
330
311D
100
AcDbEntity
  8
0
  6
CONTINUOUS
100
AcDbLine
 10
1.420999999998571
 20
4.698797789229257
 30
0.0
 11
0.0
 21
6.119797789227828
 31
0.0
  0
LINE
  5
3137
330
311D
100
AcDbEntity
  8
0
  6
CONTINUOUS
100
AcDbLine
 10
1.420999999998571
 20
5.372316998309444
 30
0.0
 11
-0.0000000000000001
 21
6.793316998308015
 31
0.0
  0
LINE
  5
3138
330
311D
100
AcDbEntity
  8
0
  6
CONTINUOUS
100
AcDbLine
 10
1.420999999998572
 20
6.045836207389629
 30
0.0
 11
-0.0000000000000004
 21
7.466836207388202
 31
0.0
  0
LINE
  5
3139
330
311D
100
AcDbEntity
  8
0
  6
CONTINUOUS
100
AcDbLine
 10
1.420999999998571
 20
6.719355416469816
 30
0.0
 11
0.0
 21
8.140355416468388
 31
0.0
  0
LINE
  5
313A
330
311D
100
AcDbEntity
  8
0
  6
CONTINUOUS
100
AcDbLine
 10
1.420999999998571
 20
7.392874625550003
 30
0.0
 11
0.0507746255573185
 21
8.763099999991255
 31
0.0
  0
LINE
  5
313B
330
311D
100
AcDbEntity
  8
0
  6
CONTINUOUS
100
AcDbLine
 10
1.420999999998571
 20
8.06639383463019
 30
0.0
 11
0.7242938346375052
 21
8.763099999991255
 31
0.0
  0
LINE
  5
313C
330
311D
100
AcDbEntity
  8
0
  6
CONTINUOUS
100
AcDbLine
 10
1.420999999998571
 20
8.739913043710375
 30
0.0
 11
1.397813043717691
 21
8.763099999991255
 31
0.0
  0
ENDBLK
  5
3148
330
311D
100
AcDbEntity
  8
0
100
AcDbBlockEnd
  0
ENDSEC
  0
SECTION
  2
ENTITIES
  0
LINE
  5
1855
330
18
100
AcDbEntity
  8
1CENTER
100
AcDbLine
 10
3641.622593188256
 20
-488.0735611701336
 30
0.0
 11
1829.393632313564
 21
-488.0735611701336
 31
0.0
  0
LINE
  5
1856
330
18
100
AcDbEntity
  8
01
100
AcDbLine
 10
1841.212323314746
 20
-495.5735611701341
 30
0.0
 11
1841.212323314746
 21
-480.5735611701341
 31
0.0
  0
LINE
  5
1857
330
18
100
AcDbEntity
  8
01
100
AcDbLine
 10
3636.212323314747
 20
-480.5735611701341
 30
0.0
 11
1841.212323314746
 21
-480.5735611701342
 31
0.0
  0
LINE
  5
1858
330
18
100
AcDbEntity
  8
01
100
AcDbLine
 10
3636.212323314747
 20
-495.5735611701341
 30
0.0
 11
1841.212323314747
 21
-495.5735611701341
 31
0.0
  0
LINE
  5
1859
330
18
100
AcDbEntity
  8
01
100
AcDbLine
 10
3636.212323314747
 20
-480.5735611701341
 30
0.0
 11
3636.212323314747
 21
-495.5735611701341
 31
0.0
  0
LINE
  5
189E
330
18
100
AcDbEntity
  8
01
 48
0.5
100
AcDbLine
 10
1839.33516815398
 20
-480.5735611701341
 30
0.0
 11
1841.212323314746
 21
-480.5735611701341
 31
0.0
  0
LINE
  5
189F
330
18
100
AcDbEntity
  8
01
 48
0.5
100
AcDbLine
 10
1839.33516815398
 20
-495.5735611701341
 30
0.0
 11
1841.212323314746
 21
-495.5735611701341
 31
0.0
  0
ARC
  5
18A0
330
18
100
AcDbEntity
  8
01
 48
0.5
100
AcDbCircle
 10
1839.33516815398
 20
-481.0735611701327
 30
0.0
 40
0.5
100
AcDbArc
 50
90.0
 51
177.9892090305503
  0
ARC
  5
18A1
330
18
100
AcDbEntity
  8
01
 48
0.5
100
AcDbCircle
 10
1839.33516815398
 20
-495.0735611701321
 30
0.0
 40
0.5
100
AcDbArc
 50
183.0985793398166
 51
270.0
  0
LINE
  5
18A2
330
18
100
AcDbEntity
  8
1DIM
 48
0.5
100
AcDbLine
 10
1839.401650901368
 20
-480.5735611701334
 30
0.0
 11
1839.401650901368
 21
-495.5735611701341
 31
0.0
  0
LINE
  5
18A3
330
18
100
AcDbEntity
  8
01
 48
0.5
100
AcDbLine
 10
1841.212323314746
 20
-480.5735611701341
 30
0.0
 11
1841.212323314746
 21
-495.5735611701341
 31
0.0
  0
ARC
  5
18A4
330
18
100
AcDbEntity
  8
01
100
AcDbCircle
 10
2038.712323314746
 20
-488.0735611701341
 30
0.0
 40
200.0
100
AcDbArc
 50
177.9892090305567
 51
182.0107909694368
  0
LINE
  5
18C9
330
18
100
AcDbEntity
  8
01
 48
0.5
100
AcDbLine
 10
3638.089478475512
 20
-480.5735611701336
 30
0.0
 11
3636.212323314747
 21
-480.5735611701336
 31
0.0
  0
LINE
  5
18CA
330
18
100
AcDbEntity
  8
01
 48
0.5
100
AcDbLine
 10
3638.089478475512
 20
-495.5735611701336
 30
0.0
 11
3636.212323314747
 21
-495.5735611701336
 31
0.0
  0
ARC
  5
18CB
330
18
100
AcDbEntity
  8
01
 48
0.5
100
AcDbCircle
 10
3638.089478475512
 20
-481.0735611701323
 30
0.0
 40
0.5
100
AcDbArc
 50
2.010790969449765
 51
90.0
  0
ARC
  5
18CC
330
18
100
AcDbEntity
  8
01
 48
0.5
100
AcDbCircle
 10
3638.089478475512
 20
-495.0735611701316
 30
0.0
 40
0.5
100
AcDbArc
 50
270.0
 51
356.9014206601834
  0
LINE
  5
18CD
330
18
100
AcDbEntity
  8
1DIM
 48
0.5
100
AcDbLine
 10
3638.022995728124
 20
-480.573561170133
 30
0.0
 11
3638.022995728124
 21
-495.5735611701336
 31
0.0
  0
LINE
  5
18CE
330
18
100
AcDbEntity
  8
01
 48
0.5
100
AcDbLine
 10
3636.212323314747
 20
-480.5735611701336
 30
0.0
 11
3636.212323314747
 21
-495.5735611701336
 31
0.0
  0
ARC
  5
18CF
330
18
100
AcDbEntity
  8
01
100
AcDbCircle
 10
3438.712323314747
 20
-488.0735611701336
 30
0.0
 40
200.0
100
AcDbArc
 50
357.9892090305633
 51
2.010790969443256
  0
LINE
  5
1D6C
330
18
100
AcDbEntity
  8
1CENTER
100
AcDbLine
 10
3641.622593188256
 20
-428.0735611701336
 30
0.0
 11
1829.393632313564
 21
-428.0735611701336
 31
0.0
  0
LINE
  5
1D6D
330
18
100
AcDbEntity
  8
01
100
AcDbLine
 10
1841.212323314746
 20
-435.5735611701341
 30
0.0
 11
1841.212323314746
 21
-420.5735611701341
 31
0.0
  0
LINE
  5
1D6E
330
18
100
AcDbEntity
  8
01
100
AcDbLine
 10
3636.212323314747
 20
-420.5735611701341
 30
0.0
 11
1841.212323314746
 21
-420.5735611701342
 31
0.0
  0
LINE
  5
1D6F
330
18
100
AcDbEntity
  8
01
100
AcDbLine
 10
3636.212323314747
 20
-435.5735611701341
 30
0.0
 11
1841.212323314747
 21
-435.5735611701341
 31
0.0
  0
LINE
  5
1D70
330
18
100
AcDbEntity
  8
01
100
AcDbLine
 10
3636.212323314747
 20
-420.5735611701341
 30
0.0
 11
3636.212323314747
 21
-435.5735611701341
 31
0.0
  0
LINE
  5
1D71
330
18
100
AcDbEntity
  8
01
 48
0.5
100
AcDbLine
 10
1839.33516815398
 20
-420.5735611701341
 30
0.0
 11
1841.212323314746
 21
-420.5735611701341
 31
0.0
  0
LINE
  5
1D72
330
18
100
AcDbEntity
  8
01
 48
0.5
100
AcDbLine
 10
1839.33516815398
 20
-435.5735611701341
 30
0.0
 11
1841.212323314746
 21
-435.5735611701341
 31
0.0
  0
ARC
  5
1D73
330
18
100
AcDbEntity
  8
01
 48
0.5
100
AcDbCircle
 10
1839.33516815398
 20
-421.0735611701327
 30
0.0
 40
0.5
100
AcDbArc
 50
90.0
 51
177.9892090305503
  0
ARC
  5
1D74
330
18
100
AcDbEntity
  8
01
 48
0.5
100
AcDbCircle
 10
1839.33516815398
 20
-435.0735611701321
 30
0.0
 40
0.5
100
AcDbArc
 50
183.0985793398166
 51
270.0
  0
LINE
  5
1D75
330
18
100
AcDbEntity
  8
1DIM
 48
0.5
100
AcDbLine
 10
1839.401650901368
 20
-420.5735611701334
 30
0.0
 11
1839.401650901368
 21
-435.5735611701341
 31
0.0
  0
LINE
  5
1D76
330
18
100
AcDbEntity
  8
01
 48
0.5
100
AcDbLine
 10
1841.212323314746
 20
-420.5735611701341
 30
0.0
 11
1841.212323314746
 21
-435.5735611701341
 31
0.0
  0
ARC
  5
1D77
330
18
100
AcDbEntity
  8
01
100
AcDbCircle
 10
2038.712323314746
 20
-428.0735611701341
 30
0.0
 40
200.0
100
AcDbArc
 50
177.9892090305567
 51
182.0107909694368
  0
LINE
  5
1D8D
330
18
100
AcDbEntity
  8
01
 48
0.5
100
AcDbLine
 10
3638.089478475512
 20
-420.5735611701336
 30
0.0
 11
3636.212323314747
 21
-420.5735611701336
 31
0.0
  0
LINE
  5
1D8E
330
18
100
AcDbEntity
  8
01
 48
0.5
100
AcDbLine
 10
3638.089478475512
 20
-435.5735611701336
 30
0.0
 11
3636.212323314747
 21
-435.5735611701336
 31
0.0
  0
ARC
  5
1D8F
330
18
100
AcDbEntity
  8
01
 48
0.5
100
AcDbCircle
 10
3638.089478475512
 20
-421.0735611701323
 30
0.0
 40
0.5
100
AcDbArc
 50
2.010790969449765
 51
90.0
  0
ARC
  5
1D90
330
18
100
AcDbEntity
  8
01
 48
0.5
100
AcDbCircle
 10
3638.089478475512
 20
-435.0735611701316
 30
0.0
 40
0.5
100
AcDbArc
 50
270.0
 51
356.9014206601834
  0
LINE
  5
1D91
330
18
100
AcDbEntity
  8
1DIM
 48
0.5
100
AcDbLine
 10
3638.022995728124
 20
-420.573561170133
 30
0.0
 11
3638.022995728124
 21
-435.5735611701336
 31
0.0
  0
LINE
  5
1D92
330
18
100
AcDbEntity
  8
01
 48
0.5
100
AcDbLine
 10
3636.212323314747
 20
-420.5735611701336
 30
0.0
 11
3636.212323314747
 21
-435.5735611701336
 31
0.0
  0
ARC
  5
1D93
330
18
100
AcDbEntity
  8
01
100
AcDbCircle
 10
3438.712323314747
 20
-428.0735611701336
 30
0.0
 40
200.0
100
AcDbArc
 50
357.9892090305633
 51
2.010790969443256
  0
LINE
  5
1D9D
330
18
100
AcDbEntity
  8
1CENTER
100
AcDbLine
 10
1871.712323314964
 20
-510.0735719059737
 30
0.0
 11
1855.712323314964
 21
-510.0735719059737
 31
0.0
  0
LINE
  5
1D9E
330
18
100
AcDbEntity
  8
01
100
AcDbLine
 10
1874.212323314964
 20
-526.0735730360623
 30
0.0
 11
1853.212323315178
 21
-526.0735493042046
 31
0.0
  0
LINE
  5
1D9F
330
18
100
AcDbEntity
  8
1CENTER
100
AcDbLine
 10
1868.712323314963
 20
-493.0735611701336
 30
0.0
 11
1858.712323314963
 21
-493.0735611701336
 31
0.0
  0
ARC
  5
1DA0
330
18
100
AcDbEntity
  8
01
100
AcDbCircle
 10
1863.712323314962
 20
-976.0735611701339
 30
0.0
 40
500.0
100
AcDbArc
 50
88.88661049562359
 51
91.11338950438291
  0
CIRCLE
  5
1DA1
330
18
100
AcDbEntity
  8
01
  6
BYBLOCK
100
AcDbCircle
 10
1863.712323314964
 20
-510.0735719059739
 30
0.0
 40
5.0
  0
LINE
  5
1DA2
330
18
100
AcDbEntity
  8
01
100
AcDbLine
 10
1853.212323315178
 20
-526.0735498692491
 30
0.0
 11
1853.212323315178
 21
-476.9678298939073
 31
0.0
  0
ARC
  5
1DA3
330
18
100
AcDbEntity
  8
01
100
AcDbCircle
 10
1854.01232331496
 20
-476.9678108526282
 30
0.0
 40
0.8
100
AcDbArc
 50
91.11338950437641
 51
180.0013637311554
  0
LINE
  5
1DA4
330
18
100
AcDbEntity
  8
01
100
AcDbLine
 10
1874.212323314964
 20
-526.0735730360623
 30
0.0
 11
1874.212323314963
 21
-476.967810852628
 31
0.0
  0
LINE
  5
1DA5
330
18
100
AcDbEntity
  8
01
100
AcDbLine
 10
1873.912323314963
 20
-526.0735950727874
 30
0.0
 11
1873.912323314963
 21
-526.0735726970358
 31
0.0
  0
LINE
  5
1DA6
330
18
100
AcDbEntity
  8
01
  6
BYBLOCK
100
AcDbLine
 10
1862.462323314964
 20
-509.3518840694867
 30
0.0
 11
1863.712323314964
 21
-508.6301962329997
 31
0.0
  0
LINE
  5
1DA7
330
18
100
AcDbEntity
  8
01
  6
BYBLOCK
100
AcDbLine
 10
1862.462323314964
 20
-509.3518840694867
 30
0.0
 11
1862.462323314964
 21
-510.7952597424608
 31
0.0
  0
LINE
  5
1DA8
330
18
100
AcDbEntity
  8
01
  6
BYBLOCK
100
AcDbLine
 10
1863.712323314964
 20
-508.6301962329997
 30
0.0
 11
1864.962323314964
 21
-509.3518840694867
 31
0.0
  0
LINE
  5
1DA9
330
18
100
AcDbEntity
  8
01
  6
BYBLOCK
100
AcDbLine
 10
1864.962323314964
 20
-509.3518840694867
 30
0.0
 11
1864.962323314964
 21
-510.7952597424608
 31
0.0
  0
LINE
  5
1DAA
330
18
100
AcDbEntity
  8
01
  6
BYBLOCK
100
AcDbLine
 10
1863.712323314964
 20
-511.5169475789478
 30
0.0
 11
1864.962323314964
 21
-510.7952597424608
 31
0.0
  0
LINE
  5
1DAB
330
18
100
AcDbEntity
  8
01
  6
BYBLOCK
100
AcDbLine
 10
1862.462323314964
 20
-510.7952597424608
 30
0.0
 11
1863.712323314964
 21
-511.5169475789478
 31
0.0
  0
LINE
  5
1DAC
330
18
100
AcDbEntity
  8
01
  6
BYBLOCK
100
AcDbLine
 10
1862.462323314963
 20
-493.7952490066207
 30
0.0
 11
1863.712323314963
 21
-494.5169368431077
 31
0.0
  0
LINE
  5
1DAD
330
18
100
AcDbEntity
  8
01
  6
BYBLOCK
100
AcDbLine
 10
1862.462323314963
 20
-492.3518733336466
 30
0.0
 11
1863.712323314963
 21
-491.6301854971596
 31
0.0
  0
LINE
  5
1DAE
330
18
100
AcDbEntity
  8
01
  6
BYBLOCK
100
AcDbLine
 10
1862.462323314963
 20
-492.3518733336466
 30
0.0
 11
1862.462323314963
 21
-493.7952490066207
 31
0.0
  0
LINE
  5
1DAF
330
18
100
AcDbEntity
  8
01
  6
BYBLOCK
100
AcDbLine
 10
1863.712323314963
 20
-494.5169368431077
 30
0.0
 11
1864.962323314963
 21
-493.7952490066207
 31
0.0
  0
LINE
  5
1DB0
330
18
100
AcDbEntity
  8
01
  6
BYBLOCK
100
AcDbLine
 10
1864.962323314963
 20
-492.3518733336466
 30
0.0
 11
1864.962323314963
 21
-493.7952490066207
 31
0.0
  0
LINE
  5
1DB1
330
18
100
AcDbEntity
  8
01
  6
BYBLOCK
100
AcDbLine
 10
1863.712323314963
 20
-491.6301854971596
 30
0.0
 11
1864.962323314963
 21
-492.3518733336466
 31
0.0
  0
LINE
  5
1DB2
330
18
100
AcDbEntity
  8
1CENTER
100
AcDbLine
 10
1863.712323314963
 20
-488.0735611701336
 30
0.0
 11
1863.712323314963
 21
-498.0735611701336
 31
0.0
  0
CIRCLE
  5
1DB3
330
18
100
AcDbEntity
  8
01
  6
BYBLOCK
100
AcDbCircle
 10
1863.712323314963
 20
-493.0735611701336
 30
0.0
 40
2.5
  0
CIRCLE
  5
1DB4
330
18
100
AcDbEntity
  8
01
  6
BYBLOCK
100
AcDbCircle
 10
1863.712323314963
 20
-493.0735611701336
 30
0.0
 40
2.5
  0
CIRCLE
  5
1DB5
330
18
100
AcDbEntity
  8
01
  6
BYBLOCK
100
AcDbCircle
 10
1863.712323314963
 20
-493.0735611701336
 30
0.0
 40
2.100000000000932
  0
LINE
  5
1DB6
330
18
100
AcDbEntity
  8
1CENTER
100
AcDbLine
 10
1863.712323314964
 20
-502.0735719059737
 30
0.0
 11
1863.712323314964
 21
-518.0735719059737
 31
0.0
  0
ARC
  5
1DB7
330
18
100
AcDbEntity
  8
01
100
AcDbCircle
 10
1873.41232331496
 20
-476.9678108526282
 30
0.0
 40
0.8
100
AcDbArc
 50
0.0000000000008142
 51
90.0
  0
LINE
  5
1DBA
330
18
100
AcDbEntity
  8
1CENTER
100
AcDbLine
 10
2455.045656648298
 20
-510.0735719059737
 30
0.0
 11
2439.045656648298
 21
-510.0735719059737
 31
0.0
  0
LINE
  5
1DBB
330
18
100
AcDbEntity
  8
01
100
AcDbLine
 10
2457.545656648298
 20
-526.0735730360623
 30
0.0
 11
2436.545656648512
 21
-526.0735493042046
 31
0.0
  0
LINE
  5
1DBC
330
18
100
AcDbEntity
  8
1CENTER
100
AcDbLine
 10
2452.045656648297
 20
-493.0735611701336
 30
0.0
 11
2442.045656648297
 21
-493.0735611701336
 31
0.0
  0
ARC
  5
1DBD
330
18
100
AcDbEntity
  8
01
100
AcDbCircle
 10
2447.045656648296
 20
-976.0735611701339
 30
0.0
 40
500.0
100
AcDbArc
 50
88.88661049562359
 51
91.11338950438291
  0
CIRCLE
  5
1DBE
330
18
100
AcDbEntity
  8
01
  6
BYBLOCK
100
AcDbCircle
 10
2447.045656648298
 20
-510.0735719059739
 30
0.0
 40
5.0
  0
LINE
  5
1DBF
330
18
100
AcDbEntity
  8
01
100
AcDbLine
 10
2436.545656648512
 20
-526.0735498692491
 30
0.0
 11
2436.545656648512
 21
-476.9678298939073
 31
0.0
  0
ARC
  5
1DC0
330
18
100
AcDbEntity
  8
01
100
AcDbCircle
 10
2437.345656648294
 20
-476.9678108526282
 30
0.0
 40
0.8
100
AcDbArc
 50
91.11338950437641
 51
180.0013637311554
  0
LINE
  5
1DC1
330
18
100
AcDbEntity
  8
01
100
AcDbLine
 10
2457.545656648298
 20
-526.0735730360623
 30
0.0
 11
2457.545656648297
 21
-476.967810852628
 31
0.0
  0
LINE
  5
1DC2
330
18
100
AcDbEntity
  8
01
100
AcDbLine
 10
2457.245656648297
 20
-526.0735950727874
 30
0.0
 11
2457.245656648297
 21
-526.0735726970358
 31
0.0
  0
LINE
  5
1DC3
330
18
100
AcDbEntity
  8
01
  6
BYBLOCK
100
AcDbLine
 10
2445.795656648298
 20
-509.3518840694867
 30
0.0
 11
2447.045656648298
 21
-508.6301962329997
 31
0.0
  0
LINE
  5
1DC4
330
18
100
AcDbEntity
  8
01
  6
BYBLOCK
100
AcDbLine
 10
2445.795656648298
 20
-509.3518840694867
 30
0.0
 11
2445.795656648298
 21
-510.7952597424608
 31
0.0
  0
LINE
  5
1DC5
330
18
100
AcDbEntity
  8
01
  6
BYBLOCK
100
AcDbLine
 10
2447.045656648298
 20
-508.6301962329997
 30
0.0
 11
2448.295656648298
 21
-509.3518840694867
 31
0.0
  0
LINE
  5
1DC6
330
18
100
AcDbEntity
  8
01
  6
BYBLOCK
100
AcDbLine
 10
2448.295656648298
 20
-509.3518840694867
 30
0.0
 11
2448.295656648298
 21
-510.7952597424608
 31
0.0
  0
LINE
  5
1DC7
330
18
100
AcDbEntity
  8
01
  6
BYBLOCK
100
AcDbLine
 10
2447.045656648298
 20
-511.5169475789478
 30
0.0
 11
2448.295656648298
 21
-510.7952597424608
 31
0.0
  0
LINE
  5
1DC8
330
18
100
AcDbEntity
  8
01
  6
BYBLOCK
100
AcDbLine
 10
2445.795656648298
 20
-510.7952597424608
 30
0.0
 11
2447.045656648298
 21
-511.5169475789478
 31
0.0
  0
LINE
  5
1DC9
330
18
100
AcDbEntity
  8
01
  6
BYBLOCK
100
AcDbLine
 10
2445.795656648297
 20
-493.7952490066207
 30
0.0
 11
2447.045656648297
 21
-494.5169368431077
 31
0.0
  0
LINE
  5
1DCA
330
18
100
AcDbEntity
  8
01
  6
BYBLOCK
100
AcDbLine
 10
2445.795656648297
 20
-492.3518733336466
 30
0.0
 11
2447.045656648297
 21
-491.6301854971596
 31
0.0
  0
LINE
  5
1DCB
330
18
100
AcDbEntity
  8
01
  6
BYBLOCK
100
AcDbLine
 10
2445.795656648297
 20
-492.3518733336466
 30
0.0
 11
2445.795656648297
 21
-493.7952490066207
 31
0.0
  0
LINE
  5
1DCC
330
18
100
AcDbEntity
  8
01
  6
BYBLOCK
100
AcDbLine
 10
2447.045656648297
 20
-494.5169368431077
 30
0.0
 11
2448.295656648297
 21
-493.7952490066207
 31
0.0
  0
LINE
  5
1DCD
330
18
100
AcDbEntity
  8
01
  6
BYBLOCK
100
AcDbLine
 10
2448.295656648297
 20
-492.3518733336466
 30
0.0
 11
2448.295656648297
 21
-493.7952490066207
 31
0.0
  0
LINE
  5
1DCE
330
18
100
AcDbEntity
  8
01
  6
BYBLOCK
100
AcDbLine
 10
2447.045656648297
 20
-491.6301854971596
 30
0.0
 11
2448.295656648297
 21
-492.3518733336466
 31
0.0
  0
LINE
  5
1DCF
330
18
100
AcDbEntity
  8
1CENTER
100
AcDbLine
 10
2447.045656648297
 20
-488.0735611701336
 30
0.0
 11
2447.045656648297
 21
-498.0735611701336
 31
0.0
  0
CIRCLE
  5
1DD0
330
18
100
AcDbEntity
  8
01
  6
BYBLOCK
100
AcDbCircle
 10
2447.045656648297
 20
-493.0735611701336
 30
0.0
 40
2.5
  0
CIRCLE
  5
1DD1
330
18
100
AcDbEntity
  8
01
  6
BYBLOCK
100
AcDbCircle
 10
2447.045656648297
 20
-493.0735611701336
 30
0.0
 40
2.5
  0
CIRCLE
  5
1DD2
330
18
100
AcDbEntity
  8
01
  6
BYBLOCK
100
AcDbCircle
 10
2447.045656648297
 20
-493.0735611701336
 30
0.0
 40
2.100000000000932
  0
LINE
  5
1DD3
330
18
100
AcDbEntity
  8
1CENTER
100
AcDbLine
 10
2447.045656648298
 20
-502.0735719059737
 30
0.0
 11
2447.045656648298
 21
-518.0735719059737
 31
0.0
  0
ARC
  5
1DD4
330
18
100
AcDbEntity
  8
01
100
AcDbCircle
 10
2456.745656648294
 20
-476.9678108526282
 30
0.0
 40
0.8
100
AcDbArc
 50
0.0000000000008142
 51
90.0
  0
LINE
  5
1DD7
330
18
100
AcDbEntity
  8
1CENTER
100
AcDbLine
 10
3038.378989981631
 20
-510.0735719059737
 30
0.0
 11
3022.378989981631
 21
-510.0735719059737
 31
0.0
  0
LINE
  5
1DD8
330
18
100
AcDbEntity
  8
01
100
AcDbLine
 10
3040.878989981631
 20
-526.0735730360623
 30
0.0
 11
3019.878989981845
 21
-526.0735493042046
 31
0.0
  0
LINE
  5
1DD9
330
18
100
AcDbEntity
  8
1CENTER
100
AcDbLine
 10
3035.37898998163
 20
-493.0735611701336
 30
0.0
 11
3025.37898998163
 21
-493.0735611701336
 31
0.0
  0
ARC
  5
1DDA
330
18
100
AcDbEntity
  8
01
100
AcDbCircle
 10
3030.378989981629
 20
-976.0735611701339
 30
0.0
 40
500.0
100
AcDbArc
 50
88.88661049562359
 51
91.11338950438291
  0
CIRCLE
  5
1DDB
330
18
100
AcDbEntity
  8
01
  6
BYBLOCK
100
AcDbCircle
 10
3030.378989981631
 20
-510.0735719059739
 30
0.0
 40
5.0
  0
LINE
  5
1DDC
330
18
100
AcDbEntity
  8
01
100
AcDbLine
 10
3019.878989981845
 20
-526.0735498692491
 30
0.0
 11
3019.878989981845
 21
-476.9678298939073
 31
0.0
  0
ARC
  5
1DDD
330
18
100
AcDbEntity
  8
01
100
AcDbCircle
 10
3020.678989981627
 20
-476.9678108526282
 30
0.0
 40
0.8
100
AcDbArc
 50
91.11338950437641
 51
180.0013637311554
  0
LINE
  5
1DDE
330
18
100
AcDbEntity
  8
01
100
AcDbLine
 10
3040.878989981631
 20
-526.0735730360623
 30
0.0
 11
3040.87898998163
 21
-476.967810852628
 31
0.0
  0
LINE
  5
1DDF
330
18
100
AcDbEntity
  8
01
100
AcDbLine
 10
3040.57898998163
 20
-526.0735950727874
 30
0.0
 11
3040.57898998163
 21
-526.0735726970358
 31
0.0
  0
LINE
  5
1DE0
330
18
100
AcDbEntity
  8
01
  6
BYBLOCK
100
AcDbLine
 10
3029.128989981631
 20
-509.3518840694867
 30
0.0
 11
3030.378989981631
 21
-508.6301962329997
 31
0.0
  0
LINE
  5
1DE1
330
18
100
AcDbEntity
  8
01
  6
BYBLOCK
100
AcDbLine
 10
3029.128989981631
 20
-509.3518840694867
 30
0.0
 11
3029.128989981631
 21
-510.7952597424608
 31
0.0
  0
LINE
  5
1DE2
330
18
100
AcDbEntity
  8
01
  6
BYBLOCK
100
AcDbLine
 10
3030.378989981631
 20
-508.6301962329997
 30
0.0
 11
3031.628989981631
 21
-509.3518840694867
 31
0.0
  0
LINE
  5
1DE3
330
18
100
AcDbEntity
  8
01
  6
BYBLOCK
100
AcDbLine
 10
3031.628989981631
 20
-509.3518840694867
 30
0.0
 11
3031.628989981631
 21
-510.7952597424608
 31
0.0
  0
LINE
  5
1DE4
330
18
100
AcDbEntity
  8
01
  6
BYBLOCK
100
AcDbLine
 10
3030.378989981631
 20
-511.5169475789478
 30
0.0
 11
3031.628989981631
 21
-510.7952597424608
 31
0.0
  0
LINE
  5
1DE5
330
18
100
AcDbEntity
  8
01
  6
BYBLOCK
100
AcDbLine
 10
3029.128989981631
 20
-510.7952597424608
 30
0.0
 11
3030.378989981631
 21
-511.5169475789478
 31
0.0
  0
LINE
  5
1DE6
330
18
100
AcDbEntity
  8
01
  6
BYBLOCK
100
AcDbLine
 10
3029.12898998163
 20
-493.7952490066207
 30
0.0
 11
3030.37898998163
 21
-494.5169368431077
 31
0.0
  0
LINE
  5
1DE7
330
18
100
AcDbEntity
  8
01
  6
BYBLOCK
100
AcDbLine
 10
3029.12898998163
 20
-492.3518733336466
 30
0.0
 11
3030.37898998163
 21
-491.6301854971596
 31
0.0
  0
LINE
  5
1DE8
330
18
100
AcDbEntity
  8
01
  6
BYBLOCK
100
AcDbLine
 10
3029.12898998163
 20
-492.3518733336466
 30
0.0
 11
3029.12898998163
 21
-493.7952490066207
 31
0.0
  0
LINE
  5
1DE9
330
18
100
AcDbEntity
  8
01
  6
BYBLOCK
100
AcDbLine
 10
3030.37898998163
 20
-494.5169368431077
 30
0.0
 11
3031.62898998163
 21
-493.7952490066207
 31
0.0
  0
LINE
  5
1DEA
330
18
100
AcDbEntity
  8
01
  6
BYBLOCK
100
AcDbLine
 10
3031.62898998163
 20
-492.3518733336466
 30
0.0
 11
3031.62898998163
 21
-493.7952490066207
 31
0.0
  0
LINE
  5
1DEB
330
18
100
AcDbEntity
  8
01
  6
BYBLOCK
100
AcDbLine
 10
3030.37898998163
 20
-491.6301854971596
 30
0.0
 11
3031.62898998163
 21
-492.3518733336466
 31
0.0
  0
LINE
  5
1DEC
330
18
100
AcDbEntity
  8
1CENTER
100
AcDbLine
 10
3030.37898998163
 20
-488.0735611701336
 30
0.0
 11
3030.37898998163
 21
-498.0735611701336
 31
0.0
  0
CIRCLE
  5
1DED
330
18
100
AcDbEntity
  8
01
  6
BYBLOCK
100
AcDbCircle
 10
3030.37898998163
 20
-493.0735611701336
 30
0.0
 40
2.5
  0
CIRCLE
  5
1DEE
330
18
100
AcDbEntity
  8
01
  6
BYBLOCK
100
AcDbCircle
 10
3030.37898998163
 20
-493.0735611701336
 30
0.0
 40
2.5
  0
CIRCLE
  5
1DEF
330
18
100
AcDbEntity
  8
01
  6
BYBLOCK
100
AcDbCircle
 10
3030.37898998163
 20
-493.0735611701336
 30
0.0
 40
2.100000000000932
  0
LINE
  5
1DF0
330
18
100
AcDbEntity
  8
1CENTER
100
AcDbLine
 10
3030.378989981631
 20
-502.0735719059737
 30
0.0
 11
3030.378989981631
 21
-518.0735719059737
 31
0.0
  0
ARC
  5
1DF1
330
18
100
AcDbEntity
  8
01
100
AcDbCircle
 10
3040.078989981627
 20
-476.9678108526282
 30
0.0
 40
0.8
100
AcDbArc
 50
0.0000000000008142
 51
90.0
  0
LINE
  5
1DF4
330
18
100
AcDbEntity
  8
1CENTER
100
AcDbLine
 10
3621.712323314963
 20
-510.0735719059737
 30
0.0
 11
3605.712323314963
 21
-510.0735719059737
 31
0.0
  0
LINE
  5
1DF5
330
18
100
AcDbEntity
  8
01
100
AcDbLine
 10
3624.212323314963
 20
-526.0735730360623
 30
0.0
 11
3603.212323315177
 21
-526.0735493042046
 31
0.0
  0
LINE
  5
1DF6
330
18
100
AcDbEntity
  8
1CENTER
100
AcDbLine
 10
3618.712323314962
 20
-493.0735611701336
 30
0.0
 11
3608.712323314962
 21
-493.0735611701336
 31
0.0
  0
ARC
  5
1DF7
330
18
100
AcDbEntity
  8
01
100
AcDbCircle
 10
3613.712323314961
 20
-976.0735611701339
 30
0.0
 40
500.0
100
AcDbArc
 50
88.88661049562359
 51
91.11338950438291
  0
CIRCLE
  5
1DF8
330
18
100
AcDbEntity
  8
01
  6
BYBLOCK
100
AcDbCircle
 10
3613.712323314963
 20
-510.0735719059739
 30
0.0
 40
5.0
  0
LINE
  5
1DF9
330
18
100
AcDbEntity
  8
01
100
AcDbLine
 10
3603.212323315177
 20
-526.0735498692491
 30
0.0
 11
3603.212323315177
 21
-476.9678298939073
 31
0.0
  0
ARC
  5
1DFA
330
18
100
AcDbEntity
  8
01
100
AcDbCircle
 10
3604.012323314959
 20
-476.9678108526282
 30
0.0
 40
0.8
100
AcDbArc
 50
91.11338950437641
 51
180.0013637311554
  0
LINE
  5
1DFB
330
18
100
AcDbEntity
  8
01
100
AcDbLine
 10
3624.212323314963
 20
-526.0735730360623
 30
0.0
 11
3624.212323314962
 21
-476.967810852628
 31
0.0
  0
LINE
  5
1DFC
330
18
100
AcDbEntity
  8
01
100
AcDbLine
 10
3623.912323314962
 20
-526.0735950727874
 30
0.0
 11
3623.912323314962
 21
-526.0735726970358
 31
0.0
  0
LINE
  5
1DFD
330
18
100
AcDbEntity
  8
01
  6
BYBLOCK
100
AcDbLine
 10
3612.462323314963
 20
-509.3518840694867
 30
0.0
 11
3613.712323314963
 21
-508.6301962329997
 31
0.0
  0
LINE
  5
1DFE
330
18
100
AcDbEntity
  8
01
  6
BYBLOCK
100
AcDbLine
 10
3612.462323314963
 20
-509.3518840694867
 30
0.0
 11
3612.462323314963
 21
-510.7952597424608
 31
0.0
  0
LINE
  5
1DFF
330
18
100
AcDbEntity
  8
01
  6
BYBLOCK
100
AcDbLine
 10
3613.712323314963
 20
-508.6301962329997
 30
0.0
 11
3614.962323314963
 21
-509.3518840694867
 31
0.0
  0
LINE
  5
1E00
330
18
100
AcDbEntity
  8
01
  6
BYBLOCK
100
AcDbLine
 10
3614.962323314963
 20
-509.3518840694867
 30
0.0
 11
3614.962323314963
 21
-510.7952597424608
 31
0.0
  0
LINE
  5
1E01
330
18
100
AcDbEntity
  8
01
  6
BYBLOCK
100
AcDbLine
 10
3613.712323314963
 20
-511.5169475789478
 30
0.0
 11
3614.962323314963
 21
-510.7952597424608
 31
0.0
  0
LINE
  5
1E02
330
18
100
AcDbEntity
  8
01
  6
BYBLOCK
100
AcDbLine
 10
3612.462323314963
 20
-510.7952597424608
 30
0.0
 11
3613.712323314963
 21
-511.5169475789478
 31
0.0
  0
LINE
  5
1E03
330
18
100
AcDbEntity
  8
01
  6
BYBLOCK
100
AcDbLine
 10
3612.462323314962
 20
-493.7952490066207
 30
0.0
 11
3613.712323314962
 21
-494.5169368431077
 31
0.0
  0
LINE
  5
1E04
330
18
100
AcDbEntity
  8
01
  6
BYBLOCK
100
AcDbLine
 10
3612.462323314962
 20
-492.3518733336466
 30
0.0
 11
3613.712323314962
 21
-491.6301854971596
 31
0.0
  0
LINE
  5
1E05
330
18
100
AcDbEntity
  8
01
  6
BYBLOCK
100
AcDbLine
 10
3612.462323314962
 20
-492.3518733336466
 30
0.0
 11
3612.462323314962
 21
-493.7952490066207
 31
0.0
  0
LINE
  5
1E06
330
18
100
AcDbEntity
  8
01
  6
BYBLOCK
100
AcDbLine
 10
3613.712323314962
 20
-494.5169368431077
 30
0.0
 11
3614.962323314962
 21
-493.7952490066207
 31
0.0
  0
LINE
  5
1E07
330
18
100
AcDbEntity
  8
01
  6
BYBLOCK
100
AcDbLine
 10
3614.962323314962
 20
-492.3518733336466
 30
0.0
 11
3614.962323314962
 21
-493.7952490066207
 31
0.0
  0
LINE
  5
1E08
330
18
100
AcDbEntity
  8
01
  6
BYBLOCK
100
AcDbLine
 10
3613.712323314962
 20
-491.6301854971596
 30
0.0
 11
3614.962323314962
 21
-492.3518733336466
 31
0.0
  0
LINE
  5
1E09
330
18
100
AcDbEntity
  8
1CENTER
100
AcDbLine
 10
3613.712323314962
 20
-488.0735611701336
 30
0.0
 11
3613.712323314962
 21
-498.0735611701336
 31
0.0
  0
CIRCLE
  5
1E0A
330
18
100
AcDbEntity
  8
01
  6
BYBLOCK
100
AcDbCircle
 10
3613.712323314962
 20
-493.0735611701336
 30
0.0
 40
2.5
  0
CIRCLE
  5
1E0B
330
18
100
AcDbEntity
  8
01
  6
BYBLOCK
100
AcDbCircle
 10
3613.712323314962
 20
-493.0735611701336
 30
0.0
 40
2.5
  0
CIRCLE
  5
1E0C
330
18
100
AcDbEntity
  8
01
  6
BYBLOCK
100
AcDbCircle
 10
3613.712323314962
 20
-493.0735611701336
 30
0.0
 40
2.100000000000932
  0
LINE
  5
1E0D
330
18
100
AcDbEntity
  8
1CENTER
100
AcDbLine
 10
3613.712323314963
 20
-502.0735719059737
 30
0.0
 11
3613.712323314963
 21
-518.0735719059737
 31
0.0
  0
ARC
  5
1E0E
330
18
100
AcDbEntity
  8
01
100
AcDbCircle
 10
3623.412323314959
 20
-476.9678108526282
 30
0.0
 40
0.8
100
AcDbArc
 50
0.0000000000008142
 51
90.0
  0
LINE
  5
1ED4
330
18
100
AcDbEntity
  8
01
  6
BYBLOCK
100
AcDbLine
 10
3603.212323314962
 20
-416.967810852628
 30
0.0
 11
3603.212323314962
 21
-439.1793114876393
 31
0.0
  0
LINE
  5
1ED5
330
18
100
AcDbEntity
  8
01
  6
BYBLOCK
100
AcDbLine
 10
3624.212323314962
 20
-416.967810852628
 30
0.0
 11
3624.212323314962
 21
-439.1793114876393
 31
0.0
  0
LINE
  5
1ED7
330
18
100
AcDbEntity
  8
1CENTER
100
AcDbLine
 10
3613.712323314962
 20
-412.1089220962801
 30
0.0
 11
3613.712323314962
 21
-444.0382002439871
 31
0.0
  0
ARC
  5
1ED8
330
18
100
AcDbEntity
  8
01
100
AcDbCircle
 10
3613.712323314962
 20
-916.0735611701336
 30
0.0
 40
500.0
100
AcDbArc
 50
88.88661049562361
 51
91.11338950438292
  0
ARC
  5
1ED9
330
18
100
AcDbEntity
  8
01
100
AcDbCircle
 10
3604.01232331496
 20
-416.967810852628
 30
0.0
 40
0.8
100
AcDbArc
 50
91.11338950438292
 51
180.0
  0
ARC
  5
1EDA
330
18
100
AcDbEntity
  8
01
100
AcDbCircle
 10
3623.41232331496
 20
-416.967810852628
 30
0.0
 40
0.8
100
AcDbArc
 50
0.0
 51
90.00000000000001
  0
ARC
  5
1EDB
330
18
100
AcDbEntity
  8
01
100
AcDbCircle
 10
3613.712323314962
 20
59.92643882986636
 30
0.0
 40
500.0
100
AcDbArc
 50
268.886610495617
 51
271.1133895043764
  0
ARC
  5
1EDC
330
18
100
AcDbEntity
  8
01
100
AcDbCircle
 10
3604.01232331496
 20
-439.1793114876393
 30
0.0
 40
0.8
100
AcDbArc
 50
180.0
 51
268.886610495617
  0
ARC
  5
1EDD
330
18
100
AcDbEntity
  8
01
100
AcDbCircle
 10
3623.41232331496
 20
-439.1793114876393
 30
0.0
 40
0.8
100
AcDbArc
 50
270.0
 51
0.0
  0
LINE
  5
1EDE
330
18
100
AcDbEntity
  8
01
  6
BYBLOCK
100
AcDbLine
 10
3019.87898998163
 20
-416.967810852628
 30
0.0
 11
3019.87898998163
 21
-439.1793114876393
 31
0.0
  0
LINE
  5
1EDF
330
18
100
AcDbEntity
  8
01
  6
BYBLOCK
100
AcDbLine
 10
3040.87898998163
 20
-416.967810852628
 30
0.0
 11
3040.87898998163
 21
-439.1793114876393
 31
0.0
  0
LINE
  5
1EE1
330
18
100
AcDbEntity
  8
1CENTER
100
AcDbLine
 10
3030.37898998163
 20
-412.1089220962801
 30
0.0
 11
3030.37898998163
 21
-444.0382002439871
 31
0.0
  0
ARC
  5
1EE2
330
18
100
AcDbEntity
  8
01
100
AcDbCircle
 10
3030.37898998163
 20
-916.0735611701336
 30
0.0
 40
500.0
100
AcDbArc
 50
88.88661049562361
 51
91.11338950438292
  0
ARC
  5
1EE3
330
18
100
AcDbEntity
  8
01
100
AcDbCircle
 10
3020.678989981628
 20
-416.967810852628
 30
0.0
 40
0.8
100
AcDbArc
 50
91.11338950438292
 51
180.0
  0
ARC
  5
1EE4
330
18
100
AcDbEntity
  8
01
100
AcDbCircle
 10
3040.078989981628
 20
-416.967810852628
 30
0.0
 40
0.8
100
AcDbArc
 50
0.0
 51
90.00000000000001
  0
ARC
  5
1EE5
330
18
100
AcDbEntity
  8
01
100
AcDbCircle
 10
3030.37898998163
 20
59.92643882986636
 30
0.0
 40
500.0
100
AcDbArc
 50
268.886610495617
 51
271.1133895043764
  0
ARC
  5
1EE6
330
18
100
AcDbEntity
  8
01
100
AcDbCircle
 10
3020.678989981628
 20
-439.1793114876393
 30
0.0
 40
0.8
100
AcDbArc
 50
180.0
 51
268.886610495617
  0
ARC
  5
1EE7
330
18
100
AcDbEntity
  8
01
100
AcDbCircle
 10
3040.078989981628
 20
-439.1793114876393
 30
0.0
 40
0.8
100
AcDbArc
 50
270.0
 51
0.0
  0
LINE
  5
1EE8
330
18
100
AcDbEntity
  8
01
  6
BYBLOCK
100
AcDbLine
 10
2436.545656648297
 20
-416.967810852628
 30
0.0
 11
2436.545656648297
 21
-439.1793114876393
 31
0.0
  0
LINE
  5
1EE9
330
18
100
AcDbEntity
  8
01
  6
BYBLOCK
100
AcDbLine
 10
2457.545656648297
 20
-416.967810852628
 30
0.0
 11
2457.545656648297
 21
-439.1793114876393
 31
0.0
  0
LINE
  5
1EEB
330
18
100
AcDbEntity
  8
1CENTER
100
AcDbLine
 10
2447.045656648297
 20
-412.1089220962801
 30
0.0
 11
2447.045656648297
 21
-444.0382002439871
 31
0.0
  0
ARC
  5
1EEC
330
18
100
AcDbEntity
  8
01
100
AcDbCircle
 10
2447.045656648297
 20
-916.0735611701336
 30
0.0
 40
500.0
100
AcDbArc
 50
88.88661049562361
 51
91.11338950438292
  0
ARC
  5
1EED
330
18
100
AcDbEntity
  8
01
100
AcDbCircle
 10
2437.345656648295
 20
-416.967810852628
 30
0.0
 40
0.8
100
AcDbArc
 50
91.11338950438292
 51
180.0
  0
ARC
  5
1EEE
330
18
100
AcDbEntity
  8
01
100
AcDbCircle
 10
2456.745656648295
 20
-416.967810852628
 30
0.0
 40
0.8
100
AcDbArc
 50
0.0
 51
90.00000000000001
  0
ARC
  5
1EEF
330
18
100
AcDbEntity
  8
01
100
AcDbCircle
 10
2447.045656648297
 20
59.92643882986636
 30
0.0
 40
500.0
100
AcDbArc
 50
268.886610495617
 51
271.1133895043764
  0
ARC
  5
1EF0
330
18
100
AcDbEntity
  8
01
100
AcDbCircle
 10
2437.345656648295
 20
-439.1793114876393
 30
0.0
 40
0.8
100
AcDbArc
 50
180.0
 51
268.886610495617
  0
ARC
  5
1EF1
330
18
100
AcDbEntity
  8
01
100
AcDbCircle
 10
2456.745656648295
 20
-439.1793114876393
 30
0.0
 40
0.8
100
AcDbArc
 50
270.0
 51
0.0
  0
LINE
  5
1EF2
330
18
100
AcDbEntity
  8
01
  6
BYBLOCK
100
AcDbLine
 10
1853.212323314963
 20
-416.967810852628
 30
0.0
 11
1853.212323314963
 21
-439.1793114876393
 31
0.0
  0
LINE
  5
1EF3
330
18
100
AcDbEntity
  8
01
  6
BYBLOCK
100
AcDbLine
 10
1874.212323314963
 20
-416.967810852628
 30
0.0
 11
1874.212323314963
 21
-439.1793114876393
 31
0.0
  0
LINE
  5
1EF5
330
18
100
AcDbEntity
  8
1CENTER
100
AcDbLine
 10
1863.712323314963
 20
-412.1089220962801
 30
0.0
 11
1863.712323314963
 21
-444.0382002439871
 31
0.0
  0
ARC
  5
1EF6
330
18
100
AcDbEntity
  8
01
100
AcDbCircle
 10
1863.712323314963
 20
-916.0735611701336
 30
0.0
 40
500.0
100
AcDbArc
 50
88.88661049562361
 51
91.11338950438292
  0
ARC
  5
1EF7
330
18
100
AcDbEntity
  8
01
100
AcDbCircle
 10
1854.012323314961
 20
-416.967810852628
 30
0.0
 40
0.8
100
AcDbArc
 50
91.11338950438292
 51
180.0
  0
ARC
  5
1EF8
330
18
100
AcDbEntity
  8
01
100
AcDbCircle
 10
1873.412323314961
 20
-416.967810852628
 30
0.0
 40
0.8
100
AcDbArc
 50
0.0
 51
90.00000000000001
  0
ARC
  5
1EF9
330
18
100
AcDbEntity
  8
01
100
AcDbCircle
 10
1863.712323314963
 20
59.92643882986636
 30
0.0
 40
500.0
100
AcDbArc
 50
268.886610495617
 51
271.1133895043764
  0
ARC
  5
1EFA
330
18
100
AcDbEntity
  8
01
100
AcDbCircle
 10
1854.012323314961
 20
-439.1793114876393
 30
0.0
 40
0.8
100
AcDbArc
 50
180.0
 51
268.886610495617
  0
ARC
  5
1EFB
330
18
100
AcDbEntity
  8
01
100
AcDbCircle
 10
1873.412323314961
 20
-439.1793114876393
 30
0.0
 40
0.8
100
AcDbArc
 50
270.0
 51
0.0
  0
LINE
  5
1FA0
330
18
100
AcDbEntity
  8
1CENTER
100
AcDbLine
 10
3693.047739504934
 20
-441.5698534372784
 30
0.0
 11
3693.047739504934
 21
-414.577268902988
 31
0.0
  0
ARC
  5
1FA1
330
18
100
AcDbEntity
  8
01
100
AcDbCircle
 10
3693.047739504934
 20
-428.0735611701336
 30
0.0
 40
12.00000000000006
100
AcDbArc
 50
90.0
 51
270.0
  0
LINE
  5
1FA2
330
18
100
AcDbEntity
  8
01
100
AcDbLine
 10
3731.047728204049
 20
-440.0735611701336
 30
0.0
 11
3731.047728204049
 21
-416.0735611701336
 31
0.0
  0
LINE
  5
1FA3
330
18
100
AcDbEntity
  8
01
100
AcDbLine
 10
3731.047728204049
 20
-416.0735611701336
 30
0.0
 11
3693.047739504934
 21
-416.0735611701336
 31
0.0
  0
LINE
  5
1FA4
330
18
100
AcDbEntity
  8
1CENTER
100
AcDbLine
 10
3679.551447237789
 20
-428.0735611701332
 30
0.0
 11
3736.719856595356
 21
-428.0735611701332
 31
0.0
  0
LINE
  5
1FA5
330
18
100
AcDbEntity
  8
01
100
AcDbLine
 10
3731.047728204049
 20
-440.0735611701336
 30
0.0
 11
3693.047739504934
 21
-440.0735611701336
 31
0.0
  0
CIRCLE
  5
1FA6
330
18
100
AcDbEntity
  8
01
  6
BYBLOCK
100
AcDbCircle
 10
3693.047739504934
 20
-428.0735611701332
 30
0.0
 40
7.5
  0
ARC
  5
206B
330
18
100
AcDbEntity
  8
1PHANTOM
100
AcDbCircle
 10
3692.770330859132
 20
-428.4895472794826
 30
0.0
 40
14.0
100
AcDbArc
 50
56.30186878974483
 51
236.3043221868575
  0
LINE
  5
206C
330
18
100
AcDbEntity
  8
1PHANTOM
100
AcDbLine
 10
3697.482472061307
 20
-448.4594177118823
 30
0.0
 11
3685.003173778911
 21
-440.1373483940679
 31
0.0
  0
LINE
  5
206D
330
18
100
AcDbEntity
  8
1PHANTOM
100
AcDbLine
 10
3701.088784457311
 20
-443.0515982897467
 30
0.0
 11
3688.609486174915
 21
-434.7295289719323
 31
0.0
  0
ARC
  5
206E
330
18
100
AcDbEntity
  8
1PHANTOM
100
AcDbCircle
 10
3693.047739504934
 20
-428.0735611701336
 30
0.0
 40
8.0
100
AcDbArc
 50
39.2476073179051
 51
236.3043221868575
  0
LINE
  5
206F
330
18
100
AcDbEntity
  8
1PHANTOM
100
AcDbLine
 10
3700.537772942788
 20
-416.8419362164674
 30
0.0
 11
3716.3452450998
 21
-427.3834647586333
 31
0.0
  0
ARC
  5
2070
330
18
100
AcDbEntity
  8
1PHANTOM
100
AcDbCircle
 10
3717.459548993438
 20
-405.8902411624416
 30
0.0
 40
25.0
100
AcDbArc
 50
223.2259695574082
 51
262.0670850810591
  0
LINE
  5
2071
330
18
100
AcDbEntity
  8
1PHANTOM
100
AcDbLine
 10
3715.949181896692
 20
-429.7797736008011
 30
0.0
 11
3716.622400026898
 21
-428.7702542691163
 31
0.0
  0
ARC
  5
2072
330
18
100
AcDbEntity
  8
1PHANTOM
100
AcDbCircle
 10
3715.790427808107
 20
-428.2154369774232
 30
0.0
 40
1.0
100
AcDbArc
 50
326.3018687897537
 51
56.30186878974547
  0
ARC
  5
2073
330
18
100
AcDbEntity
  8
1PHANTOM
100
AcDbCircle
 10
3714.285237459111
 20
-428.6701390174154
 30
0.0
 40
2.0
100
AcDbArc
 50
262.067085081059
 51
326.3018687897563
  0
LINE
  5
2074
330
18
100
AcDbEntity
  8
1PHANTOM
100
AcDbLine
 10
3697.486562823689
 20
-421.4179734767085
 30
0.0
 11
3697.485992834952
 21
-421.4175933683345
 31
0.0
  0
ARC
  5
2075
330
18
100
AcDbEntity
  8
1PHANTOM
100
AcDbCircle
 10
3689.993031257033
 20
-459.6901539861888
 30
0.0
 40
19.99893183570217
100
AcDbArc
 50
209.3189998771053
 51
56.30186878974506
  0
ARC
  5
2076
330
18
100
AcDbEntity
  8
1PHANTOM
100
AcDbCircle
 10
3689.715622613628
 20
-460.1061400919227
 30
0.0
 40
13.99893183570217
100
AcDbArc
 50
212.5815780419206
 51
56.30186878974604
  0
LINE
  5
2077
330
18
100
AcDbEntity
  8
1PHANTOM
100
AcDbLine
 10
3675.34831251683
 20
-466.9286191470088
 30
0.0
 11
3672.984630302813
 21
-468.0969195876618
 31
0.0
  0
ARC
  5
2078
330
18
100
AcDbEntity
  8
1PHANTOM
100
AcDbCircle
 10
3676.234513378567
 20
-468.7215631039288
 30
0.0
 40
2.0
100
AcDbArc
 50
32.58157804192074
 51
116.3018687897335
  0
ARC
  5
2079
330
18
100
AcDbEntity
  8
1PHANTOM
100
AcDbCircle
 10
3673.427730733681
 20
-468.9933915661218
 30
0.0
 40
1.0
100
AcDbArc
 50
116.3018687897342
 51
209.3189998771025
  0
LINE
  5
2F09
330
18
100
AcDbEntity
  8
1DIM
100
AcDbLine
 10
1863.712323314964
 20
-518.0735719059737
 30
0.0
 11
1863.712323314964
 21
-597.7714561617415
 31
0.0
1001
ACAD
1000
DSTYLE
1002
{
1070
    40
1040
5.0
1070
   271
1070
     0
1002
}
  0
LINE
  5
2F0A
330
18
100
AcDbEntity
  8
1DIM
100
AcDbLine
 10
2447.045656648298
 20
-515.073571905974
 30
0.0
 11
2447.045656648298
 21
-597.7714561617415
 31
0.0
1001
ACAD
1000
DSTYLE
1002
{
1070
    40
1040
5.0
1070
   271
1070
     0
1002
}
  0
LINE
  5
2F0B
330
18
100
AcDbEntity
  8
1DIM
100
AcDbLine
 10
1873.712323314964
 20
-592.7714561617415
 30
0.0
 11
2437.045656648298
 21
-592.7714561617415
 31
0.0
1001
ACAD
1000
DSTYLE
1002
{
1070
    40
1040
5.0
1070
   271
1070
     0
1002
}
  0
LINE
  5
2F0F
330
18
100
AcDbEntity
  8
1DIM
100
AcDbLine
 10
1838.712323314747
 20
-488.0735611701334
 30
0.0
 11
1838.712323314747
 21
-635.89044553239
 31
0.0
1001
ACAD
1000
DSTYLE
1002
{
1070
    40
1040
5.0
1002
}
  0
LINE
  5
2F10
330
18
100
AcDbEntity
  8
1DIM
100
AcDbLine
 10
3638.712323314747
 20
-488.0735611701336
 30
0.0
 11
3638.712323314747
 21
-635.89044553239
 31
0.0
1001
ACAD
1000
DSTYLE
1002
{
1070
    40
1040
5.0
1002
}
  0
LINE
  5
2F11
330
18
100
AcDbEntity
  8
1DIM
100
AcDbLine
 10
1848.712323314747
 20
-630.89044553239
 30
0.0
 11
3628.712323314747
 21
-630.89044553239
 31
0.0
1001
ACAD
1000
DSTYLE
1002
{
1070
    40
1040
5.0
1002
}
  0
LINE
  5
2F15
330
18
100
AcDbEntity
  8
1DIM
100
AcDbLine
 10
3613.712323314963
 20
-518.0735719059737
 30
0.0
 11
3613.712323314963
 21
-597.7714561617415
 31
0.0
1001
ACAD
1000
DSTYLE
1002
{
1070
    40
1040
5.0
1070
   271
1070
     0
1002
}
  0
LINE
  5
2F16
330
18
100
AcDbEntity
  8
1DIM
100
AcDbLine
 10
3030.378989981631
 20
-518.0735719059737
 30
0.0
 11
3030.378989981631
 21
-597.7714561617415
 31
0.0
1001
ACAD
1000
DSTYLE
1002
{
1070
    40
1040
5.0
1070
   271
1070
     0
1002
}
  0
LINE
  5
2F17
330
18
100
AcDbEntity
  8
1DIM
100
AcDbLine
 10
3603.712323314963
 20
-592.7714561617415
 30
0.0
 11
3040.378989981631
 21
-592.7714561617415
 31
0.0
1001
ACAD
1000
DSTYLE
1002
{
1070
    40
1040
5.0
1070
   271
1070
     0
1002
}
  0
LINE
  5
2F1B
330
18
100
AcDbEntity
  8
1DIM
100
AcDbLine
 10
2447.045656648298
 20
-515.073571905974
 30
0.0
 11
2447.045656648298
 21
-597.7714561617415
 31
0.0
1001
ACAD
1000
DSTYLE
1002
{
1070
    40
1040
5.0
1070
   271
1070
     0
1002
}
  0
LINE
  5
2F1C
330
18
100
AcDbEntity
  8
1DIM
100
AcDbLine
 10
3030.378989981631
 20
-518.0735719059737
 30
0.0
 11
3030.378989981631
 21
-597.7714561617415
 31
0.0
1001
ACAD
1000
DSTYLE
1002
{
1070
    40
1040
5.0
1070
   271
1070
     0
1002
}
  0
LINE
  5
2F1D
330
18
100
AcDbEntity
  8
1DIM
100
AcDbLine
 10
2457.045656648298
 20
-592.7714561617415
 30
0.0
 11
3020.378989981631
 21
-592.7714561617415
 31
0.0
1001
ACAD
1000
DSTYLE
1002
{
1070
    40
1040
5.0
1070
   271
1070
     0
1002
}
  0
LINE
  5
2F22
330
18
100
AcDbEntity
  8
1DIM
100
AcDbLine
 10
3319.984629479731
 20
-413.2947010550067
 30
0.0
 11
3350.8091337493
 21
-374.1415742851741
 31
0.0
1001
ACAD
1000
DSTYLE
1002
{
1070
    40
1040
5.0
1002
}
  0
LINE
  5
2F23
330
18
100
AcDbEntity
  8
1DIM
100
AcDbLine
 10
3350.8091337493
 20
-374.1415742851741
 30
0.0
 11
3525.892467082633
 21
-374.1415742851741
 31
0.0
1001
ACAD
1000
DSTYLE
1002
{
1070
    40
1040
5.0
1002
}
  0
TEXT
  5
2F24
330
18
100
AcDbEntity
  8
1DIM
  6
CONTINUOUS
100
AcDbText
 10
3363.142467082633
 20
-341.4749076185074
 30
0.0
 40
17.5
  1
材質：ステンレス
100
AcDbText
  0
TEXT
  5
2F25
330
18
100
AcDbEntity
  8
1DIM
  6
CONTINUOUS
100
AcDbText
 10
3363.725800415966
 20
-370.6415742851741
 30
0.0
 40
17.5
  1
仕上：鏡面仕上
100
AcDbText
  0
LINE
  5
2F27
330
18
100
AcDbEntity
  8
1DIM
100
AcDbLine
 10
3038.938497669353
 20
-408.5181747994856
 30
0.0
 11
3081.371299800955
 21
-357.3935892477957
 31
0.0
1001
ACAD
1000
DSTYLE
1002
{
1070
    40
1040
5.0
1002
}
  0
LINE
  5
2F28
330
18
100
AcDbEntity
  8
1DIM
100
AcDbLine
 10
3081.371299800955
 20
-357.3935892477957
 30
0.0
 11
3317.704633134289
 21
-357.3935892477957
 31
0.0
1001
ACAD
1000
DSTYLE
1002
{
1070
    40
1040
5.0
1002
}
  0
TEXT
  5
2F29
330
18
100
AcDbEntity
  8
1DIM
  6
CONTINUOUS
100
AcDbText
 10
3093.704633134289
 20
-324.726922581129
 30
0.0
 40
17.5
  1
材質：亜鉛ダイキャスト
100
AcDbText
  0
TEXT
  5
2F2A
330
18
100
AcDbEntity
  8
1DIM
  6
CONTINUOUS
100
AcDbText
 10
3094.287966467622
 20
-353.8935892477957
 30
0.0
 40
17.5
  1
仕上：クロムメッキ
100
AcDbText
  0
LINE
  5
2F2C
330
18
100
AcDbEntity
  8
1DIM
100
AcDbLine
 10
1846.89652866025
 20
-412.1136472292794
 30
0.0
 11
1886.542896599084
 21
-363.8473172848417
 31
0.0
1001
ACAD
1000
DSTYLE
1002
{
1070
    40
1040
5.0
1002
}
  0
LINE
  5
2F2D
330
18
100
AcDbEntity
  8
1DIM
100
AcDbLine
 10
1886.542896599084
 20
-363.8473172848417
 30
0.0
 11
2083.792896599084
 21
-363.8473172848417
 31
0.0
1001
ACAD
1000
DSTYLE
1002
{
1070
    40
1040
5.0
1002
}
  0
TEXT
  5
2F2E
330
18
100
AcDbEntity
  8
1DIM
  6
CONTINUOUS
100
AcDbText
 10
1898.876229932417
 20
-331.180650618175
 30
0.0
 40
17.5
  1
材質：ABS
100
AcDbText
  0
TEXT
  5
2F2F
330
18
100
AcDbEntity
  8
1DIM
  6
CONTINUOUS
100
AcDbText
 10
1899.459563265751
 20
-360.3473172848417
 30
0.0
 40
17.5
  1
仕上：クロムメッキ
100
AcDbText
  0
LINE
  5
2F30
330
18
100
AcDbEntity
  8
1DIM1
100
AcDbLine
 10
3736.719856595356
 20
-428.0735611701332
 30
0.0
 11
3749.668020471745
 21
-428.0735611701332
 31
0.0
1001
ACAD
1000
DSTYLE
1002
{
1070
    40
1040
1.0
1070
   271
1070
     0
1002
}
  0
LINE
  5
2F31
330
18
100
AcDbEntity
  8
1DIM1
100
AcDbLine
 10
3731.047728204049
 20
-416.0735611701336
 30
0.0
 11
3749.668020471745
 21
-416.0735611701336
 31
0.0
1001
ACAD
1000
DSTYLE
1002
{
1070
    40
1040
1.0
1070
   271
1070
     0
1002
}
  0
LINE
  5
2F32
330
18
100
AcDbEntity
  8
1DIM1
100
AcDbLine
 10
3748.668020471745
 20
-426.0735611701332
 30
0.0
 11
3748.668020471745
 21
-418.0735611701336
 31
0.0
1001
ACAD
1000
DSTYLE
1002
{
1070
    40
1040
1.0
1070
   271
1070
     0
1002
}
  0
LINE
  5
2F36
330
18
100
AcDbEntity
  8
1DIM1
100
AcDbLine
 10
3731.047728204049
 20
-440.0735611701336
 30
0.0
 11
3757.123324781504
 21
-440.0735611701336
 31
0.0
1001
ACAD
1000
DSTYLE
1002
{
1070
    40
1040
1.0
1070
   271
1070
     0
1002
}
  0
LINE
  5
2F37
330
18
100
AcDbEntity
  8
1DIM1
100
AcDbLine
 10
3731.047728204049
 20
-416.0735611701336
 30
0.0
 11
3757.123324781504
 21
-416.0735611701336
 31
0.0
1001
ACAD
1000
DSTYLE
1002
{
1070
    40
1040
1.0
1070
   271
1070
     0
1002
}
  0
LINE
  5
2F38
330
18
100
AcDbEntity
  8
1DIM1
100
AcDbLine
 10
3756.123324781504
 20
-438.0735611701336
 30
0.0
 11
3756.123324781504
 21
-418.0735611701336
 31
0.0
1001
ACAD
1000
DSTYLE
1002
{
1070
    40
1040
1.0
1070
   271
1070
     0
1002
}
  0
LINE
  5
2F3C
330
18
100
AcDbEntity
  8
1DIM1
100
AcDbLine
 10
3686.988084046005
 20
-432.4929022657093
 30
0.0
 11
3667.826869448453
 21
-446.4672847509896
 31
0.0
1001
ACAD
1000
DSTYLE
1002
{
1070
    40
1040
1.0
1070
   271
1070
     0
1002
}
  0
LINE
  5
2F3D
330
18
100
AcDbEntity
  8
1DIM1
100
AcDbLine
 10
3699.107394963866
 20
-423.6542200745569
 30
0.0
 11
3688.603992168386
 21
-431.3144113068889
 31
0.0
1001
ACAD
1000
DSTYLE
1002
{
1070
    40
1040
1.0
1070
   271
1070
     0
1002
}
  0
LINE
  5
2F3F
330
18
100
AcDbEntity
  8
1DIM1
100
AcDbLine
 10
3699.107394963866
 20
-423.6542200745569
 30
0.0
 11
3686.988084046005
 21
-432.4929022657093
 31
0.0
1001
ACAD
1000
DSTYLE
1002
{
1070
    40
1040
1.0
1070
   271
1070
     0
1002
}
  0
LINE
  5
2F42
330
18
100
AcDbEntity
  8
1DIM1
100
AcDbLine
 10
3731.047728204049
 20
-416.0735611701327
 30
0.0
 11
3731.047728204049
 21
-396.5886791205093
 31
0.0
1001
ACAD
1000
DSTYLE
1002
{
1070
    40
1040
1.0
1070
   271
1070
     0
1002
}
  0
LINE
  5
2F43
330
18
100
AcDbEntity
  8
1DIM1
100
AcDbLine
 10
3693.047739504934
 20
-414.577268902988
 30
0.0
 11
3693.047739504934
 21
-396.5886791205093
 31
0.0
1001
ACAD
1000
DSTYLE
1002
{
1070
    40
1040
1.0
1070
   271
1070
     0
1002
}
  0
LINE
  5
2F44
330
18
100
AcDbEntity
  8
1DIM1
100
AcDbLine
 10
3729.047728204049
 20
-397.5886791205093
 30
0.0
 11
3695.047739504934
 21
-397.5886791205093
 31
0.0
1001
ACAD
1000
DSTYLE
1002
{
1070
    40
1040
1.0
1070
   271
1070
     0
1002
}
  0
LINE
  5
2F48
330
18
100
AcDbEntity
  8
1DIM1
100
AcDbLine
 10
3731.047728204049
 20
-416.0735611701336
 30
0.0
 11
3731.047728204049
 21
-387.4207466743347
 31
0.0
1001
ACAD
1000
DSTYLE
1002
{
1070
    40
1040
1.0
1070
   271
1070
     0
1002
}
  0
LINE
  5
2F49
330
18
100
AcDbEntity
  8
1DIM1
100
AcDbLine
 10
3681.047739504934
 20
-428.0735611701337
 30
0.0
 11
3681.047739504934
 21
-387.4207466743347
 31
0.0
1001
ACAD
1000
DSTYLE
1002
{
1070
    40
1040
1.0
1070
   271
1070
     0
1002
}
  0
LINE
  5
2F4A
330
18
100
AcDbEntity
  8
1DIM1
100
AcDbLine
 10
3729.047728204049
 20
-388.4207466743347
 30
0.0
 11
3683.047739504934
 21
-388.4207466743347
 31
0.0
1001
ACAD
1000
DSTYLE
1002
{
1070
    40
1040
1.0
1070
   271
1070
     0
1002
}
  0
LINE
  5
2F4F
330
18
100
AcDbEntity
  8
1DIM1
100
AcDbLine
 10
3707.148112476109
 20
-471.1226719031758
 30
0.0
 11
3716.176162264012
 21
-481.901660474222
 31
0.0
  0
LINE
  5
2F50
330
18
100
AcDbEntity
  8
1DIM1
100
AcDbLine
 10
3716.176162264012
 20
-481.901660474222
 30
0.0
 11
3738.709495597345
 21
-481.901660474222
 31
0.0
  0
TEXT
  5
2F51
330
18
100
AcDbEntity
  8
1DIM1
  6
CONTINUOUS
100
AcDbText
 10
3718.876162264011
 20
-481.201660474222
 30
0.0
 40
3.5
  1
付属フック
100
AcDbText
  0
TEXT
  5
2F52
330
18
100
AcDbEntity
  8
1TEXT
  6
CONTINUOUS
100
AcDbText
 10
3667.99854083439
 20
-509.9361936276881
 30
0.0
 40
8.0
  1
KC-01S-3C
100
AcDbText
1001
ACADANNOTATIVE
1000
AnnotativeData
1002
{
1070
     1
1070
     0
1002
}
  0
LINE
  5
2F53
330
18
100
AcDbEntity
  8
1DIM1
100
AcDbLine
 10
3624.21232331496
 20
-416.9678108526271
 30
0.0
 11
3624.21232331496
 21
-397.4829288030036
 31
0.0
1001
ACAD
1000
DSTYLE
1002
{
1070
    40
1040
1.0
1070
   271
1070
     0
1002
}
  0
LINE
  5
2F54
330
18
100
AcDbEntity
  8
1DIM1
100
AcDbLine
 10
3603.212323314963
 20
-416.967810852628
 30
0.0
 11
3603.212323314963
 21
-397.4829288030036
 31
0.0
1001
ACAD
1000
DSTYLE
1002
{
1070
    40
1040
1.0
1070
   271
1070
     0
1002
}
  0
LINE
  5
2F55
330
18
100
AcDbEntity
  8
1DIM1
100
AcDbLine
 10
3622.21232331496
 20
-398.4829288030036
 30
0.0
 11
3605.212323314963
 21
-398.4829288030036
 31
0.0
1001
ACAD
1000
DSTYLE
1002
{
1070
    40
1040
1.0
1070
   271
1070
     0
1002
}
  0
LINE
  5
2F59
330
18
100
AcDbEntity
  8
0
  6
BYBLOCK
100
AcDbLine
 10
1873.712323314964
 20
-595.4509480617415
 30
0.0
 11
1863.712323314964
 21
-592.7714561617415
 31
0.0
  0
LINE
  5
2F5A
330
18
100
AcDbEntity
  8
0
  6
BYBLOCK
100
AcDbLine
 10
1863.712323314964
 20
-592.7714561617415
 30
0.0
 11
1873.712323314964
 21
-590.0919642617415
 31
0.0
  0
LINE
  5
2F5B
330
18
100
AcDbEntity
  8
0
  6
BYBLOCK
100
AcDbLine
 10
1863.712323314964
 20
-592.7714561617415
 30
0.0
 11
1873.712323314964
 21
-592.7714561617415
 31
0.0
  0
LINE
  5
2F5C
330
18
100
AcDbEntity
  8
0
  6
BYBLOCK
100
AcDbLine
 10
2437.045656648298
 20
-590.0919642617415
 30
0.0
 11
2447.045656648298
 21
-592.7714561617415
 31
0.0
  0
LINE
  5
2F5D
330
18
100
AcDbEntity
  8
0
  6
BYBLOCK
100
AcDbLine
 10
2447.045656648298
 20
-592.7714561617415
 30
0.0
 11
2437.045656648298
 21
-595.4509480617415
 31
0.0
  0
LINE
  5
2F5E
330
18
100
AcDbEntity
  8
0
  6
BYBLOCK
100
AcDbLine
 10
2447.045656648298
 20
-592.7714561617415
 30
0.0
 11
2437.045656648298
 21
-592.7714561617415
 31
0.0
  0
TEXT
  5
2F5F
330
18
100
AcDbEntity
  8
1DIM
  6
CONTINUOUS
100
AcDbText
 10
2114.484892759408
 20
-589.2714561617414
 30
0.0
 40
17.5
  1
P=583
100
AcDbText
1001
ACAD
1000
DSTYLE
1002
{
1070
    40
1040
5.0
1070
   271
1070
     0
1002
}
  0
LINE
  5
2F60
330
18
100
AcDbEntity
  8
0
  6
BYBLOCK
100
AcDbLine
 10
1848.712323314747
 20
-633.56993743239
 30
0.0
 11
1838.712323314747
 21
-630.89044553239
 31
0.0
  0
LINE
  5
2F61
330
18
100
AcDbEntity
  8
0
  6
BYBLOCK
100
AcDbLine
 10
1838.712323314747
 20
-630.89044553239
 30
0.0
 11
1848.712323314747
 21
-628.21095363239
 31
0.0
  0
LINE
  5
2F62
330
18
100
AcDbEntity
  8
0
  6
BYBLOCK
100
AcDbLine
 10
1838.712323314747
 20
-630.89044553239
 30
0.0
 11
1848.712323314747
 21
-630.89044553239
 31
0.0
  0
LINE
  5
2F63
330
18
100
AcDbEntity
  8
0
  6
BYBLOCK
100
AcDbLine
 10
3628.712323314747
 20
-628.21095363239
 30
0.0
 11
3638.712323314747
 21
-630.89044553239
 31
0.0
  0
LINE
  5
2F64
330
18
100
AcDbEntity
  8
0
  6
BYBLOCK
100
AcDbLine
 10
3638.712323314747
 20
-630.89044553239
 30
0.0
 11
3628.712323314747
 21
-633.56993743239
 31
0.0
  0
LINE
  5
2F65
330
18
100
AcDbEntity
  8
0
  6
BYBLOCK
100
AcDbLine
 10
3638.712323314747
 20
-630.89044553239
 30
0.0
 11
3628.712323314747
 21
-630.89044553239
 31
0.0
  0
TEXT
  5
2F66
330
18
100
AcDbEntity
  8
1DIM
  6
CONTINUOUS
100
AcDbText
 10
2690.806073314747
 20
-627.39044553239
 30
0.0
 40
17.5
  1
全長1800
100
AcDbText
1001
ACAD
1000
DSTYLE
1002
{
1070
    40
1040
5.0
1002
}
  0
LINE
  5
2F67
330
18
100
AcDbEntity
  8
0
  6
BYBLOCK
100
AcDbLine
 10
3603.712323314963
 20
-590.0919642617415
 30
0.0
 11
3613.712323314963
 21
-592.7714561617415
 31
0.0
  0
LINE
  5
2F68
330
18
100
AcDbEntity
  8
0
  6
BYBLOCK
100
AcDbLine
 10
3613.712323314963
 20
-592.7714561617415
 30
0.0
 11
3603.712323314963
 21
-595.4509480617415
 31
0.0
  0
LINE
  5
2F69
330
18
100
AcDbEntity
  8
0
  6
BYBLOCK
100
AcDbLine
 10
3613.712323314963
 20
-592.7714561617415
 30
0.0
 11
3603.712323314963
 21
-592.7714561617415
 31
0.0
  0
LINE
  5
2F6A
330
18
100
AcDbEntity
  8
0
  6
BYBLOCK
100
AcDbLine
 10
3040.378989981631
 20
-595.4509480617415
 30
0.0
 11
3030.378989981631
 21
-592.7714561617415
 31
0.0
  0
LINE
  5
2F6B
330
18
100
AcDbEntity
  8
0
  6
BYBLOCK
100
AcDbLine
 10
3030.378989981631
 20
-592.7714561617415
 30
0.0
 11
3040.378989981631
 21
-590.0919642617415
 31
0.0
  0
LINE
  5
2F6C
330
18
100
AcDbEntity
  8
0
  6
BYBLOCK
100
AcDbLine
 10
3030.378989981631
 20
-592.7714561617415
 30
0.0
 11
3040.378989981631
 21
-592.7714561617415
 31
0.0
  0
TEXT
  5
2F6D
330
18
100
AcDbEntity
  8
1DIM
  6
CONTINUOUS
100
AcDbText
 10
3281.151559426075
 20
-589.2714561617414
 30
0.0
 40
17.5
  1
P=583
100
AcDbText
1001
ACAD
1000
DSTYLE
1002
{
1070
    40
1040
5.0
1070
   271
1070
     0
1002
}
  0
LINE
  5
2F6E
330
18
100
AcDbEntity
  8
0
  6
BYBLOCK
100
AcDbLine
 10
2457.045656648298
 20
-595.4509480617415
 30
0.0
 11
2447.045656648298
 21
-592.7714561617415
 31
0.0
  0
LINE
  5
2F6F
330
18
100
AcDbEntity
  8
0
  6
BYBLOCK
100
AcDbLine
 10
2447.045656648298
 20
-592.7714561617415
 30
0.0
 11
2457.045656648298
 21
-590.0919642617415
 31
0.0
  0
LINE
  5
2F70
330
18
100
AcDbEntity
  8
0
  6
BYBLOCK
100
AcDbLine
 10
2447.045656648298
 20
-592.7714561617415
 30
0.0
 11
2457.045656648298
 21
-592.7714561617415
 31
0.0
  0
LINE
  5
2F71
330
18
100
AcDbEntity
  8
0
  6
BYBLOCK
100
AcDbLine
 10
3020.378989981631
 20
-590.0919642617415
 30
0.0
 11
3030.378989981631
 21
-592.7714561617415
 31
0.0
  0
LINE
  5
2F72
330
18
100
AcDbEntity
  8
0
  6
BYBLOCK
100
AcDbLine
 10
3030.378989981631
 20
-592.7714561617415
 30
0.0
 11
3020.378989981631
 21
-595.4509480617415
 31
0.0
  0
LINE
  5
2F73
330
18
100
AcDbEntity
  8
0
  6
BYBLOCK
100
AcDbLine
 10
3030.378989981631
 20
-592.7714561617415
 30
0.0
 11
3020.378989981631
 21
-592.7714561617415
 31
0.0
  0
TEXT
  5
2F74
330
18
100
AcDbEntity
  8
1DIM
  6
CONTINUOUS
100
AcDbText
 10
2697.818226092742
 20
-589.2714561617414
 30
0.0
 40
17.5
  1
P=583
100
AcDbText
1001
ACAD
1000
DSTYLE
1002
{
1070
    40
1040
5.0
1070
   271
1070
     0
1002
}
  0
LINE
  5
2F75
330
18
100
AcDbEntity
  8
0
  6
BYBLOCK
100
AcDbLine
 10
3322.089959933202
 20
-414.9521872612394
 30
0.0
 11
3313.798806689101
 21
-421.1519013453726
 31
0.0
  0
LINE
  5
2F76
330
18
100
AcDbEntity
  8
0
  6
BYBLOCK
100
AcDbLine
 10
3313.798806689101
 20
-421.1519013453726
 30
0.0
 11
3317.87929902626
 21
-411.6372148487739
 31
0.0
  0
LINE
  5
2F77
330
18
100
AcDbEntity
  8
0
  6
BYBLOCK
100
AcDbLine
 10
3313.798806689101
 20
-421.1519013453726
 30
0.0
 11
3319.984629479731
 21
-413.2947010550067
 31
0.0
  0
LINE
  5
2F78
330
18
100
AcDbEntity
  8
0
  6
BYBLOCK
100
AcDbLine
 10
3041.000328368661
 20
-410.2294699258614
 30
0.0
 11
3032.551857253027
 21
-416.2130317957235
 31
0.0
  0
LINE
  5
2F79
330
18
100
AcDbEntity
  8
0
  6
BYBLOCK
100
AcDbLine
 10
3032.551857253027
 20
-416.2130317957235
 30
0.0
 11
3036.876666970045
 21
-406.8068796731098
 31
0.0
  0
LINE
  5
2F7A
330
18
100
AcDbEntity
  8
0
  6
BYBLOCK
100
AcDbLine
 10
3032.551857253027
 20
-416.2130317957235
 30
0.0
 11
3038.938497669353
 21
-408.5181747994856
 31
0.0
  0
LINE
  5
2F7B
330
18
100
AcDbEntity
  8
0
  6
BYBLOCK
100
AcDbLine
 10
1848.967062904464
 20
-413.8144014107252
 30
0.0
 11
1840.54922758632
 21
-419.8409862976059
 31
0.0
  0
LINE
  5
2F7C
330
18
100
AcDbEntity
  8
0
  6
BYBLOCK
100
AcDbLine
 10
1840.54922758632
 20
-419.8409862976059
 30
0.0
 11
1844.825994416037
 21
-410.4128930478337
 31
0.0
  0
LINE
  5
2F7D
330
18
100
AcDbEntity
  8
0
  6
BYBLOCK
100
AcDbLine
 10
1840.54922758632
 20
-419.8409862976059
 30
0.0
 11
1846.89652866025
 21
-412.1136472292795
 31
0.0
  0
LINE
  5
2F7E
330
18
100
AcDbEntity
  8
0
  6
BYBLOCK
100
AcDbLine
 10
3749.203918851745
 20
-426.0735611701332
 30
0.0
 11
3748.668020471745
 21
-428.0735611701332
 31
0.0
  0
LINE
  5
2F7F
330
18
100
AcDbEntity
  8
0
  6
BYBLOCK
100
AcDbLine
 10
3748.668020471745
 20
-428.0735611701332
 30
0.0
 11
3748.132122091745
 21
-426.0735611701332
 31
0.0
  0
LINE
  5
2F80
330
18
100
AcDbEntity
  8
0
  6
BYBLOCK
100
AcDbLine
 10
3748.668020471745
 20
-428.0735611701332
 30
0.0
 11
3748.668020471745
 21
-426.0735611701332
 31
0.0
  0
LINE
  5
2F81
330
18
100
AcDbEntity
  8
0
  6
BYBLOCK
100
AcDbLine
 10
3748.132122091745
 20
-418.0735611701336
 30
0.0
 11
3748.668020471745
 21
-416.0735611701336
 31
0.0
  0
LINE
  5
2F82
330
18
100
AcDbEntity
  8
0
  6
BYBLOCK
100
AcDbLine
 10
3748.668020471745
 20
-416.0735611701336
 30
0.0
 11
3749.203918851745
 21
-418.0735611701336
 31
0.0
  0
LINE
  5
2F83
330
18
100
AcDbEntity
  8
0
  6
BYBLOCK
100
AcDbLine
 10
3748.668020471745
 20
-416.0735611701336
 30
0.0
 11
3748.668020471745
 21
-418.0735611701336
 31
0.0
  0
TEXT
  5
2F84
330
18
100
AcDbEntity
  8
1DIM1
  6
CONTINUOUS
100
AcDbText
 10
3747.968020471745
 20
-424.4068945034674
 30
0.0
 40
3.5
  1
12
 50
90.0
100
AcDbText
1001
ACAD
1000
DSTYLE
1002
{
1070
    40
1040
1.0
1070
   271
1070
     0
1002
}
  0
LINE
  5
2F85
330
18
100
AcDbEntity
  8
0
  6
BYBLOCK
100
AcDbLine
 10
3756.659223161505
 20
-438.0735611701336
 30
0.0
 11
3756.123324781504
 21
-440.0735611701336
 31
0.0
  0
LINE
  5
2F86
330
18
100
AcDbEntity
  8
0
  6
BYBLOCK
100
AcDbLine
 10
3756.123324781504
 20
-440.0735611701336
 30
0.0
 11
3755.587426401504
 21
-438.0735611701336
 31
0.0
  0
LINE
  5
2F87
330
18
100
AcDbEntity
  8
0
  6
BYBLOCK
100
AcDbLine
 10
3756.123324781504
 20
-440.0735611701336
 30
0.0
 11
3756.123324781504
 21
-438.0735611701336
 31
0.0
  0
LINE
  5
2F88
330
18
100
AcDbEntity
  8
0
  6
BYBLOCK
100
AcDbLine
 10
3755.587426401504
 20
-418.0735611701336
 30
0.0
 11
3756.123324781504
 21
-416.0735611701336
 31
0.0
  0
LINE
  5
2F89
330
18
100
AcDbEntity
  8
0
  6
BYBLOCK
100
AcDbLine
 10
3756.123324781504
 20
-416.0735611701336
 30
0.0
 11
3756.659223161505
 21
-418.0735611701336
 31
0.0
  0
LINE
  5
2F8A
330
18
100
AcDbEntity
  8
0
  6
BYBLOCK
100
AcDbLine
 10
3756.123324781504
 20
-416.0735611701336
 30
0.0
 11
3756.123324781504
 21
-418.0735611701336
 31
0.0
  0
TEXT
  5
2F8B
330
18
100
AcDbEntity
  8
1DIM1
  6
CONTINUOUS
100
AcDbText
 10
3755.423324781505
 20
-430.9902278368004
 30
0.0
 40
3.5
  1
24
 50
90.0
100
AcDbText
1001
ACAD
1000
DSTYLE
1002
{
1070
    40
1040
1.0
1070
   271
1070
     0
1002
}
  0
TEXT
  5
2F8C
330
18
100
AcDbEntity
  8
1DIM1
  6
CONTINUOUS
100
AcDbText
 10
3668.249283476096
 20
-445.2928299127659
 30
0.0
 40
3.5
  1
\U+220515
 50
36.1034833962473
100
AcDbText
1001
ACAD
1000
DSTYLE
1002
{
1070
    40
1040
1.0
1070
   271
1070
     0
1002
}
  0
LINE
  5
2F8D
330
18
100
AcDbEntity
  8
0
  6
BYBLOCK
100
AcDbLine
 10
3697.175711143646
 20
-424.3997297608707
 30
0.0
 11
3699.107394963866
 21
-423.6542200745569
 31
0.0
  0
LINE
  5
2F8E
330
18
100
AcDbEntity
  8
0
  6
BYBLOCK
100
AcDbLine
 10
3699.107394963866
 20
-423.6542200745569
 30
0.0
 11
3697.807262539322
 21
-425.2656923058838
 31
0.0
  0
LINE
  5
2F8F
330
18
100
AcDbEntity
  8
0
  6
BYBLOCK
100
AcDbLine
 10
3699.107394963866
 20
-423.6542200745569
 30
0.0
 11
3697.491486841484
 21
-424.8327110333772
 31
0.0
  0
LINE
  5
2F90
330
18
100
AcDbEntity
  8
0
  6
BYBLOCK
100
AcDbLine
 10
3688.919767866224
 20
-431.7473925793955
 30
0.0
 11
3686.988084046005
 21
-432.4929022657093
 31
0.0
  0
LINE
  5
2F91
330
18
100
AcDbEntity
  8
0
  6
BYBLOCK
100
AcDbLine
 10
3686.988084046005
 20
-432.4929022657093
 30
0.0
 11
3688.288216470548
 21
-430.8814300343824
 31
0.0
  0
LINE
  5
2F92
330
18
100
AcDbEntity
  8
0
  6
BYBLOCK
100
AcDbLine
 10
3686.988084046005
 20
-432.4929022657093
 30
0.0
 11
3688.603992168386
 21
-431.3144113068889
 31
0.0
  0
LINE
  5
2F93
330
18
100
AcDbEntity
  8
0
  6
BYBLOCK
100
AcDbLine
 10
3729.047728204049
 20
-397.0527807405093
 30
0.0
 11
3731.047728204049
 21
-397.5886791205093
 31
0.0
  0
LINE
  5
2F94
330
18
100
AcDbEntity
  8
0
  6
BYBLOCK
100
AcDbLine
 10
3731.047728204049
 20
-397.5886791205093
 30
0.0
 11
3729.047728204049
 21
-398.1245775005093
 31
0.0
  0
LINE
  5
2F95
330
18
100
AcDbEntity
  8
0
  6
BYBLOCK
100
AcDbLine
 10
3731.047728204049
 20
-397.5886791205093
 30
0.0
 11
3729.047728204049
 21
-397.5886791205093
 31
0.0
  0
LINE
  5
2F96
330
18
100
AcDbEntity
  8
0
  6
BYBLOCK
100
AcDbLine
 10
3695.047739504934
 20
-398.1245775005093
 30
0.0
 11
3693.047739504934
 21
-397.5886791205093
 31
0.0
  0
LINE
  5
2F97
330
18
100
AcDbEntity
  8
0
  6
BYBLOCK
100
AcDbLine
 10
3693.047739504934
 20
-397.5886791205093
 30
0.0
 11
3695.047739504934
 21
-397.0527807405093
 31
0.0
  0
LINE
  5
2F98
330
18
100
AcDbEntity
  8
0
  6
BYBLOCK
100
AcDbLine
 10
3693.047739504934
 20
-397.5886791205093
 30
0.0
 11
3695.047739504934
 21
-397.5886791205093
 31
0.0
  0
TEXT
  5
2F99
330
18
100
AcDbEntity
  8
1DIM1
  6
CONTINUOUS
100
AcDbText
 10
3709.131067187825
 20
-396.8886791205093
 30
0.0
 40
3.5
  1
38
100
AcDbText
1001
ACAD
1000
DSTYLE
1002
{
1070
    40
1040
1.0
1070
   271
1070
     0
1002
}
  0
LINE
  5
2F9A
330
18
100
AcDbEntity
  8
0
  6
BYBLOCK
100
AcDbLine
 10
3729.047728204049
 20
-387.8848482943347
 30
0.0
 11
3731.047728204049
 21
-388.4207466743347
 31
0.0
  0
LINE
  5
2F9B
330
18
100
AcDbEntity
  8
0
  6
BYBLOCK
100
AcDbLine
 10
3731.047728204049
 20
-388.4207466743347
 30
0.0
 11
3729.047728204049
 21
-388.9566450543347
 31
0.0
  0
LINE
  5
2F9C
330
18
100
AcDbEntity
  8
0
  6
BYBLOCK
100
AcDbLine
 10
3731.047728204049
 20
-388.4207466743347
 30
0.0
 11
3729.047728204049
 21
-388.4207466743347
 31
0.0
  0
LINE
  5
2F9D
330
18
100
AcDbEntity
  8
0
  6
BYBLOCK
100
AcDbLine
 10
3683.047739504934
 20
-388.9566450543347
 30
0.0
 11
3681.047739504934
 21
-388.4207466743347
 31
0.0
  0
LINE
  5
2F9E
330
18
100
AcDbEntity
  8
0
  6
BYBLOCK
100
AcDbLine
 10
3681.047739504934
 20
-388.4207466743347
 30
0.0
 11
3683.047739504934
 21
-387.8848482943347
 31
0.0
  0
LINE
  5
2F9F
330
18
100
AcDbEntity
  8
0
  6
BYBLOCK
100
AcDbLine
 10
3681.047739504934
 20
-388.4207466743347
 30
0.0
 11
3683.047739504934
 21
-388.4207466743347
 31
0.0
  0
TEXT
  5
2FA0
330
18
100
AcDbEntity
  8
1DIM1
  6
CONTINUOUS
100
AcDbText
 10
3703.337664410047
 20
-387.7207466743347
 30
0.0
 40
3.5
  1
50
100
AcDbText
1001
ACAD
1000
DSTYLE
1002
{
1070
    40
1040
1.0
1070
   271
1070
     0
1002
}
  0
LINE
  5
2FA1
330
18
100
AcDbEntity
  8
0
  6
BYBLOCK
100
AcDbLine
 10
3706.737279209034
 20
-471.4667694189339
 30
0.0
 11
3705.86392305289
 21
-469.5894212631002
 31
0.0
  0
LINE
  5
2FA2
330
18
100
AcDbEntity
  8
0
  6
BYBLOCK
100
AcDbLine
 10
3705.86392305289
 20
-469.5894212631002
 30
0.0
 11
3707.558945743184
 21
-470.7785743874177
 31
0.0
  0
LINE
  5
2FA3
330
18
100
AcDbEntity
  8
0
  6
BYBLOCK
100
AcDbLine
 10
3705.86392305289
 20
-469.5894212631002
 30
0.0
 11
3707.148112476109
 21
-471.1226719031758
 31
0.0
  0
LINE
  5
2FA4
330
18
100
AcDbEntity
  8
0
  6
BYBLOCK
100
AcDbLine
 10
3622.21232331496
 20
-397.9470304230036
 30
0.0
 11
3624.21232331496
 21
-398.4829288030036
 31
0.0
  0
LINE
  5
2FA5
330
18
100
AcDbEntity
  8
0
  6
BYBLOCK
100
AcDbLine
 10
3624.21232331496
 20
-398.4829288030036
 30
0.0
 11
3622.21232331496
 21
-399.0188271830036
 31
0.0
  0
LINE
  5
2FA6
330
18
100
AcDbEntity
  8
0
  6
BYBLOCK
100
AcDbLine
 10
3624.21232331496
 20
-398.4829288030036
 30
0.0
 11
3622.21232331496
 21
-398.4829288030036
 31
0.0
  0
LINE
  5
2FA7
330
18
100
AcDbEntity
  8
0
  6
BYBLOCK
100
AcDbLine
 10
3605.212323314963
 20
-399.0188271830036
 30
0.0
 11
3603.212323314963
 21
-398.4829288030036
 31
0.0
  0
LINE
  5
2FA8
330
18
100
AcDbEntity
  8
0
  6
BYBLOCK
100
AcDbLine
 10
3603.212323314963
 20
-398.4829288030036
 30
0.0
 11
3605.212323314963
 21
-397.9470304230036
 31
0.0
  0
LINE
  5
2FA9
330
18
100
AcDbEntity
  8
0
  6
BYBLOCK
100
AcDbLine
 10
3603.212323314963
 20
-398.4829288030036
 30
0.0
 11
3605.212323314963
 21
-398.4829288030036
 31
0.0
  0
TEXT
  5
2FAA
330
18
100
AcDbEntity
  8
1DIM1
  6
CONTINUOUS
100
AcDbText
 10
3611.378989981628
 20
-397.7829288030036
 30
0.0
 40
3.5
  1
21
100
AcDbText
1001
ACAD
1000
DSTYLE
1002
{
1070
    40
1040
1.0
1070
   271
1070
     0
1002
}
  0
VIEWPORT
  5
57
330
15
100
AcDbEntity
 67
     1
  8
0
100
AcDbViewport
 68
     1
 10
0.0
 20
0.0
 30
0.0
 40
535.5106132075472
 41
297.0
 68
     1
 69
     1
1001
ACAD
1000
MVIEW
1002
{
1070
    16
1010
0.0
1020
0.0
1030
0.0
1010
0.0
1020
0.0
1030
1.0
1040
0.0
1040
297.0
1040
3.891737815667739
1040
16.52633065217069
1040
50.0
1040
0.0
1040
0.0
1070
    16
1070
  1000
1070
     0
1070
     1
1070
     0
1070
     0
1070
     0
1070
     0
1040
0.0
1040
0.0
1040
0.0
1040
10.0
1040
10.0
1040
10.0
1040
10.0
1070
     0
1002
{
1002
}
1002
}
  0
ENDSEC
  0
SECTION
  2
OBJECTS
  0
DICTIONARY
  5
C
330
0
100
AcDbDictionary
  3
ACAD_COLOR
350
2D0
  3
ACAD_GROUP
350
D
  3
ACAD_LAYOUT
350
2D1
  3
ACAD_MATERIAL
350
2CF
  3
ACAD_MLEADERSTYLE
350
25E6
  3
ACAD_MLINESTYLE
350
1B
  3
ACAD_PLOTSETTINGS
350
2D2
  3
ACAD_SCALELIST
350
25C1
  3
ACAD_VISUALSTYLE
350
25A8
  3
ACDBHEADERROUNDTRIPXREC
350
2FAB
  3
ACDBVARIABLEDICTIONARY
350
37
  3
CONTENTDICTIONARY
350
D8
  3
DRAWINGVARIABLESDICT
350
20
  3
DWGPROPS
350
2FAE
1001
ACAD
1000
TREAT_AS_HARD
1070
     0
  0
DICTIONARY
  5
2DA0
330
2
100
AcDbDictionary
  3
ACAD_LAYERSTATES
360
2DA1
1001
ACAD
1000
TREAT_AS_HARD
1070
     1
  0
DICTIONARY
  5
510
330
18
100
AcDbDictionary
  3
ACAD_SORTENTS
360
511
1001
ACAD
1000
TREAT_AS_HARD
1070
     1
  0
DICTIONARY
  5
2D0
102
{ACAD_REACTORS
330
C
102
}
330
C
100
AcDbDictionary
1001
ACAD
1000
TREAT_AS_HARD
1070
     0
  0
DICTIONARY
  5
D
102
{ACAD_REACTORS
330
C
102
}
330
C
100
AcDbDictionary
1001
ACAD
1000
TREAT_AS_HARD
1070
     0
  0
DICTIONARY
  5
2D1
102
{ACAD_REACTORS
330
C
102
}
330
C
100
AcDbDictionary
1001
ACAD
1000
TREAT_AS_HARD
1070
     0
  0
DICTIONARY
  5
2CF
102
{ACAD_REACTORS
330
C
102
}
330
C
100
AcDbDictionary
  3
BYBLOCK
350
25E4
  3
BYLAYER
350
25E3
  3
GLOBAL
350
25E5
1001
ACAD
1000
TREAT_AS_HARD
1070
     0
  0
DICTIONARY
  5
25E6
102
{ACAD_REACTORS
330
C
102
}
330
C
100
AcDbDictionary
  3
STANDARD
350
25E7
1001
ACAD
1000
TREAT_AS_HARD
1070
     0
  0
DICTIONARY
  5
1B
102
{ACAD_REACTORS
330
C
102
}
330
C
100
AcDbDictionary
  3
STANDARD
350
1C
1001
ACAD
1000
TREAT_AS_HARD
1070
     0
  0
DICTIONARY
  5
2D2
102
{ACAD_REACTORS
330
C
102
}
330
C
100
AcDbDictionary
1001
ACAD
1000
TREAT_AS_HARD
1070
     0
  0
DICTIONARY
  5
25C1
102
{ACAD_REACTORS
330
C
102
}
330
C
100
AcDbDictionary
  3
A0
350
25C2
  3
A1
350
25C3
  3
A2
350
25C4
  3
A3
350
25C5
  3
A4
350
25C6
  3
A5
350
25C7
  3
A6
350
25C8
  3
A7
350
25C9
  3
A8
350
25CA
  3
A9
350
25CB
  3
B0
350
25CC
  3
B1
350
25CD
  3
B2
350
25CE
  3
B3
350
25CF
  3
B4
350
25D0
  3
B5
350
25D1
  3
B6
350
25D2
  3
B7
350
25D3
  3
B8
350
25D4
  3
B9
350
25D5
  3
C0
350
25D6
  3
C1
350
25D7
  3
C2
350
25D8
  3
C3
350
25D9
  3
C4
350
25DA
  3
C5
350
25DB
  3
C6
350
25DC
  3
C7
350
25DD
  3
C8
350
25DE
  3
C9
350
25DF
  3
D0
350
25E0
  3
D1
350
25E1
  3
D2
350
25E2
1001
ACAD
1000
TREAT_AS_HARD
1070
     0
  0
DICTIONARY
  5
25A8
102
{ACAD_REACTORS
330
C
102
}
330
C
100
AcDbDictionary
  3
2DWIREFRAME
350
25AD
  3
BASIC
350
25B0
  3
BRIGHTEN
350
25B4
  3
COLORCHANGE
350
25B8
  3
CONCEPTUAL
350
25B2
  3
DIM
350
25B3
  3
EDGECOLOROFF
350
25BB
  3
FACEPATTERN
350
25B7
  3
FLAT
350
25A9
  3
FLATWITHEDGES
350
25AA
  3
GOURAUD
350
25AB
  3
GOURAUDWITHEDGES
350
25AC
  3
HIDDEN
350
25AF
  3
JITTEROFF
350
25B9
  3
LINEPATTERN
350
25B6
  3
MODELING
350
25E8
  3
OVERHANGOFF
350
25BA
  3
REALISTIC
350
25B1
  3
SHADED
350
25C0
  3
SHADED_WITH_EDGES
350
25BF
  3
SHADES_OF_GRAY
350
25BC
  3
SKETCHY
350
25BD
  3
THICKEN
350
25B5
  3
WIREFRAME
350
25AE
  3
X-RAY
350
25BE
1001
ACAD
1000
TREAT_AS_HARD
1070
     0
  0
DICTIONARY
  5
2FAB
102
{ACAD_REACTORS
330
C
102
}
330
C
100
AcDbDictionary
  3
COLORDICT
350
2FAC
  3
MATERIALDICT
350
2FAD
1001
ACAD
1000
TREAT_AS_HARD
1070
     0
  0
DICTIONARY
  5
37
102
{ACAD_REACTORS
330
C
102
}
330
C
100
AcDbDictionary
  3
CANNOSCALE
350
2DEE
  3
CMLEADERSTYLE
350
2E2F
  3
CTABLESTYLE
350
4FB
  3
DIMADEC
350
38
  3
DIMASSOC
350
408
  3
HIDETEXT
350
56F
  3
INTERSECTIONCOLOR
350
573
  3
INTERSECTIONDISPLAY
350
572
  3
MSLTSCALE
350
2E30
  3
OBSCOLOR
350
570
  3
OBSLTYPE
350
571
  3
PROJECTNAME
350
409
  3
XCLIPFRAME
350
2DEF
1001
ACAD
1000
TREAT_AS_HARD
1070
     0
  0
DICTIONARY
  5
D8
102
{ACAD_REACTORS
330
C
102
}
330
C
100
AcDbDictionary
1001
CONTENTTABDATA
1070
    11
1000
Child
1000
D:\ACLT\TABset\CHILDREN.dwg
1070
     0
1070
     0
1070
     1
1000
PK
1000
D:\ACLT\TABset\PK.dwg
1070
     0
1070
     0
1070
     1
1000
Lev1
1000
D:\ACLT\TABset\Lever01.dwg
1070
     0
1070
     0
1070
     1
1000
Lev2
1000
D:\ACLT\TABset\Lever02.dwg
1070
     0
1070
     0
1070
     1
1000
L3
1000
D:\Aclt\TABset\Lever03.dwg
1070
     0
1070
     0
1070
     1
1000
Form
1000
D:\ACLT\FORMAT
1070
     1
1070
     0
1070
     1
1000
Jnt
1000
D:\ACLT\TABset\JOINTPARTS.dwg
1070
     0
1070
     0
1070
     1
1000
ISO
1000
D:\ACLT\TABset\Isome01.dwg
1070
     0
1070
     0
1070
     1
1000
R
1000
D:\ACLT\TABset\REGION.dwg
1070
     0
1070
     0
1070
     1
1000
std
1000
D:\ACLT\TABset\std_sym_all.dwg
1070
     0
1070
     0
1070
     1
1000
丸
1000
D:\Aclt\TABset\MARU.dwg
1070
     0
1070
     0
1070
     1
1001
CONTENTCURRENTTAB
1070
     0
1001
ACAD
1000
TREAT_AS_HARD
1070
     0
  0
DICTIONARY
  5
20
102
{ACAD_REACTORS
330
C
102
}
330
C
100
AcDbDictionary
1001
DRAWINGVARIABLESXDATA
1000
POLARANG
1000
0.261799387799149410000000
1000
POLARMODE
1000
1
1000
POLARSTYLE
1000
1
1001
ACAD
1000
TREAT_AS_HARD
1070
     0
  0
XRECORD
  5
2FAE
102
{ACAD_REACTORS
330
C
102
}
330
C
100
AcDbXrecord
  1
DWGPROPS COOKIE
  2

  3

  4

  6

  7

  8
3684
  9

300
=
301
=
302
=
303
=
304
=
305
=
306
=
307
=
308
=
309
=
 40
0.0
 41
2453783.116995984
 42
2458618.005722373
  1

 90
        0
  0
DICTIONARY
  5
2DA1
102
{ACAD_REACTORS
330
2DA0
102
}
330
2DA0
100
AcDbDictionary
1001
ACAD
1000
TREAT_AS_HARD
1070
     0
  0
SORTENTSTABLE
  5
511
102
{ACAD_REACTORS
330
510
102
}
330
510
100
AcDbSortentsTable
330
18
331
1D6C
  5
1DC0
331
1D6D
  5
1DC1
331
1D6E
  5
1DC2
331
1D6F
  5
1DC3
331
1D70
  5
1DC4
331
1D71
  5
1DC5
331
1D72
  5
1DC6
331
1D73
  5
1DC7
331
1D74
  5
1DC8
331
1D75
  5
1DC9
331
1D76
  5
1DCA
331
1D77
  5
1DCB
331
1D8D
  5
1DCC
331
1D8E
  5
1DCD
331
1D8F
  5
1DCE
331
1D90
  5
1DCF
331
1D91
  5
1DD0
331
1D92
  5
1DD1
331
1D93
  5
1DD2
331
1D9D
  5
1DD3
331
1D9E
  5
1DD4
331
1D9F
  5
1DD7
331
1DA0
  5
1DD8
331
1DA1
  5
1DD9
331
1DA2
  5
1DDA
331
1DA3
  5
1DDB
331
1DA4
  5
1DDC
331
1DA5
  5
1DDD
331
1DA6
  5
1DDE
331
1DA7
  5
1DDF
331
1DA8
  5
1DE0
331
1DA9
  5
1DE1
331
1DAA
  5
1DE2
331
1DAB
  5
1DE3
331
1DAC
  5
1DE4
331
1DAD
  5
1DE5
331
1DAE
  5
1DE6
331
1DAF
  5
1DE7
331
1DB0
  5
1DE8
331
1DB1
  5
1DE9
331
1DB2
  5
1DEA
331
1DB3
  5
1DEB
331
1DB4
  5
1DEC
331
1DB5
  5
1DED
331
1DB6
  5
1DEE
331
1DB7
  5
1DEF
331
1DBA
  5
1DF0
331
1DBB
  5
1DF1
331
1DBC
  5
1DF4
331
1DBD
  5
1DF5
331
1DBE
  5
1DF6
331
1DBF
  5
1DF7
331
1DC0
  5
1DF8
331
1DC1
  5
1DF9
331
1DC2
  5
1DFA
331
1DC3
  5
1DFB
331
1DC4
  5
1DFC
331
1DC5
  5
1DFD
331
1DC6
  5
1DFE
331
1DC7
  5
1DFF
331
1DC8
  5
1E00
331
1DC9
  5
1E01
331
1DCA
  5
1E02
331
1DCB
  5
1E03
331
1DCC
  5
1E04
331
1DCD
  5
1E05
331
1DCE
  5
1E06
331
1DCF
  5
1E07
331
1DD0
  5
1E08
331
1DD1
  5
1E09
331
1DD2
  5
1E0A
331
1DD3
  5
1E0B
331
1DD4
  5
1E0C
331
1DD7
  5
1E0D
331
1DD8
  5
1E0E
331
1DD9
  5
1ED4
331
1DDA
  5
1ED5
331
1DDB
  5
1ED7
331
1DDC
  5
1ED8
331
1DDD
  5
1ED9
331
1DDE
  5
1EDA
331
1DDF
  5
1EDB
331
1DE0
  5
1EDC
331
1DE1
  5
1EDD
331
1DE2
  5
1EDE
331
1DE3
  5
1EDF
331
1DE4
  5
1EE1
331
1DE5
  5
1EE2
331
1DE6
  5
1EE3
331
1DE7
  5
1EE4
331
1DE8
  5
1EE5
331
1DE9
  5
1EE6
331
1DEA
  5
1EE7
331
1DEB
  5
1EE8
331
1DEC
  5
1EE9
331
1DED
  5
1EEB
331
1DEE
  5
1EEC
331
1DEF
  5
1EED
331
1DF0
  5
1EEE
331
1DF1
  5
1EEF
331
1DF4
  5
1EF0
331
1DF5
  5
1EF1
331
1DF6
  5
1EF2
331
1DF7
  5
1EF3
331
1DF8
  5
1EF5
331
1DF9
  5
1EF6
331
1DFA
  5
1EF7
331
1DFB
  5
1EF8
331
1DFC
  5
1EF9
331
1DFD
  5
1EFA
331
1DFE
  5
1EFB
331
1DFF
  5
1FA0
331
1E00
  5
1FA1
331
1E01
  5
1FA2
331
1E02
  5
1FA3
331
1E03
  5
1FA4
331
1E04
  5
1FA5
331
1E05
  5
1FA6
331
1E06
  5
206B
331
1E07
  5
206C
331
1E08
  5
206D
331
1E09
  5
206E
331
1E0A
  5
206F
331
1E0B
  5
2070
331
1E0C
  5
2071
331
1E0D
  5
2072
331
1E0E
  5
2073
331
1ED4
  5
2074
331
1ED5
  5
2075
331
1ED7
  5
2076
331
1ED8
  5
2077
331
1ED9
  5
2078
331
1EDA
  5
2079
331
1EDB
  5
22B1
331
1EDC
  5
23DD
331
1EDD
  5
2F09
331
1EDE
  5
2F0A
331
1EDF
  5
2F0B
331
1EE1
  5
2F0C
331
1EE2
  5
2F0D
331
1EE3
  5
2F0E
331
1EE4
  5
2F0F
331
1EE5
  5
2F10
331
1EE6
  5
2F11
331
1EE7
  5
2F12
331
1EE8
  5
2F13
331
1EE9
  5
2F14
331
1EEB
  5
2F15
331
1EEC
  5
2F16
331
1EED
  5
2F17
331
1EEE
  5
2F18
331
1EEF
  5
2F19
331
1EF0
  5
2F1A
331
1EF1
  5
2F1B
331
1EF2
  5
2F1C
331
1EF3
  5
2F1D
331
1EF5
  5
2F1E
331
1EF6
  5
2F1F
331
1EF7
  5
2F21
331
1EF8
  5
2F22
331
1EF9
  5
2F23
331
1EFA
  5
2F24
331
1EFB
  5
2F26
331
1FA0
  5
2F27
331
1FA1
  5
2F28
331
1FA2
  5
2F29
331
1FA3
  5
2F2B
331
1FA4
  5
2F2C
331
1FA5
  5
2F2D
331
1FA6
  5
2F2E
331
206B
  5
2F2F
331
206C
  5
2F30
331
206D
  5
2F31
331
206E
  5
2F32
331
206F
  5
2F36
331
2070
  5
2F37
331
2071
  5
2F38
331
2072
  5
2F3C
331
2073
  5
2F3D
331
2074
  5
2F3F
331
2075
  5
2F42
331
2076
  5
2F43
331
2077
  5
2F44
331
2078
  5
2F48
331
2079
  5
2F49
331
0
  5
2F4A
331
0
  5
2F67
331
2F09
  5
1D6C
331
2F0A
  5
1D6D
331
2F0B
  5
1D6E
331
0
  5
1D6F
331
0
  5
1D70
331
0
  5
1D71
331
2F0F
  5
1D9D
331
2F10
  5
1D9E
331
2F11
  5
1DA2
331
0
  5
1D75
331
0
  5
1D76
331
0
  5
1D77
331
2F15
  5
1DAA
331
2F16
  5
1DAB
331
2F17
  5
1DAC
331
0
  5
1D90
331
0
  5
1D91
331
0
  5
1D92
331
2F1B
  5
1DB4
331
2F1C
  5
1DB5
331
2F1D
  5
1DB6
331
0
  5
1D9F
331
0
  5
1DA0
331
0
  5
1DA1
331
0
  5
2F20
331
2F22
  5
2F52
331
2F23
  5
2F53
331
2F24
  5
2F54
331
2F25
  5
2F55
331
0
  5
2F25
331
2F27
  5
2F5C
331
2F28
  5
2F5D
331
2F29
  5
2F5E
331
2F2A
  5
2F5F
331
0
  5
2F2A
331
2F2C
  5
2F63
331
2F2D
  5
2F64
331
2F2E
  5
2F65
331
2F2F
  5
2F66
331
2F30
  5
2F68
331
2F31
  5
2F69
331
2F32
  5
2F6A
331
2F36
  5
2F72
331
2F37
  5
2F73
331
2F38
  5
2F74
331
2F3C
  5
2F7C
331
2F3D
  5
2F7D
331
2F3F
  5
2F7F
331
2F42
  5
2F86
331
2F43
  5
2F87
331
2F44
  5
2F88
331
2F48
  5
2F90
331
2F49
  5
2F91
331
2F4A
  5
2F92
331
2F4F
  5
2F9D
331
2F50
  5
2F9E
331
2F51
  5
2F9F
331
2F52
  5
2FA0
331
2F53
  5
2FA1
331
2F54
  5
2FA2
331
2F55
  5
2FA3
331
2F59
  5
1D72
331
2F5A
  5
1D73
331
2F5B
  5
1D74
331
2F5C
  5
1D8D
331
2F5D
  5
1D8E
331
2F5E
  5
1D8F
331
2F5F
  5
1D93
331
2F60
  5
1DA3
331
2F61
  5
1DA4
331
2F62
  5
1DA5
331
2F63
  5
1DA6
331
2F64
  5
1DA7
331
2F65
  5
1DA8
331
2F66
  5
1DA9
331
2F67
  5
1DAD
331
2F68
  5
1DAE
331
2F69
  5
1DAF
331
2F6A
  5
1DB0
331
2F6B
  5
1DB1
331
2F6C
  5
1DB2
331
2F6D
  5
1DB3
331
2F6E
  5
1DB7
331
2F6F
  5
1DBA
331
2F70
  5
1DBB
331
2F71
  5
1DBC
331
2F72
  5
1DBD
331
2F73
  5
1DBE
331
2F74
  5
1DBF
331
2F75
  5
2F4F
331
2F76
  5
2F50
331
2F77
  5
2F51
331
2F78
  5
2F59
331
2F79
  5
2F5A
331
2F7A
  5
2F5B
331
2F7B
  5
2F60
331
2F7C
  5
2F61
331
2F7D
  5
2F62
331
2F7E
  5
2F6B
331
2F7F
  5
2F6C
331
2F80
  5
2F6D
331
2F81
  5
2F6E
331
2F82
  5
2F6F
331
2F83
  5
2F70
331
2F84
  5
2F71
331
2F85
  5
2F75
331
2F86
  5
2F76
331
2F87
  5
2F77
331
2F88
  5
2F78
331
2F89
  5
2F79
331
2F8A
  5
2F7A
331
2F8B
  5
2F7B
331
2F8C
  5
2F7E
331
2F8D
  5
2F80
331
2F8E
  5
2F81
331
2F8F
  5
2F82
331
2F90
  5
2F83
331
2F91
  5
2F84
331
2F92
  5
2F85
331
2F93
  5
2F89
331
2F94
  5
2F8A
331
2F95
  5
2F8B
331
2F96
  5
2F8C
331
2F97
  5
2F8D
331
2F98
  5
2F8E
331
2F99
  5
2F8F
331
2F9A
  5
2F93
331
2F9B
  5
2F94
331
2F9C
  5
2F95
331
2F9D
  5
2F96
331
2F9E
  5
2F97
331
2F9F
  5
2F98
331
2FA0
  5
2F99
331
2FA1
  5
2F9A
331
2FA2
  5
2F9B
331
2FA3
  5
2F9C
  0
MATERIAL
  5
25E4
102
{ACAD_REACTORS
330
2CF
102
}
102
{ACAD_XDICTIONARY
360
314B
102
}
330
2CF
100
AcDbMaterial
  1
BYBLOCK
  0
MATERIAL
  5
25E3
102
{ACAD_REACTORS
330
2CF
102
}
102
{ACAD_XDICTIONARY
360
3149
102
}
330
2CF
100
AcDbMaterial
  1
BYLAYER
  0
MATERIAL
  5
25E5
102
{ACAD_REACTORS
330
2CF
102
}
102
{ACAD_XDICTIONARY
360
314D
102
}
330
2CF
100
AcDbMaterial
  1
GLOBAL
  0
ACAD_PROXY_OBJECT
  5
25E7
102
{ACAD_REACTORS
330
25E6
102
}
330
25E6
100
AcDbZombieObject
 90
      499
 91
      512
 93
      610
310
40901902A4063FBFFFFFE0000000000000020400000000000020404214DD185B99185C990000000000000104090141901A00000000000004100000000000000041025764000000000000039000
340
12
340
0
340
F
340
0
 94
        0
1001
ACAD_MLEADERVER
1070
     2
  0
MLINESTYLE
  5
1C
102
{ACAD_REACTORS
330
1B
102
}
330
1B
100
AcDbMlineStyle
  2
STANDARD
 70
     0
  3

 62
   256
 51
90.0
 52
90.0
 71
     2
 49
0.5
 62
   256
  6
BYLAYER
 49
-0.5
 62
   256
  6
BYLAYER
  0
ACAD_PROXY_OBJECT
  5
25C2
102
{ACAD_REACTORS
330
25C1
102
}
330
25C1
100
AcDbZombieObject
 90
      499
 91
      510
 93
       41
310
903313A31580
  0
ACAD_PROXY_OBJECT
  5
25C3
102
{ACAD_REACTORS
330
25C1
102
}
330
25C1
100
AcDbZombieObject
 90
      499
 91
      510
 93
      105
310
903313A324000000000000004000
  0
ACAD_PROXY_OBJECT
  5
25C4
102
{ACAD_REACTORS
330
25C1
102
}
330
25C1
100
AcDbZombieObject
 90
      499
 91
      510
 93
      105
310
903313A344000000000000104000
  0
ACAD_PROXY_OBJECT
  5
25C5
102
{ACAD_REACTORS
330
25C1
102
}
330
25C1
100
AcDbZombieObject
 90
      499
 91
      510
 93
      105
310
903313A354000000000000144000
  0
ACAD_PROXY_OBJECT
  5
25C6
102
{ACAD_REACTORS
330
25C1
102
}
330
25C1
100
AcDbZombieObject
 90
      499
 91
      510
 93
      105
310
903313A384000000000000204000
  0
ACAD_PROXY_OBJECT
  5
25C7
102
{ACAD_REACTORS
330
25C1
102
}
330
25C1
100
AcDbZombieObject
 90
      499
 91
      510
 93
      113
310
904313A31304000000000000244000
  0
ACAD_PROXY_OBJECT
  5
25C8
102
{ACAD_REACTORS
330
25C1
102
}
330
25C1
100
AcDbZombieObject
 90
      499
 91
      510
 93
      113
310
904313A31364000000000000304000
  0
ACAD_PROXY_OBJECT
  5
25C9
102
{ACAD_REACTORS
330
25C1
102
}
330
25C1
100
AcDbZombieObject
 90
      499
 91
      510
 93
      113
310
904313A32304000000000000344000
  0
ACAD_PROXY_OBJECT
  5
25CA
102
{ACAD_REACTORS
330
25C1
102
}
330
25C1
100
AcDbZombieObject
 90
      499
 91
      510
 93
      113
310
904313A333040000000000003E4000
  0
ACAD_PROXY_OBJECT
  5
25CB
102
{ACAD_REACTORS
330
25C1
102
}
330
25C1
100
AcDbZombieObject
 90
      499
 91
      510
 93
      113
310
904313A34304000000000000444000
  0
ACAD_PROXY_OBJECT
  5
25CC
102
{ACAD_REACTORS
330
25C1
102
}
330
25C1
100
AcDbZombieObject
 90
      499
 91
      510
 93
      113
310
904313A35304000000000000494000
  0
ACAD_PROXY_OBJECT
  5
25CD
102
{ACAD_REACTORS
330
25C1
102
}
330
25C1
100
AcDbZombieObject
 90
      499
 91
      510
 93
      121
310
905313A3130304000000000000594000
  0
ACAD_PROXY_OBJECT
  5
25CE
102
{ACAD_REACTORS
330
25C1
102
}
330
25C1
100
AcDbZombieObject
 90
      499
 91
      510
 93
      105
310
903323A310000000000000010100
  0
ACAD_PROXY_OBJECT
  5
25CF
102
{ACAD_REACTORS
330
25C1
102
}
330
25C1
100
AcDbZombieObject
 90
      499
 91
      510
 93
      105
310
903343A310000000000000410100
  0
ACAD_PROXY_OBJECT
  5
25D0
102
{ACAD_REACTORS
330
25C1
102
}
330
25C1
100
AcDbZombieObject
 90
      499
 91
      510
 93
      105
310
903383A310000000000000810100
  0
ACAD_PROXY_OBJECT
  5
25D1
102
{ACAD_REACTORS
330
25C1
102
}
330
25C1
100
AcDbZombieObject
 90
      499
 91
      510
 93
      113
310
90431303A310000000000000910100
  0
ACAD_PROXY_OBJECT
  5
25D2
102
{ACAD_REACTORS
330
25C1
102
}
330
25C1
100
AcDbZombieObject
 90
      499
 91
      510
 93
      121
310
9053130303A310000000000001650100
  0
ACAD_PROXY_OBJECT
  5
25D3
102
{ACAD_REACTORS
330
25C1
102
}
330
25C1
100
AcDbZombieObject
 90
      499
 91
      510
 93
      257
310
90E312F31323822203D2031272D3022000000000000200FC000000000000284000
  0
ACAD_PROXY_OBJECT
  5
25D4
102
{ACAD_REACTORS
330
25C1
102
}
330
25C1
100
AcDbZombieObject
 90
      499
 91
      510
 93
      249
310
90D312F363422203D2031272D3022000000000000240FC000000000000284000
  0
ACAD_PROXY_OBJECT
  5
25D5
102
{ACAD_REACTORS
330
25C1
102
}
330
25C1
100
AcDbZombieObject
 90
      499
 91
      510
 93
      249
310
90D312F333222203D2031272D3022000000000000280FC000000000000284000
  0
ACAD_PROXY_OBJECT
  5
25D6
102
{ACAD_REACTORS
330
25C1
102
}
330
25C1
100
AcDbZombieObject
 90
      499
 91
      510
 93
      249
310
90D312F313622203D2031272D30220000000000002C0FC000000000000284000
  0
ACAD_PROXY_OBJECT
  5
25D7
102
{ACAD_REACTORS
330
25C1
102
}
330
25C1
100
AcDbZombieObject
 90
      499
 91
      510
 93
      249
310
90D332F333222203D2031272D30220000000000002E0FC000000000000284000
  0
ACAD_PROXY_OBJECT
  5
25D8
102
{ACAD_REACTORS
330
25C1
102
}
330
25C1
100
AcDbZombieObject
 90
      499
 91
      510
 93
      241
310
90C312F3822203D2031272D3022000000000000300FC000000000000284000
  0
ACAD_PROXY_OBJECT
  5
25D9
102
{ACAD_REACTORS
330
25C1
102
}
330
25C1
100
AcDbZombieObject
 90
      499
 91
      510
 93
      249
310
90D332F313622203D2031272D3022000000000000320FC000000000000284000
  0
ACAD_PROXY_OBJECT
  5
25DA
102
{ACAD_REACTORS
330
25C1
102
}
330
25C1
100
AcDbZombieObject
 90
      499
 91
      510
 93
      241
310
90C312F3422203D2031272D3022000000000000340FC000000000000284000
  0
ACAD_PROXY_OBJECT
  5
25DB
102
{ACAD_REACTORS
330
25C1
102
}
330
25C1
100
AcDbZombieObject
 90
      499
 91
      510
 93
      241
310
90C332F3822203D2031272D3022000000000000360FC000000000000284000
  0
ACAD_PROXY_OBJECT
  5
25DC
102
{ACAD_REACTORS
330
25C1
102
}
330
25C1
100
AcDbZombieObject
 90
      499
 91
      510
 93
      241
310
90C312F3222203D2031272D3022000000000000380FC000000000000284000
  0
ACAD_PROXY_OBJECT
  5
25DD
102
{ACAD_REACTORS
330
25C1
102
}
330
25C1
100
AcDbZombieObject
 90
      499
 91
      510
 93
      241
310
90C332F3422203D2031272D30220000000000003A0FC000000000000284000
  0
ACAD_PROXY_OBJECT
  5
25DE
102
{ACAD_REACTORS
330
25C1
102
}
330
25C1
100
AcDbZombieObject
 90
      499
 91
      510
 93
      161
310
90A3122203D2031272D30224000000000000284000
  0
ACAD_PROXY_OBJECT
  5
25DF
102
{ACAD_REACTORS
330
25C1
102
}
330
25C1
100
AcDbZombieObject
 90
      499
 91
      510
 93
      257
310
90E312D312F3222203D2031272D30220000000000003E0FC000000000000284000
  0
ACAD_PROXY_OBJECT
  5
25E0
102
{ACAD_REACTORS
330
25C1
102
}
330
25C1
100
AcDbZombieObject
 90
      499
 91
      510
 93
      225
310
90A3322203D2031272D302200000000000002100000000000000284000
  0
ACAD_PROXY_OBJECT
  5
25E1
102
{ACAD_REACTORS
330
25C1
102
}
330
25C1
100
AcDbZombieObject
 90
      499
 91
      510
 93
      225
310
90A3622203D2031272D302200000000000006100000000000000284000
  0
ACAD_PROXY_OBJECT
  5
25E2
102
{ACAD_REACTORS
330
25C1
102
}
330
25C1
100
AcDbZombieObject
 90
      499
 91
      510
 93
      249
310
90D31272D3022203D2031272D30220000000000000A100000000000000284000
  0
ACAD_PROXY_OBJECT
  5
25AD
102
{ACAD_REACTORS
330
25A8
102
}
330
25A8
100
AcDbZombieObject
 90
      499
 91
      509
 93
      436
310
42CC9915DA5C99599C985B595049028333333333333E33F0000000000000F90107901411070040501600405405064090741402480A0340
1001
ACAD
1000
AcDbSavedByObjectVersion
1070
     0
  0
ACAD_PROXY_OBJECT
  5
25B0
102
{ACAD_REACTORS
330
25A8
102
}
330
25A8
100
AcDbZombieObject
 90
      499
 91
      509
 93
      388
310
4150985CDA58D07406404333333333333E33F0000000000000F90107A41107004050150841D405064090741402480A0350
1001
ACAD
1000
AcDbSavedByObjectVersion
1070
     0
  0
ACAD_PROXY_OBJECT
  5
25B4
102
{ACAD_REACTORS
330
25A8
102
}
330
25A8
100
AcDbZombieObject
 90
      499
 91
      509
 93
      428
310
42109C9A59DA1D195B90C409028333333333333E33F0000000000000F9010790141107004050150841D405064090741402480A029950
1001
ACAD
1000
AcDbSavedByObjectVersion
1070
     0
  0
ACAD_PROXY_OBJECT
  5
25B8
102
{ACAD_REACTORS
330
25A8
102
}
330
25A8
100
AcDbZombieObject
 90
      499
 91
      509
 93
      452
310
42D0DBDB1BDC90DA185B99D95104090240C333333333333E33F0000000000000F90108901411070040501508421405064090741402480A0350
1001
ACAD
1000
AcDbSavedByObjectVersion
1070
     0
  0
ACAD_PROXY_OBJECT
  5
25B2
102
{ACAD_REACTORS
330
25A8
102
}
330
25A8
100
AcDbZombieObject
 90
      499
 91
      509
 93
      500
310
4290DBDB98D95C1D1D585B10940D028333333333333E33F0000000000000F90107902409070040501000000000018199010841D405064090740C02480A0340
1001
ACAD
1000
AcDbSavedByObjectVersion
1070
     0
  0
ACAD_PROXY_OBJECT
  5
25B3
102
{ACAD_REACTORS
330
25A8
102
}
330
25A8
100
AcDbZombieObject
 90
      499
 91
      509
 93
      412
310
40D11A5B50B409028333333333333E33F0000000000000F9010790141107004050150841D405064090741402480A02677FFFFFD0
1001
ACAD
1000
AcDbSavedByObjectVersion
1070
     0
  0
ACAD_PROXY_OBJECT
  5
25BB
102
{ACAD_REACTORS
330
25A8
102
}
330
25A8
100
AcDbZombieObject
 90
      499
 91
      509
 93
      452
310
43115919D950DBDB1BDC93D999916409028333333333333E33F0000000000000F9010790141107004050150841D405064090741402480A0350
1001
ACAD
1000
AcDbSavedByObjectVersion
1070
     0
  0
ACAD_PROXY_OBJECT
  5
25B7
102
{ACAD_REACTORS
330
25A8
102
}
330
25A8
100
AcDbZombieObject
 90
      499
 91
      509
 93
      444
310
42D19858D95C185D1D195C9B90F409028333333333333E33F0000000000000F9010790141107004050150841D405064090741402480A0350
1001
ACAD
1000
AcDbSavedByObjectVersion
1070
     0
  0
ACAD_PROXY_OBJECT
  5
25A9
102
{ACAD_REACTORS
330
25A8
102
}
330
25A8
100
AcDbZombieObject
 90
      499
 91
      509
 93
      380
310
41119B185D240901404333333333333E33F0000000000000F9010740A907004050150841D405064090741402480A1B50
1001
ACAD
1000
AcDbSavedByObjectVersion
1070
     0
  0
ACAD_PROXY_OBJECT
  5
25AA
102
{ACAD_REACTORS
330
25A8
102
}
330
25A8
100
AcDbZombieObject
 90
      499
 91
      509
 93
      468
310
43519B185D15DA5D1A115919D95CD0140901404333333333333E33F0000000000000F90107409019070040501600405405064090741402480A1B50
1001
ACAD
1000
AcDbSavedByObjectVersion
1070
     0
  0
ACAD_PROXY_OBJECT
  5
25AB
102
{ACAD_REACTORS
330
25A8
102
}
330
25A8
100
AcDbZombieObject
 90
      499
 91
      509
 93
      404
310
41D1DBDD5C985D5910240902404333333333333E33F0000000000000F9010740A9070040501641D405064090741402480A1B50
1001
ACAD
1000
AcDbSavedByObjectVersion
1070
     0
  0
ACAD_PROXY_OBJECT
  5
25AC
102
{ACAD_REACTORS
330
25A8
102
}
330
25A8
100
AcDbZombieObject
 90
      499
 91
      509
 93
      492
310
4411DBDD5C985D5915DA5D1A115919D95CD0340902404333333333333E33F0000000000000F90107409019070040501600405405064090741402480A1B50
1001
ACAD
1000
AcDbSavedByObjectVersion
1070
     0
  0
ACAD_PROXY_OBJECT
  5
25AF
102
{ACAD_REACTORS
330
25A8
102
}
330
25A8
100
AcDbZombieObject
 90
      499
 91
      509
 93
      476
310
41921A5919195B90640502408333333333333E33F0000000000000F901079024090700405020000000000001110200405405064090740C02480A0340
1001
ACAD
1000
AcDbSavedByObjectVersion
1070
     0
  0
ACAD_PROXY_OBJECT
  5
25B9
102
{ACAD_REACTORS
330
25A8
102
}
330
25A8
100
AcDbZombieObject
 90
      499
 91
      509
 93
      428
310
42529A5D1D195C93D999914409028333333333333E33F0000000000000F9010790141107004050150A41D405064090741402480A0350
1001
ACAD
1000
AcDbSavedByObjectVersion
1070
     0
  0
ACAD_PROXY_OBJECT
  5
25B6
102
{ACAD_REACTORS
330
25A8
102
}
330
25A8
100
AcDbZombieObject
 90
      499
 91
      509
 93
      444
310
42D31A5B995C185D1D195C9B90E409028333333333333E33F0000000000000F9010790141107004050750841D405064090741402483A0350
1001
ACAD
1000
AcDbSavedByObjectVersion
1070
     0
  0
ACAD_PROXY_OBJECT
  5
25E8
102
{ACAD_REACTORS
330
25A8
102
}
330
25A8
100
AcDbZombieObject
 90
      499
 91
      509
 93
      484
310
42135BD9195B1A5B99D0A409038333333333333E33F0000000000000F901074090290700405010000000000201990108421405064090741402480A1B40
1001
ACAD
1000
AcDbSavedByObjectVersion
1070
     0
  0
ACAD_PROXY_OBJECT
  5
25BA
102
{ACAD_REACTORS
330
25A8
102
}
330
25A8
100
AcDbZombieObject
 90
      499
 91
      509
 93
      444
310
42D3DD995C9A185B99D3D999915409028333333333333E33F0000000000000F9010790141107004050150941D405064090741402480A0350
1001
ACAD
1000
AcDbSavedByObjectVersion
1070
     0
  0
ACAD_PROXY_OBJECT
  5
25B1
102
{ACAD_REACTORS
330
25A8
102
}
330
25A8
100
AcDbZombieObject
 90
      499
 91
      509
 93
      428
310
425499585B1A5CDD1A58D08409038333333333333E33F0000000000000F9010740A907004050150800405405064090740C02480A1B40
1001
ACAD
1000
AcDbSavedByObjectVersion
1070
     0
  0
ACAD_PROXY_OBJECT
  5
25C0
102
{ACAD_REACTORS
330
25A8
102
}
330
25A8
100
AcDbZombieObject
 90
      499
 91
      509
 93
      420
310
4194DA1859195911B40902404333333333333E33F0000000000000F9010740A41107004050150800405405064090840C02480A0B40
1001
ACAD
1000
AcDbSavedByObjectVersion
1070
     0
  0
ACAD_PROXY_OBJECT
  5
25BF
102
{ACAD_REACTORS
330
25A8
102
}
330
25A8
100
AcDbZombieObject
 90
      499
 91
      509
 93
      516
310
4454DA18591959081DDA5D1A08195919D95CD1A40902404333333333333E33F0000000000000F901074090142907004050250800405405064090740C02480A0B40
1001
ACAD
1000
AcDbSavedByObjectVersion
1070
     0
  0
ACAD_PROXY_OBJECT
  5
25BC
102
{ACAD_REACTORS
330
25A8
102
}
330
25A8
100
AcDbZombieObject
 90
      499
 91
      509
 93
      532
310
4394DA1859195CC81BD98811DC985E5174090240C333333333333E33F0000000000000F901079024090741D01000000000000111010841D405064090740C02480A0340
1001
ACAD
1000
AcDbSavedByObjectVersion
1070
     0
  0
ACAD_PROXY_OBJECT
  5
25BD
102
{ACAD_REACTORS
330
25A8
102
}
330
25A8
100
AcDbZombieObject
 90
      499
 91
      509
 93
      476
310
41D4DAD95D18DA1E51840502408333333333333E33F0000000000000F901079024090741D01000000000000111010B41D405064090741802480A0340
1001
ACAD
1000
AcDbSavedByObjectVersion
1070
     0
  0
ACAD_PROXY_OBJECT
  5
25B5
102
{ACAD_REACTORS
330
25A8
102
}
330
25A8
100
AcDbZombieObject
 90
      499
 91
      509
 93
      412
310
41D51A1A58DAD95B90D409028333333333333E33F0000000000000F9010790141107004050150C41D405064090741402480A0350
1001
ACAD
1000
AcDbSavedByObjectVersion
1070
     0
  0
ACAD_PROXY_OBJECT
  5
25AE
102
{ACAD_REACTORS
330
25A8
102
}
330
25A8
100
AcDbZombieObject
 90
      499
 91
      509
 93
      420
310
4255DA5C99599C985B595059028333333333333E33F0000000000000F90107901411070040501600405405064090740C02480A0340
1001
ACAD
1000
AcDbSavedByObjectVersion
1070
     0
  0
ACAD_PROXY_OBJECT
  5
25BE
102
{ACAD_REACTORS
330
25A8
102
}
330
25A8
100
AcDbZombieObject
 90
      499
 91
      509
 93
      404
310
41560B54985E51940902404000000000000E03F0000000000000F9010740501907004050150841D405064090740C02480A1B40
1001
ACAD
1000
AcDbSavedByObjectVersion
1070
     0
  0
XRECORD
  5
2FAC
102
{ACAD_REACTORS
330
2FAB
102
}
330
2FAB
100
AcDbXrecord
340
2D0
  0
XRECORD
  5
2FAD
102
{ACAD_REACTORS
330
2FAB
102
}
330
2FAB
100
AcDbXrecord
340
2CF
  0
DICTIONARYVAR
  5
2DEE
102
{ACAD_REACTORS
330
37
102
}
330
37
100
DictionaryVariables
280
     0
  1
1:1
  0
DICTIONARYVAR
  5
2E2F
102
{ACAD_REACTORS
330
37
102
}
330
37
100
DictionaryVariables
280
     0
  1
Standard
  0
DICTIONARYVAR
  5
4FB
102
{ACAD_REACTORS
330
37
102
}
330
37
100
DictionaryVariables
280
     0
  1
Standard
  0
DICTIONARYVAR
  5
38
102
{ACAD_REACTORS
330
37
102
}
330
37
100
DictionaryVariables
280
     0
  1
-1
  0
DICTIONARYVAR
  5
408
102
{ACAD_REACTORS
330
37
102
}
330
37
100
DictionaryVariables
280
     0
  1
2
  0
DICTIONARYVAR
  5
56F
102
{ACAD_REACTORS
330
37
102
}
330
37
100
DictionaryVariables
280
     0
  1
1
  0
DICTIONARYVAR
  5
573
102
{ACAD_REACTORS
330
37
102
}
330
37
100
DictionaryVariables
280
     0
  1
8
  0
DICTIONARYVAR
  5
572
102
{ACAD_REACTORS
330
37
102
}
330
37
100
DictionaryVariables
280
     0
  1
1
  0
DICTIONARYVAR
  5
2E30
102
{ACAD_REACTORS
330
37
102
}
330
37
100
DictionaryVariables
280
     0
  1
0
  0
DICTIONARYVAR
  5
570
102
{ACAD_REACTORS
330
37
102
}
330
37
100
DictionaryVariables
280
     0
  1
8
  0
DICTIONARYVAR
  5
571
102
{ACAD_REACTORS
330
37
102
}
330
37
100
DictionaryVariables
280
     0
  1
2
  0
DICTIONARYVAR
  5
409
102
{ACAD_REACTORS
330
37
102
}
330
37
100
DictionaryVariables
280
     0
  1

  0
DICTIONARYVAR
  5
2DEF
102
{ACAD_REACTORS
330
37
102
}
330
37
100
DictionaryVariables
280
     0
  1
2
  0
DICTIONARY
  5
314B
330
25E4
100
AcDbDictionary
  3
ACAD_XREC_ROUNDTRIP
360
314C
1001
ACAD
1000
TREAT_AS_HARD
1070
     1
  0
DICTIONARY
  5
3149
330
25E3
100
AcDbDictionary
  3
ACAD_XREC_ROUNDTRIP
360
314A
1001
ACAD
1000
TREAT_AS_HARD
1070
     1
  0
DICTIONARY
  5
314D
330
25E5
100
AcDbDictionary
  3
ACAD_XREC_ROUNDTRIP
360
314E
1001
ACAD
1000
TREAT_AS_HARD
1070
     1
  0
XRECORD
  5
314C
102
{ACAD_REACTORS
330
314B
102
}
330
314B
100
AcDbXrecord
102
MATERIAL
148
0.0
149
0.0
149
0.0
 93
        0
 94
      127
282
     0
 72
     1
 77
     1
171
     1
175
     1
179
     1
273
     0
  0
XRECORD
  5
314A
102
{ACAD_REACTORS
330
3149
102
}
330
3149
100
AcDbXrecord
102
MATERIAL
148
0.0
149
0.0
149
0.0
 93
        0
 94
      127
282
     0
 72
     1
 77
     1
171
     1
175
     1
179
     1
273
     0
  0
XRECORD
  5
314E
102
{ACAD_REACTORS
330
314D
102
}
330
314D
100
AcDbXrecord
102
MATERIAL
148
0.0
149
0.0
149
0.0
 93
        0
 94
      127
282
     0
 72
     1
 77
     1
171
     1
175
     1
179
     1
273
     0
  0
ENDSEC
  0
EOF
