  0
SECTION
  2
HEADER
  9
$ACADVER
  1
AC1009
  9
$INSBASE
 10
0.0
 20
0.0
 30
0.0
  9
$EXTMIN
 10
1289.143763940391
 20
37.977763274939207
 30
0.0
  9
$EXTMAX
 10
2544.4560450076051
 20
624.97776327493955
 30
0.0
  9
$LIMMIN
 10
0.0
 20
0.0
  9
$LIMMAX
 10
420.0
 20
297.0
  9
$ORTHOMODE
 70
     0
  9
$REGENMODE
 70
     1
  9
$FILLMODE
 70
     1
  9
$QTEXTMODE
 70
     0
  9
$MIRRTEXT
 70
     1
  9
$DRAGMODE
 70
     2
  9
$LTSCALE
 40
0.5
  9
$OSMODE
 70
  2175
  9
$ATTMODE
 70
     1
  9
$TEXTSIZE
 40
12.0
  9
$TRACEWID
 40
1.0
  9
$TEXTSTYLE
  7
STANDARD
  9
$CLAYER
  8
1TEXT
  9
$CELTYPE
  6
BYLAYER
  9
$CECOLOR
 62
   256
  9
$DIMSCALE
 40
3.0
  9
$DIMASZ
 40
2.0
  9
$DIMEXO
 40
0.0
  9
$DIMDLI
 40
7.0
  9
$DIMRND
 40
0.0
  9
$DIMDLE
 40
0.0
  9
$DIMEXE
 40
1.0
  9
$DIMTP
 40
0.0
  9
$DIMTM
 40
0.0
  9
$DIMTXT
 40
3.5
  9
$DIMCEN
 40
0.0
  9
$DIMTSZ
 40
0.0
  9
$DIMTOL
 70
     0
  9
$DIMLIM
 70
     0
  9
$DIMTIH
 70
     0
  9
$DIMTOH
 70
     0
  9
$DIMSE1
 70
     0
  9
$DIMSE2
 70
     0
  9
$DIMTAD
 70
     1
  9
$DIMZIN
 70
     8
  9
$DIMBLK
  1

  9
$DIMASO
 70
     1
  9
$DIMSHO
 70
     1
  9
$DIMPOST
  1
 
  9
$DIMAPOST
  1

  9
$DIMALT
 70
     0
  9
$DIMALTD
 70
     2
  9
$DIMALTF
 40
25.399999999999999
  9
$DIMLFAC
 40
1.0
  9
$DIMTOFL
 70
     1
  9
$DIMTVP
 40
0.0
  9
$DIMTIX
 70
     0
  9
$DIMSOXD
 70
     0
  9
$DIMSAH
 70
     1
  9
$DIMBLK1
  1
OPEN30
  9
$DIMBLK2
  1
OPEN30
  9
$DIMSTYLE
  2
NEWX10
  9
$DIMCLRD
 70
   256
  9
$DIMCLRE
 70
   256
  9
$DIMCLRT
 70
   201
  9
$DIMTFAC
 40
0.7
  9
$DIMGAP
 40
0.7
  9
$LUNITS
 70
     2
  9
$LUPREC
 70
     4
  9
$SKETCHINC
 40
1.0
  9
$FILLETRAD
 40
5.0
  9
$AUNITS
 70
     0
  9
$AUPREC
 70
     2
  9
$MENU
  1
acad
  9
$ELEVATION
 40
0.0
  9
$PELEVATION
 40
0.0
  9
$THICKNESS
 40
0.0
  9
$LIMCHECK
 70
     0
  9
$BLIPMODE
 70
     0
  9
$CHAMFERA
 40
1.0
  9
$CHAMFERB
 40
1.0
  9
$SKPOLY
 70
     0
  9
$TDCREATE
 40
2451318.621352917
  9
$TDUPDATE
 40
2455230.4047189588
  9
$TDINDWG
 40
10.8405704514
  9
$TDUSRTIMER
 40
10.8405704514
  9
$USRTIMER
 70
     1
  9
$ANGBASE
 50
0.0
  9
$ANGDIR
 70
     0
  9
$PDMODE
 70
     0
  9
$PDSIZE
 40
0.0
  9
$PLINEWID
 40
0.0
  9
$COORDS
 70
     2
  9
$SPLFRAME
 70
     0
  9
$SPLINETYPE
 70
     6
  9
$SPLINESEGS
 70
     8
  9
$ATTDIA
 70
     0
  9
$ATTREQ
 70
     1
  9
$HANDLING
 70
     1
  9
$HANDSEED
  5
29E33
  9
$SURFTAB1
 70
     6
  9
$SURFTAB2
 70
     6
  9
$SURFTYPE
 70
     6
  9
$SURFU
 70
     6
  9
$SURFV
 70
     6
  9
$UCSNAME
  2

  9
$UCSORG
 10
0.0
 20
0.0
 30
0.0
  9
$UCSXDIR
 10
1.0
 20
0.0
 30
0.0
  9
$UCSYDIR
 10
0.0
 20
1.0
 30
0.0
  9
$PUCSNAME
  2

  9
$PUCSORG
 10
0.0
 20
0.0
 30
0.0
  9
$PUCSXDIR
 10
1.0
 20
0.0
 30
0.0
  9
$PUCSYDIR
 10
0.0
 20
1.0
 30
0.0
  9
$USERI1
 70
     0
  9
$USERI2
 70
     0
  9
$USERI3
 70
     0
  9
$USERI4
 70
     0
  9
$USERI5
 70
     0
  9
$USERR1
 40
0.0
  9
$USERR2
 40
0.0
  9
$USERR3
 40
0.0
  9
$USERR4
 40
0.0
  9
$USERR5
 40
0.0
  9
$WORLDVIEW
 70
     1
  9
$SHADEDGE
 70
     3
  9
$SHADEDIF
 70
    70
  9
$TILEMODE
 70
     1
  9
$MAXACTVP
 70
    48
  9
$PLIMCHECK
 70
     0
  9
$PEXTMIN
 10
1.0000000000000000E+020
 20
1.0000000000000000E+020
 30
1.0000000000000000E+020
  9
$PEXTMAX
 10
-1.0000000000000000E+020
 20
-1.0000000000000000E+020
 30
-1.0000000000000000E+020
  9
$PLIMMIN
 10
0.0
 20
0.0
  9
$PLIMMAX
 10
420.0
 20
297.0
  9
$UNITMODE
 70
     0
  9
$VISRETAIN
 70
     1
  9
$PLINEGEN
 70
     0
  9
$PSLTSCALE
 70
     1
  0
ENDSEC
  0
SECTION
  2
TABLES
  0
TABLE
  2
VPORT
 70
     1
  0
VPORT
  2
*ACTIVE
 70
     0
 10
0.0
 20
0.0
 11
1.0
 21
1.0
 12
1916.8253724285901
 22
331.46632679324728
 13
0.0
 23
0.0
 14
10.0
 24
10.0
 15
10.0
 25
10.0
 16
0.0
 26
0.0
 36
1.0
 17
0.0
 27
0.0
 37
0.0
 40
940.66914663670434
 41
1.4123581336696089
 42
50.0
 43
0.0
 44
0.0
 50
0.0
 51
0.0
 71
     0
 72
   100
 73
     1
 74
     1
 75
     0
 76
     0
 77
     0
 78
     0
  0
ENDTAB
  0
TABLE
  2
LTYPE
 70
    13
  0
LTYPE
  2
CONTINUOUS
 70
     0
  3
Solid line
 72
    65
 73
     0
 40
0.0
  0
LTYPE
  2
XREF1|CENTER2
 70
    48
  3
Center (.5x) ___ _ ___ _ ___ _ ___ _ ___ _ ___
 72
    65
 73
     4
 40
28.574999999999999
 49
19.050000000000001
 49
-3.1749999999999989
 49
3.1749999999999989
 49
-3.1749999999999989
  0
LTYPE
  2
A3WAKUDAKE|CENTER2
 70
    48
  3
Center (.5x) ___ _ ___ _ ___ _ ___ _ ___ _ ___
 72
    65
 73
     4
 40
28.574999999999999
 49
19.050000000000001
 49
-3.1749999999999989
 49
3.1749999999999989
 49
-3.1749999999999989
  0
ENDTAB
  0
TABLE
  2
LAYER
 70
    43
  0
LAYER
  2
0
 70
     0
 62
     7
  6
CONTINUOUS
  0
LAYER
  2
1TEXT
 70
     0
 62
     7
  6
CONTINUOUS
  0
LAYER
  2
01
 70
     0
 62
     1
  6
CONTINUOUS
  0
LAYER
  2
A3WAKUDAKE|THICK
 70
    48
 62
     7
  6
CONTINUOUS
  0
LAYER
  2
A3WAKUDAKE|POINT
 70
    48
 62
     7
  6
CONTINUOUS
  0
LAYER
  2
A3WAKUDAKE|1CENTER
 70
    48
 62
     7
  6
A3WAKUDAKE|CENTER2
  0
LAYER
  2
A3WAKUDAKE|0-6
 70
    48
 62
     7
  6
CONTINUOUS
  0
LAYER
  2
A3WAKUDAKE|1DIM
 70
    48
 62
     7
  6
CONTINUOUS
  0
LAYER
  2
XREF1|1CENTER
 70
    48
 62
     7
  6
XREF1|CENTER2
  0
ENDTAB
  0
TABLE
  2
STYLE
 70
     8
  0
STYLE
  2
STANDARD
 70
     0
 40
0.0
 41
1.0
 50
0.0
 71
     0
 42
12.0
  3
romans.shx
  4
extfont.shx
  0
ENDTAB
  0
TABLE
  2
VIEW
 70
     0
  0
ENDTAB
  0
TABLE
  2
UCS
 70
     0
  0
ENDTAB
  0
TABLE
  2
APPID
 70
    12
  0
APPID
  2
ACAD
 70
     0
  0
APPID
  2
DRAWINGVARIABLESXDATA
 70
     0
  0
APPID
  2
CONTENTTABDATA
 70
     0
  0
APPID
  2
CONTENTCURRENTTAB
 70
     0
  0
APPID
  2
CONTENTBLOCKDESCRIPTION
 70
     0
  0
APPID
  2
CONTENTBLOCKICON
 70
     0
  0
APPID
  2
CONTENTLONGBLOCKNAME
 70
     0
  0
APPID
  2
ACAD_PSEXT
 70
     0
  0
APPID
  2
ACAD_DIMASSOC_CALC_DIMLFAC
 70
     0
  0
APPID
  2
ACAD_DIMASSOC_DIMLFAC
 70
     0
  0
APPID
  2
ACAD_DIMASSOC_OVERRIDDEN_D
 70
     0
  0
APPID
  2
ACAD_MLEADERVER
 70
     0
  0
ENDTAB
  0
TABLE
  2
DIMSTYLE
 70
     8
  0
DIMSTYLE
  2
NEWX10
 70
     0
  3
 
  4

  5

  6
OPEN30
  7
OPEN30
 40
1.0
 41
2.0
 42
0.0
 43
7.0
 44
1.0
 45
0.0
 46
0.0
 47
0.0
 48
0.0
140
3.5
141
0.0
142
0.0
143
25.399999999999999
144
1.0
145
0.0
146
0.7
147
0.7
 71
     0
 72
     0
 73
     0
 74
     0
 75
     0
 76
     0
 77
     1
 78
     8
170
     0
171
     2
172
     1
173
     1
174
     0
175
     0
176
   256
177
   256
178
   201
  0
ENDTAB
  0
ENDSEC
  0
SECTION
  2
BLOCKS
  0
BLOCK
  8
0
  2
$MODEL_SPACE
 70
     0
 10
0.0
 20
0.0
 30
0.0
  3
$MODEL_SPACE
  1

  0
ENDBLK
  5
1A
  8
0
  0
BLOCK
 67
     1
  8
0
  2
$PAPER_SPACE
 70
     0
 10
0.0
 20
0.0
 30
0.0
  3
$PAPER_SPACE
  1

  0
ENDBLK
  5
17
 67
     1
  8
0
  0
BLOCK
  8
0
  2
_OPEN30
 70
     0
 10
0.0
 20
0.0
 30
0.0
  3
_OPEN30
  1

  0
LINE
  5
44
  8
0
  6
BYBLOCK
 62
     0
 10
-1.0
 20
0.26794919
 30
0.0
 11
0.0
 21
0.0
 31
0.0
  0
LINE
  5
45
  8
0
  6
BYBLOCK
 62
     0
 10
0.0
 20
0.0
 30
0.0
 11
-1.0
 21
-0.26794919
 31
0.0
  0
LINE
  5
46
  8
0
  6
BYBLOCK
 62
     0
 10
0.0
 20
0.0
 30
0.0
 11
-1.0
 21
0.0
 31
0.0
  0
ENDBLK
  5
47
  8
0
  0
BLOCK
  8
0
  2
XREF1
 70
    36
 10
0.0
 20
0.0
 30
0.0
  3
XREF1
  1
D:\ACLT\FORMAT\KAWAJUN(9)図面用.dwg
  0
ENDBLK
  5
5D
  8
0
  0
BLOCK
  8
0
  2
A3WAKUDAKE
 70
    36
 10
0.0
 20
0.0
 30
0.0
  3
A3WAKUDAKE
  1
D:\ACLT\FORMAT\A3WAKUdake.dwg
  0
ENDBLK
  5
292D2
  8
0
  0
BLOCK
  8
0
  2
*U39
 70
     1
 10
0.0
 20
0.0
 30
0.0
  3
*U39
  1

  0
TEXT
  5
299E9
  8
1TEXT
 10
43.261904416197751
 20
36.765935493243212
 30
0.0
 40
4.0
  1
±0.13
  0
ENDBLK
  5
299EB
  8
0
  0
BLOCK
  8
0
  2
*U40
 70
     1
 10
0.0
 20
0.0
 30
0.0
  3
*U40
  1

  0
TEXT
  5
299ED
  8
1TEXT
 10
22.154761559054901
 20
36.483912321873959
 30
0.0
 40
4.0
  1
10
  0
ENDBLK
  5
299EF
  8
0
  0
BLOCK
  8
0
  2
*U41
 70
     1
 10
0.0
 20
0.0
 30
0.0
  3
*U41
  1

  0
TEXT
  5
299F1
  8
1TEXT
 10
43.166666320959663
 20
29.765935493243202
 30
0.0
 40
4.0
  1
±0.14
  0
ENDBLK
  5
299F3
  8
0
  0
BLOCK
  8
0
  2
*U42
 70
     1
 10
0.0
 20
0.0
 30
0.0
  3
*U42
  1

  0
TEXT
  5
299F5
  8
1TEXT
 10
20.249999654292989
 20
1.4839123218739581
 30
0.0
 40
4.0
  1
100
  0
ENDBLK
  5
299F7
  8
0
  0
BLOCK
  8
0
  2
*U43
 70
     1
 10
0.0
 20
0.0
 30
0.0
  3
*U43
  1

  0
TEXT
  5
299F9
  8
1TEXT
 10
4.845237749531087
 20
1.4839123218739581
 30
0.0
 40
4.0
  1
63
  0
ENDBLK
  5
299FB
  8
0
  0
BLOCK
  8
0
  2
*U44
 70
     1
 10
0.0
 20
0.0
 30
0.0
  3
*U44
  1

  0
TEXT
  5
299FD
  8
1TEXT
 10
4.940475844769181
 20
8.4839123218739587
 30
0.0
 40
4.0
  1
40
  0
ENDBLK
  5
299FF
  8
0
  0
BLOCK
  8
0
  2
*U45
 70
     1
 10
0.0
 20
0.0
 30
0.0
  3
*U45
  1

  0
TEXT
  5
29A01
  8
1TEXT
 10
4.9404758447691828
 20
15.48391232187396
 30
0.0
 40
4.0
  1
25
  0
ENDBLK
  5
29A03
  8
0
  0
BLOCK
  8
0
  2
*U46
 70
     1
 10
0.0
 20
0.0
 30
0.0
  3
*U46
  1

  0
TEXT
  5
29A05
  8
1TEXT
 10
4.6547615590548972
 20
22.483912321873959
 30
0.0
 40
4.0
  1
16
  0
ENDBLK
  5
29A07
  8
0
  0
BLOCK
  8
0
  2
*U47
 70
     1
 10
0.0
 20
0.0
 30
0.0
  3
*U47
  1

  0
TEXT
  5
29A09
  8
1TEXT
 10
4.6547615590548972
 20
29.483912321873959
 30
0.0
 40
4.0
  1
10
  0
ENDBLK
  5
29A0B
  8
0
  0
BLOCK
  8
0
  2
*U48
 70
     1
 10
0.0
 20
0.0
 30
0.0
  3
*U48
  1

  0
TEXT
  5
29A0D
  8
1TEXT
 10
22.345237749531091
 20
8.4839123218739587
 30
0.0
 40
4.0
  1
63
  0
ENDBLK
  5
29A0F
  8
0
  0
BLOCK
  8
0
  2
*U49
 70
     1
 10
0.0
 20
0.0
 30
0.0
  3
*U49
  1

  0
TEXT
  5
29A11
  8
1TEXT
 10
22.440475844769178
 20
15.48391232187396
 30
0.0
 40
4.0
  1
40
  0
ENDBLK
  5
29A13
  8
0
  0
BLOCK
  8
0
  2
*U50
 70
     1
 10
0.0
 20
0.0
 30
0.0
  3
*U50
  1

  0
TEXT
  5
29A15
  8
1TEXT
 10
22.440475844769178
 20
22.483912321873959
 30
0.0
 40
4.0
  1
25
  0
ENDBLK
  5
29A17
  8
0
  0
BLOCK
  8
0
  2
*U51
 70
     1
 10
0.0
 20
0.0
 30
0.0
  3
*U51
  1

  0
TEXT
  5
29A19
  8
1TEXT
 10
22.154761559054901
 20
29.483912321873959
 30
0.0
 40
4.0
  1
16
  0
ENDBLK
  5
29A1B
  8
0
  0
BLOCK
  8
0
  2
*U52
 70
     1
 10
0.0
 20
0.0
 30
0.0
  3
*U52
  1

  0
TEXT
  5
29A1D
  8
1TEXT
 10
45.166666320959663
 20
1.765935493243205
 30
0.0
 40
4.0
  1
±0.2
  0
ENDBLK
  5
29A1F
  8
0
  0
BLOCK
  8
0
  2
*U53
 70
     1
 10
0.0
 20
0.0
 30
0.0
  3
*U53
  1

  0
TEXT
  5
29A21
  8
1TEXT
 10
43.261904416197751
 20
8.7659354932432052
 30
0.0
 40
4.0
  1
±0.18
  0
ENDBLK
  5
29A23
  8
0
  0
BLOCK
  8
0
  2
*U54
 70
     1
 10
0.0
 20
0.0
 30
0.0
  3
*U54
  1

  0
TEXT
  5
29A25
  8
1TEXT
 10
43.261904416197751
 20
15.7659354932432
 30
0.0
 40
4.0
  1
±0.16
  0
ENDBLK
  5
29A27
  8
0
  0
BLOCK
  8
0
  2
*U55
 70
     1
 10
0.0
 20
0.0
 30
0.0
  3
*U55
  1

  0
TEXT
  5
29A29
  8
1TEXT
 10
43.261904416197751
 20
22.765935493243209
 30
0.0
 40
4.0
  1
±0.15
  0
ENDBLK
  5
29A2B
  8
0
  0
BLOCK
  8
0
  2
*U56
 70
     1
 10
0.0
 20
0.0
 30
0.0
  3
*U56
  1

  0
TEXT
  5
29A2D
  8
1TEXT
 10
16.311817879751771
 20
50.841567027023977
 30
0.0
 40
4.0
  1
特記なき寸法公差
  0
ENDBLK
  5
29A2F
  8
0
  0
BLOCK
  8
0
  2
*U57
 70
     1
 10
0.0
 20
0.0
 30
0.0
  3
*U57
  1

  0
TEXT
  5
29A31
  8
1TEXT
 10
43.050095826606068
 20
43.499999859772849
 30
0.0
 40
4.0
  1
寸法公差
  0
ENDBLK
  5
29A33
  8
0
  0
BLOCK
  8
0
  2
*U58
 70
     1
 10
0.0
 20
0.0
 30
0.0
  3
*U58
  1

  0
TEXT
  5
29A35
  8
1TEXT
 10
6.2738091781025158
 20
36.483912321873959
 30
0.0
 40
4.0
  1
-
  0
ENDBLK
  5
29A37
  8
0
  0
BLOCK
  8
0
  2
*U59
 70
     1
 10
0.0
 20
0.0
 30
0.0
  3
*U59
  1

  0
TEXT
  5
29A39
  8
1TEXT
 10
2.0833329876263229
 20
43.483912321873952
 30
0.0
 40
4.0
  1
を超え
  0
ENDBLK
  5
29A3B
  8
0
  0
BLOCK
  8
0
  2
*U60
 70
     1
 10
0.0
 20
0.0
 30
0.0
  3
*U60
  1

  0
TEXT
  5
29A3D
  8
1TEXT
 10
21.98333298762633
 20
43.483912321873952
 30
0.0
 40
4.0
  1
以下
  0
ENDBLK
  5
29A3F
  8
0
  0
BLOCK
  8
0
  2
*X61
 70
     1
 10
0.0
 20
0.0
 30
0.0
  3
*X61
  1

  0
LINE
  5
29A41
  8
0
 62
     0
 10
2.4791090173158281
 20
0.4185300168857875
 30
0.0
 11
2.4791090173158281
 21
0.4820300168857875
 31
0.0
  0
LINE
  5
29A42
  8
0
 62
     0
 10
2.4791090173158281
 20
0.2915300168857875
 30
0.0
 11
2.4791090173158281
 21
0.3550300168857875
 31
0.0
  0
LINE
  5
29A43
  8
0
 62
     0
 10
2.4791090173158281
 20
0.1645300168857875
 30
0.0
 11
2.4791090173158281
 21
0.2280300168857875
 31
0.0
  0
LINE
  5
29A44
  8
0
 62
     0
 10
2.4791090173158281
 20
0.0375300168857875
 30
0.0
 11
2.4791090173158281
 21
0.1010300168857875
 31
0.0
  0
LINE
  5
29A45
  8
0
 62
     0
 10
2.4791090173158281
 20
-0.0894699831142125
 30
0.0
 11
2.4791090173158281
 21
-0.0259699831142125
 31
0.0
  0
LINE
  5
29A46
  8
0
 62
     0
 10
2.4791090173158281
 20
-0.2164699831142125
 30
0.0
 11
2.4791090173158281
 21
-0.1529699831142125
 31
0.0
  0
LINE
  5
29A47
  8
0
 62
     0
 10
2.4791090173158281
 20
-0.3434699831142125
 30
0.0
 11
2.4791090173158281
 21
-0.2799699831142125
 31
0.0
  0
LINE
  5
29A48
  8
0
 62
     0
 10
2.4791090173158281
 20
-0.4704699831142126
 30
0.0
 11
2.4791090173158281
 21
-0.4069699831142125
 31
0.0
  0
LINE
  5
29A49
  8
0
 62
     0
 10
2.4156090173158269
 20
0.4820300168857895
 30
0.0
 11
2.4156090173158269
 21
0.4999999999989769
 31
0.0
  0
LINE
  5
29A4A
  8
0
 62
     0
 10
2.4156090173158269
 20
0.3550300168857894
 30
0.0
 11
2.4156090173158269
 21
0.4185300168857894
 31
0.0
  0
LINE
  5
29A4B
  8
0
 62
     0
 10
2.4156090173158269
 20
0.2280300168857894
 30
0.0
 11
2.4156090173158269
 21
0.2915300168857894
 31
0.0
  0
LINE
  5
29A4C
  8
0
 62
     0
 10
2.4156090173158269
 20
0.1010300168857894
 30
0.0
 11
2.4156090173158269
 21
0.1645300168857894
 31
0.0
  0
LINE
  5
29A4D
  8
0
 62
     0
 10
2.4156090173158269
 20
-0.0259699831142106
 30
0.0
 11
2.4156090173158269
 21
0.0375300168857894
 31
0.0
  0
LINE
  5
29A4E
  8
0
 62
     0
 10
2.4156090173158269
 20
-0.1529699831142106
 30
0.0
 11
2.4156090173158269
 21
-0.0894699831142106
 31
0.0
  0
LINE
  5
29A4F
  8
0
 62
     0
 10
2.4156090173158269
 20
-0.2799699831142106
 30
0.0
 11
2.4156090173158269
 21
-0.2164699831142106
 31
0.0
  0
LINE
  5
29A50
  8
0
 62
     0
 10
2.4156090173158269
 20
-0.4053494219742398
 30
0.0
 11
2.4156090173158269
 21
-0.3434699831142106
 31
0.0
  0
LINE
  5
29A51
  8
0
 62
     0
 10
2.3521090173158301
 20
0.4185300168857871
 30
0.0
 11
2.3521090173158301
 21
0.4820300168857871
 31
0.0
  0
LINE
  5
29A52
  8
0
 62
     0
 10
2.3521090173158301
 20
0.2915300168857871
 30
0.0
 11
2.3521090173158301
 21
0.3550300168857871
 31
0.0
  0
LINE
  5
29A53
  8
0
 62
     0
 10
2.3521090173158301
 20
0.1645300168857871
 30
0.0
 11
2.3521090173158301
 21
0.228030016885787
 31
0.0
  0
LINE
  5
29A54
  8
0
 62
     0
 10
2.3521090173158301
 20
0.0375300168857871
 30
0.0
 11
2.3521090173158301
 21
0.101030016885787
 31
0.0
  0
LINE
  5
29A55
  8
0
 62
     0
 10
2.3521090173158301
 20
-0.089469983114213
 30
0.0
 11
2.3521090173158301
 21
-0.025969983114213
 31
0.0
  0
LINE
  5
29A56
  8
0
 62
     0
 10
2.3521090173158301
 20
-0.2164699831142129
 30
0.0
 11
2.3521090173158301
 21
-0.1529699831142129
 31
0.0
  0
LINE
  5
29A57
  8
0
 62
     0
 10
2.3521090173158301
 20
-0.3341295888419609
 30
0.0
 11
2.3521090173158301
 21
-0.279969983114213
 31
0.0
  0
LINE
  5
29A58
  8
0
 62
     0
 10
2.288609017315828
 20
-0.1529699831142117
 30
0.0
 11
2.288609017315828
 21
-0.0894699831142117
 31
0.0
  0
LINE
  5
29A59
  8
0
 62
     0
 10
2.288609017315828
 20
-0.262909755709682
 30
0.0
 11
2.288609017315828
 21
-0.2164699831142117
 31
0.0
  0
LINE
  5
29A5A
  8
0
 62
     0
 10
2.2251090173158272
 20
0.0375300168857895
 30
0.0
 11
2.2251090173158272
 21
0.0376818484092798
 31
0.0
  0
LINE
  5
29A5B
  8
0
 62
     0
 10
2.2251090173158272
 20
-0.0894699831142105
 30
0.0
 11
2.2251090173158272
 21
-0.0259699831142105
 31
0.0
  0
LINE
  5
29A5C
  8
0
 62
     0
 10
2.2251090173158272
 20
-0.1916899225774031
 30
0.0
 11
2.2251090173158272
 21
-0.1529699831142105
 31
0.0
  0
LINE
  5
29A5D
  8
0
 62
     0
 10
2.1616090173158291
 20
0.1010300168857872
 30
0.0
 11
2.1616090173158291
 21
0.1089016815415729
 31
0.0
  0
LINE
  5
29A5E
  8
0
 62
     0
 10
2.1616090173158291
 20
-0.0259699831142128
 30
0.0
 11
2.1616090173158291
 21
0.0375300168857872
 31
0.0
  0
LINE
  5
29A5F
  8
0
 62
     0
 10
2.1616090173158291
 20
-0.1204700894451243
 30
0.0
 11
2.1616090173158291
 21
-0.0894699831142129
 31
0.0
  0
LINE
  5
29A60
  8
0
 62
     0
 10
2.0981090173158279
 20
0.1645300168857884
 30
0.0
 11
2.0981090173158279
 21
0.1801215146738659
 31
0.0
  0
LINE
  5
29A61
  8
0
 62
     0
 10
2.0981090173158279
 20
0.0375300168857884
 30
0.0
 11
2.0981090173158279
 21
0.1010300168857884
 31
0.0
  0
LINE
  5
29A62
  8
0
 62
     0
 10
2.0981090173158279
 20
-0.0492502563128454
 30
0.0
 11
2.0981090173158279
 21
-0.0259699831142116
 31
0.0
  0
LINE
  5
29A63
  8
0
 62
     0
 10
2.0346090173158271
 20
0.2280300168857896
 30
0.0
 11
2.0346090173158271
 21
0.2513413478061572
 31
0.0
  0
LINE
  5
29A64
  8
0
 62
     0
 10
2.0346090173158271
 20
0.1010300168857896
 30
0.0
 11
2.0346090173158271
 21
0.1645300168857896
 31
0.0
  0
LINE
  5
29A65
  8
0
 62
     0
 10
2.0346090173158271
 20
0.0219695768194335
 30
0.0
 11
2.0346090173158271
 21
0.0375300168857896
 31
0.0
  0
LINE
  5
29A66
  8
0
 62
     0
 10
1.971109017315829
 20
0.2915300168857873
 30
0.0
 11
1.971109017315829
 21
0.3225611809384503
 31
0.0
  0
LINE
  5
29A67
  8
0
 62
     0
 10
1.971109017315829
 20
0.1645300168857873
 30
0.0
 11
1.971109017315829
 21
0.2280300168857873
 31
0.0
  0
LINE
  5
29A68
  8
0
 62
     0
 10
1.971109017315829
 20
0.0931894099517123
 30
0.0
 11
1.971109017315829
 21
0.1010300168857873
 31
0.0
  0
LINE
  5
29A69
  8
0
 62
     0
 10
1.907609017315828
 20
0.3550300168857887
 30
0.0
 11
1.907609017315828
 21
0.3937810140707434
 31
0.0
  0
LINE
  5
29A6A
  8
0
 62
     0
 10
1.907609017315828
 20
0.2280300168857887
 30
0.0
 11
1.907609017315828
 21
0.2915300168857887
 31
0.0
  0
LINE
  5
29A6B
  8
0
 62
     0
 10
1.907609017315828
 20
0.1010300168857887
 30
0.0
 11
1.907609017315828
 21
0.1645300168857887
 31
0.0
  0
LINE
  5
29A6C
  8
0
 62
     0
 10
1.907609017315828
 20
-0.0259699831142113
 30
0.0
 11
1.907609017315828
 21
0.0375300168857887
 31
0.0
  0
LINE
  5
29A6D
  8
0
 62
     0
 10
1.907609017315828
 20
-0.1529699831142113
 30
0.0
 11
1.907609017315828
 21
-0.0894699831142113
 31
0.0
  0
LINE
  5
29A6E
  8
0
 62
     0
 10
1.907609017315828
 20
-0.2799699831142113
 30
0.0
 11
1.907609017315828
 21
-0.2164699831142113
 31
0.0
  0
LINE
  5
29A6F
  8
0
 62
     0
 10
1.907609017315828
 20
-0.4069699831142114
 30
0.0
 11
1.907609017315828
 21
-0.3434699831142113
 31
0.0
  0
LINE
  5
29A70
  8
0
 62
     0
 10
1.907609017315828
 20
-0.4736777777778798
 30
0.0
 11
1.907609017315828
 21
-0.4704699831142113
 31
0.0
  0
LINE
  5
29A71
  8
0
 62
     0
 10
1.844109017315827
 20
0.4185300168857893
 30
0.0
 11
1.844109017315827
 21
0.4650008472030365
 31
0.0
  0
LINE
  5
29A72
  8
0
 62
     0
 10
1.844109017315827
 20
0.2915300168857893
 30
0.0
 11
1.844109017315827
 21
0.3550300168857893
 31
0.0
  0
LINE
  5
29A73
  8
0
 62
     0
 10
1.844109017315827
 20
0.1645300168857893
 30
0.0
 11
1.844109017315827
 21
0.2280300168857892
 31
0.0
  0
LINE
  5
29A74
  8
0
 62
     0
 10
1.844109017315827
 20
0.0375300168857893
 30
0.0
 11
1.844109017315827
 21
0.1010300168857893
 31
0.0
  0
LINE
  5
29A75
  8
0
 62
     0
 10
1.844109017315827
 20
-0.0894699831142107
 30
0.0
 11
1.844109017315827
 21
-0.0259699831142107
 31
0.0
  0
LINE
  5
29A76
  8
0
 62
     0
 10
1.844109017315827
 20
-0.2164699831142107
 30
0.0
 11
1.844109017315827
 21
-0.1529699831142107
 31
0.0
  0
LINE
  5
29A77
  8
0
 62
     0
 10
1.844109017315827
 20
-0.3434699831142107
 30
0.0
 11
1.844109017315827
 21
-0.2799699831142107
 31
0.0
  0
LINE
  5
29A78
  8
0
 62
     0
 10
1.844109017315827
 20
-0.4704699831142108
 30
0.0
 11
1.844109017315827
 21
-0.4069699831142107
 31
0.0
  0
LINE
  5
29A79
  8
0
 62
     0
 10
1.6536090173158271
 20
0.4820300168857895
 30
0.0
 11
1.6536090173158271
 21
0.4999999999989769
 31
0.0
  0
LINE
  5
29A7A
  8
0
 62
     0
 10
1.6536090173158271
 20
0.3550300168857894
 30
0.0
 11
1.6536090173158271
 21
0.4185300168857894
 31
0.0
  0
LINE
  5
29A7B
  8
0
 62
     0
 10
1.6536090173158271
 20
0.2280300168857894
 30
0.0
 11
1.6536090173158271
 21
0.2915300168857894
 31
0.0
  0
LINE
  5
29A7C
  8
0
 62
     0
 10
1.6536090173158271
 20
0.1010300168857894
 30
0.0
 11
1.6536090173158271
 21
0.1645300168857894
 31
0.0
  0
LINE
  5
29A7D
  8
0
 62
     0
 10
1.6536090173158271
 20
-0.0259699831142106
 30
0.0
 11
1.6536090173158271
 21
0.0375300168857894
 31
0.0
  0
LINE
  5
29A7E
  8
0
 62
     0
 10
1.6536090173158271
 20
-0.1529699831142106
 30
0.0
 11
1.6536090173158271
 21
-0.0894699831142106
 31
0.0
  0
LINE
  5
29A7F
  8
0
 62
     0
 10
1.6536090173158271
 20
-0.2799699831142106
 30
0.0
 11
1.6536090173158271
 21
-0.2164699831142106
 31
0.0
  0
LINE
  5
29A80
  8
0
 62
     0
 10
1.590109017315829
 20
0.4185300168857865
 30
0.0
 11
1.590109017315829
 21
0.4820300168857865
 31
0.0
  0
LINE
  5
29A81
  8
0
 62
     0
 10
1.590109017315829
 20
0.2915300168857864
 30
0.0
 11
1.590109017315829
 21
0.3550300168857864
 31
0.0
  0
LINE
  5
29A82
  8
0
 62
     0
 10
1.590109017315829
 20
0.1645300168857864
 30
0.0
 11
1.590109017315829
 21
0.2280300168857864
 31
0.0
  0
LINE
  5
29A83
  8
0
 62
     0
 10
1.590109017315829
 20
0.0375300168857864
 30
0.0
 11
1.590109017315829
 21
0.1010300168857864
 31
0.0
  0
LINE
  5
29A84
  8
0
 62
     0
 10
1.590109017315829
 20
-0.0894699831142136
 30
0.0
 11
1.590109017315829
 21
-0.0259699831142136
 31
0.0
  0
LINE
  5
29A85
  8
0
 62
     0
 10
1.590109017315829
 20
-0.2164699831142136
 30
0.0
 11
1.590109017315829
 21
-0.1529699831142136
 31
0.0
  0
LINE
  5
29A86
  8
0
 62
     0
 10
1.590109017315829
 20
-0.3434699831142136
 30
0.0
 11
1.590109017315829
 21
-0.2799699831142136
 31
0.0
  0
LINE
  5
29A87
  8
0
 62
     0
 10
1.590109017315829
 20
-0.4131988061965704
 30
0.0
 11
1.590109017315829
 21
-0.4069699831142137
 31
0.0
  0
LINE
  5
29A88
  8
0
 62
     0
 10
1.526609017315828
 20
0.4820300168857888
 30
0.0
 11
1.526609017315828
 21
0.4999999999989769
 31
0.0
  0
LINE
  5
29A89
  8
0
 62
     0
 10
1.526609017315828
 20
0.3550300168857887
 30
0.0
 11
1.526609017315828
 21
0.4185300168857888
 31
0.0
  0
LINE
  5
29A8A
  8
0
 62
     0
 10
1.526609017315828
 20
0.2280300168857887
 30
0.0
 11
1.526609017315828
 21
0.2915300168857887
 31
0.0
  0
LINE
  5
29A8B
  8
0
 62
     0
 10
1.526609017315828
 20
0.1010300168857887
 30
0.0
 11
1.526609017315828
 21
0.1645300168857887
 31
0.0
  0
LINE
  5
29A8C
  8
0
 62
     0
 10
1.526609017315828
 20
-0.0259699831142113
 30
0.0
 11
1.526609017315828
 21
0.0375300168857887
 31
0.0
  0
LINE
  5
29A8D
  8
0
 62
     0
 10
1.526609017315828
 20
-0.1529699831142113
 30
0.0
 11
1.526609017315828
 21
-0.0894699831142113
 31
0.0
  0
LINE
  5
29A8E
  8
0
 62
     0
 10
1.526609017315828
 20
-0.2799699831142113
 30
0.0
 11
1.526609017315828
 21
-0.2164699831142113
 31
0.0
  0
LINE
  5
29A8F
  8
0
 62
     0
 10
1.526609017315828
 20
-0.4069699831142114
 30
0.0
 11
1.526609017315828
 21
-0.3434699831142113
 31
0.0
  0
LINE
  5
29A90
  8
0
 62
     0
 10
1.4631090173158301
 20
-0.3434699831142143
 30
0.0
 11
1.4631090173158301
 21
-0.3091470712316795
 31
0.0
  0
LINE
  5
29A91
  8
0
 62
     0
 10
1.4631090173158301
 20
-0.4704699831142144
 30
0.0
 11
1.4631090173158301
 21
-0.4069699831142143
 31
0.0
  0
LINE
  5
29A92
  8
0
 62
     0
 10
1.3996090173158291
 20
-0.4069699831142131
 30
0.0
 11
1.3996090173158291
 21
-0.343469983114213
 31
0.0
  0
LINE
  5
29A93
  8
0
 62
     0
 10
1.3996090173158291
 20
-0.4968494527605217
 30
0.0
 11
1.3996090173158291
 21
-0.4704699831142131
 31
0.0
  0
LINE
  5
29A94
  8
0
 62
     0
 10
1.3361090173158281
 20
-0.3434699831142125
 30
0.0
 11
1.3361090173158281
 21
-0.3395104267839546
 31
0.0
  0
LINE
  5
29A95
  8
0
 62
     0
 10
1.3361090173158281
 20
-0.4704699831142126
 30
0.0
 11
1.3361090173158281
 21
-0.4069699831142125
 31
0.0
  0
LINE
  5
29A96
  8
0
 62
     0
 10
1.27260901731583
 20
-0.4069699831142149
 30
0.0
 11
1.27260901731583
 21
-0.3434699831142148
 31
0.0
  0
LINE
  5
29A97
  8
0
 62
     0
 10
1.27260901731583
 20
-0.4918731569879676
 30
0.0
 11
1.27260901731583
 21
-0.4704699831142149
 31
0.0
  0
LINE
  5
29A98
  8
0
 62
     0
 10
1.209109017315829
 20
-0.3434699831142125
 30
0.0
 11
1.209109017315829
 21
-0.2848626565114003
 31
0.0
  0
LINE
  5
29A99
  8
0
 62
     0
 10
1.209109017315829
 20
-0.4704699831142126
 30
0.0
 11
1.209109017315829
 21
-0.4069699831142125
 31
0.0
  0
LINE
  5
29A9A
  8
0
 62
     0
 10
1.145609017315828
 20
0.4820300168857888
 30
0.0
 11
1.145609017315828
 21
0.4999999999989769
 31
0.0
  0
LINE
  5
29A9B
  8
0
 62
     0
 10
1.145609017315828
 20
0.3550300168857887
 30
0.0
 11
1.145609017315828
 21
0.4185300168857888
 31
0.0
  0
LINE
  5
29A9C
  8
0
 62
     0
 10
1.145609017315828
 20
0.2280300168857887
 30
0.0
 11
1.145609017315828
 21
0.2915300168857887
 31
0.0
  0
LINE
  5
29A9D
  8
0
 62
     0
 10
1.145609017315828
 20
0.1010300168857887
 30
0.0
 11
1.145609017315828
 21
0.1645300168857887
 31
0.0
  0
LINE
  5
29A9E
  8
0
 62
     0
 10
1.145609017315828
 20
-0.0259699831142113
 30
0.0
 11
1.145609017315828
 21
0.0375300168857887
 31
0.0
  0
LINE
  5
29A9F
  8
0
 62
     0
 10
1.145609017315828
 20
-0.1529699831142113
 30
0.0
 11
1.145609017315828
 21
-0.0894699831142113
 31
0.0
  0
LINE
  5
29AA0
  8
0
 62
     0
 10
1.145609017315828
 20
-0.2799699831142113
 30
0.0
 11
1.145609017315828
 21
-0.2164699831142113
 31
0.0
  0
LINE
  5
29AA1
  8
0
 62
     0
 10
1.145609017315828
 20
-0.4069699831142114
 30
0.0
 11
1.145609017315828
 21
-0.3434699831142113
 31
0.0
  0
LINE
  5
29AA2
  8
0
 62
     0
 10
1.0821090173158301
 20
0.4185300168857865
 30
0.0
 11
1.0821090173158301
 21
0.4820300168857865
 31
0.0
  0
LINE
  5
29AA3
  8
0
 62
     0
 10
1.0821090173158301
 20
0.2915300168857864
 30
0.0
 11
1.0821090173158301
 21
0.3550300168857864
 31
0.0
  0
LINE
  5
29AA4
  8
0
 62
     0
 10
1.0821090173158301
 20
0.1645300168857864
 30
0.0
 11
1.0821090173158301
 21
0.2280300168857864
 31
0.0
  0
LINE
  5
29AA5
  8
0
 62
     0
 10
1.0821090173158301
 20
0.0375300168857864
 30
0.0
 11
1.0821090173158301
 21
0.1010300168857864
 31
0.0
  0
LINE
  5
29AA6
  8
0
 62
     0
 10
1.0821090173158301
 20
-0.0894699831142136
 30
0.0
 11
1.0821090173158301
 21
-0.0259699831142136
 31
0.0
  0
LINE
  5
29AA7
  8
0
 62
     0
 10
1.0821090173158301
 20
-0.2164699831142136
 30
0.0
 11
1.0821090173158301
 21
-0.1529699831142136
 31
0.0
  0
LINE
  5
29AA8
  8
0
 62
     0
 10
1.0821090173158301
 20
-0.3434699831142136
 30
0.0
 11
1.0821090173158301
 21
-0.2799699831142136
 31
0.0
  0
LINE
  5
29AA9
  8
0
 62
     0
 10
1.0186090173158291
 20
0.4820300168857865
 30
0.0
 11
1.0186090173158291
 21
0.4999999999989769
 31
0.0
  0
LINE
  5
29AAA
  8
0
 62
     0
 10
1.0186090173158291
 20
0.3550300168857865
 30
0.0
 11
1.0186090173158291
 21
0.4185300168857866
 31
0.0
  0
LINE
  5
29AAB
  8
0
 62
     0
 10
1.0186090173158291
 20
0.2280300168857865
 30
0.0
 11
1.0186090173158291
 21
0.2915300168857865
 31
0.0
  0
LINE
  5
29AAC
  8
0
 62
     0
 10
1.0186090173158291
 20
0.1010300168857865
 30
0.0
 11
1.0186090173158291
 21
0.1645300168857865
 31
0.0
  0
LINE
  5
29AAD
  8
0
 62
     0
 10
1.0186090173158291
 20
-0.0259699831142135
 30
0.0
 11
1.0186090173158291
 21
0.0375300168857865
 31
0.0
  0
LINE
  5
29AAE
  8
0
 62
     0
 10
1.0186090173158291
 20
-0.1529699831142135
 30
0.0
 11
1.0186090173158291
 21
-0.0894699831142135
 31
0.0
  0
LINE
  5
29AAF
  8
0
 62
     0
 10
1.0186090173158291
 20
-0.2383663263905369
 30
0.0
 11
1.0186090173158291
 21
-0.2164699831142135
 31
0.0
  0
LINE
  5
29AB0
  8
0
 62
     0
 10
0.8916090173158304
 20
0.4820300168857859
 30
0.0
 11
0.8916090173158304
 21
0.4999999999989769
 31
0.0
  0
LINE
  5
29AB1
  8
0
 62
     0
 10
0.8916090173158304
 20
0.3550300168857858
 30
0.0
 11
0.8916090173158304
 21
0.4185300168857859
 31
0.0
  0
LINE
  5
29AB2
  8
0
 62
     0
 10
0.8916090173158304
 20
0.2280300168857858
 30
0.0
 11
0.8916090173158304
 21
0.2915300168857859
 31
0.0
  0
LINE
  5
29AB3
  8
0
 62
     0
 10
0.8916090173158304
 20
0.1010300168857858
 30
0.0
 11
0.8916090173158304
 21
0.1645300168857858
 31
0.0
  0
LINE
  5
29AB4
  8
0
 62
     0
 10
0.8916090173158304
 20
-0.0259699831142142
 30
0.0
 11
0.8916090173158304
 21
0.0375300168857858
 31
0.0
  0
LINE
  5
29AB5
  8
0
 62
     0
 10
0.8916090173158304
 20
-0.1529699831142142
 30
0.0
 11
0.8916090173158304
 21
-0.0894699831142142
 31
0.0
  0
LINE
  5
29AB6
  8
0
 62
     0
 10
0.8916090173158304
 20
-0.2799699831142142
 30
0.0
 11
0.8916090173158304
 21
-0.2164699831142141
 31
0.0
  0
LINE
  5
29AB7
  8
0
 62
     0
 10
0.8281090173158291
 20
0.4185300168857883
 30
0.0
 11
0.8281090173158291
 21
0.4820300168857882
 31
0.0
  0
LINE
  5
29AB8
  8
0
 62
     0
 10
0.8281090173158291
 20
0.2915300168857882
 30
0.0
 11
0.8281090173158291
 21
0.3550300168857881
 31
0.0
  0
LINE
  5
29AB9
  8
0
 62
     0
 10
0.8281090173158291
 20
0.1645300168857882
 30
0.0
 11
0.8281090173158291
 21
0.2280300168857882
 31
0.0
  0
LINE
  5
29ABA
  8
0
 62
     0
 10
0.8281090173158291
 20
0.0375300168857882
 30
0.0
 11
0.8281090173158291
 21
0.1010300168857882
 31
0.0
  0
LINE
  5
29ABB
  8
0
 62
     0
 10
0.8281090173158291
 20
-0.0894699831142118
 30
0.0
 11
0.8281090173158291
 21
-0.0259699831142118
 31
0.0
  0
LINE
  5
29ABC
  8
0
 62
     0
 10
0.8281090173158291
 20
-0.2164699831142118
 30
0.0
 11
0.8281090173158291
 21
-0.1529699831142118
 31
0.0
  0
LINE
  5
29ABD
  8
0
 62
     0
 10
0.8281090173158291
 20
-0.3434699831142118
 30
0.0
 11
0.8281090173158291
 21
-0.2799699831142118
 31
0.0
  0
LINE
  5
29ABE
  8
0
 62
     0
 10
0.764609017315828
 20
0.4820300168857888
 30
0.0
 11
0.764609017315828
 21
0.4999999999989769
 31
0.0
  0
LINE
  5
29ABF
  8
0
 62
     0
 10
0.764609017315828
 20
0.3550300168857887
 30
0.0
 11
0.764609017315828
 21
0.4185300168857888
 31
0.0
  0
LINE
  5
29AC0
  8
0
 62
     0
 10
0.764609017315828
 20
0.2280300168857887
 30
0.0
 11
0.764609017315828
 21
0.2915300168857887
 31
0.0
  0
LINE
  5
29AC1
  8
0
 62
     0
 10
0.764609017315828
 20
0.1010300168857887
 30
0.0
 11
0.764609017315828
 21
0.1645300168857887
 31
0.0
  0
LINE
  5
29AC2
  8
0
 62
     0
 10
0.764609017315828
 20
-0.0259699831142113
 30
0.0
 11
0.764609017315828
 21
0.0375300168857887
 31
0.0
  0
LINE
  5
29AC3
  8
0
 62
     0
 10
0.764609017315828
 20
-0.1529699831142113
 30
0.0
 11
0.764609017315828
 21
-0.0894699831142113
 31
0.0
  0
LINE
  5
29AC4
  8
0
 62
     0
 10
0.764609017315828
 20
-0.2799699831142113
 30
0.0
 11
0.764609017315828
 21
-0.2164699831142113
 31
0.0
  0
LINE
  5
29AC5
  8
0
 62
     0
 10
0.764609017315828
 20
-0.4069699831142114
 30
0.0
 11
0.764609017315828
 21
-0.3434699831142113
 31
0.0
  0
LINE
  5
29AC6
  8
0
 62
     0
 10
0.7011090173158303
 20
-0.3434699831142136
 30
0.0
 11
0.7011090173158303
 21
-0.3091351710733647
 31
0.0
  0
LINE
  5
29AC7
  8
0
 62
     0
 10
0.7011090173158303
 20
-0.466017731266069
 30
0.0
 11
0.7011090173158303
 21
-0.4069699831142137
 31
0.0
  0
LINE
  5
29AC8
  8
0
 62
     0
 10
0.6376090173158291
 20
-0.4069699831142131
 30
0.0
 11
0.6376090173158291
 21
-0.343469983114213
 31
0.0
  0
LINE
  5
29AC9
  8
0
 62
     0
 10
0.5741090173158279
 20
-0.3434699831142118
 30
0.0
 11
0.5741090173158279
 21
-0.3200000000010732
 31
0.0
  0
LINE
  5
29ACA
  8
0
 62
     0
 10
0.5741090173158279
 20
-0.4700000000010505
 30
0.0
 11
0.5741090173158279
 21
-0.4069699831142119
 31
0.0
  0
LINE
  5
29ACB
  8
0
 62
     0
 10
0.5106090173158302
 20
-0.4069699831142131
 30
0.0
 11
0.5106090173158302
 21
-0.343469983114213
 31
0.0
  0
LINE
  5
29ACC
  8
0
 62
     0
 10
0.4471090173158289
 20
-0.2164699831142118
 30
0.0
 11
0.4471090173158289
 21
-0.2083351068823003
 31
0.0
  0
LINE
  5
29ACD
  8
0
 62
     0
 10
0.4471090173158289
 20
-0.3434699831142118
 30
0.0
 11
0.4471090173158289
 21
-0.2799699831142118
 31
0.0
  0
LINE
  5
29ACE
  8
0
 62
     0
 10
0.4471090173158289
 20
-0.4700000000010505
 30
0.0
 11
0.4471090173158289
 21
-0.4069699831142119
 31
0.0
  0
LINE
  5
29ACF
  8
0
 62
     0
 10
0.3836090173158277
 20
-0.1529699831142113
 30
0.0
 11
0.3836090173158277
 21
-0.0894699831142113
 31
0.0
  0
LINE
  5
29AD0
  8
0
 62
     0
 10
0.3836090173158277
 20
-0.2799699831142113
 30
0.0
 11
0.3836090173158277
 21
-0.2164699831142113
 31
0.0
  0
LINE
  5
29AD1
  8
0
 62
     0
 10
0.3836090173158277
 20
-0.4069699831142114
 30
0.0
 11
0.3836090173158277
 21
-0.3434699831142113
 31
0.0
  0
LINE
  5
29AD2
  8
0
 62
     0
 10
0.3201090173158301
 20
0.0375300168857871
 30
0.0
 11
0.3201090173158301
 21
0.0755411529487358
 31
0.0
  0
LINE
  5
29AD3
  8
0
 62
     0
 10
0.3201090173158301
 20
-0.089469983114213
 30
0.0
 11
0.3201090173158301
 21
-0.025969983114213
 31
0.0
  0
LINE
  5
29AD4
  8
0
 62
     0
 10
0.3201090173158301
 20
-0.2164699831142129
 30
0.0
 11
0.3201090173158301
 21
-0.1529699831142129
 31
0.0
  0
LINE
  5
29AD5
  8
0
 62
     0
 10
0.3201090173158301
 20
-0.3111620152732151
 30
0.0
 11
0.3201090173158301
 21
-0.279969983114213
 31
0.0
  0
LINE
  5
29AD6
  8
0
 62
     0
 10
0.2566090173158289
 20
0.1010300168857883
 30
0.0
 11
0.2566090173158289
 21
0.1645300168857883
 31
0.0
  0
LINE
  5
29AD7
  8
0
 62
     0
 10
0.2566090173158289
 20
-0.0259699831142117
 30
0.0
 11
0.2566090173158289
 21
0.0375300168857883
 31
0.0
  0
LINE
  5
29AD8
  8
0
 62
     0
 10
0.2566090173158289
 20
-0.1529699831142117
 30
0.0
 11
0.2566090173158289
 21
-0.0894699831142117
 31
0.0
  0
LINE
  5
29AD9
  8
0
 62
     0
 10
0.1931090173158276
 20
0.2915300168857884
 30
0.0
 11
0.1931090173158276
 21
0.3550300168857884
 31
0.0
  0
LINE
  5
29ADA
  8
0
 62
     0
 10
0.1931090173158276
 20
0.1645300168857884
 30
0.0
 11
0.1931090173158276
 21
0.2280300168857884
 31
0.0
  0
LINE
  5
29ADB
  8
0
 62
     0
 10
0.1931090173158276
 20
0.0375300168857884
 30
0.0
 11
0.1931090173158276
 21
0.1010300168857884
 31
0.0
  0
LINE
  5
29ADC
  8
0
 62
     0
 10
0.1931090173158276
 20
-0.0272768178468841
 30
0.0
 11
0.1931090173158276
 21
-0.0259699831142116
 31
0.0
  0
LINE
  5
29ADD
  8
0
 62
     0
 10
0.1931090173158276
 20
-0.0894699831142105
 30
0.0
 11
0.1931090173158276
 21
-0.0657888888894149
 31
0.0
  0
LINE
  5
29ADE
  8
0
 62
     0
 10
0.1931090173158276
 20
-0.2105222222226075
 30
0.0
 11
0.1931090173158276
 21
-0.1529699831142105
 31
0.0
  0
LINE
  5
29ADF
  8
0
 62
     0
 10
0.12960901731583
 20
0.4820300168857868
 30
0.0
 11
0.12960901731583
 21
0.5013555426952899
 31
0.0
  0
LINE
  5
29AE0
  8
0
 62
     0
 10
0.12960901731583
 20
0.3550300168857867
 30
0.0
 11
0.12960901731583
 21
0.4185300168857867
 31
0.0
  0
LINE
  5
29AE1
  8
0
 62
     0
 10
0.12960901731583
 20
0.2280300168857867
 30
0.0
 11
0.12960901731583
 21
0.2915300168857868
 31
0.0
  0
LINE
  5
29AE2
  8
0
 62
     0
 10
0.12960901731583
 20
0.1147036537372355
 30
0.0
 11
0.12960901731583
 21
0.1645300168857867
 31
0.0
  0
LINE
  5
29AE3
  8
0
 62
     0
 10
0.1296090173158299
 20
-0.1529699831142135
 30
0.0
 11
0.1296090173158299
 21
-0.0894699831142135
 31
0.0
  0
LINE
  5
29AE4
  8
0
 62
     0
 10
0.0661090173158288
 20
0.2915300168857884
 30
0.0
 11
0.0661090173158288
 21
0.3550300168857884
 31
0.0
  0
LINE
  5
29AE5
  8
0
 62
     0
 10
0.0661090173158288
 20
0.1645300168857884
 30
0.0
 11
0.0661090173158288
 21
0.2280300168857884
 31
0.0
  0
LINE
  5
29AE6
  8
0
 62
     0
 10
0.0661090173158288
 20
0.0375300168857884
 30
0.0
 11
0.0661090173158288
 21
0.1010300168857884
 31
0.0
  0
LINE
  5
29AE7
  8
0
 62
     0
 10
0.0661090173158287
 20
-0.0894699831142123
 30
0.0
 11
0.0661090173158287
 21
-0.0657888888894149
 31
0.0
  0
LINE
  5
29AE8
  8
0
 62
     0
 10
0.0661090173158287
 20
-0.2105222222226075
 30
0.0
 11
0.0661090173158287
 21
-0.1529699831142123
 31
0.0
  0
LINE
  5
29AE9
  8
0
 62
     0
 10
0.0026090173158275
 20
0.22803001688579
 30
0.0
 11
0.0026090173158275
 21
0.2674288552920263
 31
0.0
  0
LINE
  5
29AEA
  8
0
 62
     0
 10
0.0026090173158275
 20
0.10103001688579
 30
0.0
 11
0.0026090173158275
 21
0.16453001688579
 31
0.0
  0
LINE
  5
29AEB
  8
0
 62
     0
 10
0.0026090173158275
 20
-0.02596998311421
 30
0.0
 11
0.0026090173158275
 21
0.0375300168857901
 31
0.0
  0
LINE
  5
29AEC
  8
0
 62
     0
 10
0.0026090173158275
 20
-0.1529699831142099
 30
0.0
 11
0.0026090173158275
 21
-0.08946998311421
 31
0.0
  0
LINE
  5
29AED
  8
0
 62
     0
 10
-0.0608909826841701
 20
0.4185300168857868
 30
0.0
 11
-0.0608909826841701
 21
0.4820300168857869
 31
0.0
  0
LINE
  5
29AEE
  8
0
 62
     0
 10
-0.0608909826841702
 20
0.0375300168857871
 30
0.0
 11
-0.0608909826841702
 21
0.101030016885787
 31
0.0
  0
LINE
  5
29AEF
  8
0
 62
     0
 10
-0.0608909826841702
 20
-0.089469983114213
 30
0.0
 11
-0.0608909826841702
 21
-0.025969983114213
 31
0.0
  0
LINE
  5
29AF0
  8
0
 62
     0
 10
-0.0608909826841702
 20
-0.2164699831142129
 30
0.0
 11
-0.0608909826841702
 21
-0.1529699831142129
 31
0.0
  0
LINE
  5
29AF1
  8
0
 62
     0
 10
-0.1243909826841713
 20
0.4820300168857874
 30
0.0
 11
-0.1243909826841713
 21
0.4999999999989769
 31
0.0
  0
LINE
  5
29AF2
  8
0
 62
     0
 10
-0.1243909826841713
 20
0.3550300168857874
 30
0.0
 11
-0.1243909826841713
 21
0.4185300168857875
 31
0.0
  0
LINE
  5
29AF3
  8
0
 62
     0
 10
-0.1243909826841713
 20
0.2357470068116196
 30
0.0
 11
-0.1243909826841713
 21
0.2915300168857874
 31
0.0
  0
LINE
  5
29AF4
  8
0
 62
     0
 10
-0.1243909826841714
 20
-0.0259699831142124
 30
0.0
 11
-0.1243909826841714
 21
-0.0164052644000421
 31
0.0
  0
LINE
  5
29AF5
  8
0
 62
     0
 10
-0.1243909826841714
 20
-0.1529699831142124
 30
0.0
 11
-0.1243909826841714
 21
-0.0894699831142124
 31
0.0
  0
LINE
  5
29AF6
  8
0
 62
     0
 10
-0.1243909826841714
 20
-0.2799699831142124
 30
0.0
 11
-0.1243909826841714
 21
-0.2164699831142124
 31
0.0
  0
LINE
  5
29AF7
  8
0
 62
     0
 10
-0.1243909826841714
 20
-0.4030606270906425
 30
0.0
 11
-0.1243909826841714
 21
-0.3434699831142124
 31
0.0
  0
LINE
  5
29AF8
  8
0
 62
     0
 10
-0.1878909826841726
 20
0.4185300168857891
 30
0.0
 11
-0.1878909826841726
 21
0.4783504748785373
 31
0.0
  0
LINE
  5
29AF9
  8
0
 62
     0
 10
-0.1878909826841726
 20
0.2915300168857891
 30
0.0
 11
-0.1878909826841726
 21
0.355030016885789
 31
0.0
  0
LINE
  5
29AFA
  8
0
 62
     0
 10
-0.1878909826841726
 20
0.164530016885789
 30
0.0
 11
-0.1878909826841726
 21
0.2280300168857891
 31
0.0
  0
LINE
  5
29AFB
  8
0
 62
     0
 10
-0.1878909826841726
 20
0.08495545008339
 30
0.0
 11
-0.1878909826841726
 21
0.101030016885789
 31
0.0
  0
LINE
  5
29AFC
  8
0
 62
     0
 10
-0.1878909826841726
 20
-0.2164699831142107
 30
0.0
 11
-0.1878909826841726
 21
-0.1583223242460772
 31
0.0
  0
LINE
  5
29AFD
  8
0
 62
     0
 10
-0.1878909826841726
 20
-0.3434699831142107
 30
0.0
 11
-0.1878909826841726
 21
-0.2799699831142107
 31
0.0
  0
LINE
  5
29AFE
  8
0
 62
     0
 10
-0.1878909826841726
 20
-0.4704699831142108
 30
0.0
 11
-0.1878909826841726
 21
-0.4069699831142107
 31
0.0
  0
LINE
  5
29AFF
  8
0
 62
     0
 10
-0.2513909826841703
 20
0.2280300168857872
 30
0.0
 11
-0.2513909826841703
 21
0.2915300168857872
 31
0.0
  0
LINE
  5
29B00
  8
0
 62
     0
 10
-0.2513909826841703
 20
0.1010300168857872
 30
0.0
 11
-0.2513909826841703
 21
0.1645300168857872
 31
0.0
  0
LINE
  5
29B01
  8
0
 62
     0
 10
-0.2513909826841703
 20
-0.0259699831142128
 30
0.0
 11
-0.2513909826841703
 21
0.0375300168857872
 31
0.0
  0
LINE
  5
29B02
  8
0
 62
     0
 10
-0.2513909826841703
 20
-0.4069699831142131
 30
0.0
 11
-0.2513909826841703
 21
-0.343469983114213
 31
0.0
  0
LINE
  5
29B03
  8
0
 62
     0
 10
-0.2513909826841703
 20
-0.4736777777778798
 30
0.0
 11
-0.2513909826841703
 21
-0.4704699831142131
 31
0.0
  0
LINE
  5
29B04
  8
0
 62
     0
 10
-0.3148909826841715
 20
0.1645300168857888
 30
0.0
 11
-0.3148909826841715
 21
0.1766465498894068
 31
0.0
  0
LINE
  5
29B05
  8
0
 62
     0
 10
-0.3148909826841715
 20
0.0375300168857888
 30
0.0
 11
-0.3148909826841715
 21
0.1010300168857888
 31
0.0
  0
LINE
  5
29B06
  8
0
 62
     0
 10
-0.3148909826841715
 20
-0.0894699831142112
 30
0.0
 11
-0.3148909826841715
 21
-0.0259699831142112
 31
0.0
  0
LINE
  5
29B07
  8
0
 62
     0
 10
-0.3148909826841715
 20
-0.2164699831142112
 30
0.0
 11
-0.3148909826841715
 21
-0.1529699831142112
 31
0.0
  0
LINE
  5
29B08
  8
0
 62
     0
 10
-0.3148909826841715
 20
-0.4704699831142126
 30
0.0
 11
-0.3148909826841715
 21
-0.4421564439381456
 31
0.0
  0
LINE
  5
29B09
  8
0
 62
     0
 10
-0.3783909826841727
 20
-0.0259699831142106
 30
0.0
 11
-0.3783909826841727
 21
0.0257945873948415
 31
0.0
  0
LINE
  5
29B0A
  8
0
 62
     0
 10
-0.3783909826841727
 20
-0.1529699831142106
 30
0.0
 11
-0.3783909826841727
 21
-0.0894699831142106
 31
0.0
  0
LINE
  5
29B0B
  8
0
 62
     0
 10
-0.3783909826841727
 20
-0.2799699831142106
 30
0.0
 11
-0.3783909826841727
 21
-0.2164699831142106
 31
0.0
  0
LINE
  5
29B0C
  8
0
 62
     0
 10
-0.3783909826841727
 20
-0.3674192201012989
 30
0.0
 11
-0.3783909826841727
 21
-0.3434699831142106
 31
0.0
  0
LINE
  5
29B0D
  8
0
 62
     0
 10
-0.4418909826841705
 20
-0.0894699831142125
 30
0.0
 11
-0.4418909826841705
 21
-0.0830845675548826
 31
0.0
  0
LINE
  5
29B0E
  8
0
 62
     0
 10
-0.4418909826841705
 20
-0.2164699831142125
 30
0.0
 11
-0.4418909826841705
 21
-0.1529699831142125
 31
0.0
  0
LINE
  5
29B0F
  8
0
 62
     0
 10
-0.4418909826841705
 20
-0.3434699831142125
 30
0.0
 11
-0.4418909826841705
 21
-0.2799699831142125
 31
0.0
  0
LINE
  5
29B10
  8
0
 62
     0
 10
-0.4418909826841705
 20
-0.4704699831142126
 30
0.0
 11
-0.4418909826841705
 21
-0.4069699831142125
 31
0.0
  0
LINE
  5
29B11
  8
0
 62
     0
 10
-0.5053909826841716
 20
-0.0259699831142124
 30
0.0
 11
-0.5053909826841716
 21
0.0375300168857876
 31
0.0
  0
LINE
  5
29B12
  8
0
 62
     0
 10
-0.5053909826841716
 20
-0.1529699831142124
 30
0.0
 11
-0.5053909826841716
 21
-0.0894699831142124
 31
0.0
  0
LINE
  5
29B13
  8
0
 62
     0
 10
-0.5053909826841716
 20
-0.2799699831142124
 30
0.0
 11
-0.5053909826841716
 21
-0.2164699831142124
 31
0.0
  0
LINE
  5
29B14
  8
0
 62
     0
 10
-0.5688909826841729
 20
0.1645300168857895
 30
0.0
 11
-0.5688909826841729
 21
0.2280300168857895
 31
0.0
  0
LINE
  5
29B15
  8
0
 62
     0
 10
-0.5688909826841729
 20
0.0375300168857895
 30
0.0
 11
-0.5688909826841729
 21
0.1010300168857895
 31
0.0
  0
LINE
  5
29B16
  8
0
 62
     0
 10
-0.5688909826841729
 20
-0.0894699831142105
 30
0.0
 11
-0.5688909826841729
 21
-0.0259699831142105
 31
0.0
  0
LINE
  5
29B17
  8
0
 62
     0
 10
-0.6323909826841705
 20
0.3550300168857878
 30
0.0
 11
-0.6323909826841705
 21
0.4185300168857879
 31
0.0
  0
LINE
  5
29B18
  8
0
 62
     0
 10
-0.6323909826841705
 20
0.2280300168857878
 30
0.0
 11
-0.6323909826841705
 21
0.2915300168857878
 31
0.0
  0
LINE
  5
29B19
  8
0
 62
     0
 10
-0.6323909826841705
 20
0.1010300168857878
 30
0.0
 11
-0.6323909826841705
 21
0.1645300168857878
 31
0.0
  0
LINE
  5
29B1A
  8
0
 62
     0
 10
-0.6323909826841705
 20
0.0272535138825258
 30
0.0
 11
-0.6323909826841705
 21
0.0375300168857878
 31
0.0
  0
LINE
  5
29B1B
  8
0
 62
     0
 10
-0.6958909826841717
 20
0.4185300168857891
 30
0.0
 11
-0.6958909826841717
 21
0.4601048244029649
 31
0.0
  0
LINE
  5
29B1C
  8
0
 62
     0
 10
-0.6958909826841717
 20
0.2915300168857891
 30
0.0
 11
-0.6958909826841717
 21
0.355030016885789
 31
0.0
  0
LINE
  5
29B1D
  8
0
 62
     0
 10
-0.6958909826841717
 20
0.164530016885789
 30
0.0
 11
-0.6958909826841717
 21
0.2280300168857891
 31
0.0
  0
LINE
  5
29B1E
  8
0
 62
     0
 10
-0.6958909826841717
 20
0.0637831747561144
 30
0.0
 11
-0.6958909826841717
 21
0.101030016885789
 31
0.0
  0
LINE
  5
29B1F
  8
0
 62
     0
 10
-0.7593909826841694
 20
0.2280300168857854
 30
0.0
 11
-0.7593909826841694
 21
0.2912043330599374
 31
0.0
  0
LINE
  5
29B20
  8
0
 62
     0
 10
-0.7593909826841694
 20
0.1010300168857854
 30
0.0
 11
-0.7593909826841694
 21
0.1645300168857854
 31
0.0
  0
LINE
  5
29B21
  8
0
 62
     0
 10
-0.7593909826841694
 20
-0.0259699831142146
 30
0.0
 11
-0.7593909826841694
 21
0.0375300168857854
 31
0.0
  0
LINE
  5
29B22
  8
0
 62
     0
 10
-0.7593909826841694
 20
-0.1050875100468627
 30
0.0
 11
-0.7593909826841694
 21
-0.0894699831142146
 31
0.0
  0
LINE
  5
29B23
  8
0
 62
     0
 10
-0.8228909826841706
 20
0.0375300168857871
 30
0.0
 11
-0.8228909826841706
 21
0.101030016885787
 31
0.0
  0
LINE
  5
29B24
  8
0
 62
     0
 10
-0.8228909826841706
 20
-0.089469983114213
 30
0.0
 11
-0.8228909826841706
 21
-0.025969983114213
 31
0.0
  0
LINE
  5
29B25
  8
0
 62
     0
 10
-0.8228909826841706
 20
-0.2164699831142129
 30
0.0
 11
-0.8228909826841706
 21
-0.1529699831142129
 31
0.0
  0
LINE
  5
29B26
  8
0
 62
     0
 10
-0.8863909826841718
 20
-0.1529699831142113
 30
0.0
 11
-0.8863909826841718
 21
-0.0894699831142113
 31
0.0
  0
LINE
  5
29B27
  8
0
 62
     0
 10
-0.8863909826841718
 20
-0.2799699831142113
 30
0.0
 11
-0.8863909826841718
 21
-0.2164699831142113
 31
0.0
  0
LINE
  5
29B28
  8
0
 62
     0
 10
-0.8863909826841718
 20
-0.4069699831142114
 30
0.0
 11
-0.8863909826841718
 21
-0.3434699831142113
 31
0.0
  0
LINE
  5
29B29
  8
0
 62
     0
 10
-0.9498909826841694
 20
-0.0894699831142136
 30
0.0
 11
-0.9498909826841694
 21
-0.0259699831142136
 31
0.0
  0
LINE
  5
29B2A
  8
0
 62
     0
 10
-0.9498909826841694
 20
-0.2164699831142136
 30
0.0
 11
-0.9498909826841694
 21
-0.1529699831142136
 31
0.0
  0
LINE
  5
29B2B
  8
0
 62
     0
 10
-0.9498909826841694
 20
-0.3434699831142136
 30
0.0
 11
-0.9498909826841694
 21
-0.2799699831142136
 31
0.0
  0
LINE
  5
29B2C
  8
0
 62
     0
 10
-1.01339098268417
 20
0.1010300168857865
 30
0.0
 11
-1.01339098268417
 21
0.1439490119120972
 31
0.0
  0
LINE
  5
29B2D
  8
0
 62
     0
 10
-1.01339098268417
 20
-0.0259699831142135
 30
0.0
 11
-1.01339098268417
 21
0.0375300168857865
 31
0.0
  0
LINE
  5
29B2E
  8
0
 62
     0
 10
-1.01339098268417
 20
-0.1529699831142135
 30
0.0
 11
-1.01339098268417
 21
-0.0894699831142135
 31
0.0
  0
LINE
  5
29B2F
  8
0
 62
     0
 10
-1.01339098268417
 20
-0.2494673234332048
 30
0.0
 11
-1.01339098268417
 21
-0.2164699831142135
 31
0.0
  0
LINE
  5
29B30
  8
0
 62
     0
 10
-1.076890982684171
 20
0.2915300168857877
 30
0.0
 11
-1.076890982684171
 21
0.2947352150507338
 31
0.0
  0
LINE
  5
29B31
  8
0
 62
     0
 10
-1.076890982684171
 20
0.1645300168857877
 30
0.0
 11
-1.076890982684171
 21
0.2280300168857877
 31
0.0
  0
LINE
  5
29B32
  8
0
 62
     0
 10
-1.076890982684171
 20
0.0375300168857877
 30
0.0
 11
-1.076890982684171
 21
0.1010300168857877
 31
0.0
  0
LINE
  5
29B33
  8
0
 62
     0
 10
-1.076890982684171
 20
-0.0894699831142123
 30
0.0
 11
-1.076890982684171
 21
-0.0259699831142123
 31
0.0
  0
LINE
  5
29B34
  8
0
 62
     0
 10
-1.076890982684171
 20
-0.4704699831142108
 30
0.0
 11
-1.076890982684171
 21
-0.4069699831142107
 31
0.0
  0
LINE
  5
29B35
  8
0
 62
     0
 10
-1.1403909826841689
 20
0.3550300168857861
 30
0.0
 11
-1.1403909826841689
 21
0.4185300168857861
 31
0.0
  0
LINE
  5
29B36
  8
0
 62
     0
 10
-1.1403909826841689
 20
0.2280300168857861
 30
0.0
 11
-1.1403909826841689
 21
0.291530016885786
 31
0.0
  0
LINE
  5
29B37
  8
0
 62
     0
 10
-1.1403909826841689
 20
0.1010300168857861
 30
0.0
 11
-1.1403909826841689
 21
0.164530016885786
 31
0.0
  0
LINE
  5
29B38
  8
0
 62
     0
 10
-1.1403909826841689
 20
-0.2799699831142131
 30
0.0
 11
-1.1403909826841689
 21
-0.2187164983799743
 31
0.0
  0
LINE
  5
29B39
  8
0
 62
     0
 10
-1.1403909826841689
 20
-0.4069699831142131
 30
0.0
 11
-1.1403909826841689
 21
-0.343469983114213
 31
0.0
  0
LINE
  5
29B3A
  8
0
 62
     0
 10
-1.1403909826841689
 20
-0.4736777777778798
 30
0.0
 11
-1.1403909826841689
 21
-0.4704699831142131
 31
0.0
  0
LINE
  5
29B3B
  8
0
 62
     0
 10
-1.2038909826841699
 20
0.418530016885788
 30
0.0
 11
-1.2038909826841699
 21
0.482030016885788
 31
0.0
  0
LINE
  5
29B3C
  8
0
 62
     0
 10
-1.2038909826841699
 20
0.2915300168857879
 30
0.0
 11
-1.2038909826841699
 21
0.355030016885788
 31
0.0
  0
LINE
  5
29B3D
  8
0
 62
     0
 10
-1.2038909826841699
 20
0.2029073467514841
 30
0.0
 11
-1.2038909826841699
 21
0.2280300168857879
 31
0.0
  0
LINE
  5
29B3E
  8
0
 62
     0
 10
-1.2038909826841699
 20
-0.0894699831142118
 30
0.0
 11
-1.2038909826841699
 21
-0.0767641883948684
 31
0.0
  0
LINE
  5
29B3F
  8
0
 62
     0
 10
-1.2038909826841699
 20
-0.2164699831142118
 30
0.0
 11
-1.2038909826841699
 21
-0.1529699831142118
 31
0.0
  0
LINE
  5
29B40
  8
0
 62
     0
 10
-1.2038909826841699
 20
-0.3434699831142118
 30
0.0
 11
-1.2038909826841699
 21
-0.2799699831142118
 31
0.0
  0
LINE
  5
29B41
  8
0
 62
     0
 10
-1.2038909826841699
 20
-0.4634955059841684
 30
0.0
 11
-1.2038909826841699
 21
-0.4069699831142119
 31
0.0
  0
LINE
  5
29B42
  8
0
 62
     0
 10
-1.2673909826841721
 20
0.4820300168857892
 30
0.0
 11
-1.2673909826841721
 21
0.4999999999989769
 31
0.0
  0
LINE
  5
29B43
  8
0
 62
     0
 10
-1.2673909826841721
 20
0.3550300168857892
 30
0.0
 11
-1.2673909826841721
 21
0.4185300168857892
 31
0.0
  0
LINE
  5
29B44
  8
0
 62
     0
 10
-1.2673909826841721
 20
-0.0259699831142106
 30
0.0
 11
-1.2673909826841721
 21
0.0375300168857894
 31
0.0
  0
LINE
  5
29B45
  8
0
 62
     0
 10
-1.2673909826841721
 20
-0.1529699831142106
 30
0.0
 11
-1.2673909826841721
 21
-0.0894699831142106
 31
0.0
  0
LINE
  5
29B46
  8
0
 62
     0
 10
-1.2673909826841721
 20
-0.2799699831142106
 30
0.0
 11
-1.2673909826841721
 21
-0.2164699831142106
 31
0.0
  0
LINE
  5
29B47
  8
0
 62
     0
 10
-1.3308909826841691
 20
0.1645300168857859
 30
0.0
 11
-1.3308909826841691
 21
0.2071404315753398
 31
0.0
  0
LINE
  5
29B48
  8
0
 62
     0
 10
-1.3308909826841691
 20
0.037530016885786
 30
0.0
 11
-1.3308909826841691
 21
0.1010300168857859
 31
0.0
  0
LINE
  5
29B49
  8
0
 62
     0
 10
-1.3308909826841691
 20
-0.0894699831142141
 30
0.0
 11
-1.3308909826841691
 21
-0.0259699831142141
 31
0.0
  0
LINE
  5
29B4A
  8
0
 62
     0
 10
-1.3308909826841691
 20
-0.2105222222226075
 30
0.0
 11
-1.3308909826841691
 21
-0.152969983114214
 31
0.0
  0
LINE
  5
29B4B
  8
0
 62
     0
 10
-1.3943909826841701
 20
0.2280300168857872
 30
0.0
 11
-1.3943909826841701
 21
0.2915300168857872
 31
0.0
  0
LINE
  5
29B4C
  8
0
 62
     0
 10
-1.3943909826841701
 20
0.1010300168857872
 30
0.0
 11
-1.3943909826841701
 21
0.1645300168857872
 31
0.0
  0
LINE
  5
29B4D
  8
0
 62
     0
 10
-1.3943909826841701
 20
-0.0259699831142128
 30
0.0
 11
-1.3943909826841701
 21
0.0375300168857872
 31
0.0
  0
LINE
  5
29B4E
  8
0
 62
     0
 10
-1.3943909826841701
 20
-0.1529699831142117
 30
0.0
 11
-1.3943909826841701
 21
-0.0894699831142117
 31
0.0
  0
LINE
  5
29B4F
  8
0
 62
     0
 10
-1.4578909826841719
 20
0.4185300168857891
 30
0.0
 11
-1.4578909826841719
 21
0.4820300168857891
 31
0.0
  0
LINE
  5
29B50
  8
0
 62
     0
 10
-1.4578909826841719
 20
0.2915300168857891
 30
0.0
 11
-1.4578909826841719
 21
0.355030016885789
 31
0.0
  0
LINE
  5
29B51
  8
0
 62
     0
 10
-1.4578909826841719
 20
0.164530016885789
 30
0.0
 11
-1.4578909826841719
 21
0.2280300168857891
 31
0.0
  0
LINE
  5
29B52
  8
0
 62
     0
 10
-1.4578909826841719
 20
-0.0894699831142105
 30
0.0
 11
-1.4578909826841719
 21
-0.0657888888894149
 31
0.0
  0
LINE
  5
29B53
  8
0
 62
     0
 10
-1.4578909826841719
 20
-0.2105222222226075
 30
0.0
 11
-1.4578909826841719
 21
-0.1529699831142105
 31
0.0
  0
LINE
  5
29B54
  8
0
 62
     0
 10
-1.5213909826841689
 20
0.3550300168857861
 30
0.0
 11
-1.5213909826841689
 21
0.4185300168857861
 31
0.0
  0
LINE
  5
29B55
  8
0
 62
     0
 10
-1.5213909826841689
 20
0.2280300168857861
 30
0.0
 11
-1.5213909826841689
 21
0.291530016885786
 31
0.0
  0
LINE
  5
29B56
  8
0
 62
     0
 10
-1.5213909826841689
 20
0.1010300168857861
 30
0.0
 11
-1.5213909826841689
 21
0.164530016885786
 31
0.0
  0
LINE
  5
29B57
  8
0
 62
     0
 10
-1.5213909826841689
 20
0.0329592510005377
 30
0.0
 11
-1.5213909826841689
 21
0.0375300168857861
 31
0.0
  0
LINE
  5
29B58
  8
0
 62
     0
 10
-1.5213909826841689
 20
-0.1529699831142135
 30
0.0
 11
-1.5213909826841689
 21
-0.0894699831142135
 31
0.0
  0
LINE
  5
29B59
  8
0
 62
     0
 10
-1.5848909826841711
 20
0.1645300168857877
 30
0.0
 11
-1.5848909826841711
 21
0.2280300168857877
 31
0.0
  0
LINE
  5
29B5A
  8
0
 62
     0
 10
-1.5848909826841711
 20
0.0375300168857877
 30
0.0
 11
-1.5848909826841711
 21
0.1010300168857877
 31
0.0
  0
LINE
  5
29B5B
  8
0
 62
     0
 10
-1.5848909826841711
 20
-0.0894699831142123
 30
0.0
 11
-1.5848909826841711
 21
-0.0259699831142123
 31
0.0
  0
LINE
  5
29B5C
  8
0
 62
     0
 10
-1.5848909826841711
 20
-0.2105222222226075
 30
0.0
 11
-1.5848909826841711
 21
-0.1529699831142123
 31
0.0
  0
LINE
  5
29B5D
  8
0
 62
     0
 10
-1.6483909826841721
 20
0.1010300168857883
 30
0.0
 11
-1.6483909826841721
 21
0.13576772985685
 31
0.0
  0
LINE
  5
29B5E
  8
0
 62
     0
 10
-1.6483909826841721
 20
-0.0259699831142117
 30
0.0
 11
-1.6483909826841721
 21
0.0375300168857883
 31
0.0
  0
LINE
  5
29B5F
  8
0
 62
     0
 10
-1.6483909826841721
 20
-0.1529699831142117
 30
0.0
 11
-1.6483909826841721
 21
-0.0894699831142117
 31
0.0
  0
LINE
  5
29B60
  8
0
 62
     0
 10
-1.6483909826841721
 20
-0.2508708472199945
 30
0.0
 11
-1.6483909826841721
 21
-0.2164699831142117
 31
0.0
  0
LINE
  5
29B61
  8
0
 62
     0
 10
-1.7118909826841691
 20
-0.0894699831142136
 30
0.0
 11
-1.7118909826841691
 21
-0.0259699831142136
 31
0.0
  0
LINE
  5
29B62
  8
0
 62
     0
 10
-1.7118909826841691
 20
-0.2164699831142136
 30
0.0
 11
-1.7118909826841691
 21
-0.1529699831142136
 31
0.0
  0
LINE
  5
29B63
  8
0
 62
     0
 10
-1.7118909826841691
 20
-0.3434699831142136
 30
0.0
 11
-1.7118909826841691
 21
-0.2799699831142136
 31
0.0
  0
LINE
  5
29B64
  8
0
 62
     0
 10
-1.7753909826841709
 20
-0.1529699831142113
 30
0.0
 11
-1.7753909826841709
 21
-0.148110448405264
 31
0.0
  0
LINE
  5
29B65
  8
0
 62
     0
 10
-1.7753909826841709
 20
-0.2799699831142113
 30
0.0
 11
-1.7753909826841709
 21
-0.2164699831142113
 31
0.0
  0
LINE
  5
29B66
  8
0
 62
     0
 10
-1.7753909826841709
 20
-0.4069699831142114
 30
0.0
 11
-1.7753909826841709
 21
-0.3434699831142113
 31
0.0
  0
LINE
  5
29B67
  8
0
 62
     0
 10
-1.7753909826841709
 20
-0.4736777777778798
 30
0.0
 11
-1.7753909826841709
 21
-0.4704699831142113
 31
0.0
  0
LINE
  5
29B68
  8
0
 62
     0
 10
-1.8388909826841719
 20
0.4324064165695792
 30
0.0
 11
-1.8388909826841719
 21
0.4820300168857893
 31
0.0
  0
LINE
  5
29B69
  8
0
 62
     0
 10
-1.8388909826841719
 20
-0.3434699831142107
 30
0.0
 11
-1.8388909826841719
 21
-0.290049537536321
 31
0.0
  0
LINE
  5
29B6A
  8
0
 62
     0
 10
-1.8388909826841719
 20
-0.4704699831142108
 30
0.0
 11
-1.8388909826841719
 21
-0.4069699831142107
 31
0.0
  0
LINE
  5
29B6B
  8
0
 62
     0
 10
-1.9023909826841701
 20
0.4820300168857874
 30
0.0
 11
-1.9023909826841701
 21
0.4999999999989769
 31
0.0
  0
LINE
  5
29B6C
  8
0
 62
     0
 10
-1.9023909826841701
 20
0.3550300168857874
 30
0.0
 11
-1.9023909826841701
 21
0.4185300168857875
 31
0.0
  0
LINE
  5
29B6D
  8
0
 62
     0
 10
-1.9023909826841701
 20
-0.4069699831142131
 30
0.0
 11
-1.9023909826841701
 21
-0.343469983114213
 31
0.0
  0
LINE
  5
29B6E
  8
0
 62
     0
 10
-1.9023909826841701
 20
-0.4736777777778798
 30
0.0
 11
-1.9023909826841701
 21
-0.4704699831142131
 31
0.0
  0
LINE
  5
29B6F
  8
0
 62
     0
 10
-1.9658909826841711
 20
0.418530016885788
 30
0.0
 11
-1.9658909826841711
 21
0.482030016885788
 31
0.0
  0
LINE
  5
29B70
  8
0
 62
     0
 10
-1.9658909826841711
 20
0.2915300168857879
 30
0.0
 11
-1.9658909826841711
 21
0.355030016885788
 31
0.0
  0
LINE
  5
29B71
  8
0
 62
     0
 10
-1.9658909826841711
 20
-0.3434699831142125
 30
0.0
 11
-1.9658909826841711
 21
-0.2799699831142125
 31
0.0
  0
LINE
  5
29B72
  8
0
 62
     0
 10
-1.9658909826841711
 20
-0.4704699831142126
 30
0.0
 11
-1.9658909826841711
 21
-0.4069699831142125
 31
0.0
  0
LINE
  5
29B73
  8
0
 62
     0
 10
-2.0293909826841721
 20
0.3550300168857885
 30
0.0
 11
-2.0293909826841721
 21
0.4185300168857885
 31
0.0
  0
LINE
  5
29B74
  8
0
 62
     0
 10
-2.0293909826841721
 20
0.2280300168857885
 30
0.0
 11
-2.0293909826841721
 21
0.2915300168857885
 31
0.0
  0
LINE
  5
29B75
  8
0
 62
     0
 10
-2.0293909826841721
 20
-0.1529699831142113
 30
0.0
 11
-2.0293909826841721
 21
-0.1283783417781219
 31
0.0
  0
LINE
  5
29B76
  8
0
 62
     0
 10
-2.0293909826841721
 20
-0.2799699831142113
 30
0.0
 11
-2.0293909826841721
 21
-0.2164699831142113
 31
0.0
  0
LINE
  5
29B77
  8
0
 62
     0
 10
-2.0293909826841721
 20
-0.4069699831142114
 30
0.0
 11
-2.0293909826841721
 21
-0.3434699831142113
 31
0.0
  0
LINE
  5
29B78
  8
0
 62
     0
 10
-2.0928909826841702
 20
0.2915300168857873
 30
0.0
 11
-2.0928909826841702
 21
0.3550300168857873
 31
0.0
  0
LINE
  5
29B79
  8
0
 62
     0
 10
-2.0928909826841702
 20
0.1645300168857873
 30
0.0
 11
-2.0928909826841702
 21
0.2280300168857873
 31
0.0
  0
LINE
  5
29B7A
  8
0
 62
     0
 10
-2.0928909826841702
 20
-0.089469983114213
 30
0.0
 11
-2.0928909826841702
 21
-0.03429267941946
 31
0.0
  0
LINE
  5
29B7B
  8
0
 62
     0
 10
-2.0928909826841702
 20
-0.2164699831142129
 30
0.0
 11
-2.0928909826841702
 21
-0.1529699831142129
 31
0.0
  0
LINE
  5
29B7C
  8
0
 62
     0
 10
-2.0928909826841702
 20
-0.3166287330803659
 30
0.0
 11
-2.0928909826841702
 21
-0.279969983114213
 31
0.0
  0
LINE
  5
29B7D
  8
0
 62
     0
 10
-2.156390982684171
 20
0.2280300168857883
 30
0.0
 11
-2.156390982684171
 21
0.2865291585019562
 31
0.0
  0
LINE
  5
29B7E
  8
0
 62
     0
 10
-2.156390982684171
 20
0.1010300168857883
 30
0.0
 11
-2.156390982684171
 21
0.1645300168857883
 31
0.0
  0
LINE
  5
29B7F
  8
0
 62
     0
 10
-2.156390982684171
 20
-0.0259699831142117
 30
0.0
 11
-2.156390982684171
 21
0.0375300168857883
 31
0.0
  0
LINE
  5
29B80
  8
0
 62
     0
 10
-2.156390982684171
 20
-0.1529699831142117
 30
0.0
 11
-2.156390982684171
 21
-0.0894699831142117
 31
0.0
  0
LINE
  5
29B81
  8
0
 62
     0
 10
-2.156390982684171
 20
-0.2225426680193561
 30
0.0
 11
-2.156390982684171
 21
-0.2164699831142117
 31
0.0
  0
LINE
  5
29B82
  8
0
 62
     0
 10
-2.2198909826841722
 20
0.1645300168857895
 30
0.0
 11
-2.2198909826841722
 21
0.2065572942542282
 31
0.0
  0
LINE
  5
29B83
  8
0
 62
     0
 10
-2.2198909826841722
 20
0.0375300168857895
 30
0.0
 11
-2.2198909826841722
 21
0.1010300168857895
 31
0.0
  0
LINE
  5
29B84
  8
0
 62
     0
 10
-2.2198909826841722
 20
-0.0894699831142105
 30
0.0
 11
-2.2198909826841722
 21
-0.0259699831142105
 31
0.0
  0
LINE
  5
29B85
  8
0
 62
     0
 10
-2.2833909826841698
 20
0.1010300168857872
 30
0.0
 11
-2.2833909826841698
 21
0.1265854300065001
 31
0.0
  0
LINE
  5
29B86
  8
0
 62
     0
 10
-2.2833909826841698
 20
-0.0259699831142128
 30
0.0
 11
-2.2833909826841698
 21
0.0375300168857872
 31
0.0
  0
LINE
  5
29B87
  8
0
 62
     0
 10
-2.3468909826841711
 20
0.4185300168857875
 30
0.0
 11
-2.3468909826841711
 21
0.4820300168857875
 31
0.0
  0
LINE
  5
29B88
  8
0
 62
     0
 10
-2.3468909826841711
 20
0.2915300168857875
 30
0.0
 11
-2.3468909826841711
 21
0.3550300168857875
 31
0.0
  0
LINE
  5
29B89
  8
0
 62
     0
 10
-2.3468909826841711
 20
0.1645300168857875
 30
0.0
 11
-2.3468909826841711
 21
0.2280300168857875
 31
0.0
  0
LINE
  5
29B8A
  8
0
 62
     0
 10
-2.3468909826841711
 20
0.0375300168857875
 30
0.0
 11
-2.3468909826841711
 21
0.1010300168857875
 31
0.0
  0
LINE
  5
29B8B
  8
0
 62
     0
 10
-2.3468909826841711
 20
-0.0894699831142125
 30
0.0
 11
-2.3468909826841711
 21
-0.0259699831142125
 31
0.0
  0
LINE
  5
29B8C
  8
0
 62
     0
 10
-2.3468909826841711
 20
-0.2164699831142125
 30
0.0
 11
-2.3468909826841711
 21
-0.1529699831142125
 31
0.0
  0
LINE
  5
29B8D
  8
0
 62
     0
 10
-2.3468909826841711
 20
-0.3434699831142125
 30
0.0
 11
-2.3468909826841711
 21
-0.2799699831142125
 31
0.0
  0
LINE
  5
29B8E
  8
0
 62
     0
 10
-2.3468909826841711
 20
-0.4704699831142126
 30
0.0
 11
-2.3468909826841711
 21
-0.4069699831142125
 31
0.0
  0
LINE
  5
29B8F
  8
0
 62
     0
 10
-2.4103909826841718
 20
0.4820300168857888
 30
0.0
 11
-2.4103909826841718
 21
0.4999999999989769
 31
0.0
  0
LINE
  5
29B90
  8
0
 62
     0
 10
-2.4103909826841718
 20
0.3550300168857887
 30
0.0
 11
-2.4103909826841718
 21
0.4185300168857888
 31
0.0
  0
LINE
  5
29B91
  8
0
 62
     0
 10
-2.4103909826841718
 20
0.2280300168857887
 30
0.0
 11
-2.4103909826841718
 21
0.2915300168857887
 31
0.0
  0
LINE
  5
29B92
  8
0
 62
     0
 10
-2.4103909826841718
 20
0.1010300168857887
 30
0.0
 11
-2.4103909826841718
 21
0.1645300168857887
 31
0.0
  0
LINE
  5
29B93
  8
0
 62
     0
 10
-2.4103909826841718
 20
-0.0259699831142113
 30
0.0
 11
-2.4103909826841718
 21
0.0375300168857887
 31
0.0
  0
LINE
  5
29B94
  8
0
 62
     0
 10
-2.4103909826841718
 20
-0.1529699831142113
 30
0.0
 11
-2.4103909826841718
 21
-0.0894699831142113
 31
0.0
  0
LINE
  5
29B95
  8
0
 62
     0
 10
-2.4103909826841718
 20
-0.2799699831142113
 30
0.0
 11
-2.4103909826841718
 21
-0.2164699831142113
 31
0.0
  0
LINE
  5
29B96
  8
0
 62
     0
 10
-2.4103909826841718
 20
-0.4069699831142114
 30
0.0
 11
-2.4103909826841718
 21
-0.3434699831142113
 31
0.0
  0
LINE
  5
29B97
  8
0
 62
     0
 10
-2.4103909826841718
 20
-0.4736777777778798
 30
0.0
 11
-2.4103909826841718
 21
-0.4704699831142113
 31
0.0
  0
LINE
  5
29B98
  8
0
 62
     0
 10
-2.47389098268417
 20
0.4185300168857875
 30
0.0
 11
-2.47389098268417
 21
0.4820300168857875
 31
0.0
  0
LINE
  5
29B99
  8
0
 62
     0
 10
-2.47389098268417
 20
0.2915300168857875
 30
0.0
 11
-2.47389098268417
 21
0.3550300168857875
 31
0.0
  0
LINE
  5
29B9A
  8
0
 62
     0
 10
-2.47389098268417
 20
0.1645300168857875
 30
0.0
 11
-2.47389098268417
 21
0.2280300168857875
 31
0.0
  0
LINE
  5
29B9B
  8
0
 62
     0
 10
-2.47389098268417
 20
0.0375300168857875
 30
0.0
 11
-2.47389098268417
 21
0.1010300168857875
 31
0.0
  0
LINE
  5
29B9C
  8
0
 62
     0
 10
-2.47389098268417
 20
-0.0894699831142125
 30
0.0
 11
-2.47389098268417
 21
-0.0259699831142125
 31
0.0
  0
LINE
  5
29B9D
  8
0
 62
     0
 10
-2.47389098268417
 20
-0.2164699831142125
 30
0.0
 11
-2.47389098268417
 21
-0.1529699831142125
 31
0.0
  0
LINE
  5
29B9E
  8
0
 62
     0
 10
-2.47389098268417
 20
-0.3434699831142125
 30
0.0
 11
-2.47389098268417
 21
-0.2799699831142125
 31
0.0
  0
LINE
  5
29B9F
  8
0
 62
     0
 10
-2.47389098268417
 20
-0.4704699831142126
 30
0.0
 11
-2.47389098268417
 21
-0.4069699831142125
 31
0.0
  0
LINE
  5
29BA0
  8
0
 62
     0
 10
-0.4453211085968718
 20
-0.4704699831142119
 30
0.0
 11
-0.441890982684169
 21
-0.4704699831142119
 31
0.0
  0
LINE
  5
29BA1
  8
0
 62
     0
 10
-0.2513909826841771
 20
-0.4704699831142119
 30
0.0
 11
-0.1878909826841771
 21
-0.4704699831142119
 31
0.0
  0
LINE
  5
29BA2
  8
0
 62
     0
 10
-0.327559718491063
 20
-0.4704699831142119
 30
0.0
 11
-0.3148909826841772
 21
-0.4704699831142119
 31
0.0
  0
LINE
  5
29BA3
  8
0
 62
     0
 10
1.399609017315826
 20
-0.4704699831142119
 30
0.0
 11
1.4631090173158261
 21
-0.4704699831142119
 31
0.0
  0
LINE
  5
29BA4
  8
0
 62
     0
 10
1.2726090173158271
 20
-0.4704699831142119
 30
0.0
 11
1.3361090173158261
 21
-0.4704699831142119
 31
0.0
  0
LINE
  5
29BA5
  8
0
 62
     0
 10
1.203907798081282
 20
-0.4704699831142119
 30
0.0
 11
1.209109017315827
 21
-0.4704699831142119
 31
0.0
  0
LINE
  5
29BA6
  8
0
 62
     0
 10
-1.1403909826841689
 20
-0.4704699831142119
 30
0.0
 11
-1.0768909826841691
 21
-0.4704699831142119
 31
0.0
  0
LINE
  5
29BA7
  8
0
 62
     0
 10
1.907609017315828
 20
-0.4704699831142119
 30
0.0
 11
1.947333333333876
 21
-0.4704699831142119
 31
0.0
  0
LINE
  5
29BA8
  8
0
 62
     0
 10
1.7894444444451481
 20
-0.4704699831142119
 30
0.0
 11
1.8441090173158281
 21
-0.4704699831142119
 31
0.0
  0
LINE
  5
29BA9
  8
0
 62
     0
 10
-1.7753909826841701
 20
-0.4704699831142119
 30
0.0
 11
-1.746670519964262
 21
-0.4704699831142119
 31
0.0
  0
LINE
  5
29BAA
  8
0
 62
     0
 10
-1.9023909826841701
 20
-0.4704699831142119
 30
0.0
 11
-1.83889098268417
 21
-0.4704699831142119
 31
0.0
  0
LINE
  5
29BAB
  8
0
 62
     0
 10
-1.9890613733704541
 20
-0.4704699831142119
 30
0.0
 11
-1.96589098268417
 21
-0.4704699831142119
 31
0.0
  0
LINE
  5
29BAC
  8
0
 62
     0
 10
2.473670872427284
 20
-0.4704699831142119
 30
0.0
 11
2.4791090173158299
 21
-0.4704699831142119
 31
0.0
  0
LINE
  5
29BAD
  8
0
 62
     0
 10
-2.4103909826841758
 20
-0.4704699831142119
 30
0.0
 11
-2.346890982684176
 21
-0.4704699831142119
 31
0.0
  0
LINE
  5
29BAE
  8
0
 62
     0
 10
-2.4999999999950009
 20
-0.4704699831142119
 30
0.0
 11
-2.4738909826841762
 21
-0.4704699831142119
 31
0.0
  0
LINE
  5
29BAF
  8
0
 62
     0
 10
-0.1878909826841688
 20
-0.4069699831142124
 30
0.0
 11
-0.1261405783713059
 21
-0.4069699831142124
 31
0.0
  0
LINE
  5
29BB0
  8
0
 62
     0
 10
-0.2991469962688384
 20
-0.4069699831142124
 30
0.0
 11
-0.2513909826841688
 21
-0.4069699831142124
 31
0.0
  0
LINE
  5
29BB1
  8
0
 62
     0
 10
-0.4418909826841631
 20
-0.4069699831142124
 30
0.0
 11
-0.395046248441826
 21
-0.4069699831142124
 31
0.0
  0
LINE
  5
29BB2
  8
0
 62
     0
 10
0.7011090173158328
 20
-0.4069699831142124
 30
0.0
 11
0.7646090173158328
 21
-0.4069699831142124
 31
0.0
  0
LINE
  5
29BB3
  8
0
 62
     0
 10
0.5741090173158328
 20
-0.4069699831142124
 30
0.0
 11
0.6376090173158328
 21
-0.4069699831142124
 31
0.0
  0
LINE
  5
29BB4
  8
0
 62
     0
 10
0.4471090173158327
 20
-0.4069699831142124
 30
0.0
 11
0.5106090173158328
 21
-0.4069699831142124
 31
0.0
  0
LINE
  5
29BB5
  8
0
 62
     0
 10
0.3629465254195416
 20
-0.4069699831142124
 30
0.0
 11
0.3836090173158327
 21
-0.4069699831142124
 31
0.0
  0
LINE
  5
29BB6
  8
0
 62
     0
 10
-0.9470648626629447
 20
-0.4069699831142124
 30
0.0
 11
-0.8863909826841704
 21
-0.4069699831142124
 31
0.0
  0
LINE
  5
29BB7
  8
0
 62
     0
 10
1.5901090173158321
 20
-0.4069699831142124
 30
0.0
 11
1.5967937522236559
 21
-0.4069699831142124
 31
0.0
  0
LINE
  5
29BB8
  8
0
 62
     0
 10
1.4631090173158321
 20
-0.4069699831142124
 30
0.0
 11
1.526609017315832
 21
-0.4069699831142124
 31
0.0
  0
LINE
  5
29BB9
  8
0
 62
     0
 10
1.3361090173158321
 20
-0.4069699831142124
 30
0.0
 11
1.399609017315832
 21
-0.4069699831142124
 31
0.0
  0
LINE
  5
29BBA
  8
0
 62
     0
 10
1.2091090173158321
 20
-0.4069699831142124
 30
0.0
 11
1.272609017315832
 21
-0.4069699831142124
 31
0.0
  0
LINE
  5
29BBB
  8
0
 62
     0
 10
1.1047618033348059
 20
-0.4069699831142124
 30
0.0
 11
1.1456090173158331
 21
-0.4069699831142124
 31
0.0
  0
LINE
  5
29BBC
  8
0
 62
     0
 10
-1.0768909826841699
 20
-0.4069699831142124
 30
0.0
 11
-1.0561789238463919
 21
-0.4069699831142124
 31
0.0
  0
LINE
  5
29BBD
  8
0
 62
     0
 10
-1.2038909826841699
 20
-0.4069699831142124
 30
0.0
 11
-1.1403909826841701
 21
-0.4069699831142124
 31
0.0
  0
LINE
  5
29BBE
  8
0
 62
     0
 10
1.844109017315831
 20
-0.4069699831142124
 30
0.0
 11
1.9076090173158311
 21
-0.4069699831142124
 31
0.0
  0
LINE
  5
29BBF
  8
0
 62
     0
 10
-1.8388909826841671
 20
-0.4069699831142124
 30
0.0
 11
-1.7753909826841681
 21
-0.4069699831142124
 31
0.0
  0
LINE
  5
29BC0
  8
0
 62
     0
 10
-1.9658909826841671
 20
-0.4069699831142124
 30
0.0
 11
-1.902390982684167
 21
-0.4069699831142124
 31
0.0
  0
LINE
  5
29BC1
  8
0
 62
     0
 10
-2.031918410673327
 20
-0.4069699831142124
 30
0.0
 11
-2.0293909826841672
 21
-0.4069699831142124
 31
0.0
  0
LINE
  5
29BC2
  8
0
 62
     0
 10
2.4791090173158281
 20
-0.4069699831142124
 30
0.0
 11
2.499999999999996
 21
-0.4069699831142124
 31
0.0
  0
LINE
  5
29BC3
  8
0
 62
     0
 10
-2.3468909826841671
 20
-0.4069699831142124
 30
0.0
 11
-2.3421111111062811
 21
-0.4069699831142124
 31
0.0
  0
LINE
  5
29BC4
  8
0
 62
     0
 10
-2.473890982684166
 20
-0.4069699831142124
 30
0.0
 11
-2.4103909826841661
 21
-0.4069699831142124
 31
0.0
  0
LINE
  5
29BC5
  8
0
 62
     0
 10
-0.3783909826841689
 20
-0.3434699831142129
 30
0.0
 11
-0.368305692886274
 21
-0.3434699831142129
 31
0.0
  0
LINE
  5
29BC6
  8
0
 62
     0
 10
-0.4930541856013591
 20
-0.3434699831142129
 30
0.0
 11
-0.441890982684169
 21
-0.3434699831142129
 31
0.0
  0
LINE
  5
29BC7
  8
0
 62
     0
 10
-0.1243909826841665
 20
-0.3434699831142129
 30
0.0
 11
-0.0977217478878814
 21
-0.3434699831142129
 31
0.0
  0
LINE
  5
29BC8
  8
0
 62
     0
 10
-0.2513909826841665
 20
-0.3434699831142129
 30
0.0
 11
-0.1878909826841665
 21
-0.3434699831142129
 31
0.0
  0
LINE
  5
29BC9
  8
0
 62
     0
 10
-0.8863909826841752
 20
-0.3434699831142129
 30
0.0
 11
-0.8490293178246837
 21
-0.3434699831142129
 31
0.0
  0
LINE
  5
29BCA
  8
0
 62
     0
 10
-0.9738054182185003
 20
-0.3434699831142129
 30
0.0
 11
-0.949890982684175
 21
-0.3434699831142129
 31
0.0
  0
LINE
  5
29BCB
  8
0
 62
     0
 10
0.7646090173158351
 20
-0.3434699831142129
 30
0.0
 11
0.828109017315835
 21
-0.3434699831142129
 31
0.0
  0
LINE
  5
29BCC
  8
0
 62
     0
 10
0.6376090173158352
 20
-0.3434699831142129
 30
0.0
 11
0.7011090173158351
 21
-0.3434699831142129
 31
0.0
  0
LINE
  5
29BCD
  8
0
 62
     0
 10
0.5106090173158351
 20
-0.3434699831142129
 30
0.0
 11
0.5741090173158351
 21
-0.3434699831142129
 31
0.0
  0
LINE
  5
29BCE
  8
0
 62
     0
 10
0.3836090173158351
 20
-0.3434699831142129
 30
0.0
 11
0.4471090173158351
 21
-0.3434699831142129
 31
0.0
  0
LINE
  5
29BCF
  8
0
 62
     0
 10
-1.1403909826841689
 20
-0.3434699831142129
 30
0.0
 11
-1.0845845905130529
 21
-0.3434699831142129
 31
0.0
  0
LINE
  5
29BD0
  8
0
 62
     0
 10
-1.2575566059559831
 20
-0.3434699831142129
 30
0.0
 11
-1.2038909826841691
 21
-0.3434699831142129
 31
0.0
  0
LINE
  5
29BD1
  8
0
 62
     0
 10
1.5266090173158311
 20
-0.3434699831142129
 30
0.0
 11
1.5901090173158301
 21
-0.3434699831142129
 31
0.0
  0
LINE
  5
29BD2
  8
0
 62
     0
 10
1.3996090173158311
 20
-0.3434699831142129
 30
0.0
 11
1.463109017315831
 21
-0.3434699831142129
 31
0.0
  0
LINE
  5
29BD3
  8
0
 62
     0
 10
1.2726090173158311
 20
-0.3434699831142129
 30
0.0
 11
1.336109017315831
 21
-0.3434699831142129
 31
0.0
  0
LINE
  5
29BD4
  8
0
 62
     0
 10
1.1456090173158311
 20
-0.3434699831142129
 30
0.0
 11
1.209109017315831
 21
-0.3434699831142129
 31
0.0
  0
LINE
  5
29BD5
  8
0
 62
     0
 10
1.0549358166324081
 20
-0.3434699831142129
 30
0.0
 11
1.082109017315831
 21
-0.3434699831142129
 31
0.0
  0
LINE
  5
29BD6
  8
0
 62
     0
 10
-1.7753909826841641
 20
-0.3434699831142129
 30
0.0
 11
-1.711890982684164
 21
-0.3434699831142129
 31
0.0
  0
LINE
  5
29BD7
  8
0
 62
     0
 10
-1.8627899545245761
 20
-0.3434699831142129
 30
0.0
 11
-1.838890982684164
 21
-0.3434699831142129
 31
0.0
  0
LINE
  5
29BD8
  8
0
 62
     0
 10
1.9076090173158351
 20
-0.3434699831142129
 30
0.0
 11
1.9473333333338829
 21
-0.3434699831142129
 31
0.0
  0
LINE
  5
29BD9
  8
0
 62
     0
 10
1.7894444444451481
 20
-0.3434699831142129
 30
0.0
 11
1.844109017315835
 21
-0.3434699831142129
 31
0.0
  0
LINE
  5
29BDA
  8
0
 62
     0
 10
-1.9023909826841621
 20
-0.3434699831142129
 30
0.0
 11
-1.884222007067297
 21
-0.3434699831142129
 31
0.0
  0
LINE
  5
29BDB
  8
0
 62
     0
 10
-2.029390982684161
 20
-0.3434699831142129
 30
0.0
 11
-1.9658909826841611
 21
-0.3434699831142129
 31
0.0
  0
LINE
  5
29BDC
  8
0
 62
     0
 10
2.4156090173158309
 20
-0.3434699831142129
 30
0.0
 11
2.4791090173158312
 21
-0.3434699831142129
 31
0.0
  0
LINE
  5
29BDD
  8
0
 62
     0
 10
-2.4103909826841621
 20
-0.3434699831142129
 30
0.0
 11
-2.3468909826841622
 21
-0.3434699831142129
 31
0.0
  0
LINE
  5
29BDE
  8
0
 62
     0
 10
-2.4999999999950009
 20
-0.3434699831142129
 30
0.0
 11
-2.4738909826841611
 21
-0.3434699831142129
 31
0.0
  0
LINE
  5
29BDF
  8
0
 62
     0
 10
-0.1878909826841724
 20
-0.2799699831142117
 30
0.0
 11
-0.1243909826841724
 21
-0.2799699831142117
 31
0.0
  0
LINE
  5
29BE0
  8
0
 62
     0
 10
0.4471090173158232
 20
-0.2799699831142117
 30
0.0
 11
0.4791568866475835
 21
-0.2799699831142117
 31
0.0
  0
LINE
  5
29BE1
  8
0
 62
     0
 10
0.3201090173158232
 20
-0.2799699831142117
 30
0.0
 11
0.3836090173158232
 21
-0.2799699831142117
 31
0.0
  0
LINE
  5
29BE2
  8
0
 62
     0
 10
-0.4418909826841738
 20
-0.2799699831142117
 30
0.0
 11
-0.3783909826841737
 21
-0.2799699831142117
 31
0.0
  0
LINE
  5
29BE3
  8
0
 62
     0
 10
-0.5169207241035992
 20
-0.2799699831142117
 30
0.0
 11
-0.5053909826841738
 21
-0.2799699831142117
 31
0.0
  0
LINE
  5
29BE4
  8
0
 62
     0
 10
0.8281090173158293
 20
-0.2799699831142117
 30
0.0
 11
0.8916090173158293
 21
-0.2799699831142117
 31
0.0
  0
LINE
  5
29BE5
  8
0
 62
     0
 10
0.7358002816480181
 20
-0.2799699831142117
 30
0.0
 11
0.7646090173158294
 21
-0.2799699831142117
 31
0.0
  0
LINE
  5
29BE6
  8
0
 62
     0
 10
-0.9498909826841728
 20
-0.2799699831142117
 30
0.0
 11
-0.8863909826841728
 21
-0.2799699831142117
 31
0.0
  0
LINE
  5
29BE7
  8
0
 62
     0
 10
1.0821090173158301
 20
-0.2799699831142117
 30
0.0
 11
1.14560901731583
 21
-0.2799699831142117
 31
0.0
  0
LINE
  5
29BE8
  8
0
 62
     0
 10
-1.2038909826841739
 20
-0.2799699831142117
 30
0.0
 11
-1.140390982684174
 21
-0.2799699831142117
 31
0.0
  0
LINE
  5
29BE9
  8
0
 62
     0
 10
-1.285948626221973
 20
-0.2799699831142117
 30
0.0
 11
-1.2673909826841741
 21
-0.2799699831142117
 31
0.0
  0
LINE
  5
29BEA
  8
0
 62
     0
 10
1.590109017315829
 20
-0.2799699831142117
 30
0.0
 11
1.6536090173158291
 21
-0.2799699831142117
 31
0.0
  0
LINE
  5
29BEB
  8
0
 62
     0
 10
1.496631419072791
 20
-0.2799699831142117
 30
0.0
 11
1.5266090173158291
 21
-0.2799699831142117
 31
0.0
  0
LINE
  5
29BEC
  8
0
 62
     0
 10
-1.711890982684166
 20
-0.2799699831142117
 30
0.0
 11
-1.6614140285139629
 21
-0.2799699831142117
 31
0.0
  0
LINE
  5
29BED
  8
0
 62
     0
 10
-1.8343816420245771
 20
-0.2799699831142117
 30
0.0
 11
-1.7753909826841661
 21
-0.2799699831142117
 31
0.0
  0
LINE
  5
29BEE
  8
0
 62
     0
 10
1.8441090173158241
 20
-0.2799699831142117
 30
0.0
 11
1.907609017315824
 21
-0.2799699831142117
 31
0.0
  0
LINE
  5
29BEF
  8
0
 62
     0
 10
-1.96589098268417
 20
-0.2799699831142117
 30
0.0
 11
-1.92707922780545
 21
-0.2799699831142117
 31
0.0
  0
LINE
  5
29BF0
  8
0
 62
     0
 10
-2.0928909826841702
 20
-0.2799699831142117
 30
0.0
 11
-2.0293909826841698
 21
-0.2799699831142117
 31
0.0
  0
LINE
  5
29BF1
  8
0
 62
     0
 10
2.4791090173158259
 20
-0.2799699831142117
 30
0.0
 11
2.499999999999996
 21
-0.2799699831142117
 31
0.0
  0
LINE
  5
29BF2
  8
0
 62
     0
 10
2.3521090173158261
 20
-0.2799699831142117
 30
0.0
 11
2.415609017315826
 21
-0.2799699831142117
 31
0.0
  0
LINE
  5
29BF3
  8
0
 62
     0
 10
-2.3468909826841742
 20
-0.2799699831142117
 30
0.0
 11
-2.3421111111062811
 21
-0.2799699831142117
 31
0.0
  0
LINE
  5
29BF4
  8
0
 62
     0
 10
-2.4738909826841731
 20
-0.2799699831142117
 30
0.0
 11
-2.4103909826841741
 21
-0.2799699831142117
 31
0.0
  0
LINE
  5
29BF5
  8
0
 62
     0
 10
-0.124390982684164
 20
-0.2164699831142123
 30
0.0
 11
-0.060890982684164
 21
-0.2164699831142123
 31
0.0
  0
LINE
  5
29BF6
  8
0
 62
     0
 10
-0.2139088296021683
 20
-0.2164699831142123
 30
0.0
 11
-0.187890982684164
 21
-0.2164699831142123
 31
0.0
  0
LINE
  5
29BF7
  8
0
 62
     0
 10
0.383609017315828
 20
-0.2164699831142123
 30
0.0
 11
0.447109017315828
 21
-0.2164699831142123
 31
0.0
  0
LINE
  5
29BF8
  8
0
 62
     0
 10
0.2777704646215504
 20
-0.2164699831142123
 30
0.0
 11
0.3201090173158279
 21
-0.2164699831142123
 31
0.0
  0
LINE
  5
29BF9
  8
0
 62
     0
 10
-0.3783909826841607
 20
-0.2164699831142123
 30
0.0
 11
-0.3148909826841607
 21
-0.2164699831142123
 31
0.0
  0
LINE
  5
29BFA
  8
0
 62
     0
 10
-0.5053909826841608
 20
-0.2164699831142123
 30
0.0
 11
-0.4418909826841607
 21
-0.2164699831142123
 31
0.0
  0
LINE
  5
29BFB
  8
0
 62
     0
 10
0.8916090173158316
 20
-0.2164699831142123
 30
0.0
 11
0.9156972640025244
 21
-0.2164699831142123
 31
0.0
  0
LINE
  5
29BFC
  8
0
 62
     0
 10
0.7646090173158318
 20
-0.2164699831142123
 30
0.0
 11
0.8281090173158316
 21
-0.2164699831142123
 31
0.0
  0
LINE
  5
29BFD
  8
0
 62
     0
 10
-0.8863909826841634
 20
-0.2164699831142123
 30
0.0
 11
-0.8228909826841633
 21
-0.2164699831142123
 31
0.0
  0
LINE
  5
29BFE
  8
0
 62
     0
 10
-1.0133909826841629
 20
-0.2164699831142123
 30
0.0
 11
-0.9498909826841634
 21
-0.2164699831142123
 31
0.0
  0
LINE
  5
29BFF
  8
0
 62
     0
 10
1.145609017315836
 20
-0.2164699831142123
 30
0.0
 11
1.1771048418047481
 21
-0.2164699831142123
 31
0.0
  0
LINE
  5
29C00
  8
0
 62
     0
 10
1.018609017315836
 20
-0.2164699831142123
 30
0.0
 11
1.0821090173158361
 21
-0.2164699831142123
 31
0.0
  0
LINE
  5
29C01
  8
0
 62
     0
 10
-1.2673909826841681
 20
-0.2164699831142123
 30
0.0
 11
-1.2038909826841679
 21
-0.2164699831142123
 31
0.0
  0
LINE
  5
29C02
  8
0
 62
     0
 10
1.653609017315832
 20
-0.2164699831142123
 30
0.0
 11
1.685185318199842
 21
-0.2164699831142123
 31
0.0
  0
LINE
  5
29C03
  8
0
 62
     0
 10
1.526609017315832
 20
-0.2164699831142123
 30
0.0
 11
1.5901090173158321
 21
-0.2164699831142123
 31
0.0
  0
LINE
  5
29C04
  8
0
 62
     0
 10
-1.6483909826841669
 20
-0.2164699831142123
 30
0.0
 11
-1.6329951980305351
 21
-0.2164699831142123
 31
0.0
  0
LINE
  5
29C05
  8
0
 62
     0
 10
-1.775390982684167
 20
-0.2164699831142123
 30
0.0
 11
-1.7118909826841671
 21
-0.2164699831142123
 31
0.0
  0
LINE
  5
29C06
  8
0
 62
     0
 10
1.907609017315828
 20
-0.2164699831142123
 30
0.0
 11
1.947333333333876
 21
-0.2164699831142123
 31
0.0
  0
LINE
  5
29C07
  8
0
 62
     0
 10
1.7894444444451481
 20
-0.2164699831142123
 30
0.0
 11
1.8441090173158281
 21
-0.2164699831142123
 31
0.0
  0
LINE
  5
29C08
  8
0
 62
     0
 10
-2.0293909826841681
 20
-0.2164699831142123
 30
0.0
 11
-1.969936448543592
 21
-0.2164699831142123
 31
0.0
  0
LINE
  5
29C09
  8
0
 62
     0
 10
-2.156390982684167
 20
-0.2164699831142123
 30
0.0
 11
-2.0928909826841671
 21
-0.2164699831142123
 31
0.0
  0
LINE
  5
29C0A
  8
0
 62
     0
 10
2.4156090173158322
 20
-0.2164699831142123
 30
0.0
 11
2.4791090173158321
 21
-0.2164699831142123
 31
0.0
  0
LINE
  5
29C0B
  8
0
 62
     0
 10
2.288609017315832
 20
-0.2164699831142123
 30
0.0
 11
2.3521090173158319
 21
-0.2164699831142123
 31
0.0
  0
LINE
  5
29C0C
  8
0
 62
     0
 10
-2.4103909826841692
 20
-0.2164699831142123
 30
0.0
 11
-2.3468909826841688
 21
-0.2164699831142123
 31
0.0
  0
LINE
  5
29C0D
  8
0
 62
     0
 10
-2.4999999999950009
 20
-0.2164699831142123
 30
0.0
 11
-2.4738909826841691
 21
-0.2164699831142123
 31
0.0
  0
LINE
  5
29C0E
  8
0
 62
     0
 10
0.3201090173158336
 20
-0.1529699831142128
 30
0.0
 11
0.3836090173158336
 21
-0.1529699831142128
 31
0.0
  0
LINE
  5
29C0F
  8
0
 62
     0
 10
0.1931090173158336
 20
-0.1529699831142128
 30
0.0
 11
0.2566090173158336
 21
-0.1529699831142128
 31
0.0
  0
LINE
  5
29C10
  8
0
 62
     0
 10
0.0661090173158336
 20
-0.1529699831142128
 30
0.0
 11
0.1296090173158336
 21
-0.1529699831142128
 31
0.0
  0
LINE
  5
29C11
  8
0
 62
     0
 10
-0.0608909826841664
 20
-0.1529699831142128
 30
0.0
 11
0.0026090173158336
 21
-0.1529699831142128
 31
0.0
  0
LINE
  5
29C12
  8
0
 62
     0
 10
-0.1854961073799472
 20
-0.1529699831142128
 30
0.0
 11
-0.1243909826841664
 21
-0.1529699831142128
 31
0.0
  0
LINE
  5
29C13
  8
0
 62
     0
 10
0.8281090173158293
 20
-0.1529699831142128
 30
0.0
 11
0.8916090173158293
 21
-0.1529699831142128
 31
0.0
  0
LINE
  5
29C14
  8
0
 62
     0
 10
0.7557777777793647
 20
-0.1529699831142128
 30
0.0
 11
0.7646090173158294
 21
-0.1529699831142128
 31
0.0
  0
LINE
  5
29C15
  8
0
 62
     0
 10
-0.3148909826841666
 20
-0.1529699831142128
 30
0.0
 11
-0.2880840262196074
 21
-0.1529699831142128
 31
0.0
  0
LINE
  5
29C16
  8
0
 62
     0
 10
-0.4418909826841667
 20
-0.1529699831142128
 30
0.0
 11
-0.3783909826841666
 21
-0.1529699831142128
 31
0.0
  0
LINE
  5
29C17
  8
0
 62
     0
 10
-0.5646538011080864
 20
-0.1529699831142128
 30
0.0
 11
-0.5053909826841667
 21
-0.1529699831142128
 31
0.0
  0
LINE
  5
29C18
  8
0
 62
     0
 10
1.082109017315837
 20
-0.1529699831142128
 30
0.0
 11
1.1456090173158371
 21
-0.1529699831142128
 31
0.0
  0
LINE
  5
29C19
  8
0
 62
     0
 10
1.0157777777792589
 20
-0.1529699831142128
 30
0.0
 11
1.0186090173158371
 21
-0.1529699831142128
 31
0.0
  0
LINE
  5
29C1A
  8
0
 62
     0
 10
-0.8228909826841658
 20
-0.1529699831142128
 30
0.0
 11
-0.777396103249192
 21
-0.1529699831142128
 31
0.0
  0
LINE
  5
29C1B
  8
0
 62
     0
 10
-0.9498909826841657
 20
-0.1529699831142128
 30
0.0
 11
-0.8863909826841657
 21
-0.1529699831142128
 31
0.0
  0
LINE
  5
29C1C
  8
0
 62
     0
 10
-1.0540270848851661
 20
-0.1529699831142128
 30
0.0
 11
-1.0133909826841649
 21
-0.1529699831142128
 31
0.0
  0
LINE
  5
29C1D
  8
0
 62
     0
 10
1.5901090173158261
 20
-0.1529699831142128
 30
0.0
 11
1.6536090173158251
 21
-0.1529699831142128
 31
0.0
  0
LINE
  5
29C1E
  8
0
 62
     0
 10
1.5257777777792569
 20
-0.1529699831142128
 30
0.0
 11
1.526609017315826
 21
-0.1529699831142128
 31
0.0
  0
LINE
  5
29C1F
  8
0
 62
     0
 10
-1.2038909826841699
 20
-0.1529699831142128
 30
0.0
 11
-1.1698015905130541
 21
-0.1529699831142128
 31
0.0
  0
LINE
  5
29C20
  8
0
 62
     0
 10
-1.3308909826841699
 20
-0.1529699831142128
 30
0.0
 11
-1.2673909826841701
 21
-0.1529699831142128
 31
0.0
  0
LINE
  5
29C21
  8
0
 62
     0
 10
-1.4578909826841699
 20
-0.1529699831142128
 30
0.0
 11
-1.3943909826841701
 21
-0.1529699831142128
 31
0.0
  0
LINE
  5
29C22
  8
0
 62
     0
 10
-1.5848909826841699
 20
-0.1529699831142128
 30
0.0
 11
-1.5213909826841701
 21
-0.1529699831142128
 31
0.0
  0
LINE
  5
29C23
  8
0
 62
     0
 10
-1.7118909826841691
 20
-0.1529699831142128
 30
0.0
 11
-1.6483909826841701
 21
-0.1529699831142128
 31
0.0
  0
LINE
  5
29C24
  8
0
 62
     0
 10
-1.7775650170245849
 20
-0.1529699831142128
 30
0.0
 11
-1.775390982684169
 21
-0.1529699831142128
 31
0.0
  0
LINE
  5
29C25
  8
0
 62
     0
 10
1.8441090173158381
 20
-0.1529699831142128
 30
0.0
 11
1.907609017315838
 21
-0.1529699831142128
 31
0.0
  0
LINE
  5
29C26
  8
0
 62
     0
 10
-2.0928909826841662
 20
-0.1529699831142128
 30
0.0
 11
-2.0293909826841658
 21
-0.1529699831142128
 31
0.0
  0
LINE
  5
29C27
  8
0
 62
     0
 10
-2.2033465598848099
 20
-0.1529699831142128
 30
0.0
 11
-2.1563909826841661
 21
-0.1529699831142128
 31
0.0
  0
LINE
  5
29C28
  8
0
 62
     0
 10
2.4791090173158339
 20
-0.1529699831142128
 30
0.0
 11
2.5000000000000062
 21
-0.1529699831142128
 31
0.0
  0
LINE
  5
29C29
  8
0
 62
     0
 10
2.3521090173158341
 20
-0.1529699831142128
 30
0.0
 11
2.415609017315834
 21
-0.1529699831142128
 31
0.0
  0
LINE
  5
29C2A
  8
0
 62
     0
 10
2.2251090173158339
 20
-0.1529699831142128
 30
0.0
 11
2.2886090173158342
 21
-0.1529699831142128
 31
0.0
  0
LINE
  5
29C2B
  8
0
 62
     0
 10
-2.3468909826841671
 20
-0.1529699831142128
 30
0.0
 11
-2.342111111106266
 21
-0.1529699831142128
 31
0.0
  0
LINE
  5
29C2C
  8
0
 62
     0
 10
-2.473890982684166
 20
-0.1529699831142128
 30
0.0
 11
-2.4103909826841661
 21
-0.1529699831142128
 31
0.0
  0
LINE
  5
29C2D
  8
0
 62
     0
 10
0.3836090173158253
 20
-0.0894699831142116
 30
0.0
 11
0.3939313731988712
 21
-0.0894699831142116
 31
0.0
  0
LINE
  5
29C2E
  8
0
 62
     0
 10
0.2566090173158253
 20
-0.0894699831142116
 30
0.0
 11
0.3201090173158253
 21
-0.0894699831142116
 31
0.0
  0
LINE
  5
29C2F
  8
0
 62
     0
 10
0.1296090173158253
 20
-0.0894699831142116
 30
0.0
 11
0.1931090173158253
 21
-0.0894699831142116
 31
0.0
  0
LINE
  5
29C30
  8
0
 62
     0
 10
0.0026090173158253
 20
-0.0894699831142116
 30
0.0
 11
0.0661090173158253
 21
-0.0894699831142116
 31
0.0
  0
LINE
  5
29C31
  8
0
 62
     0
 10
-0.1243909826841747
 20
-0.0894699831142116
 30
0.0
 11
-0.0608909826841747
 21
-0.0894699831142116
 31
0.0
  0
LINE
  5
29C32
  8
0
 62
     0
 10
-0.3783909826841654
 20
-0.0894699831142116
 30
0.0
 11
-0.3148909826841653
 21
-0.0894699831142116
 31
0.0
  0
LINE
  5
29C33
  8
0
 62
     0
 10
0.8916090173158316
 20
-0.0894699831142116
 30
0.0
 11
0.915777777779354
 21
-0.0894699831142116
 31
0.0
  0
LINE
  5
29C34
  8
0
 62
     0
 10
0.7646090173158318
 20
-0.0894699831142116
 30
0.0
 11
0.8281090173158316
 21
-0.0894699831142116
 31
0.0
  0
LINE
  5
29C35
  8
0
 62
     0
 10
-0.5053909826841715
 20
-0.0894699831142116
 30
0.0
 11
-0.4418909826841714
 21
-0.0894699831142116
 31
0.0
  0
LINE
  5
29C36
  8
0
 62
     0
 10
-0.5885203396103265
 20
-0.0894699831142116
 30
0.0
 11
-0.5688909826841714
 21
-0.0894699831142116
 31
0.0
  0
LINE
  5
29C37
  8
0
 62
     0
 10
1.1456090173158251
 20
-0.0894699831142116
 30
0.0
 11
1.175777777779256
 21
-0.0894699831142116
 31
0.0
  0
LINE
  5
29C38
  8
0
 62
     0
 10
1.0186090173158251
 20
-0.0894699831142116
 30
0.0
 11
1.0821090173158261
 21
-0.0894699831142116
 31
0.0
  0
LINE
  5
29C39
  8
0
 62
     0
 10
-0.7593909826841716
 20
-0.0894699831142116
 30
0.0
 11
-0.7535183650573744
 21
-0.0894699831142116
 31
0.0
  0
LINE
  5
29C3A
  8
0
 62
     0
 10
-0.8863909826841716
 20
-0.0894699831142116
 30
0.0
 11
-0.8228909826841716
 21
-0.0894699831142116
 31
0.0
  0
LINE
  5
29C3B
  8
0
 62
     0
 10
1.6536090173158351
 20
-0.0894699831142116
 30
0.0
 11
1.685777777779268
 21
-0.0894699831142116
 31
0.0
  0
LINE
  5
29C3C
  8
0
 62
     0
 10
1.5266090173158351
 20
-0.0894699831142116
 30
0.0
 11
1.590109017315835
 21
-0.0894699831142116
 31
0.0
  0
LINE
  5
29C3D
  8
0
 62
     0
 10
-1.01339098268417
 20
-0.0894699831142116
 30
0.0
 11
-0.9498909826841707
 21
-0.0894699831142116
 31
0.0
  0
LINE
  5
29C3E
  8
0
 62
     0
 10
-1.080767640440722
 20
-0.0894699831142116
 30
0.0
 11
-1.0768909826841699
 21
-0.0894699831142116
 31
0.0
  0
LINE
  5
29C3F
  8
0
 62
     0
 10
1.907609017315828
 20
-0.0894699831142116
 30
0.0
 11
1.9473333333338829
 21
-0.0894699831142116
 31
0.0
  0
LINE
  5
29C40
  8
0
 62
     0
 10
1.7894444444451481
 20
-0.0894699831142116
 30
0.0
 11
1.8441090173158281
 21
-0.0894699831142116
 31
0.0
  0
LINE
  5
29C41
  8
0
 62
     0
 10
-1.2673909826841721
 20
-0.0894699831142116
 30
0.0
 11
-1.203890982684173
 21
-0.0894699831142116
 31
0.0
  0
LINE
  5
29C42
  8
0
 62
     0
 10
-1.3943909826841721
 20
-0.0894699831142116
 30
0.0
 11
-1.3308909826841719
 21
-0.0894699831142116
 31
0.0
  0
LINE
  5
29C43
  8
0
 62
     0
 10
-1.5213909826841721
 20
-0.0894699831142116
 30
0.0
 11
-1.4578909826841719
 21
-0.0894699831142116
 31
0.0
  0
LINE
  5
29C44
  8
0
 62
     0
 10
-1.6483909826841721
 20
-0.0894699831142116
 30
0.0
 11
-1.5848909826841719
 21
-0.0894699831142116
 31
0.0
  0
LINE
  5
29C45
  8
0
 62
     0
 10
-1.749156704524587
 20
-0.0894699831142116
 30
0.0
 11
-1.7118909826841719
 21
-0.0894699831142116
 31
0.0
  0
LINE
  5
29C46
  8
0
 62
     0
 10
2.2886090173158329
 20
-0.0894699831142116
 30
0.0
 11
2.3384782986892421
 21
-0.0894699831142116
 31
0.0
  0
LINE
  5
29C47
  8
0
 62
     0
 10
2.1616090173158331
 20
-0.0894699831142116
 30
0.0
 11
2.225109017315833
 21
-0.0894699831142116
 31
0.0
  0
LINE
  5
29C48
  8
0
 62
     0
 10
-2.156390982684167
 20
-0.0894699831142116
 30
0.0
 11
-2.0928909826841671
 21
-0.0894699831142116
 31
0.0
  0
LINE
  5
29C49
  8
0
 62
     0
 10
-2.2462035971876801
 20
-0.0894699831142116
 30
0.0
 11
-2.2198909826841668
 21
-0.0894699831142116
 31
0.0
  0
LINE
  5
29C4A
  8
0
 62
     0
 10
2.4156090173158269
 20
-0.0894699831142116
 30
0.0
 11
2.4791090173158268
 21
-0.0894699831142116
 31
0.0
  0
LINE
  5
29C4B
  8
0
 62
     0
 10
2.3421111111112651
 20
-0.0894699831142116
 30
0.0
 11
2.352109017315827
 21
-0.0894699831142116
 31
0.0
  0
LINE
  5
29C4C
  8
0
 62
     0
 10
-2.4103909826841758
 20
-0.0894699831142116
 30
0.0
 11
-2.346890982684176
 21
-0.0894699831142116
 31
0.0
  0
LINE
  5
29C4D
  8
0
 62
     0
 10
-2.4999999999950009
 20
-0.0894699831142116
 30
0.0
 11
-2.4738909826841762
 21
-0.0894699831142116
 31
0.0
  0
LINE
  5
29C4E
  8
0
 62
     0
 10
-0.0608909826841664
 20
-0.0259699831142122
 30
0.0
 11
0.0026090173158336
 21
-0.0259699831142122
 31
0.0
  0
LINE
  5
29C4F
  8
0
 62
     0
 10
-0.1286706629354981
 20
-0.0259699831142122
 30
0.0
 11
-0.1243909826841664
 21
-0.0259699831142122
 31
0.0
  0
LINE
  5
29C50
  8
0
 62
     0
 10
-0.3148909826841642
 20
-0.0259699831142122
 30
0.0
 11
-0.2513909826841641
 21
-0.0259699831142122
 31
0.0
  0
LINE
  5
29C51
  8
0
 62
     0
 10
-0.4001808896430746
 20
-0.0259699831142122
 30
0.0
 11
-0.3783909826841642
 21
-0.0259699831142122
 31
0.0
  0
LINE
  5
29C52
  8
0
 62
     0
 10
0.3201090173158279
 20
-0.0259699831142122
 30
0.0
 11
0.3655228687159671
 21
-0.0259699831142122
 31
0.0
  0
LINE
  5
29C53
  8
0
 62
     0
 10
0.1931090173158279
 20
-0.0259699831142122
 30
0.0
 11
0.2566090173158279
 21
-0.0259699831142122
 31
0.0
  0
LINE
  5
29C54
  8
0
 62
     0
 10
-0.5688909826841656
 20
-0.0259699831142122
 30
0.0
 11
-0.5053909826841655
 21
-0.0259699831142122
 31
0.0
  0
LINE
  5
29C55
  8
0
 62
     0
 10
0.8281090173158364
 20
-0.0259699831142122
 30
0.0
 11
0.8916090173158364
 21
-0.0259699831142122
 31
0.0
  0
LINE
  5
29C56
  8
0
 62
     0
 10
0.7557777777793647
 20
-0.0259699831142122
 30
0.0
 11
0.7646090173158365
 21
-0.0259699831142122
 31
0.0
  0
LINE
  5
29C57
  8
0
 62
     0
 10
-0.8228909826841704
 20
-0.0259699831142122
 30
0.0
 11
-0.7593909826841704
 21
-0.0259699831142122
 31
0.0
  0
LINE
  5
29C58
  8
0
 62
     0
 10
1.0821090173158301
 20
-0.0259699831142122
 30
0.0
 11
1.14560901731583
 21
-0.0259699831142122
 31
0.0
  0
LINE
  5
29C59
  8
0
 62
     0
 10
1.0157777777792589
 20
-0.0259699831142122
 30
0.0
 11
1.01860901731583
 21
-0.0259699831142122
 31
0.0
  0
LINE
  5
29C5A
  8
0
 62
     0
 10
-0.9498909826841645
 20
-0.0259699831142122
 30
0.0
 11
-0.9418336653727832
 21
-0.0259699831142122
 31
0.0
  0
LINE
  5
29C5B
  8
0
 62
     0
 10
-1.0768909826841639
 20
-0.0259699831142122
 30
0.0
 11
-1.0133909826841641
 21
-0.0259699831142122
 31
0.0
  0
LINE
  5
29C5C
  8
0
 62
     0
 10
1.5901090173158401
 20
-0.0259699831142122
 30
0.0
 11
1.65360901731584
 21
-0.0259699831142122
 31
0.0
  0
LINE
  5
29C5D
  8
0
 62
     0
 10
1.5257777777792569
 20
-0.0259699831142122
 30
0.0
 11
1.52660901731584
 21
-0.0259699831142122
 31
0.0
  0
LINE
  5
29C5E
  8
0
 62
     0
 10
-1.3308909826841591
 20
-0.0259699831142122
 30
0.0
 11
-1.267390982684159
 21
-0.0259699831142122
 31
0.0
  0
LINE
  5
29C5F
  8
0
 62
     0
 10
-1.399586568578111
 20
-0.0259699831142122
 30
0.0
 11
-1.3943909826841581
 21
-0.0259699831142122
 31
0.0
  0
LINE
  5
29C60
  8
0
 62
     0
 10
1.844109017315831
 20
-0.0259699831142122
 30
0.0
 11
1.9076090173158311
 21
-0.0259699831142122
 31
0.0
  0
LINE
  5
29C61
  8
0
 62
     0
 10
-1.584890982684162
 20
-0.0259699831142122
 30
0.0
 11
-1.5477467647472729
 21
-0.0259699831142122
 31
0.0
  0
LINE
  5
29C62
  8
0
 62
     0
 10
-1.711890982684162
 20
-0.0259699831142122
 30
0.0
 11
-1.6483909826841621
 21
-0.0259699831142122
 31
0.0
  0
LINE
  5
29C63
  8
0
 62
     0
 10
2.2251090173158352
 20
-0.0259699831142122
 30
0.0
 11
2.281861344918648
 21
-0.0259699831142122
 31
0.0
  0
LINE
  5
29C64
  8
0
 62
     0
 10
2.098109017315835
 20
-0.0259699831142122
 30
0.0
 11
2.1616090173158349
 21
-0.0259699831142122
 31
0.0
  0
LINE
  5
29C65
  8
0
 62
     0
 10
-2.2198909826841651
 20
-0.0259699831142122
 30
0.0
 11
-2.1563909826841652
 21
-0.0259699831142122
 31
0.0
  0
LINE
  5
29C66
  8
0
 62
     0
 10
-2.2890606344905531
 20
-0.0259699831142122
 30
0.0
 11
-2.283390982684165
 21
-0.0259699831142122
 31
0.0
  0
LINE
  5
29C67
  8
0
 62
     0
 10
2.4791090173158361
 20
-0.0259699831142122
 30
0.0
 11
2.4999999999999991
 21
-0.0259699831142122
 31
0.0
  0
LINE
  5
29C68
  8
0
 62
     0
 10
2.3521090173158372
 20
-0.0259699831142122
 30
0.0
 11
2.4156090173158371
 21
-0.0259699831142122
 31
0.0
  0
LINE
  5
29C69
  8
0
 62
     0
 10
-2.3468909826841671
 20
-0.0259699831142122
 30
0.0
 11
-2.342111111106274
 21
-0.0259699831142122
 31
0.0
  0
LINE
  5
29C6A
  8
0
 62
     0
 10
-2.473890982684166
 20
-0.0259699831142122
 30
0.0
 11
-2.4103909826841661
 21
-0.0259699831142122
 31
0.0
  0
LINE
  5
29C6B
  8
0
 62
     0
 10
0.0026090173158313
 20
0.0375300168857873
 30
0.0
 11
0.0661090173158313
 21
0.0375300168857873
 31
0.0
  0
LINE
  5
29C6C
  8
0
 62
     0
 10
-0.1002579407132771
 20
0.0375300168857873
 30
0.0
 11
-0.0608909826841687
 21
0.0375300168857873
 31
0.0
  0
LINE
  5
29C6D
  8
0
 62
     0
 10
-0.2513909826841629
 20
0.0375300168857873
 30
0.0
 11
-0.2078623595529372
 21
0.0375300168857873
 31
0.0
  0
LINE
  5
29C6E
  8
0
 62
     0
 10
-0.373451041828563
 20
0.0375300168857873
 30
0.0
 11
-0.314890982684163
 21
0.0375300168857873
 31
0.0
  0
LINE
  5
29C6F
  8
0
 62
     0
 10
0.2566090173158291
 20
0.0375300168857873
 30
0.0
 11
0.3201090173158291
 21
0.0375300168857873
 31
0.0
  0
LINE
  5
29C70
  8
0
 62
     0
 10
0.1641245100831838
 20
0.0375300168857873
 30
0.0
 11
0.1931090173158291
 21
0.0375300168857873
 31
0.0
  0
LINE
  5
29C71
  8
0
 62
     0
 10
-0.5053909826841668
 20
0.0375300168857873
 30
0.0
 11
-0.4872373641605137
 21
0.0375300168857873
 31
0.0
  0
LINE
  5
29C72
  8
0
 62
     0
 10
-0.6323909826841668
 20
0.0375300168857873
 30
0.0
 11
-0.5688909826841667
 21
0.0375300168857873
 31
0.0
  0
LINE
  5
29C73
  8
0
 62
     0
 10
0.8916090173158316
 20
0.0375300168857873
 30
0.0
 11
0.9157777777793612
 21
0.0375300168857873
 31
0.0
  0
LINE
  5
29C74
  8
0
 62
     0
 10
0.7646090173158318
 20
0.0375300168857873
 30
0.0
 11
0.8281090173158316
 21
0.0375300168857873
 31
0.0
  0
LINE
  5
29C75
  8
0
 62
     0
 10
-0.7593909826841657
 20
0.0375300168857873
 30
0.0
 11
-0.7057628886737213
 21
0.0375300168857873
 31
0.0
  0
LINE
  5
29C76
  8
0
 62
     0
 10
-0.8547626358331434
 20
0.0375300168857873
 30
0.0
 11
-0.8228909826841656
 21
0.0375300168857873
 31
0.0
  0
LINE
  5
29C77
  8
0
 62
     0
 10
1.1456090173158331
 20
0.0375300168857873
 30
0.0
 11
1.1757777777792631
 21
0.0375300168857873
 31
0.0
  0
LINE
  5
29C78
  8
0
 62
     0
 10
1.0186090173158331
 20
0.0375300168857873
 30
0.0
 11
1.082109017315833
 21
0.0375300168857873
 31
0.0
  0
LINE
  5
29C79
  8
0
 62
     0
 10
-1.0133909826841669
 20
0.0375300168857873
 30
0.0
 11
-0.9685751703385465
 21
0.0375300168857873
 31
0.0
  0
LINE
  5
29C7A
  8
0
 62
     0
 10
-1.1342487515518369
 20
0.0375300168857873
 30
0.0
 11
-1.0768909826841671
 21
0.0375300168857873
 31
0.0
  0
LINE
  5
29C7B
  8
0
 62
     0
 10
1.653609017315828
 20
0.0375300168857873
 30
0.0
 11
1.685777777779254
 21
0.0375300168857873
 31
0.0
  0
LINE
  5
29C7C
  8
0
 62
     0
 10
1.526609017315828
 20
0.0375300168857873
 30
0.0
 11
1.5901090173158281
 21
0.0375300168857873
 31
0.0
  0
LINE
  5
29C7D
  8
0
 62
     0
 10
-1.2673909826841669
 20
0.0375300168857873
 30
0.0
 11
-1.255018590513046
 21
0.0375300168857873
 31
0.0
  0
LINE
  5
29C7E
  8
0
 62
     0
 10
-1.3943909826841669
 20
0.0375300168857873
 30
0.0
 11
-1.3308909826841671
 21
0.0375300168857873
 31
0.0
  0
LINE
  5
29C7F
  8
0
 62
     0
 10
1.9076090173158351
 20
0.0375300168857873
 30
0.0
 11
1.9473333333338829
 21
0.0375300168857873
 31
0.0
  0
LINE
  5
29C80
  8
0
 62
     0
 10
1.7894444444451481
 20
0.0375300168857873
 30
0.0
 11
1.844109017315835
 21
0.0375300168857873
 31
0.0
  0
LINE
  5
29C81
  8
0
 62
     0
 10
-1.5213909826841681
 20
0.0375300168857873
 30
0.0
 11
-1.5193467322990659
 21
0.0375300168857873
 31
0.0
  0
LINE
  5
29C82
  8
0
 62
     0
 10
-1.6483909826841681
 20
0.0375300168857873
 30
0.0
 11
-1.5848909826841679
 21
0.0375300168857873
 31
0.0
  0
LINE
  5
29C83
  8
0
 62
     0
 10
2.16160901731583
 20
0.0375300168857873
 30
0.0
 11
2.2251090173158299
 21
0.0375300168857873
 31
0.0
  0
LINE
  5
29C84
  8
0
 62
     0
 10
2.0346090173158311
 20
0.0375300168857873
 30
0.0
 11
2.0981090173158301
 21
0.0375300168857873
 31
0.0
  0
LINE
  5
29C85
  8
0
 62
     0
 10
-2.1563909826841661
 20
0.0375300168857873
 30
0.0
 11
-2.141365331496178
 21
0.0375300168857873
 31
0.0
  0
LINE
  5
29C86
  8
0
 62
     0
 10
-2.2833909826841658
 20
0.0375300168857873
 30
0.0
 11
-2.219890982684166
 21
0.0375300168857873
 31
0.0
  0
LINE
  5
29C87
  8
0
 62
     0
 10
2.415609017315834
 20
0.0375300168857873
 30
0.0
 11
2.4791090173158339
 21
0.0375300168857873
 31
0.0
  0
LINE
  5
29C88
  8
0
 62
     0
 10
2.3421111111112651
 20
0.0375300168857873
 30
0.0
 11
2.3521090173158341
 21
0.0375300168857873
 31
0.0
  0
LINE
  5
29C89
  8
0
 62
     0
 10
-2.4103909826841621
 20
0.0375300168857873
 30
0.0
 11
-2.3468909826841622
 21
0.0375300168857873
 31
0.0
  0
LINE
  5
29C8A
  8
0
 62
     0
 10
-2.4999999999950009
 20
0.0375300168857873
 30
0.0
 11
-2.4738909826841611
 21
0.0375300168857873
 31
0.0
  0
LINE
  5
29C8B
  8
0
 62
     0
 10
0.066109017315823
 20
0.1010300168857885
 30
0.0
 11
0.1011644112586474
 21
0.1010300168857885
 31
0.0
  0
LINE
  5
29C8C
  8
0
 62
     0
 10
-0.060890982684177
 20
0.1010300168857885
 30
0.0
 11
0.002609017315823
 21
0.1010300168857885
 31
0.0
  0
LINE
  5
29C8D
  8
0
 62
     0
 10
-0.1878909826841748
 20
0.1010300168857885
 30
0.0
 11
-0.1811218039973887
 21
0.1010300168857885
 31
0.0
  0
LINE
  5
29C8E
  8
0
 62
     0
 10
-0.3148909826841748
 20
0.1010300168857885
 30
0.0
 11
-0.2513909826841748
 21
0.1010300168857885
 31
0.0
  0
LINE
  5
29C8F
  8
0
 62
     0
 10
0.1931090173158314
 20
0.1010300168857885
 30
0.0
 11
0.2566090173158314
 21
0.1010300168857885
 31
0.0
  0
LINE
  5
29C90
  8
0
 62
     0
 10
-0.5688909826841692
 20
0.1010300168857885
 30
0.0
 11
-0.5111108885531124
 21
0.1010300168857885
 31
0.0
  0
LINE
  5
29C91
  8
0
 62
     0
 10
-0.6601199551170538
 20
0.1010300168857885
 30
0.0
 11
-0.6323909826841691
 21
0.1010300168857885
 31
0.0
  0
LINE
  5
29C92
  8
0
 62
     0
 10
0.8281090173158293
 20
0.1010300168857885
 30
0.0
 11
0.8916090173158293
 21
0.1010300168857885
 31
0.0
  0
LINE
  5
29C93
  8
0
 62
     0
 10
0.7557777777793647
 20
0.1010300168857885
 30
0.0
 11
0.7646090173158294
 21
0.1010300168857885
 31
0.0
  0
LINE
  5
29C94
  8
0
 62
     0
 10
-0.695890982684174
 20
0.1010300168857885
 30
0.0
 11
-0.6818851504818895
 21
0.1010300168857885
 31
0.0
  0
LINE
  5
29C95
  8
0
 62
     0
 10
-0.8228909826841739
 20
0.1010300168857885
 30
0.0
 11
-0.7593909826841739
 21
0.1010300168857885
 31
0.0
  0
LINE
  5
29C96
  8
0
 62
     0
 10
1.082109017315823
 20
0.1010300168857885
 30
0.0
 11
1.1456090173158231
 21
0.1010300168857885
 31
0.0
  0
LINE
  5
29C97
  8
0
 62
     0
 10
1.0157777777792589
 20
0.1010300168857885
 30
0.0
 11
1.0186090173158231
 21
0.1010300168857885
 31
0.0
  0
LINE
  5
29C98
  8
0
 62
     0
 10
-1.076890982684171
 20
0.1010300168857885
 30
0.0
 11
-1.013390982684172
 21
0.1010300168857885
 31
0.0
  0
LINE
  5
29C99
  8
0
 62
     0
 10
-1.160989307107392
 20
0.1010300168857885
 30
0.0
 11
-1.1403909826841709
 21
0.1010300168857885
 31
0.0
  0
LINE
  5
29C9A
  8
0
 62
     0
 10
1.590109017315833
 20
0.1010300168857885
 30
0.0
 11
1.6536090173158331
 21
0.1010300168857885
 31
0.0
  0
LINE
  5
29C9B
  8
0
 62
     0
 10
1.5257777777792569
 20
0.1010300168857885
 30
0.0
 11
1.5266090173158331
 21
0.1010300168857885
 31
0.0
  0
LINE
  5
29C9C
  8
0
 62
     0
 10
-1.3308909826841731
 20
0.1010300168857885
 30
0.0
 11
-1.2834242571797141
 21
0.1010300168857885
 31
0.0
  0
LINE
  5
29C9D
  8
0
 62
     0
 10
-1.4563866334745259
 20
0.1010300168857885
 30
0.0
 11
-1.3943909826841729
 21
0.1010300168857885
 31
0.0
  0
LINE
  5
29C9E
  8
0
 62
     0
 10
1.8441090173158241
 20
0.1010300168857885
 30
0.0
 11
1.907609017315824
 21
0.1010300168857885
 31
0.0
  0
LINE
  5
29C9F
  8
0
 62
     0
 10
-1.5848909826841711
 20
0.1010300168857885
 30
0.0
 11
-1.5213909826841709
 21
0.1010300168857885
 31
0.0
  0
LINE
  5
29CA0
  8
0
 62
     0
 10
-1.6639317670245961
 20
0.1010300168857885
 30
0.0
 11
-1.6483909826841701
 21
0.1010300168857885
 31
0.0
  0
LINE
  5
29CA1
  8
0
 62
     0
 10
2.0981090173158301
 20
0.1010300168857885
 30
0.0
 11
2.1616090173158291
 21
0.1010300168857885
 31
0.0
  0
LINE
  5
29CA2
  8
0
 62
     0
 10
1.9711090173158301
 20
0.1010300168857885
 30
0.0
 11
2.0346090173158302
 21
0.1010300168857885
 31
0.0
  0
LINE
  5
29CA3
  8
0
 62
     0
 10
-2.2198909826841722
 20
0.1010300168857885
 30
0.0
 11
-2.1563909826841718
 21
0.1010300168857885
 31
0.0
  0
LINE
  5
29CA4
  8
0
 62
     0
 10
-2.303682728392864
 20
0.1010300168857885
 30
0.0
 11
-2.2833909826841721
 21
0.1010300168857885
 31
0.0
  0
LINE
  5
29CA5
  8
0
 62
     0
 10
2.479109017315829
 20
0.1010300168857885
 30
0.0
 11
2.4999999999999991
 21
0.1010300168857885
 31
0.0
  0
LINE
  5
29CA6
  8
0
 62
     0
 10
2.3521090173158301
 20
0.1010300168857885
 30
0.0
 11
2.4156090173158291
 21
0.1010300168857885
 31
0.0
  0
LINE
  5
29CA7
  8
0
 62
     0
 10
-2.3468909826841742
 20
0.1010300168857885
 30
0.0
 11
-2.342111111106274
 21
0.1010300168857885
 31
0.0
  0
LINE
  5
29CA8
  8
0
 62
     0
 10
-2.4738909826841731
 20
0.1010300168857885
 30
0.0
 11
-2.4103909826841741
 21
0.1010300168857885
 31
0.0
  0
LINE
  5
29CA9
  8
0
 62
     0
 10
0.2566090173158313
 20
0.1645300168857879
 30
0.0
 11
0.2802973552672583
 21
0.1645300168857879
 31
0.0
  0
LINE
  5
29CAA
  8
0
 62
     0
 10
0.1296090173158313
 20
0.1645300168857879
 30
0.0
 11
0.1931090173158313
 21
0.1645300168857879
 31
0.0
  0
LINE
  5
29CAB
  8
0
 62
     0
 10
0.0026090173158313
 20
0.1645300168857879
 30
0.0
 11
0.0661090173158313
 21
0.1645300168857879
 31
0.0
  0
LINE
  5
29CAC
  8
0
 62
     0
 10
-0.2513909826841665
 20
0.1645300168857879
 30
0.0
 11
-0.1878909826841665
 21
0.1645300168857879
 31
0.0
  0
LINE
  5
29CAD
  8
0
 62
     0
 10
-0.3199913461995436
 20
0.1645300168857879
 30
0.0
 11
-0.3148909826841665
 21
0.1645300168857879
 31
0.0
  0
LINE
  5
29CAE
  8
0
 62
     0
 10
0.8916090173158316
 20
0.1645300168857879
 30
0.0
 11
0.9157777777793612
 21
0.1645300168857879
 31
0.0
  0
LINE
  5
29CAF
  8
0
 62
     0
 10
0.7646090173158318
 20
0.1645300168857879
 30
0.0
 11
0.8281090173158316
 21
0.1645300168857879
 31
0.0
  0
LINE
  5
29CB0
  8
0
 62
     0
 10
-0.6323909826841692
 20
0.1645300168857879
 30
0.0
 11
-0.5688909826841692
 21
0.1645300168857879
 31
0.0
  0
LINE
  5
29CB1
  8
0
 62
     0
 10
-0.7593909826841692
 20
0.1645300168857879
 30
0.0
 11
-0.6958909826841692
 21
0.1645300168857879
 31
0.0
  0
LINE
  5
29CB2
  8
0
 62
     0
 10
1.1456090173158331
 20
0.1645300168857879
 30
0.0
 11
1.175777777779256
 21
0.1645300168857879
 31
0.0
  0
LINE
  5
29CB3
  8
0
 62
     0
 10
1.0186090173158331
 20
0.1645300168857879
 30
0.0
 11
1.082109017315833
 21
0.1645300168857879
 31
0.0
  0
LINE
  5
29CB4
  8
0
 62
     0
 10
-1.1403909826841621
 20
0.1645300168857879
 30
0.0
 11
-1.0768909826841619
 21
0.1645300168857879
 31
0.0
  0
LINE
  5
29CB5
  8
0
 62
     0
 10
1.653609017315832
 20
0.1645300168857879
 30
0.0
 11
1.6857777777792571
 21
0.1645300168857879
 31
0.0
  0
LINE
  5
29CB6
  8
0
 62
     0
 10
1.526609017315832
 20
0.1645300168857879
 30
0.0
 11
1.5901090173158321
 21
0.1645300168857879
 31
0.0
  0
LINE
  5
29CB7
  8
0
 62
     0
 10
-1.394390982684159
 20
0.1645300168857879
 30
0.0
 11
-1.3308909826841591
 21
0.1645300168857879
 31
0.0
  0
LINE
  5
29CB8
  8
0
 62
     0
 10
-1.521390982684159
 20
0.1645300168857879
 30
0.0
 11
-1.4578909826841591
 21
0.1645300168857879
 31
0.0
  0
LINE
  5
29CB9
  8
0
 62
     0
 10
-1.635523454524598
 20
0.1645300168857879
 30
0.0
 11
-1.5848909826841591
 21
0.1645300168857879
 31
0.0
  0
LINE
  5
29CBA
  8
0
 62
     0
 10
2.034609017315828
 20
0.1645300168857879
 30
0.0
 11
2.0981090173158279
 21
0.1645300168857879
 31
0.0
  0
LINE
  5
29CBB
  8
0
 62
     0
 10
1.907609017315828
 20
0.1645300168857879
 30
0.0
 11
1.9711090173158281
 21
0.1645300168857879
 31
0.0
  0
LINE
  5
29CBC
  8
0
 62
     0
 10
1.7894444444451481
 20
0.1645300168857879
 30
0.0
 11
1.8441090173158281
 21
0.1645300168857879
 31
0.0
  0
LINE
  5
29CBD
  8
0
 62
     0
 10
-2.1563909826841638
 20
0.1645300168857879
 30
0.0
 11
-2.092890982684164
 21
0.1645300168857879
 31
0.0
  0
LINE
  5
29CBE
  8
0
 62
     0
 10
-2.2532618705332901
 20
0.1645300168857879
 30
0.0
 11
-2.2198909826841642
 21
0.1645300168857879
 31
0.0
  0
LINE
  5
29CBF
  8
0
 62
     0
 10
2.415609017315834
 20
0.1645300168857879
 30
0.0
 11
2.4791090173158339
 21
0.1645300168857879
 31
0.0
  0
LINE
  5
29CC0
  8
0
 62
     0
 10
2.3421111111112651
 20
0.1645300168857879
 30
0.0
 11
2.3521090173158341
 21
0.1645300168857879
 31
0.0
  0
LINE
  5
29CC1
  8
0
 62
     0
 10
-2.4103909826841692
 20
0.1645300168857879
 30
0.0
 11
-2.3468909826841688
 21
0.1645300168857879
 31
0.0
  0
LINE
  5
29CC2
  8
0
 62
     0
 10
-2.4999999999950009
 20
0.1645300168857879
 30
0.0
 11
-2.4738909826841691
 21
0.1645300168857879
 31
0.0
  0
LINE
  5
29CC3
  8
0
 62
     0
 10
0.193109017315829
 20
0.2280300168857874
 30
0.0
 11
0.2518888507843542
 21
0.2280300168857874
 31
0.0
  0
LINE
  5
29CC4
  8
0
 62
     0
 10
0.066109017315829
 20
0.2280300168857874
 30
0.0
 11
0.129609017315829
 21
0.2280300168857874
 31
0.0
  0
LINE
  5
29CC5
  8
0
 62
     0
 10
-0.0150197740466069
 20
0.2280300168857874
 30
0.0
 11
0.002609017315829
 21
0.2280300168857874
 31
0.0
  0
LINE
  5
29CC6
  8
0
 62
     0
 10
-0.1878909826841724
 20
0.2280300168857874
 30
0.0
 11
-0.1276406928862706
 21
0.2280300168857874
 31
0.0
  0
LINE
  5
29CC7
  8
0
 62
     0
 10
-0.2932614983850321
 20
0.2280300168857874
 30
0.0
 11
-0.2513909826841724
 21
0.2280300168857874
 31
0.0
  0
LINE
  5
29CC8
  8
0
 62
     0
 10
0.8281090173158293
 20
0.2280300168857874
 30
0.0
 11
0.8916090173158293
 21
0.2280300168857874
 31
0.0
  0
LINE
  5
29CC9
  8
0
 62
     0
 10
0.7557777777793647
 20
0.2280300168857874
 30
0.0
 11
0.7646090173158294
 21
0.2280300168857874
 31
0.0
  0
LINE
  5
29CCA
  8
0
 62
     0
 10
-0.5688909826841752
 20
0.2280300168857874
 30
0.0
 11
-0.5588579373383205
 21
0.2280300168857874
 31
0.0
  0
LINE
  5
29CCB
  8
0
 62
     0
 10
-0.6958909826841752
 20
0.2280300168857874
 30
0.0
 11
-0.6323909826841752
 21
0.2280300168857874
 31
0.0
  0
LINE
  5
29CCC
  8
0
 62
     0
 10
-0.7831420626553403
 20
0.2280300168857874
 30
0.0
 11
-0.7593909826841752
 21
0.2280300168857874
 31
0.0
  0
LINE
  5
29CCD
  8
0
 62
     0
 10
1.082109017315837
 20
0.2280300168857874
 30
0.0
 11
1.1456090173158371
 21
0.2280300168857874
 31
0.0
  0
LINE
  5
29CCE
  8
0
 62
     0
 10
1.0157777777792589
 20
0.2280300168857874
 30
0.0
 11
1.0186090173158371
 21
0.2280300168857874
 31
0.0
  0
LINE
  5
29CCF
  8
0
 62
     0
 10
-1.0768909826841671
 20
0.2280300168857874
 30
0.0
 11
-1.048799685235827
 21
0.2280300168857874
 31
0.0
  0
LINE
  5
29CD0
  8
0
 62
     0
 10
-1.2038909826841671
 20
0.2280300168857874
 30
0.0
 11
-1.1403909826841661
 21
0.2280300168857874
 31
0.0
  0
LINE
  5
29CD1
  8
0
 62
     0
 10
1.590109017315829
 20
0.2280300168857874
 30
0.0
 11
1.6536090173158291
 21
0.2280300168857874
 31
0.0
  0
LINE
  5
29CD2
  8
0
 62
     0
 10
1.5257777777792609
 20
0.2280300168857874
 30
0.0
 11
1.5266090173158291
 21
0.2280300168857874
 31
0.0
  0
LINE
  5
29CD3
  8
0
 62
     0
 10
-1.4578909826841671
 20
0.2280300168857874
 30
0.0
 11
-1.3943909826841669
 21
0.2280300168857874
 31
0.0
  0
LINE
  5
29CD4
  8
0
 62
     0
 10
-1.5848909826841671
 20
0.2280300168857874
 30
0.0
 11
-1.5213909826841669
 21
0.2280300168857874
 31
0.0
  0
LINE
  5
29CD5
  8
0
 62
     0
 10
1.9711090173158381
 20
0.2280300168857874
 30
0.0
 11
2.0346090173158382
 21
0.2280300168857874
 31
0.0
  0
LINE
  5
29CD6
  8
0
 62
     0
 10
1.8441090173158381
 20
0.2280300168857874
 30
0.0
 11
1.907609017315838
 21
0.2280300168857874
 31
0.0
  0
LINE
  5
29CD7
  8
0
 62
     0
 10
-2.0928909826841702
 20
0.2280300168857874
 30
0.0
 11
-2.0293909826841698
 21
0.2280300168857874
 31
0.0
  0
LINE
  5
29CD8
  8
0
 62
     0
 10
-2.2028410126737148
 20
0.2280300168857874
 30
0.0
 11
-2.1563909826841701
 21
0.2280300168857874
 31
0.0
  0
LINE
  5
29CD9
  8
0
 62
     0
 10
2.479109017315829
 20
0.2280300168857874
 30
0.0
 11
2.4999999999999991
 21
0.2280300168857874
 31
0.0
  0
LINE
  5
29CDA
  8
0
 62
     0
 10
2.3521090173158301
 20
0.2280300168857874
 30
0.0
 11
2.4156090173158291
 21
0.2280300168857874
 31
0.0
  0
LINE
  5
29CDB
  8
0
 62
     0
 10
-2.3468909826841671
 20
0.2280300168857874
 30
0.0
 11
-2.342111111106266
 21
0.2280300168857874
 31
0.0
  0
LINE
  5
29CDC
  8
0
 62
     0
 10
-2.473890982684166
 20
0.2280300168857874
 30
0.0
 11
-2.4103909826841661
 21
0.2280300168857874
 31
0.0
  0
LINE
  5
29CDD
  8
0
 62
     0
 10
0.1296090173158231
 20
0.2915300168857868
 30
0.0
 11
0.1931090173158231
 21
0.2915300168857868
 31
0.0
  0
LINE
  5
29CDE
  8
0
 62
     0
 10
0.0133929481756177
 20
0.2915300168857868
 30
0.0
 11
0.0661090173158231
 21
0.2915300168857868
 31
0.0
  0
LINE
  5
29CDF
  8
0
 62
     0
 10
-0.12439098268417
 20
0.2915300168857868
 30
0.0
 11
-0.1009001373307079
 21
0.2915300168857868
 31
0.0
  0
LINE
  5
29CE0
  8
0
 62
     0
 10
-0.25139098268417
 20
0.2915300168857868
 30
0.0
 11
-0.18789098268417
 21
0.2915300168857868
 31
0.0
  0
LINE
  5
29CE1
  8
0
 62
     0
 10
0.8916090173158316
 20
0.2915300168857868
 30
0.0
 11
0.9157777777793612
 21
0.2915300168857868
 31
0.0
  0
LINE
  5
29CE2
  8
0
 62
     0
 10
0.7646090173158318
 20
0.2915300168857868
 30
0.0
 11
0.8281090173158316
 21
0.2915300168857868
 31
0.0
  0
LINE
  5
29CE3
  8
0
 62
     0
 10
-0.6323909826841703
 20
0.2915300168857868
 30
0.0
 11
-0.5827314617309121
 21
0.2915300168857868
 31
0.0
  0
LINE
  5
29CE4
  8
0
 62
     0
 10
-0.7592685382627417
 20
0.2915300168857868
 30
0.0
 11
-0.6958909826841703
 21
0.2915300168857868
 31
0.0
  0
LINE
  5
29CE5
  8
0
 62
     0
 10
1.1456090173158251
 20
0.2915300168857868
 30
0.0
 11
1.175777777779256
 21
0.2915300168857868
 31
0.0
  0
LINE
  5
29CE6
  8
0
 62
     0
 10
1.0186090173158251
 20
0.2915300168857868
 30
0.0
 11
1.0821090173158261
 21
0.2915300168857868
 31
0.0
  0
LINE
  5
29CE7
  8
0
 62
     0
 10
-1.1403909826841689
 20
0.2915300168857868
 30
0.0
 11
-1.0768909826841691
 21
0.2915300168857868
 31
0.0
  0
LINE
  5
29CE8
  8
0
 62
     0
 10
-1.2412109737740591
 20
0.2915300168857868
 30
0.0
 11
-1.2038909826841691
 21
0.2915300168857868
 31
0.0
  0
LINE
  5
29CE9
  8
0
 62
     0
 10
1.653609017315832
 20
0.2915300168857868
 30
0.0
 11
1.6857777777792571
 21
0.2915300168857868
 31
0.0
  0
LINE
  5
29CEA
  8
0
 62
     0
 10
1.526609017315832
 20
0.2915300168857868
 30
0.0
 11
1.5901090173158321
 21
0.2915300168857868
 31
0.0
  0
LINE
  5
29CEB
  8
0
 62
     0
 10
-1.3943909826841689
 20
0.2915300168857868
 30
0.0
 11
-1.3686412571797031
 21
0.2915300168857868
 31
0.0
  0
LINE
  5
29CEC
  8
0
 62
     0
 10
-1.5213909826841689
 20
0.2915300168857868
 30
0.0
 11
-1.4578909826841691
 21
0.2915300168857868
 31
0.0
  0
LINE
  5
29CED
  8
0
 62
     0
 10
1.907609017315828
 20
0.2915300168857868
 30
0.0
 11
1.9711090173158281
 21
0.2915300168857868
 31
0.0
  0
LINE
  5
29CEE
  8
0
 62
     0
 10
1.7894444444451481
 20
0.2915300168857868
 30
0.0
 11
1.8441090173158281
 21
0.2915300168857868
 31
0.0
  0
LINE
  5
29CEF
  8
0
 62
     0
 10
-2.0293909826841721
 20
0.2915300168857868
 30
0.0
 11
-1.965890982684172
 21
0.2915300168857868
 31
0.0
  0
LINE
  5
29CF0
  8
0
 62
     0
 10
-2.1524201548141368
 20
0.2915300168857868
 30
0.0
 11
-2.092890982684172
 21
0.2915300168857868
 31
0.0
  0
LINE
  5
29CF1
  8
0
 62
     0
 10
2.4156090173158269
 20
0.2915300168857868
 30
0.0
 11
2.4791090173158268
 21
0.2915300168857868
 31
0.0
  0
LINE
  5
29CF2
  8
0
 62
     0
 10
2.3421111111112651
 20
0.2915300168857868
 30
0.0
 11
2.352109017315827
 21
0.2915300168857868
 31
0.0
  0
LINE
  5
29CF3
  8
0
 62
     0
 10
-2.4103909826841758
 20
0.2915300168857868
 30
0.0
 11
-2.346890982684176
 21
0.2915300168857868
 31
0.0
  0
LINE
  5
29CF4
  8
0
 62
     0
 10
-2.4999999999950009
 20
0.2915300168857868
 30
0.0
 11
-2.4738909826841762
 21
0.2915300168857868
 31
0.0
  0
LINE
  5
29CF5
  8
0
 62
     0
 10
0.1931090173158361
 20
0.3550300168857881
 30
0.0
 11
0.195071841818546
 21
0.3550300168857881
 31
0.0
  0
LINE
  5
29CF6
  8
0
 62
     0
 10
0.0661090173158361
 20
0.3550300168857881
 30
0.0
 11
0.1296090173158361
 21
0.3550300168857881
 31
0.0
  0
LINE
  5
29CF7
  8
0
 62
     0
 10
-0.1878909826841688
 20
0.3550300168857881
 30
0.0
 11
-0.1243909826841688
 21
0.3550300168857881
 31
0.0
  0
LINE
  5
29CF8
  8
0
 62
     0
 10
0.8281090173158364
 20
0.3550300168857881
 30
0.0
 11
0.8916090173158364
 21
0.3550300168857881
 31
0.0
  0
LINE
  5
29CF9
  8
0
 62
     0
 10
0.7557777777793647
 20
0.3550300168857881
 30
0.0
 11
0.7646090173158365
 21
0.3550300168857881
 31
0.0
  0
LINE
  5
29CFA
  8
0
 62
     0
 10
-0.6958909826841645
 20
0.3550300168857881
 30
0.0
 11
-0.6323909826841644
 21
0.3550300168857881
 31
0.0
  0
LINE
  5
29CFB
  8
0
 62
     0
 10
1.0821090173158301
 20
0.3550300168857881
 30
0.0
 11
1.14560901731583
 21
0.3550300168857881
 31
0.0
  0
LINE
  5
29CFC
  8
0
 62
     0
 10
1.0157777777792589
 20
0.3550300168857881
 30
0.0
 11
1.01860901731583
 21
0.3550300168857881
 31
0.0
  0
LINE
  5
29CFD
  8
0
 62
     0
 10
-1.2038909826841671
 20
0.3550300168857881
 30
0.0
 11
-1.1403909826841669
 21
0.3550300168857881
 31
0.0
  0
LINE
  5
29CFE
  8
0
 62
     0
 10
-1.267951529329614
 20
0.3550300168857881
 30
0.0
 11
-1.2673909826841669
 21
0.3550300168857881
 31
0.0
  0
LINE
  5
29CFF
  8
0
 62
     0
 10
1.5901090173158361
 20
0.3550300168857881
 30
0.0
 11
1.653609017315836
 21
0.3550300168857881
 31
0.0
  0
LINE
  5
29D00
  8
0
 62
     0
 10
1.5257777777792609
 20
0.3550300168857881
 30
0.0
 11
1.526609017315836
 21
0.3550300168857881
 31
0.0
  0
LINE
  5
29D01
  8
0
 62
     0
 10
-1.4578909826841651
 20
0.3550300168857881
 30
0.0
 11
-1.397046923846375
 21
0.3550300168857881
 31
0.0
  0
LINE
  5
29D02
  8
0
 62
     0
 10
-1.5502985170246071
 20
0.3550300168857881
 30
0.0
 11
-1.5213909826841641
 21
0.3550300168857881
 31
0.0
  0
LINE
  5
29D03
  8
0
 62
     0
 10
1.844109017315831
 20
0.3550300168857881
 30
0.0
 11
1.9076090173158311
 21
0.3550300168857881
 31
0.0
  0
LINE
  5
29D04
  8
0
 62
     0
 10
-1.965890982684166
 20
0.3550300168857881
 30
0.0
 11
-1.902390982684167
 21
0.3550300168857881
 31
0.0
  0
LINE
  5
29D05
  8
0
 62
     0
 10
-2.0928909826841662
 20
0.3550300168857881
 30
0.0
 11
-2.0293909826841658
 21
0.3550300168857881
 31
0.0
  0
LINE
  5
29D06
  8
0
 62
     0
 10
2.4791090173158361
 20
0.3550300168857881
 30
0.0
 11
2.4999999999999991
 21
0.3550300168857881
 31
0.0
  0
LINE
  5
29D07
  8
0
 62
     0
 10
2.3521090173158372
 20
0.3550300168857881
 30
0.0
 11
2.4156090173158371
 21
0.3550300168857881
 31
0.0
  0
LINE
  5
29D08
  8
0
 62
     0
 10
-2.3468909826841671
 20
0.3550300168857881
 30
0.0
 11
-2.342111111106274
 21
0.3550300168857881
 31
0.0
  0
LINE
  5
29D09
  8
0
 62
     0
 10
-2.473890982684166
 20
0.3550300168857881
 30
0.0
 11
-2.4103909826841661
 21
0.3550300168857881
 31
0.0
  0
LINE
  5
29D0A
  8
0
 62
     0
 10
0.1296090173158337
 20
0.4185300168857875
 30
0.0
 11
0.1666633373356419
 21
0.4185300168857875
 31
0.0
  0
LINE
  5
29D0B
  8
0
 62
     0
 10
-0.1243909826841676
 20
0.4185300168857875
 30
0.0
 11
-0.0608909826841676
 21
0.4185300168857875
 31
0.0
  0
LINE
  5
29D0C
  8
0
 62
     0
 10
-0.2130719549415012
 20
0.4185300168857875
 30
0.0
 11
-0.1878909826841676
 21
0.4185300168857875
 31
0.0
  0
LINE
  5
29D0D
  8
0
 62
     0
 10
0.8916090173158316
 20
0.4185300168857875
 30
0.0
 11
0.9157777777793612
 21
0.4185300168857875
 31
0.0
  0
LINE
  5
29D0E
  8
0
 62
     0
 10
0.7646090173158318
 20
0.4185300168857875
 30
0.0
 11
0.8281090173158316
 21
0.4185300168857875
 31
0.0
  0
LINE
  5
29D0F
  8
0
 62
     0
 10
-0.6323909826841668
 20
0.4185300168857875
 30
0.0
 11
-0.6304785105161203
 21
0.4185300168857875
 31
0.0
  0
LINE
  5
29D10
  8
0
 62
     0
 10
-0.7115214894775406
 20
0.4185300168857875
 30
0.0
 11
-0.6958909826841668
 21
0.4185300168857875
 31
0.0
  0
LINE
  5
29D11
  8
0
 62
     0
 10
1.1456090173158331
 20
0.4185300168857875
 30
0.0
 11
1.1757777777792631
 21
0.4185300168857875
 31
0.0
  0
LINE
  5
29D12
  8
0
 62
     0
 10
1.0186090173158331
 20
0.4185300168857875
 30
0.0
 11
1.082109017315833
 21
0.4185300168857875
 31
0.0
  0
LINE
  5
29D13
  8
0
 62
     0
 10
-1.1403909826841641
 20
0.4185300168857875
 30
0.0
 11
-1.1290242001331019
 21
0.4185300168857875
 31
0.0
  0
LINE
  5
29D14
  8
0
 62
     0
 10
-1.2673909826841641
 20
0.4185300168857875
 30
0.0
 11
-1.2038909826841639
 21
0.4185300168857875
 31
0.0
  0
LINE
  5
29D15
  8
0
 62
     0
 10
1.653609017315832
 20
0.4185300168857875
 30
0.0
 11
1.6857777777792571
 21
0.4185300168857875
 31
0.0
  0
LINE
  5
29D16
  8
0
 62
     0
 10
1.526609017315832
 20
0.4185300168857875
 30
0.0
 11
1.5901090173158321
 21
0.4185300168857875
 31
0.0
  0
LINE
  5
29D17
  8
0
 62
     0
 10
-1.5213909826841689
 20
0.4185300168857875
 30
0.0
 11
-1.4578909826841691
 21
0.4185300168857875
 31
0.0
  0
LINE
  5
29D18
  8
0
 62
     0
 10
1.7894444444451481
 20
0.4185300168857875
 30
0.0
 11
1.844109017315835
 21
0.4185300168857875
 31
0.0
  0
LINE
  5
29D19
  8
0
 62
     0
 10
-1.9023909826841621
 20
0.4185300168857875
 30
0.0
 11
-1.849908732194979
 21
0.4185300168857875
 31
0.0
  0
LINE
  5
29D1A
  8
0
 62
     0
 10
-2.029390982684161
 20
0.4185300168857875
 30
0.0
 11
-1.9658909826841611
 21
0.4185300168857875
 31
0.0
  0
LINE
  5
29D1B
  8
0
 62
     0
 10
2.415609017315834
 20
0.4185300168857875
 30
0.0
 11
2.4791090173158339
 21
0.4185300168857875
 31
0.0
  0
LINE
  5
29D1C
  8
0
 62
     0
 10
2.3421111111112651
 20
0.4185300168857875
 30
0.0
 11
2.3521090173158341
 21
0.4185300168857875
 31
0.0
  0
LINE
  5
29D1D
  8
0
 62
     0
 10
-2.4103909826841621
 20
0.4185300168857875
 30
0.0
 11
-2.3468909826841622
 21
0.4185300168857875
 31
0.0
  0
LINE
  5
29D1E
  8
0
 62
     0
 10
-2.4999999999950009
 20
0.4185300168857875
 30
0.0
 11
-2.4738909826841611
 21
0.4185300168857875
 31
0.0
  0
LINE
  5
29D1F
  8
0
 62
     0
 10
0.0986311148422878
 20
0.482030016885787
 30
0.0
 11
0.1296090173158279
 21
0.482030016885787
 31
0.0
  0
LINE
  5
29D20
  8
0
 62
     0
 10
-0.0608909826841735
 20
0.482030016885787
 30
0.0
 11
-0.0206784706640519
 21
0.482030016885787
 31
0.0
  0
LINE
  5
29D21
  8
0
 62
     0
 10
-0.1863421071269897
 20
0.482030016885787
 30
0.0
 11
-0.1243909826841735
 21
0.482030016885787
 31
0.0
  0
LINE
  5
29D22
  8
0
 62
     0
 10
0.8281090173158293
 20
0.482030016885787
 30
0.0
 11
0.8916090173158293
 21
0.482030016885787
 31
0.0
  0
LINE
  5
29D23
  8
0
 62
     0
 10
0.7557777777793647
 20
0.482030016885787
 30
0.0
 11
0.7646090173158294
 21
0.482030016885787
 31
0.0
  0
LINE
  5
29D24
  8
0
 62
     0
 10
-0.6876479650849383
 20
0.482030016885787
 30
0.0
 11
-0.6543520349087295
 21
0.482030016885787
 31
0.0
  0
LINE
  5
29D25
  8
0
 62
     0
 10
1.082109017315823
 20
0.482030016885787
 30
0.0
 11
1.1456090173158231
 21
0.482030016885787
 31
0.0
  0
LINE
  5
29D26
  8
0
 62
     0
 10
1.0157777777792589
 20
0.482030016885787
 30
0.0
 11
1.0186090173158231
 21
0.482030016885787
 31
0.0
  0
LINE
  5
29D27
  8
0
 62
     0
 10
-1.2038909826841671
 20
0.482030016885787
 30
0.0
 11
-1.155765705098865
 21
0.482030016885787
 31
0.0
  0
LINE
  5
29D28
  8
0
 62
     0
 10
-1.3214326404407251
 20
0.482030016885787
 30
0.0
 11
-1.2673909826841669
 21
0.482030016885787
 31
0.0
  0
LINE
  5
29D29
  8
0
 62
     0
 10
1.590109017315829
 20
0.482030016885787
 30
0.0
 11
1.6536090173158291
 21
0.482030016885787
 31
0.0
  0
LINE
  5
29D2A
  8
0
 62
     0
 10
1.5257777777792609
 20
0.482030016885787
 30
0.0
 11
1.5266090173158291
 21
0.482030016885787
 31
0.0
  0
LINE
  5
29D2B
  8
0
 62
     0
 10
-1.4578909826841679
 20
0.482030016885787
 30
0.0
 11
-1.4538582571797001
 21
0.482030016885787
 31
0.0
  0
LINE
  5
29D2C
  8
0
 62
     0
 10
-1.8388909826841671
 20
0.482030016885787
 30
0.0
 11
-1.799490243979079
 21
0.482030016885787
 31
0.0
  0
LINE
  5
29D2D
  8
0
 62
     0
 10
-1.9658909826841671
 20
0.482030016885787
 30
0.0
 11
-1.902390982684167
 21
0.482030016885787
 31
0.0
  0
LINE
  5
29D2E
  8
0
 62
     0
 10
2.479109017315829
 20
0.482030016885787
 30
0.0
 11
2.4999999999999991
 21
0.482030016885787
 31
0.0
  0
LINE
  5
29D2F
  8
0
 62
     0
 10
2.3521090173158301
 20
0.482030016885787
 30
0.0
 11
2.4156090173158291
 21
0.482030016885787
 31
0.0
  0
LINE
  5
29D30
  8
0
 62
     0
 10
-2.3468909826841742
 20
0.482030016885787
 30
0.0
 11
-2.342111111106274
 21
0.482030016885787
 31
0.0
  0
LINE
  5
29D31
  8
0
 62
     0
 10
-2.4738909826841731
 20
0.482030016885787
 30
0.0
 11
-2.4103909826841741
 21
0.482030016885787
 31
0.0
  0
ENDBLK
  5
29D33
  8
0
  0
BLOCK
  8
0
  2
*U62
 70
     1
 10
0.0
 20
0.0
 30
0.0
  3
*U62
  1

  0
LINE
  5
29D3A
  8
0
 10
0.0000279214028041
 20
3.999980519329938
 30
0.0
 11
-0.0000279216747714
 21
-4.000019480496916
 31
0.0
  0
LINE
  5
29D3B
  8
0
 10
-0.2999720785850997
 20
3.9999833114837879
 30
0.0
 11
0.0000279214028041
 21
3.999980519329938
 31
0.0
  0
LINE
  5
29D3C
  8
0
 10
-0.3000279216625614
 20
-4.0000166883430657
 30
0.0
 11
-0.0000279216747714
 21
-4.000019480496916
 31
0.0
  0
LINE
  5
29D3D
  8
0
 10
-0.2999720785850997
 20
3.9999833114837879
 30
0.0
 11
-2.2999767321368831
 21
2.0000019257995509
 31
0.0
  0
LINE
  5
29D3E
  8
0
 10
-0.3000279216625614
 20
-4.0000166883430657
 30
0.0
 11
-2.300032575301131
 21
-1.99999807385393
 31
0.0
  0
LINE
  5
29D3F
  8
0
 10
-9.6499860384565732
 20
2.0002105293485779
 30
0.0
 11
-2.2999767321368831
 21
2.0000019257995509
 31
0.0
  0
LINE
  5
29D40
  8
0
 10
-9.6500139599953059
 20
-1.999789470564223
 30
0.0
 11
-2.300032575301131
 21
-1.99999807385393
 31
0.0
  0
LINE
  5
29D41
  8
0
 10
-9.9999884815810276
 20
1.6502131988713691
 30
0.0
 11
-9.6499860384565732
 21
2.0002105293485779
 31
0.0
  0
LINE
  5
29D42
  8
0
 10
-10.00001151685049
 20
-1.649786801059008
 30
0.0
 11
-9.6500139599953059
 21
-1.999789470564223
 31
0.0
  0
LINE
  5
29D43
  8
0
 10
-9.9999884815810276
 20
1.6502131988713691
 30
0.0
 11
-10.00001151685049
 21
-1.649786801059008
 31
0.0
  0
ENDBLK
  5
29D45
  8
0
  0
BLOCK
  8
0
  2
*U63
 70
     1
 10
0.0
 20
0.0
 30
0.0
  3
*U63
  1

  0
LINE
  5
29D47
  8
0
 10
-11.650013959962349
 20
-1.9997847496487109
 30
0.0
 11
-2.3000325752681761
 21
-1.9999933529384171
 31
0.0
  0
LINE
  5
29D48
  8
0
 10
-0.3000279216296064
 20
-4.0000119674275529
 30
0.0
 11
-2.3000325752681761
 21
-1.9999933529384171
 31
0.0
  0
LINE
  5
29D49
  8
0
 10
-12.00001151681753
 20
-1.649782080143495
 30
0.0
 11
-11.650013959962349
 21
-1.9997847496487109
 31
0.0
  0
LINE
  5
29D4A
  8
0
 10
-0.3000279216296064
 20
-4.0000119674275529
 30
0.0
 11
-0.0000279216418164
 21
-4.0000147595814042
 31
0.0
  0
LINE
  5
29D4B
  8
0
 10
-11.999988481548071
 20
1.650217919786882
 30
0.0
 11
-12.00001151681753
 21
-1.649782080143495
 31
0.0
  0
LINE
  5
29D4C
  8
0
 10
0.000027921435759
 20
3.9999852402454499
 30
0.0
 11
-0.0000279216418164
 21
-4.0000147595814042
 31
0.0
  0
LINE
  5
29D4D
  8
0
 10
-11.999988481548071
 20
1.650217919786882
 30
0.0
 11
-11.64998603842362
 21
2.0002152502640911
 31
0.0
  0
LINE
  5
29D4E
  8
0
 10
-0.2999720785521447
 20
3.9999880323993011
 30
0.0
 11
0.000027921435759
 21
3.9999852402454499
 31
0.0
  0
LINE
  5
29D4F
  8
0
 10
-11.64998603842362
 20
2.0002152502640911
 30
0.0
 11
-2.2999767321039282
 21
2.0000066467150641
 31
0.0
  0
LINE
  5
29D50
  8
0
 10
-0.2999720785521447
 20
3.9999880323993011
 30
0.0
 11
-2.2999767321039282
 21
2.0000066467150641
 31
0.0
  0
ENDBLK
  5
29D52
  8
0
  0
BLOCK
  8
0
  2
*U64
 70
     1
 10
0.0
 20
0.0
 30
0.0
  3
*U64
  1

  0
ARC
  5
29D54
  8
0
 10
-3.5
 20
13.49999999999997
 30
0.0
 40
2.5
 50
0.0
 51
90.0
  0
LINE
  5
29D55
  8
0
 10
-1.0
 20
13.49999999999997
 30
0.0
 11
-1.000000000000028
 21
0.0
 31
0.0
  0
LINE
  5
29D56
  8
0
 10
-49.000000000000028
 20
15.99999999999997
 30
0.0
 11
-3.5
 21
15.99999999999997
 31
0.0
  0
LINE
  5
29D57
  8
0
 10
-1.000000000000028
 20
0.0
 30
0.0
 11
1.0
 21
0.0
 31
0.0
  0
LINE
  5
29D58
  8
0
 10
-49.0
 20
17.999999999999972
 30
0.0
 11
-49.000000000000028
 21
15.99999999999997
 31
0.0
  0
LINE
  5
29D59
  8
0
 10
1.0
 20
13.49999999999997
 30
0.0
 11
1.0
 21
0.0
 31
0.0
  0
LINE
  5
29D5A
  8
0
 10
-49.0
 20
17.999999999999972
 30
0.0
 11
-3.5
 21
17.999999999999972
 31
0.0
  0
ARC
  5
29D5B
  8
0
 10
-3.5
 20
13.49999999999997
 30
0.0
 40
4.5
 50
0.0
 51
90.0
  0
ENDBLK
  5
29D5D
  8
0
  0
BLOCK
  8
0
  2
*U65
 70
     1
 10
0.0
 20
0.0
 30
0.0
  3
*U65
  1

  0
LINE
  5
29D5F
  8
0
 10
-19.649999999999981
 20
2.0
 30
0.0
 11
-0.0000000000000284
 21
2.0
 31
0.0
  0
LINE
  5
29D60
  8
0
 10
-19.649999999999981
 20
2.0
 30
0.0
 11
-20.0
 21
1.649999999999977
 31
0.0
  0
LINE
  5
29D61
  8
0
 10
0.0
 20
3.4999999999999432
 30
0.0
 11
-0.0000000000000284
 21
2.0
 31
0.0
  0
LINE
  5
29D62
  8
0
 10
-20.0
 20
1.649999999999977
 30
0.0
 11
-20.0
 21
-1.6499999999998629
 31
0.0
  0
LINE
  5
29D63
  8
0
 10
0.0
 20
3.4999999999999432
 30
0.0
 11
0.5999999999999375
 21
3.4999999999999432
 31
0.0
  0
LINE
  5
29D64
  8
0
 10
-20.0
 20
-1.6499999999998629
 30
0.0
 11
-19.649999999999981
 21
-2.0
 31
0.0
  0
ARC
  5
29D65
  8
0
 10
0.5999999999999944
 20
1.4999999999999429
 30
0.0
 40
2.0
 50
0.0
 51
90.000000000001606
  0
LINE
  5
29D66
  8
0
 10
-19.649999999999981
 20
-2.0
 30
0.0
 11
0.0000000000000568
 21
-2.0
 31
0.0
  0
LINE
  5
29D67
  8
0
 10
2.5999999999999939
 20
1.4999999999999429
 30
0.0
 11
2.5999999999999939
 21
-1.5
 31
0.0
  0
LINE
  5
29D68
  8
0
 10
0.0000000000000568
 20
-2.0
 30
0.0
 11
0.0
 21
-3.5
 31
0.0
  0
ARC
  5
29D69
  8
0
 10
0.5999999999999944
 20
-1.5
 30
0.0
 40
2.0
 50
270.0
 51
0.0
  0
LINE
  5
29D6A
  8
0
 10
0.0
 20
-3.5
 30
0.0
 11
0.5999999999999944
 21
-3.5
 31
0.0
  0
ENDBLK
  5
29D6C
  8
0
  0
BLOCK
  8
0
  2
*U66
 70
     1
 10
0.0
 20
0.0
 30
0.0
  3
*U66
  1

  0
LINE
  5
29D6E
  8
0
 10
-0.0000093071795959
 20
-4.0
 30
0.0
 11
0.0000093071795959
 21
4.0
 31
0.0
  0
LINE
  5
29D6F
  8
0
 10
-0.2999906928214955
 20
4.0
 30
0.0
 11
0.0000093071795959
 21
4.0
 31
0.0
  0
LINE
  5
29D70
  8
0
 10
-0.3000093071805736
 20
-4.0
 30
0.0
 11
-0.0000093071795959
 21
-4.0
 31
0.0
  0
LINE
  5
29D71
  8
0
 10
-0.2999906928214955
 20
4.0
 30
0.0
 11
-2.8000197779268201
 21
1.5
 31
0.0
  0
LINE
  5
29D72
  8
0
 10
-0.3000093071805736
 20
-4.0
 30
0.0
 11
-2.799991856279632
 21
-1.5
 31
0.0
  0
LINE
  5
29D73
  8
0
 10
-14.69999650980861
 20
1.5
 30
0.0
 11
-2.8000197779268201
 21
1.5
 31
0.0
  0
LINE
  5
29D74
  8
0
 10
-14.700003490193289
 20
-1.5
 30
0.0
 11
-2.799991856279632
 21
-1.5
 31
0.0
  0
LINE
  5
29D75
  8
0
 10
-20.000000000054168
 20
0.0
 30
0.0
 11
-14.69999650980861
 21
1.5
 31
0.0
  0
LINE
  5
29D76
  8
0
 10
-20.000000000054168
 20
0.0
 30
0.0
 11
-14.700003490193289
 21
-1.5
 31
0.0
  0
ENDBLK
  5
29D78
  8
0
  0
BLOCK
  8
0
  2
*U67
 70
     1
 10
0.0
 20
0.0
 30
0.0
  3
*U67
  1

  0
LINE
  5
29D7A
  8
0
 10
-0.0000081437821429
 20
-3.4999999999998859
 30
0.0
 11
-0.0000034900840689
 21
-1.499953464101849
 31
0.0
  0
LINE
  5
29D7B
  8
0
 10
-0.0000081437821429
 20
-3.4999999999998859
 30
0.0
 11
1.0999953464131771
 21
-3.5
 31
0.0
  0
LINE
  5
29D7C
  8
0
 10
-14.70000348997673
 20
-1.4999534641020771
 30
0.0
 11
-0.0000034900840689
 21
-1.499953464101849
 31
0.0
  0
ARC
  5
29D7D
  8
0
 10
1.0999953464131771
 20
-2.0
 30
0.0
 40
1.5
 50
270.0
 51
359.99986668447059
  0
LINE
  5
29D7E
  8
0
 10
-19.999999999837598
 20
0.0000465358979227
 30
0.0
 11
-14.70000348997673
 21
-1.4999534641020771
 31
0.0
  0
LINE
  5
29D7F
  8
0
 10
2.5999953464091119
 20
-2.0000034901923982
 30
0.0
 11
2.6000046535887118
 21
1.9999965098076009
 31
0.0
  0
LINE
  5
29D80
  8
0
 10
-19.999999999837598
 20
0.0000465358979227
 30
0.0
 11
-14.69999650959204
 21
1.500046535897922
 31
0.0
  0
ARC
  5
29D81
  8
0
 10
1.1000046535927721
 20
2.0
 30
0.0
 40
1.5
 50
359.99986668447059
 51
90.0
  0
LINE
  5
29D82
  8
0
 10
-14.69999650959204
 20
1.500046535897922
 30
0.0
 11
0.0000034903006245
 21
1.500046535897809
 31
0.0
  0
LINE
  5
29D83
  8
0
 10
0.0000081437821358
 20
3.5
 30
0.0
 11
1.1000046535927721
 21
3.5
 31
0.0
  0
LINE
  5
29D84
  8
0
 10
0.0000034903006245
 20
1.500046535897809
 30
0.0
 11
0.0000081437821358
 21
3.5
 31
0.0
  0
ENDBLK
  5
29D86
  8
0
  0
BLOCK
  8
0
  2
*U68
 70
     1
 10
0.0
 20
0.0
 30
0.0
  3
*U68
  1

  0
LINE
  5
29D88
  8
0
 10
-34.649999999999977
 20
2.0
 30
0.0
 11
-0.0000000000000284
 21
2.0
 31
0.0
  0
LINE
  5
29D89
  8
0
 10
-34.649999999999977
 20
2.0
 30
0.0
 11
-35.0
 21
1.649999999999977
 31
0.0
  0
LINE
  5
29D8A
  8
0
 10
0.0
 20
3.4999999999999432
 30
0.0
 11
-0.0000000000000284
 21
2.0
 31
0.0
  0
LINE
  5
29D8B
  8
0
 10
-35.0
 20
1.649999999999977
 30
0.0
 11
-35.0
 21
-1.6499999999998629
 31
0.0
  0
LINE
  5
29D8C
  8
0
 10
0.0
 20
3.4999999999999432
 30
0.0
 11
0.5999999999999375
 21
3.4999999999999432
 31
0.0
  0
LINE
  5
29D8D
  8
0
 10
-35.0
 20
-1.6499999999998629
 30
0.0
 11
-34.649999999999977
 21
-2.0
 31
0.0
  0
ARC
  5
29D8E
  8
0
 10
0.5999999999999944
 20
1.4999999999999429
 30
0.0
 40
2.0
 50
0.0
 51
90.000000000001606
  0
LINE
  5
29D8F
  8
0
 10
-34.649999999999977
 20
-2.0
 30
0.0
 11
0.0000000000000568
 21
-2.0
 31
0.0
  0
LINE
  5
29D90
  8
0
 10
2.5999999999999939
 20
1.4999999999999429
 30
0.0
 11
2.5999999999999939
 21
-1.5
 31
0.0
  0
LINE
  5
29D91
  8
0
 10
0.0000000000000568
 20
-2.0
 30
0.0
 11
0.0
 21
-3.5
 31
0.0
  0
ARC
  5
29D92
  8
0
 10
0.5999999999999944
 20
-1.5
 30
0.0
 40
2.0
 50
270.0
 51
0.0
  0
LINE
  5
29D93
  8
0
 10
0.0
 20
-3.5
 30
0.0
 11
0.5999999999999944
 21
-3.5
 31
0.0
  0
ENDBLK
  5
29D95
  8
0
  0
BLOCK
  8
0
  2
*X69
 70
     1
 10
0.0
 20
0.0
 30
0.0
  3
*X69
  1

  0
LINE
  5
29D97
  8
0
 62
     0
 10
51.813954174406462
 20
21.000000000000028
 30
0.0
 11
52.500000000000057
 21
21.68604582559362
 31
0.0
  0
LINE
  5
29D98
  8
0
 62
     0
 10
49.568890144139118
 20
21.0
 30
0.0
 11
52.500000000000057
 21
23.931109855860939
 31
0.0
  0
LINE
  5
29D99
  8
0
 62
     0
 10
47.32382611387186
 20
21.000000000000028
 30
0.0
 11
52.500000000000057
 21
26.176173886128229
 31
0.0
  0
LINE
  5
29D9A
  8
0
 62
     0
 10
45.078762083604573
 20
21.0
 30
0.0
 11
50.328762083604573
 21
26.25
 31
0.0
  0
LINE
  5
29D9B
  8
0
 62
     0
 10
42.833698053337287
 20
21.000000000000028
 30
0.0
 11
48.083698053337287
 21
26.250000000000028
 31
0.0
  0
LINE
  5
29D9C
  8
0
 62
     0
 10
40.588634023069972
 20
21.000000000000028
 30
0.0
 11
45.83863402307
 21
26.25000000000006
 31
0.0
  0
LINE
  5
29D9D
  8
0
 62
     0
 10
38.34356999280272
 20
21.000000000000028
 30
0.0
 11
43.593569992802713
 21
26.250000000000028
 31
0.0
  0
LINE
  5
29D9E
  8
0
 62
     0
 10
36.09850596253537
 20
20.999999999999972
 30
0.0
 11
41.34850596253542
 21
26.250000000000028
 31
0.0
  0
LINE
  5
29D9F
  8
0
 62
     0
 10
33.85344193226809
 20
21.0
 30
0.0
 11
39.10344193226809
 21
26.25
 31
0.0
  0
LINE
  5
29DA0
  8
0
 62
     0
 10
31.608377902000829
 20
21.000000000000028
 30
0.0
 11
36.858377902000882
 21
26.250000000000089
 31
0.0
  0
LINE
  5
29DA1
  8
0
 62
     0
 10
29.363313871733538
 20
21.0
 30
0.0
 11
34.613313871733588
 21
26.250000000000028
 31
0.0
  0
LINE
  5
29DA2
  8
0
 62
     0
 10
27.118249841466248
 20
21.0
 30
0.0
 11
32.368249841466309
 21
26.250000000000028
 31
0.0
  0
LINE
  5
29DA3
  8
0
 62
     0
 10
26.250000000000028
 20
22.376814188801092
 30
0.0
 11
30.123185811199019
 21
26.250000000000089
 31
0.0
  0
LINE
  5
29DA4
  8
0
 62
     0
 10
24.87318581119894
 20
21.0
 30
0.0
 11
26.25
 21
22.37681418880106
 31
0.0
  0
LINE
  5
29DA5
  8
0
 62
     0
 10
26.25000000000006
 20
24.62187821906841
 30
0.0
 11
27.878121780931711
 21
26.25000000000006
 31
0.0
  0
LINE
  5
29DA6
  8
0
 62
     0
 10
22.628121780931679
 20
21.000000000000028
 30
0.0
 11
26.25
 21
24.621878219068321
 31
0.0
  0
LINE
  5
29DA7
  8
0
 62
     0
 10
20.38305775066442
 20
21.000000000000028
 30
0.0
 11
25.633057750664449
 21
26.25000000000006
 31
0.0
  0
LINE
  5
29DA8
  8
0
 62
     0
 10
18.13799372039708
 20
20.999999999999972
 30
0.0
 11
23.38799372039713
 21
26.250000000000028
 31
0.0
  0
LINE
  5
29DA9
  8
0
 62
     0
 10
15.89292969012979
 20
21.0
 30
0.0
 11
21.142929690129851
 21
26.25000000000006
 31
0.0
  0
LINE
  5
29DAA
  8
0
 62
     0
 10
13.64786565986253
 20
21.000000000000028
 30
0.0
 11
18.897865659862589
 21
26.250000000000089
 31
0.0
  0
LINE
  5
29DAB
  8
0
 62
     0
 10
11.40280162959524
 20
21.0
 30
0.0
 11
16.652801629595299
 21
26.25000000000006
 31
0.0
  0
LINE
  5
29DAC
  8
0
 62
     0
 10
9.1577375993279588
 20
21.000000000000028
 30
0.0
 11
14.40773759932801
 21
26.250000000000089
 31
0.0
  0
LINE
  5
29DAD
  8
0
 62
     0
 10
6.9126735690606429
 20
21.000000000000028
 30
0.0
 11
12.16267356906064
 21
26.250000000000028
 31
0.0
  0
LINE
  5
29DAE
  8
0
 62
     0
 10
4.6676095387933847
 20
21.000000000000028
 30
0.0
 11
9.9176095387933856
 21
26.250000000000028
 31
0.0
  0
LINE
  5
29DAF
  8
0
 62
     0
 10
2.4225455085261269
 20
21.000000000000028
 30
0.0
 11
7.6725455085261274
 21
26.250000000000028
 31
0.0
  0
LINE
  5
29DB0
  8
0
 62
     0
 10
0.1774814782588123
 20
21.000000000000028
 30
0.0
 11
5.4274814782588123
 21
26.250000000000028
 31
0.0
  0
LINE
  5
29DB1
  8
0
 62
     0
 10
0.0
 20
23.067582552008531
 30
0.0
 11
3.1824174479914968
 21
26.250000000000028
 31
0.0
  0
LINE
  5
29DB2
  8
0
 62
     0
 10
0.0000000000000284
 20
25.312646582275821
 30
0.0
 11
0.937353417724239
 21
26.250000000000028
 31
0.0
  0
ENDBLK
  5
29DB4
  8
0
  0
BLOCK
  8
0
  2
*X70
 70
     1
 10
0.0
 20
0.0
 30
0.0
  3
*X70
  1

  0
LINE
  5
29DB6
  8
0
 62
     0
 10
51.813954174406462
 20
15.75000000000003
 30
0.0
 11
52.500000000000057
 21
16.43604582559362
 31
0.0
  0
LINE
  5
29DB7
  8
0
 62
     0
 10
49.568890144139118
 20
15.75
 30
0.0
 11
52.500000000000057
 21
18.681109855860939
 31
0.0
  0
LINE
  5
29DB8
  8
0
 62
     0
 10
47.32382611387186
 20
15.75000000000003
 30
0.0
 11
52.500000000000057
 21
20.926173886128218
 31
0.0
  0
LINE
  5
29DB9
  8
0
 62
     0
 10
45.078762083604573
 20
15.75
 30
0.0
 11
50.328762083604573
 21
21.0
 31
0.0
  0
LINE
  5
29DBA
  8
0
 62
     0
 10
42.833698053337287
 20
15.75000000000003
 30
0.0
 11
48.083698053337287
 21
21.000000000000028
 31
0.0
  0
LINE
  5
29DBB
  8
0
 62
     0
 10
40.588634023069972
 20
15.75000000000003
 30
0.0
 11
45.83863402307
 21
21.00000000000006
 31
0.0
  0
LINE
  5
29DBC
  8
0
 62
     0
 10
38.34356999280272
 20
15.75000000000003
 30
0.0
 11
43.593569992802713
 21
21.000000000000028
 31
0.0
  0
LINE
  5
29DBD
  8
0
 62
     0
 10
36.09850596253537
 20
15.74999999999997
 30
0.0
 11
41.34850596253542
 21
21.000000000000028
 31
0.0
  0
LINE
  5
29DBE
  8
0
 62
     0
 10
33.85344193226809
 20
15.75
 30
0.0
 11
39.10344193226809
 21
21.0
 31
0.0
  0
LINE
  5
29DBF
  8
0
 62
     0
 10
31.608377902000829
 20
15.75000000000003
 30
0.0
 11
36.858377902000882
 21
21.000000000000082
 31
0.0
  0
LINE
  5
29DC0
  8
0
 62
     0
 10
29.363313871733538
 20
15.75
 30
0.0
 11
34.613313871733588
 21
21.000000000000028
 31
0.0
  0
LINE
  5
29DC1
  8
0
 62
     0
 10
27.118249841466248
 20
15.75
 30
0.0
 11
32.368249841466309
 21
21.000000000000028
 31
0.0
  0
LINE
  5
29DC2
  8
0
 62
     0
 10
26.250000000000028
 20
17.126814188801092
 30
0.0
 11
30.123185811199019
 21
21.000000000000082
 31
0.0
  0
LINE
  5
29DC3
  8
0
 62
     0
 10
24.87318581119894
 20
15.75
 30
0.0
 11
26.25
 21
17.12681418880106
 31
0.0
  0
LINE
  5
29DC4
  8
0
 62
     0
 10
26.25000000000006
 20
19.37187821906841
 30
0.0
 11
27.878121780931711
 21
21.00000000000006
 31
0.0
  0
LINE
  5
29DC5
  8
0
 62
     0
 10
22.628121780931679
 20
15.75000000000003
 30
0.0
 11
26.25
 21
19.371878219068321
 31
0.0
  0
LINE
  5
29DC6
  8
0
 62
     0
 10
20.38305775066442
 20
15.75000000000003
 30
0.0
 11
25.633057750664449
 21
21.00000000000006
 31
0.0
  0
LINE
  5
29DC7
  8
0
 62
     0
 10
18.13799372039708
 20
15.74999999999997
 30
0.0
 11
23.38799372039713
 21
21.000000000000028
 31
0.0
  0
LINE
  5
29DC8
  8
0
 62
     0
 10
15.89292969012979
 20
15.75
 30
0.0
 11
21.142929690129851
 21
21.00000000000006
 31
0.0
  0
LINE
  5
29DC9
  8
0
 62
     0
 10
13.64786565986253
 20
15.75000000000003
 30
0.0
 11
18.897865659862589
 21
21.000000000000082
 31
0.0
  0
LINE
  5
29DCA
  8
0
 62
     0
 10
11.40280162959524
 20
15.75
 30
0.0
 11
16.652801629595299
 21
21.00000000000006
 31
0.0
  0
LINE
  5
29DCB
  8
0
 62
     0
 10
9.1577375993279304
 20
15.75
 30
0.0
 11
14.40773759932801
 21
21.000000000000082
 31
0.0
  0
LINE
  5
29DCC
  8
0
 62
     0
 10
6.9126735690606429
 20
15.75000000000003
 30
0.0
 11
12.16267356906064
 21
21.000000000000028
 31
0.0
  0
LINE
  5
29DCD
  8
0
 62
     0
 10
4.6676095387933847
 20
15.75000000000003
 30
0.0
 11
9.9176095387933856
 21
21.000000000000028
 31
0.0
  0
LINE
  5
29DCE
  8
0
 62
     0
 10
2.4225455085260981
 20
15.75
 30
0.0
 11
7.6725455085261274
 21
21.000000000000028
 31
0.0
  0
LINE
  5
29DCF
  8
0
 62
     0
 10
0.1774814782587839
 20
15.75
 30
0.0
 11
5.4274814782588123
 21
21.000000000000028
 31
0.0
  0
LINE
  5
29DD0
  8
0
 62
     0
 10
0.0
 20
17.817582552008531
 30
0.0
 11
3.1824174479914968
 21
21.000000000000028
 31
0.0
  0
LINE
  5
29DD1
  8
0
 62
     0
 10
0.0000000000000284
 20
20.062646582275821
 30
0.0
 11
0.937353417724239
 21
21.000000000000028
 31
0.0
  0
ENDBLK
  5
29DD3
  8
0
  0
BLOCK
  8
0
  2
*X71
 70
     1
 10
0.0
 20
0.0
 30
0.0
  3
*X71
  1

  0
LINE
  5
29DD5
  8
0
 62
     0
 10
51.813954174406462
 20
10.50000000000003
 30
0.0
 11
52.500000000000057
 21
11.18604582559362
 31
0.0
  0
LINE
  5
29DD6
  8
0
 62
     0
 10
49.568890144139118
 20
10.5
 30
0.0
 11
52.500000000000057
 21
13.431109855860941
 31
0.0
  0
LINE
  5
29DD7
  8
0
 62
     0
 10
47.32382611387186
 20
10.50000000000003
 30
0.0
 11
52.500000000000057
 21
15.67617388612822
 31
0.0
  0
LINE
  5
29DD8
  8
0
 62
     0
 10
45.078762083604573
 20
10.5
 30
0.0
 11
50.328762083604573
 21
15.75
 31
0.0
  0
LINE
  5
29DD9
  8
0
 62
     0
 10
42.833698053337287
 20
10.50000000000003
 30
0.0
 11
48.083698053337287
 21
15.75000000000003
 31
0.0
  0
LINE
  5
29DDA
  8
0
 62
     0
 10
40.588634023069972
 20
10.50000000000003
 30
0.0
 11
45.83863402307
 21
15.75000000000005
 31
0.0
  0
LINE
  5
29DDB
  8
0
 62
     0
 10
38.34356999280272
 20
10.50000000000003
 30
0.0
 11
43.593569992802713
 21
15.75000000000003
 31
0.0
  0
LINE
  5
29DDC
  8
0
 62
     0
 10
36.09850596253537
 20
10.49999999999997
 30
0.0
 11
41.34850596253542
 21
15.75000000000003
 31
0.0
  0
LINE
  5
29DDD
  8
0
 62
     0
 10
33.85344193226809
 20
10.5
 30
0.0
 11
39.10344193226809
 21
15.75
 31
0.0
  0
LINE
  5
29DDE
  8
0
 62
     0
 10
31.608377902000829
 20
10.50000000000003
 30
0.0
 11
36.858377902000882
 21
15.75000000000008
 31
0.0
  0
LINE
  5
29DDF
  8
0
 62
     0
 10
29.363313871733538
 20
10.5
 30
0.0
 11
34.613313871733588
 21
15.75000000000003
 31
0.0
  0
LINE
  5
29DE0
  8
0
 62
     0
 10
27.118249841466248
 20
10.5
 30
0.0
 11
32.368249841466309
 21
15.75000000000003
 31
0.0
  0
LINE
  5
29DE1
  8
0
 62
     0
 10
26.250000000000028
 20
11.87681418880109
 30
0.0
 11
30.123185811199019
 21
15.75000000000008
 31
0.0
  0
LINE
  5
29DE2
  8
0
 62
     0
 10
24.87318581119894
 20
10.5
 30
0.0
 11
26.25
 21
11.87681418880106
 31
0.0
  0
LINE
  5
29DE3
  8
0
 62
     0
 10
26.25000000000006
 20
14.1218782190684
 30
0.0
 11
27.878121780931711
 21
15.75000000000005
 31
0.0
  0
LINE
  5
29DE4
  8
0
 62
     0
 10
22.628121780931679
 20
10.50000000000003
 30
0.0
 11
26.25
 21
14.12187821906832
 31
0.0
  0
LINE
  5
29DE5
  8
0
 62
     0
 10
20.38305775066442
 20
10.50000000000003
 30
0.0
 11
25.633057750664449
 21
15.75000000000005
 31
0.0
  0
LINE
  5
29DE6
  8
0
 62
     0
 10
18.13799372039708
 20
10.49999999999997
 30
0.0
 11
23.38799372039713
 21
15.75000000000003
 31
0.0
  0
LINE
  5
29DE7
  8
0
 62
     0
 10
15.89292969012979
 20
10.5
 30
0.0
 11
21.142929690129851
 21
15.75000000000005
 31
0.0
  0
LINE
  5
29DE8
  8
0
 62
     0
 10
13.64786565986253
 20
10.50000000000003
 30
0.0
 11
18.897865659862589
 21
15.75000000000008
 31
0.0
  0
LINE
  5
29DE9
  8
0
 62
     0
 10
11.40280162959524
 20
10.5
 30
0.0
 11
16.652801629595299
 21
15.75000000000005
 31
0.0
  0
LINE
  5
29DEA
  8
0
 62
     0
 10
9.1577375993279304
 20
10.5
 30
0.0
 11
14.407737599327961
 21
15.75000000000003
 31
0.0
  0
LINE
  5
29DEB
  8
0
 62
     0
 10
6.9126735690606429
 20
10.50000000000003
 30
0.0
 11
12.16267356906064
 21
15.75000000000003
 31
0.0
  0
LINE
  5
29DEC
  8
0
 62
     0
 10
4.6676095387933847
 20
10.50000000000003
 30
0.0
 11
9.9176095387933856
 21
15.75000000000003
 31
0.0
  0
LINE
  5
29DED
  8
0
 62
     0
 10
2.4225455085260981
 20
10.5
 30
0.0
 11
7.6725455085260981
 21
15.75
 31
0.0
  0
LINE
  5
29DEE
  8
0
 62
     0
 10
0.1774814782587839
 20
10.5
 30
0.0
 11
5.427481478258783
 21
15.75
 31
0.0
  0
LINE
  5
29DEF
  8
0
 62
     0
 10
0.0
 20
12.56758255200856
 30
0.0
 11
3.1824174479914968
 21
15.75000000000003
 31
0.0
  0
LINE
  5
29DF0
  8
0
 62
     0
 10
0.0000000000000284
 20
14.81264658227582
 30
0.0
 11
0.9373534177242106
 21
15.75
 31
0.0
  0
ENDBLK
  5
29DF2
  8
0
  0
BLOCK
  8
0
  2
*U72
 70
     1
 10
0.0
 20
0.0
 30
0.0
  3
*U72
  1

  0
TEXT
  5
29DF5
  8
1TEXT
 10
-12.910080846821311
 20
-2.7876280255345751
 30
0.0
 40
6.0
  1
%%U手配図
  0
ENDBLK
  5
29DF7
  8
0
  0
BLOCK
  8
0
  2
*U73
 70
     1
 10
0.0
 20
0.0
 30
0.0
  3
*U73
  1

  0
TEXT
  5
29DF9
  8
1TEXT
 62
   201
 10
2259.4437639403909
 20
73.077763274939201
 30
0.0
 40
10.5
  1
20
  0
ENDBLK
  5
29DFB
  8
0
  0
BLOCK
  8
0
  2
*U74
 70
     1
 10
0.0
 20
0.0
 30
0.0
  3
*U74
  1

  0
TEXT
  5
29DFD
  8
1TEXT
 62
   201
 10
2399.7437639249588
 20
140.22776327493969
 30
0.0
 40
10.5
  1
110
 50
90.0
  0
ENDBLK
  5
29DFF
  8
0
  0
BLOCK
  8
0
  2
*U75
 70
     1
 10
0.0
 20
0.0
 30
0.0
  3
*U75
  1

  0
TEXT
  5
29E01
  8
1TEXT
 62
   201
 10
1771.843763940391
 20
43.077763274939208
 30
0.0
 40
10.5
  1
932
  0
ENDBLK
  5
29E03
  8
0
  0
BLOCK
  8
0
  2
*U76
 70
     1
 10
0.0
 20
0.0
 30
0.0
  3
*U76
  1

  0
TEXT
  5
29E05
  8
1TEXT
 62
   201
 10
1766.343763940391
 20
73.077763274939201
 30
0.0
 40
10.5
  1
P892
  0
ENDBLK
  5
29E07
  8
0
  0
BLOCK
  8
0
  2
*U77
 70
     1
 10
0.0
 20
0.0
 30
0.0
  3
*U77
  1

  0
TEXT
  5
29E09
  8
1TEXT
 62
   201
 10
1294.24376394039
 20
73.077763274939201
 30
0.0
 40
10.5
  1
20
  0
ENDBLK
  5
29E0B
  8
0
  0
BLOCK
  8
0
  2
*U78
 70
     1
 10
0.0
 20
0.0
 30
0.0
  3
*U78
  1

  0
TEXT
  5
29E10
  8
1TEXT
 62
   201
 10
1771.843763940391
 20
488.07776327493963
 30
0.0
 40
10.5
  1
900
  0
ENDBLK
  5
29E12
  8
0
  0
BLOCK
  8
0
  2
*U79
 70
     1
 10
0.0
 20
0.0
 30
0.0
  3
*U79
  1

  0
TEXT
  5
29E14
  8
1TEXT
 62
   201
 10
2340.7437639403911
 20
550.72776327493978
 30
0.0
 40
10.5
  1
29
 50
90.0
  0
ENDBLK
  5
29E16
  8
0
  0
BLOCK
  8
0
  2
*U80
 70
     1
 10
0.0
 20
0.0
 30
0.0
  3
*U80
  1

  0
TEXT
  5
29E18
  8
1TEXT
 62
   201
 10
2222.843763940391
 20
518.07776327493946
 30
0.0
 40
10.5
  1
40
  0
ENDBLK
  5
29E1A
  8
0
  0
BLOCK
  8
0
  2
*U81
 70
     1
 10
0.0
 20
0.0
 30
0.0
  3
*U81
  1

  0
TEXT
  5
29E1C
  8
1TEXT
 62
   201
 10
2310.7437639403911
 20
576.57776327493991
 30
0.0
 40
10.5
  1
P20
 50
90.0
  0
ENDBLK
  5
29E1E
  8
0
  0
BLOCK
  8
0
  2
*U82
 70
     1
 10
0.0
 20
0.0
 30
0.0
  3
*U82
  1

  0
TEXT
  5
29E20
  8
1TEXT
 62
   201
 10
2310.7437639403911
 20
248.4777632749396
 30
0.0
 40
10.5
  1
325
 50
90.0
  0
ENDBLK
  5
29E22
  8
0
  0
BLOCK
  8
0
  2
*U83
 70
     1
 10
0.0
 20
0.0
 30
0.0
  3
*U83
  1

  0
TEXT
  5
29E24
  8
1TEXT
 62
   201
 10
2280.7437639403911
 20
260.9777632749396
 30
0.0
 40
10.5
  1
300
 50
90.0
  0
ENDBLK
  5
29E26
  8
0
  0
BLOCK
  8
0
  2
*U84
 70
     1
 10
0.0
 20
0.0
 30
0.0
  3
*U84
  1

  0
TEXT
  5
29E28
  8
1TEXT
 62
   201
 10
2263.9437639403909
 20
488.07776327493963
 30
0.0
 40
10.5
  1
16
  0
ENDBLK
  5
29E2A
  8
0
  0
BLOCK
  8
0
  2
*U85
 70
     1
 10
0.0
 20
0.0
 30
0.0
  3
*U85
  1

  0
TEXT
  5
29E2C
  8
1TEXT
 62
   201
 10
1288.2437639403911
 20
488.07776327493963
 30
0.0
 40
10.5
  1
16
  0
ENDBLK
  5
29E2E
  8
0
  0
BLOCK
  8
0
  2
*U86
 70
     1
 10
0.0
 20
0.0
 30
0.0
  3
*U86
  1

  0
TEXT
  5
29E30
  8
1TEXT
 62
   201
 10
2374.4437639249591
 20
489.68545841493949
 30
0.0
 40
10.5
  1
t8
  0
ENDBLK
  5
29E32
  8
0
  0
ENDSEC
  0
SECTION
  2
ENTITIES
  0
LINE
  5
2950B
  8
01
 10
2252.843763940391
 20
100.97776327493941
 30
0.0
 11
2212.843763940391
 21
100.97776327493921
 31
0.0
  0
LINE
  5
2950C
  8
01
 10
2212.843763940391
 20
107.97776327493941
 30
0.0
 11
2252.843763940391
 21
107.97776327493921
 31
0.0
  0
LINE
  5
2950D
  8
01
 10
2252.843763940391
 20
107.97776327493941
 30
0.0
 11
2252.843763940391
 21
100.97776327493921
 31
0.0
  0
LINE
  5
2950E
  8
01
 10
2212.843763940391
 20
107.97776327493941
 30
0.0
 11
2212.843763940391
 21
100.97776327493921
 31
0.0
  0
LINE
  5
2950F
  8
01
 10
2252.843763940391
 20
209.97776327493901
 30
0.0
 11
2252.843763940391
 21
107.97776327493889
 31
0.0
  0
ARC
  5
29510
  8
01
 10
2251.843763940391
 20
209.97776327493901
 30
0.0
 40
1.0
 50
0.0
 51
90.0
  0
LINE
  5
29511
  8
01
 10
2212.843763940391
 20
123.97776327493921
 30
0.0
 11
2212.843763940391
 21
107.97776327493921
 31
0.0
  0
ARC
  5
29512
  8
01
  6
BYBLOCK
 10
2213.843763940391
 20
209.97776327493921
 30
0.0
 40
1.0
 50
90.0
 51
180.0
  0
LINE
  5
29513
  8
01
 10
2251.843763940391
 20
210.97776327493901
 30
0.0
 11
2238.843763940391
 21
210.97776327493921
 31
0.0
  0
LINE
  5
29514
  8
01
 10
2212.843763940391
 20
107.97776327493921
 30
0.0
 11
2252.843763940391
 21
107.97776327493921
 31
0.0
  0
LINE
  5
29515
  8
01
 10
1340.8458994601699
 20
76.420295320514015
 30
0.0
 11
1340.8458994601699
 21
117.1595789187249
 31
0.0
  0
LINE
  5
29516
  8
01
 10
1320.8437639403901
 20
100.97776327493941
 30
0.0
 11
1360.8437639403901
 21
100.97776327493921
 31
0.0
  0
LINE
  5
29517
  8
01
 10
1360.8437639403901
 20
107.97776327493941
 30
0.0
 11
1320.8437639403901
 21
107.97776327493921
 31
0.0
  0
LINE
  5
29518
  8
01
 10
1320.8437639403901
 20
107.97776327493941
 30
0.0
 11
1320.8437639403901
 21
100.97776327493921
 31
0.0
  0
LINE
  5
29519
  8
01
 10
1360.8437639403901
 20
107.97776327493941
 30
0.0
 11
1360.8437639403901
 21
100.97776327493921
 31
0.0
  0
LINE
  5
2951A
  8
01
 10
1320.843763940391
 20
209.97776327493901
 30
0.0
 11
1320.8437639403901
 21
107.97776327493889
 31
0.0
  0
ARC
  5
2951B
  8
01
 10
1321.843763940391
 20
209.97776327493901
 30
0.0
 40
1.0
 50
90.0
 51
180.0
  0
LINE
  5
2951C
  8
01
 10
1360.8437639403901
 20
123.97776327493921
 30
0.0
 11
1360.8437639403901
 21
107.97776327493921
 31
0.0
  0
ARC
  5
2951D
  8
01
  6
BYBLOCK
 10
1359.8437639403901
 20
209.97776327493921
 30
0.0
 40
1.0
 50
0.0
 51
90.0
  0
LINE
  5
2951E
  8
01
 10
1321.843763940391
 20
210.97776327493901
 30
0.0
 11
1334.843763940391
 21
210.97776327493921
 31
0.0
  0
LINE
  5
2951F
  8
01
 10
1360.8437639403901
 20
107.97776327493921
 30
0.0
 11
1320.843763940391
 21
107.97776327493921
 31
0.0
  0
LINE
  5
29520
  8
01
 10
2212.843763940391
 20
566.52776327493916
 30
0.0
 11
2238.843763940391
 21
566.52776327493916
 31
0.0
  0
LINE
  5
29521
  8
01
 10
2212.843763940391
 20
554.42776327493925
 30
0.0
 11
2238.843763940391
 21
554.42776327493925
 31
0.0
  0
LINE
  5
29522
  8
01
 10
2251.843763940391
 20
574.97776327493955
 30
0.0
 11
2213.843763940391
 21
574.97776327493955
 31
0.0
  0
ARC
  5
29523
  8
01
 10
2251.843763940391
 20
573.97776327493955
 30
0.0
 40
1.0
 50
0.0
 51
90.0
  0
LINE
  5
29524
  8
01
 10
2251.8437639403901
 20
545.97776327493955
 30
0.0
 11
2213.843763940391
 21
545.97776327493955
 31
0.0
  0
ARC
  5
29525
  8
01
 10
2213.843763940391
 20
546.97776327493955
 30
0.0
 40
1.0
 50
180.0
 51
270.0
  0
LINE
  5
29526
  8
01
 10
2252.843763940391
 20
573.97776327493955
 30
0.0
 11
2252.8437639403901
 21
546.97776327493955
 31
0.0
  0
ARC
  5
29527
  8
01
 10
2251.8437639403901
 20
546.97776327493955
 30
0.0
 40
1.0
 50
270.0
 51
0.0
  0
LINE
  5
29528
  8
01
 10
2238.843763940391
 20
554.42776327493925
 30
0.0
 11
2238.843763940391
 21
566.52776327493916
 31
0.0
  0
LINE
  5
29529
  8
01
 10
2212.843763940391
 20
573.97776327493955
 30
0.0
 11
2212.843763940391
 21
566.52776327493939
 31
0.0
  0
LINE
  5
2952A
  8
01
 10
2212.843763940391
 20
554.42776327493925
 30
0.0
 11
2212.843763940391
 21
546.97776327493955
 31
0.0
  0
ARC
  5
2952B
  8
01
 10
2213.843763940391
 20
573.97776327493955
 30
0.0
 40
1.0
 50
90.0
 51
180.0
  0
LINE
  5
2952C
  8
01
 10
2238.843763940391
 20
566.47776327493955
 30
0.0
 11
2212.843763940391
 21
566.47776327493955
 31
0.0
  0
LINE
  5
2952D
  8
01
 10
2238.843763940391
 20
554.47776327493955
 30
0.0
 11
2212.843763940391
 21
554.47776327493955
 31
0.0
  0
LINE
  5
2952E
  8
01
 10
2238.843763940391
 20
566.47776327493955
 30
0.0
 11
2238.843763940391
 21
554.47776327493955
 31
0.0
  0
LINE
  5
2952F
  8
01
 10
2236.843763940391
 20
563.47776327493955
 30
0.0
 11
2236.843763940391
 21
557.47776327493955
 31
0.0
  0
LINE
  5
29530
  8
01
 10
2235.843763940391
 20
564.47776327493955
 30
0.0
 11
2236.843763940391
 21
563.47776327493955
 31
0.0
  0
LINE
  5
29531
  8
01
 10
2212.843763940391
 20
554.47776327493955
 30
0.0
 11
2212.843763940391
 21
556.47776327493978
 31
0.0
  0
LINE
  5
29532
  8
01
 10
2212.843763940391
 20
564.47776327493978
 30
0.0
 11
2212.843763940391
 21
566.47776327493955
 31
0.0
  0
LINE
  5
29533
  8
01
 10
2236.4083622776602
 20
570.47776327493955
 30
0.0
 11
2229.2791656031218
 21
570.47776327493955
 31
0.0
  0
LINE
  5
29534
  8
01
 10
2232.843763940391
 20
574.04236161220786
 30
0.0
 11
2232.843763940391
 21
566.91316493767124
 31
0.0
  0
LINE
  5
29535
  8
01
 10
2236.4083622776602
 20
550.47776327493909
 30
0.0
 11
2229.2791656031218
 21
550.47776327493909
 31
0.0
  0
LINE
  5
29536
  8
01
 10
2232.843763940391
 20
546.91316493767067
 30
0.0
 11
2232.843763940391
 21
554.04236161220729
 31
0.0
  0
ARC
  5
29537
  8
01
 10
2234.343763940391
 20
570.47776327493955
 30
0.0
 40
3.5
 50
270.0
 51
90.0
  0
ARC
  5
29538
  8
01
 10
2231.343763940391
 20
570.47776327493955
 30
0.0
 40
3.5
 50
90.0
 51
270.0
  0
LINE
  5
29539
  8
01
 10
2234.343763940391
 20
573.97776327493955
 30
0.0
 11
2231.343763940391
 21
573.97776327493955
 31
0.0
  0
LINE
  5
2953A
  8
01
 10
2234.343763940391
 20
566.97776327493955
 30
0.0
 11
2231.343763940391
 21
566.97776327493955
 31
0.0
  0
ARC
  5
2953B
  8
01
 10
2234.343763940391
 20
570.47776327493955
 30
0.0
 40
2.2000000000000002
 50
270.0
 51
90.0
  0
ARC
  5
2953C
  8
01
 10
2231.343763940391
 20
570.47776327493955
 30
0.0
 40
2.2000000000000002
 50
90.0
 51
270.0
  0
LINE
  5
2953D
  8
01
 10
2234.343763940391
 20
572.67776327493959
 30
0.0
 11
2231.343763940391
 21
572.67776327493959
 31
0.0
  0
LINE
  5
2953E
  8
01
 10
2231.343763940391
 20
568.27776327493939
 30
0.0
 11
2234.343763940391
 21
568.27776327493939
 31
0.0
  0
ARC
  5
2953F
  8
01
 10
2234.343763940391
 20
550.47776327493955
 30
0.0
 40
3.5
 50
270.0
 51
90.0
  0
ARC
  5
29540
  8
01
 10
2231.343763940391
 20
550.47776327493955
 30
0.0
 40
3.5
 50
90.0
 51
270.0
  0
LINE
  5
29541
  8
01
 10
2234.343763940391
 20
546.97776327493955
 30
0.0
 11
2231.343763940391
 21
546.97776327493955
 31
0.0
  0
LINE
  5
29542
  8
01
 10
2234.343763940391
 20
553.97776327493955
 30
0.0
 11
2231.343763940391
 21
553.97776327493955
 31
0.0
  0
ARC
  5
29543
  8
01
 10
2234.343763940391
 20
550.47776327493955
 30
0.0
 40
2.2000000000000002
 50
270.0
 51
90.0
  0
ARC
  5
29544
  8
01
 10
2231.343763940391
 20
550.47776327493955
 30
0.0
 40
2.2000000000000002
 50
90.0
 51
270.0
  0
LINE
  5
29545
  8
01
 10
2234.343763940391
 20
548.2777632749395
 30
0.0
 11
2231.343763940391
 21
548.2777632749395
 31
0.0
  0
LINE
  5
29546
  8
01
 10
2231.343763940391
 20
552.67776327493925
 30
0.0
 11
2234.343763940391
 21
552.67776327493925
 31
0.0
  0
LINE
  5
29547
  8
01
 10
1360.843763940391
 20
566.52776327493916
 30
0.0
 11
1334.843763940391
 21
566.52776327493916
 31
0.0
  0
LINE
  5
29548
  8
01
 10
1360.843763940391
 20
554.42776327493925
 30
0.0
 11
1334.843763940391
 21
554.42776327493925
 31
0.0
  0
LINE
  5
29549
  8
01
 10
1321.8437639403901
 20
574.97776327493955
 30
0.0
 11
1359.843763940391
 21
574.97776327493955
 31
0.0
  0
ARC
  5
2954A
  8
01
 10
1321.8437639403901
 20
573.97776327493955
 30
0.0
 40
1.0
 50
90.0
 51
180.0
  0
LINE
  5
2954B
  8
01
 10
1321.843763940391
 20
545.97776327493955
 30
0.0
 11
1359.8437639403901
 21
545.97776327493955
 31
0.0
  0
ARC
  5
2954C
  8
01
 10
1359.8437639403901
 20
546.97776327493955
 30
0.0
 40
1.0
 50
270.0
 51
0.0
  0
LINE
  5
2954D
  8
01
 10
1320.8437639403901
 20
573.97776327493955
 30
0.0
 11
1320.843763940391
 21
546.97776327493955
 31
0.0
  0
ARC
  5
2954E
  8
01
 10
1321.843763940391
 20
546.97776327493955
 30
0.0
 40
1.0
 50
180.0
 51
270.0
  0
LINE
  5
2954F
  8
01
 10
1334.843763940391
 20
554.42776327493925
 30
0.0
 11
1334.843763940391
 21
566.52776327493916
 31
0.0
  0
LINE
  5
29550
  8
01
 10
1360.843763940391
 20
573.97776327493955
 30
0.0
 11
1360.843763940391
 21
566.52776327493939
 31
0.0
  0
LINE
  5
29551
  8
01
 10
1360.8437639403901
 20
554.42776327493925
 30
0.0
 11
1360.8437639403901
 21
546.97776327493955
 31
0.0
  0
ARC
  5
29552
  8
01
 10
1359.843763940391
 20
573.97776327493955
 30
0.0
 40
1.0
 50
0.0
 51
90.0
  0
LINE
  5
29553
  8
01
 10
1334.843763940391
 20
566.47776327493955
 30
0.0
 11
1360.843763940391
 21
566.47776327493955
 31
0.0
  0
LINE
  5
29554
  8
01
 10
1334.843763940391
 20
554.47776327493955
 30
0.0
 11
1360.8437639403901
 21
554.47776327493955
 31
0.0
  0
LINE
  5
29555
  8
01
 10
1334.843763940391
 20
566.47776327493955
 30
0.0
 11
1334.843763940391
 21
554.47776327493955
 31
0.0
  0
LINE
  5
29556
  8
01
 10
1336.843763940391
 20
563.47776327494012
 30
0.0
 11
1336.843763940391
 21
557.47776327493955
 31
0.0
  0
LINE
  5
29557
  8
01
 10
1360.8437639403901
 20
554.47776327493955
 30
0.0
 11
1360.8437639403901
 21
556.47776327493978
 31
0.0
  0
LINE
  5
29558
  8
01
 10
1360.843763940391
 20
564.47776327493978
 30
0.0
 11
1360.843763940391
 21
566.47776327493955
 31
0.0
  0
LINE
  5
29559
  8
01
 10
1337.279165603122
 20
570.47776327493955
 30
0.0
 11
1344.4083622776591
 21
570.47776327493955
 31
0.0
  0
LINE
  5
2955A
  8
01
 10
1340.8437639403901
 20
574.04236161220786
 30
0.0
 11
1340.8437639403901
 21
566.91316493767124
 31
0.0
  0
LINE
  5
2955B
  8
01
 10
1337.279165603122
 20
550.47776327493909
 30
0.0
 11
1344.4083622776591
 21
550.47776327493909
 31
0.0
  0
LINE
  5
2955C
  8
01
 10
1340.8437639403901
 20
546.91316493767067
 30
0.0
 11
1340.8437639403901
 21
554.04236161220729
 31
0.0
  0
ARC
  5
2955D
  8
01
 10
1339.3437639403901
 20
570.47776327493955
 30
0.0
 40
3.5
 50
90.0
 51
270.0
  0
ARC
  5
2955E
  8
01
 10
1342.3437639403901
 20
570.47776327493955
 30
0.0
 40
3.5
 50
270.0
 51
90.0
  0
LINE
  5
2955F
  8
01
 10
1339.3437639403901
 20
573.97776327493955
 30
0.0
 11
1342.3437639403901
 21
573.97776327493955
 31
0.0
  0
LINE
  5
29560
  8
01
 10
1339.3437639403901
 20
566.97776327493955
 30
0.0
 11
1342.3437639403901
 21
566.97776327493955
 31
0.0
  0
ARC
  5
29561
  8
01
 10
1339.3437639403901
 20
570.47776327493955
 30
0.0
 40
2.2000000000000002
 50
90.0
 51
270.0
  0
ARC
  5
29562
  8
01
 10
1342.3437639403901
 20
570.47776327493955
 30
0.0
 40
2.2000000000000002
 50
270.0
 51
90.0
  0
LINE
  5
29563
  8
01
 10
1339.3437639403901
 20
572.67776327493959
 30
0.0
 11
1342.3437639403901
 21
572.67776327493959
 31
0.0
  0
LINE
  5
29564
  8
01
 10
1342.3437639403901
 20
568.27776327493939
 30
0.0
 11
1339.3437639403901
 21
568.27776327493939
 31
0.0
  0
ARC
  5
29565
  8
01
 10
1339.3437639403901
 20
550.47776327493955
 30
0.0
 40
3.5
 50
90.0
 51
270.0
  0
ARC
  5
29566
  8
01
 10
1342.3437639403901
 20
550.47776327493955
 30
0.0
 40
3.5
 50
270.0
 51
90.0
  0
LINE
  5
29567
  8
01
 10
1339.3437639403901
 20
546.97776327493955
 30
0.0
 11
1342.3437639403901
 21
546.97776327493955
 31
0.0
  0
LINE
  5
29568
  8
01
 10
1339.3437639403901
 20
553.97776327493955
 30
0.0
 11
1342.3437639403901
 21
553.97776327493955
 31
0.0
  0
ARC
  5
29569
  8
01
 10
1339.3437639403901
 20
550.47776327493955
 30
0.0
 40
2.2000000000000002
 50
90.0
 51
270.0
  0
ARC
  5
2956A
  8
01
 10
1342.3437639403901
 20
550.47776327493955
 30
0.0
 40
2.2000000000000002
 50
270.0
 51
90.0
  0
LINE
  5
2956B
  8
01
 10
1339.3437639403901
 20
548.2777632749395
 30
0.0
 11
1342.3437639403901
 21
548.2777632749395
 31
0.0
  0
LINE
  5
2956C
  8
01
 10
1342.3437639403901
 20
552.67776327493925
 30
0.0
 11
1339.3437639403901
 21
552.67776327493925
 31
0.0
  0
LINE
  5
2956D
  8
01
 10
1340.8458994601699
 20
86.016840540011117
 30
0.0
 11
1340.8458994601699
 21
108.5194735928476
 31
0.0
  0
LINE
  5
2956E
  8
01
  6
BYBLOCK
 10
1334.843763940391
 20
210.97776327493901
 30
0.0
 11
1359.8437639403901
 21
210.97776327493921
 31
0.0
  0
LINE
  5
2956F
  8
01
  6
BYBLOCK
 10
1360.8437639403901
 20
209.97776327493921
 30
0.0
 11
1360.8437639403901
 21
123.97776327493921
 31
0.0
  0
LINE
  5
29570
  8
01
  6
BYBLOCK
 10
2213.843763940391
 20
210.97776327493921
 30
0.0
 11
2238.843763940391
 21
210.97776327493901
 31
0.0
  0
LINE
  5
29571
  8
01
  6
BYBLOCK
 10
2212.843763940391
 20
209.97776327493921
 30
0.0
 11
2212.843763940391
 21
123.97776327493921
 31
0.0
  0
LINE
  5
29572
  8
01
 10
2236.843763940391
 20
420.97776327493921
 30
0.0
 11
2236.843763940391
 21
210.97776327493901
 31
0.0
  0
LINE
  5
29573
  8
01
 10
1336.843763940391
 20
420.97776327493921
 30
0.0
 11
1336.843763940391
 21
210.97776327493901
 31
0.0
  0
ARC
  5
29574
  8
01
 10
1341.843763940391
 20
420.97776327493921
 30
0.0
 40
5.0
 50
89.999999999999346
 51
180.0000000000008
  0
ARC
  5
29575
  8
01
 10
2231.843763940391
 20
420.97776327493921
 30
0.0
 40
5.0
 50
0.0
 51
90.000000000001904
  0
LINE
  5
29576
  8
01
 10
2232.8416284206119
 20
76.420295320513944
 30
0.0
 11
2232.8416284206119
 21
117.1595789187249
 31
0.0
  0
LINE
  5
29577
  8
01
 10
2232.8416284206119
 20
86.01684054001106
 30
0.0
 11
2232.8416284206119
 21
108.5194735928475
 31
0.0
  0
LINE
  5
29583
  8
01
 10
2214.5759528022359
 20
332.91830809019211
 30
0.0
 11
2057.4216149967701
 21
175.7639702847267
 31
0.0
  0
LINE
  5
29584
  8
01
 10
2210.7420413035939
 20
306.09308892669787
 30
0.0
 11
2084.2520500235828
 21
179.6030976466869
 31
0.0
  0
LINE
  5
29585
  8
01
 10
2207.8666066650512
 20
282.14200211778729
 30
0.0
 11
2107.7286788111069
 21
182.00407426384351
 31
0.0
  0
LINE
  5
29586
  8
01
 10
2235.843763940391
 20
564.47776327493955
 30
0.0
 11
1337.843763940391
 21
564.47776327494012
 31
0.0
  0
LINE
  5
29587
  8
01
 10
1336.843763940391
 20
563.47776327494012
 30
0.0
 11
1337.843763940391
 21
564.47776327494012
 31
0.0
  0
LINE
  5
29588
  8
01
 10
2235.843763940391
 20
556.47776327493955
 30
0.0
 11
1337.843763940391
 21
556.47776327493955
 31
0.0
  0
LINE
  5
29589
  8
01
 10
1336.843763940391
 20
557.47776327493955
 30
0.0
 11
1337.843763940391
 21
556.47776327493955
 31
0.0
  0
LINE
  5
2958A
  8
01
 10
2236.843763940391
 20
557.47776327493955
 30
0.0
 11
2235.843763940391
 21
556.47776327493955
 31
0.0
  0
LINE
  5
2958B
  8
01
 10
1360.8437639403901
 20
125.9777632749399
 30
0.0
 11
2212.843763940391
 21
125.97776327493921
 31
0.0
  0
LINE
  5
2958C
  8
01
 10
1341.843763940391
 20
425.97776327493949
 30
0.0
 11
2231.8437639403919
 21
425.97776327493949
 31
0.0
  0
LINE
  5
2958D
  8
01
 10
2236.843763940391
 20
557.47776327493955
 30
0.0
 11
1336.843763940391
 21
557.47776327493955
 31
0.0
  0
LINE
  5
2958E
  8
01
 10
2236.843763940391
 20
563.47776327494012
 30
0.0
 11
1336.843763940391
 21
563.47776327494012
 31
0.0
  0
LINE
  5
2959C
  8
01
 10
2354.3437639249578
 20
425.97776327493949
 30
0.0
 11
2360.3437639249591
 21
425.97776327493949
 31
0.0
  0
LINE
  5
2959D
  8
01
 10
2371.8437639249578
 20
100.97776327493941
 30
0.0
 11
2342.8437639249591
 21
100.97776327493921
 31
0.0
  0
LINE
  5
2959E
  8
01
 10
2371.8437639249578
 20
107.97776327493941
 30
0.0
 11
2342.8437639249591
 21
107.9777632749396
 31
0.0
  0
LINE
  5
2959F
  8
01
 10
2371.8437639249578
 20
107.97776327493951
 30
0.0
 11
2371.8437639249578
 21
100.97776327493941
 31
0.0
  0
LINE
  5
295A0
  8
01
 10
2342.8437639249591
 20
100.97776327493931
 30
0.0
 11
2342.8437639249591
 21
107.9777632749396
 31
0.0
  0
LINE
  5
295A1
  8
01
 10
2370.8437639249591
 20
210.97776327493921
 30
0.0
 11
2343.8437639249591
 21
210.97776327493909
 31
0.0
  0
LINE
  5
295A2
  8
01
 10
2371.8437639249578
 20
107.97776327493921
 30
0.0
 11
2371.8437639249578
 21
209.97776327493921
 31
0.0
  0
ARC
  5
295A3
  8
01
 10
2370.8437639249591
 20
209.97776327493921
 30
0.0
 40
1.0
 50
0.0
 51
90.0
  0
LINE
  5
295A4
  8
01
 10
2342.8437639249591
 20
107.9777632749386
 30
0.0
 11
2342.8437639249591
 21
209.97776327493909
 31
0.0
  0
ARC
  5
295A5
  8
01
 10
2343.8437639249591
 20
209.97776327493909
 30
0.0
 40
1.0
 50
90.0
 51
180.0
  0
LINE
  5
295A6
  8
01
 10
2342.8437639249591
 20
107.9777632749387
 30
0.0
 11
2371.8437639249578
 21
107.97776327493931
 31
0.0
  0
LINE
  5
295A8
  8
01
 10
2353.3437639249591
 20
424.97776327493949
 30
0.0
 11
2353.3437639249591
 21
210.97776327493909
 31
0.0
  0
LINE
  5
295A9
  8
01
 10
2361.3437639249591
 20
424.97776327493949
 30
0.0
 11
2361.3437639249591
 21
210.97776327493921
 31
0.0
  0
LINE
  5
295AA
  8
01
 10
2353.3437639249591
 20
424.97776327493949
 30
0.0
 11
2354.3437639249578
 21
425.97776327493949
 31
0.0
  0
LINE
  5
295AB
  8
01
 10
2360.3437639249591
 20
425.97776327493949
 30
0.0
 11
2361.3437639249591
 21
424.97776327493949
 31
0.0
  0
LINE
  5
295AC
  8
01
 10
2347.3437639249591
 20
76.420295320513901
 30
0.0
 11
2347.3437639249591
 21
117.1595789187248
 31
0.0
  0
LINE
  5
295AD
  8
01
 10
2347.3437639249591
 20
86.016840540011003
 30
0.0
 11
2347.3437639249591
 21
108.5194735928475
 31
0.0
  0
LINE
  5
295AE
  8
01
 10
2367.3437639249591
 20
76.420295320514015
 30
0.0
 11
2367.3437639249591
 21
117.1595789187249
 31
0.0
  0
LINE
  5
295AF
  8
01
 10
2367.3437639249591
 20
86.016840540011117
 30
0.0
 11
2367.3437639249591
 21
108.5194735928476
 31
0.0
  0
LINE
  5
295BA
  8
01
 10
2354.3437639249578
 20
425.9777632749396
 30
0.0
 11
2354.3437639249578
 21
210.97776327493909
 31
0.0
  0
LINE
  5
295BB
  8
01
 10
2360.3437639249591
 20
425.9777632749396
 30
0.0
 11
2360.3437639249591
 21
210.97776327493909
 31
0.0
  0
LINE
  5
29908
  8
01
 10
2371.8437639249578
 20
100.97776327493941
 30
0.0
 11
2404.8437639249591
 21
100.97776327493941
 31
0.0
  0
LINE
  5
29909
  8
01
 10
2370.8437639249591
 20
210.97776327493921
 30
0.0
 11
2404.8437639249591
 21
210.97776327493921
 31
0.0
  0
LINE
  5
2990A
  8
01
 10
2401.8437639249591
 20
106.97776327493941
 30
0.0
 11
2401.8437639249591
 21
204.97776327493921
 31
0.0
  0
TEXT
  5
2990E
  8
01
 10
1317.0342401308669
 20
604.97776327493955
 30
0.0
 40
20.0
  1
KC038S2C
  0
TEXT
  5
2990F
  8
01
 10
2382.753487904522
 20
348.86123188536988
 30
0.0
 40
10.5
  1
材質：強化ガラス
  0
SOLID
  5
29910
  8
01
 10
2365.637313140222
 20
331.89564048397358
 30
0.0
 11
2361.4121012275932
 21
327.51984520844047
 31
0.0
 12
2363.989746460988
 22
333.0294500083109
 32
0.0
 13
2363.989746460988
 23
333.0294500083109
 33
0.0
1001
ACAD
1000
DSTYLE
1002
{
1070
    40
1040
3.0
1002
}
  0
TEXT
  5
29912
  8
01
 10
2049.2604836707478
 20
595.25232495089551
 30
0.0
 40
10.5
  1
材質：耐熱シリコンゴム
  0
SOLID
  5
29913
  8
01
 10
2211.2226422497829
 20
570.81816839048463
 30
0.0
 11
2214.1349230473029
 21
565.47788557434069
 31
0.0
 12
2209.648079217387
 22
569.5849809525788
 32
0.0
 13
2209.648079217387
 23
569.5849809525788
 33
0.0
1001
ACAD
1000
DSTYLE
1002
{
1070
    40
1040
3.0
1002
}
  0
TEXT
  5
29915
  8
01
 10
2398.4233912749519
 20
66.096579430010479
 30
0.0
 40
10.5
  1
材質：亜鉛ダイキャスト
  0
TEXT
  5
29916
  8
01
 10
2398.4233912749519
 20
48.596579430010479
 30
0.0
 40
10.5
  1
仕上：クローム
  0
SOLID
  5
29917
  8
01
 10
2362.715051385057
 20
95.336613984954454
 30
0.0
 11
2360.7351980543322
 21
101.08815123936
 31
0.0
 12
2364.4733957199601
 22
96.289622484346822
 32
0.0
 13
2364.4733957199601
 23
96.289622484346822
 33
0.0
1001
ACAD
1000
DSTYLE
1002
{
1070
    40
1040
3.0
1002
}
  0
TEXT
  5
29919
  8
01
 10
2410.7560450076048
 20
259.61847254988658
 30
0.0
 40
10.5
  1
材質：亜鉛ダイキャスト
  0
TEXT
  5
2991A
  8
01
 10
2410.7560450076048
 20
242.1184725498866
 30
0.0
 40
10.5
  1
仕上：クローム
  0
SOLID
  5
2991B
  8
01
 10
2376.0108380639149
 20
196.02275147735389
 30
0.0
 11
2371.9583188599831
 21
191.48655393957409
 31
0.0
 12
2374.320583770369
 22
197.09188216307359
 32
0.0
 13
2374.320583770369
 23
197.09188216307359
 33
0.0
1001
ACAD
1000
DSTYLE
1002
{
1070
    40
1040
3.0
1002
}
  0
LINE
  5
2991D
  8
01
 10
2353.3437639249591
 20
424.97776327493949
 30
0.0
 11
2353.3437639249591
 21
490.58545841493952
 31
0.0
  0
LINE
  5
2991E
  8
01
 10
2361.3437639249591
 20
424.97776327493949
 30
0.0
 11
2361.3437639249591
 21
490.58545841493952
 31
0.0
  0
LINE
  5
2991F
  8
01
 10
2347.3437639249591
 20
487.58545841493941
 30
0.0
 11
2341.3437639249591
 21
487.58545841493941
 31
0.0
  0
LINE
  5
29920
  8
01
 10
2367.3437639249591
 20
487.58545841493941
 30
0.0
 11
2391.043763924959
 21
487.58545841493941
 31
0.0
  0
LINE
  5
29921
  8
01
 10
2353.3437639249591
 20
487.58545841493941
 30
0.0
 11
2361.3437639249591
 21
487.58545841493941
 31
0.0
  0
LINE
  5
29925
  8
01
 10
2236.4083622776602
 20
550.47776327493909
 30
0.0
 11
2315.843763940391
 21
550.47776327493887
 31
0.0
  0
LINE
  5
29926
  8
01
 10
2236.4083622776602
 20
570.47776327493955
 30
0.0
 11
2315.843763940391
 21
570.47776327493943
 31
0.0
  0
LINE
  5
29927
  8
01
 10
2312.843763940391
 20
556.47776327493898
 30
0.0
 11
2312.843763940391
 21
564.47776327493943
 31
0.0
  0
LINE
  5
29928
  8
01
 10
2312.843763940391
 20
570.47776327493943
 30
0.0
 11
2312.843763940391
 21
607.67776327493937
 31
0.0
  0
LINE
  5
2992C
  8
01
 10
2252.8437639403901
 20
546.97776327493955
 30
0.0
 11
2252.8437639403901
 21
512.97776327493955
 31
0.0
  0
LINE
  5
2992D
  8
01
 10
2212.843763940391
 20
546.97776327493955
 30
0.0
 11
2212.843763940391
 21
512.97776327493955
 31
0.0
  0
LINE
  5
2992E
  8
01
 10
2246.843763940391
 20
515.97776327493955
 30
0.0
 11
2218.843763940391
 21
515.97776327493955
 31
0.0
  0
LINE
  5
29932
  8
01
 10
2251.8437639403901
 20
545.97776327493955
 30
0.0
 11
2345.843763940391
 21
545.97776327493943
 31
0.0
  0
LINE
  5
29933
  8
01
 10
2251.843763940391
 20
574.97776327493955
 30
0.0
 11
2345.843763940391
 21
574.97776327493943
 31
0.0
  0
LINE
  5
29934
  8
01
 10
2342.843763940391
 20
551.97776327493943
 30
0.0
 11
2342.843763940391
 21
568.97776327493943
 31
0.0
  0
LINE
  5
29938
  8
01
 10
2236.843763940391
 20
420.97776327493921
 30
0.0
 11
2236.843763940391
 21
488.97776327493949
 31
0.0
  0
LINE
  5
29939
  8
01
 10
2252.843763940391
 20
209.97776327493901
 30
0.0
 11
2252.843763940391
 21
488.97776327493949
 31
0.0
  0
LINE
  5
2993A
  8
01
 10
2230.843763940391
 20
485.97776327493949
 30
0.0
 11
2224.843763940391
 21
485.97776327493949
 31
0.0
  0
LINE
  5
2993B
  8
01
 10
2258.843763940391
 20
485.97776327493949
 30
0.0
 11
2284.5437639403908
 21
485.97776327493949
 31
0.0
  0
LINE
  5
2993C
  8
01
 10
2236.843763940391
 20
485.97776327493949
 30
0.0
 11
2252.843763940391
 21
485.97776327493949
 31
0.0
  0
LINE
  5
29940
  8
01
 10
1336.843763940391
 20
420.97776327493921
 30
0.0
 11
1336.843763940391
 21
488.97776327493949
 31
0.0
  0
LINE
  5
29941
  8
01
 10
1320.843763940391
 20
209.97776327493901
 30
0.0
 11
1320.843763940391
 21
488.97776327493949
 31
0.0
  0
LINE
  5
29942
  8
01
 10
1342.843763940391
 20
485.97776327493949
 30
0.0
 11
1348.843763940391
 21
485.97776327493949
 31
0.0
  0
LINE
  5
29943
  8
01
 10
1314.843763940391
 20
485.97776327493949
 30
0.0
 11
1289.143763940391
 21
485.97776327493949
 31
0.0
  0
LINE
  5
29944
  8
01
 10
1336.843763940391
 20
485.97776327493949
 30
0.0
 11
1320.843763940391
 21
485.97776327493949
 31
0.0
  0
LINE
  5
29948
  8
01
 10
2252.843763940391
 20
100.97776327493921
 30
0.0
 11
2252.843763940391
 21
37.977763274939207
 31
0.0
  0
LINE
  5
29949
  8
01
 10
1320.8437639403901
 20
100.97776327493921
 30
0.0
 11
1320.8437639403901
 21
37.977763274939207
 31
0.0
  0
LINE
  5
2994A
  8
01
 10
2246.843763940391
 20
40.9777632749392
 30
0.0
 11
1326.8437639403901
 21
40.9777632749392
 31
0.0
  0
LINE
  5
2994E
  8
01
 10
2232.8416284206119
 20
76.420295320513972
 30
0.0
 11
2232.8416284206119
 21
67.977763274939207
 31
0.0
  0
LINE
  5
2994F
  8
01
 10
2252.843763940391
 20
100.97776327493921
 30
0.0
 11
2252.843763940391
 21
67.977763274939207
 31
0.0
  0
LINE
  5
29950
  8
01
 10
2238.8416284206119
 20
70.977763274939207
 30
0.0
 11
2246.843763940391
 21
70.977763274939207
 31
0.0
  0
LINE
  5
29951
  8
01
 10
2252.843763940391
 20
70.977763274939207
 30
0.0
 11
2280.0437639403908
 21
70.977763274939207
 31
0.0
  0
LINE
  5
29955
  8
01
 10
1340.8458994601699
 20
76.420295320514015
 30
0.0
 11
1340.8458994601699
 21
67.977763274939207
 31
0.0
  0
LINE
  5
29956
  8
01
 10
1320.8437639403901
 20
100.97776327493921
 30
0.0
 11
1320.8437639403901
 21
67.977763274939207
 31
0.0
  0
LINE
  5
29957
  8
01
 10
1334.8458994601699
 20
70.977763274939207
 30
0.0
 11
1326.8437639403901
 21
70.977763274939207
 31
0.0
  0
LINE
  5
29958
  8
01
 10
1320.8437639403901
 20
70.977763274939207
 30
0.0
 11
1293.64376394039
 21
70.977763274939207
 31
0.0
  0
LINE
  5
2995C
  8
01
 10
1336.843763940391
 20
420.97776327493921
 30
0.0
 11
1336.843763940391
 21
488.97776327493949
 31
0.0
  0
LINE
  5
2995D
  8
01
 10
2236.843763940391
 20
420.97776327493921
 30
0.0
 11
2236.843763940391
 21
488.97776327493949
 31
0.0
  0
LINE
  5
2995E
  8
01
 10
1342.843763940391
 20
485.97776327493949
 30
0.0
 11
2230.843763940391
 21
485.97776327493949
 31
0.0
  0
LINE
  5
29962
  8
01
 10
2212.843763940391
 20
125.97776327493921
 30
0.0
 11
2285.843763940391
 21
125.97776327493921
 31
0.0
  0
LINE
  5
29963
  8
01
 10
2231.843763940391
 20
425.97776327493921
 30
0.0
 11
2285.843763940391
 21
425.97776327493921
 31
0.0
  0
LINE
  5
29964
  8
01
 10
2282.843763940391
 20
131.97776327493921
 30
0.0
 11
2282.843763940391
 21
419.97776327493921
 31
0.0
  0
LINE
  5
29968
  8
01
 10
2252.843763940391
 20
100.97776327493921
 30
0.0
 11
2315.843763940391
 21
100.97776327493921
 31
0.0
  0
LINE
  5
29969
  8
01
 10
2231.843763940391
 20
425.97776327493921
 30
0.0
 11
2315.843763940391
 21
425.97776327493921
 31
0.0
  0
LINE
  5
2996A
  8
01
 10
2312.843763940391
 20
106.97776327493921
 30
0.0
 11
2312.843763940391
 21
419.97776327493921
 31
0.0
  0
LINE
  5
2996E
  8
01
 10
1340.8458994601699
 20
76.420295320514015
 30
0.0
 11
1340.8458994601699
 21
67.977763274939207
 31
0.0
  0
LINE
  5
2996F
  8
01
 10
2232.8416284206119
 20
76.420295320513972
 30
0.0
 11
2232.8416284206119
 21
67.977763274939207
 31
0.0
  0
LINE
  5
29970
  8
01
 10
1346.8458994601699
 20
70.977763274939207
 30
0.0
 11
2226.841628420611
 21
70.977763274939207
 31
0.0
  0
TEXT
  5
29974
  8
01
 10
1766.343763940391
 20
73.077763274939201
 30
0.0
 40
10.5
  1
P892
  0
LINE
  5
29975
  8
01
  6
BYBLOCK
 10
2226.841628420611
 20
72.585458414939211
 30
0.0
 11
2232.8416284206119
 21
70.977763274939207
 31
0.0
  0
LINE
  5
29976
  8
01
  6
BYBLOCK
 10
2232.8416284206119
 20
70.977763274939207
 30
0.0
 11
2226.841628420611
 21
69.370068134939203
 31
0.0
  0
LINE
  5
29977
  8
01
  6
BYBLOCK
 10
2232.8416284206119
 20
70.977763274939207
 30
0.0
 11
2226.841628420611
 21
70.977763274939207
 31
0.0
  0
LINE
  5
29978
  8
01
  6
BYBLOCK
 10
1346.8458994601699
 20
69.370068134939203
 30
0.0
 11
1340.8458994601699
 21
70.977763274939207
 31
0.0
  0
LINE
  5
29979
  8
01
  6
BYBLOCK
 10
1340.8458994601699
 20
70.977763274939207
 30
0.0
 11
1346.8458994601699
 21
72.585458414939211
 31
0.0
  0
LINE
  5
2997A
  8
01
  6
BYBLOCK
 10
1340.8458994601699
 20
70.977763274939207
 30
0.0
 11
1346.8458994601699
 21
70.977763274939207
 31
0.0
  0
TEXT
  5
2997B
  8
01
 10
2310.7437639403911
 20
248.4777632749396
 30
0.0
 40
10.5
  1
325
 50
90.0
  0
LINE
  5
2997C
  8
01
  6
BYBLOCK
 10
2311.236068800391
 20
419.97776327493921
 30
0.0
 11
2312.843763940391
 21
425.97776327493921
 31
0.0
  0
LINE
  5
2997D
  8
01
  6
BYBLOCK
 10
2312.843763940391
 20
425.97776327493921
 30
0.0
 11
2314.451459080391
 21
419.97776327493921
 31
0.0
  0
LINE
  5
2997E
  8
01
  6
BYBLOCK
 10
2312.843763940391
 20
425.97776327493921
 30
0.0
 11
2312.843763940391
 21
419.97776327493921
 31
0.0
  0
LINE
  5
2997F
  8
01
  6
BYBLOCK
 10
2314.451459080391
 20
106.97776327493921
 30
0.0
 11
2312.843763940391
 21
100.97776327493921
 31
0.0
  0
LINE
  5
29980
  8
01
  6
BYBLOCK
 10
2312.843763940391
 20
100.97776327493921
 30
0.0
 11
2311.236068800391
 21
106.97776327493921
 31
0.0
  0
LINE
  5
29981
  8
01
  6
BYBLOCK
 10
2312.843763940391
 20
100.97776327493921
 30
0.0
 11
2312.843763940391
 21
106.97776327493921
 31
0.0
  0
TEXT
  5
29982
  8
01
 10
2280.7437639403911
 20
260.9777632749396
 30
0.0
 40
10.5
  1
300
 50
90.0
  0
LINE
  5
29983
  8
01
  6
BYBLOCK
 10
2281.236068800391
 20
419.97776327493921
 30
0.0
 11
2282.843763940391
 21
425.97776327493921
 31
0.0
  0
LINE
  5
29984
  8
01
  6
BYBLOCK
 10
2282.843763940391
 20
425.97776327493921
 30
0.0
 11
2284.451459080391
 21
419.97776327493921
 31
0.0
  0
LINE
  5
29985
  8
01
  6
BYBLOCK
 10
2282.843763940391
 20
425.97776327493921
 30
0.0
 11
2282.843763940391
 21
419.97776327493921
 31
0.0
  0
LINE
  5
29986
  8
01
  6
BYBLOCK
 10
2284.451459080391
 20
131.97776327493921
 30
0.0
 11
2282.843763940391
 21
125.97776327493921
 31
0.0
  0
LINE
  5
29987
  8
01
  6
BYBLOCK
 10
2282.843763940391
 20
125.97776327493921
 30
0.0
 11
2281.236068800391
 21
131.97776327493921
 31
0.0
  0
LINE
  5
29988
  8
01
  6
BYBLOCK
 10
2282.843763940391
 20
125.97776327493921
 30
0.0
 11
2282.843763940391
 21
131.97776327493921
 31
0.0
  0
TEXT
  5
29989
  8
01
 10
1771.843763940391
 20
488.07776327493963
 30
0.0
 40
10.5
  1
900
  0
LINE
  5
2998A
  8
01
  6
BYBLOCK
 10
2230.843763940391
 20
487.58545841493941
 30
0.0
 11
2236.843763940391
 21
485.97776327493949
 31
0.0
  0
LINE
  5
2998B
  8
01
  6
BYBLOCK
 10
2236.843763940391
 20
485.97776327493949
 30
0.0
 11
2230.843763940391
 21
484.37006813493952
 31
0.0
  0
LINE
  5
2998C
  8
01
  6
BYBLOCK
 10
2236.843763940391
 20
485.97776327493949
 30
0.0
 11
2230.843763940391
 21
485.97776327493949
 31
0.0
  0
LINE
  5
2998D
  8
01
  6
BYBLOCK
 10
1342.843763940391
 20
484.37006813493952
 30
0.0
 11
1336.843763940391
 21
485.97776327493949
 31
0.0
  0
LINE
  5
2998E
  8
01
  6
BYBLOCK
 10
1336.843763940391
 20
485.97776327493949
 30
0.0
 11
1342.843763940391
 21
487.58545841493941
 31
0.0
  0
LINE
  5
2998F
  8
01
  6
BYBLOCK
 10
1336.843763940391
 20
485.97776327493949
 30
0.0
 11
1342.843763940391
 21
485.97776327493949
 31
0.0
  0
TEXT
  5
29990
  8
01
 10
1294.24376394039
 20
73.077763274939201
 30
0.0
 40
10.5
  1
20
  0
LINE
  5
29991
  8
01
  6
BYBLOCK
 10
1326.8437639403901
 20
69.370068134939203
 30
0.0
 11
1320.8437639403901
 21
70.977763274939207
 31
0.0
  0
LINE
  5
29992
  8
01
  6
BYBLOCK
 10
1320.8437639403901
 20
70.977763274939207
 30
0.0
 11
1326.8437639403901
 21
72.585458414939211
 31
0.0
  0
LINE
  5
29993
  8
01
  6
BYBLOCK
 10
1320.8437639403901
 20
70.977763274939207
 30
0.0
 11
1326.8437639403901
 21
70.977763274939207
 31
0.0
  0
LINE
  5
29994
  8
01
  6
BYBLOCK
 10
1334.8458994601699
 20
72.585458414939211
 30
0.0
 11
1340.8458994601699
 21
70.977763274939207
 31
0.0
  0
LINE
  5
29995
  8
01
  6
BYBLOCK
 10
1340.8458994601699
 20
70.977763274939207
 30
0.0
 11
1334.8458994601699
 21
69.370068134939203
 31
0.0
  0
LINE
  5
29996
  8
01
  6
BYBLOCK
 10
1340.8458994601699
 20
70.977763274939207
 30
0.0
 11
1334.8458994601699
 21
70.977763274939207
 31
0.0
  0
TEXT
  5
29997
  8
01
 10
2259.4437639403909
 20
73.077763274939201
 30
0.0
 40
10.5
  1
20
  0
LINE
  5
29998
  8
01
  6
BYBLOCK
 10
2246.843763940391
 20
72.585458414939211
 30
0.0
 11
2252.843763940391
 21
70.977763274939207
 31
0.0
  0
LINE
  5
29999
  8
01
  6
BYBLOCK
 10
2252.843763940391
 20
70.977763274939207
 30
0.0
 11
2246.843763940391
 21
69.370068134939203
 31
0.0
  0
LINE
  5
2999A
  8
01
  6
BYBLOCK
 10
2252.843763940391
 20
70.977763274939207
 30
0.0
 11
2246.843763940391
 21
70.977763274939207
 31
0.0
  0
LINE
  5
2999B
  8
01
  6
BYBLOCK
 10
2238.8416284206119
 20
69.370068134939203
 30
0.0
 11
2232.8416284206119
 21
70.977763274939207
 31
0.0
  0
LINE
  5
2999C
  8
01
  6
BYBLOCK
 10
2232.8416284206119
 20
70.977763274939207
 30
0.0
 11
2238.8416284206119
 21
72.585458414939211
 31
0.0
  0
LINE
  5
2999D
  8
01
  6
BYBLOCK
 10
2232.8416284206119
 20
70.977763274939207
 30
0.0
 11
2238.8416284206119
 21
70.977763274939207
 31
0.0
  0
TEXT
  5
2999E
  8
01
 10
1771.843763940391
 20
43.077763274939208
 30
0.0
 40
10.5
  1
932
  0
LINE
  5
2999F
  8
01
  6
BYBLOCK
 10
1326.8437639403901
 20
39.370068134939203
 30
0.0
 11
1320.8437639403901
 21
40.9777632749392
 31
0.0
  0
LINE
  5
299A0
  8
01
  6
BYBLOCK
 10
1320.8437639403901
 20
40.9777632749392
 30
0.0
 11
1326.8437639403901
 21
42.585458414939197
 31
0.0
  0
LINE
  5
299A1
  8
01
  6
BYBLOCK
 10
1320.8437639403901
 20
40.9777632749392
 30
0.0
 11
1326.8437639403901
 21
40.9777632749392
 31
0.0
  0
LINE
  5
299A2
  8
01
  6
BYBLOCK
 10
2246.843763940391
 20
42.585458414939197
 30
0.0
 11
2252.843763940391
 21
40.9777632749392
 31
0.0
  0
LINE
  5
299A3
  8
01
  6
BYBLOCK
 10
2252.843763940391
 20
40.9777632749392
 30
0.0
 11
2246.843763940391
 21
39.37006813493921
 31
0.0
  0
LINE
  5
299A4
  8
01
  6
BYBLOCK
 10
2252.843763940391
 20
40.9777632749392
 30
0.0
 11
2246.843763940391
 21
40.9777632749392
 31
0.0
  0
TEXT
  5
299A5
  8
01
 10
1288.2437639403911
 20
488.07776327493963
 30
0.0
 40
10.5
  1
16
  0
LINE
  5
299A6
  8
01
  6
BYBLOCK
 10
1314.843763940391
 20
487.58545841493941
 30
0.0
 11
1320.843763940391
 21
485.97776327493949
 31
0.0
  0
LINE
  5
299A7
  8
01
  6
BYBLOCK
 10
1320.843763940391
 20
485.97776327493949
 30
0.0
 11
1314.843763940391
 21
484.37006813493952
 31
0.0
  0
LINE
  5
299A8
  8
01
  6
BYBLOCK
 10
1320.843763940391
 20
485.97776327493949
 30
0.0
 11
1314.843763940391
 21
485.97776327493949
 31
0.0
  0
LINE
  5
299A9
  8
01
  6
BYBLOCK
 10
1342.843763940391
 20
484.37006813493952
 30
0.0
 11
1336.843763940391
 21
485.97776327493949
 31
0.0
  0
LINE
  5
299AA
  8
01
  6
BYBLOCK
 10
1336.843763940391
 20
485.97776327493949
 30
0.0
 11
1342.843763940391
 21
487.58545841493941
 31
0.0
  0
LINE
  5
299AB
  8
01
  6
BYBLOCK
 10
1336.843763940391
 20
485.97776327493949
 30
0.0
 11
1342.843763940391
 21
485.97776327493949
 31
0.0
  0
TEXT
  5
299AC
  8
01
 10
2263.9437639403909
 20
488.07776327493963
 30
0.0
 40
10.5
  1
16
  0
LINE
  5
299AD
  8
01
  6
BYBLOCK
 10
2258.843763940391
 20
484.37006813493952
 30
0.0
 11
2252.843763940391
 21
485.97776327493949
 31
0.0
  0
LINE
  5
299AE
  8
01
  6
BYBLOCK
 10
2252.843763940391
 20
485.97776327493949
 30
0.0
 11
2258.843763940391
 21
487.58545841493941
 31
0.0
  0
LINE
  5
299AF
  8
01
  6
BYBLOCK
 10
2252.843763940391
 20
485.97776327493949
 30
0.0
 11
2258.843763940391
 21
485.97776327493949
 31
0.0
  0
LINE
  5
299B0
  8
01
  6
BYBLOCK
 10
2230.843763940391
 20
487.58545841493941
 30
0.0
 11
2236.843763940391
 21
485.97776327493949
 31
0.0
  0
LINE
  5
299B1
  8
01
  6
BYBLOCK
 10
2236.843763940391
 20
485.97776327493949
 30
0.0
 11
2230.843763940391
 21
484.37006813493952
 31
0.0
  0
LINE
  5
299B2
  8
01
  6
BYBLOCK
 10
2236.843763940391
 20
485.97776327493949
 30
0.0
 11
2230.843763940391
 21
485.97776327493949
 31
0.0
  0
TEXT
  5
299B3
  8
01
 10
2340.7437639403911
 20
550.72776327493978
 30
0.0
 40
10.5
  1
29
 50
90.0
  0
LINE
  5
299B4
  8
01
  6
BYBLOCK
 10
2341.236068800391
 20
568.97776327493943
 30
0.0
 11
2342.843763940391
 21
574.97776327493943
 31
0.0
  0
LINE
  5
299B5
  8
01
  6
BYBLOCK
 10
2342.843763940391
 20
574.97776327493943
 30
0.0
 11
2344.451459080391
 21
568.97776327493943
 31
0.0
  0
LINE
  5
299B6
  8
01
  6
BYBLOCK
 10
2342.843763940391
 20
574.97776327493943
 30
0.0
 11
2342.843763940391
 21
568.97776327493943
 31
0.0
  0
LINE
  5
299B7
  8
01
  6
BYBLOCK
 10
2344.451459080391
 20
551.97776327493943
 30
0.0
 11
2342.843763940391
 21
545.97776327493943
 31
0.0
  0
LINE
  5
299B8
  8
01
  6
BYBLOCK
 10
2342.843763940391
 20
545.97776327493943
 30
0.0
 11
2341.236068800391
 21
551.97776327493943
 31
0.0
  0
LINE
  5
299B9
  8
01
  6
BYBLOCK
 10
2342.843763940391
 20
545.97776327493943
 30
0.0
 11
2342.843763940391
 21
551.97776327493943
 31
0.0
  0
TEXT
  5
299BA
  8
01
 10
2222.843763940391
 20
518.07776327493946
 30
0.0
 40
10.5
  1
40
  0
LINE
  5
299BB
  8
01
  6
BYBLOCK
 10
2218.843763940391
 20
514.37006813493952
 30
0.0
 11
2212.843763940391
 21
515.97776327493955
 31
0.0
  0
LINE
  5
299BC
  8
01
  6
BYBLOCK
 10
2212.843763940391
 20
515.97776327493955
 30
0.0
 11
2218.843763940391
 21
517.58545841493947
 31
0.0
  0
LINE
  5
299BD
  8
01
  6
BYBLOCK
 10
2212.843763940391
 20
515.97776327493955
 30
0.0
 11
2218.843763940391
 21
515.97776327493955
 31
0.0
  0
LINE
  5
299BE
  8
01
  6
BYBLOCK
 10
2246.843763940391
 20
517.58545841493947
 30
0.0
 11
2252.8437639403901
 21
515.97776327493955
 31
0.0
  0
LINE
  5
299BF
  8
01
  6
BYBLOCK
 10
2252.8437639403901
 20
515.97776327493955
 30
0.0
 11
2246.843763940391
 21
514.37006813493952
 31
0.0
  0
LINE
  5
299C0
  8
01
  6
BYBLOCK
 10
2252.8437639403901
 20
515.97776327493955
 30
0.0
 11
2246.843763940391
 21
515.97776327493955
 31
0.0
  0
TEXT
  5
299C1
  8
01
 10
2310.7437639403911
 20
576.57776327493991
 30
0.0
 40
10.5
  1
P20
 50
90.0
  0
LINE
  5
299C2
  8
01
  6
BYBLOCK
 10
2311.236068800391
 20
564.47776327493943
 30
0.0
 11
2312.843763940391
 21
570.47776327493943
 31
0.0
  0
LINE
  5
299C3
  8
01
  6
BYBLOCK
 10
2312.843763940391
 20
570.47776327493943
 30
0.0
 11
2314.451459080391
 21
564.47776327493943
 31
0.0
  0
LINE
  5
299C4
  8
01
  6
BYBLOCK
 10
2312.843763940391
 20
570.47776327493943
 30
0.0
 11
2312.843763940391
 21
564.47776327493943
 31
0.0
  0
LINE
  5
299C5
  8
01
  6
BYBLOCK
 10
2314.451459080391
 20
556.47776327493898
 30
0.0
 11
2312.843763940391
 21
550.47776327493887
 31
0.0
  0
LINE
  5
299C6
  8
01
  6
BYBLOCK
 10
2312.843763940391
 20
550.47776327493887
 30
0.0
 11
2311.236068800391
 21
556.47776327493898
 31
0.0
  0
LINE
  5
299C7
  8
01
  6
BYBLOCK
 10
2312.843763940391
 20
550.47776327493887
 30
0.0
 11
2312.843763940391
 21
556.47776327493898
 31
0.0
  0
TEXT
  5
299C8
  8
01
 10
2374.4437639249591
 20
489.68545841493949
 30
0.0
 40
10.5
  1
t8
  0
LINE
  5
299C9
  8
01
  6
BYBLOCK
 10
2367.3437639249591
 20
485.97776327493949
 30
0.0
 11
2361.3437639249591
 21
487.58545841493941
 31
0.0
  0
LINE
  5
299CA
  8
01
  6
BYBLOCK
 10
2361.3437639249591
 20
487.58545841493941
 30
0.0
 11
2367.3437639249591
 21
489.1931535549395
 31
0.0
  0
LINE
  5
299CB
  8
01
  6
BYBLOCK
 10
2361.3437639249591
 20
487.58545841493941
 30
0.0
 11
2367.3437639249591
 21
487.58545841493941
 31
0.0
  0
LINE
  5
299CC
  8
01
  6
BYBLOCK
 10
2347.3437639249591
 20
489.1931535549395
 30
0.0
 11
2353.3437639249591
 21
487.58545841493941
 31
0.0
  0
LINE
  5
299CD
  8
01
  6
BYBLOCK
 10
2353.3437639249591
 20
487.58545841493941
 30
0.0
 11
2347.3437639249591
 21
485.97776327493949
 31
0.0
  0
LINE
  5
299CE
  8
01
  6
BYBLOCK
 10
2353.3437639249591
 20
487.58545841493941
 30
0.0
 11
2347.3437639249591
 21
487.58545841493941
 31
0.0
  0
LINE
  5
299CF
  8
01
 10
2375.165710917142
 20
196.5573168202138
 30
0.0
 11
2402.6560450076049
 21
240.0184725498867
 31
0.0
1001
ACAD
1000
DSTYLE
1002
{
1070
    40
1040
3.0
1002
}
  0
LINE
  5
299D0
  8
01
 10
2402.6560450076049
 20
240.0184725498867
 30
0.0
 11
2544.4560450076051
 21
240.0184725498867
 31
0.0
1001
ACAD
1000
DSTYLE
1002
{
1070
    40
1040
3.0
1002
}
  0
LINE
  5
299D1
  8
01
 10
2363.5942235525081
 20
95.813118234650617
 30
0.0
 11
2390.323391274952
 21
46.496579430010478
 31
0.0
1001
ACAD
1000
DSTYLE
1002
{
1070
    40
1040
3.0
1002
}
  0
LINE
  5
299D2
  8
01
 10
2390.323391274952
 20
46.496579430010478
 30
0.0
 11
2532.1233912749522
 21
46.496579430010478
 31
0.0
1001
ACAD
1000
DSTYLE
1002
{
1070
    40
1040
3.0
1002
}
  0
LINE
  5
299D3
  8
01
 10
2210.4353607335852
 20
570.20157467153172
 30
0.0
 11
2192.4604836707481
 21
593.15232495089549
 31
0.0
1001
ACAD
1000
DSTYLE
1002
{
1070
    40
1040
3.0
1002
}
  0
LINE
  5
299D4
  8
01
 10
2192.4604836707481
 20
593.15232495089549
 30
0.0
 11
2049.2604836707478
 21
593.15232495089549
 31
0.0
1001
ACAD
1000
DSTYLE
1002
{
1070
    40
1040
3.0
1002
}
  0
LINE
  5
299D5
  8
01
 10
2364.8135298006041
 20
332.46254524614233
 30
0.0
 11
2374.6534879045221
 21
346.7612318853698
 31
0.0
1001
ACAD
1000
DSTYLE
1002
{
1070
    40
1040
3.0
1002
}
  0
LINE
  5
299D6
  8
01
 10
2374.6534879045221
 20
346.7612318853698
 30
0.0
 11
2479.3534879045219
 21
346.7612318853698
 31
0.0
1001
ACAD
1000
DSTYLE
1002
{
1070
    40
1040
3.0
1002
}
  0
TEXT
  5
299D7
  8
01
 10
2399.7437639249588
 20
140.22776327493969
 30
0.0
 40
10.5
  1
110
 50
90.0
  0
LINE
  5
299D8
  8
01
  6
BYBLOCK
 10
2400.2360687849591
 20
204.97776327493921
 30
0.0
 11
2401.8437639249591
 21
210.97776327493921
 31
0.0
  0
LINE
  5
299D9
  8
01
  6
BYBLOCK
 10
2401.8437639249591
 20
210.97776327493921
 30
0.0
 11
2403.4514590649592
 21
204.97776327493921
 31
0.0
  0
LINE
  5
299DA
  8
01
  6
BYBLOCK
 10
2401.8437639249591
 20
210.97776327493921
 30
0.0
 11
2401.8437639249591
 21
204.97776327493921
 31
0.0
  0
LINE
  5
299DB
  8
01
  6
BYBLOCK
 10
2403.4514590649592
 20
106.97776327493941
 30
0.0
 11
2401.8437639249591
 21
100.97776327493941
 31
0.0
  0
LINE
  5
299DC
  8
01
  6
BYBLOCK
 10
2401.8437639249591
 20
100.97776327493941
 30
0.0
 11
2400.2360687849591
 21
106.97776327493941
 31
0.0
  0
LINE
  5
299DD
  8
01
  6
BYBLOCK
 10
2401.8437639249591
 20
100.97776327493941
 30
0.0
 11
2401.8437639249591
 21
106.97776327493941
 31
0.0
  0
VIEWPORT
  5
57
 67
     1
  8
0
 10
-12.71820606546887
 20
10.09248672500371
 30
0.0
 40
405.30338832619208
 41
286.96927405595568
 68
     1
 69
     1
1001
ACAD
1000
MVIEW
1002
{
1070
    16
1010
0.0
1020
0.0
1030
0.0
1010
0.0
1020
0.0
1030
1.0
1040
0.0
1040
286.96927405595568
1040
-12.71820606546887
1040
10.09248672500371
1040
50.0
1040
0.0
1040
0.0
1070
     0
1070
   100
1070
     1
1070
     1
1070
     0
1070
     0
1070
     0
1070
     1
1040
0.0
1040
0.0
1040
0.0
1040
10.0
1040
10.0
1040
10.0
1040
10.0
1070
     0
1002
{
1002
}
1002
}
  0
ENDSEC
  0
EOF
