  0
SECTION
  2
HEADER
  9
$ACADVER
  1
AC1009
  9
$INSBASE
 10
0.0
 20
0.0
 30
0.0
  9
$EXTMIN
 10
-484.61394271970562
 20
-1944.386677737059
 30
0.0
  9
$EXTMAX
 10
1257.716419970887
 20
-1736.7625065850259
 30
0.0
  9
$LIMMIN
 10
0.0
 20
0.0
  9
$LIMMAX
 10
420.0
 20
297.0
  9
$ORTHOMODE
 70
     0
  9
$REGENMODE
 70
     1
  9
$FILLMODE
 70
     1
  9
$QTEXTMODE
 70
     0
  9
$MIRRTEXT
 70
     0
  9
$DRAGMODE
 70
     2
  9
$LTSCALE
 40
0.5
  9
$OSMODE
 70
  2175
  9
$ATTMODE
 70
     1
  9
$TEXTSIZE
 40
4.0
  9
$TRACEWID
 40
1.0
  9
$TEXTSTYLE
  7
STANDARD
  9
$CLAYER
  8
1TEXT
  9
$CELTYPE
  6
BYLAYER
  9
$CECOLOR
 62
   256
  9
$DIMSCALE
 40
1.0
  9
$DIMASZ
 40
2.0
  9
$DIMEXO
 40
0.0
  9
$DIMDLI
 40
7.0
  9
$DIMRND
 40
0.0
  9
$DIMDLE
 40
0.0
  9
$DIMEXE
 40
1.0
  9
$DIMTP
 40
0.0
  9
$DIMTM
 40
0.0
  9
$DIMTXT
 40
3.5
  9
$DIMCEN
 40
0.0
  9
$DIMTSZ
 40
0.0
  9
$DIMTOL
 70
     0
  9
$DIMLIM
 70
     0
  9
$DIMTIH
 70
     0
  9
$DIMTOH
 70
     0
  9
$DIMSE1
 70
     0
  9
$DIMSE2
 70
     0
  9
$DIMTAD
 70
     1
  9
$DIMZIN
 70
     8
  9
$DIMBLK
  1

  9
$DIMASO
 70
     1
  9
$DIMSHO
 70
     1
  9
$DIMPOST
  1
 
  9
$DIMAPOST
  1

  9
$DIMALT
 70
     0
  9
$DIMALTD
 70
     2
  9
$DIMALTF
 40
25.399999999999999
  9
$DIMLFAC
 40
1.0
  9
$DIMTOFL
 70
     1
  9
$DIMTVP
 40
0.0
  9
$DIMTIX
 70
     0
  9
$DIMSOXD
 70
     0
  9
$DIMSAH
 70
     1
  9
$DIMBLK1
  1
OPEN30
  9
$DIMBLK2
  1
OPEN30
  9
$DIMSTYLE
  2
NEWX10
  9
$DIMCLRD
 70
   256
  9
$DIMCLRE
 70
   256
  9
$DIMCLRT
 70
   201
  9
$DIMTFAC
 40
0.7
  9
$DIMGAP
 40
0.7
  9
$LUNITS
 70
     2
  9
$LUPREC
 70
     4
  9
$SKETCHINC
 40
1.0
  9
$FILLETRAD
 40
0.0
  9
$AUNITS
 70
     0
  9
$AUPREC
 70
     2
  9
$MENU
  1
acad
  9
$ELEVATION
 40
0.0
  9
$PELEVATION
 40
0.0
  9
$THICKNESS
 40
0.0
  9
$LIMCHECK
 70
     0
  9
$BLIPMODE
 70
     0
  9
$CHAMFERA
 40
10.0
  9
$CHAMFERB
 40
10.0
  9
$SKPOLY
 70
     0
  9
$TDCREATE
 40
2453033.7326634838
  9
$TDUPDATE
 40
2455170.4036300932
  9
$TDINDWG
 40
1.8059584838
  9
$TDUSRTIMER
 40
1.8059584838
  9
$USRTIMER
 70
     1
  9
$ANGBASE
 50
0.0
  9
$ANGDIR
 70
     0
  9
$PDMODE
 70
     0
  9
$PDSIZE
 40
0.0
  9
$PLINEWID
 40
0.0
  9
$COORDS
 70
     2
  9
$SPLFRAME
 70
     0
  9
$SPLINETYPE
 70
     6
  9
$SPLINESEGS
 70
     8
  9
$ATTDIA
 70
     0
  9
$ATTREQ
 70
     1
  9
$HANDLING
 70
     1
  9
$HANDSEED
  5
18BD9
  9
$SURFTAB1
 70
     6
  9
$SURFTAB2
 70
     6
  9
$SURFTYPE
 70
     6
  9
$SURFU
 70
     6
  9
$SURFV
 70
     6
  9
$UCSNAME
  2

  9
$UCSORG
 10
0.0
 20
0.0
 30
0.0
  9
$UCSXDIR
 10
1.0
 20
0.0
 30
0.0
  9
$UCSYDIR
 10
0.0
 20
1.0
 30
0.0
  9
$PUCSNAME
  2

  9
$PUCSORG
 10
0.0
 20
0.0
 30
0.0
  9
$PUCSXDIR
 10
1.0
 20
0.0
 30
0.0
  9
$PUCSYDIR
 10
0.0
 20
1.0
 30
0.0
  9
$USERI1
 70
     0
  9
$USERI2
 70
     0
  9
$USERI3
 70
     0
  9
$USERI4
 70
     0
  9
$USERI5
 70
     0
  9
$USERR1
 40
0.0
  9
$USERR2
 40
0.0
  9
$USERR3
 40
0.0
  9
$USERR4
 40
0.0
  9
$USERR5
 40
0.0
  9
$WORLDVIEW
 70
     1
  9
$SHADEDGE
 70
     3
  9
$SHADEDIF
 70
    70
  9
$TILEMODE
 70
     1
  9
$MAXACTVP
 70
    48
  9
$PLIMCHECK
 70
     0
  9
$PEXTMIN
 10
1.0000000000000000E+020
 20
1.0000000000000000E+020
 30
1.0000000000000000E+020
  9
$PEXTMAX
 10
-1.0000000000000000E+020
 20
-1.0000000000000000E+020
 30
-1.0000000000000000E+020
  9
$PLIMMIN
 10
0.0
 20
0.0
  9
$PLIMMAX
 10
420.0
 20
297.0
  9
$UNITMODE
 70
     0
  9
$VISRETAIN
 70
     1
  9
$PLINEGEN
 70
     0
  9
$PSLTSCALE
 70
     1
  0
ENDSEC
  0
SECTION
  2
TABLES
  0
TABLE
  2
VPORT
 70
     1
  0
VPORT
  2
*ACTIVE
 70
     0
 10
0.0
 20
0.0
 11
1.0
 21
1.0
 12
386.55124268227081
 22
-1840.570004081392
 13
0.0
 23
0.0
 14
10.0
 24
10.0
 15
10.0
 25
10.0
 16
0.0
 26
0.0
 36
1.0
 17
0.0
 27
0.0
 37
0.0
 40
1305.5876219129241
 41
1.4123581336696089
 42
50.0
 43
0.0
 44
0.0
 50
0.0
 51
0.0
 71
     0
 72
   100
 73
     1
 74
     1
 75
     0
 76
     0
 77
     0
 78
     0
  0
ENDTAB
  0
TABLE
  2
LTYPE
 70
    16
  0
LTYPE
  2
CONTINUOUS
 70
     0
  3
Solid line
 72
    65
 73
     0
 40
0.0
  0
LTYPE
  2
CENTER2
 70
     0
  3
Center (.5x) ___ _ ___ _ ___ _ ___ _ ___ _ ___
 72
    65
 73
     4
 40
28.574999999999999
 49
19.050000000000001
 49
-3.1749999999999989
 49
3.1749999999999989
 49
-3.1749999999999989
  0
LTYPE
  2
XREF1|CENTER2
 70
    48
  3
Center (.5x) ___ _ ___ _ ___ _ ___ _ ___ _ ___
 72
    65
 73
     4
 40
28.574999999999999
 49
19.050000000000001
 49
-3.1749999999999989
 49
3.1749999999999989
 49
-3.1749999999999989
  0
LTYPE
  2
PHANTOM2
 70
     0
  3
Phantom (.5x) ___ _ _ ___ _ _ ___ _ _ ___ _ _
 72
    65
 73
     6
 40
31.75
 49
15.875
 49
-3.1749999999999989
 49
3.1749999999999989
 49
-3.1749999999999989
 49
3.1749999999999989
 49
-3.1749999999999989
  0
LTYPE
  2
A3WAKUDAKE|CENTER2
 70
    48
  3
Center (.5x) ___ _ ___ _ ___ _ ___ _ ___ _ ___
 72
    65
 73
     4
 40
28.574999999999999
 49
19.050000000000001
 49
-3.1749999999999989
 49
3.1749999999999989
 49
-3.1749999999999989
  0
ENDTAB
  0
TABLE
  2
LAYER
 70
    48
  0
LAYER
  2
0
 70
     0
 62
     7
  6
CONTINUOUS
  0
LAYER
  2
1CENTER
 70
     0
 62
     7
  6
CENTER2
  0
LAYER
  2
1TEXT
 70
     0
 62
     7
  6
CONTINUOUS
  0
LAYER
  2
1DIM
 70
     0
 62
     7
  6
CONTINUOUS
  0
LAYER
  2
1PHANTOM
 70
     0
 62
     7
  6
PHANTOM2
  0
LAYER
  2
01
 70
     0
 62
     1
  6
CONTINUOUS
  0
LAYER
  2
1DIM1
 70
     0
 62
     7
  6
CONTINUOUS
  0
LAYER
  2
1HATCH
 70
     0
 62
     7
  6
CONTINUOUS
  0
LAYER
  2
XREF1|1CENTER
 70
    48
 62
     7
  6
XREF1|CENTER2
  0
LAYER
  2
A3WAKUDAKE|THICK
 70
    48
 62
     7
  6
CONTINUOUS
  0
LAYER
  2
A3WAKUDAKE|POINT
 70
    48
 62
     7
  6
CONTINUOUS
  0
LAYER
  2
A3WAKUDAKE|1CENTER
 70
    48
 62
     7
  6
A3WAKUDAKE|CENTER2
  0
LAYER
  2
A3WAKUDAKE|0-6
 70
    48
 62
     7
  6
CONTINUOUS
  0
LAYER
  2
A3WAKUDAKE|1DIM
 70
    48
 62
     7
  6
CONTINUOUS
  0
ENDTAB
  0
TABLE
  2
STYLE
 70
    22
  0
STYLE
  2
STANDARD
 70
     0
 40
0.0
 41
1.0
 50
0.0
 71
     0
 42
4.0
  3
txt.shx
  4
extfont.shx
  0
ENDTAB
  0
TABLE
  2
VIEW
 70
     0
  0
ENDTAB
  0
TABLE
  2
UCS
 70
     0
  0
ENDTAB
  0
TABLE
  2
APPID
 70
    10
  0
APPID
  2
ACAD
 70
     0
  0
APPID
  2
DRAWINGVARIABLESXDATA
 70
     0
  0
APPID
  2
CONTENTTABDATA
 70
     0
  0
APPID
  2
CONTENTCURRENTTAB
 70
     0
  0
APPID
  2
CONTENTBLOCKDESCRIPTION
 70
     0
  0
APPID
  2
CONTENTBLOCKICON
 70
     0
  0
APPID
  2
CONTENTLONGBLOCKNAME
 70
     0
  0
APPID
  2
ACAD_PSEXT
 70
     0
  0
APPID
  2
ACAD_DSTYLE_DIMTEXT_FILL
 70
     0
  0
APPID
  2
ACAD_MLEADERVER
 70
     0
  0
ENDTAB
  0
TABLE
  2
DIMSTYLE
 70
     9
  0
DIMSTYLE
  2
NEWX10
 70
     0
  3
 
  4

  5

  6
OPEN30
  7
OPEN30
 40
1.0
 41
2.0
 42
0.0
 43
7.0
 44
1.0
 45
0.0
 46
0.0
 47
0.0
 48
0.0
140
3.5
141
0.0
142
0.0
143
25.399999999999999
144
1.0
145
0.0
146
0.7
147
0.7
 71
     0
 72
     0
 73
     0
 74
     0
 75
     0
 76
     0
 77
     1
 78
     8
170
     0
171
     2
172
     1
173
     1
174
     0
175
     0
176
   256
177
   256
178
   201
  0
ENDTAB
  0
ENDSEC
  0
SECTION
  2
BLOCKS
  0
BLOCK
  8
0
  2
$MODEL_SPACE
 70
     0
 10
0.0
 20
0.0
 30
0.0
  3
$MODEL_SPACE
  1

  0
ENDBLK
  5
1A
  8
0
  0
BLOCK
 67
     1
  8
0
  2
$PAPER_SPACE
 70
     0
 10
0.0
 20
0.0
 30
0.0
  3
$PAPER_SPACE
  1

  0
ENDBLK
  5
17
 67
     1
  8
0
  0
BLOCK
  8
0
  2
_OPEN30
 70
     0
 10
0.0
 20
0.0
 30
0.0
  3
_OPEN30
  1

  0
LINE
  5
44
  8
0
  6
BYBLOCK
 62
     0
 10
-1.0
 20
0.26794919
 30
0.0
 11
0.0
 21
0.0
 31
0.0
  0
LINE
  5
45
  8
0
  6
BYBLOCK
 62
     0
 10
0.0
 20
0.0
 30
0.0
 11
-1.0
 21
-0.26794919
 31
0.0
  0
LINE
  5
46
  8
0
  6
BYBLOCK
 62
     0
 10
0.0
 20
0.0
 30
0.0
 11
-1.0
 21
0.0
 31
0.0
  0
ENDBLK
  5
47
  8
0
  0
BLOCK
  8
0
  2
XREF1
 70
    36
 10
0.0
 20
0.0
 30
0.0
  3
XREF1
  1
D:\ACLT\FORMAT\KAWAJUN(9)図面用.dwg
  0
ENDBLK
  5
5D
  8
0
  0
BLOCK
  8
0
  2
A3WAKUDAKE
 70
    36
 10
0.0
 20
0.0
 30
0.0
  3
A3WAKUDAKE
  1
D:\ACLT\FORMAT\A3WAKUdake.dwg
  0
ENDBLK
  5
6DC
  8
0
  0
BLOCK
  8
0
  2
*U63
 70
     1
 10
0.0
 20
0.0
 30
0.0
  3
*U63
  1

  0
TEXT
  5
187CB
  8
0
 62
   201
 10
-63.717024855154051
 20
-3.8109119089904788
 30
0.0
 40
3.5
  1
φ5
 50
48.83031736650419
  0
ENDBLK
  5
187CD
  8
0
  0
BLOCK
  8
0
  2
*U64
 70
     1
 10
0.0
 20
0.0
 30
0.0
  3
*U64
  1

  0
TEXT
  5
187CF
  8
1TEXT
 62
   201
 10
21.614708555164611
 20
22.401236958861659
 30
0.0
 40
2.0
  1
二文字
  0
TEXT
  5
187D0
  8
1TEXT
 62
   201
 10
21.614708555164611
 20
19.067903625528331
 30
0.0
 40
2.0
  1
(別途指定)
  0
TEXT
  5
187D1
  8
1TEXT
 62
   201
 10
21.614708555164611
 20
15.73457029219499
 30
0.0
 40
2.0
  1
天地 約1.8
  0
TEXT
  5
187D2
  8
1TEXT
 62
   201
 10
21.614708555164611
 20
12.401236958861659
 30
0.0
 40
2.0
  1
凸0.2
  0
ENDBLK
  5
187D4
  8
0
  0
BLOCK
  8
0
  2
*U65
 70
     1
 10
0.0
 20
0.0
 30
0.0
  3
*U65
  1

  0
SOLID
  5
187D6
  8
1DIM
 10
17.769912945885331
 20
22.805130681268722
 30
0.0
 11
17.678379796037799
 21
23.814783819854821
 31
0.0
 12
18.0924202800296
 22
22.889392953575271
 32
0.0
 13
18.0924202800296
 23
22.889392953575271
 33
0.0
  0
POLYLINE
  5
187D7
  8
1DIM
 66
     1
 10
0.0
 20
0.0
 30
0.0
  0
VERTEX
  5
187D8
  8
1DIM
 10
17.931166612957469
 20
22.847261817422002
 30
0.0
  0
VERTEX
  5
187D9
  8
1DIM
 10
20.91703607932029
 20
11.41907722970881
 30
0.0
  0
VERTEX
  5
187DA
  8
1DIM
 10
35.143226555510758
 20
11.41907722970881
 30
0.0
  0
SEQEND
  5
187DB
  8
1DIM
  0
ENDBLK
  5
187DD
  8
0
  0
BLOCK
  8
0
  2
*U66
 70
     1
 10
0.0
 20
0.0
 30
0.0
  3
*U66
  1

  0
TEXT
  5
187DF
  8
1DIM
 62
   201
 10
8.9421530727463576
 20
19.285028579396069
 30
0.0
 40
2.0
  1
枠
  0
TEXT
  5
187E0
  8
1DIM
 62
   201
 10
7.0754864060796896
 20
15.951695246062741
 30
0.0
 40
2.0
  1
φ5
  0
TEXT
  5
187E1
  8
1DIM
 62
   201
 10
4.7421530727463583
 20
12.61836191272941
 30
0.0
 40
2.0
  1
凹0.3
  0
ENDBLK
  5
187E3
  8
0
  0
BLOCK
  8
0
  2
*U67
 70
     1
 10
0.0
 20
0.0
 30
0.0
  3
*U67
  1

  0
SOLID
  5
187E5
  8
1DIM
 10
14.77538895849114
 20
20.894651819020488
 30
0.0
 11
15.75963814806016
 21
22.667323431007279
 31
0.0
 12
15.403512140193291
 22
20.67125595278117
 32
0.0
 13
15.403512140193291
 23
20.67125595278117
 33
0.0
  0
POLYLINE
  5
187E6
  8
1DIM
 66
     1
 10
0.0
 20
0.0
 30
0.0
  0
VERTEX
  5
187E7
  8
1DIM
 10
15.089450549342221
 20
20.782953885900831
 30
0.0
  0
VERTEX
  5
187E8
  8
1DIM
 10
11.821762131327951
 20
11.59517937383526
 30
0.0
  0
VERTEX
  5
187E9
  8
1DIM
 10
2.3789049884708091
 20
11.59517937383526
 30
0.0
  0
SEQEND
  5
187EA
  8
1DIM
  0
ENDBLK
  5
187EC
  8
0
  0
BLOCK
  8
0
  2
*U68
 70
     1
 10
0.0
 20
0.0
 30
0.0
  3
*U68
  1

  0
TEXT
  5
187EF
  8
1TEXT
 10
14.9745471932972
 20
24.09947430071913
 30
0.0
 40
1.8
  1
XY
  0
ENDBLK
  5
187F1
  8
0
  0
BLOCK
  8
0
  2
*U69
 70
     1
 10
0.0
 20
0.0
 30
0.0
  3
*U69
  1

  0
LINE
  5
187F3
  8
0
 10
-4.1999999999999877
 20
-1.9999999999999849
 30
0.0
 11
-0.3500000000000227
 21
-2.0
 31
0.0
  0
LINE
  5
187F4
  8
0
 10
0.0
 20
-1.6499999999998629
 30
0.0
 11
-0.3500000000000227
 21
-2.0
 31
0.0
  0
LINE
  5
187F5
  8
0
 10
-6.0
 20
-0.200000000000017
 30
0.0
 11
-4.1999999999999877
 21
-1.9999999999999849
 31
0.0
  0
LINE
  5
187F6
  8
0
 10
0.0
 20
1.649999999999977
 30
0.0
 11
0.0
 21
-1.6499999999998629
 31
0.0
  0
LINE
  5
187F7
  8
0
 10
-6.0
 20
0.2000000000000028
 30
0.0
 11
-6.0
 21
-0.200000000000017
 31
0.0
  0
LINE
  5
187F8
  8
0
 10
-0.3500000000000227
 20
2.0
 30
0.0
 11
0.0
 21
1.649999999999977
 31
0.0
  0
LINE
  5
187F9
  8
0
 10
-6.0
 20
0.2000000000000028
 30
0.0
 11
-4.2000000000000446
 21
2.0
 31
0.0
  0
LINE
  5
187FA
  8
0
 10
-4.2000000000000446
 20
2.0
 30
0.0
 11
-0.3500000000000227
 21
2.0
 31
0.0
  0
ENDBLK
  5
187FC
  8
0
  0
BLOCK
  8
0
  2
*U70
 70
     1
 10
0.0
 20
0.0
 30
0.0
  3
*U70
  1

  0
LINE
  5
187FE
  8
0
 10
-5.6499999999999773
 20
2.0000000000000142
 30
0.0
 11
-0.3500000000000227
 21
2.0
 31
0.0
  0
LINE
  5
187FF
  8
0
 10
-5.6499999999999773
 20
2.0000000000000142
 30
0.0
 11
-6.0
 21
1.6499999999999631
 31
0.0
  0
LINE
  5
18800
  8
0
 10
-0.3500000000000227
 20
2.0
 30
0.0
 11
0.0
 21
1.649999999999977
 31
0.0
  0
LINE
  5
18801
  8
0
 10
-6.0
 20
1.6499999999999631
 30
0.0
 11
-6.0
 21
-1.6499999999998629
 31
0.0
  0
LINE
  5
18802
  8
0
 10
0.0
 20
1.649999999999977
 30
0.0
 11
0.0
 21
-1.6499999999998629
 31
0.0
  0
LINE
  5
18803
  8
0
 10
-6.0
 20
-1.6499999999998629
 30
0.0
 11
-5.6499999999999773
 21
-1.9999999999999849
 31
0.0
  0
LINE
  5
18804
  8
0
 10
0.0
 20
-1.6499999999998629
 30
0.0
 11
-0.3500000000000227
 21
-2.0
 31
0.0
  0
LINE
  5
18805
  8
0
 10
-5.6499999999999773
 20
-1.9999999999999849
 30
0.0
 11
-0.3500000000000227
 21
-2.0
 31
0.0
  0
ENDBLK
  5
18807
  8
0
  0
BLOCK
  8
0
  2
*X71
 70
     1
 10
0.0
 20
0.0
 30
0.0
  3
*X71
  1

  0
LINE
  5
18809
  8
0
 62
     0
 10
10.35561001165331
 20
1.7353216665921991
 30
0.0
 11
1.735321666592085
 21
10.35561001165342
 31
0.0
  0
LINE
  5
1880A
  8
0
 62
     0
 10
0.0000000000001137
 20
8.4988292298177157
 30
0.0
 11
-1.838891835213303
 21
10.337721065031021
 31
0.0
  0
LINE
  5
1880B
  8
0
 62
     0
 10
8.4988292298179431
 20
-0.0000000000001137
 30
0.0
 11
0.0000000000001137
 21
8.4988292298177157
 31
0.0
  0
LINE
  5
1880C
  8
0
 62
     0
 10
10.337721065031131
 20
-1.838891835213303
 30
0.0
 11
8.4988292298179431
 21
-0.0000000000001137
 31
0.0
  0
LINE
  5
1880D
  8
0
 62
     0
 10
-0.2377810848388435
 20
5.1445078662289907
 30
0.0
 11
-4.5542045235814612
 21
9.4609313049716093
 31
0.0
  0
LINE
  5
1880E
  8
0
 62
     0
 10
9.4609313049714956
 20
-4.5542045235813466
 30
0.0
 11
5.1445078662289907
 21
-0.2377810848388435
 31
0.0
  0
LINE
  5
1880F
  8
0
 62
     0
 10
-2.9244738727450108
 20
4.2390982057073643
 30
0.0
 11
-6.7381554127728123
 21
8.0527797457351653
 31
0.0
  0
LINE
  5
18810
  8
0
 62
     0
 10
8.0527797457350516
 20
-6.7381554127726977
 30
0.0
 11
4.2390982057073643
 21
-2.9244738727450108
 31
0.0
  0
LINE
  5
18811
  8
0
 62
     0
 10
-4.5977163449367699
 20
2.3202382294715558
 30
0.0
 11
-8.4755144637537114
 21
6.1980363482883831
 31
0.0
  0
LINE
  5
18812
  8
0
 62
     0
 10
6.1980363482882694
 20
-8.4755144637535977
 30
0.0
 11
2.3202382294715558
 21
-4.5977163449367699
 31
0.0
  0
LINE
  5
18813
  8
0
 62
     0
 10
-5.0907718486563454
 20
-0.7788087152364369
 30
0.0
 11
-5.8695805638927823
 21
0.0
 31
0.0
  0
LINE
  5
18814
  8
0
 62
     0
 10
-5.8695805638928951
 20
0.0
 30
0.0
 11
-9.9540062277598054
 21
4.0844256638669094
 31
0.0
  0
LINE
  5
18815
  8
0
 62
     0
 10
3.8851808324346839
 20
-9.7547613963275808
 30
0.0
 11
2.0
 21
-7.8695805638928951
 31
0.0
  0
LINE
  5
18816
  8
0
 62
     0
 10
-9.4616830123206892
 20
0.0
 30
0.0
 11
-18.103896804350711
 21
8.6422137920301338
 31
0.0
  0
LINE
  5
18817
  8
0
 62
     0
 10
-2.0000000000001128
 20
-7.4616830123204627
 30
0.0
 11
-9.4616830123204636
 21
-0.0000000000001137
 31
0.0
  0
LINE
  5
18818
  8
0
 62
     0
 10
-13.05378546074826
 20
0.0000000000001137
 30
0.0
 11
-15.175214195387071
 21
2.1214287346389251
 31
0.0
  0
LINE
  5
18819
  8
0
 62
     0
 10
-16.603785460748661
 20
3.5500000000005221
 30
0.0
 11
-23.851266556543241
 21
10.79748109579509
 31
0.0
  0
LINE
  5
1881A
  8
0
 62
     0
 10
-2.9878714975766338
 20
-10.065913963171511
 30
0.0
 11
-13.053785460748029
 21
-0.0000000000001137
 31
0.0
  0
LINE
  5
1881B
  8
0
 62
     0
 10
-20.195887909176118
 20
3.5500000000002951
 30
0.0
 11
-28.659515684223379
 21
12.013627775047439
 31
0.0
  0
LINE
  5
1881C
  8
0
 62
     0
 10
-29.100013291500659
 20
12.454125382324831
 30
0.0
 11
-29.745874817675372
 21
13.09998690849943
 31
0.0
  0
LINE
  5
1881D
  8
0
 62
     0
 10
-12.628969351714661
 20
-4.0169185574611674
 30
0.0
 11
-14.93702132611565
 21
-1.7088665830602841
 31
0.0
  0
LINE
  5
1881E
  8
0
 62
     0
 10
-23.78799035760369
 20
3.550000000000181
 30
0.0
 11
-27.799999599999751
 21
7.5620092423962433
 31
0.0
  0
LINE
  5
1881F
  8
0
 62
     0
 10
-31.237990357603621
 20
11.00000000000011
 30
0.0
 11
-33.000000200000052
 21
12.762009842396539
 31
0.0
  0
LINE
  5
18820
  8
0
 62
     0
 10
-13.78316865624026
 20
-6.454821701363243
 30
0.0
 11
-16.687990357603208
 21
-3.5500000000002951
 31
0.0
  0
LINE
  5
18821
  8
0
 62
     0
 10
-16.124704244214509
 20
-7.7053885618167888
 30
0.0
 11
-20.280092806031231
 21
-3.5500000000000682
 31
0.0
  0
LINE
  5
18822
  8
0
 62
     0
 10
-18.57318348346837
 20
-8.849011770990387
 30
0.0
 11
-20.133604742031139
 21
-7.2885905124276169
 31
0.0
  0
LINE
  5
18823
  8
0
 62
     0
 10
-24.295840827822978
 20
-6.7184568750635663
 30
0.0
 11
-27.132148651443231
 21
-3.8821490514432071
 31
0.0
  0
LINE
  5
18824
  8
0
 62
     0
 10
-23.818861225215301
 20
-10.787538926098931
 30
0.0
 11
-27.799999599999872
 21
-6.8064005513143684
 31
0.0
  0
LINE
  5
18825
  8
0
 62
     0
 10
-26.63513577162314
 20
-11.56336682811866
 30
0.0
 11
-28.117386294735979
 21
-10.081116305005819
 31
0.0
  0
LINE
  5
18826
  8
0
 62
     0
 10
-29.133782390785999
 20
-12.656822657383479
 30
0.0
 11
-30.790605048169478
 21
-11.00000000000011
 31
0.0
  0
LINE
  5
18827
  8
0
 62
     0
 10
-31.632707496597501
 20
-13.749999999999661
 30
0.0
 11
-33.000000200000159
 21
-12.38270729659712
 31
0.0
  0
ENDBLK
  5
18829
  8
0
  0
BLOCK
  8
0
  2
*X72
 70
     1
 10
0.0
 20
0.0
 30
0.0
  3
*X72
  1

  0
LINE
  5
1882B
  8
0
 62
     0
 10
0.0
 20
-9.5063084520140535
 30
0.0
 11
1.243691546508898
 21
-10.74999999852295
 31
0.0
  0
LINE
  5
1882C
  8
0
 62
     0
 10
1.3407299661462839
 20
-9.5
 30
0.0
 11
1.8000087437750381
 21
-9.9592787776287537
 31
0.0
  0
LINE
  5
1882D
  8
0
 62
     0
 10
0.0
 20
-4.1181547793725883
 30
0.0
 11
0.8818452206274969
 21
-5.0000000000000853
 31
0.0
  0
LINE
  5
1882E
  8
0
 62
     0
 10
0.0000000000000284
 20
-2.77111636121225
 30
0.0
 11
1.8000087437751799
 21
-4.5711251049874022
 31
0.0
  0
LINE
  5
1882F
  8
0
 62
     0
 10
0.0
 20
-1.4240779430518271
 30
0.0
 11
2.125922055471221
 21
-3.5499999985230479
 31
0.0
  0
LINE
  5
18830
  8
0
 62
     0
 10
-0.0000000000000284
 20
-0.0770395248914611
 30
0.0
 11
3.2229604751084651
 21
-3.2999999999999541
 31
0.0
  0
LINE
  5
18831
  8
0
 62
     0
 10
1.269998893268905
 20
0.0000000000000284
 30
0.0
 11
4.5699988932688589
 21
-3.2999999999999541
 31
0.0
  0
LINE
  5
18832
  8
0
 62
     0
 10
0.0
 20
1.269998893268933
 30
0.0
 11
1.2699988932688759
 21
0.0000000000000284
 31
0.0
  0
LINE
  5
18833
  8
0
 62
     0
 10
2.6170373114292711
 20
0.0000000000000284
 30
0.0
 11
5.9170373114292261
 21
-3.2999999999999261
 31
0.0
  0
LINE
  5
18834
  8
0
 62
     0
 10
0.0
 20
2.6170373114292991
 30
0.0
 11
2.6170373114292711
 21
0.0000000000000284
 31
0.0
  0
LINE
  5
18835
  8
0
 62
     0
 10
3.9640757295896369
 20
0.0
 30
0.0
 11
7.2640757295895924
 21
-3.2999999999999541
 31
0.0
  0
LINE
  5
18836
  8
0
 62
     0
 10
-0.0000000000000284
 20
3.9640757295896658
 30
0.0
 11
3.964075729589609
 21
0.0000000000000284
 31
0.0
  0
LINE
  5
18837
  8
0
 62
     0
 10
5.3111141477500601
 20
-0.0000000000000568
 30
0.0
 11
8.6111141477499871
 21
-3.2999999999999541
 31
0.0
  0
LINE
  5
18838
  8
0
 62
     0
 10
0.3111141477500894
 20
4.9999999999999138
 30
0.0
 11
5.3111141477500041
 21
0.0000000000000284
 31
0.0
  0
LINE
  5
18839
  8
0
 62
     0
 10
3.358152565910415
 20
3.2999999999999541
 30
0.0
 11
6.6581525659103704
 21
0.0000000000000284
 31
0.0
  0
LINE
  5
1883A
  8
0
 62
     0
 10
6.6581525659104273
 20
-0.0000000000000284
 30
0.0
 11
9.5072519243349234
 21
-2.8490993584245521
 31
0.0
  0
LINE
  5
1883B
  8
0
 62
     0
 10
1.65815256591037
 20
5.0000000000000284
 30
0.0
 11
1.8000087437750381
 21
4.8581438221353324
 31
0.0
  0
LINE
  5
1883C
  8
0
 62
     0
 10
8.0051909840707935
 20
-0.0000000000000568
 30
0.0
 11
11.16707517499839
 21
-3.1618841909276219
 31
0.0
  0
LINE
  5
1883D
  8
0
 62
     0
 10
4.7051909840707822
 20
3.2999999999999541
 30
0.0
 11
8.0051909840707367
 21
0.0
 31
0.0
  0
LINE
  5
1883E
  8
0
 62
     0
 10
9.3522294022312167
 20
-0.0000000000000568
 30
0.0
 11
12.652229402231081
 21
-3.2999999999999541
 31
0.0
  0
LINE
  5
1883F
  8
0
 62
     0
 10
6.0522294022312053
 20
3.2999999999999541
 30
0.0
 11
9.3522294022311314
 21
0.0000000000000284
 31
0.0
  0
LINE
  5
18840
  8
0
 62
     0
 10
7.3992678203915432
 20
3.2999999999999541
 30
0.0
 11
10.699267820391499
 21
0.0
 31
0.0
  0
LINE
  5
18841
  8
0
 62
     0
 10
10.699267820391579
 20
-0.0000000000000568
 30
0.0
 11
12.90000019999993
 21
-2.2007323796084099
 31
0.0
  0
LINE
  5
18842
  8
0
 62
     0
 10
-0.0000000000000284
 20
10.699267820391521
 30
0.0
 11
1.1992678203915259
 21
9.5
 31
0.0
  0
LINE
  5
18843
  8
0
 62
     0
 10
9.2443367211198222
 20
2.8019695174320409
 30
0.0
 11
12.04630623855186
 21
0.0
 31
0.0
  0
LINE
  5
18844
  8
0
 62
     0
 10
12.046306238551949
 20
-0.0000000000000853
 30
0.0
 11
14.046306238551921
 21
-2.000000000000056
 31
0.0
  0
LINE
  5
18845
  8
0
 62
     0
 10
1.2963062400289971
 20
10.74999999852287
 30
0.0
 11
1.8000087437750381
 21
10.246297494776851
 31
0.0
  0
LINE
  5
18846
  8
0
 62
     0
 10
13.39334465671234
 20
-0.0000000000001137
 30
0.0
 11
15.39334465671226
 21
-2.000000000000028
 31
0.0
  0
LINE
  5
18847
  8
0
 62
     0
 10
15.90000020000002
 20
-2.5066555432877911
 30
0.0
 11
16.143344656712259
 21
-2.75
 31
0.0
  0
LINE
  5
18848
  8
0
 62
     0
 10
10.379815373485821
 20
3.0135292832264322
 30
0.0
 11
13.39334465671223
 21
0.0
 31
0.0
  0
LINE
  5
18849
  8
0
 62
     0
 10
14.74038307487271
 20
-0.0000000000000853
 30
0.0
 11
16.995191537436309
 21
-2.2548084625636871
 31
0.0
  0
LINE
  5
1884A
  8
0
 62
     0
 10
11.513261852327391
 20
3.227121222545235
 30
0.0
 11
14.7403830748726
 21
0.0000000000000284
 31
0.0
  0
LINE
  5
1884B
  8
0
 62
     0
 10
14.0874214930331
 20
1.9999999999999141
 30
0.0
 11
16.087421493032959
 21
0.0000000000000284
 31
0.0
  0
LINE
  5
1884C
  8
0
 62
     0
 10
16.08742149303308
 20
-0.0000000000000853
 30
0.0
 11
17.00000000000005
 21
-0.9125785069670656
 31
0.0
  0
LINE
  5
1884D
  8
0
 62
     0
 10
12.787421493032809
 20
3.300000000000181
 30
0.0
 11
12.90000019999991
 21
3.1874212930330819
 31
0.0
  0
LINE
  5
1884E
  8
0
 62
     0
 10
15.43445991119353
 20
1.999999999999829
 30
0.0
 11
17.00000000000011
 21
0.4344599111932724
 31
0.0
  0
LINE
  5
1884F
  8
0
 62
     0
 10
16.03149832935372
 20
2.75
 30
0.0
 11
17.00000000000011
 21
1.78149832935361
 31
0.0
  0
ENDBLK
  5
18851
  8
0
  0
BLOCK
  8
0
  2
*X73
 70
     1
 10
0.0
 20
0.0
 30
0.0
  3
*X73
  1

  0
LINE
  5
18853
  8
0
 62
     0
 10
13.41339771754258
 20
-3.163142703204584
 30
0.0
 11
14.23685749679546
 21
-3.986602482457442
 31
0.0
  0
LINE
  5
18854
  8
0
 62
     0
 10
13.43543246913447
 20
-2.7361646487429989
 30
0.0
 11
14.66383555125705
 21
-3.9645677308655531
 31
0.0
  0
LINE
  5
18855
  8
0
 62
     0
 10
13.57832483846698
 20
-2.4300442120220671
 30
0.0
 11
14.969955987978009
 21
-3.821675361533067
 31
0.0
  0
LINE
  5
18856
  8
0
 62
     0
 10
13.79845481036614
 20
-2.2011613778677481
 30
0.0
 11
15.198838822132331
 21
-3.601545389633912
 31
0.0
  0
LINE
  5
18857
  8
0
 62
     0
 10
14.09420797036085
 20
-2.04790173180902
 30
0.0
 11
15.352098468191031
 21
-3.3057922296391662
 31
0.0
  0
LINE
  5
18858
  8
0
 62
     0
 10
14.50036871342669
 20
-2.005049668821413
 30
0.0
 11
15.39495053117866
 21
-2.8996314865733832
 31
0.0
  0
LINE
  5
18859
  8
0
 62
     0
 10
13.48049176570316
 20
2.6069297273297991
 30
0.0
 11
14.00692992732988
 21
2.0804915657031131
 31
0.0
  0
LINE
  5
1885A
  8
0
 62
     0
 10
13.408249854336271
 20
3.1281844447501612
 30
0.0
 11
14.52818464475018
 21
2.0082496543362529
 31
0.0
  0
LINE
  5
1885B
  8
0
 62
     0
 10
13.51667895516789
 20
3.468768149971992
 30
0.0
 11
14.86876834997204
 21
2.1166787551678108
 31
0.0
  0
LINE
  5
1885C
  8
0
 62
     0
 10
13.71033322290037
 20
3.7241266882929831
 30
0.0
 11
15.124126888293031
 21
2.3103330229002941
 31
0.0
  0
LINE
  5
1885D
  8
0
 62
     0
 10
13.977233952031639
 20
3.9062387652151642
 30
0.0
 11
15.306238965215179
 21
2.5772337520315882
 31
0.0
  0
LINE
  5
1885E
  8
0
 62
     0
 10
14.334624784025429
 20
3.9978607392748131
 30
0.0
 11
15.39786093927486
 21
2.9346245840254142
 31
0.0
  0
LINE
  5
1885F
  8
0
 62
     0
 10
14.93953507999831
 20
3.8419632493554161
 30
0.0
 11
15.24196344935546
 21
3.5395348799982278
 31
0.0
  0
ENDBLK
  5
18861
  8
0
  0
BLOCK
  8
0
  2
*X74
 70
     1
 10
0.0
 20
0.0
 30
0.0
  3
*X74
  1

  0
LINE
  5
18863
  8
0
 62
     0
 10
6.8579485945102761
 20
5.150000099999942
 30
0.0
 11
1.636218397399261
 21
10.37173029711095
 31
0.0
  0
LINE
  5
18864
  8
0
 62
     0
 10
0.0000000000001137
 20
8.4158462460825376
 30
0.0
 11
-1.909133603078998
 21
10.32497984916165
 31
0.0
  0
LINE
  5
18865
  8
0
 62
     0
 10
3.2658461460825938
 20
5.150000099999942
 30
0.0
 11
0.0000000000001137
 21
8.4158462460825376
 31
0.0
  0
LINE
  5
18866
  8
0
 62
     0
 10
-0.3262563023448592
 20
5.150000099999942
 30
0.0
 11
-4.6100846621066012
 21
9.4338284597616848
 31
0.0
  0
LINE
  5
18867
  8
0
 62
     0
 10
-3.9183587507726538
 20
5.150000099999942
 30
0.0
 11
-6.7832174315673219
 21
8.0148587807946114
 31
0.0
  0
LINE
  5
18868
  8
0
 62
     0
 10
8.0148587807946114
 20
-6.7832174315674356
 30
0.0
 11
6.3816414492273452
 21
-5.1500001000001703
 31
0.0
  0
LINE
  5
18869
  8
0
 62
     0
 10
-7.5104611992003347
 20
5.150000099999942
 30
0.0
 11
-8.5000000000001137
 21
6.1395389007996073
 31
0.0
  0
LINE
  5
1886A
  8
0
 62
     0
 10
6.1499847166651298
 20
-8.5104458158656371
 30
0.0
 11
2.789539000799663
 21
-5.1500001000000557
 31
0.0
  0
LINE
  5
1886B
  8
0
 62
     0
 10
0.0
 20
-5.9525635476279604
 30
0.0
 11
-0.8025634476280174
 21
-5.1500001000000557
 31
0.0
  0
LINE
  5
1886C
  8
0
 62
     0
 10
4.0606450332290933
 20
-10.01320858085716
 30
0.0
 11
0.0000000000002274
 21
-5.9525635476283014
 31
0.0
  0
LINE
  5
1886D
  8
0
 62
     0
 10
0.0
 20
-9.5446659960557554
 30
0.0
 11
-4.3946658960555851
 21
-5.1500001000000557
 31
0.0
  0
LINE
  5
1886E
  8
0
 62
     0
 10
8.7087069959245582
 20
-18.2533729919802
 30
0.0
 11
0.0000000000003411
 21
-9.5446659960559828
 31
0.0
  0
LINE
  5
1886F
  8
0
 62
     0
 10
1.925088887040374
 20
-15.061857331523809
 30
0.0
 11
0.0
 21
-13.13676844448343
 31
0.0
  0
LINE
  5
18870
  8
0
 62
     0
 10
0.0
 20
-13.13676844448343
 30
0.0
 11
-7.9867683444833801
 21
-5.1500001000000557
 31
0.0
  0
LINE
  5
18871
  8
0
 62
     0
 10
10.833910220719069
 20
-23.97067866520263
 30
0.0
 11
3.54999999999984
 21
-16.686768444483391
 31
0.0
  0
LINE
  5
18872
  8
0
 62
     0
 10
12.03432820925218
 20
-28.763199102163071
 30
0.0
 11
3.5499999999999541
 21
-20.278870892910842
 31
0.0
  0
LINE
  5
18873
  8
0
 62
     0
 10
-1.761475686666472
 20
-14.96739520624442
 30
0.0
 11
-4.0379039399838339
 21
-12.69096695292717
 31
0.0
  0
LINE
  5
18874
  8
0
 62
     0
 10
13.099999999999911
 20
-29.8288708929108
 30
0.0
 11
12.37112930708906
 21
-29.100000199999961
 31
0.0
  0
LINE
  5
18875
  8
0
 62
     0
 10
7.4790262586612917
 20
-27.799999599999872
 30
0.0
 11
3.54999999999984
 21
-23.870973341338409
 31
0.0
  0
LINE
  5
18876
  8
0
 62
     0
 10
-3.5500000000000682
 20
-16.7709733413385
 30
0.0
 11
-6.4848783247022084
 21
-13.83609501663636
 31
0.0
  0
LINE
  5
18877
  8
0
 62
     0
 10
12.67902685866159
 20
-33.000000200000159
 30
0.0
 11
11.00000000000011
 21
-31.320973341338689
 31
0.0
  0
LINE
  5
18878
  8
0
 62
     0
 10
-3.5499999999999541
 20
-20.363075789766409
 30
0.0
 11
-7.7330368020898268
 21
-16.180038987676539
 31
0.0
  0
LINE
  5
18879
  8
0
 62
     0
 10
-3.5499999999999541
 20
-23.95517823819409
 30
0.0
 11
-8.8741186659308369
 21
-18.631059572263212
 31
0.0
  0
LINE
  5
1887A
  8
0
 62
     0
 10
-3.9236405433106252
 20
-27.173640143311101
 30
0.0
 11
-9.901571718252967
 21
-21.195708968368759
 31
0.0
  0
LINE
  5
1887B
  8
0
 62
     0
 10
-6.8893835350494319
 20
-27.799999599999872
 30
0.0
 11
-10.8070040231338
 21
-23.882379111915501
 31
0.0
  0
LINE
  5
1887C
  8
0
 62
     0
 10
-10.130989661818029
 20
-28.150495921658951
 30
0.0
 11
-11.57961971301688
 21
-26.7018658704601
 31
0.0
  0
LINE
  5
1887D
  8
0
 62
     0
 10
-10.999999999999771
 20
-30.873588031904781
 30
0.0
 11
-12.716460966271249
 21
-29.15712706563329
 31
0.0
  0
LINE
  5
1887E
  8
0
 62
     0
 10
-12.465690280332071
 20
-33.000000200000159
 30
0.0
 11
-13.76550531945383
 21
-31.700185160878501
 31
0.0
  0
ENDBLK
  5
18880
  8
0
  0
BLOCK
  8
0
  2
*X75
 70
     1
 10
0.0
 20
0.0
 30
0.0
  3
*X75
  1

  0
LINE
  5
18882
  8
0
 62
     0
 10
17.749270850893371
 20
-61.46873075173783
 30
0.0
 11
18.00000000000006
 21
-61.218001602631091
 31
0.0
  0
LINE
  5
18883
  8
0
 62
     0
 10
15.504206820626109
 20
-61.46873075173783
 30
0.0
 11
18.00000000000011
 21
-58.972937572363769
 31
0.0
  0
LINE
  5
18884
  8
0
 62
     0
 10
13.259142790358849
 20
-61.46873075173783
 30
0.0
 11
18.00000000000011
 21
-56.727873542096518
 31
0.0
  0
LINE
  5
18885
  8
0
 62
     0
 10
11.014078760091589
 20
-61.46873075173778
 30
0.0
 11
18.00000000000011
 21
-54.482809511829259
 31
0.0
  0
LINE
  5
18886
  8
0
 62
     0
 10
9.0000000000000568
 20
-61.237745481561952
 30
0.0
 11
18.00000000000006
 21
-52.237745481561937
 31
0.0
  0
LINE
  5
18887
  8
0
 62
     0
 10
9.0000000000000568
 20
-58.992681451294679
 30
0.0
 11
18.00000000000011
 21
-49.992681451294622
 31
0.0
  0
LINE
  5
18888
  8
0
 62
     0
 10
9.0000000000001137
 20
-56.747617421027421
 30
0.0
 11
18.00000000000011
 21
-47.747617421027371
 31
0.0
  0
LINE
  5
18889
  8
0
 62
     0
 10
9.0000000000001137
 20
-54.50255339076012
 30
0.0
 11
18.000000000000171
 21
-45.502553390759999
 31
0.0
  0
LINE
  5
1888A
  8
0
 62
     0
 10
9.0
 20
-52.257489360492848
 30
0.0
 11
18.00000000000011
 21
-43.257489360492741
 31
0.0
  0
LINE
  5
1888B
  8
0
 62
     0
 10
9.0000000000000568
 20
-50.01242533022554
 30
0.0
 11
18.00000000000011
 21
-41.012425330225483
 31
0.0
  0
LINE
  5
1888C
  8
0
 62
     0
 10
9.0000000000000568
 20
-47.767361299958267
 30
0.0
 11
18.00000000000011
 21
-38.767361299958232
 31
0.0
  0
LINE
  5
1888D
  8
0
 62
     0
 10
9.0000000000000568
 20
-45.522297269690966
 30
0.0
 11
18.00000000000011
 21
-36.52229726969091
 31
0.0
  0
LINE
  5
1888E
  8
0
 62
     0
 10
9.0000000000000568
 20
-43.277233239423651
 30
0.0
 11
18.000000000000171
 21
-34.277233239423538
 31
0.0
  0
LINE
  5
1888F
  8
0
 62
     0
 10
9.0000000000000568
 20
-41.032169209156393
 30
0.0
 11
18.000000000000171
 21
-32.03216920915628
 31
0.0
  0
LINE
  5
18890
  8
0
 62
     0
 10
9.0000000000000568
 20
-38.787105178889142
 30
0.0
 11
18.000000000000231
 21
-29.787105178889021
 31
0.0
  0
LINE
  5
18891
  8
0
 62
     0
 10
9.0000000000000568
 20
-36.54204114862182
 30
0.0
 11
18.000000000000171
 21
-27.54204114862171
 31
0.0
  0
LINE
  5
18892
  8
0
 62
     0
 10
8.9999999999999432
 20
-34.296977118354619
 30
0.0
 11
18.000000000000171
 21
-25.296977118354391
 31
0.0
  0
LINE
  5
18893
  8
0
 62
     0
 10
9.0
 20
-32.051913088087311
 30
0.0
 11
18.000000000000171
 21
-23.051913088087129
 31
0.0
  0
LINE
  5
18894
  8
0
 62
     0
 10
9.0
 20
-29.806849057820049
 30
0.0
 11
18.000000000000231
 21
-20.806849057819822
 31
0.0
  0
LINE
  5
18895
  8
0
 62
     0
 10
9.0
 20
-27.56178502755273
 30
0.0
 11
18.000000000000231
 21
-18.561785027552499
 31
0.0
  0
LINE
  5
18896
  8
0
 62
     0
 10
8.9999999999999432
 20
-25.316720997285479
 30
0.0
 11
18.000000000000231
 21
-16.316720997285241
 31
0.0
  0
LINE
  5
18897
  8
0
 62
     0
 10
8.9999999999999432
 20
-23.07165696701821
 30
0.0
 11
18.000000000000231
 21
-14.071656967017979
 31
0.0
  0
LINE
  5
18898
  8
0
 62
     0
 10
8.9999999999999432
 20
-20.826592936750899
 30
0.0
 11
18.000000000000231
 21
-11.826592936750609
 31
0.0
  0
LINE
  5
18899
  8
0
 62
     0
 10
8.9999999999999432
 20
-18.58152890648358
 30
0.0
 11
18.000000000000171
 21
-9.5815289064833564
 31
0.0
  0
LINE
  5
1889A
  8
0
 62
     0
 10
16.353366242229299
 20
-8.9830986339870265
 30
0.0
 11
16.58651145322483
 21
-8.7499534229914389
 31
0.0
  0
LINE
  5
1889B
  8
0
 62
     0
 10
8.9999999999999432
 20
-16.336464876216318
 30
0.0
 11
16.264414818379521
 21
-9.0720500578367478
 31
0.0
  0
LINE
  5
1889C
  8
0
 62
     0
 10
17.341447422598829
 20
-5.7499534233501768
 30
0.0
 11
18.00000000000011
 21
-5.091400845948896
 31
0.0
  0
LINE
  5
1889D
  8
0
 62
     0
 10
8.9999999999999432
 20
-14.091400845949069
 30
0.0
 11
14.34144742402435
 21
-8.7499534219246584
 31
0.0
  0
LINE
  5
1889E
  8
0
 62
     0
 10
15.09638339339835
 20
-5.7499534222833404
 30
0.0
 11
15.475887752038769
 21
-5.3704490636429218
 31
0.0
  0
LINE
  5
1889F
  8
0
 62
     0
 10
15.516052887897841
 20
-5.3302839277838521
 30
0.0
 11
18.00000000000011
 21
-2.8463368156815809
 31
0.0
  0
LINE
  5
188A0
  8
0
 62
     0
 10
9.0
 20
-11.84633681568169
 30
0.0
 11
12.096383394823871
 21
-8.7499534208578211
 31
0.0
  0
LINE
  5
188A1
  8
0
 62
     0
 10
12.85131936419776
 20
-5.7499534212166159
 30
0.0
 11
18.00000000000006
 21
-0.6012727854143236
 31
0.0
  0
LINE
  5
188A2
  8
0
 62
     0
 10
8.9999999999999432
 20
-9.6012727854144373
 30
0.0
 11
9.8085489289221073
 21
-8.7927238564922732
 31
0.0
  0
LINE
  5
188A3
  8
0
 62
     0
 10
10.76769871211496
 20
-5.5885100430321577
 30
0.0
 11
18.00000000000006
 21
1.6437912448529339
 31
0.0
  0
LINE
  5
188A4
  8
0
 62
     0
 10
8.9999999999999432
 20
-5.11114472487992
 30
0.0
 11
18.00000000000006
 21
3.8888552751201919
 31
0.0
  0
LINE
  5
188A5
  8
0
 62
     0
 10
8.9999999999999432
 20
-2.866080694612605
 30
0.0
 11
17.61612726817793
 21
5.7500465735653838
 31
0.0
  0
LINE
  5
188A6
  8
0
 62
     0
 10
8.9999999999999432
 20
-0.6210166643452908
 30
0.0
 11
15.37106323897728
 21
5.7500465746320506
 31
0.0
  0
LINE
  5
188A7
  8
0
 62
     0
 10
16.125999208351288
 20
8.7500465742733127
 30
0.0
 11
18.00000000000011
 21
10.62404736592214
 31
0.0
  0
LINE
  5
188A8
  8
0
 62
     0
 10
8.9999999999999432
 20
1.624047365921967
 30
0.0
 11
13.02099569600597
 21
5.645043061927935
 31
0.0
  0
LINE
  5
188A9
  8
0
 62
     0
 10
13.98014547919882
 20
8.8492568753880505
 30
0.0
 11
18.00000000000011
 21
12.869111396189391
 31
0.0
  0
LINE
  5
188AA
  8
0
 62
     0
 10
9.0
 20
3.869111396189282
 30
0.0
 11
10.88093518057638
 21
5.7500465767656124
 31
0.0
  0
LINE
  5
188AB
  8
0
 62
     0
 10
11.635871149950271
 20
8.7500465764068736
 30
0.0
 11
18.00000000000011
 21
15.114175426456709
 31
0.0
  0
LINE
  5
188AC
  8
0
 62
     0
 10
9.3908071207497414
 20
8.7500465774735972
 30
0.0
 11
18.00000000000006
 21
17.359239456723969
 31
0.0
  0
LINE
  5
188AD
  8
0
 62
     0
 10
9.0000000000001137
 20
10.604303486991229
 30
0.0
 11
18.00000000000006
 21
19.604303486991231
 31
0.0
  0
LINE
  5
188AE
  8
0
 62
     0
 10
9.0000000000001137
 20
12.849367517258541
 30
0.0
 11
18.00000000000011
 21
21.849367517258599
 31
0.0
  0
LINE
  5
188AF
  8
0
 62
     0
 10
9.0000000000001137
 20
15.094431547525859
 30
0.0
 11
18.00000000000011
 21
24.094431547525861
 31
0.0
  0
LINE
  5
188B0
  8
0
 62
     0
 10
9.0000000000000568
 20
17.339495577793109
 30
0.0
 11
18.00000000000011
 21
26.339495577793169
 31
0.0
  0
LINE
  5
188B1
  8
0
 62
     0
 10
9.0000000000000568
 20
19.584559608060371
 30
0.0
 11
18.00000000000011
 21
28.584559608060431
 31
0.0
  0
LINE
  5
188B2
  8
0
 62
     0
 10
9.0000000000001137
 20
21.82962363832775
 30
0.0
 11
18.00000000000011
 21
30.82962363832775
 31
0.0
  0
LINE
  5
188B3
  8
0
 62
     0
 10
9.0000000000000568
 20
24.074687668595001
 30
0.0
 11
18.00000000000006
 21
33.074687668594997
 31
0.0
  0
LINE
  5
188B4
  8
0
 62
     0
 10
9.0000000000000568
 20
26.31975169886227
 30
0.0
 11
18.00000000000006
 21
35.319751698862262
 31
0.0
  0
LINE
  5
188B5
  8
0
 62
     0
 10
9.0000000000001137
 20
28.564815729129521
 30
0.0
 11
18.00000000000011
 21
37.564815729129577
 31
0.0
  0
LINE
  5
188B6
  8
0
 62
     0
 10
9.0000000000001137
 20
30.809879759396839
 30
0.0
 11
18.00000000000011
 21
39.809879759396892
 31
0.0
  0
LINE
  5
188B7
  8
0
 62
     0
 10
9.0000000000000568
 20
33.054943789664151
 30
0.0
 11
18.00000000000011
 21
42.0549437896642
 31
0.0
  0
LINE
  5
188B8
  8
0
 62
     0
 10
9.0000000000000568
 20
35.300007819931409
 30
0.0
 11
18.00000000000011
 21
44.300007819931459
 31
0.0
  0
LINE
  5
188B9
  8
0
 62
     0
 10
9.0000000000000568
 20
37.545071850198667
 30
0.0
 11
16.07742504976892
 21
44.622496899967523
 31
0.0
  0
LINE
  5
188BA
  8
0
 62
     0
 10
9.0000000000001137
 20
39.790135880466039
 30
0.0
 11
13.83236101950166
 21
44.622496899967587
 31
0.0
  0
LINE
  5
188BB
  8
0
 62
     0
 10
9.0000000000000568
 20
42.035199910733297
 30
0.0
 11
11.587296989234339
 21
44.622496899967587
 31
0.0
  0
LINE
  5
188BC
  8
0
 62
     0
 10
9.0000000000001137
 20
44.280263941000548
 30
0.0
 11
9.3422329589670881
 21
44.622496899967587
 31
0.0
  0
ENDBLK
  5
188BE
  8
0
  0
BLOCK
  8
0
  2
*X76
 70
     1
 10
0.0
 20
0.0
 30
0.0
  3
*X76
  1

  0
LINE
  5
188C0
  8
0
 62
     0
 10
4.01579819129564
 20
-61.431188349899848
 30
0.0
 11
4.01579819129564
 21
-61.431188349899848
 31
0.0
  0
LINE
  5
188C1
  8
0
 62
     0
 10
3.5476270824212111
 20
-61.002188568063907
 30
0.0
 11
3.5476270824212111
 21
-61.002188568063907
 31
0.0
  0
LINE
  5
188C2
  8
0
 62
     0
 10
1.0195030944992971
 20
-58.685589746149809
 30
0.0
 11
1.0195030944992971
 21
-58.685589746149809
 31
0.0
  0
LINE
  5
188C3
  8
0
 62
     0
 10
8.6550676192222316
 20
-56.456296513577612
 30
0.0
 11
8.6550676192222316
 21
-56.456296513577612
 31
0.0
  0
LINE
  5
188C4
  8
0
 62
     0
 10
6.4452999853349269
 20
-54.431417543311952
 30
0.0
 11
6.4452999853349269
 21
-54.431417543311952
 31
0.0
  0
LINE
  5
188C5
  8
0
 62
     0
 10
5.9771288764604993
 20
-54.002417761476011
 30
0.0
 11
5.9771288764604993
 21
-54.002417761476011
 31
0.0
  0
LINE
  5
188C6
  8
0
 62
     0
 10
3.449004888538584
 20
-51.685818939561912
 30
0.0
 11
3.449004888538584
 21
-51.685818939561912
 31
0.0
  0
LINE
  5
188C7
  8
0
 62
     0
 10
1.23923725465128
 20
-49.660939969296251
 30
0.0
 11
1.23923725465128
 21
-49.660939969296251
 31
0.0
  0
LINE
  5
188C8
  8
0
 62
     0
 10
0.7710661457768521
 20
-49.23194018746031
 30
0.0
 11
0.7710661457768521
 21
-49.23194018746031
 31
0.0
  0
LINE
  5
188C9
  8
0
 62
     0
 10
8.8748017793742875
 20
-47.431646736724133
 30
0.0
 11
8.8748017793742875
 21
-47.431646736724133
 31
0.0
  0
LINE
  5
188CA
  8
0
 62
     0
 10
8.4066306704998581
 20
-47.002646954888192
 30
0.0
 11
8.4066306704998581
 21
-47.002646954888192
 31
0.0
  0
LINE
  5
188CB
  8
0
 62
     0
 10
5.8785066825779433
 20
-44.686048132974094
 30
0.0
 11
5.8785066825779433
 21
-44.686048132974094
 31
0.0
  0
LINE
  5
188CC
  8
0
 62
     0
 10
3.668739048690639
 20
-42.661169162708433
 30
0.0
 11
3.668739048690639
 21
-42.661169162708433
 31
0.0
  0
LINE
  5
188CD
  8
0
 62
     0
 10
3.200567939816211
 20
-42.232169380872492
 30
0.0
 11
3.200567939816211
 21
-42.232169380872492
 31
0.0
  0
LINE
  5
188CE
  8
0
 62
     0
 10
0.6724439518942967
 20
-39.915570558958393
 30
0.0
 11
0.6724439518942967
 21
-39.915570558958393
 31
0.0
  0
LINE
  5
188CF
  8
0
 62
     0
 10
8.3080084766172941
 20
-37.68627732638619
 30
0.0
 11
8.3080084766172941
 21
-37.68627732638619
 31
0.0
  0
LINE
  5
188D0
  8
0
 62
     0
 10
6.0982408427299903
 20
-35.661398356120543
 30
0.0
 11
6.0982408427299903
 21
-35.661398356120543
 31
0.0
  0
LINE
  5
188D1
  8
0
 62
     0
 10
5.630069733855561
 20
-35.232398574284602
 30
0.0
 11
5.630069733855561
 21
-35.232398574284602
 31
0.0
  0
LINE
  5
188D2
  8
0
 62
     0
 10
3.1019457459336461
 20
-32.915799752370503
 30
0.0
 11
3.1019457459336461
 21
-32.915799752370503
 31
0.0
  0
LINE
  5
188D3
  8
0
 62
     0
 10
0.8921781120463432
 20
-30.890920782104839
 30
0.0
 11
0.8921781120463432
 21
-30.890920782104839
 31
0.0
  0
LINE
  5
188D4
  8
0
 62
     0
 10
0.4240070031719147
 20
-30.461921000268891
 30
0.0
 11
0.4240070031719147
 21
-30.461921000268891
 31
0.0
  0
LINE
  5
188D5
  8
0
 62
     0
 10
8.5277426367693003
 20
-28.661627549532721
 30
0.0
 11
8.5277426367693003
 21
-28.661627549532721
 31
0.0
  0
LINE
  5
188D6
  8
0
 62
     0
 10
8.0595715278948692
 20
-28.232627767696769
 30
0.0
 11
8.0595715278948692
 21
-28.232627767696769
 31
0.0
  0
LINE
  5
188D7
  8
0
 62
     0
 10
5.5314475399729552
 20
-25.916028945782671
 30
0.0
 11
5.5314475399729552
 21
-25.916028945782671
 31
0.0
  0
LINE
  5
188D8
  8
0
 62
     0
 10
3.321679906085651
 20
-23.89114997551701
 30
0.0
 11
3.321679906085651
 21
-23.89114997551701
 31
0.0
  0
LINE
  5
188D9
  8
0
 62
     0
 10
2.853508797211223
 20
-23.462150193681069
 30
0.0
 11
2.853508797211223
 21
-23.462150193681069
 31
0.0
  0
LINE
  5
188DA
  8
0
 62
     0
 10
0.3253848092893086
 20
-21.14555137176697
 30
0.0
 11
0.3253848092893086
 21
-21.14555137176697
 31
0.0
  0
LINE
  5
188DB
  8
0
 62
     0
 10
7.960949334012235
 20
-18.916258139194781
 30
0.0
 11
7.960949334012235
 21
-18.916258139194781
 31
0.0
  0
LINE
  5
188DC
  8
0
 62
     0
 10
5.751181700124933
 20
-16.89137916892912
 30
0.0
 11
5.751181700124933
 21
-16.89137916892912
 31
0.0
  0
LINE
  5
188DD
  8
0
 62
     0
 10
5.2830105912505037
 20
-16.462379387093169
 30
0.0
 11
5.2830105912505037
 21
-16.462379387093169
 31
0.0
  0
LINE
  5
188DE
  8
0
 62
     0
 10
2.7548866033285888
 20
-14.14578056517907
 30
0.0
 11
2.7548866033285888
 21
-14.14578056517907
 31
0.0
  0
LINE
  5
188DF
  8
0
 62
     0
 10
0.5451189694412864
 20
-12.12090159491342
 30
0.0
 11
0.5451189694412864
 21
-12.12090159491342
 31
0.0
  0
LINE
  5
188E0
  8
0
 62
     0
 10
0.0769478605668576
 20
-11.69190181307747
 30
0.0
 11
0.0769478605668576
 21
-11.69190181307747
 31
0.0
  0
LINE
  5
188E1
  8
0
 62
     0
 10
8.1806834941643185
 20
-9.8916083623412607
 30
0.0
 11
8.1806834941643185
 21
-9.8916083623412607
 31
0.0
  0
LINE
  5
188E2
  8
0
 62
     0
 10
7.71251238528989
 20
-9.4626085805053162
 30
0.0
 11
7.71251238528989
 21
-9.4626085805053162
 31
0.0
  0
LINE
  5
188E3
  8
0
 62
     0
 10
2.9746207634806661
 20
-5.1211307883256101
 30
0.0
 11
2.9746207634806661
 21
-5.1211307883256101
 31
0.0
  0
LINE
  5
188E4
  8
0
 62
     0
 10
2.506449654606238
 20
-4.6921310064896664
 30
0.0
 11
2.506449654606238
 21
-4.6921310064896664
 31
0.0
  0
LINE
  5
188E5
  8
0
 62
     0
 10
7.6138901914073207
 20
-0.1462389520033798
 30
0.0
 11
7.6138901914073207
 21
-0.1462389520033798
 31
0.0
  0
LINE
  5
188E6
  8
0
 62
     0
 10
5.4041225575200169
 20
1.8786400182622769
 30
0.0
 11
5.4041225575200169
 21
1.8786400182622769
 31
0.0
  0
LINE
  5
188E7
  8
0
 62
     0
 10
4.9359514486455893
 20
2.307639800098221
 30
0.0
 11
4.9359514486455893
 21
2.307639800098221
 31
0.0
  0
LINE
  5
188E8
  8
0
 62
     0
 10
2.407827460723674
 20
4.6242386220123208
 30
0.0
 11
2.407827460723674
 21
4.6242386220123208
 31
0.0
  0
LINE
  5
188E9
  8
0
 62
     0
 10
7.8336243515593544
 20
8.8784108248501266
 30
0.0
 11
7.8336243515593544
 21
8.8784108248501266
 31
0.0
  0
LINE
  5
188EA
  8
0
 62
     0
 10
7.3654532426849251
 20
9.3074106066860711
 30
0.0
 11
7.3654532426849251
 21
9.3074106066860711
 31
0.0
  0
LINE
  5
188EB
  8
0
 62
     0
 10
4.8373292547630111
 20
11.62400942860017
 30
0.0
 11
4.8373292547630111
 21
11.62400942860017
 31
0.0
  0
LINE
  5
188EC
  8
0
 62
     0
 10
2.6275616208757082
 20
13.64888839886583
 30
0.0
 11
2.6275616208757082
 21
13.64888839886583
 31
0.0
  0
LINE
  5
188ED
  8
0
 62
     0
 10
2.1593905120012789
 20
14.07788818070177
 30
0.0
 11
2.1593905120012789
 21
14.07788818070177
 31
0.0
  0
LINE
  5
188EE
  8
0
 62
     0
 10
7.2668310488023229
 20
18.623780235188089
 30
0.0
 11
7.2668310488023229
 21
18.623780235188089
 31
0.0
  0
LINE
  5
188EF
  8
0
 62
     0
 10
5.0570634149150191
 20
20.648659205453761
 30
0.0
 11
5.0570634149150191
 21
20.648659205453761
 31
0.0
  0
LINE
  5
188F0
  8
0
 62
     0
 10
4.5888923060405906
 20
21.077658987289698
 30
0.0
 11
4.5888923060405906
 21
21.077658987289698
 31
0.0
  0
LINE
  5
188F1
  8
0
 62
     0
 10
2.0607683181186771
 20
23.3942578092038
 30
0.0
 11
2.0607683181186771
 21
23.3942578092038
 31
0.0
  0
LINE
  5
188F2
  8
0
 62
     0
 10
7.4865652089542847
 20
27.648430012041619
 30
0.0
 11
7.4865652089542847
 21
27.648430012041619
 31
0.0
  0
LINE
  5
188F3
  8
0
 62
     0
 10
7.0183941000798571
 20
28.07742979387756
 30
0.0
 11
7.0183941000798571
 21
28.07742979387756
 31
0.0
  0
LINE
  5
188F4
  8
0
 62
     0
 10
4.4902701121579423
 20
30.394028615791662
 30
0.0
 11
4.4902701121579423
 21
30.394028615791662
 31
0.0
  0
LINE
  5
188F5
  8
0
 62
     0
 10
2.2805024782706389
 20
32.418907586057323
 30
0.0
 11
2.2805024782706389
 21
32.418907586057323
 31
0.0
  0
LINE
  5
188F6
  8
0
 62
     0
 10
1.81233136939621
 20
32.847907367893256
 30
0.0
 11
1.81233136939621
 21
32.847907367893256
 31
0.0
  0
LINE
  5
188F7
  8
0
 62
     0
 10
6.9197719061972807
 20
37.393799422379502
 30
0.0
 11
6.9197719061972807
 21
37.393799422379502
 31
0.0
  0
LINE
  5
188F8
  8
0
 62
     0
 10
4.7100042723099769
 20
39.418678392645162
 30
0.0
 11
4.7100042723099769
 21
39.418678392645162
 31
0.0
  0
LINE
  5
188F9
  8
0
 62
     0
 10
4.2418331634355493
 20
39.847678174481111
 30
0.0
 11
4.2418331634355493
 21
39.847678174481111
 31
0.0
  0
LINE
  5
188FA
  8
0
 62
     0
 10
1.713709175513634
 20
42.164276996395202
 30
0.0
 11
1.713709175513634
 21
42.164276996395202
 31
0.0
  0
LINE
  5
188FB
  8
0
 62
     0
 10
7.6039294291079393
 20
-61.37093519581228
 30
0.0
 11
7.6039294291079393
 21
-61.37093519581228
 31
0.0
  0
LINE
  5
188FC
  8
0
 62
     0
 10
2.569725889050825
 20
-58.163793833590091
 30
0.0
 11
2.569725889050825
 21
-58.163793833590091
 31
0.0
  0
LINE
  5
188FD
  8
0
 62
     0
 10
6.62366390120894
 20
-55.692888177442953
 30
0.0
 11
6.62366390120894
 21
-55.692888177442953
 31
0.0
  0
LINE
  5
188FE
  8
0
 62
     0
 10
5.5525567650265764
 20
-55.010517674842482
 30
0.0
 11
5.5525567650265764
 21
-55.010517674842482
 31
0.0
  0
LINE
  5
188FF
  8
0
 62
     0
 10
0.5183532249694629
 20
-51.803376312620287
 30
0.0
 11
0.5183532249694629
 21
-51.803376312620287
 31
0.0
  0
LINE
  5
18900
  8
0
 62
     0
 10
8.4282769273839921
 20
-51.789004465834807
 30
0.0
 11
8.4282769273839921
 21
-51.789004465834807
 31
0.0
  0
LINE
  5
18901
  8
0
 62
     0
 10
4.5722912371274811
 20
-49.332470656473127
 30
0.0
 11
4.5722912371274811
 21
-49.332470656473127
 31
0.0
  0
LINE
  5
18902
  8
0
 62
     0
 10
3.501184100945117
 20
-48.650100153872657
 30
0.0
 11
3.501184100945117
 21
-48.650100153872657
 31
0.0
  0
LINE
  5
18903
  8
0
 62
     0
 10
6.3769042633026087
 20
-45.428586944865053
 30
0.0
 11
6.3769042633026087
 21
-45.428586944865053
 31
0.0
  0
LINE
  5
18904
  8
0
 62
     0
 10
2.5209185730460968
 20
-42.972053135503373
 30
0.0
 11
2.5209185730460968
 21
-42.972053135503373
 31
0.0
  0
LINE
  5
18905
  8
0
 62
     0
 10
1.4498114368637329
 20
-42.289682632902903
 30
0.0
 11
1.4498114368637329
 21
-42.289682632902903
 31
0.0
  0
LINE
  5
18906
  8
0
 62
     0
 10
4.3255315992211782
 20
-39.068169423895192
 30
0.0
 11
4.3255315992211782
 21
-39.068169423895192
 31
0.0
  0
LINE
  5
18907
  8
0
 62
     0
 10
0.4695459089646658
 20
-36.611635614533512
 30
0.0
 11
0.4695459089646658
 21
-36.611635614533512
 31
0.0
  0
LINE
  5
18908
  8
0
 62
     0
 10
8.3794696113792817
 20
-36.597263767748082
 30
0.0
 11
8.3794696113792817
 21
-36.597263767748082
 31
0.0
  0
LINE
  5
18909
  8
0
 62
     0
 10
7.3083624751969172
 20
-35.914893265147612
 30
0.0
 11
7.3083624751969172
 21
-35.914893265147612
 31
0.0
  0
LINE
  5
1890A
  8
0
 62
     0
 10
2.2741589351398028
 20
-32.707751902925423
 30
0.0
 11
2.2741589351398028
 21
-32.707751902925423
 31
0.0
  0
LINE
  5
1890B
  8
0
 62
     0
 10
6.328096947297821
 20
-30.236846246778288
 30
0.0
 11
6.328096947297821
 21
-30.236846246778288
 31
0.0
  0
LINE
  5
1890C
  8
0
 62
     0
 10
5.2569898111154574
 20
-29.554475744177829
 30
0.0
 11
5.2569898111154574
 21
-29.554475744177829
 31
0.0
  0
LINE
  5
1890D
  8
0
 62
     0
 10
0.2227862710583442
 20
-26.34733438195563
 30
0.0
 11
0.2227862710583442
 21
-26.34733438195563
 31
0.0
  0
LINE
  5
1890E
  8
0
 62
     0
 10
8.1327099734729629
 20
-26.332962535170171
 30
0.0
 11
8.1327099734729629
 21
-26.332962535170171
 31
0.0
  0
LINE
  5
1890F
  8
0
 62
     0
 10
4.27672428321645
 20
-23.876428725808481
 30
0.0
 11
4.27672428321645
 21
-23.876428725808481
 31
0.0
  0
LINE
  5
18910
  8
0
 62
     0
 10
3.2056171470340851
 20
-23.194058223208021
 30
0.0
 11
3.2056171470340851
 21
-23.194058223208021
 31
0.0
  0
LINE
  5
18911
  8
0
 62
     0
 10
6.08133730939148
 20
-19.97254501420036
 30
0.0
 11
6.08133730939148
 21
-19.97254501420036
 31
0.0
  0
LINE
  5
18912
  8
0
 62
     0
 10
2.225351619134968
 20
-17.51601120483868
 30
0.0
 11
2.225351619134968
 21
-17.51601120483868
 31
0.0
  0
LINE
  5
18913
  8
0
 62
     0
 10
1.1542444829526031
 20
-16.83364070223821
 30
0.0
 11
1.1542444829526031
 21
-16.83364070223821
 31
0.0
  0
LINE
  5
18914
  8
0
 62
     0
 10
4.0299646453101081
 20
-13.61212749323059
 30
0.0
 11
4.0299646453101081
 21
-13.61212749323059
 31
0.0
  0
LINE
  5
18915
  8
0
 62
     0
 10
0.1739789550535956
 20
-11.15559368386891
 30
0.0
 11
0.1739789550535956
 21
-11.15559368386891
 31
0.0
  0
LINE
  5
18916
  8
0
 62
     0
 10
8.0839026574682151
 20
-11.14122183708349
 30
0.0
 11
8.0839026574682151
 21
-11.14122183708349
 31
0.0
  0
LINE
  5
18917
  8
0
 62
     0
 10
7.0127955212858497
 20
-10.45885133448302
 30
0.0
 11
7.0127955212858497
 21
-10.45885133448302
 31
0.0
  0
LINE
  5
18918
  8
0
 62
     0
 10
6.0325299933867882
 20
-4.7808043161136462
 30
0.0
 11
6.0325299933867882
 21
-4.7808043161136462
 31
0.0
  0
LINE
  5
18919
  8
0
 62
     0
 10
4.9614228572044228
 20
-4.0984338135131786
 30
0.0
 11
4.9614228572044228
 21
-4.0984338135131786
 31
0.0
  0
LINE
  5
1891A
  8
0
 62
     0
 10
7.8371430195619052
 20
-0.8769206045055604
 30
0.0
 11
7.8371430195619052
 21
-0.8769206045055604
 31
0.0
  0
LINE
  5
1891B
  8
0
 62
     0
 10
3.9811573293053919
 20
1.5796132048561189
 30
0.0
 11
3.9811573293053919
 21
1.5796132048561189
 31
0.0
  0
LINE
  5
1891C
  8
0
 62
     0
 10
2.9100501931230269
 20
2.2619837074565861
 30
0.0
 11
2.9100501931230269
 21
2.2619837074565861
 31
0.0
  0
LINE
  5
1891D
  8
0
 62
     0
 10
5.7857703554804303
 20
5.4834969164642349
 30
0.0
 11
5.7857703554804303
 21
5.4834969164642349
 31
0.0
  0
LINE
  5
1891E
  8
0
 62
     0
 10
3.734397691399074
 20
11.84391443743405
 30
0.0
 11
3.734397691399074
 21
11.84391443743405
 31
0.0
  0
LINE
  5
1891F
  8
0
 62
     0
 10
7.7883357035571521
 20
14.31482009358125
 30
0.0
 11
7.7883357035571521
 21
14.31482009358125
 31
0.0
  0
LINE
  5
18920
  8
0
 62
     0
 10
6.7172285673747876
 20
14.997190596181721
 30
0.0
 11
6.7172285673747876
 21
14.997190596181721
 31
0.0
  0
LINE
  5
18921
  8
0
 62
     0
 10
1.6830250273176739
 20
18.204331958403909
 30
0.0
 11
1.6830250273176739
 21
18.204331958403909
 31
0.0
  0
LINE
  5
18922
  8
0
 62
     0
 10
5.7369630394757527
 20
20.675237614551001
 30
0.0
 11
5.7369630394757527
 21
20.675237614551001
 31
0.0
  0
LINE
  5
18923
  8
0
 62
     0
 10
4.6658559032933891
 20
21.357608117151461
 30
0.0
 11
4.6658559032933891
 21
21.357608117151461
 31
0.0
  0
LINE
  5
18924
  8
0
 62
     0
 10
7.5415760656507649
 20
24.57912132615909
 30
0.0
 11
7.5415760656507649
 21
24.57912132615909
 31
0.0
  0
LINE
  5
18925
  8
0
 62
     0
 10
3.685590375394252
 20
27.03565513552077
 30
0.0
 11
3.685590375394252
 21
27.03565513552077
 31
0.0
  0
LINE
  5
18926
  8
0
 62
     0
 10
2.614483239211888
 20
27.71802563812124
 30
0.0
 11
2.614483239211888
 21
27.71802563812124
 31
0.0
  0
LINE
  5
18927
  8
0
 62
     0
 10
5.4902034015693664
 20
30.939538847128901
 30
0.0
 11
5.4902034015693664
 21
30.939538847128901
 31
0.0
  0
LINE
  5
18928
  8
0
 62
     0
 10
1.6342177113128531
 20
33.396072656490567
 30
0.0
 11
1.6342177113128531
 21
33.396072656490567
 31
0.0
  0
LINE
  5
18929
  8
0
 62
     0
 10
0.5631105751304892
 20
34.078443159091037
 30
0.0
 11
0.5631105751304892
 21
34.078443159091037
 31
0.0
  0
LINE
  5
1892A
  8
0
 62
     0
 10
8.4730342775450875
 20
34.092815005876503
 30
0.0
 11
8.4730342775450875
 21
34.092815005876503
 31
0.0
  0
LINE
  5
1892B
  8
0
 62
     0
 10
3.4388307374879732
 20
37.299956368098691
 30
0.0
 11
3.4388307374879732
 21
37.299956368098691
 31
0.0
  0
LINE
  5
1892C
  8
0
 62
     0
 10
7.492768749646034
 20
39.77086202424583
 30
0.0
 11
7.492768749646034
 21
39.77086202424583
 31
0.0
  0
LINE
  5
1892D
  8
0
 62
     0
 10
6.4216616134636686
 20
40.4532325268463
 30
0.0
 11
6.4216616134636686
 21
40.4532325268463
 31
0.0
  0
LINE
  5
1892E
  8
0
 62
     0
 10
1.387458073406556
 20
43.660373889068488
 30
0.0
 11
1.387458073406556
 21
43.660373889068488
 31
0.0
  0
LINE
  5
1892F
  8
0
 62
     0
 10
8.2994528038308442
 20
-55.941633358613942
 30
0.0
 11
8.2994528038308442
 21
-55.941633358613942
 31
0.0
  0
LINE
  5
18930
  8
0
 62
     0
 10
6.2344714465614741
 20
-56.213493311769859
 30
0.0
 11
6.2344714465614741
 21
-56.213493311769859
 31
0.0
  0
LINE
  5
18931
  8
0
 62
     0
 10
4.9123797239194982
 20
-56.387549989095298
 30
0.0
 11
4.9123797239194982
 21
-56.387549989095298
 31
0.0
  0
LINE
  5
18932
  8
0
 62
     0
 10
1.462349895310912
 20
-56.84175503278265
 30
0.0
 11
1.462349895310912
 21
-56.84175503278265
 31
0.0
  0
LINE
  5
18933
  8
0
 62
     0
 10
5.957582726691057
 20
-49.673504027099071
 30
0.0
 11
5.957582726691057
 21
-49.673504027099071
 31
0.0
  0
LINE
  5
18934
  8
0
 62
     0
 10
3.8926013694216852
 20
-49.945363980255003
 30
0.0
 11
3.8926013694216852
 21
-49.945363980255003
 31
0.0
  0
LINE
  5
18935
  8
0
 62
     0
 10
2.5705096467797088
 20
-50.119420657580442
 30
0.0
 11
2.5705096467797088
 21
-50.119420657580442
 31
0.0
  0
LINE
  5
18936
  8
0
 62
     0
 10
8.3878342008016062
 20
-42.777112974571473
 30
0.0
 11
8.3878342008016062
 21
-42.777112974571473
 31
0.0
  0
LINE
  5
18937
  8
0
 62
     0
 10
7.0657424781596294
 20
-42.951169651896898
 30
0.0
 11
7.0657424781596294
 21
-42.951169651896898
 31
0.0
  0
LINE
  5
18938
  8
0
 62
     0
 10
3.615712649551043
 20
-43.40537469558425
 30
0.0
 11
3.615712649551043
 21
-43.40537469558425
 31
0.0
  0
LINE
  5
18939
  8
0
 62
     0
 10
1.5507312922816709
 20
-43.677234648740168
 30
0.0
 11
1.5507312922816709
 21
-43.677234648740168
 31
0.0
  0
LINE
  5
1893A
  8
0
 62
     0
 10
0.2286395696396954
 20
-43.851291326065613
 30
0.0
 11
0.2286395696396954
 21
-43.851291326065613
 31
0.0
  0
LINE
  5
1893B
  8
0
 62
     0
 10
8.1109454809310098
 20
-36.23712368990072
 30
0.0
 11
8.1109454809310098
 21
-36.23712368990072
 31
0.0
  0
LINE
  5
1893C
  8
0
 62
     0
 10
6.045964123661637
 20
-36.508983643056638
 30
0.0
 11
6.045964123661637
 21
-36.508983643056638
 31
0.0
  0
LINE
  5
1893D
  8
0
 62
     0
 10
4.7238724010196611
 20
-36.683040320382077
 30
0.0
 11
4.7238724010196611
 21
-36.683040320382077
 31
0.0
  0
LINE
  5
1893E
  8
0
 62
     0
 10
1.2738425724110749
 20
-37.137245364069422
 30
0.0
 11
1.2738425724110749
 21
-37.137245364069422
 31
0.0
  0
LINE
  5
1893F
  8
0
 62
     0
 10
5.7690754037913328
 20
-29.96899435838586
 30
0.0
 11
5.7690754037913328
 21
-29.96899435838586
 31
0.0
  0
LINE
  5
18940
  8
0
 62
     0
 10
3.7040940465219601
 20
-30.240854311541781
 30
0.0
 11
3.7040940465219601
 21
-30.240854311541781
 31
0.0
  0
LINE
  5
18941
  8
0
 62
     0
 10
2.382002323879985
 20
-30.41491098886722
 30
0.0
 11
2.382002323879985
 21
-30.41491098886722
 31
0.0
  0
LINE
  5
18942
  8
0
 62
     0
 10
8.1993268779017701
 20
-23.07260330585823
 30
0.0
 11
8.1993268779017701
 21
-23.07260330585823
 31
0.0
  0
LINE
  5
18943
  8
0
 62
     0
 10
6.8772351552597932
 20
-23.246659983183669
 30
0.0
 11
6.8772351552597932
 21
-23.246659983183669
 31
0.0
  0
LINE
  5
18944
  8
0
 62
     0
 10
3.4272053266512059
 20
-23.700865026871011
 30
0.0
 11
3.4272053266512059
 21
-23.700865026871011
 31
0.0
  0
LINE
  5
18945
  8
0
 62
     0
 10
1.3622239693818341
 20
-23.972724980026928
 30
0.0
 11
1.3622239693818341
 21
-23.972724980026928
 31
0.0
  0
LINE
  5
18946
  8
0
 62
     0
 10
0.0401322467398583
 20
-24.146781657352371
 30
0.0
 11
0.0401322467398583
 21
-24.146781657352371
 31
0.0
  0
LINE
  5
18947
  8
0
 62
     0
 10
7.9224381580313974
 20
-16.532614021187449
 30
0.0
 11
7.9224381580313974
 21
-16.532614021187449
 31
0.0
  0
LINE
  5
18948
  8
0
 62
     0
 10
5.8574568007620247
 20
-16.804473974343381
 30
0.0
 11
5.8574568007620247
 21
-16.804473974343381
 31
0.0
  0
LINE
  5
18949
  8
0
 62
     0
 10
4.5353650781200487
 20
-16.978530651668819
 30
0.0
 11
4.5353650781200487
 21
-16.978530651668819
 31
0.0
  0
LINE
  5
1894A
  8
0
 62
     0
 10
1.0853352495114641
 20
-17.432735695356151
 30
0.0
 11
1.0853352495114641
 21
-17.432735695356151
 31
0.0
  0
LINE
  5
1894B
  8
0
 62
     0
 10
5.5805680808913829
 20
-10.26448468967264
 30
0.0
 11
5.5805680808913829
 21
-10.26448468967264
 31
0.0
  0
LINE
  5
1894C
  8
0
 62
     0
 10
3.5155867236220111
 20
-10.53634464282856
 30
0.0
 11
3.5155867236220111
 21
-10.53634464282856
 31
0.0
  0
LINE
  5
1894D
  8
0
 62
     0
 10
2.193495000980036
 20
-10.710401320154
 30
0.0
 11
2.193495000980036
 21
-10.710401320154
 31
0.0
  0
LINE
  5
1894E
  8
0
 62
     0
 10
8.0108195550021595
 20
-3.3680936371449901
 30
0.0
 11
8.0108195550021595
 21
-3.3680936371449901
 31
0.0
  0
LINE
  5
1894F
  8
0
 62
     0
 10
6.6887278323601818
 20
-3.5421503144704292
 30
0.0
 11
6.6887278323601818
 21
-3.5421503144704292
 31
0.0
  0
LINE
  5
18950
  8
0
 62
     0
 10
3.2386980037515962
 20
-3.9963553581577642
 30
0.0
 11
3.2386980037515962
 21
-3.9963553581577642
 31
0.0
  0
LINE
  5
18951
  8
0
 62
     0
 10
1.1737166464822231
 20
-4.2682153113136883
 30
0.0
 11
1.1737166464822231
 21
-4.2682153113136883
 31
0.0
  0
LINE
  5
18952
  8
0
 62
     0
 10
7.7339308351315621
 20
3.1718956475257549
 30
0.0
 11
7.7339308351315621
 21
3.1718956475257549
 31
0.0
  0
LINE
  5
18953
  8
0
 62
     0
 10
5.6689494778621903
 20
2.9000356943698322
 30
0.0
 11
5.6689494778621903
 21
2.9000356943698322
 31
0.0
  0
LINE
  5
18954
  8
0
 62
     0
 10
4.3468577552202143
 20
2.7259790170443932
 30
0.0
 11
4.3468577552202143
 21
2.7259790170443932
 31
0.0
  0
LINE
  5
18955
  8
0
 62
     0
 10
0.896827926611628
 20
2.2717739733570581
 30
0.0
 11
0.896827926611628
 21
2.2717739733570581
 31
0.0
  0
LINE
  5
18956
  8
0
 62
     0
 10
2.0049876780801821
 20
8.9941083485592426
 30
0.0
 11
2.0049876780801821
 21
8.9941083485592426
 31
0.0
  0
LINE
  5
18957
  8
0
 62
     0
 10
8.8420905866000723
 20
9.8942300227279318
 30
0.0
 11
8.8420905866000723
 21
9.8942300227279318
 31
0.0
  0
LINE
  5
18958
  8
0
 62
     0
 10
5.3920607579914854
 20
9.4400249790405972
 30
0.0
 11
5.3920607579914854
 21
9.4400249790405972
 31
0.0
  0
LINE
  5
18959
  8
0
 62
     0
 10
3.3270794007221132
 20
9.1681650258846741
 30
0.0
 11
3.3270794007221132
 21
9.1681650258846741
 31
0.0
  0
LINE
  5
1895A
  8
0
 62
     0
 10
7.8223122321023224
 20
16.336416031568241
 30
0.0
 11
7.8223122321023224
 21
16.336416031568241
 31
0.0
  0
LINE
  5
1895B
  8
0
 62
     0
 10
6.5002205094603456
 20
16.162359354242799
 30
0.0
 11
6.5002205094603456
 21
16.162359354242799
 31
0.0
  0
LINE
  5
1895C
  8
0
 62
     0
 10
3.05019068085176
 20
15.708154310555461
 30
0.0
 11
3.05019068085176
 21
15.708154310555461
 31
0.0
  0
LINE
  5
1895D
  8
0
 62
     0
 10
0.9852093235823877
 20
15.436294357399539
 30
0.0
 11
0.9852093235823877
 21
15.436294357399539
 31
0.0
  0
LINE
  5
1895E
  8
0
 62
     0
 10
7.5454235122316131
 20
22.87640531623898
 30
0.0
 11
7.5454235122316131
 21
22.87640531623898
 31
0.0
  0
LINE
  5
1895F
  8
0
 62
     0
 10
5.4804421549622413
 20
22.604545363083059
 30
0.0
 11
5.4804421549622413
 21
22.604545363083059
 31
0.0
  0
LINE
  5
18960
  8
0
 62
     0
 10
4.1583504323202654
 20
22.43048868575762
 30
0.0
 11
4.1583504323202654
 21
22.43048868575762
 31
0.0
  0
LINE
  5
18961
  8
0
 62
     0
 10
0.7083206037116793
 20
21.976283642070278
 30
0.0
 11
0.7083206037116793
 21
21.976283642070278
 31
0.0
  0
LINE
  5
18962
  8
0
 62
     0
 10
8.6535832637005257
 20
29.598739691441182
 30
0.0
 11
8.6535832637005257
 21
29.598739691441182
 31
0.0
  0
LINE
  5
18963
  8
0
 62
     0
 10
5.2035534350919379
 20
29.14453464775384
 30
0.0
 11
5.2035534350919379
 21
29.14453464775384
 31
0.0
  0
LINE
  5
18964
  8
0
 62
     0
 10
3.1385720778225661
 20
28.872674694597919
 30
0.0
 11
3.1385720778225661
 21
28.872674694597919
 31
0.0
  0
LINE
  5
18965
  8
0
 62
     0
 10
1.8164803551805899
 20
28.69861801727248
 30
0.0
 11
1.8164803551805899
 21
28.69861801727248
 31
0.0
  0
LINE
  5
18966
  8
0
 62
     0
 10
7.6338049092024871
 20
36.040925700281463
 30
0.0
 11
7.6338049092024871
 21
36.040925700281463
 31
0.0
  0
LINE
  5
18967
  8
0
 62
     0
 10
6.3117131865605112
 20
35.866869022956017
 30
0.0
 11
6.3117131865605112
 21
35.866869022956017
 31
0.0
  0
LINE
  5
18968
  8
0
 62
     0
 10
2.8616833579519252
 20
35.412663979268679
 30
0.0
 11
2.8616833579519252
 21
35.412663979268679
 31
0.0
  0
LINE
  5
18969
  8
0
 62
     0
 10
0.7967020006825532
 20
35.140804026112761
 30
0.0
 11
0.7967020006825532
 21
35.140804026112761
 31
0.0
  0
LINE
  5
1896A
  8
0
 62
     0
 10
7.3569161893318897
 20
42.580914984952237
 30
0.0
 11
7.3569161893318897
 21
42.580914984952237
 31
0.0
  0
LINE
  5
1896B
  8
0
 62
     0
 10
5.2919348320625179
 20
42.309055031796319
 30
0.0
 11
5.2919348320625179
 21
42.309055031796319
 31
0.0
  0
LINE
  5
1896C
  8
0
 62
     0
 10
3.969843109420542
 20
42.134998354470881
 30
0.0
 11
3.969843109420542
 21
42.134998354470881
 31
0.0
  0
LINE
  5
1896D
  8
0
 62
     0
 10
0.5198132808119568
 20
41.680793310783542
 30
0.0
 11
0.5198132808119568
 21
41.680793310783542
 31
0.0
  0
LINE
  5
1896E
  8
0
 62
     0
 10
6.43540543883607
 20
-59.471602609558978
 30
0.0
 11
6.43540543883607
 21
-59.471602609558978
 31
0.0
  0
LINE
  5
1896F
  8
0
 62
     0
 10
6.275402309237827
 20
-54.577470236265448
 30
0.0
 11
6.275402309237827
 21
-54.577470236265448
 31
0.0
  0
LINE
  5
18970
  8
0
 62
     0
 10
3.0008363971857528
 20
-57.09013303449894
 30
0.0
 11
3.0008363971857528
 21
-57.09013303449894
 31
0.0
  0
LINE
  5
18971
  8
0
 62
     0
 10
6.1153991796394154
 20
-49.683337862972039
 30
0.0
 11
6.1153991796394154
 21
-49.683337862972039
 31
0.0
  0
LINE
  5
18972
  8
0
 62
     0
 10
2.840833267587342
 20
-52.196000661205531
 30
0.0
 11
2.840833267587342
 21
-52.196000661205531
 31
0.0
  0
LINE
  5
18973
  8
0
 62
     0
 10
5.955396050040946
 20
-44.789205489678622
 30
0.0
 11
5.955396050040946
 21
-44.789205489678622
 31
0.0
  0
LINE
  5
18974
  8
0
 62
     0
 10
2.680830137988873
 20
-47.301868287912122
 30
0.0
 11
2.680830137988873
 21
-47.301868287912122
 31
0.0
  0
LINE
  5
18975
  8
0
 62
     0
 10
8.8583714966390605
 20
-37.544766991268283
 30
0.0
 11
8.8583714966390605
 21
-37.544766991268283
 31
0.0
  0
LINE
  5
18976
  8
0
 62
     0
 10
5.7953929204426577
 20
-39.895073116385142
 30
0.0
 11
5.7953929204426577
 21
-39.895073116385142
 31
0.0
  0
LINE
  5
18977
  8
0
 62
     0
 10
2.5208270083905848
 20
-42.407735914618627
 30
0.0
 11
2.5208270083905848
 21
-42.407735914618627
 31
0.0
  0
LINE
  5
18978
  8
0
 62
     0
 10
8.6983683670406258
 20
-32.650634617974859
 30
0.0
 11
8.6983683670406258
 21
-32.650634617974859
 31
0.0
  0
LINE
  5
18979
  8
0
 62
     0
 10
5.635389790844223
 20
-35.000940743091732
 30
0.0
 11
5.635389790844223
 21
-35.000940743091732
 31
0.0
  0
LINE
  5
1897A
  8
0
 62
     0
 10
2.3608238787921501
 20
-37.513603541325217
 30
0.0
 11
2.3608238787921501
 21
-37.513603541325217
 31
0.0
  0
LINE
  5
1897B
  8
0
 62
     0
 10
8.5383652374421573
 20
-27.756502244681499
 30
0.0
 11
8.5383652374421573
 21
-27.756502244681499
 31
0.0
  0
LINE
  5
1897C
  8
0
 62
     0
 10
5.4753866612457553
 20
-30.106808369798369
 30
0.0
 11
5.4753866612457553
 21
-30.106808369798369
 31
0.0
  0
LINE
  5
1897D
  8
0
 62
     0
 10
2.2008207491936811
 20
-32.619471168031872
 30
0.0
 11
2.2008207491936811
 21
-32.619471168031872
 31
0.0
  0
LINE
  5
1897E
  8
0
 62
     0
 10
8.3783621078436887
 20
-22.862369871388101
 30
0.0
 11
8.3783621078436887
 21
-22.862369871388101
 31
0.0
  0
LINE
  5
1897F
  8
0
 62
     0
 10
5.3153835316472859
 20
-25.21267599650497
 30
0.0
 11
5.3153835316472859
 21
-25.21267599650497
 31
0.0
  0
LINE
  5
18980
  8
0
 62
     0
 10
2.040817619595213
 20
-27.725338794738459
 30
0.0
 11
2.040817619595213
 21
-27.725338794738459
 31
0.0
  0
LINE
  5
18981
  8
0
 62
     0
 10
8.2183589782454565
 20
-17.968237498094549
 30
0.0
 11
8.2183589782454565
 21
-17.968237498094549
 31
0.0
  0
LINE
  5
18982
  8
0
 62
     0
 10
5.1553804020490546
 20
-20.318543623211418
 30
0.0
 11
5.1553804020490546
 21
-20.318543623211418
 31
0.0
  0
LINE
  5
18983
  8
0
 62
     0
 10
1.8808144899969821
 20
-22.831206421444922
 30
0.0
 11
1.8808144899969821
 21
-22.831206421444922
 31
0.0
  0
LINE
  5
18984
  8
0
 62
     0
 10
8.0583558486470217
 20
-13.074105124801131
 30
0.0
 11
8.0583558486470217
 21
-13.074105124801131
 31
0.0
  0
LINE
  5
18985
  8
0
 62
     0
 10
4.9953772724506189
 20
-15.424411249918
 30
0.0
 11
4.9953772724506189
 21
-15.424411249918
 31
0.0
  0
LINE
  5
18986
  8
0
 62
     0
 10
1.720811360398546
 20
-17.937074048151491
 30
0.0
 11
1.720811360398546
 21
-17.937074048151491
 31
0.0
  0
LINE
  5
18987
  8
0
 62
     0
 10
4.8353741428521513
 20
-10.530278876624591
 30
0.0
 11
4.8353741428521513
 21
-10.530278876624591
 31
0.0
  0
LINE
  5
18988
  8
0
 62
     0
 10
1.5608082308000779
 20
-13.04294167485809
 30
0.0
 11
1.5608082308000779
 21
-13.04294167485809
 31
0.0
  0
LINE
  5
18989
  8
0
 62
     0
 10
4.6753710132538471
 20
-5.6361465033310978
 30
0.0
 11
4.6753710132538471
 21
-5.6361465033310978
 31
0.0
  0
LINE
  5
1898A
  8
0
 62
     0
 10
7.7383495894501984
 20
-3.2858403782142842
 30
0.0
 11
7.7383495894501984
 21
-3.2858403782142842
 31
0.0
  0
LINE
  5
1898B
  8
0
 62
     0
 10
7.5783464598517973
 20
1.608291995079111
 30
0.0
 11
7.5783464598517973
 21
1.608291995079111
 31
0.0
  0
LINE
  5
1898C
  8
0
 62
     0
 10
4.5153678836553954
 20
-0.7420141300377581
 30
0.0
 11
4.5153678836553954
 21
-0.7420141300377581
 31
0.0
  0
LINE
  5
1898D
  8
0
 62
     0
 10
1.240801971603321
 20
-3.2546769282712522
 30
0.0
 11
1.240801971603321
 21
-3.2546769282712522
 31
0.0
  0
LINE
  5
1898E
  8
0
 62
     0
 10
4.355364754056926
 20
4.1521182432556483
 30
0.0
 11
4.355364754056926
 21
4.1521182432556483
 31
0.0
  0
LINE
  5
1898F
  8
0
 62
     0
 10
1.0807988420048531
 20
1.6394554450221539
 30
0.0
 11
1.0807988420048531
 21
1.6394554450221539
 31
0.0
  0
LINE
  5
18990
  8
0
 62
     0
 10
7.2583402006548541
 20
11.396556741665909
 30
0.0
 11
7.2583402006548541
 21
11.396556741665909
 31
0.0
  0
LINE
  5
18991
  8
0
 62
     0
 10
4.1953616244584531
 20
9.0462506165490382
 30
0.0
 11
4.1953616244584531
 21
9.0462506165490382
 31
0.0
  0
LINE
  5
18992
  8
0
 62
     0
 10
7.098337071056628
 20
16.29068911495941
 30
0.0
 11
7.098337071056628
 21
16.29068911495941
 31
0.0
  0
LINE
  5
18993
  8
0
 62
     0
 10
4.035358494860227
 20
13.94038298984254
 30
0.0
 11
4.035358494860227
 21
13.94038298984254
 31
0.0
  0
LINE
  5
18994
  8
0
 62
     0
 10
0.7607925828081537
 20
11.427720191609049
 30
0.0
 11
0.7607925828081537
 21
11.427720191609049
 31
0.0
  0
LINE
  5
18995
  8
0
 62
     0
 10
6.9383339414581586
 20
21.184821488252769
 30
0.0
 11
6.9383339414581586
 21
21.184821488252769
 31
0.0
  0
LINE
  5
18996
  8
0
 62
     0
 10
3.8753553652617581
 20
18.834515363135889
 30
0.0
 11
3.8753553652617581
 21
18.834515363135889
 31
0.0
  0
LINE
  5
18997
  8
0
 62
     0
 10
0.6007894532096851
 20
16.3218525649024
 30
0.0
 11
0.6007894532096851
 21
16.3218525649024
 31
0.0
  0
LINE
  5
18998
  8
0
 62
     0
 10
6.7783308118596901
 20
26.078953861546111
 30
0.0
 11
6.7783308118596901
 21
26.078953861546111
 31
0.0
  0
LINE
  5
18999
  8
0
 62
     0
 10
3.7153522356632891
 20
23.728647736429249
 30
0.0
 11
3.7153522356632891
 21
23.728647736429249
 31
0.0
  0
LINE
  5
1899A
  8
0
 62
     0
 10
0.4407863236112166
 20
21.215984938195749
 30
0.0
 11
0.4407863236112166
 21
21.215984938195749
 31
0.0
  0
LINE
  5
1899B
  8
0
 62
     0
 10
6.6183276822614934
 20
30.97308623483967
 30
0.0
 11
6.6183276822614934
 21
30.97308623483967
 31
0.0
  0
LINE
  5
1899C
  8
0
 62
     0
 10
3.555349106065091
 20
28.6227801097228
 30
0.0
 11
3.555349106065091
 21
28.6227801097228
 31
0.0
  0
LINE
  5
1899D
  8
0
 62
     0
 10
0.2807831940130185
 20
26.110117311489311
 30
0.0
 11
0.2807831940130185
 21
26.110117311489311
 31
0.0
  0
LINE
  5
1899E
  8
0
 62
     0
 10
6.4583245526630249
 20
35.867218608133079
 30
0.0
 11
6.4583245526630249
 21
35.867218608133079
 31
0.0
  0
LINE
  5
1899F
  8
0
 62
     0
 10
3.395345976466623
 20
33.516912483016213
 30
0.0
 11
3.395345976466623
 21
33.516912483016213
 31
0.0
  0
LINE
  5
189A0
  8
0
 62
     0
 10
0.1207800644145504
 20
31.004249684782721
 30
0.0
 11
0.1207800644145504
 21
31.004249684782721
 31
0.0
  0
LINE
  5
189A1
  8
0
 62
     0
 10
6.298321423064646
 20
40.761350981426553
 30
0.0
 11
6.298321423064646
 21
40.761350981426553
 31
0.0
  0
LINE
  5
189A2
  8
0
 62
     0
 10
3.235342846868245
 20
38.411044856309687
 30
0.0
 11
3.235342846868245
 21
38.411044856309687
 31
0.0
  0
LINE
  5
189A3
  8
0
 62
     0
 10
3.0753397172696859
 20
43.305177229602961
 30
0.0
 11
3.0753397172696859
 21
43.305177229602961
 31
0.0
  0
ENDBLK
  5
189A5
  8
0
  0
BLOCK
  8
0
  2
*U77
 70
     1
 10
0.0
 20
0.0
 30
0.0
  3
*U77
  1

  0
SOLID
  5
189A7
  8
1DIM
 10
12.044443127533439
 20
38.649918419518762
 30
0.0
 11
13.168864624287609
 21
36.962675873603018
 31
0.0
 12
11.55800886922316
 22
38.194038877548998
 32
0.0
 13
11.55800886922316
 23
38.194038877548998
 33
0.0
  0
POLYLINE
  5
189A8
  8
1DIM
 66
     1
 10
0.0
 20
0.0
 30
0.0
  0
VERTEX
  5
189A9
  8
1DIM
 10
11.8012259983783
 20
38.42197864853388
 30
0.0
  0
VERTEX
  5
189AA
  8
1DIM
 10
-2.0871988093631888
 20
53.241256546509689
 30
0.0
  0
VERTEX
  5
189AB
  8
1DIM
 10
-31.153865476029861
 20
53.241256546509689
 30
0.0
  0
SEQEND
  5
189AC
  8
1DIM
  0
ENDBLK
  5
189AE
  8
0
  0
BLOCK
  8
0
  2
*U78
 70
     1
 10
0.0
 20
0.0
 30
0.0
  3
*U78
  1

  0
TEXT
  5
189B0
  8
1DIM
 62
   201
 10
-31.153865476029861
 20
53.941256546509692
 30
0.0
 40
3.5
  1
裏板9mm以上
  0
ENDBLK
  5
189B2
  8
0
  0
BLOCK
  8
0
  2
*U79
 70
     1
 10
0.0
 20
0.0
 30
0.0
  3
*U79
  1

  0
LINE
  5
189B4
  8
0
 10
-29.999999999837598
 20
0.0000465358979227
 30
0.0
 11
-24.700003489975941
 21
-1.4999534641020771
 31
0.0
  0
LINE
  5
189B5
  8
0
 10
-24.700003489975941
 20
-1.4999534641020771
 30
0.0
 11
-0.0000034900840618
 21
-1.499953464101849
 31
0.0
  0
LINE
  5
189B6
  8
0
 10
-29.999999999837598
 20
0.0000465358979227
 30
0.0
 11
-24.6999965095923
 21
1.5000465358980359
 31
0.0
  0
LINE
  5
189B7
  8
0
 10
-0.0000081437821464
 20
-3.4999999999998859
 30
0.0
 11
-0.0000034900840618
 21
-1.499953464101849
 31
0.0
  0
LINE
  5
189B8
  8
0
 10
-24.6999965095923
 20
1.5000465358980359
 30
0.0
 11
0.0000034903006139
 21
1.500046535897922
 31
0.0
  0
LINE
  5
189B9
  8
0
 10
-0.0000081437821464
 20
-3.4999999999998859
 30
0.0
 11
1.0999953464131731
 21
-3.5
 31
0.0
  0
LINE
  5
189BA
  8
0
 10
0.0000034903006139
 20
1.500046535897922
 30
0.0
 11
0.0000081437821322
 21
3.5
 31
0.0
  0
ARC
  5
189BB
  8
0
 10
1.0999953464131731
 20
-2.0
 30
0.0
 40
1.5
 50
270.0
 51
359.99986668447059
  0
LINE
  5
189BC
  8
0
 10
0.0000081437821322
 20
3.5
 30
0.0
 11
1.100004653592769
 21
3.5
 31
0.0
  0
LINE
  5
189BD
  8
0
 10
2.5999953464091159
 20
-2.0000034901923982
 30
0.0
 11
2.6000046535887051
 21
1.9999965098076009
 31
0.0
  0
ARC
  5
189BE
  8
0
 10
1.100004653592769
 20
2.0
 30
0.0
 40
1.5
 50
359.99986668447059
 51
90.0
  0
ENDBLK
  5
189C0
  8
0
  0
BLOCK
  8
0
  2
*U80
 70
     1
 10
0.0
 20
0.0
 30
0.0
  3
*U80
  1

  0
LINE
  5
189C2
  8
0
 10
-9.6499999999999773
 20
2.0
 30
0.0
 11
-0.0000000000000284
 21
2.0
 31
0.0
  0
LINE
  5
189C3
  8
0
 10
-9.6499999999999773
 20
2.0
 30
0.0
 11
-10.0
 21
1.649999999999977
 31
0.0
  0
LINE
  5
189C4
  8
0
 10
0.0
 20
3.4999999999999432
 30
0.0
 11
-0.0000000000000284
 21
2.0
 31
0.0
  0
LINE
  5
189C5
  8
0
 10
-10.0
 20
1.649999999999977
 30
0.0
 11
-10.0
 21
-1.6499999999998629
 31
0.0
  0
LINE
  5
189C6
  8
0
 10
0.0
 20
3.4999999999999432
 30
0.0
 11
0.5999999999999375
 21
3.4999999999999432
 31
0.0
  0
LINE
  5
189C7
  8
0
 10
-10.0
 20
-1.6499999999998629
 30
0.0
 11
-9.6499999999999773
 21
-2.0
 31
0.0
  0
ARC
  5
189C8
  8
0
 10
0.5999999999999944
 20
1.4999999999999429
 30
0.0
 40
2.0
 50
0.0
 51
90.000000000001606
  0
LINE
  5
189C9
  8
0
 10
-9.6499999999999773
 20
-2.0
 30
0.0
 11
0.0000000000000568
 21
-2.0
 31
0.0
  0
LINE
  5
189CA
  8
0
 10
2.5999999999999939
 20
1.4999999999999429
 30
0.0
 11
2.5999999999999939
 21
-1.5
 31
0.0
  0
LINE
  5
189CB
  8
0
 10
0.0000000000000568
 20
-2.0
 30
0.0
 11
0.0
 21
-3.5
 31
0.0
  0
ARC
  5
189CC
  8
0
 10
0.5999999999999944
 20
-1.5
 30
0.0
 40
2.0
 50
270.0
 51
0.0
  0
LINE
  5
189CD
  8
0
 10
0.0
 20
-3.5
 30
0.0
 11
0.5999999999999944
 21
-3.5
 31
0.0
  0
ENDBLK
  5
189CF
  8
0
  0
BLOCK
  8
0
  2
*U81
 70
     1
 10
0.0
 20
0.0
 30
0.0
  3
*U81
  1

  0
LINE
  5
189F5
  8
0
 10
-24.650013959859319
 20
-1.9997699899806769
 30
0.0
 11
-2.3000325751651469
 21
-1.999978593270384
 31
0.0
  0
LINE
  5
189F6
  8
0
 10
-0.3000279215265778
 20
-3.9999972077595198
 30
0.0
 11
-2.3000325751651469
 21
-1.999978593270384
 31
0.0
  0
LINE
  5
189F7
  8
0
 10
-25.000011516714508
 20
-1.649767320475461
 30
0.0
 11
-24.650013959859319
 21
-1.9997699899806769
 31
0.0
  0
LINE
  5
189F8
  8
0
 10
-0.3000279215265778
 20
-3.9999972077595198
 30
0.0
 11
-0.0000279215387877
 21
-3.9999999999133702
 31
0.0
  0
LINE
  5
189F9
  8
0
 10
-24.999988481445051
 20
1.650232679454916
 30
0.0
 11
-25.000011516714508
 21
-1.649767320475461
 31
0.0
  0
LINE
  5
189FA
  8
0
 10
0.0000279215387877
 20
3.9999999999134839
 30
0.0
 11
-0.0000279215387877
 21
-3.9999999999133702
 31
0.0
  0
LINE
  5
189FB
  8
0
 10
-24.999988481445051
 20
1.650232679454916
 30
0.0
 11
-24.649986038320591
 21
2.0002300099321242
 31
0.0
  0
LINE
  5
189FC
  8
0
 10
-0.299972078449116
 20
4.0000027920673338
 30
0.0
 11
0.0000279215387877
 21
3.9999999999134839
 31
0.0
  0
LINE
  5
189FD
  8
0
 10
-24.649986038320591
 20
2.0002300099321242
 30
0.0
 11
-2.299976732000899
 21
2.0000214063830981
 31
0.0
  0
LINE
  5
189FE
  8
0
 10
-0.299972078449116
 20
4.0000027920673338
 30
0.0
 11
-2.299976732000899
 21
2.0000214063830981
 31
0.0
  0
ENDBLK
  5
18A00
  8
0
  0
BLOCK
  8
0
  2
*X82
 70
     1
 10
0.0
 20
0.0
 30
0.0
  3
*X82
  1

  0
LINE
  5
18A02
  8
0
 62
     0
 10
16.671990294007681
 20
-61.391691274362131
 30
0.0
 11
18.0
 21
-60.063681568369759
 31
0.0
  0
LINE
  5
18A03
  8
0
 62
     0
 10
14.42692626374037
 20
-61.391691274362131
 30
0.0
 11
17.99999999999994
 21
-57.818617538102501
 31
0.0
  0
LINE
  5
18A04
  8
0
 62
     0
 10
12.18186223347311
 20
-61.391691274362131
 30
0.0
 11
18.0
 21
-55.573553507835179
 31
0.0
  0
LINE
  5
18A05
  8
0
 62
     0
 10
9.9367982032057398
 20
-61.391691274362181
 30
0.0
 11
18.0
 21
-53.328489477567928
 31
0.0
  0
LINE
  5
18A06
  8
0
 62
     0
 10
9.0000000000001137
 20
-60.083425447300549
 30
0.0
 11
18.0
 21
-51.083425447300669
 31
0.0
  0
LINE
  5
18A07
  8
0
 62
     0
 10
9.0000000000000568
 20
-57.83836141703329
 30
0.0
 11
17.99999999999994
 21
-48.838361417033411
 31
0.0
  0
LINE
  5
18A08
  8
0
 62
     0
 10
9.0000000000000568
 20
-55.593297386765919
 30
0.0
 11
17.99999999999994
 21
-46.593297386766032
 31
0.0
  0
LINE
  5
18A09
  8
0
 62
     0
 10
9.0000000000000568
 20
-53.348233356498667
 30
0.0
 11
17.99999999999994
 21
-44.348233356498781
 31
0.0
  0
LINE
  5
18A0A
  8
0
 62
     0
 10
9.0000000000000568
 20
-51.103169326231409
 30
0.0
 11
18.00000000000006
 21
-42.103169326231459
 31
0.0
  0
LINE
  5
18A0B
  8
0
 62
     0
 10
9.0000000000000568
 20
-48.858105295964087
 30
0.0
 11
18.0
 21
-39.858105295964208
 31
0.0
  0
LINE
  5
18A0C
  8
0
 62
     0
 10
9.0000000000000568
 20
-46.613041265696722
 30
0.0
 11
18.0
 21
-37.613041265696843
 31
0.0
  0
LINE
  5
18A0D
  8
0
 62
     0
 10
9.0000000000000568
 20
-44.367977235429457
 30
0.0
 11
18.0
 21
-35.367977235429578
 31
0.0
  0
LINE
  5
18A0E
  8
0
 62
     0
 10
9.0000000000000568
 20
-42.122913205162213
 30
0.0
 11
18.0
 21
-33.12291320516232
 31
0.0
  0
LINE
  5
18A0F
  8
0
 62
     0
 10
9.0
 20
-39.877849174894948
 30
0.0
 11
17.99999999999994
 21
-30.877849174895061
 31
0.0
  0
LINE
  5
18A10
  8
0
 62
     0
 10
9.0
 20
-37.63278514462769
 30
0.0
 11
18.0
 21
-28.63278514462769
 31
0.0
  0
LINE
  5
18A11
  8
0
 62
     0
 10
9.0
 20
-35.387721114360431
 30
0.0
 11
18.0
 21
-26.387721114360431
 31
0.0
  0
LINE
  5
18A12
  8
0
 62
     0
 10
8.9999999999999432
 20
-33.14265708409318
 30
0.0
 11
17.99999999999994
 21
-24.14265708409317
 31
0.0
  0
LINE
  5
18A13
  8
0
 62
     0
 10
8.9999999999999432
 20
-30.897593053825918
 30
0.0
 11
17.99999999999994
 21
-21.897593053825918
 31
0.0
  0
LINE
  5
18A14
  8
0
 62
     0
 10
8.9999999999999432
 20
-28.65252902355866
 30
0.0
 11
17.99999999999994
 21
-19.65252902355866
 31
0.0
  0
LINE
  5
18A15
  8
0
 62
     0
 10
8.9999999999999432
 20
-26.407464993291399
 30
0.0
 11
18.0
 21
-17.407464993291342
 31
0.0
  0
LINE
  5
18A16
  8
0
 62
     0
 10
9.0
 20
-24.16240096302403
 30
0.0
 11
17.99999999999994
 21
-15.16240096302403
 31
0.0
  0
LINE
  5
18A17
  8
0
 62
     0
 10
8.9999999999999432
 20
-21.917336932756712
 30
0.0
 11
17.99999999999994
 21
-12.91733693275671
 31
0.0
  0
LINE
  5
18A18
  8
0
 62
     0
 10
8.9999999999999432
 20
-19.67227290248945
 30
0.0
 11
17.99999999999994
 21
-10.67227290248945
 31
0.0
  0
LINE
  5
18A19
  8
0
 62
     0
 10
8.9999999999999432
 20
-17.427208872222192
 30
0.0
 11
15.821190608570189
 21
-10.606018263652
 31
0.0
  0
LINE
  5
18A1A
  8
0
 62
     0
 10
16.78433035397688
 20
-7.3978144879779393
 30
0.0
 11
18.0
 21
-6.1821448419548801
 31
0.0
  0
LINE
  5
18A1B
  8
0
 62
     0
 10
8.9999999999998863
 20
-15.182144841954941
 30
0.0
 11
13.682098306056441
 21
-10.500046535898431
 31
0.0
  0
LINE
  5
18A1C
  8
0
 62
     0
 10
11.14073620626419
 20
-10.796344605423309
 30
0.0
 11
11.437034275789189
 21
-10.50004653589837
 31
0.0
  0
LINE
  5
18A1D
  8
0
 62
     0
 10
14.437034275789189
 20
-7.5000465358983197
 30
0.0
 11
18.00000000000006
 21
-3.9370808116874509
 31
0.0
  0
LINE
  5
18A1E
  8
0
 62
     0
 10
8.9999999999998863
 20
-12.93708081168762
 30
0.0
 11
11.072835431113271
 21
-10.86424538057423
 31
0.0
  0
LINE
  5
18A1F
  8
0
 62
     0
 10
12.191970245521761
 20
-7.5000465358984911
 30
0.0
 11
18.00000000000006
 21
-1.692016781420193
 31
0.0
  0
LINE
  5
18A20
  8
0
 62
     0
 10
9.0
 20
-10.69201678142031
 30
0.0
 11
9.1919702455219294
 21
-10.50004653589837
 31
0.0
  0
LINE
  5
18A21
  8
0
 62
     0
 10
10.32448800965261
 20
-7.1224647415003801
 30
0.0
 11
18.00000000000006
 21
0.5530472488470651
 31
0.0
  0
LINE
  5
18A22
  8
0
 62
     0
 10
9.9469062152545007
 20
-7.5000465358984911
 30
0.0
 11
10.26327872882478
 21
-7.1836740223282041
 31
0.0
  0
LINE
  5
18A23
  8
0
 62
     0
 10
8.9999999999999432
 20
-6.2018887208857896
 30
0.0
 11
18.0
 21
2.7981112791143228
 31
0.0
  0
LINE
  5
18A24
  8
0
 62
     0
 10
8.9999999999999432
 20
-3.956824690618475
 30
0.0
 11
18.00000000000006
 21
5.0431753093816951
 31
0.0
  0
LINE
  5
18A25
  8
0
 62
     0
 10
8.9999999999999432
 20
-1.711760660351217
 30
0.0
 11
18.00000000000006
 21
7.2882393396489533
 31
0.0
  0
LINE
  5
18A26
  8
0
 62
     0
 10
8.9999999999999432
 20
0.533303369916041
 30
0.0
 11
15.827771837741579
 21
7.3610752076577342
 31
0.0
  0
LINE
  5
18A27
  8
0
 62
     0
 10
16.79123737884305
 20
10.56960477902652
 30
0.0
 11
18.0
 21
11.778367400183519
 31
0.0
  0
LINE
  5
18A28
  8
0
 62
     0
 10
8.9999999999999432
 20
2.7783674001834688
 30
0.0
 11
13.721586063918149
 21
7.4999534641016794
 31
0.0
  0
LINE
  5
18A29
  8
0
 62
     0
 10
11.13086412323616
 20
7.154295553686949
 30
0.0
 11
11.47652203365084
 21
7.4999534641015648
 31
0.0
  0
LINE
  5
18A2A
  8
0
 62
     0
 10
14.47652203365084
 20
10.499953464101621
 30
0.0
 11
18.0
 21
14.023431430450779
 31
0.0
  0
LINE
  5
18A2B
  8
0
 62
     0
 10
8.9999999999999432
 20
5.023431430450727
 30
0.0
 11
11.079416660284719
 21
7.102848090735506
 31
0.0
  0
LINE
  5
18A2C
  8
0
 62
     0
 10
12.231458003383411
 20
10.49995346410145
 30
0.0
 11
18.00000000000006
 21
16.268495460718039
 31
0.0
  0
LINE
  5
18A2D
  8
0
 62
     0
 10
8.9999999999999432
 20
7.2684954607179861
 30
0.0
 11
9.2314580033835796
 21
7.4999534641015648
 31
0.0
  0
LINE
  5
18A2E
  8
0
 62
     0
 10
10.33106923882394
 20
10.844628729809241
 30
0.0
 11
18.00000000000006
 21
18.513559490985411
 31
0.0
  0
LINE
  5
18A2F
  8
0
 62
     0
 10
9.9863939731161508
 20
10.49995346410145
 30
0.0
 11
10.25340664579676
 21
10.766966136782059
 31
0.0
  0
LINE
  5
18A30
  8
0
 62
     0
 10
9.0000000000000568
 20
11.75862352125273
 30
0.0
 11
18.0
 21
20.75862352125273
 31
0.0
  0
LINE
  5
18A31
  8
0
 62
     0
 10
9.0000000000000568
 20
14.003687551519929
 30
0.0
 11
18.0
 21
23.003687551519992
 31
0.0
  0
LINE
  5
18A32
  8
0
 62
     0
 10
9.0000000000000568
 20
16.248751581787189
 30
0.0
 11
18.0
 21
25.24875158178725
 31
0.0
  0
LINE
  5
18A33
  8
0
 62
     0
 10
9.0000000000000568
 20
18.493815612054561
 30
0.0
 11
17.99999999999994
 21
27.493815612054512
 31
0.0
  0
LINE
  5
18A34
  8
0
 62
     0
 10
9.0000000000000568
 20
20.73887964232188
 30
0.0
 11
18.00000000000006
 21
29.73887964232182
 31
0.0
  0
LINE
  5
18A35
  8
0
 62
     0
 10
9.0000000000000568
 20
22.983943672589131
 30
0.0
 11
18.00000000000006
 21
31.983943672589081
 31
0.0
  0
LINE
  5
18A36
  8
0
 62
     0
 10
9.0000000000000568
 20
25.22900770285634
 30
0.0
 11
18.00000000000006
 21
34.229007702856343
 31
0.0
  0
LINE
  5
18A37
  8
0
 62
     0
 10
9.0
 20
27.474071733123591
 30
0.0
 11
18.0
 21
36.474071733123587
 31
0.0
  0
LINE
  5
18A38
  8
0
 62
     0
 10
9.0000000000001137
 20
29.71913576339103
 30
0.0
 11
18.0
 21
38.719135763390909
 31
0.0
  0
LINE
  5
18A39
  8
0
 62
     0
 10
9.0000000000001137
 20
31.964199793658281
 30
0.0
 11
18.0
 21
40.96419979365816
 31
0.0
  0
LINE
  5
18A3A
  8
0
 62
     0
 10
9.0000000000001137
 20
34.209263823925539
 30
0.0
 11
18.0
 21
43.209263823925419
 31
0.0
  0
LINE
  5
18A3B
  8
0
 62
     0
 10
9.0000000000000568
 20
36.454327854192861
 30
0.0
 11
17.245208523150549
 21
44.699536377343343
 31
0.0
  0
LINE
  5
18A3C
  8
0
 62
     0
 10
9.0000000000000568
 20
38.699391884460113
 30
0.0
 11
15.00014449288329
 21
44.699536377343343
 31
0.0
  0
LINE
  5
18A3D
  8
0
 62
     0
 10
9.0000000000000568
 20
40.944455914727477
 30
0.0
 11
12.75508046261592
 21
44.699536377343229
 31
0.0
  0
LINE
  5
18A3E
  8
0
 62
     0
 10
9.0000000000001137
 20
43.189519944994743
 30
0.0
 11
10.510016432348721
 21
44.699536377343229
 31
0.0
  0
ENDBLK
  5
18A40
  8
0
  0
BLOCK
  8
0
  2
*X83
 70
     1
 10
0.0
 20
0.0
 30
0.0
  3
*X83
  1

  0
LINE
  5
18A42
  8
0
 62
     0
 10
4.719668856187476
 20
-60.905108537765202
 30
0.0
 11
4.719668856187476
 21
-60.905108537765202
 31
0.0
  0
LINE
  5
18A43
  8
0
 62
     0
 10
2.5099012223001722
 20
-58.880229567499541
 30
0.0
 11
2.5099012223001722
 21
-58.880229567499541
 31
0.0
  0
LINE
  5
18A44
  8
0
 62
     0
 10
2.0417301134257442
 20
-58.4512297856636
 30
0.0
 11
2.0417301134257442
 21
-58.4512297856636
 31
0.0
  0
LINE
  5
18A45
  8
0
 62
     0
 10
7.1491706502268144
 20
-53.905337731177347
 30
0.0
 11
7.1491706502268144
 21
-53.905337731177347
 31
0.0
  0
LINE
  5
18A46
  8
0
 62
     0
 10
4.9394030163395106
 20
-51.880458760911701
 30
0.0
 11
4.9394030163395106
 21
-51.880458760911701
 31
0.0
  0
LINE
  5
18A47
  8
0
 62
     0
 10
4.471231907465083
 20
-51.451458979075753
 30
0.0
 11
4.471231907465083
 21
-51.451458979075753
 31
0.0
  0
LINE
  5
18A48
  8
0
 62
     0
 10
1.943107919543168
 20
-49.134860157161647
 30
0.0
 11
1.943107919543168
 21
-49.134860157161647
 31
0.0
  0
LINE
  5
18A49
  8
0
 62
     0
 10
7.3689048103787469
 20
-44.880687954323847
 30
0.0
 11
7.3689048103787469
 21
-44.880687954323847
 31
0.0
  0
LINE
  5
18A4A
  8
0
 62
     0
 10
6.9007337015043193
 20
-44.451688172487913
 30
0.0
 11
6.9007337015043193
 21
-44.451688172487913
 31
0.0
  0
LINE
  5
18A4B
  8
0
 62
     0
 10
4.3726097135824036
 20
-42.135089350573821
 30
0.0
 11
4.3726097135824036
 21
-42.135089350573821
 31
0.0
  0
LINE
  5
18A4C
  8
0
 62
     0
 10
2.1628420796950998
 20
-40.11021038030816
 30
0.0
 11
2.1628420796950998
 21
-40.11021038030816
 31
0.0
  0
LINE
  5
18A4D
  8
0
 62
     0
 10
1.694670970820672
 20
-39.681210598472219
 30
0.0
 11
1.694670970820672
 21
-39.681210598472219
 31
0.0
  0
LINE
  5
18A4E
  8
0
 62
     0
 10
6.8021115076217677
 20
-35.135318543985953
 30
0.0
 11
6.8021115076217677
 21
-35.135318543985953
 31
0.0
  0
LINE
  5
18A4F
  8
0
 62
     0
 10
4.592343873734464
 20
-33.110439573720278
 30
0.0
 11
4.592343873734464
 21
-33.110439573720278
 31
0.0
  0
LINE
  5
18A50
  8
0
 62
     0
 10
4.1241727648600364
 20
-32.681439791884351
 30
0.0
 11
4.1241727648600364
 21
-32.681439791884351
 31
0.0
  0
LINE
  5
18A51
  8
0
 62
     0
 10
1.5960487769381211
 20
-30.364840969970238
 30
0.0
 11
1.5960487769381211
 21
-30.364840969970238
 31
0.0
  0
LINE
  5
18A52
  8
0
 62
     0
 10
7.0218456677738237
 20
-26.110668767132399
 30
0.0
 11
7.0218456677738237
 21
-26.110668767132399
 31
0.0
  0
LINE
  5
18A53
  8
0
 62
     0
 10
6.5536745588993961
 20
-25.681668985296461
 30
0.0
 11
6.5536745588993961
 21
-25.681668985296461
 31
0.0
  0
LINE
  5
18A54
  8
0
 62
     0
 10
4.0255505709774813
 20
-23.365070163382359
 30
0.0
 11
4.0255505709774813
 21
-23.365070163382359
 31
0.0
  0
LINE
  5
18A55
  8
0
 62
     0
 10
1.8157829370901779
 20
-21.340191193116699
 30
0.0
 11
1.8157829370901779
 21
-21.340191193116699
 31
0.0
  0
LINE
  5
18A56
  8
0
 62
     0
 10
1.347611828215749
 20
-20.911191411280761
 30
0.0
 11
1.347611828215749
 21
-20.911191411280761
 31
0.0
  0
LINE
  5
18A57
  8
0
 62
     0
 10
8.9831763529386919
 20
-18.681898178708529
 30
0.0
 11
8.9831763529386919
 21
-18.681898178708529
 31
0.0
  0
LINE
  5
18A58
  8
0
 62
     0
 10
6.4550523650167762
 20
-16.365299356794441
 30
0.0
 11
6.4550523650167762
 21
-16.365299356794441
 31
0.0
  0
LINE
  5
18A59
  8
0
 62
     0
 10
4.2452847311294732
 20
-14.34042038652878
 30
0.0
 11
4.2452847311294732
 21
-14.34042038652878
 31
0.0
  0
LINE
  5
18A5A
  8
0
 62
     0
 10
3.7771136222550439
 20
-13.911420604692839
 30
0.0
 11
3.7771136222550439
 21
-13.911420604692839
 31
0.0
  0
LINE
  5
18A5B
  8
0
 62
     0
 10
1.248989634333129
 20
-11.59482178277873
 30
0.0
 11
1.248989634333129
 21
-11.59482178277873
 31
0.0
  0
LINE
  5
18A5C
  8
0
 62
     0
 10
6.6747865251688028
 20
-7.340649579940961
 30
0.0
 11
6.6747865251688028
 21
-7.340649579940961
 31
0.0
  0
LINE
  5
18A5D
  8
0
 62
     0
 10
6.2066154162943752
 20
-6.9116497981050173
 30
0.0
 11
6.2066154162943752
 21
-6.9116497981050173
 31
0.0
  0
LINE
  5
18A5E
  8
0
 62
     0
 10
3.6784914283724599
 20
-4.5950509761909171
 30
0.0
 11
3.6784914283724599
 21
-4.5950509761909171
 31
0.0
  0
LINE
  5
18A5F
  8
0
 62
     0
 10
1.468723794485157
 20
-2.5701720059252589
 30
0.0
 11
1.468723794485157
 21
-2.5701720059252589
 31
0.0
  0
LINE
  5
18A60
  8
0
 62
     0
 10
1.0005526856107281
 20
-2.1411722240893152
 30
0.0
 11
1.0005526856107281
 21
-2.1411722240893152
 31
0.0
  0
LINE
  5
18A61
  8
0
 62
     0
 10
8.6361172103337154
 20
0.0881210084828284
 30
0.0
 11
8.6361172103337154
 21
0.0881210084828284
 31
0.0
  0
LINE
  5
18A62
  8
0
 62
     0
 10
6.1079932224118014
 20
2.4047198303969282
 30
0.0
 11
6.1079932224118014
 21
2.4047198303969282
 31
0.0
  0
LINE
  5
18A63
  8
0
 62
     0
 10
3.8982255885244972
 20
4.4295988006625846
 30
0.0
 11
3.8982255885244972
 21
4.4295988006625846
 31
0.0
  0
LINE
  5
18A64
  8
0
 62
     0
 10
3.4300544796500692
 20
4.85859858249853
 30
0.0
 11
3.4300544796500692
 21
4.85859858249853
 31
0.0
  0
LINE
  5
18A65
  8
0
 62
     0
 10
0.9019304917281541
 20
7.1751974044126294
 30
0.0
 11
0.9019304917281541
 21
7.1751974044126294
 31
0.0
  0
LINE
  5
18A66
  8
0
 62
     0
 10
6.3277273825637756
 20
11.42936960725048
 30
0.0
 11
6.3277273825637756
 21
11.42936960725048
 31
0.0
  0
LINE
  5
18A67
  8
0
 62
     0
 10
5.8595562736893481
 20
11.85836938908642
 30
0.0
 11
5.8595562736893481
 21
11.85836938908642
 31
0.0
  0
LINE
  5
18A68
  8
0
 62
     0
 10
3.3314322857674332
 20
14.17496821100052
 30
0.0
 11
3.3314322857674332
 21
14.17496821100052
 31
0.0
  0
LINE
  5
18A69
  8
0
 62
     0
 10
1.121664651880129
 20
16.199847181266179
 30
0.0
 11
1.121664651880129
 21
16.199847181266179
 31
0.0
  0
LINE
  5
18A6A
  8
0
 62
     0
 10
0.6534935430057013
 20
16.628846963102131
 30
0.0
 11
0.6534935430057013
 21
16.628846963102131
 31
0.0
  0
LINE
  5
18A6B
  8
0
 62
     0
 10
8.757229176603154
 20
18.429140413838351
 30
0.0
 11
8.757229176603154
 21
18.429140413838351
 31
0.0
  0
LINE
  5
18A6C
  8
0
 62
     0
 10
8.2890580677287247
 20
18.858140195674299
 30
0.0
 11
8.2890580677287247
 21
18.858140195674299
 31
0.0
  0
LINE
  5
18A6D
  8
0
 62
     0
 10
5.7609340798068081
 20
21.174739017588401
 30
0.0
 11
5.7609340798068081
 21
21.174739017588401
 31
0.0
  0
LINE
  5
18A6E
  8
0
 62
     0
 10
3.5511664459195051
 20
23.199617987854051
 30
0.0
 11
3.5511664459195051
 21
23.199617987854051
 31
0.0
  0
LINE
  5
18A6F
  8
0
 62
     0
 10
3.0829953370450758
 20
23.628617769689999
 30
0.0
 11
3.0829953370450758
 21
23.628617769689999
 31
0.0
  0
LINE
  5
18A70
  8
0
 62
     0
 10
0.5548713491231618
 20
25.945216591604101
 30
0.0
 11
0.5548713491231618
 21
25.945216591604101
 31
0.0
  0
LINE
  5
18A71
  8
0
 62
     0
 10
8.1904358738460896
 20
28.17450982417618
 30
0.0
 11
8.1904358738460896
 21
28.17450982417618
 31
0.0
  0
LINE
  5
18A72
  8
0
 62
     0
 10
5.9806682399587858
 20
30.199388794441841
 30
0.0
 11
5.9806682399587858
 21
30.199388794441841
 31
0.0
  0
LINE
  5
18A73
  8
0
 62
     0
 10
5.5124971310843582
 20
30.628388576277789
 30
0.0
 11
5.5124971310843582
 21
30.628388576277789
 31
0.0
  0
LINE
  5
18A74
  8
0
 62
     0
 10
2.984373143162443
 20
32.944987398191877
 30
0.0
 11
2.984373143162443
 21
32.944987398191877
 31
0.0
  0
LINE
  5
18A75
  8
0
 62
     0
 10
0.7746055092751402
 20
34.969866368457538
 30
0.0
 11
0.7746055092751402
 21
34.969866368457538
 31
0.0
  0
LINE
  5
18A76
  8
0
 62
     0
 10
0.3064344004007115
 20
35.398866150293493
 30
0.0
 11
0.3064344004007115
 21
35.398866150293493
 31
0.0
  0
LINE
  5
18A77
  8
0
 62
     0
 10
8.41017003399811
 20
37.199159601029763
 30
0.0
 11
8.41017003399811
 21
37.199159601029763
 31
0.0
  0
LINE
  5
18A78
  8
0
 62
     0
 10
7.9419989251236807
 20
37.628159382865697
 30
0.0
 11
7.9419989251236807
 21
37.628159382865697
 31
0.0
  0
LINE
  5
18A79
  8
0
 62
     0
 10
5.4138749372017658
 20
39.944758204779802
 30
0.0
 11
5.4138749372017658
 21
39.944758204779802
 31
0.0
  0
LINE
  5
18A7A
  8
0
 62
     0
 10
3.204107303314462
 20
41.969637175045463
 30
0.0
 11
3.204107303314462
 21
41.969637175045463
 31
0.0
  0
LINE
  5
18A7B
  8
0
 62
     0
 10
2.735936194440034
 20
42.398636956881397
 30
0.0
 11
2.735936194440034
 21
42.398636956881397
 31
0.0
  0
LINE
  5
18A7C
  8
0
 62
     0
 10
3.8802392881250851
 20
-61.296643484138428
 30
0.0
 11
3.8802392881250851
 21
-61.296643484138428
 31
0.0
  0
LINE
  5
18A7D
  8
0
 62
     0
 10
6.7559594504826217
 20
-58.075130275130718
 30
0.0
 11
6.7559594504826217
 21
-58.075130275130718
 31
0.0
  0
LINE
  5
18A7E
  8
0
 62
     0
 10
2.8999737602261102
 20
-55.618596465769052
 30
0.0
 11
2.8999737602261102
 21
-55.618596465769052
 31
0.0
  0
LINE
  5
18A7F
  8
0
 62
     0
 10
1.8288666240437459
 20
-54.936225963168582
 30
0.0
 11
1.8288666240437459
 21
-54.936225963168582
 31
0.0
  0
LINE
  5
18A80
  8
0
 62
     0
 10
4.7045867864011877
 20
-51.714712754160921
 30
0.0
 11
4.7045867864011877
 21
-51.714712754160921
 31
0.0
  0
LINE
  5
18A81
  8
0
 62
     0
 10
0.8486010961446758
 20
-49.258178944799241
 30
0.0
 11
0.8486010961446758
 21
-49.258178944799241
 31
0.0
  0
LINE
  5
18A82
  8
0
 62
     0
 10
8.7585247985592201
 20
-49.243807098013797
 30
0.0
 11
8.7585247985592201
 21
-49.243807098013797
 31
0.0
  0
LINE
  5
18A83
  8
0
 62
     0
 10
7.6874176623768546
 20
-48.561436595413333
 30
0.0
 11
7.6874176623768546
 21
-48.561436595413333
 31
0.0
  0
LINE
  5
18A84
  8
0
 62
     0
 10
2.6532141223197412
 20
-45.354295233191131
 30
0.0
 11
2.6532141223197412
 21
-45.354295233191131
 31
0.0
  0
LINE
  5
18A85
  8
0
 62
     0
 10
6.7071521344778677
 20
-42.883389577044078
 30
0.0
 11
6.7071521344778677
 21
-42.883389577044078
 31
0.0
  0
LINE
  5
18A86
  8
0
 62
     0
 10
5.6360449982955041
 20
-42.201019074443607
 30
0.0
 11
5.6360449982955041
 21
-42.201019074443607
 31
0.0
  0
LINE
  5
18A87
  8
0
 62
     0
 10
0.6018414582383905
 20
-38.993877712221433
 30
0.0
 11
0.6018414582383905
 21
-38.993877712221433
 31
0.0
  0
LINE
  5
18A88
  8
0
 62
     0
 10
8.5117651606529581
 20
-38.97950586543589
 30
0.0
 11
8.5117651606529581
 21
-38.97950586543589
 31
0.0
  0
LINE
  5
18A89
  8
0
 62
     0
 10
4.6557794703964452
 20
-36.522972056074209
 30
0.0
 11
4.6557794703964452
 21
-36.522972056074209
 31
0.0
  0
LINE
  5
18A8A
  8
0
 62
     0
 10
3.5846723342140798
 20
-35.840601553473739
 30
0.0
 11
3.5846723342140798
 21
-35.840601553473739
 31
0.0
  0
LINE
  5
18A8B
  8
0
 62
     0
 10
6.4603924965714628
 20
-32.619088344466078
 30
0.0
 11
6.4603924965714628
 21
-32.619088344466078
 31
0.0
  0
LINE
  5
18A8C
  8
0
 62
     0
 10
2.6044068063149499
 20
-30.162554535104402
 30
0.0
 11
2.6044068063149499
 21
-30.162554535104402
 31
0.0
  0
LINE
  5
18A8D
  8
0
 62
     0
 10
1.5332996701325861
 20
-29.480184032503931
 30
0.0
 11
1.5332996701325861
 21
-29.480184032503931
 31
0.0
  0
LINE
  5
18A8E
  8
0
 62
     0
 10
4.4090198324901886
 20
-26.258670823496349
 30
0.0
 11
4.4090198324901886
 21
-26.258670823496349
 31
0.0
  0
LINE
  5
18A8F
  8
0
 62
     0
 10
0.5530341422336775
 20
-23.802137014134669
 30
0.0
 11
0.5530341422336775
 21
-23.802137014134669
 31
0.0
  0
LINE
  5
18A90
  8
0
 62
     0
 10
8.4629578446482672
 20
-23.78776516734921
 30
0.0
 11
8.4629578446482672
 21
-23.78776516734921
 31
0.0
  0
LINE
  5
18A91
  8
0
 62
     0
 10
7.3918507084659044
 20
-23.105394664748751
 30
0.0
 11
7.3918507084659044
 21
-23.105394664748751
 31
0.0
  0
LINE
  5
18A92
  8
0
 62
     0
 10
2.3576471684087901
 20
-19.898253302526548
 30
0.0
 11
2.3576471684087901
 21
-19.898253302526548
 31
0.0
  0
LINE
  5
18A93
  8
0
 62
     0
 10
6.4115851805667248
 20
-17.427347646379371
 30
0.0
 11
6.4115851805667248
 21
-17.427347646379371
 31
0.0
  0
LINE
  5
18A94
  8
0
 62
     0
 10
5.3404780443843611
 20
-16.7449771437789
 30
0.0
 11
5.3404780443843611
 21
-16.7449771437789
 31
0.0
  0
LINE
  5
18A95
  8
0
 62
     0
 10
0.3062745043272478
 20
-13.53783578155671
 30
0.0
 11
0.3062745043272478
 21
-13.53783578155671
 31
0.0
  0
LINE
  5
18A96
  8
0
 62
     0
 10
8.2161982067418311
 20
-13.52346393477128
 30
0.0
 11
8.2161982067418311
 21
-13.52346393477128
 31
0.0
  0
LINE
  5
18A97
  8
0
 62
     0
 10
4.3602125164853183
 20
-11.0669301254096
 30
0.0
 11
4.3602125164853183
 21
-11.0669301254096
 31
0.0
  0
LINE
  5
18A98
  8
0
 62
     0
 10
6.1648255426604877
 20
-7.1630464138015846
 30
0.0
 11
6.1648255426604877
 21
-7.1630464138015846
 31
0.0
  0
LINE
  5
18A99
  8
0
 62
     0
 10
2.3088398524039762
 20
-4.7065126044399053
 30
0.0
 11
2.3088398524039762
 21
-4.7065126044399053
 31
0.0
  0
LINE
  5
18A9A
  8
0
 62
     0
 10
1.237732716221611
 20
-4.0241421018394377
 30
0.0
 11
1.237732716221611
 21
-4.0241421018394377
 31
0.0
  0
LINE
  5
18A9B
  8
0
 62
     0
 10
4.1134528785791007
 20
-0.802628892831747
 30
0.0
 11
4.1134528785791007
 21
-0.802628892831747
 31
0.0
  0
LINE
  5
18A9C
  8
0
 62
     0
 10
0.2574671883225893
 20
1.6539049165299331
 30
0.0
 11
0.2574671883225893
 21
1.6539049165299331
 31
0.0
  0
LINE
  5
18A9D
  8
0
 62
     0
 10
8.1673908907370851
 20
1.6682767633154569
 30
0.0
 11
8.1673908907370851
 21
1.6682767633154569
 31
0.0
  0
LINE
  5
18A9E
  8
0
 62
     0
 10
7.0962837545547197
 20
2.350647265915923
 30
0.0
 11
7.0962837545547197
 21
2.350647265915923
 31
0.0
  0
LINE
  5
18A9F
  8
0
 62
     0
 10
2.0620802144976071
 20
5.557788628138117
 30
0.0
 11
2.0620802144976071
 21
5.557788628138117
 31
0.0
  0
LINE
  5
18AA0
  8
0
 62
     0
 10
0.0107075504163213
 20
11.91820614910781
 30
0.0
 11
0.0107075504163213
 21
11.91820614910781
 31
0.0
  0
LINE
  5
18AA1
  8
0
 62
     0
 10
7.9206312528308631
 20
11.932577995893361
 30
0.0
 11
7.9206312528308631
 21
11.932577995893361
 31
0.0
  0
LINE
  5
18AA2
  8
0
 62
     0
 10
4.0646455625743521
 20
14.389111805255039
 30
0.0
 11
4.0646455625743521
 21
14.389111805255039
 31
0.0
  0
LINE
  5
18AA3
  8
0
 62
     0
 10
2.9935384263919871
 20
15.07148230785551
 30
0.0
 11
2.9935384263919871
 21
15.07148230785551
 31
0.0
  0
LINE
  5
18AA4
  8
0
 62
     0
 10
5.8692585887494468
 20
18.292995516863161
 30
0.0
 11
5.8692585887494468
 21
18.292995516863161
 31
0.0
  0
LINE
  5
18AA5
  8
0
 62
     0
 10
2.0132728984929349
 20
20.749529326224842
 30
0.0
 11
2.0132728984929349
 21
20.749529326224842
 31
0.0
  0
LINE
  5
18AA6
  8
0
 62
     0
 10
0.9421657623105714
 20
21.431899828825308
 30
0.0
 11
0.9421657623105714
 21
21.431899828825308
 31
0.0
  0
LINE
  5
18AA7
  8
0
 62
     0
 10
8.8520894647250579
 20
21.44627167561082
 30
0.0
 11
8.8520894647250579
 21
21.44627167561082
 31
0.0
  0
LINE
  5
18AA8
  8
0
 62
     0
 10
3.817885924667944
 20
24.653413037833008
 30
0.0
 11
3.817885924667944
 21
24.653413037833008
 31
0.0
  0
LINE
  5
18AA9
  8
0
 62
     0
 10
7.8718239368261278
 20
27.124318693980069
 30
0.0
 11
7.8718239368261278
 21
27.124318693980069
 31
0.0
  0
LINE
  5
18AAA
  8
0
 62
     0
 10
6.8007168006437642
 20
27.806689196580539
 30
0.0
 11
6.8007168006437642
 21
27.806689196580539
 31
0.0
  0
LINE
  5
18AAB
  8
0
 62
     0
 10
1.76651326058665
 20
31.013830558802731
 30
0.0
 11
1.76651326058665
 21
31.013830558802731
 31
0.0
  0
LINE
  5
18AAC
  8
0
 62
     0
 10
5.8204512727446627
 20
33.484736214949912
 30
0.0
 11
5.8204512727446627
 21
33.484736214949912
 31
0.0
  0
LINE
  5
18AAD
  8
0
 62
     0
 10
4.749344136562299
 20
34.167106717550368
 30
0.0
 11
4.749344136562299
 21
34.167106717550368
 31
0.0
  0
LINE
  5
18AAE
  8
0
 62
     0
 10
7.6250642989196979
 20
37.388619926558029
 30
0.0
 11
7.6250642989196979
 21
37.388619926558029
 31
0.0
  0
LINE
  5
18AAF
  8
0
 62
     0
 10
3.769078608663186
 20
39.845153735919709
 30
0.0
 11
3.769078608663186
 21
39.845153735919709
 31
0.0
  0
LINE
  5
18AB0
  8
0
 62
     0
 10
2.697971472480821
 20
40.527524238520179
 30
0.0
 11
2.697971472480821
 21
40.527524238520179
 31
0.0
  0
LINE
  5
18AB1
  8
0
 62
     0
 10
5.5736916348382826
 20
43.749037447527833
 30
0.0
 11
5.5736916348382826
 21
43.749037447527833
 31
0.0
  0
LINE
  5
18AB2
  8
0
 62
     0
 10
8.5586983347236512
 20
-60.733363906378372
 30
0.0
 11
8.5586983347236512
 21
-60.733363906378372
 31
0.0
  0
LINE
  5
18AB3
  8
0
 62
     0
 10
6.4937169774542811
 20
-61.00522385953429
 30
0.0
 11
6.4937169774542811
 21
-61.00522385953429
 31
0.0
  0
LINE
  5
18AB4
  8
0
 62
     0
 10
5.1716252548123052
 20
-61.179280536859729
 30
0.0
 11
5.1716252548123052
 21
-61.179280536859729
 31
0.0
  0
LINE
  5
18AB5
  8
0
 62
     0
 10
6.2168282575837468
 20
-54.465234574863508
 30
0.0
 11
6.2168282575837468
 21
-54.465234574863508
 31
0.0
  0
LINE
  5
18AB6
  8
0
 62
     0
 10
4.151846900314375
 20
-54.737094528019441
 30
0.0
 11
4.151846900314375
 21
-54.737094528019441
 31
0.0
  0
LINE
  5
18AB7
  8
0
 62
     0
 10
2.829755177672399
 20
-54.911151205344872
 30
0.0
 11
2.829755177672399
 21
-54.911151205344872
 31
0.0
  0
LINE
  5
18AB8
  8
0
 62
     0
 10
8.6470797316944097
 20
-47.568843522335911
 30
0.0
 11
8.6470797316944097
 21
-47.568843522335911
 31
0.0
  0
LINE
  5
18AB9
  8
0
 62
     0
 10
7.324988009052432
 20
-47.742900199661349
 30
0.0
 11
7.324988009052432
 21
-47.742900199661349
 31
0.0
  0
LINE
  5
18ABA
  8
0
 62
     0
 10
3.8749581804438469
 20
-48.197105243348688
 30
0.0
 11
3.8749581804438469
 21
-48.197105243348688
 31
0.0
  0
LINE
  5
18ABB
  8
0
 62
     0
 10
1.8099768231744751
 20
-48.468965196504612
 30
0.0
 11
1.8099768231744751
 21
-48.468965196504612
 31
0.0
  0
LINE
  5
18ABC
  8
0
 62
     0
 10
0.4878851005324989
 20
-48.643021873830051
 30
0.0
 11
0.4878851005324989
 21
-48.643021873830051
 31
0.0
  0
LINE
  5
18ABD
  8
0
 62
     0
 10
8.3701910118238132
 20
-41.028854237665151
 30
0.0
 11
8.3701910118238132
 21
-41.028854237665151
 31
0.0
  0
LINE
  5
18ABE
  8
0
 62
     0
 10
6.3052096545544423
 20
-41.300714190821083
 30
0.0
 11
6.3052096545544423
 21
-41.300714190821083
 31
0.0
  0
LINE
  5
18ABF
  8
0
 62
     0
 10
4.9831179319124663
 20
-41.474770868146521
 30
0.0
 11
4.9831179319124663
 21
-41.474770868146521
 31
0.0
  0
LINE
  5
18AC0
  8
0
 62
     0
 10
1.5330881033038799
 20
-41.928975911833859
 30
0.0
 11
1.5330881033038799
 21
-41.928975911833859
 31
0.0
  0
LINE
  5
18AC1
  8
0
 62
     0
 10
6.0283209346837987
 20
-34.76072490615033
 30
0.0
 11
6.0283209346837987
 21
-34.76072490615033
 31
0.0
  0
LINE
  5
18AC2
  8
0
 62
     0
 10
3.9633395774144269
 20
-35.032584859306262
 30
0.0
 11
3.9633395774144269
 21
-35.032584859306262
 31
0.0
  0
LINE
  5
18AC3
  8
0
 62
     0
 10
2.6412478547724509
 20
-35.206641536631693
 30
0.0
 11
2.6412478547724509
 21
-35.206641536631693
 31
0.0
  0
LINE
  5
18AC4
  8
0
 62
     0
 10
8.4585724087945735
 20
-27.8643338536227
 30
0.0
 11
8.4585724087945735
 21
-27.8643338536227
 31
0.0
  0
LINE
  5
18AC5
  8
0
 62
     0
 10
7.1364806861525958
 20
-28.038390530948138
 30
0.0
 11
7.1364806861525958
 21
-28.038390530948138
 31
0.0
  0
LINE
  5
18AC6
  8
0
 62
     0
 10
3.6864508575440111
 20
-28.49259557463547
 30
0.0
 11
3.6864508575440111
 21
-28.49259557463547
 31
0.0
  0
LINE
  5
18AC7
  8
0
 62
     0
 10
1.621469500274638
 20
-28.764455527791402
 30
0.0
 11
1.621469500274638
 21
-28.764455527791402
 31
0.0
  0
LINE
  5
18AC8
  8
0
 62
     0
 10
0.2993777776326627
 20
-28.93851220511683
 30
0.0
 11
0.2993777776326627
 21
-28.93851220511683
 31
0.0
  0
LINE
  5
18AC9
  8
0
 62
     0
 10
8.1816836889240907
 20
-21.324344568951911
 30
0.0
 11
8.1816836889240907
 21
-21.324344568951911
 31
0.0
  0
LINE
  5
18ACA
  8
0
 62
     0
 10
6.116702331654718
 20
-21.596204522107829
 30
0.0
 11
6.116702331654718
 21
-21.596204522107829
 31
0.0
  0
LINE
  5
18ACB
  8
0
 62
     0
 10
4.7946106090127421
 20
-21.770261199433271
 30
0.0
 11
4.7946106090127421
 21
-21.770261199433271
 31
0.0
  0
LINE
  5
18ACC
  8
0
 62
     0
 10
1.3445807804041561
 20
-22.224466243120609
 30
0.0
 11
1.3445807804041561
 21
-22.224466243120609
 31
0.0
  0
LINE
  5
18ACD
  8
0
 62
     0
 10
5.8398136117840771
 20
-15.05621523743708
 30
0.0
 11
5.8398136117840771
 21
-15.05621523743708
 31
0.0
  0
LINE
  5
18ACE
  8
0
 62
     0
 10
3.7748322545147039
 20
-15.328075190592999
 30
0.0
 11
3.7748322545147039
 21
-15.328075190592999
 31
0.0
  0
LINE
  5
18ACF
  8
0
 62
     0
 10
2.452740531872728
 20
-15.50213186791844
 30
0.0
 11
2.452740531872728
 21
-15.50213186791844
 31
0.0
  0
LINE
  5
18AD0
  8
0
 62
     0
 10
7.9931763660241417
 20
-1.61983490023871
 30
0.0
 11
7.9931763660241417
 21
-1.61983490023871
 31
0.0
  0
LINE
  5
18AD1
  8
0
 62
     0
 10
5.9281950087547699
 20
-1.8916948533946341
 30
0.0
 11
5.9281950087547699
 21
-1.8916948533946341
 31
0.0
  0
LINE
  5
18AD2
  8
0
 62
     0
 10
4.606103286112794
 20
-2.065751530720072
 30
0.0
 11
4.606103286112794
 21
-2.065751530720072
 31
0.0
  0
LINE
  5
18AD3
  8
0
 62
     0
 10
1.1560734575042091
 20
-2.5199565744074079
 30
0.0
 11
1.1560734575042091
 21
-2.5199565744074079
 31
0.0
  0
LINE
  5
18AD4
  8
0
 62
     0
 10
5.6513062888843519
 20
4.648294431276164
 30
0.0
 11
5.6513062888843519
 21
4.648294431276164
 31
0.0
  0
LINE
  5
18AD5
  8
0
 62
     0
 10
3.586324931614981
 20
4.3764344781202409
 30
0.0
 11
3.586324931614981
 21
4.3764344781202409
 31
0.0
  0
LINE
  5
18AD6
  8
0
 62
     0
 10
2.2642332089730042
 20
4.2023778007948032
 30
0.0
 11
2.2642332089730042
 21
4.2023778007948032
 31
0.0
  0
LINE
  5
18AD7
  8
0
 62
     0
 10
3.3094362117444769
 20
10.916423762791
 30
0.0
 11
3.3094362117444769
 21
10.916423762791
 31
0.0
  0
LINE
  5
18AD8
  8
0
 62
     0
 10
1.2444548544750369
 20
10.644563809635081
 30
0.0
 11
1.2444548544750369
 21
10.644563809635081
 31
0.0
  0
LINE
  5
18AD9
  8
0
 62
     0
 10
8.081557762995029
 20
11.54468548380378
 30
0.0
 11
8.081557762995029
 21
11.54468548380378
 31
0.0
  0
LINE
  5
18ADA
  8
0
 62
     0
 10
6.7594660403530522
 20
11.37062880647834
 30
0.0
 11
6.7594660403530522
 21
11.37062880647834
 31
0.0
  0
LINE
  5
18ADB
  8
0
 62
     0
 10
7.8046690431244183
 20
18.084674768474539
 30
0.0
 11
7.8046690431244183
 21
18.084674768474539
 31
0.0
  0
LINE
  5
18ADC
  8
0
 62
     0
 10
5.7396876858550456
 20
17.812814815318621
 30
0.0
 11
5.7396876858550456
 21
17.812814815318621
 31
0.0
  0
LINE
  5
18ADD
  8
0
 62
     0
 10
4.4175959632130697
 20
17.638758137993179
 30
0.0
 11
4.4175959632130697
 21
17.638758137993179
 31
0.0
  0
LINE
  5
18ADE
  8
0
 62
     0
 10
0.9675661346044847
 20
17.184553094305841
 30
0.0
 11
0.9675661346044847
 21
17.184553094305841
 31
0.0
  0
LINE
  5
18ADF
  8
0
 62
     0
 10
8.9128287945932172
 20
24.807009143676751
 30
0.0
 11
8.9128287945932172
 21
24.807009143676751
 31
0.0
  0
LINE
  5
18AE0
  8
0
 62
     0
 10
5.4627989659846303
 20
24.35280409998941
 30
0.0
 11
5.4627989659846303
 21
24.35280409998941
 31
0.0
  0
LINE
  5
18AE1
  8
0
 62
     0
 10
3.3978176087152572
 20
24.080944146833492
 30
0.0
 11
3.3978176087152572
 21
24.080944146833492
 31
0.0
  0
LINE
  5
18AE2
  8
0
 62
     0
 10
2.0757258860732808
 20
23.90688746950805
 30
0.0
 11
2.0757258860732808
 21
23.90688746950805
 31
0.0
  0
LINE
  5
18AE3
  8
0
 62
     0
 10
7.8930504400952897
 20
31.249195152517011
 30
0.0
 11
7.8930504400952897
 21
31.249195152517011
 31
0.0
  0
LINE
  5
18AE4
  8
0
 62
     0
 10
6.5709587174533137
 20
31.075138475191579
 30
0.0
 11
6.5709587174533137
 21
31.075138475191579
 31
0.0
  0
LINE
  5
18AE5
  8
0
 62
     0
 10
3.1209288888447282
 20
30.620933431504241
 30
0.0
 11
3.1209288888447282
 21
30.620933431504241
 31
0.0
  0
LINE
  5
18AE6
  8
0
 62
     0
 10
1.0559475315753559
 20
30.34907347834832
 30
0.0
 11
1.0559475315753559
 21
30.34907347834832
 31
0.0
  0
LINE
  5
18AE7
  8
0
 62
     0
 10
7.6161617202245822
 20
37.789184437187778
 30
0.0
 11
7.6161617202245822
 21
37.789184437187778
 31
0.0
  0
LINE
  5
18AE8
  8
0
 62
     0
 10
5.5511803629552103
 20
37.517324484031853
 30
0.0
 11
5.5511803629552103
 21
37.517324484031853
 31
0.0
  0
LINE
  5
18AE9
  8
0
 62
     0
 10
4.2290886403132344
 20
37.343267806706422
 30
0.0
 11
4.2290886403132344
 21
37.343267806706422
 31
0.0
  0
LINE
  5
18AEA
  8
0
 62
     0
 10
0.7790588117046485
 20
36.889062763019083
 30
0.0
 11
0.7790588117046485
 21
36.889062763019083
 31
0.0
  0
LINE
  5
18AEB
  8
0
 62
     0
 10
8.7243214716932656
 20
44.511518812389951
 30
0.0
 11
8.7243214716932656
 21
44.511518812389951
 31
0.0
  0
LINE
  5
18AEC
  8
0
 62
     0
 10
5.2742916430846796
 20
44.05731376870262
 30
0.0
 11
5.2742916430846796
 21
44.05731376870262
 31
0.0
  0
LINE
  5
18AED
  8
0
 62
     0
 10
3.2093102858153082
 20
43.785453815546688
 30
0.0
 11
3.2093102858153082
 21
43.785453815546688
 31
0.0
  0
LINE
  5
18AEE
  8
0
 62
     0
 10
1.887218563173332
 20
43.61139713822125
 30
0.0
 11
1.887218563173332
 21
43.61139713822125
 31
0.0
  0
LINE
  5
18AEF
  8
0
 62
     0
 10
8.2992554627513542
 20
-60.099467008910338
 30
0.0
 11
8.2992554627513542
 21
-60.099467008910338
 31
0.0
  0
LINE
  5
18AF0
  8
0
 62
     0
 10
8.1392523331527933
 20
-55.205334635616893
 30
0.0
 11
8.1392523331527933
 21
-55.205334635616893
 31
0.0
  0
LINE
  5
18AF1
  8
0
 62
     0
 10
5.0762737569563923
 20
-57.555640760733759
 30
0.0
 11
5.0762737569563923
 21
-57.555640760733759
 31
0.0
  0
LINE
  5
18AF2
  8
0
 62
     0
 10
1.801707844904318
 20
-60.068303558967251
 30
0.0
 11
1.801707844904318
 21
-60.068303558967251
 31
0.0
  0
LINE
  5
18AF3
  8
0
 62
     0
 10
7.9792492035542066
 20
-50.31120226232369
 30
0.0
 11
7.9792492035542066
 21
-50.31120226232369
 31
0.0
  0
LINE
  5
18AF4
  8
0
 62
     0
 10
4.9162706273578047
 20
-52.661508387440563
 30
0.0
 11
4.9162706273578047
 21
-52.661508387440563
 31
0.0
  0
LINE
  5
18AF5
  8
0
 62
     0
 10
1.6417047153057309
 20
-55.174171185674041
 30
0.0
 11
1.6417047153057309
 21
-55.174171185674041
 31
0.0
  0
LINE
  5
18AF6
  8
0
 62
     0
 10
7.8192460739559184
 20
-45.417069889030152
 30
0.0
 11
7.8192460739559184
 21
-45.417069889030152
 31
0.0
  0
LINE
  5
18AF7
  8
0
 62
     0
 10
4.7562674977595156
 20
-47.767376014146997
 30
0.0
 11
4.7562674977595156
 21
-47.767376014146997
 31
0.0
  0
LINE
  5
18AF8
  8
0
 62
     0
 10
1.4817015857074429
 20
-50.280038812380504
 30
0.0
 11
1.4817015857074429
 21
-50.280038812380504
 31
0.0
  0
LINE
  5
18AF9
  8
0
 62
     0
 10
7.6592429443577439
 20
-40.522937515736587
 30
0.0
 11
7.6592429443577439
 21
-40.522937515736587
 31
0.0
  0
LINE
  5
18AFA
  8
0
 62
     0
 10
4.596264368161342
 20
-42.87324364085346
 30
0.0
 11
4.596264368161342
 21
-42.87324364085346
 31
0.0
  0
LINE
  5
18AFB
  8
0
 62
     0
 10
1.3216984561092691
 20
-45.385906439086959
 30
0.0
 11
1.3216984561092691
 21
-45.385906439086959
 31
0.0
  0
LINE
  5
18AFC
  8
0
 62
     0
 10
7.4992398147591617
 20
-35.628805142443262
 30
0.0
 11
7.4992398147591617
 21
-35.628805142443262
 31
0.0
  0
LINE
  5
18AFD
  8
0
 62
     0
 10
4.4362612385627598
 20
-37.979111267560121
 30
0.0
 11
4.4362612385627598
 21
-37.979111267560121
 31
0.0
  0
LINE
  5
18AFE
  8
0
 62
     0
 10
1.1616953265106871
 20
-40.491774065793606
 30
0.0
 11
1.1616953265106871
 21
-40.491774065793606
 31
0.0
  0
LINE
  5
18AFF
  8
0
 62
     0
 10
7.3392366851608069
 20
-30.734672769149899
 30
0.0
 11
7.3392366851608069
 21
-30.734672769149899
 31
0.0
  0
LINE
  5
18B00
  8
0
 62
     0
 10
4.2762581089644049
 20
-33.084978894266769
 30
0.0
 11
4.2762581089644049
 21
-33.084978894266769
 31
0.0
  0
LINE
  5
18B01
  8
0
 62
     0
 10
1.001692196912332
 20
-35.597641692500261
 30
0.0
 11
1.001692196912332
 21
-35.597641692500261
 31
0.0
  0
LINE
  5
18B02
  8
0
 62
     0
 10
7.1792335555622246
 20
-25.84054039585655
 30
0.0
 11
7.1792335555622246
 21
-25.84054039585655
 31
0.0
  0
LINE
  5
18B03
  8
0
 62
     0
 10
4.1162549793658227
 20
-28.190846520973409
 30
0.0
 11
4.1162549793658227
 21
-28.190846520973409
 31
0.0
  0
LINE
  5
18B04
  8
0
 62
     0
 10
0.8416890673137499
 20
-30.703509319206908
 30
0.0
 11
0.8416890673137499
 21
-30.703509319206908
 31
0.0
  0
LINE
  5
18B05
  8
0
 62
     0
 10
7.0192304259641167
 20
-20.94640802256292
 30
0.0
 11
7.0192304259641167
 21
-20.94640802256292
 31
0.0
  0
LINE
  5
18B06
  8
0
 62
     0
 10
3.9562518497677148
 20
-23.29671414767979
 30
0.0
 11
3.9562518497677148
 21
-23.29671414767979
 31
0.0
  0
LINE
  5
18B07
  8
0
 62
     0
 10
0.6816859377156425
 20
-25.809376945913289
 30
0.0
 11
0.6816859377156425
 21
-25.809376945913289
 31
0.0
  0
LINE
  5
18B08
  8
0
 62
     0
 10
6.8592272963656491
 20
-16.052275649269511
 30
0.0
 11
6.8592272963656491
 21
-16.052275649269511
 31
0.0
  0
LINE
  5
18B09
  8
0
 62
     0
 10
3.7962487201692472
 20
-18.40258177438638
 30
0.0
 11
3.7962487201692472
 21
-18.40258177438638
 31
0.0
  0
LINE
  5
18B0A
  8
0
 62
     0
 10
0.5216828081171739
 20
-20.91524457261988
 30
0.0
 11
0.5216828081171739
 21
-20.91524457261988
 31
0.0
  0
LINE
  5
18B0B
  8
0
 62
     0
 10
6.6992241667671131
 20
-11.15814327597624
 30
0.0
 11
6.6992241667671131
 21
-11.15814327597624
 31
0.0
  0
LINE
  5
18B0C
  8
0
 62
     0
 10
3.6362455905707121
 20
-13.50844940109311
 30
0.0
 11
3.6362455905707121
 21
-13.50844940109311
 31
0.0
  0
LINE
  5
18B0D
  8
0
 62
     0
 10
0.3616796785186386
 20
-16.021112199326609
 30
0.0
 11
0.3616796785186386
 21
-16.021112199326609
 31
0.0
  0
LINE
  5
18B0E
  8
0
 62
     0
 10
6.5392210371686241
 20
-6.2640109026828332
 30
0.0
 11
6.5392210371686241
 21
-6.2640109026828332
 31
0.0
  0
LINE
  5
18B0F
  8
0
 62
     0
 10
0.2016765489202371
 20
-11.12697982603312
 30
0.0
 11
0.2016765489202371
 21
-11.12697982603312
 31
0.0
  0
LINE
  5
18B10
  8
0
 62
     0
 10
6.37921790757047
 20
-1.3698785293892941
 30
0.0
 11
6.37921790757047
 21
-1.3698785293892941
 31
0.0
  0
LINE
  5
18B11
  8
0
 62
     0
 10
3.316239331374069
 20
-3.7201846545061632
 30
0.0
 11
3.316239331374069
 21
-3.7201846545061632
 31
0.0
  0
LINE
  5
18B12
  8
0
 62
     0
 10
0.041673419321996
 20
-6.2328474527396569
 30
0.0
 11
0.041673419321996
 21
-6.2328474527396569
 31
0.0
  0
LINE
  5
18B13
  8
0
 62
     0
 10
6.2192147779717084
 20
3.5242538439039168
 30
0.0
 11
6.2192147779717084
 21
3.5242538439039168
 31
0.0
  0
LINE
  5
18B14
  8
0
 62
     0
 10
3.1562362017753061
 20
1.173947718787048
 30
0.0
 11
3.1562362017753061
 21
1.173947718787048
 31
0.0
  0
LINE
  5
18B15
  8
0
 62
     0
 10
2.9962330721770849
 20
6.068080092080617
 30
0.0
 11
2.9962330721770849
 21
6.068080092080617
 31
0.0
  0
LINE
  5
18B16
  8
0
 62
     0
 10
5.8992085187751311
 20
13.31251859049098
 30
0.0
 11
5.8992085187751311
 21
13.31251859049098
 31
0.0
  0
LINE
  5
18B17
  8
0
 62
     0
 10
2.8362299425787301
 20
10.96221246537411
 30
0.0
 11
2.8362299425787301
 21
10.96221246537411
 31
0.0
  0
LINE
  5
18B18
  8
0
 62
     0
 10
5.7392053891767301
 20
18.20665096378444
 30
0.0
 11
5.7392053891767301
 21
18.20665096378444
 31
0.0
  0
LINE
  5
18B19
  8
0
 62
     0
 10
2.6762268129803291
 20
15.856344838667569
 30
0.0
 11
2.6762268129803291
 21
15.856344838667569
 31
0.0
  0
LINE
  5
18B1A
  8
0
 62
     0
 10
5.5792022595783752
 20
23.10078333707779
 30
0.0
 11
5.5792022595783752
 21
23.10078333707779
 31
0.0
  0
LINE
  5
18B1B
  8
0
 62
     0
 10
2.5162236833819742
 20
20.75047721196092
 30
0.0
 11
2.5162236833819742
 21
20.75047721196092
 31
0.0
  0
LINE
  5
18B1C
  8
0
 62
     0
 10
8.8448988533575275
 20
30.623547560830929
 30
0.0
 11
8.8448988533575275
 21
30.623547560830929
 31
0.0
  0
LINE
  5
18B1D
  8
0
 62
     0
 10
5.4191991299799742
 20
27.994915710371281
 30
0.0
 11
5.4191991299799742
 21
27.994915710371281
 31
0.0
  0
LINE
  5
18B1E
  8
0
 62
     0
 10
2.3562205537835719
 20
25.644609585254411
 30
0.0
 11
2.3562205537835719
 21
25.644609585254411
 31
0.0
  0
LINE
  5
18B1F
  8
0
 62
     0
 10
8.6848957237589453
 20
35.517679934124338
 30
0.0
 11
8.6848957237589453
 21
35.517679934124338
 31
0.0
  0
LINE
  5
18B20
  8
0
 62
     0
 10
5.259196000381392
 20
32.889048083664683
 30
0.0
 11
5.259196000381392
 21
32.889048083664683
 31
0.0
  0
LINE
  5
18B21
  8
0
 62
     0
 10
2.1962174241849901
 20
30.538741958547821
 30
0.0
 11
2.1962174241849901
 21
30.538741958547821
 31
0.0
  0
LINE
  5
18B22
  8
0
 62
     0
 10
8.5248925941604092
 20
40.411812307417549
 30
0.0
 11
8.5248925941604092
 21
40.411812307417549
 31
0.0
  0
LINE
  5
18B23
  8
0
 62
     0
 10
5.0991928707828551
 20
37.783180456957894
 30
0.0
 11
5.0991928707828551
 21
37.783180456957894
 31
0.0
  0
LINE
  5
18B24
  8
0
 62
     0
 10
2.0362142945864541
 20
35.432874331841028
 30
0.0
 11
2.0362142945864541
 21
35.432874331841028
 31
0.0
  0
LINE
  5
18B25
  8
0
 62
     0
 10
4.9391897411846823
 20
42.677312830251438
 30
0.0
 11
4.9391897411846823
 21
42.677312830251438
 31
0.0
  0
LINE
  5
18B26
  8
0
 62
     0
 10
1.87621116498828
 20
40.327006705134572
 30
0.0
 11
1.87621116498828
 21
40.327006705134572
 31
0.0
  0
ENDBLK
  5
18B28
  8
0
  0
BLOCK
  8
0
  2
*U84
 70
     1
 10
0.0
 20
0.0
 30
0.0
  3
*U84
  1

  0
TEXT
  5
18B2A
  8
1DIM
 62
   201
 10
-31.153865476029861
 20
54.018296023885341
 30
0.0
 40
3.5
  1
裏板9mm以上
  0
ENDBLK
  5
18B2C
  8
0
  0
BLOCK
  8
0
  2
*U85
 70
     1
 10
0.0
 20
0.0
 30
0.0
  3
*U85
  1

  0
SOLID
  5
18B2E
  8
1DIM
 10
12.044443127533439
 20
38.726957896894412
 30
0.0
 11
13.168864624287609
 21
37.039715350978668
 31
0.0
 12
11.55800886922316
 22
38.271078354924647
 32
0.0
 13
11.55800886922316
 23
38.271078354924647
 33
0.0
  0
POLYLINE
  5
18B2F
  8
1DIM
 66
     1
 10
0.0
 20
0.0
 30
0.0
  0
VERTEX
  5
18B30
  8
1DIM
 10
11.8012259983783
 20
38.499018125909529
 30
0.0
  0
VERTEX
  5
18B31
  8
1DIM
 10
-2.0871988093631888
 20
53.318296023885338
 30
0.0
  0
VERTEX
  5
18B32
  8
1DIM
 10
-31.153865476029861
 20
53.318296023885338
 30
0.0
  0
SEQEND
  5
18B33
  8
1DIM
  0
ENDBLK
  5
18B35
  8
0
  0
BLOCK
  8
0
  2
*U86
 70
     1
 10
0.0
 20
0.0
 30
0.0
  3
*U86
  1

  0
LINE
  5
18B37
  8
0
 10
-0.3500000000000227
 20
2.0
 30
0.0
 11
0.0
 21
1.649999999999977
 31
0.0
  0
LINE
  5
18B38
  8
0
 10
-10.20000000000004
 20
2.0
 30
0.0
 11
-0.3500000000000227
 21
2.0
 31
0.0
  0
LINE
  5
18B39
  8
0
 10
0.0
 20
1.649999999999977
 30
0.0
 11
0.0
 21
-1.6499999999998629
 31
0.0
  0
LINE
  5
18B3A
  8
0
 10
-12.0
 20
0.2000000000000028
 30
0.0
 11
-10.20000000000004
 21
2.0
 31
0.0
  0
LINE
  5
18B3B
  8
0
 10
0.0
 20
-1.6499999999998629
 30
0.0
 11
-0.3500000000000227
 21
-2.0
 31
0.0
  0
LINE
  5
18B3C
  8
0
 10
-12.0
 20
0.2000000000000028
 30
0.0
 11
-12.0
 21
-0.200000000000017
 31
0.0
  0
LINE
  5
18B3D
  8
0
 10
-10.19999999999999
 20
-1.9999999999999849
 30
0.0
 11
-0.3500000000000227
 21
-2.0
 31
0.0
  0
LINE
  5
18B3E
  8
0
 10
-12.0
 20
-0.200000000000017
 30
0.0
 11
-10.19999999999999
 21
-1.9999999999999849
 31
0.0
  0
ENDBLK
  5
18B40
  8
0
  0
BLOCK
  8
0
  2
*U87
 70
     1
 10
0.0
 20
0.0
 30
0.0
  3
*U87
  1

  0
LINE
  5
18B42
  8
0
 10
-7.9999999999999991
 20
2.5
 30
0.0
 11
-7.9999978000002088
 21
2.4999999999999432
 31
0.0
  0
LINE
  5
18B43
  8
0
 10
-7.9999999999999991
 20
-2.4999999999999432
 30
0.0
 11
-7.9999999999999991
 21
2.5
 31
0.0
  0
LINE
  5
18B44
  8
0
 10
-7.9999978000002088
 20
2.4999999999999432
 30
0.0
 11
-7.4999979000001629
 21
3.0
 31
0.0
  0
LINE
  5
18B45
  8
0
 10
-8.0000021000010921
 20
-2.4999999999999432
 30
0.0
 11
-7.9999999999999991
 21
-2.4999999999999432
 31
0.0
  0
LINE
  5
18B46
  8
0
 10
-7.4999979000001629
 20
3.0
 30
0.0
 11
-1.999998199999983
 21
3.0
 31
0.0
  0
LINE
  5
18B47
  8
0
 10
-7.5000018999986429
 20
-3.000000000000056
 30
0.0
 11
-8.0000021000010921
 21
-2.4999999999999432
 31
0.0
  0
LINE
  5
18B48
  8
0
 10
-1.999998199999983
 20
3.0
 30
0.0
 11
-1.49999999999998
 21
2.0
 31
0.0
  0
LINE
  5
18B49
  8
0
 10
-1.999998199999959
 20
-2.9999999999999432
 30
0.0
 11
-7.5000018999986429
 21
-3.000000000000056
 31
0.0
  0
LINE
  5
18B4A
  8
0
 10
-1.49999999999998
 20
2.0
 30
0.0
 11
-0.5000000000000004
 21
2.0
 31
0.0
  0
LINE
  5
18B4B
  8
0
 10
-1.50000000000001
 20
-2.0
 30
0.0
 11
-1.999998199999959
 21
-2.9999999999999432
 31
0.0
  0
ARC
  5
18B4C
  8
0
 10
-0.5000000000000006
 20
1.5
 30
0.0
 40
0.5000000000000004
 50
0.0
 51
90.0
  0
LINE
  5
18B4D
  8
0
 10
-0.5
 20
-2.0
 30
0.0
 11
-1.50000000000001
 21
-2.0
 31
0.0
  0
LINE
  5
18B4E
  8
0
 10
-0.0000000000000001
 20
1.5
 30
0.0
 11
-0.0000000000000001
 21
-1.5
 31
0.0
  0
ARC
  5
18B4F
  8
0
 10
-0.5
 20
-1.5
 30
0.0
 40
0.5
 50
270.0
 51
0.0
  0
ENDBLK
  5
18B51
  8
0
  0
BLOCK
  8
0
  2
*U88
 70
     1
 10
0.0
 20
0.0
 30
0.0
  3
*U88
  1

  0
LINE
  5
18B53
  8
1HATCH
 10
-1.5
 20
2.000000000000056
 30
0.0
 11
-1.7499990999999879
 21
2.5
 31
0.0
  0
LINE
  5
18B54
  8
1HATCH
 10
-1.7499990999999879
 20
2.5
 30
0.0
 11
-7.999997800000223
 21
2.5
 31
0.0
  0
LINE
  5
18B55
  8
1HATCH
 10
-1.5
 20
-2.000000000000056
 30
0.0
 11
-1.5
 21
2.000000000000056
 31
0.0
  0
LINE
  5
18B56
  8
1HATCH
 10
-7.999997800000223
 20
2.5
 30
0.0
 11
-7.9999999999999991
 21
2.4999977999997318
 31
0.0
  0
LINE
  5
18B57
  8
1HATCH
 10
-1.749999099999981
 20
-2.5
 30
0.0
 11
-1.5
 21
-2.000000000000056
 31
0.0
  0
LINE
  5
18B58
  8
1HATCH
 10
-7.9999999999999991
 20
2.4999977999997318
 30
0.0
 11
-7.9999999999999991
 21
-2.5
 31
0.0
  0
LINE
  5
18B59
  8
1HATCH
 10
-7.9999999999999991
 20
-2.5
 30
0.0
 11
-1.749999099999981
 21
-2.5
 31
0.0
  0
ENDBLK
  5
18B5B
  8
0
  0
BLOCK
  8
0
  2
*U89
 70
     1
 10
0.0
 20
0.0
 30
0.0
  3
*U89
  1

  0
LINE
  5
18B5D
  8
1HATCH
 10
-1.9999981999999989
 20
3.000000000000056
 30
0.0
 11
-7.4999979000001362
 21
3.0
 31
0.0
  0
LINE
  5
18B5E
  8
1HATCH
 10
-7.4999979000001362
 20
3.0
 30
0.0
 11
-7.999997800000143
 21
2.5
 31
0.0
  0
LINE
  5
18B5F
  8
1HATCH
 10
-1.749999099999983
 20
2.5
 30
0.0
 11
-1.9999981999999989
 21
3.000000000000056
 31
0.0
  0
LINE
  5
18B60
  8
1HATCH
 10
-7.999997800000143
 20
2.5
 30
0.0
 11
-1.749999099999983
 21
2.5
 31
0.0
  0
ENDBLK
  5
18B62
  8
0
  0
BLOCK
  8
0
  2
*U90
 70
     1
 10
0.0
 20
0.0
 30
0.0
  3
*U90
  1

  0
ARC
  5
18B64
  8
1HATCH
 10
-0.5000000000000002
 20
1.5
 30
0.0
 40
0.5000000000000002
 50
0.0
 51
90.0
  0
LINE
  5
18B65
  8
1HATCH
 10
-0.5000000000000004
 20
2.0
 30
0.0
 11
-1.5
 21
2.0
 31
0.0
  0
LINE
  5
18B66
  8
1HATCH
 10
0.0
 20
-1.5
 30
0.0
 11
0.0
 21
1.5
 31
0.0
  0
LINE
  5
18B67
  8
1HATCH
 10
-1.5
 20
2.0
 30
0.0
 11
-1.5
 21
-2.0
 31
0.0
  0
ARC
  5
18B68
  8
1HATCH
 10
-0.5
 20
-1.5
 30
0.0
 40
0.5
 50
270.0
 51
0.0
  0
LINE
  5
18B69
  8
1HATCH
 10
-1.5
 20
-2.0
 30
0.0
 11
-0.5
 21
-2.0
 31
0.0
  0
ENDBLK
  5
18B6B
  8
0
  0
BLOCK
  8
0
  2
*U91
 70
     1
 10
0.0
 20
0.0
 30
0.0
  3
*U91
  1

  0
LINE
  5
18B6D
  8
0
 10
-14.649999999999981
 20
2.0
 30
0.0
 11
-0.0000000000000284
 21
2.0
 31
0.0
  0
LINE
  5
18B6E
  8
0
 10
-14.649999999999981
 20
2.0
 30
0.0
 11
-15.0
 21
1.649999999999977
 31
0.0
  0
LINE
  5
18B6F
  8
0
 10
0.0
 20
3.4999999999999432
 30
0.0
 11
-0.0000000000000284
 21
2.0
 31
0.0
  0
LINE
  5
18B70
  8
0
 10
-15.0
 20
1.649999999999977
 30
0.0
 11
-15.0
 21
-1.6499999999998629
 31
0.0
  0
LINE
  5
18B71
  8
0
 10
0.0
 20
3.4999999999999432
 30
0.0
 11
0.5999999999999375
 21
3.4999999999999432
 31
0.0
  0
LINE
  5
18B72
  8
0
 10
-15.0
 20
-1.6499999999998629
 30
0.0
 11
-14.649999999999981
 21
-2.0
 31
0.0
  0
ARC
  5
18B73
  8
0
 10
0.5999999999999944
 20
1.4999999999999429
 30
0.0
 40
2.0
 50
0.0
 51
90.000000000001606
  0
LINE
  5
18B74
  8
0
 10
-14.649999999999981
 20
-2.0
 30
0.0
 11
0.0000000000000568
 21
-2.0
 31
0.0
  0
LINE
  5
18B75
  8
0
 10
2.5999999999999939
 20
1.4999999999999429
 30
0.0
 11
2.5999999999999939
 21
-1.5
 31
0.0
  0
LINE
  5
18B76
  8
0
 10
0.0000000000000568
 20
-2.0
 30
0.0
 11
0.0
 21
-3.5
 31
0.0
  0
ARC
  5
18B77
  8
0
 10
0.5999999999999944
 20
-1.5
 30
0.0
 40
2.0
 50
270.0
 51
0.0
  0
LINE
  5
18B78
  8
0
 10
0.0
 20
-3.5
 30
0.0
 11
0.5999999999999944
 21
-3.5
 31
0.0
  0
ENDBLK
  5
18B7A
  8
0
  0
BLOCK
  8
0
  2
*U92
 70
     1
 10
0.0
 20
0.0
 30
0.0
  3
*U92
  1

  0
LINE
  5
18B7C
  8
0
 10
9.0000017999844886
 20
2.999993928725444
 30
0.0
 11
9.4999999999837428
 21
1.9999939287269191
 31
0.0
  0
LINE
  5
18B7D
  8
0
 10
0.5
 20
3.0000009091116051
 30
0.0
 11
9.0000017999844886
 21
2.999993928725444
 31
0.0
  0
LINE
  5
18B7E
  8
0
 10
9.4999999999837428
 20
1.9999939287269191
 30
0.0
 11
12.000002792072619
 21
1.9999799679419681
 31
0.0
  0
LINE
  5
18B7F
  8
0
 10
0.0
 20
2.5000009091116051
 30
0.0
 11
0.5
 21
3.0000009091116051
 31
0.0
  0
ARC
  5
18B80
  8
0
 10
11.999999999918771
 20
1.4999799679497621
 30
0.0
 40
0.5
 50
0.0
 51
89.999680042737253
  0
LINE
  5
18B81
  8
0
 10
0.0
 20
-2.499999090888394
 30
0.0
 11
0.0
 21
2.5000009091116051
 31
0.0
  0
LINE
  5
18B82
  8
0
 10
12.49999999991871
 20
-1.5000200320346471
 30
0.0
 11
12.499999999918771
 21
1.4999799679497621
 31
0.0
  0
LINE
  5
18B83
  8
0
 10
0.0
 20
-2.499999090888394
 30
0.0
 11
0.5
 21
-2.999999090888394
 31
0.0
  0
ARC
  5
18B84
  8
0
 10
11.99999999991871
 20
-1.5000200320346471
 30
0.0
 40
0.5
 50
269.99968004273722
 51
0.0
  0
LINE
  5
18B85
  8
0
 10
0.5
 20
-2.999999090888394
 30
0.0
 11
9.0000017999829538
 21
-3.0000060712745551
 31
0.0
  0
LINE
  5
18B86
  8
0
 10
9.4999999999838565
 20
-2.0000060712730732
 30
0.0
 11
11.99999720776486
 21
-2.0000200320268529
 31
0.0
  0
LINE
  5
18B87
  8
0
 10
9.0000017999829538
 20
-3.0000060712745551
 30
0.0
 11
9.4999999999838565
 21
-2.0000060712730732
 31
0.0
  0
ENDBLK
  5
18B89
  8
0
  0
BLOCK
  8
0
  2
*U93
 70
     1
 10
0.0
 20
0.0
 30
0.0
  3
*U93
  1

  0
LINE
  5
18B8E
  8
0
 10
-34.700003489976531
 20
-1.4999534641020771
 30
0.0
 11
-2.8000383918526941
 21
-1.4999534641020771
 31
0.0
  0
LINE
  5
18B8F
  8
0
 10
-0.3000093071805736
 20
-4.0
 30
0.0
 11
-2.8000383918526941
 21
-1.4999534641020771
 31
0.0
  0
LINE
  5
18B90
  8
0
 10
-39.99999999983757
 20
0.0000465358979227
 30
0.0
 11
-34.700003489976531
 21
-1.4999534641020771
 31
0.0
  0
LINE
  5
18B91
  8
0
 10
-0.3000093071805736
 20
-4.0
 30
0.0
 11
-0.0000093071795959
 21
-4.0
 31
0.0
  0
LINE
  5
18B92
  8
0
 10
-39.99999999983757
 20
0.0000465358979227
 30
0.0
 11
-34.699996509592239
 21
1.500046535897922
 31
0.0
  0
LINE
  5
18B93
  8
0
 10
-0.0000093071795959
 20
-4.0
 30
0.0
 11
0.0000093071795959
 21
4.0
 31
0.0
  0
LINE
  5
18B94
  8
0
 10
-34.699996509592239
 20
1.500046535897922
 30
0.0
 11
-2.7999732414874918
 21
1.500046535897922
 31
0.0
  0
LINE
  5
18B95
  8
0
 10
-0.2999906928214955
 20
4.0
 30
0.0
 11
0.0000093071795959
 21
4.0
 31
0.0
  0
LINE
  5
18B96
  8
0
 10
-0.2999906928214955
 20
4.0
 30
0.0
 11
-2.7999732414874918
 21
1.500046535897922
 31
0.0
  0
ENDBLK
  5
18B98
  8
0
  0
BLOCK
  8
0
  2
*U94
 70
     1
 10
0.0
 20
0.0
 30
0.0
  3
*U94
  1

  0
TEXT
  5
18B9A
  8
1DIM
 62
   201
 10
1184.686057280295
 20
-1844.0194139783121
 30
0.0
 40
3.5
  1
21.5
 50
90.0
  0
ENDBLK
  5
18B9C
  8
0
  0
BLOCK
  8
0
  2
*U95
 70
     1
 10
0.0
 20
0.0
 30
0.0
  3
*U95
  1

  0
TEXT
  5
18B9E
  8
1DIM
 62
   201
 10
1208.2193906136281
 20
-1879.3147016062801
 30
0.0
 40
3.5
  1
10
  0
ENDBLK
  5
18BA0
  8
0
  0
BLOCK
  8
0
  2
*U96
 70
     1
 10
0.0
 20
0.0
 30
0.0
  3
*U96
  1

  0
TEXT
  5
18BA2
  8
1DIM
 62
   201
 10
1196.769390613628
 20
-1869.402747311645
 30
0.0
 40
3.5
  1
8.5
  0
ENDBLK
  5
18BA4
  8
0
  0
BLOCK
  8
0
  2
*U97
 70
     1
 10
0.0
 20
0.0
 30
0.0
  3
*U97
  1

  0
TEXT
  5
18BA6
  8
1DIM
 62
   201
 10
1197.706133799381
 20
-1841.811138537503
 30
0.0
 40
3.5
  1
19
 50
90.0
  0
ENDBLK
  5
18BA8
  8
0
  0
BLOCK
  8
0
  2
*U98
 70
     1
 10
0.0
 20
0.0
 30
0.0
  3
*U98
  1

  0
TEXT
  5
18BAA
  8
1DIM1
 62
   201
 10
-377.28110938637212
 20
-1897.3354746287321
 30
0.0
 40
17.5
  1
P196
  0
ENDBLK
  5
18BAC
  8
0
  0
BLOCK
  8
0
  2
*U99
 70
     1
 10
0.0
 20
0.0
 30
0.0
  3
*U99
  1

  0
TEXT
  5
18BAE
  8
1DIM1
 62
   201
 10
312.67772394696129
 20
-1935.886677737059
 30
0.0
 40
17.5
  1
1650
  0
ENDBLK
  5
18BB0
  8
0
  0
BLOCK
  8
0
  2
*U100
 70
     1
 10
0.0
 20
0.0
 30
0.0
  3
*U100
  1

  0
TEXT
  5
18BB2
  8
1DIM1
 62
   201
 10
-475.7806093863723
 20
-1897.3354746287321
 30
0.0
 40
17.5
  1
41
  0
ENDBLK
  5
18BB4
  8
0
  0
BLOCK
  8
0
  2
*U101
 70
     1
 10
0.0
 20
0.0
 30
0.0
  3
*U101
  1

  0
TEXT
  5
18BB6
  8
1DIM1
 62
   201
 10
-181.28110938637201
 20
-1897.3354746287321
 30
0.0
 40
17.5
  1
P196
  0
ENDBLK
  5
18BB8
  8
0
  0
BLOCK
  8
0
  2
*U102
 70
     1
 10
0.0
 20
0.0
 30
0.0
  3
*U102
  1

  0
TEXT
  5
18BBA
  8
1DIM1
 62
   201
 10
14.71889061362795
 20
-1897.3354746287321
 30
0.0
 40
17.5
  1
P196
  0
ENDBLK
  5
18BBC
  8
0
  0
BLOCK
  8
0
  2
*U103
 70
     1
 10
0.0
 20
0.0
 30
0.0
  3
*U103
  1

  0
TEXT
  5
18BBE
  8
1DIM1
 62
   201
 10
210.71889061362799
 20
-1897.3354746287321
 30
0.0
 40
17.5
  1
P196
  0
ENDBLK
  5
18BC0
  8
0
  0
BLOCK
  8
0
  2
*U104
 70
     1
 10
0.0
 20
0.0
 30
0.0
  3
*U104
  1

  0
TEXT
  5
18BC2
  8
1DIM1
 62
   201
 10
406.71889061362788
 20
-1897.3354746287321
 30
0.0
 40
17.5
  1
P196
  0
ENDBLK
  5
18BC4
  8
0
  0
BLOCK
  8
0
  2
*U105
 70
     1
 10
0.0
 20
0.0
 30
0.0
  3
*U105
  1

  0
TEXT
  5
18BC6
  8
1DIM1
 62
   201
 10
602.71889061362776
 20
-1897.3354746287321
 30
0.0
 40
17.5
  1
P196
  0
ENDBLK
  5
18BC8
  8
0
  0
BLOCK
  8
0
  2
*U106
 70
     1
 10
0.0
 20
0.0
 30
0.0
  3
*U106
  1

  0
TEXT
  5
18BCA
  8
1DIM1
 62
   201
 10
798.71889061362776
 20
-1897.3354746287321
 30
0.0
 40
17.5
  1
P196
  0
ENDBLK
  5
18BCC
  8
0
  0
BLOCK
  8
0
  2
*U107
 70
     1
 10
0.0
 20
0.0
 30
0.0
  3
*U107
  1

  0
TEXT
  5
18BCE
  8
1DIM1
 62
   201
 10
994.71889061362788
 20
-1897.3354746287321
 30
0.0
 40
17.5
  1
P196
  0
ENDBLK
  5
18BD0
  8
0
  0
BLOCK
  8
0
  2
*U108
 70
     1
 10
0.0
 20
0.0
 30
0.0
  3
*U108
  1

  0
TEXT
  5
18BD2
  8
1DIM1
 62
   201
 10
1133.2193906136281
 20
-1897.5854746309681
 30
0.0
 40
17.5
  1
41
  0
ENDBLK
  5
18BD4
  8
0
  0
BLOCK
  8
0
  2
*U109
 70
     1
 10
0.0
 20
0.0
 30
0.0
  3
*U109
  1

  0
TEXT
  5
18BD6
  8
1DIM
 62
   201
 10
1256.0164199708879
 20
-1824.9860806449781
 30
0.0
 40
3.5
  1
11.25
 50
90.0
  0
ENDBLK
  5
18BD8
  8
0
  0
ENDSEC
  0
SECTION
  2
ENTITIES
  0
LINE
  5
1808A
  8
01
 10
1162.8860572802939
 20
-1848.602747311646
 30
0.0
 11
-482.11394271970551
 21
-1848.6027473116469
 31
0.0
  0
LINE
  5
1808B
  8
01
 10
1162.8860572802939
 20
-1829.602747311646
 30
0.0
 11
-482.11394271970551
 21
-1829.602747311654
 31
0.0
  0
LINE
  5
1808C
  8
01
 10
1154.3860572802939
 20
-1848.602747311646
 30
0.0
 11
-473.61394271970539
 21
-1848.602747311646
 31
0.0
  0
LINE
  5
1808D
  8
01
 10
1154.3860572802939
 20
-1848.602747311646
 30
0.0
 11
1154.3860572802939
 21
-1830.60292655845
 31
0.0
  0
LINE
  5
1808E
  8
01
 10
-473.61394271970539
 20
-1848.602747311646
 30
0.0
 11
-473.61394271970539
 21
-1830.60292655845
 31
0.0
  0
LINE
  5
1808F
  8
01
 10
1154.3860572802939
 20
-1842.852810773401
 30
0.0
 11
-473.61394271970539
 21
-1842.852810773401
 31
0.0
  0
LINE
  5
18090
  8
01
 10
1154.3860572802939
 20
-1830.60292655845
 30
0.0
 11
-473.61394271970511
 21
-1830.6029265584491
 31
0.0
  0
LINE
  5
18091
  8
01
 10
1154.3860572802939
 20
-1835.6028107711661
 30
0.0
 11
-473.61394271970562
 21
-1835.602810771167
 31
0.0
  0
LINE
  5
18092
  8
01
 10
1154.3860572802939
 20
-1845.60292655845
 30
0.0
 11
-473.61394271970539
 21
-1845.60292655845
 31
0.0
  0
LINE
  5
18093
  8
1CENTER
 10
1120.3860572802951
 20
-1839.6028107734021
 30
0.0
 11
1128.3860572802951
 21
-1839.6028107734021
 31
0.0
  0
LINE
  5
18094
  8
1CENTER
 10
1124.3860572802939
 20
-1843.6028107734021
 30
0.0
 11
1124.3860572802939
 21
-1835.6028107734021
 31
0.0
  0
LINE
  5
18095
  8
1CENTER
 10
-439.61394271970539
 20
-1839.6028107734021
 30
0.0
 11
-447.61394271970528
 21
-1839.6028107734021
 31
0.0
  0
LINE
  5
18096
  8
1CENTER
 10
-443.61394271970539
 20
-1843.6028107734021
 30
0.0
 11
-443.61394271970539
 21
-1835.6028107734021
 31
0.0
  0
LINE
  5
18097
  8
01
 10
1154.3860572802939
 20
-1844.102810773401
 30
0.0
 11
-473.61394271970562
 21
-1844.102810773401
 31
0.0
  0
LINE
  5
18098
  8
1CENTER
 10
-243.61394271970539
 20
-1839.6028107734021
 30
0.0
 11
-251.61394271970539
 21
-1839.6028107734021
 31
0.0
  0
LINE
  5
18099
  8
1CENTER
 10
-247.61394271970539
 20
-1843.6028107734021
 30
0.0
 11
-247.61394271970539
 21
-1835.6028107734021
 31
0.0
  0
LINE
  5
1809A
  8
1CENTER
 10
-47.613942719705392
 20
-1839.6028107734021
 30
0.0
 11
-55.613942719705392
 21
-1839.6028107734021
 31
0.0
  0
LINE
  5
1809B
  8
1CENTER
 10
-51.613942719705392
 20
-1843.6028107734021
 30
0.0
 11
-51.613942719705392
 21
-1835.6028107734021
 31
0.0
  0
LINE
  5
1809C
  8
1CENTER
 10
148.38605728029461
 20
-1839.6028107734021
 30
0.0
 11
140.38605728029461
 21
-1839.6028107734021
 31
0.0
  0
LINE
  5
1809D
  8
1CENTER
 10
144.38605728029461
 20
-1843.6028107734021
 30
0.0
 11
144.38605728029461
 21
-1835.6028107734021
 31
0.0
  0
LINE
  5
1809E
  8
1CENTER
 10
344.38605728029461
 20
-1839.6028107734021
 30
0.0
 11
336.38605728029461
 21
-1839.6028107734021
 31
0.0
  0
LINE
  5
1809F
  8
1CENTER
 10
340.38605728029461
 20
-1843.6028107734021
 30
0.0
 11
340.38605728029461
 21
-1835.6028107734021
 31
0.0
  0
LINE
  5
180A0
  8
1CENTER
 10
540.38605728029461
 20
-1839.6028107734021
 30
0.0
 11
532.38605728029461
 21
-1839.6028107734021
 31
0.0
  0
LINE
  5
180A1
  8
1CENTER
 10
536.38605728029461
 20
-1843.6028107734021
 30
0.0
 11
536.38605728029461
 21
-1835.6028107734021
 31
0.0
  0
LINE
  5
180A2
  8
1CENTER
 10
736.38605728029461
 20
-1839.6028107734021
 30
0.0
 11
728.38605728029461
 21
-1839.6028107734021
 31
0.0
  0
LINE
  5
180A3
  8
1CENTER
 10
732.38605728029461
 20
-1843.6028107734021
 30
0.0
 11
732.38605728029461
 21
-1835.6028107734021
 31
0.0
  0
LINE
  5
180A4
  8
1CENTER
 10
932.38605728029461
 20
-1839.6028107734021
 30
0.0
 11
924.38605728029461
 21
-1839.6028107734021
 31
0.0
  0
LINE
  5
180A5
  8
1CENTER
 10
928.38605728029472
 20
-1843.6028107734021
 30
0.0
 11
928.38605728029472
 21
-1835.6028107734021
 31
0.0
  0
LINE
  5
180A6
  8
1CENTER
 10
1128.3860572802951
 20
-1839.6028107734021
 30
0.0
 11
1120.3860572802951
 21
-1839.6028107734021
 31
0.0
  0
LINE
  5
180A7
  8
1CENTER
 10
1124.3860572802939
 20
-1843.6028107734021
 30
0.0
 11
1124.3860572802939
 21
-1835.6028107734021
 31
0.0
  0
LINE
  5
180A8
  8
01
 10
1165.3860572802939
 20
-1829.602747311646
 30
0.0
 11
1165.3860572802939
 21
-1849.1027473116451
 31
0.0
  0
ARC
  5
180A9
  8
01
 10
1164.3860572802939
 20
-1829.602747311646
 30
0.0
 40
1.0
 50
0.0
 51
90.000000000026048
  0
ARC
  5
180AA
  8
01
 10
1163.3860572802951
 20
-1849.6027473116451
 30
0.0
 40
0.5
 50
180.0
 51
269.99999999998698
  0
LINE
  5
180AB
  8
01
 10
1163.3860572802939
 20
-1828.602747311646
 30
0.0
 11
1164.3860572802939
 21
-1828.6027473116451
 31
0.0
  0
ARC
  5
180AC
  8
01
 10
1163.3860572802939
 20
-1829.102747311646
 30
0.0
 40
0.5
 50
90.000000000013031
 51
180.0
  0
LINE
  5
180AD
  8
01
 10
1163.3860572802939
 20
-1850.1027473116451
 30
0.0
 11
1164.3860572802939
 21
-1850.1027473116451
 31
0.0
  0
ARC
  5
180AE
  8
01
 10
1164.3860572802951
 20
-1849.1027473116451
 30
0.0
 40
1.0
 50
269.99999999997391
 51
0.0
  0
LINE
  5
180AF
  8
01
 10
-484.61394271970528
 20
-1829.602747311646
 30
0.0
 11
-484.61394271970528
 21
-1849.1027473116451
 31
0.0
  0
ARC
  5
180B0
  8
01
 10
-483.61394271970528
 20
-1829.602747311646
 30
0.0
 40
1.0
 50
89.999999999973952
 51
180.0
  0
ARC
  5
180B1
  8
01
 10
-482.61394271970551
 20
-1849.6027473116451
 30
0.0
 40
0.5
 50
270.00000000002598
 51
0.0
  0
LINE
  5
180B2
  8
01
 10
-482.61394271970539
 20
-1828.602747311646
 30
0.0
 11
-483.61394271970488
 21
-1828.6027473116451
 31
0.0
  0
ARC
  5
180B3
  8
01
 10
-482.61394271970539
 20
-1829.102747311646
 30
0.0
 40
0.5
 50
0.0
 51
90.0
  0
LINE
  5
180B4
  8
01
 10
-482.61394271970539
 20
-1850.1027473116451
 30
0.0
 11
-483.61394271970528
 21
-1850.1027473116451
 31
0.0
  0
ARC
  5
180B5
  8
01
 10
-483.61394271970562
 20
-1849.1027473116451
 30
0.0
 40
1.0
 50
180.0
 51
270.00000000002598
  0
LINE
  5
180B6
  8
01
  6
BYBLOCK
 10
1205.3860572802951
 20
-1830.3527473116451
 30
0.0
 11
1205.3860572802951
 21
-1848.3527473116451
 31
0.0
  0
LINE
  5
180B7
  8
1PHANTOM
 10
1206.3860572802951
 20
-1830.3527473116451
 30
0.0
 11
1206.3860572802939
 21
-1848.3527473116451
 31
0.0
  0
ARC
  5
180B8
  8
1PHANTOM
 10
1207.1360572802939
 20
-1830.3527473116451
 30
0.0
 40
0.75
 50
90.0
 51
180.0
  0
ARC
  5
180B9
  8
01
  6
BYBLOCK
 10
1207.1360572802939
 20
-1830.3527473116451
 30
0.0
 40
1.75
 50
90.0
 51
180.0
  0
LINE
  5
180BA
  8
1PHANTOM
 10
1210.8860572802939
 20
-1830.152747311645
 30
0.0
 11
1210.8860572802939
 21
-1834.352747311646
 31
0.0
  0
LINE
  5
180BB
  8
01
  6
BYBLOCK
 10
1213.6857466933991
 20
-1850.1027473116451
 30
0.0
 11
1207.1360572802939
 21
-1850.1027473116451
 31
0.0
  0
LINE
  5
180BC
  8
1PHANTOM
 10
1210.3360572802951
 20
-1849.1027473116451
 30
0.0
 11
1207.1360572802939
 21
-1849.1027473116451
 31
0.0
  0
ARC
  5
180BD
  8
01
  6
BYBLOCK
 10
1207.1360572802939
 20
-1848.3527473116451
 30
0.0
 40
1.75
 50
180.0
 51
270.0
  0
ARC
  5
180BE
  8
1PHANTOM
 10
1207.1360572802939
 20
-1848.3527473116451
 30
0.0
 40
0.75
 50
180.0
 51
270.0
  0
LINE
  5
180BF
  8
01
  6
BYBLOCK
 10
1213.6857466933991
 20
-1828.6027473116451
 30
0.0
 11
1207.1360572802939
 21
-1828.6027473116451
 31
0.0
  0
LINE
  5
180C0
  8
1PHANTOM
 10
1210.3360572802951
 20
-1829.6027473116451
 30
0.0
 11
1207.1360572802939
 21
-1829.6027473116451
 31
0.0
  0
ARC
  5
180C1
  8
1PHANTOM
 10
1210.3360572802951
 20
-1830.152747311645
 30
0.0
 40
0.55
 50
0.0
 51
90.0
  0
LINE
  5
180C2
  8
1PHANTOM
 10
1210.8860572802939
 20
-1842.8527473116451
 30
0.0
 11
1210.8860572802939
 21
-1844.498813474921
 31
0.0
  0
LINE
  5
180C3
  8
1PHANTOM
 10
1210.8860572802951
 20
-1845.6914252689289
 30
0.0
 11
1210.8860572802951
 21
-1848.5527473116449
 31
0.0
  0
ARC
  5
180C4
  8
1PHANTOM
 10
1210.3360572802951
 20
-1848.5527473116449
 30
0.0
 40
0.55
 50
270.0
 51
0.0
  0
LINE
  5
180C5
  8
1PHANTOM
 10
1211.6360572802939
 20
-1835.8527473116451
 30
0.0
 11
1211.6360572802939
 21
-1842.8527473116451
 31
0.0
  0
LINE
  5
180C6
  8
1PHANTOM
 10
1211.6360572802939
 20
-1842.8527473116451
 30
0.0
 11
1210.8860572802939
 21
-1842.8527473116451
 31
0.0
  0
ARC
  5
180C7
  8
01
  6
BYBLOCK
 10
1208.6360572802939
 20
-1831.852863096696
 30
0.0
 40
6.2499999999999432
 50
0.0
 51
28.573191877216569
  0
ARC
  5
180C8
  8
01
  6
BYBLOCK
 10
1213.6857466933991
 20
-1829.1027473116451
 30
0.0
 40
0.5
 50
28.573191877245701
 51
90.0
  0
ARC
  5
180C9
  8
01
  6
BYBLOCK
 10
1208.6360572802939
 20
-1846.852631526594
 30
0.0
 40
6.2499999999999432
 50
331.42680812275432
 51
0.0
  0
ARC
  5
180CA
  8
01
  6
BYBLOCK
 10
1213.6857466933991
 20
-1849.6027473116451
 30
0.0
 40
0.5
 50
270.0
 51
331.42680812275432
  0
LINE
  5
180CB
  8
01
  6
BYBLOCK
 10
1215.1360572802939
 20
-1830.8527473116469
 30
0.0
 11
1215.1360572802939
 21
-1848.852726195171
 31
0.0
  0
LINE
  5
180CC
  8
1PHANTOM
 10
1214.1360572802951
 20
-1843.6027473116469
 30
0.0
 11
1214.1360572802951
 21
-1846.8526838503401
 31
0.0
  0
ARC
  5
180CD
  8
1PHANTOM
 10
1213.1360572802939
 20
-1846.8526838503401
 30
0.0
 40
1.0
 50
269.99878692278338
 51
0.0
  0
LINE
  5
180CE
  8
1PHANTOM
 10
1210.1360572802951
 20
-1844.352863096695
 30
0.0
 11
1207.936057280295
 21
-1844.352863096696
 31
0.0
  0
ARC
  5
180CF
  8
1PHANTOM
 10
1207.936057280295
 20
-1844.6528630966959
 30
0.0
 40
0.3
 50
90.0
 51
180.0
  0
ARC
  5
180D0
  8
1PHANTOM
 10
1210.1360572802951
 20
-1846.352863096695
 30
0.0
 40
2.0
 50
0.0
 51
90.0
  0
LINE
  5
180D1
  8
1PHANTOM
 10
1210.1360572802951
 20
-1845.352863096696
 30
0.0
 11
1210.010321349007
 21
-1845.352863096696
 31
0.0
  0
ARC
  5
180D2
  8
1PHANTOM
 10
1210.1360572802951
 20
-1846.352863096696
 30
0.0
 40
1.0
 50
0.0
 51
90.0
  0
LINE
  5
180D3
  8
1PHANTOM
 10
1208.2617932115829
 20
-1845.352863096696
 30
0.0
 11
1207.936057280295
 21
-1845.352863096696
 31
0.0
  0
ARC
  5
180D4
  8
1PHANTOM
 10
1208.2617932115829
 20
-1845.6528630966959
 30
0.0
 40
0.3
 50
45.000000000009209
 51
90.0
  0
LINE
  5
180D5
  8
1PHANTOM
 10
1209.2617932115829
 20
-1845.852863096695
 30
0.0
 11
1209.010321349007
 21
-1845.852863096695
 31
0.0
  0
ARC
  5
180D6
  8
1PHANTOM
 10
1209.2617932115829
 20
-1845.552863096694
 30
0.0
 40
0.3
 50
270.0
 51
314.99999999995401
  0
ARC
  5
180D7
  8
1PHANTOM
 10
1208.6360572802939
 20
-1831.7528630966949
 30
0.0
 40
0.9
 50
303.74898859454788
 51
165.00000000000551
  0
LINE
  5
180D8
  8
1PHANTOM
 10
1209.1360572802939
 20
-1832.501194574088
 30
0.0
 11
1209.1360572802951
 21
-1832.8527473116469
 31
0.0
  0
LINE
  5
180D9
  8
1PHANTOM
 10
1209.7981893146509
 20
-1845.4407310623401
 30
0.0
 11
1209.473925245939
 21
-1845.7649951310509
 31
0.0
  0
ARC
  5
180DA
  8
1PHANTOM
 10
1210.010321349007
 20
-1845.6528630966959
 30
0.0
 40
0.3
 50
90.0
 51
134.99999999999079
  0
LINE
  5
180DB
  8
1PHANTOM
 10
1208.7981893146509
 20
-1845.7649951310509
 30
0.0
 11
1208.473925245939
 21
-1845.4407310623401
 31
0.0
  0
ARC
  5
180DC
  8
1PHANTOM
 10
1209.0103213490061
 20
-1845.5528630966951
 30
0.0
 40
0.3
 50
224.9999999999724
 51
270.0000000000652
  0
LINE
  5
180DD
  8
01
  6
BYBLOCK
 10
1214.557389083664
 20
-1848.8527139434971
 30
0.0
 11
1215.1360572802939
 21
-1848.852726195171
 31
0.0
  0
LINE
  5
180DE
  8
01
  6
BYBLOCK
 10
1213.1360361081031
 20
-1847.852683850115
 30
0.0
 11
1213.1360361081031
 21
-1847.852683850115
 31
0.0
  0
LINE
  5
180DF
  8
1PHANTOM
 10
1207.6360572802951
 20
-1832.402538422386
 30
0.0
 11
1207.6360572802939
 21
-1832.852747311646
 31
0.0
  0
ARC
  5
180E0
  8
1PHANTOM
 10
1210.6360572802951
 20
-1832.402538422386
 30
0.0
 40
3.0
 50
165.00000000000551
 51
180.0
  0
LINE
  5
180E1
  8
1PHANTOM
 10
1207.6360572802951
 20
-1845.052863096696
 30
0.0
 11
1207.6360572802951
 21
-1844.6528630966959
 31
0.0
  0
ARC
  5
180E2
  8
1PHANTOM
 10
1207.936057280295
 20
-1845.052863096696
 30
0.0
 40
0.3
 50
180.0
 51
270.0
  0
LINE
  5
180E3
  8
1PHANTOM
 10
1207.7667240366341
 20
-1831.519925956103
 30
0.0
 11
1207.7382798014271
 21
-1831.6260812870801
 31
0.0
  0
LINE
  5
180E4
  8
1PHANTOM
 10
1211.1360572802951
 20
-1847.852662678373
 30
0.0
 11
1211.1360572802951
 21
-1846.352863096696
 31
0.0
  0
ARC
  5
180E5
  8
1PHANTOM
 10
1212.1360572802951
 20
-1847.852662678373
 30
0.0
 40
1.0
 50
180.0
 51
269.99878692278338
  0
LINE
  5
180E6
  8
1PHANTOM
 10
1212.1360572802951
 20
-1847.3526838501159
 30
0.0
 11
1212.1360572802951
 21
-1846.352863096695
 31
0.0
  0
ARC
  5
180E7
  8
1PHANTOM
 10
1213.6360572802939
 20
-1843.6027473116469
 30
0.0
 40
0.5
 50
0.0
 51
90.0
  0
LINE
  5
180E8
  8
1PHANTOM
 10
1211.9247324148889
 20
-1834.352747311646
 30
0.0
 11
1210.6360572802939
 21
-1834.352747311646
 31
0.0
  0
ARC
  5
180E9
  8
1PHANTOM
 10
1211.9247324148889
 20
-1833.102747311646
 30
0.0
 40
1.25
 50
270.0
 51
329.99999999999949
  0
LINE
  5
180EA
  8
1PHANTOM
 10
1212.1360572802951
 20
-1835.852747311646
 30
0.0
 11
1210.6360572802939
 21
-1835.852747311646
 31
0.0
  0
ARC
  5
180EB
  8
1PHANTOM
 10
1210.6360572802939
 20
-1832.852747311646
 30
0.0
 40
3.0
 50
180.0
 51
270.0
  0
ARC
  5
180EC
  8
1PHANTOM
 10
1210.6360572802939
 20
-1832.852747311646
 30
0.0
 40
1.5
 50
180.0
 51
270.0
  0
LINE
  5
180ED
  8
1PHANTOM
 10
1213.0072641696199
 20
-1833.727747311646
 30
0.0
 11
1214.66714619354
 21
-1830.8527473116469
 31
0.0
  0
LINE
  5
180EE
  8
01
  6
BYBLOCK
 10
1214.805519851418
 20
-1830.8527473116469
 30
0.0
 11
1215.1360572802939
 21
-1830.8527473116469
 31
0.0
  0
LINE
  5
180EF
  8
01
  6
BYBLOCK
 10
1213.1360572802939
 20
-1843.1027473116469
 30
0.0
 11
1214.3860572802939
 21
-1841.8527473116469
 31
0.0
  0
LINE
  5
180F0
  8
1PHANTOM
 10
1213.1360572802939
 20
-1843.102747311646
 30
0.0
 11
1213.6360572802939
 21
-1843.1027473116469
 31
0.0
  0
LINE
  5
180F1
  8
1PHANTOM
 10
1213.1360361081031
 20
-1847.852683850115
 30
0.0
 11
1212.6360572802951
 21
-1847.852683850115
 31
0.0
  0
ARC
  5
180F2
  8
1PHANTOM
 10
1212.6360572802951
 20
-1847.3526838501159
 30
0.0
 40
0.5
 50
180.0
 51
270.0
  0
LINE
  5
180F3
  8
1PHANTOM
 10
1211.6360572802939
 20
-1837.402747311645
 30
0.0
 11
1211.6360572802939
 21
-1837.6027473116451
 31
0.0
  0
ARC
  5
180F4
  8
1PHANTOM
 10
1208.6360572802951
 20
-1839.6027473116451
 30
0.0
 40
1.0
 50
180.0
 51
270.0
  0
ARC
  5
180F5
  8
1PHANTOM
 10
1211.3360572802951
 20
-1837.402747311645
 30
0.0
 40
0.3
 50
359.99999999997402
 51
90.0
  0
LINE
  5
180F6
  8
1PHANTOM
 10
1206.6360572802951
 20
-1830.352863096696
 30
0.0
 11
1206.6360572802939
 21
-1848.352863096696
 31
0.0
  0
LINE
  5
180F7
  8
1PHANTOM
 10
1207.6360572802939
 20
-1839.1027473116451
 30
0.0
 11
1207.6360572802939
 21
-1839.6027473116451
 31
0.0
  0
ARC
  5
180F8
  8
1PHANTOM
 10
1207.1360572802951
 20
-1830.352863096696
 30
0.0
 40
0.5
 50
90.0
 51
180.0
  0
LINE
  5
180F9
  8
1PHANTOM
 10
1207.6360572802939
 20
-1831.852863096696
 30
0.0
 11
1207.6360572802939
 21
-1836.1027473116451
 31
0.0
  0
ARC
  5
180FA
  8
1PHANTOM
 10
1208.6360572802939
 20
-1836.1027473116451
 30
0.0
 40
1.0
 50
180.0
 51
270.0
  0
LINE
  5
180FB
  8
1PHANTOM
 10
1207.6360572802951
 20
-1842.6027473116451
 30
0.0
 11
1207.6360572802951
 21
-1846.2457563155101
 31
0.0
  0
ARC
  5
180FC
  8
1PHANTOM
 10
1208.1360572802951
 20
-1846.2457563155101
 30
0.0
 40
0.5
 50
180.0
 51
315.00000000002763
  0
LINE
  5
180FD
  8
1PHANTOM
 10
1210.6360572802939
 20
-1830.352863096696
 30
0.0
 11
1210.6360572802939
 21
-1833.0528630966951
 31
0.0
  0
ARC
  5
180FE
  8
1PHANTOM
 10
1208.6360572802951
 20
-1842.6027473116451
 30
0.0
 40
1.0
 50
89.999999999986969
 51
180.0
  0
LINE
  5
180FF
  8
1PHANTOM
 10
1209.3360572802951
 20
-1848.852863096696
 30
0.0
 11
1207.1360572802939
 21
-1848.852863096696
 31
0.0
  0
ARC
  5
18100
  8
1PHANTOM
 10
1210.336057280294
 20
-1833.0528630966951
 30
0.0
 40
0.3
 50
270.0
 51
0.0
  0
ARC
  5
18101
  8
1PHANTOM
 10
1207.1360572802939
 20
-1848.352863096696
 30
0.0
 40
0.5
 50
180.0
 51
270.0
  0
ARC
  5
18102
  8
1PHANTOM
 10
1210.1360572802939
 20
-1830.352863096696
 30
0.0
 40
0.5
 50
0.0
 51
90.0
  0
LINE
  5
18103
  8
1PHANTOM
 10
1210.1360572802939
 20
-1829.852863096695
 30
0.0
 11
1207.1360572802951
 21
-1829.852863096695
 31
0.0
  0
LINE
  5
18104
  8
1PHANTOM
 10
1211.6360572802939
 20
-1837.6027473116451
 30
0.0
 11
1211.1360572802939
 21
-1838.1027473116451
 31
0.0
  0
LINE
  5
18105
  8
1PHANTOM
 10
1211.1360572802951
 20
-1838.102747311644
 30
0.0
 11
1208.6360572802939
 21
-1838.102747311644
 31
0.0
  0
ARC
  5
18106
  8
1PHANTOM
 10
1208.6360572802939
 20
-1839.1027473116451
 30
0.0
 40
1.0
 50
89.999999999986969
 51
180.0
  0
LINE
  5
18107
  8
1PHANTOM
 10
1211.336057280294
 20
-1837.102747311644
 30
0.0
 11
1208.6360572802951
 21
-1837.1027473116451
 31
0.0
  0
LINE
  5
18108
  8
1PHANTOM
 10
1209.6117932115831
 20
-1845.652863096695
 30
0.0
 11
1209.5603213490069
 21
-1845.652863096695
 31
0.0
  0
ARC
  5
18109
  8
1PHANTOM
 10
1209.6117932115831
 20
-1845.9528630966961
 30
0.0
 40
0.3
 50
45.000000000009209
 51
90.0
  0
LINE
  5
1810A
  8
1PHANTOM
 10
1209.9789504991079
 20
-1847.102863096696
 30
0.0
 11
1209.6360572802951
 21
-1847.102863096696
 31
0.0
  0
ARC
  5
1810B
  8
1PHANTOM
 10
1209.9789504991079
 20
-1846.602863096696
 30
0.0
 40
0.5
 50
270.0
 51
45.000000000009209
  0
ARC
  5
1810C
  8
1PHANTOM
 10
1208.6360572802939
 20
-1831.852863096696
 30
0.0
 40
1.0
 50
0.0
 51
180.0
  0
LINE
  5
1810D
  8
1PHANTOM
 10
1209.936057280295
 20
-1833.352863096695
 30
0.0
 11
1210.336057280294
 21
-1833.352863096695
 31
0.0
  0
ARC
  5
1810E
  8
1PHANTOM
 10
1209.936057280295
 20
-1833.0528630966951
 30
0.0
 40
0.3
 50
180.0
 51
269.99999999998698
  0
LINE
  5
1810F
  8
1PHANTOM
 10
1209.6360572802951
 20
-1831.852863096696
 30
0.0
 11
1209.6360572802951
 21
-1833.0528630966951
 31
0.0
  0
LINE
  5
18110
  8
1PHANTOM
 10
1208.4896106708879
 20
-1846.599309706103
 30
0.0
 11
1209.3481893146511
 21
-1845.74073106234
 31
0.0
  0
ARC
  5
18111
  8
1PHANTOM
 10
1209.5603213490069
 20
-1845.9528630966961
 30
0.0
 40
0.3
 50
90.0
 51
135.0000000000276
  0
LINE
  5
18112
  8
1PHANTOM
 10
1209.8239252459391
 20
-1845.74073106234
 30
0.0
 11
1210.3325038897019
 21
-1846.2493097061019
 31
0.0
  0
LINE
  5
18113
  8
1PHANTOM
 10
1211.6360572802939
 20
-1841.3027473116449
 30
0.0
 11
1211.6360572802939
 21
-1841.1027473116451
 31
0.0
  0
LINE
  5
18114
  8
1PHANTOM
 10
1211.1360572802951
 20
-1840.6027473116451
 30
0.0
 11
1208.6360572802951
 21
-1840.6027473116451
 31
0.0
  0
LINE
  5
18115
  8
1PHANTOM
 10
1211.6360572802939
 20
-1841.1027473116451
 30
0.0
 11
1211.1360572802939
 21
-1840.6027473116451
 31
0.0
  0
LINE
  5
18116
  8
1PHANTOM
 10
1211.3360572802951
 20
-1841.6027473116451
 30
0.0
 11
1208.6360572802951
 21
-1841.6027473116451
 31
0.0
  0
ARC
  5
18117
  8
1PHANTOM
 10
1211.3360572802951
 20
-1841.3027473116449
 30
0.0
 40
0.3
 50
270.0
 51
0.0
  0
LINE
  5
18118
  8
1PHANTOM
 10
1209.6360572802951
 20
-1847.102863096696
 30
0.0
 11
1209.6360572802951
 21
-1848.552863096696
 31
0.0
  0
ARC
  5
18119
  8
1PHANTOM
 10
1209.3360572802951
 20
-1848.552863096696
 30
0.0
 40
0.3
 50
270.0
 51
0.0
  0
LINE
  5
1811A
  8
01
 10
1214.8860572802939
 20
-1831.852863096696
 30
0.0
 11
1214.8860572802939
 21
-1846.852631526594
 31
0.0
  0
LINE
  5
1811B
  8
1PHANTOM
 10
1214.805519851418
 20
-1830.8527473116469
 30
0.0
 11
1214.66714619354
 21
-1830.8527473116469
 31
0.0
  0
LINE
  5
1811C
  8
1PHANTOM
 10
1212.1360361081031
 20
-1848.8526626781479
 30
0.0
 11
1214.557389083664
 21
-1848.8526626781479
 31
0.0
  0
LINE
  5
18125
  8
01
 10
1224.1360572802951
 20
-1799.631896044908
 30
0.0
 11
1224.1360572802951
 21
-1879.631896044908
 31
0.0
  0
LINE
  5
18126
  8
01
 10
1233.1360572802939
 20
-1799.631896044908
 30
0.0
 11
1233.1360572802939
 21
-1879.631896044908
 31
0.0
  0
LINE
  5
18127
  8
01
 10
1215.1360572802939
 20
-1799.631896044908
 30
0.0
 11
1215.1360572802939
 21
-1879.631896044908
 31
0.0
  0
LINE
  5
1812C
  8
01
 10
1153.8860572802939
 20
-1775.2170027756631
 30
0.0
 11
-473.11394271970562
 21
-1775.2170027756631
 31
0.0
  0
LINE
  5
1812D
  8
01
 10
1153.8860572802939
 20
-1775.6859138624241
 30
0.0
 11
-473.11394271970562
 21
-1775.685913862417
 31
0.0
  0
LINE
  5
1812E
  8
01
 10
1162.8860572802939
 20
-1783.717002775667
 30
0.0
 11
-482.11394271970522
 21
-1783.7170027756631
 31
0.0
  0
LINE
  5
1812F
  8
01
 10
1153.8860572802939
 20
-1779.7170027756581
 30
0.0
 11
-482.11394271970539
 21
-1779.717002775664
 31
0.0
  0
LINE
  5
18130
  8
01
 10
1153.8860572802939
 20
-1779.717002775664
 30
0.0
 11
1153.8860572802939
 21
-1775.2170027756631
 31
0.0
  0
LINE
  5
18131
  8
01
 10
-473.11394271970562
 20
-1779.717002775664
 30
0.0
 11
-473.11394271970562
 21
-1775.2170027756631
 31
0.0
  0
LINE
  5
18132
  8
01
 10
1154.8860572802939
 20
-1778.7170027756631
 30
0.0
 11
1153.8860572802939
 21
-1778.7170027756631
 31
0.0
  0
LINE
  5
18133
  8
01
 10
-473.11394271970562
 20
-1778.717002775664
 30
0.0
 11
-474.11394271970539
 21
-1778.717002775664
 31
0.0
  0
LINE
  5
18134
  8
01
 10
1165.3860572802939
 20
-1783.867002775663
 30
0.0
 11
1165.3860572802939
 21
-1776.4670027756631
 31
0.0
  0
ARC
  5
18135
  8
01
 10
1164.3860572802939
 20
-1783.867002775663
 30
0.0
 40
1.0
 50
270.0
 51
0.0
  0
LINE
  5
18136
  8
01
 10
1154.8860572802951
 20
-1775.467002775664
 30
0.0
 11
1164.3860572802939
 21
-1775.467002775664
 31
0.0
  0
ARC
  5
18137
  8
01
 10
1164.3860572802939
 20
-1776.4670027756631
 30
0.0
 40
1.0
 50
0.0
 51
90.0
  0
LINE
  5
18138
  8
01
 10
1162.8860572802939
 20
-1784.367002775663
 30
0.0
 11
1162.8860572802939
 21
-1779.5670027756639
 31
0.0
  0
LINE
  5
18139
  8
01
 10
1154.8860572802939
 20
-1779.067002775663
 30
0.0
 11
1154.8860572802939
 21
-1775.467002775664
 31
0.0
  0
LINE
  5
1813A
  8
01
 10
1155.3860572802939
 20
-1779.5670027756639
 30
0.0
 11
1162.8860572802939
 21
-1779.5670027756639
 31
0.0
  0
ARC
  5
1813B
  8
01
 10
1155.3860572802939
 20
-1779.067002775663
 30
0.0
 40
0.5
 50
180.0
 51
270.0
  0
LINE
  5
1813C
  8
01
 10
1163.3860572802939
 20
-1784.867002775663
 30
0.0
 11
1164.3860572802939
 21
-1784.867002775663
 31
0.0
  0
ARC
  5
1813D
  8
01
 10
1163.3860572802939
 20
-1784.367002775663
 30
0.0
 40
0.5
 50
180.0
 51
270.0
  0
LINE
  5
1813E
  8
01
 10
-484.61394271970528
 20
-1783.867002775663
 30
0.0
 11
-484.61394271970528
 21
-1776.4670027756631
 31
0.0
  0
ARC
  5
1813F
  8
01
 10
-483.61394271970528
 20
-1783.867002775663
 30
0.0
 40
1.0
 50
180.0
 51
270.0
  0
LINE
  5
18140
  8
01
 10
-474.11394271970579
 20
-1775.467002775664
 30
0.0
 11
-483.61394271970528
 21
-1775.467002775664
 31
0.0
  0
ARC
  5
18141
  8
01
 10
-483.61394271970528
 20
-1776.4670027756631
 30
0.0
 40
1.0
 50
90.0
 51
180.0
  0
LINE
  5
18142
  8
01
 10
-482.11394271970539
 20
-1784.367002775663
 30
0.0
 11
-482.11394271970539
 21
-1779.5670027756639
 31
0.0
  0
LINE
  5
18143
  8
01
 10
-474.11394271970539
 20
-1779.067002775663
 30
0.0
 11
-474.11394271970539
 21
-1775.467002775664
 31
0.0
  0
LINE
  5
18144
  8
01
 10
-474.61394271970539
 20
-1779.5670027756639
 30
0.0
 11
-482.11394271970539
 21
-1779.5670027756639
 31
0.0
  0
ARC
  5
18145
  8
01
 10
-474.61394271970539
 20
-1779.067002775663
 30
0.0
 40
0.5
 50
270.0
 51
0.0
  0
LINE
  5
18146
  8
01
 10
-482.61394271970539
 20
-1784.867002775663
 30
0.0
 11
-483.61394271970528
 21
-1784.867002775663
 31
0.0
  0
ARC
  5
18147
  8
01
 10
-482.61394271970539
 20
-1784.367002775663
 30
0.0
 40
0.5
 50
270.0
 51
0.0
  0
TEXT
  5
18148
  8
1TEXT
 10
1184.1843354068949
 20
-1744.9201770777249
 30
0.0
 40
8.0
  1
KC04-165
  0
TEXT
  5
18149
  8
1TEXT
 10
1190.9367163592769
 20
-1755.4201770777249
 30
0.0
 40
4.0
  1
表面処理：
 72
     1
 11
1201.5843354068959
 21
-1755.4201770777249
 31
0.0
  0
TEXT
  5
1814A
  8
1TEXT
 10
1184.784335406895
 20
-1762.25546573725
 30
0.0
 40
4.0
  1
ブラストシルバー
 41
0.9
 72
     1
 11
1201.5843354068959
 21
-1762.25546573725
 31
0.0
  0
LINE
  5
1814B
  8
1DIM
 10
1184.1843354068949
 20
-1749.9201770777249
 30
0.0
 11
1254.1843354068949
 21
-1749.9201770777249
 31
0.0
  0
LINE
  5
1814C
  8
1DIM
 10
1184.1843354068949
 20
-1763.9201770777249
 30
0.0
 11
1254.1843354068949
 21
-1763.9201770777249
 31
0.0
  0
LINE
  5
1814D
  8
1DIM
 10
1184.1843354068949
 20
-1756.9201770777249
 30
0.0
 11
1254.1843354068949
 21
-1756.9201770777249
 31
0.0
  0
LINE
  5
1814E
  8
1DIM
 10
1219.1843354068949
 20
-1749.9201770777249
 30
0.0
 11
1219.1843354068949
 21
-1763.9201770777261
 31
0.0
  0
TEXT
  5
1814F
  8
1TEXT
 10
1220.2510020735631
 20
-1762.634534061375
 30
0.0
 40
4.0
  1
KC04SC165
 72
     1
 11
1236.5843354068959
 21
-1762.634534061375
 31
0.0
  0
TEXT
  5
18150
  8
1TEXT
 10
1229.7843354068959
 20
-1755.4201770777249
 30
0.0
 40
4.0
  1
コード
 72
     1
 11
1236.5843354068959
 21
-1755.4201770777249
 31
0.0
  0
LINE
  5
18151
  8
1DIM
 10
1254.1843354068949
 20
-1763.9201770777261
 30
0.0
 11
1254.1843354068949
 21
-1749.9201770777249
 31
0.0
  0
LINE
  5
18152
  8
1DIM
 10
1184.1843354068949
 20
-1749.9201770777249
 30
0.0
 11
1184.1843354068949
 21
-1763.9201770777261
 31
0.0
  0
LINE
  5
18155
  8
01
 10
1162.8860572802939
 20
-1829.102747311646
 30
0.0
 11
1162.8860572802939
 21
-1849.6027473116451
 31
0.0
  0
LINE
  5
18156
  8
01
 10
-482.11394271970539
 20
-1829.102747311646
 30
0.0
 11
-482.11394271970539
 21
-1849.6027473116451
 31
0.0
  0
LINE
  5
183B3
  8
1DIM
 10
1253.5405465745689
 20
-1839.852748972907
 30
0.0
 11
1257.716419970887
 21
-1839.852748972907
 31
0.0
  0
LINE
  5
183B4
  8
1DIM
 10
1213.6857466933991
 20
-1828.6027473116451
 30
0.0
 11
1257.716419970887
 21
-1828.6027473116451
 31
0.0
  0
LINE
  5
183B5
  8
1DIM
 10
1256.716419970888
 20
-1837.852748972907
 30
0.0
 11
1256.716419970888
 21
-1830.6027473116451
 31
0.0
  0
LINE
  5
183B6
  8
1DIM
 10
1256.716419970888
 20
-1828.6027473116451
 30
0.0
 11
1256.716419970888
 21
-1811.702747311645
 31
0.0
  0
TEXT
  5
183BA
  8
1DIM
 10
1168.9119650915909
 20
-1809.4197458459071
 30
0.0
 40
3.5
  1
材質：亜鉛ダイキャスト
  0
TEXT
  5
183BB
  8
1DIM
 10
1168.9119650915909
 20
-1815.253079179241
 30
0.0
 40
3.5
  1
仕上げ：クローム
  0
SOLID
  5
183BC
  8
1DIM
 10
1164.881191891194
 20
-1826.9777740494351
 30
0.0
 11
1164.2524380924169
 21
-1828.905409847928
 31
0.0
 12
1164.222026021479
 22
-1826.8780504281281
 32
0.0
 13
1164.222026021479
 23
-1826.8780504281281
 33
0.0
  0
TEXT
  5
183BE
  8
1DIM
 10
1108.6657593201389
 20
-1809.9491556019771
 30
0.0
 40
3.5
  1
材質：アルミ
  0
TEXT
  5
183BF
  8
1DIM
 10
1108.6657593201389
 20
-1815.7824889353101
 30
0.0
 40
3.5
  1
仕上げ：ブラストシルバー
  0
SOLID
  5
183C0
  8
1DIM
 10
1101.9191231263169
 20
-1825.9065591467031
 30
0.0
 11
1100.362802367725
 21
-1829.6511966646499
 31
0.0
 12
1100.620520647059
 22
-1825.604219307048
 32
0.0
 13
1100.620520647059
 23
-1825.604219307048
 33
0.0
1001
ACAD
1000
DSTYLE
1002
{
1070
    40
1040
2.0
1002
}
  0
LINE
  5
183C2
  8
1DIM1
 10
1124.3860572802951
 20
-1843.8528107756381
 30
0.0
 11
1124.3860572802951
 21
-1906.0854746309681
 31
0.0
  0
LINE
  5
183C3
  8
1DIM1
 10
1165.3860572802939
 20
-1849.1027473116451
 30
0.0
 11
1165.3860572802939
 21
-1906.0854746309681
 31
0.0
  0
LINE
  5
183C4
  8
1DIM1
 10
1134.3860572802951
 20
-1901.0854746309681
 30
0.0
 11
1155.3860572802951
 21
-1901.0854746309681
 31
0.0
  0
LINE
  5
183C8
  8
1DIM1
 10
928.38605728029472
 20
-1843.6028107734021
 30
0.0
 11
928.38605728029472
 21
-1905.8354746287321
 31
0.0
  0
LINE
  5
183C9
  8
1DIM1
 10
1124.3860572802939
 20
-1843.6028107734021
 30
0.0
 11
1124.3860572802939
 21
-1905.8354746287321
 31
0.0
  0
LINE
  5
183CA
  8
1DIM1
 10
938.38605728029461
 20
-1900.8354746287321
 30
0.0
 11
1114.3860572802939
 21
-1900.8354746287321
 31
0.0
  0
LINE
  5
183CE
  8
1DIM1
 10
732.38605728029461
 20
-1843.6028107734021
 30
0.0
 11
732.38605728029461
 21
-1905.8354746287321
 31
0.0
  0
LINE
  5
183CF
  8
1DIM1
 10
928.38605728029472
 20
-1843.6028107734021
 30
0.0
 11
928.38605728029472
 21
-1905.8354746287321
 31
0.0
  0
LINE
  5
183D0
  8
1DIM1
 10
742.38605728029449
 20
-1900.8354746287321
 30
0.0
 11
918.38605728029449
 21
-1900.8354746287321
 31
0.0
  0
LINE
  5
183D4
  8
1DIM1
 10
536.38605728029461
 20
-1843.6028107734021
 30
0.0
 11
536.38605728029461
 21
-1905.8354746287321
 31
0.0
  0
LINE
  5
183D5
  8
1DIM1
 10
732.38605728029461
 20
-1843.6028107734021
 30
0.0
 11
732.38605728029461
 21
-1905.8354746287321
 31
0.0
  0
LINE
  5
183D6
  8
1DIM1
 10
546.38605728029449
 20
-1900.8354746287321
 30
0.0
 11
722.38605728029461
 21
-1900.8354746287321
 31
0.0
  0
LINE
  5
183DA
  8
1DIM1
 10
340.38605728029461
 20
-1843.6028107734021
 30
0.0
 11
340.38605728029461
 21
-1905.8354746287321
 31
0.0
  0
LINE
  5
183DB
  8
1DIM1
 10
536.38605728029461
 20
-1843.6028107734021
 30
0.0
 11
536.38605728029461
 21
-1905.8354746287321
 31
0.0
  0
LINE
  5
183DC
  8
1DIM1
 10
350.38605728029461
 20
-1900.8354746287321
 30
0.0
 11
526.38605728029461
 21
-1900.8354746287321
 31
0.0
  0
LINE
  5
183E0
  8
1DIM1
 10
144.38605728029461
 20
-1843.6028107734021
 30
0.0
 11
144.38605728029461
 21
-1905.8354746287321
 31
0.0
  0
LINE
  5
183E1
  8
1DIM1
 10
340.38605728029461
 20
-1843.6028107734021
 30
0.0
 11
340.38605728029461
 21
-1905.8354746287321
 31
0.0
  0
LINE
  5
183E2
  8
1DIM1
 10
154.38605728029461
 20
-1900.8354746287321
 30
0.0
 11
330.38605728029461
 21
-1900.8354746287321
 31
0.0
  0
LINE
  5
183E6
  8
1DIM1
 10
-51.613942719705392
 20
-1843.6028107734021
 30
0.0
 11
-51.613942719705392
 21
-1905.8354746287321
 31
0.0
  0
LINE
  5
183E7
  8
1DIM1
 10
144.38605728029461
 20
-1843.6028107734021
 30
0.0
 11
144.38605728029461
 21
-1905.8354746287321
 31
0.0
  0
LINE
  5
183E8
  8
1DIM1
 10
-41.613942719705392
 20
-1900.8354746287321
 30
0.0
 11
134.38605728029461
 21
-1900.8354746287321
 31
0.0
  0
LINE
  5
183EC
  8
1DIM1
 10
-247.61394271970539
 20
-1843.6028107734021
 30
0.0
 11
-247.61394271970539
 21
-1905.8354746287321
 31
0.0
  0
LINE
  5
183ED
  8
1DIM1
 10
-51.613942719705392
 20
-1843.6028107734021
 30
0.0
 11
-51.613942719705392
 21
-1905.8354746287321
 31
0.0
  0
LINE
  5
183EE
  8
1DIM1
 10
-237.61394271970539
 20
-1900.8354746287321
 30
0.0
 11
-61.613942719705392
 21
-1900.8354746287321
 31
0.0
  0
LINE
  5
183F2
  8
1DIM1
 10
-484.61394271970562
 20
-1849.1027473116451
 30
0.0
 11
-484.61394271970562
 21
-1905.8354746287321
 31
0.0
  0
LINE
  5
183F3
  8
1DIM1
 10
-443.61394271970539
 20
-1843.6028107734021
 30
0.0
 11
-443.61394271970539
 21
-1905.8354746287321
 31
0.0
  0
LINE
  5
183F4
  8
1DIM1
 10
-474.61394271970562
 20
-1900.8354746287321
 30
0.0
 11
-453.61394271970539
 21
-1900.8354746287321
 31
0.0
  0
LINE
  5
183F8
  8
1DIM1
 10
-484.61394271970551
 20
-1849.1027473116451
 30
0.0
 11
-484.61394271970551
 21
-1944.386677737059
 31
0.0
  0
LINE
  5
183F9
  8
1DIM1
 10
1165.3860572802939
 20
-1849.1027473116451
 30
0.0
 11
1165.3860572802939
 21
-1944.386677737059
 31
0.0
  0
LINE
  5
183FA
  8
1DIM1
 10
-474.61394271970539
 20
-1939.386677737059
 30
0.0
 11
1155.3860572802951
 21
-1939.386677737059
 31
0.0
  0
LINE
  5
183FE
  8
1DIM1
 10
-443.61394271970539
 20
-1843.6028107734021
 30
0.0
 11
-443.61394271970539
 21
-1905.8354746287321
 31
0.0
  0
LINE
  5
183FF
  8
1DIM1
 10
-247.61394271970539
 20
-1843.6028107734021
 30
0.0
 11
-247.61394271970539
 21
-1905.8354746287321
 31
0.0
  0
LINE
  5
18400
  8
1DIM1
 10
-433.61394271970528
 20
-1900.8354746287321
 30
0.0
 11
-257.61394271970539
 21
-1900.8354746287321
 31
0.0
  0
LINE
  5
18405
  8
1CENTER
 10
-443.61394271970539
 20
-1736.7625065850259
 30
0.0
 11
-443.61394271970539
 21
-1779.5956396324
 31
0.0
  0
LINE
  5
18406
  8
0
 10
-445.61389618380753
 20
-1753.3169981222891
 30
0.0
 11
-441.61389618380753
 21
-1752.517007429467
 31
0.0
  0
LINE
  5
18407
  8
0
 10
-441.61389618380753
 20
-1752.517007429467
 30
0.0
 11
-442.11389618380741
 21
-1752.4170062660689
 31
0.0
  0
LINE
  5
18408
  8
0
 10
-444.69298158659882
 20
-1742.02976868825
 30
0.0
 11
-445.16108004174868
 21
-1741.9169991758999
 31
0.0
  0
LINE
  5
18409
  8
0
 10
-442.74593144482498
 20
-1739.517004795453
 30
0.0
 11
-443.33420801986739
 21
-1739.2052349392011
 31
0.0
  0
LINE
  5
1840A
  8
0
 10
-444.25109469306938
 20
-1740.4684360259439
 30
0.0
 11
-444.70826653370051
 21
-1740.3170002295039
 31
0.0
  0
LINE
  5
1840B
  8
0
 10
-442.29311734041818
 20
-1741.1170058490591
 30
0.0
 11
-442.8448668042214
 21
-1740.9342417064299
 31
0.0
  0
LINE
  5
1840C
  8
0
 10
-444.70826653370051
 20
-1740.3170002295039
 30
0.0
 11
-442.74593144482498
 21
-1739.517004795453
 31
0.0
  0
LINE
  5
1840D
  8
0
 10
-445.16108004174868
 20
-1741.9169991758999
 30
0.0
 11
-442.29311734041818
 21
-1741.1170058490591
 31
0.0
  0
LINE
  5
1840E
  8
0
 10
-445.61389618380753
 20
-1751.7169981222889
 30
0.0
 11
-441.61389618380753
 21
-1750.917007429467
 31
0.0
  0
LINE
  5
1840F
  8
0
 10
-445.61389618380753
 20
-1750.116998122289
 30
0.0
 11
-441.61389618380753
 21
-1749.3170074294669
 31
0.0
  0
LINE
  5
18410
  8
0
 10
-445.11389618380753
 20
-1750.2169992856871
 30
0.0
 11
-445.61389618380753
 21
-1750.116998122289
 31
0.0
  0
LINE
  5
18411
  8
0
 10
-441.61389618380753
 20
-1749.3170074294669
 30
0.0
 11
-442.11389618380741
 21
-1749.21700626607
 31
0.0
  0
LINE
  5
18412
  8
0
 10
-441.61389618380753
 20
-1750.917007429467
 30
0.0
 11
-442.11389618380741
 21
-1750.8170062660699
 31
0.0
  0
LINE
  5
18413
  8
0
 10
-441.84030323601138
 20
-1742.717006902664
 30
0.0
 11
-442.37689697128252
 21
-1742.5877362050339
 31
0.0
  0
LINE
  5
18414
  8
0
 10
-445.61389618380753
 20
-1743.5169981222889
 30
0.0
 11
-441.84030323601138
 21
-1742.717006902664
 31
0.0
  0
LINE
  5
18415
  8
0
 10
-445.11389618380753
 20
-1743.6169992856869
 30
0.0
 11
-445.61389618380753
 21
-1743.5169981222889
 31
0.0
  0
LINE
  5
18416
  8
0
 10
-445.11389618380753
 20
-1751.816999285687
 30
0.0
 11
-445.61389618380753
 21
-1751.7169981222889
 31
0.0
  0
LINE
  5
18417
  8
0
 10
-445.61389618380753
 20
-1756.51699812229
 30
0.0
 11
-441.61389618380753
 21
-1755.717007429467
 31
0.0
  0
LINE
  5
18418
  8
0
 10
-445.61389618380753
 20
-1754.916998122289
 30
0.0
 11
-441.61389618380753
 21
-1754.1170074294671
 31
0.0
  0
LINE
  5
18419
  8
0
 10
-445.11389618380753
 20
-1753.416999285686
 30
0.0
 11
-445.61389618380753
 21
-1753.3169981222891
 31
0.0
  0
LINE
  5
1841A
  8
0
 10
-445.11389618380753
 20
-1755.0169992856861
 30
0.0
 11
-445.61389618380753
 21
-1754.916998122289
 31
0.0
  0
LINE
  5
1841B
  8
0
 10
-441.61389618380753
 20
-1754.1170074294671
 30
0.0
 11
-442.11389618380741
 21
-1754.01700626607
 31
0.0
  0
LINE
  5
1841C
  8
0
 10
-441.61389618380753
 20
-1755.717007429467
 30
0.0
 11
-442.11389618380741
 21
-1755.6170062660699
 31
0.0
  0
LINE
  5
1841D
  8
0
 10
-445.11389618380753
 20
-1756.6169992856869
 30
0.0
 11
-445.61389618380753
 21
-1756.51699812229
 31
0.0
  0
LINE
  5
1841E
  8
0
 10
-441.61389618380753
 20
-1747.717007429467
 30
0.0
 11
-442.11389618380741
 21
-1747.6170062660699
 31
0.0
  0
LINE
  5
1841F
  8
0
 10
-445.61389618380753
 20
-1748.5169981222889
 30
0.0
 11
-441.61389618380753
 21
-1747.717007429467
 31
0.0
  0
LINE
  5
18420
  8
0
 10
-445.11389618380753
 20
-1748.6169992856869
 30
0.0
 11
-445.61389618380753
 21
-1748.5169981222889
 31
0.0
  0
LINE
  5
18421
  8
0
 10
-445.61389618380753
 20
-1746.916998122289
 30
0.0
 11
-441.61389618380753
 21
-1746.117007429466
 31
0.0
  0
LINE
  5
18422
  8
0
 10
-441.61389618380753
 20
-1746.117007429466
 30
0.0
 11
-442.11389618380741
 21
-1746.01700626607
 31
0.0
  0
LINE
  5
18423
  8
0
 10
-445.11389618380753
 20
-1747.0169992856861
 30
0.0
 11
-445.61389618380753
 21
-1746.916998122289
 31
0.0
  0
LINE
  5
18424
  8
0
 10
-441.61389618380753
 20
-1744.517007429467
 30
0.0
 11
-442.11389618380741
 21
-1744.4170062660701
 31
0.0
  0
LINE
  5
18425
  8
0
 10
-445.61389618380753
 20
-1745.3169981222891
 30
0.0
 11
-441.61389618380753
 21
-1744.517007429467
 31
0.0
  0
LINE
  5
18426
  8
0
 10
-445.11389618380753
 20
-1745.416999285686
 30
0.0
 11
-445.61389618380753
 21
-1745.3169981222891
 31
0.0
  0
LINE
  5
18427
  8
0
 10
-443.61394271970539
 20
-1775.31701208296
 30
0.0
 11
-441.61389618380753
 21
-1774.91700742948
 31
0.0
  0
LINE
  5
18428
  8
0
 10
-445.61389618380753
 20
-1766.1169981222979
 30
0.0
 11
-441.61389618380753
 21
-1765.317007429476
 31
0.0
  0
LINE
  5
18429
  8
0
 10
-445.61389618380753
 20
-1762.9169981222899
 30
0.0
 11
-441.61389618380753
 21
-1762.117007429471
 31
0.0
  0
LINE
  5
1842A
  8
0
 10
-441.61389618380753
 20
-1773.317007429476
 30
0.0
 11
-442.11389618380741
 21
-1773.2170062660789
 31
0.0
  0
LINE
  5
1842B
  8
0
 10
-441.61389618380753
 20
-1774.91700742948
 30
0.0
 11
-442.11389618380741
 21
-1774.817006266082
 31
0.0
  0
LINE
  5
1842C
  8
0
 10
-445.11389618380753
 20
-1774.2169992856959
 30
0.0
 11
-445.61389618380753
 21
-1774.1169981222979
 31
0.0
  0
LINE
  5
1842D
  8
0
 10
-445.61389618380753
 20
-1774.1169981222979
 30
0.0
 11
-441.61389618380753
 21
-1773.317007429476
 31
0.0
  0
LINE
  5
1842E
  8
0
 10
-445.11389618380753
 20
-1772.6169992856951
 30
0.0
 11
-445.61389618380753
 21
-1772.5169981222989
 31
0.0
  0
LINE
  5
1842F
  8
0
 10
-441.61389618380753
 20
-1771.7170074294761
 30
0.0
 11
-442.11389618380741
 21
-1771.617006266079
 31
0.0
  0
LINE
  5
18430
  8
0
 10
-441.61389618380753
 20
-1770.117007429476
 30
0.0
 11
-442.11389618380741
 21
-1770.0170062660779
 31
0.0
  0
LINE
  5
18431
  8
0
 10
-445.11389618380753
 20
-1771.016999285695
 30
0.0
 11
-445.61389618380753
 21
-1770.9169981222981
 31
0.0
  0
LINE
  5
18432
  8
0
 10
-445.11389618380753
 20
-1769.4169992856951
 30
0.0
 11
-445.61389618380753
 21
-1769.3169981222979
 31
0.0
  0
LINE
  5
18433
  8
0
 10
-445.61389618380753
 20
-1770.9169981222981
 30
0.0
 11
-441.61389618380753
 21
-1770.117007429476
 31
0.0
  0
LINE
  5
18434
  8
0
 10
-445.61389618380753
 20
-1772.5169981222989
 30
0.0
 11
-441.61389618380753
 21
-1771.7170074294761
 31
0.0
  0
LINE
  5
18435
  8
0
 10
-445.11389618380753
 20
-1767.8169992856949
 30
0.0
 11
-445.61389618380753
 21
-1767.716998122298
 31
0.0
  0
LINE
  5
18436
  8
0
 10
-441.61389618380753
 20
-1766.9170074294759
 30
0.0
 11
-442.11389618380741
 21
-1766.817006266079
 31
0.0
  0
LINE
  5
18437
  8
0
 10
-441.61389618380753
 20
-1765.317007429476
 30
0.0
 11
-442.11389618380741
 21
-1765.2170062660789
 31
0.0
  0
LINE
  5
18438
  8
0
 10
-445.11389618380753
 20
-1766.216999285695
 30
0.0
 11
-445.61389618380753
 21
-1766.1169981222979
 31
0.0
  0
LINE
  5
18439
  8
0
 10
-445.61389618380753
 20
-1767.716998122298
 30
0.0
 11
-441.61389618380753
 21
-1766.9170074294759
 31
0.0
  0
LINE
  5
1843A
  8
0
 10
-441.61389618380753
 20
-1768.5170074294761
 30
0.0
 11
-442.11389618380741
 21
-1768.417006266078
 31
0.0
  0
LINE
  5
1843B
  8
0
 10
-445.61389618380753
 20
-1769.3169981222979
 30
0.0
 11
-441.61389618380753
 21
-1768.5170074294761
 31
0.0
  0
LINE
  5
1843C
  8
0
 10
-445.61389618380753
 20
-1764.5169981222939
 30
0.0
 11
-441.61389618380753
 21
-1763.7170074294761
 31
0.0
  0
LINE
  5
1843D
  8
0
 10
-445.61389618380753
 20
-1759.7169981222889
 30
0.0
 11
-441.61389618380753
 21
-1758.9170074294709
 31
0.0
  0
LINE
  5
1843E
  8
0
 10
-445.61389618380753
 20
-1758.116998122289
 30
0.0
 11
-441.61389618380753
 21
-1757.3170074294669
 31
0.0
  0
LINE
  5
1843F
  8
0
 10
-445.11389618380753
 20
-1758.2169992856871
 30
0.0
 11
-445.61389618380753
 21
-1758.116998122289
 31
0.0
  0
LINE
  5
18440
  8
0
 10
-441.61389618380753
 20
-1758.9170074294709
 30
0.0
 11
-442.11389618380741
 21
-1758.8170062660729
 31
0.0
  0
LINE
  5
18441
  8
0
 10
-441.61389618380753
 20
-1757.3170074294669
 30
0.0
 11
-442.11389618380741
 21
-1757.21700626607
 31
0.0
  0
LINE
  5
18442
  8
0
 10
-441.61389618380753
 20
-1762.117007429471
 30
0.0
 11
-442.11389618380741
 21
-1762.0170062660741
 31
0.0
  0
LINE
  5
18443
  8
0
 10
-445.11389618380753
 20
-1761.4169992856871
 30
0.0
 11
-445.61389618380753
 21
-1761.31699812229
 31
0.0
  0
LINE
  5
18444
  8
0
 10
-441.61389618380753
 20
-1760.5170074294711
 30
0.0
 11
-442.11389618380741
 21
-1760.4170062660739
 31
0.0
  0
LINE
  5
18445
  8
0
 10
-445.61389618380753
 20
-1761.31699812229
 30
0.0
 11
-441.61389618380753
 21
-1760.5170074294711
 31
0.0
  0
LINE
  5
18446
  8
0
 10
-445.11389618380753
 20
-1759.816999285687
 30
0.0
 11
-445.61389618380753
 21
-1759.7169981222889
 31
0.0
  0
LINE
  5
18447
  8
0
 10
-441.61389618380753
 20
-1763.7170074294761
 30
0.0
 11
-442.11389618380741
 21
-1763.6170062660781
 31
0.0
  0
LINE
  5
18448
  8
0
 10
-445.11389618380753
 20
-1763.016999285687
 30
0.0
 11
-445.61389618380753
 21
-1762.9169981222899
 31
0.0
  0
LINE
  5
18449
  8
0
 10
-445.11389618380753
 20
-1764.6169992856919
 30
0.0
 11
-445.61389618380753
 21
-1764.5169981222939
 31
0.0
  0
LINE
  5
1844A
  8
0
 10
-447.61394271970528
 20
-1777.916993468483
 30
0.0
 11
-439.61394271970539
 21
-1777.9170120828419
 31
0.0
  0
LINE
  5
1844C
  8
1CENTER
 10
-247.61394271970539
 20
-1736.7625065850259
 30
0.0
 11
-247.61394271970539
 21
-1779.5956396324
 31
0.0
  0
LINE
  5
1844D
  8
0
 10
-249.6138961838075
 20
-1753.3169981222891
 30
0.0
 11
-245.6138961838075
 21
-1752.517007429467
 31
0.0
  0
LINE
  5
1844E
  8
0
 10
-245.6138961838075
 20
-1752.517007429467
 30
0.0
 11
-246.1138961838075
 21
-1752.4170062660689
 31
0.0
  0
LINE
  5
1844F
  8
0
 10
-248.69298158659879
 20
-1742.02976868825
 30
0.0
 11
-249.1610800417487
 21
-1741.9169991758999
 31
0.0
  0
LINE
  5
18450
  8
0
 10
-246.745931444825
 20
-1739.517004795453
 30
0.0
 11
-247.33420801986739
 21
-1739.2052349392011
 31
0.0
  0
LINE
  5
18451
  8
0
 10
-248.2510946930694
 20
-1740.4684360259439
 30
0.0
 11
-248.70826653370051
 21
-1740.3170002295039
 31
0.0
  0
LINE
  5
18452
  8
0
 10
-246.29311734041821
 20
-1741.1170058490591
 30
0.0
 11
-246.84486680422151
 21
-1740.9342417064299
 31
0.0
  0
LINE
  5
18453
  8
0
 10
-248.70826653370051
 20
-1740.3170002295039
 30
0.0
 11
-246.745931444825
 21
-1739.517004795453
 31
0.0
  0
LINE
  5
18454
  8
0
 10
-249.1610800417487
 20
-1741.9169991758999
 30
0.0
 11
-246.29311734041821
 21
-1741.1170058490591
 31
0.0
  0
LINE
  5
18455
  8
0
 10
-249.6138961838075
 20
-1751.7169981222889
 30
0.0
 11
-245.6138961838075
 21
-1750.917007429467
 31
0.0
  0
LINE
  5
18456
  8
0
 10
-249.6138961838075
 20
-1750.116998122289
 30
0.0
 11
-245.6138961838075
 21
-1749.3170074294669
 31
0.0
  0
LINE
  5
18457
  8
0
 10
-249.1138961838075
 20
-1750.2169992856871
 30
0.0
 11
-249.6138961838075
 21
-1750.116998122289
 31
0.0
  0
LINE
  5
18458
  8
0
 10
-245.6138961838075
 20
-1749.3170074294669
 30
0.0
 11
-246.1138961838075
 21
-1749.21700626607
 31
0.0
  0
LINE
  5
18459
  8
0
 10
-245.6138961838075
 20
-1750.917007429467
 30
0.0
 11
-246.1138961838075
 21
-1750.8170062660699
 31
0.0
  0
LINE
  5
1845A
  8
0
 10
-245.84030323601141
 20
-1742.717006902664
 30
0.0
 11
-246.3768969712826
 21
-1742.5877362050339
 31
0.0
  0
LINE
  5
1845B
  8
0
 10
-249.6138961838075
 20
-1743.5169981222889
 30
0.0
 11
-245.84030323601141
 21
-1742.717006902664
 31
0.0
  0
LINE
  5
1845C
  8
0
 10
-249.1138961838075
 20
-1743.6169992856869
 30
0.0
 11
-249.6138961838075
 21
-1743.5169981222889
 31
0.0
  0
LINE
  5
1845D
  8
0
 10
-249.1138961838075
 20
-1751.816999285687
 30
0.0
 11
-249.6138961838075
 21
-1751.7169981222889
 31
0.0
  0
LINE
  5
1845E
  8
0
 10
-249.6138961838075
 20
-1756.51699812229
 30
0.0
 11
-245.6138961838075
 21
-1755.717007429467
 31
0.0
  0
LINE
  5
1845F
  8
0
 10
-249.6138961838075
 20
-1754.916998122289
 30
0.0
 11
-245.6138961838075
 21
-1754.1170074294671
 31
0.0
  0
LINE
  5
18460
  8
0
 10
-249.1138961838075
 20
-1753.416999285686
 30
0.0
 11
-249.6138961838075
 21
-1753.3169981222891
 31
0.0
  0
LINE
  5
18461
  8
0
 10
-249.1138961838075
 20
-1755.0169992856861
 30
0.0
 11
-249.6138961838075
 21
-1754.916998122289
 31
0.0
  0
LINE
  5
18462
  8
0
 10
-245.6138961838075
 20
-1754.1170074294671
 30
0.0
 11
-246.1138961838075
 21
-1754.01700626607
 31
0.0
  0
LINE
  5
18463
  8
0
 10
-245.6138961838075
 20
-1755.717007429467
 30
0.0
 11
-246.1138961838075
 21
-1755.6170062660699
 31
0.0
  0
LINE
  5
18464
  8
0
 10
-249.1138961838075
 20
-1756.6169992856869
 30
0.0
 11
-249.6138961838075
 21
-1756.51699812229
 31
0.0
  0
LINE
  5
18465
  8
0
 10
-245.6138961838075
 20
-1747.717007429467
 30
0.0
 11
-246.1138961838075
 21
-1747.6170062660699
 31
0.0
  0
LINE
  5
18466
  8
0
 10
-249.6138961838075
 20
-1748.5169981222889
 30
0.0
 11
-245.6138961838075
 21
-1747.717007429467
 31
0.0
  0
LINE
  5
18467
  8
0
 10
-249.1138961838075
 20
-1748.6169992856869
 30
0.0
 11
-249.6138961838075
 21
-1748.5169981222889
 31
0.0
  0
LINE
  5
18468
  8
0
 10
-249.6138961838075
 20
-1746.916998122289
 30
0.0
 11
-245.6138961838075
 21
-1746.117007429466
 31
0.0
  0
LINE
  5
18469
  8
0
 10
-245.6138961838075
 20
-1746.117007429466
 30
0.0
 11
-246.1138961838075
 21
-1746.01700626607
 31
0.0
  0
LINE
  5
1846A
  8
0
 10
-249.1138961838075
 20
-1747.0169992856861
 30
0.0
 11
-249.6138961838075
 21
-1746.916998122289
 31
0.0
  0
LINE
  5
1846B
  8
0
 10
-245.6138961838075
 20
-1744.517007429467
 30
0.0
 11
-246.1138961838075
 21
-1744.4170062660701
 31
0.0
  0
LINE
  5
1846C
  8
0
 10
-249.6138961838075
 20
-1745.3169981222891
 30
0.0
 11
-245.6138961838075
 21
-1744.517007429467
 31
0.0
  0
LINE
  5
1846D
  8
0
 10
-249.1138961838075
 20
-1745.416999285686
 30
0.0
 11
-249.6138961838075
 21
-1745.3169981222891
 31
0.0
  0
LINE
  5
1846E
  8
0
 10
-247.61394271970539
 20
-1775.31701208296
 30
0.0
 11
-245.6138961838075
 21
-1774.91700742948
 31
0.0
  0
LINE
  5
1846F
  8
0
 10
-249.6138961838075
 20
-1766.1169981222979
 30
0.0
 11
-245.6138961838075
 21
-1765.317007429476
 31
0.0
  0
LINE
  5
18470
  8
0
 10
-249.6138961838075
 20
-1762.9169981222899
 30
0.0
 11
-245.6138961838075
 21
-1762.117007429471
 31
0.0
  0
LINE
  5
18471
  8
0
 10
-245.6138961838075
 20
-1773.317007429476
 30
0.0
 11
-246.1138961838075
 21
-1773.2170062660789
 31
0.0
  0
LINE
  5
18472
  8
0
 10
-245.6138961838075
 20
-1774.91700742948
 30
0.0
 11
-246.1138961838075
 21
-1774.817006266082
 31
0.0
  0
LINE
  5
18473
  8
0
 10
-249.1138961838075
 20
-1774.2169992856959
 30
0.0
 11
-249.6138961838075
 21
-1774.1169981222979
 31
0.0
  0
LINE
  5
18474
  8
0
 10
-249.6138961838075
 20
-1774.1169981222979
 30
0.0
 11
-245.6138961838075
 21
-1773.317007429476
 31
0.0
  0
LINE
  5
18475
  8
0
 10
-249.1138961838075
 20
-1772.6169992856951
 30
0.0
 11
-249.6138961838075
 21
-1772.5169981222989
 31
0.0
  0
LINE
  5
18476
  8
0
 10
-245.6138961838075
 20
-1771.7170074294761
 30
0.0
 11
-246.1138961838075
 21
-1771.617006266079
 31
0.0
  0
LINE
  5
18477
  8
0
 10
-245.6138961838075
 20
-1770.117007429476
 30
0.0
 11
-246.1138961838075
 21
-1770.0170062660779
 31
0.0
  0
LINE
  5
18478
  8
0
 10
-249.1138961838075
 20
-1771.016999285695
 30
0.0
 11
-249.6138961838075
 21
-1770.9169981222981
 31
0.0
  0
LINE
  5
18479
  8
0
 10
-249.1138961838075
 20
-1769.4169992856951
 30
0.0
 11
-249.6138961838075
 21
-1769.3169981222979
 31
0.0
  0
LINE
  5
1847A
  8
0
 10
-249.6138961838075
 20
-1770.9169981222981
 30
0.0
 11
-245.6138961838075
 21
-1770.117007429476
 31
0.0
  0
LINE
  5
1847B
  8
0
 10
-249.6138961838075
 20
-1772.5169981222989
 30
0.0
 11
-245.6138961838075
 21
-1771.7170074294761
 31
0.0
  0
LINE
  5
1847C
  8
0
 10
-249.1138961838075
 20
-1767.8169992856949
 30
0.0
 11
-249.6138961838075
 21
-1767.716998122298
 31
0.0
  0
LINE
  5
1847D
  8
0
 10
-245.6138961838075
 20
-1766.9170074294759
 30
0.0
 11
-246.1138961838075
 21
-1766.817006266079
 31
0.0
  0
LINE
  5
1847E
  8
0
 10
-245.6138961838075
 20
-1765.317007429476
 30
0.0
 11
-246.1138961838075
 21
-1765.2170062660789
 31
0.0
  0
LINE
  5
1847F
  8
0
 10
-249.1138961838075
 20
-1766.216999285695
 30
0.0
 11
-249.6138961838075
 21
-1766.1169981222979
 31
0.0
  0
LINE
  5
18480
  8
0
 10
-249.6138961838075
 20
-1767.716998122298
 30
0.0
 11
-245.6138961838075
 21
-1766.9170074294759
 31
0.0
  0
LINE
  5
18481
  8
0
 10
-245.6138961838075
 20
-1768.5170074294761
 30
0.0
 11
-246.1138961838075
 21
-1768.417006266078
 31
0.0
  0
LINE
  5
18482
  8
0
 10
-249.6138961838075
 20
-1769.3169981222979
 30
0.0
 11
-245.6138961838075
 21
-1768.5170074294761
 31
0.0
  0
LINE
  5
18483
  8
0
 10
-249.6138961838075
 20
-1764.5169981222939
 30
0.0
 11
-245.6138961838075
 21
-1763.7170074294761
 31
0.0
  0
LINE
  5
18484
  8
0
 10
-249.6138961838075
 20
-1759.7169981222889
 30
0.0
 11
-245.6138961838075
 21
-1758.9170074294709
 31
0.0
  0
LINE
  5
18485
  8
0
 10
-249.6138961838075
 20
-1758.116998122289
 30
0.0
 11
-245.6138961838075
 21
-1757.3170074294669
 31
0.0
  0
LINE
  5
18486
  8
0
 10
-249.1138961838075
 20
-1758.2169992856871
 30
0.0
 11
-249.6138961838075
 21
-1758.116998122289
 31
0.0
  0
LINE
  5
18487
  8
0
 10
-245.6138961838075
 20
-1758.9170074294709
 30
0.0
 11
-246.1138961838075
 21
-1758.8170062660729
 31
0.0
  0
LINE
  5
18488
  8
0
 10
-245.6138961838075
 20
-1757.3170074294669
 30
0.0
 11
-246.1138961838075
 21
-1757.21700626607
 31
0.0
  0
LINE
  5
18489
  8
0
 10
-245.6138961838075
 20
-1762.117007429471
 30
0.0
 11
-246.1138961838075
 21
-1762.0170062660741
 31
0.0
  0
LINE
  5
1848A
  8
0
 10
-249.1138961838075
 20
-1761.4169992856871
 30
0.0
 11
-249.6138961838075
 21
-1761.31699812229
 31
0.0
  0
LINE
  5
1848B
  8
0
 10
-245.6138961838075
 20
-1760.5170074294711
 30
0.0
 11
-246.1138961838075
 21
-1760.4170062660739
 31
0.0
  0
LINE
  5
1848C
  8
0
 10
-249.6138961838075
 20
-1761.31699812229
 30
0.0
 11
-245.6138961838075
 21
-1760.5170074294711
 31
0.0
  0
LINE
  5
1848D
  8
0
 10
-249.1138961838075
 20
-1759.816999285687
 30
0.0
 11
-249.6138961838075
 21
-1759.7169981222889
 31
0.0
  0
LINE
  5
1848E
  8
0
 10
-245.6138961838075
 20
-1763.7170074294761
 30
0.0
 11
-246.1138961838075
 21
-1763.6170062660781
 31
0.0
  0
LINE
  5
1848F
  8
0
 10
-249.1138961838075
 20
-1763.016999285687
 30
0.0
 11
-249.6138961838075
 21
-1762.9169981222899
 31
0.0
  0
LINE
  5
18490
  8
0
 10
-249.1138961838075
 20
-1764.6169992856919
 30
0.0
 11
-249.6138961838075
 21
-1764.5169981222939
 31
0.0
  0
LINE
  5
18491
  8
0
 10
-251.61394271970539
 20
-1777.916993468483
 30
0.0
 11
-243.61394271970539
 21
-1777.9170120828419
 31
0.0
  0
LINE
  5
18493
  8
1CENTER
 10
-51.613942719705392
 20
-1736.7625065850259
 30
0.0
 11
-51.613942719705392
 21
-1779.5956396324
 31
0.0
  0
LINE
  5
18494
  8
0
 10
-53.613896183807462
 20
-1753.3169981222891
 30
0.0
 11
-49.613896183807462
 21
-1752.517007429467
 31
0.0
  0
LINE
  5
18495
  8
0
 10
-49.613896183807462
 20
-1752.517007429467
 30
0.0
 11
-50.113896183807462
 21
-1752.4170062660689
 31
0.0
  0
LINE
  5
18496
  8
0
 10
-52.692981586598748
 20
-1742.02976868825
 30
0.0
 11
-53.161080041748718
 21
-1741.9169991758999
 31
0.0
  0
LINE
  5
18497
  8
0
 10
-50.745931444825018
 20
-1739.517004795453
 30
0.0
 11
-51.33420801986744
 21
-1739.2052349392011
 31
0.0
  0
LINE
  5
18498
  8
0
 10
-52.251094693069369
 20
-1740.4684360259439
 30
0.0
 11
-52.708266533700439
 21
-1740.3170002295039
 31
0.0
  0
LINE
  5
18499
  8
0
 10
-50.29311734041822
 20
-1741.1170058490591
 30
0.0
 11
-50.844866804221503
 21
-1740.9342417064299
 31
0.0
  0
LINE
  5
1849A
  8
0
 10
-52.708266533700439
 20
-1740.3170002295039
 30
0.0
 11
-50.745931444825018
 21
-1739.517004795453
 31
0.0
  0
LINE
  5
1849B
  8
0
 10
-53.161080041748718
 20
-1741.9169991758999
 30
0.0
 11
-50.29311734041822
 21
-1741.1170058490591
 31
0.0
  0
LINE
  5
1849C
  8
0
 10
-53.613896183807462
 20
-1751.7169981222889
 30
0.0
 11
-49.613896183807462
 21
-1750.917007429467
 31
0.0
  0
LINE
  5
1849D
  8
0
 10
-53.613896183807462
 20
-1750.116998122289
 30
0.0
 11
-49.613896183807462
 21
-1749.3170074294669
 31
0.0
  0
LINE
  5
1849E
  8
0
 10
-53.113896183807462
 20
-1750.2169992856871
 30
0.0
 11
-53.613896183807462
 21
-1750.116998122289
 31
0.0
  0
LINE
  5
1849F
  8
0
 10
-49.613896183807462
 20
-1749.3170074294669
 30
0.0
 11
-50.113896183807462
 21
-1749.21700626607
 31
0.0
  0
LINE
  5
184A0
  8
0
 10
-49.613896183807462
 20
-1750.917007429467
 30
0.0
 11
-50.113896183807462
 21
-1750.8170062660699
 31
0.0
  0
LINE
  5
184A1
  8
0
 10
-49.840303236011422
 20
-1742.717006902664
 30
0.0
 11
-50.376896971282569
 21
-1742.5877362050339
 31
0.0
  0
LINE
  5
184A2
  8
0
 10
-53.613896183807462
 20
-1743.5169981222889
 30
0.0
 11
-49.840303236011422
 21
-1742.717006902664
 31
0.0
  0
LINE
  5
184A3
  8
0
 10
-53.113896183807462
 20
-1743.6169992856869
 30
0.0
 11
-53.613896183807462
 21
-1743.5169981222889
 31
0.0
  0
LINE
  5
184A4
  8
0
 10
-53.113896183807462
 20
-1751.816999285687
 30
0.0
 11
-53.613896183807462
 21
-1751.7169981222889
 31
0.0
  0
LINE
  5
184A5
  8
0
 10
-53.613896183807462
 20
-1756.51699812229
 30
0.0
 11
-49.613896183807462
 21
-1755.717007429467
 31
0.0
  0
LINE
  5
184A6
  8
0
 10
-53.613896183807462
 20
-1754.916998122289
 30
0.0
 11
-49.613896183807462
 21
-1754.1170074294671
 31
0.0
  0
LINE
  5
184A7
  8
0
 10
-53.113896183807462
 20
-1753.416999285686
 30
0.0
 11
-53.613896183807462
 21
-1753.3169981222891
 31
0.0
  0
LINE
  5
184A8
  8
0
 10
-53.113896183807462
 20
-1755.0169992856861
 30
0.0
 11
-53.613896183807462
 21
-1754.916998122289
 31
0.0
  0
LINE
  5
184A9
  8
0
 10
-49.613896183807462
 20
-1754.1170074294671
 30
0.0
 11
-50.113896183807462
 21
-1754.01700626607
 31
0.0
  0
LINE
  5
184AA
  8
0
 10
-49.613896183807462
 20
-1755.717007429467
 30
0.0
 11
-50.113896183807462
 21
-1755.6170062660699
 31
0.0
  0
LINE
  5
184AB
  8
0
 10
-53.113896183807462
 20
-1756.6169992856869
 30
0.0
 11
-53.613896183807462
 21
-1756.51699812229
 31
0.0
  0
LINE
  5
184AC
  8
0
 10
-49.613896183807462
 20
-1747.717007429467
 30
0.0
 11
-50.113896183807462
 21
-1747.6170062660699
 31
0.0
  0
LINE
  5
184AD
  8
0
 10
-53.613896183807462
 20
-1748.5169981222889
 30
0.0
 11
-49.613896183807462
 21
-1747.717007429467
 31
0.0
  0
LINE
  5
184AE
  8
0
 10
-53.113896183807462
 20
-1748.6169992856869
 30
0.0
 11
-53.613896183807462
 21
-1748.5169981222889
 31
0.0
  0
LINE
  5
184AF
  8
0
 10
-53.613896183807462
 20
-1746.916998122289
 30
0.0
 11
-49.613896183807462
 21
-1746.117007429466
 31
0.0
  0
LINE
  5
184B0
  8
0
 10
-49.613896183807462
 20
-1746.117007429466
 30
0.0
 11
-50.113896183807462
 21
-1746.01700626607
 31
0.0
  0
LINE
  5
184B1
  8
0
 10
-53.113896183807462
 20
-1747.0169992856861
 30
0.0
 11
-53.613896183807462
 21
-1746.916998122289
 31
0.0
  0
LINE
  5
184B2
  8
0
 10
-49.613896183807462
 20
-1744.517007429467
 30
0.0
 11
-50.113896183807462
 21
-1744.4170062660701
 31
0.0
  0
LINE
  5
184B3
  8
0
 10
-53.613896183807462
 20
-1745.3169981222891
 30
0.0
 11
-49.613896183807462
 21
-1744.517007429467
 31
0.0
  0
LINE
  5
184B4
  8
0
 10
-53.113896183807462
 20
-1745.416999285686
 30
0.0
 11
-53.613896183807462
 21
-1745.3169981222891
 31
0.0
  0
LINE
  5
184B5
  8
0
 10
-51.613942719705392
 20
-1775.31701208296
 30
0.0
 11
-49.613896183807469
 21
-1774.91700742948
 31
0.0
  0
LINE
  5
184B6
  8
0
 10
-53.613896183807469
 20
-1766.1169981222979
 30
0.0
 11
-49.613896183807469
 21
-1765.317007429476
 31
0.0
  0
LINE
  5
184B7
  8
0
 10
-53.613896183807469
 20
-1762.9169981222899
 30
0.0
 11
-49.613896183807469
 21
-1762.117007429471
 31
0.0
  0
LINE
  5
184B8
  8
0
 10
-49.613896183807469
 20
-1773.317007429476
 30
0.0
 11
-50.113896183807462
 21
-1773.2170062660789
 31
0.0
  0
LINE
  5
184B9
  8
0
 10
-49.613896183807469
 20
-1774.91700742948
 30
0.0
 11
-50.113896183807462
 21
-1774.817006266082
 31
0.0
  0
LINE
  5
184BA
  8
0
 10
-53.113896183807469
 20
-1774.2169992856959
 30
0.0
 11
-53.613896183807469
 21
-1774.1169981222979
 31
0.0
  0
LINE
  5
184BB
  8
0
 10
-53.613896183807469
 20
-1774.1169981222979
 30
0.0
 11
-49.613896183807469
 21
-1773.317007429476
 31
0.0
  0
LINE
  5
184BC
  8
0
 10
-53.113896183807469
 20
-1772.6169992856951
 30
0.0
 11
-53.613896183807469
 21
-1772.5169981222989
 31
0.0
  0
LINE
  5
184BD
  8
0
 10
-49.613896183807469
 20
-1771.7170074294761
 30
0.0
 11
-50.113896183807462
 21
-1771.617006266079
 31
0.0
  0
LINE
  5
184BE
  8
0
 10
-49.613896183807469
 20
-1770.117007429476
 30
0.0
 11
-50.113896183807462
 21
-1770.0170062660779
 31
0.0
  0
LINE
  5
184BF
  8
0
 10
-53.113896183807469
 20
-1771.016999285695
 30
0.0
 11
-53.613896183807469
 21
-1770.9169981222981
 31
0.0
  0
LINE
  5
184C0
  8
0
 10
-53.113896183807469
 20
-1769.4169992856951
 30
0.0
 11
-53.613896183807469
 21
-1769.3169981222979
 31
0.0
  0
LINE
  5
184C1
  8
0
 10
-53.613896183807469
 20
-1770.9169981222981
 30
0.0
 11
-49.613896183807469
 21
-1770.117007429476
 31
0.0
  0
LINE
  5
184C2
  8
0
 10
-53.613896183807469
 20
-1772.5169981222989
 30
0.0
 11
-49.613896183807469
 21
-1771.7170074294761
 31
0.0
  0
LINE
  5
184C3
  8
0
 10
-53.113896183807469
 20
-1767.8169992856949
 30
0.0
 11
-53.613896183807469
 21
-1767.716998122298
 31
0.0
  0
LINE
  5
184C4
  8
0
 10
-49.613896183807469
 20
-1766.9170074294759
 30
0.0
 11
-50.113896183807462
 21
-1766.817006266079
 31
0.0
  0
LINE
  5
184C5
  8
0
 10
-49.613896183807469
 20
-1765.317007429476
 30
0.0
 11
-50.113896183807462
 21
-1765.2170062660789
 31
0.0
  0
LINE
  5
184C6
  8
0
 10
-53.113896183807469
 20
-1766.216999285695
 30
0.0
 11
-53.613896183807469
 21
-1766.1169981222979
 31
0.0
  0
LINE
  5
184C7
  8
0
 10
-53.613896183807469
 20
-1767.716998122298
 30
0.0
 11
-49.613896183807469
 21
-1766.9170074294759
 31
0.0
  0
LINE
  5
184C8
  8
0
 10
-49.613896183807469
 20
-1768.5170074294761
 30
0.0
 11
-50.113896183807462
 21
-1768.417006266078
 31
0.0
  0
LINE
  5
184C9
  8
0
 10
-53.613896183807469
 20
-1769.3169981222979
 30
0.0
 11
-49.613896183807469
 21
-1768.5170074294761
 31
0.0
  0
LINE
  5
184CA
  8
0
 10
-53.613896183807469
 20
-1764.5169981222939
 30
0.0
 11
-49.613896183807469
 21
-1763.7170074294761
 31
0.0
  0
LINE
  5
184CB
  8
0
 10
-53.613896183807469
 20
-1759.7169981222889
 30
0.0
 11
-49.613896183807469
 21
-1758.9170074294709
 31
0.0
  0
LINE
  5
184CC
  8
0
 10
-53.613896183807462
 20
-1758.116998122289
 30
0.0
 11
-49.613896183807462
 21
-1757.3170074294669
 31
0.0
  0
LINE
  5
184CD
  8
0
 10
-53.113896183807462
 20
-1758.2169992856871
 30
0.0
 11
-53.613896183807462
 21
-1758.116998122289
 31
0.0
  0
LINE
  5
184CE
  8
0
 10
-49.613896183807469
 20
-1758.9170074294709
 30
0.0
 11
-50.113896183807462
 21
-1758.8170062660729
 31
0.0
  0
LINE
  5
184CF
  8
0
 10
-49.613896183807462
 20
-1757.3170074294669
 30
0.0
 11
-50.113896183807462
 21
-1757.21700626607
 31
0.0
  0
LINE
  5
184D0
  8
0
 10
-49.613896183807469
 20
-1762.117007429471
 30
0.0
 11
-50.113896183807462
 21
-1762.0170062660741
 31
0.0
  0
LINE
  5
184D1
  8
0
 10
-53.113896183807469
 20
-1761.4169992856871
 30
0.0
 11
-53.613896183807469
 21
-1761.31699812229
 31
0.0
  0
LINE
  5
184D2
  8
0
 10
-49.613896183807469
 20
-1760.5170074294711
 30
0.0
 11
-50.113896183807462
 21
-1760.4170062660739
 31
0.0
  0
LINE
  5
184D3
  8
0
 10
-53.613896183807469
 20
-1761.31699812229
 30
0.0
 11
-49.613896183807469
 21
-1760.5170074294711
 31
0.0
  0
LINE
  5
184D4
  8
0
 10
-53.113896183807469
 20
-1759.816999285687
 30
0.0
 11
-53.613896183807469
 21
-1759.7169981222889
 31
0.0
  0
LINE
  5
184D5
  8
0
 10
-49.613896183807469
 20
-1763.7170074294761
 30
0.0
 11
-50.113896183807462
 21
-1763.6170062660781
 31
0.0
  0
LINE
  5
184D6
  8
0
 10
-53.113896183807469
 20
-1763.016999285687
 30
0.0
 11
-53.613896183807469
 21
-1762.9169981222899
 31
0.0
  0
LINE
  5
184D7
  8
0
 10
-53.113896183807469
 20
-1764.6169992856919
 30
0.0
 11
-53.613896183807469
 21
-1764.5169981222939
 31
0.0
  0
LINE
  5
184D8
  8
0
 10
-55.613942719705392
 20
-1777.916993468483
 30
0.0
 11
-47.613942719705392
 21
-1777.9170120828419
 31
0.0
  0
LINE
  5
184DA
  8
1CENTER
 10
144.38605728029461
 20
-1736.7625065850259
 30
0.0
 11
144.38605728029461
 21
-1779.5956396324
 31
0.0
  0
LINE
  5
184DB
  8
0
 10
142.3861038161925
 20
-1753.3169981222891
 30
0.0
 11
146.3861038161925
 21
-1752.517007429467
 31
0.0
  0
LINE
  5
184DC
  8
0
 10
146.3861038161925
 20
-1752.517007429467
 30
0.0
 11
145.8861038161925
 21
-1752.4170062660689
 31
0.0
  0
LINE
  5
184DD
  8
0
 10
143.30701841340121
 20
-1742.02976868825
 30
0.0
 11
142.83891995825121
 21
-1741.9169991758999
 31
0.0
  0
LINE
  5
184DE
  8
0
 10
145.25406855517491
 20
-1739.517004795453
 30
0.0
 11
144.6657919801325
 21
-1739.2052349392011
 31
0.0
  0
LINE
  5
184DF
  8
0
 10
143.7489053069306
 20
-1740.4684360259439
 30
0.0
 11
143.29173346629949
 21
-1740.3170002295039
 31
0.0
  0
LINE
  5
184E0
  8
0
 10
145.70688265958171
 20
-1741.1170058490591
 30
0.0
 11
145.15513319577849
 21
-1740.9342417064299
 31
0.0
  0
LINE
  5
184E1
  8
0
 10
143.29173346629949
 20
-1740.3170002295039
 30
0.0
 11
145.25406855517491
 21
-1739.517004795453
 31
0.0
  0
LINE
  5
184E2
  8
0
 10
142.83891995825121
 20
-1741.9169991758999
 30
0.0
 11
145.70688265958171
 21
-1741.1170058490591
 31
0.0
  0
LINE
  5
184E3
  8
0
 10
142.3861038161925
 20
-1751.7169981222889
 30
0.0
 11
146.3861038161925
 21
-1750.917007429467
 31
0.0
  0
LINE
  5
184E4
  8
0
 10
142.3861038161925
 20
-1750.116998122289
 30
0.0
 11
146.3861038161925
 21
-1749.3170074294669
 31
0.0
  0
LINE
  5
184E5
  8
0
 10
142.8861038161925
 20
-1750.2169992856871
 30
0.0
 11
142.3861038161925
 21
-1750.116998122289
 31
0.0
  0
LINE
  5
184E6
  8
0
 10
146.3861038161925
 20
-1749.3170074294669
 30
0.0
 11
145.8861038161925
 21
-1749.21700626607
 31
0.0
  0
LINE
  5
184E7
  8
0
 10
146.3861038161925
 20
-1750.917007429467
 30
0.0
 11
145.8861038161925
 21
-1750.8170062660699
 31
0.0
  0
LINE
  5
184E8
  8
0
 10
146.15969676398851
 20
-1742.717006902664
 30
0.0
 11
145.6231030287174
 21
-1742.5877362050339
 31
0.0
  0
LINE
  5
184E9
  8
0
 10
142.3861038161925
 20
-1743.5169981222889
 30
0.0
 11
146.15969676398851
 21
-1742.717006902664
 31
0.0
  0
LINE
  5
184EA
  8
0
 10
142.8861038161925
 20
-1743.6169992856869
 30
0.0
 11
142.3861038161925
 21
-1743.5169981222889
 31
0.0
  0
LINE
  5
184EB
  8
0
 10
142.8861038161925
 20
-1751.816999285687
 30
0.0
 11
142.3861038161925
 21
-1751.7169981222889
 31
0.0
  0
LINE
  5
184EC
  8
0
 10
142.3861038161925
 20
-1756.51699812229
 30
0.0
 11
146.3861038161925
 21
-1755.717007429467
 31
0.0
  0
LINE
  5
184ED
  8
0
 10
142.3861038161925
 20
-1754.916998122289
 30
0.0
 11
146.3861038161925
 21
-1754.1170074294671
 31
0.0
  0
LINE
  5
184EE
  8
0
 10
142.8861038161925
 20
-1753.416999285686
 30
0.0
 11
142.3861038161925
 21
-1753.3169981222891
 31
0.0
  0
LINE
  5
184EF
  8
0
 10
142.8861038161925
 20
-1755.0169992856861
 30
0.0
 11
142.3861038161925
 21
-1754.916998122289
 31
0.0
  0
LINE
  5
184F0
  8
0
 10
146.3861038161925
 20
-1754.1170074294671
 30
0.0
 11
145.8861038161925
 21
-1754.01700626607
 31
0.0
  0
LINE
  5
184F1
  8
0
 10
146.3861038161925
 20
-1755.717007429467
 30
0.0
 11
145.8861038161925
 21
-1755.6170062660699
 31
0.0
  0
LINE
  5
184F2
  8
0
 10
142.8861038161925
 20
-1756.6169992856869
 30
0.0
 11
142.3861038161925
 21
-1756.51699812229
 31
0.0
  0
LINE
  5
184F3
  8
0
 10
146.3861038161925
 20
-1747.717007429467
 30
0.0
 11
145.8861038161925
 21
-1747.6170062660699
 31
0.0
  0
LINE
  5
184F4
  8
0
 10
142.3861038161925
 20
-1748.5169981222889
 30
0.0
 11
146.3861038161925
 21
-1747.717007429467
 31
0.0
  0
LINE
  5
184F5
  8
0
 10
142.8861038161925
 20
-1748.6169992856869
 30
0.0
 11
142.3861038161925
 21
-1748.5169981222889
 31
0.0
  0
LINE
  5
184F6
  8
0
 10
142.3861038161925
 20
-1746.916998122289
 30
0.0
 11
146.3861038161925
 21
-1746.117007429466
 31
0.0
  0
LINE
  5
184F7
  8
0
 10
146.3861038161925
 20
-1746.117007429466
 30
0.0
 11
145.8861038161925
 21
-1746.01700626607
 31
0.0
  0
LINE
  5
184F8
  8
0
 10
142.8861038161925
 20
-1747.0169992856861
 30
0.0
 11
142.3861038161925
 21
-1746.916998122289
 31
0.0
  0
LINE
  5
184F9
  8
0
 10
146.3861038161925
 20
-1744.517007429467
 30
0.0
 11
145.8861038161925
 21
-1744.4170062660701
 31
0.0
  0
LINE
  5
184FA
  8
0
 10
142.3861038161925
 20
-1745.3169981222891
 30
0.0
 11
146.3861038161925
 21
-1744.517007429467
 31
0.0
  0
LINE
  5
184FB
  8
0
 10
142.8861038161925
 20
-1745.416999285686
 30
0.0
 11
142.3861038161925
 21
-1745.3169981222891
 31
0.0
  0
LINE
  5
184FC
  8
0
 10
144.38605728029461
 20
-1775.31701208296
 30
0.0
 11
146.3861038161925
 21
-1774.91700742948
 31
0.0
  0
LINE
  5
184FD
  8
0
 10
142.3861038161925
 20
-1766.1169981222979
 30
0.0
 11
146.3861038161925
 21
-1765.317007429476
 31
0.0
  0
LINE
  5
184FE
  8
0
 10
142.3861038161925
 20
-1762.9169981222899
 30
0.0
 11
146.3861038161925
 21
-1762.117007429471
 31
0.0
  0
LINE
  5
184FF
  8
0
 10
146.3861038161925
 20
-1773.317007429476
 30
0.0
 11
145.8861038161925
 21
-1773.2170062660789
 31
0.0
  0
LINE
  5
18500
  8
0
 10
146.3861038161925
 20
-1774.91700742948
 30
0.0
 11
145.8861038161925
 21
-1774.817006266082
 31
0.0
  0
LINE
  5
18501
  8
0
 10
142.8861038161925
 20
-1774.2169992856959
 30
0.0
 11
142.3861038161925
 21
-1774.1169981222979
 31
0.0
  0
LINE
  5
18502
  8
0
 10
142.3861038161925
 20
-1774.1169981222979
 30
0.0
 11
146.3861038161925
 21
-1773.317007429476
 31
0.0
  0
LINE
  5
18503
  8
0
 10
142.8861038161925
 20
-1772.6169992856951
 30
0.0
 11
142.3861038161925
 21
-1772.5169981222989
 31
0.0
  0
LINE
  5
18504
  8
0
 10
146.3861038161925
 20
-1771.7170074294761
 30
0.0
 11
145.8861038161925
 21
-1771.617006266079
 31
0.0
  0
LINE
  5
18505
  8
0
 10
146.3861038161925
 20
-1770.117007429476
 30
0.0
 11
145.8861038161925
 21
-1770.0170062660779
 31
0.0
  0
LINE
  5
18506
  8
0
 10
142.8861038161925
 20
-1771.016999285695
 30
0.0
 11
142.3861038161925
 21
-1770.9169981222981
 31
0.0
  0
LINE
  5
18507
  8
0
 10
142.8861038161925
 20
-1769.4169992856951
 30
0.0
 11
142.3861038161925
 21
-1769.3169981222979
 31
0.0
  0
LINE
  5
18508
  8
0
 10
142.3861038161925
 20
-1770.9169981222981
 30
0.0
 11
146.3861038161925
 21
-1770.117007429476
 31
0.0
  0
LINE
  5
18509
  8
0
 10
142.3861038161925
 20
-1772.5169981222989
 30
0.0
 11
146.3861038161925
 21
-1771.7170074294761
 31
0.0
  0
LINE
  5
1850A
  8
0
 10
142.8861038161925
 20
-1767.8169992856949
 30
0.0
 11
142.3861038161925
 21
-1767.716998122298
 31
0.0
  0
LINE
  5
1850B
  8
0
 10
146.3861038161925
 20
-1766.9170074294759
 30
0.0
 11
145.8861038161925
 21
-1766.817006266079
 31
0.0
  0
LINE
  5
1850C
  8
0
 10
146.3861038161925
 20
-1765.317007429476
 30
0.0
 11
145.8861038161925
 21
-1765.2170062660789
 31
0.0
  0
LINE
  5
1850D
  8
0
 10
142.8861038161925
 20
-1766.216999285695
 30
0.0
 11
142.3861038161925
 21
-1766.1169981222979
 31
0.0
  0
LINE
  5
1850E
  8
0
 10
142.3861038161925
 20
-1767.716998122298
 30
0.0
 11
146.3861038161925
 21
-1766.9170074294759
 31
0.0
  0
LINE
  5
1850F
  8
0
 10
146.3861038161925
 20
-1768.5170074294761
 30
0.0
 11
145.8861038161925
 21
-1768.417006266078
 31
0.0
  0
LINE
  5
18510
  8
0
 10
142.3861038161925
 20
-1769.3169981222979
 30
0.0
 11
146.3861038161925
 21
-1768.5170074294761
 31
0.0
  0
LINE
  5
18511
  8
0
 10
142.3861038161925
 20
-1764.5169981222939
 30
0.0
 11
146.3861038161925
 21
-1763.7170074294761
 31
0.0
  0
LINE
  5
18512
  8
0
 10
142.3861038161925
 20
-1759.7169981222889
 30
0.0
 11
146.3861038161925
 21
-1758.9170074294709
 31
0.0
  0
LINE
  5
18513
  8
0
 10
142.3861038161925
 20
-1758.116998122289
 30
0.0
 11
146.3861038161925
 21
-1757.3170074294669
 31
0.0
  0
LINE
  5
18514
  8
0
 10
142.8861038161925
 20
-1758.2169992856871
 30
0.0
 11
142.3861038161925
 21
-1758.116998122289
 31
0.0
  0
LINE
  5
18515
  8
0
 10
146.3861038161925
 20
-1758.9170074294709
 30
0.0
 11
145.8861038161925
 21
-1758.8170062660729
 31
0.0
  0
LINE
  5
18516
  8
0
 10
146.3861038161925
 20
-1757.3170074294669
 30
0.0
 11
145.8861038161925
 21
-1757.21700626607
 31
0.0
  0
LINE
  5
18517
  8
0
 10
146.3861038161925
 20
-1762.117007429471
 30
0.0
 11
145.8861038161925
 21
-1762.0170062660741
 31
0.0
  0
LINE
  5
18518
  8
0
 10
142.8861038161925
 20
-1761.4169992856871
 30
0.0
 11
142.3861038161925
 21
-1761.31699812229
 31
0.0
  0
LINE
  5
18519
  8
0
 10
146.3861038161925
 20
-1760.5170074294711
 30
0.0
 11
145.8861038161925
 21
-1760.4170062660739
 31
0.0
  0
LINE
  5
1851A
  8
0
 10
142.3861038161925
 20
-1761.31699812229
 30
0.0
 11
146.3861038161925
 21
-1760.5170074294711
 31
0.0
  0
LINE
  5
1851B
  8
0
 10
142.8861038161925
 20
-1759.816999285687
 30
0.0
 11
142.3861038161925
 21
-1759.7169981222889
 31
0.0
  0
LINE
  5
1851C
  8
0
 10
146.3861038161925
 20
-1763.7170074294761
 30
0.0
 11
145.8861038161925
 21
-1763.6170062660781
 31
0.0
  0
LINE
  5
1851D
  8
0
 10
142.8861038161925
 20
-1763.016999285687
 30
0.0
 11
142.3861038161925
 21
-1762.9169981222899
 31
0.0
  0
LINE
  5
1851E
  8
0
 10
142.8861038161925
 20
-1764.6169992856919
 30
0.0
 11
142.3861038161925
 21
-1764.5169981222939
 31
0.0
  0
LINE
  5
1851F
  8
0
 10
140.38605728029461
 20
-1777.916993468483
 30
0.0
 11
148.38605728029461
 21
-1777.9170120828419
 31
0.0
  0
LINE
  5
18521
  8
1CENTER
 10
340.38605728029461
 20
-1736.7625065850259
 30
0.0
 11
340.38605728029461
 21
-1779.5956396324
 31
0.0
  0
LINE
  5
18522
  8
0
 10
338.38610381619247
 20
-1753.3169981222891
 30
0.0
 11
342.38610381619247
 21
-1752.517007429467
 31
0.0
  0
LINE
  5
18523
  8
0
 10
342.38610381619247
 20
-1752.517007429467
 30
0.0
 11
341.88610381619247
 21
-1752.4170062660689
 31
0.0
  0
LINE
  5
18524
  8
0
 10
339.30701841340118
 20
-1742.02976868825
 30
0.0
 11
338.83891995825132
 21
-1741.9169991758999
 31
0.0
  0
LINE
  5
18525
  8
0
 10
341.25406855517502
 20
-1739.517004795453
 30
0.0
 11
340.66579198013261
 21
-1739.2052349392011
 31
0.0
  0
LINE
  5
18526
  8
0
 10
339.74890530693062
 20
-1740.4684360259439
 30
0.0
 11
339.2917334662996
 21
-1740.3170002295039
 31
0.0
  0
LINE
  5
18527
  8
0
 10
341.70688265958182
 20
-1741.1170058490591
 30
0.0
 11
341.15513319577849
 21
-1740.9342417064299
 31
0.0
  0
LINE
  5
18528
  8
0
 10
339.2917334662996
 20
-1740.3170002295039
 30
0.0
 11
341.25406855517502
 21
-1739.517004795453
 31
0.0
  0
LINE
  5
18529
  8
0
 10
338.83891995825132
 20
-1741.9169991758999
 30
0.0
 11
341.70688265958182
 21
-1741.1170058490591
 31
0.0
  0
LINE
  5
1852A
  8
0
 10
338.38610381619247
 20
-1751.7169981222889
 30
0.0
 11
342.38610381619247
 21
-1750.917007429467
 31
0.0
  0
LINE
  5
1852B
  8
0
 10
338.38610381619247
 20
-1750.116998122289
 30
0.0
 11
342.38610381619247
 21
-1749.3170074294669
 31
0.0
  0
LINE
  5
1852C
  8
0
 10
338.88610381619247
 20
-1750.2169992856871
 30
0.0
 11
338.38610381619247
 21
-1750.116998122289
 31
0.0
  0
LINE
  5
1852D
  8
0
 10
342.38610381619247
 20
-1749.3170074294669
 30
0.0
 11
341.88610381619247
 21
-1749.21700626607
 31
0.0
  0
LINE
  5
1852E
  8
0
 10
342.38610381619247
 20
-1750.917007429467
 30
0.0
 11
341.88610381619247
 21
-1750.8170062660699
 31
0.0
  0
LINE
  5
1852F
  8
0
 10
342.15969676398862
 20
-1742.717006902664
 30
0.0
 11
341.62310302871742
 21
-1742.5877362050339
 31
0.0
  0
LINE
  5
18530
  8
0
 10
338.38610381619247
 20
-1743.5169981222889
 30
0.0
 11
342.15969676398862
 21
-1742.717006902664
 31
0.0
  0
LINE
  5
18531
  8
0
 10
338.88610381619247
 20
-1743.6169992856869
 30
0.0
 11
338.38610381619247
 21
-1743.5169981222889
 31
0.0
  0
LINE
  5
18532
  8
0
 10
338.88610381619247
 20
-1751.816999285687
 30
0.0
 11
338.38610381619247
 21
-1751.7169981222889
 31
0.0
  0
LINE
  5
18533
  8
0
 10
338.38610381619247
 20
-1756.51699812229
 30
0.0
 11
342.38610381619247
 21
-1755.717007429467
 31
0.0
  0
LINE
  5
18534
  8
0
 10
338.38610381619247
 20
-1754.916998122289
 30
0.0
 11
342.38610381619247
 21
-1754.1170074294671
 31
0.0
  0
LINE
  5
18535
  8
0
 10
338.88610381619247
 20
-1753.416999285686
 30
0.0
 11
338.38610381619247
 21
-1753.3169981222891
 31
0.0
  0
LINE
  5
18536
  8
0
 10
338.88610381619247
 20
-1755.0169992856861
 30
0.0
 11
338.38610381619247
 21
-1754.916998122289
 31
0.0
  0
LINE
  5
18537
  8
0
 10
342.38610381619247
 20
-1754.1170074294671
 30
0.0
 11
341.88610381619247
 21
-1754.01700626607
 31
0.0
  0
LINE
  5
18538
  8
0
 10
342.38610381619247
 20
-1755.717007429467
 30
0.0
 11
341.88610381619247
 21
-1755.6170062660699
 31
0.0
  0
LINE
  5
18539
  8
0
 10
338.88610381619247
 20
-1756.6169992856869
 30
0.0
 11
338.38610381619247
 21
-1756.51699812229
 31
0.0
  0
LINE
  5
1853A
  8
0
 10
342.38610381619247
 20
-1747.717007429467
 30
0.0
 11
341.88610381619247
 21
-1747.6170062660699
 31
0.0
  0
LINE
  5
1853B
  8
0
 10
338.38610381619247
 20
-1748.5169981222889
 30
0.0
 11
342.38610381619247
 21
-1747.717007429467
 31
0.0
  0
LINE
  5
1853C
  8
0
 10
338.88610381619247
 20
-1748.6169992856869
 30
0.0
 11
338.38610381619247
 21
-1748.5169981222889
 31
0.0
  0
LINE
  5
1853D
  8
0
 10
338.38610381619247
 20
-1746.916998122289
 30
0.0
 11
342.38610381619247
 21
-1746.117007429466
 31
0.0
  0
LINE
  5
1853E
  8
0
 10
342.38610381619247
 20
-1746.117007429466
 30
0.0
 11
341.88610381619247
 21
-1746.01700626607
 31
0.0
  0
LINE
  5
1853F
  8
0
 10
338.88610381619247
 20
-1747.0169992856861
 30
0.0
 11
338.38610381619247
 21
-1746.916998122289
 31
0.0
  0
LINE
  5
18540
  8
0
 10
342.38610381619247
 20
-1744.517007429467
 30
0.0
 11
341.88610381619247
 21
-1744.4170062660701
 31
0.0
  0
LINE
  5
18541
  8
0
 10
338.38610381619247
 20
-1745.3169981222891
 30
0.0
 11
342.38610381619247
 21
-1744.517007429467
 31
0.0
  0
LINE
  5
18542
  8
0
 10
338.88610381619247
 20
-1745.416999285686
 30
0.0
 11
338.38610381619247
 21
-1745.3169981222891
 31
0.0
  0
LINE
  5
18543
  8
0
 10
340.38605728029461
 20
-1775.31701208296
 30
0.0
 11
342.38610381619247
 21
-1774.91700742948
 31
0.0
  0
LINE
  5
18544
  8
0
 10
338.38610381619247
 20
-1766.1169981222979
 30
0.0
 11
342.38610381619247
 21
-1765.317007429476
 31
0.0
  0
LINE
  5
18545
  8
0
 10
338.38610381619247
 20
-1762.9169981222899
 30
0.0
 11
342.38610381619247
 21
-1762.117007429471
 31
0.0
  0
LINE
  5
18546
  8
0
 10
342.38610381619247
 20
-1773.317007429476
 30
0.0
 11
341.88610381619247
 21
-1773.2170062660789
 31
0.0
  0
LINE
  5
18547
  8
0
 10
342.38610381619247
 20
-1774.91700742948
 30
0.0
 11
341.88610381619247
 21
-1774.817006266082
 31
0.0
  0
LINE
  5
18548
  8
0
 10
338.88610381619247
 20
-1774.2169992856959
 30
0.0
 11
338.38610381619247
 21
-1774.1169981222979
 31
0.0
  0
LINE
  5
18549
  8
0
 10
338.38610381619247
 20
-1774.1169981222979
 30
0.0
 11
342.38610381619247
 21
-1773.317007429476
 31
0.0
  0
LINE
  5
1854A
  8
0
 10
338.88610381619247
 20
-1772.6169992856951
 30
0.0
 11
338.38610381619247
 21
-1772.5169981222989
 31
0.0
  0
LINE
  5
1854B
  8
0
 10
342.38610381619247
 20
-1771.7170074294761
 30
0.0
 11
341.88610381619247
 21
-1771.617006266079
 31
0.0
  0
LINE
  5
1854C
  8
0
 10
342.38610381619247
 20
-1770.117007429476
 30
0.0
 11
341.88610381619247
 21
-1770.0170062660779
 31
0.0
  0
LINE
  5
1854D
  8
0
 10
338.88610381619247
 20
-1771.016999285695
 30
0.0
 11
338.38610381619247
 21
-1770.9169981222981
 31
0.0
  0
LINE
  5
1854E
  8
0
 10
338.88610381619247
 20
-1769.4169992856951
 30
0.0
 11
338.38610381619247
 21
-1769.3169981222979
 31
0.0
  0
LINE
  5
1854F
  8
0
 10
338.38610381619247
 20
-1770.9169981222981
 30
0.0
 11
342.38610381619247
 21
-1770.117007429476
 31
0.0
  0
LINE
  5
18550
  8
0
 10
338.38610381619247
 20
-1772.5169981222989
 30
0.0
 11
342.38610381619247
 21
-1771.7170074294761
 31
0.0
  0
LINE
  5
18551
  8
0
 10
338.88610381619247
 20
-1767.8169992856949
 30
0.0
 11
338.38610381619247
 21
-1767.716998122298
 31
0.0
  0
LINE
  5
18552
  8
0
 10
342.38610381619247
 20
-1766.9170074294759
 30
0.0
 11
341.88610381619247
 21
-1766.817006266079
 31
0.0
  0
LINE
  5
18553
  8
0
 10
342.38610381619247
 20
-1765.317007429476
 30
0.0
 11
341.88610381619247
 21
-1765.2170062660789
 31
0.0
  0
LINE
  5
18554
  8
0
 10
338.88610381619247
 20
-1766.216999285695
 30
0.0
 11
338.38610381619247
 21
-1766.1169981222979
 31
0.0
  0
LINE
  5
18555
  8
0
 10
338.38610381619247
 20
-1767.716998122298
 30
0.0
 11
342.38610381619247
 21
-1766.9170074294759
 31
0.0
  0
LINE
  5
18556
  8
0
 10
342.38610381619247
 20
-1768.5170074294761
 30
0.0
 11
341.88610381619247
 21
-1768.417006266078
 31
0.0
  0
LINE
  5
18557
  8
0
 10
338.38610381619247
 20
-1769.3169981222979
 30
0.0
 11
342.38610381619247
 21
-1768.5170074294761
 31
0.0
  0
LINE
  5
18558
  8
0
 10
338.38610381619247
 20
-1764.5169981222939
 30
0.0
 11
342.38610381619247
 21
-1763.7170074294761
 31
0.0
  0
LINE
  5
18559
  8
0
 10
338.38610381619247
 20
-1759.7169981222889
 30
0.0
 11
342.38610381619247
 21
-1758.9170074294709
 31
0.0
  0
LINE
  5
1855A
  8
0
 10
338.38610381619247
 20
-1758.116998122289
 30
0.0
 11
342.38610381619247
 21
-1757.3170074294669
 31
0.0
  0
LINE
  5
1855B
  8
0
 10
338.88610381619247
 20
-1758.2169992856871
 30
0.0
 11
338.38610381619247
 21
-1758.116998122289
 31
0.0
  0
LINE
  5
1855C
  8
0
 10
342.38610381619247
 20
-1758.9170074294709
 30
0.0
 11
341.88610381619247
 21
-1758.8170062660729
 31
0.0
  0
LINE
  5
1855D
  8
0
 10
342.38610381619247
 20
-1757.3170074294669
 30
0.0
 11
341.88610381619247
 21
-1757.21700626607
 31
0.0
  0
LINE
  5
1855E
  8
0
 10
342.38610381619247
 20
-1762.117007429471
 30
0.0
 11
341.88610381619247
 21
-1762.0170062660741
 31
0.0
  0
LINE
  5
1855F
  8
0
 10
338.88610381619247
 20
-1761.4169992856871
 30
0.0
 11
338.38610381619247
 21
-1761.31699812229
 31
0.0
  0
LINE
  5
18560
  8
0
 10
342.38610381619247
 20
-1760.5170074294711
 30
0.0
 11
341.88610381619247
 21
-1760.4170062660739
 31
0.0
  0
LINE
  5
18561
  8
0
 10
338.38610381619247
 20
-1761.31699812229
 30
0.0
 11
342.38610381619247
 21
-1760.5170074294711
 31
0.0
  0
LINE
  5
18562
  8
0
 10
338.88610381619247
 20
-1759.816999285687
 30
0.0
 11
338.38610381619247
 21
-1759.7169981222889
 31
0.0
  0
LINE
  5
18563
  8
0
 10
342.38610381619247
 20
-1763.7170074294761
 30
0.0
 11
341.88610381619247
 21
-1763.6170062660781
 31
0.0
  0
LINE
  5
18564
  8
0
 10
338.88610381619247
 20
-1763.016999285687
 30
0.0
 11
338.38610381619247
 21
-1762.9169981222899
 31
0.0
  0
LINE
  5
18565
  8
0
 10
338.88610381619247
 20
-1764.6169992856919
 30
0.0
 11
338.38610381619247
 21
-1764.5169981222939
 31
0.0
  0
LINE
  5
18566
  8
0
 10
336.38605728029461
 20
-1777.916993468483
 30
0.0
 11
344.38605728029461
 21
-1777.9170120828419
 31
0.0
  0
LINE
  5
18568
  8
1CENTER
 10
536.38605728029461
 20
-1736.7625065850259
 30
0.0
 11
536.38605728029461
 21
-1779.5956396324
 31
0.0
  0
LINE
  5
18569
  8
0
 10
534.38610381619253
 20
-1753.3169981222891
 30
0.0
 11
538.38610381619253
 21
-1752.517007429467
 31
0.0
  0
LINE
  5
1856A
  8
0
 10
538.38610381619253
 20
-1752.517007429467
 30
0.0
 11
537.88610381619253
 21
-1752.4170062660689
 31
0.0
  0
LINE
  5
1856B
  8
0
 10
535.30701841340124
 20
-1742.02976868825
 30
0.0
 11
534.83891995825115
 21
-1741.9169991758999
 31
0.0
  0
LINE
  5
1856C
  8
0
 10
537.25406855517485
 20
-1739.517004795453
 30
0.0
 11
536.66579198013255
 21
-1739.2052349392011
 31
0.0
  0
LINE
  5
1856D
  8
0
 10
535.74890530693062
 20
-1740.4684360259439
 30
0.0
 11
535.29173346629955
 21
-1740.3170002295039
 31
0.0
  0
LINE
  5
1856E
  8
0
 10
537.70688265958165
 20
-1741.1170058490591
 30
0.0
 11
537.15513319577849
 21
-1740.9342417064299
 31
0.0
  0
LINE
  5
1856F
  8
0
 10
535.29173346629955
 20
-1740.3170002295039
 30
0.0
 11
537.25406855517485
 21
-1739.517004795453
 31
0.0
  0
LINE
  5
18570
  8
0
 10
534.83891995825115
 20
-1741.9169991758999
 30
0.0
 11
537.70688265958165
 21
-1741.1170058490591
 31
0.0
  0
LINE
  5
18571
  8
0
 10
534.38610381619253
 20
-1751.7169981222889
 30
0.0
 11
538.38610381619253
 21
-1750.917007429467
 31
0.0
  0
LINE
  5
18572
  8
0
 10
534.38610381619253
 20
-1750.116998122289
 30
0.0
 11
538.38610381619253
 21
-1749.3170074294669
 31
0.0
  0
LINE
  5
18573
  8
0
 10
534.88610381619253
 20
-1750.2169992856871
 30
0.0
 11
534.38610381619253
 21
-1750.116998122289
 31
0.0
  0
LINE
  5
18574
  8
0
 10
538.38610381619253
 20
-1749.3170074294669
 30
0.0
 11
537.88610381619253
 21
-1749.21700626607
 31
0.0
  0
LINE
  5
18575
  8
0
 10
538.38610381619253
 20
-1750.917007429467
 30
0.0
 11
537.88610381619253
 21
-1750.8170062660699
 31
0.0
  0
LINE
  5
18576
  8
0
 10
538.15969676398845
 20
-1742.717006902664
 30
0.0
 11
537.62310302871742
 21
-1742.5877362050339
 31
0.0
  0
LINE
  5
18577
  8
0
 10
534.38610381619253
 20
-1743.5169981222889
 30
0.0
 11
538.15969676398845
 21
-1742.717006902664
 31
0.0
  0
LINE
  5
18578
  8
0
 10
534.88610381619253
 20
-1743.6169992856869
 30
0.0
 11
534.38610381619253
 21
-1743.5169981222889
 31
0.0
  0
LINE
  5
18579
  8
0
 10
534.88610381619253
 20
-1751.816999285687
 30
0.0
 11
534.38610381619253
 21
-1751.7169981222889
 31
0.0
  0
LINE
  5
1857A
  8
0
 10
534.38610381619253
 20
-1756.51699812229
 30
0.0
 11
538.38610381619253
 21
-1755.717007429467
 31
0.0
  0
LINE
  5
1857B
  8
0
 10
534.38610381619253
 20
-1754.916998122289
 30
0.0
 11
538.38610381619253
 21
-1754.1170074294671
 31
0.0
  0
LINE
  5
1857C
  8
0
 10
534.88610381619253
 20
-1753.416999285686
 30
0.0
 11
534.38610381619253
 21
-1753.3169981222891
 31
0.0
  0
LINE
  5
1857D
  8
0
 10
534.88610381619253
 20
-1755.0169992856861
 30
0.0
 11
534.38610381619253
 21
-1754.916998122289
 31
0.0
  0
LINE
  5
1857E
  8
0
 10
538.38610381619253
 20
-1754.1170074294671
 30
0.0
 11
537.88610381619253
 21
-1754.01700626607
 31
0.0
  0
LINE
  5
1857F
  8
0
 10
538.38610381619253
 20
-1755.717007429467
 30
0.0
 11
537.88610381619253
 21
-1755.6170062660699
 31
0.0
  0
LINE
  5
18580
  8
0
 10
534.88610381619253
 20
-1756.6169992856869
 30
0.0
 11
534.38610381619253
 21
-1756.51699812229
 31
0.0
  0
LINE
  5
18581
  8
0
 10
538.38610381619253
 20
-1747.717007429467
 30
0.0
 11
537.88610381619253
 21
-1747.6170062660699
 31
0.0
  0
LINE
  5
18582
  8
0
 10
534.38610381619253
 20
-1748.5169981222889
 30
0.0
 11
538.38610381619253
 21
-1747.717007429467
 31
0.0
  0
LINE
  5
18583
  8
0
 10
534.88610381619253
 20
-1748.6169992856869
 30
0.0
 11
534.38610381619253
 21
-1748.5169981222889
 31
0.0
  0
LINE
  5
18584
  8
0
 10
534.38610381619253
 20
-1746.916998122289
 30
0.0
 11
538.38610381619253
 21
-1746.117007429466
 31
0.0
  0
LINE
  5
18585
  8
0
 10
538.38610381619253
 20
-1746.117007429466
 30
0.0
 11
537.88610381619253
 21
-1746.01700626607
 31
0.0
  0
LINE
  5
18586
  8
0
 10
534.88610381619253
 20
-1747.0169992856861
 30
0.0
 11
534.38610381619253
 21
-1746.916998122289
 31
0.0
  0
LINE
  5
18587
  8
0
 10
538.38610381619253
 20
-1744.517007429467
 30
0.0
 11
537.88610381619253
 21
-1744.4170062660701
 31
0.0
  0
LINE
  5
18588
  8
0
 10
534.38610381619253
 20
-1745.3169981222891
 30
0.0
 11
538.38610381619253
 21
-1744.517007429467
 31
0.0
  0
LINE
  5
18589
  8
0
 10
534.88610381619253
 20
-1745.416999285686
 30
0.0
 11
534.38610381619253
 21
-1745.3169981222891
 31
0.0
  0
LINE
  5
1858A
  8
0
 10
536.38605728029461
 20
-1775.31701208296
 30
0.0
 11
538.38610381619253
 21
-1774.91700742948
 31
0.0
  0
LINE
  5
1858B
  8
0
 10
534.38610381619253
 20
-1766.1169981222979
 30
0.0
 11
538.38610381619253
 21
-1765.317007429476
 31
0.0
  0
LINE
  5
1858C
  8
0
 10
534.38610381619253
 20
-1762.9169981222899
 30
0.0
 11
538.38610381619253
 21
-1762.117007429471
 31
0.0
  0
LINE
  5
1858D
  8
0
 10
538.38610381619253
 20
-1773.317007429476
 30
0.0
 11
537.88610381619253
 21
-1773.2170062660789
 31
0.0
  0
LINE
  5
1858E
  8
0
 10
538.38610381619253
 20
-1774.91700742948
 30
0.0
 11
537.88610381619253
 21
-1774.817006266082
 31
0.0
  0
LINE
  5
1858F
  8
0
 10
534.88610381619253
 20
-1774.2169992856959
 30
0.0
 11
534.38610381619253
 21
-1774.1169981222979
 31
0.0
  0
LINE
  5
18590
  8
0
 10
534.38610381619253
 20
-1774.1169981222979
 30
0.0
 11
538.38610381619253
 21
-1773.317007429476
 31
0.0
  0
LINE
  5
18591
  8
0
 10
534.88610381619253
 20
-1772.6169992856951
 30
0.0
 11
534.38610381619253
 21
-1772.5169981222989
 31
0.0
  0
LINE
  5
18592
  8
0
 10
538.38610381619253
 20
-1771.7170074294761
 30
0.0
 11
537.88610381619253
 21
-1771.617006266079
 31
0.0
  0
LINE
  5
18593
  8
0
 10
538.38610381619253
 20
-1770.117007429476
 30
0.0
 11
537.88610381619253
 21
-1770.0170062660779
 31
0.0
  0
LINE
  5
18594
  8
0
 10
534.88610381619253
 20
-1771.016999285695
 30
0.0
 11
534.38610381619253
 21
-1770.9169981222981
 31
0.0
  0
LINE
  5
18595
  8
0
 10
534.88610381619253
 20
-1769.4169992856951
 30
0.0
 11
534.38610381619253
 21
-1769.3169981222979
 31
0.0
  0
LINE
  5
18596
  8
0
 10
534.38610381619253
 20
-1770.9169981222981
 30
0.0
 11
538.38610381619253
 21
-1770.117007429476
 31
0.0
  0
LINE
  5
18597
  8
0
 10
534.38610381619253
 20
-1772.5169981222989
 30
0.0
 11
538.38610381619253
 21
-1771.7170074294761
 31
0.0
  0
LINE
  5
18598
  8
0
 10
534.88610381619253
 20
-1767.8169992856949
 30
0.0
 11
534.38610381619253
 21
-1767.716998122298
 31
0.0
  0
LINE
  5
18599
  8
0
 10
538.38610381619253
 20
-1766.9170074294759
 30
0.0
 11
537.88610381619253
 21
-1766.817006266079
 31
0.0
  0
LINE
  5
1859A
  8
0
 10
538.38610381619253
 20
-1765.317007429476
 30
0.0
 11
537.88610381619253
 21
-1765.2170062660789
 31
0.0
  0
LINE
  5
1859B
  8
0
 10
534.88610381619253
 20
-1766.216999285695
 30
0.0
 11
534.38610381619253
 21
-1766.1169981222979
 31
0.0
  0
LINE
  5
1859C
  8
0
 10
534.38610381619253
 20
-1767.716998122298
 30
0.0
 11
538.38610381619253
 21
-1766.9170074294759
 31
0.0
  0
LINE
  5
1859D
  8
0
 10
538.38610381619253
 20
-1768.5170074294761
 30
0.0
 11
537.88610381619253
 21
-1768.417006266078
 31
0.0
  0
LINE
  5
1859E
  8
0
 10
534.38610381619253
 20
-1769.3169981222979
 30
0.0
 11
538.38610381619253
 21
-1768.5170074294761
 31
0.0
  0
LINE
  5
1859F
  8
0
 10
534.38610381619253
 20
-1764.5169981222939
 30
0.0
 11
538.38610381619253
 21
-1763.7170074294761
 31
0.0
  0
LINE
  5
185A0
  8
0
 10
534.38610381619253
 20
-1759.7169981222889
 30
0.0
 11
538.38610381619253
 21
-1758.9170074294709
 31
0.0
  0
LINE
  5
185A1
  8
0
 10
534.38610381619253
 20
-1758.116998122289
 30
0.0
 11
538.38610381619253
 21
-1757.3170074294669
 31
0.0
  0
LINE
  5
185A2
  8
0
 10
534.88610381619253
 20
-1758.2169992856871
 30
0.0
 11
534.38610381619253
 21
-1758.116998122289
 31
0.0
  0
LINE
  5
185A3
  8
0
 10
538.38610381619253
 20
-1758.9170074294709
 30
0.0
 11
537.88610381619253
 21
-1758.8170062660729
 31
0.0
  0
LINE
  5
185A4
  8
0
 10
538.38610381619253
 20
-1757.3170074294669
 30
0.0
 11
537.88610381619253
 21
-1757.21700626607
 31
0.0
  0
LINE
  5
185A5
  8
0
 10
538.38610381619253
 20
-1762.117007429471
 30
0.0
 11
537.88610381619253
 21
-1762.0170062660741
 31
0.0
  0
LINE
  5
185A6
  8
0
 10
534.88610381619253
 20
-1761.4169992856871
 30
0.0
 11
534.38610381619253
 21
-1761.31699812229
 31
0.0
  0
LINE
  5
185A7
  8
0
 10
538.38610381619253
 20
-1760.5170074294711
 30
0.0
 11
537.88610381619253
 21
-1760.4170062660739
 31
0.0
  0
LINE
  5
185A8
  8
0
 10
534.38610381619253
 20
-1761.31699812229
 30
0.0
 11
538.38610381619253
 21
-1760.5170074294711
 31
0.0
  0
LINE
  5
185A9
  8
0
 10
534.88610381619253
 20
-1759.816999285687
 30
0.0
 11
534.38610381619253
 21
-1759.7169981222889
 31
0.0
  0
LINE
  5
185AA
  8
0
 10
538.38610381619253
 20
-1763.7170074294761
 30
0.0
 11
537.88610381619253
 21
-1763.6170062660781
 31
0.0
  0
LINE
  5
185AB
  8
0
 10
534.88610381619253
 20
-1763.016999285687
 30
0.0
 11
534.38610381619253
 21
-1762.9169981222899
 31
0.0
  0
LINE
  5
185AC
  8
0
 10
534.88610381619253
 20
-1764.6169992856919
 30
0.0
 11
534.38610381619253
 21
-1764.5169981222939
 31
0.0
  0
LINE
  5
185AD
  8
0
 10
532.38605728029461
 20
-1777.916993468483
 30
0.0
 11
540.38605728029461
 21
-1777.9170120828419
 31
0.0
  0
LINE
  5
185AF
  8
1CENTER
 10
732.38605728029461
 20
-1736.7625065850259
 30
0.0
 11
732.38605728029461
 21
-1779.5956396324
 31
0.0
  0
LINE
  5
185B0
  8
0
 10
730.38610381619253
 20
-1753.3169981222891
 30
0.0
 11
734.38610381619253
 21
-1752.517007429467
 31
0.0
  0
LINE
  5
185B1
  8
0
 10
734.38610381619253
 20
-1752.517007429467
 30
0.0
 11
733.88610381619253
 21
-1752.4170062660689
 31
0.0
  0
LINE
  5
185B2
  8
0
 10
731.30701841340124
 20
-1742.02976868825
 30
0.0
 11
730.83891995825127
 21
-1741.9169991758999
 31
0.0
  0
LINE
  5
185B3
  8
0
 10
733.25406855517485
 20
-1739.517004795453
 30
0.0
 11
732.66579198013255
 21
-1739.2052349392011
 31
0.0
  0
LINE
  5
185B4
  8
0
 10
731.74890530693062
 20
-1740.4684360259439
 30
0.0
 11
731.29173346629955
 21
-1740.3170002295039
 31
0.0
  0
LINE
  5
185B5
  8
0
 10
733.70688265958165
 20
-1741.1170058490591
 30
0.0
 11
733.15513319577838
 21
-1740.9342417064299
 31
0.0
  0
LINE
  5
185B6
  8
0
 10
731.29173346629955
 20
-1740.3170002295039
 30
0.0
 11
733.25406855517485
 21
-1739.517004795453
 31
0.0
  0
LINE
  5
185B7
  8
0
 10
730.83891995825127
 20
-1741.9169991758999
 30
0.0
 11
733.70688265958165
 21
-1741.1170058490591
 31
0.0
  0
LINE
  5
185B8
  8
0
 10
730.38610381619253
 20
-1751.7169981222889
 30
0.0
 11
734.38610381619253
 21
-1750.917007429467
 31
0.0
  0
LINE
  5
185B9
  8
0
 10
730.38610381619253
 20
-1750.116998122289
 30
0.0
 11
734.38610381619253
 21
-1749.3170074294669
 31
0.0
  0
LINE
  5
185BA
  8
0
 10
730.88610381619253
 20
-1750.2169992856871
 30
0.0
 11
730.38610381619253
 21
-1750.116998122289
 31
0.0
  0
LINE
  5
185BB
  8
0
 10
734.38610381619253
 20
-1749.3170074294669
 30
0.0
 11
733.88610381619253
 21
-1749.21700626607
 31
0.0
  0
LINE
  5
185BC
  8
0
 10
734.38610381619253
 20
-1750.917007429467
 30
0.0
 11
733.88610381619253
 21
-1750.8170062660699
 31
0.0
  0
LINE
  5
185BD
  8
0
 10
734.15969676398845
 20
-1742.717006902664
 30
0.0
 11
733.62310302871742
 21
-1742.5877362050339
 31
0.0
  0
LINE
  5
185BE
  8
0
 10
730.38610381619253
 20
-1743.5169981222889
 30
0.0
 11
734.15969676398845
 21
-1742.717006902664
 31
0.0
  0
LINE
  5
185BF
  8
0
 10
730.88610381619253
 20
-1743.6169992856869
 30
0.0
 11
730.38610381619253
 21
-1743.5169981222889
 31
0.0
  0
LINE
  5
185C0
  8
0
 10
730.88610381619253
 20
-1751.816999285687
 30
0.0
 11
730.38610381619253
 21
-1751.7169981222889
 31
0.0
  0
LINE
  5
185C1
  8
0
 10
730.38610381619253
 20
-1756.51699812229
 30
0.0
 11
734.38610381619253
 21
-1755.717007429467
 31
0.0
  0
LINE
  5
185C2
  8
0
 10
730.38610381619253
 20
-1754.916998122289
 30
0.0
 11
734.38610381619253
 21
-1754.1170074294671
 31
0.0
  0
LINE
  5
185C3
  8
0
 10
730.88610381619253
 20
-1753.416999285686
 30
0.0
 11
730.38610381619253
 21
-1753.3169981222891
 31
0.0
  0
LINE
  5
185C4
  8
0
 10
730.88610381619253
 20
-1755.0169992856861
 30
0.0
 11
730.38610381619253
 21
-1754.916998122289
 31
0.0
  0
LINE
  5
185C5
  8
0
 10
734.38610381619253
 20
-1754.1170074294671
 30
0.0
 11
733.88610381619253
 21
-1754.01700626607
 31
0.0
  0
LINE
  5
185C6
  8
0
 10
734.38610381619253
 20
-1755.717007429467
 30
0.0
 11
733.88610381619253
 21
-1755.6170062660699
 31
0.0
  0
LINE
  5
185C7
  8
0
 10
730.88610381619253
 20
-1756.6169992856869
 30
0.0
 11
730.38610381619253
 21
-1756.51699812229
 31
0.0
  0
LINE
  5
185C8
  8
0
 10
734.38610381619253
 20
-1747.717007429467
 30
0.0
 11
733.88610381619253
 21
-1747.6170062660699
 31
0.0
  0
LINE
  5
185C9
  8
0
 10
730.38610381619253
 20
-1748.5169981222889
 30
0.0
 11
734.38610381619253
 21
-1747.717007429467
 31
0.0
  0
LINE
  5
185CA
  8
0
 10
730.88610381619253
 20
-1748.6169992856869
 30
0.0
 11
730.38610381619253
 21
-1748.5169981222889
 31
0.0
  0
LINE
  5
185CB
  8
0
 10
730.38610381619253
 20
-1746.916998122289
 30
0.0
 11
734.38610381619253
 21
-1746.117007429466
 31
0.0
  0
LINE
  5
185CC
  8
0
 10
734.38610381619253
 20
-1746.117007429466
 30
0.0
 11
733.88610381619253
 21
-1746.01700626607
 31
0.0
  0
LINE
  5
185CD
  8
0
 10
730.88610381619253
 20
-1747.0169992856861
 30
0.0
 11
730.38610381619253
 21
-1746.916998122289
 31
0.0
  0
LINE
  5
185CE
  8
0
 10
734.38610381619253
 20
-1744.517007429467
 30
0.0
 11
733.88610381619253
 21
-1744.4170062660701
 31
0.0
  0
LINE
  5
185CF
  8
0
 10
730.38610381619253
 20
-1745.3169981222891
 30
0.0
 11
734.38610381619253
 21
-1744.517007429467
 31
0.0
  0
LINE
  5
185D0
  8
0
 10
730.88610381619253
 20
-1745.416999285686
 30
0.0
 11
730.38610381619253
 21
-1745.3169981222891
 31
0.0
  0
LINE
  5
185D1
  8
0
 10
732.38605728029461
 20
-1775.31701208296
 30
0.0
 11
734.38610381619253
 21
-1774.91700742948
 31
0.0
  0
LINE
  5
185D2
  8
0
 10
730.38610381619253
 20
-1766.1169981222979
 30
0.0
 11
734.38610381619253
 21
-1765.317007429476
 31
0.0
  0
LINE
  5
185D3
  8
0
 10
730.38610381619253
 20
-1762.9169981222899
 30
0.0
 11
734.38610381619253
 21
-1762.117007429471
 31
0.0
  0
LINE
  5
185D4
  8
0
 10
734.38610381619253
 20
-1773.317007429476
 30
0.0
 11
733.88610381619253
 21
-1773.2170062660789
 31
0.0
  0
LINE
  5
185D5
  8
0
 10
734.38610381619253
 20
-1774.91700742948
 30
0.0
 11
733.88610381619253
 21
-1774.817006266082
 31
0.0
  0
LINE
  5
185D6
  8
0
 10
730.88610381619253
 20
-1774.2169992856959
 30
0.0
 11
730.38610381619253
 21
-1774.1169981222979
 31
0.0
  0
LINE
  5
185D7
  8
0
 10
730.38610381619253
 20
-1774.1169981222979
 30
0.0
 11
734.38610381619253
 21
-1773.317007429476
 31
0.0
  0
LINE
  5
185D8
  8
0
 10
730.88610381619253
 20
-1772.6169992856951
 30
0.0
 11
730.38610381619253
 21
-1772.5169981222989
 31
0.0
  0
LINE
  5
185D9
  8
0
 10
734.38610381619253
 20
-1771.7170074294761
 30
0.0
 11
733.88610381619253
 21
-1771.617006266079
 31
0.0
  0
LINE
  5
185DA
  8
0
 10
734.38610381619253
 20
-1770.117007429476
 30
0.0
 11
733.88610381619253
 21
-1770.0170062660779
 31
0.0
  0
LINE
  5
185DB
  8
0
 10
730.88610381619253
 20
-1771.016999285695
 30
0.0
 11
730.38610381619253
 21
-1770.9169981222981
 31
0.0
  0
LINE
  5
185DC
  8
0
 10
730.88610381619253
 20
-1769.4169992856951
 30
0.0
 11
730.38610381619253
 21
-1769.3169981222979
 31
0.0
  0
LINE
  5
185DD
  8
0
 10
730.38610381619253
 20
-1770.9169981222981
 30
0.0
 11
734.38610381619253
 21
-1770.117007429476
 31
0.0
  0
LINE
  5
185DE
  8
0
 10
730.38610381619253
 20
-1772.5169981222989
 30
0.0
 11
734.38610381619253
 21
-1771.7170074294761
 31
0.0
  0
LINE
  5
185DF
  8
0
 10
730.88610381619253
 20
-1767.8169992856949
 30
0.0
 11
730.38610381619253
 21
-1767.716998122298
 31
0.0
  0
LINE
  5
185E0
  8
0
 10
734.38610381619253
 20
-1766.9170074294759
 30
0.0
 11
733.88610381619253
 21
-1766.817006266079
 31
0.0
  0
LINE
  5
185E1
  8
0
 10
734.38610381619253
 20
-1765.317007429476
 30
0.0
 11
733.88610381619253
 21
-1765.2170062660789
 31
0.0
  0
LINE
  5
185E2
  8
0
 10
730.88610381619253
 20
-1766.216999285695
 30
0.0
 11
730.38610381619253
 21
-1766.1169981222979
 31
0.0
  0
LINE
  5
185E3
  8
0
 10
730.38610381619253
 20
-1767.716998122298
 30
0.0
 11
734.38610381619253
 21
-1766.9170074294759
 31
0.0
  0
LINE
  5
185E4
  8
0
 10
734.38610381619253
 20
-1768.5170074294761
 30
0.0
 11
733.88610381619253
 21
-1768.417006266078
 31
0.0
  0
LINE
  5
185E5
  8
0
 10
730.38610381619253
 20
-1769.3169981222979
 30
0.0
 11
734.38610381619253
 21
-1768.5170074294761
 31
0.0
  0
LINE
  5
185E6
  8
0
 10
730.38610381619253
 20
-1764.5169981222939
 30
0.0
 11
734.38610381619253
 21
-1763.7170074294761
 31
0.0
  0
LINE
  5
185E7
  8
0
 10
730.38610381619253
 20
-1759.7169981222889
 30
0.0
 11
734.38610381619253
 21
-1758.9170074294709
 31
0.0
  0
LINE
  5
185E8
  8
0
 10
730.38610381619253
 20
-1758.116998122289
 30
0.0
 11
734.38610381619253
 21
-1757.3170074294669
 31
0.0
  0
LINE
  5
185E9
  8
0
 10
730.88610381619253
 20
-1758.2169992856871
 30
0.0
 11
730.38610381619253
 21
-1758.116998122289
 31
0.0
  0
LINE
  5
185EA
  8
0
 10
734.38610381619253
 20
-1758.9170074294709
 30
0.0
 11
733.88610381619253
 21
-1758.8170062660729
 31
0.0
  0
LINE
  5
185EB
  8
0
 10
734.38610381619253
 20
-1757.3170074294669
 30
0.0
 11
733.88610381619253
 21
-1757.21700626607
 31
0.0
  0
LINE
  5
185EC
  8
0
 10
734.38610381619253
 20
-1762.117007429471
 30
0.0
 11
733.88610381619253
 21
-1762.0170062660741
 31
0.0
  0
LINE
  5
185ED
  8
0
 10
730.88610381619253
 20
-1761.4169992856871
 30
0.0
 11
730.38610381619253
 21
-1761.31699812229
 31
0.0
  0
LINE
  5
185EE
  8
0
 10
734.38610381619253
 20
-1760.5170074294711
 30
0.0
 11
733.88610381619253
 21
-1760.4170062660739
 31
0.0
  0
LINE
  5
185EF
  8
0
 10
730.38610381619253
 20
-1761.31699812229
 30
0.0
 11
734.38610381619253
 21
-1760.5170074294711
 31
0.0
  0
LINE
  5
185F0
  8
0
 10
730.88610381619253
 20
-1759.816999285687
 30
0.0
 11
730.38610381619253
 21
-1759.7169981222889
 31
0.0
  0
LINE
  5
185F1
  8
0
 10
734.38610381619253
 20
-1763.7170074294761
 30
0.0
 11
733.88610381619253
 21
-1763.6170062660781
 31
0.0
  0
LINE
  5
185F2
  8
0
 10
730.88610381619253
 20
-1763.016999285687
 30
0.0
 11
730.38610381619253
 21
-1762.9169981222899
 31
0.0
  0
LINE
  5
185F3
  8
0
 10
730.88610381619253
 20
-1764.6169992856919
 30
0.0
 11
730.38610381619253
 21
-1764.5169981222939
 31
0.0
  0
LINE
  5
185F4
  8
0
 10
728.38605728029461
 20
-1777.916993468483
 30
0.0
 11
736.38605728029461
 21
-1777.9170120828419
 31
0.0
  0
LINE
  5
185F6
  8
1CENTER
 10
928.38605728029472
 20
-1736.7625065850259
 30
0.0
 11
928.38605728029472
 21
-1779.5956396324
 31
0.0
  0
LINE
  5
185F7
  8
0
 10
926.38610381619253
 20
-1753.3169981222891
 30
0.0
 11
930.38610381619242
 21
-1752.517007429467
 31
0.0
  0
LINE
  5
185F8
  8
0
 10
930.38610381619242
 20
-1752.517007429467
 30
0.0
 11
929.88610381619253
 21
-1752.4170062660689
 31
0.0
  0
LINE
  5
185F9
  8
0
 10
927.30701841340112
 20
-1742.02976868825
 30
0.0
 11
926.83891995825127
 21
-1741.9169991758999
 31
0.0
  0
LINE
  5
185FA
  8
0
 10
929.25406855517485
 20
-1739.517004795453
 30
0.0
 11
928.66579198013255
 21
-1739.2052349392011
 31
0.0
  0
LINE
  5
185FB
  8
0
 10
927.74890530693062
 20
-1740.4684360259439
 30
0.0
 11
927.29173346629955
 21
-1740.3170002295039
 31
0.0
  0
LINE
  5
185FC
  8
0
 10
929.70688265958165
 20
-1741.1170058490591
 30
0.0
 11
929.15513319577849
 21
-1740.9342417064299
 31
0.0
  0
LINE
  5
185FD
  8
0
 10
927.29173346629955
 20
-1740.3170002295039
 30
0.0
 11
929.25406855517485
 21
-1739.517004795453
 31
0.0
  0
LINE
  5
185FE
  8
0
 10
926.83891995825127
 20
-1741.9169991758999
 30
0.0
 11
929.70688265958165
 21
-1741.1170058490591
 31
0.0
  0
LINE
  5
185FF
  8
0
 10
926.38610381619253
 20
-1751.7169981222889
 30
0.0
 11
930.38610381619242
 21
-1750.917007429467
 31
0.0
  0
LINE
  5
18600
  8
0
 10
926.38610381619253
 20
-1750.116998122289
 30
0.0
 11
930.38610381619242
 21
-1749.3170074294669
 31
0.0
  0
LINE
  5
18601
  8
0
 10
926.88610381619264
 20
-1750.2169992856871
 30
0.0
 11
926.38610381619253
 21
-1750.116998122289
 31
0.0
  0
LINE
  5
18602
  8
0
 10
930.38610381619242
 20
-1749.3170074294669
 30
0.0
 11
929.88610381619253
 21
-1749.21700626607
 31
0.0
  0
LINE
  5
18603
  8
0
 10
930.38610381619242
 20
-1750.917007429467
 30
0.0
 11
929.88610381619253
 21
-1750.8170062660699
 31
0.0
  0
LINE
  5
18604
  8
0
 10
930.15969676398856
 20
-1742.717006902664
 30
0.0
 11
929.62310302871742
 21
-1742.5877362050339
 31
0.0
  0
LINE
  5
18605
  8
0
 10
926.38610381619253
 20
-1743.5169981222889
 30
0.0
 11
930.15969676398856
 21
-1742.717006902664
 31
0.0
  0
LINE
  5
18606
  8
0
 10
926.88610381619264
 20
-1743.6169992856869
 30
0.0
 11
926.38610381619253
 21
-1743.5169981222889
 31
0.0
  0
LINE
  5
18607
  8
0
 10
926.88610381619264
 20
-1751.816999285687
 30
0.0
 11
926.38610381619253
 21
-1751.7169981222889
 31
0.0
  0
LINE
  5
18608
  8
0
 10
926.38610381619253
 20
-1756.51699812229
 30
0.0
 11
930.38610381619242
 21
-1755.717007429467
 31
0.0
  0
LINE
  5
18609
  8
0
 10
926.38610381619253
 20
-1754.916998122289
 30
0.0
 11
930.38610381619242
 21
-1754.1170074294671
 31
0.0
  0
LINE
  5
1860A
  8
0
 10
926.88610381619264
 20
-1753.416999285686
 30
0.0
 11
926.38610381619253
 21
-1753.3169981222891
 31
0.0
  0
LINE
  5
1860B
  8
0
 10
926.88610381619264
 20
-1755.0169992856861
 30
0.0
 11
926.38610381619253
 21
-1754.916998122289
 31
0.0
  0
LINE
  5
1860C
  8
0
 10
930.38610381619242
 20
-1754.1170074294671
 30
0.0
 11
929.88610381619253
 21
-1754.01700626607
 31
0.0
  0
LINE
  5
1860D
  8
0
 10
930.38610381619242
 20
-1755.717007429467
 30
0.0
 11
929.88610381619253
 21
-1755.6170062660699
 31
0.0
  0
LINE
  5
1860E
  8
0
 10
926.88610381619264
 20
-1756.6169992856869
 30
0.0
 11
926.38610381619253
 21
-1756.51699812229
 31
0.0
  0
LINE
  5
1860F
  8
0
 10
930.38610381619242
 20
-1747.717007429467
 30
0.0
 11
929.88610381619253
 21
-1747.6170062660699
 31
0.0
  0
LINE
  5
18610
  8
0
 10
926.38610381619253
 20
-1748.5169981222889
 30
0.0
 11
930.38610381619242
 21
-1747.717007429467
 31
0.0
  0
LINE
  5
18611
  8
0
 10
926.88610381619264
 20
-1748.6169992856869
 30
0.0
 11
926.38610381619253
 21
-1748.5169981222889
 31
0.0
  0
LINE
  5
18612
  8
0
 10
926.38610381619253
 20
-1746.916998122289
 30
0.0
 11
930.38610381619242
 21
-1746.117007429466
 31
0.0
  0
LINE
  5
18613
  8
0
 10
930.38610381619242
 20
-1746.117007429466
 30
0.0
 11
929.88610381619253
 21
-1746.01700626607
 31
0.0
  0
LINE
  5
18614
  8
0
 10
926.88610381619264
 20
-1747.0169992856861
 30
0.0
 11
926.38610381619253
 21
-1746.916998122289
 31
0.0
  0
LINE
  5
18615
  8
0
 10
930.38610381619242
 20
-1744.517007429467
 30
0.0
 11
929.88610381619253
 21
-1744.4170062660701
 31
0.0
  0
LINE
  5
18616
  8
0
 10
926.38610381619253
 20
-1745.3169981222891
 30
0.0
 11
930.38610381619242
 21
-1744.517007429467
 31
0.0
  0
LINE
  5
18617
  8
0
 10
926.88610381619264
 20
-1745.416999285686
 30
0.0
 11
926.38610381619253
 21
-1745.3169981222891
 31
0.0
  0
LINE
  5
18618
  8
0
 10
928.38605728029472
 20
-1775.31701208296
 30
0.0
 11
930.38610381619242
 21
-1774.91700742948
 31
0.0
  0
LINE
  5
18619
  8
0
 10
926.38610381619253
 20
-1766.1169981222979
 30
0.0
 11
930.38610381619242
 21
-1765.317007429476
 31
0.0
  0
LINE
  5
1861A
  8
0
 10
926.38610381619253
 20
-1762.9169981222899
 30
0.0
 11
930.38610381619242
 21
-1762.117007429471
 31
0.0
  0
LINE
  5
1861B
  8
0
 10
930.38610381619242
 20
-1773.317007429476
 30
0.0
 11
929.88610381619253
 21
-1773.2170062660789
 31
0.0
  0
LINE
  5
1861C
  8
0
 10
930.38610381619242
 20
-1774.91700742948
 30
0.0
 11
929.88610381619253
 21
-1774.817006266082
 31
0.0
  0
LINE
  5
1861D
  8
0
 10
926.88610381619264
 20
-1774.2169992856959
 30
0.0
 11
926.38610381619253
 21
-1774.1169981222979
 31
0.0
  0
LINE
  5
1861E
  8
0
 10
926.38610381619253
 20
-1774.1169981222979
 30
0.0
 11
930.38610381619242
 21
-1773.317007429476
 31
0.0
  0
LINE
  5
1861F
  8
0
 10
926.88610381619264
 20
-1772.6169992856951
 30
0.0
 11
926.38610381619253
 21
-1772.5169981222989
 31
0.0
  0
LINE
  5
18620
  8
0
 10
930.38610381619242
 20
-1771.7170074294761
 30
0.0
 11
929.88610381619253
 21
-1771.617006266079
 31
0.0
  0
LINE
  5
18621
  8
0
 10
930.38610381619242
 20
-1770.117007429476
 30
0.0
 11
929.88610381619253
 21
-1770.0170062660779
 31
0.0
  0
LINE
  5
18622
  8
0
 10
926.88610381619264
 20
-1771.016999285695
 30
0.0
 11
926.38610381619253
 21
-1770.9169981222981
 31
0.0
  0
LINE
  5
18623
  8
0
 10
926.88610381619264
 20
-1769.4169992856951
 30
0.0
 11
926.38610381619253
 21
-1769.3169981222979
 31
0.0
  0
LINE
  5
18624
  8
0
 10
926.38610381619253
 20
-1770.9169981222981
 30
0.0
 11
930.38610381619242
 21
-1770.117007429476
 31
0.0
  0
LINE
  5
18625
  8
0
 10
926.38610381619253
 20
-1772.5169981222989
 30
0.0
 11
930.38610381619242
 21
-1771.7170074294761
 31
0.0
  0
LINE
  5
18626
  8
0
 10
926.88610381619264
 20
-1767.8169992856949
 30
0.0
 11
926.38610381619253
 21
-1767.716998122298
 31
0.0
  0
LINE
  5
18627
  8
0
 10
930.38610381619242
 20
-1766.9170074294759
 30
0.0
 11
929.88610381619253
 21
-1766.817006266079
 31
0.0
  0
LINE
  5
18628
  8
0
 10
930.38610381619242
 20
-1765.317007429476
 30
0.0
 11
929.88610381619253
 21
-1765.2170062660789
 31
0.0
  0
LINE
  5
18629
  8
0
 10
926.88610381619264
 20
-1766.216999285695
 30
0.0
 11
926.38610381619253
 21
-1766.1169981222979
 31
0.0
  0
LINE
  5
1862A
  8
0
 10
926.38610381619253
 20
-1767.716998122298
 30
0.0
 11
930.38610381619242
 21
-1766.9170074294759
 31
0.0
  0
LINE
  5
1862B
  8
0
 10
930.38610381619242
 20
-1768.5170074294761
 30
0.0
 11
929.88610381619253
 21
-1768.417006266078
 31
0.0
  0
LINE
  5
1862C
  8
0
 10
926.38610381619253
 20
-1769.3169981222979
 30
0.0
 11
930.38610381619242
 21
-1768.5170074294761
 31
0.0
  0
LINE
  5
1862D
  8
0
 10
926.38610381619253
 20
-1764.5169981222939
 30
0.0
 11
930.38610381619242
 21
-1763.7170074294761
 31
0.0
  0
LINE
  5
1862E
  8
0
 10
926.38610381619253
 20
-1759.7169981222889
 30
0.0
 11
930.38610381619242
 21
-1758.9170074294709
 31
0.0
  0
LINE
  5
1862F
  8
0
 10
926.38610381619253
 20
-1758.116998122289
 30
0.0
 11
930.38610381619242
 21
-1757.3170074294669
 31
0.0
  0
LINE
  5
18630
  8
0
 10
926.88610381619264
 20
-1758.2169992856871
 30
0.0
 11
926.38610381619253
 21
-1758.116998122289
 31
0.0
  0
LINE
  5
18631
  8
0
 10
930.38610381619242
 20
-1758.9170074294709
 30
0.0
 11
929.88610381619253
 21
-1758.8170062660729
 31
0.0
  0
LINE
  5
18632
  8
0
 10
930.38610381619242
 20
-1757.3170074294669
 30
0.0
 11
929.88610381619253
 21
-1757.21700626607
 31
0.0
  0
LINE
  5
18633
  8
0
 10
930.38610381619242
 20
-1762.117007429471
 30
0.0
 11
929.88610381619253
 21
-1762.0170062660741
 31
0.0
  0
LINE
  5
18634
  8
0
 10
926.88610381619264
 20
-1761.4169992856871
 30
0.0
 11
926.38610381619253
 21
-1761.31699812229
 31
0.0
  0
LINE
  5
18635
  8
0
 10
930.38610381619242
 20
-1760.5170074294711
 30
0.0
 11
929.88610381619253
 21
-1760.4170062660739
 31
0.0
  0
LINE
  5
18636
  8
0
 10
926.38610381619253
 20
-1761.31699812229
 30
0.0
 11
930.38610381619242
 21
-1760.5170074294711
 31
0.0
  0
LINE
  5
18637
  8
0
 10
926.88610381619264
 20
-1759.816999285687
 30
0.0
 11
926.38610381619253
 21
-1759.7169981222889
 31
0.0
  0
LINE
  5
18638
  8
0
 10
930.38610381619242
 20
-1763.7170074294761
 30
0.0
 11
929.88610381619253
 21
-1763.6170062660781
 31
0.0
  0
LINE
  5
18639
  8
0
 10
926.88610381619264
 20
-1763.016999285687
 30
0.0
 11
926.38610381619253
 21
-1762.9169981222899
 31
0.0
  0
LINE
  5
1863A
  8
0
 10
926.88610381619264
 20
-1764.6169992856919
 30
0.0
 11
926.38610381619253
 21
-1764.5169981222939
 31
0.0
  0
LINE
  5
1863B
  8
0
 10
924.38605728029461
 20
-1777.916993468483
 30
0.0
 11
932.38605728029461
 21
-1777.9170120828419
 31
0.0
  0
LINE
  5
1863D
  8
1CENTER
 10
1124.3860572802939
 20
-1736.7625065850259
 30
0.0
 11
1124.3860572802939
 21
-1779.5956396324
 31
0.0
  0
LINE
  5
1863E
  8
0
 10
1122.386103816192
 20
-1753.3169981222891
 30
0.0
 11
1126.3861038161931
 21
-1752.517007429467
 31
0.0
  0
LINE
  5
1863F
  8
0
 10
1126.3861038161931
 20
-1752.517007429467
 30
0.0
 11
1125.886103816192
 21
-1752.4170062660689
 31
0.0
  0
LINE
  5
18640
  8
0
 10
1123.307018413401
 20
-1742.02976868825
 30
0.0
 11
1122.8389199582509
 21
-1741.9169991758999
 31
0.0
  0
LINE
  5
18641
  8
0
 10
1125.2540685551751
 20
-1739.517004795453
 30
0.0
 11
1124.6657919801321
 21
-1739.2052349392011
 31
0.0
  0
LINE
  5
18642
  8
0
 10
1123.7489053069301
 20
-1740.4684360259439
 30
0.0
 11
1123.2917334662991
 21
-1740.3170002295039
 31
0.0
  0
LINE
  5
18643
  8
0
 10
1125.7068826595821
 20
-1741.1170058490591
 30
0.0
 11
1125.155133195778
 21
-1740.9342417064299
 31
0.0
  0
LINE
  5
18644
  8
0
 10
1123.2917334662991
 20
-1740.3170002295039
 30
0.0
 11
1125.2540685551751
 21
-1739.517004795453
 31
0.0
  0
LINE
  5
18645
  8
0
 10
1122.8389199582509
 20
-1741.9169991758999
 30
0.0
 11
1125.7068826595821
 21
-1741.1170058490591
 31
0.0
  0
LINE
  5
18646
  8
0
 10
1122.386103816192
 20
-1751.7169981222889
 30
0.0
 11
1126.3861038161931
 21
-1750.917007429467
 31
0.0
  0
LINE
  5
18647
  8
0
 10
1122.386103816192
 20
-1750.116998122289
 30
0.0
 11
1126.3861038161931
 21
-1749.3170074294669
 31
0.0
  0
LINE
  5
18648
  8
0
 10
1122.8861038161931
 20
-1750.2169992856871
 30
0.0
 11
1122.386103816192
 21
-1750.116998122289
 31
0.0
  0
LINE
  5
18649
  8
0
 10
1126.3861038161931
 20
-1749.3170074294669
 30
0.0
 11
1125.886103816192
 21
-1749.21700626607
 31
0.0
  0
LINE
  5
1864A
  8
0
 10
1126.3861038161931
 20
-1750.917007429467
 30
0.0
 11
1125.886103816192
 21
-1750.8170062660699
 31
0.0
  0
LINE
  5
1864B
  8
0
 10
1126.1596967639889
 20
-1742.717006902664
 30
0.0
 11
1125.623103028717
 21
-1742.5877362050339
 31
0.0
  0
LINE
  5
1864C
  8
0
 10
1122.386103816192
 20
-1743.5169981222889
 30
0.0
 11
1126.1596967639889
 21
-1742.717006902664
 31
0.0
  0
LINE
  5
1864D
  8
0
 10
1122.8861038161931
 20
-1743.6169992856869
 30
0.0
 11
1122.386103816192
 21
-1743.5169981222889
 31
0.0
  0
LINE
  5
1864E
  8
0
 10
1122.8861038161931
 20
-1751.816999285687
 30
0.0
 11
1122.386103816192
 21
-1751.7169981222889
 31
0.0
  0
LINE
  5
1864F
  8
0
 10
1122.386103816192
 20
-1756.51699812229
 30
0.0
 11
1126.3861038161931
 21
-1755.717007429467
 31
0.0
  0
LINE
  5
18650
  8
0
 10
1122.386103816192
 20
-1754.916998122289
 30
0.0
 11
1126.3861038161931
 21
-1754.1170074294671
 31
0.0
  0
LINE
  5
18651
  8
0
 10
1122.8861038161931
 20
-1753.416999285686
 30
0.0
 11
1122.386103816192
 21
-1753.3169981222891
 31
0.0
  0
LINE
  5
18652
  8
0
 10
1122.8861038161931
 20
-1755.0169992856861
 30
0.0
 11
1122.386103816192
 21
-1754.916998122289
 31
0.0
  0
LINE
  5
18653
  8
0
 10
1126.3861038161931
 20
-1754.1170074294671
 30
0.0
 11
1125.886103816192
 21
-1754.01700626607
 31
0.0
  0
LINE
  5
18654
  8
0
 10
1126.3861038161931
 20
-1755.717007429467
 30
0.0
 11
1125.886103816192
 21
-1755.6170062660699
 31
0.0
  0
LINE
  5
18655
  8
0
 10
1122.8861038161931
 20
-1756.6169992856869
 30
0.0
 11
1122.386103816192
 21
-1756.51699812229
 31
0.0
  0
LINE
  5
18656
  8
0
 10
1126.3861038161931
 20
-1747.717007429467
 30
0.0
 11
1125.886103816192
 21
-1747.6170062660699
 31
0.0
  0
LINE
  5
18657
  8
0
 10
1122.386103816192
 20
-1748.5169981222889
 30
0.0
 11
1126.3861038161931
 21
-1747.717007429467
 31
0.0
  0
LINE
  5
18658
  8
0
 10
1122.8861038161931
 20
-1748.6169992856869
 30
0.0
 11
1122.386103816192
 21
-1748.5169981222889
 31
0.0
  0
LINE
  5
18659
  8
0
 10
1122.386103816192
 20
-1746.916998122289
 30
0.0
 11
1126.3861038161931
 21
-1746.117007429466
 31
0.0
  0
LINE
  5
1865A
  8
0
 10
1126.3861038161931
 20
-1746.117007429466
 30
0.0
 11
1125.886103816192
 21
-1746.01700626607
 31
0.0
  0
LINE
  5
1865B
  8
0
 10
1122.8861038161931
 20
-1747.0169992856861
 30
0.0
 11
1122.386103816192
 21
-1746.916998122289
 31
0.0
  0
LINE
  5
1865C
  8
0
 10
1126.3861038161931
 20
-1744.517007429467
 30
0.0
 11
1125.886103816192
 21
-1744.4170062660701
 31
0.0
  0
LINE
  5
1865D
  8
0
 10
1122.386103816192
 20
-1745.3169981222891
 30
0.0
 11
1126.3861038161931
 21
-1744.517007429467
 31
0.0
  0
LINE
  5
1865E
  8
0
 10
1122.8861038161931
 20
-1745.416999285686
 30
0.0
 11
1122.386103816192
 21
-1745.3169981222891
 31
0.0
  0
LINE
  5
1865F
  8
0
 10
1124.3860572802939
 20
-1775.31701208296
 30
0.0
 11
1126.3861038161931
 21
-1774.91700742948
 31
0.0
  0
LINE
  5
18660
  8
0
 10
1122.386103816192
 20
-1766.1169981222979
 30
0.0
 11
1126.3861038161931
 21
-1765.317007429476
 31
0.0
  0
LINE
  5
18661
  8
0
 10
1122.386103816192
 20
-1762.9169981222899
 30
0.0
 11
1126.3861038161931
 21
-1762.117007429471
 31
0.0
  0
LINE
  5
18662
  8
0
 10
1126.3861038161931
 20
-1773.317007429476
 30
0.0
 11
1125.886103816192
 21
-1773.2170062660789
 31
0.0
  0
LINE
  5
18663
  8
0
 10
1126.3861038161931
 20
-1774.91700742948
 30
0.0
 11
1125.886103816192
 21
-1774.817006266082
 31
0.0
  0
LINE
  5
18664
  8
0
 10
1122.8861038161931
 20
-1774.2169992856959
 30
0.0
 11
1122.386103816192
 21
-1774.1169981222979
 31
0.0
  0
LINE
  5
18665
  8
0
 10
1122.386103816192
 20
-1774.1169981222979
 30
0.0
 11
1126.3861038161931
 21
-1773.317007429476
 31
0.0
  0
LINE
  5
18666
  8
0
 10
1122.8861038161931
 20
-1772.6169992856951
 30
0.0
 11
1122.386103816192
 21
-1772.5169981222989
 31
0.0
  0
LINE
  5
18667
  8
0
 10
1126.3861038161931
 20
-1771.7170074294761
 30
0.0
 11
1125.886103816192
 21
-1771.617006266079
 31
0.0
  0
LINE
  5
18668
  8
0
 10
1126.3861038161931
 20
-1770.117007429476
 30
0.0
 11
1125.886103816192
 21
-1770.0170062660779
 31
0.0
  0
LINE
  5
18669
  8
0
 10
1122.8861038161931
 20
-1771.016999285695
 30
0.0
 11
1122.386103816192
 21
-1770.9169981222981
 31
0.0
  0
LINE
  5
1866A
  8
0
 10
1122.8861038161931
 20
-1769.4169992856951
 30
0.0
 11
1122.386103816192
 21
-1769.3169981222979
 31
0.0
  0
LINE
  5
1866B
  8
0
 10
1122.386103816192
 20
-1770.9169981222981
 30
0.0
 11
1126.3861038161931
 21
-1770.117007429476
 31
0.0
  0
LINE
  5
1866C
  8
0
 10
1122.386103816192
 20
-1772.5169981222989
 30
0.0
 11
1126.3861038161931
 21
-1771.7170074294761
 31
0.0
  0
LINE
  5
1866D
  8
0
 10
1122.8861038161931
 20
-1767.8169992856949
 30
0.0
 11
1122.386103816192
 21
-1767.716998122298
 31
0.0
  0
LINE
  5
1866E
  8
0
 10
1126.3861038161931
 20
-1766.9170074294759
 30
0.0
 11
1125.886103816192
 21
-1766.817006266079
 31
0.0
  0
LINE
  5
1866F
  8
0
 10
1126.3861038161931
 20
-1765.317007429476
 30
0.0
 11
1125.886103816192
 21
-1765.2170062660789
 31
0.0
  0
LINE
  5
18670
  8
0
 10
1122.8861038161931
 20
-1766.216999285695
 30
0.0
 11
1122.386103816192
 21
-1766.1169981222979
 31
0.0
  0
LINE
  5
18671
  8
0
 10
1122.386103816192
 20
-1767.716998122298
 30
0.0
 11
1126.3861038161931
 21
-1766.9170074294759
 31
0.0
  0
LINE
  5
18672
  8
0
 10
1126.3861038161931
 20
-1768.5170074294761
 30
0.0
 11
1125.886103816192
 21
-1768.417006266078
 31
0.0
  0
LINE
  5
18673
  8
0
 10
1122.386103816192
 20
-1769.3169981222979
 30
0.0
 11
1126.3861038161931
 21
-1768.5170074294761
 31
0.0
  0
LINE
  5
18674
  8
0
 10
1122.386103816192
 20
-1764.5169981222939
 30
0.0
 11
1126.3861038161931
 21
-1763.7170074294761
 31
0.0
  0
LINE
  5
18675
  8
0
 10
1122.386103816192
 20
-1759.7169981222889
 30
0.0
 11
1126.3861038161931
 21
-1758.9170074294709
 31
0.0
  0
LINE
  5
18676
  8
0
 10
1122.386103816192
 20
-1758.116998122289
 30
0.0
 11
1126.3861038161931
 21
-1757.3170074294669
 31
0.0
  0
LINE
  5
18677
  8
0
 10
1122.8861038161931
 20
-1758.2169992856871
 30
0.0
 11
1122.386103816192
 21
-1758.116998122289
 31
0.0
  0
LINE
  5
18678
  8
0
 10
1126.3861038161931
 20
-1758.9170074294709
 30
0.0
 11
1125.886103816192
 21
-1758.8170062660729
 31
0.0
  0
LINE
  5
18679
  8
0
 10
1126.3861038161931
 20
-1757.3170074294669
 30
0.0
 11
1125.886103816192
 21
-1757.21700626607
 31
0.0
  0
LINE
  5
1867A
  8
0
 10
1126.3861038161931
 20
-1762.117007429471
 30
0.0
 11
1125.886103816192
 21
-1762.0170062660741
 31
0.0
  0
LINE
  5
1867B
  8
0
 10
1122.8861038161931
 20
-1761.4169992856871
 30
0.0
 11
1122.386103816192
 21
-1761.31699812229
 31
0.0
  0
LINE
  5
1867C
  8
0
 10
1126.3861038161931
 20
-1760.5170074294711
 30
0.0
 11
1125.886103816192
 21
-1760.4170062660739
 31
0.0
  0
LINE
  5
1867D
  8
0
 10
1122.386103816192
 20
-1761.31699812229
 30
0.0
 11
1126.3861038161931
 21
-1760.5170074294711
 31
0.0
  0
LINE
  5
1867E
  8
0
 10
1122.8861038161931
 20
-1759.816999285687
 30
0.0
 11
1122.386103816192
 21
-1759.7169981222889
 31
0.0
  0
LINE
  5
1867F
  8
0
 10
1126.3861038161931
 20
-1763.7170074294761
 30
0.0
 11
1125.886103816192
 21
-1763.6170062660781
 31
0.0
  0
LINE
  5
18680
  8
0
 10
1122.8861038161931
 20
-1763.016999285687
 30
0.0
 11
1122.386103816192
 21
-1762.9169981222899
 31
0.0
  0
LINE
  5
18681
  8
0
 10
1122.8861038161931
 20
-1764.6169992856919
 30
0.0
 11
1122.386103816192
 21
-1764.5169981222939
 31
0.0
  0
LINE
  5
18682
  8
0
 10
1120.3860572802951
 20
-1777.916993468483
 30
0.0
 11
1128.3860572802951
 21
-1777.9170120828419
 31
0.0
  0
LINE
  5
18684
  8
1CENTER
 10
1253.5405465745689
 20
-1839.852748972907
 30
0.0
 11
1210.7074135271939
 21
-1839.852748972907
 31
0.0
  0
LINE
  5
18685
  8
0
 10
1236.9860550373051
 20
-1837.852795508805
 30
0.0
 11
1237.7860457301269
 21
-1841.852795508805
 31
0.0
  0
LINE
  5
18686
  8
0
 10
1237.7860457301269
 20
-1841.852795508805
 30
0.0
 11
1237.886046893525
 21
-1841.352795508805
 31
0.0
  0
LINE
  5
18687
  8
0
 10
1248.2732844713451
 20
-1838.7737101060141
 30
0.0
 11
1248.3860539836951
 21
-1838.305611650864
 31
0.0
  0
LINE
  5
18688
  8
0
 10
1250.7860483641409
 20
-1840.7207602477879
 30
0.0
 11
1251.0978182203939
 21
-1840.1324836727449
 31
0.0
  0
LINE
  5
18689
  8
0
 10
1249.83461713365
 20
-1839.2155969995431
 30
0.0
 11
1249.9860529300911
 21
-1838.7584251589119
 31
0.0
  0
LINE
  5
1868A
  8
0
 10
1249.186047310536
 20
-1841.173574352194
 30
0.0
 11
1249.368811453164
 21
-1840.6218248883911
 31
0.0
  0
LINE
  5
1868B
  8
0
 10
1249.9860529300911
 20
-1838.7584251589119
 30
0.0
 11
1250.7860483641409
 21
-1840.7207602477879
 31
0.0
  0
LINE
  5
1868C
  8
0
 10
1248.3860539836951
 20
-1838.305611650864
 30
0.0
 11
1249.186047310536
 21
-1841.173574352194
 31
0.0
  0
LINE
  5
1868D
  8
0
 10
1238.586055037305
 20
-1837.852795508805
 30
0.0
 11
1239.386045730128
 21
-1841.852795508805
 31
0.0
  0
LINE
  5
1868E
  8
0
 10
1240.1860550373051
 20
-1837.852795508805
 30
0.0
 11
1240.9860457301279
 21
-1841.852795508805
 31
0.0
  0
LINE
  5
1868F
  8
0
 10
1240.086053873908
 20
-1838.352795508805
 30
0.0
 11
1240.1860550373051
 21
-1837.852795508805
 31
0.0
  0
LINE
  5
18690
  8
0
 10
1240.9860457301279
 20
-1841.852795508805
 30
0.0
 11
1241.0860468935241
 21
-1841.352795508805
 31
0.0
  0
LINE
  5
18691
  8
0
 10
1239.386045730128
 20
-1841.852795508805
 30
0.0
 11
1239.4860468935251
 21
-1841.352795508805
 31
0.0
  0
LINE
  5
18692
  8
0
 10
1247.5860462569301
 20
-1841.626388456601
 30
0.0
 11
1247.71531695456
 21
-1841.08979472133
 31
0.0
  0
LINE
  5
18693
  8
0
 10
1246.786055037305
 20
-1837.852795508805
 30
0.0
 11
1247.5860462569301
 21
-1841.626388456601
 31
0.0
  0
LINE
  5
18694
  8
0
 10
1246.6860538739079
 20
-1838.352795508805
 30
0.0
 11
1246.786055037305
 21
-1837.852795508805
 31
0.0
  0
LINE
  5
18695
  8
0
 10
1238.4860538739081
 20
-1838.352795508805
 30
0.0
 11
1238.586055037305
 21
-1837.852795508805
 31
0.0
  0
LINE
  5
18696
  8
0
 10
1233.786055037305
 20
-1837.852795508805
 30
0.0
 11
1234.5860457301269
 21
-1841.852795508805
 31
0.0
  0
LINE
  5
18697
  8
0
 10
1235.3860550373049
 20
-1837.852795508805
 30
0.0
 11
1236.1860457301279
 21
-1841.852795508805
 31
0.0
  0
LINE
  5
18698
  8
0
 10
1236.8860538739079
 20
-1838.352795508805
 30
0.0
 11
1236.9860550373051
 21
-1837.852795508805
 31
0.0
  0
LINE
  5
18699
  8
0
 10
1235.286053873908
 20
-1838.352795508805
 30
0.0
 11
1235.3860550373049
 21
-1837.852795508805
 31
0.0
  0
LINE
  5
1869A
  8
0
 10
1236.1860457301279
 20
-1841.852795508805
 30
0.0
 11
1236.2860468935251
 21
-1841.352795508805
 31
0.0
  0
LINE
  5
1869B
  8
0
 10
1234.5860457301269
 20
-1841.852795508805
 30
0.0
 11
1234.6860468935249
 21
-1841.352795508805
 31
0.0
  0
LINE
  5
1869C
  8
0
 10
1233.6860538739079
 20
-1838.352795508805
 30
0.0
 11
1233.786055037305
 21
-1837.852795508805
 31
0.0
  0
LINE
  5
1869D
  8
0
 10
1242.5860457301269
 20
-1841.852795508805
 30
0.0
 11
1242.6860468935249
 21
-1841.352795508805
 31
0.0
  0
LINE
  5
1869E
  8
0
 10
1241.786055037305
 20
-1837.852795508805
 30
0.0
 11
1242.5860457301269
 21
-1841.852795508805
 31
0.0
  0
LINE
  5
1869F
  8
0
 10
1241.6860538739079
 20
-1838.352795508805
 30
0.0
 11
1241.786055037305
 21
-1837.852795508805
 31
0.0
  0
LINE
  5
186A0
  8
0
 10
1243.3860550373049
 20
-1837.852795508805
 30
0.0
 11
1244.1860457301279
 21
-1841.852795508805
 31
0.0
  0
LINE
  5
186A1
  8
0
 10
1244.1860457301279
 20
-1841.852795508805
 30
0.0
 11
1244.2860468935251
 21
-1841.352795508805
 31
0.0
  0
LINE
  5
186A2
  8
0
 10
1243.286053873908
 20
-1838.352795508805
 30
0.0
 11
1243.3860550373049
 21
-1837.852795508805
 31
0.0
  0
LINE
  5
186A3
  8
0
 10
1245.7860457301269
 20
-1841.852795508805
 30
0.0
 11
1245.886046893525
 21
-1841.352795508805
 31
0.0
  0
LINE
  5
186A4
  8
0
 10
1244.9860550373051
 20
-1837.852795508805
 30
0.0
 11
1245.7860457301269
 21
-1841.852795508805
 31
0.0
  0
LINE
  5
186A5
  8
0
 10
1244.8860538739079
 20
-1838.352795508805
 30
0.0
 11
1244.9860550373051
 21
-1837.852795508805
 31
0.0
  0
LINE
  5
186A6
  8
0
 10
1214.9860410766339
 20
-1839.852748972907
 30
0.0
 11
1215.3860457301139
 21
-1841.852795508805
 31
0.0
  0
LINE
  5
186A7
  8
0
 10
1224.186055037296
 20
-1837.852795508805
 30
0.0
 11
1224.986045730119
 21
-1841.852795508805
 31
0.0
  0
LINE
  5
186A8
  8
0
 10
1227.3860550373049
 20
-1837.852795508805
 30
0.0
 11
1228.1860457301229
 21
-1841.852795508805
 31
0.0
  0
LINE
  5
186A9
  8
0
 10
1216.986045730119
 20
-1841.852795508805
 30
0.0
 11
1217.0860468935159
 21
-1841.352795508805
 31
0.0
  0
LINE
  5
186AA
  8
0
 10
1215.3860457301139
 20
-1841.852795508805
 30
0.0
 11
1215.4860468935119
 21
-1841.352795508805
 31
0.0
  0
LINE
  5
186AB
  8
0
 10
1216.086053873898
 20
-1838.352795508805
 30
0.0
 11
1216.186055037296
 21
-1837.852795508805
 31
0.0
  0
LINE
  5
186AC
  8
0
 10
1216.186055037296
 20
-1837.852795508805
 30
0.0
 11
1216.986045730119
 21
-1841.852795508805
 31
0.0
  0
LINE
  5
186AD
  8
0
 10
1217.686053873899
 20
-1838.352795508805
 30
0.0
 11
1217.7860550372959
 21
-1837.852795508805
 31
0.0
  0
LINE
  5
186AE
  8
0
 10
1218.586045730118
 20
-1841.852795508805
 30
0.0
 11
1218.686046893516
 21
-1841.352795508805
 31
0.0
  0
LINE
  5
186AF
  8
0
 10
1220.1860457301191
 20
-1841.852795508805
 30
0.0
 11
1220.286046893516
 21
-1841.352795508805
 31
0.0
  0
LINE
  5
186B0
  8
0
 10
1219.2860538738989
 20
-1838.352795508805
 30
0.0
 11
1219.386055037296
 21
-1837.852795508805
 31
0.0
  0
LINE
  5
186B1
  8
0
 10
1220.8860538738991
 20
-1838.352795508805
 30
0.0
 11
1220.986055037296
 21
-1837.852795508805
 31
0.0
  0
LINE
  5
186B2
  8
0
 10
1219.386055037296
 20
-1837.852795508805
 30
0.0
 11
1220.1860457301191
 21
-1841.852795508805
 31
0.0
  0
LINE
  5
186B3
  8
0
 10
1217.7860550372959
 20
-1837.852795508805
 30
0.0
 11
1218.586045730118
 21
-1841.852795508805
 31
0.0
  0
LINE
  5
186B4
  8
0
 10
1222.486053873899
 20
-1838.352795508805
 30
0.0
 11
1222.5860550372961
 21
-1837.852795508805
 31
0.0
  0
LINE
  5
186B5
  8
0
 10
1223.3860457301189
 20
-1841.852795508805
 30
0.0
 11
1223.486046893516
 21
-1841.352795508805
 31
0.0
  0
LINE
  5
186B6
  8
0
 10
1224.986045730119
 20
-1841.852795508805
 30
0.0
 11
1225.0860468935159
 21
-1841.352795508805
 31
0.0
  0
LINE
  5
186B7
  8
0
 10
1224.0860538738989
 20
-1838.352795508805
 30
0.0
 11
1224.186055037296
 21
-1837.852795508805
 31
0.0
  0
LINE
  5
186B8
  8
0
 10
1222.5860550372961
 20
-1837.852795508805
 30
0.0
 11
1223.3860457301189
 21
-1841.852795508805
 31
0.0
  0
LINE
  5
186B9
  8
0
 10
1221.786045730119
 20
-1841.852795508805
 30
0.0
 11
1221.8860468935161
 21
-1841.352795508805
 31
0.0
  0
LINE
  5
186BA
  8
0
 10
1220.986055037296
 20
-1837.852795508805
 30
0.0
 11
1221.786045730119
 21
-1841.852795508805
 31
0.0
  0
LINE
  5
186BB
  8
0
 10
1225.7860550373
 20
-1837.852795508805
 30
0.0
 11
1226.5860457301189
 21
-1841.852795508805
 31
0.0
  0
LINE
  5
186BC
  8
0
 10
1230.586055037305
 20
-1837.852795508805
 30
0.0
 11
1231.386045730123
 21
-1841.852795508805
 31
0.0
  0
LINE
  5
186BD
  8
0
 10
1232.1860550373051
 20
-1837.852795508805
 30
0.0
 11
1232.9860457301279
 21
-1841.852795508805
 31
0.0
  0
LINE
  5
186BE
  8
0
 10
1232.0860538739071
 20
-1838.352795508805
 30
0.0
 11
1232.1860550373051
 21
-1837.852795508805
 31
0.0
  0
LINE
  5
186BF
  8
0
 10
1231.386045730123
 20
-1841.852795508805
 30
0.0
 11
1231.486046893521
 21
-1841.352795508805
 31
0.0
  0
LINE
  5
186C0
  8
0
 10
1232.9860457301279
 20
-1841.852795508805
 30
0.0
 11
1233.0860468935241
 21
-1841.352795508805
 31
0.0
  0
LINE
  5
186C1
  8
0
 10
1228.1860457301229
 20
-1841.852795508805
 30
0.0
 11
1228.286046893521
 21
-1841.352795508805
 31
0.0
  0
LINE
  5
186C2
  8
0
 10
1228.886053873907
 20
-1838.352795508805
 30
0.0
 11
1228.9860550373051
 21
-1837.852795508805
 31
0.0
  0
LINE
  5
186C3
  8
0
 10
1229.7860457301231
 20
-1841.852795508805
 30
0.0
 11
1229.8860468935211
 21
-1841.352795508805
 31
0.0
  0
LINE
  5
186C4
  8
0
 10
1228.9860550373051
 20
-1837.852795508805
 30
0.0
 11
1229.7860457301231
 21
-1841.852795508805
 31
0.0
  0
LINE
  5
186C5
  8
0
 10
1230.4860538739069
 20
-1838.352795508805
 30
0.0
 11
1230.586055037305
 21
-1837.852795508805
 31
0.0
  0
LINE
  5
186C6
  8
0
 10
1226.5860457301189
 20
-1841.852795508805
 30
0.0
 11
1226.686046893516
 21
-1841.352795508805
 31
0.0
  0
LINE
  5
186C7
  8
0
 10
1227.2860538739069
 20
-1838.352795508805
 30
0.0
 11
1227.3860550373049
 21
-1837.852795508805
 31
0.0
  0
LINE
  5
186C8
  8
0
 10
1225.6860538739029
 20
-1838.352795508805
 30
0.0
 11
1225.7860550373
 21
-1837.852795508805
 31
0.0
  0
LINE
  5
186C9
  8
0
 10
1212.3860596911111
 20
-1835.852748972907
 30
0.0
 11
1212.386041076752
 21
-1843.852748972907
 31
0.0
  0
TEXT
  5
186CA
  8
1HATCH
 10
1218.7911585226859
 20
-1779.3400532382441
 30
0.0
 40
3.5
  1
PB
  0
SOLID
  5
186CB
  8
1HATCH
 10
1219.695688634328
 20
-1798.492814241934
 30
0.0
 11
1219.7160259023719
 21
-1800.520299755234
 31
0.0
 12
1219.039225076936
 22
-1798.609003924181
 32
0.0
 13
1219.039225076936
 23
-1798.609003924181
 33
0.0
  0
SOLID
  5
186CD
  8
1DIM
 10
1227.7592094468589
 20
-1798.497200772033
 30
0.0
 11
1228.2140081163141
 21
-1800.4731231595199
 31
0.0
 12
1227.1429534654819
 22
-1798.751509658747
 32
0.0
 13
1227.1429534654819
 23
-1798.751509658747
 33
0.0
  0
TEXT
  5
186CF
  8
1DIM
 10
1224.9585030172241
 20
-1785.3413992553681
 30
0.0
 40
3.5
  1
合板9mm以上
  0
LINE
  5
186D0
  8
1DIM
 10
1207.1360572802951
 20
-1829.852863096695
 30
0.0
 11
1197.406133799381
 21
-1829.852863096695
 31
0.0
  0
LINE
  5
186D1
  8
1DIM
 10
1207.1360572802939
 20
-1849.1027473116451
 30
0.0
 11
1197.406133799381
 21
-1849.1027473116451
 31
0.0
  0
LINE
  5
186D2
  8
1DIM
 10
1198.4061337993801
 20
-1831.852863096696
 30
0.0
 11
1198.4061337993801
 21
-1847.1027473116451
 31
0.0
  0
LINE
  5
186D6
  8
1DIM
 10
1215.1360572802939
 20
-1848.852726195171
 30
0.0
 11
1215.1360572802939
 21
-1871.1027473116451
 31
0.0
  0
LINE
  5
186D7
  8
1DIM
 10
1206.6360572802939
 20
-1848.352863096696
 30
0.0
 11
1206.6360572802939
 21
-1871.1027473116451
 31
0.0
  0
LINE
  5
186D8
  8
1DIM
 10
1213.1360572802939
 20
-1870.1027473116451
 30
0.0
 11
1208.6360572802939
 21
-1870.1027473116451
 31
0.0
  0
LINE
  5
186D9
  8
1DIM
 10
1206.6360572802939
 20
-1870.1027473116451
 30
0.0
 11
1195.902723946961
 21
-1870.1027473116451
 31
0.0
  0
LINE
  5
186DD
  8
1DIM
 10
1215.1360572802939
 20
-1848.852726195171
 30
0.0
 11
1215.1360572802939
 21
-1881.0147016062799
 31
0.0
  0
LINE
  5
186DE
  8
1DIM
 10
1205.3860572802951
 20
-1848.3527473116451
 30
0.0
 11
1205.3860572802951
 21
-1881.0147016062799
 31
0.0
  0
LINE
  5
186DF
  8
1DIM
 10
1213.1360572802939
 20
-1880.0147016062799
 30
0.0
 11
1207.3860572802951
 21
-1880.0147016062799
 31
0.0
  0
LINE
  5
186E3
  8
1DIM
 10
1164.3860572802939
 20
-1850.1027473116451
 30
0.0
 11
1186.3860572802939
 21
-1850.1027473116451
 31
0.0
  0
LINE
  5
186E4
  8
1DIM
 10
1164.3860572802939
 20
-1828.6027473116451
 30
0.0
 11
1186.3860572802939
 21
-1828.6027473116451
 31
0.0
  0
LINE
  5
186E5
  8
1DIM
 10
1185.3860572802939
 20
-1848.1027473116451
 30
0.0
 11
1185.3860572802939
 21
-1830.6027473116451
 31
0.0
  0
TEXT
  5
186E9
  8
1DIM
 10
1184.686057280295
 20
-1844.0194139783121
 30
0.0
 40
3.5
  1
21.5
 50
90.0
  0
LINE
  5
186EA
  8
0
  6
BYBLOCK
 10
1184.850158900294
 20
-1830.6027473116451
 30
0.0
 11
1185.3860572802939
 21
-1828.6027473116451
 31
0.0
  0
LINE
  5
186EB
  8
0
  6
BYBLOCK
 10
1185.3860572802939
 20
-1828.6027473116451
 30
0.0
 11
1185.9219556602941
 21
-1830.6027473116451
 31
0.0
  0
LINE
  5
186EC
  8
0
  6
BYBLOCK
 10
1185.3860572802939
 20
-1828.6027473116451
 30
0.0
 11
1185.3860572802939
 21
-1830.6027473116451
 31
0.0
  0
LINE
  5
186ED
  8
0
  6
BYBLOCK
 10
1185.9219556602941
 20
-1848.1027473116451
 30
0.0
 11
1185.3860572802939
 21
-1850.1027473116451
 31
0.0
  0
LINE
  5
186EE
  8
0
  6
BYBLOCK
 10
1185.3860572802939
 20
-1850.1027473116451
 30
0.0
 11
1184.850158900294
 21
-1848.1027473116451
 31
0.0
  0
LINE
  5
186EF
  8
0
  6
BYBLOCK
 10
1185.3860572802939
 20
-1850.1027473116451
 30
0.0
 11
1185.3860572802939
 21
-1848.1027473116451
 31
0.0
  0
TEXT
  5
186F0
  8
1DIM
 10
1208.2193906136281
 20
-1879.3147016062801
 30
0.0
 40
3.5
  1
10
  0
LINE
  5
186F1
  8
0
  6
BYBLOCK
 10
1207.3860572802951
 20
-1880.5505999862801
 30
0.0
 11
1205.3860572802951
 21
-1880.0147016062799
 31
0.0
  0
LINE
  5
186F2
  8
0
  6
BYBLOCK
 10
1205.3860572802951
 20
-1880.0147016062799
 30
0.0
 11
1207.3860572802951
 21
-1879.47880322628
 31
0.0
  0
LINE
  5
186F3
  8
0
  6
BYBLOCK
 10
1205.3860572802951
 20
-1880.0147016062799
 30
0.0
 11
1207.3860572802951
 21
-1880.0147016062799
 31
0.0
  0
LINE
  5
186F4
  8
0
  6
BYBLOCK
 10
1213.1360572802939
 20
-1879.47880322628
 30
0.0
 11
1215.1360572802939
 21
-1880.0147016062799
 31
0.0
  0
LINE
  5
186F5
  8
0
  6
BYBLOCK
 10
1215.1360572802939
 20
-1880.0147016062799
 30
0.0
 11
1213.1360572802939
 21
-1880.5505999862801
 31
0.0
  0
LINE
  5
186F6
  8
0
  6
BYBLOCK
 10
1215.1360572802939
 20
-1880.0147016062799
 30
0.0
 11
1213.1360572802939
 21
-1880.0147016062799
 31
0.0
  0
TEXT
  5
186F7
  8
1DIM
 10
1196.769390613628
 20
-1869.402747311645
 30
0.0
 40
3.5
  1
8.5
  0
LINE
  5
186F8
  8
0
  6
BYBLOCK
 10
1208.6360572802939
 20
-1870.638645691645
 30
0.0
 11
1206.6360572802939
 21
-1870.1027473116451
 31
0.0
  0
LINE
  5
186F9
  8
0
  6
BYBLOCK
 10
1206.6360572802939
 20
-1870.1027473116451
 30
0.0
 11
1208.6360572802939
 21
-1869.5668489316449
 31
0.0
  0
LINE
  5
186FA
  8
0
  6
BYBLOCK
 10
1206.6360572802939
 20
-1870.1027473116451
 30
0.0
 11
1208.6360572802939
 21
-1870.1027473116451
 31
0.0
  0
LINE
  5
186FB
  8
0
  6
BYBLOCK
 10
1213.1360572802939
 20
-1869.5668489316449
 30
0.0
 11
1215.1360572802939
 21
-1870.1027473116451
 31
0.0
  0
LINE
  5
186FC
  8
0
  6
BYBLOCK
 10
1215.1360572802939
 20
-1870.1027473116451
 30
0.0
 11
1213.1360572802939
 21
-1870.638645691645
 31
0.0
  0
LINE
  5
186FD
  8
0
  6
BYBLOCK
 10
1215.1360572802939
 20
-1870.1027473116451
 30
0.0
 11
1213.1360572802939
 21
-1870.1027473116451
 31
0.0
  0
TEXT
  5
186FE
  8
1DIM
 10
1197.706133799381
 20
-1841.811138537503
 30
0.0
 40
3.5
  1
19
 50
90.0
  0
LINE
  5
186FF
  8
0
  6
BYBLOCK
 10
1198.94203217938
 20
-1847.1027473116451
 30
0.0
 11
1198.4061337993801
 21
-1849.1027473116451
 31
0.0
  0
LINE
  5
18700
  8
0
  6
BYBLOCK
 10
1198.4061337993801
 20
-1849.1027473116451
 30
0.0
 11
1197.8702354193811
 21
-1847.1027473116451
 31
0.0
  0
LINE
  5
18701
  8
0
  6
BYBLOCK
 10
1198.4061337993801
 20
-1849.1027473116451
 30
0.0
 11
1198.4061337993801
 21
-1847.1027473116451
 31
0.0
  0
LINE
  5
18702
  8
0
  6
BYBLOCK
 10
1197.8702354193811
 20
-1831.852863096696
 30
0.0
 11
1198.4061337993801
 21
-1829.852863096695
 31
0.0
  0
LINE
  5
18703
  8
0
  6
BYBLOCK
 10
1198.4061337993801
 20
-1829.852863096695
 30
0.0
 11
1198.94203217938
 21
-1831.852863096696
 31
0.0
  0
LINE
  5
18704
  8
0
  6
BYBLOCK
 10
1198.4061337993801
 20
-1829.852863096695
 30
0.0
 11
1198.4061337993801
 21
-1831.852863096696
 31
0.0
  0
LINE
  5
18705
  8
1DIM
 10
1227.4510814561711
 20
-1798.6243552153901
 30
0.0
 11
1222.258503017224
 21
-1786.0413992553681
 31
0.0
  0
LINE
  5
18706
  8
1DIM
 10
1222.258503017224
 20
-1786.0413992553681
 30
0.0
 11
1254.1585030172239
 21
-1786.0413992553681
 31
0.0
  0
LINE
  5
18707
  8
1HATCH
 10
1219.3674568556321
 20
-1798.5509090830569
 30
0.0
 11
1216.0911585226861
 21
-1780.0400532382439
 31
0.0
  0
LINE
  5
18708
  8
1HATCH
 10
1216.0911585226861
 20
-1780.0400532382439
 30
0.0
 11
1224.6244918560189
 21
-1780.0400532382439
 31
0.0
  0
LINE
  5
18709
  8
0
 10
1246.7860538739069
 20
-1838.352795508805
 30
0.0
 11
1214.886088775783
 21
-1838.352795508805
 31
0.0
  0
LINE
  5
1870A
  8
0
 10
1212.3860596911111
 20
-1835.852748972907
 30
0.0
 11
1214.886088775783
 21
-1838.352795508805
 31
0.0
  0
LINE
  5
1870B
  8
0
 10
1252.086050383768
 20
-1839.852795508805
 30
0.0
 11
1246.7860538739069
 21
-1838.352795508805
 31
0.0
  0
LINE
  5
1870C
  8
0
 10
1212.3860596911111
 20
-1835.852748972907
 30
0.0
 11
1212.08605969111
 21
-1835.852748972907
 31
0.0
  0
LINE
  5
1870D
  8
0
 10
1252.086050383768
 20
-1839.852795508805
 30
0.0
 11
1246.786046893523
 21
-1841.352795508805
 31
0.0
  0
LINE
  5
1870E
  8
0
 10
1212.08605969111
 20
-1835.852748972907
 30
0.0
 11
1212.0860410767509
 21
-1843.852748972907
 31
0.0
  0
LINE
  5
1870F
  8
0
 10
1246.786046893523
 20
-1841.352795508805
 30
0.0
 11
1214.8860236254179
 21
-1841.352795508805
 31
0.0
  0
LINE
  5
18710
  8
0
 10
1212.386041076752
 20
-1843.852748972907
 30
0.0
 11
1212.0860410767509
 21
-1843.852748972907
 31
0.0
  0
LINE
  5
18711
  8
0
 10
1212.386041076752
 20
-1843.852748972907
 30
0.0
 11
1214.8860236254179
 21
-1841.352795508805
 31
0.0
  0
LINE
  5
18712
  8
0
 10
1122.8861038161931
 20
-1743.516999285687
 30
0.0
 11
1122.8861038161931
 21
-1775.4169643838111
 31
0.0
  0
LINE
  5
18713
  8
0
 10
1120.3860572802951
 20
-1777.916993468483
 30
0.0
 11
1122.8861038161931
 21
-1775.4169643838111
 31
0.0
  0
LINE
  5
18714
  8
0
 10
1124.386103816192
 20
-1738.2170027758259
 30
0.0
 11
1122.8861038161931
 21
-1743.516999285687
 31
0.0
  0
LINE
  5
18715
  8
0
 10
1120.3860572802951
 20
-1777.916993468483
 30
0.0
 11
1120.3860572802951
 21
-1778.2169934684839
 31
0.0
  0
LINE
  5
18716
  8
0
 10
1124.386103816192
 20
-1738.2170027758259
 30
0.0
 11
1125.886103816192
 21
-1743.517006266072
 31
0.0
  0
LINE
  5
18717
  8
0
 10
1120.3860572802951
 20
-1778.2169934684839
 30
0.0
 11
1128.3860572802951
 21
-1778.217012082843
 31
0.0
  0
LINE
  5
18718
  8
0
 10
1125.886103816192
 20
-1743.517006266072
 30
0.0
 11
1125.886103816192
 21
-1775.417029534176
 31
0.0
  0
LINE
  5
18719
  8
0
 10
1128.3860572802951
 20
-1777.9170120828419
 30
0.0
 11
1128.3860572802951
 21
-1778.217012082843
 31
0.0
  0
LINE
  5
1871A
  8
0
 10
1128.3860572802951
 20
-1777.9170120828419
 30
0.0
 11
1125.886103816192
 21
-1775.417029534176
 31
0.0
  0
LINE
  5
1871B
  8
0
 10
926.88610381619264
 20
-1743.516999285687
 30
0.0
 11
926.88610381619264
 21
-1775.4169643838111
 31
0.0
  0
LINE
  5
1871C
  8
0
 10
924.38605728029461
 20
-1777.916993468483
 30
0.0
 11
926.88610381619264
 21
-1775.4169643838111
 31
0.0
  0
LINE
  5
1871D
  8
0
 10
928.38610381619253
 20
-1738.2170027758259
 30
0.0
 11
926.88610381619264
 21
-1743.516999285687
 31
0.0
  0
LINE
  5
1871E
  8
0
 10
924.38605728029461
 20
-1777.916993468483
 30
0.0
 11
924.38605728029461
 21
-1778.2169934684839
 31
0.0
  0
LINE
  5
1871F
  8
0
 10
928.38610381619253
 20
-1738.2170027758259
 30
0.0
 11
929.88610381619253
 21
-1743.517006266072
 31
0.0
  0
LINE
  5
18720
  8
0
 10
924.38605728029461
 20
-1778.2169934684839
 30
0.0
 11
932.38605728029461
 21
-1778.217012082843
 31
0.0
  0
LINE
  5
18721
  8
0
 10
929.88610381619253
 20
-1743.517006266072
 30
0.0
 11
929.88610381619253
 21
-1775.417029534176
 31
0.0
  0
LINE
  5
18722
  8
0
 10
932.38605728029461
 20
-1777.9170120828419
 30
0.0
 11
932.38605728029461
 21
-1778.217012082843
 31
0.0
  0
LINE
  5
18723
  8
0
 10
932.38605728029461
 20
-1777.9170120828419
 30
0.0
 11
929.88610381619253
 21
-1775.417029534176
 31
0.0
  0
LINE
  5
18724
  8
0
 10
730.88610381619253
 20
-1743.516999285687
 30
0.0
 11
730.88610381619253
 21
-1775.4169643838111
 31
0.0
  0
LINE
  5
18725
  8
0
 10
728.38605728029461
 20
-1777.916993468483
 30
0.0
 11
730.88610381619253
 21
-1775.4169643838111
 31
0.0
  0
LINE
  5
18726
  8
0
 10
732.38610381619253
 20
-1738.2170027758259
 30
0.0
 11
730.88610381619253
 21
-1743.516999285687
 31
0.0
  0
LINE
  5
18727
  8
0
 10
728.38605728029461
 20
-1777.916993468483
 30
0.0
 11
728.38605728029461
 21
-1778.2169934684839
 31
0.0
  0
LINE
  5
18728
  8
0
 10
732.38610381619253
 20
-1738.2170027758259
 30
0.0
 11
733.88610381619253
 21
-1743.517006266072
 31
0.0
  0
LINE
  5
18729
  8
0
 10
728.38605728029461
 20
-1778.2169934684839
 30
0.0
 11
736.38605728029461
 21
-1778.217012082843
 31
0.0
  0
LINE
  5
1872A
  8
0
 10
733.88610381619253
 20
-1743.517006266072
 30
0.0
 11
733.88610381619253
 21
-1775.417029534176
 31
0.0
  0
LINE
  5
1872B
  8
0
 10
736.38605728029461
 20
-1777.9170120828419
 30
0.0
 11
736.38605728029461
 21
-1778.217012082843
 31
0.0
  0
LINE
  5
1872C
  8
0
 10
736.38605728029461
 20
-1777.9170120828419
 30
0.0
 11
733.88610381619253
 21
-1775.417029534176
 31
0.0
  0
LINE
  5
1872D
  8
0
 10
534.88610381619253
 20
-1743.516999285687
 30
0.0
 11
534.88610381619253
 21
-1775.4169643838111
 31
0.0
  0
LINE
  5
1872E
  8
0
 10
532.38605728029461
 20
-1777.916993468483
 30
0.0
 11
534.88610381619253
 21
-1775.4169643838111
 31
0.0
  0
LINE
  5
1872F
  8
0
 10
536.38610381619253
 20
-1738.2170027758259
 30
0.0
 11
534.88610381619253
 21
-1743.516999285687
 31
0.0
  0
LINE
  5
18730
  8
0
 10
532.38605728029461
 20
-1777.916993468483
 30
0.0
 11
532.38605728029461
 21
-1778.2169934684839
 31
0.0
  0
LINE
  5
18731
  8
0
 10
536.38610381619253
 20
-1738.2170027758259
 30
0.0
 11
537.88610381619253
 21
-1743.517006266072
 31
0.0
  0
LINE
  5
18732
  8
0
 10
532.38605728029461
 20
-1778.2169934684839
 30
0.0
 11
540.38605728029461
 21
-1778.217012082843
 31
0.0
  0
LINE
  5
18733
  8
0
 10
537.88610381619253
 20
-1743.517006266072
 30
0.0
 11
537.88610381619253
 21
-1775.417029534176
 31
0.0
  0
LINE
  5
18734
  8
0
 10
540.38605728029461
 20
-1777.9170120828419
 30
0.0
 11
540.38605728029461
 21
-1778.217012082843
 31
0.0
  0
LINE
  5
18735
  8
0
 10
540.38605728029461
 20
-1777.9170120828419
 30
0.0
 11
537.88610381619253
 21
-1775.417029534176
 31
0.0
  0
LINE
  5
18736
  8
0
 10
338.88610381619247
 20
-1743.516999285687
 30
0.0
 11
338.88610381619247
 21
-1775.4169643838111
 31
0.0
  0
LINE
  5
18737
  8
0
 10
336.38605728029461
 20
-1777.916993468483
 30
0.0
 11
338.88610381619247
 21
-1775.4169643838111
 31
0.0
  0
LINE
  5
18738
  8
0
 10
340.38610381619247
 20
-1738.2170027758259
 30
0.0
 11
338.88610381619247
 21
-1743.516999285687
 31
0.0
  0
LINE
  5
18739
  8
0
 10
336.38605728029461
 20
-1777.916993468483
 30
0.0
 11
336.38605728029461
 21
-1778.2169934684839
 31
0.0
  0
LINE
  5
1873A
  8
0
 10
340.38610381619247
 20
-1738.2170027758259
 30
0.0
 11
341.88610381619247
 21
-1743.517006266072
 31
0.0
  0
LINE
  5
1873B
  8
0
 10
336.38605728029461
 20
-1778.2169934684839
 30
0.0
 11
344.38605728029461
 21
-1778.217012082843
 31
0.0
  0
LINE
  5
1873C
  8
0
 10
341.88610381619247
 20
-1743.517006266072
 30
0.0
 11
341.88610381619247
 21
-1775.417029534176
 31
0.0
  0
LINE
  5
1873D
  8
0
 10
344.38605728029461
 20
-1777.9170120828419
 30
0.0
 11
344.38605728029461
 21
-1778.217012082843
 31
0.0
  0
LINE
  5
1873E
  8
0
 10
344.38605728029461
 20
-1777.9170120828419
 30
0.0
 11
341.88610381619247
 21
-1775.417029534176
 31
0.0
  0
LINE
  5
1873F
  8
0
 10
142.8861038161925
 20
-1743.516999285687
 30
0.0
 11
142.8861038161925
 21
-1775.4169643838111
 31
0.0
  0
LINE
  5
18740
  8
0
 10
140.38605728029461
 20
-1777.916993468483
 30
0.0
 11
142.8861038161925
 21
-1775.4169643838111
 31
0.0
  0
LINE
  5
18741
  8
0
 10
144.3861038161925
 20
-1738.2170027758259
 30
0.0
 11
142.8861038161925
 21
-1743.516999285687
 31
0.0
  0
LINE
  5
18742
  8
0
 10
140.38605728029461
 20
-1777.916993468483
 30
0.0
 11
140.38605728029461
 21
-1778.2169934684839
 31
0.0
  0
LINE
  5
18743
  8
0
 10
144.3861038161925
 20
-1738.2170027758259
 30
0.0
 11
145.8861038161925
 21
-1743.517006266072
 31
0.0
  0
LINE
  5
18744
  8
0
 10
140.38605728029461
 20
-1778.2169934684839
 30
0.0
 11
148.38605728029461
 21
-1778.217012082843
 31
0.0
  0
LINE
  5
18745
  8
0
 10
145.8861038161925
 20
-1743.517006266072
 30
0.0
 11
145.8861038161925
 21
-1775.417029534176
 31
0.0
  0
LINE
  5
18746
  8
0
 10
148.38605728029461
 20
-1777.9170120828419
 30
0.0
 11
148.38605728029461
 21
-1778.217012082843
 31
0.0
  0
LINE
  5
18747
  8
0
 10
148.38605728029461
 20
-1777.9170120828419
 30
0.0
 11
145.8861038161925
 21
-1775.417029534176
 31
0.0
  0
LINE
  5
18748
  8
0
 10
-53.113896183807462
 20
-1743.516999285687
 30
0.0
 11
-53.113896183807469
 21
-1775.4169643838111
 31
0.0
  0
LINE
  5
18749
  8
0
 10
-55.613942719705392
 20
-1777.916993468483
 30
0.0
 11
-53.113896183807469
 21
-1775.4169643838111
 31
0.0
  0
LINE
  5
1874A
  8
0
 10
-51.613896183807462
 20
-1738.2170027758259
 30
0.0
 11
-53.113896183807462
 21
-1743.516999285687
 31
0.0
  0
LINE
  5
1874B
  8
0
 10
-55.613942719705392
 20
-1777.916993468483
 30
0.0
 11
-55.613942719705392
 21
-1778.2169934684839
 31
0.0
  0
LINE
  5
1874C
  8
0
 10
-51.613896183807462
 20
-1738.2170027758259
 30
0.0
 11
-50.113896183807462
 21
-1743.517006266072
 31
0.0
  0
LINE
  5
1874D
  8
0
 10
-55.613942719705392
 20
-1778.2169934684839
 30
0.0
 11
-47.613942719705392
 21
-1778.217012082843
 31
0.0
  0
LINE
  5
1874E
  8
0
 10
-50.113896183807462
 20
-1743.517006266072
 30
0.0
 11
-50.113896183807462
 21
-1775.417029534176
 31
0.0
  0
LINE
  5
1874F
  8
0
 10
-47.613942719705392
 20
-1777.9170120828419
 30
0.0
 11
-47.613942719705392
 21
-1778.217012082843
 31
0.0
  0
LINE
  5
18750
  8
0
 10
-47.613942719705392
 20
-1777.9170120828419
 30
0.0
 11
-50.113896183807462
 21
-1775.417029534176
 31
0.0
  0
LINE
  5
18751
  8
0
 10
-249.1138961838075
 20
-1743.516999285687
 30
0.0
 11
-249.1138961838075
 21
-1775.4169643838111
 31
0.0
  0
LINE
  5
18752
  8
0
 10
-251.61394271970539
 20
-1777.916993468483
 30
0.0
 11
-249.1138961838075
 21
-1775.4169643838111
 31
0.0
  0
LINE
  5
18753
  8
0
 10
-247.6138961838075
 20
-1738.2170027758259
 30
0.0
 11
-249.1138961838075
 21
-1743.516999285687
 31
0.0
  0
LINE
  5
18754
  8
0
 10
-251.61394271970539
 20
-1777.916993468483
 30
0.0
 11
-251.61394271970539
 21
-1778.2169934684839
 31
0.0
  0
LINE
  5
18755
  8
0
 10
-247.6138961838075
 20
-1738.2170027758259
 30
0.0
 11
-246.1138961838075
 21
-1743.517006266072
 31
0.0
  0
LINE
  5
18756
  8
0
 10
-251.61394271970539
 20
-1778.2169934684839
 30
0.0
 11
-243.61394271970539
 21
-1778.217012082843
 31
0.0
  0
LINE
  5
18757
  8
0
 10
-246.1138961838075
 20
-1743.517006266072
 30
0.0
 11
-246.1138961838075
 21
-1775.417029534176
 31
0.0
  0
LINE
  5
18758
  8
0
 10
-243.61394271970539
 20
-1777.9170120828419
 30
0.0
 11
-243.61394271970539
 21
-1778.217012082843
 31
0.0
  0
LINE
  5
18759
  8
0
 10
-243.61394271970539
 20
-1777.9170120828419
 30
0.0
 11
-246.1138961838075
 21
-1775.417029534176
 31
0.0
  0
LINE
  5
1875A
  8
0
 10
-445.11389618380753
 20
-1743.516999285687
 30
0.0
 11
-445.11389618380753
 21
-1775.4169643838111
 31
0.0
  0
LINE
  5
1875B
  8
0
 10
-447.61394271970528
 20
-1777.916993468483
 30
0.0
 11
-445.11389618380753
 21
-1775.4169643838111
 31
0.0
  0
LINE
  5
1875C
  8
0
 10
-443.61389618380741
 20
-1738.2170027758259
 30
0.0
 11
-445.11389618380753
 21
-1743.516999285687
 31
0.0
  0
LINE
  5
1875D
  8
0
 10
-447.61394271970528
 20
-1777.916993468483
 30
0.0
 11
-447.61394271970528
 21
-1778.2169934684839
 31
0.0
  0
LINE
  5
1875E
  8
0
 10
-443.61389618380741
 20
-1738.2170027758259
 30
0.0
 11
-442.11389618380741
 21
-1743.517006266072
 31
0.0
  0
LINE
  5
1875F
  8
0
 10
-447.61394271970528
 20
-1778.2169934684839
 30
0.0
 11
-439.61394271970539
 21
-1778.217012082843
 31
0.0
  0
LINE
  5
18760
  8
0
 10
-442.11389618380741
 20
-1743.517006266072
 30
0.0
 11
-442.11389618380741
 21
-1775.417029534176
 31
0.0
  0
LINE
  5
18761
  8
0
 10
-439.61394271970539
 20
-1777.9170120828419
 30
0.0
 11
-439.61394271970539
 21
-1778.217012082843
 31
0.0
  0
LINE
  5
18762
  8
0
 10
-439.61394271970539
 20
-1777.9170120828419
 30
0.0
 11
-442.11389618380741
 21
-1775.417029534176
 31
0.0
  0
TEXT
  5
18763
  8
1DIM1
 10
-377.28110938637212
 20
-1897.3354746287321
 30
0.0
 40
17.5
  1
P196
  0
LINE
  5
18764
  8
0
  6
BYBLOCK
 10
-257.61394271970539
 20
-1898.1559827287319
 30
0.0
 11
-247.61394271970539
 21
-1900.8354746287321
 31
0.0
  0
LINE
  5
18765
  8
0
  6
BYBLOCK
 10
-247.61394271970539
 20
-1900.8354746287321
 30
0.0
 11
-257.61394271970539
 21
-1903.514966528732
 31
0.0
  0
LINE
  5
18766
  8
0
  6
BYBLOCK
 10
-247.61394271970539
 20
-1900.8354746287321
 30
0.0
 11
-257.61394271970539
 21
-1900.8354746287321
 31
0.0
  0
LINE
  5
18767
  8
0
  6
BYBLOCK
 10
-433.61394271970528
 20
-1903.514966528732
 30
0.0
 11
-443.61394271970539
 21
-1900.8354746287321
 31
0.0
  0
LINE
  5
18768
  8
0
  6
BYBLOCK
 10
-443.61394271970539
 20
-1900.8354746287321
 30
0.0
 11
-433.61394271970528
 21
-1898.1559827287319
 31
0.0
  0
LINE
  5
18769
  8
0
  6
BYBLOCK
 10
-443.61394271970539
 20
-1900.8354746287321
 30
0.0
 11
-433.61394271970528
 21
-1900.8354746287321
 31
0.0
  0
TEXT
  5
1876A
  8
1DIM1
 10
312.67772394696129
 20
-1935.886677737059
 30
0.0
 40
17.5
  1
1650
  0
LINE
  5
1876B
  8
0
  6
BYBLOCK
 10
1155.3860572802951
 20
-1936.7071858370589
 30
0.0
 11
1165.3860572802939
 21
-1939.386677737059
 31
0.0
  0
LINE
  5
1876C
  8
0
  6
BYBLOCK
 10
1165.3860572802939
 20
-1939.386677737059
 30
0.0
 11
1155.3860572802951
 21
-1942.0661696370589
 31
0.0
  0
LINE
  5
1876D
  8
0
  6
BYBLOCK
 10
1165.3860572802939
 20
-1939.386677737059
 30
0.0
 11
1155.3860572802951
 21
-1939.386677737059
 31
0.0
  0
LINE
  5
1876E
  8
0
  6
BYBLOCK
 10
-474.61394271970539
 20
-1942.0661696370589
 30
0.0
 11
-484.61394271970551
 21
-1939.386677737059
 31
0.0
  0
LINE
  5
1876F
  8
0
  6
BYBLOCK
 10
-484.61394271970551
 20
-1939.386677737059
 30
0.0
 11
-474.61394271970539
 21
-1936.7071858370589
 31
0.0
  0
LINE
  5
18770
  8
0
  6
BYBLOCK
 10
-484.61394271970551
 20
-1939.386677737059
 30
0.0
 11
-474.61394271970539
 21
-1939.386677737059
 31
0.0
  0
TEXT
  5
18771
  8
1DIM1
 10
-475.7806093863723
 20
-1897.3354746287321
 30
0.0
 40
17.5
  1
41
  0
LINE
  5
18772
  8
0
  6
BYBLOCK
 10
-453.61394271970539
 20
-1898.1559827287319
 30
0.0
 11
-443.61394271970539
 21
-1900.8354746287321
 31
0.0
  0
LINE
  5
18773
  8
0
  6
BYBLOCK
 10
-443.61394271970539
 20
-1900.8354746287321
 30
0.0
 11
-453.61394271970539
 21
-1903.514966528732
 31
0.0
  0
LINE
  5
18774
  8
0
  6
BYBLOCK
 10
-443.61394271970539
 20
-1900.8354746287321
 30
0.0
 11
-453.61394271970539
 21
-1900.8354746287321
 31
0.0
  0
LINE
  5
18775
  8
0
  6
BYBLOCK
 10
-474.61394271970562
 20
-1903.514966528732
 30
0.0
 11
-484.61394271970562
 21
-1900.8354746287321
 31
0.0
  0
LINE
  5
18776
  8
0
  6
BYBLOCK
 10
-484.61394271970562
 20
-1900.8354746287321
 30
0.0
 11
-474.61394271970562
 21
-1898.1559827287319
 31
0.0
  0
LINE
  5
18777
  8
0
  6
BYBLOCK
 10
-484.61394271970562
 20
-1900.8354746287321
 30
0.0
 11
-474.61394271970562
 21
-1900.8354746287321
 31
0.0
  0
TEXT
  5
18778
  8
1DIM1
 10
-181.28110938637201
 20
-1897.3354746287321
 30
0.0
 40
17.5
  1
P196
  0
LINE
  5
18779
  8
0
  6
BYBLOCK
 10
-61.613942719705392
 20
-1898.1559827287319
 30
0.0
 11
-51.613942719705392
 21
-1900.8354746287321
 31
0.0
  0
LINE
  5
1877A
  8
0
  6
BYBLOCK
 10
-51.613942719705392
 20
-1900.8354746287321
 30
0.0
 11
-61.613942719705392
 21
-1903.514966528732
 31
0.0
  0
LINE
  5
1877B
  8
0
  6
BYBLOCK
 10
-51.613942719705392
 20
-1900.8354746287321
 30
0.0
 11
-61.613942719705392
 21
-1900.8354746287321
 31
0.0
  0
LINE
  5
1877C
  8
0
  6
BYBLOCK
 10
-237.61394271970539
 20
-1903.514966528732
 30
0.0
 11
-247.61394271970539
 21
-1900.8354746287321
 31
0.0
  0
LINE
  5
1877D
  8
0
  6
BYBLOCK
 10
-247.61394271970539
 20
-1900.8354746287321
 30
0.0
 11
-237.61394271970539
 21
-1898.1559827287319
 31
0.0
  0
LINE
  5
1877E
  8
0
  6
BYBLOCK
 10
-247.61394271970539
 20
-1900.8354746287321
 30
0.0
 11
-237.61394271970539
 21
-1900.8354746287321
 31
0.0
  0
TEXT
  5
1877F
  8
1DIM1
 10
14.71889061362795
 20
-1897.3354746287321
 30
0.0
 40
17.5
  1
P196
  0
LINE
  5
18780
  8
0
  6
BYBLOCK
 10
134.38605728029461
 20
-1898.1559827287319
 30
0.0
 11
144.38605728029461
 21
-1900.8354746287321
 31
0.0
  0
LINE
  5
18781
  8
0
  6
BYBLOCK
 10
144.38605728029461
 20
-1900.8354746287321
 30
0.0
 11
134.38605728029461
 21
-1903.514966528732
 31
0.0
  0
LINE
  5
18782
  8
0
  6
BYBLOCK
 10
144.38605728029461
 20
-1900.8354746287321
 30
0.0
 11
134.38605728029461
 21
-1900.8354746287321
 31
0.0
  0
LINE
  5
18783
  8
0
  6
BYBLOCK
 10
-41.613942719705392
 20
-1903.514966528732
 30
0.0
 11
-51.613942719705392
 21
-1900.8354746287321
 31
0.0
  0
LINE
  5
18784
  8
0
  6
BYBLOCK
 10
-51.613942719705392
 20
-1900.8354746287321
 30
0.0
 11
-41.613942719705392
 21
-1898.1559827287319
 31
0.0
  0
LINE
  5
18785
  8
0
  6
BYBLOCK
 10
-51.613942719705392
 20
-1900.8354746287321
 30
0.0
 11
-41.613942719705392
 21
-1900.8354746287321
 31
0.0
  0
TEXT
  5
18786
  8
1DIM1
 10
210.71889061362799
 20
-1897.3354746287321
 30
0.0
 40
17.5
  1
P196
  0
LINE
  5
18787
  8
0
  6
BYBLOCK
 10
330.38605728029461
 20
-1898.1559827287319
 30
0.0
 11
340.38605728029461
 21
-1900.8354746287321
 31
0.0
  0
LINE
  5
18788
  8
0
  6
BYBLOCK
 10
340.38605728029461
 20
-1900.8354746287321
 30
0.0
 11
330.38605728029461
 21
-1903.514966528732
 31
0.0
  0
LINE
  5
18789
  8
0
  6
BYBLOCK
 10
340.38605728029461
 20
-1900.8354746287321
 30
0.0
 11
330.38605728029461
 21
-1900.8354746287321
 31
0.0
  0
LINE
  5
1878A
  8
0
  6
BYBLOCK
 10
154.38605728029461
 20
-1903.514966528732
 30
0.0
 11
144.38605728029461
 21
-1900.8354746287321
 31
0.0
  0
LINE
  5
1878B
  8
0
  6
BYBLOCK
 10
144.38605728029461
 20
-1900.8354746287321
 30
0.0
 11
154.38605728029461
 21
-1898.1559827287319
 31
0.0
  0
LINE
  5
1878C
  8
0
  6
BYBLOCK
 10
144.38605728029461
 20
-1900.8354746287321
 30
0.0
 11
154.38605728029461
 21
-1900.8354746287321
 31
0.0
  0
TEXT
  5
1878D
  8
1DIM1
 10
406.71889061362788
 20
-1897.3354746287321
 30
0.0
 40
17.5
  1
P196
  0
LINE
  5
1878E
  8
0
  6
BYBLOCK
 10
526.38605728029461
 20
-1898.1559827287319
 30
0.0
 11
536.38605728029461
 21
-1900.8354746287321
 31
0.0
  0
LINE
  5
1878F
  8
0
  6
BYBLOCK
 10
536.38605728029461
 20
-1900.8354746287321
 30
0.0
 11
526.38605728029461
 21
-1903.514966528732
 31
0.0
  0
LINE
  5
18790
  8
0
  6
BYBLOCK
 10
536.38605728029461
 20
-1900.8354746287321
 30
0.0
 11
526.38605728029461
 21
-1900.8354746287321
 31
0.0
  0
LINE
  5
18791
  8
0
  6
BYBLOCK
 10
350.38605728029461
 20
-1903.514966528732
 30
0.0
 11
340.38605728029461
 21
-1900.8354746287321
 31
0.0
  0
LINE
  5
18792
  8
0
  6
BYBLOCK
 10
340.38605728029461
 20
-1900.8354746287321
 30
0.0
 11
350.38605728029461
 21
-1898.1559827287319
 31
0.0
  0
LINE
  5
18793
  8
0
  6
BYBLOCK
 10
340.38605728029461
 20
-1900.8354746287321
 30
0.0
 11
350.38605728029461
 21
-1900.8354746287321
 31
0.0
  0
TEXT
  5
18794
  8
1DIM1
 10
602.71889061362776
 20
-1897.3354746287321
 30
0.0
 40
17.5
  1
P196
  0
LINE
  5
18795
  8
0
  6
BYBLOCK
 10
722.38605728029461
 20
-1898.1559827287319
 30
0.0
 11
732.38605728029461
 21
-1900.8354746287321
 31
0.0
  0
LINE
  5
18796
  8
0
  6
BYBLOCK
 10
732.38605728029461
 20
-1900.8354746287321
 30
0.0
 11
722.38605728029461
 21
-1903.514966528732
 31
0.0
  0
LINE
  5
18797
  8
0
  6
BYBLOCK
 10
732.38605728029461
 20
-1900.8354746287321
 30
0.0
 11
722.38605728029461
 21
-1900.8354746287321
 31
0.0
  0
LINE
  5
18798
  8
0
  6
BYBLOCK
 10
546.38605728029449
 20
-1903.514966528732
 30
0.0
 11
536.38605728029461
 21
-1900.8354746287321
 31
0.0
  0
LINE
  5
18799
  8
0
  6
BYBLOCK
 10
536.38605728029461
 20
-1900.8354746287321
 30
0.0
 11
546.38605728029449
 21
-1898.1559827287319
 31
0.0
  0
LINE
  5
1879A
  8
0
  6
BYBLOCK
 10
536.38605728029461
 20
-1900.8354746287321
 30
0.0
 11
546.38605728029449
 21
-1900.8354746287321
 31
0.0
  0
TEXT
  5
1879B
  8
1DIM1
 10
798.71889061362776
 20
-1897.3354746287321
 30
0.0
 40
17.5
  1
P196
  0
LINE
  5
1879C
  8
0
  6
BYBLOCK
 10
918.38605728029449
 20
-1898.1559827287319
 30
0.0
 11
928.38605728029472
 21
-1900.8354746287321
 31
0.0
  0
LINE
  5
1879D
  8
0
  6
BYBLOCK
 10
928.38605728029472
 20
-1900.8354746287321
 30
0.0
 11
918.38605728029449
 21
-1903.514966528732
 31
0.0
  0
LINE
  5
1879E
  8
0
  6
BYBLOCK
 10
928.38605728029472
 20
-1900.8354746287321
 30
0.0
 11
918.38605728029449
 21
-1900.8354746287321
 31
0.0
  0
LINE
  5
1879F
  8
0
  6
BYBLOCK
 10
742.38605728029449
 20
-1903.514966528732
 30
0.0
 11
732.38605728029461
 21
-1900.8354746287321
 31
0.0
  0
LINE
  5
187A0
  8
0
  6
BYBLOCK
 10
732.38605728029461
 20
-1900.8354746287321
 30
0.0
 11
742.38605728029449
 21
-1898.1559827287319
 31
0.0
  0
LINE
  5
187A1
  8
0
  6
BYBLOCK
 10
732.38605728029461
 20
-1900.8354746287321
 30
0.0
 11
742.38605728029449
 21
-1900.8354746287321
 31
0.0
  0
TEXT
  5
187A2
  8
1DIM1
 10
994.71889061362788
 20
-1897.3354746287321
 30
0.0
 40
17.5
  1
P196
  0
LINE
  5
187A3
  8
0
  6
BYBLOCK
 10
1114.3860572802939
 20
-1898.1559827287319
 30
0.0
 11
1124.3860572802939
 21
-1900.8354746287321
 31
0.0
  0
LINE
  5
187A4
  8
0
  6
BYBLOCK
 10
1124.3860572802939
 20
-1900.8354746287321
 30
0.0
 11
1114.3860572802939
 21
-1903.514966528732
 31
0.0
  0
LINE
  5
187A5
  8
0
  6
BYBLOCK
 10
1124.3860572802939
 20
-1900.8354746287321
 30
0.0
 11
1114.3860572802939
 21
-1900.8354746287321
 31
0.0
  0
LINE
  5
187A6
  8
0
  6
BYBLOCK
 10
938.38605728029461
 20
-1903.514966528732
 30
0.0
 11
928.38605728029472
 21
-1900.8354746287321
 31
0.0
  0
LINE
  5
187A7
  8
0
  6
BYBLOCK
 10
928.38605728029472
 20
-1900.8354746287321
 30
0.0
 11
938.38605728029461
 21
-1898.1559827287319
 31
0.0
  0
LINE
  5
187A8
  8
0
  6
BYBLOCK
 10
928.38605728029472
 20
-1900.8354746287321
 30
0.0
 11
938.38605728029461
 21
-1900.8354746287321
 31
0.0
  0
TEXT
  5
187A9
  8
1DIM1
 10
1133.2193906136281
 20
-1897.5854746309681
 30
0.0
 40
17.5
  1
41
  0
LINE
  5
187AA
  8
0
  6
BYBLOCK
 10
1155.3860572802951
 20
-1898.4059827309679
 30
0.0
 11
1165.3860572802939
 21
-1901.0854746309681
 31
0.0
  0
LINE
  5
187AB
  8
0
  6
BYBLOCK
 10
1165.3860572802939
 20
-1901.0854746309681
 30
0.0
 11
1155.3860572802951
 21
-1903.764966530968
 31
0.0
  0
LINE
  5
187AC
  8
0
  6
BYBLOCK
 10
1165.3860572802939
 20
-1901.0854746309681
 30
0.0
 11
1155.3860572802951
 21
-1901.0854746309681
 31
0.0
  0
LINE
  5
187AD
  8
0
  6
BYBLOCK
 10
1134.3860572802951
 20
-1903.764966530968
 30
0.0
 11
1124.3860572802951
 21
-1901.0854746309681
 31
0.0
  0
LINE
  5
187AE
  8
0
  6
BYBLOCK
 10
1124.3860572802951
 20
-1901.0854746309681
 30
0.0
 11
1134.3860572802951
 21
-1898.4059827309679
 31
0.0
  0
LINE
  5
187AF
  8
0
  6
BYBLOCK
 10
1124.3860572802951
 20
-1901.0854746309681
 30
0.0
 11
1134.3860572802951
 21
-1901.0854746309681
 31
0.0
  0
LINE
  5
187B0
  8
1DIM
 10
1101.2698218866881
 20
-1825.755389226875
 30
0.0
 11
1103.2657593201391
 21
-1817.1824889353099
 31
0.0
1001
ACAD
1000
DSTYLE
1002
{
1070
    40
1040
2.0
1002
}
  0
LINE
  5
187B1
  8
1DIM
 10
1103.2657593201391
 20
-1817.1824889353099
 30
0.0
 11
1158.1324259868049
 21
-1817.1824889353099
 31
0.0
1001
ACAD
1000
DSTYLE
1002
{
1070
    40
1040
2.0
1002
}
  0
LINE
  5
187B2
  8
1DIM
 10
1164.5516089563371
 20
-1826.9279122387809
 30
0.0
 11
1166.2119650915911
 21
-1815.9530791792411
 31
0.0
  0
LINE
  5
187B3
  8
1DIM
 10
1166.2119650915911
 20
-1815.9530791792411
 30
0.0
 11
1214.178631758258
 21
-1815.9530791792411
 31
0.0
  0
TEXT
  5
187B4
  8
1DIM
 10
1256.0164199708879
 20
-1824.9860806449781
 30
0.0
 40
3.5
  1
11.25
 50
90.0
  0
LINE
  5
187B5
  8
0
  6
BYBLOCK
 10
1256.180521590888
 20
-1830.6027473116451
 30
0.0
 11
1256.716419970888
 21
-1828.6027473116451
 31
0.0
  0
LINE
  5
187B6
  8
0
  6
BYBLOCK
 10
1256.716419970888
 20
-1828.6027473116451
 30
0.0
 11
1257.2523183508879
 21
-1830.6027473116451
 31
0.0
  0
LINE
  5
187B7
  8
0
  6
BYBLOCK
 10
1256.716419970888
 20
-1828.6027473116451
 30
0.0
 11
1256.716419970888
 21
-1830.6027473116451
 31
0.0
  0
LINE
  5
187B8
  8
0
  6
BYBLOCK
 10
1257.2523183508879
 20
-1837.852748972907
 30
0.0
 11
1256.716419970888
 21
-1839.852748972907
 31
0.0
  0
LINE
  5
187B9
  8
0
  6
BYBLOCK
 10
1256.716419970888
 20
-1839.852748972907
 30
0.0
 11
1256.180521590888
 21
-1837.852748972907
 31
0.0
  0
LINE
  5
187BA
  8
0
  6
BYBLOCK
 10
1256.716419970888
 20
-1839.852748972907
 30
0.0
 11
1256.716419970888
 21
-1837.852748972907
 31
0.0
  0
VIEWPORT
  5
57
 67
     1
  8
0
 10
-3.5601433180412689
 20
14.176257130812161
 30
0.0
 40
410.91159378643772
 41
290.94008381486168
 68
     1
 69
     1
1001
ACAD
1000
MVIEW
1002
{
1070
    16
1010
0.0
1020
0.0
1030
0.0
1010
0.0
1020
0.0
1030
1.0
1040
0.0
1040
290.94008381486168
1040
-3.5601433180412689
1040
14.176257130812161
1040
50.0
1040
0.0
1040
0.0
1070
     0
1070
   100
1070
     1
1070
     1
1070
     0
1070
     0
1070
     0
1070
     0
1040
0.0
1040
0.0
1040
0.0
1040
10.0
1040
10.0
1040
10.0
1040
10.0
1070
     0
1002
{
1002
}
1002
}
  0
ENDSEC
  0
EOF
