  0
SECTION
  2
HEADER
  9
$ACADVER
  1
AC1009
  9
$INSBASE
 10
0.0
 20
0.0
 30
0.0
  9
$EXTMIN
 10
-636.22419183602983
 20
-2242.5555875141508
 30
0.0
  9
$EXTMAX
 10
1256.6345229222491
 20
-2034.6814163598831
 30
0.0
  9
$LIMMIN
 10
0.0
 20
0.0
  9
$LIMMAX
 10
420.0
 20
297.0
  9
$ORTHOMODE
 70
     0
  9
$REGENMODE
 70
     1
  9
$FILLMODE
 70
     1
  9
$QTEXTMODE
 70
     0
  9
$MIRRTEXT
 70
     0
  9
$DRAGMODE
 70
     2
  9
$LTSCALE
 40
0.5
  9
$OSMODE
 70
  2175
  9
$ATTMODE
 70
     1
  9
$TEXTSIZE
 40
4.0
  9
$TRACEWID
 40
1.0
  9
$TEXTSTYLE
  7
STANDARD
  9
$CLAYER
  8
1TEXT
  9
$CELTYPE
  6
BYLAYER
  9
$CECOLOR
 62
   256
  9
$DIMSCALE
 40
1.0
  9
$DIMASZ
 40
2.0
  9
$DIMEXO
 40
0.0
  9
$DIMDLI
 40
7.0
  9
$DIMRND
 40
0.0
  9
$DIMDLE
 40
0.0
  9
$DIMEXE
 40
1.0
  9
$DIMTP
 40
0.0
  9
$DIMTM
 40
0.0
  9
$DIMTXT
 40
3.5
  9
$DIMCEN
 40
0.0
  9
$DIMTSZ
 40
0.0
  9
$DIMTOL
 70
     0
  9
$DIMLIM
 70
     0
  9
$DIMTIH
 70
     0
  9
$DIMTOH
 70
     0
  9
$DIMSE1
 70
     0
  9
$DIMSE2
 70
     0
  9
$DIMTAD
 70
     1
  9
$DIMZIN
 70
     8
  9
$DIMBLK
  1

  9
$DIMASO
 70
     1
  9
$DIMSHO
 70
     1
  9
$DIMPOST
  1
 
  9
$DIMAPOST
  1

  9
$DIMALT
 70
     0
  9
$DIMALTD
 70
     2
  9
$DIMALTF
 40
25.399999999999999
  9
$DIMLFAC
 40
1.0
  9
$DIMTOFL
 70
     1
  9
$DIMTVP
 40
0.0
  9
$DIMTIX
 70
     0
  9
$DIMSOXD
 70
     0
  9
$DIMSAH
 70
     1
  9
$DIMBLK1
  1
OPEN30
  9
$DIMBLK2
  1
OPEN30
  9
$DIMSTYLE
  2
NEWX10
  9
$DIMCLRD
 70
   256
  9
$DIMCLRE
 70
   256
  9
$DIMCLRT
 70
   201
  9
$DIMTFAC
 40
0.7
  9
$DIMGAP
 40
0.7
  9
$LUNITS
 70
     2
  9
$LUPREC
 70
     4
  9
$SKETCHINC
 40
1.0
  9
$FILLETRAD
 40
0.0
  9
$AUNITS
 70
     0
  9
$AUPREC
 70
     2
  9
$MENU
  1
acad
  9
$ELEVATION
 40
0.0
  9
$PELEVATION
 40
0.0
  9
$THICKNESS
 40
0.0
  9
$LIMCHECK
 70
     0
  9
$BLIPMODE
 70
     0
  9
$CHAMFERA
 40
10.0
  9
$CHAMFERB
 40
10.0
  9
$SKPOLY
 70
     0
  9
$TDCREATE
 40
2453033.7326634838
  9
$TDUPDATE
 40
2455170.3708329629
  9
$TDINDWG
 40
1.7766326736
  9
$TDUSRTIMER
 40
1.7766326736
  9
$USRTIMER
 70
     1
  9
$ANGBASE
 50
0.0
  9
$ANGDIR
 70
     0
  9
$PDMODE
 70
     0
  9
$PDSIZE
 40
0.0
  9
$PLINEWID
 40
0.0
  9
$COORDS
 70
     2
  9
$SPLFRAME
 70
     0
  9
$SPLINETYPE
 70
     6
  9
$SPLINESEGS
 70
     8
  9
$ATTDIA
 70
     0
  9
$ATTREQ
 70
     1
  9
$HANDLING
 70
     1
  9
$HANDSEED
  5
187E6
  9
$SURFTAB1
 70
     6
  9
$SURFTAB2
 70
     6
  9
$SURFTYPE
 70
     6
  9
$SURFU
 70
     6
  9
$SURFV
 70
     6
  9
$UCSNAME
  2

  9
$UCSORG
 10
0.0
 20
0.0
 30
0.0
  9
$UCSXDIR
 10
1.0
 20
0.0
 30
0.0
  9
$UCSYDIR
 10
0.0
 20
1.0
 30
0.0
  9
$PUCSNAME
  2

  9
$PUCSORG
 10
0.0
 20
0.0
 30
0.0
  9
$PUCSXDIR
 10
1.0
 20
0.0
 30
0.0
  9
$PUCSYDIR
 10
0.0
 20
1.0
 30
0.0
  9
$USERI1
 70
     0
  9
$USERI2
 70
     0
  9
$USERI3
 70
     0
  9
$USERI4
 70
     0
  9
$USERI5
 70
     0
  9
$USERR1
 40
0.0
  9
$USERR2
 40
0.0
  9
$USERR3
 40
0.0
  9
$USERR4
 40
0.0
  9
$USERR5
 40
0.0
  9
$WORLDVIEW
 70
     1
  9
$SHADEDGE
 70
     3
  9
$SHADEDIF
 70
    70
  9
$TILEMODE
 70
     1
  9
$MAXACTVP
 70
    48
  9
$PLIMCHECK
 70
     0
  9
$PEXTMIN
 10
1.0000000000000000E+020
 20
1.0000000000000000E+020
 30
1.0000000000000000E+020
  9
$PEXTMAX
 10
-1.0000000000000000E+020
 20
-1.0000000000000000E+020
 30
-1.0000000000000000E+020
  9
$PLIMMIN
 10
0.0
 20
0.0
  9
$PLIMMAX
 10
420.0
 20
297.0
  9
$UNITMODE
 70
     0
  9
$VISRETAIN
 70
     1
  9
$PLINEGEN
 70
     0
  9
$PSLTSCALE
 70
     1
  0
ENDSEC
  0
SECTION
  2
TABLES
  0
TABLE
  2
VPORT
 70
     1
  0
VPORT
  2
*ACTIVE
 70
     0
 10
0.0
 20
0.0
 11
1.0
 21
1.0
 12
310.20516995026492
 22
-2138.5878760294472
 13
0.0
 23
0.0
 14
10.0
 24
10.0
 15
10.0
 25
10.0
 16
0.0
 26
0.0
 36
1.0
 17
0.0
 27
0.0
 37
0.0
 40
1418.3836549815519
 41
1.4123581336696089
 42
50.0
 43
0.0
 44
0.0
 50
0.0
 51
0.0
 71
     0
 72
   100
 73
     1
 74
     1
 75
     0
 76
     0
 77
     0
 78
     0
  0
ENDTAB
  0
TABLE
  2
LTYPE
 70
    16
  0
LTYPE
  2
CONTINUOUS
 70
     0
  3
Solid line
 72
    65
 73
     0
 40
0.0
  0
LTYPE
  2
CENTER2
 70
     0
  3
Center (.5x) ___ _ ___ _ ___ _ ___ _ ___ _ ___
 72
    65
 73
     4
 40
28.574999999999999
 49
19.050000000000001
 49
-3.1749999999999989
 49
3.1749999999999989
 49
-3.1749999999999989
  0
LTYPE
  2
XREF1|CENTER2
 70
    48
  3
Center (.5x) ___ _ ___ _ ___ _ ___ _ ___ _ ___
 72
    65
 73
     4
 40
28.574999999999999
 49
19.050000000000001
 49
-3.1749999999999989
 49
3.1749999999999989
 49
-3.1749999999999989
  0
LTYPE
  2
PHANTOM2
 70
     0
  3
Phantom (.5x) ___ _ _ ___ _ _ ___ _ _ ___ _ _
 72
    65
 73
     6
 40
31.75
 49
15.875
 49
-3.1749999999999989
 49
3.1749999999999989
 49
-3.1749999999999989
 49
3.1749999999999989
 49
-3.1749999999999989
  0
LTYPE
  2
A3WAKUDAKE|CENTER2
 70
    48
  3
Center (.5x) ___ _ ___ _ ___ _ ___ _ ___ _ ___
 72
    65
 73
     4
 40
28.574999999999999
 49
19.050000000000001
 49
-3.1749999999999989
 49
3.1749999999999989
 49
-3.1749999999999989
  0
ENDTAB
  0
TABLE
  2
LAYER
 70
    48
  0
LAYER
  2
0
 70
     0
 62
     7
  6
CONTINUOUS
  0
LAYER
  2
1CENTER
 70
     0
 62
     7
  6
CENTER2
  0
LAYER
  2
1TEXT
 70
     0
 62
     7
  6
CONTINUOUS
  0
LAYER
  2
1DIM
 70
     0
 62
     7
  6
CONTINUOUS
  0
LAYER
  2
1PHANTOM
 70
     0
 62
     7
  6
PHANTOM2
  0
LAYER
  2
01
 70
     0
 62
     1
  6
CONTINUOUS
  0
LAYER
  2
1DIM1
 70
     0
 62
     7
  6
CONTINUOUS
  0
LAYER
  2
1HATCH
 70
     0
 62
     7
  6
CONTINUOUS
  0
LAYER
  2
XREF1|1CENTER
 70
    48
 62
     7
  6
XREF1|CENTER2
  0
LAYER
  2
A3WAKUDAKE|THICK
 70
    48
 62
     7
  6
CONTINUOUS
  0
LAYER
  2
A3WAKUDAKE|POINT
 70
    48
 62
     7
  6
CONTINUOUS
  0
LAYER
  2
A3WAKUDAKE|1CENTER
 70
    48
 62
     7
  6
A3WAKUDAKE|CENTER2
  0
LAYER
  2
A3WAKUDAKE|0-6
 70
    48
 62
     7
  6
CONTINUOUS
  0
LAYER
  2
A3WAKUDAKE|1DIM
 70
    48
 62
     7
  6
CONTINUOUS
  0
ENDTAB
  0
TABLE
  2
STYLE
 70
    22
  0
STYLE
  2
STANDARD
 70
     0
 40
0.0
 41
1.0
 50
0.0
 71
     0
 42
4.0
  3
txt.shx
  4
extfont.shx
  0
ENDTAB
  0
TABLE
  2
VIEW
 70
     0
  0
ENDTAB
  0
TABLE
  2
UCS
 70
     0
  0
ENDTAB
  0
TABLE
  2
APPID
 70
    10
  0
APPID
  2
ACAD
 70
     0
  0
APPID
  2
DRAWINGVARIABLESXDATA
 70
     0
  0
APPID
  2
CONTENTTABDATA
 70
     0
  0
APPID
  2
CONTENTCURRENTTAB
 70
     0
  0
APPID
  2
CONTENTBLOCKDESCRIPTION
 70
     0
  0
APPID
  2
CONTENTBLOCKICON
 70
     0
  0
APPID
  2
CONTENTLONGBLOCKNAME
 70
     0
  0
APPID
  2
ACAD_PSEXT
 70
     0
  0
APPID
  2
ACAD_DSTYLE_DIMTEXT_FILL
 70
     0
  0
APPID
  2
ACAD_MLEADERVER
 70
     0
  0
ENDTAB
  0
TABLE
  2
DIMSTYLE
 70
     9
  0
DIMSTYLE
  2
NEWX10
 70
     0
  3
 
  4

  5

  6
OPEN30
  7
OPEN30
 40
1.0
 41
2.0
 42
0.0
 43
7.0
 44
1.0
 45
0.0
 46
0.0
 47
0.0
 48
0.0
140
3.5
141
0.0
142
0.0
143
25.399999999999999
144
1.0
145
0.0
146
0.7
147
0.7
 71
     0
 72
     0
 73
     0
 74
     0
 75
     0
 76
     0
 77
     1
 78
     8
170
     0
171
     2
172
     1
173
     1
174
     0
175
     0
176
   256
177
   256
178
   201
  0
ENDTAB
  0
ENDSEC
  0
SECTION
  2
BLOCKS
  0
BLOCK
  8
0
  2
$MODEL_SPACE
 70
     0
 10
0.0
 20
0.0
 30
0.0
  3
$MODEL_SPACE
  1

  0
ENDBLK
  5
1A
  8
0
  0
BLOCK
 67
     1
  8
0
  2
$PAPER_SPACE
 70
     0
 10
0.0
 20
0.0
 30
0.0
  3
$PAPER_SPACE
  1

  0
ENDBLK
  5
17
 67
     1
  8
0
  0
BLOCK
  8
0
  2
_OPEN30
 70
     0
 10
0.0
 20
0.0
 30
0.0
  3
_OPEN30
  1

  0
LINE
  5
44
  8
0
  6
BYBLOCK
 62
     0
 10
-1.0
 20
0.26794919
 30
0.0
 11
0.0
 21
0.0
 31
0.0
  0
LINE
  5
45
  8
0
  6
BYBLOCK
 62
     0
 10
0.0
 20
0.0
 30
0.0
 11
-1.0
 21
-0.26794919
 31
0.0
  0
LINE
  5
46
  8
0
  6
BYBLOCK
 62
     0
 10
0.0
 20
0.0
 30
0.0
 11
-1.0
 21
0.0
 31
0.0
  0
ENDBLK
  5
47
  8
0
  0
BLOCK
  8
0
  2
XREF1
 70
    36
 10
0.0
 20
0.0
 30
0.0
  3
XREF1
  1
D:\ACLT\FORMAT\KAWAJUN(9)図面用.dwg
  0
ENDBLK
  5
5D
  8
0
  0
BLOCK
  8
0
  2
A3WAKUDAKE
 70
    36
 10
0.0
 20
0.0
 30
0.0
  3
A3WAKUDAKE
  1
D:\ACLT\FORMAT\A3WAKUdake.dwg
  0
ENDBLK
  5
6DC
  8
0
  0
BLOCK
  8
0
  2
*U64
 70
     1
 10
0.0
 20
0.0
 30
0.0
  3
*U64
  1

  0
TEXT
  5
183D4
  8
0
 62
   201
 10
-63.717024855154051
 20
-3.8109119089904788
 30
0.0
 40
3.5
  1
φ5
 50
48.83031736650419
  0
ENDBLK
  5
183D6
  8
0
  0
BLOCK
  8
0
  2
*U65
 70
     1
 10
0.0
 20
0.0
 30
0.0
  3
*U65
  1

  0
TEXT
  5
183D8
  8
1TEXT
 62
   201
 10
21.614708555164611
 20
22.401236958861659
 30
0.0
 40
2.0
  1
二文字
  0
TEXT
  5
183D9
  8
1TEXT
 62
   201
 10
21.614708555164611
 20
19.067903625528331
 30
0.0
 40
2.0
  1
(別途指定)
  0
TEXT
  5
183DA
  8
1TEXT
 62
   201
 10
21.614708555164611
 20
15.73457029219499
 30
0.0
 40
2.0
  1
天地 約1.8
  0
TEXT
  5
183DB
  8
1TEXT
 62
   201
 10
21.614708555164611
 20
12.401236958861659
 30
0.0
 40
2.0
  1
凸0.2
  0
ENDBLK
  5
183DD
  8
0
  0
BLOCK
  8
0
  2
*U66
 70
     1
 10
0.0
 20
0.0
 30
0.0
  3
*U66
  1

  0
SOLID
  5
183DF
  8
1DIM
 10
17.769912945885331
 20
22.805130681268722
 30
0.0
 11
17.678379796037799
 21
23.814783819854821
 31
0.0
 12
18.0924202800296
 22
22.889392953575271
 32
0.0
 13
18.0924202800296
 23
22.889392953575271
 33
0.0
  0
POLYLINE
  5
183E0
  8
1DIM
 66
     1
 10
0.0
 20
0.0
 30
0.0
  0
VERTEX
  5
183E1
  8
1DIM
 10
17.931166612957469
 20
22.847261817422002
 30
0.0
  0
VERTEX
  5
183E2
  8
1DIM
 10
20.91703607932029
 20
11.41907722970881
 30
0.0
  0
VERTEX
  5
183E3
  8
1DIM
 10
35.143226555510758
 20
11.41907722970881
 30
0.0
  0
SEQEND
  5
183E4
  8
1DIM
  0
ENDBLK
  5
183E6
  8
0
  0
BLOCK
  8
0
  2
*U67
 70
     1
 10
0.0
 20
0.0
 30
0.0
  3
*U67
  1

  0
TEXT
  5
183E8
  8
1DIM
 62
   201
 10
8.9421530727463576
 20
19.285028579396069
 30
0.0
 40
2.0
  1
枠
  0
TEXT
  5
183E9
  8
1DIM
 62
   201
 10
7.0754864060796896
 20
15.951695246062741
 30
0.0
 40
2.0
  1
φ5
  0
TEXT
  5
183EA
  8
1DIM
 62
   201
 10
4.7421530727463583
 20
12.61836191272941
 30
0.0
 40
2.0
  1
凹0.3
  0
ENDBLK
  5
183EC
  8
0
  0
BLOCK
  8
0
  2
*U68
 70
     1
 10
0.0
 20
0.0
 30
0.0
  3
*U68
  1

  0
SOLID
  5
183EE
  8
1DIM
 10
14.77538895849114
 20
20.894651819020488
 30
0.0
 11
15.75963814806016
 21
22.667323431007279
 31
0.0
 12
15.403512140193291
 22
20.67125595278117
 32
0.0
 13
15.403512140193291
 23
20.67125595278117
 33
0.0
  0
POLYLINE
  5
183EF
  8
1DIM
 66
     1
 10
0.0
 20
0.0
 30
0.0
  0
VERTEX
  5
183F0
  8
1DIM
 10
15.089450549342221
 20
20.782953885900831
 30
0.0
  0
VERTEX
  5
183F1
  8
1DIM
 10
11.821762131327951
 20
11.59517937383526
 30
0.0
  0
VERTEX
  5
183F2
  8
1DIM
 10
2.3789049884708091
 20
11.59517937383526
 30
0.0
  0
SEQEND
  5
183F3
  8
1DIM
  0
ENDBLK
  5
183F5
  8
0
  0
BLOCK
  8
0
  2
*U69
 70
     1
 10
0.0
 20
0.0
 30
0.0
  3
*U69
  1

  0
TEXT
  5
183F8
  8
1TEXT
 10
14.9745471932972
 20
24.09947430071913
 30
0.0
 40
1.8
  1
XY
  0
ENDBLK
  5
183FA
  8
0
  0
BLOCK
  8
0
  2
*U70
 70
     1
 10
0.0
 20
0.0
 30
0.0
  3
*U70
  1

  0
LINE
  5
183FC
  8
0
 10
-4.1999999999999877
 20
-1.9999999999999849
 30
0.0
 11
-0.3500000000000227
 21
-2.0
 31
0.0
  0
LINE
  5
183FD
  8
0
 10
0.0
 20
-1.6499999999998629
 30
0.0
 11
-0.3500000000000227
 21
-2.0
 31
0.0
  0
LINE
  5
183FE
  8
0
 10
-6.0
 20
-0.200000000000017
 30
0.0
 11
-4.1999999999999877
 21
-1.9999999999999849
 31
0.0
  0
LINE
  5
183FF
  8
0
 10
0.0
 20
1.649999999999977
 30
0.0
 11
0.0
 21
-1.6499999999998629
 31
0.0
  0
LINE
  5
18400
  8
0
 10
-6.0
 20
0.2000000000000028
 30
0.0
 11
-6.0
 21
-0.200000000000017
 31
0.0
  0
LINE
  5
18401
  8
0
 10
-0.3500000000000227
 20
2.0
 30
0.0
 11
0.0
 21
1.649999999999977
 31
0.0
  0
LINE
  5
18402
  8
0
 10
-6.0
 20
0.2000000000000028
 30
0.0
 11
-4.2000000000000446
 21
2.0
 31
0.0
  0
LINE
  5
18403
  8
0
 10
-4.2000000000000446
 20
2.0
 30
0.0
 11
-0.3500000000000227
 21
2.0
 31
0.0
  0
ENDBLK
  5
18405
  8
0
  0
BLOCK
  8
0
  2
*U71
 70
     1
 10
0.0
 20
0.0
 30
0.0
  3
*U71
  1

  0
LINE
  5
18407
  8
0
 10
-5.6499999999999773
 20
2.0000000000000142
 30
0.0
 11
-0.3500000000000227
 21
2.0
 31
0.0
  0
LINE
  5
18408
  8
0
 10
-5.6499999999999773
 20
2.0000000000000142
 30
0.0
 11
-6.0
 21
1.6499999999999631
 31
0.0
  0
LINE
  5
18409
  8
0
 10
-0.3500000000000227
 20
2.0
 30
0.0
 11
0.0
 21
1.649999999999977
 31
0.0
  0
LINE
  5
1840A
  8
0
 10
-6.0
 20
1.6499999999999631
 30
0.0
 11
-6.0
 21
-1.6499999999998629
 31
0.0
  0
LINE
  5
1840B
  8
0
 10
0.0
 20
1.649999999999977
 30
0.0
 11
0.0
 21
-1.6499999999998629
 31
0.0
  0
LINE
  5
1840C
  8
0
 10
-6.0
 20
-1.6499999999998629
 30
0.0
 11
-5.6499999999999773
 21
-1.9999999999999849
 31
0.0
  0
LINE
  5
1840D
  8
0
 10
0.0
 20
-1.6499999999998629
 30
0.0
 11
-0.3500000000000227
 21
-2.0
 31
0.0
  0
LINE
  5
1840E
  8
0
 10
-5.6499999999999773
 20
-1.9999999999999849
 30
0.0
 11
-0.3500000000000227
 21
-2.0
 31
0.0
  0
ENDBLK
  5
18410
  8
0
  0
BLOCK
  8
0
  2
*X72
 70
     1
 10
0.0
 20
0.0
 30
0.0
  3
*X72
  1

  0
LINE
  5
18412
  8
0
 62
     0
 10
10.35561001165331
 20
1.7353216665921991
 30
0.0
 11
1.735321666592085
 21
10.35561001165342
 31
0.0
  0
LINE
  5
18413
  8
0
 62
     0
 10
0.0000000000001137
 20
8.4988292298177157
 30
0.0
 11
-1.838891835213303
 21
10.337721065031021
 31
0.0
  0
LINE
  5
18414
  8
0
 62
     0
 10
8.4988292298179431
 20
-0.0000000000001137
 30
0.0
 11
0.0000000000001137
 21
8.4988292298177157
 31
0.0
  0
LINE
  5
18415
  8
0
 62
     0
 10
10.337721065031131
 20
-1.838891835213303
 30
0.0
 11
8.4988292298179431
 21
-0.0000000000001137
 31
0.0
  0
LINE
  5
18416
  8
0
 62
     0
 10
-0.2377810848388435
 20
5.1445078662289907
 30
0.0
 11
-4.5542045235814612
 21
9.4609313049716093
 31
0.0
  0
LINE
  5
18417
  8
0
 62
     0
 10
9.4609313049714956
 20
-4.5542045235813466
 30
0.0
 11
5.1445078662289907
 21
-0.2377810848388435
 31
0.0
  0
LINE
  5
18418
  8
0
 62
     0
 10
-2.9244738727450108
 20
4.2390982057073643
 30
0.0
 11
-6.7381554127728123
 21
8.0527797457351653
 31
0.0
  0
LINE
  5
18419
  8
0
 62
     0
 10
8.0527797457350516
 20
-6.7381554127726977
 30
0.0
 11
4.2390982057073643
 21
-2.9244738727450108
 31
0.0
  0
LINE
  5
1841A
  8
0
 62
     0
 10
-4.5977163449367699
 20
2.3202382294715558
 30
0.0
 11
-8.4755144637537114
 21
6.1980363482883831
 31
0.0
  0
LINE
  5
1841B
  8
0
 62
     0
 10
6.1980363482882694
 20
-8.4755144637535977
 30
0.0
 11
2.3202382294715558
 21
-4.5977163449367699
 31
0.0
  0
LINE
  5
1841C
  8
0
 62
     0
 10
-5.0907718486563454
 20
-0.7788087152364369
 30
0.0
 11
-5.8695805638927823
 21
0.0
 31
0.0
  0
LINE
  5
1841D
  8
0
 62
     0
 10
-5.8695805638928951
 20
0.0
 30
0.0
 11
-9.9540062277598054
 21
4.0844256638669094
 31
0.0
  0
LINE
  5
1841E
  8
0
 62
     0
 10
3.8851808324346839
 20
-9.7547613963275808
 30
0.0
 11
2.0
 21
-7.8695805638928951
 31
0.0
  0
LINE
  5
1841F
  8
0
 62
     0
 10
-9.4616830123206892
 20
0.0
 30
0.0
 11
-18.103896804350711
 21
8.6422137920301338
 31
0.0
  0
LINE
  5
18420
  8
0
 62
     0
 10
-2.0000000000001128
 20
-7.4616830123204627
 30
0.0
 11
-9.4616830123204636
 21
-0.0000000000001137
 31
0.0
  0
LINE
  5
18421
  8
0
 62
     0
 10
-13.05378546074826
 20
0.0000000000001137
 30
0.0
 11
-15.175214195387071
 21
2.1214287346389251
 31
0.0
  0
LINE
  5
18422
  8
0
 62
     0
 10
-16.603785460748661
 20
3.5500000000005221
 30
0.0
 11
-23.851266556543241
 21
10.79748109579509
 31
0.0
  0
LINE
  5
18423
  8
0
 62
     0
 10
-2.9878714975766338
 20
-10.065913963171511
 30
0.0
 11
-13.053785460748029
 21
-0.0000000000001137
 31
0.0
  0
LINE
  5
18424
  8
0
 62
     0
 10
-20.195887909176118
 20
3.5500000000002951
 30
0.0
 11
-28.659515684223379
 21
12.013627775047439
 31
0.0
  0
LINE
  5
18425
  8
0
 62
     0
 10
-29.100013291500659
 20
12.454125382324831
 30
0.0
 11
-29.745874817675372
 21
13.09998690849943
 31
0.0
  0
LINE
  5
18426
  8
0
 62
     0
 10
-12.628969351714661
 20
-4.0169185574611674
 30
0.0
 11
-14.93702132611565
 21
-1.7088665830602841
 31
0.0
  0
LINE
  5
18427
  8
0
 62
     0
 10
-23.78799035760369
 20
3.550000000000181
 30
0.0
 11
-27.799999599999751
 21
7.5620092423962433
 31
0.0
  0
LINE
  5
18428
  8
0
 62
     0
 10
-31.237990357603621
 20
11.00000000000011
 30
0.0
 11
-33.000000200000052
 21
12.762009842396539
 31
0.0
  0
LINE
  5
18429
  8
0
 62
     0
 10
-13.78316865624026
 20
-6.454821701363243
 30
0.0
 11
-16.687990357603208
 21
-3.5500000000002951
 31
0.0
  0
LINE
  5
1842A
  8
0
 62
     0
 10
-16.124704244214509
 20
-7.7053885618167888
 30
0.0
 11
-20.280092806031231
 21
-3.5500000000000682
 31
0.0
  0
LINE
  5
1842B
  8
0
 62
     0
 10
-18.57318348346837
 20
-8.849011770990387
 30
0.0
 11
-20.133604742031139
 21
-7.2885905124276169
 31
0.0
  0
LINE
  5
1842C
  8
0
 62
     0
 10
-24.295840827822978
 20
-6.7184568750635663
 30
0.0
 11
-27.132148651443231
 21
-3.8821490514432071
 31
0.0
  0
LINE
  5
1842D
  8
0
 62
     0
 10
-23.818861225215301
 20
-10.787538926098931
 30
0.0
 11
-27.799999599999872
 21
-6.8064005513143684
 31
0.0
  0
LINE
  5
1842E
  8
0
 62
     0
 10
-26.63513577162314
 20
-11.56336682811866
 30
0.0
 11
-28.117386294735979
 21
-10.081116305005819
 31
0.0
  0
LINE
  5
1842F
  8
0
 62
     0
 10
-29.133782390785999
 20
-12.656822657383479
 30
0.0
 11
-30.790605048169478
 21
-11.00000000000011
 31
0.0
  0
LINE
  5
18430
  8
0
 62
     0
 10
-31.632707496597501
 20
-13.749999999999661
 30
0.0
 11
-33.000000200000159
 21
-12.38270729659712
 31
0.0
  0
ENDBLK
  5
18432
  8
0
  0
BLOCK
  8
0
  2
*X73
 70
     1
 10
0.0
 20
0.0
 30
0.0
  3
*X73
  1

  0
LINE
  5
18434
  8
0
 62
     0
 10
0.0
 20
-9.5063084520140535
 30
0.0
 11
1.243691546508898
 21
-10.74999999852295
 31
0.0
  0
LINE
  5
18435
  8
0
 62
     0
 10
1.3407299661462839
 20
-9.5
 30
0.0
 11
1.8000087437750381
 21
-9.9592787776287537
 31
0.0
  0
LINE
  5
18436
  8
0
 62
     0
 10
0.0
 20
-4.1181547793725883
 30
0.0
 11
0.8818452206274969
 21
-5.0000000000000853
 31
0.0
  0
LINE
  5
18437
  8
0
 62
     0
 10
0.0000000000000284
 20
-2.77111636121225
 30
0.0
 11
1.8000087437751799
 21
-4.5711251049874022
 31
0.0
  0
LINE
  5
18438
  8
0
 62
     0
 10
0.0
 20
-1.4240779430518271
 30
0.0
 11
2.125922055471221
 21
-3.5499999985230479
 31
0.0
  0
LINE
  5
18439
  8
0
 62
     0
 10
-0.0000000000000284
 20
-0.0770395248914611
 30
0.0
 11
3.2229604751084651
 21
-3.2999999999999541
 31
0.0
  0
LINE
  5
1843A
  8
0
 62
     0
 10
1.269998893268905
 20
0.0000000000000284
 30
0.0
 11
4.5699988932688589
 21
-3.2999999999999541
 31
0.0
  0
LINE
  5
1843B
  8
0
 62
     0
 10
0.0
 20
1.269998893268933
 30
0.0
 11
1.2699988932688759
 21
0.0000000000000284
 31
0.0
  0
LINE
  5
1843C
  8
0
 62
     0
 10
2.6170373114292711
 20
0.0000000000000284
 30
0.0
 11
5.9170373114292261
 21
-3.2999999999999261
 31
0.0
  0
LINE
  5
1843D
  8
0
 62
     0
 10
0.0
 20
2.6170373114292991
 30
0.0
 11
2.6170373114292711
 21
0.0000000000000284
 31
0.0
  0
LINE
  5
1843E
  8
0
 62
     0
 10
3.9640757295896369
 20
0.0
 30
0.0
 11
7.2640757295895924
 21
-3.2999999999999541
 31
0.0
  0
LINE
  5
1843F
  8
0
 62
     0
 10
-0.0000000000000284
 20
3.9640757295896658
 30
0.0
 11
3.964075729589609
 21
0.0000000000000284
 31
0.0
  0
LINE
  5
18440
  8
0
 62
     0
 10
5.3111141477500601
 20
-0.0000000000000568
 30
0.0
 11
8.6111141477499871
 21
-3.2999999999999541
 31
0.0
  0
LINE
  5
18441
  8
0
 62
     0
 10
0.3111141477500894
 20
4.9999999999999138
 30
0.0
 11
5.3111141477500041
 21
0.0000000000000284
 31
0.0
  0
LINE
  5
18442
  8
0
 62
     0
 10
3.358152565910415
 20
3.2999999999999541
 30
0.0
 11
6.6581525659103704
 21
0.0000000000000284
 31
0.0
  0
LINE
  5
18443
  8
0
 62
     0
 10
6.6581525659104273
 20
-0.0000000000000284
 30
0.0
 11
9.5072519243349234
 21
-2.8490993584245521
 31
0.0
  0
LINE
  5
18444
  8
0
 62
     0
 10
1.65815256591037
 20
5.0000000000000284
 30
0.0
 11
1.8000087437750381
 21
4.8581438221353324
 31
0.0
  0
LINE
  5
18445
  8
0
 62
     0
 10
8.0051909840707935
 20
-0.0000000000000568
 30
0.0
 11
11.16707517499839
 21
-3.1618841909276219
 31
0.0
  0
LINE
  5
18446
  8
0
 62
     0
 10
4.7051909840707822
 20
3.2999999999999541
 30
0.0
 11
8.0051909840707367
 21
0.0
 31
0.0
  0
LINE
  5
18447
  8
0
 62
     0
 10
9.3522294022312167
 20
-0.0000000000000568
 30
0.0
 11
12.652229402231081
 21
-3.2999999999999541
 31
0.0
  0
LINE
  5
18448
  8
0
 62
     0
 10
6.0522294022312053
 20
3.2999999999999541
 30
0.0
 11
9.3522294022311314
 21
0.0000000000000284
 31
0.0
  0
LINE
  5
18449
  8
0
 62
     0
 10
7.3992678203915432
 20
3.2999999999999541
 30
0.0
 11
10.699267820391499
 21
0.0
 31
0.0
  0
LINE
  5
1844A
  8
0
 62
     0
 10
10.699267820391579
 20
-0.0000000000000568
 30
0.0
 11
12.90000019999993
 21
-2.2007323796084099
 31
0.0
  0
LINE
  5
1844B
  8
0
 62
     0
 10
-0.0000000000000284
 20
10.699267820391521
 30
0.0
 11
1.1992678203915259
 21
9.5
 31
0.0
  0
LINE
  5
1844C
  8
0
 62
     0
 10
9.2443367211198222
 20
2.8019695174320409
 30
0.0
 11
12.04630623855186
 21
0.0
 31
0.0
  0
LINE
  5
1844D
  8
0
 62
     0
 10
12.046306238551949
 20
-0.0000000000000853
 30
0.0
 11
14.046306238551921
 21
-2.000000000000056
 31
0.0
  0
LINE
  5
1844E
  8
0
 62
     0
 10
1.2963062400289971
 20
10.74999999852287
 30
0.0
 11
1.8000087437750381
 21
10.246297494776851
 31
0.0
  0
LINE
  5
1844F
  8
0
 62
     0
 10
13.39334465671234
 20
-0.0000000000001137
 30
0.0
 11
15.39334465671226
 21
-2.000000000000028
 31
0.0
  0
LINE
  5
18450
  8
0
 62
     0
 10
15.90000020000002
 20
-2.5066555432877911
 30
0.0
 11
16.143344656712259
 21
-2.75
 31
0.0
  0
LINE
  5
18451
  8
0
 62
     0
 10
10.379815373485821
 20
3.0135292832264322
 30
0.0
 11
13.39334465671223
 21
0.0
 31
0.0
  0
LINE
  5
18452
  8
0
 62
     0
 10
14.74038307487271
 20
-0.0000000000000853
 30
0.0
 11
16.995191537436309
 21
-2.2548084625636871
 31
0.0
  0
LINE
  5
18453
  8
0
 62
     0
 10
11.513261852327391
 20
3.227121222545235
 30
0.0
 11
14.7403830748726
 21
0.0000000000000284
 31
0.0
  0
LINE
  5
18454
  8
0
 62
     0
 10
14.0874214930331
 20
1.9999999999999141
 30
0.0
 11
16.087421493032959
 21
0.0000000000000284
 31
0.0
  0
LINE
  5
18455
  8
0
 62
     0
 10
16.08742149303308
 20
-0.0000000000000853
 30
0.0
 11
17.00000000000005
 21
-0.9125785069670656
 31
0.0
  0
LINE
  5
18456
  8
0
 62
     0
 10
12.787421493032809
 20
3.300000000000181
 30
0.0
 11
12.90000019999991
 21
3.1874212930330819
 31
0.0
  0
LINE
  5
18457
  8
0
 62
     0
 10
15.43445991119353
 20
1.999999999999829
 30
0.0
 11
17.00000000000011
 21
0.4344599111932724
 31
0.0
  0
LINE
  5
18458
  8
0
 62
     0
 10
16.03149832935372
 20
2.75
 30
0.0
 11
17.00000000000011
 21
1.78149832935361
 31
0.0
  0
ENDBLK
  5
1845A
  8
0
  0
BLOCK
  8
0
  2
*X74
 70
     1
 10
0.0
 20
0.0
 30
0.0
  3
*X74
  1

  0
LINE
  5
1845C
  8
0
 62
     0
 10
13.41339771754258
 20
-3.163142703204584
 30
0.0
 11
14.23685749679546
 21
-3.986602482457442
 31
0.0
  0
LINE
  5
1845D
  8
0
 62
     0
 10
13.43543246913447
 20
-2.7361646487429989
 30
0.0
 11
14.66383555125705
 21
-3.9645677308655531
 31
0.0
  0
LINE
  5
1845E
  8
0
 62
     0
 10
13.57832483846698
 20
-2.4300442120220671
 30
0.0
 11
14.969955987978009
 21
-3.821675361533067
 31
0.0
  0
LINE
  5
1845F
  8
0
 62
     0
 10
13.79845481036614
 20
-2.2011613778677481
 30
0.0
 11
15.198838822132331
 21
-3.601545389633912
 31
0.0
  0
LINE
  5
18460
  8
0
 62
     0
 10
14.09420797036085
 20
-2.04790173180902
 30
0.0
 11
15.352098468191031
 21
-3.3057922296391662
 31
0.0
  0
LINE
  5
18461
  8
0
 62
     0
 10
14.50036871342669
 20
-2.005049668821413
 30
0.0
 11
15.39495053117866
 21
-2.8996314865733832
 31
0.0
  0
LINE
  5
18462
  8
0
 62
     0
 10
13.48049176570316
 20
2.6069297273297991
 30
0.0
 11
14.00692992732988
 21
2.0804915657031131
 31
0.0
  0
LINE
  5
18463
  8
0
 62
     0
 10
13.408249854336271
 20
3.1281844447501612
 30
0.0
 11
14.52818464475018
 21
2.0082496543362529
 31
0.0
  0
LINE
  5
18464
  8
0
 62
     0
 10
13.51667895516789
 20
3.468768149971992
 30
0.0
 11
14.86876834997204
 21
2.1166787551678108
 31
0.0
  0
LINE
  5
18465
  8
0
 62
     0
 10
13.71033322290037
 20
3.7241266882929831
 30
0.0
 11
15.124126888293031
 21
2.3103330229002941
 31
0.0
  0
LINE
  5
18466
  8
0
 62
     0
 10
13.977233952031639
 20
3.9062387652151642
 30
0.0
 11
15.306238965215179
 21
2.5772337520315882
 31
0.0
  0
LINE
  5
18467
  8
0
 62
     0
 10
14.334624784025429
 20
3.9978607392748131
 30
0.0
 11
15.39786093927486
 21
2.9346245840254142
 31
0.0
  0
LINE
  5
18468
  8
0
 62
     0
 10
14.93953507999831
 20
3.8419632493554161
 30
0.0
 11
15.24196344935546
 21
3.5395348799982278
 31
0.0
  0
ENDBLK
  5
1846A
  8
0
  0
BLOCK
  8
0
  2
*X75
 70
     1
 10
0.0
 20
0.0
 30
0.0
  3
*X75
  1

  0
LINE
  5
1846C
  8
0
 62
     0
 10
6.8579485945102761
 20
5.150000099999942
 30
0.0
 11
1.636218397399261
 21
10.37173029711095
 31
0.0
  0
LINE
  5
1846D
  8
0
 62
     0
 10
0.0000000000001137
 20
8.4158462460825376
 30
0.0
 11
-1.909133603078998
 21
10.32497984916165
 31
0.0
  0
LINE
  5
1846E
  8
0
 62
     0
 10
3.2658461460825938
 20
5.150000099999942
 30
0.0
 11
0.0000000000001137
 21
8.4158462460825376
 31
0.0
  0
LINE
  5
1846F
  8
0
 62
     0
 10
-0.3262563023448592
 20
5.150000099999942
 30
0.0
 11
-4.6100846621066012
 21
9.4338284597616848
 31
0.0
  0
LINE
  5
18470
  8
0
 62
     0
 10
-3.9183587507726538
 20
5.150000099999942
 30
0.0
 11
-6.7832174315673219
 21
8.0148587807946114
 31
0.0
  0
LINE
  5
18471
  8
0
 62
     0
 10
8.0148587807946114
 20
-6.7832174315674356
 30
0.0
 11
6.3816414492273452
 21
-5.1500001000001703
 31
0.0
  0
LINE
  5
18472
  8
0
 62
     0
 10
-7.5104611992003347
 20
5.150000099999942
 30
0.0
 11
-8.5000000000001137
 21
6.1395389007996073
 31
0.0
  0
LINE
  5
18473
  8
0
 62
     0
 10
6.1499847166651298
 20
-8.5104458158656371
 30
0.0
 11
2.789539000799663
 21
-5.1500001000000557
 31
0.0
  0
LINE
  5
18474
  8
0
 62
     0
 10
0.0
 20
-5.9525635476279604
 30
0.0
 11
-0.8025634476280174
 21
-5.1500001000000557
 31
0.0
  0
LINE
  5
18475
  8
0
 62
     0
 10
4.0606450332290933
 20
-10.01320858085716
 30
0.0
 11
0.0000000000002274
 21
-5.9525635476283014
 31
0.0
  0
LINE
  5
18476
  8
0
 62
     0
 10
0.0
 20
-9.5446659960557554
 30
0.0
 11
-4.3946658960555851
 21
-5.1500001000000557
 31
0.0
  0
LINE
  5
18477
  8
0
 62
     0
 10
8.7087069959245582
 20
-18.2533729919802
 30
0.0
 11
0.0000000000003411
 21
-9.5446659960559828
 31
0.0
  0
LINE
  5
18478
  8
0
 62
     0
 10
1.925088887040374
 20
-15.061857331523809
 30
0.0
 11
0.0
 21
-13.13676844448343
 31
0.0
  0
LINE
  5
18479
  8
0
 62
     0
 10
0.0
 20
-13.13676844448343
 30
0.0
 11
-7.9867683444833801
 21
-5.1500001000000557
 31
0.0
  0
LINE
  5
1847A
  8
0
 62
     0
 10
10.833910220719069
 20
-23.97067866520263
 30
0.0
 11
3.54999999999984
 21
-16.686768444483391
 31
0.0
  0
LINE
  5
1847B
  8
0
 62
     0
 10
12.03432820925218
 20
-28.763199102163071
 30
0.0
 11
3.5499999999999541
 21
-20.278870892910842
 31
0.0
  0
LINE
  5
1847C
  8
0
 62
     0
 10
-1.761475686666472
 20
-14.96739520624442
 30
0.0
 11
-4.0379039399838339
 21
-12.69096695292717
 31
0.0
  0
LINE
  5
1847D
  8
0
 62
     0
 10
13.099999999999911
 20
-29.8288708929108
 30
0.0
 11
12.37112930708906
 21
-29.100000199999961
 31
0.0
  0
LINE
  5
1847E
  8
0
 62
     0
 10
7.4790262586612917
 20
-27.799999599999872
 30
0.0
 11
3.54999999999984
 21
-23.870973341338409
 31
0.0
  0
LINE
  5
1847F
  8
0
 62
     0
 10
-3.5500000000000682
 20
-16.7709733413385
 30
0.0
 11
-6.4848783247022084
 21
-13.83609501663636
 31
0.0
  0
LINE
  5
18480
  8
0
 62
     0
 10
12.67902685866159
 20
-33.000000200000159
 30
0.0
 11
11.00000000000011
 21
-31.320973341338689
 31
0.0
  0
LINE
  5
18481
  8
0
 62
     0
 10
-3.5499999999999541
 20
-20.363075789766409
 30
0.0
 11
-7.7330368020898268
 21
-16.180038987676539
 31
0.0
  0
LINE
  5
18482
  8
0
 62
     0
 10
-3.5499999999999541
 20
-23.95517823819409
 30
0.0
 11
-8.8741186659308369
 21
-18.631059572263212
 31
0.0
  0
LINE
  5
18483
  8
0
 62
     0
 10
-3.9236405433106252
 20
-27.173640143311101
 30
0.0
 11
-9.901571718252967
 21
-21.195708968368759
 31
0.0
  0
LINE
  5
18484
  8
0
 62
     0
 10
-6.8893835350494319
 20
-27.799999599999872
 30
0.0
 11
-10.8070040231338
 21
-23.882379111915501
 31
0.0
  0
LINE
  5
18485
  8
0
 62
     0
 10
-10.130989661818029
 20
-28.150495921658951
 30
0.0
 11
-11.57961971301688
 21
-26.7018658704601
 31
0.0
  0
LINE
  5
18486
  8
0
 62
     0
 10
-10.999999999999771
 20
-30.873588031904781
 30
0.0
 11
-12.716460966271249
 21
-29.15712706563329
 31
0.0
  0
LINE
  5
18487
  8
0
 62
     0
 10
-12.465690280332071
 20
-33.000000200000159
 30
0.0
 11
-13.76550531945383
 21
-31.700185160878501
 31
0.0
  0
ENDBLK
  5
18489
  8
0
  0
BLOCK
  8
0
  2
*X76
 70
     1
 10
0.0
 20
0.0
 30
0.0
  3
*X76
  1

  0
LINE
  5
1848B
  8
0
 62
     0
 10
17.749270850893371
 20
-61.46873075173783
 30
0.0
 11
18.00000000000006
 21
-61.218001602631091
 31
0.0
  0
LINE
  5
1848C
  8
0
 62
     0
 10
15.504206820626109
 20
-61.46873075173783
 30
0.0
 11
18.00000000000011
 21
-58.972937572363769
 31
0.0
  0
LINE
  5
1848D
  8
0
 62
     0
 10
13.259142790358849
 20
-61.46873075173783
 30
0.0
 11
18.00000000000011
 21
-56.727873542096518
 31
0.0
  0
LINE
  5
1848E
  8
0
 62
     0
 10
11.014078760091589
 20
-61.46873075173778
 30
0.0
 11
18.00000000000011
 21
-54.482809511829259
 31
0.0
  0
LINE
  5
1848F
  8
0
 62
     0
 10
9.0000000000000568
 20
-61.237745481561952
 30
0.0
 11
18.00000000000006
 21
-52.237745481561937
 31
0.0
  0
LINE
  5
18490
  8
0
 62
     0
 10
9.0000000000000568
 20
-58.992681451294679
 30
0.0
 11
18.00000000000011
 21
-49.992681451294622
 31
0.0
  0
LINE
  5
18491
  8
0
 62
     0
 10
9.0000000000001137
 20
-56.747617421027421
 30
0.0
 11
18.00000000000011
 21
-47.747617421027371
 31
0.0
  0
LINE
  5
18492
  8
0
 62
     0
 10
9.0000000000001137
 20
-54.50255339076012
 30
0.0
 11
18.000000000000171
 21
-45.502553390759999
 31
0.0
  0
LINE
  5
18493
  8
0
 62
     0
 10
9.0
 20
-52.257489360492848
 30
0.0
 11
18.00000000000011
 21
-43.257489360492741
 31
0.0
  0
LINE
  5
18494
  8
0
 62
     0
 10
9.0000000000000568
 20
-50.01242533022554
 30
0.0
 11
18.00000000000011
 21
-41.012425330225483
 31
0.0
  0
LINE
  5
18495
  8
0
 62
     0
 10
9.0000000000000568
 20
-47.767361299958267
 30
0.0
 11
18.00000000000011
 21
-38.767361299958232
 31
0.0
  0
LINE
  5
18496
  8
0
 62
     0
 10
9.0000000000000568
 20
-45.522297269690966
 30
0.0
 11
18.00000000000011
 21
-36.52229726969091
 31
0.0
  0
LINE
  5
18497
  8
0
 62
     0
 10
9.0000000000000568
 20
-43.277233239423651
 30
0.0
 11
18.000000000000171
 21
-34.277233239423538
 31
0.0
  0
LINE
  5
18498
  8
0
 62
     0
 10
9.0000000000000568
 20
-41.032169209156393
 30
0.0
 11
18.000000000000171
 21
-32.03216920915628
 31
0.0
  0
LINE
  5
18499
  8
0
 62
     0
 10
9.0000000000000568
 20
-38.787105178889142
 30
0.0
 11
18.000000000000231
 21
-29.787105178889021
 31
0.0
  0
LINE
  5
1849A
  8
0
 62
     0
 10
9.0000000000000568
 20
-36.54204114862182
 30
0.0
 11
18.000000000000171
 21
-27.54204114862171
 31
0.0
  0
LINE
  5
1849B
  8
0
 62
     0
 10
8.9999999999999432
 20
-34.296977118354619
 30
0.0
 11
18.000000000000171
 21
-25.296977118354391
 31
0.0
  0
LINE
  5
1849C
  8
0
 62
     0
 10
9.0
 20
-32.051913088087311
 30
0.0
 11
18.000000000000171
 21
-23.051913088087129
 31
0.0
  0
LINE
  5
1849D
  8
0
 62
     0
 10
9.0
 20
-29.806849057820049
 30
0.0
 11
18.000000000000231
 21
-20.806849057819822
 31
0.0
  0
LINE
  5
1849E
  8
0
 62
     0
 10
9.0
 20
-27.56178502755273
 30
0.0
 11
18.000000000000231
 21
-18.561785027552499
 31
0.0
  0
LINE
  5
1849F
  8
0
 62
     0
 10
8.9999999999999432
 20
-25.316720997285479
 30
0.0
 11
18.000000000000231
 21
-16.316720997285241
 31
0.0
  0
LINE
  5
184A0
  8
0
 62
     0
 10
8.9999999999999432
 20
-23.07165696701821
 30
0.0
 11
18.000000000000231
 21
-14.071656967017979
 31
0.0
  0
LINE
  5
184A1
  8
0
 62
     0
 10
8.9999999999999432
 20
-20.826592936750899
 30
0.0
 11
18.000000000000231
 21
-11.826592936750609
 31
0.0
  0
LINE
  5
184A2
  8
0
 62
     0
 10
8.9999999999999432
 20
-18.58152890648358
 30
0.0
 11
18.000000000000171
 21
-9.5815289064833564
 31
0.0
  0
LINE
  5
184A3
  8
0
 62
     0
 10
16.353366242229299
 20
-8.9830986339870265
 30
0.0
 11
16.58651145322483
 21
-8.7499534229914389
 31
0.0
  0
LINE
  5
184A4
  8
0
 62
     0
 10
8.9999999999999432
 20
-16.336464876216318
 30
0.0
 11
16.264414818379521
 21
-9.0720500578367478
 31
0.0
  0
LINE
  5
184A5
  8
0
 62
     0
 10
17.341447422598829
 20
-5.7499534233501768
 30
0.0
 11
18.00000000000011
 21
-5.091400845948896
 31
0.0
  0
LINE
  5
184A6
  8
0
 62
     0
 10
8.9999999999999432
 20
-14.091400845949069
 30
0.0
 11
14.34144742402435
 21
-8.7499534219246584
 31
0.0
  0
LINE
  5
184A7
  8
0
 62
     0
 10
15.09638339339835
 20
-5.7499534222833404
 30
0.0
 11
15.475887752038769
 21
-5.3704490636429218
 31
0.0
  0
LINE
  5
184A8
  8
0
 62
     0
 10
15.516052887897841
 20
-5.3302839277838521
 30
0.0
 11
18.00000000000011
 21
-2.8463368156815809
 31
0.0
  0
LINE
  5
184A9
  8
0
 62
     0
 10
9.0
 20
-11.84633681568169
 30
0.0
 11
12.096383394823871
 21
-8.7499534208578211
 31
0.0
  0
LINE
  5
184AA
  8
0
 62
     0
 10
12.85131936419776
 20
-5.7499534212166159
 30
0.0
 11
18.00000000000006
 21
-0.6012727854143236
 31
0.0
  0
LINE
  5
184AB
  8
0
 62
     0
 10
8.9999999999999432
 20
-9.6012727854144373
 30
0.0
 11
9.8085489289221073
 21
-8.7927238564922732
 31
0.0
  0
LINE
  5
184AC
  8
0
 62
     0
 10
10.76769871211496
 20
-5.5885100430321577
 30
0.0
 11
18.00000000000006
 21
1.6437912448529339
 31
0.0
  0
LINE
  5
184AD
  8
0
 62
     0
 10
8.9999999999999432
 20
-5.11114472487992
 30
0.0
 11
18.00000000000006
 21
3.8888552751201919
 31
0.0
  0
LINE
  5
184AE
  8
0
 62
     0
 10
8.9999999999999432
 20
-2.866080694612605
 30
0.0
 11
17.61612726817793
 21
5.7500465735653838
 31
0.0
  0
LINE
  5
184AF
  8
0
 62
     0
 10
8.9999999999999432
 20
-0.6210166643452908
 30
0.0
 11
15.37106323897728
 21
5.7500465746320506
 31
0.0
  0
LINE
  5
184B0
  8
0
 62
     0
 10
16.125999208351288
 20
8.7500465742733127
 30
0.0
 11
18.00000000000011
 21
10.62404736592214
 31
0.0
  0
LINE
  5
184B1
  8
0
 62
     0
 10
8.9999999999999432
 20
1.624047365921967
 30
0.0
 11
13.02099569600597
 21
5.645043061927935
 31
0.0
  0
LINE
  5
184B2
  8
0
 62
     0
 10
13.98014547919882
 20
8.8492568753880505
 30
0.0
 11
18.00000000000011
 21
12.869111396189391
 31
0.0
  0
LINE
  5
184B3
  8
0
 62
     0
 10
9.0
 20
3.869111396189282
 30
0.0
 11
10.88093518057638
 21
5.7500465767656124
 31
0.0
  0
LINE
  5
184B4
  8
0
 62
     0
 10
11.635871149950271
 20
8.7500465764068736
 30
0.0
 11
18.00000000000011
 21
15.114175426456709
 31
0.0
  0
LINE
  5
184B5
  8
0
 62
     0
 10
9.3908071207497414
 20
8.7500465774735972
 30
0.0
 11
18.00000000000006
 21
17.359239456723969
 31
0.0
  0
LINE
  5
184B6
  8
0
 62
     0
 10
9.0000000000001137
 20
10.604303486991229
 30
0.0
 11
18.00000000000006
 21
19.604303486991231
 31
0.0
  0
LINE
  5
184B7
  8
0
 62
     0
 10
9.0000000000001137
 20
12.849367517258541
 30
0.0
 11
18.00000000000011
 21
21.849367517258599
 31
0.0
  0
LINE
  5
184B8
  8
0
 62
     0
 10
9.0000000000001137
 20
15.094431547525859
 30
0.0
 11
18.00000000000011
 21
24.094431547525861
 31
0.0
  0
LINE
  5
184B9
  8
0
 62
     0
 10
9.0000000000000568
 20
17.339495577793109
 30
0.0
 11
18.00000000000011
 21
26.339495577793169
 31
0.0
  0
LINE
  5
184BA
  8
0
 62
     0
 10
9.0000000000000568
 20
19.584559608060371
 30
0.0
 11
18.00000000000011
 21
28.584559608060431
 31
0.0
  0
LINE
  5
184BB
  8
0
 62
     0
 10
9.0000000000001137
 20
21.82962363832775
 30
0.0
 11
18.00000000000011
 21
30.82962363832775
 31
0.0
  0
LINE
  5
184BC
  8
0
 62
     0
 10
9.0000000000000568
 20
24.074687668595001
 30
0.0
 11
18.00000000000006
 21
33.074687668594997
 31
0.0
  0
LINE
  5
184BD
  8
0
 62
     0
 10
9.0000000000000568
 20
26.31975169886227
 30
0.0
 11
18.00000000000006
 21
35.319751698862262
 31
0.0
  0
LINE
  5
184BE
  8
0
 62
     0
 10
9.0000000000001137
 20
28.564815729129521
 30
0.0
 11
18.00000000000011
 21
37.564815729129577
 31
0.0
  0
LINE
  5
184BF
  8
0
 62
     0
 10
9.0000000000001137
 20
30.809879759396839
 30
0.0
 11
18.00000000000011
 21
39.809879759396892
 31
0.0
  0
LINE
  5
184C0
  8
0
 62
     0
 10
9.0000000000000568
 20
33.054943789664151
 30
0.0
 11
18.00000000000011
 21
42.0549437896642
 31
0.0
  0
LINE
  5
184C1
  8
0
 62
     0
 10
9.0000000000000568
 20
35.300007819931409
 30
0.0
 11
18.00000000000011
 21
44.300007819931459
 31
0.0
  0
LINE
  5
184C2
  8
0
 62
     0
 10
9.0000000000000568
 20
37.545071850198667
 30
0.0
 11
16.07742504976892
 21
44.622496899967523
 31
0.0
  0
LINE
  5
184C3
  8
0
 62
     0
 10
9.0000000000001137
 20
39.790135880466039
 30
0.0
 11
13.83236101950166
 21
44.622496899967587
 31
0.0
  0
LINE
  5
184C4
  8
0
 62
     0
 10
9.0000000000000568
 20
42.035199910733297
 30
0.0
 11
11.587296989234339
 21
44.622496899967587
 31
0.0
  0
LINE
  5
184C5
  8
0
 62
     0
 10
9.0000000000001137
 20
44.280263941000548
 30
0.0
 11
9.3422329589670881
 21
44.622496899967587
 31
0.0
  0
ENDBLK
  5
184C7
  8
0
  0
BLOCK
  8
0
  2
*X77
 70
     1
 10
0.0
 20
0.0
 30
0.0
  3
*X77
  1

  0
LINE
  5
184C9
  8
0
 62
     0
 10
4.01579819129564
 20
-61.431188349899848
 30
0.0
 11
4.01579819129564
 21
-61.431188349899848
 31
0.0
  0
LINE
  5
184CA
  8
0
 62
     0
 10
3.5476270824212111
 20
-61.002188568063907
 30
0.0
 11
3.5476270824212111
 21
-61.002188568063907
 31
0.0
  0
LINE
  5
184CB
  8
0
 62
     0
 10
1.0195030944992971
 20
-58.685589746149809
 30
0.0
 11
1.0195030944992971
 21
-58.685589746149809
 31
0.0
  0
LINE
  5
184CC
  8
0
 62
     0
 10
8.6550676192222316
 20
-56.456296513577612
 30
0.0
 11
8.6550676192222316
 21
-56.456296513577612
 31
0.0
  0
LINE
  5
184CD
  8
0
 62
     0
 10
6.4452999853349269
 20
-54.431417543311952
 30
0.0
 11
6.4452999853349269
 21
-54.431417543311952
 31
0.0
  0
LINE
  5
184CE
  8
0
 62
     0
 10
5.9771288764604993
 20
-54.002417761476011
 30
0.0
 11
5.9771288764604993
 21
-54.002417761476011
 31
0.0
  0
LINE
  5
184CF
  8
0
 62
     0
 10
3.449004888538584
 20
-51.685818939561912
 30
0.0
 11
3.449004888538584
 21
-51.685818939561912
 31
0.0
  0
LINE
  5
184D0
  8
0
 62
     0
 10
1.23923725465128
 20
-49.660939969296251
 30
0.0
 11
1.23923725465128
 21
-49.660939969296251
 31
0.0
  0
LINE
  5
184D1
  8
0
 62
     0
 10
0.7710661457768521
 20
-49.23194018746031
 30
0.0
 11
0.7710661457768521
 21
-49.23194018746031
 31
0.0
  0
LINE
  5
184D2
  8
0
 62
     0
 10
8.8748017793742875
 20
-47.431646736724133
 30
0.0
 11
8.8748017793742875
 21
-47.431646736724133
 31
0.0
  0
LINE
  5
184D3
  8
0
 62
     0
 10
8.4066306704998581
 20
-47.002646954888192
 30
0.0
 11
8.4066306704998581
 21
-47.002646954888192
 31
0.0
  0
LINE
  5
184D4
  8
0
 62
     0
 10
5.8785066825779433
 20
-44.686048132974094
 30
0.0
 11
5.8785066825779433
 21
-44.686048132974094
 31
0.0
  0
LINE
  5
184D5
  8
0
 62
     0
 10
3.668739048690639
 20
-42.661169162708433
 30
0.0
 11
3.668739048690639
 21
-42.661169162708433
 31
0.0
  0
LINE
  5
184D6
  8
0
 62
     0
 10
3.200567939816211
 20
-42.232169380872492
 30
0.0
 11
3.200567939816211
 21
-42.232169380872492
 31
0.0
  0
LINE
  5
184D7
  8
0
 62
     0
 10
0.6724439518942967
 20
-39.915570558958393
 30
0.0
 11
0.6724439518942967
 21
-39.915570558958393
 31
0.0
  0
LINE
  5
184D8
  8
0
 62
     0
 10
8.3080084766172941
 20
-37.68627732638619
 30
0.0
 11
8.3080084766172941
 21
-37.68627732638619
 31
0.0
  0
LINE
  5
184D9
  8
0
 62
     0
 10
6.0982408427299903
 20
-35.661398356120543
 30
0.0
 11
6.0982408427299903
 21
-35.661398356120543
 31
0.0
  0
LINE
  5
184DA
  8
0
 62
     0
 10
5.630069733855561
 20
-35.232398574284602
 30
0.0
 11
5.630069733855561
 21
-35.232398574284602
 31
0.0
  0
LINE
  5
184DB
  8
0
 62
     0
 10
3.1019457459336461
 20
-32.915799752370503
 30
0.0
 11
3.1019457459336461
 21
-32.915799752370503
 31
0.0
  0
LINE
  5
184DC
  8
0
 62
     0
 10
0.8921781120463432
 20
-30.890920782104839
 30
0.0
 11
0.8921781120463432
 21
-30.890920782104839
 31
0.0
  0
LINE
  5
184DD
  8
0
 62
     0
 10
0.4240070031719147
 20
-30.461921000268891
 30
0.0
 11
0.4240070031719147
 21
-30.461921000268891
 31
0.0
  0
LINE
  5
184DE
  8
0
 62
     0
 10
8.5277426367693003
 20
-28.661627549532721
 30
0.0
 11
8.5277426367693003
 21
-28.661627549532721
 31
0.0
  0
LINE
  5
184DF
  8
0
 62
     0
 10
8.0595715278948692
 20
-28.232627767696769
 30
0.0
 11
8.0595715278948692
 21
-28.232627767696769
 31
0.0
  0
LINE
  5
184E0
  8
0
 62
     0
 10
5.5314475399729552
 20
-25.916028945782671
 30
0.0
 11
5.5314475399729552
 21
-25.916028945782671
 31
0.0
  0
LINE
  5
184E1
  8
0
 62
     0
 10
3.321679906085651
 20
-23.89114997551701
 30
0.0
 11
3.321679906085651
 21
-23.89114997551701
 31
0.0
  0
LINE
  5
184E2
  8
0
 62
     0
 10
2.853508797211223
 20
-23.462150193681069
 30
0.0
 11
2.853508797211223
 21
-23.462150193681069
 31
0.0
  0
LINE
  5
184E3
  8
0
 62
     0
 10
0.3253848092893086
 20
-21.14555137176697
 30
0.0
 11
0.3253848092893086
 21
-21.14555137176697
 31
0.0
  0
LINE
  5
184E4
  8
0
 62
     0
 10
7.960949334012235
 20
-18.916258139194781
 30
0.0
 11
7.960949334012235
 21
-18.916258139194781
 31
0.0
  0
LINE
  5
184E5
  8
0
 62
     0
 10
5.751181700124933
 20
-16.89137916892912
 30
0.0
 11
5.751181700124933
 21
-16.89137916892912
 31
0.0
  0
LINE
  5
184E6
  8
0
 62
     0
 10
5.2830105912505037
 20
-16.462379387093169
 30
0.0
 11
5.2830105912505037
 21
-16.462379387093169
 31
0.0
  0
LINE
  5
184E7
  8
0
 62
     0
 10
2.7548866033285888
 20
-14.14578056517907
 30
0.0
 11
2.7548866033285888
 21
-14.14578056517907
 31
0.0
  0
LINE
  5
184E8
  8
0
 62
     0
 10
0.5451189694412864
 20
-12.12090159491342
 30
0.0
 11
0.5451189694412864
 21
-12.12090159491342
 31
0.0
  0
LINE
  5
184E9
  8
0
 62
     0
 10
0.0769478605668576
 20
-11.69190181307747
 30
0.0
 11
0.0769478605668576
 21
-11.69190181307747
 31
0.0
  0
LINE
  5
184EA
  8
0
 62
     0
 10
8.1806834941643185
 20
-9.8916083623412607
 30
0.0
 11
8.1806834941643185
 21
-9.8916083623412607
 31
0.0
  0
LINE
  5
184EB
  8
0
 62
     0
 10
7.71251238528989
 20
-9.4626085805053162
 30
0.0
 11
7.71251238528989
 21
-9.4626085805053162
 31
0.0
  0
LINE
  5
184EC
  8
0
 62
     0
 10
2.9746207634806661
 20
-5.1211307883256101
 30
0.0
 11
2.9746207634806661
 21
-5.1211307883256101
 31
0.0
  0
LINE
  5
184ED
  8
0
 62
     0
 10
2.506449654606238
 20
-4.6921310064896664
 30
0.0
 11
2.506449654606238
 21
-4.6921310064896664
 31
0.0
  0
LINE
  5
184EE
  8
0
 62
     0
 10
7.6138901914073207
 20
-0.1462389520033798
 30
0.0
 11
7.6138901914073207
 21
-0.1462389520033798
 31
0.0
  0
LINE
  5
184EF
  8
0
 62
     0
 10
5.4041225575200169
 20
1.8786400182622769
 30
0.0
 11
5.4041225575200169
 21
1.8786400182622769
 31
0.0
  0
LINE
  5
184F0
  8
0
 62
     0
 10
4.9359514486455893
 20
2.307639800098221
 30
0.0
 11
4.9359514486455893
 21
2.307639800098221
 31
0.0
  0
LINE
  5
184F1
  8
0
 62
     0
 10
2.407827460723674
 20
4.6242386220123208
 30
0.0
 11
2.407827460723674
 21
4.6242386220123208
 31
0.0
  0
LINE
  5
184F2
  8
0
 62
     0
 10
7.8336243515593544
 20
8.8784108248501266
 30
0.0
 11
7.8336243515593544
 21
8.8784108248501266
 31
0.0
  0
LINE
  5
184F3
  8
0
 62
     0
 10
7.3654532426849251
 20
9.3074106066860711
 30
0.0
 11
7.3654532426849251
 21
9.3074106066860711
 31
0.0
  0
LINE
  5
184F4
  8
0
 62
     0
 10
4.8373292547630111
 20
11.62400942860017
 30
0.0
 11
4.8373292547630111
 21
11.62400942860017
 31
0.0
  0
LINE
  5
184F5
  8
0
 62
     0
 10
2.6275616208757082
 20
13.64888839886583
 30
0.0
 11
2.6275616208757082
 21
13.64888839886583
 31
0.0
  0
LINE
  5
184F6
  8
0
 62
     0
 10
2.1593905120012789
 20
14.07788818070177
 30
0.0
 11
2.1593905120012789
 21
14.07788818070177
 31
0.0
  0
LINE
  5
184F7
  8
0
 62
     0
 10
7.2668310488023229
 20
18.623780235188089
 30
0.0
 11
7.2668310488023229
 21
18.623780235188089
 31
0.0
  0
LINE
  5
184F8
  8
0
 62
     0
 10
5.0570634149150191
 20
20.648659205453761
 30
0.0
 11
5.0570634149150191
 21
20.648659205453761
 31
0.0
  0
LINE
  5
184F9
  8
0
 62
     0
 10
4.5888923060405906
 20
21.077658987289698
 30
0.0
 11
4.5888923060405906
 21
21.077658987289698
 31
0.0
  0
LINE
  5
184FA
  8
0
 62
     0
 10
2.0607683181186771
 20
23.3942578092038
 30
0.0
 11
2.0607683181186771
 21
23.3942578092038
 31
0.0
  0
LINE
  5
184FB
  8
0
 62
     0
 10
7.4865652089542847
 20
27.648430012041619
 30
0.0
 11
7.4865652089542847
 21
27.648430012041619
 31
0.0
  0
LINE
  5
184FC
  8
0
 62
     0
 10
7.0183941000798571
 20
28.07742979387756
 30
0.0
 11
7.0183941000798571
 21
28.07742979387756
 31
0.0
  0
LINE
  5
184FD
  8
0
 62
     0
 10
4.4902701121579423
 20
30.394028615791662
 30
0.0
 11
4.4902701121579423
 21
30.394028615791662
 31
0.0
  0
LINE
  5
184FE
  8
0
 62
     0
 10
2.2805024782706389
 20
32.418907586057323
 30
0.0
 11
2.2805024782706389
 21
32.418907586057323
 31
0.0
  0
LINE
  5
184FF
  8
0
 62
     0
 10
1.81233136939621
 20
32.847907367893256
 30
0.0
 11
1.81233136939621
 21
32.847907367893256
 31
0.0
  0
LINE
  5
18500
  8
0
 62
     0
 10
6.9197719061972807
 20
37.393799422379502
 30
0.0
 11
6.9197719061972807
 21
37.393799422379502
 31
0.0
  0
LINE
  5
18501
  8
0
 62
     0
 10
4.7100042723099769
 20
39.418678392645162
 30
0.0
 11
4.7100042723099769
 21
39.418678392645162
 31
0.0
  0
LINE
  5
18502
  8
0
 62
     0
 10
4.2418331634355493
 20
39.847678174481111
 30
0.0
 11
4.2418331634355493
 21
39.847678174481111
 31
0.0
  0
LINE
  5
18503
  8
0
 62
     0
 10
1.713709175513634
 20
42.164276996395202
 30
0.0
 11
1.713709175513634
 21
42.164276996395202
 31
0.0
  0
LINE
  5
18504
  8
0
 62
     0
 10
7.6039294291079393
 20
-61.37093519581228
 30
0.0
 11
7.6039294291079393
 21
-61.37093519581228
 31
0.0
  0
LINE
  5
18505
  8
0
 62
     0
 10
2.569725889050825
 20
-58.163793833590091
 30
0.0
 11
2.569725889050825
 21
-58.163793833590091
 31
0.0
  0
LINE
  5
18506
  8
0
 62
     0
 10
6.62366390120894
 20
-55.692888177442953
 30
0.0
 11
6.62366390120894
 21
-55.692888177442953
 31
0.0
  0
LINE
  5
18507
  8
0
 62
     0
 10
5.5525567650265764
 20
-55.010517674842482
 30
0.0
 11
5.5525567650265764
 21
-55.010517674842482
 31
0.0
  0
LINE
  5
18508
  8
0
 62
     0
 10
0.5183532249694629
 20
-51.803376312620287
 30
0.0
 11
0.5183532249694629
 21
-51.803376312620287
 31
0.0
  0
LINE
  5
18509
  8
0
 62
     0
 10
8.4282769273839921
 20
-51.789004465834807
 30
0.0
 11
8.4282769273839921
 21
-51.789004465834807
 31
0.0
  0
LINE
  5
1850A
  8
0
 62
     0
 10
4.5722912371274811
 20
-49.332470656473127
 30
0.0
 11
4.5722912371274811
 21
-49.332470656473127
 31
0.0
  0
LINE
  5
1850B
  8
0
 62
     0
 10
3.501184100945117
 20
-48.650100153872657
 30
0.0
 11
3.501184100945117
 21
-48.650100153872657
 31
0.0
  0
LINE
  5
1850C
  8
0
 62
     0
 10
6.3769042633026087
 20
-45.428586944865053
 30
0.0
 11
6.3769042633026087
 21
-45.428586944865053
 31
0.0
  0
LINE
  5
1850D
  8
0
 62
     0
 10
2.5209185730460968
 20
-42.972053135503373
 30
0.0
 11
2.5209185730460968
 21
-42.972053135503373
 31
0.0
  0
LINE
  5
1850E
  8
0
 62
     0
 10
1.4498114368637329
 20
-42.289682632902903
 30
0.0
 11
1.4498114368637329
 21
-42.289682632902903
 31
0.0
  0
LINE
  5
1850F
  8
0
 62
     0
 10
4.3255315992211782
 20
-39.068169423895192
 30
0.0
 11
4.3255315992211782
 21
-39.068169423895192
 31
0.0
  0
LINE
  5
18510
  8
0
 62
     0
 10
0.4695459089646658
 20
-36.611635614533512
 30
0.0
 11
0.4695459089646658
 21
-36.611635614533512
 31
0.0
  0
LINE
  5
18511
  8
0
 62
     0
 10
8.3794696113792817
 20
-36.597263767748082
 30
0.0
 11
8.3794696113792817
 21
-36.597263767748082
 31
0.0
  0
LINE
  5
18512
  8
0
 62
     0
 10
7.3083624751969172
 20
-35.914893265147612
 30
0.0
 11
7.3083624751969172
 21
-35.914893265147612
 31
0.0
  0
LINE
  5
18513
  8
0
 62
     0
 10
2.2741589351398028
 20
-32.707751902925423
 30
0.0
 11
2.2741589351398028
 21
-32.707751902925423
 31
0.0
  0
LINE
  5
18514
  8
0
 62
     0
 10
6.328096947297821
 20
-30.236846246778288
 30
0.0
 11
6.328096947297821
 21
-30.236846246778288
 31
0.0
  0
LINE
  5
18515
  8
0
 62
     0
 10
5.2569898111154574
 20
-29.554475744177829
 30
0.0
 11
5.2569898111154574
 21
-29.554475744177829
 31
0.0
  0
LINE
  5
18516
  8
0
 62
     0
 10
0.2227862710583442
 20
-26.34733438195563
 30
0.0
 11
0.2227862710583442
 21
-26.34733438195563
 31
0.0
  0
LINE
  5
18517
  8
0
 62
     0
 10
8.1327099734729629
 20
-26.332962535170171
 30
0.0
 11
8.1327099734729629
 21
-26.332962535170171
 31
0.0
  0
LINE
  5
18518
  8
0
 62
     0
 10
4.27672428321645
 20
-23.876428725808481
 30
0.0
 11
4.27672428321645
 21
-23.876428725808481
 31
0.0
  0
LINE
  5
18519
  8
0
 62
     0
 10
3.2056171470340851
 20
-23.194058223208021
 30
0.0
 11
3.2056171470340851
 21
-23.194058223208021
 31
0.0
  0
LINE
  5
1851A
  8
0
 62
     0
 10
6.08133730939148
 20
-19.97254501420036
 30
0.0
 11
6.08133730939148
 21
-19.97254501420036
 31
0.0
  0
LINE
  5
1851B
  8
0
 62
     0
 10
2.225351619134968
 20
-17.51601120483868
 30
0.0
 11
2.225351619134968
 21
-17.51601120483868
 31
0.0
  0
LINE
  5
1851C
  8
0
 62
     0
 10
1.1542444829526031
 20
-16.83364070223821
 30
0.0
 11
1.1542444829526031
 21
-16.83364070223821
 31
0.0
  0
LINE
  5
1851D
  8
0
 62
     0
 10
4.0299646453101081
 20
-13.61212749323059
 30
0.0
 11
4.0299646453101081
 21
-13.61212749323059
 31
0.0
  0
LINE
  5
1851E
  8
0
 62
     0
 10
0.1739789550535956
 20
-11.15559368386891
 30
0.0
 11
0.1739789550535956
 21
-11.15559368386891
 31
0.0
  0
LINE
  5
1851F
  8
0
 62
     0
 10
8.0839026574682151
 20
-11.14122183708349
 30
0.0
 11
8.0839026574682151
 21
-11.14122183708349
 31
0.0
  0
LINE
  5
18520
  8
0
 62
     0
 10
7.0127955212858497
 20
-10.45885133448302
 30
0.0
 11
7.0127955212858497
 21
-10.45885133448302
 31
0.0
  0
LINE
  5
18521
  8
0
 62
     0
 10
6.0325299933867882
 20
-4.7808043161136462
 30
0.0
 11
6.0325299933867882
 21
-4.7808043161136462
 31
0.0
  0
LINE
  5
18522
  8
0
 62
     0
 10
4.9614228572044228
 20
-4.0984338135131786
 30
0.0
 11
4.9614228572044228
 21
-4.0984338135131786
 31
0.0
  0
LINE
  5
18523
  8
0
 62
     0
 10
7.8371430195619052
 20
-0.8769206045055604
 30
0.0
 11
7.8371430195619052
 21
-0.8769206045055604
 31
0.0
  0
LINE
  5
18524
  8
0
 62
     0
 10
3.9811573293053919
 20
1.5796132048561189
 30
0.0
 11
3.9811573293053919
 21
1.5796132048561189
 31
0.0
  0
LINE
  5
18525
  8
0
 62
     0
 10
2.9100501931230269
 20
2.2619837074565861
 30
0.0
 11
2.9100501931230269
 21
2.2619837074565861
 31
0.0
  0
LINE
  5
18526
  8
0
 62
     0
 10
5.7857703554804303
 20
5.4834969164642349
 30
0.0
 11
5.7857703554804303
 21
5.4834969164642349
 31
0.0
  0
LINE
  5
18527
  8
0
 62
     0
 10
3.734397691399074
 20
11.84391443743405
 30
0.0
 11
3.734397691399074
 21
11.84391443743405
 31
0.0
  0
LINE
  5
18528
  8
0
 62
     0
 10
7.7883357035571521
 20
14.31482009358125
 30
0.0
 11
7.7883357035571521
 21
14.31482009358125
 31
0.0
  0
LINE
  5
18529
  8
0
 62
     0
 10
6.7172285673747876
 20
14.997190596181721
 30
0.0
 11
6.7172285673747876
 21
14.997190596181721
 31
0.0
  0
LINE
  5
1852A
  8
0
 62
     0
 10
1.6830250273176739
 20
18.204331958403909
 30
0.0
 11
1.6830250273176739
 21
18.204331958403909
 31
0.0
  0
LINE
  5
1852B
  8
0
 62
     0
 10
5.7369630394757527
 20
20.675237614551001
 30
0.0
 11
5.7369630394757527
 21
20.675237614551001
 31
0.0
  0
LINE
  5
1852C
  8
0
 62
     0
 10
4.6658559032933891
 20
21.357608117151461
 30
0.0
 11
4.6658559032933891
 21
21.357608117151461
 31
0.0
  0
LINE
  5
1852D
  8
0
 62
     0
 10
7.5415760656507649
 20
24.57912132615909
 30
0.0
 11
7.5415760656507649
 21
24.57912132615909
 31
0.0
  0
LINE
  5
1852E
  8
0
 62
     0
 10
3.685590375394252
 20
27.03565513552077
 30
0.0
 11
3.685590375394252
 21
27.03565513552077
 31
0.0
  0
LINE
  5
1852F
  8
0
 62
     0
 10
2.614483239211888
 20
27.71802563812124
 30
0.0
 11
2.614483239211888
 21
27.71802563812124
 31
0.0
  0
LINE
  5
18530
  8
0
 62
     0
 10
5.4902034015693664
 20
30.939538847128901
 30
0.0
 11
5.4902034015693664
 21
30.939538847128901
 31
0.0
  0
LINE
  5
18531
  8
0
 62
     0
 10
1.6342177113128531
 20
33.396072656490567
 30
0.0
 11
1.6342177113128531
 21
33.396072656490567
 31
0.0
  0
LINE
  5
18532
  8
0
 62
     0
 10
0.5631105751304892
 20
34.078443159091037
 30
0.0
 11
0.5631105751304892
 21
34.078443159091037
 31
0.0
  0
LINE
  5
18533
  8
0
 62
     0
 10
8.4730342775450875
 20
34.092815005876503
 30
0.0
 11
8.4730342775450875
 21
34.092815005876503
 31
0.0
  0
LINE
  5
18534
  8
0
 62
     0
 10
3.4388307374879732
 20
37.299956368098691
 30
0.0
 11
3.4388307374879732
 21
37.299956368098691
 31
0.0
  0
LINE
  5
18535
  8
0
 62
     0
 10
7.492768749646034
 20
39.77086202424583
 30
0.0
 11
7.492768749646034
 21
39.77086202424583
 31
0.0
  0
LINE
  5
18536
  8
0
 62
     0
 10
6.4216616134636686
 20
40.4532325268463
 30
0.0
 11
6.4216616134636686
 21
40.4532325268463
 31
0.0
  0
LINE
  5
18537
  8
0
 62
     0
 10
1.387458073406556
 20
43.660373889068488
 30
0.0
 11
1.387458073406556
 21
43.660373889068488
 31
0.0
  0
LINE
  5
18538
  8
0
 62
     0
 10
8.2994528038308442
 20
-55.941633358613942
 30
0.0
 11
8.2994528038308442
 21
-55.941633358613942
 31
0.0
  0
LINE
  5
18539
  8
0
 62
     0
 10
6.2344714465614741
 20
-56.213493311769859
 30
0.0
 11
6.2344714465614741
 21
-56.213493311769859
 31
0.0
  0
LINE
  5
1853A
  8
0
 62
     0
 10
4.9123797239194982
 20
-56.387549989095298
 30
0.0
 11
4.9123797239194982
 21
-56.387549989095298
 31
0.0
  0
LINE
  5
1853B
  8
0
 62
     0
 10
1.462349895310912
 20
-56.84175503278265
 30
0.0
 11
1.462349895310912
 21
-56.84175503278265
 31
0.0
  0
LINE
  5
1853C
  8
0
 62
     0
 10
5.957582726691057
 20
-49.673504027099071
 30
0.0
 11
5.957582726691057
 21
-49.673504027099071
 31
0.0
  0
LINE
  5
1853D
  8
0
 62
     0
 10
3.8926013694216852
 20
-49.945363980255003
 30
0.0
 11
3.8926013694216852
 21
-49.945363980255003
 31
0.0
  0
LINE
  5
1853E
  8
0
 62
     0
 10
2.5705096467797088
 20
-50.119420657580442
 30
0.0
 11
2.5705096467797088
 21
-50.119420657580442
 31
0.0
  0
LINE
  5
1853F
  8
0
 62
     0
 10
8.3878342008016062
 20
-42.777112974571473
 30
0.0
 11
8.3878342008016062
 21
-42.777112974571473
 31
0.0
  0
LINE
  5
18540
  8
0
 62
     0
 10
7.0657424781596294
 20
-42.951169651896898
 30
0.0
 11
7.0657424781596294
 21
-42.951169651896898
 31
0.0
  0
LINE
  5
18541
  8
0
 62
     0
 10
3.615712649551043
 20
-43.40537469558425
 30
0.0
 11
3.615712649551043
 21
-43.40537469558425
 31
0.0
  0
LINE
  5
18542
  8
0
 62
     0
 10
1.5507312922816709
 20
-43.677234648740168
 30
0.0
 11
1.5507312922816709
 21
-43.677234648740168
 31
0.0
  0
LINE
  5
18543
  8
0
 62
     0
 10
0.2286395696396954
 20
-43.851291326065613
 30
0.0
 11
0.2286395696396954
 21
-43.851291326065613
 31
0.0
  0
LINE
  5
18544
  8
0
 62
     0
 10
8.1109454809310098
 20
-36.23712368990072
 30
0.0
 11
8.1109454809310098
 21
-36.23712368990072
 31
0.0
  0
LINE
  5
18545
  8
0
 62
     0
 10
6.045964123661637
 20
-36.508983643056638
 30
0.0
 11
6.045964123661637
 21
-36.508983643056638
 31
0.0
  0
LINE
  5
18546
  8
0
 62
     0
 10
4.7238724010196611
 20
-36.683040320382077
 30
0.0
 11
4.7238724010196611
 21
-36.683040320382077
 31
0.0
  0
LINE
  5
18547
  8
0
 62
     0
 10
1.2738425724110749
 20
-37.137245364069422
 30
0.0
 11
1.2738425724110749
 21
-37.137245364069422
 31
0.0
  0
LINE
  5
18548
  8
0
 62
     0
 10
5.7690754037913328
 20
-29.96899435838586
 30
0.0
 11
5.7690754037913328
 21
-29.96899435838586
 31
0.0
  0
LINE
  5
18549
  8
0
 62
     0
 10
3.7040940465219601
 20
-30.240854311541781
 30
0.0
 11
3.7040940465219601
 21
-30.240854311541781
 31
0.0
  0
LINE
  5
1854A
  8
0
 62
     0
 10
2.382002323879985
 20
-30.41491098886722
 30
0.0
 11
2.382002323879985
 21
-30.41491098886722
 31
0.0
  0
LINE
  5
1854B
  8
0
 62
     0
 10
8.1993268779017701
 20
-23.07260330585823
 30
0.0
 11
8.1993268779017701
 21
-23.07260330585823
 31
0.0
  0
LINE
  5
1854C
  8
0
 62
     0
 10
6.8772351552597932
 20
-23.246659983183669
 30
0.0
 11
6.8772351552597932
 21
-23.246659983183669
 31
0.0
  0
LINE
  5
1854D
  8
0
 62
     0
 10
3.4272053266512059
 20
-23.700865026871011
 30
0.0
 11
3.4272053266512059
 21
-23.700865026871011
 31
0.0
  0
LINE
  5
1854E
  8
0
 62
     0
 10
1.3622239693818341
 20
-23.972724980026928
 30
0.0
 11
1.3622239693818341
 21
-23.972724980026928
 31
0.0
  0
LINE
  5
1854F
  8
0
 62
     0
 10
0.0401322467398583
 20
-24.146781657352371
 30
0.0
 11
0.0401322467398583
 21
-24.146781657352371
 31
0.0
  0
LINE
  5
18550
  8
0
 62
     0
 10
7.9224381580313974
 20
-16.532614021187449
 30
0.0
 11
7.9224381580313974
 21
-16.532614021187449
 31
0.0
  0
LINE
  5
18551
  8
0
 62
     0
 10
5.8574568007620247
 20
-16.804473974343381
 30
0.0
 11
5.8574568007620247
 21
-16.804473974343381
 31
0.0
  0
LINE
  5
18552
  8
0
 62
     0
 10
4.5353650781200487
 20
-16.978530651668819
 30
0.0
 11
4.5353650781200487
 21
-16.978530651668819
 31
0.0
  0
LINE
  5
18553
  8
0
 62
     0
 10
1.0853352495114641
 20
-17.432735695356151
 30
0.0
 11
1.0853352495114641
 21
-17.432735695356151
 31
0.0
  0
LINE
  5
18554
  8
0
 62
     0
 10
5.5805680808913829
 20
-10.26448468967264
 30
0.0
 11
5.5805680808913829
 21
-10.26448468967264
 31
0.0
  0
LINE
  5
18555
  8
0
 62
     0
 10
3.5155867236220111
 20
-10.53634464282856
 30
0.0
 11
3.5155867236220111
 21
-10.53634464282856
 31
0.0
  0
LINE
  5
18556
  8
0
 62
     0
 10
2.193495000980036
 20
-10.710401320154
 30
0.0
 11
2.193495000980036
 21
-10.710401320154
 31
0.0
  0
LINE
  5
18557
  8
0
 62
     0
 10
8.0108195550021595
 20
-3.3680936371449901
 30
0.0
 11
8.0108195550021595
 21
-3.3680936371449901
 31
0.0
  0
LINE
  5
18558
  8
0
 62
     0
 10
6.6887278323601818
 20
-3.5421503144704292
 30
0.0
 11
6.6887278323601818
 21
-3.5421503144704292
 31
0.0
  0
LINE
  5
18559
  8
0
 62
     0
 10
3.2386980037515962
 20
-3.9963553581577642
 30
0.0
 11
3.2386980037515962
 21
-3.9963553581577642
 31
0.0
  0
LINE
  5
1855A
  8
0
 62
     0
 10
1.1737166464822231
 20
-4.2682153113136883
 30
0.0
 11
1.1737166464822231
 21
-4.2682153113136883
 31
0.0
  0
LINE
  5
1855B
  8
0
 62
     0
 10
7.7339308351315621
 20
3.1718956475257549
 30
0.0
 11
7.7339308351315621
 21
3.1718956475257549
 31
0.0
  0
LINE
  5
1855C
  8
0
 62
     0
 10
5.6689494778621903
 20
2.9000356943698322
 30
0.0
 11
5.6689494778621903
 21
2.9000356943698322
 31
0.0
  0
LINE
  5
1855D
  8
0
 62
     0
 10
4.3468577552202143
 20
2.7259790170443932
 30
0.0
 11
4.3468577552202143
 21
2.7259790170443932
 31
0.0
  0
LINE
  5
1855E
  8
0
 62
     0
 10
0.896827926611628
 20
2.2717739733570581
 30
0.0
 11
0.896827926611628
 21
2.2717739733570581
 31
0.0
  0
LINE
  5
1855F
  8
0
 62
     0
 10
2.0049876780801821
 20
8.9941083485592426
 30
0.0
 11
2.0049876780801821
 21
8.9941083485592426
 31
0.0
  0
LINE
  5
18560
  8
0
 62
     0
 10
8.8420905866000723
 20
9.8942300227279318
 30
0.0
 11
8.8420905866000723
 21
9.8942300227279318
 31
0.0
  0
LINE
  5
18561
  8
0
 62
     0
 10
5.3920607579914854
 20
9.4400249790405972
 30
0.0
 11
5.3920607579914854
 21
9.4400249790405972
 31
0.0
  0
LINE
  5
18562
  8
0
 62
     0
 10
3.3270794007221132
 20
9.1681650258846741
 30
0.0
 11
3.3270794007221132
 21
9.1681650258846741
 31
0.0
  0
LINE
  5
18563
  8
0
 62
     0
 10
7.8223122321023224
 20
16.336416031568241
 30
0.0
 11
7.8223122321023224
 21
16.336416031568241
 31
0.0
  0
LINE
  5
18564
  8
0
 62
     0
 10
6.5002205094603456
 20
16.162359354242799
 30
0.0
 11
6.5002205094603456
 21
16.162359354242799
 31
0.0
  0
LINE
  5
18565
  8
0
 62
     0
 10
3.05019068085176
 20
15.708154310555461
 30
0.0
 11
3.05019068085176
 21
15.708154310555461
 31
0.0
  0
LINE
  5
18566
  8
0
 62
     0
 10
0.9852093235823877
 20
15.436294357399539
 30
0.0
 11
0.9852093235823877
 21
15.436294357399539
 31
0.0
  0
LINE
  5
18567
  8
0
 62
     0
 10
7.5454235122316131
 20
22.87640531623898
 30
0.0
 11
7.5454235122316131
 21
22.87640531623898
 31
0.0
  0
LINE
  5
18568
  8
0
 62
     0
 10
5.4804421549622413
 20
22.604545363083059
 30
0.0
 11
5.4804421549622413
 21
22.604545363083059
 31
0.0
  0
LINE
  5
18569
  8
0
 62
     0
 10
4.1583504323202654
 20
22.43048868575762
 30
0.0
 11
4.1583504323202654
 21
22.43048868575762
 31
0.0
  0
LINE
  5
1856A
  8
0
 62
     0
 10
0.7083206037116793
 20
21.976283642070278
 30
0.0
 11
0.7083206037116793
 21
21.976283642070278
 31
0.0
  0
LINE
  5
1856B
  8
0
 62
     0
 10
8.6535832637005257
 20
29.598739691441182
 30
0.0
 11
8.6535832637005257
 21
29.598739691441182
 31
0.0
  0
LINE
  5
1856C
  8
0
 62
     0
 10
5.2035534350919379
 20
29.14453464775384
 30
0.0
 11
5.2035534350919379
 21
29.14453464775384
 31
0.0
  0
LINE
  5
1856D
  8
0
 62
     0
 10
3.1385720778225661
 20
28.872674694597919
 30
0.0
 11
3.1385720778225661
 21
28.872674694597919
 31
0.0
  0
LINE
  5
1856E
  8
0
 62
     0
 10
1.8164803551805899
 20
28.69861801727248
 30
0.0
 11
1.8164803551805899
 21
28.69861801727248
 31
0.0
  0
LINE
  5
1856F
  8
0
 62
     0
 10
7.6338049092024871
 20
36.040925700281463
 30
0.0
 11
7.6338049092024871
 21
36.040925700281463
 31
0.0
  0
LINE
  5
18570
  8
0
 62
     0
 10
6.3117131865605112
 20
35.866869022956017
 30
0.0
 11
6.3117131865605112
 21
35.866869022956017
 31
0.0
  0
LINE
  5
18571
  8
0
 62
     0
 10
2.8616833579519252
 20
35.412663979268679
 30
0.0
 11
2.8616833579519252
 21
35.412663979268679
 31
0.0
  0
LINE
  5
18572
  8
0
 62
     0
 10
0.7967020006825532
 20
35.140804026112761
 30
0.0
 11
0.7967020006825532
 21
35.140804026112761
 31
0.0
  0
LINE
  5
18573
  8
0
 62
     0
 10
7.3569161893318897
 20
42.580914984952237
 30
0.0
 11
7.3569161893318897
 21
42.580914984952237
 31
0.0
  0
LINE
  5
18574
  8
0
 62
     0
 10
5.2919348320625179
 20
42.309055031796319
 30
0.0
 11
5.2919348320625179
 21
42.309055031796319
 31
0.0
  0
LINE
  5
18575
  8
0
 62
     0
 10
3.969843109420542
 20
42.134998354470881
 30
0.0
 11
3.969843109420542
 21
42.134998354470881
 31
0.0
  0
LINE
  5
18576
  8
0
 62
     0
 10
0.5198132808119568
 20
41.680793310783542
 30
0.0
 11
0.5198132808119568
 21
41.680793310783542
 31
0.0
  0
LINE
  5
18577
  8
0
 62
     0
 10
6.43540543883607
 20
-59.471602609558978
 30
0.0
 11
6.43540543883607
 21
-59.471602609558978
 31
0.0
  0
LINE
  5
18578
  8
0
 62
     0
 10
6.275402309237827
 20
-54.577470236265448
 30
0.0
 11
6.275402309237827
 21
-54.577470236265448
 31
0.0
  0
LINE
  5
18579
  8
0
 62
     0
 10
3.0008363971857528
 20
-57.09013303449894
 30
0.0
 11
3.0008363971857528
 21
-57.09013303449894
 31
0.0
  0
LINE
  5
1857A
  8
0
 62
     0
 10
6.1153991796394154
 20
-49.683337862972039
 30
0.0
 11
6.1153991796394154
 21
-49.683337862972039
 31
0.0
  0
LINE
  5
1857B
  8
0
 62
     0
 10
2.840833267587342
 20
-52.196000661205531
 30
0.0
 11
2.840833267587342
 21
-52.196000661205531
 31
0.0
  0
LINE
  5
1857C
  8
0
 62
     0
 10
5.955396050040946
 20
-44.789205489678622
 30
0.0
 11
5.955396050040946
 21
-44.789205489678622
 31
0.0
  0
LINE
  5
1857D
  8
0
 62
     0
 10
2.680830137988873
 20
-47.301868287912122
 30
0.0
 11
2.680830137988873
 21
-47.301868287912122
 31
0.0
  0
LINE
  5
1857E
  8
0
 62
     0
 10
8.8583714966390605
 20
-37.544766991268283
 30
0.0
 11
8.8583714966390605
 21
-37.544766991268283
 31
0.0
  0
LINE
  5
1857F
  8
0
 62
     0
 10
5.7953929204426577
 20
-39.895073116385142
 30
0.0
 11
5.7953929204426577
 21
-39.895073116385142
 31
0.0
  0
LINE
  5
18580
  8
0
 62
     0
 10
2.5208270083905848
 20
-42.407735914618627
 30
0.0
 11
2.5208270083905848
 21
-42.407735914618627
 31
0.0
  0
LINE
  5
18581
  8
0
 62
     0
 10
8.6983683670406258
 20
-32.650634617974859
 30
0.0
 11
8.6983683670406258
 21
-32.650634617974859
 31
0.0
  0
LINE
  5
18582
  8
0
 62
     0
 10
5.635389790844223
 20
-35.000940743091732
 30
0.0
 11
5.635389790844223
 21
-35.000940743091732
 31
0.0
  0
LINE
  5
18583
  8
0
 62
     0
 10
2.3608238787921501
 20
-37.513603541325217
 30
0.0
 11
2.3608238787921501
 21
-37.513603541325217
 31
0.0
  0
LINE
  5
18584
  8
0
 62
     0
 10
8.5383652374421573
 20
-27.756502244681499
 30
0.0
 11
8.5383652374421573
 21
-27.756502244681499
 31
0.0
  0
LINE
  5
18585
  8
0
 62
     0
 10
5.4753866612457553
 20
-30.106808369798369
 30
0.0
 11
5.4753866612457553
 21
-30.106808369798369
 31
0.0
  0
LINE
  5
18586
  8
0
 62
     0
 10
2.2008207491936811
 20
-32.619471168031872
 30
0.0
 11
2.2008207491936811
 21
-32.619471168031872
 31
0.0
  0
LINE
  5
18587
  8
0
 62
     0
 10
8.3783621078436887
 20
-22.862369871388101
 30
0.0
 11
8.3783621078436887
 21
-22.862369871388101
 31
0.0
  0
LINE
  5
18588
  8
0
 62
     0
 10
5.3153835316472859
 20
-25.21267599650497
 30
0.0
 11
5.3153835316472859
 21
-25.21267599650497
 31
0.0
  0
LINE
  5
18589
  8
0
 62
     0
 10
2.040817619595213
 20
-27.725338794738459
 30
0.0
 11
2.040817619595213
 21
-27.725338794738459
 31
0.0
  0
LINE
  5
1858A
  8
0
 62
     0
 10
8.2183589782454565
 20
-17.968237498094549
 30
0.0
 11
8.2183589782454565
 21
-17.968237498094549
 31
0.0
  0
LINE
  5
1858B
  8
0
 62
     0
 10
5.1553804020490546
 20
-20.318543623211418
 30
0.0
 11
5.1553804020490546
 21
-20.318543623211418
 31
0.0
  0
LINE
  5
1858C
  8
0
 62
     0
 10
1.8808144899969821
 20
-22.831206421444922
 30
0.0
 11
1.8808144899969821
 21
-22.831206421444922
 31
0.0
  0
LINE
  5
1858D
  8
0
 62
     0
 10
8.0583558486470217
 20
-13.074105124801131
 30
0.0
 11
8.0583558486470217
 21
-13.074105124801131
 31
0.0
  0
LINE
  5
1858E
  8
0
 62
     0
 10
4.9953772724506189
 20
-15.424411249918
 30
0.0
 11
4.9953772724506189
 21
-15.424411249918
 31
0.0
  0
LINE
  5
1858F
  8
0
 62
     0
 10
1.720811360398546
 20
-17.937074048151491
 30
0.0
 11
1.720811360398546
 21
-17.937074048151491
 31
0.0
  0
LINE
  5
18590
  8
0
 62
     0
 10
4.8353741428521513
 20
-10.530278876624591
 30
0.0
 11
4.8353741428521513
 21
-10.530278876624591
 31
0.0
  0
LINE
  5
18591
  8
0
 62
     0
 10
1.5608082308000779
 20
-13.04294167485809
 30
0.0
 11
1.5608082308000779
 21
-13.04294167485809
 31
0.0
  0
LINE
  5
18592
  8
0
 62
     0
 10
4.6753710132538471
 20
-5.6361465033310978
 30
0.0
 11
4.6753710132538471
 21
-5.6361465033310978
 31
0.0
  0
LINE
  5
18593
  8
0
 62
     0
 10
7.7383495894501984
 20
-3.2858403782142842
 30
0.0
 11
7.7383495894501984
 21
-3.2858403782142842
 31
0.0
  0
LINE
  5
18594
  8
0
 62
     0
 10
7.5783464598517973
 20
1.608291995079111
 30
0.0
 11
7.5783464598517973
 21
1.608291995079111
 31
0.0
  0
LINE
  5
18595
  8
0
 62
     0
 10
4.5153678836553954
 20
-0.7420141300377581
 30
0.0
 11
4.5153678836553954
 21
-0.7420141300377581
 31
0.0
  0
LINE
  5
18596
  8
0
 62
     0
 10
1.240801971603321
 20
-3.2546769282712522
 30
0.0
 11
1.240801971603321
 21
-3.2546769282712522
 31
0.0
  0
LINE
  5
18597
  8
0
 62
     0
 10
4.355364754056926
 20
4.1521182432556483
 30
0.0
 11
4.355364754056926
 21
4.1521182432556483
 31
0.0
  0
LINE
  5
18598
  8
0
 62
     0
 10
1.0807988420048531
 20
1.6394554450221539
 30
0.0
 11
1.0807988420048531
 21
1.6394554450221539
 31
0.0
  0
LINE
  5
18599
  8
0
 62
     0
 10
7.2583402006548541
 20
11.396556741665909
 30
0.0
 11
7.2583402006548541
 21
11.396556741665909
 31
0.0
  0
LINE
  5
1859A
  8
0
 62
     0
 10
4.1953616244584531
 20
9.0462506165490382
 30
0.0
 11
4.1953616244584531
 21
9.0462506165490382
 31
0.0
  0
LINE
  5
1859B
  8
0
 62
     0
 10
7.098337071056628
 20
16.29068911495941
 30
0.0
 11
7.098337071056628
 21
16.29068911495941
 31
0.0
  0
LINE
  5
1859C
  8
0
 62
     0
 10
4.035358494860227
 20
13.94038298984254
 30
0.0
 11
4.035358494860227
 21
13.94038298984254
 31
0.0
  0
LINE
  5
1859D
  8
0
 62
     0
 10
0.7607925828081537
 20
11.427720191609049
 30
0.0
 11
0.7607925828081537
 21
11.427720191609049
 31
0.0
  0
LINE
  5
1859E
  8
0
 62
     0
 10
6.9383339414581586
 20
21.184821488252769
 30
0.0
 11
6.9383339414581586
 21
21.184821488252769
 31
0.0
  0
LINE
  5
1859F
  8
0
 62
     0
 10
3.8753553652617581
 20
18.834515363135889
 30
0.0
 11
3.8753553652617581
 21
18.834515363135889
 31
0.0
  0
LINE
  5
185A0
  8
0
 62
     0
 10
0.6007894532096851
 20
16.3218525649024
 30
0.0
 11
0.6007894532096851
 21
16.3218525649024
 31
0.0
  0
LINE
  5
185A1
  8
0
 62
     0
 10
6.7783308118596901
 20
26.078953861546111
 30
0.0
 11
6.7783308118596901
 21
26.078953861546111
 31
0.0
  0
LINE
  5
185A2
  8
0
 62
     0
 10
3.7153522356632891
 20
23.728647736429249
 30
0.0
 11
3.7153522356632891
 21
23.728647736429249
 31
0.0
  0
LINE
  5
185A3
  8
0
 62
     0
 10
0.4407863236112166
 20
21.215984938195749
 30
0.0
 11
0.4407863236112166
 21
21.215984938195749
 31
0.0
  0
LINE
  5
185A4
  8
0
 62
     0
 10
6.6183276822614934
 20
30.97308623483967
 30
0.0
 11
6.6183276822614934
 21
30.97308623483967
 31
0.0
  0
LINE
  5
185A5
  8
0
 62
     0
 10
3.555349106065091
 20
28.6227801097228
 30
0.0
 11
3.555349106065091
 21
28.6227801097228
 31
0.0
  0
LINE
  5
185A6
  8
0
 62
     0
 10
0.2807831940130185
 20
26.110117311489311
 30
0.0
 11
0.2807831940130185
 21
26.110117311489311
 31
0.0
  0
LINE
  5
185A7
  8
0
 62
     0
 10
6.4583245526630249
 20
35.867218608133079
 30
0.0
 11
6.4583245526630249
 21
35.867218608133079
 31
0.0
  0
LINE
  5
185A8
  8
0
 62
     0
 10
3.395345976466623
 20
33.516912483016213
 30
0.0
 11
3.395345976466623
 21
33.516912483016213
 31
0.0
  0
LINE
  5
185A9
  8
0
 62
     0
 10
0.1207800644145504
 20
31.004249684782721
 30
0.0
 11
0.1207800644145504
 21
31.004249684782721
 31
0.0
  0
LINE
  5
185AA
  8
0
 62
     0
 10
6.298321423064646
 20
40.761350981426553
 30
0.0
 11
6.298321423064646
 21
40.761350981426553
 31
0.0
  0
LINE
  5
185AB
  8
0
 62
     0
 10
3.235342846868245
 20
38.411044856309687
 30
0.0
 11
3.235342846868245
 21
38.411044856309687
 31
0.0
  0
LINE
  5
185AC
  8
0
 62
     0
 10
3.0753397172696859
 20
43.305177229602961
 30
0.0
 11
3.0753397172696859
 21
43.305177229602961
 31
0.0
  0
ENDBLK
  5
185AE
  8
0
  0
BLOCK
  8
0
  2
*U78
 70
     1
 10
0.0
 20
0.0
 30
0.0
  3
*U78
  1

  0
SOLID
  5
185B0
  8
1DIM
 10
12.044443127533439
 20
38.649918419518762
 30
0.0
 11
13.168864624287609
 21
36.962675873603018
 31
0.0
 12
11.55800886922316
 22
38.194038877548998
 32
0.0
 13
11.55800886922316
 23
38.194038877548998
 33
0.0
  0
POLYLINE
  5
185B1
  8
1DIM
 66
     1
 10
0.0
 20
0.0
 30
0.0
  0
VERTEX
  5
185B2
  8
1DIM
 10
11.8012259983783
 20
38.42197864853388
 30
0.0
  0
VERTEX
  5
185B3
  8
1DIM
 10
-2.0871988093631888
 20
53.241256546509689
 30
0.0
  0
VERTEX
  5
185B4
  8
1DIM
 10
-31.153865476029861
 20
53.241256546509689
 30
0.0
  0
SEQEND
  5
185B5
  8
1DIM
  0
ENDBLK
  5
185B7
  8
0
  0
BLOCK
  8
0
  2
*U79
 70
     1
 10
0.0
 20
0.0
 30
0.0
  3
*U79
  1

  0
TEXT
  5
185B9
  8
1DIM
 62
   201
 10
-31.153865476029861
 20
53.941256546509692
 30
0.0
 40
3.5
  1
裏板9mm以上
  0
ENDBLK
  5
185BB
  8
0
  0
BLOCK
  8
0
  2
*U80
 70
     1
 10
0.0
 20
0.0
 30
0.0
  3
*U80
  1

  0
LINE
  5
185BD
  8
0
 10
-29.999999999837598
 20
0.0000465358979227
 30
0.0
 11
-24.700003489975941
 21
-1.4999534641020771
 31
0.0
  0
LINE
  5
185BE
  8
0
 10
-24.700003489975941
 20
-1.4999534641020771
 30
0.0
 11
-0.0000034900840618
 21
-1.499953464101849
 31
0.0
  0
LINE
  5
185BF
  8
0
 10
-29.999999999837598
 20
0.0000465358979227
 30
0.0
 11
-24.6999965095923
 21
1.5000465358980359
 31
0.0
  0
LINE
  5
185C0
  8
0
 10
-0.0000081437821464
 20
-3.4999999999998859
 30
0.0
 11
-0.0000034900840618
 21
-1.499953464101849
 31
0.0
  0
LINE
  5
185C1
  8
0
 10
-24.6999965095923
 20
1.5000465358980359
 30
0.0
 11
0.0000034903006139
 21
1.500046535897922
 31
0.0
  0
LINE
  5
185C2
  8
0
 10
-0.0000081437821464
 20
-3.4999999999998859
 30
0.0
 11
1.0999953464131731
 21
-3.5
 31
0.0
  0
LINE
  5
185C3
  8
0
 10
0.0000034903006139
 20
1.500046535897922
 30
0.0
 11
0.0000081437821322
 21
3.5
 31
0.0
  0
ARC
  5
185C4
  8
0
 10
1.0999953464131731
 20
-2.0
 30
0.0
 40
1.5
 50
270.0
 51
359.99986668447059
  0
LINE
  5
185C5
  8
0
 10
0.0000081437821322
 20
3.5
 30
0.0
 11
1.100004653592769
 21
3.5
 31
0.0
  0
LINE
  5
185C6
  8
0
 10
2.5999953464091159
 20
-2.0000034901923982
 30
0.0
 11
2.6000046535887051
 21
1.9999965098076009
 31
0.0
  0
ARC
  5
185C7
  8
0
 10
1.100004653592769
 20
2.0
 30
0.0
 40
1.5
 50
359.99986668447059
 51
90.0
  0
ENDBLK
  5
185C9
  8
0
  0
BLOCK
  8
0
  2
*U81
 70
     1
 10
0.0
 20
0.0
 30
0.0
  3
*U81
  1

  0
LINE
  5
185CB
  8
0
 10
-9.6499999999999773
 20
2.0
 30
0.0
 11
-0.0000000000000284
 21
2.0
 31
0.0
  0
LINE
  5
185CC
  8
0
 10
-9.6499999999999773
 20
2.0
 30
0.0
 11
-10.0
 21
1.649999999999977
 31
0.0
  0
LINE
  5
185CD
  8
0
 10
0.0
 20
3.4999999999999432
 30
0.0
 11
-0.0000000000000284
 21
2.0
 31
0.0
  0
LINE
  5
185CE
  8
0
 10
-10.0
 20
1.649999999999977
 30
0.0
 11
-10.0
 21
-1.6499999999998629
 31
0.0
  0
LINE
  5
185CF
  8
0
 10
0.0
 20
3.4999999999999432
 30
0.0
 11
0.5999999999999375
 21
3.4999999999999432
 31
0.0
  0
LINE
  5
185D0
  8
0
 10
-10.0
 20
-1.6499999999998629
 30
0.0
 11
-9.6499999999999773
 21
-2.0
 31
0.0
  0
ARC
  5
185D1
  8
0
 10
0.5999999999999944
 20
1.4999999999999429
 30
0.0
 40
2.0
 50
0.0
 51
90.000000000001606
  0
LINE
  5
185D2
  8
0
 10
-9.6499999999999773
 20
-2.0
 30
0.0
 11
0.0000000000000568
 21
-2.0
 31
0.0
  0
LINE
  5
185D3
  8
0
 10
2.5999999999999939
 20
1.4999999999999429
 30
0.0
 11
2.5999999999999939
 21
-1.5
 31
0.0
  0
LINE
  5
185D4
  8
0
 10
0.0000000000000568
 20
-2.0
 30
0.0
 11
0.0
 21
-3.5
 31
0.0
  0
ARC
  5
185D5
  8
0
 10
0.5999999999999944
 20
-1.5
 30
0.0
 40
2.0
 50
270.0
 51
0.0
  0
LINE
  5
185D6
  8
0
 10
0.0
 20
-3.5
 30
0.0
 11
0.5999999999999944
 21
-3.5
 31
0.0
  0
ENDBLK
  5
185D8
  8
0
  0
BLOCK
  8
0
  2
*U82
 70
     1
 10
0.0
 20
0.0
 30
0.0
  3
*U82
  1

  0
LINE
  5
185FE
  8
0
 10
-24.650013959859319
 20
-1.9997699899806769
 30
0.0
 11
-2.3000325751651469
 21
-1.999978593270384
 31
0.0
  0
LINE
  5
185FF
  8
0
 10
-0.3000279215265778
 20
-3.9999972077595198
 30
0.0
 11
-2.3000325751651469
 21
-1.999978593270384
 31
0.0
  0
LINE
  5
18600
  8
0
 10
-25.000011516714508
 20
-1.649767320475461
 30
0.0
 11
-24.650013959859319
 21
-1.9997699899806769
 31
0.0
  0
LINE
  5
18601
  8
0
 10
-0.3000279215265778
 20
-3.9999972077595198
 30
0.0
 11
-0.0000279215387877
 21
-3.9999999999133702
 31
0.0
  0
LINE
  5
18602
  8
0
 10
-24.999988481445051
 20
1.650232679454916
 30
0.0
 11
-25.000011516714508
 21
-1.649767320475461
 31
0.0
  0
LINE
  5
18603
  8
0
 10
0.0000279215387877
 20
3.9999999999134839
 30
0.0
 11
-0.0000279215387877
 21
-3.9999999999133702
 31
0.0
  0
LINE
  5
18604
  8
0
 10
-24.999988481445051
 20
1.650232679454916
 30
0.0
 11
-24.649986038320591
 21
2.0002300099321242
 31
0.0
  0
LINE
  5
18605
  8
0
 10
-0.299972078449116
 20
4.0000027920673338
 30
0.0
 11
0.0000279215387877
 21
3.9999999999134839
 31
0.0
  0
LINE
  5
18606
  8
0
 10
-24.649986038320591
 20
2.0002300099321242
 30
0.0
 11
-2.299976732000899
 21
2.0000214063830981
 31
0.0
  0
LINE
  5
18607
  8
0
 10
-0.299972078449116
 20
4.0000027920673338
 30
0.0
 11
-2.299976732000899
 21
2.0000214063830981
 31
0.0
  0
ENDBLK
  5
18609
  8
0
  0
BLOCK
  8
0
  2
*X83
 70
     1
 10
0.0
 20
0.0
 30
0.0
  3
*X83
  1

  0
LINE
  5
1860B
  8
0
 62
     0
 10
16.671990294007681
 20
-61.391691274362131
 30
0.0
 11
18.0
 21
-60.063681568369759
 31
0.0
  0
LINE
  5
1860C
  8
0
 62
     0
 10
14.42692626374037
 20
-61.391691274362131
 30
0.0
 11
17.99999999999994
 21
-57.818617538102501
 31
0.0
  0
LINE
  5
1860D
  8
0
 62
     0
 10
12.18186223347311
 20
-61.391691274362131
 30
0.0
 11
18.0
 21
-55.573553507835179
 31
0.0
  0
LINE
  5
1860E
  8
0
 62
     0
 10
9.9367982032057398
 20
-61.391691274362181
 30
0.0
 11
18.0
 21
-53.328489477567928
 31
0.0
  0
LINE
  5
1860F
  8
0
 62
     0
 10
9.0000000000001137
 20
-60.083425447300549
 30
0.0
 11
18.0
 21
-51.083425447300669
 31
0.0
  0
LINE
  5
18610
  8
0
 62
     0
 10
9.0000000000000568
 20
-57.83836141703329
 30
0.0
 11
17.99999999999994
 21
-48.838361417033411
 31
0.0
  0
LINE
  5
18611
  8
0
 62
     0
 10
9.0000000000000568
 20
-55.593297386765919
 30
0.0
 11
17.99999999999994
 21
-46.593297386766032
 31
0.0
  0
LINE
  5
18612
  8
0
 62
     0
 10
9.0000000000000568
 20
-53.348233356498667
 30
0.0
 11
17.99999999999994
 21
-44.348233356498781
 31
0.0
  0
LINE
  5
18613
  8
0
 62
     0
 10
9.0000000000000568
 20
-51.103169326231409
 30
0.0
 11
18.00000000000006
 21
-42.103169326231459
 31
0.0
  0
LINE
  5
18614
  8
0
 62
     0
 10
9.0000000000000568
 20
-48.858105295964087
 30
0.0
 11
18.0
 21
-39.858105295964208
 31
0.0
  0
LINE
  5
18615
  8
0
 62
     0
 10
9.0000000000000568
 20
-46.613041265696722
 30
0.0
 11
18.0
 21
-37.613041265696843
 31
0.0
  0
LINE
  5
18616
  8
0
 62
     0
 10
9.0000000000000568
 20
-44.367977235429457
 30
0.0
 11
18.0
 21
-35.367977235429578
 31
0.0
  0
LINE
  5
18617
  8
0
 62
     0
 10
9.0000000000000568
 20
-42.122913205162213
 30
0.0
 11
18.0
 21
-33.12291320516232
 31
0.0
  0
LINE
  5
18618
  8
0
 62
     0
 10
9.0
 20
-39.877849174894948
 30
0.0
 11
17.99999999999994
 21
-30.877849174895061
 31
0.0
  0
LINE
  5
18619
  8
0
 62
     0
 10
9.0
 20
-37.63278514462769
 30
0.0
 11
18.0
 21
-28.63278514462769
 31
0.0
  0
LINE
  5
1861A
  8
0
 62
     0
 10
9.0
 20
-35.387721114360431
 30
0.0
 11
18.0
 21
-26.387721114360431
 31
0.0
  0
LINE
  5
1861B
  8
0
 62
     0
 10
8.9999999999999432
 20
-33.14265708409318
 30
0.0
 11
17.99999999999994
 21
-24.14265708409317
 31
0.0
  0
LINE
  5
1861C
  8
0
 62
     0
 10
8.9999999999999432
 20
-30.897593053825918
 30
0.0
 11
17.99999999999994
 21
-21.897593053825918
 31
0.0
  0
LINE
  5
1861D
  8
0
 62
     0
 10
8.9999999999999432
 20
-28.65252902355866
 30
0.0
 11
17.99999999999994
 21
-19.65252902355866
 31
0.0
  0
LINE
  5
1861E
  8
0
 62
     0
 10
8.9999999999999432
 20
-26.407464993291399
 30
0.0
 11
18.0
 21
-17.407464993291342
 31
0.0
  0
LINE
  5
1861F
  8
0
 62
     0
 10
9.0
 20
-24.16240096302403
 30
0.0
 11
17.99999999999994
 21
-15.16240096302403
 31
0.0
  0
LINE
  5
18620
  8
0
 62
     0
 10
8.9999999999999432
 20
-21.917336932756712
 30
0.0
 11
17.99999999999994
 21
-12.91733693275671
 31
0.0
  0
LINE
  5
18621
  8
0
 62
     0
 10
8.9999999999999432
 20
-19.67227290248945
 30
0.0
 11
17.99999999999994
 21
-10.67227290248945
 31
0.0
  0
LINE
  5
18622
  8
0
 62
     0
 10
8.9999999999999432
 20
-17.427208872222192
 30
0.0
 11
15.821190608570189
 21
-10.606018263652
 31
0.0
  0
LINE
  5
18623
  8
0
 62
     0
 10
16.78433035397688
 20
-7.3978144879779393
 30
0.0
 11
18.0
 21
-6.1821448419548801
 31
0.0
  0
LINE
  5
18624
  8
0
 62
     0
 10
8.9999999999998863
 20
-15.182144841954941
 30
0.0
 11
13.682098306056441
 21
-10.500046535898431
 31
0.0
  0
LINE
  5
18625
  8
0
 62
     0
 10
11.14073620626419
 20
-10.796344605423309
 30
0.0
 11
11.437034275789189
 21
-10.50004653589837
 31
0.0
  0
LINE
  5
18626
  8
0
 62
     0
 10
14.437034275789189
 20
-7.5000465358983197
 30
0.0
 11
18.00000000000006
 21
-3.9370808116874509
 31
0.0
  0
LINE
  5
18627
  8
0
 62
     0
 10
8.9999999999998863
 20
-12.93708081168762
 30
0.0
 11
11.072835431113271
 21
-10.86424538057423
 31
0.0
  0
LINE
  5
18628
  8
0
 62
     0
 10
12.191970245521761
 20
-7.5000465358984911
 30
0.0
 11
18.00000000000006
 21
-1.692016781420193
 31
0.0
  0
LINE
  5
18629
  8
0
 62
     0
 10
9.0
 20
-10.69201678142031
 30
0.0
 11
9.1919702455219294
 21
-10.50004653589837
 31
0.0
  0
LINE
  5
1862A
  8
0
 62
     0
 10
10.32448800965261
 20
-7.1224647415003801
 30
0.0
 11
18.00000000000006
 21
0.5530472488470651
 31
0.0
  0
LINE
  5
1862B
  8
0
 62
     0
 10
9.9469062152545007
 20
-7.5000465358984911
 30
0.0
 11
10.26327872882478
 21
-7.1836740223282041
 31
0.0
  0
LINE
  5
1862C
  8
0
 62
     0
 10
8.9999999999999432
 20
-6.2018887208857896
 30
0.0
 11
18.0
 21
2.7981112791143228
 31
0.0
  0
LINE
  5
1862D
  8
0
 62
     0
 10
8.9999999999999432
 20
-3.956824690618475
 30
0.0
 11
18.00000000000006
 21
5.0431753093816951
 31
0.0
  0
LINE
  5
1862E
  8
0
 62
     0
 10
8.9999999999999432
 20
-1.711760660351217
 30
0.0
 11
18.00000000000006
 21
7.2882393396489533
 31
0.0
  0
LINE
  5
1862F
  8
0
 62
     0
 10
8.9999999999999432
 20
0.533303369916041
 30
0.0
 11
15.827771837741579
 21
7.3610752076577342
 31
0.0
  0
LINE
  5
18630
  8
0
 62
     0
 10
16.79123737884305
 20
10.56960477902652
 30
0.0
 11
18.0
 21
11.778367400183519
 31
0.0
  0
LINE
  5
18631
  8
0
 62
     0
 10
8.9999999999999432
 20
2.7783674001834688
 30
0.0
 11
13.721586063918149
 21
7.4999534641016794
 31
0.0
  0
LINE
  5
18632
  8
0
 62
     0
 10
11.13086412323616
 20
7.154295553686949
 30
0.0
 11
11.47652203365084
 21
7.4999534641015648
 31
0.0
  0
LINE
  5
18633
  8
0
 62
     0
 10
14.47652203365084
 20
10.499953464101621
 30
0.0
 11
18.0
 21
14.023431430450779
 31
0.0
  0
LINE
  5
18634
  8
0
 62
     0
 10
8.9999999999999432
 20
5.023431430450727
 30
0.0
 11
11.079416660284719
 21
7.102848090735506
 31
0.0
  0
LINE
  5
18635
  8
0
 62
     0
 10
12.231458003383411
 20
10.49995346410145
 30
0.0
 11
18.00000000000006
 21
16.268495460718039
 31
0.0
  0
LINE
  5
18636
  8
0
 62
     0
 10
8.9999999999999432
 20
7.2684954607179861
 30
0.0
 11
9.2314580033835796
 21
7.4999534641015648
 31
0.0
  0
LINE
  5
18637
  8
0
 62
     0
 10
10.33106923882394
 20
10.844628729809241
 30
0.0
 11
18.00000000000006
 21
18.513559490985411
 31
0.0
  0
LINE
  5
18638
  8
0
 62
     0
 10
9.9863939731161508
 20
10.49995346410145
 30
0.0
 11
10.25340664579676
 21
10.766966136782059
 31
0.0
  0
LINE
  5
18639
  8
0
 62
     0
 10
9.0000000000000568
 20
11.75862352125273
 30
0.0
 11
18.0
 21
20.75862352125273
 31
0.0
  0
LINE
  5
1863A
  8
0
 62
     0
 10
9.0000000000000568
 20
14.003687551519929
 30
0.0
 11
18.0
 21
23.003687551519992
 31
0.0
  0
LINE
  5
1863B
  8
0
 62
     0
 10
9.0000000000000568
 20
16.248751581787189
 30
0.0
 11
18.0
 21
25.24875158178725
 31
0.0
  0
LINE
  5
1863C
  8
0
 62
     0
 10
9.0000000000000568
 20
18.493815612054561
 30
0.0
 11
17.99999999999994
 21
27.493815612054512
 31
0.0
  0
LINE
  5
1863D
  8
0
 62
     0
 10
9.0000000000000568
 20
20.73887964232188
 30
0.0
 11
18.00000000000006
 21
29.73887964232182
 31
0.0
  0
LINE
  5
1863E
  8
0
 62
     0
 10
9.0000000000000568
 20
22.983943672589131
 30
0.0
 11
18.00000000000006
 21
31.983943672589081
 31
0.0
  0
LINE
  5
1863F
  8
0
 62
     0
 10
9.0000000000000568
 20
25.22900770285634
 30
0.0
 11
18.00000000000006
 21
34.229007702856343
 31
0.0
  0
LINE
  5
18640
  8
0
 62
     0
 10
9.0
 20
27.474071733123591
 30
0.0
 11
18.0
 21
36.474071733123587
 31
0.0
  0
LINE
  5
18641
  8
0
 62
     0
 10
9.0000000000001137
 20
29.71913576339103
 30
0.0
 11
18.0
 21
38.719135763390909
 31
0.0
  0
LINE
  5
18642
  8
0
 62
     0
 10
9.0000000000001137
 20
31.964199793658281
 30
0.0
 11
18.0
 21
40.96419979365816
 31
0.0
  0
LINE
  5
18643
  8
0
 62
     0
 10
9.0000000000001137
 20
34.209263823925539
 30
0.0
 11
18.0
 21
43.209263823925419
 31
0.0
  0
LINE
  5
18644
  8
0
 62
     0
 10
9.0000000000000568
 20
36.454327854192861
 30
0.0
 11
17.245208523150549
 21
44.699536377343343
 31
0.0
  0
LINE
  5
18645
  8
0
 62
     0
 10
9.0000000000000568
 20
38.699391884460113
 30
0.0
 11
15.00014449288329
 21
44.699536377343343
 31
0.0
  0
LINE
  5
18646
  8
0
 62
     0
 10
9.0000000000000568
 20
40.944455914727477
 30
0.0
 11
12.75508046261592
 21
44.699536377343229
 31
0.0
  0
LINE
  5
18647
  8
0
 62
     0
 10
9.0000000000001137
 20
43.189519944994743
 30
0.0
 11
10.510016432348721
 21
44.699536377343229
 31
0.0
  0
ENDBLK
  5
18649
  8
0
  0
BLOCK
  8
0
  2
*X84
 70
     1
 10
0.0
 20
0.0
 30
0.0
  3
*X84
  1

  0
LINE
  5
1864B
  8
0
 62
     0
 10
4.719668856187476
 20
-60.905108537765202
 30
0.0
 11
4.719668856187476
 21
-60.905108537765202
 31
0.0
  0
LINE
  5
1864C
  8
0
 62
     0
 10
2.5099012223001722
 20
-58.880229567499541
 30
0.0
 11
2.5099012223001722
 21
-58.880229567499541
 31
0.0
  0
LINE
  5
1864D
  8
0
 62
     0
 10
2.0417301134257442
 20
-58.4512297856636
 30
0.0
 11
2.0417301134257442
 21
-58.4512297856636
 31
0.0
  0
LINE
  5
1864E
  8
0
 62
     0
 10
7.1491706502268144
 20
-53.905337731177347
 30
0.0
 11
7.1491706502268144
 21
-53.905337731177347
 31
0.0
  0
LINE
  5
1864F
  8
0
 62
     0
 10
4.9394030163395106
 20
-51.880458760911701
 30
0.0
 11
4.9394030163395106
 21
-51.880458760911701
 31
0.0
  0
LINE
  5
18650
  8
0
 62
     0
 10
4.471231907465083
 20
-51.451458979075753
 30
0.0
 11
4.471231907465083
 21
-51.451458979075753
 31
0.0
  0
LINE
  5
18651
  8
0
 62
     0
 10
1.943107919543168
 20
-49.134860157161647
 30
0.0
 11
1.943107919543168
 21
-49.134860157161647
 31
0.0
  0
LINE
  5
18652
  8
0
 62
     0
 10
7.3689048103787469
 20
-44.880687954323847
 30
0.0
 11
7.3689048103787469
 21
-44.880687954323847
 31
0.0
  0
LINE
  5
18653
  8
0
 62
     0
 10
6.9007337015043193
 20
-44.451688172487913
 30
0.0
 11
6.9007337015043193
 21
-44.451688172487913
 31
0.0
  0
LINE
  5
18654
  8
0
 62
     0
 10
4.3726097135824036
 20
-42.135089350573821
 30
0.0
 11
4.3726097135824036
 21
-42.135089350573821
 31
0.0
  0
LINE
  5
18655
  8
0
 62
     0
 10
2.1628420796950998
 20
-40.11021038030816
 30
0.0
 11
2.1628420796950998
 21
-40.11021038030816
 31
0.0
  0
LINE
  5
18656
  8
0
 62
     0
 10
1.694670970820672
 20
-39.681210598472219
 30
0.0
 11
1.694670970820672
 21
-39.681210598472219
 31
0.0
  0
LINE
  5
18657
  8
0
 62
     0
 10
6.8021115076217677
 20
-35.135318543985953
 30
0.0
 11
6.8021115076217677
 21
-35.135318543985953
 31
0.0
  0
LINE
  5
18658
  8
0
 62
     0
 10
4.592343873734464
 20
-33.110439573720278
 30
0.0
 11
4.592343873734464
 21
-33.110439573720278
 31
0.0
  0
LINE
  5
18659
  8
0
 62
     0
 10
4.1241727648600364
 20
-32.681439791884351
 30
0.0
 11
4.1241727648600364
 21
-32.681439791884351
 31
0.0
  0
LINE
  5
1865A
  8
0
 62
     0
 10
1.5960487769381211
 20
-30.364840969970238
 30
0.0
 11
1.5960487769381211
 21
-30.364840969970238
 31
0.0
  0
LINE
  5
1865B
  8
0
 62
     0
 10
7.0218456677738237
 20
-26.110668767132399
 30
0.0
 11
7.0218456677738237
 21
-26.110668767132399
 31
0.0
  0
LINE
  5
1865C
  8
0
 62
     0
 10
6.5536745588993961
 20
-25.681668985296461
 30
0.0
 11
6.5536745588993961
 21
-25.681668985296461
 31
0.0
  0
LINE
  5
1865D
  8
0
 62
     0
 10
4.0255505709774813
 20
-23.365070163382359
 30
0.0
 11
4.0255505709774813
 21
-23.365070163382359
 31
0.0
  0
LINE
  5
1865E
  8
0
 62
     0
 10
1.8157829370901779
 20
-21.340191193116699
 30
0.0
 11
1.8157829370901779
 21
-21.340191193116699
 31
0.0
  0
LINE
  5
1865F
  8
0
 62
     0
 10
1.347611828215749
 20
-20.911191411280761
 30
0.0
 11
1.347611828215749
 21
-20.911191411280761
 31
0.0
  0
LINE
  5
18660
  8
0
 62
     0
 10
8.9831763529386919
 20
-18.681898178708529
 30
0.0
 11
8.9831763529386919
 21
-18.681898178708529
 31
0.0
  0
LINE
  5
18661
  8
0
 62
     0
 10
6.4550523650167762
 20
-16.365299356794441
 30
0.0
 11
6.4550523650167762
 21
-16.365299356794441
 31
0.0
  0
LINE
  5
18662
  8
0
 62
     0
 10
4.2452847311294732
 20
-14.34042038652878
 30
0.0
 11
4.2452847311294732
 21
-14.34042038652878
 31
0.0
  0
LINE
  5
18663
  8
0
 62
     0
 10
3.7771136222550439
 20
-13.911420604692839
 30
0.0
 11
3.7771136222550439
 21
-13.911420604692839
 31
0.0
  0
LINE
  5
18664
  8
0
 62
     0
 10
1.248989634333129
 20
-11.59482178277873
 30
0.0
 11
1.248989634333129
 21
-11.59482178277873
 31
0.0
  0
LINE
  5
18665
  8
0
 62
     0
 10
6.6747865251688028
 20
-7.340649579940961
 30
0.0
 11
6.6747865251688028
 21
-7.340649579940961
 31
0.0
  0
LINE
  5
18666
  8
0
 62
     0
 10
6.2066154162943752
 20
-6.9116497981050173
 30
0.0
 11
6.2066154162943752
 21
-6.9116497981050173
 31
0.0
  0
LINE
  5
18667
  8
0
 62
     0
 10
3.6784914283724599
 20
-4.5950509761909171
 30
0.0
 11
3.6784914283724599
 21
-4.5950509761909171
 31
0.0
  0
LINE
  5
18668
  8
0
 62
     0
 10
1.468723794485157
 20
-2.5701720059252589
 30
0.0
 11
1.468723794485157
 21
-2.5701720059252589
 31
0.0
  0
LINE
  5
18669
  8
0
 62
     0
 10
1.0005526856107281
 20
-2.1411722240893152
 30
0.0
 11
1.0005526856107281
 21
-2.1411722240893152
 31
0.0
  0
LINE
  5
1866A
  8
0
 62
     0
 10
8.6361172103337154
 20
0.0881210084828284
 30
0.0
 11
8.6361172103337154
 21
0.0881210084828284
 31
0.0
  0
LINE
  5
1866B
  8
0
 62
     0
 10
6.1079932224118014
 20
2.4047198303969282
 30
0.0
 11
6.1079932224118014
 21
2.4047198303969282
 31
0.0
  0
LINE
  5
1866C
  8
0
 62
     0
 10
3.8982255885244972
 20
4.4295988006625846
 30
0.0
 11
3.8982255885244972
 21
4.4295988006625846
 31
0.0
  0
LINE
  5
1866D
  8
0
 62
     0
 10
3.4300544796500692
 20
4.85859858249853
 30
0.0
 11
3.4300544796500692
 21
4.85859858249853
 31
0.0
  0
LINE
  5
1866E
  8
0
 62
     0
 10
0.9019304917281541
 20
7.1751974044126294
 30
0.0
 11
0.9019304917281541
 21
7.1751974044126294
 31
0.0
  0
LINE
  5
1866F
  8
0
 62
     0
 10
6.3277273825637756
 20
11.42936960725048
 30
0.0
 11
6.3277273825637756
 21
11.42936960725048
 31
0.0
  0
LINE
  5
18670
  8
0
 62
     0
 10
5.8595562736893481
 20
11.85836938908642
 30
0.0
 11
5.8595562736893481
 21
11.85836938908642
 31
0.0
  0
LINE
  5
18671
  8
0
 62
     0
 10
3.3314322857674332
 20
14.17496821100052
 30
0.0
 11
3.3314322857674332
 21
14.17496821100052
 31
0.0
  0
LINE
  5
18672
  8
0
 62
     0
 10
1.121664651880129
 20
16.199847181266179
 30
0.0
 11
1.121664651880129
 21
16.199847181266179
 31
0.0
  0
LINE
  5
18673
  8
0
 62
     0
 10
0.6534935430057013
 20
16.628846963102131
 30
0.0
 11
0.6534935430057013
 21
16.628846963102131
 31
0.0
  0
LINE
  5
18674
  8
0
 62
     0
 10
8.757229176603154
 20
18.429140413838351
 30
0.0
 11
8.757229176603154
 21
18.429140413838351
 31
0.0
  0
LINE
  5
18675
  8
0
 62
     0
 10
8.2890580677287247
 20
18.858140195674299
 30
0.0
 11
8.2890580677287247
 21
18.858140195674299
 31
0.0
  0
LINE
  5
18676
  8
0
 62
     0
 10
5.7609340798068081
 20
21.174739017588401
 30
0.0
 11
5.7609340798068081
 21
21.174739017588401
 31
0.0
  0
LINE
  5
18677
  8
0
 62
     0
 10
3.5511664459195051
 20
23.199617987854051
 30
0.0
 11
3.5511664459195051
 21
23.199617987854051
 31
0.0
  0
LINE
  5
18678
  8
0
 62
     0
 10
3.0829953370450758
 20
23.628617769689999
 30
0.0
 11
3.0829953370450758
 21
23.628617769689999
 31
0.0
  0
LINE
  5
18679
  8
0
 62
     0
 10
0.5548713491231618
 20
25.945216591604101
 30
0.0
 11
0.5548713491231618
 21
25.945216591604101
 31
0.0
  0
LINE
  5
1867A
  8
0
 62
     0
 10
8.1904358738460896
 20
28.17450982417618
 30
0.0
 11
8.1904358738460896
 21
28.17450982417618
 31
0.0
  0
LINE
  5
1867B
  8
0
 62
     0
 10
5.9806682399587858
 20
30.199388794441841
 30
0.0
 11
5.9806682399587858
 21
30.199388794441841
 31
0.0
  0
LINE
  5
1867C
  8
0
 62
     0
 10
5.5124971310843582
 20
30.628388576277789
 30
0.0
 11
5.5124971310843582
 21
30.628388576277789
 31
0.0
  0
LINE
  5
1867D
  8
0
 62
     0
 10
2.984373143162443
 20
32.944987398191877
 30
0.0
 11
2.984373143162443
 21
32.944987398191877
 31
0.0
  0
LINE
  5
1867E
  8
0
 62
     0
 10
0.7746055092751402
 20
34.969866368457538
 30
0.0
 11
0.7746055092751402
 21
34.969866368457538
 31
0.0
  0
LINE
  5
1867F
  8
0
 62
     0
 10
0.3064344004007115
 20
35.398866150293493
 30
0.0
 11
0.3064344004007115
 21
35.398866150293493
 31
0.0
  0
LINE
  5
18680
  8
0
 62
     0
 10
8.41017003399811
 20
37.199159601029763
 30
0.0
 11
8.41017003399811
 21
37.199159601029763
 31
0.0
  0
LINE
  5
18681
  8
0
 62
     0
 10
7.9419989251236807
 20
37.628159382865697
 30
0.0
 11
7.9419989251236807
 21
37.628159382865697
 31
0.0
  0
LINE
  5
18682
  8
0
 62
     0
 10
5.4138749372017658
 20
39.944758204779802
 30
0.0
 11
5.4138749372017658
 21
39.944758204779802
 31
0.0
  0
LINE
  5
18683
  8
0
 62
     0
 10
3.204107303314462
 20
41.969637175045463
 30
0.0
 11
3.204107303314462
 21
41.969637175045463
 31
0.0
  0
LINE
  5
18684
  8
0
 62
     0
 10
2.735936194440034
 20
42.398636956881397
 30
0.0
 11
2.735936194440034
 21
42.398636956881397
 31
0.0
  0
LINE
  5
18685
  8
0
 62
     0
 10
3.8802392881250851
 20
-61.296643484138428
 30
0.0
 11
3.8802392881250851
 21
-61.296643484138428
 31
0.0
  0
LINE
  5
18686
  8
0
 62
     0
 10
6.7559594504826217
 20
-58.075130275130718
 30
0.0
 11
6.7559594504826217
 21
-58.075130275130718
 31
0.0
  0
LINE
  5
18687
  8
0
 62
     0
 10
2.8999737602261102
 20
-55.618596465769052
 30
0.0
 11
2.8999737602261102
 21
-55.618596465769052
 31
0.0
  0
LINE
  5
18688
  8
0
 62
     0
 10
1.8288666240437459
 20
-54.936225963168582
 30
0.0
 11
1.8288666240437459
 21
-54.936225963168582
 31
0.0
  0
LINE
  5
18689
  8
0
 62
     0
 10
4.7045867864011877
 20
-51.714712754160921
 30
0.0
 11
4.7045867864011877
 21
-51.714712754160921
 31
0.0
  0
LINE
  5
1868A
  8
0
 62
     0
 10
0.8486010961446758
 20
-49.258178944799241
 30
0.0
 11
0.8486010961446758
 21
-49.258178944799241
 31
0.0
  0
LINE
  5
1868B
  8
0
 62
     0
 10
8.7585247985592201
 20
-49.243807098013797
 30
0.0
 11
8.7585247985592201
 21
-49.243807098013797
 31
0.0
  0
LINE
  5
1868C
  8
0
 62
     0
 10
7.6874176623768546
 20
-48.561436595413333
 30
0.0
 11
7.6874176623768546
 21
-48.561436595413333
 31
0.0
  0
LINE
  5
1868D
  8
0
 62
     0
 10
2.6532141223197412
 20
-45.354295233191131
 30
0.0
 11
2.6532141223197412
 21
-45.354295233191131
 31
0.0
  0
LINE
  5
1868E
  8
0
 62
     0
 10
6.7071521344778677
 20
-42.883389577044078
 30
0.0
 11
6.7071521344778677
 21
-42.883389577044078
 31
0.0
  0
LINE
  5
1868F
  8
0
 62
     0
 10
5.6360449982955041
 20
-42.201019074443607
 30
0.0
 11
5.6360449982955041
 21
-42.201019074443607
 31
0.0
  0
LINE
  5
18690
  8
0
 62
     0
 10
0.6018414582383905
 20
-38.993877712221433
 30
0.0
 11
0.6018414582383905
 21
-38.993877712221433
 31
0.0
  0
LINE
  5
18691
  8
0
 62
     0
 10
8.5117651606529581
 20
-38.97950586543589
 30
0.0
 11
8.5117651606529581
 21
-38.97950586543589
 31
0.0
  0
LINE
  5
18692
  8
0
 62
     0
 10
4.6557794703964452
 20
-36.522972056074209
 30
0.0
 11
4.6557794703964452
 21
-36.522972056074209
 31
0.0
  0
LINE
  5
18693
  8
0
 62
     0
 10
3.5846723342140798
 20
-35.840601553473739
 30
0.0
 11
3.5846723342140798
 21
-35.840601553473739
 31
0.0
  0
LINE
  5
18694
  8
0
 62
     0
 10
6.4603924965714628
 20
-32.619088344466078
 30
0.0
 11
6.4603924965714628
 21
-32.619088344466078
 31
0.0
  0
LINE
  5
18695
  8
0
 62
     0
 10
2.6044068063149499
 20
-30.162554535104402
 30
0.0
 11
2.6044068063149499
 21
-30.162554535104402
 31
0.0
  0
LINE
  5
18696
  8
0
 62
     0
 10
1.5332996701325861
 20
-29.480184032503931
 30
0.0
 11
1.5332996701325861
 21
-29.480184032503931
 31
0.0
  0
LINE
  5
18697
  8
0
 62
     0
 10
4.4090198324901886
 20
-26.258670823496349
 30
0.0
 11
4.4090198324901886
 21
-26.258670823496349
 31
0.0
  0
LINE
  5
18698
  8
0
 62
     0
 10
0.5530341422336775
 20
-23.802137014134669
 30
0.0
 11
0.5530341422336775
 21
-23.802137014134669
 31
0.0
  0
LINE
  5
18699
  8
0
 62
     0
 10
8.4629578446482672
 20
-23.78776516734921
 30
0.0
 11
8.4629578446482672
 21
-23.78776516734921
 31
0.0
  0
LINE
  5
1869A
  8
0
 62
     0
 10
7.3918507084659044
 20
-23.105394664748751
 30
0.0
 11
7.3918507084659044
 21
-23.105394664748751
 31
0.0
  0
LINE
  5
1869B
  8
0
 62
     0
 10
2.3576471684087901
 20
-19.898253302526548
 30
0.0
 11
2.3576471684087901
 21
-19.898253302526548
 31
0.0
  0
LINE
  5
1869C
  8
0
 62
     0
 10
6.4115851805667248
 20
-17.427347646379371
 30
0.0
 11
6.4115851805667248
 21
-17.427347646379371
 31
0.0
  0
LINE
  5
1869D
  8
0
 62
     0
 10
5.3404780443843611
 20
-16.7449771437789
 30
0.0
 11
5.3404780443843611
 21
-16.7449771437789
 31
0.0
  0
LINE
  5
1869E
  8
0
 62
     0
 10
0.3062745043272478
 20
-13.53783578155671
 30
0.0
 11
0.3062745043272478
 21
-13.53783578155671
 31
0.0
  0
LINE
  5
1869F
  8
0
 62
     0
 10
8.2161982067418311
 20
-13.52346393477128
 30
0.0
 11
8.2161982067418311
 21
-13.52346393477128
 31
0.0
  0
LINE
  5
186A0
  8
0
 62
     0
 10
4.3602125164853183
 20
-11.0669301254096
 30
0.0
 11
4.3602125164853183
 21
-11.0669301254096
 31
0.0
  0
LINE
  5
186A1
  8
0
 62
     0
 10
6.1648255426604877
 20
-7.1630464138015846
 30
0.0
 11
6.1648255426604877
 21
-7.1630464138015846
 31
0.0
  0
LINE
  5
186A2
  8
0
 62
     0
 10
2.3088398524039762
 20
-4.7065126044399053
 30
0.0
 11
2.3088398524039762
 21
-4.7065126044399053
 31
0.0
  0
LINE
  5
186A3
  8
0
 62
     0
 10
1.237732716221611
 20
-4.0241421018394377
 30
0.0
 11
1.237732716221611
 21
-4.0241421018394377
 31
0.0
  0
LINE
  5
186A4
  8
0
 62
     0
 10
4.1134528785791007
 20
-0.802628892831747
 30
0.0
 11
4.1134528785791007
 21
-0.802628892831747
 31
0.0
  0
LINE
  5
186A5
  8
0
 62
     0
 10
0.2574671883225893
 20
1.6539049165299331
 30
0.0
 11
0.2574671883225893
 21
1.6539049165299331
 31
0.0
  0
LINE
  5
186A6
  8
0
 62
     0
 10
8.1673908907370851
 20
1.6682767633154569
 30
0.0
 11
8.1673908907370851
 21
1.6682767633154569
 31
0.0
  0
LINE
  5
186A7
  8
0
 62
     0
 10
7.0962837545547197
 20
2.350647265915923
 30
0.0
 11
7.0962837545547197
 21
2.350647265915923
 31
0.0
  0
LINE
  5
186A8
  8
0
 62
     0
 10
2.0620802144976071
 20
5.557788628138117
 30
0.0
 11
2.0620802144976071
 21
5.557788628138117
 31
0.0
  0
LINE
  5
186A9
  8
0
 62
     0
 10
0.0107075504163213
 20
11.91820614910781
 30
0.0
 11
0.0107075504163213
 21
11.91820614910781
 31
0.0
  0
LINE
  5
186AA
  8
0
 62
     0
 10
7.9206312528308631
 20
11.932577995893361
 30
0.0
 11
7.9206312528308631
 21
11.932577995893361
 31
0.0
  0
LINE
  5
186AB
  8
0
 62
     0
 10
4.0646455625743521
 20
14.389111805255039
 30
0.0
 11
4.0646455625743521
 21
14.389111805255039
 31
0.0
  0
LINE
  5
186AC
  8
0
 62
     0
 10
2.9935384263919871
 20
15.07148230785551
 30
0.0
 11
2.9935384263919871
 21
15.07148230785551
 31
0.0
  0
LINE
  5
186AD
  8
0
 62
     0
 10
5.8692585887494468
 20
18.292995516863161
 30
0.0
 11
5.8692585887494468
 21
18.292995516863161
 31
0.0
  0
LINE
  5
186AE
  8
0
 62
     0
 10
2.0132728984929349
 20
20.749529326224842
 30
0.0
 11
2.0132728984929349
 21
20.749529326224842
 31
0.0
  0
LINE
  5
186AF
  8
0
 62
     0
 10
0.9421657623105714
 20
21.431899828825308
 30
0.0
 11
0.9421657623105714
 21
21.431899828825308
 31
0.0
  0
LINE
  5
186B0
  8
0
 62
     0
 10
8.8520894647250579
 20
21.44627167561082
 30
0.0
 11
8.8520894647250579
 21
21.44627167561082
 31
0.0
  0
LINE
  5
186B1
  8
0
 62
     0
 10
3.817885924667944
 20
24.653413037833008
 30
0.0
 11
3.817885924667944
 21
24.653413037833008
 31
0.0
  0
LINE
  5
186B2
  8
0
 62
     0
 10
7.8718239368261278
 20
27.124318693980069
 30
0.0
 11
7.8718239368261278
 21
27.124318693980069
 31
0.0
  0
LINE
  5
186B3
  8
0
 62
     0
 10
6.8007168006437642
 20
27.806689196580539
 30
0.0
 11
6.8007168006437642
 21
27.806689196580539
 31
0.0
  0
LINE
  5
186B4
  8
0
 62
     0
 10
1.76651326058665
 20
31.013830558802731
 30
0.0
 11
1.76651326058665
 21
31.013830558802731
 31
0.0
  0
LINE
  5
186B5
  8
0
 62
     0
 10
5.8204512727446627
 20
33.484736214949912
 30
0.0
 11
5.8204512727446627
 21
33.484736214949912
 31
0.0
  0
LINE
  5
186B6
  8
0
 62
     0
 10
4.749344136562299
 20
34.167106717550368
 30
0.0
 11
4.749344136562299
 21
34.167106717550368
 31
0.0
  0
LINE
  5
186B7
  8
0
 62
     0
 10
7.6250642989196979
 20
37.388619926558029
 30
0.0
 11
7.6250642989196979
 21
37.388619926558029
 31
0.0
  0
LINE
  5
186B8
  8
0
 62
     0
 10
3.769078608663186
 20
39.845153735919709
 30
0.0
 11
3.769078608663186
 21
39.845153735919709
 31
0.0
  0
LINE
  5
186B9
  8
0
 62
     0
 10
2.697971472480821
 20
40.527524238520179
 30
0.0
 11
2.697971472480821
 21
40.527524238520179
 31
0.0
  0
LINE
  5
186BA
  8
0
 62
     0
 10
5.5736916348382826
 20
43.749037447527833
 30
0.0
 11
5.5736916348382826
 21
43.749037447527833
 31
0.0
  0
LINE
  5
186BB
  8
0
 62
     0
 10
8.5586983347236512
 20
-60.733363906378372
 30
0.0
 11
8.5586983347236512
 21
-60.733363906378372
 31
0.0
  0
LINE
  5
186BC
  8
0
 62
     0
 10
6.4937169774542811
 20
-61.00522385953429
 30
0.0
 11
6.4937169774542811
 21
-61.00522385953429
 31
0.0
  0
LINE
  5
186BD
  8
0
 62
     0
 10
5.1716252548123052
 20
-61.179280536859729
 30
0.0
 11
5.1716252548123052
 21
-61.179280536859729
 31
0.0
  0
LINE
  5
186BE
  8
0
 62
     0
 10
6.2168282575837468
 20
-54.465234574863508
 30
0.0
 11
6.2168282575837468
 21
-54.465234574863508
 31
0.0
  0
LINE
  5
186BF
  8
0
 62
     0
 10
4.151846900314375
 20
-54.737094528019441
 30
0.0
 11
4.151846900314375
 21
-54.737094528019441
 31
0.0
  0
LINE
  5
186C0
  8
0
 62
     0
 10
2.829755177672399
 20
-54.911151205344872
 30
0.0
 11
2.829755177672399
 21
-54.911151205344872
 31
0.0
  0
LINE
  5
186C1
  8
0
 62
     0
 10
8.6470797316944097
 20
-47.568843522335911
 30
0.0
 11
8.6470797316944097
 21
-47.568843522335911
 31
0.0
  0
LINE
  5
186C2
  8
0
 62
     0
 10
7.324988009052432
 20
-47.742900199661349
 30
0.0
 11
7.324988009052432
 21
-47.742900199661349
 31
0.0
  0
LINE
  5
186C3
  8
0
 62
     0
 10
3.8749581804438469
 20
-48.197105243348688
 30
0.0
 11
3.8749581804438469
 21
-48.197105243348688
 31
0.0
  0
LINE
  5
186C4
  8
0
 62
     0
 10
1.8099768231744751
 20
-48.468965196504612
 30
0.0
 11
1.8099768231744751
 21
-48.468965196504612
 31
0.0
  0
LINE
  5
186C5
  8
0
 62
     0
 10
0.4878851005324989
 20
-48.643021873830051
 30
0.0
 11
0.4878851005324989
 21
-48.643021873830051
 31
0.0
  0
LINE
  5
186C6
  8
0
 62
     0
 10
8.3701910118238132
 20
-41.028854237665151
 30
0.0
 11
8.3701910118238132
 21
-41.028854237665151
 31
0.0
  0
LINE
  5
186C7
  8
0
 62
     0
 10
6.3052096545544423
 20
-41.300714190821083
 30
0.0
 11
6.3052096545544423
 21
-41.300714190821083
 31
0.0
  0
LINE
  5
186C8
  8
0
 62
     0
 10
4.9831179319124663
 20
-41.474770868146521
 30
0.0
 11
4.9831179319124663
 21
-41.474770868146521
 31
0.0
  0
LINE
  5
186C9
  8
0
 62
     0
 10
1.5330881033038799
 20
-41.928975911833859
 30
0.0
 11
1.5330881033038799
 21
-41.928975911833859
 31
0.0
  0
LINE
  5
186CA
  8
0
 62
     0
 10
6.0283209346837987
 20
-34.76072490615033
 30
0.0
 11
6.0283209346837987
 21
-34.76072490615033
 31
0.0
  0
LINE
  5
186CB
  8
0
 62
     0
 10
3.9633395774144269
 20
-35.032584859306262
 30
0.0
 11
3.9633395774144269
 21
-35.032584859306262
 31
0.0
  0
LINE
  5
186CC
  8
0
 62
     0
 10
2.6412478547724509
 20
-35.206641536631693
 30
0.0
 11
2.6412478547724509
 21
-35.206641536631693
 31
0.0
  0
LINE
  5
186CD
  8
0
 62
     0
 10
8.4585724087945735
 20
-27.8643338536227
 30
0.0
 11
8.4585724087945735
 21
-27.8643338536227
 31
0.0
  0
LINE
  5
186CE
  8
0
 62
     0
 10
7.1364806861525958
 20
-28.038390530948138
 30
0.0
 11
7.1364806861525958
 21
-28.038390530948138
 31
0.0
  0
LINE
  5
186CF
  8
0
 62
     0
 10
3.6864508575440111
 20
-28.49259557463547
 30
0.0
 11
3.6864508575440111
 21
-28.49259557463547
 31
0.0
  0
LINE
  5
186D0
  8
0
 62
     0
 10
1.621469500274638
 20
-28.764455527791402
 30
0.0
 11
1.621469500274638
 21
-28.764455527791402
 31
0.0
  0
LINE
  5
186D1
  8
0
 62
     0
 10
0.2993777776326627
 20
-28.93851220511683
 30
0.0
 11
0.2993777776326627
 21
-28.93851220511683
 31
0.0
  0
LINE
  5
186D2
  8
0
 62
     0
 10
8.1816836889240907
 20
-21.324344568951911
 30
0.0
 11
8.1816836889240907
 21
-21.324344568951911
 31
0.0
  0
LINE
  5
186D3
  8
0
 62
     0
 10
6.116702331654718
 20
-21.596204522107829
 30
0.0
 11
6.116702331654718
 21
-21.596204522107829
 31
0.0
  0
LINE
  5
186D4
  8
0
 62
     0
 10
4.7946106090127421
 20
-21.770261199433271
 30
0.0
 11
4.7946106090127421
 21
-21.770261199433271
 31
0.0
  0
LINE
  5
186D5
  8
0
 62
     0
 10
1.3445807804041561
 20
-22.224466243120609
 30
0.0
 11
1.3445807804041561
 21
-22.224466243120609
 31
0.0
  0
LINE
  5
186D6
  8
0
 62
     0
 10
5.8398136117840771
 20
-15.05621523743708
 30
0.0
 11
5.8398136117840771
 21
-15.05621523743708
 31
0.0
  0
LINE
  5
186D7
  8
0
 62
     0
 10
3.7748322545147039
 20
-15.328075190592999
 30
0.0
 11
3.7748322545147039
 21
-15.328075190592999
 31
0.0
  0
LINE
  5
186D8
  8
0
 62
     0
 10
2.452740531872728
 20
-15.50213186791844
 30
0.0
 11
2.452740531872728
 21
-15.50213186791844
 31
0.0
  0
LINE
  5
186D9
  8
0
 62
     0
 10
7.9931763660241417
 20
-1.61983490023871
 30
0.0
 11
7.9931763660241417
 21
-1.61983490023871
 31
0.0
  0
LINE
  5
186DA
  8
0
 62
     0
 10
5.9281950087547699
 20
-1.8916948533946341
 30
0.0
 11
5.9281950087547699
 21
-1.8916948533946341
 31
0.0
  0
LINE
  5
186DB
  8
0
 62
     0
 10
4.606103286112794
 20
-2.065751530720072
 30
0.0
 11
4.606103286112794
 21
-2.065751530720072
 31
0.0
  0
LINE
  5
186DC
  8
0
 62
     0
 10
1.1560734575042091
 20
-2.5199565744074079
 30
0.0
 11
1.1560734575042091
 21
-2.5199565744074079
 31
0.0
  0
LINE
  5
186DD
  8
0
 62
     0
 10
5.6513062888843519
 20
4.648294431276164
 30
0.0
 11
5.6513062888843519
 21
4.648294431276164
 31
0.0
  0
LINE
  5
186DE
  8
0
 62
     0
 10
3.586324931614981
 20
4.3764344781202409
 30
0.0
 11
3.586324931614981
 21
4.3764344781202409
 31
0.0
  0
LINE
  5
186DF
  8
0
 62
     0
 10
2.2642332089730042
 20
4.2023778007948032
 30
0.0
 11
2.2642332089730042
 21
4.2023778007948032
 31
0.0
  0
LINE
  5
186E0
  8
0
 62
     0
 10
3.3094362117444769
 20
10.916423762791
 30
0.0
 11
3.3094362117444769
 21
10.916423762791
 31
0.0
  0
LINE
  5
186E1
  8
0
 62
     0
 10
1.2444548544750369
 20
10.644563809635081
 30
0.0
 11
1.2444548544750369
 21
10.644563809635081
 31
0.0
  0
LINE
  5
186E2
  8
0
 62
     0
 10
8.081557762995029
 20
11.54468548380378
 30
0.0
 11
8.081557762995029
 21
11.54468548380378
 31
0.0
  0
LINE
  5
186E3
  8
0
 62
     0
 10
6.7594660403530522
 20
11.37062880647834
 30
0.0
 11
6.7594660403530522
 21
11.37062880647834
 31
0.0
  0
LINE
  5
186E4
  8
0
 62
     0
 10
7.8046690431244183
 20
18.084674768474539
 30
0.0
 11
7.8046690431244183
 21
18.084674768474539
 31
0.0
  0
LINE
  5
186E5
  8
0
 62
     0
 10
5.7396876858550456
 20
17.812814815318621
 30
0.0
 11
5.7396876858550456
 21
17.812814815318621
 31
0.0
  0
LINE
  5
186E6
  8
0
 62
     0
 10
4.4175959632130697
 20
17.638758137993179
 30
0.0
 11
4.4175959632130697
 21
17.638758137993179
 31
0.0
  0
LINE
  5
186E7
  8
0
 62
     0
 10
0.9675661346044847
 20
17.184553094305841
 30
0.0
 11
0.9675661346044847
 21
17.184553094305841
 31
0.0
  0
LINE
  5
186E8
  8
0
 62
     0
 10
8.9128287945932172
 20
24.807009143676751
 30
0.0
 11
8.9128287945932172
 21
24.807009143676751
 31
0.0
  0
LINE
  5
186E9
  8
0
 62
     0
 10
5.4627989659846303
 20
24.35280409998941
 30
0.0
 11
5.4627989659846303
 21
24.35280409998941
 31
0.0
  0
LINE
  5
186EA
  8
0
 62
     0
 10
3.3978176087152572
 20
24.080944146833492
 30
0.0
 11
3.3978176087152572
 21
24.080944146833492
 31
0.0
  0
LINE
  5
186EB
  8
0
 62
     0
 10
2.0757258860732808
 20
23.90688746950805
 30
0.0
 11
2.0757258860732808
 21
23.90688746950805
 31
0.0
  0
LINE
  5
186EC
  8
0
 62
     0
 10
7.8930504400952897
 20
31.249195152517011
 30
0.0
 11
7.8930504400952897
 21
31.249195152517011
 31
0.0
  0
LINE
  5
186ED
  8
0
 62
     0
 10
6.5709587174533137
 20
31.075138475191579
 30
0.0
 11
6.5709587174533137
 21
31.075138475191579
 31
0.0
  0
LINE
  5
186EE
  8
0
 62
     0
 10
3.1209288888447282
 20
30.620933431504241
 30
0.0
 11
3.1209288888447282
 21
30.620933431504241
 31
0.0
  0
LINE
  5
186EF
  8
0
 62
     0
 10
1.0559475315753559
 20
30.34907347834832
 30
0.0
 11
1.0559475315753559
 21
30.34907347834832
 31
0.0
  0
LINE
  5
186F0
  8
0
 62
     0
 10
7.6161617202245822
 20
37.789184437187778
 30
0.0
 11
7.6161617202245822
 21
37.789184437187778
 31
0.0
  0
LINE
  5
186F1
  8
0
 62
     0
 10
5.5511803629552103
 20
37.517324484031853
 30
0.0
 11
5.5511803629552103
 21
37.517324484031853
 31
0.0
  0
LINE
  5
186F2
  8
0
 62
     0
 10
4.2290886403132344
 20
37.343267806706422
 30
0.0
 11
4.2290886403132344
 21
37.343267806706422
 31
0.0
  0
LINE
  5
186F3
  8
0
 62
     0
 10
0.7790588117046485
 20
36.889062763019083
 30
0.0
 11
0.7790588117046485
 21
36.889062763019083
 31
0.0
  0
LINE
  5
186F4
  8
0
 62
     0
 10
8.7243214716932656
 20
44.511518812389951
 30
0.0
 11
8.7243214716932656
 21
44.511518812389951
 31
0.0
  0
LINE
  5
186F5
  8
0
 62
     0
 10
5.2742916430846796
 20
44.05731376870262
 30
0.0
 11
5.2742916430846796
 21
44.05731376870262
 31
0.0
  0
LINE
  5
186F6
  8
0
 62
     0
 10
3.2093102858153082
 20
43.785453815546688
 30
0.0
 11
3.2093102858153082
 21
43.785453815546688
 31
0.0
  0
LINE
  5
186F7
  8
0
 62
     0
 10
1.887218563173332
 20
43.61139713822125
 30
0.0
 11
1.887218563173332
 21
43.61139713822125
 31
0.0
  0
LINE
  5
186F8
  8
0
 62
     0
 10
8.2992554627513542
 20
-60.099467008910338
 30
0.0
 11
8.2992554627513542
 21
-60.099467008910338
 31
0.0
  0
LINE
  5
186F9
  8
0
 62
     0
 10
8.1392523331527933
 20
-55.205334635616893
 30
0.0
 11
8.1392523331527933
 21
-55.205334635616893
 31
0.0
  0
LINE
  5
186FA
  8
0
 62
     0
 10
5.0762737569563923
 20
-57.555640760733759
 30
0.0
 11
5.0762737569563923
 21
-57.555640760733759
 31
0.0
  0
LINE
  5
186FB
  8
0
 62
     0
 10
1.801707844904318
 20
-60.068303558967251
 30
0.0
 11
1.801707844904318
 21
-60.068303558967251
 31
0.0
  0
LINE
  5
186FC
  8
0
 62
     0
 10
7.9792492035542066
 20
-50.31120226232369
 30
0.0
 11
7.9792492035542066
 21
-50.31120226232369
 31
0.0
  0
LINE
  5
186FD
  8
0
 62
     0
 10
4.9162706273578047
 20
-52.661508387440563
 30
0.0
 11
4.9162706273578047
 21
-52.661508387440563
 31
0.0
  0
LINE
  5
186FE
  8
0
 62
     0
 10
1.6417047153057309
 20
-55.174171185674041
 30
0.0
 11
1.6417047153057309
 21
-55.174171185674041
 31
0.0
  0
LINE
  5
186FF
  8
0
 62
     0
 10
7.8192460739559184
 20
-45.417069889030152
 30
0.0
 11
7.8192460739559184
 21
-45.417069889030152
 31
0.0
  0
LINE
  5
18700
  8
0
 62
     0
 10
4.7562674977595156
 20
-47.767376014146997
 30
0.0
 11
4.7562674977595156
 21
-47.767376014146997
 31
0.0
  0
LINE
  5
18701
  8
0
 62
     0
 10
1.4817015857074429
 20
-50.280038812380504
 30
0.0
 11
1.4817015857074429
 21
-50.280038812380504
 31
0.0
  0
LINE
  5
18702
  8
0
 62
     0
 10
7.6592429443577439
 20
-40.522937515736587
 30
0.0
 11
7.6592429443577439
 21
-40.522937515736587
 31
0.0
  0
LINE
  5
18703
  8
0
 62
     0
 10
4.596264368161342
 20
-42.87324364085346
 30
0.0
 11
4.596264368161342
 21
-42.87324364085346
 31
0.0
  0
LINE
  5
18704
  8
0
 62
     0
 10
1.3216984561092691
 20
-45.385906439086959
 30
0.0
 11
1.3216984561092691
 21
-45.385906439086959
 31
0.0
  0
LINE
  5
18705
  8
0
 62
     0
 10
7.4992398147591617
 20
-35.628805142443262
 30
0.0
 11
7.4992398147591617
 21
-35.628805142443262
 31
0.0
  0
LINE
  5
18706
  8
0
 62
     0
 10
4.4362612385627598
 20
-37.979111267560121
 30
0.0
 11
4.4362612385627598
 21
-37.979111267560121
 31
0.0
  0
LINE
  5
18707
  8
0
 62
     0
 10
1.1616953265106871
 20
-40.491774065793606
 30
0.0
 11
1.1616953265106871
 21
-40.491774065793606
 31
0.0
  0
LINE
  5
18708
  8
0
 62
     0
 10
7.3392366851608069
 20
-30.734672769149899
 30
0.0
 11
7.3392366851608069
 21
-30.734672769149899
 31
0.0
  0
LINE
  5
18709
  8
0
 62
     0
 10
4.2762581089644049
 20
-33.084978894266769
 30
0.0
 11
4.2762581089644049
 21
-33.084978894266769
 31
0.0
  0
LINE
  5
1870A
  8
0
 62
     0
 10
1.001692196912332
 20
-35.597641692500261
 30
0.0
 11
1.001692196912332
 21
-35.597641692500261
 31
0.0
  0
LINE
  5
1870B
  8
0
 62
     0
 10
7.1792335555622246
 20
-25.84054039585655
 30
0.0
 11
7.1792335555622246
 21
-25.84054039585655
 31
0.0
  0
LINE
  5
1870C
  8
0
 62
     0
 10
4.1162549793658227
 20
-28.190846520973409
 30
0.0
 11
4.1162549793658227
 21
-28.190846520973409
 31
0.0
  0
LINE
  5
1870D
  8
0
 62
     0
 10
0.8416890673137499
 20
-30.703509319206908
 30
0.0
 11
0.8416890673137499
 21
-30.703509319206908
 31
0.0
  0
LINE
  5
1870E
  8
0
 62
     0
 10
7.0192304259641167
 20
-20.94640802256292
 30
0.0
 11
7.0192304259641167
 21
-20.94640802256292
 31
0.0
  0
LINE
  5
1870F
  8
0
 62
     0
 10
3.9562518497677148
 20
-23.29671414767979
 30
0.0
 11
3.9562518497677148
 21
-23.29671414767979
 31
0.0
  0
LINE
  5
18710
  8
0
 62
     0
 10
0.6816859377156425
 20
-25.809376945913289
 30
0.0
 11
0.6816859377156425
 21
-25.809376945913289
 31
0.0
  0
LINE
  5
18711
  8
0
 62
     0
 10
6.8592272963656491
 20
-16.052275649269511
 30
0.0
 11
6.8592272963656491
 21
-16.052275649269511
 31
0.0
  0
LINE
  5
18712
  8
0
 62
     0
 10
3.7962487201692472
 20
-18.40258177438638
 30
0.0
 11
3.7962487201692472
 21
-18.40258177438638
 31
0.0
  0
LINE
  5
18713
  8
0
 62
     0
 10
0.5216828081171739
 20
-20.91524457261988
 30
0.0
 11
0.5216828081171739
 21
-20.91524457261988
 31
0.0
  0
LINE
  5
18714
  8
0
 62
     0
 10
6.6992241667671131
 20
-11.15814327597624
 30
0.0
 11
6.6992241667671131
 21
-11.15814327597624
 31
0.0
  0
LINE
  5
18715
  8
0
 62
     0
 10
3.6362455905707121
 20
-13.50844940109311
 30
0.0
 11
3.6362455905707121
 21
-13.50844940109311
 31
0.0
  0
LINE
  5
18716
  8
0
 62
     0
 10
0.3616796785186386
 20
-16.021112199326609
 30
0.0
 11
0.3616796785186386
 21
-16.021112199326609
 31
0.0
  0
LINE
  5
18717
  8
0
 62
     0
 10
6.5392210371686241
 20
-6.2640109026828332
 30
0.0
 11
6.5392210371686241
 21
-6.2640109026828332
 31
0.0
  0
LINE
  5
18718
  8
0
 62
     0
 10
0.2016765489202371
 20
-11.12697982603312
 30
0.0
 11
0.2016765489202371
 21
-11.12697982603312
 31
0.0
  0
LINE
  5
18719
  8
0
 62
     0
 10
6.37921790757047
 20
-1.3698785293892941
 30
0.0
 11
6.37921790757047
 21
-1.3698785293892941
 31
0.0
  0
LINE
  5
1871A
  8
0
 62
     0
 10
3.316239331374069
 20
-3.7201846545061632
 30
0.0
 11
3.316239331374069
 21
-3.7201846545061632
 31
0.0
  0
LINE
  5
1871B
  8
0
 62
     0
 10
0.041673419321996
 20
-6.2328474527396569
 30
0.0
 11
0.041673419321996
 21
-6.2328474527396569
 31
0.0
  0
LINE
  5
1871C
  8
0
 62
     0
 10
6.2192147779717084
 20
3.5242538439039168
 30
0.0
 11
6.2192147779717084
 21
3.5242538439039168
 31
0.0
  0
LINE
  5
1871D
  8
0
 62
     0
 10
3.1562362017753061
 20
1.173947718787048
 30
0.0
 11
3.1562362017753061
 21
1.173947718787048
 31
0.0
  0
LINE
  5
1871E
  8
0
 62
     0
 10
2.9962330721770849
 20
6.068080092080617
 30
0.0
 11
2.9962330721770849
 21
6.068080092080617
 31
0.0
  0
LINE
  5
1871F
  8
0
 62
     0
 10
5.8992085187751311
 20
13.31251859049098
 30
0.0
 11
5.8992085187751311
 21
13.31251859049098
 31
0.0
  0
LINE
  5
18720
  8
0
 62
     0
 10
2.8362299425787301
 20
10.96221246537411
 30
0.0
 11
2.8362299425787301
 21
10.96221246537411
 31
0.0
  0
LINE
  5
18721
  8
0
 62
     0
 10
5.7392053891767301
 20
18.20665096378444
 30
0.0
 11
5.7392053891767301
 21
18.20665096378444
 31
0.0
  0
LINE
  5
18722
  8
0
 62
     0
 10
2.6762268129803291
 20
15.856344838667569
 30
0.0
 11
2.6762268129803291
 21
15.856344838667569
 31
0.0
  0
LINE
  5
18723
  8
0
 62
     0
 10
5.5792022595783752
 20
23.10078333707779
 30
0.0
 11
5.5792022595783752
 21
23.10078333707779
 31
0.0
  0
LINE
  5
18724
  8
0
 62
     0
 10
2.5162236833819742
 20
20.75047721196092
 30
0.0
 11
2.5162236833819742
 21
20.75047721196092
 31
0.0
  0
LINE
  5
18725
  8
0
 62
     0
 10
8.8448988533575275
 20
30.623547560830929
 30
0.0
 11
8.8448988533575275
 21
30.623547560830929
 31
0.0
  0
LINE
  5
18726
  8
0
 62
     0
 10
5.4191991299799742
 20
27.994915710371281
 30
0.0
 11
5.4191991299799742
 21
27.994915710371281
 31
0.0
  0
LINE
  5
18727
  8
0
 62
     0
 10
2.3562205537835719
 20
25.644609585254411
 30
0.0
 11
2.3562205537835719
 21
25.644609585254411
 31
0.0
  0
LINE
  5
18728
  8
0
 62
     0
 10
8.6848957237589453
 20
35.517679934124338
 30
0.0
 11
8.6848957237589453
 21
35.517679934124338
 31
0.0
  0
LINE
  5
18729
  8
0
 62
     0
 10
5.259196000381392
 20
32.889048083664683
 30
0.0
 11
5.259196000381392
 21
32.889048083664683
 31
0.0
  0
LINE
  5
1872A
  8
0
 62
     0
 10
2.1962174241849901
 20
30.538741958547821
 30
0.0
 11
2.1962174241849901
 21
30.538741958547821
 31
0.0
  0
LINE
  5
1872B
  8
0
 62
     0
 10
8.5248925941604092
 20
40.411812307417549
 30
0.0
 11
8.5248925941604092
 21
40.411812307417549
 31
0.0
  0
LINE
  5
1872C
  8
0
 62
     0
 10
5.0991928707828551
 20
37.783180456957894
 30
0.0
 11
5.0991928707828551
 21
37.783180456957894
 31
0.0
  0
LINE
  5
1872D
  8
0
 62
     0
 10
2.0362142945864541
 20
35.432874331841028
 30
0.0
 11
2.0362142945864541
 21
35.432874331841028
 31
0.0
  0
LINE
  5
1872E
  8
0
 62
     0
 10
4.9391897411846823
 20
42.677312830251438
 30
0.0
 11
4.9391897411846823
 21
42.677312830251438
 31
0.0
  0
LINE
  5
1872F
  8
0
 62
     0
 10
1.87621116498828
 20
40.327006705134572
 30
0.0
 11
1.87621116498828
 21
40.327006705134572
 31
0.0
  0
ENDBLK
  5
18731
  8
0
  0
BLOCK
  8
0
  2
*U85
 70
     1
 10
0.0
 20
0.0
 30
0.0
  3
*U85
  1

  0
TEXT
  5
18733
  8
1DIM
 62
   201
 10
-31.153865476029861
 20
54.018296023885341
 30
0.0
 40
3.5
  1
裏板9mm以上
  0
ENDBLK
  5
18735
  8
0
  0
BLOCK
  8
0
  2
*U86
 70
     1
 10
0.0
 20
0.0
 30
0.0
  3
*U86
  1

  0
SOLID
  5
18737
  8
1DIM
 10
12.044443127533439
 20
38.726957896894412
 30
0.0
 11
13.168864624287609
 21
37.039715350978668
 31
0.0
 12
11.55800886922316
 22
38.271078354924647
 32
0.0
 13
11.55800886922316
 23
38.271078354924647
 33
0.0
  0
POLYLINE
  5
18738
  8
1DIM
 66
     1
 10
0.0
 20
0.0
 30
0.0
  0
VERTEX
  5
18739
  8
1DIM
 10
11.8012259983783
 20
38.499018125909529
 30
0.0
  0
VERTEX
  5
1873A
  8
1DIM
 10
-2.0871988093631888
 20
53.318296023885338
 30
0.0
  0
VERTEX
  5
1873B
  8
1DIM
 10
-31.153865476029861
 20
53.318296023885338
 30
0.0
  0
SEQEND
  5
1873C
  8
1DIM
  0
ENDBLK
  5
1873E
  8
0
  0
BLOCK
  8
0
  2
*U87
 70
     1
 10
0.0
 20
0.0
 30
0.0
  3
*U87
  1

  0
LINE
  5
18740
  8
0
 10
-0.3500000000000227
 20
2.0
 30
0.0
 11
0.0
 21
1.649999999999977
 31
0.0
  0
LINE
  5
18741
  8
0
 10
-10.20000000000004
 20
2.0
 30
0.0
 11
-0.3500000000000227
 21
2.0
 31
0.0
  0
LINE
  5
18742
  8
0
 10
0.0
 20
1.649999999999977
 30
0.0
 11
0.0
 21
-1.6499999999998629
 31
0.0
  0
LINE
  5
18743
  8
0
 10
-12.0
 20
0.2000000000000028
 30
0.0
 11
-10.20000000000004
 21
2.0
 31
0.0
  0
LINE
  5
18744
  8
0
 10
0.0
 20
-1.6499999999998629
 30
0.0
 11
-0.3500000000000227
 21
-2.0
 31
0.0
  0
LINE
  5
18745
  8
0
 10
-12.0
 20
0.2000000000000028
 30
0.0
 11
-12.0
 21
-0.200000000000017
 31
0.0
  0
LINE
  5
18746
  8
0
 10
-10.19999999999999
 20
-1.9999999999999849
 30
0.0
 11
-0.3500000000000227
 21
-2.0
 31
0.0
  0
LINE
  5
18747
  8
0
 10
-12.0
 20
-0.200000000000017
 30
0.0
 11
-10.19999999999999
 21
-1.9999999999999849
 31
0.0
  0
ENDBLK
  5
18749
  8
0
  0
BLOCK
  8
0
  2
*U88
 70
     1
 10
0.0
 20
0.0
 30
0.0
  3
*U88
  1

  0
LINE
  5
1874B
  8
0
 10
-7.9999999999999991
 20
2.5
 30
0.0
 11
-7.9999978000002088
 21
2.4999999999999432
 31
0.0
  0
LINE
  5
1874C
  8
0
 10
-7.9999999999999991
 20
-2.4999999999999432
 30
0.0
 11
-7.9999999999999991
 21
2.5
 31
0.0
  0
LINE
  5
1874D
  8
0
 10
-7.9999978000002088
 20
2.4999999999999432
 30
0.0
 11
-7.4999979000001629
 21
3.0
 31
0.0
  0
LINE
  5
1874E
  8
0
 10
-8.0000021000010921
 20
-2.4999999999999432
 30
0.0
 11
-7.9999999999999991
 21
-2.4999999999999432
 31
0.0
  0
LINE
  5
1874F
  8
0
 10
-7.4999979000001629
 20
3.0
 30
0.0
 11
-1.999998199999983
 21
3.0
 31
0.0
  0
LINE
  5
18750
  8
0
 10
-7.5000018999986429
 20
-3.000000000000056
 30
0.0
 11
-8.0000021000010921
 21
-2.4999999999999432
 31
0.0
  0
LINE
  5
18751
  8
0
 10
-1.999998199999983
 20
3.0
 30
0.0
 11
-1.49999999999998
 21
2.0
 31
0.0
  0
LINE
  5
18752
  8
0
 10
-1.999998199999959
 20
-2.9999999999999432
 30
0.0
 11
-7.5000018999986429
 21
-3.000000000000056
 31
0.0
  0
LINE
  5
18753
  8
0
 10
-1.49999999999998
 20
2.0
 30
0.0
 11
-0.5000000000000004
 21
2.0
 31
0.0
  0
LINE
  5
18754
  8
0
 10
-1.50000000000001
 20
-2.0
 30
0.0
 11
-1.999998199999959
 21
-2.9999999999999432
 31
0.0
  0
ARC
  5
18755
  8
0
 10
-0.5000000000000006
 20
1.5
 30
0.0
 40
0.5000000000000004
 50
0.0
 51
90.0
  0
LINE
  5
18756
  8
0
 10
-0.5
 20
-2.0
 30
0.0
 11
-1.50000000000001
 21
-2.0
 31
0.0
  0
LINE
  5
18757
  8
0
 10
-0.0000000000000001
 20
1.5
 30
0.0
 11
-0.0000000000000001
 21
-1.5
 31
0.0
  0
ARC
  5
18758
  8
0
 10
-0.5
 20
-1.5
 30
0.0
 40
0.5
 50
270.0
 51
0.0
  0
ENDBLK
  5
1875A
  8
0
  0
BLOCK
  8
0
  2
*U89
 70
     1
 10
0.0
 20
0.0
 30
0.0
  3
*U89
  1

  0
LINE
  5
1875C
  8
1HATCH
 10
-1.5
 20
2.000000000000056
 30
0.0
 11
-1.7499990999999879
 21
2.5
 31
0.0
  0
LINE
  5
1875D
  8
1HATCH
 10
-1.7499990999999879
 20
2.5
 30
0.0
 11
-7.999997800000223
 21
2.5
 31
0.0
  0
LINE
  5
1875E
  8
1HATCH
 10
-1.5
 20
-2.000000000000056
 30
0.0
 11
-1.5
 21
2.000000000000056
 31
0.0
  0
LINE
  5
1875F
  8
1HATCH
 10
-7.999997800000223
 20
2.5
 30
0.0
 11
-7.9999999999999991
 21
2.4999977999997318
 31
0.0
  0
LINE
  5
18760
  8
1HATCH
 10
-1.749999099999981
 20
-2.5
 30
0.0
 11
-1.5
 21
-2.000000000000056
 31
0.0
  0
LINE
  5
18761
  8
1HATCH
 10
-7.9999999999999991
 20
2.4999977999997318
 30
0.0
 11
-7.9999999999999991
 21
-2.5
 31
0.0
  0
LINE
  5
18762
  8
1HATCH
 10
-7.9999999999999991
 20
-2.5
 30
0.0
 11
-1.749999099999981
 21
-2.5
 31
0.0
  0
ENDBLK
  5
18764
  8
0
  0
BLOCK
  8
0
  2
*U90
 70
     1
 10
0.0
 20
0.0
 30
0.0
  3
*U90
  1

  0
LINE
  5
18766
  8
1HATCH
 10
-1.9999981999999989
 20
3.000000000000056
 30
0.0
 11
-7.4999979000001362
 21
3.0
 31
0.0
  0
LINE
  5
18767
  8
1HATCH
 10
-7.4999979000001362
 20
3.0
 30
0.0
 11
-7.999997800000143
 21
2.5
 31
0.0
  0
LINE
  5
18768
  8
1HATCH
 10
-1.749999099999983
 20
2.5
 30
0.0
 11
-1.9999981999999989
 21
3.000000000000056
 31
0.0
  0
LINE
  5
18769
  8
1HATCH
 10
-7.999997800000143
 20
2.5
 30
0.0
 11
-1.749999099999983
 21
2.5
 31
0.0
  0
ENDBLK
  5
1876B
  8
0
  0
BLOCK
  8
0
  2
*U91
 70
     1
 10
0.0
 20
0.0
 30
0.0
  3
*U91
  1

  0
ARC
  5
1876D
  8
1HATCH
 10
-0.5000000000000002
 20
1.5
 30
0.0
 40
0.5000000000000002
 50
0.0
 51
90.0
  0
LINE
  5
1876E
  8
1HATCH
 10
-0.5000000000000004
 20
2.0
 30
0.0
 11
-1.5
 21
2.0
 31
0.0
  0
LINE
  5
1876F
  8
1HATCH
 10
0.0
 20
-1.5
 30
0.0
 11
0.0
 21
1.5
 31
0.0
  0
LINE
  5
18770
  8
1HATCH
 10
-1.5
 20
2.0
 30
0.0
 11
-1.5
 21
-2.0
 31
0.0
  0
ARC
  5
18771
  8
1HATCH
 10
-0.5
 20
-1.5
 30
0.0
 40
0.5
 50
270.0
 51
0.0
  0
LINE
  5
18772
  8
1HATCH
 10
-1.5
 20
-2.0
 30
0.0
 11
-0.5
 21
-2.0
 31
0.0
  0
ENDBLK
  5
18774
  8
0
  0
BLOCK
  8
0
  2
*U92
 70
     1
 10
0.0
 20
0.0
 30
0.0
  3
*U92
  1

  0
LINE
  5
18776
  8
0
 10
-14.649999999999981
 20
2.0
 30
0.0
 11
-0.0000000000000284
 21
2.0
 31
0.0
  0
LINE
  5
18777
  8
0
 10
-14.649999999999981
 20
2.0
 30
0.0
 11
-15.0
 21
1.649999999999977
 31
0.0
  0
LINE
  5
18778
  8
0
 10
0.0
 20
3.4999999999999432
 30
0.0
 11
-0.0000000000000284
 21
2.0
 31
0.0
  0
LINE
  5
18779
  8
0
 10
-15.0
 20
1.649999999999977
 30
0.0
 11
-15.0
 21
-1.6499999999998629
 31
0.0
  0
LINE
  5
1877A
  8
0
 10
0.0
 20
3.4999999999999432
 30
0.0
 11
0.5999999999999375
 21
3.4999999999999432
 31
0.0
  0
LINE
  5
1877B
  8
0
 10
-15.0
 20
-1.6499999999998629
 30
0.0
 11
-14.649999999999981
 21
-2.0
 31
0.0
  0
ARC
  5
1877C
  8
0
 10
0.5999999999999944
 20
1.4999999999999429
 30
0.0
 40
2.0
 50
0.0
 51
90.000000000001606
  0
LINE
  5
1877D
  8
0
 10
-14.649999999999981
 20
-2.0
 30
0.0
 11
0.0000000000000568
 21
-2.0
 31
0.0
  0
LINE
  5
1877E
  8
0
 10
2.5999999999999939
 20
1.4999999999999429
 30
0.0
 11
2.5999999999999939
 21
-1.5
 31
0.0
  0
LINE
  5
1877F
  8
0
 10
0.0000000000000568
 20
-2.0
 30
0.0
 11
0.0
 21
-3.5
 31
0.0
  0
ARC
  5
18780
  8
0
 10
0.5999999999999944
 20
-1.5
 30
0.0
 40
2.0
 50
270.0
 51
0.0
  0
LINE
  5
18781
  8
0
 10
0.0
 20
-3.5
 30
0.0
 11
0.5999999999999944
 21
-3.5
 31
0.0
  0
ENDBLK
  5
18783
  8
0
  0
BLOCK
  8
0
  2
*U93
 70
     1
 10
0.0
 20
0.0
 30
0.0
  3
*U93
  1

  0
LINE
  5
18785
  8
0
 10
9.0000017999844886
 20
2.999993928725444
 30
0.0
 11
9.4999999999837428
 21
1.9999939287269191
 31
0.0
  0
LINE
  5
18786
  8
0
 10
0.5
 20
3.0000009091116051
 30
0.0
 11
9.0000017999844886
 21
2.999993928725444
 31
0.0
  0
LINE
  5
18787
  8
0
 10
9.4999999999837428
 20
1.9999939287269191
 30
0.0
 11
12.000002792072619
 21
1.9999799679419681
 31
0.0
  0
LINE
  5
18788
  8
0
 10
0.0
 20
2.5000009091116051
 30
0.0
 11
0.5
 21
3.0000009091116051
 31
0.0
  0
ARC
  5
18789
  8
0
 10
11.999999999918771
 20
1.4999799679497621
 30
0.0
 40
0.5
 50
0.0
 51
89.999680042737253
  0
LINE
  5
1878A
  8
0
 10
0.0
 20
-2.499999090888394
 30
0.0
 11
0.0
 21
2.5000009091116051
 31
0.0
  0
LINE
  5
1878B
  8
0
 10
12.49999999991871
 20
-1.5000200320346471
 30
0.0
 11
12.499999999918771
 21
1.4999799679497621
 31
0.0
  0
LINE
  5
1878C
  8
0
 10
0.0
 20
-2.499999090888394
 30
0.0
 11
0.5
 21
-2.999999090888394
 31
0.0
  0
ARC
  5
1878D
  8
0
 10
11.99999999991871
 20
-1.5000200320346471
 30
0.0
 40
0.5
 50
269.99968004273722
 51
0.0
  0
LINE
  5
1878E
  8
0
 10
0.5
 20
-2.999999090888394
 30
0.0
 11
9.0000017999829538
 21
-3.0000060712745551
 31
0.0
  0
LINE
  5
1878F
  8
0
 10
9.4999999999838565
 20
-2.0000060712730732
 30
0.0
 11
11.99999720776486
 21
-2.0000200320268529
 31
0.0
  0
LINE
  5
18790
  8
0
 10
9.0000017999829538
 20
-3.0000060712745551
 30
0.0
 11
9.4999999999838565
 21
-2.0000060712730732
 31
0.0
  0
ENDBLK
  5
18792
  8
0
  0
BLOCK
  8
0
  2
*U94
 70
     1
 10
0.0
 20
0.0
 30
0.0
  3
*U94
  1

  0
LINE
  5
18797
  8
0
 10
-34.700003489976531
 20
-1.4999534641020771
 30
0.0
 11
-2.8000383918526941
 21
-1.4999534641020771
 31
0.0
  0
LINE
  5
18798
  8
0
 10
-0.3000093071805736
 20
-4.0
 30
0.0
 11
-2.8000383918526941
 21
-1.4999534641020771
 31
0.0
  0
LINE
  5
18799
  8
0
 10
-39.99999999983757
 20
0.0000465358979227
 30
0.0
 11
-34.700003489976531
 21
-1.4999534641020771
 31
0.0
  0
LINE
  5
1879A
  8
0
 10
-0.3000093071805736
 20
-4.0
 30
0.0
 11
-0.0000093071795959
 21
-4.0
 31
0.0
  0
LINE
  5
1879B
  8
0
 10
-39.99999999983757
 20
0.0000465358979227
 30
0.0
 11
-34.699996509592239
 21
1.500046535897922
 31
0.0
  0
LINE
  5
1879C
  8
0
 10
-0.0000093071795959
 20
-4.0
 30
0.0
 11
0.0000093071795959
 21
4.0
 31
0.0
  0
LINE
  5
1879D
  8
0
 10
-34.699996509592239
 20
1.500046535897922
 30
0.0
 11
-2.7999732414874918
 21
1.500046535897922
 31
0.0
  0
LINE
  5
1879E
  8
0
 10
-0.2999906928214955
 20
4.0
 30
0.0
 11
0.0000093071795959
 21
4.0
 31
0.0
  0
LINE
  5
1879F
  8
0
 10
-0.2999906928214955
 20
4.0
 30
0.0
 11
-2.7999732414874918
 21
1.500046535897922
 31
0.0
  0
ENDBLK
  5
187A1
  8
0
  0
BLOCK
  8
0
  2
*U95
 70
     1
 10
0.0
 20
0.0
 30
0.0
  3
*U95
  1

  0
TEXT
  5
187A3
  8
1DIM
 62
   201
 10
1183.0758081639699
 20
-2141.938323755403
 30
0.0
 40
3.5
  1
21.5
 50
90.0
  0
ENDBLK
  5
187A5
  8
0
  0
BLOCK
  8
0
  2
*U96
 70
     1
 10
0.0
 20
0.0
 30
0.0
  3
*U96
  1

  0
TEXT
  5
187A7
  8
1DIM
 62
   201
 10
1206.6091414973041
 20
-2177.233611383373
 30
0.0
 40
3.5
  1
10
  0
ENDBLK
  5
187A9
  8
0
  0
BLOCK
  8
0
  2
*U97
 70
     1
 10
0.0
 20
0.0
 30
0.0
  3
*U97
  1

  0
TEXT
  5
187AB
  8
1DIM
 62
   201
 10
1195.1591414973029
 20
-2167.321657088738
 30
0.0
 40
3.5
  1
8.5
  0
ENDBLK
  5
187AD
  8
0
  0
BLOCK
  8
0
  2
*U98
 70
     1
 10
0.0
 20
0.0
 30
0.0
  3
*U98
  1

  0
TEXT
  5
187AF
  8
1DIM
 62
   201
 10
1196.095884683057
 20
-2139.7300483145959
 30
0.0
 40
3.5
  1
19
 50
90.0
  0
ENDBLK
  5
187B1
  8
0
  0
BLOCK
  8
0
  2
*U99
 70
     1
 10
0.0
 20
0.0
 30
0.0
  3
*U99
  1

  0
TEXT
  5
187B3
  8
1DIM1
 62
   201
 10
-525.97469183602959
 20
-2195.504384405825
 30
0.0
 40
17.5
  1
P191
  0
ENDBLK
  5
187B5
  8
0
  0
BLOCK
  8
0
  2
*U100
 70
     1
 10
0.0
 20
0.0
 30
0.0
  3
*U100
  1

  0
TEXT
  5
187B7
  8
1DIM1
 62
   201
 10
237.52580816397031
 20
-2234.0555875141522
 30
0.0
 40
17.5
  1
1800
  0
ENDBLK
  5
187B9
  8
0
  0
BLOCK
  8
0
  2
*U101
 70
     1
 10
0.0
 20
0.0
 30
0.0
  3
*U101
  1

  0
TEXT
  5
187BB
  8
1DIM1
 62
   201
 10
-334.97569183602951
 20
-2195.504384405825
 30
0.0
 40
17.5
  1
P191
  0
ENDBLK
  5
187BD
  8
0
  0
BLOCK
  8
0
  2
*U102
 70
     1
 10
0.0
 20
0.0
 30
0.0
  3
*U102
  1

  0
TEXT
  5
187BF
  8
1DIM1
 62
   201
 10
-143.97669183602949
 20
-2195.504384405825
 30
0.0
 40
17.5
  1
P191
  0
ENDBLK
  5
187C1
  8
0
  0
BLOCK
  8
0
  2
*U103
 70
     1
 10
0.0
 20
0.0
 30
0.0
  3
*U103
  1

  0
TEXT
  5
187C3
  8
1DIM1
 62
   201
 10
47.022308163970472
 20
-2195.504384405825
 30
0.0
 40
17.5
  1
P191
  0
ENDBLK
  5
187C5
  8
0
  0
BLOCK
  8
0
  2
*U104
 70
     1
 10
0.0
 20
0.0
 30
0.0
  3
*U104
  1

  0
TEXT
  5
187C7
  8
1DIM1
 62
   201
 10
238.0213081639705
 20
-2195.504384405825
 30
0.0
 40
17.5
  1
P191
  0
ENDBLK
  5
187C9
  8
0
  0
BLOCK
  8
0
  2
*U105
 70
     1
 10
0.0
 20
0.0
 30
0.0
  3
*U105
  1

  0
TEXT
  5
187CB
  8
1DIM1
 62
   201
 10
429.02030816397058
 20
-2195.504384405825
 30
0.0
 40
17.5
  1
P191
  0
ENDBLK
  5
187CD
  8
0
  0
BLOCK
  8
0
  2
*U106
 70
     1
 10
0.0
 20
0.0
 30
0.0
  3
*U106
  1

  0
TEXT
  5
187CF
  8
1DIM1
 62
   201
 10
620.01930816397044
 20
-2195.504384405825
 30
0.0
 40
17.5
  1
P191
  0
ENDBLK
  5
187D1
  8
0
  0
BLOCK
  8
0
  2
*U107
 70
     1
 10
0.0
 20
0.0
 30
0.0
  3
*U107
  1

  0
TEXT
  5
187D3
  8
1DIM1
 62
   201
 10
811.01830816397069
 20
-2195.504384405825
 30
0.0
 40
17.5
  1
P191
  0
ENDBLK
  5
187D5
  8
0
  0
BLOCK
  8
0
  2
*U108
 70
     1
 10
0.0
 20
0.0
 30
0.0
  3
*U108
  1

  0
TEXT
  5
187D7
  8
1DIM1
 62
   201
 10
1002.01730816397
 20
-2195.504384405825
 30
0.0
 40
17.5
  1
P191
  0
ENDBLK
  5
187D9
  8
0
  0
BLOCK
  8
0
  2
*U109
 70
     1
 10
0.0
 20
0.0
 30
0.0
  3
*U109
  1

  0
TEXT
  5
187DB
  8
1DIM1
 62
   201
 10
1131.609141497303
 20
-2195.5043844080601
 30
0.0
 40
17.5
  1
41
  0
ENDBLK
  5
187DD
  8
0
  0
BLOCK
  8
0
  2
*U110
 70
     1
 10
0.0
 20
0.0
 30
0.0
  3
*U110
  1

  0
TEXT
  5
187DF
  8
1DIM1
 62
   201
 10
-627.39085850269646
 20
-2195.504384405825
 30
0.0
 40
17.5
  1
41
  0
ENDBLK
  5
187E1
  8
0
  0
BLOCK
  8
0
  2
*U111
 70
     1
 10
0.0
 20
0.0
 30
0.0
  3
*U111
  1

  0
TEXT
  5
187E3
  8
1DIM
 62
   201
 10
1254.9345229222499
 20
-2122.8216570887371
 30
0.0
 40
3.5
  1
11.5
 50
90.0
  0
ENDBLK
  5
187E5
  8
0
  0
ENDSEC
  0
SECTION
  2
ENTITIES
  0
LINE
  5
17B9E
  8
01
 10
1161.2758081639699
 20
-2146.7716570887392
 30
0.0
 11
-633.72419183602972
 21
-2146.7716570887392
 31
0.0
  0
LINE
  5
17B9F
  8
01
 10
1161.2758081639699
 20
-2127.7716570887392
 30
0.0
 11
-633.72419183602983
 21
-2127.7716570887469
 31
0.0
  0
LINE
  5
17BA0
  8
01
 10
1152.7758081639699
 20
-2146.7716570887392
 30
0.0
 11
-625.22419183602949
 21
-2146.7716570887392
 31
0.0
  0
LINE
  5
17BA1
  8
1PHANTOM
 10
1152.7758081639699
 20
-2146.7716570887392
 30
0.0
 11
1152.7758081639699
 21
-2128.771836335542
 31
0.0
  0
LINE
  5
17BA2
  8
1PHANTOM
 10
-625.22419183602949
 20
-2146.7716570887392
 30
0.0
 11
-625.22419183602949
 21
-2128.771836335542
 31
0.0
  0
LINE
  5
17BA3
  8
1PHANTOM
 10
1152.7758081639699
 20
-2141.0217205504941
 30
0.0
 11
-625.22419183602938
 21
-2141.0217205504941
 31
0.0
  0
LINE
  5
17BA4
  8
1PHANTOM
 10
1152.7758081639699
 20
-2128.771836335542
 30
0.0
 11
-625.22419183602949
 21
-2128.771836335542
 31
0.0
  0
LINE
  5
17BA5
  8
1PHANTOM
 10
1152.7758081639699
 20
-2133.7717205482591
 30
0.0
 11
-625.22419183602915
 21
-2133.7717205482591
 31
0.0
  0
LINE
  5
17BA6
  8
1PHANTOM
 10
1152.7758081639699
 20
-2143.771836335543
 30
0.0
 11
-625.22419183602949
 21
-2143.771836335543
 31
0.0
  0
LINE
  5
17BA7
  8
1CENTER
 10
1118.7758081639699
 20
-2137.771720550495
 30
0.0
 11
1126.7758081639699
 21
-2137.771720550495
 31
0.0
  0
LINE
  5
17BA8
  8
1CENTER
 10
1122.7758081639699
 20
-2141.771720550495
 30
0.0
 11
1122.7758081639699
 21
-2133.771720550495
 31
0.0
  0
LINE
  5
17BA9
  8
1CENTER
 10
-591.2241918360296
 20
-2137.771720550495
 30
0.0
 11
-599.2241918360296
 21
-2137.771720550495
 31
0.0
  0
LINE
  5
17BAA
  8
1CENTER
 10
-595.2241918360296
 20
-2141.771720550495
 30
0.0
 11
-595.2241918360296
 21
-2133.771720550495
 31
0.0
  0
LINE
  5
17BAB
  8
1PHANTOM
 10
1152.7758081639699
 20
-2142.2717205504941
 30
0.0
 11
-625.22419183602938
 21
-2142.2717205504941
 31
0.0
  0
LINE
  5
17BAC
  8
1CENTER
 10
1126.7758081639699
 20
-2137.7717205504941
 30
0.0
 11
1118.7758081639699
 21
-2137.7717205504941
 31
0.0
  0
LINE
  5
17BAD
  8
1CENTER
 10
1122.7758081639699
 20
-2141.7717205504941
 30
0.0
 11
1122.7758081639699
 21
-2133.7717205504941
 31
0.0
  0
LINE
  5
17BAE
  8
01
 10
1163.7758081639699
 20
-2127.5216570887378
 30
0.0
 11
1163.7758081639699
 21
-2147.0216570887378
 31
0.0
  0
ARC
  5
17BAF
  8
01
 10
1162.7758081639699
 20
-2127.5216570887378
 30
0.0
 40
1.0
 50
0.0
 51
90.000000000026048
  0
ARC
  5
17BB0
  8
01
 10
1161.7758081639699
 20
-2147.5216570887378
 30
0.0
 40
0.5
 50
180.0
 51
269.99999999998698
  0
LINE
  5
17BB1
  8
01
 10
1161.7758081639699
 20
-2126.5216570887392
 30
0.0
 11
1162.7758081639699
 21
-2126.5216570887378
 31
0.0
  0
ARC
  5
17BB2
  8
01
 10
1161.7758081639699
 20
-2127.0216570887392
 30
0.0
 40
0.5
 50
90.000000000013031
 51
180.0
  0
LINE
  5
17BB3
  8
01
 10
1161.7758081639699
 20
-2148.0216570887378
 30
0.0
 11
1162.7758081639699
 21
-2148.0216570887378
 31
0.0
  0
ARC
  5
17BB4
  8
01
 10
1162.7758081639699
 20
-2147.0216570887378
 30
0.0
 40
1.0
 50
269.99999999997391
 51
0.0
  0
LINE
  5
17BB5
  8
01
 10
-636.2241918360296
 20
-2127.7716570887378
 30
0.0
 11
-636.2241918360296
 21
-2147.2716570887378
 31
0.0
  0
ARC
  5
17BB6
  8
01
 10
-635.2241918360296
 20
-2127.7716570887378
 30
0.0
 40
1.0
 50
89.999999999973952
 51
180.0
  0
ARC
  5
17BB7
  8
01
 10
-634.22419183602983
 20
-2147.7716570887378
 30
0.0
 40
0.5
 50
270.00000000002598
 51
0.0
  0
LINE
  5
17BB8
  8
01
 10
-634.22419183602949
 20
-2126.7716570887392
 30
0.0
 11
-635.22419183602915
 21
-2126.7716570887378
 31
0.0
  0
ARC
  5
17BB9
  8
01
 10
-634.22419183602949
 20
-2127.2716570887392
 30
0.0
 40
0.5
 50
0.0
 51
90.0
  0
LINE
  5
17BBA
  8
01
 10
-634.22419183602949
 20
-2148.2716570887378
 30
0.0
 11
-635.2241918360296
 21
-2148.2716570887378
 31
0.0
  0
ARC
  5
17BBB
  8
01
 10
-635.22419183602983
 20
-2147.2716570887378
 30
0.0
 40
1.0
 50
180.0
 51
270.00000000002598
  0
LINE
  5
17BBC
  8
1CENTER
 10
-400.22519183602952
 20
-2137.771720550495
 30
0.0
 11
-408.22519183602952
 21
-2137.771720550495
 31
0.0
  0
LINE
  5
17BBD
  8
1CENTER
 10
-404.22519183602952
 20
-2141.771720550495
 30
0.0
 11
-404.22519183602952
 21
-2133.771720550495
 31
0.0
  0
LINE
  5
17BBE
  8
1CENTER
 10
-209.2261918360295
 20
-2137.771720550495
 30
0.0
 11
-217.22619183602961
 21
-2137.771720550495
 31
0.0
  0
LINE
  5
17BBF
  8
1CENTER
 10
-213.2261918360295
 20
-2141.771720550495
 30
0.0
 11
-213.2261918360295
 21
-2133.771720550495
 31
0.0
  0
LINE
  5
17BC0
  8
1CENTER
 10
-18.22719183602953
 20
-2137.771720550495
 30
0.0
 11
-26.22719183602953
 21
-2137.771720550495
 31
0.0
  0
LINE
  5
17BC1
  8
1CENTER
 10
-22.22719183602953
 20
-2141.771720550495
 30
0.0
 11
-22.22719183602953
 21
-2133.771720550495
 31
0.0
  0
LINE
  5
17BC2
  8
1CENTER
 10
172.77180816397049
 20
-2137.771720550495
 30
0.0
 11
164.77180816397049
 21
-2137.771720550495
 31
0.0
  0
LINE
  5
17BC3
  8
1CENTER
 10
168.77180816397049
 20
-2141.771720550495
 30
0.0
 11
168.77180816397049
 21
-2133.771720550495
 31
0.0
  0
LINE
  5
17BC4
  8
1CENTER
 10
363.77080816397051
 20
-2137.7717205482591
 30
0.0
 11
355.77080816397051
 21
-2137.7717205482591
 31
0.0
  0
LINE
  5
17BC5
  8
1CENTER
 10
359.77080816397051
 20
-2141.7717205482591
 30
0.0
 11
359.77080816397051
 21
-2133.7717205482591
 31
0.0
  0
LINE
  5
17BC6
  8
1CENTER
 10
554.76980816397054
 20
-2137.7717205482591
 30
0.0
 11
546.76980816397054
 21
-2137.7717205482591
 31
0.0
  0
LINE
  5
17BC7
  8
1CENTER
 10
550.76980816397054
 20
-2141.7717205482591
 30
0.0
 11
550.76980816397054
 21
-2133.7717205482591
 31
0.0
  0
LINE
  5
17BC8
  8
1CENTER
 10
745.76880816397045
 20
-2137.7717205482591
 30
0.0
 11
737.76880816397045
 21
-2137.7717205482591
 31
0.0
  0
LINE
  5
17BC9
  8
1CENTER
 10
741.76880816397045
 20
-2141.7717205482591
 30
0.0
 11
741.76880816397045
 21
-2133.7717205482591
 31
0.0
  0
LINE
  5
17BCA
  8
1CENTER
 10
936.76780816397059
 20
-2137.7717205482591
 30
0.0
 11
928.76780816397059
 21
-2137.7717205482591
 31
0.0
  0
LINE
  5
17BCB
  8
1CENTER
 10
932.76780816397047
 20
-2141.7717205482591
 30
0.0
 11
932.76780816397047
 21
-2133.7717205482591
 31
0.0
  0
LINE
  5
17BCC
  8
01
 10
1161.2758081639699
 20
-2127.0216570887392
 30
0.0
 11
1161.2758081639699
 21
-2147.5216570887378
 31
0.0
  0
LINE
  5
17BCD
  8
01
 10
-633.72419183602949
 20
-2127.2716570887392
 30
0.0
 11
-633.72419183602949
 21
-2147.7716570887378
 31
0.0
  0
LINE
  5
17BCE
  8
01
  6
BYBLOCK
 10
1203.7758081639699
 20
-2128.2716570887369
 30
0.0
 11
1203.7758081639699
 21
-2146.2716570887369
 31
0.0
  0
LINE
  5
17BCF
  8
1PHANTOM
 10
1204.7758081639711
 20
-2128.2716570887369
 30
0.0
 11
1204.7758081639699
 21
-2146.2716570887369
 31
0.0
  0
ARC
  5
17BD0
  8
1PHANTOM
 10
1205.5258081639699
 20
-2128.2716570887369
 30
0.0
 40
0.75
 50
90.0
 51
180.0
  0
ARC
  5
17BD1
  8
01
  6
BYBLOCK
 10
1205.5258081639699
 20
-2128.2716570887369
 30
0.0
 40
1.75
 50
90.0
 51
180.0
  0
LINE
  5
17BD2
  8
1PHANTOM
 10
1209.2758081639699
 20
-2128.0716570887371
 30
0.0
 11
1209.2758081639699
 21
-2132.2716570887392
 31
0.0
  0
LINE
  5
17BD3
  8
01
  6
BYBLOCK
 10
1212.0754975770751
 20
-2148.0216570887378
 30
0.0
 11
1205.5258081639699
 21
-2148.0216570887378
 31
0.0
  0
LINE
  5
17BD4
  8
1PHANTOM
 10
1208.72580816397
 20
-2147.0216570887369
 30
0.0
 11
1205.5258081639699
 21
-2147.0216570887369
 31
0.0
  0
ARC
  5
17BD5
  8
01
  6
BYBLOCK
 10
1205.5258081639699
 20
-2146.2716570887369
 30
0.0
 40
1.75
 50
180.0
 51
270.0
  0
ARC
  5
17BD6
  8
1PHANTOM
 10
1205.5258081639699
 20
-2146.2716570887369
 30
0.0
 40
0.75
 50
180.0
 51
270.0
  0
LINE
  5
17BD7
  8
01
  6
BYBLOCK
 10
1212.0754975770751
 20
-2126.5216570887369
 30
0.0
 11
1205.5258081639699
 21
-2126.5216570887369
 31
0.0
  0
LINE
  5
17BD8
  8
1PHANTOM
 10
1208.72580816397
 20
-2127.5216570887369
 30
0.0
 11
1205.5258081639699
 21
-2127.5216570887369
 31
0.0
  0
ARC
  5
17BD9
  8
1PHANTOM
 10
1208.72580816397
 20
-2128.0716570887371
 30
0.0
 40
0.55
 50
0.0
 51
90.0
  0
LINE
  5
17BDA
  8
1PHANTOM
 10
1209.2758081639699
 20
-2140.7716570887378
 30
0.0
 11
1209.2758081639699
 21
-2142.4177232520128
 31
0.0
  0
LINE
  5
17BDB
  8
1PHANTOM
 10
1209.2758081639711
 20
-2143.6103350460221
 30
0.0
 11
1209.2758081639711
 21
-2146.4716570887372
 31
0.0
  0
ARC
  5
17BDC
  8
1PHANTOM
 10
1208.72580816397
 20
-2146.4716570887372
 30
0.0
 40
0.55
 50
270.0
 51
0.0
  0
LINE
  5
17BDD
  8
1PHANTOM
 10
1210.0258081639699
 20
-2133.7716570887369
 30
0.0
 11
1210.0258081639699
 21
-2140.7716570887378
 31
0.0
  0
LINE
  5
17BDE
  8
1PHANTOM
 10
1210.0258081639699
 20
-2140.7716570887378
 30
0.0
 11
1209.2758081639699
 21
-2140.7716570887378
 31
0.0
  0
ARC
  5
17BDF
  8
01
  6
BYBLOCK
 10
1207.0258081639699
 20
-2129.771772873788
 30
0.0
 40
6.2499999999999432
 50
0.0
 51
28.573191877216569
  0
ARC
  5
17BE0
  8
01
  6
BYBLOCK
 10
1212.0754975770751
 20
-2127.0216570887378
 30
0.0
 40
0.5
 50
28.573191877245701
 51
90.0
  0
ARC
  5
17BE1
  8
01
  6
BYBLOCK
 10
1207.0258081639699
 20
-2144.7715413036872
 30
0.0
 40
6.2499999999999432
 50
331.42680812275432
 51
0.0
  0
ARC
  5
17BE2
  8
01
  6
BYBLOCK
 10
1212.0754975770751
 20
-2147.5216570887369
 30
0.0
 40
0.5
 50
270.0
 51
331.42680812275432
  0
LINE
  5
17BE3
  8
01
  6
BYBLOCK
 10
1213.5258081639699
 20
-2128.7716570887392
 30
0.0
 11
1213.5258081639699
 21
-2146.771635972264
 31
0.0
  0
LINE
  5
17BE4
  8
1PHANTOM
 10
1212.5258081639699
 20
-2141.5216570887392
 30
0.0
 11
1212.5258081639699
 21
-2144.771593627433
 31
0.0
  0
ARC
  5
17BE5
  8
1PHANTOM
 10
1211.5258081639699
 20
-2144.771593627433
 30
0.0
 40
1.0
 50
269.99878692278338
 51
0.0
  0
LINE
  5
17BE6
  8
1PHANTOM
 10
1208.5258081639711
 20
-2142.2717728737871
 30
0.0
 11
1206.3258081639699
 21
-2142.271772873788
 31
0.0
  0
ARC
  5
17BE7
  8
1PHANTOM
 10
1206.3258081639699
 20
-2142.5717728737882
 30
0.0
 40
0.3
 50
90.0
 51
180.0
  0
ARC
  5
17BE8
  8
1PHANTOM
 10
1208.5258081639711
 20
-2144.2717728737871
 30
0.0
 40
2.0
 50
0.0
 51
90.0
  0
LINE
  5
17BE9
  8
1PHANTOM
 10
1208.5258081639711
 20
-2143.271772873788
 30
0.0
 11
1208.400072232683
 21
-2143.271772873788
 31
0.0
  0
ARC
  5
17BEA
  8
1PHANTOM
 10
1208.5258081639711
 20
-2144.271772873788
 30
0.0
 40
1.0
 50
0.0
 51
90.0
  0
LINE
  5
17BEB
  8
1PHANTOM
 10
1206.6515440952589
 20
-2143.271772873788
 30
0.0
 11
1206.3258081639699
 21
-2143.271772873788
 31
0.0
  0
ARC
  5
17BEC
  8
1PHANTOM
 10
1206.6515440952589
 20
-2143.5717728737882
 30
0.0
 40
0.3
 50
45.000000000009209
 51
90.0
  0
LINE
  5
17BED
  8
1PHANTOM
 10
1207.6515440952589
 20
-2143.7717728737871
 30
0.0
 11
1207.4000722326821
 21
-2143.771772873788
 31
0.0
  0
ARC
  5
17BEE
  8
1PHANTOM
 10
1207.6515440952589
 20
-2143.4717728737869
 30
0.0
 40
0.3
 50
270.0
 51
314.99999999995401
  0
ARC
  5
17BEF
  8
1PHANTOM
 10
1207.0258081639699
 20
-2129.6717728737881
 30
0.0
 40
0.9
 50
303.74898859454788
 51
165.00000000000551
  0
LINE
  5
17BF0
  8
1PHANTOM
 10
1207.5258081639699
 20
-2130.4201043511812
 30
0.0
 11
1207.5258081639711
 21
-2130.7716570887401
 31
0.0
  0
LINE
  5
17BF1
  8
1PHANTOM
 10
1208.1879401983269
 20
-2143.3596408394319
 30
0.0
 11
1207.863676129615
 21
-2143.6839049081441
 31
0.0
  0
ARC
  5
17BF2
  8
1PHANTOM
 10
1208.400072232683
 20
-2143.5717728737882
 30
0.0
 40
0.3
 50
90.0
 51
134.99999999999079
  0
LINE
  5
17BF3
  8
1PHANTOM
 10
1207.187940198326
 20
-2143.6839049081441
 30
0.0
 11
1206.8636761296141
 21
-2143.3596408394319
 31
0.0
  0
ARC
  5
17BF4
  8
1PHANTOM
 10
1207.4000722326821
 20
-2143.4717728737878
 30
0.0
 40
0.3
 50
224.9999999999724
 51
270.0000000000652
  0
LINE
  5
17BF5
  8
01
  6
BYBLOCK
 10
1212.94713996734
 20
-2146.77162372059
 30
0.0
 11
1213.5258081639699
 21
-2146.771635972264
 31
0.0
  0
LINE
  5
17BF6
  8
01
  6
BYBLOCK
 10
1211.5257869917789
 20
-2145.7715936272079
 30
0.0
 11
1211.5257869917789
 21
-2145.7715936272079
 31
0.0
  0
LINE
  5
17BF7
  8
1PHANTOM
 10
1206.0258081639711
 20
-2130.3214481994778
 30
0.0
 11
1206.0258081639699
 21
-2130.7716570887378
 31
0.0
  0
ARC
  5
17BF8
  8
1PHANTOM
 10
1209.0258081639711
 20
-2130.3214481994778
 30
0.0
 40
3.0
 50
165.00000000000551
 51
180.0
  0
LINE
  5
17BF9
  8
1PHANTOM
 10
1206.0258081639711
 20
-2142.9717728737878
 30
0.0
 11
1206.0258081639711
 21
-2142.5717728737882
 31
0.0
  0
ARC
  5
17BFA
  8
1PHANTOM
 10
1206.3258081639699
 20
-2142.9717728737878
 30
0.0
 40
0.3
 50
180.0
 51
270.0
  0
LINE
  5
17BFB
  8
1PHANTOM
 10
1206.1564749203101
 20
-2129.438835733195
 30
0.0
 11
1206.1280306851031
 21
-2129.5449910641719
 31
0.0
  0
LINE
  5
17BFC
  8
1PHANTOM
 10
1209.5258081639711
 20
-2145.771572455465
 30
0.0
 11
1209.5258081639711
 21
-2144.271772873788
 31
0.0
  0
ARC
  5
17BFD
  8
1PHANTOM
 10
1210.5258081639711
 20
-2145.771572455465
 30
0.0
 40
1.0
 50
180.0
 51
269.99878692278338
  0
LINE
  5
17BFE
  8
1PHANTOM
 10
1210.5258081639711
 20
-2145.2715936272079
 30
0.0
 11
1210.5258081639711
 21
-2144.2717728737871
 31
0.0
  0
ARC
  5
17BFF
  8
1PHANTOM
 10
1212.0258081639699
 20
-2141.5216570887392
 30
0.0
 40
0.5
 50
0.0
 51
90.0
  0
LINE
  5
17C00
  8
1PHANTOM
 10
1210.3144832985649
 20
-2132.2716570887392
 30
0.0
 11
1209.0258081639699
 21
-2132.2716570887392
 31
0.0
  0
ARC
  5
17C01
  8
1PHANTOM
 10
1210.3144832985649
 20
-2131.0216570887392
 30
0.0
 40
1.25
 50
270.0
 51
329.99999999999949
  0
LINE
  5
17C02
  8
1PHANTOM
 10
1210.5258081639711
 20
-2133.7716570887392
 30
0.0
 11
1209.0258081639699
 21
-2133.7716570887392
 31
0.0
  0
ARC
  5
17C03
  8
1PHANTOM
 10
1209.0258081639699
 20
-2130.7716570887392
 30
0.0
 40
3.0
 50
180.0
 51
270.0
  0
ARC
  5
17C04
  8
1PHANTOM
 10
1209.0258081639699
 20
-2130.7716570887392
 30
0.0
 40
1.5
 50
180.0
 51
270.0
  0
LINE
  5
17C05
  8
1PHANTOM
 10
1211.3970150532959
 20
-2131.6466570887392
 30
0.0
 11
1213.056897077216
 21
-2128.7716570887392
 31
0.0
  0
LINE
  5
17C06
  8
01
  6
BYBLOCK
 10
1213.195270735094
 20
-2128.7716570887392
 30
0.0
 11
1213.5258081639699
 21
-2128.7716570887392
 31
0.0
  0
LINE
  5
17C07
  8
01
  6
BYBLOCK
 10
1211.5258081639699
 20
-2141.0216570887392
 30
0.0
 11
1212.7758081639699
 21
-2139.7716570887401
 31
0.0
  0
LINE
  5
17C08
  8
1PHANTOM
 10
1211.5258081639699
 20
-2141.0216570887392
 30
0.0
 11
1212.0258081639699
 21
-2141.0216570887401
 31
0.0
  0
LINE
  5
17C09
  8
1PHANTOM
 10
1211.5257869917789
 20
-2145.7715936272079
 30
0.0
 11
1211.0258081639711
 21
-2145.7715936272079
 31
0.0
  0
ARC
  5
17C0A
  8
1PHANTOM
 10
1211.0258081639711
 20
-2145.2715936272079
 30
0.0
 40
0.5
 50
180.0
 51
270.0
  0
LINE
  5
17C0B
  8
1PHANTOM
 10
1210.0258081639699
 20
-2135.3216570887371
 30
0.0
 11
1210.0258081639699
 21
-2135.5216570887369
 31
0.0
  0
ARC
  5
17C0C
  8
1PHANTOM
 10
1207.0258081639711
 20
-2137.5216570887378
 30
0.0
 40
1.0
 50
180.0
 51
270.0
  0
ARC
  5
17C0D
  8
1PHANTOM
 10
1209.7258081639709
 20
-2135.3216570887371
 30
0.0
 40
0.3
 50
359.99999999997402
 51
90.0
  0
LINE
  5
17C0E
  8
1PHANTOM
 10
1205.0258081639711
 20
-2128.271772873788
 30
0.0
 11
1205.0258081639699
 21
-2146.271772873788
 31
0.0
  0
LINE
  5
17C0F
  8
1PHANTOM
 10
1206.0258081639699
 20
-2137.0216570887369
 30
0.0
 11
1206.0258081639699
 21
-2137.5216570887378
 31
0.0
  0
ARC
  5
17C10
  8
1PHANTOM
 10
1205.5258081639711
 20
-2128.271772873788
 30
0.0
 40
0.5
 50
90.0
 51
180.0
  0
LINE
  5
17C11
  8
1PHANTOM
 10
1206.0258081639699
 20
-2129.771772873788
 30
0.0
 11
1206.0258081639699
 21
-2134.0216570887369
 31
0.0
  0
ARC
  5
17C12
  8
1PHANTOM
 10
1207.0258081639699
 20
-2134.0216570887369
 30
0.0
 40
1.0
 50
180.0
 51
270.0
  0
LINE
  5
17C13
  8
1PHANTOM
 10
1206.0258081639711
 20
-2140.5216570887369
 30
0.0
 11
1206.0258081639711
 21
-2144.1646660926021
 31
0.0
  0
ARC
  5
17C14
  8
1PHANTOM
 10
1206.5258081639711
 20
-2144.1646660926021
 30
0.0
 40
0.5
 50
180.0
 51
315.00000000002763
  0
LINE
  5
17C15
  8
1PHANTOM
 10
1209.0258081639699
 20
-2128.271772873788
 30
0.0
 11
1209.0258081639699
 21
-2130.9717728737878
 31
0.0
  0
ARC
  5
17C16
  8
1PHANTOM
 10
1207.0258081639711
 20
-2140.5216570887369
 30
0.0
 40
1.0
 50
89.999999999986969
 51
180.0
  0
LINE
  5
17C17
  8
1PHANTOM
 10
1207.7258081639709
 20
-2146.771772873788
 30
0.0
 11
1205.5258081639699
 21
-2146.771772873788
 31
0.0
  0
ARC
  5
17C18
  8
1PHANTOM
 10
1208.72580816397
 20
-2130.9717728737878
 30
0.0
 40
0.3
 50
270.0
 51
0.0
  0
ARC
  5
17C19
  8
1PHANTOM
 10
1205.5258081639699
 20
-2146.271772873788
 30
0.0
 40
0.5
 50
180.0
 51
270.0
  0
ARC
  5
17C1A
  8
1PHANTOM
 10
1208.5258081639699
 20
-2128.271772873788
 30
0.0
 40
0.5
 50
0.0
 51
90.0
  0
LINE
  5
17C1B
  8
1PHANTOM
 10
1208.5258081639699
 20
-2127.771772873788
 30
0.0
 11
1205.5258081639711
 21
-2127.771772873788
 31
0.0
  0
LINE
  5
17C1C
  8
1PHANTOM
 10
1210.0258081639699
 20
-2135.5216570887369
 30
0.0
 11
1209.5258081639699
 21
-2136.0216570887378
 31
0.0
  0
LINE
  5
17C1D
  8
1PHANTOM
 10
1209.5258081639711
 20
-2136.0216570887369
 30
0.0
 11
1207.0258081639699
 21
-2136.0216570887369
 31
0.0
  0
ARC
  5
17C1E
  8
1PHANTOM
 10
1207.0258081639699
 20
-2137.0216570887369
 30
0.0
 40
1.0
 50
89.999999999986969
 51
180.0
  0
LINE
  5
17C1F
  8
1PHANTOM
 10
1209.72580816397
 20
-2135.0216570887369
 30
0.0
 11
1207.0258081639711
 21
-2135.0216570887369
 31
0.0
  0
LINE
  5
17C20
  8
1PHANTOM
 10
1208.0015440952591
 20
-2143.5717728737882
 30
0.0
 11
1207.9500722326829
 21
-2143.5717728737882
 31
0.0
  0
ARC
  5
17C21
  8
1PHANTOM
 10
1208.0015440952591
 20
-2143.8717728737879
 30
0.0
 40
0.3
 50
45.000000000009209
 51
90.0
  0
LINE
  5
17C22
  8
1PHANTOM
 10
1208.3687013827839
 20
-2145.021772873788
 30
0.0
 11
1208.0258081639699
 21
-2145.021772873788
 31
0.0
  0
ARC
  5
17C23
  8
1PHANTOM
 10
1208.3687013827839
 20
-2144.521772873788
 30
0.0
 40
0.5
 50
270.0
 51
45.000000000009209
  0
ARC
  5
17C24
  8
1PHANTOM
 10
1207.0258081639699
 20
-2129.771772873788
 30
0.0
 40
1.0
 50
0.0
 51
180.0
  0
LINE
  5
17C25
  8
1PHANTOM
 10
1208.3258081639699
 20
-2131.271772873788
 30
0.0
 11
1208.72580816397
 21
-2131.271772873788
 31
0.0
  0
ARC
  5
17C26
  8
1PHANTOM
 10
1208.3258081639699
 20
-2130.9717728737878
 30
0.0
 40
0.3
 50
180.0
 51
269.99999999998698
  0
LINE
  5
17C27
  8
1PHANTOM
 10
1208.0258081639699
 20
-2129.771772873788
 30
0.0
 11
1208.0258081639711
 21
-2130.9717728737878
 31
0.0
  0
LINE
  5
17C28
  8
1PHANTOM
 10
1206.879361554564
 20
-2144.518219483195
 30
0.0
 11
1207.7379401983269
 21
-2143.6596408394321
 31
0.0
  0
ARC
  5
17C29
  8
1PHANTOM
 10
1207.9500722326829
 20
-2143.8717728737879
 30
0.0
 40
0.3
 50
90.0
 51
135.0000000000276
  0
LINE
  5
17C2A
  8
1PHANTOM
 10
1208.213676129614
 20
-2143.6596408394321
 30
0.0
 11
1208.7222547733779
 21
-2144.1682194831951
 31
0.0
  0
LINE
  5
17C2B
  8
1PHANTOM
 10
1210.0258081639699
 20
-2139.2216570887372
 30
0.0
 11
1210.0258081639699
 21
-2139.0216570887378
 31
0.0
  0
LINE
  5
17C2C
  8
1PHANTOM
 10
1209.5258081639711
 20
-2138.5216570887369
 30
0.0
 11
1207.0258081639711
 21
-2138.5216570887369
 31
0.0
  0
LINE
  5
17C2D
  8
1PHANTOM
 10
1210.0258081639699
 20
-2139.0216570887378
 30
0.0
 11
1209.5258081639699
 21
-2138.5216570887369
 31
0.0
  0
LINE
  5
17C2E
  8
1PHANTOM
 10
1209.7258081639709
 20
-2139.5216570887369
 30
0.0
 11
1207.0258081639711
 21
-2139.5216570887369
 31
0.0
  0
ARC
  5
17C2F
  8
1PHANTOM
 10
1209.7258081639709
 20
-2139.2216570887372
 30
0.0
 40
0.3
 50
270.0
 51
0.0
  0
LINE
  5
17C30
  8
1PHANTOM
 10
1208.0258081639699
 20
-2145.021772873788
 30
0.0
 11
1208.0258081639699
 21
-2146.4717728737878
 31
0.0
  0
ARC
  5
17C31
  8
1PHANTOM
 10
1207.7258081639709
 20
-2146.4717728737878
 30
0.0
 40
0.3
 50
270.0
 51
0.0
  0
LINE
  5
17C32
  8
01
 10
1213.2758081639699
 20
-2129.771772873788
 30
0.0
 11
1213.2758081639699
 21
-2144.7715413036872
 31
0.0
  0
LINE
  5
17C33
  8
1PHANTOM
 10
1213.195270735094
 20
-2128.7716570887392
 30
0.0
 11
1213.056897077216
 21
-2128.7716570887392
 31
0.0
  0
LINE
  5
17C34
  8
1PHANTOM
 10
1210.5257869917789
 20
-2146.7715724552409
 30
0.0
 11
1212.94713996734
 21
-2146.7715724552409
 31
0.0
  0
LINE
  5
17C3D
  8
01
 10
1222.5258081639699
 20
-2097.5508058220012
 30
0.0
 11
1222.5258081639699
 21
-2177.5508058219998
 31
0.0
  0
LINE
  5
17C3E
  8
01
 10
1231.5258081639699
 20
-2097.5508058220012
 30
0.0
 11
1231.5258081639699
 21
-2177.5508058219998
 31
0.0
  0
LINE
  5
17C3F
  8
01
 10
1213.5258081639699
 20
-2097.5508058220012
 30
0.0
 11
1213.5258081639699
 21
-2177.5508058219998
 31
0.0
  0
LINE
  5
17C44
  8
01
 10
1152.2758081639699
 20
-2073.1359125527561
 30
0.0
 11
-624.72419183602983
 21
-2073.1359125527561
 31
0.0
  0
LINE
  5
17C45
  8
01
 10
1152.2758081639699
 20
-2073.6048236395168
 30
0.0
 11
-624.72419183602983
 21
-2073.604823639509
 31
0.0
  0
LINE
  5
17C46
  8
01
 10
1161.2758081639699
 20
-2081.6359125527588
 30
0.0
 11
-633.72419183602983
 21
-2081.6359125527551
 31
0.0
  0
LINE
  5
17C47
  8
01
 10
1152.2758081639699
 20
-2077.6359125527511
 30
0.0
 11
-633.72419183602983
 21
-2077.635912552757
 31
0.0
  0
LINE
  5
17C48
  8
01
 10
1152.2758081639699
 20
-2077.6359125527561
 30
0.0
 11
1152.2758081639699
 21
-2073.1359125527561
 31
0.0
  0
LINE
  5
17C49
  8
01
 10
-624.72419183602983
 20
-2077.6359125527561
 30
0.0
 11
-624.72419183602983
 21
-2073.1359125527561
 31
0.0
  0
LINE
  5
17C4A
  8
01
 10
1153.2758081639699
 20
-2076.6359125527561
 30
0.0
 11
1152.2758081639699
 21
-2076.6359125527561
 31
0.0
  0
LINE
  5
17C4B
  8
01
 10
-624.72419183602983
 20
-2076.6359125527561
 30
0.0
 11
-625.72419183602949
 21
-2076.6359125527561
 31
0.0
  0
LINE
  5
17C4C
  8
01
 10
1163.7758081639699
 20
-2081.7859125527561
 30
0.0
 11
1163.7758081639699
 21
-2074.3859125527561
 31
0.0
  0
ARC
  5
17C4D
  8
01
 10
1162.7758081639699
 20
-2081.7859125527561
 30
0.0
 40
1.0
 50
270.0
 51
0.0
  0
LINE
  5
17C4E
  8
01
 10
1153.2758081639711
 20
-2073.3859125527561
 30
0.0
 11
1162.7758081639699
 21
-2073.3859125527561
 31
0.0
  0
ARC
  5
17C4F
  8
01
 10
1162.7758081639699
 20
-2074.3859125527561
 30
0.0
 40
1.0
 50
0.0
 51
90.0
  0
LINE
  5
17C50
  8
01
 10
1161.2758081639699
 20
-2082.2859125527561
 30
0.0
 11
1161.2758081639699
 21
-2077.485912552756
 31
0.0
  0
LINE
  5
17C51
  8
01
 10
1153.2758081639699
 20
-2076.985912552756
 30
0.0
 11
1153.2758081639699
 21
-2073.3859125527561
 31
0.0
  0
LINE
  5
17C52
  8
01
 10
1153.7758081639699
 20
-2077.485912552756
 30
0.0
 11
1161.2758081639699
 21
-2077.485912552756
 31
0.0
  0
ARC
  5
17C53
  8
01
 10
1153.7758081639699
 20
-2076.985912552756
 30
0.0
 40
0.5
 50
180.0
 51
270.0
  0
LINE
  5
17C54
  8
01
 10
1161.7758081639699
 20
-2082.7859125527561
 30
0.0
 11
1162.7758081639699
 21
-2082.7859125527561
 31
0.0
  0
ARC
  5
17C55
  8
01
 10
1161.7758081639699
 20
-2082.2859125527561
 30
0.0
 40
0.5
 50
180.0
 51
270.0
  0
LINE
  5
17C56
  8
01
 10
-636.2241918360296
 20
-2081.7859125527561
 30
0.0
 11
-636.2241918360296
 21
-2074.3859125527561
 31
0.0
  0
ARC
  5
17C57
  8
01
 10
-635.2241918360296
 20
-2081.7859125527561
 30
0.0
 40
1.0
 50
180.0
 51
270.0
  0
LINE
  5
17C58
  8
01
 10
-625.72419183602995
 20
-2073.3859125527561
 30
0.0
 11
-635.2241918360296
 21
-2073.3859125527561
 31
0.0
  0
ARC
  5
17C59
  8
01
 10
-635.2241918360296
 20
-2074.3859125527561
 30
0.0
 40
1.0
 50
90.0
 51
180.0
  0
LINE
  5
17C5A
  8
01
 10
-633.72419183602949
 20
-2082.2859125527561
 30
0.0
 11
-633.72419183602949
 21
-2077.485912552756
 31
0.0
  0
LINE
  5
17C5B
  8
01
 10
-625.72419183602949
 20
-2076.985912552756
 30
0.0
 11
-625.72419183602949
 21
-2073.3859125527561
 31
0.0
  0
LINE
  5
17C5C
  8
01
 10
-626.22419183602949
 20
-2077.485912552756
 30
0.0
 11
-633.72419183602949
 21
-2077.485912552756
 31
0.0
  0
ARC
  5
17C5D
  8
01
 10
-626.22419183602949
 20
-2076.985912552756
 30
0.0
 40
0.5
 50
270.0
 51
0.0
  0
LINE
  5
17C5E
  8
01
 10
-634.22419183602949
 20
-2082.7859125527561
 30
0.0
 11
-635.2241918360296
 21
-2082.7859125527561
 31
0.0
  0
ARC
  5
17C5F
  8
01
 10
-634.22419183602949
 20
-2082.2859125527561
 30
0.0
 40
0.5
 50
270.0
 51
0.0
  0
TEXT
  5
17C6A
  8
1TEXT
 10
1182.5740862905709
 20
-2042.8390868548181
 30
0.0
 40
8.0
  1
KC04-180
  0
TEXT
  5
17C6B
  8
1TEXT
 10
1189.326467242952
 20
-2053.3390868548181
 30
0.0
 40
4.0
  1
表面処理：
 72
     1
 11
1199.974086290571
 21
-2053.3390868548181
 31
0.0
  0
TEXT
  5
17C6C
  8
1TEXT
 10
1183.174086290571
 20
-2060.174375514342
 30
0.0
 40
4.0
  1
ブラストシルバー
 41
0.9
 72
     1
 11
1199.974086290571
 21
-2060.174375514342
 31
0.0
  0
LINE
  5
17C6D
  8
1DIM
 10
1182.5740862905709
 20
-2047.8390868548181
 30
0.0
 11
1252.5740862905709
 21
-2047.8390868548181
 31
0.0
  0
LINE
  5
17C6E
  8
1DIM
 10
1182.5740862905709
 20
-2061.8390868548172
 30
0.0
 11
1252.5740862905709
 21
-2061.8390868548172
 31
0.0
  0
LINE
  5
17C6F
  8
1DIM
 10
1182.5740862905709
 20
-2054.8390868548181
 30
0.0
 11
1252.5740862905709
 21
-2054.8390868548181
 31
0.0
  0
LINE
  5
17C70
  8
1DIM
 10
1217.5740862905709
 20
-2047.8390868548181
 30
0.0
 11
1217.5740862905709
 21
-2061.8390868548181
 31
0.0
  0
TEXT
  5
17C71
  8
1TEXT
 10
1218.9740862905719
 20
-2060.553443838467
 30
0.0
 40
4.0
  1
KC04SC180
 72
     1
 11
1234.9740862905719
 21
-2060.553443838467
 31
0.0
  0
TEXT
  5
17C72
  8
1TEXT
 10
1228.1740862905719
 20
-2053.3390868548181
 30
0.0
 40
4.0
  1
コード
 72
     1
 11
1234.9740862905719
 21
-2053.3390868548181
 31
0.0
  0
LINE
  5
17C73
  8
1DIM
 10
1252.5740862905709
 20
-2061.8390868548181
 30
0.0
 11
1252.5740862905709
 21
-2047.8390868548181
 31
0.0
  0
LINE
  5
17C74
  8
1DIM
 10
1182.5740862905709
 20
-2047.8390868548181
 30
0.0
 11
1182.5740862905709
 21
-2061.8390868548181
 31
0.0
  0
LINE
  5
17F5F
  8
1DIM
 10
1251.930297458244
 20
-2137.7716587499999
 30
0.0
 11
1256.6345229222491
 21
-2137.7716587499999
 31
0.0
  0
LINE
  5
17F60
  8
1DIM
 10
1212.0754975770751
 20
-2126.5216570887369
 30
0.0
 11
1256.6345229222491
 21
-2126.5216570887369
 31
0.0
  0
LINE
  5
17F61
  8
1DIM
 10
1255.63452292225
 20
-2135.771658749999
 30
0.0
 11
1255.63452292225
 21
-2128.5216570887378
 31
0.0
  0
LINE
  5
17F62
  8
1DIM
 10
1255.63452292225
 20
-2126.5216570887369
 30
0.0
 11
1255.63452292225
 21
-2112.9549904220712
 31
0.0
  0
TEXT
  5
17F66
  8
1DIM
 10
1167.3017159752669
 20
-2107.3386556229998
 30
0.0
 40
3.5
  1
材質：亜鉛ダイキャスト
  0
TEXT
  5
17F67
  8
1DIM
 10
1167.3017159752669
 20
-2113.1719889563328
 30
0.0
 40
3.5
  1
仕上げ：クローム
  0
SOLID
  5
17F68
  8
1DIM
 10
1163.27094277487
 20
-2124.8966838265269
 30
0.0
 11
1162.642188976092
 21
-2126.824319625021
 31
0.0
 12
1162.611776905155
 22
-2124.7969602052208
 32
0.0
 13
1162.611776905155
 23
-2124.7969602052208
 33
0.0
  0
LINE
  5
17F6A
  8
1DIM1
 10
-636.22419183602983
 20
-2147.2716570887378
 30
0.0
 11
-636.22419183602983
 21
-2204.004384405825
 31
0.0
  0
LINE
  5
17F6B
  8
1DIM1
 10
-595.2241918360296
 20
-2141.771720550495
 30
0.0
 11
-595.2241918360296
 21
-2204.004384405825
 31
0.0
  0
LINE
  5
17F6C
  8
1DIM1
 10
-626.22419183602983
 20
-2199.0043844058241
 30
0.0
 11
-605.22419183602949
 21
-2199.0043844058241
 31
0.0
  0
LINE
  5
17F70
  8
1DIM1
 10
1122.7758081639699
 20
-2141.7717205527301
 30
0.0
 11
1122.7758081639699
 21
-2204.0043844080601
 31
0.0
  0
LINE
  5
17F71
  8
1DIM1
 10
1163.7758081639699
 20
-2147.0216570887378
 30
0.0
 11
1163.7758081639699
 21
-2204.0043844080601
 31
0.0
  0
LINE
  5
17F72
  8
1DIM1
 10
1132.7758081639699
 20
-2199.0043844080601
 30
0.0
 11
1153.7758081639699
 21
-2199.0043844080601
 31
0.0
  0
LINE
  5
17F77
  8
1CENTER
 10
1122.7758081639699
 20
-2034.6814163621179
 30
0.0
 11
1122.7758081639699
 21
-2077.5145494094932
 31
0.0
  0
LINE
  5
17F78
  8
0
 10
1120.775854699868
 20
-2051.2359078993818
 30
0.0
 11
1124.775854699868
 21
-2050.4359172065592
 31
0.0
  0
LINE
  5
17F79
  8
0
 10
1124.775854699868
 20
-2050.4359172065592
 30
0.0
 11
1124.275854699868
 21
-2050.3359160431619
 31
0.0
  0
LINE
  5
17F7A
  8
0
 10
1121.696769297077
 20
-2039.948678465342
 30
0.0
 11
1121.2286708419269
 21
-2039.835908952992
 31
0.0
  0
LINE
  5
17F7B
  8
0
 10
1123.6438194388511
 20
-2037.4359145725459
 30
0.0
 11
1123.0555428638079
 21
-2037.1241447162929
 31
0.0
  0
LINE
  5
17F7C
  8
0
 10
1122.1386561906061
 20
-2038.3873458030371
 30
0.0
 11
1121.6814843499751
 21
-2038.235910006596
 31
0.0
  0
LINE
  5
17F7D
  8
0
 10
1124.096633543257
 20
-2039.0359156261511
 30
0.0
 11
1123.5448840794541
 21
-2038.8531514835231
 31
0.0
  0
LINE
  5
17F7E
  8
0
 10
1121.6814843499751
 20
-2038.235910006596
 30
0.0
 11
1123.6438194388511
 21
-2037.4359145725459
 31
0.0
  0
LINE
  5
17F7F
  8
0
 10
1121.2286708419269
 20
-2039.835908952992
 30
0.0
 11
1124.096633543257
 21
-2039.0359156261511
 31
0.0
  0
LINE
  5
17F80
  8
0
 10
1120.775854699868
 20
-2049.6359078993819
 30
0.0
 11
1124.775854699868
 21
-2048.8359172065589
 31
0.0
  0
LINE
  5
17F81
  8
0
 10
1120.775854699868
 20
-2048.035907899382
 30
0.0
 11
1124.775854699868
 21
-2047.235917206559
 31
0.0
  0
LINE
  5
17F82
  8
0
 10
1121.275854699868
 20
-2048.1359090627789
 30
0.0
 11
1120.775854699868
 21
-2048.035907899382
 31
0.0
  0
LINE
  5
17F83
  8
0
 10
1124.775854699868
 20
-2047.235917206559
 30
0.0
 11
1124.275854699868
 21
-2047.1359160431621
 31
0.0
  0
LINE
  5
17F84
  8
0
 10
1124.775854699868
 20
-2048.8359172065589
 30
0.0
 11
1124.275854699868
 21
-2048.735916043162
 31
0.0
  0
LINE
  5
17F85
  8
0
 10
1124.549447647664
 20
-2040.6359166797561
 30
0.0
 11
1124.012853912393
 21
-2040.5066459821271
 31
0.0
  0
LINE
  5
17F86
  8
0
 10
1120.775854699868
 20
-2041.4359078993821
 30
0.0
 11
1124.549447647664
 21
-2040.6359166797561
 31
0.0
  0
LINE
  5
17F87
  8
0
 10
1121.275854699868
 20
-2041.535909062779
 30
0.0
 11
1120.775854699868
 21
-2041.4359078993821
 31
0.0
  0
LINE
  5
17F88
  8
0
 10
1121.275854699868
 20
-2049.7359090627788
 30
0.0
 11
1120.775854699868
 21
-2049.6359078993819
 31
0.0
  0
LINE
  5
17F89
  8
0
 10
1120.775854699868
 20
-2054.4359078993821
 30
0.0
 11
1124.775854699868
 21
-2053.635917206559
 31
0.0
  0
LINE
  5
17F8A
  8
0
 10
1120.775854699868
 20
-2052.8359078993822
 30
0.0
 11
1124.775854699868
 21
-2052.0359172065591
 31
0.0
  0
LINE
  5
17F8B
  8
0
 10
1121.275854699868
 20
-2051.3359090627791
 30
0.0
 11
1120.775854699868
 21
-2051.2359078993818
 31
0.0
  0
LINE
  5
17F8C
  8
0
 10
1121.275854699868
 20
-2052.935909062779
 30
0.0
 11
1120.775854699868
 21
-2052.8359078993822
 31
0.0
  0
LINE
  5
17F8D
  8
0
 10
1124.775854699868
 20
-2052.0359172065591
 30
0.0
 11
1124.275854699868
 21
-2051.9359160431618
 31
0.0
  0
LINE
  5
17F8E
  8
0
 10
1124.775854699868
 20
-2053.635917206559
 30
0.0
 11
1124.275854699868
 21
-2053.5359160431622
 31
0.0
  0
LINE
  5
17F8F
  8
0
 10
1121.275854699868
 20
-2054.535909062779
 30
0.0
 11
1120.775854699868
 21
-2054.4359078993821
 31
0.0
  0
LINE
  5
17F90
  8
0
 10
1124.775854699868
 20
-2045.635917206559
 30
0.0
 11
1124.275854699868
 21
-2045.5359160431619
 31
0.0
  0
LINE
  5
17F91
  8
0
 10
1120.775854699868
 20
-2046.4359078993821
 30
0.0
 11
1124.775854699868
 21
-2045.635917206559
 31
0.0
  0
LINE
  5
17F92
  8
0
 10
1121.275854699868
 20
-2046.535909062779
 30
0.0
 11
1120.775854699868
 21
-2046.4359078993821
 31
0.0
  0
LINE
  5
17F93
  8
0
 10
1120.775854699868
 20
-2044.8359078993819
 30
0.0
 11
1124.775854699868
 21
-2044.0359172065589
 31
0.0
  0
LINE
  5
17F94
  8
0
 10
1124.775854699868
 20
-2044.0359172065589
 30
0.0
 11
1124.275854699868
 21
-2043.935916043162
 31
0.0
  0
LINE
  5
17F95
  8
0
 10
1121.275854699868
 20
-2044.935909062779
 30
0.0
 11
1120.775854699868
 21
-2044.8359078993819
 31
0.0
  0
LINE
  5
17F96
  8
0
 10
1124.775854699868
 20
-2042.435917206559
 30
0.0
 11
1124.275854699868
 21
-2042.3359160431619
 31
0.0
  0
LINE
  5
17F97
  8
0
 10
1120.775854699868
 20
-2043.235907899382
 30
0.0
 11
1124.775854699868
 21
-2042.435917206559
 31
0.0
  0
LINE
  5
17F98
  8
0
 10
1121.275854699868
 20
-2043.3359090627789
 30
0.0
 11
1120.775854699868
 21
-2043.235907899382
 31
0.0
  0
LINE
  5
17F99
  8
0
 10
1122.7758081639699
 20
-2073.2359218600532
 30
0.0
 11
1124.775854699868
 21
-2072.835917206573
 31
0.0
  0
LINE
  5
17F9A
  8
0
 10
1120.775854699868
 20
-2064.0359078993911
 30
0.0
 11
1124.775854699868
 21
-2063.235917206568
 31
0.0
  0
LINE
  5
17F9B
  8
0
 10
1120.775854699868
 20
-2060.8359078993822
 30
0.0
 11
1124.775854699868
 21
-2060.0359172065641
 31
0.0
  0
LINE
  5
17F9C
  8
0
 10
1124.775854699868
 20
-2071.235917206568
 30
0.0
 11
1124.275854699868
 21
-2071.1359160431712
 31
0.0
  0
LINE
  5
17F9D
  8
0
 10
1124.775854699868
 20
-2072.835917206573
 30
0.0
 11
1124.275854699868
 21
-2072.7359160431752
 31
0.0
  0
LINE
  5
17F9E
  8
0
 10
1121.275854699868
 20
-2072.135909062788
 30
0.0
 11
1120.775854699868
 21
-2072.0359078993902
 31
0.0
  0
LINE
  5
17F9F
  8
0
 10
1120.775854699868
 20
-2072.0359078993902
 30
0.0
 11
1124.775854699868
 21
-2071.235917206568
 31
0.0
  0
LINE
  5
17FA0
  8
0
 10
1121.275854699868
 20
-2070.5359090627881
 30
0.0
 11
1120.775854699868
 21
-2070.4359078993912
 31
0.0
  0
LINE
  5
17FA1
  8
0
 10
1124.775854699868
 20
-2069.6359172065681
 30
0.0
 11
1124.275854699868
 21
-2069.5359160431708
 31
0.0
  0
LINE
  5
17FA2
  8
0
 10
1124.775854699868
 20
-2068.0359172065678
 30
0.0
 11
1124.275854699868
 21
-2067.9359160431709
 31
0.0
  0
LINE
  5
17FA3
  8
0
 10
1121.275854699868
 20
-2068.9359090627881
 30
0.0
 11
1120.775854699868
 21
-2068.8359078993908
 31
0.0
  0
LINE
  5
17FA4
  8
0
 10
1121.275854699868
 20
-2067.3359090627878
 30
0.0
 11
1120.775854699868
 21
-2067.23590789939
 31
0.0
  0
LINE
  5
17FA5
  8
0
 10
1120.775854699868
 20
-2068.8359078993908
 30
0.0
 11
1124.775854699868
 21
-2068.0359172065678
 31
0.0
  0
LINE
  5
17FA6
  8
0
 10
1120.775854699868
 20
-2070.4359078993912
 30
0.0
 11
1124.775854699868
 21
-2069.6359172065681
 31
0.0
  0
LINE
  5
17FA7
  8
0
 10
1121.275854699868
 20
-2065.7359090627879
 30
0.0
 11
1120.775854699868
 21
-2065.635907899391
 31
0.0
  0
LINE
  5
17FA8
  8
0
 10
1124.775854699868
 20
-2064.835917206568
 30
0.0
 11
1124.275854699868
 21
-2064.7359160431711
 31
0.0
  0
LINE
  5
17FA9
  8
0
 10
1124.775854699868
 20
-2063.235917206568
 30
0.0
 11
1124.275854699868
 21
-2063.1359160431712
 31
0.0
  0
LINE
  5
17FAA
  8
0
 10
1121.275854699868
 20
-2064.1359090627871
 30
0.0
 11
1120.775854699868
 21
-2064.0359078993911
 31
0.0
  0
LINE
  5
17FAB
  8
0
 10
1120.775854699868
 20
-2065.635907899391
 30
0.0
 11
1124.775854699868
 21
-2064.835917206568
 31
0.0
  0
LINE
  5
17FAC
  8
0
 10
1124.775854699868
 20
-2066.4359172065679
 30
0.0
 11
1124.275854699868
 21
-2066.335916043171
 31
0.0
  0
LINE
  5
17FAD
  8
0
 10
1120.775854699868
 20
-2067.23590789939
 30
0.0
 11
1124.775854699868
 21
-2066.4359172065679
 31
0.0
  0
LINE
  5
17FAE
  8
0
 10
1120.775854699868
 20
-2062.4359078993862
 30
0.0
 11
1124.775854699868
 21
-2061.6359172065681
 31
0.0
  0
LINE
  5
17FAF
  8
0
 10
1120.775854699868
 20
-2057.6359078993819
 30
0.0
 11
1124.775854699868
 21
-2056.8359172065639
 31
0.0
  0
LINE
  5
17FB0
  8
0
 10
1120.775854699868
 20
-2056.035907899382
 30
0.0
 11
1124.775854699868
 21
-2055.235917206559
 31
0.0
  0
LINE
  5
17FB1
  8
0
 10
1121.275854699868
 20
-2056.1359090627798
 30
0.0
 11
1120.775854699868
 21
-2056.035907899382
 31
0.0
  0
LINE
  5
17FB2
  8
0
 10
1124.775854699868
 20
-2056.8359172065639
 30
0.0
 11
1124.275854699868
 21
-2056.7359160431661
 31
0.0
  0
LINE
  5
17FB3
  8
0
 10
1124.775854699868
 20
-2055.235917206559
 30
0.0
 11
1124.275854699868
 21
-2055.1359160431621
 31
0.0
  0
LINE
  5
17FB4
  8
0
 10
1124.775854699868
 20
-2060.0359172065641
 30
0.0
 11
1124.275854699868
 21
-2059.9359160431659
 31
0.0
  0
LINE
  5
17FB5
  8
0
 10
1121.275854699868
 20
-2059.33590906278
 30
0.0
 11
1120.775854699868
 21
-2059.2359078993818
 31
0.0
  0
LINE
  5
17FB6
  8
0
 10
1124.775854699868
 20
-2058.4359172065642
 30
0.0
 11
1124.275854699868
 21
-2058.335916043166
 31
0.0
  0
LINE
  5
17FB7
  8
0
 10
1120.775854699868
 20
-2059.2359078993818
 30
0.0
 11
1124.775854699868
 21
-2058.4359172065642
 31
0.0
  0
LINE
  5
17FB8
  8
0
 10
1121.275854699868
 20
-2057.7359090627801
 30
0.0
 11
1120.775854699868
 21
-2057.6359078993819
 31
0.0
  0
LINE
  5
17FB9
  8
0
 10
1124.775854699868
 20
-2061.6359172065681
 30
0.0
 11
1124.275854699868
 21
-2061.5359160431708
 31
0.0
  0
LINE
  5
17FBA
  8
0
 10
1121.275854699868
 20
-2060.935909062779
 30
0.0
 11
1120.775854699868
 21
-2060.8359078993822
 31
0.0
  0
LINE
  5
17FBB
  8
0
 10
1121.275854699868
 20
-2062.535909062784
 30
0.0
 11
1120.775854699868
 21
-2062.4359078993862
 31
0.0
  0
LINE
  5
17FBC
  8
0
 10
1118.7758081639699
 20
-2075.8359032455751
 30
0.0
 11
1126.7758081639699
 21
-2075.8359218599348
 31
0.0
  0
LINE
  5
17FBE
  8
1CENTER
 10
-595.2241918360296
 20
-2034.6814163621179
 30
0.0
 11
-595.2241918360296
 21
-2077.5145494094932
 31
0.0
  0
LINE
  5
17FBF
  8
0
 10
-597.22414530013157
 20
-2051.2359078993818
 30
0.0
 11
-593.22414530013157
 21
-2050.4359172065601
 31
0.0
  0
LINE
  5
17FC0
  8
0
 10
-593.22414530013157
 20
-2050.4359172065601
 30
0.0
 11
-593.72414530013157
 21
-2050.3359160431628
 31
0.0
  0
LINE
  5
17FC1
  8
0
 10
-596.30323070292286
 20
-2039.9486784653429
 30
0.0
 11
-596.77132915807294
 21
-2039.835908952992
 31
0.0
  0
LINE
  5
17FC2
  8
0
 10
-594.35618056114924
 20
-2037.4359145725459
 30
0.0
 11
-594.94445713619155
 21
-2037.124144716294
 31
0.0
  0
LINE
  5
17FC3
  8
0
 10
-595.86134380939347
 20
-2038.3873458030371
 30
0.0
 11
-596.31851565002455
 21
-2038.235910006596
 31
0.0
  0
LINE
  5
17FC4
  8
0
 10
-593.90336645674245
 20
-2039.0359156261511
 30
0.0
 11
-594.45511592054572
 21
-2038.8531514835231
 31
0.0
  0
LINE
  5
17FC5
  8
0
 10
-596.31851565002455
 20
-2038.235910006596
 30
0.0
 11
-594.35618056114924
 21
-2037.4359145725459
 31
0.0
  0
LINE
  5
17FC6
  8
0
 10
-596.77132915807294
 20
-2039.835908952992
 30
0.0
 11
-593.90336645674245
 21
-2039.0359156261511
 31
0.0
  0
LINE
  5
17FC7
  8
0
 10
-597.22414530013157
 20
-2049.6359078993819
 30
0.0
 11
-593.22414530013157
 21
-2048.8359172065589
 31
0.0
  0
LINE
  5
17FC8
  8
0
 10
-597.22414530013157
 20
-2048.035907899382
 30
0.0
 11
-593.22414530013157
 21
-2047.2359172065601
 31
0.0
  0
LINE
  5
17FC9
  8
0
 10
-596.72414530013157
 20
-2048.1359090627789
 30
0.0
 11
-597.22414530013157
 21
-2048.035907899382
 31
0.0
  0
LINE
  5
17FCA
  8
0
 10
-593.22414530013157
 20
-2047.2359172065601
 30
0.0
 11
-593.72414530013157
 21
-2047.135916043163
 31
0.0
  0
LINE
  5
17FCB
  8
0
 10
-593.22414530013157
 20
-2048.8359172065589
 30
0.0
 11
-593.72414530013157
 21
-2048.7359160431629
 31
0.0
  0
LINE
  5
17FCC
  8
0
 10
-593.45055235233565
 20
-2040.635916679757
 30
0.0
 11
-593.98714608760679
 21
-2040.5066459821271
 31
0.0
  0
LINE
  5
17FCD
  8
0
 10
-597.22414530013157
 20
-2041.4359078993821
 30
0.0
 11
-593.45055235233565
 21
-2040.635916679757
 31
0.0
  0
LINE
  5
17FCE
  8
0
 10
-596.72414530013157
 20
-2041.5359090627801
 30
0.0
 11
-597.22414530013157
 21
-2041.4359078993821
 31
0.0
  0
LINE
  5
17FCF
  8
0
 10
-596.72414530013157
 20
-2049.7359090627801
 30
0.0
 11
-597.22414530013157
 21
-2049.6359078993819
 31
0.0
  0
LINE
  5
17FD0
  8
0
 10
-597.22414530013157
 20
-2054.435907899383
 30
0.0
 11
-593.22414530013157
 21
-2053.63591720656
 31
0.0
  0
LINE
  5
17FD1
  8
0
 10
-597.22414530013157
 20
-2052.8359078993822
 30
0.0
 11
-593.22414530013157
 21
-2052.03591720656
 31
0.0
  0
LINE
  5
17FD2
  8
0
 10
-596.72414530013157
 20
-2051.33590906278
 30
0.0
 11
-597.22414530013157
 21
-2051.2359078993818
 31
0.0
  0
LINE
  5
17FD3
  8
0
 10
-596.72414530013157
 20
-2052.93590906278
 30
0.0
 11
-597.22414530013157
 21
-2052.8359078993822
 31
0.0
  0
LINE
  5
17FD4
  8
0
 10
-593.22414530013157
 20
-2052.03591720656
 30
0.0
 11
-593.72414530013157
 21
-2051.9359160431632
 31
0.0
  0
LINE
  5
17FD5
  8
0
 10
-593.22414530013157
 20
-2053.63591720656
 30
0.0
 11
-593.72414530013157
 21
-2053.5359160431631
 31
0.0
  0
LINE
  5
17FD6
  8
0
 10
-596.72414530013157
 20
-2054.5359090627799
 30
0.0
 11
-597.22414530013157
 21
-2054.435907899383
 31
0.0
  0
LINE
  5
17FD7
  8
0
 10
-593.22414530013157
 20
-2045.63591720656
 30
0.0
 11
-593.72414530013157
 21
-2045.5359160431631
 31
0.0
  0
LINE
  5
17FD8
  8
0
 10
-597.22414530013157
 20
-2046.435907899383
 30
0.0
 11
-593.22414530013157
 21
-2045.63591720656
 31
0.0
  0
LINE
  5
17FD9
  8
0
 10
-596.72414530013157
 20
-2046.5359090627801
 30
0.0
 11
-597.22414530013157
 21
-2046.435907899383
 31
0.0
  0
LINE
  5
17FDA
  8
0
 10
-597.22414530013157
 20
-2044.8359078993819
 30
0.0
 11
-593.22414530013157
 21
-2044.03591720656
 31
0.0
  0
LINE
  5
17FDB
  8
0
 10
-593.22414530013157
 20
-2044.03591720656
 30
0.0
 11
-593.72414530013157
 21
-2043.935916043162
 31
0.0
  0
LINE
  5
17FDC
  8
0
 10
-596.72414530013157
 20
-2044.935909062779
 30
0.0
 11
-597.22414530013157
 21
-2044.8359078993819
 31
0.0
  0
LINE
  5
17FDD
  8
0
 10
-593.22414530013157
 20
-2042.4359172065599
 30
0.0
 11
-593.72414530013157
 21
-2042.335916043163
 31
0.0
  0
LINE
  5
17FDE
  8
0
 10
-597.22414530013157
 20
-2043.235907899382
 30
0.0
 11
-593.22414530013157
 21
-2042.4359172065599
 31
0.0
  0
LINE
  5
17FDF
  8
0
 10
-596.72414530013157
 20
-2043.3359090627789
 30
0.0
 11
-597.22414530013157
 21
-2043.235907899382
 31
0.0
  0
LINE
  5
17FE0
  8
0
 10
-595.2241918360296
 20
-2073.2359218600532
 30
0.0
 11
-593.22414530013157
 21
-2072.835917206573
 31
0.0
  0
LINE
  5
17FE1
  8
0
 10
-597.22414530013157
 20
-2064.0359078993911
 30
0.0
 11
-593.22414530013157
 21
-2063.235917206569
 31
0.0
  0
LINE
  5
17FE2
  8
0
 10
-597.22414530013157
 20
-2060.8359078993822
 30
0.0
 11
-593.22414530013157
 21
-2060.0359172065641
 31
0.0
  0
LINE
  5
17FE3
  8
0
 10
-593.22414530013157
 20
-2071.235917206569
 30
0.0
 11
-593.72414530013157
 21
-2071.1359160431712
 31
0.0
  0
LINE
  5
17FE4
  8
0
 10
-593.22414530013157
 20
-2072.835917206573
 30
0.0
 11
-593.72414530013157
 21
-2072.7359160431752
 31
0.0
  0
LINE
  5
17FE5
  8
0
 10
-596.72414530013157
 20
-2072.1359090627889
 30
0.0
 11
-597.22414530013157
 21
-2072.0359078993911
 31
0.0
  0
LINE
  5
17FE6
  8
0
 10
-597.22414530013157
 20
-2072.0359078993911
 30
0.0
 11
-593.22414530013157
 21
-2071.235917206569
 31
0.0
  0
LINE
  5
17FE7
  8
0
 10
-596.72414530013157
 20
-2070.5359090627881
 30
0.0
 11
-597.22414530013157
 21
-2070.4359078993912
 31
0.0
  0
LINE
  5
17FE8
  8
0
 10
-593.22414530013157
 20
-2069.635917206569
 30
0.0
 11
-593.72414530013157
 21
-2069.5359160431722
 31
0.0
  0
LINE
  5
17FE9
  8
0
 10
-593.22414530013157
 20
-2068.0359172065678
 30
0.0
 11
-593.72414530013157
 21
-2067.9359160431709
 31
0.0
  0
LINE
  5
17FEA
  8
0
 10
-596.72414530013157
 20
-2068.9359090627881
 30
0.0
 11
-597.22414530013157
 21
-2068.8359078993908
 31
0.0
  0
LINE
  5
17FEB
  8
0
 10
-596.72414530013157
 20
-2067.3359090627878
 30
0.0
 11
-597.22414530013157
 21
-2067.2359078993909
 31
0.0
  0
LINE
  5
17FEC
  8
0
 10
-597.22414530013157
 20
-2068.8359078993908
 30
0.0
 11
-593.22414530013157
 21
-2068.0359172065678
 31
0.0
  0
LINE
  5
17FED
  8
0
 10
-597.22414530013157
 20
-2070.4359078993912
 30
0.0
 11
-593.22414530013157
 21
-2069.635917206569
 31
0.0
  0
LINE
  5
17FEE
  8
0
 10
-596.72414530013157
 20
-2065.7359090627888
 30
0.0
 11
-597.22414530013157
 21
-2065.635907899391
 31
0.0
  0
LINE
  5
17FEF
  8
0
 10
-593.22414530013157
 20
-2064.835917206568
 30
0.0
 11
-593.72414530013157
 21
-2064.735916043172
 31
0.0
  0
LINE
  5
17FF0
  8
0
 10
-593.22414530013157
 20
-2063.235917206569
 30
0.0
 11
-593.72414530013157
 21
-2063.1359160431712
 31
0.0
  0
LINE
  5
17FF1
  8
0
 10
-596.72414530013157
 20
-2064.135909062788
 30
0.0
 11
-597.22414530013157
 21
-2064.0359078993911
 31
0.0
  0
LINE
  5
17FF2
  8
0
 10
-597.22414530013157
 20
-2065.635907899391
 30
0.0
 11
-593.22414530013157
 21
-2064.835917206568
 31
0.0
  0
LINE
  5
17FF3
  8
0
 10
-593.22414530013157
 20
-2066.4359172065679
 30
0.0
 11
-593.72414530013157
 21
-2066.3359160431719
 31
0.0
  0
LINE
  5
17FF4
  8
0
 10
-597.22414530013157
 20
-2067.2359078993909
 30
0.0
 11
-593.22414530013157
 21
-2066.4359172065679
 31
0.0
  0
LINE
  5
17FF5
  8
0
 10
-597.22414530013157
 20
-2062.4359078993871
 30
0.0
 11
-593.22414530013157
 21
-2061.635917206569
 31
0.0
  0
LINE
  5
17FF6
  8
0
 10
-597.22414530013157
 20
-2057.6359078993828
 30
0.0
 11
-593.22414530013157
 21
-2056.8359172065639
 31
0.0
  0
LINE
  5
17FF7
  8
0
 10
-597.22414530013157
 20
-2056.035907899382
 30
0.0
 11
-593.22414530013157
 21
-2055.2359172065599
 31
0.0
  0
LINE
  5
17FF8
  8
0
 10
-596.72414530013157
 20
-2056.1359090627798
 30
0.0
 11
-597.22414530013157
 21
-2056.035907899382
 31
0.0
  0
LINE
  5
17FF9
  8
0
 10
-593.22414530013157
 20
-2056.8359172065639
 30
0.0
 11
-593.72414530013157
 21
-2056.7359160431661
 31
0.0
  0
LINE
  5
17FFA
  8
0
 10
-593.22414530013157
 20
-2055.2359172065599
 30
0.0
 11
-593.72414530013157
 21
-2055.135916043163
 31
0.0
  0
LINE
  5
17FFB
  8
0
 10
-593.22414530013157
 20
-2060.0359172065641
 30
0.0
 11
-593.72414530013157
 21
-2059.9359160431659
 31
0.0
  0
LINE
  5
17FFC
  8
0
 10
-596.72414530013157
 20
-2059.33590906278
 30
0.0
 11
-597.22414530013157
 21
-2059.2359078993818
 31
0.0
  0
LINE
  5
17FFD
  8
0
 10
-593.22414530013157
 20
-2058.4359172065642
 30
0.0
 11
-593.72414530013157
 21
-2058.3359160431669
 31
0.0
  0
LINE
  5
17FFE
  8
0
 10
-597.22414530013157
 20
-2059.2359078993818
 30
0.0
 11
-593.22414530013157
 21
-2058.4359172065642
 31
0.0
  0
LINE
  5
17FFF
  8
0
 10
-596.72414530013157
 20
-2057.7359090627801
 30
0.0
 11
-597.22414530013157
 21
-2057.6359078993828
 31
0.0
  0
LINE
  5
18000
  8
0
 10
-593.22414530013157
 20
-2061.635917206569
 30
0.0
 11
-593.72414530013157
 21
-2061.5359160431708
 31
0.0
  0
LINE
  5
18001
  8
0
 10
-596.72414530013157
 20
-2060.93590906278
 30
0.0
 11
-597.22414530013157
 21
-2060.8359078993822
 31
0.0
  0
LINE
  5
18002
  8
0
 10
-596.72414530013157
 20
-2062.5359090627849
 30
0.0
 11
-597.22414530013157
 21
-2062.4359078993871
 31
0.0
  0
LINE
  5
18003
  8
0
 10
-599.2241918360296
 20
-2075.835903245576
 30
0.0
 11
-591.2241918360296
 21
-2075.8359218599348
 31
0.0
  0
LINE
  5
18005
  8
1CENTER
 10
-213.2261918360295
 20
-2034.6814163621179
 30
0.0
 11
-213.2261918360295
 21
-2077.5145494094932
 31
0.0
  0
LINE
  5
18006
  8
0
 10
-215.22614530013161
 20
-2051.2359078993818
 30
0.0
 11
-211.22614530013161
 21
-2050.4359172065601
 31
0.0
  0
LINE
  5
18007
  8
0
 10
-211.22614530013161
 20
-2050.4359172065601
 30
0.0
 11
-211.72614530013161
 21
-2050.3359160431628
 31
0.0
  0
LINE
  5
18008
  8
0
 10
-214.3052307029229
 20
-2039.9486784653429
 30
0.0
 11
-214.7733291580729
 21
-2039.835908952992
 31
0.0
  0
LINE
  5
18009
  8
0
 10
-212.3581805611492
 20
-2037.4359145725459
 30
0.0
 11
-212.94645713619161
 21
-2037.124144716294
 31
0.0
  0
LINE
  5
1800A
  8
0
 10
-213.86334380939351
 20
-2038.3873458030371
 30
0.0
 11
-214.32051565002459
 21
-2038.235910006596
 31
0.0
  0
LINE
  5
1800B
  8
0
 10
-211.9053664567424
 20
-2039.0359156261511
 30
0.0
 11
-212.4571159205457
 21
-2038.8531514835231
 31
0.0
  0
LINE
  5
1800C
  8
0
 10
-214.32051565002459
 20
-2038.235910006596
 30
0.0
 11
-212.3581805611492
 21
-2037.4359145725459
 31
0.0
  0
LINE
  5
1800D
  8
0
 10
-214.7733291580729
 20
-2039.835908952992
 30
0.0
 11
-211.9053664567424
 21
-2039.0359156261511
 31
0.0
  0
LINE
  5
1800E
  8
0
 10
-215.22614530013161
 20
-2049.6359078993819
 30
0.0
 11
-211.22614530013161
 21
-2048.8359172065589
 31
0.0
  0
LINE
  5
1800F
  8
0
 10
-215.22614530013161
 20
-2048.035907899382
 30
0.0
 11
-211.22614530013161
 21
-2047.2359172065601
 31
0.0
  0
LINE
  5
18010
  8
0
 10
-214.72614530013161
 20
-2048.1359090627789
 30
0.0
 11
-215.22614530013161
 21
-2048.035907899382
 31
0.0
  0
LINE
  5
18011
  8
0
 10
-211.22614530013161
 20
-2047.2359172065601
 30
0.0
 11
-211.72614530013161
 21
-2047.135916043163
 31
0.0
  0
LINE
  5
18012
  8
0
 10
-211.22614530013161
 20
-2048.8359172065589
 30
0.0
 11
-211.72614530013161
 21
-2048.7359160431629
 31
0.0
  0
LINE
  5
18013
  8
0
 10
-211.4525523523356
 20
-2040.635916679757
 30
0.0
 11
-211.98914608760671
 21
-2040.5066459821271
 31
0.0
  0
LINE
  5
18014
  8
0
 10
-215.22614530013161
 20
-2041.4359078993821
 30
0.0
 11
-211.4525523523356
 21
-2040.635916679757
 31
0.0
  0
LINE
  5
18015
  8
0
 10
-214.72614530013161
 20
-2041.5359090627801
 30
0.0
 11
-215.22614530013161
 21
-2041.4359078993821
 31
0.0
  0
LINE
  5
18016
  8
0
 10
-214.72614530013161
 20
-2049.7359090627801
 30
0.0
 11
-215.22614530013161
 21
-2049.6359078993819
 31
0.0
  0
LINE
  5
18017
  8
0
 10
-215.22614530013161
 20
-2054.435907899383
 30
0.0
 11
-211.22614530013161
 21
-2053.63591720656
 31
0.0
  0
LINE
  5
18018
  8
0
 10
-215.22614530013161
 20
-2052.8359078993822
 30
0.0
 11
-211.22614530013161
 21
-2052.03591720656
 31
0.0
  0
LINE
  5
18019
  8
0
 10
-214.72614530013161
 20
-2051.33590906278
 30
0.0
 11
-215.22614530013161
 21
-2051.2359078993818
 31
0.0
  0
LINE
  5
1801A
  8
0
 10
-214.72614530013161
 20
-2052.93590906278
 30
0.0
 11
-215.22614530013161
 21
-2052.8359078993822
 31
0.0
  0
LINE
  5
1801B
  8
0
 10
-211.22614530013161
 20
-2052.03591720656
 30
0.0
 11
-211.72614530013161
 21
-2051.9359160431632
 31
0.0
  0
LINE
  5
1801C
  8
0
 10
-211.22614530013161
 20
-2053.63591720656
 30
0.0
 11
-211.72614530013161
 21
-2053.5359160431631
 31
0.0
  0
LINE
  5
1801D
  8
0
 10
-214.72614530013161
 20
-2054.5359090627799
 30
0.0
 11
-215.22614530013161
 21
-2054.435907899383
 31
0.0
  0
LINE
  5
1801E
  8
0
 10
-211.22614530013161
 20
-2045.63591720656
 30
0.0
 11
-211.72614530013161
 21
-2045.5359160431631
 31
0.0
  0
LINE
  5
1801F
  8
0
 10
-215.22614530013161
 20
-2046.435907899383
 30
0.0
 11
-211.22614530013161
 21
-2045.63591720656
 31
0.0
  0
LINE
  5
18020
  8
0
 10
-214.72614530013161
 20
-2046.5359090627801
 30
0.0
 11
-215.22614530013161
 21
-2046.435907899383
 31
0.0
  0
LINE
  5
18021
  8
0
 10
-215.22614530013161
 20
-2044.8359078993819
 30
0.0
 11
-211.22614530013161
 21
-2044.03591720656
 31
0.0
  0
LINE
  5
18022
  8
0
 10
-211.22614530013161
 20
-2044.03591720656
 30
0.0
 11
-211.72614530013161
 21
-2043.935916043162
 31
0.0
  0
LINE
  5
18023
  8
0
 10
-214.72614530013161
 20
-2044.935909062779
 30
0.0
 11
-215.22614530013161
 21
-2044.8359078993819
 31
0.0
  0
LINE
  5
18024
  8
0
 10
-211.22614530013161
 20
-2042.4359172065599
 30
0.0
 11
-211.72614530013161
 21
-2042.335916043163
 31
0.0
  0
LINE
  5
18025
  8
0
 10
-215.22614530013161
 20
-2043.235907899382
 30
0.0
 11
-211.22614530013161
 21
-2042.4359172065599
 31
0.0
  0
LINE
  5
18026
  8
0
 10
-214.72614530013161
 20
-2043.3359090627789
 30
0.0
 11
-215.22614530013161
 21
-2043.235907899382
 31
0.0
  0
LINE
  5
18027
  8
0
 10
-213.2261918360295
 20
-2073.2359218600532
 30
0.0
 11
-211.22614530013161
 21
-2072.835917206573
 31
0.0
  0
LINE
  5
18028
  8
0
 10
-215.22614530013161
 20
-2064.0359078993911
 30
0.0
 11
-211.22614530013161
 21
-2063.235917206569
 31
0.0
  0
LINE
  5
18029
  8
0
 10
-215.22614530013161
 20
-2060.8359078993822
 30
0.0
 11
-211.22614530013161
 21
-2060.0359172065641
 31
0.0
  0
LINE
  5
1802A
  8
0
 10
-211.22614530013161
 20
-2071.235917206569
 30
0.0
 11
-211.72614530013161
 21
-2071.1359160431712
 31
0.0
  0
LINE
  5
1802B
  8
0
 10
-211.22614530013161
 20
-2072.835917206573
 30
0.0
 11
-211.72614530013161
 21
-2072.7359160431752
 31
0.0
  0
LINE
  5
1802C
  8
0
 10
-214.72614530013161
 20
-2072.1359090627889
 30
0.0
 11
-215.22614530013161
 21
-2072.0359078993911
 31
0.0
  0
LINE
  5
1802D
  8
0
 10
-215.22614530013161
 20
-2072.0359078993911
 30
0.0
 11
-211.22614530013161
 21
-2071.235917206569
 31
0.0
  0
LINE
  5
1802E
  8
0
 10
-214.72614530013161
 20
-2070.5359090627881
 30
0.0
 11
-215.22614530013161
 21
-2070.4359078993912
 31
0.0
  0
LINE
  5
1802F
  8
0
 10
-211.22614530013161
 20
-2069.635917206569
 30
0.0
 11
-211.72614530013161
 21
-2069.5359160431722
 31
0.0
  0
LINE
  5
18030
  8
0
 10
-211.22614530013161
 20
-2068.0359172065678
 30
0.0
 11
-211.72614530013161
 21
-2067.9359160431709
 31
0.0
  0
LINE
  5
18031
  8
0
 10
-214.72614530013161
 20
-2068.9359090627881
 30
0.0
 11
-215.22614530013161
 21
-2068.8359078993908
 31
0.0
  0
LINE
  5
18032
  8
0
 10
-214.72614530013161
 20
-2067.3359090627878
 30
0.0
 11
-215.22614530013161
 21
-2067.2359078993909
 31
0.0
  0
LINE
  5
18033
  8
0
 10
-215.22614530013161
 20
-2068.8359078993908
 30
0.0
 11
-211.22614530013161
 21
-2068.0359172065678
 31
0.0
  0
LINE
  5
18034
  8
0
 10
-215.22614530013161
 20
-2070.4359078993912
 30
0.0
 11
-211.22614530013161
 21
-2069.635917206569
 31
0.0
  0
LINE
  5
18035
  8
0
 10
-214.72614530013161
 20
-2065.7359090627888
 30
0.0
 11
-215.22614530013161
 21
-2065.635907899391
 31
0.0
  0
LINE
  5
18036
  8
0
 10
-211.22614530013161
 20
-2064.835917206568
 30
0.0
 11
-211.72614530013161
 21
-2064.735916043172
 31
0.0
  0
LINE
  5
18037
  8
0
 10
-211.22614530013161
 20
-2063.235917206569
 30
0.0
 11
-211.72614530013161
 21
-2063.1359160431712
 31
0.0
  0
LINE
  5
18038
  8
0
 10
-214.72614530013161
 20
-2064.135909062788
 30
0.0
 11
-215.22614530013161
 21
-2064.0359078993911
 31
0.0
  0
LINE
  5
18039
  8
0
 10
-215.22614530013161
 20
-2065.635907899391
 30
0.0
 11
-211.22614530013161
 21
-2064.835917206568
 31
0.0
  0
LINE
  5
1803A
  8
0
 10
-211.22614530013161
 20
-2066.4359172065679
 30
0.0
 11
-211.72614530013161
 21
-2066.3359160431719
 31
0.0
  0
LINE
  5
1803B
  8
0
 10
-215.22614530013161
 20
-2067.2359078993909
 30
0.0
 11
-211.22614530013161
 21
-2066.4359172065679
 31
0.0
  0
LINE
  5
1803C
  8
0
 10
-215.22614530013161
 20
-2062.4359078993871
 30
0.0
 11
-211.22614530013161
 21
-2061.635917206569
 31
0.0
  0
LINE
  5
1803D
  8
0
 10
-215.22614530013161
 20
-2057.6359078993828
 30
0.0
 11
-211.22614530013161
 21
-2056.8359172065639
 31
0.0
  0
LINE
  5
1803E
  8
0
 10
-215.22614530013161
 20
-2056.035907899382
 30
0.0
 11
-211.22614530013161
 21
-2055.2359172065599
 31
0.0
  0
LINE
  5
1803F
  8
0
 10
-214.72614530013161
 20
-2056.1359090627798
 30
0.0
 11
-215.22614530013161
 21
-2056.035907899382
 31
0.0
  0
LINE
  5
18040
  8
0
 10
-211.22614530013161
 20
-2056.8359172065639
 30
0.0
 11
-211.72614530013161
 21
-2056.7359160431661
 31
0.0
  0
LINE
  5
18041
  8
0
 10
-211.22614530013161
 20
-2055.2359172065599
 30
0.0
 11
-211.72614530013161
 21
-2055.135916043163
 31
0.0
  0
LINE
  5
18042
  8
0
 10
-211.22614530013161
 20
-2060.0359172065641
 30
0.0
 11
-211.72614530013161
 21
-2059.9359160431659
 31
0.0
  0
LINE
  5
18043
  8
0
 10
-214.72614530013161
 20
-2059.33590906278
 30
0.0
 11
-215.22614530013161
 21
-2059.2359078993818
 31
0.0
  0
LINE
  5
18044
  8
0
 10
-211.22614530013161
 20
-2058.4359172065642
 30
0.0
 11
-211.72614530013161
 21
-2058.3359160431669
 31
0.0
  0
LINE
  5
18045
  8
0
 10
-215.22614530013161
 20
-2059.2359078993818
 30
0.0
 11
-211.22614530013161
 21
-2058.4359172065642
 31
0.0
  0
LINE
  5
18046
  8
0
 10
-214.72614530013161
 20
-2057.7359090627801
 30
0.0
 11
-215.22614530013161
 21
-2057.6359078993828
 31
0.0
  0
LINE
  5
18047
  8
0
 10
-211.22614530013161
 20
-2061.635917206569
 30
0.0
 11
-211.72614530013161
 21
-2061.5359160431708
 31
0.0
  0
LINE
  5
18048
  8
0
 10
-214.72614530013161
 20
-2060.93590906278
 30
0.0
 11
-215.22614530013161
 21
-2060.8359078993822
 31
0.0
  0
LINE
  5
18049
  8
0
 10
-214.72614530013161
 20
-2062.5359090627849
 30
0.0
 11
-215.22614530013161
 21
-2062.4359078993871
 31
0.0
  0
LINE
  5
1804A
  8
0
 10
-217.22619183602961
 20
-2075.835903245576
 30
0.0
 11
-209.2261918360295
 21
-2075.8359218599348
 31
0.0
  0
LINE
  5
1804C
  8
1CENTER
 10
-404.22519183602952
 20
-2034.6814163621179
 30
0.0
 11
-404.22519183602952
 21
-2077.5145494094932
 31
0.0
  0
LINE
  5
1804D
  8
0
 10
-406.2251453001316
 20
-2051.2359078993818
 30
0.0
 11
-402.2251453001316
 21
-2050.4359172065601
 31
0.0
  0
LINE
  5
1804E
  8
0
 10
-402.2251453001316
 20
-2050.4359172065601
 30
0.0
 11
-402.72514530013171
 21
-2050.3359160431628
 31
0.0
  0
LINE
  5
1804F
  8
0
 10
-405.30423070292289
 20
-2039.9486784653429
 30
0.0
 11
-405.77232915807292
 21
-2039.835908952992
 31
0.0
  0
LINE
  5
18050
  8
0
 10
-403.35718056114922
 20
-2037.4359145725459
 30
0.0
 11
-403.94545713619158
 21
-2037.124144716294
 31
0.0
  0
LINE
  5
18051
  8
0
 10
-404.86234380939351
 20
-2038.3873458030371
 30
0.0
 11
-405.31951565002458
 21
-2038.235910006596
 31
0.0
  0
LINE
  5
18052
  8
0
 10
-402.90436645674231
 20
-2039.0359156261511
 30
0.0
 11
-403.45611592054559
 21
-2038.8531514835231
 31
0.0
  0
LINE
  5
18053
  8
0
 10
-405.31951565002458
 20
-2038.235910006596
 30
0.0
 11
-403.35718056114922
 21
-2037.4359145725459
 31
0.0
  0
LINE
  5
18054
  8
0
 10
-405.77232915807292
 20
-2039.835908952992
 30
0.0
 11
-402.90436645674231
 21
-2039.0359156261511
 31
0.0
  0
LINE
  5
18055
  8
0
 10
-406.2251453001316
 20
-2049.6359078993819
 30
0.0
 11
-402.2251453001316
 21
-2048.8359172065589
 31
0.0
  0
LINE
  5
18056
  8
0
 10
-406.2251453001316
 20
-2048.035907899382
 30
0.0
 11
-402.2251453001316
 21
-2047.2359172065601
 31
0.0
  0
LINE
  5
18057
  8
0
 10
-405.7251453001316
 20
-2048.1359090627789
 30
0.0
 11
-406.2251453001316
 21
-2048.035907899382
 31
0.0
  0
LINE
  5
18058
  8
0
 10
-402.2251453001316
 20
-2047.2359172065601
 30
0.0
 11
-402.72514530013171
 21
-2047.135916043163
 31
0.0
  0
LINE
  5
18059
  8
0
 10
-402.2251453001316
 20
-2048.8359172065589
 30
0.0
 11
-402.72514530013171
 21
-2048.7359160431629
 31
0.0
  0
LINE
  5
1805A
  8
0
 10
-402.45155235233563
 20
-2040.635916679757
 30
0.0
 11
-402.98814608760671
 21
-2040.5066459821271
 31
0.0
  0
LINE
  5
1805B
  8
0
 10
-406.2251453001316
 20
-2041.4359078993821
 30
0.0
 11
-402.45155235233563
 21
-2040.635916679757
 31
0.0
  0
LINE
  5
1805C
  8
0
 10
-405.7251453001316
 20
-2041.5359090627801
 30
0.0
 11
-406.2251453001316
 21
-2041.4359078993821
 31
0.0
  0
LINE
  5
1805D
  8
0
 10
-405.7251453001316
 20
-2049.7359090627801
 30
0.0
 11
-406.2251453001316
 21
-2049.6359078993819
 31
0.0
  0
LINE
  5
1805E
  8
0
 10
-406.2251453001316
 20
-2054.435907899383
 30
0.0
 11
-402.2251453001316
 21
-2053.63591720656
 31
0.0
  0
LINE
  5
1805F
  8
0
 10
-406.2251453001316
 20
-2052.8359078993822
 30
0.0
 11
-402.2251453001316
 21
-2052.03591720656
 31
0.0
  0
LINE
  5
18060
  8
0
 10
-405.7251453001316
 20
-2051.33590906278
 30
0.0
 11
-406.2251453001316
 21
-2051.2359078993818
 31
0.0
  0
LINE
  5
18061
  8
0
 10
-405.7251453001316
 20
-2052.93590906278
 30
0.0
 11
-406.2251453001316
 21
-2052.8359078993822
 31
0.0
  0
LINE
  5
18062
  8
0
 10
-402.2251453001316
 20
-2052.03591720656
 30
0.0
 11
-402.72514530013171
 21
-2051.9359160431632
 31
0.0
  0
LINE
  5
18063
  8
0
 10
-402.2251453001316
 20
-2053.63591720656
 30
0.0
 11
-402.72514530013171
 21
-2053.5359160431631
 31
0.0
  0
LINE
  5
18064
  8
0
 10
-405.7251453001316
 20
-2054.5359090627799
 30
0.0
 11
-406.2251453001316
 21
-2054.435907899383
 31
0.0
  0
LINE
  5
18065
  8
0
 10
-402.2251453001316
 20
-2045.63591720656
 30
0.0
 11
-402.72514530013171
 21
-2045.5359160431631
 31
0.0
  0
LINE
  5
18066
  8
0
 10
-406.2251453001316
 20
-2046.435907899383
 30
0.0
 11
-402.2251453001316
 21
-2045.63591720656
 31
0.0
  0
LINE
  5
18067
  8
0
 10
-405.7251453001316
 20
-2046.5359090627801
 30
0.0
 11
-406.2251453001316
 21
-2046.435907899383
 31
0.0
  0
LINE
  5
18068
  8
0
 10
-406.2251453001316
 20
-2044.8359078993819
 30
0.0
 11
-402.2251453001316
 21
-2044.03591720656
 31
0.0
  0
LINE
  5
18069
  8
0
 10
-402.2251453001316
 20
-2044.03591720656
 30
0.0
 11
-402.72514530013171
 21
-2043.935916043162
 31
0.0
  0
LINE
  5
1806A
  8
0
 10
-405.7251453001316
 20
-2044.935909062779
 30
0.0
 11
-406.2251453001316
 21
-2044.8359078993819
 31
0.0
  0
LINE
  5
1806B
  8
0
 10
-402.2251453001316
 20
-2042.4359172065599
 30
0.0
 11
-402.72514530013171
 21
-2042.335916043163
 31
0.0
  0
LINE
  5
1806C
  8
0
 10
-406.2251453001316
 20
-2043.235907899382
 30
0.0
 11
-402.2251453001316
 21
-2042.4359172065599
 31
0.0
  0
LINE
  5
1806D
  8
0
 10
-405.7251453001316
 20
-2043.3359090627789
 30
0.0
 11
-406.2251453001316
 21
-2043.235907899382
 31
0.0
  0
LINE
  5
1806E
  8
0
 10
-404.22519183602952
 20
-2073.2359218600532
 30
0.0
 11
-402.2251453001316
 21
-2072.835917206573
 31
0.0
  0
LINE
  5
1806F
  8
0
 10
-406.2251453001316
 20
-2064.0359078993911
 30
0.0
 11
-402.2251453001316
 21
-2063.235917206569
 31
0.0
  0
LINE
  5
18070
  8
0
 10
-406.2251453001316
 20
-2060.8359078993822
 30
0.0
 11
-402.2251453001316
 21
-2060.0359172065641
 31
0.0
  0
LINE
  5
18071
  8
0
 10
-402.2251453001316
 20
-2071.235917206569
 30
0.0
 11
-402.72514530013171
 21
-2071.1359160431712
 31
0.0
  0
LINE
  5
18072
  8
0
 10
-402.2251453001316
 20
-2072.835917206573
 30
0.0
 11
-402.72514530013171
 21
-2072.7359160431752
 31
0.0
  0
LINE
  5
18073
  8
0
 10
-405.7251453001316
 20
-2072.1359090627889
 30
0.0
 11
-406.2251453001316
 21
-2072.0359078993911
 31
0.0
  0
LINE
  5
18074
  8
0
 10
-406.2251453001316
 20
-2072.0359078993911
 30
0.0
 11
-402.2251453001316
 21
-2071.235917206569
 31
0.0
  0
LINE
  5
18075
  8
0
 10
-405.7251453001316
 20
-2070.5359090627881
 30
0.0
 11
-406.2251453001316
 21
-2070.4359078993912
 31
0.0
  0
LINE
  5
18076
  8
0
 10
-402.2251453001316
 20
-2069.635917206569
 30
0.0
 11
-402.72514530013171
 21
-2069.5359160431722
 31
0.0
  0
LINE
  5
18077
  8
0
 10
-402.2251453001316
 20
-2068.0359172065678
 30
0.0
 11
-402.72514530013171
 21
-2067.9359160431709
 31
0.0
  0
LINE
  5
18078
  8
0
 10
-405.7251453001316
 20
-2068.9359090627881
 30
0.0
 11
-406.2251453001316
 21
-2068.8359078993908
 31
0.0
  0
LINE
  5
18079
  8
0
 10
-405.7251453001316
 20
-2067.3359090627878
 30
0.0
 11
-406.2251453001316
 21
-2067.2359078993909
 31
0.0
  0
LINE
  5
1807A
  8
0
 10
-406.2251453001316
 20
-2068.8359078993908
 30
0.0
 11
-402.2251453001316
 21
-2068.0359172065678
 31
0.0
  0
LINE
  5
1807B
  8
0
 10
-406.2251453001316
 20
-2070.4359078993912
 30
0.0
 11
-402.2251453001316
 21
-2069.635917206569
 31
0.0
  0
LINE
  5
1807C
  8
0
 10
-405.7251453001316
 20
-2065.7359090627888
 30
0.0
 11
-406.2251453001316
 21
-2065.635907899391
 31
0.0
  0
LINE
  5
1807D
  8
0
 10
-402.2251453001316
 20
-2064.835917206568
 30
0.0
 11
-402.72514530013171
 21
-2064.735916043172
 31
0.0
  0
LINE
  5
1807E
  8
0
 10
-402.2251453001316
 20
-2063.235917206569
 30
0.0
 11
-402.72514530013171
 21
-2063.1359160431712
 31
0.0
  0
LINE
  5
1807F
  8
0
 10
-405.7251453001316
 20
-2064.135909062788
 30
0.0
 11
-406.2251453001316
 21
-2064.0359078993911
 31
0.0
  0
LINE
  5
18080
  8
0
 10
-406.2251453001316
 20
-2065.635907899391
 30
0.0
 11
-402.2251453001316
 21
-2064.835917206568
 31
0.0
  0
LINE
  5
18081
  8
0
 10
-402.2251453001316
 20
-2066.4359172065679
 30
0.0
 11
-402.72514530013171
 21
-2066.3359160431719
 31
0.0
  0
LINE
  5
18082
  8
0
 10
-406.2251453001316
 20
-2067.2359078993909
 30
0.0
 11
-402.2251453001316
 21
-2066.4359172065679
 31
0.0
  0
LINE
  5
18083
  8
0
 10
-406.2251453001316
 20
-2062.4359078993871
 30
0.0
 11
-402.2251453001316
 21
-2061.635917206569
 31
0.0
  0
LINE
  5
18084
  8
0
 10
-406.2251453001316
 20
-2057.6359078993828
 30
0.0
 11
-402.2251453001316
 21
-2056.8359172065639
 31
0.0
  0
LINE
  5
18085
  8
0
 10
-406.2251453001316
 20
-2056.035907899382
 30
0.0
 11
-402.2251453001316
 21
-2055.2359172065599
 31
0.0
  0
LINE
  5
18086
  8
0
 10
-405.7251453001316
 20
-2056.1359090627798
 30
0.0
 11
-406.2251453001316
 21
-2056.035907899382
 31
0.0
  0
LINE
  5
18087
  8
0
 10
-402.2251453001316
 20
-2056.8359172065639
 30
0.0
 11
-402.72514530013171
 21
-2056.7359160431661
 31
0.0
  0
LINE
  5
18088
  8
0
 10
-402.2251453001316
 20
-2055.2359172065599
 30
0.0
 11
-402.72514530013171
 21
-2055.135916043163
 31
0.0
  0
LINE
  5
18089
  8
0
 10
-402.2251453001316
 20
-2060.0359172065641
 30
0.0
 11
-402.72514530013171
 21
-2059.9359160431659
 31
0.0
  0
LINE
  5
1808A
  8
0
 10
-405.7251453001316
 20
-2059.33590906278
 30
0.0
 11
-406.2251453001316
 21
-2059.2359078993818
 31
0.0
  0
LINE
  5
1808B
  8
0
 10
-402.2251453001316
 20
-2058.4359172065642
 30
0.0
 11
-402.72514530013171
 21
-2058.3359160431669
 31
0.0
  0
LINE
  5
1808C
  8
0
 10
-406.2251453001316
 20
-2059.2359078993818
 30
0.0
 11
-402.2251453001316
 21
-2058.4359172065642
 31
0.0
  0
LINE
  5
1808D
  8
0
 10
-405.7251453001316
 20
-2057.7359090627801
 30
0.0
 11
-406.2251453001316
 21
-2057.6359078993828
 31
0.0
  0
LINE
  5
1808E
  8
0
 10
-402.2251453001316
 20
-2061.635917206569
 30
0.0
 11
-402.72514530013171
 21
-2061.5359160431708
 31
0.0
  0
LINE
  5
1808F
  8
0
 10
-405.7251453001316
 20
-2060.93590906278
 30
0.0
 11
-406.2251453001316
 21
-2060.8359078993822
 31
0.0
  0
LINE
  5
18090
  8
0
 10
-405.7251453001316
 20
-2062.5359090627849
 30
0.0
 11
-406.2251453001316
 21
-2062.4359078993871
 31
0.0
  0
LINE
  5
18091
  8
0
 10
-408.22519183602952
 20
-2075.835903245576
 30
0.0
 11
-400.22519183602952
 21
-2075.8359218599348
 31
0.0
  0
LINE
  5
18093
  8
1CENTER
 10
-22.227191836029519
 20
-2034.6814163621179
 30
0.0
 11
-22.22719183602953
 21
-2077.5145494094932
 31
0.0
  0
LINE
  5
18094
  8
0
 10
-24.22714530013161
 20
-2051.2359078993818
 30
0.0
 11
-20.22714530013161
 21
-2050.4359172065592
 31
0.0
  0
LINE
  5
18095
  8
0
 10
-20.22714530013161
 20
-2050.4359172065592
 30
0.0
 11
-20.72714530013161
 21
-2050.3359160431619
 31
0.0
  0
LINE
  5
18096
  8
0
 10
-23.3062307029229
 20
-2039.948678465342
 30
0.0
 11
-23.77432915807287
 21
-2039.835908952992
 31
0.0
  0
LINE
  5
18097
  8
0
 10
-21.35918056114917
 20
-2037.4359145725459
 30
0.0
 11
-21.947457136191581
 21
-2037.1241447162929
 31
0.0
  0
LINE
  5
18098
  8
0
 10
-22.86434380939351
 20
-2038.3873458030371
 30
0.0
 11
-23.32151565002459
 21
-2038.235910006596
 31
0.0
  0
LINE
  5
18099
  8
0
 10
-20.906366456742369
 20
-2039.0359156261511
 30
0.0
 11
-21.458115920545652
 21
-2038.8531514835231
 31
0.0
  0
LINE
  5
1809A
  8
0
 10
-23.32151565002459
 20
-2038.235910006596
 30
0.0
 11
-21.35918056114917
 21
-2037.4359145725459
 31
0.0
  0
LINE
  5
1809B
  8
0
 10
-23.77432915807287
 20
-2039.835908952992
 30
0.0
 11
-20.906366456742369
 21
-2039.0359156261511
 31
0.0
  0
LINE
  5
1809C
  8
0
 10
-24.22714530013161
 20
-2049.6359078993819
 30
0.0
 11
-20.22714530013161
 21
-2048.8359172065589
 31
0.0
  0
LINE
  5
1809D
  8
0
 10
-24.22714530013161
 20
-2048.035907899382
 30
0.0
 11
-20.22714530013161
 21
-2047.235917206559
 31
0.0
  0
LINE
  5
1809E
  8
0
 10
-23.72714530013161
 20
-2048.1359090627789
 30
0.0
 11
-24.22714530013161
 21
-2048.035907899382
 31
0.0
  0
LINE
  5
1809F
  8
0
 10
-20.22714530013161
 20
-2047.235917206559
 30
0.0
 11
-20.7271453001316
 21
-2047.1359160431621
 31
0.0
  0
LINE
  5
180A0
  8
0
 10
-20.22714530013161
 20
-2048.8359172065589
 30
0.0
 11
-20.72714530013161
 21
-2048.735916043162
 31
0.0
  0
LINE
  5
180A1
  8
0
 10
-20.453552352335571
 20
-2040.6359166797561
 30
0.0
 11
-20.990146087606711
 21
-2040.5066459821271
 31
0.0
  0
LINE
  5
180A2
  8
0
 10
-24.2271453001316
 20
-2041.4359078993821
 30
0.0
 11
-20.453552352335571
 21
-2040.6359166797561
 31
0.0
  0
LINE
  5
180A3
  8
0
 10
-23.7271453001316
 20
-2041.535909062779
 30
0.0
 11
-24.2271453001316
 21
-2041.4359078993821
 31
0.0
  0
LINE
  5
180A4
  8
0
 10
-23.72714530013161
 20
-2049.7359090627788
 30
0.0
 11
-24.22714530013161
 21
-2049.6359078993819
 31
0.0
  0
LINE
  5
180A5
  8
0
 10
-24.22714530013161
 20
-2054.4359078993821
 30
0.0
 11
-20.22714530013161
 21
-2053.635917206559
 31
0.0
  0
LINE
  5
180A6
  8
0
 10
-24.22714530013161
 20
-2052.8359078993822
 30
0.0
 11
-20.22714530013161
 21
-2052.0359172065591
 31
0.0
  0
LINE
  5
180A7
  8
0
 10
-23.72714530013161
 20
-2051.3359090627791
 30
0.0
 11
-24.22714530013161
 21
-2051.2359078993818
 31
0.0
  0
LINE
  5
180A8
  8
0
 10
-23.72714530013161
 20
-2052.935909062779
 30
0.0
 11
-24.22714530013161
 21
-2052.8359078993822
 31
0.0
  0
LINE
  5
180A9
  8
0
 10
-20.22714530013161
 20
-2052.0359172065591
 30
0.0
 11
-20.72714530013161
 21
-2051.9359160431618
 31
0.0
  0
LINE
  5
180AA
  8
0
 10
-20.22714530013161
 20
-2053.635917206559
 30
0.0
 11
-20.72714530013161
 21
-2053.5359160431622
 31
0.0
  0
LINE
  5
180AB
  8
0
 10
-23.72714530013161
 20
-2054.535909062779
 30
0.0
 11
-24.22714530013161
 21
-2054.4359078993821
 31
0.0
  0
LINE
  5
180AC
  8
0
 10
-20.22714530013161
 20
-2045.635917206559
 30
0.0
 11
-20.7271453001316
 21
-2045.5359160431619
 31
0.0
  0
LINE
  5
180AD
  8
0
 10
-24.2271453001316
 20
-2046.4359078993821
 30
0.0
 11
-20.22714530013161
 21
-2045.635917206559
 31
0.0
  0
LINE
  5
180AE
  8
0
 10
-23.7271453001316
 20
-2046.535909062779
 30
0.0
 11
-24.2271453001316
 21
-2046.4359078993821
 31
0.0
  0
LINE
  5
180AF
  8
0
 10
-24.2271453001316
 20
-2044.8359078993819
 30
0.0
 11
-20.22714530013161
 21
-2044.0359172065589
 31
0.0
  0
LINE
  5
180B0
  8
0
 10
-20.22714530013161
 20
-2044.0359172065589
 30
0.0
 11
-20.7271453001316
 21
-2043.935916043162
 31
0.0
  0
LINE
  5
180B1
  8
0
 10
-23.7271453001316
 20
-2044.935909062779
 30
0.0
 11
-24.2271453001316
 21
-2044.8359078993819
 31
0.0
  0
LINE
  5
180B2
  8
0
 10
-20.22714530013161
 20
-2042.435917206559
 30
0.0
 11
-20.7271453001316
 21
-2042.3359160431619
 31
0.0
  0
LINE
  5
180B3
  8
0
 10
-24.2271453001316
 20
-2043.235907899382
 30
0.0
 11
-20.22714530013161
 21
-2042.435917206559
 31
0.0
  0
LINE
  5
180B4
  8
0
 10
-23.7271453001316
 20
-2043.3359090627789
 30
0.0
 11
-24.2271453001316
 21
-2043.235907899382
 31
0.0
  0
LINE
  5
180B5
  8
0
 10
-22.22719183602953
 20
-2073.2359218600532
 30
0.0
 11
-20.22714530013161
 21
-2072.835917206573
 31
0.0
  0
LINE
  5
180B6
  8
0
 10
-24.22714530013161
 20
-2064.0359078993911
 30
0.0
 11
-20.22714530013161
 21
-2063.235917206568
 31
0.0
  0
LINE
  5
180B7
  8
0
 10
-24.22714530013161
 20
-2060.8359078993822
 30
0.0
 11
-20.22714530013161
 21
-2060.0359172065641
 31
0.0
  0
LINE
  5
180B8
  8
0
 10
-20.22714530013161
 20
-2071.235917206568
 30
0.0
 11
-20.72714530013161
 21
-2071.1359160431712
 31
0.0
  0
LINE
  5
180B9
  8
0
 10
-20.22714530013161
 20
-2072.835917206573
 30
0.0
 11
-20.72714530013161
 21
-2072.7359160431752
 31
0.0
  0
LINE
  5
180BA
  8
0
 10
-23.72714530013161
 20
-2072.135909062788
 30
0.0
 11
-24.22714530013161
 21
-2072.0359078993902
 31
0.0
  0
LINE
  5
180BB
  8
0
 10
-24.22714530013161
 20
-2072.0359078993902
 30
0.0
 11
-20.22714530013161
 21
-2071.235917206568
 31
0.0
  0
LINE
  5
180BC
  8
0
 10
-23.72714530013161
 20
-2070.5359090627881
 30
0.0
 11
-24.22714530013161
 21
-2070.4359078993912
 31
0.0
  0
LINE
  5
180BD
  8
0
 10
-20.22714530013161
 20
-2069.6359172065681
 30
0.0
 11
-20.72714530013161
 21
-2069.5359160431708
 31
0.0
  0
LINE
  5
180BE
  8
0
 10
-20.22714530013161
 20
-2068.0359172065678
 30
0.0
 11
-20.72714530013161
 21
-2067.9359160431709
 31
0.0
  0
LINE
  5
180BF
  8
0
 10
-23.72714530013161
 20
-2068.9359090627881
 30
0.0
 11
-24.22714530013161
 21
-2068.8359078993908
 31
0.0
  0
LINE
  5
180C0
  8
0
 10
-23.72714530013161
 20
-2067.3359090627878
 30
0.0
 11
-24.22714530013161
 21
-2067.23590789939
 31
0.0
  0
LINE
  5
180C1
  8
0
 10
-24.22714530013161
 20
-2068.8359078993908
 30
0.0
 11
-20.22714530013161
 21
-2068.0359172065678
 31
0.0
  0
LINE
  5
180C2
  8
0
 10
-24.22714530013161
 20
-2070.4359078993912
 30
0.0
 11
-20.22714530013161
 21
-2069.6359172065681
 31
0.0
  0
LINE
  5
180C3
  8
0
 10
-23.72714530013161
 20
-2065.7359090627879
 30
0.0
 11
-24.22714530013161
 21
-2065.635907899391
 31
0.0
  0
LINE
  5
180C4
  8
0
 10
-20.22714530013161
 20
-2064.835917206568
 30
0.0
 11
-20.72714530013161
 21
-2064.7359160431711
 31
0.0
  0
LINE
  5
180C5
  8
0
 10
-20.22714530013161
 20
-2063.235917206568
 30
0.0
 11
-20.72714530013161
 21
-2063.1359160431712
 31
0.0
  0
LINE
  5
180C6
  8
0
 10
-23.72714530013161
 20
-2064.1359090627871
 30
0.0
 11
-24.22714530013161
 21
-2064.0359078993911
 31
0.0
  0
LINE
  5
180C7
  8
0
 10
-24.22714530013161
 20
-2065.635907899391
 30
0.0
 11
-20.22714530013161
 21
-2064.835917206568
 31
0.0
  0
LINE
  5
180C8
  8
0
 10
-20.22714530013161
 20
-2066.4359172065679
 30
0.0
 11
-20.72714530013161
 21
-2066.335916043171
 31
0.0
  0
LINE
  5
180C9
  8
0
 10
-24.22714530013161
 20
-2067.23590789939
 30
0.0
 11
-20.22714530013161
 21
-2066.4359172065679
 31
0.0
  0
LINE
  5
180CA
  8
0
 10
-24.22714530013161
 20
-2062.4359078993862
 30
0.0
 11
-20.22714530013161
 21
-2061.6359172065681
 31
0.0
  0
LINE
  5
180CB
  8
0
 10
-24.22714530013161
 20
-2057.6359078993819
 30
0.0
 11
-20.22714530013161
 21
-2056.8359172065639
 31
0.0
  0
LINE
  5
180CC
  8
0
 10
-24.22714530013161
 20
-2056.035907899382
 30
0.0
 11
-20.22714530013161
 21
-2055.235917206559
 31
0.0
  0
LINE
  5
180CD
  8
0
 10
-23.72714530013161
 20
-2056.1359090627798
 30
0.0
 11
-24.22714530013161
 21
-2056.035907899382
 31
0.0
  0
LINE
  5
180CE
  8
0
 10
-20.22714530013161
 20
-2056.8359172065639
 30
0.0
 11
-20.72714530013161
 21
-2056.7359160431661
 31
0.0
  0
LINE
  5
180CF
  8
0
 10
-20.22714530013161
 20
-2055.235917206559
 30
0.0
 11
-20.72714530013161
 21
-2055.1359160431621
 31
0.0
  0
LINE
  5
180D0
  8
0
 10
-20.22714530013161
 20
-2060.0359172065641
 30
0.0
 11
-20.72714530013161
 21
-2059.9359160431659
 31
0.0
  0
LINE
  5
180D1
  8
0
 10
-23.72714530013161
 20
-2059.33590906278
 30
0.0
 11
-24.22714530013161
 21
-2059.2359078993818
 31
0.0
  0
LINE
  5
180D2
  8
0
 10
-20.22714530013161
 20
-2058.4359172065642
 30
0.0
 11
-20.72714530013161
 21
-2058.335916043166
 31
0.0
  0
LINE
  5
180D3
  8
0
 10
-24.22714530013161
 20
-2059.2359078993818
 30
0.0
 11
-20.22714530013161
 21
-2058.4359172065642
 31
0.0
  0
LINE
  5
180D4
  8
0
 10
-23.72714530013161
 20
-2057.7359090627801
 30
0.0
 11
-24.22714530013161
 21
-2057.6359078993819
 31
0.0
  0
LINE
  5
180D5
  8
0
 10
-20.22714530013161
 20
-2061.6359172065681
 30
0.0
 11
-20.72714530013161
 21
-2061.5359160431708
 31
0.0
  0
LINE
  5
180D6
  8
0
 10
-23.72714530013161
 20
-2060.935909062779
 30
0.0
 11
-24.22714530013161
 21
-2060.8359078993822
 31
0.0
  0
LINE
  5
180D7
  8
0
 10
-23.72714530013161
 20
-2062.535909062784
 30
0.0
 11
-24.22714530013161
 21
-2062.4359078993862
 31
0.0
  0
LINE
  5
180D8
  8
0
 10
-26.22719183602953
 20
-2075.8359032455751
 30
0.0
 11
-18.22719183602953
 21
-2075.8359218599348
 31
0.0
  0
LINE
  5
180DA
  8
1CENTER
 10
168.77180816397049
 20
-2034.6814163621179
 30
0.0
 11
168.77180816397049
 21
-2077.5145494094932
 31
0.0
  0
LINE
  5
180DB
  8
0
 10
166.77185469986841
 20
-2051.2359078993818
 30
0.0
 11
170.77185469986841
 21
-2050.4359172065601
 31
0.0
  0
LINE
  5
180DC
  8
0
 10
170.77185469986841
 20
-2050.4359172065601
 30
0.0
 11
170.27185469986841
 21
-2050.3359160431628
 31
0.0
  0
LINE
  5
180DD
  8
0
 10
167.69276929707709
 20
-2039.9486784653429
 30
0.0
 11
167.22467084192709
 21
-2039.835908952992
 31
0.0
  0
LINE
  5
180DE
  8
0
 10
169.63981943885079
 20
-2037.4359145725459
 30
0.0
 11
169.05154286380841
 21
-2037.124144716294
 31
0.0
  0
LINE
  5
180DF
  8
0
 10
168.13465619060651
 20
-2038.3873458030371
 30
0.0
 11
167.6774843499754
 21
-2038.235910006596
 31
0.0
  0
LINE
  5
180E0
  8
0
 10
170.09263354325759
 20
-2039.0359156261511
 30
0.0
 11
169.54088407945429
 21
-2038.8531514835231
 31
0.0
  0
LINE
  5
180E1
  8
0
 10
167.6774843499754
 20
-2038.235910006596
 30
0.0
 11
169.63981943885079
 21
-2037.4359145725459
 31
0.0
  0
LINE
  5
180E2
  8
0
 10
167.22467084192709
 20
-2039.835908952992
 30
0.0
 11
170.09263354325759
 21
-2039.0359156261511
 31
0.0
  0
LINE
  5
180E3
  8
0
 10
166.77185469986841
 20
-2049.6359078993819
 30
0.0
 11
170.77185469986841
 21
-2048.8359172065589
 31
0.0
  0
LINE
  5
180E4
  8
0
 10
166.77185469986841
 20
-2048.035907899382
 30
0.0
 11
170.77185469986841
 21
-2047.2359172065601
 31
0.0
  0
LINE
  5
180E5
  8
0
 10
167.27185469986841
 20
-2048.1359090627789
 30
0.0
 11
166.77185469986841
 21
-2048.035907899382
 31
0.0
  0
LINE
  5
180E6
  8
0
 10
170.77185469986841
 20
-2047.2359172065601
 30
0.0
 11
170.27185469986841
 21
-2047.135916043163
 31
0.0
  0
LINE
  5
180E7
  8
0
 10
170.77185469986841
 20
-2048.8359172065589
 30
0.0
 11
170.27185469986841
 21
-2048.7359160431629
 31
0.0
  0
LINE
  5
180E8
  8
0
 10
170.54544764766439
 20
-2040.635916679757
 30
0.0
 11
170.00885391239331
 21
-2040.5066459821271
 31
0.0
  0
LINE
  5
180E9
  8
0
 10
166.77185469986841
 20
-2041.4359078993821
 30
0.0
 11
170.54544764766439
 21
-2040.635916679757
 31
0.0
  0
LINE
  5
180EA
  8
0
 10
167.27185469986841
 20
-2041.5359090627801
 30
0.0
 11
166.77185469986841
 21
-2041.4359078993821
 31
0.0
  0
LINE
  5
180EB
  8
0
 10
167.27185469986841
 20
-2049.7359090627801
 30
0.0
 11
166.77185469986841
 21
-2049.6359078993819
 31
0.0
  0
LINE
  5
180EC
  8
0
 10
166.77185469986841
 20
-2054.435907899383
 30
0.0
 11
170.77185469986841
 21
-2053.63591720656
 31
0.0
  0
LINE
  5
180ED
  8
0
 10
166.77185469986841
 20
-2052.8359078993822
 30
0.0
 11
170.77185469986841
 21
-2052.03591720656
 31
0.0
  0
LINE
  5
180EE
  8
0
 10
167.27185469986841
 20
-2051.33590906278
 30
0.0
 11
166.77185469986841
 21
-2051.2359078993818
 31
0.0
  0
LINE
  5
180EF
  8
0
 10
167.27185469986841
 20
-2052.93590906278
 30
0.0
 11
166.77185469986841
 21
-2052.8359078993822
 31
0.0
  0
LINE
  5
180F0
  8
0
 10
170.77185469986841
 20
-2052.03591720656
 30
0.0
 11
170.27185469986841
 21
-2051.9359160431632
 31
0.0
  0
LINE
  5
180F1
  8
0
 10
170.77185469986841
 20
-2053.63591720656
 30
0.0
 11
170.27185469986841
 21
-2053.5359160431631
 31
0.0
  0
LINE
  5
180F2
  8
0
 10
167.27185469986841
 20
-2054.5359090627799
 30
0.0
 11
166.77185469986841
 21
-2054.435907899383
 31
0.0
  0
LINE
  5
180F3
  8
0
 10
170.77185469986841
 20
-2045.63591720656
 30
0.0
 11
170.27185469986841
 21
-2045.5359160431631
 31
0.0
  0
LINE
  5
180F4
  8
0
 10
166.77185469986841
 20
-2046.435907899383
 30
0.0
 11
170.77185469986841
 21
-2045.63591720656
 31
0.0
  0
LINE
  5
180F5
  8
0
 10
167.27185469986841
 20
-2046.5359090627801
 30
0.0
 11
166.77185469986841
 21
-2046.435907899383
 31
0.0
  0
LINE
  5
180F6
  8
0
 10
166.77185469986841
 20
-2044.8359078993819
 30
0.0
 11
170.77185469986841
 21
-2044.03591720656
 31
0.0
  0
LINE
  5
180F7
  8
0
 10
170.77185469986841
 20
-2044.03591720656
 30
0.0
 11
170.27185469986841
 21
-2043.935916043162
 31
0.0
  0
LINE
  5
180F8
  8
0
 10
167.27185469986841
 20
-2044.935909062779
 30
0.0
 11
166.77185469986841
 21
-2044.8359078993819
 31
0.0
  0
LINE
  5
180F9
  8
0
 10
170.77185469986841
 20
-2042.4359172065599
 30
0.0
 11
170.27185469986841
 21
-2042.335916043163
 31
0.0
  0
LINE
  5
180FA
  8
0
 10
166.77185469986841
 20
-2043.235907899382
 30
0.0
 11
170.77185469986841
 21
-2042.4359172065599
 31
0.0
  0
LINE
  5
180FB
  8
0
 10
167.27185469986841
 20
-2043.3359090627789
 30
0.0
 11
166.77185469986841
 21
-2043.235907899382
 31
0.0
  0
LINE
  5
180FC
  8
0
 10
168.77180816397049
 20
-2073.2359218600532
 30
0.0
 11
170.77185469986841
 21
-2072.835917206573
 31
0.0
  0
LINE
  5
180FD
  8
0
 10
166.77185469986841
 20
-2064.0359078993911
 30
0.0
 11
170.77185469986841
 21
-2063.235917206569
 31
0.0
  0
LINE
  5
180FE
  8
0
 10
166.77185469986841
 20
-2060.8359078993822
 30
0.0
 11
170.77185469986841
 21
-2060.0359172065641
 31
0.0
  0
LINE
  5
180FF
  8
0
 10
170.77185469986841
 20
-2071.235917206569
 30
0.0
 11
170.27185469986841
 21
-2071.1359160431712
 31
0.0
  0
LINE
  5
18100
  8
0
 10
170.77185469986841
 20
-2072.835917206573
 30
0.0
 11
170.27185469986841
 21
-2072.7359160431752
 31
0.0
  0
LINE
  5
18101
  8
0
 10
167.27185469986841
 20
-2072.1359090627889
 30
0.0
 11
166.77185469986841
 21
-2072.0359078993911
 31
0.0
  0
LINE
  5
18102
  8
0
 10
166.77185469986841
 20
-2072.0359078993911
 30
0.0
 11
170.77185469986841
 21
-2071.235917206569
 31
0.0
  0
LINE
  5
18103
  8
0
 10
167.27185469986841
 20
-2070.5359090627881
 30
0.0
 11
166.77185469986841
 21
-2070.4359078993912
 31
0.0
  0
LINE
  5
18104
  8
0
 10
170.77185469986841
 20
-2069.635917206569
 30
0.0
 11
170.27185469986841
 21
-2069.5359160431722
 31
0.0
  0
LINE
  5
18105
  8
0
 10
170.77185469986841
 20
-2068.0359172065678
 30
0.0
 11
170.27185469986841
 21
-2067.9359160431709
 31
0.0
  0
LINE
  5
18106
  8
0
 10
167.27185469986841
 20
-2068.9359090627881
 30
0.0
 11
166.77185469986841
 21
-2068.8359078993908
 31
0.0
  0
LINE
  5
18107
  8
0
 10
167.27185469986841
 20
-2067.3359090627878
 30
0.0
 11
166.77185469986841
 21
-2067.2359078993909
 31
0.0
  0
LINE
  5
18108
  8
0
 10
166.77185469986841
 20
-2068.8359078993908
 30
0.0
 11
170.77185469986841
 21
-2068.0359172065678
 31
0.0
  0
LINE
  5
18109
  8
0
 10
166.77185469986841
 20
-2070.4359078993912
 30
0.0
 11
170.77185469986841
 21
-2069.635917206569
 31
0.0
  0
LINE
  5
1810A
  8
0
 10
167.27185469986841
 20
-2065.7359090627888
 30
0.0
 11
166.77185469986841
 21
-2065.635907899391
 31
0.0
  0
LINE
  5
1810B
  8
0
 10
170.77185469986841
 20
-2064.835917206568
 30
0.0
 11
170.27185469986841
 21
-2064.735916043172
 31
0.0
  0
LINE
  5
1810C
  8
0
 10
170.77185469986841
 20
-2063.235917206569
 30
0.0
 11
170.27185469986841
 21
-2063.1359160431712
 31
0.0
  0
LINE
  5
1810D
  8
0
 10
167.27185469986841
 20
-2064.135909062788
 30
0.0
 11
166.77185469986841
 21
-2064.0359078993911
 31
0.0
  0
LINE
  5
1810E
  8
0
 10
166.77185469986841
 20
-2065.635907899391
 30
0.0
 11
170.77185469986841
 21
-2064.835917206568
 31
0.0
  0
LINE
  5
1810F
  8
0
 10
170.77185469986841
 20
-2066.4359172065679
 30
0.0
 11
170.27185469986841
 21
-2066.3359160431719
 31
0.0
  0
LINE
  5
18110
  8
0
 10
166.77185469986841
 20
-2067.2359078993909
 30
0.0
 11
170.77185469986841
 21
-2066.4359172065679
 31
0.0
  0
LINE
  5
18111
  8
0
 10
166.77185469986841
 20
-2062.4359078993871
 30
0.0
 11
170.77185469986841
 21
-2061.635917206569
 31
0.0
  0
LINE
  5
18112
  8
0
 10
166.77185469986841
 20
-2057.6359078993828
 30
0.0
 11
170.77185469986841
 21
-2056.8359172065639
 31
0.0
  0
LINE
  5
18113
  8
0
 10
166.77185469986841
 20
-2056.035907899382
 30
0.0
 11
170.77185469986841
 21
-2055.2359172065599
 31
0.0
  0
LINE
  5
18114
  8
0
 10
167.27185469986841
 20
-2056.1359090627798
 30
0.0
 11
166.77185469986841
 21
-2056.035907899382
 31
0.0
  0
LINE
  5
18115
  8
0
 10
170.77185469986841
 20
-2056.8359172065639
 30
0.0
 11
170.27185469986841
 21
-2056.7359160431661
 31
0.0
  0
LINE
  5
18116
  8
0
 10
170.77185469986841
 20
-2055.2359172065599
 30
0.0
 11
170.27185469986841
 21
-2055.135916043163
 31
0.0
  0
LINE
  5
18117
  8
0
 10
170.77185469986841
 20
-2060.0359172065641
 30
0.0
 11
170.27185469986841
 21
-2059.9359160431659
 31
0.0
  0
LINE
  5
18118
  8
0
 10
167.27185469986841
 20
-2059.33590906278
 30
0.0
 11
166.77185469986841
 21
-2059.2359078993818
 31
0.0
  0
LINE
  5
18119
  8
0
 10
170.77185469986841
 20
-2058.4359172065642
 30
0.0
 11
170.27185469986841
 21
-2058.3359160431669
 31
0.0
  0
LINE
  5
1811A
  8
0
 10
166.77185469986841
 20
-2059.2359078993818
 30
0.0
 11
170.77185469986841
 21
-2058.4359172065642
 31
0.0
  0
LINE
  5
1811B
  8
0
 10
167.27185469986841
 20
-2057.7359090627801
 30
0.0
 11
166.77185469986841
 21
-2057.6359078993828
 31
0.0
  0
LINE
  5
1811C
  8
0
 10
170.77185469986841
 20
-2061.635917206569
 30
0.0
 11
170.27185469986841
 21
-2061.5359160431708
 31
0.0
  0
LINE
  5
1811D
  8
0
 10
167.27185469986841
 20
-2060.93590906278
 30
0.0
 11
166.77185469986841
 21
-2060.8359078993822
 31
0.0
  0
LINE
  5
1811E
  8
0
 10
167.27185469986841
 20
-2062.5359090627849
 30
0.0
 11
166.77185469986841
 21
-2062.4359078993871
 31
0.0
  0
LINE
  5
1811F
  8
0
 10
164.77180816397049
 20
-2075.835903245576
 30
0.0
 11
172.77180816397049
 21
-2075.8359218599348
 31
0.0
  0
LINE
  5
18121
  8
1CENTER
 10
359.77080816397051
 20
-2034.6814163598831
 30
0.0
 11
359.77080816397051
 21
-2077.5145494072581
 31
0.0
  0
LINE
  5
18122
  8
0
 10
357.77085469986838
 20
-2051.2359078971472
 30
0.0
 11
361.77085469986838
 21
-2050.4359172043241
 31
0.0
  0
LINE
  5
18123
  8
0
 10
361.77085469986838
 20
-2050.4359172043241
 30
0.0
 11
361.27085469986849
 21
-2050.3359160409268
 31
0.0
  0
LINE
  5
18124
  8
0
 10
358.6917692970772
 20
-2039.9486784631069
 30
0.0
 11
358.22367084192717
 21
-2039.8359089507569
 31
0.0
  0
LINE
  5
18125
  8
0
 10
360.63881943885087
 20
-2037.4359145703099
 30
0.0
 11
360.05054286380852
 21
-2037.124144714058
 31
0.0
  0
LINE
  5
18126
  8
0
 10
359.13365619060647
 20
-2038.3873458008011
 30
0.0
 11
358.6764843499754
 21
-2038.2359100043609
 31
0.0
  0
LINE
  5
18127
  8
0
 10
361.09163354325767
 20
-2039.035915623916
 30
0.0
 11
360.5398840794544
 21
-2038.853151481288
 31
0.0
  0
LINE
  5
18128
  8
0
 10
358.6764843499754
 20
-2038.2359100043609
 30
0.0
 11
360.63881943885087
 21
-2037.4359145703099
 31
0.0
  0
LINE
  5
18129
  8
0
 10
358.22367084192717
 20
-2039.8359089507569
 30
0.0
 11
361.09163354325767
 21
-2039.035915623916
 31
0.0
  0
LINE
  5
1812A
  8
0
 10
357.77085469986838
 20
-2049.6359078971468
 30
0.0
 11
361.77085469986838
 21
-2048.8359172043238
 31
0.0
  0
LINE
  5
1812B
  8
0
 10
357.77085469986838
 20
-2048.0359078971469
 30
0.0
 11
361.77085469986838
 21
-2047.2359172043241
 31
0.0
  0
LINE
  5
1812C
  8
0
 10
358.27085469986838
 20
-2048.1359090605438
 30
0.0
 11
357.77085469986838
 21
-2048.0359078971469
 31
0.0
  0
LINE
  5
1812D
  8
0
 10
361.77085469986838
 20
-2047.2359172043241
 30
0.0
 11
361.27085469986849
 21
-2047.135916040927
 31
0.0
  0
LINE
  5
1812E
  8
0
 10
361.77085469986838
 20
-2048.8359172043238
 30
0.0
 11
361.27085469986849
 21
-2048.7359160409269
 31
0.0
  0
LINE
  5
1812F
  8
0
 10
361.54444764766453
 20
-2040.635916677521
 30
0.0
 11
361.00785391239327
 21
-2040.506645979892
 31
0.0
  0
LINE
  5
18130
  8
0
 10
357.77085469986838
 20
-2041.435907897147
 30
0.0
 11
361.54444764766453
 21
-2040.635916677521
 31
0.0
  0
LINE
  5
18131
  8
0
 10
358.27085469986838
 20
-2041.5359090605441
 30
0.0
 11
357.77085469986838
 21
-2041.435907897147
 31
0.0
  0
LINE
  5
18132
  8
0
 10
358.27085469986838
 20
-2049.7359090605441
 30
0.0
 11
357.77085469986838
 21
-2049.6359078971468
 31
0.0
  0
LINE
  5
18133
  8
0
 10
357.77085469986838
 20
-2054.435907897147
 30
0.0
 11
361.77085469986838
 21
-2053.635917204324
 31
0.0
  0
LINE
  5
18134
  8
0
 10
357.77085469986838
 20
-2052.8359078971471
 30
0.0
 11
361.77085469986838
 21
-2052.0359172043241
 31
0.0
  0
LINE
  5
18135
  8
0
 10
358.27085469986838
 20
-2051.3359090605441
 30
0.0
 11
357.77085469986838
 21
-2051.2359078971472
 31
0.0
  0
LINE
  5
18136
  8
0
 10
358.27085469986838
 20
-2052.935909060544
 30
0.0
 11
357.77085469986838
 21
-2052.8359078971471
 31
0.0
  0
LINE
  5
18137
  8
0
 10
361.77085469986838
 20
-2052.0359172043241
 30
0.0
 11
361.27085469986849
 21
-2051.9359160409272
 31
0.0
  0
LINE
  5
18138
  8
0
 10
361.77085469986838
 20
-2053.635917204324
 30
0.0
 11
361.27085469986849
 21
-2053.5359160409271
 31
0.0
  0
LINE
  5
18139
  8
0
 10
358.27085469986838
 20
-2054.5359090605439
 30
0.0
 11
357.77085469986838
 21
-2054.435907897147
 31
0.0
  0
LINE
  5
1813A
  8
0
 10
361.77085469986838
 20
-2045.635917204324
 30
0.0
 11
361.27085469986849
 21
-2045.5359160409271
 31
0.0
  0
LINE
  5
1813B
  8
0
 10
357.77085469986838
 20
-2046.435907897147
 30
0.0
 11
361.77085469986838
 21
-2045.635917204324
 31
0.0
  0
LINE
  5
1813C
  8
0
 10
358.27085469986838
 20
-2046.5359090605441
 30
0.0
 11
357.77085469986838
 21
-2046.435907897147
 31
0.0
  0
LINE
  5
1813D
  8
0
 10
357.77085469986838
 20
-2044.8359078971471
 30
0.0
 11
361.77085469986838
 21
-2044.0359172043241
 31
0.0
  0
LINE
  5
1813E
  8
0
 10
361.77085469986838
 20
-2044.0359172043241
 30
0.0
 11
361.27085469986849
 21
-2043.9359160409269
 31
0.0
  0
LINE
  5
1813F
  8
0
 10
358.27085469986838
 20
-2044.935909060544
 30
0.0
 11
357.77085469986838
 21
-2044.8359078971471
 31
0.0
  0
LINE
  5
18140
  8
0
 10
361.77085469986838
 20
-2042.4359172043239
 30
0.0
 11
361.27085469986849
 21
-2042.335916040927
 31
0.0
  0
LINE
  5
18141
  8
0
 10
357.77085469986838
 20
-2043.2359078971469
 30
0.0
 11
361.77085469986838
 21
-2042.4359172043239
 31
0.0
  0
LINE
  5
18142
  8
0
 10
358.27085469986838
 20
-2043.3359090605441
 30
0.0
 11
357.77085469986838
 21
-2043.2359078971469
 31
0.0
  0
LINE
  5
18143
  8
0
 10
359.77080816397051
 20
-2073.2359218578181
 30
0.0
 11
361.77085469986838
 21
-2072.8359172043379
 31
0.0
  0
LINE
  5
18144
  8
0
 10
357.77085469986838
 20
-2064.035907897156
 30
0.0
 11
361.77085469986838
 21
-2063.235917204333
 31
0.0
  0
LINE
  5
18145
  8
0
 10
357.77085469986838
 20
-2060.8359078971471
 30
0.0
 11
361.77085469986838
 21
-2060.0359172043291
 31
0.0
  0
LINE
  5
18146
  8
0
 10
361.77085469986838
 20
-2071.235917204333
 30
0.0
 11
361.27085469986849
 21
-2071.1359160409352
 31
0.0
  0
LINE
  5
18147
  8
0
 10
361.77085469986838
 20
-2072.8359172043379
 30
0.0
 11
361.27085469986849
 21
-2072.7359160409401
 31
0.0
  0
LINE
  5
18148
  8
0
 10
358.27085469986838
 20
-2072.1359090605538
 30
0.0
 11
357.77085469986838
 21
-2072.035907897156
 31
0.0
  0
LINE
  5
18149
  8
0
 10
357.77085469986838
 20
-2072.035907897156
 30
0.0
 11
361.77085469986838
 21
-2071.235917204333
 31
0.0
  0
LINE
  5
1814A
  8
0
 10
358.27085469986838
 20
-2070.535909060553
 30
0.0
 11
357.77085469986838
 21
-2070.4359078971561
 31
0.0
  0
LINE
  5
1814B
  8
0
 10
361.77085469986838
 20
-2069.6359172043331
 30
0.0
 11
361.27085469986849
 21
-2069.5359160409362
 31
0.0
  0
LINE
  5
1814C
  8
0
 10
361.77085469986838
 20
-2068.0359172043331
 30
0.0
 11
361.27085469986849
 21
-2067.9359160409358
 31
0.0
  0
LINE
  5
1814D
  8
0
 10
358.27085469986838
 20
-2068.9359090605531
 30
0.0
 11
357.77085469986838
 21
-2068.8359078971562
 31
0.0
  0
LINE
  5
1814E
  8
0
 10
358.27085469986838
 20
-2067.3359090605518
 30
0.0
 11
357.77085469986838
 21
-2067.2359078971549
 31
0.0
  0
LINE
  5
1814F
  8
0
 10
357.77085469986838
 20
-2068.8359078971562
 30
0.0
 11
361.77085469986838
 21
-2068.0359172043331
 31
0.0
  0
LINE
  5
18150
  8
0
 10
357.77085469986838
 20
-2070.4359078971561
 30
0.0
 11
361.77085469986838
 21
-2069.6359172043331
 31
0.0
  0
LINE
  5
18151
  8
0
 10
358.27085469986838
 20
-2065.7359090605528
 30
0.0
 11
357.77085469986838
 21
-2065.6359078971559
 31
0.0
  0
LINE
  5
18152
  8
0
 10
361.77085469986838
 20
-2064.8359172043329
 30
0.0
 11
361.27085469986849
 21
-2064.735916040936
 31
0.0
  0
LINE
  5
18153
  8
0
 10
361.77085469986838
 20
-2063.235917204333
 30
0.0
 11
361.27085469986849
 21
-2063.1359160409361
 31
0.0
  0
LINE
  5
18154
  8
0
 10
358.27085469986838
 20
-2064.1359090605529
 30
0.0
 11
357.77085469986838
 21
-2064.035907897156
 31
0.0
  0
LINE
  5
18155
  8
0
 10
357.77085469986838
 20
-2065.6359078971559
 30
0.0
 11
361.77085469986838
 21
-2064.8359172043329
 31
0.0
  0
LINE
  5
18156
  8
0
 10
361.77085469986838
 20
-2066.4359172043328
 30
0.0
 11
361.27085469986849
 21
-2066.3359160409359
 31
0.0
  0
LINE
  5
18157
  8
0
 10
357.77085469986838
 20
-2067.2359078971549
 30
0.0
 11
361.77085469986838
 21
-2066.4359172043328
 31
0.0
  0
LINE
  5
18158
  8
0
 10
357.77085469986838
 20
-2062.4359078971511
 30
0.0
 11
361.77085469986838
 21
-2061.6359172043331
 31
0.0
  0
LINE
  5
18159
  8
0
 10
357.77085469986838
 20
-2057.6359078971468
 30
0.0
 11
361.77085469986838
 21
-2056.8359172043279
 31
0.0
  0
LINE
  5
1815A
  8
0
 10
357.77085469986838
 20
-2056.0359078971469
 30
0.0
 11
361.77085469986838
 21
-2055.2359172043239
 31
0.0
  0
LINE
  5
1815B
  8
0
 10
358.27085469986838
 20
-2056.1359090605451
 30
0.0
 11
357.77085469986838
 21
-2056.0359078971469
 31
0.0
  0
LINE
  5
1815C
  8
0
 10
361.77085469986838
 20
-2056.8359172043279
 30
0.0
 11
361.27085469986849
 21
-2056.735916040931
 31
0.0
  0
LINE
  5
1815D
  8
0
 10
361.77085469986838
 20
-2055.2359172043239
 30
0.0
 11
361.27085469986849
 21
-2055.135916040927
 31
0.0
  0
LINE
  5
1815E
  8
0
 10
361.77085469986838
 20
-2060.0359172043291
 30
0.0
 11
361.27085469986849
 21
-2059.9359160409308
 31
0.0
  0
LINE
  5
1815F
  8
0
 10
358.27085469986838
 20
-2059.3359090605441
 30
0.0
 11
357.77085469986838
 21
-2059.2359078971458
 31
0.0
  0
LINE
  5
18160
  8
0
 10
361.77085469986838
 20
-2058.4359172043291
 30
0.0
 11
361.27085469986849
 21
-2058.3359160409309
 31
0.0
  0
LINE
  5
18161
  8
0
 10
357.77085469986838
 20
-2059.2359078971458
 30
0.0
 11
361.77085469986838
 21
-2058.4359172043291
 31
0.0
  0
LINE
  5
18162
  8
0
 10
358.27085469986838
 20
-2057.7359090605451
 30
0.0
 11
357.77085469986838
 21
-2057.6359078971468
 31
0.0
  0
LINE
  5
18163
  8
0
 10
361.77085469986838
 20
-2061.6359172043331
 30
0.0
 11
361.27085469986849
 21
-2061.5359160409348
 31
0.0
  0
LINE
  5
18164
  8
0
 10
358.27085469986838
 20
-2060.935909060544
 30
0.0
 11
357.77085469986838
 21
-2060.8359078971471
 31
0.0
  0
LINE
  5
18165
  8
0
 10
358.27085469986838
 20
-2062.5359090605489
 30
0.0
 11
357.77085469986838
 21
-2062.4359078971511
 31
0.0
  0
LINE
  5
18166
  8
0
 10
355.77080816397051
 20
-2075.8359032433409
 30
0.0
 11
363.77080816397051
 21
-2075.8359218577002
 31
0.0
  0
LINE
  5
18168
  8
1CENTER
 10
550.76980816397054
 20
-2034.6814163598831
 30
0.0
 11
550.76980816397054
 21
-2077.5145494072581
 31
0.0
  0
LINE
  5
18169
  8
0
 10
548.76985469986835
 20
-2051.2359078971472
 30
0.0
 11
552.76985469986835
 21
-2050.4359172043241
 31
0.0
  0
LINE
  5
1816A
  8
0
 10
552.76985469986835
 20
-2050.4359172043241
 30
0.0
 11
552.26985469986835
 21
-2050.3359160409268
 31
0.0
  0
LINE
  5
1816B
  8
0
 10
549.69076929707705
 20
-2039.9486784631069
 30
0.0
 11
549.2226708419272
 21
-2039.8359089507569
 31
0.0
  0
LINE
  5
1816C
  8
0
 10
551.6378194388509
 20
-2037.4359145703099
 30
0.0
 11
551.04954286380837
 21
-2037.124144714058
 31
0.0
  0
LINE
  5
1816D
  8
0
 10
550.13265619060655
 20
-2038.3873458008011
 30
0.0
 11
549.67548434997536
 21
-2038.2359100043609
 31
0.0
  0
LINE
  5
1816E
  8
0
 10
552.09063354325758
 20
-2039.035915623916
 30
0.0
 11
551.53888407945431
 21
-2038.853151481288
 31
0.0
  0
LINE
  5
1816F
  8
0
 10
549.67548434997536
 20
-2038.2359100043609
 30
0.0
 11
551.6378194388509
 21
-2037.4359145703099
 31
0.0
  0
LINE
  5
18170
  8
0
 10
549.2226708419272
 20
-2039.8359089507569
 30
0.0
 11
552.09063354325758
 21
-2039.035915623916
 31
0.0
  0
LINE
  5
18171
  8
0
 10
548.76985469986835
 20
-2049.6359078971468
 30
0.0
 11
552.76985469986835
 21
-2048.8359172043238
 31
0.0
  0
LINE
  5
18172
  8
0
 10
548.76985469986835
 20
-2048.0359078971469
 30
0.0
 11
552.76985469986835
 21
-2047.2359172043241
 31
0.0
  0
LINE
  5
18173
  8
0
 10
549.26985469986835
 20
-2048.1359090605438
 30
0.0
 11
548.76985469986835
 21
-2048.0359078971469
 31
0.0
  0
LINE
  5
18174
  8
0
 10
552.76985469986835
 20
-2047.2359172043241
 30
0.0
 11
552.26985469986835
 21
-2047.135916040927
 31
0.0
  0
LINE
  5
18175
  8
0
 10
552.76985469986835
 20
-2048.8359172043238
 30
0.0
 11
552.26985469986835
 21
-2048.7359160409269
 31
0.0
  0
LINE
  5
18176
  8
0
 10
552.54344764766449
 20
-2040.635916677521
 30
0.0
 11
552.00685391239335
 21
-2040.506645979892
 31
0.0
  0
LINE
  5
18177
  8
0
 10
548.76985469986835
 20
-2041.435907897147
 30
0.0
 11
552.54344764766449
 21
-2040.635916677521
 31
0.0
  0
LINE
  5
18178
  8
0
 10
549.26985469986835
 20
-2041.5359090605441
 30
0.0
 11
548.76985469986835
 21
-2041.435907897147
 31
0.0
  0
LINE
  5
18179
  8
0
 10
549.26985469986835
 20
-2049.7359090605441
 30
0.0
 11
548.76985469986835
 21
-2049.6359078971468
 31
0.0
  0
LINE
  5
1817A
  8
0
 10
548.76985469986835
 20
-2054.435907897147
 30
0.0
 11
552.76985469986835
 21
-2053.635917204324
 31
0.0
  0
LINE
  5
1817B
  8
0
 10
548.76985469986835
 20
-2052.8359078971471
 30
0.0
 11
552.76985469986835
 21
-2052.0359172043241
 31
0.0
  0
LINE
  5
1817C
  8
0
 10
549.26985469986835
 20
-2051.3359090605441
 30
0.0
 11
548.76985469986835
 21
-2051.2359078971472
 31
0.0
  0
LINE
  5
1817D
  8
0
 10
549.26985469986835
 20
-2052.935909060544
 30
0.0
 11
548.76985469986835
 21
-2052.8359078971471
 31
0.0
  0
LINE
  5
1817E
  8
0
 10
552.76985469986835
 20
-2052.0359172043241
 30
0.0
 11
552.26985469986835
 21
-2051.9359160409272
 31
0.0
  0
LINE
  5
1817F
  8
0
 10
552.76985469986835
 20
-2053.635917204324
 30
0.0
 11
552.26985469986835
 21
-2053.5359160409271
 31
0.0
  0
LINE
  5
18180
  8
0
 10
549.26985469986835
 20
-2054.5359090605439
 30
0.0
 11
548.76985469986835
 21
-2054.435907897147
 31
0.0
  0
LINE
  5
18181
  8
0
 10
552.76985469986835
 20
-2045.635917204324
 30
0.0
 11
552.26985469986835
 21
-2045.5359160409271
 31
0.0
  0
LINE
  5
18182
  8
0
 10
548.76985469986835
 20
-2046.435907897147
 30
0.0
 11
552.76985469986835
 21
-2045.635917204324
 31
0.0
  0
LINE
  5
18183
  8
0
 10
549.26985469986835
 20
-2046.5359090605441
 30
0.0
 11
548.76985469986835
 21
-2046.435907897147
 31
0.0
  0
LINE
  5
18184
  8
0
 10
548.76985469986835
 20
-2044.8359078971471
 30
0.0
 11
552.76985469986835
 21
-2044.0359172043241
 31
0.0
  0
LINE
  5
18185
  8
0
 10
552.76985469986835
 20
-2044.0359172043241
 30
0.0
 11
552.26985469986835
 21
-2043.9359160409269
 31
0.0
  0
LINE
  5
18186
  8
0
 10
549.26985469986835
 20
-2044.935909060544
 30
0.0
 11
548.76985469986835
 21
-2044.8359078971471
 31
0.0
  0
LINE
  5
18187
  8
0
 10
552.76985469986835
 20
-2042.4359172043239
 30
0.0
 11
552.26985469986835
 21
-2042.335916040927
 31
0.0
  0
LINE
  5
18188
  8
0
 10
548.76985469986835
 20
-2043.2359078971469
 30
0.0
 11
552.76985469986835
 21
-2042.4359172043239
 31
0.0
  0
LINE
  5
18189
  8
0
 10
549.26985469986835
 20
-2043.3359090605441
 30
0.0
 11
548.76985469986835
 21
-2043.2359078971469
 31
0.0
  0
LINE
  5
1818A
  8
0
 10
550.76980816397054
 20
-2073.2359218578181
 30
0.0
 11
552.76985469986835
 21
-2072.8359172043379
 31
0.0
  0
LINE
  5
1818B
  8
0
 10
548.76985469986835
 20
-2064.035907897156
 30
0.0
 11
552.76985469986835
 21
-2063.235917204333
 31
0.0
  0
LINE
  5
1818C
  8
0
 10
548.76985469986835
 20
-2060.8359078971471
 30
0.0
 11
552.76985469986835
 21
-2060.0359172043291
 31
0.0
  0
LINE
  5
1818D
  8
0
 10
552.76985469986835
 20
-2071.235917204333
 30
0.0
 11
552.26985469986835
 21
-2071.1359160409352
 31
0.0
  0
LINE
  5
1818E
  8
0
 10
552.76985469986835
 20
-2072.8359172043379
 30
0.0
 11
552.26985469986835
 21
-2072.7359160409401
 31
0.0
  0
LINE
  5
1818F
  8
0
 10
549.26985469986835
 20
-2072.1359090605538
 30
0.0
 11
548.76985469986835
 21
-2072.035907897156
 31
0.0
  0
LINE
  5
18190
  8
0
 10
548.76985469986835
 20
-2072.035907897156
 30
0.0
 11
552.76985469986835
 21
-2071.235917204333
 31
0.0
  0
LINE
  5
18191
  8
0
 10
549.26985469986835
 20
-2070.535909060553
 30
0.0
 11
548.76985469986835
 21
-2070.4359078971561
 31
0.0
  0
LINE
  5
18192
  8
0
 10
552.76985469986835
 20
-2069.6359172043331
 30
0.0
 11
552.26985469986835
 21
-2069.5359160409362
 31
0.0
  0
LINE
  5
18193
  8
0
 10
552.76985469986835
 20
-2068.0359172043331
 30
0.0
 11
552.26985469986835
 21
-2067.9359160409358
 31
0.0
  0
LINE
  5
18194
  8
0
 10
549.26985469986835
 20
-2068.9359090605531
 30
0.0
 11
548.76985469986835
 21
-2068.8359078971562
 31
0.0
  0
LINE
  5
18195
  8
0
 10
549.26985469986835
 20
-2067.3359090605518
 30
0.0
 11
548.76985469986835
 21
-2067.2359078971549
 31
0.0
  0
LINE
  5
18196
  8
0
 10
548.76985469986835
 20
-2068.8359078971562
 30
0.0
 11
552.76985469986835
 21
-2068.0359172043331
 31
0.0
  0
LINE
  5
18197
  8
0
 10
548.76985469986835
 20
-2070.4359078971561
 30
0.0
 11
552.76985469986835
 21
-2069.6359172043331
 31
0.0
  0
LINE
  5
18198
  8
0
 10
549.26985469986835
 20
-2065.7359090605528
 30
0.0
 11
548.76985469986835
 21
-2065.6359078971559
 31
0.0
  0
LINE
  5
18199
  8
0
 10
552.76985469986835
 20
-2064.8359172043329
 30
0.0
 11
552.26985469986835
 21
-2064.735916040936
 31
0.0
  0
LINE
  5
1819A
  8
0
 10
552.76985469986835
 20
-2063.235917204333
 30
0.0
 11
552.26985469986835
 21
-2063.1359160409361
 31
0.0
  0
LINE
  5
1819B
  8
0
 10
549.26985469986835
 20
-2064.1359090605529
 30
0.0
 11
548.76985469986835
 21
-2064.035907897156
 31
0.0
  0
LINE
  5
1819C
  8
0
 10
548.76985469986835
 20
-2065.6359078971559
 30
0.0
 11
552.76985469986835
 21
-2064.8359172043329
 31
0.0
  0
LINE
  5
1819D
  8
0
 10
552.76985469986835
 20
-2066.4359172043328
 30
0.0
 11
552.26985469986835
 21
-2066.3359160409359
 31
0.0
  0
LINE
  5
1819E
  8
0
 10
548.76985469986835
 20
-2067.2359078971549
 30
0.0
 11
552.76985469986835
 21
-2066.4359172043328
 31
0.0
  0
LINE
  5
1819F
  8
0
 10
548.76985469986835
 20
-2062.4359078971511
 30
0.0
 11
552.76985469986835
 21
-2061.6359172043331
 31
0.0
  0
LINE
  5
181A0
  8
0
 10
548.76985469986835
 20
-2057.6359078971468
 30
0.0
 11
552.76985469986835
 21
-2056.8359172043279
 31
0.0
  0
LINE
  5
181A1
  8
0
 10
548.76985469986835
 20
-2056.0359078971469
 30
0.0
 11
552.76985469986835
 21
-2055.2359172043239
 31
0.0
  0
LINE
  5
181A2
  8
0
 10
549.26985469986835
 20
-2056.1359090605451
 30
0.0
 11
548.76985469986835
 21
-2056.0359078971469
 31
0.0
  0
LINE
  5
181A3
  8
0
 10
552.76985469986835
 20
-2056.8359172043279
 30
0.0
 11
552.26985469986835
 21
-2056.735916040931
 31
0.0
  0
LINE
  5
181A4
  8
0
 10
552.76985469986835
 20
-2055.2359172043239
 30
0.0
 11
552.26985469986835
 21
-2055.135916040927
 31
0.0
  0
LINE
  5
181A5
  8
0
 10
552.76985469986835
 20
-2060.0359172043291
 30
0.0
 11
552.26985469986835
 21
-2059.9359160409308
 31
0.0
  0
LINE
  5
181A6
  8
0
 10
549.26985469986835
 20
-2059.3359090605441
 30
0.0
 11
548.76985469986835
 21
-2059.2359078971458
 31
0.0
  0
LINE
  5
181A7
  8
0
 10
552.76985469986835
 20
-2058.4359172043291
 30
0.0
 11
552.26985469986835
 21
-2058.3359160409309
 31
0.0
  0
LINE
  5
181A8
  8
0
 10
548.76985469986835
 20
-2059.2359078971458
 30
0.0
 11
552.76985469986835
 21
-2058.4359172043291
 31
0.0
  0
LINE
  5
181A9
  8
0
 10
549.26985469986835
 20
-2057.7359090605451
 30
0.0
 11
548.76985469986835
 21
-2057.6359078971468
 31
0.0
  0
LINE
  5
181AA
  8
0
 10
552.76985469986835
 20
-2061.6359172043331
 30
0.0
 11
552.26985469986835
 21
-2061.5359160409348
 31
0.0
  0
LINE
  5
181AB
  8
0
 10
549.26985469986835
 20
-2060.935909060544
 30
0.0
 11
548.76985469986835
 21
-2060.8359078971471
 31
0.0
  0
LINE
  5
181AC
  8
0
 10
549.26985469986835
 20
-2062.5359090605489
 30
0.0
 11
548.76985469986835
 21
-2062.4359078971511
 31
0.0
  0
LINE
  5
181AD
  8
0
 10
546.76980816397054
 20
-2075.8359032433409
 30
0.0
 11
554.76980816397054
 21
-2075.8359218577002
 31
0.0
  0
LINE
  5
181AF
  8
1CENTER
 10
741.76880816397045
 20
-2034.6814163598831
 30
0.0
 11
741.76880816397045
 21
-2077.5145494072581
 31
0.0
  0
LINE
  5
181B0
  8
0
 10
739.76885469986848
 20
-2051.2359078971472
 30
0.0
 11
743.76885469986848
 21
-2050.4359172043241
 31
0.0
  0
LINE
  5
181B1
  8
0
 10
743.76885469986848
 20
-2050.4359172043241
 30
0.0
 11
743.26885469986848
 21
-2050.3359160409268
 31
0.0
  0
LINE
  5
181B2
  8
0
 10
740.68976929707719
 20
-2039.9486784631069
 30
0.0
 11
740.22167084192722
 21
-2039.8359089507569
 31
0.0
  0
LINE
  5
181B3
  8
0
 10
742.63681943885081
 20
-2037.4359145703099
 30
0.0
 11
742.04854286380851
 21
-2037.124144714058
 31
0.0
  0
LINE
  5
181B4
  8
0
 10
741.13165619060646
 20
-2038.3873458008011
 30
0.0
 11
740.6744843499755
 21
-2038.2359100043609
 31
0.0
  0
LINE
  5
181B5
  8
0
 10
743.08963354325772
 20
-2039.035915623916
 30
0.0
 11
742.53788407945444
 21
-2038.853151481288
 31
0.0
  0
LINE
  5
181B6
  8
0
 10
740.6744843499755
 20
-2038.2359100043609
 30
0.0
 11
742.63681943885081
 21
-2037.4359145703099
 31
0.0
  0
LINE
  5
181B7
  8
0
 10
740.22167084192722
 20
-2039.8359089507569
 30
0.0
 11
743.08963354325772
 21
-2039.035915623916
 31
0.0
  0
LINE
  5
181B8
  8
0
 10
739.76885469986848
 20
-2049.6359078971468
 30
0.0
 11
743.76885469986848
 21
-2048.8359172043238
 31
0.0
  0
LINE
  5
181B9
  8
0
 10
739.76885469986848
 20
-2048.0359078971469
 30
0.0
 11
743.76885469986848
 21
-2047.2359172043241
 31
0.0
  0
LINE
  5
181BA
  8
0
 10
740.26885469986837
 20
-2048.1359090605438
 30
0.0
 11
739.76885469986848
 21
-2048.0359078971469
 31
0.0
  0
LINE
  5
181BB
  8
0
 10
743.76885469986848
 20
-2047.2359172043241
 30
0.0
 11
743.26885469986848
 21
-2047.135916040927
 31
0.0
  0
LINE
  5
181BC
  8
0
 10
743.76885469986848
 20
-2048.8359172043238
 30
0.0
 11
743.26885469986848
 21
-2048.7359160409269
 31
0.0
  0
LINE
  5
181BD
  8
0
 10
743.54244764766452
 20
-2040.635916677521
 30
0.0
 11
743.00585391239326
 21
-2040.506645979892
 31
0.0
  0
LINE
  5
181BE
  8
0
 10
739.76885469986848
 20
-2041.435907897147
 30
0.0
 11
743.54244764766452
 21
-2040.635916677521
 31
0.0
  0
LINE
  5
181BF
  8
0
 10
740.26885469986837
 20
-2041.5359090605441
 30
0.0
 11
739.76885469986848
 21
-2041.435907897147
 31
0.0
  0
LINE
  5
181C0
  8
0
 10
740.26885469986837
 20
-2049.7359090605441
 30
0.0
 11
739.76885469986848
 21
-2049.6359078971468
 31
0.0
  0
LINE
  5
181C1
  8
0
 10
739.76885469986848
 20
-2054.435907897147
 30
0.0
 11
743.76885469986848
 21
-2053.635917204324
 31
0.0
  0
LINE
  5
181C2
  8
0
 10
739.76885469986848
 20
-2052.8359078971471
 30
0.0
 11
743.76885469986848
 21
-2052.0359172043241
 31
0.0
  0
LINE
  5
181C3
  8
0
 10
740.26885469986837
 20
-2051.3359090605441
 30
0.0
 11
739.76885469986848
 21
-2051.2359078971472
 31
0.0
  0
LINE
  5
181C4
  8
0
 10
740.26885469986837
 20
-2052.935909060544
 30
0.0
 11
739.76885469986848
 21
-2052.8359078971471
 31
0.0
  0
LINE
  5
181C5
  8
0
 10
743.76885469986848
 20
-2052.0359172043241
 30
0.0
 11
743.26885469986848
 21
-2051.9359160409272
 31
0.0
  0
LINE
  5
181C6
  8
0
 10
743.76885469986848
 20
-2053.635917204324
 30
0.0
 11
743.26885469986848
 21
-2053.5359160409271
 31
0.0
  0
LINE
  5
181C7
  8
0
 10
740.26885469986837
 20
-2054.5359090605439
 30
0.0
 11
739.76885469986848
 21
-2054.435907897147
 31
0.0
  0
LINE
  5
181C8
  8
0
 10
743.76885469986848
 20
-2045.635917204324
 30
0.0
 11
743.26885469986848
 21
-2045.5359160409271
 31
0.0
  0
LINE
  5
181C9
  8
0
 10
739.76885469986848
 20
-2046.435907897147
 30
0.0
 11
743.76885469986848
 21
-2045.635917204324
 31
0.0
  0
LINE
  5
181CA
  8
0
 10
740.26885469986837
 20
-2046.5359090605441
 30
0.0
 11
739.76885469986848
 21
-2046.435907897147
 31
0.0
  0
LINE
  5
181CB
  8
0
 10
739.76885469986848
 20
-2044.8359078971471
 30
0.0
 11
743.76885469986848
 21
-2044.0359172043241
 31
0.0
  0
LINE
  5
181CC
  8
0
 10
743.76885469986848
 20
-2044.0359172043241
 30
0.0
 11
743.26885469986848
 21
-2043.9359160409269
 31
0.0
  0
LINE
  5
181CD
  8
0
 10
740.26885469986837
 20
-2044.935909060544
 30
0.0
 11
739.76885469986848
 21
-2044.8359078971471
 31
0.0
  0
LINE
  5
181CE
  8
0
 10
743.76885469986848
 20
-2042.4359172043239
 30
0.0
 11
743.26885469986848
 21
-2042.335916040927
 31
0.0
  0
LINE
  5
181CF
  8
0
 10
739.76885469986848
 20
-2043.2359078971469
 30
0.0
 11
743.76885469986848
 21
-2042.4359172043239
 31
0.0
  0
LINE
  5
181D0
  8
0
 10
740.26885469986837
 20
-2043.3359090605441
 30
0.0
 11
739.76885469986848
 21
-2043.2359078971469
 31
0.0
  0
LINE
  5
181D1
  8
0
 10
741.76880816397045
 20
-2073.2359218578181
 30
0.0
 11
743.76885469986848
 21
-2072.8359172043379
 31
0.0
  0
LINE
  5
181D2
  8
0
 10
739.76885469986848
 20
-2064.035907897156
 30
0.0
 11
743.76885469986848
 21
-2063.235917204333
 31
0.0
  0
LINE
  5
181D3
  8
0
 10
739.76885469986848
 20
-2060.8359078971471
 30
0.0
 11
743.76885469986848
 21
-2060.0359172043291
 31
0.0
  0
LINE
  5
181D4
  8
0
 10
743.76885469986848
 20
-2071.235917204333
 30
0.0
 11
743.26885469986848
 21
-2071.1359160409352
 31
0.0
  0
LINE
  5
181D5
  8
0
 10
743.76885469986848
 20
-2072.8359172043379
 30
0.0
 11
743.26885469986848
 21
-2072.7359160409401
 31
0.0
  0
LINE
  5
181D6
  8
0
 10
740.26885469986837
 20
-2072.1359090605538
 30
0.0
 11
739.76885469986848
 21
-2072.035907897156
 31
0.0
  0
LINE
  5
181D7
  8
0
 10
739.76885469986848
 20
-2072.035907897156
 30
0.0
 11
743.76885469986848
 21
-2071.235917204333
 31
0.0
  0
LINE
  5
181D8
  8
0
 10
740.26885469986837
 20
-2070.535909060553
 30
0.0
 11
739.76885469986848
 21
-2070.4359078971561
 31
0.0
  0
LINE
  5
181D9
  8
0
 10
743.76885469986848
 20
-2069.6359172043331
 30
0.0
 11
743.26885469986848
 21
-2069.5359160409362
 31
0.0
  0
LINE
  5
181DA
  8
0
 10
743.76885469986848
 20
-2068.0359172043331
 30
0.0
 11
743.26885469986848
 21
-2067.9359160409358
 31
0.0
  0
LINE
  5
181DB
  8
0
 10
740.26885469986837
 20
-2068.9359090605531
 30
0.0
 11
739.76885469986848
 21
-2068.8359078971562
 31
0.0
  0
LINE
  5
181DC
  8
0
 10
740.26885469986837
 20
-2067.3359090605518
 30
0.0
 11
739.76885469986848
 21
-2067.2359078971549
 31
0.0
  0
LINE
  5
181DD
  8
0
 10
739.76885469986848
 20
-2068.8359078971562
 30
0.0
 11
743.76885469986848
 21
-2068.0359172043331
 31
0.0
  0
LINE
  5
181DE
  8
0
 10
739.76885469986848
 20
-2070.4359078971561
 30
0.0
 11
743.76885469986848
 21
-2069.6359172043331
 31
0.0
  0
LINE
  5
181DF
  8
0
 10
740.26885469986837
 20
-2065.7359090605528
 30
0.0
 11
739.76885469986848
 21
-2065.6359078971559
 31
0.0
  0
LINE
  5
181E0
  8
0
 10
743.76885469986848
 20
-2064.8359172043329
 30
0.0
 11
743.26885469986848
 21
-2064.735916040936
 31
0.0
  0
LINE
  5
181E1
  8
0
 10
743.76885469986848
 20
-2063.235917204333
 30
0.0
 11
743.26885469986848
 21
-2063.1359160409361
 31
0.0
  0
LINE
  5
181E2
  8
0
 10
740.26885469986837
 20
-2064.1359090605529
 30
0.0
 11
739.76885469986848
 21
-2064.035907897156
 31
0.0
  0
LINE
  5
181E3
  8
0
 10
739.76885469986848
 20
-2065.6359078971559
 30
0.0
 11
743.76885469986848
 21
-2064.8359172043329
 31
0.0
  0
LINE
  5
181E4
  8
0
 10
743.76885469986848
 20
-2066.4359172043328
 30
0.0
 11
743.26885469986848
 21
-2066.3359160409359
 31
0.0
  0
LINE
  5
181E5
  8
0
 10
739.76885469986848
 20
-2067.2359078971549
 30
0.0
 11
743.76885469986848
 21
-2066.4359172043328
 31
0.0
  0
LINE
  5
181E6
  8
0
 10
739.76885469986848
 20
-2062.4359078971511
 30
0.0
 11
743.76885469986848
 21
-2061.6359172043331
 31
0.0
  0
LINE
  5
181E7
  8
0
 10
739.76885469986848
 20
-2057.6359078971468
 30
0.0
 11
743.76885469986848
 21
-2056.8359172043279
 31
0.0
  0
LINE
  5
181E8
  8
0
 10
739.76885469986848
 20
-2056.0359078971469
 30
0.0
 11
743.76885469986848
 21
-2055.2359172043239
 31
0.0
  0
LINE
  5
181E9
  8
0
 10
740.26885469986837
 20
-2056.1359090605451
 30
0.0
 11
739.76885469986848
 21
-2056.0359078971469
 31
0.0
  0
LINE
  5
181EA
  8
0
 10
743.76885469986848
 20
-2056.8359172043279
 30
0.0
 11
743.26885469986848
 21
-2056.735916040931
 31
0.0
  0
LINE
  5
181EB
  8
0
 10
743.76885469986848
 20
-2055.2359172043239
 30
0.0
 11
743.26885469986848
 21
-2055.135916040927
 31
0.0
  0
LINE
  5
181EC
  8
0
 10
743.76885469986848
 20
-2060.0359172043291
 30
0.0
 11
743.26885469986848
 21
-2059.9359160409308
 31
0.0
  0
LINE
  5
181ED
  8
0
 10
740.26885469986837
 20
-2059.3359090605441
 30
0.0
 11
739.76885469986848
 21
-2059.2359078971458
 31
0.0
  0
LINE
  5
181EE
  8
0
 10
743.76885469986848
 20
-2058.4359172043291
 30
0.0
 11
743.26885469986848
 21
-2058.3359160409309
 31
0.0
  0
LINE
  5
181EF
  8
0
 10
739.76885469986848
 20
-2059.2359078971458
 30
0.0
 11
743.76885469986848
 21
-2058.4359172043291
 31
0.0
  0
LINE
  5
181F0
  8
0
 10
740.26885469986837
 20
-2057.7359090605451
 30
0.0
 11
739.76885469986848
 21
-2057.6359078971468
 31
0.0
  0
LINE
  5
181F1
  8
0
 10
743.76885469986848
 20
-2061.6359172043331
 30
0.0
 11
743.26885469986848
 21
-2061.5359160409348
 31
0.0
  0
LINE
  5
181F2
  8
0
 10
740.26885469986837
 20
-2060.935909060544
 30
0.0
 11
739.76885469986848
 21
-2060.8359078971471
 31
0.0
  0
LINE
  5
181F3
  8
0
 10
740.26885469986837
 20
-2062.5359090605489
 30
0.0
 11
739.76885469986848
 21
-2062.4359078971511
 31
0.0
  0
LINE
  5
181F4
  8
0
 10
737.76880816397045
 20
-2075.8359032433409
 30
0.0
 11
745.76880816397045
 21
-2075.8359218577002
 31
0.0
  0
LINE
  5
181F6
  8
1CENTER
 10
932.76780816397047
 20
-2034.6814163598831
 30
0.0
 11
932.76780816397047
 21
-2077.5145494072581
 31
0.0
  0
LINE
  5
181F7
  8
0
 10
930.76785469986851
 20
-2051.2359078971472
 30
0.0
 11
934.76785469986839
 21
-2050.4359172043241
 31
0.0
  0
LINE
  5
181F8
  8
0
 10
934.76785469986839
 20
-2050.4359172043241
 30
0.0
 11
934.26785469986851
 21
-2050.3359160409268
 31
0.0
  0
LINE
  5
181F9
  8
0
 10
931.6887692970771
 20
-2039.9486784631069
 30
0.0
 11
931.22067084192724
 21
-2039.8359089507569
 31
0.0
  0
LINE
  5
181FA
  8
0
 10
933.63581943885094
 20
-2037.4359145703099
 30
0.0
 11
933.04754286380842
 21
-2037.124144714058
 31
0.0
  0
LINE
  5
181FB
  8
0
 10
932.1306561906066
 20
-2038.3873458008011
 30
0.0
 11
931.67348434997552
 21
-2038.2359100043609
 31
0.0
  0
LINE
  5
181FC
  8
0
 10
934.08863354325774
 20
-2039.035915623916
 30
0.0
 11
933.53688407945435
 21
-2038.853151481288
 31
0.0
  0
LINE
  5
181FD
  8
0
 10
931.67348434997552
 20
-2038.2359100043609
 30
0.0
 11
933.63581943885094
 21
-2037.4359145703099
 31
0.0
  0
LINE
  5
181FE
  8
0
 10
931.22067084192724
 20
-2039.8359089507569
 30
0.0
 11
934.08863354325774
 21
-2039.035915623916
 31
0.0
  0
LINE
  5
181FF
  8
0
 10
930.76785469986851
 20
-2049.6359078971468
 30
0.0
 11
934.76785469986839
 21
-2048.8359172043238
 31
0.0
  0
LINE
  5
18200
  8
0
 10
930.76785469986851
 20
-2048.0359078971469
 30
0.0
 11
934.76785469986839
 21
-2047.2359172043241
 31
0.0
  0
LINE
  5
18201
  8
0
 10
931.26785469986839
 20
-2048.1359090605438
 30
0.0
 11
930.76785469986851
 21
-2048.0359078971469
 31
0.0
  0
LINE
  5
18202
  8
0
 10
934.76785469986839
 20
-2047.2359172043241
 30
0.0
 11
934.26785469986851
 21
-2047.135916040927
 31
0.0
  0
LINE
  5
18203
  8
0
 10
934.76785469986839
 20
-2048.8359172043238
 30
0.0
 11
934.26785469986851
 21
-2048.7359160409269
 31
0.0
  0
LINE
  5
18204
  8
0
 10
934.54144764766465
 20
-2040.635916677521
 30
0.0
 11
934.0048539123934
 21
-2040.506645979892
 31
0.0
  0
LINE
  5
18205
  8
0
 10
930.76785469986851
 20
-2041.435907897147
 30
0.0
 11
934.54144764766465
 21
-2040.635916677521
 31
0.0
  0
LINE
  5
18206
  8
0
 10
931.26785469986839
 20
-2041.5359090605441
 30
0.0
 11
930.76785469986851
 21
-2041.435907897147
 31
0.0
  0
LINE
  5
18207
  8
0
 10
931.26785469986839
 20
-2049.7359090605441
 30
0.0
 11
930.76785469986851
 21
-2049.6359078971468
 31
0.0
  0
LINE
  5
18208
  8
0
 10
930.76785469986851
 20
-2054.435907897147
 30
0.0
 11
934.76785469986839
 21
-2053.635917204324
 31
0.0
  0
LINE
  5
18209
  8
0
 10
930.76785469986851
 20
-2052.8359078971471
 30
0.0
 11
934.76785469986839
 21
-2052.0359172043241
 31
0.0
  0
LINE
  5
1820A
  8
0
 10
931.26785469986839
 20
-2051.3359090605441
 30
0.0
 11
930.76785469986851
 21
-2051.2359078971472
 31
0.0
  0
LINE
  5
1820B
  8
0
 10
931.26785469986839
 20
-2052.935909060544
 30
0.0
 11
930.76785469986851
 21
-2052.8359078971471
 31
0.0
  0
LINE
  5
1820C
  8
0
 10
934.76785469986839
 20
-2052.0359172043241
 30
0.0
 11
934.26785469986851
 21
-2051.9359160409272
 31
0.0
  0
LINE
  5
1820D
  8
0
 10
934.76785469986839
 20
-2053.635917204324
 30
0.0
 11
934.26785469986851
 21
-2053.5359160409271
 31
0.0
  0
LINE
  5
1820E
  8
0
 10
931.26785469986839
 20
-2054.5359090605439
 30
0.0
 11
930.76785469986851
 21
-2054.435907897147
 31
0.0
  0
LINE
  5
1820F
  8
0
 10
934.76785469986839
 20
-2045.635917204324
 30
0.0
 11
934.26785469986851
 21
-2045.5359160409271
 31
0.0
  0
LINE
  5
18210
  8
0
 10
930.76785469986851
 20
-2046.435907897147
 30
0.0
 11
934.76785469986839
 21
-2045.635917204324
 31
0.0
  0
LINE
  5
18211
  8
0
 10
931.26785469986839
 20
-2046.5359090605441
 30
0.0
 11
930.76785469986851
 21
-2046.435907897147
 31
0.0
  0
LINE
  5
18212
  8
0
 10
930.76785469986851
 20
-2044.8359078971471
 30
0.0
 11
934.76785469986839
 21
-2044.0359172043241
 31
0.0
  0
LINE
  5
18213
  8
0
 10
934.76785469986839
 20
-2044.0359172043241
 30
0.0
 11
934.26785469986851
 21
-2043.9359160409269
 31
0.0
  0
LINE
  5
18214
  8
0
 10
931.26785469986839
 20
-2044.935909060544
 30
0.0
 11
930.76785469986851
 21
-2044.8359078971471
 31
0.0
  0
LINE
  5
18215
  8
0
 10
934.76785469986839
 20
-2042.4359172043239
 30
0.0
 11
934.26785469986851
 21
-2042.335916040927
 31
0.0
  0
LINE
  5
18216
  8
0
 10
930.76785469986851
 20
-2043.2359078971469
 30
0.0
 11
934.76785469986839
 21
-2042.4359172043239
 31
0.0
  0
LINE
  5
18217
  8
0
 10
931.26785469986839
 20
-2043.3359090605441
 30
0.0
 11
930.76785469986851
 21
-2043.2359078971469
 31
0.0
  0
LINE
  5
18218
  8
0
 10
932.76780816397047
 20
-2073.2359218578181
 30
0.0
 11
934.76785469986839
 21
-2072.8359172043379
 31
0.0
  0
LINE
  5
18219
  8
0
 10
930.76785469986851
 20
-2064.035907897156
 30
0.0
 11
934.76785469986839
 21
-2063.235917204333
 31
0.0
  0
LINE
  5
1821A
  8
0
 10
930.76785469986851
 20
-2060.8359078971471
 30
0.0
 11
934.76785469986839
 21
-2060.0359172043291
 31
0.0
  0
LINE
  5
1821B
  8
0
 10
934.76785469986839
 20
-2071.235917204333
 30
0.0
 11
934.26785469986851
 21
-2071.1359160409352
 31
0.0
  0
LINE
  5
1821C
  8
0
 10
934.76785469986839
 20
-2072.8359172043379
 30
0.0
 11
934.26785469986851
 21
-2072.7359160409401
 31
0.0
  0
LINE
  5
1821D
  8
0
 10
931.26785469986839
 20
-2072.1359090605538
 30
0.0
 11
930.76785469986851
 21
-2072.035907897156
 31
0.0
  0
LINE
  5
1821E
  8
0
 10
930.76785469986851
 20
-2072.035907897156
 30
0.0
 11
934.76785469986839
 21
-2071.235917204333
 31
0.0
  0
LINE
  5
1821F
  8
0
 10
931.26785469986839
 20
-2070.535909060553
 30
0.0
 11
930.76785469986851
 21
-2070.4359078971561
 31
0.0
  0
LINE
  5
18220
  8
0
 10
934.76785469986839
 20
-2069.6359172043331
 30
0.0
 11
934.26785469986851
 21
-2069.5359160409362
 31
0.0
  0
LINE
  5
18221
  8
0
 10
934.76785469986839
 20
-2068.0359172043331
 30
0.0
 11
934.26785469986851
 21
-2067.9359160409358
 31
0.0
  0
LINE
  5
18222
  8
0
 10
931.26785469986839
 20
-2068.9359090605531
 30
0.0
 11
930.76785469986851
 21
-2068.8359078971562
 31
0.0
  0
LINE
  5
18223
  8
0
 10
931.26785469986839
 20
-2067.3359090605518
 30
0.0
 11
930.76785469986851
 21
-2067.2359078971549
 31
0.0
  0
LINE
  5
18224
  8
0
 10
930.76785469986851
 20
-2068.8359078971562
 30
0.0
 11
934.76785469986839
 21
-2068.0359172043331
 31
0.0
  0
LINE
  5
18225
  8
0
 10
930.76785469986851
 20
-2070.4359078971561
 30
0.0
 11
934.76785469986839
 21
-2069.6359172043331
 31
0.0
  0
LINE
  5
18226
  8
0
 10
931.26785469986839
 20
-2065.7359090605528
 30
0.0
 11
930.76785469986851
 21
-2065.6359078971559
 31
0.0
  0
LINE
  5
18227
  8
0
 10
934.76785469986839
 20
-2064.8359172043329
 30
0.0
 11
934.26785469986851
 21
-2064.735916040936
 31
0.0
  0
LINE
  5
18228
  8
0
 10
934.76785469986839
 20
-2063.235917204333
 30
0.0
 11
934.26785469986851
 21
-2063.1359160409361
 31
0.0
  0
LINE
  5
18229
  8
0
 10
931.26785469986839
 20
-2064.1359090605529
 30
0.0
 11
930.76785469986851
 21
-2064.035907897156
 31
0.0
  0
LINE
  5
1822A
  8
0
 10
930.76785469986851
 20
-2065.6359078971559
 30
0.0
 11
934.76785469986839
 21
-2064.8359172043329
 31
0.0
  0
LINE
  5
1822B
  8
0
 10
934.76785469986839
 20
-2066.4359172043328
 30
0.0
 11
934.26785469986851
 21
-2066.3359160409359
 31
0.0
  0
LINE
  5
1822C
  8
0
 10
930.76785469986851
 20
-2067.2359078971549
 30
0.0
 11
934.76785469986839
 21
-2066.4359172043328
 31
0.0
  0
LINE
  5
1822D
  8
0
 10
930.76785469986851
 20
-2062.4359078971511
 30
0.0
 11
934.76785469986839
 21
-2061.6359172043331
 31
0.0
  0
LINE
  5
1822E
  8
0
 10
930.76785469986851
 20
-2057.6359078971468
 30
0.0
 11
934.76785469986839
 21
-2056.8359172043279
 31
0.0
  0
LINE
  5
1822F
  8
0
 10
930.76785469986851
 20
-2056.0359078971469
 30
0.0
 11
934.76785469986839
 21
-2055.2359172043239
 31
0.0
  0
LINE
  5
18230
  8
0
 10
931.26785469986839
 20
-2056.1359090605451
 30
0.0
 11
930.76785469986851
 21
-2056.0359078971469
 31
0.0
  0
LINE
  5
18231
  8
0
 10
934.76785469986839
 20
-2056.8359172043279
 30
0.0
 11
934.26785469986851
 21
-2056.735916040931
 31
0.0
  0
LINE
  5
18232
  8
0
 10
934.76785469986839
 20
-2055.2359172043239
 30
0.0
 11
934.26785469986851
 21
-2055.135916040927
 31
0.0
  0
LINE
  5
18233
  8
0
 10
934.76785469986839
 20
-2060.0359172043291
 30
0.0
 11
934.26785469986851
 21
-2059.9359160409308
 31
0.0
  0
LINE
  5
18234
  8
0
 10
931.26785469986839
 20
-2059.3359090605441
 30
0.0
 11
930.76785469986851
 21
-2059.2359078971458
 31
0.0
  0
LINE
  5
18235
  8
0
 10
934.76785469986839
 20
-2058.4359172043291
 30
0.0
 11
934.26785469986851
 21
-2058.3359160409309
 31
0.0
  0
LINE
  5
18236
  8
0
 10
930.76785469986851
 20
-2059.2359078971458
 30
0.0
 11
934.76785469986839
 21
-2058.4359172043291
 31
0.0
  0
LINE
  5
18237
  8
0
 10
931.26785469986839
 20
-2057.7359090605451
 30
0.0
 11
930.76785469986851
 21
-2057.6359078971468
 31
0.0
  0
LINE
  5
18238
  8
0
 10
934.76785469986839
 20
-2061.6359172043331
 30
0.0
 11
934.26785469986851
 21
-2061.5359160409348
 31
0.0
  0
LINE
  5
18239
  8
0
 10
931.26785469986839
 20
-2060.935909060544
 30
0.0
 11
930.76785469986851
 21
-2060.8359078971471
 31
0.0
  0
LINE
  5
1823A
  8
0
 10
931.26785469986839
 20
-2062.5359090605489
 30
0.0
 11
930.76785469986851
 21
-2062.4359078971511
 31
0.0
  0
LINE
  5
1823B
  8
0
 10
928.76780816397059
 20
-2075.8359032433409
 30
0.0
 11
936.76780816397059
 21
-2075.8359218577002
 31
0.0
  0
LINE
  5
1823D
  8
1CENTER
 10
1251.930297458244
 20
-2137.7716587499999
 30
0.0
 11
1209.0971644108699
 21
-2137.7716587499999
 31
0.0
  0
LINE
  5
1823E
  8
0
 10
1235.3758059209811
 20
-2135.771705285898
 30
0.0
 11
1236.175796613803
 21
-2139.771705285898
 31
0.0
  0
LINE
  5
1823F
  8
0
 10
1236.175796613803
 20
-2139.771705285898
 30
0.0
 11
1236.2757977772001
 21
-2139.271705285898
 31
0.0
  0
LINE
  5
18240
  8
0
 10
1246.6630353550199
 20
-2136.6926198831061
 30
0.0
 11
1246.77580486737
 21
-2136.224521427956
 31
0.0
  0
LINE
  5
18241
  8
0
 10
1249.1757992478169
 20
-2138.6396700248802
 30
0.0
 11
1249.4875691040691
 21
-2138.0513934498381
 31
0.0
  0
LINE
  5
18242
  8
0
 10
1248.224368017326
 20
-2137.134506776636
 30
0.0
 11
1248.375803813766
 21
-2136.6773349360042
 31
0.0
  0
LINE
  5
18243
  8
0
 10
1247.575798194212
 20
-2139.0924841292872
 30
0.0
 11
1247.75856233684
 21
-2138.5407346654829
 31
0.0
  0
LINE
  5
18244
  8
0
 10
1248.375803813766
 20
-2136.6773349360042
 30
0.0
 11
1249.1757992478169
 21
-2138.6396700248802
 31
0.0
  0
LINE
  5
18245
  8
0
 10
1246.77580486737
 20
-2136.224521427956
 30
0.0
 11
1247.575798194212
 21
-2139.0924841292872
 31
0.0
  0
LINE
  5
18246
  8
0
 10
1236.9758059209801
 20
-2135.771705285898
 30
0.0
 11
1237.7757966138031
 21
-2139.771705285898
 31
0.0
  0
LINE
  5
18247
  8
0
 10
1238.5758059209811
 20
-2135.771705285898
 30
0.0
 11
1239.375796613803
 21
-2139.771705285898
 31
0.0
  0
LINE
  5
18248
  8
0
 10
1238.475804757584
 20
-2136.271705285897
 30
0.0
 11
1238.5758059209811
 21
-2135.771705285898
 31
0.0
  0
LINE
  5
18249
  8
0
 10
1239.375796613803
 20
-2139.771705285898
 30
0.0
 11
1239.4757977771999
 21
-2139.271705285898
 31
0.0
  0
LINE
  5
1824A
  8
0
 10
1237.7757966138031
 20
-2139.771705285898
 30
0.0
 11
1237.8757977772
 21
-2139.271705285898
 31
0.0
  0
LINE
  5
1824B
  8
0
 10
1245.9757971406059
 20
-2139.5452982336928
 30
0.0
 11
1246.105067838236
 21
-2139.008704498422
 31
0.0
  0
LINE
  5
1824C
  8
0
 10
1245.175805920981
 20
-2135.771705285898
 30
0.0
 11
1245.9757971406059
 21
-2139.5452982336928
 31
0.0
  0
LINE
  5
1824D
  8
0
 10
1245.0758047575839
 20
-2136.271705285897
 30
0.0
 11
1245.175805920981
 21
-2135.771705285898
 31
0.0
  0
LINE
  5
1824E
  8
0
 10
1236.875804757583
 20
-2136.271705285897
 30
0.0
 11
1236.9758059209801
 21
-2135.771705285898
 31
0.0
  0
LINE
  5
1824F
  8
0
 10
1232.175805920981
 20
-2135.771705285898
 30
0.0
 11
1232.9757966138029
 21
-2139.771705285898
 31
0.0
  0
LINE
  5
18250
  8
0
 10
1233.7758059209809
 20
-2135.771705285898
 30
0.0
 11
1234.575796613804
 21
-2139.771705285898
 31
0.0
  0
LINE
  5
18251
  8
0
 10
1235.275804757584
 20
-2136.271705285897
 30
0.0
 11
1235.3758059209811
 21
-2135.771705285898
 31
0.0
  0
LINE
  5
18252
  8
0
 10
1233.675804757584
 20
-2136.271705285897
 30
0.0
 11
1233.7758059209809
 21
-2135.771705285898
 31
0.0
  0
LINE
  5
18253
  8
0
 10
1234.575796613804
 20
-2139.771705285898
 30
0.0
 11
1234.6757977771999
 21
-2139.271705285898
 31
0.0
  0
LINE
  5
18254
  8
0
 10
1232.9757966138029
 20
-2139.771705285898
 30
0.0
 11
1233.0757977772
 21
-2139.271705285898
 31
0.0
  0
LINE
  5
18255
  8
0
 10
1232.075804757583
 20
-2136.271705285897
 30
0.0
 11
1232.175805920981
 21
-2135.771705285898
 31
0.0
  0
LINE
  5
18256
  8
0
 10
1240.9757966138029
 20
-2139.771705285898
 30
0.0
 11
1241.0757977772
 21
-2139.271705285898
 31
0.0
  0
LINE
  5
18257
  8
0
 10
1240.175805920981
 20
-2135.771705285898
 30
0.0
 11
1240.9757966138029
 21
-2139.771705285898
 31
0.0
  0
LINE
  5
18258
  8
0
 10
1240.075804757583
 20
-2136.271705285897
 30
0.0
 11
1240.175805920981
 21
-2135.771705285898
 31
0.0
  0
LINE
  5
18259
  8
0
 10
1241.7758059209809
 20
-2135.771705285898
 30
0.0
 11
1242.575796613804
 21
-2139.771705285898
 31
0.0
  0
LINE
  5
1825A
  8
0
 10
1242.575796613804
 20
-2139.771705285898
 30
0.0
 11
1242.6757977771999
 21
-2139.271705285898
 31
0.0
  0
LINE
  5
1825B
  8
0
 10
1241.675804757584
 20
-2136.271705285897
 30
0.0
 11
1241.7758059209809
 21
-2135.771705285898
 31
0.0
  0
LINE
  5
1825C
  8
0
 10
1244.175796613803
 20
-2139.771705285898
 30
0.0
 11
1244.2757977772001
 21
-2139.271705285898
 31
0.0
  0
LINE
  5
1825D
  8
0
 10
1243.3758059209811
 20
-2135.771705285898
 30
0.0
 11
1244.175796613803
 21
-2139.771705285898
 31
0.0
  0
LINE
  5
1825E
  8
0
 10
1243.275804757584
 20
-2136.271705285897
 30
0.0
 11
1243.3758059209811
 21
-2135.771705285898
 31
0.0
  0
LINE
  5
1825F
  8
0
 10
1213.3757919603099
 20
-2137.7716587499999
 30
0.0
 11
1213.7757966137899
 21
-2139.771705285898
 31
0.0
  0
LINE
  5
18260
  8
0
 10
1222.575805920972
 20
-2135.771705285898
 30
0.0
 11
1223.3757966137939
 21
-2139.771705285898
 31
0.0
  0
LINE
  5
18261
  8
0
 10
1225.7758059209809
 20
-2135.771705285898
 30
0.0
 11
1226.575796613799
 21
-2139.771705285898
 31
0.0
  0
LINE
  5
18262
  8
0
 10
1215.3757966137939
 20
-2139.771705285898
 30
0.0
 11
1215.475797777191
 21
-2139.271705285898
 31
0.0
  0
LINE
  5
18263
  8
0
 10
1213.7757966137899
 20
-2139.771705285898
 30
0.0
 11
1213.8757977771879
 21
-2139.271705285898
 31
0.0
  0
LINE
  5
18264
  8
0
 10
1214.475804757574
 20
-2136.271705285897
 30
0.0
 11
1214.575805920972
 21
-2135.771705285898
 31
0.0
  0
LINE
  5
18265
  8
0
 10
1214.575805920972
 20
-2135.771705285898
 30
0.0
 11
1215.3757966137939
 21
-2139.771705285898
 31
0.0
  0
LINE
  5
18266
  8
0
 10
1216.075804757575
 20
-2136.271705285897
 30
0.0
 11
1216.1758059209719
 21
-2135.771705285898
 31
0.0
  0
LINE
  5
18267
  8
0
 10
1216.975796613794
 20
-2139.771705285898
 30
0.0
 11
1217.0757977771921
 21
-2139.271705285898
 31
0.0
  0
LINE
  5
18268
  8
0
 10
1218.5757966137951
 20
-2139.771705285898
 30
0.0
 11
1218.675797777192
 21
-2139.271705285898
 31
0.0
  0
LINE
  5
18269
  8
0
 10
1217.675804757575
 20
-2136.271705285897
 30
0.0
 11
1217.7758059209721
 21
-2135.771705285898
 31
0.0
  0
LINE
  5
1826A
  8
0
 10
1219.2758047575751
 20
-2136.271705285897
 30
0.0
 11
1219.375805920972
 21
-2135.771705285898
 31
0.0
  0
LINE
  5
1826B
  8
0
 10
1217.7758059209721
 20
-2135.771705285898
 30
0.0
 11
1218.5757966137951
 21
-2139.771705285898
 31
0.0
  0
LINE
  5
1826C
  8
0
 10
1216.1758059209719
 20
-2135.771705285898
 30
0.0
 11
1216.975796613794
 21
-2139.771705285898
 31
0.0
  0
LINE
  5
1826D
  8
0
 10
1220.8758047575741
 20
-2136.271705285897
 30
0.0
 11
1220.9758059209721
 21
-2135.771705285898
 31
0.0
  0
LINE
  5
1826E
  8
0
 10
1221.775796613794
 20
-2139.771705285898
 30
0.0
 11
1221.8757977771911
 21
-2139.271705285898
 31
0.0
  0
LINE
  5
1826F
  8
0
 10
1223.3757966137939
 20
-2139.771705285898
 30
0.0
 11
1223.475797777191
 21
-2139.271705285898
 31
0.0
  0
LINE
  5
18270
  8
0
 10
1222.4758047575749
 20
-2136.271705285897
 30
0.0
 11
1222.575805920972
 21
-2135.771705285898
 31
0.0
  0
LINE
  5
18271
  8
0
 10
1220.9758059209721
 20
-2135.771705285898
 30
0.0
 11
1221.775796613794
 21
-2139.771705285898
 31
0.0
  0
LINE
  5
18272
  8
0
 10
1220.1757966137941
 20
-2139.771705285898
 30
0.0
 11
1220.2757977771921
 21
-2139.271705285898
 31
0.0
  0
LINE
  5
18273
  8
0
 10
1219.375805920972
 20
-2135.771705285898
 30
0.0
 11
1220.1757966137941
 21
-2139.771705285898
 31
0.0
  0
LINE
  5
18274
  8
0
 10
1224.175805920976
 20
-2135.771705285898
 30
0.0
 11
1224.975796613795
 21
-2139.771705285898
 31
0.0
  0
LINE
  5
18275
  8
0
 10
1228.9758059209801
 20
-2135.771705285898
 30
0.0
 11
1229.775796613799
 21
-2139.771705285898
 31
0.0
  0
LINE
  5
18276
  8
0
 10
1230.5758059209811
 20
-2135.771705285898
 30
0.0
 11
1231.375796613803
 21
-2139.771705285898
 31
0.0
  0
LINE
  5
18277
  8
0
 10
1230.4758047575831
 20
-2136.271705285897
 30
0.0
 11
1230.5758059209811
 21
-2135.771705285898
 31
0.0
  0
LINE
  5
18278
  8
0
 10
1229.775796613799
 20
-2139.771705285898
 30
0.0
 11
1229.875797777197
 21
-2139.271705285898
 31
0.0
  0
LINE
  5
18279
  8
0
 10
1231.375796613803
 20
-2139.771705285898
 30
0.0
 11
1231.4757977771999
 21
-2139.271705285898
 31
0.0
  0
LINE
  5
1827A
  8
0
 10
1226.575796613799
 20
-2139.771705285898
 30
0.0
 11
1226.675797777197
 21
-2139.271705285898
 31
0.0
  0
LINE
  5
1827B
  8
0
 10
1227.275804757583
 20
-2136.271705285897
 30
0.0
 11
1227.3758059209799
 21
-2135.771705285898
 31
0.0
  0
LINE
  5
1827C
  8
0
 10
1228.1757966137991
 20
-2139.771705285898
 30
0.0
 11
1228.275797777196
 21
-2139.271705285898
 31
0.0
  0
LINE
  5
1827D
  8
0
 10
1227.3758059209799
 20
-2135.771705285898
 30
0.0
 11
1228.1757966137991
 21
-2139.771705285898
 31
0.0
  0
LINE
  5
1827E
  8
0
 10
1228.875804757583
 20
-2136.271705285897
 30
0.0
 11
1228.9758059209801
 21
-2135.771705285898
 31
0.0
  0
LINE
  5
1827F
  8
0
 10
1224.975796613795
 20
-2139.771705285898
 30
0.0
 11
1225.0757977771921
 21
-2139.271705285898
 31
0.0
  0
LINE
  5
18280
  8
0
 10
1225.6758047575829
 20
-2136.271705285897
 30
0.0
 11
1225.7758059209809
 21
-2135.771705285898
 31
0.0
  0
LINE
  5
18281
  8
0
 10
1224.0758047575789
 20
-2136.271705285897
 30
0.0
 11
1224.175805920976
 21
-2135.771705285898
 31
0.0
  0
LINE
  5
18282
  8
0
 10
1210.7758105747871
 20
-2133.771658749999
 30
0.0
 11
1210.775791960428
 21
-2141.7716587499999
 31
0.0
  0
LINE
  5
18283
  8
1DIM1
 10
932.76780816397047
 20
-2141.771720550495
 30
0.0
 11
932.76780816397047
 21
-2204.004384405825
 31
0.0
  0
LINE
  5
18284
  8
1DIM1
 10
1122.7758081639699
 20
-2141.7717205504941
 30
0.0
 11
1122.7758081639699
 21
-2204.004384405825
 31
0.0
  0
LINE
  5
18285
  8
1DIM1
 10
942.76780816397059
 20
-2199.0043844058241
 30
0.0
 11
1112.7758081639699
 21
-2199.0043844058241
 31
0.0
  0
LINE
  5
18289
  8
1DIM1
 10
741.76880816397045
 20
-2141.771720550495
 30
0.0
 11
741.76880816397045
 21
-2204.004384405825
 31
0.0
  0
LINE
  5
1828A
  8
1DIM1
 10
932.76780816397047
 20
-2141.771720550495
 30
0.0
 11
932.76780816397047
 21
-2204.004384405825
 31
0.0
  0
LINE
  5
1828B
  8
1DIM1
 10
751.76880816397045
 20
-2199.0043844058241
 30
0.0
 11
922.76780816397047
 21
-2199.0043844058241
 31
0.0
  0
LINE
  5
1828F
  8
1DIM1
 10
550.76980816397054
 20
-2141.771720550495
 30
0.0
 11
550.76980816397054
 21
-2204.004384405825
 31
0.0
  0
LINE
  5
18290
  8
1DIM1
 10
741.76880816397045
 20
-2141.771720550495
 30
0.0
 11
741.76880816397045
 21
-2204.004384405825
 31
0.0
  0
LINE
  5
18291
  8
1DIM1
 10
560.76980816397054
 20
-2199.0043844058241
 30
0.0
 11
731.76880816397056
 21
-2199.0043844058241
 31
0.0
  0
LINE
  5
18295
  8
1DIM1
 10
359.77080816397051
 20
-2141.771720550495
 30
0.0
 11
359.77080816397051
 21
-2204.004384405825
 31
0.0
  0
LINE
  5
18296
  8
1DIM1
 10
550.76980816397054
 20
-2141.771720550495
 30
0.0
 11
550.76980816397054
 21
-2204.004384405825
 31
0.0
  0
LINE
  5
18297
  8
1DIM1
 10
369.77080816397051
 20
-2199.0043844058241
 30
0.0
 11
540.76980816397054
 21
-2199.0043844058241
 31
0.0
  0
LINE
  5
1829B
  8
1DIM1
 10
168.77180816397049
 20
-2141.771720550495
 30
0.0
 11
168.77180816397049
 21
-2204.004384405825
 31
0.0
  0
LINE
  5
1829C
  8
1DIM1
 10
359.77080816397051
 20
-2141.771720550495
 30
0.0
 11
359.77080816397051
 21
-2204.004384405825
 31
0.0
  0
LINE
  5
1829D
  8
1DIM1
 10
178.77180816397049
 20
-2199.0043844058241
 30
0.0
 11
349.77080816397051
 21
-2199.0043844058241
 31
0.0
  0
LINE
  5
182A1
  8
1DIM1
 10
-22.22719183602953
 20
-2141.771720550495
 30
0.0
 11
-22.22719183602954
 21
-2204.004384405825
 31
0.0
  0
LINE
  5
182A2
  8
1DIM1
 10
168.77180816397049
 20
-2141.771720550495
 30
0.0
 11
168.77180816397049
 21
-2204.004384405825
 31
0.0
  0
LINE
  5
182A3
  8
1DIM1
 10
-12.22719183602954
 20
-2199.0043844058241
 30
0.0
 11
158.77180816397049
 21
-2199.0043844058241
 31
0.0
  0
LINE
  5
182A7
  8
1DIM1
 10
-213.2261918360295
 20
-2141.771720550495
 30
0.0
 11
-213.2261918360295
 21
-2204.004384405825
 31
0.0
  0
LINE
  5
182A8
  8
1DIM1
 10
-22.22719183602953
 20
-2141.771720550495
 30
0.0
 11
-22.22719183602954
 21
-2204.004384405825
 31
0.0
  0
LINE
  5
182A9
  8
1DIM1
 10
-203.2261918360295
 20
-2199.0043844058241
 30
0.0
 11
-32.227191836029533
 21
-2199.0043844058241
 31
0.0
  0
LINE
  5
182AD
  8
1DIM1
 10
-404.22519183602952
 20
-2141.771720550495
 30
0.0
 11
-404.22519183602952
 21
-2204.004384405825
 31
0.0
  0
LINE
  5
182AE
  8
1DIM1
 10
-213.2261918360295
 20
-2141.771720550495
 30
0.0
 11
-213.2261918360295
 21
-2204.004384405825
 31
0.0
  0
LINE
  5
182AF
  8
1DIM1
 10
-394.22519183602958
 20
-2199.0043844058241
 30
0.0
 11
-223.22619183602961
 21
-2199.0043844058241
 31
0.0
  0
LINE
  5
182B3
  8
1DIM1
 10
-636.22419183602972
 20
-2147.2716570887378
 30
0.0
 11
-636.22419183602972
 21
-2242.5555875141508
 31
0.0
  0
LINE
  5
182B4
  8
1DIM1
 10
1163.7758081639699
 20
-2147.0216570887378
 30
0.0
 11
1163.7758081639699
 21
-2242.5555875141508
 31
0.0
  0
LINE
  5
182B5
  8
1DIM1
 10
-626.22419183602972
 20
-2237.5555875141508
 30
0.0
 11
1153.7758081639699
 21
-2237.5555875141508
 31
0.0
  0
LINE
  5
182B9
  8
1DIM1
 10
-595.2241918360296
 20
-2141.771720550495
 30
0.0
 11
-595.2241918360296
 21
-2204.004384405825
 31
0.0
  0
LINE
  5
182BA
  8
1DIM1
 10
-404.22519183602952
 20
-2141.771720550495
 30
0.0
 11
-404.22519183602952
 21
-2204.004384405825
 31
0.0
  0
LINE
  5
182BB
  8
1DIM1
 10
-585.2241918360296
 20
-2199.0043844058241
 30
0.0
 11
-414.22519183602958
 21
-2199.0043844058241
 31
0.0
  0
TEXT
  5
182BF
  8
1HATCH
 10
1217.180909406361
 20
-2077.258963015337
 30
0.0
 40
3.5
  1
PB
  0
SOLID
  5
182C0
  8
1HATCH
 10
1218.085439518004
 20
-2096.4117240190262
 30
0.0
 11
1218.105776786048
 21
-2098.439209532326
 31
0.0
 12
1217.428975960612
 22
-2096.5279137012731
 32
0.0
 13
1217.428975960612
 23
-2096.5279137012731
 33
0.0
  0
SOLID
  5
182C2
  8
1DIM
 10
1226.1489603305349
 20
-2096.4161105491262
 30
0.0
 11
1226.6037589999901
 21
-2098.3920329366128
 31
0.0
 12
1225.5327043491579
 22
-2096.6704194358399
 32
0.0
 13
1225.5327043491579
 23
-2096.6704194358399
 33
0.0
  0
TEXT
  5
182C4
  8
1DIM
 10
1223.3482539009001
 20
-2083.260309032461
 30
0.0
 40
3.5
  1
合板9mm以上
  0
LINE
  5
182C5
  8
1DIM
 10
1205.5258081639711
 20
-2127.771772873788
 30
0.0
 11
1195.7958846830561
 21
-2127.771772873788
 31
0.0
  0
LINE
  5
182C6
  8
1DIM
 10
1205.5258081639699
 20
-2147.0216570887369
 30
0.0
 11
1195.7958846830561
 21
-2147.0216570887369
 31
0.0
  0
LINE
  5
182C7
  8
1DIM
 10
1196.7958846830561
 20
-2129.771772873788
 30
0.0
 11
1196.7958846830561
 21
-2145.0216570887369
 31
0.0
  0
TEXT
  5
182CB
  8
1DIM
 10
1107.0555102038149
 20
-2107.8680653790698
 30
0.0
 40
3.5
  1
材質：アルミ
  0
TEXT
  5
182CC
  8
1DIM
 10
1107.0555102038149
 20
-2113.7013987124028
 30
0.0
 40
3.5
  1
仕上げ：ブラストシルバー
  0
SOLID
  5
182CD
  8
1DIM
 10
1100.3088740099929
 20
-2123.8254689237951
 30
0.0
 11
1098.752553251401
 21
-2127.5701064417422
 31
0.0
 12
1099.0102715307351
 22
-2123.5231290841411
 32
0.0
 13
1099.0102715307351
 23
-2123.5231290841411
 33
0.0
1001
ACAD
1000
DSTYLE
1002
{
1070
    40
1040
2.0
1002
}
  0
LINE
  5
182CF
  8
1DIM
 10
1213.5258081639699
 20
-2146.771635972264
 30
0.0
 11
1213.5258081639699
 21
-2169.0216570887378
 31
0.0
  0
LINE
  5
182D0
  8
1DIM
 10
1205.0258081639699
 20
-2146.271772873788
 30
0.0
 11
1205.0258081639699
 21
-2169.0216570887378
 31
0.0
  0
LINE
  5
182D1
  8
1DIM
 10
1211.5258081639699
 20
-2168.0216570887378
 30
0.0
 11
1207.0258081639699
 21
-2168.0216570887378
 31
0.0
  0
LINE
  5
182D2
  8
1DIM
 10
1205.0258081639699
 20
-2168.0216570887378
 30
0.0
 11
1194.292474830637
 21
-2168.0216570887378
 31
0.0
  0
LINE
  5
182D6
  8
1DIM
 10
1213.5258081639699
 20
-2146.771635972264
 30
0.0
 11
1213.5258081639699
 21
-2178.9336113833729
 31
0.0
  0
LINE
  5
182D7
  8
1DIM
 10
1203.7758081639699
 20
-2146.2716570887369
 30
0.0
 11
1203.7758081639699
 21
-2178.9336113833729
 31
0.0
  0
LINE
  5
182D8
  8
1DIM
 10
1211.5258081639699
 20
-2177.9336113833729
 30
0.0
 11
1205.7758081639699
 21
-2177.9336113833729
 31
0.0
  0
LINE
  5
182DC
  8
1DIM
 10
1162.7758081639699
 20
-2148.0216570887378
 30
0.0
 11
1184.7758081639699
 21
-2148.0216570887378
 31
0.0
  0
LINE
  5
182DD
  8
1DIM
 10
1162.7758081639699
 20
-2126.5216570887369
 30
0.0
 11
1184.7758081639699
 21
-2126.5216570887369
 31
0.0
  0
LINE
  5
182DE
  8
1DIM
 10
1183.7758081639699
 20
-2146.0216570887378
 30
0.0
 11
1183.7758081639699
 21
-2128.5216570887378
 31
0.0
  0
TEXT
  5
182E2
  8
1DIM
 10
1183.0758081639699
 20
-2141.938323755403
 30
0.0
 40
3.5
  1
21.5
 50
90.0
  0
LINE
  5
182E3
  8
0
  6
BYBLOCK
 10
1183.23990978397
 20
-2128.5216570887378
 30
0.0
 11
1183.7758081639699
 21
-2126.5216570887369
 31
0.0
  0
LINE
  5
182E4
  8
0
  6
BYBLOCK
 10
1183.7758081639699
 20
-2126.5216570887369
 30
0.0
 11
1184.3117065439701
 21
-2128.5216570887378
 31
0.0
  0
LINE
  5
182E5
  8
0
  6
BYBLOCK
 10
1183.7758081639699
 20
-2126.5216570887369
 30
0.0
 11
1183.7758081639699
 21
-2128.5216570887378
 31
0.0
  0
LINE
  5
182E6
  8
0
  6
BYBLOCK
 10
1184.3117065439701
 20
-2146.0216570887378
 30
0.0
 11
1183.7758081639699
 21
-2148.0216570887378
 31
0.0
  0
LINE
  5
182E7
  8
0
  6
BYBLOCK
 10
1183.7758081639699
 20
-2148.0216570887378
 30
0.0
 11
1183.23990978397
 21
-2146.0216570887378
 31
0.0
  0
LINE
  5
182E8
  8
0
  6
BYBLOCK
 10
1183.7758081639699
 20
-2148.0216570887378
 30
0.0
 11
1183.7758081639699
 21
-2146.0216570887378
 31
0.0
  0
TEXT
  5
182E9
  8
1DIM
 10
1206.6091414973041
 20
-2177.233611383373
 30
0.0
 40
3.5
  1
10
  0
LINE
  5
182EA
  8
0
  6
BYBLOCK
 10
1205.7758081639699
 20
-2178.469509763373
 30
0.0
 11
1203.7758081639699
 21
-2177.9336113833729
 31
0.0
  0
LINE
  5
182EB
  8
0
  6
BYBLOCK
 10
1203.7758081639699
 20
-2177.9336113833729
 30
0.0
 11
1205.7758081639699
 21
-2177.3977130033718
 31
0.0
  0
LINE
  5
182EC
  8
0
  6
BYBLOCK
 10
1203.7758081639699
 20
-2177.9336113833729
 30
0.0
 11
1205.7758081639699
 21
-2177.9336113833729
 31
0.0
  0
LINE
  5
182ED
  8
0
  6
BYBLOCK
 10
1211.5258081639699
 20
-2177.3977130033718
 30
0.0
 11
1213.5258081639699
 21
-2177.9336113833729
 31
0.0
  0
LINE
  5
182EE
  8
0
  6
BYBLOCK
 10
1213.5258081639699
 20
-2177.9336113833729
 30
0.0
 11
1211.5258081639699
 21
-2178.469509763373
 31
0.0
  0
LINE
  5
182EF
  8
0
  6
BYBLOCK
 10
1213.5258081639699
 20
-2177.9336113833729
 30
0.0
 11
1211.5258081639699
 21
-2177.9336113833729
 31
0.0
  0
TEXT
  5
182F0
  8
1DIM
 10
1195.1591414973029
 20
-2167.321657088738
 30
0.0
 40
3.5
  1
8.5
  0
LINE
  5
182F1
  8
0
  6
BYBLOCK
 10
1207.0258081639699
 20
-2168.557555468738
 30
0.0
 11
1205.0258081639699
 21
-2168.0216570887378
 31
0.0
  0
LINE
  5
182F2
  8
0
  6
BYBLOCK
 10
1205.0258081639699
 20
-2168.0216570887378
 30
0.0
 11
1207.0258081639699
 21
-2167.4857587087381
 31
0.0
  0
LINE
  5
182F3
  8
0
  6
BYBLOCK
 10
1205.0258081639699
 20
-2168.0216570887378
 30
0.0
 11
1207.0258081639699
 21
-2168.0216570887378
 31
0.0
  0
LINE
  5
182F4
  8
0
  6
BYBLOCK
 10
1211.5258081639699
 20
-2167.4857587087381
 30
0.0
 11
1213.5258081639699
 21
-2168.0216570887378
 31
0.0
  0
LINE
  5
182F5
  8
0
  6
BYBLOCK
 10
1213.5258081639699
 20
-2168.0216570887378
 30
0.0
 11
1211.5258081639699
 21
-2168.557555468738
 31
0.0
  0
LINE
  5
182F6
  8
0
  6
BYBLOCK
 10
1213.5258081639699
 20
-2168.0216570887378
 30
0.0
 11
1211.5258081639699
 21
-2168.0216570887378
 31
0.0
  0
LINE
  5
182F7
  8
1DIM
 10
1099.6595727703641
 20
-2123.6742990039679
 30
0.0
 11
1101.6555102038151
 21
-2115.1013987124029
 31
0.0
1001
ACAD
1000
DSTYLE
1002
{
1070
    40
1040
2.0
1002
}
  0
LINE
  5
182F8
  8
1DIM
 10
1101.6555102038151
 20
-2115.1013987124029
 30
0.0
 11
1156.522176870481
 21
-2115.1013987124029
 31
0.0
1001
ACAD
1000
DSTYLE
1002
{
1070
    40
1040
2.0
1002
}
  0
TEXT
  5
182F9
  8
1DIM
 10
1196.095884683057
 20
-2139.7300483145959
 30
0.0
 40
3.5
  1
19
 50
90.0
  0
LINE
  5
182FA
  8
0
  6
BYBLOCK
 10
1197.331783063056
 20
-2145.0216570887369
 30
0.0
 11
1196.7958846830561
 21
-2147.0216570887369
 31
0.0
  0
LINE
  5
182FB
  8
0
  6
BYBLOCK
 10
1196.7958846830561
 20
-2147.0216570887369
 30
0.0
 11
1196.2599863030559
 21
-2145.0216570887369
 31
0.0
  0
LINE
  5
182FC
  8
0
  6
BYBLOCK
 10
1196.7958846830561
 20
-2147.0216570887369
 30
0.0
 11
1196.7958846830561
 21
-2145.0216570887369
 31
0.0
  0
LINE
  5
182FD
  8
0
  6
BYBLOCK
 10
1196.2599863030559
 20
-2129.771772873788
 30
0.0
 11
1196.7958846830561
 21
-2127.771772873788
 31
0.0
  0
LINE
  5
182FE
  8
0
  6
BYBLOCK
 10
1196.7958846830561
 20
-2127.771772873788
 30
0.0
 11
1197.331783063056
 21
-2129.771772873788
 31
0.0
  0
LINE
  5
182FF
  8
0
  6
BYBLOCK
 10
1196.7958846830561
 20
-2127.771772873788
 30
0.0
 11
1196.7958846830561
 21
-2129.771772873788
 31
0.0
  0
LINE
  5
18300
  8
1DIM
 10
1225.840832339846
 20
-2096.5432649924828
 30
0.0
 11
1220.6482539009
 21
-2083.9603090324608
 31
0.0
  0
LINE
  5
18301
  8
1DIM
 10
1220.6482539009
 20
-2083.9603090324608
 30
0.0
 11
1252.5482539008999
 21
-2083.9603090324608
 31
0.0
  0
LINE
  5
18302
  8
1HATCH
 10
1217.7572077393079
 20
-2096.4698188601501
 30
0.0
 11
1214.480909406361
 21
-2077.9589630153368
 31
0.0
  0
LINE
  5
18303
  8
1HATCH
 10
1214.480909406361
 20
-2077.9589630153368
 30
0.0
 11
1223.014242739695
 21
-2077.9589630153368
 31
0.0
  0
TEXT
  5
18304
  8
1DIM1
 10
-525.97469183602959
 20
-2195.504384405825
 30
0.0
 40
17.5
  1
P191
  0
LINE
  5
18305
  8
0
  6
BYBLOCK
 10
-414.22519183602958
 20
-2196.3248925058251
 30
0.0
 11
-404.22519183602952
 21
-2199.0043844058241
 31
0.0
  0
LINE
  5
18306
  8
0
  6
BYBLOCK
 10
-404.22519183602952
 20
-2199.0043844058241
 30
0.0
 11
-414.22519183602958
 21
-2201.6838763058249
 31
0.0
  0
LINE
  5
18307
  8
0
  6
BYBLOCK
 10
-404.22519183602952
 20
-2199.0043844058241
 30
0.0
 11
-414.22519183602958
 21
-2199.0043844058241
 31
0.0
  0
LINE
  5
18308
  8
0
  6
BYBLOCK
 10
-585.2241918360296
 20
-2201.6838763058249
 30
0.0
 11
-595.2241918360296
 21
-2199.0043844058241
 31
0.0
  0
LINE
  5
18309
  8
0
  6
BYBLOCK
 10
-595.2241918360296
 20
-2199.0043844058241
 30
0.0
 11
-585.2241918360296
 21
-2196.3248925058251
 31
0.0
  0
LINE
  5
1830A
  8
0
  6
BYBLOCK
 10
-595.2241918360296
 20
-2199.0043844058241
 30
0.0
 11
-585.2241918360296
 21
-2199.0043844058241
 31
0.0
  0
TEXT
  5
1830B
  8
1DIM1
 10
237.52580816397031
 20
-2234.0555875141522
 30
0.0
 40
17.5
  1
1800
  0
LINE
  5
1830C
  8
0
  6
BYBLOCK
 10
1153.7758081639699
 20
-2234.8760956141518
 30
0.0
 11
1163.7758081639699
 21
-2237.5555875141508
 31
0.0
  0
LINE
  5
1830D
  8
0
  6
BYBLOCK
 10
1163.7758081639699
 20
-2237.5555875141508
 30
0.0
 11
1153.7758081639699
 21
-2240.2350794141512
 31
0.0
  0
LINE
  5
1830E
  8
0
  6
BYBLOCK
 10
1163.7758081639699
 20
-2237.5555875141508
 30
0.0
 11
1153.7758081639699
 21
-2237.5555875141508
 31
0.0
  0
LINE
  5
1830F
  8
0
  6
BYBLOCK
 10
-626.22419183602972
 20
-2240.2350794141512
 30
0.0
 11
-636.22419183602972
 21
-2237.5555875141508
 31
0.0
  0
LINE
  5
18310
  8
0
  6
BYBLOCK
 10
-636.22419183602972
 20
-2237.5555875141508
 30
0.0
 11
-626.22419183602972
 21
-2234.8760956141518
 31
0.0
  0
LINE
  5
18311
  8
0
  6
BYBLOCK
 10
-636.22419183602972
 20
-2237.5555875141508
 30
0.0
 11
-626.22419183602972
 21
-2237.5555875141508
 31
0.0
  0
TEXT
  5
18312
  8
1DIM1
 10
-334.97569183602951
 20
-2195.504384405825
 30
0.0
 40
17.5
  1
P191
  0
LINE
  5
18313
  8
0
  6
BYBLOCK
 10
-223.22619183602961
 20
-2196.3248925058251
 30
0.0
 11
-213.2261918360295
 21
-2199.0043844058241
 31
0.0
  0
LINE
  5
18314
  8
0
  6
BYBLOCK
 10
-213.2261918360295
 20
-2199.0043844058241
 30
0.0
 11
-223.22619183602961
 21
-2201.6838763058249
 31
0.0
  0
LINE
  5
18315
  8
0
  6
BYBLOCK
 10
-213.2261918360295
 20
-2199.0043844058241
 30
0.0
 11
-223.22619183602961
 21
-2199.0043844058241
 31
0.0
  0
LINE
  5
18316
  8
0
  6
BYBLOCK
 10
-394.22519183602958
 20
-2201.6838763058249
 30
0.0
 11
-404.22519183602952
 21
-2199.0043844058241
 31
0.0
  0
LINE
  5
18317
  8
0
  6
BYBLOCK
 10
-404.22519183602952
 20
-2199.0043844058241
 30
0.0
 11
-394.22519183602958
 21
-2196.3248925058251
 31
0.0
  0
LINE
  5
18318
  8
0
  6
BYBLOCK
 10
-404.22519183602952
 20
-2199.0043844058241
 30
0.0
 11
-394.22519183602958
 21
-2199.0043844058241
 31
0.0
  0
TEXT
  5
18319
  8
1DIM1
 10
-143.97669183602949
 20
-2195.504384405825
 30
0.0
 40
17.5
  1
P191
  0
LINE
  5
1831A
  8
0
  6
BYBLOCK
 10
-32.227191836029533
 20
-2196.3248925058251
 30
0.0
 11
-22.22719183602954
 21
-2199.0043844058241
 31
0.0
  0
LINE
  5
1831B
  8
0
  6
BYBLOCK
 10
-22.22719183602954
 20
-2199.0043844058241
 30
0.0
 11
-32.227191836029533
 21
-2201.6838763058249
 31
0.0
  0
LINE
  5
1831C
  8
0
  6
BYBLOCK
 10
-22.22719183602954
 20
-2199.0043844058241
 30
0.0
 11
-32.227191836029533
 21
-2199.0043844058241
 31
0.0
  0
LINE
  5
1831D
  8
0
  6
BYBLOCK
 10
-203.2261918360295
 20
-2201.6838763058249
 30
0.0
 11
-213.2261918360295
 21
-2199.0043844058241
 31
0.0
  0
LINE
  5
1831E
  8
0
  6
BYBLOCK
 10
-213.2261918360295
 20
-2199.0043844058241
 30
0.0
 11
-203.2261918360295
 21
-2196.3248925058251
 31
0.0
  0
LINE
  5
1831F
  8
0
  6
BYBLOCK
 10
-213.2261918360295
 20
-2199.0043844058241
 30
0.0
 11
-203.2261918360295
 21
-2199.0043844058241
 31
0.0
  0
TEXT
  5
18320
  8
1DIM1
 10
47.022308163970472
 20
-2195.504384405825
 30
0.0
 40
17.5
  1
P191
  0
LINE
  5
18321
  8
0
  6
BYBLOCK
 10
158.77180816397049
 20
-2196.3248925058251
 30
0.0
 11
168.77180816397049
 21
-2199.0043844058241
 31
0.0
  0
LINE
  5
18322
  8
0
  6
BYBLOCK
 10
168.77180816397049
 20
-2199.0043844058241
 30
0.0
 11
158.77180816397049
 21
-2201.6838763058249
 31
0.0
  0
LINE
  5
18323
  8
0
  6
BYBLOCK
 10
168.77180816397049
 20
-2199.0043844058241
 30
0.0
 11
158.77180816397049
 21
-2199.0043844058241
 31
0.0
  0
LINE
  5
18324
  8
0
  6
BYBLOCK
 10
-12.22719183602954
 20
-2201.6838763058249
 30
0.0
 11
-22.22719183602954
 21
-2199.0043844058241
 31
0.0
  0
LINE
  5
18325
  8
0
  6
BYBLOCK
 10
-22.22719183602954
 20
-2199.0043844058241
 30
0.0
 11
-12.22719183602954
 21
-2196.3248925058251
 31
0.0
  0
LINE
  5
18326
  8
0
  6
BYBLOCK
 10
-22.22719183602954
 20
-2199.0043844058241
 30
0.0
 11
-12.22719183602954
 21
-2199.0043844058241
 31
0.0
  0
TEXT
  5
18327
  8
1DIM1
 10
238.0213081639705
 20
-2195.504384405825
 30
0.0
 40
17.5
  1
P191
  0
LINE
  5
18328
  8
0
  6
BYBLOCK
 10
349.77080816397051
 20
-2196.3248925058251
 30
0.0
 11
359.77080816397051
 21
-2199.0043844058241
 31
0.0
  0
LINE
  5
18329
  8
0
  6
BYBLOCK
 10
359.77080816397051
 20
-2199.0043844058241
 30
0.0
 11
349.77080816397051
 21
-2201.6838763058249
 31
0.0
  0
LINE
  5
1832A
  8
0
  6
BYBLOCK
 10
359.77080816397051
 20
-2199.0043844058241
 30
0.0
 11
349.77080816397051
 21
-2199.0043844058241
 31
0.0
  0
LINE
  5
1832B
  8
0
  6
BYBLOCK
 10
178.77180816397049
 20
-2201.6838763058249
 30
0.0
 11
168.77180816397049
 21
-2199.0043844058241
 31
0.0
  0
LINE
  5
1832C
  8
0
  6
BYBLOCK
 10
168.77180816397049
 20
-2199.0043844058241
 30
0.0
 11
178.77180816397049
 21
-2196.3248925058251
 31
0.0
  0
LINE
  5
1832D
  8
0
  6
BYBLOCK
 10
168.77180816397049
 20
-2199.0043844058241
 30
0.0
 11
178.77180816397049
 21
-2199.0043844058241
 31
0.0
  0
TEXT
  5
1832E
  8
1DIM1
 10
429.02030816397058
 20
-2195.504384405825
 30
0.0
 40
17.5
  1
P191
  0
LINE
  5
1832F
  8
0
  6
BYBLOCK
 10
540.76980816397054
 20
-2196.3248925058251
 30
0.0
 11
550.76980816397054
 21
-2199.0043844058241
 31
0.0
  0
LINE
  5
18330
  8
0
  6
BYBLOCK
 10
550.76980816397054
 20
-2199.0043844058241
 30
0.0
 11
540.76980816397054
 21
-2201.6838763058249
 31
0.0
  0
LINE
  5
18331
  8
0
  6
BYBLOCK
 10
550.76980816397054
 20
-2199.0043844058241
 30
0.0
 11
540.76980816397054
 21
-2199.0043844058241
 31
0.0
  0
LINE
  5
18332
  8
0
  6
BYBLOCK
 10
369.77080816397051
 20
-2201.6838763058249
 30
0.0
 11
359.77080816397051
 21
-2199.0043844058241
 31
0.0
  0
LINE
  5
18333
  8
0
  6
BYBLOCK
 10
359.77080816397051
 20
-2199.0043844058241
 30
0.0
 11
369.77080816397051
 21
-2196.3248925058251
 31
0.0
  0
LINE
  5
18334
  8
0
  6
BYBLOCK
 10
359.77080816397051
 20
-2199.0043844058241
 30
0.0
 11
369.77080816397051
 21
-2199.0043844058241
 31
0.0
  0
TEXT
  5
18335
  8
1DIM1
 10
620.01930816397044
 20
-2195.504384405825
 30
0.0
 40
17.5
  1
P191
  0
LINE
  5
18336
  8
0
  6
BYBLOCK
 10
731.76880816397056
 20
-2196.3248925058251
 30
0.0
 11
741.76880816397045
 21
-2199.0043844058241
 31
0.0
  0
LINE
  5
18337
  8
0
  6
BYBLOCK
 10
741.76880816397045
 20
-2199.0043844058241
 30
0.0
 11
731.76880816397056
 21
-2201.6838763058249
 31
0.0
  0
LINE
  5
18338
  8
0
  6
BYBLOCK
 10
741.76880816397045
 20
-2199.0043844058241
 30
0.0
 11
731.76880816397056
 21
-2199.0043844058241
 31
0.0
  0
LINE
  5
18339
  8
0
  6
BYBLOCK
 10
560.76980816397054
 20
-2201.6838763058249
 30
0.0
 11
550.76980816397054
 21
-2199.0043844058241
 31
0.0
  0
LINE
  5
1833A
  8
0
  6
BYBLOCK
 10
550.76980816397054
 20
-2199.0043844058241
 30
0.0
 11
560.76980816397054
 21
-2196.3248925058251
 31
0.0
  0
LINE
  5
1833B
  8
0
  6
BYBLOCK
 10
550.76980816397054
 20
-2199.0043844058241
 30
0.0
 11
560.76980816397054
 21
-2199.0043844058241
 31
0.0
  0
TEXT
  5
1833C
  8
1DIM1
 10
811.01830816397069
 20
-2195.504384405825
 30
0.0
 40
17.5
  1
P191
  0
LINE
  5
1833D
  8
0
  6
BYBLOCK
 10
922.76780816397047
 20
-2196.3248925058251
 30
0.0
 11
932.76780816397047
 21
-2199.0043844058241
 31
0.0
  0
LINE
  5
1833E
  8
0
  6
BYBLOCK
 10
932.76780816397047
 20
-2199.0043844058241
 30
0.0
 11
922.76780816397047
 21
-2201.6838763058249
 31
0.0
  0
LINE
  5
1833F
  8
0
  6
BYBLOCK
 10
932.76780816397047
 20
-2199.0043844058241
 30
0.0
 11
922.76780816397047
 21
-2199.0043844058241
 31
0.0
  0
LINE
  5
18340
  8
0
  6
BYBLOCK
 10
751.76880816397045
 20
-2201.6838763058249
 30
0.0
 11
741.76880816397045
 21
-2199.0043844058241
 31
0.0
  0
LINE
  5
18341
  8
0
  6
BYBLOCK
 10
741.76880816397045
 20
-2199.0043844058241
 30
0.0
 11
751.76880816397045
 21
-2196.3248925058251
 31
0.0
  0
LINE
  5
18342
  8
0
  6
BYBLOCK
 10
741.76880816397045
 20
-2199.0043844058241
 30
0.0
 11
751.76880816397045
 21
-2199.0043844058241
 31
0.0
  0
TEXT
  5
18343
  8
1DIM1
 10
1002.01730816397
 20
-2195.504384405825
 30
0.0
 40
17.5
  1
P191
  0
LINE
  5
18344
  8
0
  6
BYBLOCK
 10
1112.7758081639699
 20
-2196.3248925058251
 30
0.0
 11
1122.7758081639699
 21
-2199.0043844058241
 31
0.0
  0
LINE
  5
18345
  8
0
  6
BYBLOCK
 10
1122.7758081639699
 20
-2199.0043844058241
 30
0.0
 11
1112.7758081639699
 21
-2201.6838763058249
 31
0.0
  0
LINE
  5
18346
  8
0
  6
BYBLOCK
 10
1122.7758081639699
 20
-2199.0043844058241
 30
0.0
 11
1112.7758081639699
 21
-2199.0043844058241
 31
0.0
  0
LINE
  5
18347
  8
0
  6
BYBLOCK
 10
942.76780816397059
 20
-2201.6838763058249
 30
0.0
 11
932.76780816397047
 21
-2199.0043844058241
 31
0.0
  0
LINE
  5
18348
  8
0
  6
BYBLOCK
 10
932.76780816397047
 20
-2199.0043844058241
 30
0.0
 11
942.76780816397059
 21
-2196.3248925058251
 31
0.0
  0
LINE
  5
18349
  8
0
  6
BYBLOCK
 10
932.76780816397047
 20
-2199.0043844058241
 30
0.0
 11
942.76780816397059
 21
-2199.0043844058241
 31
0.0
  0
LINE
  5
1834A
  8
0
 10
1245.1758047575829
 20
-2136.271705285897
 30
0.0
 11
1213.2758396594591
 21
-2136.271705285897
 31
0.0
  0
LINE
  5
1834B
  8
0
 10
1210.7758105747871
 20
-2133.771658749999
 30
0.0
 11
1213.2758396594591
 21
-2136.271705285897
 31
0.0
  0
LINE
  5
1834C
  8
0
 10
1250.475801267444
 20
-2137.771705285897
 30
0.0
 11
1245.1758047575829
 21
-2136.271705285897
 31
0.0
  0
LINE
  5
1834D
  8
0
 10
1210.7758105747871
 20
-2133.771658749999
 30
0.0
 11
1210.475810574786
 21
-2133.771658749999
 31
0.0
  0
LINE
  5
1834E
  8
0
 10
1250.475801267444
 20
-2137.771705285897
 30
0.0
 11
1245.175797777199
 21
-2139.271705285898
 31
0.0
  0
LINE
  5
1834F
  8
0
 10
1210.475810574786
 20
-2133.771658749999
 30
0.0
 11
1210.4757919604269
 21
-2141.7716587499999
 31
0.0
  0
LINE
  5
18350
  8
0
 10
1245.175797777199
 20
-2139.271705285898
 30
0.0
 11
1213.2757745090939
 21
-2139.271705285898
 31
0.0
  0
LINE
  5
18351
  8
0
 10
1210.775791960428
 20
-2141.7716587499999
 30
0.0
 11
1210.4757919604269
 21
-2141.7716587499999
 31
0.0
  0
LINE
  5
18352
  8
0
 10
1210.775791960428
 20
-2141.7716587499999
 30
0.0
 11
1213.2757745090939
 21
-2139.271705285898
 31
0.0
  0
LINE
  5
18353
  8
0
 10
931.26785469986839
 20
-2041.435909060544
 30
0.0
 11
931.26785469986839
 21
-2073.335874158668
 31
0.0
  0
LINE
  5
18354
  8
0
 10
928.76780816397059
 20
-2075.8359032433409
 30
0.0
 11
931.26785469986839
 21
-2073.335874158668
 31
0.0
  0
LINE
  5
18355
  8
0
 10
932.76785469986851
 20
-2036.1359125506831
 30
0.0
 11
931.26785469986839
 21
-2041.435909060544
 31
0.0
  0
LINE
  5
18356
  8
0
 10
928.76780816397059
 20
-2075.8359032433409
 30
0.0
 11
928.76780816397059
 21
-2076.135903243342
 31
0.0
  0
LINE
  5
18357
  8
0
 10
932.76785469986851
 20
-2036.1359125506831
 30
0.0
 11
934.26785469986851
 21
-2041.435916040929
 31
0.0
  0
LINE
  5
18358
  8
0
 10
928.76780816397059
 20
-2076.135903243342
 30
0.0
 11
936.76780816397059
 21
-2076.1359218577009
 31
0.0
  0
LINE
  5
18359
  8
0
 10
934.26785469986851
 20
-2041.435916040929
 30
0.0
 11
934.26785469986851
 21
-2073.3359393090341
 31
0.0
  0
LINE
  5
1835A
  8
0
 10
936.76780816397059
 20
-2075.8359218577002
 30
0.0
 11
936.76780816397059
 21
-2076.1359218577009
 31
0.0
  0
LINE
  5
1835B
  8
0
 10
936.76780816397059
 20
-2075.8359218577002
 30
0.0
 11
934.26785469986851
 21
-2073.3359393090341
 31
0.0
  0
LINE
  5
1835C
  8
0
 10
740.26885469986837
 20
-2041.435909060544
 30
0.0
 11
740.26885469986837
 21
-2073.335874158668
 31
0.0
  0
LINE
  5
1835D
  8
0
 10
737.76880816397045
 20
-2075.8359032433409
 30
0.0
 11
740.26885469986837
 21
-2073.335874158668
 31
0.0
  0
LINE
  5
1835E
  8
0
 10
741.76885469986837
 20
-2036.1359125506831
 30
0.0
 11
740.26885469986837
 21
-2041.435909060544
 31
0.0
  0
LINE
  5
1835F
  8
0
 10
737.76880816397045
 20
-2075.8359032433409
 30
0.0
 11
737.76880816397045
 21
-2076.135903243342
 31
0.0
  0
LINE
  5
18360
  8
0
 10
741.76885469986837
 20
-2036.1359125506831
 30
0.0
 11
743.26885469986848
 21
-2041.435916040929
 31
0.0
  0
LINE
  5
18361
  8
0
 10
737.76880816397045
 20
-2076.135903243342
 30
0.0
 11
745.76880816397045
 21
-2076.1359218577009
 31
0.0
  0
LINE
  5
18362
  8
0
 10
743.26885469986848
 20
-2041.435916040929
 30
0.0
 11
743.26885469986848
 21
-2073.3359393090341
 31
0.0
  0
LINE
  5
18363
  8
0
 10
745.76880816397045
 20
-2075.8359218577002
 30
0.0
 11
745.76880816397045
 21
-2076.1359218577009
 31
0.0
  0
LINE
  5
18364
  8
0
 10
745.76880816397045
 20
-2075.8359218577002
 30
0.0
 11
743.26885469986848
 21
-2073.3359393090341
 31
0.0
  0
LINE
  5
18365
  8
0
 10
549.26985469986835
 20
-2041.435909060544
 30
0.0
 11
549.26985469986835
 21
-2073.335874158668
 31
0.0
  0
LINE
  5
18366
  8
0
 10
546.76980816397054
 20
-2075.8359032433409
 30
0.0
 11
549.26985469986835
 21
-2073.335874158668
 31
0.0
  0
LINE
  5
18367
  8
0
 10
550.76985469986835
 20
-2036.1359125506831
 30
0.0
 11
549.26985469986835
 21
-2041.435909060544
 31
0.0
  0
LINE
  5
18368
  8
0
 10
546.76980816397054
 20
-2075.8359032433409
 30
0.0
 11
546.76980816397054
 21
-2076.135903243342
 31
0.0
  0
LINE
  5
18369
  8
0
 10
550.76985469986835
 20
-2036.1359125506831
 30
0.0
 11
552.26985469986835
 21
-2041.435916040929
 31
0.0
  0
LINE
  5
1836A
  8
0
 10
546.76980816397054
 20
-2076.135903243342
 30
0.0
 11
554.76980816397054
 21
-2076.1359218577009
 31
0.0
  0
LINE
  5
1836B
  8
0
 10
552.26985469986835
 20
-2041.435916040929
 30
0.0
 11
552.26985469986835
 21
-2073.3359393090341
 31
0.0
  0
LINE
  5
1836C
  8
0
 10
554.76980816397054
 20
-2075.8359218577002
 30
0.0
 11
554.76980816397054
 21
-2076.1359218577009
 31
0.0
  0
LINE
  5
1836D
  8
0
 10
554.76980816397054
 20
-2075.8359218577002
 30
0.0
 11
552.26985469986835
 21
-2073.3359393090341
 31
0.0
  0
LINE
  5
1836E
  8
0
 10
358.27085469986838
 20
-2041.435909060544
 30
0.0
 11
358.27085469986838
 21
-2073.335874158668
 31
0.0
  0
LINE
  5
1836F
  8
0
 10
355.77080816397051
 20
-2075.8359032433409
 30
0.0
 11
358.27085469986838
 21
-2073.335874158668
 31
0.0
  0
LINE
  5
18370
  8
0
 10
359.77085469986838
 20
-2036.1359125506831
 30
0.0
 11
358.27085469986838
 21
-2041.435909060544
 31
0.0
  0
LINE
  5
18371
  8
0
 10
355.77080816397051
 20
-2075.8359032433409
 30
0.0
 11
355.77080816397051
 21
-2076.135903243342
 31
0.0
  0
LINE
  5
18372
  8
0
 10
359.77085469986838
 20
-2036.1359125506831
 30
0.0
 11
361.27085469986849
 21
-2041.435916040929
 31
0.0
  0
LINE
  5
18373
  8
0
 10
355.77080816397051
 20
-2076.135903243342
 30
0.0
 11
363.77080816397051
 21
-2076.1359218577009
 31
0.0
  0
LINE
  5
18374
  8
0
 10
361.27085469986849
 20
-2041.435916040929
 30
0.0
 11
361.27085469986849
 21
-2073.3359393090341
 31
0.0
  0
LINE
  5
18375
  8
0
 10
363.77080816397051
 20
-2075.8359218577002
 30
0.0
 11
363.77080816397051
 21
-2076.1359218577009
 31
0.0
  0
LINE
  5
18376
  8
0
 10
363.77080816397051
 20
-2075.8359218577002
 30
0.0
 11
361.27085469986849
 21
-2073.3359393090341
 31
0.0
  0
LINE
  5
18377
  8
0
 10
167.27185469986841
 20
-2041.43590906278
 30
0.0
 11
167.27185469986841
 21
-2073.3358741609031
 31
0.0
  0
LINE
  5
18378
  8
0
 10
164.77180816397049
 20
-2075.835903245576
 30
0.0
 11
167.27185469986841
 21
-2073.3358741609031
 31
0.0
  0
LINE
  5
18379
  8
0
 10
168.77185469986841
 20
-2036.1359125529191
 30
0.0
 11
167.27185469986841
 21
-2041.43590906278
 31
0.0
  0
LINE
  5
1837A
  8
0
 10
164.77180816397049
 20
-2075.835903245576
 30
0.0
 11
164.77180816397049
 21
-2076.1359032455771
 31
0.0
  0
LINE
  5
1837B
  8
0
 10
168.77185469986841
 20
-2036.1359125529191
 30
0.0
 11
170.27185469986841
 21
-2041.4359160431641
 31
0.0
  0
LINE
  5
1837C
  8
0
 10
164.77180816397049
 20
-2076.1359032455771
 30
0.0
 11
172.77180816397049
 21
-2076.1359218599359
 31
0.0
  0
LINE
  5
1837D
  8
0
 10
170.27185469986841
 20
-2041.4359160431641
 30
0.0
 11
170.27185469986841
 21
-2073.3359393112692
 31
0.0
  0
LINE
  5
1837E
  8
0
 10
172.77180816397049
 20
-2075.8359218599348
 30
0.0
 11
172.77180816397049
 21
-2076.1359218599359
 31
0.0
  0
LINE
  5
1837F
  8
0
 10
172.77180816397049
 20
-2075.8359218599348
 30
0.0
 11
170.27185469986841
 21
-2073.3359393112692
 31
0.0
  0
LINE
  5
18380
  8
0
 10
-23.7271453001316
 20
-2041.43590906278
 30
0.0
 11
-23.72714530013161
 21
-2073.3358741609031
 31
0.0
  0
LINE
  5
18381
  8
0
 10
-26.22719183602953
 20
-2075.8359032455751
 30
0.0
 11
-23.72714530013161
 21
-2073.3358741609031
 31
0.0
  0
LINE
  5
18382
  8
0
 10
-22.2271453001316
 20
-2036.1359125529179
 30
0.0
 11
-23.7271453001316
 21
-2041.43590906278
 31
0.0
  0
LINE
  5
18383
  8
0
 10
-26.22719183602953
 20
-2075.8359032455751
 30
0.0
 11
-26.22719183602953
 21
-2076.1359032455771
 31
0.0
  0
LINE
  5
18384
  8
0
 10
-22.2271453001316
 20
-2036.1359125529179
 30
0.0
 11
-20.7271453001316
 21
-2041.4359160431641
 31
0.0
  0
LINE
  5
18385
  8
0
 10
-26.22719183602953
 20
-2076.1359032455771
 30
0.0
 11
-18.22719183602953
 21
-2076.1359218599359
 31
0.0
  0
LINE
  5
18386
  8
0
 10
-20.7271453001316
 20
-2041.4359160431641
 30
0.0
 11
-20.72714530013161
 21
-2073.3359393112692
 31
0.0
  0
LINE
  5
18387
  8
0
 10
-18.22719183602953
 20
-2075.8359218599348
 30
0.0
 11
-18.22719183602953
 21
-2076.1359218599359
 31
0.0
  0
LINE
  5
18388
  8
0
 10
-18.22719183602953
 20
-2075.8359218599348
 30
0.0
 11
-20.72714530013161
 21
-2073.3359393112692
 31
0.0
  0
LINE
  5
18389
  8
0
 10
-405.7251453001316
 20
-2041.43590906278
 30
0.0
 11
-405.7251453001316
 21
-2073.3358741609031
 31
0.0
  0
LINE
  5
1838A
  8
0
 10
-408.22519183602952
 20
-2075.835903245576
 30
0.0
 11
-405.7251453001316
 21
-2073.3358741609031
 31
0.0
  0
LINE
  5
1838B
  8
0
 10
-404.2251453001316
 20
-2036.1359125529191
 30
0.0
 11
-405.7251453001316
 21
-2041.43590906278
 31
0.0
  0
LINE
  5
1838C
  8
0
 10
-408.22519183602952
 20
-2075.835903245576
 30
0.0
 11
-408.22519183602952
 21
-2076.1359032455771
 31
0.0
  0
LINE
  5
1838D
  8
0
 10
-404.2251453001316
 20
-2036.1359125529191
 30
0.0
 11
-402.72514530013171
 21
-2041.4359160431641
 31
0.0
  0
LINE
  5
1838E
  8
0
 10
-408.22519183602952
 20
-2076.1359032455771
 30
0.0
 11
-400.22519183602952
 21
-2076.1359218599359
 31
0.0
  0
LINE
  5
1838F
  8
0
 10
-402.72514530013171
 20
-2041.4359160431641
 30
0.0
 11
-402.72514530013171
 21
-2073.3359393112692
 31
0.0
  0
LINE
  5
18390
  8
0
 10
-400.22519183602952
 20
-2075.8359218599348
 30
0.0
 11
-400.22519183602952
 21
-2076.1359218599359
 31
0.0
  0
LINE
  5
18391
  8
0
 10
-400.22519183602952
 20
-2075.8359218599348
 30
0.0
 11
-402.72514530013171
 21
-2073.3359393112692
 31
0.0
  0
LINE
  5
18392
  8
0
 10
-214.72614530013161
 20
-2041.43590906278
 30
0.0
 11
-214.72614530013161
 21
-2073.3358741609031
 31
0.0
  0
LINE
  5
18393
  8
0
 10
-217.22619183602961
 20
-2075.835903245576
 30
0.0
 11
-214.72614530013161
 21
-2073.3358741609031
 31
0.0
  0
LINE
  5
18394
  8
0
 10
-213.22614530013161
 20
-2036.1359125529191
 30
0.0
 11
-214.72614530013161
 21
-2041.43590906278
 31
0.0
  0
LINE
  5
18395
  8
0
 10
-217.22619183602961
 20
-2075.835903245576
 30
0.0
 11
-217.22619183602961
 21
-2076.1359032455771
 31
0.0
  0
LINE
  5
18396
  8
0
 10
-213.22614530013161
 20
-2036.1359125529191
 30
0.0
 11
-211.72614530013161
 21
-2041.4359160431641
 31
0.0
  0
LINE
  5
18397
  8
0
 10
-217.22619183602961
 20
-2076.1359032455771
 30
0.0
 11
-209.2261918360295
 21
-2076.1359218599359
 31
0.0
  0
LINE
  5
18398
  8
0
 10
-211.72614530013161
 20
-2041.4359160431641
 30
0.0
 11
-211.72614530013161
 21
-2073.3359393112692
 31
0.0
  0
LINE
  5
18399
  8
0
 10
-209.2261918360295
 20
-2075.8359218599348
 30
0.0
 11
-209.2261918360295
 21
-2076.1359218599359
 31
0.0
  0
LINE
  5
1839A
  8
0
 10
-209.2261918360295
 20
-2075.8359218599348
 30
0.0
 11
-211.72614530013161
 21
-2073.3359393112692
 31
0.0
  0
LINE
  5
1839B
  8
0
 10
-596.72414530013157
 20
-2041.43590906278
 30
0.0
 11
-596.72414530013157
 21
-2073.3358741609031
 31
0.0
  0
LINE
  5
1839C
  8
0
 10
-599.2241918360296
 20
-2075.835903245576
 30
0.0
 11
-596.72414530013157
 21
-2073.3358741609031
 31
0.0
  0
LINE
  5
1839D
  8
0
 10
-595.22414530013168
 20
-2036.1359125529191
 30
0.0
 11
-596.72414530013157
 21
-2041.43590906278
 31
0.0
  0
LINE
  5
1839E
  8
0
 10
-599.2241918360296
 20
-2075.835903245576
 30
0.0
 11
-599.2241918360296
 21
-2076.1359032455771
 31
0.0
  0
LINE
  5
1839F
  8
0
 10
-595.22414530013168
 20
-2036.1359125529191
 30
0.0
 11
-593.72414530013157
 21
-2041.4359160431641
 31
0.0
  0
LINE
  5
183A0
  8
0
 10
-599.2241918360296
 20
-2076.1359032455771
 30
0.0
 11
-591.2241918360296
 21
-2076.1359218599359
 31
0.0
  0
LINE
  5
183A1
  8
0
 10
-593.72414530013157
 20
-2041.4359160431641
 30
0.0
 11
-593.72414530013157
 21
-2073.3359393112692
 31
0.0
  0
LINE
  5
183A2
  8
0
 10
-591.2241918360296
 20
-2075.8359218599348
 30
0.0
 11
-591.2241918360296
 21
-2076.1359218599359
 31
0.0
  0
LINE
  5
183A3
  8
0
 10
-591.2241918360296
 20
-2075.8359218599348
 30
0.0
 11
-593.72414530013157
 21
-2073.3359393112692
 31
0.0
  0
LINE
  5
183A4
  8
0
 10
1121.275854699868
 20
-2041.43590906278
 30
0.0
 11
1121.275854699868
 21
-2073.3358741609031
 31
0.0
  0
LINE
  5
183A5
  8
0
 10
1118.7758081639699
 20
-2075.8359032455751
 30
0.0
 11
1121.275854699868
 21
-2073.3358741609031
 31
0.0
  0
LINE
  5
183A6
  8
0
 10
1122.775854699868
 20
-2036.1359125529179
 30
0.0
 11
1121.275854699868
 21
-2041.43590906278
 31
0.0
  0
LINE
  5
183A7
  8
0
 10
1118.7758081639699
 20
-2075.8359032455751
 30
0.0
 11
1118.7758081639699
 21
-2076.1359032455771
 31
0.0
  0
LINE
  5
183A8
  8
0
 10
1122.775854699868
 20
-2036.1359125529179
 30
0.0
 11
1124.275854699868
 21
-2041.4359160431641
 31
0.0
  0
LINE
  5
183A9
  8
0
 10
1118.7758081639699
 20
-2076.1359032455771
 30
0.0
 11
1126.7758081639699
 21
-2076.1359218599359
 31
0.0
  0
LINE
  5
183AA
  8
0
 10
1124.275854699868
 20
-2041.4359160431641
 30
0.0
 11
1124.275854699868
 21
-2073.3359393112692
 31
0.0
  0
LINE
  5
183AB
  8
0
 10
1126.7758081639699
 20
-2075.8359218599348
 30
0.0
 11
1126.7758081639699
 21
-2076.1359218599359
 31
0.0
  0
LINE
  5
183AC
  8
0
 10
1126.7758081639699
 20
-2075.8359218599348
 30
0.0
 11
1124.275854699868
 21
-2073.3359393112692
 31
0.0
  0
TEXT
  5
183AD
  8
1DIM1
 10
1131.609141497303
 20
-2195.5043844080601
 30
0.0
 40
17.5
  1
41
  0
LINE
  5
183AE
  8
0
  6
BYBLOCK
 10
1153.7758081639699
 20
-2196.3248925080602
 30
0.0
 11
1163.7758081639699
 21
-2199.0043844080601
 31
0.0
  0
LINE
  5
183AF
  8
0
  6
BYBLOCK
 10
1163.7758081639699
 20
-2199.0043844080601
 30
0.0
 11
1153.7758081639699
 21
-2201.68387630806
 31
0.0
  0
LINE
  5
183B0
  8
0
  6
BYBLOCK
 10
1163.7758081639699
 20
-2199.0043844080601
 30
0.0
 11
1153.7758081639699
 21
-2199.0043844080601
 31
0.0
  0
LINE
  5
183B1
  8
0
  6
BYBLOCK
 10
1132.7758081639699
 20
-2201.68387630806
 30
0.0
 11
1122.7758081639699
 21
-2199.0043844080601
 31
0.0
  0
LINE
  5
183B2
  8
0
  6
BYBLOCK
 10
1122.7758081639699
 20
-2199.0043844080601
 30
0.0
 11
1132.7758081639699
 21
-2196.3248925080602
 31
0.0
  0
LINE
  5
183B3
  8
0
  6
BYBLOCK
 10
1122.7758081639699
 20
-2199.0043844080601
 30
0.0
 11
1132.7758081639699
 21
-2199.0043844080601
 31
0.0
  0
TEXT
  5
183B4
  8
1DIM1
 10
-627.39085850269646
 20
-2195.504384405825
 30
0.0
 40
17.5
  1
41
  0
LINE
  5
183B5
  8
0
  6
BYBLOCK
 10
-605.22419183602949
 20
-2196.3248925058251
 30
0.0
 11
-595.2241918360296
 21
-2199.0043844058241
 31
0.0
  0
LINE
  5
183B6
  8
0
  6
BYBLOCK
 10
-595.2241918360296
 20
-2199.0043844058241
 30
0.0
 11
-605.22419183602949
 21
-2201.6838763058249
 31
0.0
  0
LINE
  5
183B7
  8
0
  6
BYBLOCK
 10
-595.2241918360296
 20
-2199.0043844058241
 30
0.0
 11
-605.22419183602949
 21
-2199.0043844058241
 31
0.0
  0
LINE
  5
183B8
  8
0
  6
BYBLOCK
 10
-626.22419183602983
 20
-2201.6838763058249
 30
0.0
 11
-636.22419183602983
 21
-2199.0043844058241
 31
0.0
  0
LINE
  5
183B9
  8
0
  6
BYBLOCK
 10
-636.22419183602983
 20
-2199.0043844058241
 30
0.0
 11
-626.22419183602983
 21
-2196.3248925058251
 31
0.0
  0
LINE
  5
183BA
  8
0
  6
BYBLOCK
 10
-636.22419183602983
 20
-2199.0043844058241
 30
0.0
 11
-626.22419183602983
 21
-2199.0043844058241
 31
0.0
  0
LINE
  5
183BB
  8
1DIM
 10
1162.941359840012
 20
-2124.8468220158738
 30
0.0
 11
1164.6017159752671
 21
-2113.8719889563331
 31
0.0
  0
LINE
  5
183BC
  8
1DIM
 10
1164.6017159752671
 20
-2113.8719889563331
 30
0.0
 11
1212.568382641934
 21
-2113.8719889563331
 31
0.0
  0
TEXT
  5
183BD
  8
1DIM
 10
1254.9345229222499
 20
-2122.8216570887371
 30
0.0
 40
3.5
  1
11.5
 50
90.0
  0
LINE
  5
183BE
  8
0
  6
BYBLOCK
 10
1255.09862454225
 20
-2128.5216570887378
 30
0.0
 11
1255.63452292225
 21
-2126.5216570887369
 31
0.0
  0
LINE
  5
183BF
  8
0
  6
BYBLOCK
 10
1255.63452292225
 20
-2126.5216570887369
 30
0.0
 11
1256.170421302249
 21
-2128.5216570887378
 31
0.0
  0
LINE
  5
183C0
  8
0
  6
BYBLOCK
 10
1255.63452292225
 20
-2126.5216570887369
 30
0.0
 11
1255.63452292225
 21
-2128.5216570887378
 31
0.0
  0
LINE
  5
183C1
  8
0
  6
BYBLOCK
 10
1256.170421302249
 20
-2135.771658749999
 30
0.0
 11
1255.63452292225
 21
-2137.7716587499999
 31
0.0
  0
LINE
  5
183C2
  8
0
  6
BYBLOCK
 10
1255.63452292225
 20
-2137.7716587499999
 30
0.0
 11
1255.09862454225
 21
-2135.771658749999
 31
0.0
  0
LINE
  5
183C3
  8
0
  6
BYBLOCK
 10
1255.63452292225
 20
-2137.7716587499999
 30
0.0
 11
1255.63452292225
 21
-2135.771658749999
 31
0.0
  0
VIEWPORT
  5
57
 67
     1
  8
0
 10
-8.1458216021742658
 20
14.176257130812161
 30
0.0
 40
410.92239551431379
 41
290.94773182397398
 68
     1
 69
     1
1001
ACAD
1000
MVIEW
1002
{
1070
    16
1010
0.0
1020
0.0
1030
0.0
1010
0.0
1020
0.0
1030
1.0
1040
0.0
1040
290.94773182397398
1040
-8.1458216021742658
1040
14.176257130812161
1040
50.0
1040
0.0
1040
0.0
1070
     0
1070
   100
1070
     1
1070
     1
1070
     0
1070
     0
1070
     0
1070
     0
1040
0.0
1040
0.0
1040
0.0
1040
10.0
1040
10.0
1040
10.0
1040
10.0
1070
     0
1002
{
1002
}
1002
}
  0
ENDSEC
  0
EOF
