  0
SECTION
  2
HEADER
  9
$ACADVER
  1
AC1009
  9
$INSBASE
 10
0.0
 20
0.0
 30
0.0
  9
$EXTMIN
 10
-165.9070257868311
 20
-2178.9565380547351
 30
0.0
  9
$EXTMAX
 10
93.098182822978686
 20
-1963.6144214310041
 30
0.0
  9
$LIMMIN
 10
0.0
 20
0.0
  9
$LIMMAX
 10
420.0
 20
297.0
  9
$ORTHOMODE
 70
     0
  9
$REGENMODE
 70
     1
  9
$FILLMODE
 70
     1
  9
$QTEXTMODE
 70
     0
  9
$MIRRTEXT
 70
     1
  9
$DRAGMODE
 70
     2
  9
$LTSCALE
 40
0.5
  9
$OSMODE
 70
  2175
  9
$ATTMODE
 70
     1
  9
$TEXTSIZE
 40
4.0
  9
$TRACEWID
 40
1.0
  9
$TEXTSTYLE
  7
STANDARD
  9
$CLAYER
  8
1TEXT
  9
$CELTYPE
  6
BYLAYER
  9
$CECOLOR
 62
   256
  9
$DIMSCALE
 40
1.0
  9
$DIMASZ
 40
2.0
  9
$DIMEXO
 40
0.0
  9
$DIMDLI
 40
7.0
  9
$DIMRND
 40
0.0
  9
$DIMDLE
 40
0.0
  9
$DIMEXE
 40
1.0
  9
$DIMTP
 40
0.0
  9
$DIMTM
 40
0.0
  9
$DIMTXT
 40
3.5
  9
$DIMCEN
 40
0.0
  9
$DIMTSZ
 40
0.0
  9
$DIMTOL
 70
     0
  9
$DIMLIM
 70
     0
  9
$DIMTIH
 70
     0
  9
$DIMTOH
 70
     0
  9
$DIMSE1
 70
     0
  9
$DIMSE2
 70
     0
  9
$DIMTAD
 70
     1
  9
$DIMZIN
 70
     8
  9
$DIMBLK
  1

  9
$DIMASO
 70
     1
  9
$DIMSHO
 70
     1
  9
$DIMPOST
  1
 
  9
$DIMAPOST
  1

  9
$DIMALT
 70
     0
  9
$DIMALTD
 70
     2
  9
$DIMALTF
 40
25.399999999999999
  9
$DIMLFAC
 40
1.0
  9
$DIMTOFL
 70
     1
  9
$DIMTVP
 40
0.0
  9
$DIMTIX
 70
     0
  9
$DIMSOXD
 70
     0
  9
$DIMSAH
 70
     1
  9
$DIMBLK1
  1
OPEN30
  9
$DIMBLK2
  1
OPEN30
  9
$DIMSTYLE
  2
NEWX10
  9
$DIMCLRD
 70
   256
  9
$DIMCLRE
 70
   256
  9
$DIMCLRT
 70
   201
  9
$DIMTFAC
 40
0.7
  9
$DIMGAP
 40
0.7
  9
$LUNITS
 70
     2
  9
$LUPREC
 70
     4
  9
$SKETCHINC
 40
1.0
  9
$FILLETRAD
 40
0.0
  9
$AUNITS
 70
     0
  9
$AUPREC
 70
     2
  9
$MENU
  1
acad
  9
$ELEVATION
 40
0.0
  9
$PELEVATION
 40
0.0
  9
$THICKNESS
 40
0.0
  9
$LIMCHECK
 70
     0
  9
$BLIPMODE
 70
     0
  9
$CHAMFERA
 40
10.0
  9
$CHAMFERB
 40
10.0
  9
$SKPOLY
 70
     0
  9
$TDCREATE
 40
2453033.7326634838
  9
$TDUPDATE
 40
2455049.6091494798
  9
$TDINDWG
 40
0.2534980787
  9
$TDUSRTIMER
 40
0.2534980787
  9
$USRTIMER
 70
     1
  9
$ANGBASE
 50
0.0
  9
$ANGDIR
 70
     0
  9
$PDMODE
 70
     0
  9
$PDSIZE
 40
0.0
  9
$PLINEWID
 40
0.0
  9
$COORDS
 70
     2
  9
$SPLFRAME
 70
     0
  9
$SPLINETYPE
 70
     6
  9
$SPLINESEGS
 70
     8
  9
$ATTDIA
 70
     0
  9
$ATTREQ
 70
     1
  9
$HANDLING
 70
     1
  9
$HANDSEED
  5
9208
  9
$SURFTAB1
 70
     6
  9
$SURFTAB2
 70
     6
  9
$SURFTYPE
 70
     6
  9
$SURFU
 70
     6
  9
$SURFV
 70
     6
  9
$UCSNAME
  2

  9
$UCSORG
 10
0.0
 20
0.0
 30
0.0
  9
$UCSXDIR
 10
1.0
 20
0.0
 30
0.0
  9
$UCSYDIR
 10
0.0
 20
1.0
 30
0.0
  9
$PUCSNAME
  2

  9
$PUCSORG
 10
0.0
 20
0.0
 30
0.0
  9
$PUCSXDIR
 10
1.0
 20
0.0
 30
0.0
  9
$PUCSYDIR
 10
0.0
 20
1.0
 30
0.0
  9
$USERI1
 70
     0
  9
$USERI2
 70
     0
  9
$USERI3
 70
     0
  9
$USERI4
 70
     0
  9
$USERI5
 70
     0
  9
$USERR1
 40
0.0
  9
$USERR2
 40
0.0
  9
$USERR3
 40
0.0
  9
$USERR4
 40
0.0
  9
$USERR5
 40
0.0
  9
$WORLDVIEW
 70
     1
  9
$SHADEDGE
 70
     3
  9
$SHADEDIF
 70
    70
  9
$TILEMODE
 70
     1
  9
$MAXACTVP
 70
    48
  9
$PLIMCHECK
 70
     0
  9
$PEXTMIN
 10
1.0000000000000000E+020
 20
1.0000000000000000E+020
 30
1.0000000000000000E+020
  9
$PEXTMAX
 10
-1.0000000000000000E+020
 20
-1.0000000000000000E+020
 30
-1.0000000000000000E+020
  9
$PLIMMIN
 10
0.0
 20
0.0
  9
$PLIMMAX
 10
420.0
 20
297.0
  9
$UNITMODE
 70
     0
  9
$VISRETAIN
 70
     1
  9
$PLINEGEN
 70
     0
  9
$PSLTSCALE
 70
     1
  0
ENDSEC
  0
SECTION
  2
TABLES
  0
TABLE
  2
VPORT
 70
     1
  0
VPORT
  2
*ACTIVE
 70
     0
 10
0.0
 20
0.0
 11
1.0
 21
1.0
 12
-36.397797872137183
 22
-2071.264362711534
 13
0.0
 23
0.0
 14
10.0
 24
10.0
 15
10.0
 25
10.0
 16
0.0
 26
0.0
 36
1.0
 17
0.0
 27
0.0
 37
0.0
 40
228.59388524584401
 41
1.4123581336696089
 42
50.0
 43
0.0
 44
0.0
 50
0.0
 51
0.0
 71
     0
 72
   100
 73
     1
 74
     1
 75
     0
 76
     0
 77
     0
 78
     0
  0
ENDTAB
  0
TABLE
  2
LTYPE
 70
    14
  0
LTYPE
  2
CONTINUOUS
 70
     0
  3
Solid line
 72
    65
 73
     0
 40
0.0
  0
LTYPE
  2
XREF1|CENTER2
 70
    48
  3
Center (.5x) ___ _ ___ _ ___ _ ___ _ ___ _ ___
 72
    65
 73
     4
 40
28.574999999999999
 49
19.050000000000001
 49
-3.1749999999999989
 49
3.1749999999999989
 49
-3.1749999999999989
  0
LTYPE
  2
A3WAKUDAKE|CENTER2
 70
    48
  3
Center (.5x) ___ _ ___ _ ___ _ ___ _ ___ _ ___
 72
    65
 73
     4
 40
28.574999999999999
 49
19.050000000000001
 49
-3.1749999999999989
 49
3.1749999999999989
 49
-3.1749999999999989
  0
ENDTAB
  0
TABLE
  2
LAYER
 70
    43
  0
LAYER
  2
0
 70
     0
 62
     7
  6
CONTINUOUS
  0
LAYER
  2
1TEXT
 70
     0
 62
     7
  6
CONTINUOUS
  0
LAYER
  2
1DIM
 70
     0
 62
     7
  6
CONTINUOUS
  0
LAYER
  2
01
 70
     0
 62
     1
  6
CONTINUOUS
  0
LAYER
  2
1HATCH
 70
     0
 62
     7
  6
CONTINUOUS
  0
LAYER
  2
XREF1|1CENTER
 70
    48
 62
     7
  6
XREF1|CENTER2
  0
LAYER
  2
A3WAKUDAKE|THICK
 70
    48
 62
     7
  6
CONTINUOUS
  0
LAYER
  2
A3WAKUDAKE|POINT
 70
    48
 62
     7
  6
CONTINUOUS
  0
LAYER
  2
A3WAKUDAKE|1CENTER
 70
    48
 62
     7
  6
A3WAKUDAKE|CENTER2
  0
LAYER
  2
A3WAKUDAKE|0-6
 70
    48
 62
     7
  6
CONTINUOUS
  0
LAYER
  2
A3WAKUDAKE|1DIM
 70
    48
 62
     7
  6
CONTINUOUS
  0
ENDTAB
  0
TABLE
  2
STYLE
 70
    22
  0
STYLE
  2
STANDARD
 70
     0
 40
0.0
 41
1.0
 50
0.0
 71
     0
 42
4.0
  3
txt.shx
  4
extfont.shx
  0
ENDTAB
  0
TABLE
  2
VIEW
 70
     0
  0
ENDTAB
  0
TABLE
  2
UCS
 70
     0
  0
ENDTAB
  0
TABLE
  2
APPID
 70
    13
  0
APPID
  2
ACAD
 70
     0
  0
APPID
  2
DRAWINGVARIABLESXDATA
 70
     0
  0
APPID
  2
CONTENTTABDATA
 70
     0
  0
APPID
  2
CONTENTCURRENTTAB
 70
     0
  0
APPID
  2
CONTENTBLOCKDESCRIPTION
 70
     0
  0
APPID
  2
CONTENTBLOCKICON
 70
     0
  0
APPID
  2
CONTENTLONGBLOCKNAME
 70
     0
  0
APPID
  2
ACAD_PSEXT
 70
     0
  0
APPID
  2
ACAD_DSTYLE_DIMTEXT_FILL
 70
     0
  0
APPID
  2
ACAD_MLEADERVER
 70
     0
  0
APPID
  2
ACAD_DSTYLE_DIMRADIAL_EXTENSION
 70
     0
  0
APPID
  2
GENIUS_GENODEF_13
 70
     0
  0
APPID
  2
GENIUS_GENOBJ-N-FIL_13
 70
     0
  0
ENDTAB
  0
TABLE
  2
DIMSTYLE
 70
     9
  0
DIMSTYLE
  2
NEWX10
 70
     0
  3
 
  4

  5

  6
OPEN30
  7
OPEN30
 40
1.0
 41
2.0
 42
0.0
 43
7.0
 44
1.0
 45
0.0
 46
0.0
 47
0.0
 48
0.0
140
3.5
141
0.0
142
0.0
143
25.399999999999999
144
1.0
145
0.0
146
0.7
147
0.7
 71
     0
 72
     0
 73
     0
 74
     0
 75
     0
 76
     0
 77
     1
 78
     8
170
     0
171
     2
172
     1
173
     1
174
     0
175
     0
176
   256
177
   256
178
   201
  0
ENDTAB
  0
ENDSEC
  0
SECTION
  2
BLOCKS
  0
BLOCK
  8
0
  2
$MODEL_SPACE
 70
     0
 10
0.0
 20
0.0
 30
0.0
  3
$MODEL_SPACE
  1

  0
ENDBLK
  5
1A
  8
0
  0
BLOCK
 67
     1
  8
0
  2
$PAPER_SPACE
 70
     0
 10
0.0
 20
0.0
 30
0.0
  3
$PAPER_SPACE
  1

  0
ENDBLK
  5
17
 67
     1
  8
0
  0
BLOCK
  8
0
  2
_OPEN30
 70
     0
 10
0.0
 20
0.0
 30
0.0
  3
_OPEN30
  1

  0
LINE
  5
44
  8
0
  6
BYBLOCK
 62
     0
 10
-1.0
 20
0.26794919
 30
0.0
 11
0.0
 21
0.0
 31
0.0
  0
LINE
  5
45
  8
0
  6
BYBLOCK
 62
     0
 10
0.0
 20
0.0
 30
0.0
 11
-1.0
 21
-0.26794919
 31
0.0
  0
LINE
  5
46
  8
0
  6
BYBLOCK
 62
     0
 10
0.0
 20
0.0
 30
0.0
 11
-1.0
 21
0.0
 31
0.0
  0
ENDBLK
  5
47
  8
0
  0
BLOCK
  8
0
  2
XREF1
 70
    36
 10
0.0
 20
0.0
 30
0.0
  3
XREF1
  1
D:\ACLT\FORMAT\KAWAJUN(9)図面用.dwg
  0
ENDBLK
  5
5D
  8
0
  0
BLOCK
  8
0
  2
A3WAKUDAKE
 70
    36
 10
0.0
 20
0.0
 30
0.0
  3
A3WAKUDAKE
  1
D:\ACLT\FORMAT\A3WAKUdake.dwg
  0
ENDBLK
  5
6DC
  8
0
  0
BLOCK
  8
0
  2
*U35
 70
     1
 10
0.0
 20
0.0
 30
0.0
  3
*U35
  1

  0
TEXT
  5
8DA2
  8
0
 62
   201
 10
-63.717024855154051
 20
-3.8109119089904788
 30
0.0
 40
3.5
  1
φ5
 50
48.83031736650419
  0
ENDBLK
  5
8DA4
  8
0
  0
BLOCK
  8
0
  2
*U36
 70
     1
 10
0.0
 20
0.0
 30
0.0
  3
*U36
  1

  0
TEXT
  5
8DA6
  8
1TEXT
 62
   201
 10
21.614708555164611
 20
22.401236958861659
 30
0.0
 40
2.0
  1
二文字
  0
TEXT
  5
8DA7
  8
1TEXT
 62
   201
 10
21.614708555164611
 20
19.067903625528331
 30
0.0
 40
2.0
  1
(別途指定)
  0
TEXT
  5
8DA8
  8
1TEXT
 62
   201
 10
21.614708555164611
 20
15.73457029219499
 30
0.0
 40
2.0
  1
天地 約1.8
  0
TEXT
  5
8DA9
  8
1TEXT
 62
   201
 10
21.614708555164611
 20
12.401236958861659
 30
0.0
 40
2.0
  1
凸0.2
  0
ENDBLK
  5
8DAB
  8
0
  0
BLOCK
  8
0
  2
*U37
 70
     1
 10
0.0
 20
0.0
 30
0.0
  3
*U37
  1

  0
SOLID
  5
8DAD
  8
1DIM
 10
17.769912945885331
 20
22.805130681268722
 30
0.0
 11
17.678379796037799
 21
23.814783819854821
 31
0.0
 12
18.0924202800296
 22
22.889392953575271
 32
0.0
 13
18.0924202800296
 23
22.889392953575271
 33
0.0
  0
POLYLINE
  5
8DAE
  8
1DIM
 66
     1
 10
0.0
 20
0.0
 30
0.0
  0
VERTEX
  5
8DAF
  8
1DIM
 10
17.931166612957469
 20
22.847261817422002
 30
0.0
  0
VERTEX
  5
8DB0
  8
1DIM
 10
20.91703607932029
 20
11.41907722970881
 30
0.0
  0
VERTEX
  5
8DB1
  8
1DIM
 10
35.143226555510758
 20
11.41907722970881
 30
0.0
  0
SEQEND
  5
8DB2
  8
1DIM
  0
ENDBLK
  5
8DB4
  8
0
  0
BLOCK
  8
0
  2
*U38
 70
     1
 10
0.0
 20
0.0
 30
0.0
  3
*U38
  1

  0
TEXT
  5
8DB6
  8
1DIM
 62
   201
 10
8.9421530727463576
 20
19.285028579396069
 30
0.0
 40
2.0
  1
枠
  0
TEXT
  5
8DB7
  8
1DIM
 62
   201
 10
7.0754864060796896
 20
15.951695246062741
 30
0.0
 40
2.0
  1
φ5
  0
TEXT
  5
8DB8
  8
1DIM
 62
   201
 10
4.7421530727463583
 20
12.61836191272941
 30
0.0
 40
2.0
  1
凹0.3
  0
ENDBLK
  5
8DBA
  8
0
  0
BLOCK
  8
0
  2
*U39
 70
     1
 10
0.0
 20
0.0
 30
0.0
  3
*U39
  1

  0
SOLID
  5
8DBC
  8
1DIM
 10
14.77538895849114
 20
20.894651819020488
 30
0.0
 11
15.75963814806016
 21
22.667323431007279
 31
0.0
 12
15.403512140193291
 22
20.67125595278117
 32
0.0
 13
15.403512140193291
 23
20.67125595278117
 33
0.0
  0
POLYLINE
  5
8DBD
  8
1DIM
 66
     1
 10
0.0
 20
0.0
 30
0.0
  0
VERTEX
  5
8DBE
  8
1DIM
 10
15.089450549342221
 20
20.782953885900831
 30
0.0
  0
VERTEX
  5
8DBF
  8
1DIM
 10
11.821762131327951
 20
11.59517937383526
 30
0.0
  0
VERTEX
  5
8DC0
  8
1DIM
 10
2.3789049884708091
 20
11.59517937383526
 30
0.0
  0
SEQEND
  5
8DC1
  8
1DIM
  0
ENDBLK
  5
8DC3
  8
0
  0
BLOCK
  8
0
  2
*U40
 70
     1
 10
0.0
 20
0.0
 30
0.0
  3
*U40
  1

  0
TEXT
  5
8DC6
  8
1TEXT
 10
14.9745471932972
 20
24.09947430071913
 30
0.0
 40
1.8
  1
XY
  0
ENDBLK
  5
8DC8
  8
0
  0
BLOCK
  8
0
  2
*U41
 70
     1
 10
0.0
 20
0.0
 30
0.0
  3
*U41
  1

  0
TEXT
  5
8DCD
  8
1DIM
 62
   201
 10
618.72564557772284
 20
255.63330934001681
 30
0.0
 40
3.5
  1
12
  0
ENDBLK
  5
8DCF
  8
0
  0
BLOCK
  8
0
  2
*U42
 70
     1
 10
0.0
 20
0.0
 30
0.0
  3
*U42
  1

  0
TEXT
  5
8DD1
  8
1DIM
 62
   201
 10
661.11052236255534
 20
255.63330934001681
 30
0.0
 40
3.5
  1
46.59
  0
ENDBLK
  5
8DD3
  8
0
  0
BLOCK
  8
0
  2
*U43
 70
     1
 10
0.0
 20
0.0
 30
0.0
  3
*U43
  1

  0
TEXT
  5
8DD5
  8
1DIM
 62
   201
 10
606.48561373305358
 20
219.6758646522363
 30
0.0
 40
3.5
  1
50.75
 50
90.0
  0
ENDBLK
  5
8DD7
  8
0
  0
BLOCK
  8
0
  2
*U44
 70
     1
 10
0.0
 20
0.0
 30
0.0
  3
*U44
  1

  0
TEXT
  5
8DD9
  8
1DIM
 62
   201
 10
-53.487142073670007
 20
-2066.3324457002868
 30
0.0
 40
3.5
  1
12
  0
ENDBLK
  5
8DDB
  8
0
  0
BLOCK
  8
0
  2
*U45
 70
     1
 10
0.0
 20
0.0
 30
0.0
  3
*U45
  1

  0
TEXT
  5
8DDD
  8
1DIM
 62
   201
 10
-11.102265288837479
 20
-2066.3324457002868
 30
0.0
 40
3.5
  1
46.59
  0
ENDBLK
  5
8DDF
  8
0
  0
BLOCK
  8
0
  2
*U46
 70
     1
 10
0.0
 20
0.0
 30
0.0
  3
*U46
  1

  0
TEXT
  5
8DE1
  8
1DIM
 62
   201
 10
-65.727173918338934
 20
-2102.2898903880682
 30
0.0
 40
3.5
  1
50.75
 50
90.0
  0
ENDBLK
  5
8DE3
  8
0
  0
BLOCK
  8
0
  2
*U47
 70
     1
 10
0.0
 20
0.0
 30
0.0
  3
*U47
  1

  0
TEXT
  5
8DE5
  8
1DIM
 62
   201
 10
-67.803655239475859
 20
-2205.0698231579399
 30
0.0
 40
3.5
  1
50.5
 50
90.0
  0
ENDBLK
  5
8DE7
  8
0
  0
BLOCK
  8
0
  2
*U48
 70
     1
 10
0.0
 20
0.0
 30
0.0
  3
*U48
  1

  0
TEXT
  5
8DE9
  8
1DIM
 62
   201
 10
-4.000397996966468
 20
-2102.2898903880682
 30
0.0
 40
3.5
  1
50.75
 50
90.0
  0
ENDBLK
  5
8DEB
  8
0
  0
BLOCK
  8
0
  2
*U49
 70
     1
 10
0.0
 20
0.0
 30
0.0
  3
*U49
  1

  0
TEXT
  5
8DED
  8
1DIM
 62
   201
 10
-53.487142073670007
 20
-2140.2565570547331
 30
0.0
 40
3.5
  1
12
  0
ENDBLK
  5
8DEF
  8
0
  0
BLOCK
  8
0
  2
*U50
 70
     1
 10
0.0
 20
0.0
 30
0.0
  3
*U50
  1

  0
TEXT
  5
8DF1
  8
1DIM
 62
   201
 10
15.22559240486216
 20
-2140.2565570547331
 30
0.0
 40
3.5
  1
47
  0
ENDBLK
  5
8DF3
  8
0
  0
BLOCK
  8
0
  2
*U51
 70
     1
 10
0.0
 20
0.0
 30
0.0
  3
*U51
  1

  0
TEXT
  5
8DF5
  8
1DIM
 62
   201
 10
-25.853808740336351
 20
-2097.9148903880682
 30
0.0
 40
3.5
  1
51
 50
90.0
  0
ENDBLK
  5
8DF7
  8
0
  0
ENDSEC
  0
SECTION
  2
ENTITIES
  0
TEXT
  5
349B
  8
1TEXT
 10
-165.9070257868311
 20
-1979.956557054735
 30
0.0
 40
8.0
  1
KC040
  0
TEXT
  5
34CA
  8
1TEXT
 10
-148.88439663113769
 20
-2170.4565380547351
 30
0.0
 40
4.0
  1
表面処理：
 72
     1
 11
-138.23677758351869
 21
-2170.4565380547351
 31
0.0
  0
TEXT
  5
34CC
  8
1TEXT
 10
-155.03677758351861
 20
-2177.434433074719
 30
0.0
 40
4.0
  1
ブラストシルバー
 41
0.9
 72
     1
 11
-138.23677758351869
 21
-2177.434433074719
 31
0.0
  0
LINE
  5
34CD
  8
1DIM
 10
-155.6367775835183
 20
-2164.9565380547351
 30
0.0
 11
-85.636777583518324
 21
-2164.9565380547351
 31
0.0
  0
LINE
  5
34CE
  8
1DIM
 10
-155.6367775835183
 20
-2178.9565380547351
 30
0.0
 11
-85.636777583518324
 21
-2178.9565380547351
 31
0.0
  0
LINE
  5
34CF
  8
1DIM
 10
-155.6367775835183
 20
-2171.9565380547351
 30
0.0
 11
-85.636777583518324
 21
-2171.9565380547351
 31
0.0
  0
LINE
  5
34D2
  8
1DIM
 10
-120.6367775835183
 20
-2164.9565380547351
 30
0.0
 11
-120.6367775835183
 21
-2178.9565380547351
 31
0.0
  0
TEXT
  5
34D4
  8
1TEXT
 10
-115.90344425018441
 20
-2177.670895038385
 30
0.0
 40
4.0
  1
KC040XS
 72
     1
 11
-103.23677758351771
 21
-2177.670895038385
 31
0.0
  0
TEXT
  5
34D5
  8
1TEXT
 10
-110.0367775835187
 20
-2170.4565380547351
 30
0.0
 40
4.0
  1
コード
 72
     1
 11
-103.2367775835187
 21
-2170.4565380547351
 31
0.0
  0
LINE
  5
34D6
  8
1DIM
 10
-155.6367775835183
 20
-2178.9565380547351
 30
0.0
 11
-155.6367775835183
 21
-2164.9565380547351
 31
0.0
  0
LINE
  5
34D7
  8
1DIM
 10
-85.636777583518324
 20
-2178.9565380547351
 30
0.0
 11
-85.636777583518324
 21
-2164.9565380547351
 31
0.0
  0
TEXT
  5
8A84
  8
1TEXT
 10
-154.51503369787119
 20
-2161.1905104684129
 30
0.0
 40
4.0
  1
材質：アルミ
 72
     1
 11
-141.18170036453779
 21
-2161.1905104684129
 31
0.0
  0
LINE
  5
8BB8
  8
01
 10
-45.153808740336672
 20
-2070.2065570547352
 30
0.0
 11
-57.153808740336672
 21
-2070.2065570547352
 31
0.0
  0
LINE
  5
8BB9
  8
01
 10
-57.153808740336672
 20
-2070.2065570547352
 30
0.0
 11
-57.153808740336672
 21
-2120.9565570547338
 31
0.0
  0
LINE
  5
8BBA
  8
01
 10
-45.153808740336672
 20
-2070.2065570547352
 30
0.0
 11
-45.153808740336672
 21
-2120.9565570547338
 31
0.0
  0
LINE
  5
8BBB
  8
01
 10
-45.153808740336672
 20
-2120.9565570547338
 30
0.0
 11
-57.153808740336672
 21
-2120.9565570547338
 31
0.0
  0
LINE
  5
8BBC
  8
01
 10
-48.153808740336899
 20
-2110.9565570547338
 30
0.0
 11
-54.153808740336899
 21
-2110.9565570547338
 31
0.0
  0
POLYLINE
  5
8BBD
  8
01
 10
-45.153808740336672
 20
-2113.0778773982938
 30
0.0
 66
     1
 70
     8
  0
VERTEX
  8
01
  5
8DF8
 10
-45.1538
 20
-2113.08
 30
0.000000
  70
    32
  0
VERTEX
  8
01
  5
8DF9
 10
-45.1540
 20
-2113.05
 30
0.000000
  70
    32
  0
VERTEX
  8
01
  5
8DFA
 10
-45.1547
 20
-2113.03
 30
0.000000
  70
    32
  0
VERTEX
  8
01
  5
8DFB
 10
-45.1558
 20
-2113.00
 30
0.000000
  70
    32
  0
VERTEX
  8
01
  5
8DFC
 10
-45.1574
 20
-2112.97
 30
0.000000
  70
    32
  0
VERTEX
  8
01
  5
8DFD
 10
-45.1595
 20
-2112.95
 30
0.000000
  70
    32
  0
VERTEX
  8
01
  5
8DFE
 10
-45.1619
 20
-2112.92
 30
0.000000
  70
    32
  0
VERTEX
  8
01
  5
8DFF
 10
-45.1649
 20
-2112.90
 30
0.000000
  70
    32
  0
VERTEX
  8
01
  5
8E00
 10
-45.1683
 20
-2112.87
 30
0.000000
  70
    32
  0
VERTEX
  8
01
  5
8E01
 10
-45.1721
 20
-2112.84
 30
0.000000
  70
    32
  0
VERTEX
  8
01
  5
8E02
 10
-45.1764
 20
-2112.82
 30
0.000000
  70
    32
  0
VERTEX
  8
01
  5
8E03
 10
-45.1811
 20
-2112.79
 30
0.000000
  70
    32
  0
VERTEX
  8
01
  5
8E04
 10
-45.1863
 20
-2112.77
 30
0.000000
  70
    32
  0
VERTEX
  8
01
  5
8E05
 10
-45.1919
 20
-2112.74
 30
0.000000
  70
    32
  0
VERTEX
  8
01
  5
8E06
 10
-45.1980
 20
-2112.72
 30
0.000000
  70
    32
  0
VERTEX
  8
01
  5
8E07
 10
-45.2045
 20
-2112.69
 30
0.000000
  70
    32
  0
VERTEX
  8
01
  5
8E08
 10
-45.2115
 20
-2112.66
 30
0.000000
  70
    32
  0
VERTEX
  8
01
  5
8E09
 10
-45.2189
 20
-2112.64
 30
0.000000
  70
    32
  0
VERTEX
  8
01
  5
8E0A
 10
-45.2267
 20
-2112.61
 30
0.000000
  70
    32
  0
VERTEX
  8
01
  5
8E0B
 10
-45.2350
 20
-2112.59
 30
0.000000
  70
    32
  0
VERTEX
  8
01
  5
8E0C
 10
-45.2437
 20
-2112.56
 30
0.000000
  70
    32
  0
VERTEX
  8
01
  5
8E0D
 10
-45.2529
 20
-2112.54
 30
0.000000
  70
    32
  0
VERTEX
  8
01
  5
8E0E
 10
-45.2625
 20
-2112.51
 30
0.000000
  70
    32
  0
VERTEX
  8
01
  5
8E0F
 10
-45.2725
 20
-2112.49
 30
0.000000
  70
    32
  0
VERTEX
  8
01
  5
8E10
 10
-45.2830
 20
-2112.46
 30
0.000000
  70
    32
  0
VERTEX
  8
01
  5
8E11
 10
-45.2939
 20
-2112.44
 30
0.000000
  70
    32
  0
VERTEX
  8
01
  5
8E12
 10
-45.3052
 20
-2112.41
 30
0.000000
  70
    32
  0
VERTEX
  8
01
  5
8E13
 10
-45.3170
 20
-2112.39
 30
0.000000
  70
    32
  0
VERTEX
  8
01
  5
8E14
 10
-45.3292
 20
-2112.36
 30
0.000000
  70
    32
  0
VERTEX
  8
01
  5
8E15
 10
-45.3418
 20
-2112.34
 30
0.000000
  70
    32
  0
VERTEX
  8
01
  5
8E16
 10
-45.3548
 20
-2112.31
 30
0.000000
  70
    32
  0
VERTEX
  8
01
  5
8E17
 10
-45.3683
 20
-2112.29
 30
0.000000
  70
    32
  0
VERTEX
  8
01
  5
8E18
 10
-45.3822
 20
-2112.27
 30
0.000000
  70
    32
  0
VERTEX
  8
01
  5
8E19
 10
-45.3965
 20
-2112.24
 30
0.000000
  70
    32
  0
VERTEX
  8
01
  5
8E1A
 10
-45.4112
 20
-2112.22
 30
0.000000
  70
    32
  0
VERTEX
  8
01
  5
8E1B
 10
-45.4263
 20
-2112.19
 30
0.000000
  70
    32
  0
VERTEX
  8
01
  5
8E1C
 10
-45.4418
 20
-2112.17
 30
0.000000
  70
    32
  0
VERTEX
  8
01
  5
8E1D
 10
-45.4578
 20
-2112.15
 30
0.000000
  70
    32
  0
VERTEX
  8
01
  5
8E1E
 10
-45.4741
 20
-2112.12
 30
0.000000
  70
    32
  0
VERTEX
  8
01
  5
8E1F
 10
-45.4909
 20
-2112.10
 30
0.000000
  70
    32
  0
VERTEX
  8
01
  5
8E20
 10
-45.5080
 20
-2112.08
 30
0.000000
  70
    32
  0
VERTEX
  8
01
  5
8E21
 10
-45.5256
 20
-2112.06
 30
0.000000
  70
    32
  0
VERTEX
  8
01
  5
8E22
 10
-45.5435
 20
-2112.03
 30
0.000000
  70
    32
  0
VERTEX
  8
01
  5
8E23
 10
-45.5619
 20
-2112.01
 30
0.000000
  70
    32
  0
VERTEX
  8
01
  5
8E24
 10
-45.5806
 20
-2111.99
 30
0.000000
  70
    32
  0
VERTEX
  8
01
  5
8E25
 10
-45.5997
 20
-2111.97
 30
0.000000
  70
    32
  0
VERTEX
  8
01
  5
8E26
 10
-45.6192
 20
-2111.94
 30
0.000000
  70
    32
  0
VERTEX
  8
01
  5
8E27
 10
-45.6391
 20
-2111.92
 30
0.000000
  70
    32
  0
VERTEX
  8
01
  5
8E28
 10
-45.6594
 20
-2111.90
 30
0.000000
  70
    32
  0
VERTEX
  8
01
  5
8E29
 10
-45.6800
 20
-2111.88
 30
0.000000
  70
    32
  0
VERTEX
  8
01
  5
8E2A
 10
-45.7011
 20
-2111.86
 30
0.000000
  70
    32
  0
VERTEX
  8
01
  5
8E2B
 10
-45.7224
 20
-2111.84
 30
0.000000
  70
    32
  0
VERTEX
  8
01
  5
8E2C
 10
-45.7442
 20
-2111.81
 30
0.000000
  70
    32
  0
VERTEX
  8
01
  5
8E2D
 10
-45.7663
 20
-2111.79
 30
0.000000
  70
    32
  0
VERTEX
  8
01
  5
8E2E
 10
-45.7888
 20
-2111.77
 30
0.000000
  70
    32
  0
VERTEX
  8
01
  5
8E2F
 10
-45.8116
 20
-2111.75
 30
0.000000
  70
    32
  0
VERTEX
  8
01
  5
8E30
 10
-45.8348
 20
-2111.73
 30
0.000000
  70
    32
  0
VERTEX
  8
01
  5
8E31
 10
-45.8583
 20
-2111.71
 30
0.000000
  70
    32
  0
VERTEX
  8
01
  5
8E32
 10
-45.8822
 20
-2111.69
 30
0.000000
  70
    32
  0
VERTEX
  8
01
  5
8E33
 10
-45.9064
 20
-2111.67
 30
0.000000
  70
    32
  0
VERTEX
  8
01
  5
8E34
 10
-45.9310
 20
-2111.65
 30
0.000000
  70
    32
  0
VERTEX
  8
01
  5
8E35
 10
-45.9558
 20
-2111.63
 30
0.000000
  70
    32
  0
VERTEX
  8
01
  5
8E36
 10
-45.9811
 20
-2111.62
 30
0.000000
  70
    32
  0
VERTEX
  8
01
  5
8E37
 10
-46.0066
 20
-2111.60
 30
0.000000
  70
    32
  0
VERTEX
  8
01
  5
8E38
 10
-46.0325
 20
-2111.58
 30
0.000000
  70
    32
  0
VERTEX
  8
01
  5
8E39
 10
-46.0587
 20
-2111.56
 30
0.000000
  70
    32
  0
VERTEX
  8
01
  5
8E3A
 10
-46.0852
 20
-2111.54
 30
0.000000
  70
    32
  0
VERTEX
  8
01
  5
8E3B
 10
-46.1120
 20
-2111.52
 30
0.000000
  70
    32
  0
VERTEX
  8
01
  5
8E3C
 10
-46.1391
 20
-2111.51
 30
0.000000
  70
    32
  0
VERTEX
  8
01
  5
8E3D
 10
-46.1666
 20
-2111.49
 30
0.000000
  70
    32
  0
VERTEX
  8
01
  5
8E3E
 10
-46.1943
 20
-2111.47
 30
0.000000
  70
    32
  0
VERTEX
  8
01
  5
8E3F
 10
-46.2223
 20
-2111.45
 30
0.000000
  70
    32
  0
VERTEX
  8
01
  5
8E40
 10
-46.2506
 20
-2111.44
 30
0.000000
  70
    32
  0
VERTEX
  8
01
  5
8E41
 10
-46.2792
 20
-2111.42
 30
0.000000
  70
    32
  0
VERTEX
  8
01
  5
8E42
 10
-46.3081
 20
-2111.41
 30
0.000000
  70
    32
  0
VERTEX
  8
01
  5
8E43
 10
-46.3373
 20
-2111.39
 30
0.000000
  70
    32
  0
VERTEX
  8
01
  5
8E44
 10
-46.3667
 20
-2111.37
 30
0.000000
  70
    32
  0
VERTEX
  8
01
  5
8E45
 10
-46.3964
 20
-2111.36
 30
0.000000
  70
    32
  0
VERTEX
  8
01
  5
8E46
 10
-46.4264
 20
-2111.34
 30
0.000000
  70
    32
  0
VERTEX
  8
01
  5
8E47
 10
-46.4566
 20
-2111.33
 30
0.000000
  70
    32
  0
VERTEX
  8
01
  5
8E48
 10
-46.4871
 20
-2111.31
 30
0.000000
  70
    32
  0
VERTEX
  8
01
  5
8E49
 10
-46.5178
 20
-2111.30
 30
0.000000
  70
    32
  0
VERTEX
  8
01
  5
8E4A
 10
-46.5488
 20
-2111.29
 30
0.000000
  70
    32
  0
VERTEX
  8
01
  5
8E4B
 10
-46.5800
 20
-2111.27
 30
0.000000
  70
    32
  0
VERTEX
  8
01
  5
8E4C
 10
-46.6115
 20
-2111.26
 30
0.000000
  70
    32
  0
VERTEX
  8
01
  5
8E4D
 10
-46.6432
 20
-2111.25
 30
0.000000
  70
    32
  0
VERTEX
  8
01
  5
8E4E
 10
-46.6751
 20
-2111.23
 30
0.000000
  70
    32
  0
VERTEX
  8
01
  5
8E4F
 10
-46.7073
 20
-2111.22
 30
0.000000
  70
    32
  0
VERTEX
  8
01
  5
8E50
 10
-46.7396
 20
-2111.21
 30
0.000000
  70
    32
  0
VERTEX
  8
01
  5
8E51
 10
-46.7722
 20
-2111.19
 30
0.000000
  70
    32
  0
VERTEX
  8
01
  5
8E52
 10
-46.8050
 20
-2111.18
 30
0.000000
  70
    32
  0
VERTEX
  8
01
  5
8E53
 10
-46.8380
 20
-2111.17
 30
0.000000
  70
    32
  0
VERTEX
  8
01
  5
8E54
 10
-46.8711
 20
-2111.16
 30
0.000000
  70
    32
  0
VERTEX
  8
01
  5
8E55
 10
-46.9045
 20
-2111.15
 30
0.000000
  70
    32
  0
VERTEX
  8
01
  5
8E56
 10
-46.9381
 20
-2111.14
 30
0.000000
  70
    32
  0
VERTEX
  8
01
  5
8E57
 10
-46.9718
 20
-2111.13
 30
0.000000
  70
    32
  0
VERTEX
  8
01
  5
8E58
 10
-47.0058
 20
-2111.12
 30
0.000000
  70
    32
  0
VERTEX
  8
01
  5
8E59
 10
-47.0399
 20
-2111.11
 30
0.000000
  70
    32
  0
VERTEX
  8
01
  5
8E5A
 10
-47.0741
 20
-2111.10
 30
0.000000
  70
    32
  0
VERTEX
  8
01
  5
8E5B
 10
-47.1086
 20
-2111.09
 30
0.000000
  70
    32
  0
VERTEX
  8
01
  5
8E5C
 10
-47.1431
 20
-2111.08
 30
0.000000
  70
    32
  0
VERTEX
  8
01
  5
8E5D
 10
-47.1779
 20
-2111.07
 30
0.000000
  70
    32
  0
VERTEX
  8
01
  5
8E5E
 10
-47.2128
 20
-2111.06
 30
0.000000
  70
    32
  0
VERTEX
  8
01
  5
8E5F
 10
-47.2478
 20
-2111.06
 30
0.000000
  70
    32
  0
VERTEX
  8
01
  5
8E60
 10
-47.2830
 20
-2111.05
 30
0.000000
  70
    32
  0
VERTEX
  8
01
  5
8E61
 10
-47.3182
 20
-2111.04
 30
0.000000
  70
    32
  0
VERTEX
  8
01
  5
8E62
 10
-47.3537
 20
-2111.03
 30
0.000000
  70
    32
  0
VERTEX
  8
01
  5
8E63
 10
-47.3892
 20
-2111.03
 30
0.000000
  70
    32
  0
VERTEX
  8
01
  5
8E64
 10
-47.4249
 20
-2111.02
 30
0.000000
  70
    32
  0
VERTEX
  8
01
  5
8E65
 10
-47.4606
 20
-2111.01
 30
0.000000
  70
    32
  0
VERTEX
  8
01
  5
8E66
 10
-47.4965
 20
-2111.01
 30
0.000000
  70
    32
  0
VERTEX
  8
01
  5
8E67
 10
-47.5325
 20
-2111.00
 30
0.000000
  70
    32
  0
VERTEX
  8
01
  5
8E68
 10
-47.5685
 20
-2111.00
 30
0.000000
  70
    32
  0
VERTEX
  8
01
  5
8E69
 10
-47.6047
 20
-2110.99
 30
0.000000
  70
    32
  0
VERTEX
  8
01
  5
8E6A
 10
-47.6409
 20
-2110.99
 30
0.000000
  70
    32
  0
VERTEX
  8
01
  5
8E6B
 10
-47.6772
 20
-2110.98
 30
0.000000
  70
    32
  0
VERTEX
  8
01
  5
8E6C
 10
-47.7136
 20
-2110.98
 30
0.000000
  70
    32
  0
VERTEX
  8
01
  5
8E6D
 10
-47.7501
 20
-2110.98
 30
0.000000
  70
    32
  0
VERTEX
  8
01
  5
8E6E
 10
-47.7866
 20
-2110.97
 30
0.000000
  70
    32
  0
VERTEX
  8
01
  5
8E6F
 10
-47.8231
 20
-2110.97
 30
0.000000
  70
    32
  0
VERTEX
  8
01
  5
8E70
 10
-47.8598
 20
-2110.97
 30
0.000000
  70
    32
  0
VERTEX
  8
01
  5
8E71
 10
-47.8964
 20
-2110.96
 30
0.000000
  70
    32
  0
VERTEX
  8
01
  5
8E72
 10
-47.9331
 20
-2110.96
 30
0.000000
  70
    32
  0
VERTEX
  8
01
  5
8E73
 10
-47.9698
 20
-2110.96
 30
0.000000
  70
    32
  0
VERTEX
  8
01
  5
8E74
 10
-48.0066
 20
-2110.96
 30
0.000000
  70
    32
  0
VERTEX
  8
01
  5
8E75
 10
-48.0434
 20
-2110.96
 30
0.000000
  70
    32
  0
VERTEX
  8
01
  5
8E76
 10
-48.0802
 20
-2110.96
 30
0.000000
  70
    32
  0
VERTEX
  8
01
  5
8E77
 10
-48.1170
 20
-2110.96
 30
0.000000
  70
    32
  0
VERTEX
  8
01
  5
8E78
 10
-48.1538
 20
-2110.96
 30
0.000000
  70
    32
  0
SEQEND
  8
01
  5
8E79
  0
POLYLINE
  5
8BBE
  8
01
 10
-57.153808740336672
 20
-2113.0778773982938
 30
0.0
 66
     1
 70
     8
  0
VERTEX
  8
01
  5
8E7A
 10
-57.1538
 20
-2113.08
 30
0.000000
  70
    32
  0
VERTEX
  8
01
  5
8E7B
 10
-57.1536
 20
-2113.05
 30
0.000000
  70
    32
  0
VERTEX
  8
01
  5
8E7C
 10
-57.1529
 20
-2113.03
 30
0.000000
  70
    32
  0
VERTEX
  8
01
  5
8E7D
 10
-57.1518
 20
-2113.00
 30
0.000000
  70
    32
  0
VERTEX
  8
01
  5
8E7E
 10
-57.1502
 20
-2112.97
 30
0.000000
  70
    32
  0
VERTEX
  8
01
  5
8E7F
 10
-57.1482
 20
-2112.95
 30
0.000000
  70
    32
  0
VERTEX
  8
01
  5
8E80
 10
-57.1457
 20
-2112.92
 30
0.000000
  70
    32
  0
VERTEX
  8
01
  5
8E81
 10
-57.1427
 20
-2112.90
 30
0.000000
  70
    32
  0
VERTEX
  8
01
  5
8E82
 10
-57.1394
 20
-2112.87
 30
0.000000
  70
    32
  0
VERTEX
  8
01
  5
8E83
 10
-57.1355
 20
-2112.84
 30
0.000000
  70
    32
  0
VERTEX
  8
01
  5
8E84
 10
-57.1312
 20
-2112.82
 30
0.000000
  70
    32
  0
VERTEX
  8
01
  5
8E85
 10
-57.1265
 20
-2112.79
 30
0.000000
  70
    32
  0
VERTEX
  8
01
  5
8E86
 10
-57.1213
 20
-2112.77
 30
0.000000
  70
    32
  0
VERTEX
  8
01
  5
8E87
 10
-57.1157
 20
-2112.74
 30
0.000000
  70
    32
  0
VERTEX
  8
01
  5
8E88
 10
-57.1096
 20
-2112.72
 30
0.000000
  70
    32
  0
VERTEX
  8
01
  5
8E89
 10
-57.1031
 20
-2112.69
 30
0.000000
  70
    32
  0
VERTEX
  8
01
  5
8E8A
 10
-57.0962
 20
-2112.66
 30
0.000000
  70
    32
  0
VERTEX
  8
01
  5
8E8B
 10
-57.0888
 20
-2112.64
 30
0.000000
  70
    32
  0
VERTEX
  8
01
  5
8E8C
 10
-57.0809
 20
-2112.61
 30
0.000000
  70
    32
  0
VERTEX
  8
01
  5
8E8D
 10
-57.0726
 20
-2112.59
 30
0.000000
  70
    32
  0
VERTEX
  8
01
  5
8E8E
 10
-57.0639
 20
-2112.56
 30
0.000000
  70
    32
  0
VERTEX
  8
01
  5
8E8F
 10
-57.0547
 20
-2112.54
 30
0.000000
  70
    32
  0
VERTEX
  8
01
  5
8E90
 10
-57.0451
 20
-2112.51
 30
0.000000
  70
    32
  0
VERTEX
  8
01
  5
8E91
 10
-57.0351
 20
-2112.49
 30
0.000000
  70
    32
  0
VERTEX
  8
01
  5
8E92
 10
-57.0246
 20
-2112.46
 30
0.000000
  70
    32
  0
VERTEX
  8
01
  5
8E93
 10
-57.0137
 20
-2112.44
 30
0.000000
  70
    32
  0
VERTEX
  8
01
  5
8E94
 10
-57.0024
 20
-2112.41
 30
0.000000
  70
    32
  0
VERTEX
  8
01
  5
8E95
 10
-56.9906
 20
-2112.39
 30
0.000000
  70
    32
  0
VERTEX
  8
01
  5
8E96
 10
-56.9784
 20
-2112.36
 30
0.000000
  70
    32
  0
VERTEX
  8
01
  5
8E97
 10
-56.9658
 20
-2112.34
 30
0.000000
  70
    32
  0
VERTEX
  8
01
  5
8E98
 10
-56.9528
 20
-2112.31
 30
0.000000
  70
    32
  0
VERTEX
  8
01
  5
8E99
 10
-56.9393
 20
-2112.29
 30
0.000000
  70
    32
  0
VERTEX
  8
01
  5
8E9A
 10
-56.9254
 20
-2112.27
 30
0.000000
  70
    32
  0
VERTEX
  8
01
  5
8E9B
 10
-56.9112
 20
-2112.24
 30
0.000000
  70
    32
  0
VERTEX
  8
01
  5
8E9C
 10
-56.8964
 20
-2112.22
 30
0.000000
  70
    32
  0
VERTEX
  8
01
  5
8E9D
 10
-56.8813
 20
-2112.19
 30
0.000000
  70
    32
  0
VERTEX
  8
01
  5
8E9E
 10
-56.8658
 20
-2112.17
 30
0.000000
  70
    32
  0
VERTEX
  8
01
  5
8E9F
 10
-56.8498
 20
-2112.15
 30
0.000000
  70
    32
  0
VERTEX
  8
01
  5
8EA0
 10
-56.8335
 20
-2112.12
 30
0.000000
  70
    32
  0
VERTEX
  8
01
  5
8EA1
 10
-56.8167
 20
-2112.10
 30
0.000000
  70
    32
  0
VERTEX
  8
01
  5
8EA2
 10
-56.7996
 20
-2112.08
 30
0.000000
  70
    32
  0
VERTEX
  8
01
  5
8EA3
 10
-56.7820
 20
-2112.06
 30
0.000000
  70
    32
  0
VERTEX
  8
01
  5
8EA4
 10
-56.7641
 20
-2112.03
 30
0.000000
  70
    32
  0
VERTEX
  8
01
  5
8EA5
 10
-56.7457
 20
-2112.01
 30
0.000000
  70
    32
  0
VERTEX
  8
01
  5
8EA6
 10
-56.7270
 20
-2111.99
 30
0.000000
  70
    32
  0
VERTEX
  8
01
  5
8EA7
 10
-56.7079
 20
-2111.97
 30
0.000000
  70
    32
  0
VERTEX
  8
01
  5
8EA8
 10
-56.6884
 20
-2111.94
 30
0.000000
  70
    32
  0
VERTEX
  8
01
  5
8EA9
 10
-56.6685
 20
-2111.92
 30
0.000000
  70
    32
  0
VERTEX
  8
01
  5
8EAA
 10
-56.6482
 20
-2111.90
 30
0.000000
  70
    32
  0
VERTEX
  8
01
  5
8EAB
 10
-56.6276
 20
-2111.88
 30
0.000000
  70
    32
  0
VERTEX
  8
01
  5
8EAC
 10
-56.6066
 20
-2111.86
 30
0.000000
  70
    32
  0
VERTEX
  8
01
  5
8EAD
 10
-56.5852
 20
-2111.84
 30
0.000000
  70
    32
  0
VERTEX
  8
01
  5
8EAE
 10
-56.5634
 20
-2111.81
 30
0.000000
  70
    32
  0
VERTEX
  8
01
  5
8EAF
 10
-56.5413
 20
-2111.79
 30
0.000000
  70
    32
  0
VERTEX
  8
01
  5
8EB0
 10
-56.5188
 20
-2111.77
 30
0.000000
  70
    32
  0
VERTEX
  8
01
  5
8EB1
 10
-56.4960
 20
-2111.75
 30
0.000000
  70
    32
  0
VERTEX
  8
01
  5
8EB2
 10
-56.4728
 20
-2111.73
 30
0.000000
  70
    32
  0
VERTEX
  8
01
  5
8EB3
 10
-56.4493
 20
-2111.71
 30
0.000000
  70
    32
  0
VERTEX
  8
01
  5
8EB4
 10
-56.4254
 20
-2111.69
 30
0.000000
  70
    32
  0
VERTEX
  8
01
  5
8EB5
 10
-56.4012
 20
-2111.67
 30
0.000000
  70
    32
  0
VERTEX
  8
01
  5
8EB6
 10
-56.3767
 20
-2111.65
 30
0.000000
  70
    32
  0
VERTEX
  8
01
  5
8EB7
 10
-56.3518
 20
-2111.63
 30
0.000000
  70
    32
  0
VERTEX
  8
01
  5
8EB8
 10
-56.3265
 20
-2111.62
 30
0.000000
  70
    32
  0
VERTEX
  8
01
  5
8EB9
 10
-56.3010
 20
-2111.60
 30
0.000000
  70
    32
  0
VERTEX
  8
01
  5
8EBA
 10
-56.2751
 20
-2111.58
 30
0.000000
  70
    32
  0
VERTEX
  8
01
  5
8EBB
 10
-56.2489
 20
-2111.56
 30
0.000000
  70
    32
  0
VERTEX
  8
01
  5
8EBC
 10
-56.2224
 20
-2111.54
 30
0.000000
  70
    32
  0
VERTEX
  8
01
  5
8EBD
 10
-56.1956
 20
-2111.52
 30
0.000000
  70
    32
  0
VERTEX
  8
01
  5
8EBE
 10
-56.1685
 20
-2111.51
 30
0.000000
  70
    32
  0
VERTEX
  8
01
  5
8EBF
 10
-56.1411
 20
-2111.49
 30
0.000000
  70
    32
  0
VERTEX
  8
01
  5
8EC0
 10
-56.1133
 20
-2111.47
 30
0.000000
  70
    32
  0
VERTEX
  8
01
  5
8EC1
 10
-56.0853
 20
-2111.45
 30
0.000000
  70
    32
  0
VERTEX
  8
01
  5
8EC2
 10
-56.0570
 20
-2111.44
 30
0.000000
  70
    32
  0
VERTEX
  8
01
  5
8EC3
 10
-56.0284
 20
-2111.42
 30
0.000000
  70
    32
  0
VERTEX
  8
01
  5
8EC4
 10
-55.9995
 20
-2111.41
 30
0.000000
  70
    32
  0
VERTEX
  8
01
  5
8EC5
 10
-55.9703
 20
-2111.39
 30
0.000000
  70
    32
  0
VERTEX
  8
01
  5
8EC6
 10
-55.9409
 20
-2111.37
 30
0.000000
  70
    32
  0
VERTEX
  8
01
  5
8EC7
 10
-55.9112
 20
-2111.36
 30
0.000000
  70
    32
  0
VERTEX
  8
01
  5
8EC8
 10
-55.8812
 20
-2111.34
 30
0.000000
  70
    32
  0
VERTEX
  8
01
  5
8EC9
 10
-55.8510
 20
-2111.33
 30
0.000000
  70
    32
  0
VERTEX
  8
01
  5
8ECA
 10
-55.8205
 20
-2111.31
 30
0.000000
  70
    32
  0
VERTEX
  8
01
  5
8ECB
 10
-55.7898
 20
-2111.30
 30
0.000000
  70
    32
  0
VERTEX
  8
01
  5
8ECC
 10
-55.7588
 20
-2111.29
 30
0.000000
  70
    32
  0
VERTEX
  8
01
  5
8ECD
 10
-55.7276
 20
-2111.27
 30
0.000000
  70
    32
  0
VERTEX
  8
01
  5
8ECE
 10
-55.6961
 20
-2111.26
 30
0.000000
  70
    32
  0
VERTEX
  8
01
  5
8ECF
 10
-55.6644
 20
-2111.25
 30
0.000000
  70
    32
  0
VERTEX
  8
01
  5
8ED0
 10
-55.6325
 20
-2111.23
 30
0.000000
  70
    32
  0
VERTEX
  8
01
  5
8ED1
 10
-55.6004
 20
-2111.22
 30
0.000000
  70
    32
  0
VERTEX
  8
01
  5
8ED2
 10
-55.5680
 20
-2111.21
 30
0.000000
  70
    32
  0
VERTEX
  8
01
  5
8ED3
 10
-55.5354
 20
-2111.19
 30
0.000000
  70
    32
  0
VERTEX
  8
01
  5
8ED4
 10
-55.5026
 20
-2111.18
 30
0.000000
  70
    32
  0
VERTEX
  8
01
  5
8ED5
 10
-55.4697
 20
-2111.17
 30
0.000000
  70
    32
  0
VERTEX
  8
01
  5
8ED6
 10
-55.4365
 20
-2111.16
 30
0.000000
  70
    32
  0
VERTEX
  8
01
  5
8ED7
 10
-55.4031
 20
-2111.15
 30
0.000000
  70
    32
  0
VERTEX
  8
01
  5
8ED8
 10
-55.3695
 20
-2111.14
 30
0.000000
  70
    32
  0
VERTEX
  8
01
  5
8ED9
 10
-55.3358
 20
-2111.13
 30
0.000000
  70
    32
  0
VERTEX
  8
01
  5
8EDA
 10
-55.3019
 20
-2111.12
 30
0.000000
  70
    32
  0
VERTEX
  8
01
  5
8EDB
 10
-55.2678
 20
-2111.11
 30
0.000000
  70
    32
  0
VERTEX
  8
01
  5
8EDC
 10
-55.2335
 20
-2111.10
 30
0.000000
  70
    32
  0
VERTEX
  8
01
  5
8EDD
 10
-55.1991
 20
-2111.09
 30
0.000000
  70
    32
  0
VERTEX
  8
01
  5
8EDE
 10
-55.1645
 20
-2111.08
 30
0.000000
  70
    32
  0
VERTEX
  8
01
  5
8EDF
 10
-55.1297
 20
-2111.07
 30
0.000000
  70
    32
  0
VERTEX
  8
01
  5
8EE0
 10
-55.0949
 20
-2111.06
 30
0.000000
  70
    32
  0
VERTEX
  8
01
  5
8EE1
 10
-55.0598
 20
-2111.06
 30
0.000000
  70
    32
  0
VERTEX
  8
01
  5
8EE2
 10
-55.0247
 20
-2111.05
 30
0.000000
  70
    32
  0
VERTEX
  8
01
  5
8EE3
 10
-54.9894
 20
-2111.04
 30
0.000000
  70
    32
  0
VERTEX
  8
01
  5
8EE4
 10
-54.9539
 20
-2111.03
 30
0.000000
  70
    32
  0
VERTEX
  8
01
  5
8EE5
 10
-54.9184
 20
-2111.03
 30
0.000000
  70
    32
  0
VERTEX
  8
01
  5
8EE6
 10
-54.8827
 20
-2111.02
 30
0.000000
  70
    32
  0
VERTEX
  8
01
  5
8EE7
 10
-54.8470
 20
-2111.01
 30
0.000000
  70
    32
  0
VERTEX
  8
01
  5
8EE8
 10
-54.8111
 20
-2111.01
 30
0.000000
  70
    32
  0
VERTEX
  8
01
  5
8EE9
 10
-54.7751
 20
-2111.00
 30
0.000000
  70
    32
  0
VERTEX
  8
01
  5
8EEA
 10
-54.7391
 20
-2111.00
 30
0.000000
  70
    32
  0
VERTEX
  8
01
  5
8EEB
 10
-54.7029
 20
-2110.99
 30
0.000000
  70
    32
  0
VERTEX
  8
01
  5
8EEC
 10
-54.6667
 20
-2110.99
 30
0.000000
  70
    32
  0
VERTEX
  8
01
  5
8EED
 10
-54.6304
 20
-2110.98
 30
0.000000
  70
    32
  0
VERTEX
  8
01
  5
8EEE
 10
-54.5940
 20
-2110.98
 30
0.000000
  70
    32
  0
VERTEX
  8
01
  5
8EEF
 10
-54.5576
 20
-2110.98
 30
0.000000
  70
    32
  0
VERTEX
  8
01
  5
8EF0
 10
-54.5210
 20
-2110.97
 30
0.000000
  70
    32
  0
VERTEX
  8
01
  5
8EF1
 10
-54.4845
 20
-2110.97
 30
0.000000
  70
    32
  0
VERTEX
  8
01
  5
8EF2
 10
-54.4479
 20
-2110.97
 30
0.000000
  70
    32
  0
VERTEX
  8
01
  5
8EF3
 10
-54.4112
 20
-2110.96
 30
0.000000
  70
    32
  0
VERTEX
  8
01
  5
8EF4
 10
-54.3745
 20
-2110.96
 30
0.000000
  70
    32
  0
VERTEX
  8
01
  5
8EF5
 10
-54.3378
 20
-2110.96
 30
0.000000
  70
    32
  0
VERTEX
  8
01
  5
8EF6
 10
-54.3010
 20
-2110.96
 30
0.000000
  70
    32
  0
VERTEX
  8
01
  5
8EF7
 10
-54.2642
 20
-2110.96
 30
0.000000
  70
    32
  0
VERTEX
  8
01
  5
8EF8
 10
-54.2274
 20
-2110.96
 30
0.000000
  70
    32
  0
VERTEX
  8
01
  5
8EF9
 10
-54.1906
 20
-2110.96
 30
0.000000
  70
    32
  0
VERTEX
  8
01
  5
8EFA
 10
-54.1538
 20
-2110.96
 30
0.000000
  70
    32
  0
SEQEND
  8
01
  5
8EFB
  0
LINE
  5
8BBF
  8
01
 10
-48.153808740336899
 20
-2108.8352367111738
 30
0.0
 11
-54.153808740336899
 21
-2108.8352367111738
 31
0.0
  0
POLYLINE
  5
8BC0
  8
01
 10
-45.153808740336672
 20
-2110.9565570547338
 30
0.0
 66
     1
 70
     8
  0
VERTEX
  8
01
  5
8EFC
 10
-45.1538
 20
-2110.96
 30
0.000000
  70
    32
  0
VERTEX
  8
01
  5
8EFD
 10
-45.1540
 20
-2110.93
 30
0.000000
  70
    32
  0
VERTEX
  8
01
  5
8EFE
 10
-45.1547
 20
-2110.90
 30
0.000000
  70
    32
  0
VERTEX
  8
01
  5
8EFF
 10
-45.1558
 20
-2110.88
 30
0.000000
  70
    32
  0
VERTEX
  8
01
  5
8F00
 10
-45.1574
 20
-2110.85
 30
0.000000
  70
    32
  0
VERTEX
  8
01
  5
8F01
 10
-45.1595
 20
-2110.83
 30
0.000000
  70
    32
  0
VERTEX
  8
01
  5
8F02
 10
-45.1619
 20
-2110.80
 30
0.000000
  70
    32
  0
VERTEX
  8
01
  5
8F03
 10
-45.1649
 20
-2110.77
 30
0.000000
  70
    32
  0
VERTEX
  8
01
  5
8F04
 10
-45.1683
 20
-2110.75
 30
0.000000
  70
    32
  0
VERTEX
  8
01
  5
8F05
 10
-45.1721
 20
-2110.72
 30
0.000000
  70
    32
  0
VERTEX
  8
01
  5
8F06
 10
-45.1764
 20
-2110.70
 30
0.000000
  70
    32
  0
VERTEX
  8
01
  5
8F07
 10
-45.1811
 20
-2110.67
 30
0.000000
  70
    32
  0
VERTEX
  8
01
  5
8F08
 10
-45.1863
 20
-2110.65
 30
0.000000
  70
    32
  0
VERTEX
  8
01
  5
8F09
 10
-45.1919
 20
-2110.62
 30
0.000000
  70
    32
  0
VERTEX
  8
01
  5
8F0A
 10
-45.1980
 20
-2110.59
 30
0.000000
  70
    32
  0
VERTEX
  8
01
  5
8F0B
 10
-45.2045
 20
-2110.57
 30
0.000000
  70
    32
  0
VERTEX
  8
01
  5
8F0C
 10
-45.2115
 20
-2110.54
 30
0.000000
  70
    32
  0
VERTEX
  8
01
  5
8F0D
 10
-45.2189
 20
-2110.52
 30
0.000000
  70
    32
  0
VERTEX
  8
01
  5
8F0E
 10
-45.2267
 20
-2110.49
 30
0.000000
  70
    32
  0
VERTEX
  8
01
  5
8F0F
 10
-45.2350
 20
-2110.47
 30
0.000000
  70
    32
  0
VERTEX
  8
01
  5
8F10
 10
-45.2437
 20
-2110.44
 30
0.000000
  70
    32
  0
VERTEX
  8
01
  5
8F11
 10
-45.2529
 20
-2110.42
 30
0.000000
  70
    32
  0
VERTEX
  8
01
  5
8F12
 10
-45.2625
 20
-2110.39
 30
0.000000
  70
    32
  0
VERTEX
  8
01
  5
8F13
 10
-45.2725
 20
-2110.37
 30
0.000000
  70
    32
  0
VERTEX
  8
01
  5
8F14
 10
-45.2830
 20
-2110.34
 30
0.000000
  70
    32
  0
VERTEX
  8
01
  5
8F15
 10
-45.2939
 20
-2110.32
 30
0.000000
  70
    32
  0
VERTEX
  8
01
  5
8F16
 10
-45.3052
 20
-2110.29
 30
0.000000
  70
    32
  0
VERTEX
  8
01
  5
8F17
 10
-45.3170
 20
-2110.27
 30
0.000000
  70
    32
  0
VERTEX
  8
01
  5
8F18
 10
-45.3292
 20
-2110.24
 30
0.000000
  70
    32
  0
VERTEX
  8
01
  5
8F19
 10
-45.3418
 20
-2110.22
 30
0.000000
  70
    32
  0
VERTEX
  8
01
  5
8F1A
 10
-45.3548
 20
-2110.19
 30
0.000000
  70
    32
  0
VERTEX
  8
01
  5
8F1B
 10
-45.3683
 20
-2110.17
 30
0.000000
  70
    32
  0
VERTEX
  8
01
  5
8F1C
 10
-45.3822
 20
-2110.14
 30
0.000000
  70
    32
  0
VERTEX
  8
01
  5
8F1D
 10
-45.3965
 20
-2110.12
 30
0.000000
  70
    32
  0
VERTEX
  8
01
  5
8F1E
 10
-45.4112
 20
-2110.10
 30
0.000000
  70
    32
  0
VERTEX
  8
01
  5
8F1F
 10
-45.4263
 20
-2110.07
 30
0.000000
  70
    32
  0
VERTEX
  8
01
  5
8F20
 10
-45.4418
 20
-2110.05
 30
0.000000
  70
    32
  0
VERTEX
  8
01
  5
8F21
 10
-45.4578
 20
-2110.03
 30
0.000000
  70
    32
  0
VERTEX
  8
01
  5
8F22
 10
-45.4741
 20
-2110.00
 30
0.000000
  70
    32
  0
VERTEX
  8
01
  5
8F23
 10
-45.4909
 20
-2109.98
 30
0.000000
  70
    32
  0
VERTEX
  8
01
  5
8F24
 10
-45.5080
 20
-2109.96
 30
0.000000
  70
    32
  0
VERTEX
  8
01
  5
8F25
 10
-45.5256
 20
-2109.93
 30
0.000000
  70
    32
  0
VERTEX
  8
01
  5
8F26
 10
-45.5435
 20
-2109.91
 30
0.000000
  70
    32
  0
VERTEX
  8
01
  5
8F27
 10
-45.5619
 20
-2109.89
 30
0.000000
  70
    32
  0
VERTEX
  8
01
  5
8F28
 10
-45.5806
 20
-2109.87
 30
0.000000
  70
    32
  0
VERTEX
  8
01
  5
8F29
 10
-45.5997
 20
-2109.84
 30
0.000000
  70
    32
  0
VERTEX
  8
01
  5
8F2A
 10
-45.6192
 20
-2109.82
 30
0.000000
  70
    32
  0
VERTEX
  8
01
  5
8F2B
 10
-45.6391
 20
-2109.80
 30
0.000000
  70
    32
  0
VERTEX
  8
01
  5
8F2C
 10
-45.6594
 20
-2109.78
 30
0.000000
  70
    32
  0
VERTEX
  8
01
  5
8F2D
 10
-45.6800
 20
-2109.76
 30
0.000000
  70
    32
  0
VERTEX
  8
01
  5
8F2E
 10
-45.7011
 20
-2109.74
 30
0.000000
  70
    32
  0
VERTEX
  8
01
  5
8F2F
 10
-45.7224
 20
-2109.71
 30
0.000000
  70
    32
  0
VERTEX
  8
01
  5
8F30
 10
-45.7442
 20
-2109.69
 30
0.000000
  70
    32
  0
VERTEX
  8
01
  5
8F31
 10
-45.7663
 20
-2109.67
 30
0.000000
  70
    32
  0
VERTEX
  8
01
  5
8F32
 10
-45.7888
 20
-2109.65
 30
0.000000
  70
    32
  0
VERTEX
  8
01
  5
8F33
 10
-45.8116
 20
-2109.63
 30
0.000000
  70
    32
  0
VERTEX
  8
01
  5
8F34
 10
-45.8348
 20
-2109.61
 30
0.000000
  70
    32
  0
VERTEX
  8
01
  5
8F35
 10
-45.8583
 20
-2109.59
 30
0.000000
  70
    32
  0
VERTEX
  8
01
  5
8F36
 10
-45.8822
 20
-2109.57
 30
0.000000
  70
    32
  0
VERTEX
  8
01
  5
8F37
 10
-45.9064
 20
-2109.55
 30
0.000000
  70
    32
  0
VERTEX
  8
01
  5
8F38
 10
-45.9310
 20
-2109.53
 30
0.000000
  70
    32
  0
VERTEX
  8
01
  5
8F39
 10
-45.9558
 20
-2109.51
 30
0.000000
  70
    32
  0
VERTEX
  8
01
  5
8F3A
 10
-45.9811
 20
-2109.49
 30
0.000000
  70
    32
  0
VERTEX
  8
01
  5
8F3B
 10
-46.0066
 20
-2109.48
 30
0.000000
  70
    32
  0
VERTEX
  8
01
  5
8F3C
 10
-46.0325
 20
-2109.46
 30
0.000000
  70
    32
  0
VERTEX
  8
01
  5
8F3D
 10
-46.0587
 20
-2109.44
 30
0.000000
  70
    32
  0
VERTEX
  8
01
  5
8F3E
 10
-46.0852
 20
-2109.42
 30
0.000000
  70
    32
  0
VERTEX
  8
01
  5
8F3F
 10
-46.1120
 20
-2109.40
 30
0.000000
  70
    32
  0
VERTEX
  8
01
  5
8F40
 10
-46.1391
 20
-2109.38
 30
0.000000
  70
    32
  0
VERTEX
  8
01
  5
8F41
 10
-46.1666
 20
-2109.37
 30
0.000000
  70
    32
  0
VERTEX
  8
01
  5
8F42
 10
-46.1943
 20
-2109.35
 30
0.000000
  70
    32
  0
VERTEX
  8
01
  5
8F43
 10
-46.2223
 20
-2109.33
 30
0.000000
  70
    32
  0
VERTEX
  8
01
  5
8F44
 10
-46.2506
 20
-2109.32
 30
0.000000
  70
    32
  0
VERTEX
  8
01
  5
8F45
 10
-46.2792
 20
-2109.30
 30
0.000000
  70
    32
  0
VERTEX
  8
01
  5
8F46
 10
-46.3081
 20
-2109.28
 30
0.000000
  70
    32
  0
VERTEX
  8
01
  5
8F47
 10
-46.3373
 20
-2109.27
 30
0.000000
  70
    32
  0
VERTEX
  8
01
  5
8F48
 10
-46.3667
 20
-2109.25
 30
0.000000
  70
    32
  0
VERTEX
  8
01
  5
8F49
 10
-46.3964
 20
-2109.24
 30
0.000000
  70
    32
  0
VERTEX
  8
01
  5
8F4A
 10
-46.4264
 20
-2109.22
 30
0.000000
  70
    32
  0
VERTEX
  8
01
  5
8F4B
 10
-46.4566
 20
-2109.21
 30
0.000000
  70
    32
  0
VERTEX
  8
01
  5
8F4C
 10
-46.4871
 20
-2109.19
 30
0.000000
  70
    32
  0
VERTEX
  8
01
  5
8F4D
 10
-46.5178
 20
-2109.18
 30
0.000000
  70
    32
  0
VERTEX
  8
01
  5
8F4E
 10
-46.5488
 20
-2109.16
 30
0.000000
  70
    32
  0
VERTEX
  8
01
  5
8F4F
 10
-46.5800
 20
-2109.15
 30
0.000000
  70
    32
  0
VERTEX
  8
01
  5
8F50
 10
-46.6115
 20
-2109.14
 30
0.000000
  70
    32
  0
VERTEX
  8
01
  5
8F51
 10
-46.6432
 20
-2109.12
 30
0.000000
  70
    32
  0
VERTEX
  8
01
  5
8F52
 10
-46.6751
 20
-2109.11
 30
0.000000
  70
    32
  0
VERTEX
  8
01
  5
8F53
 10
-46.7073
 20
-2109.10
 30
0.000000
  70
    32
  0
VERTEX
  8
01
  5
8F54
 10
-46.7396
 20
-2109.09
 30
0.000000
  70
    32
  0
VERTEX
  8
01
  5
8F55
 10
-46.7722
 20
-2109.07
 30
0.000000
  70
    32
  0
VERTEX
  8
01
  5
8F56
 10
-46.8050
 20
-2109.06
 30
0.000000
  70
    32
  0
VERTEX
  8
01
  5
8F57
 10
-46.8380
 20
-2109.05
 30
0.000000
  70
    32
  0
VERTEX
  8
01
  5
8F58
 10
-46.8711
 20
-2109.04
 30
0.000000
  70
    32
  0
VERTEX
  8
01
  5
8F59
 10
-46.9045
 20
-2109.03
 30
0.000000
  70
    32
  0
VERTEX
  8
01
  5
8F5A
 10
-46.9381
 20
-2109.02
 30
0.000000
  70
    32
  0
VERTEX
  8
01
  5
8F5B
 10
-46.9718
 20
-2109.01
 30
0.000000
  70
    32
  0
VERTEX
  8
01
  5
8F5C
 10
-47.0058
 20
-2109.00
 30
0.000000
  70
    32
  0
VERTEX
  8
01
  5
8F5D
 10
-47.0399
 20
-2108.99
 30
0.000000
  70
    32
  0
VERTEX
  8
01
  5
8F5E
 10
-47.0741
 20
-2108.98
 30
0.000000
  70
    32
  0
VERTEX
  8
01
  5
8F5F
 10
-47.1086
 20
-2108.97
 30
0.000000
  70
    32
  0
VERTEX
  8
01
  5
8F60
 10
-47.1431
 20
-2108.96
 30
0.000000
  70
    32
  0
VERTEX
  8
01
  5
8F61
 10
-47.1779
 20
-2108.95
 30
0.000000
  70
    32
  0
VERTEX
  8
01
  5
8F62
 10
-47.2128
 20
-2108.94
 30
0.000000
  70
    32
  0
VERTEX
  8
01
  5
8F63
 10
-47.2478
 20
-2108.93
 30
0.000000
  70
    32
  0
VERTEX
  8
01
  5
8F64
 10
-47.2830
 20
-2108.93
 30
0.000000
  70
    32
  0
VERTEX
  8
01
  5
8F65
 10
-47.3182
 20
-2108.92
 30
0.000000
  70
    32
  0
VERTEX
  8
01
  5
8F66
 10
-47.3537
 20
-2108.91
 30
0.000000
  70
    32
  0
VERTEX
  8
01
  5
8F67
 10
-47.3892
 20
-2108.91
 30
0.000000
  70
    32
  0
VERTEX
  8
01
  5
8F68
 10
-47.4249
 20
-2108.90
 30
0.000000
  70
    32
  0
VERTEX
  8
01
  5
8F69
 10
-47.4606
 20
-2108.89
 30
0.000000
  70
    32
  0
VERTEX
  8
01
  5
8F6A
 10
-47.4965
 20
-2108.89
 30
0.000000
  70
    32
  0
VERTEX
  8
01
  5
8F6B
 10
-47.5325
 20
-2108.88
 30
0.000000
  70
    32
  0
VERTEX
  8
01
  5
8F6C
 10
-47.5685
 20
-2108.88
 30
0.000000
  70
    32
  0
VERTEX
  8
01
  5
8F6D
 10
-47.6047
 20
-2108.87
 30
0.000000
  70
    32
  0
VERTEX
  8
01
  5
8F6E
 10
-47.6409
 20
-2108.87
 30
0.000000
  70
    32
  0
VERTEX
  8
01
  5
8F6F
 10
-47.6772
 20
-2108.86
 30
0.000000
  70
    32
  0
VERTEX
  8
01
  5
8F70
 10
-47.7136
 20
-2108.86
 30
0.000000
  70
    32
  0
VERTEX
  8
01
  5
8F71
 10
-47.7501
 20
-2108.85
 30
0.000000
  70
    32
  0
VERTEX
  8
01
  5
8F72
 10
-47.7866
 20
-2108.85
 30
0.000000
  70
    32
  0
VERTEX
  8
01
  5
8F73
 10
-47.8231
 20
-2108.85
 30
0.000000
  70
    32
  0
VERTEX
  8
01
  5
8F74
 10
-47.8598
 20
-2108.85
 30
0.000000
  70
    32
  0
VERTEX
  8
01
  5
8F75
 10
-47.8964
 20
-2108.84
 30
0.000000
  70
    32
  0
VERTEX
  8
01
  5
8F76
 10
-47.9331
 20
-2108.84
 30
0.000000
  70
    32
  0
VERTEX
  8
01
  5
8F77
 10
-47.9698
 20
-2108.84
 30
0.000000
  70
    32
  0
VERTEX
  8
01
  5
8F78
 10
-48.0066
 20
-2108.84
 30
0.000000
  70
    32
  0
VERTEX
  8
01
  5
8F79
 10
-48.0434
 20
-2108.84
 30
0.000000
  70
    32
  0
VERTEX
  8
01
  5
8F7A
 10
-48.0802
 20
-2108.84
 30
0.000000
  70
    32
  0
VERTEX
  8
01
  5
8F7B
 10
-48.1170
 20
-2108.84
 30
0.000000
  70
    32
  0
VERTEX
  8
01
  5
8F7C
 10
-48.1538
 20
-2108.84
 30
0.000000
  70
    32
  0
SEQEND
  8
01
  5
8F7D
  0
POLYLINE
  5
8BC1
  8
01
 10
-57.153808740336672
 20
-2110.9565570547338
 30
0.0
 66
     1
 70
     8
  0
VERTEX
  8
01
  5
8F7E
 10
-57.1538
 20
-2110.96
 30
0.000000
  70
    32
  0
VERTEX
  8
01
  5
8F7F
 10
-57.1536
 20
-2110.93
 30
0.000000
  70
    32
  0
VERTEX
  8
01
  5
8F80
 10
-57.1529
 20
-2110.90
 30
0.000000
  70
    32
  0
VERTEX
  8
01
  5
8F81
 10
-57.1518
 20
-2110.88
 30
0.000000
  70
    32
  0
VERTEX
  8
01
  5
8F82
 10
-57.1502
 20
-2110.85
 30
0.000000
  70
    32
  0
VERTEX
  8
01
  5
8F83
 10
-57.1482
 20
-2110.83
 30
0.000000
  70
    32
  0
VERTEX
  8
01
  5
8F84
 10
-57.1457
 20
-2110.80
 30
0.000000
  70
    32
  0
VERTEX
  8
01
  5
8F85
 10
-57.1427
 20
-2110.77
 30
0.000000
  70
    32
  0
VERTEX
  8
01
  5
8F86
 10
-57.1394
 20
-2110.75
 30
0.000000
  70
    32
  0
VERTEX
  8
01
  5
8F87
 10
-57.1355
 20
-2110.72
 30
0.000000
  70
    32
  0
VERTEX
  8
01
  5
8F88
 10
-57.1312
 20
-2110.70
 30
0.000000
  70
    32
  0
VERTEX
  8
01
  5
8F89
 10
-57.1265
 20
-2110.67
 30
0.000000
  70
    32
  0
VERTEX
  8
01
  5
8F8A
 10
-57.1213
 20
-2110.65
 30
0.000000
  70
    32
  0
VERTEX
  8
01
  5
8F8B
 10
-57.1157
 20
-2110.62
 30
0.000000
  70
    32
  0
VERTEX
  8
01
  5
8F8C
 10
-57.1096
 20
-2110.59
 30
0.000000
  70
    32
  0
VERTEX
  8
01
  5
8F8D
 10
-57.1031
 20
-2110.57
 30
0.000000
  70
    32
  0
VERTEX
  8
01
  5
8F8E
 10
-57.0962
 20
-2110.54
 30
0.000000
  70
    32
  0
VERTEX
  8
01
  5
8F8F
 10
-57.0888
 20
-2110.52
 30
0.000000
  70
    32
  0
VERTEX
  8
01
  5
8F90
 10
-57.0809
 20
-2110.49
 30
0.000000
  70
    32
  0
VERTEX
  8
01
  5
8F91
 10
-57.0726
 20
-2110.47
 30
0.000000
  70
    32
  0
VERTEX
  8
01
  5
8F92
 10
-57.0639
 20
-2110.44
 30
0.000000
  70
    32
  0
VERTEX
  8
01
  5
8F93
 10
-57.0547
 20
-2110.42
 30
0.000000
  70
    32
  0
VERTEX
  8
01
  5
8F94
 10
-57.0451
 20
-2110.39
 30
0.000000
  70
    32
  0
VERTEX
  8
01
  5
8F95
 10
-57.0351
 20
-2110.37
 30
0.000000
  70
    32
  0
VERTEX
  8
01
  5
8F96
 10
-57.0246
 20
-2110.34
 30
0.000000
  70
    32
  0
VERTEX
  8
01
  5
8F97
 10
-57.0137
 20
-2110.32
 30
0.000000
  70
    32
  0
VERTEX
  8
01
  5
8F98
 10
-57.0024
 20
-2110.29
 30
0.000000
  70
    32
  0
VERTEX
  8
01
  5
8F99
 10
-56.9906
 20
-2110.27
 30
0.000000
  70
    32
  0
VERTEX
  8
01
  5
8F9A
 10
-56.9784
 20
-2110.24
 30
0.000000
  70
    32
  0
VERTEX
  8
01
  5
8F9B
 10
-56.9658
 20
-2110.22
 30
0.000000
  70
    32
  0
VERTEX
  8
01
  5
8F9C
 10
-56.9528
 20
-2110.19
 30
0.000000
  70
    32
  0
VERTEX
  8
01
  5
8F9D
 10
-56.9393
 20
-2110.17
 30
0.000000
  70
    32
  0
VERTEX
  8
01
  5
8F9E
 10
-56.9254
 20
-2110.14
 30
0.000000
  70
    32
  0
VERTEX
  8
01
  5
8F9F
 10
-56.9112
 20
-2110.12
 30
0.000000
  70
    32
  0
VERTEX
  8
01
  5
8FA0
 10
-56.8964
 20
-2110.10
 30
0.000000
  70
    32
  0
VERTEX
  8
01
  5
8FA1
 10
-56.8813
 20
-2110.07
 30
0.000000
  70
    32
  0
VERTEX
  8
01
  5
8FA2
 10
-56.8658
 20
-2110.05
 30
0.000000
  70
    32
  0
VERTEX
  8
01
  5
8FA3
 10
-56.8498
 20
-2110.03
 30
0.000000
  70
    32
  0
VERTEX
  8
01
  5
8FA4
 10
-56.8335
 20
-2110.00
 30
0.000000
  70
    32
  0
VERTEX
  8
01
  5
8FA5
 10
-56.8167
 20
-2109.98
 30
0.000000
  70
    32
  0
VERTEX
  8
01
  5
8FA6
 10
-56.7996
 20
-2109.96
 30
0.000000
  70
    32
  0
VERTEX
  8
01
  5
8FA7
 10
-56.7820
 20
-2109.93
 30
0.000000
  70
    32
  0
VERTEX
  8
01
  5
8FA8
 10
-56.7641
 20
-2109.91
 30
0.000000
  70
    32
  0
VERTEX
  8
01
  5
8FA9
 10
-56.7457
 20
-2109.89
 30
0.000000
  70
    32
  0
VERTEX
  8
01
  5
8FAA
 10
-56.7270
 20
-2109.87
 30
0.000000
  70
    32
  0
VERTEX
  8
01
  5
8FAB
 10
-56.7079
 20
-2109.84
 30
0.000000
  70
    32
  0
VERTEX
  8
01
  5
8FAC
 10
-56.6884
 20
-2109.82
 30
0.000000
  70
    32
  0
VERTEX
  8
01
  5
8FAD
 10
-56.6685
 20
-2109.80
 30
0.000000
  70
    32
  0
VERTEX
  8
01
  5
8FAE
 10
-56.6482
 20
-2109.78
 30
0.000000
  70
    32
  0
VERTEX
  8
01
  5
8FAF
 10
-56.6276
 20
-2109.76
 30
0.000000
  70
    32
  0
VERTEX
  8
01
  5
8FB0
 10
-56.6066
 20
-2109.74
 30
0.000000
  70
    32
  0
VERTEX
  8
01
  5
8FB1
 10
-56.5852
 20
-2109.71
 30
0.000000
  70
    32
  0
VERTEX
  8
01
  5
8FB2
 10
-56.5634
 20
-2109.69
 30
0.000000
  70
    32
  0
VERTEX
  8
01
  5
8FB3
 10
-56.5413
 20
-2109.67
 30
0.000000
  70
    32
  0
VERTEX
  8
01
  5
8FB4
 10
-56.5188
 20
-2109.65
 30
0.000000
  70
    32
  0
VERTEX
  8
01
  5
8FB5
 10
-56.4960
 20
-2109.63
 30
0.000000
  70
    32
  0
VERTEX
  8
01
  5
8FB6
 10
-56.4728
 20
-2109.61
 30
0.000000
  70
    32
  0
VERTEX
  8
01
  5
8FB7
 10
-56.4493
 20
-2109.59
 30
0.000000
  70
    32
  0
VERTEX
  8
01
  5
8FB8
 10
-56.4254
 20
-2109.57
 30
0.000000
  70
    32
  0
VERTEX
  8
01
  5
8FB9
 10
-56.4012
 20
-2109.55
 30
0.000000
  70
    32
  0
VERTEX
  8
01
  5
8FBA
 10
-56.3767
 20
-2109.53
 30
0.000000
  70
    32
  0
VERTEX
  8
01
  5
8FBB
 10
-56.3518
 20
-2109.51
 30
0.000000
  70
    32
  0
VERTEX
  8
01
  5
8FBC
 10
-56.3265
 20
-2109.49
 30
0.000000
  70
    32
  0
VERTEX
  8
01
  5
8FBD
 10
-56.3010
 20
-2109.48
 30
0.000000
  70
    32
  0
VERTEX
  8
01
  5
8FBE
 10
-56.2751
 20
-2109.46
 30
0.000000
  70
    32
  0
VERTEX
  8
01
  5
8FBF
 10
-56.2489
 20
-2109.44
 30
0.000000
  70
    32
  0
VERTEX
  8
01
  5
8FC0
 10
-56.2224
 20
-2109.42
 30
0.000000
  70
    32
  0
VERTEX
  8
01
  5
8FC1
 10
-56.1956
 20
-2109.40
 30
0.000000
  70
    32
  0
VERTEX
  8
01
  5
8FC2
 10
-56.1685
 20
-2109.38
 30
0.000000
  70
    32
  0
VERTEX
  8
01
  5
8FC3
 10
-56.1411
 20
-2109.37
 30
0.000000
  70
    32
  0
VERTEX
  8
01
  5
8FC4
 10
-56.1133
 20
-2109.35
 30
0.000000
  70
    32
  0
VERTEX
  8
01
  5
8FC5
 10
-56.0853
 20
-2109.33
 30
0.000000
  70
    32
  0
VERTEX
  8
01
  5
8FC6
 10
-56.0570
 20
-2109.32
 30
0.000000
  70
    32
  0
VERTEX
  8
01
  5
8FC7
 10
-56.0284
 20
-2109.30
 30
0.000000
  70
    32
  0
VERTEX
  8
01
  5
8FC8
 10
-55.9995
 20
-2109.28
 30
0.000000
  70
    32
  0
VERTEX
  8
01
  5
8FC9
 10
-55.9703
 20
-2109.27
 30
0.000000
  70
    32
  0
VERTEX
  8
01
  5
8FCA
 10
-55.9409
 20
-2109.25
 30
0.000000
  70
    32
  0
VERTEX
  8
01
  5
8FCB
 10
-55.9112
 20
-2109.24
 30
0.000000
  70
    32
  0
VERTEX
  8
01
  5
8FCC
 10
-55.8812
 20
-2109.22
 30
0.000000
  70
    32
  0
VERTEX
  8
01
  5
8FCD
 10
-55.8510
 20
-2109.21
 30
0.000000
  70
    32
  0
VERTEX
  8
01
  5
8FCE
 10
-55.8205
 20
-2109.19
 30
0.000000
  70
    32
  0
VERTEX
  8
01
  5
8FCF
 10
-55.7898
 20
-2109.18
 30
0.000000
  70
    32
  0
VERTEX
  8
01
  5
8FD0
 10
-55.7588
 20
-2109.16
 30
0.000000
  70
    32
  0
VERTEX
  8
01
  5
8FD1
 10
-55.7276
 20
-2109.15
 30
0.000000
  70
    32
  0
VERTEX
  8
01
  5
8FD2
 10
-55.6961
 20
-2109.14
 30
0.000000
  70
    32
  0
VERTEX
  8
01
  5
8FD3
 10
-55.6644
 20
-2109.12
 30
0.000000
  70
    32
  0
VERTEX
  8
01
  5
8FD4
 10
-55.6325
 20
-2109.11
 30
0.000000
  70
    32
  0
VERTEX
  8
01
  5
8FD5
 10
-55.6004
 20
-2109.10
 30
0.000000
  70
    32
  0
VERTEX
  8
01
  5
8FD6
 10
-55.5680
 20
-2109.09
 30
0.000000
  70
    32
  0
VERTEX
  8
01
  5
8FD7
 10
-55.5354
 20
-2109.07
 30
0.000000
  70
    32
  0
VERTEX
  8
01
  5
8FD8
 10
-55.5026
 20
-2109.06
 30
0.000000
  70
    32
  0
VERTEX
  8
01
  5
8FD9
 10
-55.4697
 20
-2109.05
 30
0.000000
  70
    32
  0
VERTEX
  8
01
  5
8FDA
 10
-55.4365
 20
-2109.04
 30
0.000000
  70
    32
  0
VERTEX
  8
01
  5
8FDB
 10
-55.4031
 20
-2109.03
 30
0.000000
  70
    32
  0
VERTEX
  8
01
  5
8FDC
 10
-55.3695
 20
-2109.02
 30
0.000000
  70
    32
  0
VERTEX
  8
01
  5
8FDD
 10
-55.3358
 20
-2109.01
 30
0.000000
  70
    32
  0
VERTEX
  8
01
  5
8FDE
 10
-55.3019
 20
-2109.00
 30
0.000000
  70
    32
  0
VERTEX
  8
01
  5
8FDF
 10
-55.2678
 20
-2108.99
 30
0.000000
  70
    32
  0
VERTEX
  8
01
  5
8FE0
 10
-55.2335
 20
-2108.98
 30
0.000000
  70
    32
  0
VERTEX
  8
01
  5
8FE1
 10
-55.1991
 20
-2108.97
 30
0.000000
  70
    32
  0
VERTEX
  8
01
  5
8FE2
 10
-55.1645
 20
-2108.96
 30
0.000000
  70
    32
  0
VERTEX
  8
01
  5
8FE3
 10
-55.1297
 20
-2108.95
 30
0.000000
  70
    32
  0
VERTEX
  8
01
  5
8FE4
 10
-55.0949
 20
-2108.94
 30
0.000000
  70
    32
  0
VERTEX
  8
01
  5
8FE5
 10
-55.0598
 20
-2108.93
 30
0.000000
  70
    32
  0
VERTEX
  8
01
  5
8FE6
 10
-55.0247
 20
-2108.93
 30
0.000000
  70
    32
  0
VERTEX
  8
01
  5
8FE7
 10
-54.9894
 20
-2108.92
 30
0.000000
  70
    32
  0
VERTEX
  8
01
  5
8FE8
 10
-54.9539
 20
-2108.91
 30
0.000000
  70
    32
  0
VERTEX
  8
01
  5
8FE9
 10
-54.9184
 20
-2108.91
 30
0.000000
  70
    32
  0
VERTEX
  8
01
  5
8FEA
 10
-54.8827
 20
-2108.90
 30
0.000000
  70
    32
  0
VERTEX
  8
01
  5
8FEB
 10
-54.8470
 20
-2108.89
 30
0.000000
  70
    32
  0
VERTEX
  8
01
  5
8FEC
 10
-54.8111
 20
-2108.89
 30
0.000000
  70
    32
  0
VERTEX
  8
01
  5
8FED
 10
-54.7751
 20
-2108.88
 30
0.000000
  70
    32
  0
VERTEX
  8
01
  5
8FEE
 10
-54.7391
 20
-2108.88
 30
0.000000
  70
    32
  0
VERTEX
  8
01
  5
8FEF
 10
-54.7029
 20
-2108.87
 30
0.000000
  70
    32
  0
VERTEX
  8
01
  5
8FF0
 10
-54.6667
 20
-2108.87
 30
0.000000
  70
    32
  0
VERTEX
  8
01
  5
8FF1
 10
-54.6304
 20
-2108.86
 30
0.000000
  70
    32
  0
VERTEX
  8
01
  5
8FF2
 10
-54.5940
 20
-2108.86
 30
0.000000
  70
    32
  0
VERTEX
  8
01
  5
8FF3
 10
-54.5576
 20
-2108.85
 30
0.000000
  70
    32
  0
VERTEX
  8
01
  5
8FF4
 10
-54.5210
 20
-2108.85
 30
0.000000
  70
    32
  0
VERTEX
  8
01
  5
8FF5
 10
-54.4845
 20
-2108.85
 30
0.000000
  70
    32
  0
VERTEX
  8
01
  5
8FF6
 10
-54.4479
 20
-2108.85
 30
0.000000
  70
    32
  0
VERTEX
  8
01
  5
8FF7
 10
-54.4112
 20
-2108.84
 30
0.000000
  70
    32
  0
VERTEX
  8
01
  5
8FF8
 10
-54.3745
 20
-2108.84
 30
0.000000
  70
    32
  0
VERTEX
  8
01
  5
8FF9
 10
-54.3378
 20
-2108.84
 30
0.000000
  70
    32
  0
VERTEX
  8
01
  5
8FFA
 10
-54.3010
 20
-2108.84
 30
0.000000
  70
    32
  0
VERTEX
  8
01
  5
8FFB
 10
-54.2642
 20
-2108.84
 30
0.000000
  70
    32
  0
VERTEX
  8
01
  5
8FFC
 10
-54.2274
 20
-2108.84
 30
0.000000
  70
    32
  0
VERTEX
  8
01
  5
8FFD
 10
-54.1906
 20
-2108.84
 30
0.000000
  70
    32
  0
VERTEX
  8
01
  5
8FFE
 10
-54.1538
 20
-2108.84
 30
0.000000
  70
    32
  0
SEQEND
  8
01
  5
8FFF
  0
ARC
  5
8BF7
  8
01
 10
-51.15380874033653
 20
-1967.6144214310041
 30
0.0
 40
4.0
 50
55.588491330227562
 51
124.4115086697724
  0
LINE
  5
8C66
  8
01
  6
BYBLOCK
 10
29.738326883393938
 20
-2071.2065570547338
 30
0.0
 11
29.738326883393938
 21
-2101.8681585850891
 31
0.0
  0
LINE
  5
8C67
  8
01
  6
BYBLOCK
 10
32.238326883393938
 20
-2077.1044728163911
 30
0.0
 11
32.238326883393938
 21
-2091.216024035833
 31
0.0
  0
LINE
  5
8C68
  8
01
  6
BYBLOCK
 10
36.738326883393711
 20
-2070.2065570547338
 30
0.0
 11
30.738326883393938
 21
-2070.2065570547338
 31
0.0
  0
LINE
  5
8C69
  8
01
  6
BYBLOCK
 10
36.238326883393938
 20
-2072.2065570547338
 30
0.0
 11
32.480000153339688
 21
-2072.2065570547338
 31
0.0
  0
ARC
  5
8C6A
  8
01
  6
BYBLOCK
 10
30.738326883393938
 20
-2071.2065570547338
 30
0.0
 40
1.0
 50
90.0
 51
180.0
  0
ARC
  5
8C6B
  8
01
  6
BYBLOCK
 10
37.738326883393711
 20
-2074.7065570547338
 30
0.0
 40
0.9999999999998864
 50
180.0
 51
0.0
  0
ARC
  5
8C6C
  8
01
  6
BYBLOCK
 10
36.738326883393938
 20
-2072.2065570547338
 30
0.0
 40
2.0
 50
0.0
 51
90.0
  0
ARC
  5
8C6D
  8
01
  6
BYBLOCK
 10
36.238326883393938
 20
-2072.7065570547338
 30
0.0
 40
0.5
 50
0.0
 51
90.0
  0
LINE
  5
8C6E
  8
01
  6
BYBLOCK
 10
36.738326883393938
 20
-2072.7065570547338
 30
0.0
 11
36.738326883393938
 21
-2074.7065570547338
 31
0.0
  0
LINE
  5
8C6F
  8
01
  6
BYBLOCK
 10
38.738326883393938
 20
-2072.2065570547338
 30
0.0
 11
38.738326883393938
 21
-2074.7065570547338
 31
0.0
  0
LINE
  5
8C70
  8
01
  6
BYBLOCK
 10
37.738326883394727
 20
-2092.4565570547338
 30
0.0
 11
40.238326883393938
 21
-2092.4565570547338
 31
0.0
  0
LINE
  5
8C71
  8
01
  6
BYBLOCK
 10
39.238326883394159
 20
-2094.4565570547338
 30
0.0
 11
39.238326883394159
 21
-2103.4565570547338
 31
0.0
  0
LINE
  5
8C72
  8
01
  6
BYBLOCK
 10
39.738326883394173
 20
-2103.9565570547338
 30
0.0
 11
40.238326883394173
 21
-2103.9565570547338
 31
0.0
  0
ARC
  5
8C73
  8
01
  6
BYBLOCK
 10
40.238326883394173
 20
-2104.4565570547338
 30
0.0
 40
0.5
 50
0.0
 51
90.0
1001
GENIUS_GENOBJ-N-FIL_13
1002
{
1000
OWNER
1000
GEN
1002
}
1001
GENIUS_GENODEF_13
1002
{
1000
HIER
1070
     0
1002
}
1002
{
1000
MANEDIT
1070
     0
1002
}
1002
{
1000
NOSEL
1070
     0
1002
}
1002
{
1000
BEHIND
1070
     0
1002
}
1002
{
1000
OTHER
1070
     0
1002
}
1002
{
1000
REACTOR
1002
}
  0
LINE
  5
8C74
  8
1DIM
 10
40.472348614998957
 20
-2105.597429095686
 30
0.0
 11
40.738326883394052
 21
-2105.4565570547352
 31
0.0
  0
LINE
  5
8C75
  8
1DIM
 10
40.738326883394052
 20
-2105.4565570547352
 30
0.0
 11
40.738326883394052
 21
-2105.1555763723309
 31
0.0
  0
CIRCLE
  5
8C76
  8
1DIM
 10
40.738326883394052
 20
-2105.4565570547352
 30
0.0
 40
0.1
  0
ARC
  5
8C77
  8
01
  6
BYBLOCK
 10
8.9883268833941656
 20
-2110.9565570547338
 30
0.0
 40
7.0
 50
225.0000000000046
 51
297.9073682734815
  0
LINE
  5
8C78
  8
01
  6
BYBLOCK
 10
1.9172590715286331
 20
-2118.0276248666
 30
0.0
 11
-5.1538087403366708
 21
-2110.9565570547338
 31
0.0
  0
LINE
  5
8C79
  8
01
  6
BYBLOCK
 10
-5.1538087403366708
 20
-2110.9565570547338
 30
0.0
 11
-3.0324883967770111
 21
-2108.8352367111752
 31
0.0
  0
LINE
  5
8C7A
  8
01
  6
BYBLOCK
 10
-3.0324883967770111
 20
-2108.8352367111752
 30
0.0
 11
4.0385794150882921
 21
-2115.90630452304
 31
0.0
  0
ARC
  5
8C7B
  8
01
  6
BYBLOCK
 10
8.9883268833941656
 20
-2110.9565570547338
 30
0.0
 40
10.0
 50
225.0000000000046
 51
297.9073682734815
  0
ARC
  5
8C7C
  8
01
  6
BYBLOCK
 10
39.738326883394173
 20
-2103.4565570547338
 30
0.0
 40
0.5
 50
180.0
 51
270.0
1001
GENIUS_GENOBJ-N-FIL_13
1002
{
1000
OWNER
1000
GEN
1002
}
1001
GENIUS_GENODEF_13
1002
{
1000
HIER
1070
     0
1002
}
1002
{
1000
MANEDIT
1070
     0
1002
}
1002
{
1000
NOSEL
1070
     0
1002
}
1002
{
1000
BEHIND
1070
     0
1002
}
1002
{
1000
OTHER
1070
     0
1002
}
1002
{
1000
REACTOR
1002
}
  0
LINE
  5
8C7D
  8
01
  6
BYBLOCK
 10
40.738326883394159
 20
-2104.4565570547338
 30
0.0
 11
40.738326883394052
 21
-2105.1555763723309
 31
0.0
  0
LINE
  5
8C7E
  8
01
  6
BYBLOCK
 10
39.738326883394173
 20
-2093.9565570547338
 30
0.0
 11
40.238326883393938
 21
-2093.9565570547338
 31
0.0
  0
LINE
  5
8C7F
  8
01
  6
BYBLOCK
 10
40.738326883393931
 20
-2092.9565570547338
 30
0.0
 11
40.738326883393931
 21
-2093.4565570547338
 31
0.0
  0
ARC
  5
8C80
  8
01
  6
BYBLOCK
 10
40.238326883393938
 20
-2092.9565570547338
 30
0.0
 40
0.5
 50
0.0
 51
90.0
  0
ARC
  5
8C81
  8
01
  6
BYBLOCK
 10
40.238326883393938
 20
-2093.4565570547338
 30
0.0
 40
0.5
 50
270.0
 51
0.0
  0
ARC
  5
8C82
  8
01
  6
BYBLOCK
 10
39.738326883394173
 20
-2094.4565570547338
 30
0.0
 40
0.5
 50
90.0
 51
180.0
  0
ARC
  5
8C83
  8
01
  6
BYBLOCK
 10
37.738326883393711
 20
-2074.7065570547338
 30
0.0
 40
6.0
 50
157.2963437335612
 51
203.55646430911369
  0
ARC
  5
8C84
  8
01
  6
BYBLOCK
 10
32.480000153339688
 20
-2072.506557054734
 30
0.0
 40
0.3
 50
89.999999999993491
 51
157.2963437335612
  0
LINE
  5
8C85
  8
01
  6
BYBLOCK
 10
13.66876151549218
 20
-2119.793611521844
 30
0.0
 11
40.472348614998957
 21
-2105.597429095686
 31
0.0
  0
ARC
  5
8C86
  8
01
  6
BYBLOCK
 10
40.238326883394052
 20
-2105.1555763723309
 30
0.0
 40
0.5
 50
297.9073682734757
 51
0.0
  0
LINE
  5
8C87
  8
01
  6
BYBLOCK
 10
12.26463112586282
 20
-2117.1424951817112
 30
0.0
 11
24.4187615154915
 21
-2110.7052130521988
 31
0.0
  0
ARC
  5
8C88
  8
01
  6
BYBLOCK
 10
19.738326883393938
 20
-2101.8681585850891
 30
0.0
 40
10.0
 50
297.9073682734757
 51
0.0
  0
ARC
  5
8C89
  8
01
  6
BYBLOCK
 10
37.738326883393711
 20
-2074.7065570547338
 30
0.0
 40
17.75
 50
253.15072037718431
 51
270.0
  0
ARC
  5
8C8A
  8
01
  6
BYBLOCK
 10
32.738326883393938
 20
-2091.216024035833
 30
0.0
 40
0.5
 50
180.0
 51
253.15072037718431
  0
LINE
  5
8C8B
  8
01
 10
39.238326883394159
 20
-2094.8425340816239
 30
0.0
 11
39.738326883394173
 21
-2094.8425340816239
 31
0.0
  0
LINE
  5
8C8C
  8
01
 10
39.738326883394173
 20
-2094.8425340816239
 30
0.0
 11
39.738326883394173
 21
-2102.7425340816239
 31
0.0
  0
LINE
  5
8C8D
  8
01
 10
39.238326883394159
 20
-2094.8425340816239
 30
0.0
 11
39.238326883394159
 21
-2102.7425340816239
 31
0.0
  0
LINE
  5
8C8E
  8
01
 10
39.238326883394159
 20
-2102.7425340816239
 30
0.0
 11
39.738326883394173
 21
-2102.7425340816239
 31
0.0
  0
ARC
  5
8C8F
  8
01
 10
37.438326883394097
 20
-2098.7925340816241
 30
0.0
 40
4.0
 50
305.0996321954035
 51
54.90036780459657
  0
LINE
  5
8C91
  8
01
 10
-48.153808740336473
 20
-2008.085236711175
 30
0.0
 11
-54.153808740336473
 21
-2008.085236711175
 31
0.0
  0
LINE
  5
8C92
  8
01
 10
-48.1538087403367
 20
-2010.206557054735
 30
0.0
 11
-54.153808740336643
 21
-2010.206557054734
 31
0.0
  0
LINE
  5
8C93
  8
01
 10
-45.153808740336409
 20
-1975.3144214310039
 30
0.0
 11
-57.153808740336594
 21
-1975.3144214310039
 31
0.0
  0
LINE
  5
8C94
  8
01
 10
-45.153808740336359
 20
-1966.3144214310039
 30
0.0
 11
-57.153808740336594
 21
-1966.3144214310039
 31
0.0
  0
LINE
  5
8C95
  8
01
 10
-45.153808740336473
 20
-1964.3144214310039
 30
0.0
 11
-57.153808740336594
 21
-1964.3144214310039
 31
0.0
  0
LINE
  5
8C96
  8
01
 10
-57.153808740336594
 20
-2008.085236711175
 30
0.0
 11
-57.153808740336579
 21
-1964.314421431003
 31
0.0
  0
LINE
  5
8C97
  8
01
 10
-45.153808740336359
 20
-2008.085236711175
 30
0.0
 11
-45.153808740336352
 21
-1964.314421431003
 31
0.0
  0
POLYLINE
  5
8C98
  8
01
 10
-48.153808740336473
 20
-2008.0852367111745
 30
0.0
 66
     1
 70
     8
  0
VERTEX
  8
01
  5
9000
 10
-48.1538
 20
-2008.09
 30
0.000000
  70
    32
  0
VERTEX
  8
01
  5
9001
 10
-48.1170
 20
-2008.09
 30
0.000000
  70
    32
  0
VERTEX
  8
01
  5
9002
 10
-48.0802
 20
-2008.08
 30
0.000000
  70
    32
  0
VERTEX
  8
01
  5
9003
 10
-48.0434
 20
-2008.08
 30
0.000000
  70
    32
  0
VERTEX
  8
01
  5
9004
 10
-48.0066
 20
-2008.08
 30
0.000000
  70
    32
  0
VERTEX
  8
01
  5
9005
 10
-47.9698
 20
-2008.08
 30
0.000000
  70
    32
  0
VERTEX
  8
01
  5
9006
 10
-47.9331
 20
-2008.08
 30
0.000000
  70
    32
  0
VERTEX
  8
01
  5
9007
 10
-47.8964
 20
-2008.08
 30
0.000000
  70
    32
  0
VERTEX
  8
01
  5
9008
 10
-47.8598
 20
-2008.08
 30
0.000000
  70
    32
  0
VERTEX
  8
01
  5
9009
 10
-47.8231
 20
-2008.07
 30
0.000000
  70
    32
  0
VERTEX
  8
01
  5
900A
 10
-47.7866
 20
-2008.07
 30
0.000000
  70
    32
  0
VERTEX
  8
01
  5
900B
 10
-47.7501
 20
-2008.07
 30
0.000000
  70
    32
  0
VERTEX
  8
01
  5
900C
 10
-47.7136
 20
-2008.06
 30
0.000000
  70
    32
  0
VERTEX
  8
01
  5
900D
 10
-47.6772
 20
-2008.06
 30
0.000000
  70
    32
  0
VERTEX
  8
01
  5
900E
 10
-47.6409
 20
-2008.05
 30
0.000000
  70
    32
  0
VERTEX
  8
01
  5
900F
 10
-47.6047
 20
-2008.05
 30
0.000000
  70
    32
  0
VERTEX
  8
01
  5
9010
 10
-47.5685
 20
-2008.04
 30
0.000000
  70
    32
  0
VERTEX
  8
01
  5
9011
 10
-47.5325
 20
-2008.04
 30
0.000000
  70
    32
  0
VERTEX
  8
01
  5
9012
 10
-47.4965
 20
-2008.03
 30
0.000000
  70
    32
  0
VERTEX
  8
01
  5
9013
 10
-47.4606
 20
-2008.03
 30
0.000000
  70
    32
  0
VERTEX
  8
01
  5
9014
 10
-47.4249
 20
-2008.02
 30
0.000000
  70
    32
  0
VERTEX
  8
01
  5
9015
 10
-47.3892
 20
-2008.02
 30
0.000000
  70
    32
  0
VERTEX
  8
01
  5
9016
 10
-47.3537
 20
-2008.01
 30
0.000000
  70
    32
  0
VERTEX
  8
01
  5
9017
 10
-47.3182
 20
-2008.00
 30
0.000000
  70
    32
  0
VERTEX
  8
01
  5
9018
 10
-47.2830
 20
-2007.99
 30
0.000000
  70
    32
  0
VERTEX
  8
01
  5
9019
 10
-47.2478
 20
-2007.99
 30
0.000000
  70
    32
  0
VERTEX
  8
01
  5
901A
 10
-47.2128
 20
-2007.98
 30
0.000000
  70
    32
  0
VERTEX
  8
01
  5
901B
 10
-47.1779
 20
-2007.97
 30
0.000000
  70
    32
  0
VERTEX
  8
01
  5
901C
 10
-47.1431
 20
-2007.96
 30
0.000000
  70
    32
  0
VERTEX
  8
01
  5
901D
 10
-47.1086
 20
-2007.95
 30
0.000000
  70
    32
  0
VERTEX
  8
01
  5
901E
 10
-47.0741
 20
-2007.94
 30
0.000000
  70
    32
  0
VERTEX
  8
01
  5
901F
 10
-47.0399
 20
-2007.93
 30
0.000000
  70
    32
  0
VERTEX
  8
01
  5
9020
 10
-47.0058
 20
-2007.92
 30
0.000000
  70
    32
  0
VERTEX
  8
01
  5
9021
 10
-46.9718
 20
-2007.91
 30
0.000000
  70
    32
  0
VERTEX
  8
01
  5
9022
 10
-46.9381
 20
-2007.90
 30
0.000000
  70
    32
  0
VERTEX
  8
01
  5
9023
 10
-46.9045
 20
-2007.89
 30
0.000000
  70
    32
  0
VERTEX
  8
01
  5
9024
 10
-46.8711
 20
-2007.88
 30
0.000000
  70
    32
  0
VERTEX
  8
01
  5
9025
 10
-46.8380
 20
-2007.87
 30
0.000000
  70
    32
  0
VERTEX
  8
01
  5
9026
 10
-46.8050
 20
-2007.86
 30
0.000000
  70
    32
  0
VERTEX
  8
01
  5
9027
 10
-46.7722
 20
-2007.85
 30
0.000000
  70
    32
  0
VERTEX
  8
01
  5
9028
 10
-46.7396
 20
-2007.83
 30
0.000000
  70
    32
  0
VERTEX
  8
01
  5
9029
 10
-46.7073
 20
-2007.82
 30
0.000000
  70
    32
  0
VERTEX
  8
01
  5
902A
 10
-46.6751
 20
-2007.81
 30
0.000000
  70
    32
  0
VERTEX
  8
01
  5
902B
 10
-46.6432
 20
-2007.80
 30
0.000000
  70
    32
  0
VERTEX
  8
01
  5
902C
 10
-46.6115
 20
-2007.78
 30
0.000000
  70
    32
  0
VERTEX
  8
01
  5
902D
 10
-46.5800
 20
-2007.77
 30
0.000000
  70
    32
  0
VERTEX
  8
01
  5
902E
 10
-46.5488
 20
-2007.76
 30
0.000000
  70
    32
  0
VERTEX
  8
01
  5
902F
 10
-46.5178
 20
-2007.74
 30
0.000000
  70
    32
  0
VERTEX
  8
01
  5
9030
 10
-46.4871
 20
-2007.73
 30
0.000000
  70
    32
  0
VERTEX
  8
01
  5
9031
 10
-46.4566
 20
-2007.71
 30
0.000000
  70
    32
  0
VERTEX
  8
01
  5
9032
 10
-46.4264
 20
-2007.70
 30
0.000000
  70
    32
  0
VERTEX
  8
01
  5
9033
 10
-46.3964
 20
-2007.68
 30
0.000000
  70
    32
  0
VERTEX
  8
01
  5
9034
 10
-46.3667
 20
-2007.67
 30
0.000000
  70
    32
  0
VERTEX
  8
01
  5
9035
 10
-46.3373
 20
-2007.65
 30
0.000000
  70
    32
  0
VERTEX
  8
01
  5
9036
 10
-46.3081
 20
-2007.64
 30
0.000000
  70
    32
  0
VERTEX
  8
01
  5
9037
 10
-46.2792
 20
-2007.62
 30
0.000000
  70
    32
  0
VERTEX
  8
01
  5
9038
 10
-46.2506
 20
-2007.60
 30
0.000000
  70
    32
  0
VERTEX
  8
01
  5
9039
 10
-46.2223
 20
-2007.59
 30
0.000000
  70
    32
  0
VERTEX
  8
01
  5
903A
 10
-46.1943
 20
-2007.57
 30
0.000000
  70
    32
  0
VERTEX
  8
01
  5
903B
 10
-46.1666
 20
-2007.55
 30
0.000000
  70
    32
  0
VERTEX
  8
01
  5
903C
 10
-46.1391
 20
-2007.54
 30
0.000000
  70
    32
  0
VERTEX
  8
01
  5
903D
 10
-46.1120
 20
-2007.52
 30
0.000000
  70
    32
  0
VERTEX
  8
01
  5
903E
 10
-46.0852
 20
-2007.50
 30
0.000000
  70
    32
  0
VERTEX
  8
01
  5
903F
 10
-46.0587
 20
-2007.48
 30
0.000000
  70
    32
  0
VERTEX
  8
01
  5
9040
 10
-46.0325
 20
-2007.46
 30
0.000000
  70
    32
  0
VERTEX
  8
01
  5
9041
 10
-46.0066
 20
-2007.45
 30
0.000000
  70
    32
  0
VERTEX
  8
01
  5
9042
 10
-45.9811
 20
-2007.43
 30
0.000000
  70
    32
  0
VERTEX
  8
01
  5
9043
 10
-45.9558
 20
-2007.41
 30
0.000000
  70
    32
  0
VERTEX
  8
01
  5
9044
 10
-45.9310
 20
-2007.39
 30
0.000000
  70
    32
  0
VERTEX
  8
01
  5
9045
 10
-45.9064
 20
-2007.37
 30
0.000000
  70
    32
  0
VERTEX
  8
01
  5
9046
 10
-45.8822
 20
-2007.35
 30
0.000000
  70
    32
  0
VERTEX
  8
01
  5
9047
 10
-45.8583
 20
-2007.33
 30
0.000000
  70
    32
  0
VERTEX
  8
01
  5
9048
 10
-45.8348
 20
-2007.31
 30
0.000000
  70
    32
  0
VERTEX
  8
01
  5
9049
 10
-45.8116
 20
-2007.29
 30
0.000000
  70
    32
  0
VERTEX
  8
01
  5
904A
 10
-45.7888
 20
-2007.27
 30
0.000000
  70
    32
  0
VERTEX
  8
01
  5
904B
 10
-45.7663
 20
-2007.25
 30
0.000000
  70
    32
  0
VERTEX
  8
01
  5
904C
 10
-45.7442
 20
-2007.23
 30
0.000000
  70
    32
  0
VERTEX
  8
01
  5
904D
 10
-45.7224
 20
-2007.21
 30
0.000000
  70
    32
  0
VERTEX
  8
01
  5
904E
 10
-45.7011
 20
-2007.19
 30
0.000000
  70
    32
  0
VERTEX
  8
01
  5
904F
 10
-45.6800
 20
-2007.16
 30
0.000000
  70
    32
  0
VERTEX
  8
01
  5
9050
 10
-45.6594
 20
-2007.14
 30
0.000000
  70
    32
  0
VERTEX
  8
01
  5
9051
 10
-45.6391
 20
-2007.12
 30
0.000000
  70
    32
  0
VERTEX
  8
01
  5
9052
 10
-45.6192
 20
-2007.10
 30
0.000000
  70
    32
  0
VERTEX
  8
01
  5
9053
 10
-45.5997
 20
-2007.08
 30
0.000000
  70
    32
  0
VERTEX
  8
01
  5
9054
 10
-45.5806
 20
-2007.05
 30
0.000000
  70
    32
  0
VERTEX
  8
01
  5
9055
 10
-45.5619
 20
-2007.03
 30
0.000000
  70
    32
  0
VERTEX
  8
01
  5
9056
 10
-45.5435
 20
-2007.01
 30
0.000000
  70
    32
  0
VERTEX
  8
01
  5
9057
 10
-45.5256
 20
-2006.99
 30
0.000000
  70
    32
  0
VERTEX
  8
01
  5
9058
 10
-45.5080
 20
-2006.96
 30
0.000000
  70
    32
  0
VERTEX
  8
01
  5
9059
 10
-45.4909
 20
-2006.94
 30
0.000000
  70
    32
  0
VERTEX
  8
01
  5
905A
 10
-45.4741
 20
-2006.92
 30
0.000000
  70
    32
  0
VERTEX
  8
01
  5
905B
 10
-45.4578
 20
-2006.89
 30
0.000000
  70
    32
  0
VERTEX
  8
01
  5
905C
 10
-45.4418
 20
-2006.87
 30
0.000000
  70
    32
  0
VERTEX
  8
01
  5
905D
 10
-45.4263
 20
-2006.85
 30
0.000000
  70
    32
  0
VERTEX
  8
01
  5
905E
 10
-45.4112
 20
-2006.82
 30
0.000000
  70
    32
  0
VERTEX
  8
01
  5
905F
 10
-45.3965
 20
-2006.80
 30
0.000000
  70
    32
  0
VERTEX
  8
01
  5
9060
 10
-45.3822
 20
-2006.78
 30
0.000000
  70
    32
  0
VERTEX
  8
01
  5
9061
 10
-45.3683
 20
-2006.75
 30
0.000000
  70
    32
  0
VERTEX
  8
01
  5
9062
 10
-45.3548
 20
-2006.73
 30
0.000000
  70
    32
  0
VERTEX
  8
01
  5
9063
 10
-45.3418
 20
-2006.70
 30
0.000000
  70
    32
  0
VERTEX
  8
01
  5
9064
 10
-45.3292
 20
-2006.68
 30
0.000000
  70
    32
  0
VERTEX
  8
01
  5
9065
 10
-45.3170
 20
-2006.65
 30
0.000000
  70
    32
  0
VERTEX
  8
01
  5
9066
 10
-45.3052
 20
-2006.63
 30
0.000000
  70
    32
  0
VERTEX
  8
01
  5
9067
 10
-45.2939
 20
-2006.60
 30
0.000000
  70
    32
  0
VERTEX
  8
01
  5
9068
 10
-45.2830
 20
-2006.58
 30
0.000000
  70
    32
  0
VERTEX
  8
01
  5
9069
 10
-45.2725
 20
-2006.55
 30
0.000000
  70
    32
  0
VERTEX
  8
01
  5
906A
 10
-45.2625
 20
-2006.53
 30
0.000000
  70
    32
  0
VERTEX
  8
01
  5
906B
 10
-45.2529
 20
-2006.50
 30
0.000000
  70
    32
  0
VERTEX
  8
01
  5
906C
 10
-45.2437
 20
-2006.48
 30
0.000000
  70
    32
  0
VERTEX
  8
01
  5
906D
 10
-45.2350
 20
-2006.45
 30
0.000000
  70
    32
  0
VERTEX
  8
01
  5
906E
 10
-45.2267
 20
-2006.43
 30
0.000000
  70
    32
  0
VERTEX
  8
01
  5
906F
 10
-45.2189
 20
-2006.40
 30
0.000000
  70
    32
  0
VERTEX
  8
01
  5
9070
 10
-45.2115
 20
-2006.38
 30
0.000000
  70
    32
  0
VERTEX
  8
01
  5
9071
 10
-45.2045
 20
-2006.35
 30
0.000000
  70
    32
  0
VERTEX
  8
01
  5
9072
 10
-45.1980
 20
-2006.33
 30
0.000000
  70
    32
  0
VERTEX
  8
01
  5
9073
 10
-45.1919
 20
-2006.30
 30
0.000000
  70
    32
  0
VERTEX
  8
01
  5
9074
 10
-45.1863
 20
-2006.28
 30
0.000000
  70
    32
  0
VERTEX
  8
01
  5
9075
 10
-45.1811
 20
-2006.25
 30
0.000000
  70
    32
  0
VERTEX
  8
01
  5
9076
 10
-45.1764
 20
-2006.22
 30
0.000000
  70
    32
  0
VERTEX
  8
01
  5
9077
 10
-45.1721
 20
-2006.20
 30
0.000000
  70
    32
  0
VERTEX
  8
01
  5
9078
 10
-45.1683
 20
-2006.17
 30
0.000000
  70
    32
  0
VERTEX
  8
01
  5
9079
 10
-45.1649
 20
-2006.15
 30
0.000000
  70
    32
  0
VERTEX
  8
01
  5
907A
 10
-45.1619
 20
-2006.12
 30
0.000000
  70
    32
  0
VERTEX
  8
01
  5
907B
 10
-45.1595
 20
-2006.09
 30
0.000000
  70
    32
  0
VERTEX
  8
01
  5
907C
 10
-45.1574
 20
-2006.07
 30
0.000000
  70
    32
  0
VERTEX
  8
01
  5
907D
 10
-45.1558
 20
-2006.04
 30
0.000000
  70
    32
  0
VERTEX
  8
01
  5
907E
 10
-45.1547
 20
-2006.02
 30
0.000000
  70
    32
  0
VERTEX
  8
01
  5
907F
 10
-45.1540
 20
-2005.99
 30
0.000000
  70
    32
  0
VERTEX
  8
01
  5
9080
 10
-45.1538
 20
-2005.96
 30
0.000000
  70
    32
  0
SEQEND
  8
01
  5
9081
  0
POLYLINE
  5
8C99
  8
01
 10
-48.153808740336473
 20
-2010.2065570547345
 30
0.0
 66
     1
 70
     8
  0
VERTEX
  8
01
  5
9082
 10
-48.1538
 20
-2010.21
 30
0.000000
  70
    32
  0
VERTEX
  8
01
  5
9083
 10
-48.1170
 20
-2010.21
 30
0.000000
  70
    32
  0
VERTEX
  8
01
  5
9084
 10
-48.0802
 20
-2010.21
 30
0.000000
  70
    32
  0
VERTEX
  8
01
  5
9085
 10
-48.0434
 20
-2010.21
 30
0.000000
  70
    32
  0
VERTEX
  8
01
  5
9086
 10
-48.0066
 20
-2010.20
 30
0.000000
  70
    32
  0
VERTEX
  8
01
  5
9087
 10
-47.9698
 20
-2010.20
 30
0.000000
  70
    32
  0
VERTEX
  8
01
  5
9088
 10
-47.9331
 20
-2010.20
 30
0.000000
  70
    32
  0
VERTEX
  8
01
  5
9089
 10
-47.8964
 20
-2010.20
 30
0.000000
  70
    32
  0
VERTEX
  8
01
  5
908A
 10
-47.8598
 20
-2010.20
 30
0.000000
  70
    32
  0
VERTEX
  8
01
  5
908B
 10
-47.8231
 20
-2010.19
 30
0.000000
  70
    32
  0
VERTEX
  8
01
  5
908C
 10
-47.7866
 20
-2010.19
 30
0.000000
  70
    32
  0
VERTEX
  8
01
  5
908D
 10
-47.7501
 20
-2010.19
 30
0.000000
  70
    32
  0
VERTEX
  8
01
  5
908E
 10
-47.7136
 20
-2010.18
 30
0.000000
  70
    32
  0
VERTEX
  8
01
  5
908F
 10
-47.6772
 20
-2010.18
 30
0.000000
  70
    32
  0
VERTEX
  8
01
  5
9090
 10
-47.6409
 20
-2010.18
 30
0.000000
  70
    32
  0
VERTEX
  8
01
  5
9091
 10
-47.6047
 20
-2010.17
 30
0.000000
  70
    32
  0
VERTEX
  8
01
  5
9092
 10
-47.5685
 20
-2010.17
 30
0.000000
  70
    32
  0
VERTEX
  8
01
  5
9093
 10
-47.5325
 20
-2010.16
 30
0.000000
  70
    32
  0
VERTEX
  8
01
  5
9094
 10
-47.4965
 20
-2010.16
 30
0.000000
  70
    32
  0
VERTEX
  8
01
  5
9095
 10
-47.4606
 20
-2010.15
 30
0.000000
  70
    32
  0
VERTEX
  8
01
  5
9096
 10
-47.4249
 20
-2010.14
 30
0.000000
  70
    32
  0
VERTEX
  8
01
  5
9097
 10
-47.3892
 20
-2010.14
 30
0.000000
  70
    32
  0
VERTEX
  8
01
  5
9098
 10
-47.3537
 20
-2010.13
 30
0.000000
  70
    32
  0
VERTEX
  8
01
  5
9099
 10
-47.3182
 20
-2010.12
 30
0.000000
  70
    32
  0
VERTEX
  8
01
  5
909A
 10
-47.2830
 20
-2010.12
 30
0.000000
  70
    32
  0
VERTEX
  8
01
  5
909B
 10
-47.2478
 20
-2010.11
 30
0.000000
  70
    32
  0
VERTEX
  8
01
  5
909C
 10
-47.2128
 20
-2010.10
 30
0.000000
  70
    32
  0
VERTEX
  8
01
  5
909D
 10
-47.1779
 20
-2010.09
 30
0.000000
  70
    32
  0
VERTEX
  8
01
  5
909E
 10
-47.1431
 20
-2010.08
 30
0.000000
  70
    32
  0
VERTEX
  8
01
  5
909F
 10
-47.1086
 20
-2010.07
 30
0.000000
  70
    32
  0
VERTEX
  8
01
  5
90A0
 10
-47.0741
 20
-2010.06
 30
0.000000
  70
    32
  0
VERTEX
  8
01
  5
90A1
 10
-47.0399
 20
-2010.05
 30
0.000000
  70
    32
  0
VERTEX
  8
01
  5
90A2
 10
-47.0058
 20
-2010.05
 30
0.000000
  70
    32
  0
VERTEX
  8
01
  5
90A3
 10
-46.9718
 20
-2010.03
 30
0.000000
  70
    32
  0
VERTEX
  8
01
  5
90A4
 10
-46.9381
 20
-2010.02
 30
0.000000
  70
    32
  0
VERTEX
  8
01
  5
90A5
 10
-46.9045
 20
-2010.01
 30
0.000000
  70
    32
  0
VERTEX
  8
01
  5
90A6
 10
-46.8711
 20
-2010.00
 30
0.000000
  70
    32
  0
VERTEX
  8
01
  5
90A7
 10
-46.8380
 20
-2009.99
 30
0.000000
  70
    32
  0
VERTEX
  8
01
  5
90A8
 10
-46.8050
 20
-2009.98
 30
0.000000
  70
    32
  0
VERTEX
  8
01
  5
90A9
 10
-46.7722
 20
-2009.97
 30
0.000000
  70
    32
  0
VERTEX
  8
01
  5
90AA
 10
-46.7396
 20
-2009.96
 30
0.000000
  70
    32
  0
VERTEX
  8
01
  5
90AB
 10
-46.7073
 20
-2009.94
 30
0.000000
  70
    32
  0
VERTEX
  8
01
  5
90AC
 10
-46.6751
 20
-2009.93
 30
0.000000
  70
    32
  0
VERTEX
  8
01
  5
90AD
 10
-46.6432
 20
-2009.92
 30
0.000000
  70
    32
  0
VERTEX
  8
01
  5
90AE
 10
-46.6115
 20
-2009.90
 30
0.000000
  70
    32
  0
VERTEX
  8
01
  5
90AF
 10
-46.5800
 20
-2009.89
 30
0.000000
  70
    32
  0
VERTEX
  8
01
  5
90B0
 10
-46.5488
 20
-2009.88
 30
0.000000
  70
    32
  0
VERTEX
  8
01
  5
90B1
 10
-46.5178
 20
-2009.86
 30
0.000000
  70
    32
  0
VERTEX
  8
01
  5
90B2
 10
-46.4871
 20
-2009.85
 30
0.000000
  70
    32
  0
VERTEX
  8
01
  5
90B3
 10
-46.4566
 20
-2009.83
 30
0.000000
  70
    32
  0
VERTEX
  8
01
  5
90B4
 10
-46.4264
 20
-2009.82
 30
0.000000
  70
    32
  0
VERTEX
  8
01
  5
90B5
 10
-46.3964
 20
-2009.80
 30
0.000000
  70
    32
  0
VERTEX
  8
01
  5
90B6
 10
-46.3667
 20
-2009.79
 30
0.000000
  70
    32
  0
VERTEX
  8
01
  5
90B7
 10
-46.3373
 20
-2009.77
 30
0.000000
  70
    32
  0
VERTEX
  8
01
  5
90B8
 10
-46.3081
 20
-2009.76
 30
0.000000
  70
    32
  0
VERTEX
  8
01
  5
90B9
 10
-46.2792
 20
-2009.74
 30
0.000000
  70
    32
  0
VERTEX
  8
01
  5
90BA
 10
-46.2506
 20
-2009.73
 30
0.000000
  70
    32
  0
VERTEX
  8
01
  5
90BB
 10
-46.2223
 20
-2009.71
 30
0.000000
  70
    32
  0
VERTEX
  8
01
  5
90BC
 10
-46.1943
 20
-2009.69
 30
0.000000
  70
    32
  0
VERTEX
  8
01
  5
90BD
 10
-46.1666
 20
-2009.67
 30
0.000000
  70
    32
  0
VERTEX
  8
01
  5
90BE
 10
-46.1391
 20
-2009.66
 30
0.000000
  70
    32
  0
VERTEX
  8
01
  5
90BF
 10
-46.1120
 20
-2009.64
 30
0.000000
  70
    32
  0
VERTEX
  8
01
  5
90C0
 10
-46.0852
 20
-2009.62
 30
0.000000
  70
    32
  0
VERTEX
  8
01
  5
90C1
 10
-46.0587
 20
-2009.60
 30
0.000000
  70
    32
  0
VERTEX
  8
01
  5
90C2
 10
-46.0325
 20
-2009.59
 30
0.000000
  70
    32
  0
VERTEX
  8
01
  5
90C3
 10
-46.0066
 20
-2009.57
 30
0.000000
  70
    32
  0
VERTEX
  8
01
  5
90C4
 10
-45.9811
 20
-2009.55
 30
0.000000
  70
    32
  0
VERTEX
  8
01
  5
90C5
 10
-45.9558
 20
-2009.53
 30
0.000000
  70
    32
  0
VERTEX
  8
01
  5
90C6
 10
-45.9310
 20
-2009.51
 30
0.000000
  70
    32
  0
VERTEX
  8
01
  5
90C7
 10
-45.9064
 20
-2009.49
 30
0.000000
  70
    32
  0
VERTEX
  8
01
  5
90C8
 10
-45.8822
 20
-2009.47
 30
0.000000
  70
    32
  0
VERTEX
  8
01
  5
90C9
 10
-45.8583
 20
-2009.45
 30
0.000000
  70
    32
  0
VERTEX
  8
01
  5
90CA
 10
-45.8348
 20
-2009.43
 30
0.000000
  70
    32
  0
VERTEX
  8
01
  5
90CB
 10
-45.8116
 20
-2009.41
 30
0.000000
  70
    32
  0
VERTEX
  8
01
  5
90CC
 10
-45.7888
 20
-2009.39
 30
0.000000
  70
    32
  0
VERTEX
  8
01
  5
90CD
 10
-45.7663
 20
-2009.37
 30
0.000000
  70
    32
  0
VERTEX
  8
01
  5
90CE
 10
-45.7442
 20
-2009.35
 30
0.000000
  70
    32
  0
VERTEX
  8
01
  5
90CF
 10
-45.7224
 20
-2009.33
 30
0.000000
  70
    32
  0
VERTEX
  8
01
  5
90D0
 10
-45.7011
 20
-2009.31
 30
0.000000
  70
    32
  0
VERTEX
  8
01
  5
90D1
 10
-45.6800
 20
-2009.29
 30
0.000000
  70
    32
  0
VERTEX
  8
01
  5
90D2
 10
-45.6594
 20
-2009.26
 30
0.000000
  70
    32
  0
VERTEX
  8
01
  5
90D3
 10
-45.6391
 20
-2009.24
 30
0.000000
  70
    32
  0
VERTEX
  8
01
  5
90D4
 10
-45.6192
 20
-2009.22
 30
0.000000
  70
    32
  0
VERTEX
  8
01
  5
90D5
 10
-45.5997
 20
-2009.20
 30
0.000000
  70
    32
  0
VERTEX
  8
01
  5
90D6
 10
-45.5806
 20
-2009.18
 30
0.000000
  70
    32
  0
VERTEX
  8
01
  5
90D7
 10
-45.5619
 20
-2009.15
 30
0.000000
  70
    32
  0
VERTEX
  8
01
  5
90D8
 10
-45.5435
 20
-2009.13
 30
0.000000
  70
    32
  0
VERTEX
  8
01
  5
90D9
 10
-45.5256
 20
-2009.11
 30
0.000000
  70
    32
  0
VERTEX
  8
01
  5
90DA
 10
-45.5080
 20
-2009.09
 30
0.000000
  70
    32
  0
VERTEX
  8
01
  5
90DB
 10
-45.4909
 20
-2009.06
 30
0.000000
  70
    32
  0
VERTEX
  8
01
  5
90DC
 10
-45.4741
 20
-2009.04
 30
0.000000
  70
    32
  0
VERTEX
  8
01
  5
90DD
 10
-45.4578
 20
-2009.02
 30
0.000000
  70
    32
  0
VERTEX
  8
01
  5
90DE
 10
-45.4418
 20
-2008.99
 30
0.000000
  70
    32
  0
VERTEX
  8
01
  5
90DF
 10
-45.4263
 20
-2008.97
 30
0.000000
  70
    32
  0
VERTEX
  8
01
  5
90E0
 10
-45.4112
 20
-2008.94
 30
0.000000
  70
    32
  0
VERTEX
  8
01
  5
90E1
 10
-45.3965
 20
-2008.92
 30
0.000000
  70
    32
  0
VERTEX
  8
01
  5
90E2
 10
-45.3822
 20
-2008.90
 30
0.000000
  70
    32
  0
VERTEX
  8
01
  5
90E3
 10
-45.3683
 20
-2008.87
 30
0.000000
  70
    32
  0
VERTEX
  8
01
  5
90E4
 10
-45.3548
 20
-2008.85
 30
0.000000
  70
    32
  0
VERTEX
  8
01
  5
90E5
 10
-45.3418
 20
-2008.82
 30
0.000000
  70
    32
  0
VERTEX
  8
01
  5
90E6
 10
-45.3292
 20
-2008.80
 30
0.000000
  70
    32
  0
VERTEX
  8
01
  5
90E7
 10
-45.3170
 20
-2008.78
 30
0.000000
  70
    32
  0
VERTEX
  8
01
  5
90E8
 10
-45.3052
 20
-2008.75
 30
0.000000
  70
    32
  0
VERTEX
  8
01
  5
90E9
 10
-45.2939
 20
-2008.73
 30
0.000000
  70
    32
  0
VERTEX
  8
01
  5
90EA
 10
-45.2830
 20
-2008.70
 30
0.000000
  70
    32
  0
VERTEX
  8
01
  5
90EB
 10
-45.2725
 20
-2008.68
 30
0.000000
  70
    32
  0
VERTEX
  8
01
  5
90EC
 10
-45.2625
 20
-2008.65
 30
0.000000
  70
    32
  0
VERTEX
  8
01
  5
90ED
 10
-45.2529
 20
-2008.63
 30
0.000000
  70
    32
  0
VERTEX
  8
01
  5
90EE
 10
-45.2437
 20
-2008.60
 30
0.000000
  70
    32
  0
VERTEX
  8
01
  5
90EF
 10
-45.2350
 20
-2008.58
 30
0.000000
  70
    32
  0
VERTEX
  8
01
  5
90F0
 10
-45.2267
 20
-2008.55
 30
0.000000
  70
    32
  0
VERTEX
  8
01
  5
90F1
 10
-45.2189
 20
-2008.52
 30
0.000000
  70
    32
  0
VERTEX
  8
01
  5
90F2
 10
-45.2115
 20
-2008.50
 30
0.000000
  70
    32
  0
VERTEX
  8
01
  5
90F3
 10
-45.2045
 20
-2008.47
 30
0.000000
  70
    32
  0
VERTEX
  8
01
  5
90F4
 10
-45.1980
 20
-2008.45
 30
0.000000
  70
    32
  0
VERTEX
  8
01
  5
90F5
 10
-45.1919
 20
-2008.42
 30
0.000000
  70
    32
  0
VERTEX
  8
01
  5
90F6
 10
-45.1863
 20
-2008.40
 30
0.000000
  70
    32
  0
VERTEX
  8
01
  5
90F7
 10
-45.1811
 20
-2008.37
 30
0.000000
  70
    32
  0
VERTEX
  8
01
  5
90F8
 10
-45.1764
 20
-2008.34
 30
0.000000
  70
    32
  0
VERTEX
  8
01
  5
90F9
 10
-45.1721
 20
-2008.32
 30
0.000000
  70
    32
  0
VERTEX
  8
01
  5
90FA
 10
-45.1683
 20
-2008.29
 30
0.000000
  70
    32
  0
VERTEX
  8
01
  5
90FB
 10
-45.1649
 20
-2008.27
 30
0.000000
  70
    32
  0
VERTEX
  8
01
  5
90FC
 10
-45.1619
 20
-2008.24
 30
0.000000
  70
    32
  0
VERTEX
  8
01
  5
90FD
 10
-45.1595
 20
-2008.22
 30
0.000000
  70
    32
  0
VERTEX
  8
01
  5
90FE
 10
-45.1574
 20
-2008.19
 30
0.000000
  70
    32
  0
VERTEX
  8
01
  5
90FF
 10
-45.1558
 20
-2008.16
 30
0.000000
  70
    32
  0
VERTEX
  8
01
  5
9100
 10
-45.1547
 20
-2008.14
 30
0.000000
  70
    32
  0
VERTEX
  8
01
  5
9101
 10
-45.1540
 20
-2008.11
 30
0.000000
  70
    32
  0
VERTEX
  8
01
  5
9102
 10
-45.1538
 20
-2008.09
 30
0.000000
  70
    32
  0
SEQEND
  8
01
  5
9103
  0
POLYLINE
  5
8C9A
  8
01
 10
-54.153808740336473
 20
-2008.0852367111745
 30
0.0
 66
     1
 70
     8
  0
VERTEX
  8
01
  5
9104
 10
-54.1538
 20
-2008.09
 30
0.000000
  70
    32
  0
VERTEX
  8
01
  5
9105
 10
-54.1906
 20
-2008.09
 30
0.000000
  70
    32
  0
VERTEX
  8
01
  5
9106
 10
-54.2274
 20
-2008.08
 30
0.000000
  70
    32
  0
VERTEX
  8
01
  5
9107
 10
-54.2642
 20
-2008.08
 30
0.000000
  70
    32
  0
VERTEX
  8
01
  5
9108
 10
-54.3010
 20
-2008.08
 30
0.000000
  70
    32
  0
VERTEX
  8
01
  5
9109
 10
-54.3378
 20
-2008.08
 30
0.000000
  70
    32
  0
VERTEX
  8
01
  5
910A
 10
-54.3745
 20
-2008.08
 30
0.000000
  70
    32
  0
VERTEX
  8
01
  5
910B
 10
-54.4112
 20
-2008.08
 30
0.000000
  70
    32
  0
VERTEX
  8
01
  5
910C
 10
-54.4479
 20
-2008.08
 30
0.000000
  70
    32
  0
VERTEX
  8
01
  5
910D
 10
-54.4845
 20
-2008.07
 30
0.000000
  70
    32
  0
VERTEX
  8
01
  5
910E
 10
-54.5210
 20
-2008.07
 30
0.000000
  70
    32
  0
VERTEX
  8
01
  5
910F
 10
-54.5576
 20
-2008.07
 30
0.000000
  70
    32
  0
VERTEX
  8
01
  5
9110
 10
-54.5940
 20
-2008.06
 30
0.000000
  70
    32
  0
VERTEX
  8
01
  5
9111
 10
-54.6304
 20
-2008.06
 30
0.000000
  70
    32
  0
VERTEX
  8
01
  5
9112
 10
-54.6667
 20
-2008.05
 30
0.000000
  70
    32
  0
VERTEX
  8
01
  5
9113
 10
-54.7029
 20
-2008.05
 30
0.000000
  70
    32
  0
VERTEX
  8
01
  5
9114
 10
-54.7391
 20
-2008.04
 30
0.000000
  70
    32
  0
VERTEX
  8
01
  5
9115
 10
-54.7751
 20
-2008.04
 30
0.000000
  70
    32
  0
VERTEX
  8
01
  5
9116
 10
-54.8111
 20
-2008.03
 30
0.000000
  70
    32
  0
VERTEX
  8
01
  5
9117
 10
-54.8470
 20
-2008.03
 30
0.000000
  70
    32
  0
VERTEX
  8
01
  5
9118
 10
-54.8827
 20
-2008.02
 30
0.000000
  70
    32
  0
VERTEX
  8
01
  5
9119
 10
-54.9184
 20
-2008.02
 30
0.000000
  70
    32
  0
VERTEX
  8
01
  5
911A
 10
-54.9539
 20
-2008.01
 30
0.000000
  70
    32
  0
VERTEX
  8
01
  5
911B
 10
-54.9894
 20
-2008.00
 30
0.000000
  70
    32
  0
VERTEX
  8
01
  5
911C
 10
-55.0247
 20
-2007.99
 30
0.000000
  70
    32
  0
VERTEX
  8
01
  5
911D
 10
-55.0598
 20
-2007.99
 30
0.000000
  70
    32
  0
VERTEX
  8
01
  5
911E
 10
-55.0949
 20
-2007.98
 30
0.000000
  70
    32
  0
VERTEX
  8
01
  5
911F
 10
-55.1297
 20
-2007.97
 30
0.000000
  70
    32
  0
VERTEX
  8
01
  5
9120
 10
-55.1645
 20
-2007.96
 30
0.000000
  70
    32
  0
VERTEX
  8
01
  5
9121
 10
-55.1991
 20
-2007.95
 30
0.000000
  70
    32
  0
VERTEX
  8
01
  5
9122
 10
-55.2335
 20
-2007.94
 30
0.000000
  70
    32
  0
VERTEX
  8
01
  5
9123
 10
-55.2678
 20
-2007.93
 30
0.000000
  70
    32
  0
VERTEX
  8
01
  5
9124
 10
-55.3019
 20
-2007.92
 30
0.000000
  70
    32
  0
VERTEX
  8
01
  5
9125
 10
-55.3358
 20
-2007.91
 30
0.000000
  70
    32
  0
VERTEX
  8
01
  5
9126
 10
-55.3695
 20
-2007.90
 30
0.000000
  70
    32
  0
VERTEX
  8
01
  5
9127
 10
-55.4031
 20
-2007.89
 30
0.000000
  70
    32
  0
VERTEX
  8
01
  5
9128
 10
-55.4365
 20
-2007.88
 30
0.000000
  70
    32
  0
VERTEX
  8
01
  5
9129
 10
-55.4697
 20
-2007.87
 30
0.000000
  70
    32
  0
VERTEX
  8
01
  5
912A
 10
-55.5026
 20
-2007.86
 30
0.000000
  70
    32
  0
VERTEX
  8
01
  5
912B
 10
-55.5354
 20
-2007.85
 30
0.000000
  70
    32
  0
VERTEX
  8
01
  5
912C
 10
-55.5680
 20
-2007.83
 30
0.000000
  70
    32
  0
VERTEX
  8
01
  5
912D
 10
-55.6004
 20
-2007.82
 30
0.000000
  70
    32
  0
VERTEX
  8
01
  5
912E
 10
-55.6325
 20
-2007.81
 30
0.000000
  70
    32
  0
VERTEX
  8
01
  5
912F
 10
-55.6644
 20
-2007.80
 30
0.000000
  70
    32
  0
VERTEX
  8
01
  5
9130
 10
-55.6961
 20
-2007.78
 30
0.000000
  70
    32
  0
VERTEX
  8
01
  5
9131
 10
-55.7276
 20
-2007.77
 30
0.000000
  70
    32
  0
VERTEX
  8
01
  5
9132
 10
-55.7588
 20
-2007.76
 30
0.000000
  70
    32
  0
VERTEX
  8
01
  5
9133
 10
-55.7898
 20
-2007.74
 30
0.000000
  70
    32
  0
VERTEX
  8
01
  5
9134
 10
-55.8205
 20
-2007.73
 30
0.000000
  70
    32
  0
VERTEX
  8
01
  5
9135
 10
-55.8510
 20
-2007.71
 30
0.000000
  70
    32
  0
VERTEX
  8
01
  5
9136
 10
-55.8812
 20
-2007.70
 30
0.000000
  70
    32
  0
VERTEX
  8
01
  5
9137
 10
-55.9112
 20
-2007.68
 30
0.000000
  70
    32
  0
VERTEX
  8
01
  5
9138
 10
-55.9409
 20
-2007.67
 30
0.000000
  70
    32
  0
VERTEX
  8
01
  5
9139
 10
-55.9703
 20
-2007.65
 30
0.000000
  70
    32
  0
VERTEX
  8
01
  5
913A
 10
-55.9995
 20
-2007.64
 30
0.000000
  70
    32
  0
VERTEX
  8
01
  5
913B
 10
-56.0284
 20
-2007.62
 30
0.000000
  70
    32
  0
VERTEX
  8
01
  5
913C
 10
-56.0570
 20
-2007.60
 30
0.000000
  70
    32
  0
VERTEX
  8
01
  5
913D
 10
-56.0853
 20
-2007.59
 30
0.000000
  70
    32
  0
VERTEX
  8
01
  5
913E
 10
-56.1133
 20
-2007.57
 30
0.000000
  70
    32
  0
VERTEX
  8
01
  5
913F
 10
-56.1411
 20
-2007.55
 30
0.000000
  70
    32
  0
VERTEX
  8
01
  5
9140
 10
-56.1685
 20
-2007.54
 30
0.000000
  70
    32
  0
VERTEX
  8
01
  5
9141
 10
-56.1956
 20
-2007.52
 30
0.000000
  70
    32
  0
VERTEX
  8
01
  5
9142
 10
-56.2224
 20
-2007.50
 30
0.000000
  70
    32
  0
VERTEX
  8
01
  5
9143
 10
-56.2489
 20
-2007.48
 30
0.000000
  70
    32
  0
VERTEX
  8
01
  5
9144
 10
-56.2751
 20
-2007.46
 30
0.000000
  70
    32
  0
VERTEX
  8
01
  5
9145
 10
-56.3010
 20
-2007.45
 30
0.000000
  70
    32
  0
VERTEX
  8
01
  5
9146
 10
-56.3265
 20
-2007.43
 30
0.000000
  70
    32
  0
VERTEX
  8
01
  5
9147
 10
-56.3518
 20
-2007.41
 30
0.000000
  70
    32
  0
VERTEX
  8
01
  5
9148
 10
-56.3767
 20
-2007.39
 30
0.000000
  70
    32
  0
VERTEX
  8
01
  5
9149
 10
-56.4012
 20
-2007.37
 30
0.000000
  70
    32
  0
VERTEX
  8
01
  5
914A
 10
-56.4254
 20
-2007.35
 30
0.000000
  70
    32
  0
VERTEX
  8
01
  5
914B
 10
-56.4493
 20
-2007.33
 30
0.000000
  70
    32
  0
VERTEX
  8
01
  5
914C
 10
-56.4728
 20
-2007.31
 30
0.000000
  70
    32
  0
VERTEX
  8
01
  5
914D
 10
-56.4960
 20
-2007.29
 30
0.000000
  70
    32
  0
VERTEX
  8
01
  5
914E
 10
-56.5188
 20
-2007.27
 30
0.000000
  70
    32
  0
VERTEX
  8
01
  5
914F
 10
-56.5413
 20
-2007.25
 30
0.000000
  70
    32
  0
VERTEX
  8
01
  5
9150
 10
-56.5634
 20
-2007.23
 30
0.000000
  70
    32
  0
VERTEX
  8
01
  5
9151
 10
-56.5852
 20
-2007.21
 30
0.000000
  70
    32
  0
VERTEX
  8
01
  5
9152
 10
-56.6066
 20
-2007.19
 30
0.000000
  70
    32
  0
VERTEX
  8
01
  5
9153
 10
-56.6276
 20
-2007.16
 30
0.000000
  70
    32
  0
VERTEX
  8
01
  5
9154
 10
-56.6482
 20
-2007.14
 30
0.000000
  70
    32
  0
VERTEX
  8
01
  5
9155
 10
-56.6685
 20
-2007.12
 30
0.000000
  70
    32
  0
VERTEX
  8
01
  5
9156
 10
-56.6884
 20
-2007.10
 30
0.000000
  70
    32
  0
VERTEX
  8
01
  5
9157
 10
-56.7079
 20
-2007.08
 30
0.000000
  70
    32
  0
VERTEX
  8
01
  5
9158
 10
-56.7270
 20
-2007.05
 30
0.000000
  70
    32
  0
VERTEX
  8
01
  5
9159
 10
-56.7457
 20
-2007.03
 30
0.000000
  70
    32
  0
VERTEX
  8
01
  5
915A
 10
-56.7641
 20
-2007.01
 30
0.000000
  70
    32
  0
VERTEX
  8
01
  5
915B
 10
-56.7820
 20
-2006.99
 30
0.000000
  70
    32
  0
VERTEX
  8
01
  5
915C
 10
-56.7996
 20
-2006.96
 30
0.000000
  70
    32
  0
VERTEX
  8
01
  5
915D
 10
-56.8167
 20
-2006.94
 30
0.000000
  70
    32
  0
VERTEX
  8
01
  5
915E
 10
-56.8335
 20
-2006.92
 30
0.000000
  70
    32
  0
VERTEX
  8
01
  5
915F
 10
-56.8498
 20
-2006.89
 30
0.000000
  70
    32
  0
VERTEX
  8
01
  5
9160
 10
-56.8658
 20
-2006.87
 30
0.000000
  70
    32
  0
VERTEX
  8
01
  5
9161
 10
-56.8813
 20
-2006.85
 30
0.000000
  70
    32
  0
VERTEX
  8
01
  5
9162
 10
-56.8964
 20
-2006.82
 30
0.000000
  70
    32
  0
VERTEX
  8
01
  5
9163
 10
-56.9112
 20
-2006.80
 30
0.000000
  70
    32
  0
VERTEX
  8
01
  5
9164
 10
-56.9254
 20
-2006.78
 30
0.000000
  70
    32
  0
VERTEX
  8
01
  5
9165
 10
-56.9393
 20
-2006.75
 30
0.000000
  70
    32
  0
VERTEX
  8
01
  5
9166
 10
-56.9528
 20
-2006.73
 30
0.000000
  70
    32
  0
VERTEX
  8
01
  5
9167
 10
-56.9658
 20
-2006.70
 30
0.000000
  70
    32
  0
VERTEX
  8
01
  5
9168
 10
-56.9784
 20
-2006.68
 30
0.000000
  70
    32
  0
VERTEX
  8
01
  5
9169
 10
-56.9906
 20
-2006.65
 30
0.000000
  70
    32
  0
VERTEX
  8
01
  5
916A
 10
-57.0024
 20
-2006.63
 30
0.000000
  70
    32
  0
VERTEX
  8
01
  5
916B
 10
-57.0137
 20
-2006.60
 30
0.000000
  70
    32
  0
VERTEX
  8
01
  5
916C
 10
-57.0246
 20
-2006.58
 30
0.000000
  70
    32
  0
VERTEX
  8
01
  5
916D
 10
-57.0351
 20
-2006.55
 30
0.000000
  70
    32
  0
VERTEX
  8
01
  5
916E
 10
-57.0451
 20
-2006.53
 30
0.000000
  70
    32
  0
VERTEX
  8
01
  5
916F
 10
-57.0547
 20
-2006.50
 30
0.000000
  70
    32
  0
VERTEX
  8
01
  5
9170
 10
-57.0639
 20
-2006.48
 30
0.000000
  70
    32
  0
VERTEX
  8
01
  5
9171
 10
-57.0726
 20
-2006.45
 30
0.000000
  70
    32
  0
VERTEX
  8
01
  5
9172
 10
-57.0809
 20
-2006.43
 30
0.000000
  70
    32
  0
VERTEX
  8
01
  5
9173
 10
-57.0888
 20
-2006.40
 30
0.000000
  70
    32
  0
VERTEX
  8
01
  5
9174
 10
-57.0962
 20
-2006.38
 30
0.000000
  70
    32
  0
VERTEX
  8
01
  5
9175
 10
-57.1031
 20
-2006.35
 30
0.000000
  70
    32
  0
VERTEX
  8
01
  5
9176
 10
-57.1096
 20
-2006.33
 30
0.000000
  70
    32
  0
VERTEX
  8
01
  5
9177
 10
-57.1157
 20
-2006.30
 30
0.000000
  70
    32
  0
VERTEX
  8
01
  5
9178
 10
-57.1213
 20
-2006.28
 30
0.000000
  70
    32
  0
VERTEX
  8
01
  5
9179
 10
-57.1265
 20
-2006.25
 30
0.000000
  70
    32
  0
VERTEX
  8
01
  5
917A
 10
-57.1312
 20
-2006.22
 30
0.000000
  70
    32
  0
VERTEX
  8
01
  5
917B
 10
-57.1355
 20
-2006.20
 30
0.000000
  70
    32
  0
VERTEX
  8
01
  5
917C
 10
-57.1394
 20
-2006.17
 30
0.000000
  70
    32
  0
VERTEX
  8
01
  5
917D
 10
-57.1427
 20
-2006.15
 30
0.000000
  70
    32
  0
VERTEX
  8
01
  5
917E
 10
-57.1457
 20
-2006.12
 30
0.000000
  70
    32
  0
VERTEX
  8
01
  5
917F
 10
-57.1482
 20
-2006.09
 30
0.000000
  70
    32
  0
VERTEX
  8
01
  5
9180
 10
-57.1502
 20
-2006.07
 30
0.000000
  70
    32
  0
VERTEX
  8
01
  5
9181
 10
-57.1518
 20
-2006.04
 30
0.000000
  70
    32
  0
VERTEX
  8
01
  5
9182
 10
-57.1529
 20
-2006.02
 30
0.000000
  70
    32
  0
VERTEX
  8
01
  5
9183
 10
-57.1536
 20
-2005.99
 30
0.000000
  70
    32
  0
VERTEX
  8
01
  5
9184
 10
-57.1538
 20
-2005.96
 30
0.000000
  70
    32
  0
SEQEND
  8
01
  5
9185
  0
POLYLINE
  5
8C9B
  8
01
 10
-54.153808740336473
 20
-2010.2065570547345
 30
0.0
 66
     1
 70
     8
  0
VERTEX
  8
01
  5
9186
 10
-54.1538
 20
-2010.21
 30
0.000000
  70
    32
  0
VERTEX
  8
01
  5
9187
 10
-54.1906
 20
-2010.21
 30
0.000000
  70
    32
  0
VERTEX
  8
01
  5
9188
 10
-54.2274
 20
-2010.21
 30
0.000000
  70
    32
  0
VERTEX
  8
01
  5
9189
 10
-54.2642
 20
-2010.21
 30
0.000000
  70
    32
  0
VERTEX
  8
01
  5
918A
 10
-54.3010
 20
-2010.20
 30
0.000000
  70
    32
  0
VERTEX
  8
01
  5
918B
 10
-54.3378
 20
-2010.20
 30
0.000000
  70
    32
  0
VERTEX
  8
01
  5
918C
 10
-54.3745
 20
-2010.20
 30
0.000000
  70
    32
  0
VERTEX
  8
01
  5
918D
 10
-54.4112
 20
-2010.20
 30
0.000000
  70
    32
  0
VERTEX
  8
01
  5
918E
 10
-54.4479
 20
-2010.20
 30
0.000000
  70
    32
  0
VERTEX
  8
01
  5
918F
 10
-54.4845
 20
-2010.19
 30
0.000000
  70
    32
  0
VERTEX
  8
01
  5
9190
 10
-54.5210
 20
-2010.19
 30
0.000000
  70
    32
  0
VERTEX
  8
01
  5
9191
 10
-54.5576
 20
-2010.19
 30
0.000000
  70
    32
  0
VERTEX
  8
01
  5
9192
 10
-54.5940
 20
-2010.18
 30
0.000000
  70
    32
  0
VERTEX
  8
01
  5
9193
 10
-54.6304
 20
-2010.18
 30
0.000000
  70
    32
  0
VERTEX
  8
01
  5
9194
 10
-54.6667
 20
-2010.18
 30
0.000000
  70
    32
  0
VERTEX
  8
01
  5
9195
 10
-54.7029
 20
-2010.17
 30
0.000000
  70
    32
  0
VERTEX
  8
01
  5
9196
 10
-54.7391
 20
-2010.17
 30
0.000000
  70
    32
  0
VERTEX
  8
01
  5
9197
 10
-54.7751
 20
-2010.16
 30
0.000000
  70
    32
  0
VERTEX
  8
01
  5
9198
 10
-54.8111
 20
-2010.16
 30
0.000000
  70
    32
  0
VERTEX
  8
01
  5
9199
 10
-54.8470
 20
-2010.15
 30
0.000000
  70
    32
  0
VERTEX
  8
01
  5
919A
 10
-54.8827
 20
-2010.14
 30
0.000000
  70
    32
  0
VERTEX
  8
01
  5
919B
 10
-54.9184
 20
-2010.14
 30
0.000000
  70
    32
  0
VERTEX
  8
01
  5
919C
 10
-54.9539
 20
-2010.13
 30
0.000000
  70
    32
  0
VERTEX
  8
01
  5
919D
 10
-54.9894
 20
-2010.12
 30
0.000000
  70
    32
  0
VERTEX
  8
01
  5
919E
 10
-55.0247
 20
-2010.12
 30
0.000000
  70
    32
  0
VERTEX
  8
01
  5
919F
 10
-55.0598
 20
-2010.11
 30
0.000000
  70
    32
  0
VERTEX
  8
01
  5
91A0
 10
-55.0949
 20
-2010.10
 30
0.000000
  70
    32
  0
VERTEX
  8
01
  5
91A1
 10
-55.1297
 20
-2010.09
 30
0.000000
  70
    32
  0
VERTEX
  8
01
  5
91A2
 10
-55.1645
 20
-2010.08
 30
0.000000
  70
    32
  0
VERTEX
  8
01
  5
91A3
 10
-55.1991
 20
-2010.07
 30
0.000000
  70
    32
  0
VERTEX
  8
01
  5
91A4
 10
-55.2335
 20
-2010.06
 30
0.000000
  70
    32
  0
VERTEX
  8
01
  5
91A5
 10
-55.2678
 20
-2010.05
 30
0.000000
  70
    32
  0
VERTEX
  8
01
  5
91A6
 10
-55.3019
 20
-2010.05
 30
0.000000
  70
    32
  0
VERTEX
  8
01
  5
91A7
 10
-55.3358
 20
-2010.03
 30
0.000000
  70
    32
  0
VERTEX
  8
01
  5
91A8
 10
-55.3695
 20
-2010.02
 30
0.000000
  70
    32
  0
VERTEX
  8
01
  5
91A9
 10
-55.4031
 20
-2010.01
 30
0.000000
  70
    32
  0
VERTEX
  8
01
  5
91AA
 10
-55.4365
 20
-2010.00
 30
0.000000
  70
    32
  0
VERTEX
  8
01
  5
91AB
 10
-55.4697
 20
-2009.99
 30
0.000000
  70
    32
  0
VERTEX
  8
01
  5
91AC
 10
-55.5026
 20
-2009.98
 30
0.000000
  70
    32
  0
VERTEX
  8
01
  5
91AD
 10
-55.5354
 20
-2009.97
 30
0.000000
  70
    32
  0
VERTEX
  8
01
  5
91AE
 10
-55.5680
 20
-2009.96
 30
0.000000
  70
    32
  0
VERTEX
  8
01
  5
91AF
 10
-55.6004
 20
-2009.94
 30
0.000000
  70
    32
  0
VERTEX
  8
01
  5
91B0
 10
-55.6325
 20
-2009.93
 30
0.000000
  70
    32
  0
VERTEX
  8
01
  5
91B1
 10
-55.6644
 20
-2009.92
 30
0.000000
  70
    32
  0
VERTEX
  8
01
  5
91B2
 10
-55.6961
 20
-2009.90
 30
0.000000
  70
    32
  0
VERTEX
  8
01
  5
91B3
 10
-55.7276
 20
-2009.89
 30
0.000000
  70
    32
  0
VERTEX
  8
01
  5
91B4
 10
-55.7588
 20
-2009.88
 30
0.000000
  70
    32
  0
VERTEX
  8
01
  5
91B5
 10
-55.7898
 20
-2009.86
 30
0.000000
  70
    32
  0
VERTEX
  8
01
  5
91B6
 10
-55.8205
 20
-2009.85
 30
0.000000
  70
    32
  0
VERTEX
  8
01
  5
91B7
 10
-55.8510
 20
-2009.83
 30
0.000000
  70
    32
  0
VERTEX
  8
01
  5
91B8
 10
-55.8812
 20
-2009.82
 30
0.000000
  70
    32
  0
VERTEX
  8
01
  5
91B9
 10
-55.9112
 20
-2009.80
 30
0.000000
  70
    32
  0
VERTEX
  8
01
  5
91BA
 10
-55.9409
 20
-2009.79
 30
0.000000
  70
    32
  0
VERTEX
  8
01
  5
91BB
 10
-55.9703
 20
-2009.77
 30
0.000000
  70
    32
  0
VERTEX
  8
01
  5
91BC
 10
-55.9995
 20
-2009.76
 30
0.000000
  70
    32
  0
VERTEX
  8
01
  5
91BD
 10
-56.0284
 20
-2009.74
 30
0.000000
  70
    32
  0
VERTEX
  8
01
  5
91BE
 10
-56.0570
 20
-2009.73
 30
0.000000
  70
    32
  0
VERTEX
  8
01
  5
91BF
 10
-56.0853
 20
-2009.71
 30
0.000000
  70
    32
  0
VERTEX
  8
01
  5
91C0
 10
-56.1133
 20
-2009.69
 30
0.000000
  70
    32
  0
VERTEX
  8
01
  5
91C1
 10
-56.1411
 20
-2009.67
 30
0.000000
  70
    32
  0
VERTEX
  8
01
  5
91C2
 10
-56.1685
 20
-2009.66
 30
0.000000
  70
    32
  0
VERTEX
  8
01
  5
91C3
 10
-56.1956
 20
-2009.64
 30
0.000000
  70
    32
  0
VERTEX
  8
01
  5
91C4
 10
-56.2224
 20
-2009.62
 30
0.000000
  70
    32
  0
VERTEX
  8
01
  5
91C5
 10
-56.2489
 20
-2009.60
 30
0.000000
  70
    32
  0
VERTEX
  8
01
  5
91C6
 10
-56.2751
 20
-2009.59
 30
0.000000
  70
    32
  0
VERTEX
  8
01
  5
91C7
 10
-56.3010
 20
-2009.57
 30
0.000000
  70
    32
  0
VERTEX
  8
01
  5
91C8
 10
-56.3265
 20
-2009.55
 30
0.000000
  70
    32
  0
VERTEX
  8
01
  5
91C9
 10
-56.3518
 20
-2009.53
 30
0.000000
  70
    32
  0
VERTEX
  8
01
  5
91CA
 10
-56.3767
 20
-2009.51
 30
0.000000
  70
    32
  0
VERTEX
  8
01
  5
91CB
 10
-56.4012
 20
-2009.49
 30
0.000000
  70
    32
  0
VERTEX
  8
01
  5
91CC
 10
-56.4254
 20
-2009.47
 30
0.000000
  70
    32
  0
VERTEX
  8
01
  5
91CD
 10
-56.4493
 20
-2009.45
 30
0.000000
  70
    32
  0
VERTEX
  8
01
  5
91CE
 10
-56.4728
 20
-2009.43
 30
0.000000
  70
    32
  0
VERTEX
  8
01
  5
91CF
 10
-56.4960
 20
-2009.41
 30
0.000000
  70
    32
  0
VERTEX
  8
01
  5
91D0
 10
-56.5188
 20
-2009.39
 30
0.000000
  70
    32
  0
VERTEX
  8
01
  5
91D1
 10
-56.5413
 20
-2009.37
 30
0.000000
  70
    32
  0
VERTEX
  8
01
  5
91D2
 10
-56.5634
 20
-2009.35
 30
0.000000
  70
    32
  0
VERTEX
  8
01
  5
91D3
 10
-56.5852
 20
-2009.33
 30
0.000000
  70
    32
  0
VERTEX
  8
01
  5
91D4
 10
-56.6066
 20
-2009.31
 30
0.000000
  70
    32
  0
VERTEX
  8
01
  5
91D5
 10
-56.6276
 20
-2009.29
 30
0.000000
  70
    32
  0
VERTEX
  8
01
  5
91D6
 10
-56.6482
 20
-2009.26
 30
0.000000
  70
    32
  0
VERTEX
  8
01
  5
91D7
 10
-56.6685
 20
-2009.24
 30
0.000000
  70
    32
  0
VERTEX
  8
01
  5
91D8
 10
-56.6884
 20
-2009.22
 30
0.000000
  70
    32
  0
VERTEX
  8
01
  5
91D9
 10
-56.7079
 20
-2009.20
 30
0.000000
  70
    32
  0
VERTEX
  8
01
  5
91DA
 10
-56.7270
 20
-2009.18
 30
0.000000
  70
    32
  0
VERTEX
  8
01
  5
91DB
 10
-56.7457
 20
-2009.15
 30
0.000000
  70
    32
  0
VERTEX
  8
01
  5
91DC
 10
-56.7641
 20
-2009.13
 30
0.000000
  70
    32
  0
VERTEX
  8
01
  5
91DD
 10
-56.7820
 20
-2009.11
 30
0.000000
  70
    32
  0
VERTEX
  8
01
  5
91DE
 10
-56.7996
 20
-2009.09
 30
0.000000
  70
    32
  0
VERTEX
  8
01
  5
91DF
 10
-56.8167
 20
-2009.06
 30
0.000000
  70
    32
  0
VERTEX
  8
01
  5
91E0
 10
-56.8335
 20
-2009.04
 30
0.000000
  70
    32
  0
VERTEX
  8
01
  5
91E1
 10
-56.8498
 20
-2009.02
 30
0.000000
  70
    32
  0
VERTEX
  8
01
  5
91E2
 10
-56.8658
 20
-2008.99
 30
0.000000
  70
    32
  0
VERTEX
  8
01
  5
91E3
 10
-56.8813
 20
-2008.97
 30
0.000000
  70
    32
  0
VERTEX
  8
01
  5
91E4
 10
-56.8964
 20
-2008.94
 30
0.000000
  70
    32
  0
VERTEX
  8
01
  5
91E5
 10
-56.9112
 20
-2008.92
 30
0.000000
  70
    32
  0
VERTEX
  8
01
  5
91E6
 10
-56.9254
 20
-2008.90
 30
0.000000
  70
    32
  0
VERTEX
  8
01
  5
91E7
 10
-56.9393
 20
-2008.87
 30
0.000000
  70
    32
  0
VERTEX
  8
01
  5
91E8
 10
-56.9528
 20
-2008.85
 30
0.000000
  70
    32
  0
VERTEX
  8
01
  5
91E9
 10
-56.9658
 20
-2008.82
 30
0.000000
  70
    32
  0
VERTEX
  8
01
  5
91EA
 10
-56.9784
 20
-2008.80
 30
0.000000
  70
    32
  0
VERTEX
  8
01
  5
91EB
 10
-56.9906
 20
-2008.78
 30
0.000000
  70
    32
  0
VERTEX
  8
01
  5
91EC
 10
-57.0024
 20
-2008.75
 30
0.000000
  70
    32
  0
VERTEX
  8
01
  5
91ED
 10
-57.0137
 20
-2008.73
 30
0.000000
  70
    32
  0
VERTEX
  8
01
  5
91EE
 10
-57.0246
 20
-2008.70
 30
0.000000
  70
    32
  0
VERTEX
  8
01
  5
91EF
 10
-57.0351
 20
-2008.68
 30
0.000000
  70
    32
  0
VERTEX
  8
01
  5
91F0
 10
-57.0451
 20
-2008.65
 30
0.000000
  70
    32
  0
VERTEX
  8
01
  5
91F1
 10
-57.0547
 20
-2008.63
 30
0.000000
  70
    32
  0
VERTEX
  8
01
  5
91F2
 10
-57.0639
 20
-2008.60
 30
0.000000
  70
    32
  0
VERTEX
  8
01
  5
91F3
 10
-57.0726
 20
-2008.58
 30
0.000000
  70
    32
  0
VERTEX
  8
01
  5
91F4
 10
-57.0809
 20
-2008.55
 30
0.000000
  70
    32
  0
VERTEX
  8
01
  5
91F5
 10
-57.0888
 20
-2008.52
 30
0.000000
  70
    32
  0
VERTEX
  8
01
  5
91F6
 10
-57.0962
 20
-2008.50
 30
0.000000
  70
    32
  0
VERTEX
  8
01
  5
91F7
 10
-57.1031
 20
-2008.47
 30
0.000000
  70
    32
  0
VERTEX
  8
01
  5
91F8
 10
-57.1096
 20
-2008.45
 30
0.000000
  70
    32
  0
VERTEX
  8
01
  5
91F9
 10
-57.1157
 20
-2008.42
 30
0.000000
  70
    32
  0
VERTEX
  8
01
  5
91FA
 10
-57.1213
 20
-2008.40
 30
0.000000
  70
    32
  0
VERTEX
  8
01
  5
91FB
 10
-57.1265
 20
-2008.37
 30
0.000000
  70
    32
  0
VERTEX
  8
01
  5
91FC
 10
-57.1312
 20
-2008.34
 30
0.000000
  70
    32
  0
VERTEX
  8
01
  5
91FD
 10
-57.1355
 20
-2008.32
 30
0.000000
  70
    32
  0
VERTEX
  8
01
  5
91FE
 10
-57.1394
 20
-2008.29
 30
0.000000
  70
    32
  0
VERTEX
  8
01
  5
91FF
 10
-57.1427
 20
-2008.27
 30
0.000000
  70
    32
  0
VERTEX
  8
01
  5
9200
 10
-57.1457
 20
-2008.24
 30
0.000000
  70
    32
  0
VERTEX
  8
01
  5
9201
 10
-57.1482
 20
-2008.22
 30
0.000000
  70
    32
  0
VERTEX
  8
01
  5
9202
 10
-57.1502
 20
-2008.19
 30
0.000000
  70
    32
  0
VERTEX
  8
01
  5
9203
 10
-57.1518
 20
-2008.16
 30
0.000000
  70
    32
  0
VERTEX
  8
01
  5
9204
 10
-57.1529
 20
-2008.14
 30
0.000000
  70
    32
  0
VERTEX
  8
01
  5
9205
 10
-57.1536
 20
-2008.11
 30
0.000000
  70
    32
  0
VERTEX
  8
01
  5
9206
 10
-57.1538
 20
-2008.09
 30
0.000000
  70
    32
  0
SEQEND
  8
01
  5
9207
  0
TEXT
  5
8D66
  8
1HATCH
 10
59.731516156311827
 20
-2078.2447365373969
 30
0.0
 40
3.5
  1
クリアバンポン
  0
SOLID
  5
8D67
  8
1HATCH
 10
42.943885101838752
 20
-2096.7162718088071
 30
0.0
 11
41.389477091434003
 21
-2098.0181653713921
 31
0.0
 12
42.437627297194659
 22
-2096.2825121061119
 32
0.0
 13
42.437627297194659
 23
-2096.2825121061119
 33
0.0
  0
LINE
  5
8D69
  8
1DIM
 10
-5.1538087403364443
 20
-2110.9565570547338
 30
0.0
 11
-5.1538087403364461
 21
-2141.9565570547329
 31
0.0
  0
LINE
  5
8D6A
  8
1DIM
 10
41.438326883394097
 20
-2098.7925340816241
 30
0.0
 11
41.438326883394097
 21
-2141.9565570547329
 31
0.0
  0
LINE
  5
8D6B
  8
1DIM
 10
-3.1538087403364461
 20
-2140.9565570547329
 30
0.0
 11
39.438326883394097
 21
-2140.9565570547329
 31
0.0
  0
LINE
  5
8D6F
  8
1DIM
 10
-57.153808740336672
 20
-2120.9565570547329
 30
0.0
 11
-57.153808740336672
 21
-2141.9565570547329
 31
0.0
  0
LINE
  5
8D70
  8
1DIM
 10
-45.153808740336672
 20
-2120.9565570547338
 30
0.0
 11
-45.153808740336672
 21
-2141.9565570547329
 31
0.0
  0
LINE
  5
8D71
  8
1DIM
 10
-55.153808740336672
 20
-2140.9565570547329
 30
0.0
 11
-47.153808740336672
 21
-2140.9565570547329
 31
0.0
  0
LINE
  5
8D75
  8
1DIM
 10
-45.153808740336672
 20
-2120.9565570547338
 30
0.0
 11
-24.1538087403367
 21
-2120.9565570547338
 31
0.0
  0
LINE
  5
8D76
  8
1DIM
 10
-45.153808740336672
 20
-2070.2065570547352
 30
0.0
 11
-24.153808740336689
 21
-2070.2065570547352
 31
0.0
  0
LINE
  5
8D77
  8
1DIM
 10
-25.1538087403367
 20
-2118.9565570547338
 30
0.0
 11
-25.153808740336689
 21
-2072.2065570547352
 31
0.0
  0
TEXT
  5
8D7B
  8
1DIM
 10
-25.853808740336351
 20
-2097.9148903880682
 30
0.0
 40
3.5
  1
51
 50
90.0
  0
LINE
  5
8D7C
  8
0
  6
BYBLOCK
 10
-25.689707120336688
 20
-2072.2065570547352
 30
0.0
 11
-25.153808740336689
 21
-2070.2065570547352
 31
0.0
  0
LINE
  5
8D7D
  8
0
  6
BYBLOCK
 10
-25.153808740336689
 20
-2070.2065570547352
 30
0.0
 11
-24.61791036033669
 21
-2072.2065570547352
 31
0.0
  0
LINE
  5
8D7E
  8
0
  6
BYBLOCK
 10
-25.153808740336689
 20
-2070.2065570547352
 30
0.0
 11
-25.153808740336689
 21
-2072.2065570547352
 31
0.0
  0
LINE
  5
8D7F
  8
0
  6
BYBLOCK
 10
-24.617910360336701
 20
-2118.9565570547338
 30
0.0
 11
-25.1538087403367
 21
-2120.9565570547338
 31
0.0
  0
LINE
  5
8D80
  8
0
  6
BYBLOCK
 10
-25.1538087403367
 20
-2120.9565570547338
 30
0.0
 11
-25.689707120336699
 21
-2118.9565570547338
 31
0.0
  0
LINE
  5
8D81
  8
0
  6
BYBLOCK
 10
-25.1538087403367
 20
-2120.9565570547338
 30
0.0
 11
-25.1538087403367
 21
-2118.9565570547338
 31
0.0
  0
TEXT
  5
8D82
  8
1DIM
 10
-53.487142073670007
 20
-2140.2565570547331
 30
0.0
 40
3.5
  1
12
  0
LINE
  5
8D83
  8
0
  6
BYBLOCK
 10
-47.153808740336672
 20
-2140.4206586747332
 30
0.0
 11
-45.153808740336672
 21
-2140.9565570547329
 31
0.0
  0
LINE
  5
8D84
  8
0
  6
BYBLOCK
 10
-45.153808740336672
 20
-2140.9565570547329
 30
0.0
 11
-47.153808740336672
 21
-2141.492455434734
 31
0.0
  0
LINE
  5
8D85
  8
0
  6
BYBLOCK
 10
-45.153808740336672
 20
-2140.9565570547329
 30
0.0
 11
-47.153808740336672
 21
-2140.9565570547329
 31
0.0
  0
LINE
  5
8D86
  8
0
  6
BYBLOCK
 10
-55.153808740336672
 20
-2141.492455434734
 30
0.0
 11
-57.153808740336672
 21
-2140.9565570547329
 31
0.0
  0
LINE
  5
8D87
  8
0
  6
BYBLOCK
 10
-57.153808740336672
 20
-2140.9565570547329
 30
0.0
 11
-55.153808740336672
 21
-2140.4206586747332
 31
0.0
  0
LINE
  5
8D88
  8
0
  6
BYBLOCK
 10
-57.153808740336672
 20
-2140.9565570547329
 30
0.0
 11
-55.153808740336672
 21
-2140.9565570547329
 31
0.0
  0
TEXT
  5
8D89
  8
1DIM
 10
15.22559240486216
 20
-2140.2565570547331
 30
0.0
 40
3.5
  1
47
  0
LINE
  5
8D8A
  8
0
  6
BYBLOCK
 10
39.438326883394097
 20
-2140.4206586747332
 30
0.0
 11
41.438326883394097
 21
-2140.9565570547329
 31
0.0
  0
LINE
  5
8D8B
  8
0
  6
BYBLOCK
 10
41.438326883394097
 20
-2140.9565570547329
 30
0.0
 11
39.438326883394097
 21
-2141.492455434734
 31
0.0
  0
LINE
  5
8D8C
  8
0
  6
BYBLOCK
 10
41.438326883394097
 20
-2140.9565570547329
 30
0.0
 11
39.438326883394097
 21
-2140.9565570547329
 31
0.0
  0
LINE
  5
8D8D
  8
0
  6
BYBLOCK
 10
-3.1538087403364461
 20
-2141.492455434734
 30
0.0
 11
-5.1538087403364461
 21
-2140.9565570547329
 31
0.0
  0
LINE
  5
8D8E
  8
0
  6
BYBLOCK
 10
-5.1538087403364461
 20
-2140.9565570547329
 30
0.0
 11
-3.1538087403364461
 21
-2140.4206586747332
 31
0.0
  0
LINE
  5
8D8F
  8
0
  6
BYBLOCK
 10
-5.1538087403364461
 20
-2140.9565570547329
 30
0.0
 11
-3.1538087403364461
 21
-2140.9565570547329
 31
0.0
  0
LINE
  5
8D90
  8
1HATCH
 10
42.690756199516699
 20
-2096.499391957459
 30
0.0
 11
57.731516156312011
 21
-2078.9447365373971
 31
0.0
  0
LINE
  5
8D91
  8
1HATCH
 10
57.731516156312011
 20
-2078.9447365373971
 30
0.0
 11
93.098182822978686
 21
-2078.9447365373971
 31
0.0
  0
VIEWPORT
  5
57
 67
     1
  8
0
 10
-3.5462622350936779
 20
14.18057439074232
 30
0.0
 40
411.21072938165253
 41
291.15188249968787
 68
     1
 69
     1
1001
ACAD
1000
MVIEW
1002
{
1070
    16
1010
0.0
1020
0.0
1030
0.0
1010
0.0
1020
0.0
1030
1.0
1040
0.0
1040
291.15188249968787
1040
-3.5462622350936779
1040
14.18057439074232
1040
50.0
1040
0.0
1040
0.0
1070
     0
1070
   100
1070
     1
1070
     1
1070
     0
1070
     0
1070
     0
1070
     0
1040
0.0
1040
0.0
1040
0.0
1040
10.0
1040
10.0
1040
10.0
1040
10.0
1070
     0
1002
{
1002
}
1002
}
  0
ENDSEC
  0
EOF
