  0
SECTION
  2
HEADER
  9
$ACADVER
  1
AC1009
  9
$INSBASE
 10
0.0
 20
0.0
 30
0.0
  9
$EXTMIN
 10
-350.90442889188893
 20
-2240.8614898246051
 30
0.0
  9
$EXTMAX
 10
18.045571108107762
 20
-2031.5620778821401
 30
0.0
  9
$LIMMIN
 10
0.0
 20
0.0
  9
$LIMMAX
 10
420.0
 20
297.0
  9
$ORTHOMODE
 70
     0
  9
$REGENMODE
 70
     1
  9
$FILLMODE
 70
     1
  9
$QTEXTMODE
 70
     0
  9
$MIRRTEXT
 70
     1
  9
$DRAGMODE
 70
     2
  9
$LTSCALE
 40
0.5
  9
$OSMODE
 70
  2175
  9
$ATTMODE
 70
     1
  9
$TEXTSIZE
 40
4.0
  9
$TRACEWID
 40
1.0
  9
$TEXTSTYLE
  7
STANDARD
  9
$CLAYER
  8
1TEXT
  9
$CELTYPE
  6
BYLAYER
  9
$CECOLOR
 62
   256
  9
$DIMSCALE
 40
1.0
  9
$DIMASZ
 40
2.0
  9
$DIMEXO
 40
0.0
  9
$DIMDLI
 40
7.0
  9
$DIMRND
 40
0.0
  9
$DIMDLE
 40
0.0
  9
$DIMEXE
 40
1.0
  9
$DIMTP
 40
0.0
  9
$DIMTM
 40
0.0
  9
$DIMTXT
 40
3.5
  9
$DIMCEN
 40
0.0
  9
$DIMTSZ
 40
0.0
  9
$DIMTOL
 70
     0
  9
$DIMLIM
 70
     0
  9
$DIMTIH
 70
     0
  9
$DIMTOH
 70
     0
  9
$DIMSE1
 70
     0
  9
$DIMSE2
 70
     0
  9
$DIMTAD
 70
     1
  9
$DIMZIN
 70
     8
  9
$DIMBLK
  1

  9
$DIMASO
 70
     1
  9
$DIMSHO
 70
     1
  9
$DIMPOST
  1
 
  9
$DIMAPOST
  1

  9
$DIMALT
 70
     0
  9
$DIMALTD
 70
     2
  9
$DIMALTF
 40
25.399999999999999
  9
$DIMLFAC
 40
1.0
  9
$DIMTOFL
 70
     1
  9
$DIMTVP
 40
0.0
  9
$DIMTIX
 70
     0
  9
$DIMSOXD
 70
     0
  9
$DIMSAH
 70
     1
  9
$DIMBLK1
  1
OPEN30
  9
$DIMBLK2
  1
OPEN30
  9
$DIMSTYLE
  2
NEWX10
  9
$DIMCLRD
 70
   256
  9
$DIMCLRE
 70
   256
  9
$DIMCLRT
 70
   201
  9
$DIMTFAC
 40
0.7
  9
$DIMGAP
 40
0.7
  9
$LUNITS
 70
     2
  9
$LUPREC
 70
     4
  9
$SKETCHINC
 40
1.0
  9
$FILLETRAD
 40
0.0
  9
$AUNITS
 70
     0
  9
$AUPREC
 70
     2
  9
$MENU
  1
acad
  9
$ELEVATION
 40
0.0
  9
$PELEVATION
 40
0.0
  9
$THICKNESS
 40
0.0
  9
$LIMCHECK
 70
     0
  9
$BLIPMODE
 70
     0
  9
$CHAMFERA
 40
10.0
  9
$CHAMFERB
 40
10.0
  9
$SKPOLY
 70
     0
  9
$TDCREATE
 40
2453033.7326634838
  9
$TDUPDATE
 40
2455383.3835884952
  9
$TDINDWG
 40
0.2522797338
  9
$TDUSRTIMER
 40
0.2522797338
  9
$USRTIMER
 70
     1
  9
$ANGBASE
 50
0.0
  9
$ANGDIR
 70
     0
  9
$PDMODE
 70
     0
  9
$PDSIZE
 40
0.0
  9
$PLINEWID
 40
0.0
  9
$COORDS
 70
     2
  9
$SPLFRAME
 70
     0
  9
$SPLINETYPE
 70
     6
  9
$SPLINESEGS
 70
     8
  9
$ATTDIA
 70
     0
  9
$ATTREQ
 70
     1
  9
$HANDLING
 70
     1
  9
$HANDSEED
  5
8DD7
  9
$SURFTAB1
 70
     6
  9
$SURFTAB2
 70
     6
  9
$SURFTYPE
 70
     6
  9
$SURFU
 70
     6
  9
$SURFV
 70
     6
  9
$UCSNAME
  2

  9
$UCSORG
 10
0.0
 20
0.0
 30
0.0
  9
$UCSXDIR
 10
1.0
 20
0.0
 30
0.0
  9
$UCSYDIR
 10
0.0
 20
1.0
 30
0.0
  9
$PUCSNAME
  2

  9
$PUCSORG
 10
0.0
 20
0.0
 30
0.0
  9
$PUCSXDIR
 10
1.0
 20
0.0
 30
0.0
  9
$PUCSYDIR
 10
0.0
 20
1.0
 30
0.0
  9
$USERI1
 70
     0
  9
$USERI2
 70
     0
  9
$USERI3
 70
     0
  9
$USERI4
 70
     0
  9
$USERI5
 70
     0
  9
$USERR1
 40
0.0
  9
$USERR2
 40
0.0
  9
$USERR3
 40
0.0
  9
$USERR4
 40
0.0
  9
$USERR5
 40
0.0
  9
$WORLDVIEW
 70
     1
  9
$SHADEDGE
 70
     3
  9
$SHADEDIF
 70
    70
  9
$TILEMODE
 70
     1
  9
$MAXACTVP
 70
    48
  9
$PLIMCHECK
 70
     0
  9
$PEXTMIN
 10
1.0000000000000000E+020
 20
1.0000000000000000E+020
 30
1.0000000000000000E+020
  9
$PEXTMAX
 10
-1.0000000000000000E+020
 20
-1.0000000000000000E+020
 30
-1.0000000000000000E+020
  9
$PLIMMIN
 10
0.0
 20
0.0
  9
$PLIMMAX
 10
420.0
 20
297.0
  9
$UNITMODE
 70
     0
  9
$VISRETAIN
 70
     1
  9
$PLINEGEN
 70
     0
  9
$PSLTSCALE
 70
     1
  0
ENDSEC
  0
SECTION
  2
TABLES
  0
TABLE
  2
VPORT
 70
     1
  0
VPORT
  2
*ACTIVE
 70
     0
 10
0.0
 20
0.0
 11
1.0
 21
1.0
 12
-166.42423082351061
 22
-2136.1886397053272
 13
0.0
 23
0.0
 14
10.0
 24
10.0
 15
10.0
 25
10.0
 16
0.0
 26
0.0
 36
1.0
 17
0.0
 27
0.0
 37
0.0
 40
276.4930000981314
 41
1.4123581336696089
 42
50.0
 43
0.0
 44
0.0
 50
0.0
 51
0.0
 71
     0
 72
   100
 73
     1
 74
     1
 75
     0
 76
     0
 77
     0
 78
     0
  0
ENDTAB
  0
TABLE
  2
LTYPE
 70
    14
  0
LTYPE
  2
CONTINUOUS
 70
     0
  3
Solid line
 72
    65
 73
     0
 40
0.0
  0
LTYPE
  2
CENTER2
 70
     0
  3
Center (.5x) ___ _ ___ _ ___ _ ___ _ ___ _ ___
 72
    65
 73
     4
 40
28.574999999999999
 49
19.050000000000001
 49
-3.1749999999999989
 49
3.1749999999999989
 49
-3.1749999999999989
  0
LTYPE
  2
XREF1|CENTER2
 70
    48
  3
Center (.5x) ___ _ ___ _ ___ _ ___ _ ___ _ ___
 72
    65
 73
     4
 40
28.574999999999999
 49
19.050000000000001
 49
-3.1749999999999989
 49
3.1749999999999989
 49
-3.1749999999999989
  0
LTYPE
  2
A3WAKUDAKE|CENTER2
 70
    48
  3
Center (.5x) ___ _ ___ _ ___ _ ___ _ ___ _ ___
 72
    65
 73
     4
 40
28.574999999999999
 49
19.050000000000001
 49
-3.1749999999999989
 49
3.1749999999999989
 49
-3.1749999999999989
  0
ENDTAB
  0
TABLE
  2
LAYER
 70
    43
  0
LAYER
  2
0
 70
     0
 62
     7
  6
CONTINUOUS
  0
LAYER
  2
1CENTER
 70
     0
 62
     7
  6
CENTER2
  0
LAYER
  2
1TEXT
 70
     0
 62
     7
  6
CONTINUOUS
  0
LAYER
  2
1DIM
 70
     0
 62
     7
  6
CONTINUOUS
  0
LAYER
  2
01
 70
     0
 62
     1
  6
CONTINUOUS
  0
LAYER
  2
1HATCH
 70
     0
 62
     7
  6
CONTINUOUS
  0
LAYER
  2
XREF1|1CENTER
 70
    48
 62
     7
  6
XREF1|CENTER2
  0
LAYER
  2
A3WAKUDAKE|THICK
 70
    48
 62
     7
  6
CONTINUOUS
  0
LAYER
  2
A3WAKUDAKE|POINT
 70
    48
 62
     7
  6
CONTINUOUS
  0
LAYER
  2
A3WAKUDAKE|1CENTER
 70
    48
 62
     7
  6
A3WAKUDAKE|CENTER2
  0
LAYER
  2
A3WAKUDAKE|0-6
 70
    48
 62
     7
  6
CONTINUOUS
  0
LAYER
  2
A3WAKUDAKE|1DIM
 70
    48
 62
     7
  6
CONTINUOUS
  0
ENDTAB
  0
TABLE
  2
STYLE
 70
    22
  0
STYLE
  2
STANDARD
 70
     0
 40
0.0
 41
1.0
 50
0.0
 71
     0
 42
4.0
  3
txt.shx
  4
extfont.shx
  0
ENDTAB
  0
TABLE
  2
VIEW
 70
     0
  0
ENDTAB
  0
TABLE
  2
UCS
 70
     0
  0
ENDTAB
  0
TABLE
  2
APPID
 70
    13
  0
APPID
  2
ACAD
 70
     0
  0
APPID
  2
DRAWINGVARIABLESXDATA
 70
     0
  0
APPID
  2
CONTENTTABDATA
 70
     0
  0
APPID
  2
CONTENTCURRENTTAB
 70
     0
  0
APPID
  2
CONTENTBLOCKDESCRIPTION
 70
     0
  0
APPID
  2
CONTENTBLOCKICON
 70
     0
  0
APPID
  2
CONTENTLONGBLOCKNAME
 70
     0
  0
APPID
  2
ACAD_PSEXT
 70
     0
  0
APPID
  2
ACAD_DSTYLE_DIMTEXT_FILL
 70
     0
  0
APPID
  2
ACAD_MLEADERVER
 70
     0
  0
APPID
  2
ACAD_DSTYLE_DIMRADIAL_EXTENSION
 70
     0
  0
APPID
  2
GENIUS_GENODEF_13
 70
     0
  0
APPID
  2
GENIUS_GENOBJ-N-FIL_13
 70
     0
  0
ENDTAB
  0
TABLE
  2
DIMSTYLE
 70
     9
  0
DIMSTYLE
  2
NEWX10
 70
     0
  3
 
  4

  5

  6
OPEN30
  7
OPEN30
 40
1.0
 41
2.0
 42
0.0
 43
7.0
 44
1.0
 45
0.0
 46
0.0
 47
0.0
 48
0.0
140
3.5
141
0.0
142
0.0
143
25.399999999999999
144
1.0
145
0.0
146
0.7
147
0.7
 71
     0
 72
     0
 73
     0
 74
     0
 75
     0
 76
     0
 77
     1
 78
     8
170
     0
171
     2
172
     1
173
     1
174
     0
175
     0
176
   256
177
   256
178
   201
  0
ENDTAB
  0
ENDSEC
  0
SECTION
  2
BLOCKS
  0
BLOCK
  8
0
  2
$MODEL_SPACE
 70
     0
 10
0.0
 20
0.0
 30
0.0
  3
$MODEL_SPACE
  1

  0
ENDBLK
  5
1A
  8
0
  0
BLOCK
 67
     1
  8
0
  2
$PAPER_SPACE
 70
     0
 10
0.0
 20
0.0
 30
0.0
  3
$PAPER_SPACE
  1

  0
ENDBLK
  5
17
 67
     1
  8
0
  0
BLOCK
  8
0
  2
_OPEN30
 70
     0
 10
0.0
 20
0.0
 30
0.0
  3
_OPEN30
  1

  0
LINE
  5
44
  8
0
  6
BYBLOCK
 62
     0
 10
-1.0
 20
0.26794919
 30
0.0
 11
0.0
 21
0.0
 31
0.0
  0
LINE
  5
45
  8
0
  6
BYBLOCK
 62
     0
 10
0.0
 20
0.0
 30
0.0
 11
-1.0
 21
-0.26794919
 31
0.0
  0
LINE
  5
46
  8
0
  6
BYBLOCK
 62
     0
 10
0.0
 20
0.0
 30
0.0
 11
-1.0
 21
0.0
 31
0.0
  0
ENDBLK
  5
47
  8
0
  0
BLOCK
  8
0
  2
XREF1
 70
    36
 10
0.0
 20
0.0
 30
0.0
  3
XREF1
  1
D:\ACLT\FORMAT\KAWAJUN(9)図面用.dwg
  0
ENDBLK
  5
5D
  8
0
  0
BLOCK
  8
0
  2
A3WAKUDAKE
 70
    36
 10
0.0
 20
0.0
 30
0.0
  3
A3WAKUDAKE
  1
D:\ACLT\FORMAT\A3WAKUdake.dwg
  0
ENDBLK
  5
6DC
  8
0
  0
BLOCK
  8
0
  2
*U35
 70
     1
 10
0.0
 20
0.0
 30
0.0
  3
*U35
  1

  0
TEXT
  5
8D81
  8
0
 62
   201
 10
-63.717024855154051
 20
-3.8109119089904788
 30
0.0
 40
3.5
  1
φ5
 50
48.83031736650419
  0
ENDBLK
  5
8D83
  8
0
  0
BLOCK
  8
0
  2
*U36
 70
     1
 10
0.0
 20
0.0
 30
0.0
  3
*U36
  1

  0
TEXT
  5
8D85
  8
1TEXT
 62
   201
 10
21.614708555164611
 20
22.401236958861659
 30
0.0
 40
2.0
  1
二文字
  0
TEXT
  5
8D86
  8
1TEXT
 62
   201
 10
21.614708555164611
 20
19.067903625528331
 30
0.0
 40
2.0
  1
(別途指定)
  0
TEXT
  5
8D87
  8
1TEXT
 62
   201
 10
21.614708555164611
 20
15.73457029219499
 30
0.0
 40
2.0
  1
天地 約1.8
  0
TEXT
  5
8D88
  8
1TEXT
 62
   201
 10
21.614708555164611
 20
12.401236958861659
 30
0.0
 40
2.0
  1
凸0.2
  0
ENDBLK
  5
8D8A
  8
0
  0
BLOCK
  8
0
  2
*U37
 70
     1
 10
0.0
 20
0.0
 30
0.0
  3
*U37
  1

  0
SOLID
  5
8D8C
  8
1DIM
 10
17.769912945885331
 20
22.805130681268722
 30
0.0
 11
17.678379796037799
 21
23.814783819854821
 31
0.0
 12
18.0924202800296
 22
22.889392953575271
 32
0.0
 13
18.0924202800296
 23
22.889392953575271
 33
0.0
  0
POLYLINE
  5
8D8D
  8
1DIM
 66
     1
 10
0.0
 20
0.0
 30
0.0
  0
VERTEX
  5
8D8E
  8
1DIM
 10
17.931166612957469
 20
22.847261817422002
 30
0.0
  0
VERTEX
  5
8D8F
  8
1DIM
 10
20.91703607932029
 20
11.41907722970881
 30
0.0
  0
VERTEX
  5
8D90
  8
1DIM
 10
35.143226555510758
 20
11.41907722970881
 30
0.0
  0
SEQEND
  5
8D91
  8
1DIM
  0
ENDBLK
  5
8D93
  8
0
  0
BLOCK
  8
0
  2
*U38
 70
     1
 10
0.0
 20
0.0
 30
0.0
  3
*U38
  1

  0
TEXT
  5
8D95
  8
1DIM
 62
   201
 10
8.9421530727463576
 20
19.285028579396069
 30
0.0
 40
2.0
  1
枠
  0
TEXT
  5
8D96
  8
1DIM
 62
   201
 10
7.0754864060796896
 20
15.951695246062741
 30
0.0
 40
2.0
  1
φ5
  0
TEXT
  5
8D97
  8
1DIM
 62
   201
 10
4.7421530727463583
 20
12.61836191272941
 30
0.0
 40
2.0
  1
凹0.3
  0
ENDBLK
  5
8D99
  8
0
  0
BLOCK
  8
0
  2
*U39
 70
     1
 10
0.0
 20
0.0
 30
0.0
  3
*U39
  1

  0
SOLID
  5
8D9B
  8
1DIM
 10
14.77538895849114
 20
20.894651819020488
 30
0.0
 11
15.75963814806016
 21
22.667323431007279
 31
0.0
 12
15.403512140193291
 22
20.67125595278117
 32
0.0
 13
15.403512140193291
 23
20.67125595278117
 33
0.0
  0
POLYLINE
  5
8D9C
  8
1DIM
 66
     1
 10
0.0
 20
0.0
 30
0.0
  0
VERTEX
  5
8D9D
  8
1DIM
 10
15.089450549342221
 20
20.782953885900831
 30
0.0
  0
VERTEX
  5
8D9E
  8
1DIM
 10
11.821762131327951
 20
11.59517937383526
 30
0.0
  0
VERTEX
  5
8D9F
  8
1DIM
 10
2.3789049884708091
 20
11.59517937383526
 30
0.0
  0
SEQEND
  5
8DA0
  8
1DIM
  0
ENDBLK
  5
8DA2
  8
0
  0
BLOCK
  8
0
  2
*U40
 70
     1
 10
0.0
 20
0.0
 30
0.0
  3
*U40
  1

  0
TEXT
  5
8DA5
  8
1TEXT
 10
14.9745471932972
 20
24.09947430071913
 30
0.0
 40
1.8
  1
XY
  0
ENDBLK
  5
8DA7
  8
0
  0
BLOCK
  8
0
  2
*U41
 70
     1
 10
0.0
 20
0.0
 30
0.0
  3
*U41
  1

  0
TEXT
  5
8DAC
  8
1DIM
 62
   201
 10
-235.27942889188881
 20
-2229.1614898246048
 30
0.0
 40
3.5
  1
240
  0
ENDBLK
  5
8DAE
  8
0
  0
BLOCK
  8
0
  2
*U42
 70
     1
 10
0.0
 20
0.0
 30
0.0
  3
*U42
  1

  0
TEXT
  5
8DB0
  8
1DIM
 62
   201
 10
-278.52942889188932
 20
-2149.1120778821401
 30
0.0
 40
3.5
  1
90
  0
ENDBLK
  5
8DB2
  8
0
  0
BLOCK
  8
0
  2
*U43
 70
     1
 10
0.0
 20
0.0
 30
0.0
  3
*U43
  1

  0
TEXT
  5
8DB4
  8
1DIM
 62
   201
 10
-188.5294288918881
 20
-2149.1120778821401
 30
0.0
 40
3.5
  1
90
  0
ENDBLK
  5
8DB6
  8
0
  0
BLOCK
  8
0
  2
*U44
 70
     1
 10
0.0
 20
0.0
 30
0.0
  3
*U44
  1

  0
TEXT
  5
8DB8
  8
1DIM
 62
   201
 10
-128.5294288918881
 20
-2149.1120778821401
 30
0.0
 40
3.5
  1
30
  0
ENDBLK
  5
8DBA
  8
0
  0
BLOCK
  8
0
  2
*U45
 70
     1
 10
0.0
 20
0.0
 30
0.0
  3
*U45
  1

  0
TEXT
  5
8DBC
  8
1DIM
 62
   201
 10
-91.604428891888531
 20
-2117.4370778821399
 30
0.0
 40
3.5
  1
30
 50
90.0
  0
ENDBLK
  5
8DBE
  8
0
  0
BLOCK
  8
0
  2
*U46
 70
     1
 10
0.0
 20
0.0
 30
0.0
  3
*U46
  1

  0
TEXT
  5
8DC0
  8
1DIM
 62
   201
 10
-91.604428891888531
 20
-2098.3454112154732
 30
0.0
 40
3.5
  1
1.5
 50
90.0
  0
ENDBLK
  5
8DC2
  8
0
  0
BLOCK
  8
0
  2
*U47
 70
     1
 10
0.0
 20
0.0
 30
0.0
  3
*U47
  1

  0
TEXT
  5
8DC4
  8
1DIM
 62
   201
 10
-105.1189174884686
 20
-2079.9010224385402
 30
0.0
 40
3.5
  1
\U+00D828
 50
28.11214024855953
  0
ENDBLK
  5
8DC6
  8
0
  0
BLOCK
  8
0
  2
*U48
 70
     1
 10
0.0
 20
0.0
 30
0.0
  3
*U48
  1

  0
TEXT
  5
8DC8
  8
1DIM
 62
   201
 10
-38.571095558557481
 20
-2229.1614898246048
 30
0.0
 40
3.5
  1
84
  0
ENDBLK
  5
8DCA
  8
0
  0
BLOCK
  8
0
  2
*U49
 70
     1
 10
0.0
 20
0.0
 30
0.0
  3
*U49
  1

  0
TEXT
  5
8DCC
  8
1DIM
 62
   201
 10
-94.437762225222201
 20
-2229.1614898246048
 30
0.0
 40
3.5
  1
3.5
  0
ENDBLK
  5
8DCE
  8
0
  0
BLOCK
  8
0
  2
*U50
 70
     1
 10
0.0
 20
0.0
 30
0.0
  3
*U50
  1

  0
TEXT
  5
8DD0
  8
1DIM
 62
   201
 10
-91.604428891888531
 20
-2192.3614898246042
 30
0.0
 40
3.5
  1
45.5
 50
90.0
  0
ENDBLK
  5
8DD2
  8
0
  0
BLOCK
  8
0
  2
*U51
 70
     1
 10
0.0
 20
0.0
 30
0.0
  3
*U51
  1

  0
TEXT
  5
8DD4
  8
1DIM
 62
   201
 10
-34.47109555855733
 20
-2239.1614898246048
 30
0.0
 40
3.5
  1
99
  0
ENDBLK
  5
8DD6
  8
0
  0
ENDSEC
  0
SECTION
  2
ENTITIES
  0
TEXT
  5
349B
  8
1TEXT
 10
-72.622708714170585
 20
-2040.7939810281389
 30
0.0
 40
8.0
  1
KC042
  0
TEXT
  5
34CA
  8
1TEXT
 10
-65.195607022369913
 20
-2064.7974133991802
 30
0.0
 40
4.0
  1
表面処理：
 72
     1
 11
-54.547987974750868
 21
-2064.7974133991802
 31
0.0
  0
TEXT
  5
34CC
  8
1TEXT
 10
-71.347987974750851
 20
-2071.775308419165
 30
0.0
 40
4.0
  1
ブラストシルバー
 41
0.9
 72
     1
 11
-54.547987974750868
 21
-2071.775308419165
 31
0.0
  0
LINE
  5
34CD
  8
1DIM
 10
-71.947987974750504
 20
-2059.2974133991802
 30
0.0
 11
-1.9479879747505029
 21
-2059.2974133991802
 31
0.0
  0
LINE
  5
34CE
  8
1DIM
 10
-71.947987974750504
 20
-2073.2974133991802
 30
0.0
 11
-1.9479879747505029
 21
-2073.2974133991802
 31
0.0
  0
LINE
  5
34CF
  8
1DIM
 10
-71.947987974750504
 20
-2066.2974133991802
 30
0.0
 11
-1.9479879747505029
 21
-2066.2974133991802
 31
0.0
  0
LINE
  5
34D2
  8
1DIM
 10
-36.947987974750497
 20
-2059.2974133991802
 30
0.0
 11
-36.947987974750497
 21
-2073.2974133991802
 31
0.0
  0
TEXT
  5
34D4
  8
1TEXT
 10
-32.547987974749958
 20
-2072.01177038283
 30
0.0
 40
4.0
  1
KC042XS
 72
     1
 11
-19.547987974749962
 21
-2072.01177038283
 31
0.0
  0
TEXT
  5
34D5
  8
1TEXT
 10
-26.347987974750868
 20
-2064.7974133991802
 30
0.0
 40
4.0
  1
コード
 72
     1
 11
-19.547987974750871
 21
-2064.7974133991802
 31
0.0
  0
LINE
  5
34D6
  8
1DIM
 10
-71.947987974750504
 20
-2073.2974133991802
 30
0.0
 11
-71.947987974750504
 21
-2059.2974133991802
 31
0.0
  0
LINE
  5
34D7
  8
1DIM
 10
-1.9479879747505029
 20
-2073.2974133991802
 30
0.0
 11
-1.9479879747505029
 21
-2059.2974133991802
 31
0.0
  0
LINE
  5
8572
  8
01
 10
-350.90442889188881
 20
-2129.8120778821399
 30
0.0
 11
-110.9044288918888
 21
-2129.8120778821399
 31
0.0
  0
LINE
  5
8573
  8
01
  6
BYBLOCK
 10
-110.9044288918888
 20
-2033.562077882141
 30
0.0
 11
-350.90442889188881
 21
-2033.562077882141
 31
0.0
  0
LINE
  5
8574
  8
01
 10
-110.9044288918888
 20
-2031.5620778821401
 30
0.0
 11
-350.90442889188881
 21
-2031.5620778821401
 31
0.0
  0
LINE
  5
8575
  8
01
 10
-110.9044288918888
 20
-2129.8120778821399
 30
0.0
 11
-110.9044288918888
 21
-2031.5620778821401
 31
0.0
  0
LINE
  5
8576
  8
01
 10
-350.90442889188881
 20
-2129.8120778821399
 30
0.0
 11
-350.90442889188881
 21
-2031.5620778821401
 31
0.0
  0
LINE
  5
8577
  8
01
 10
-110.9044288918888
 20
-2126.3120778821399
 30
0.0
 11
-350.90442889188881
 21
-2126.3120778821399
 31
0.0
  0
LINE
  5
8578
  8
01
 10
-110.9044288918888
 20
-2042.312077882144
 30
0.0
 11
-350.90442889188881
 21
-2042.312077882144
 31
0.0
  0
LINE
  5
85B9
  8
01
 10
-350.90442889188893
 20
-2164.3614898246042
 30
0.0
 11
-350.90442889188881
 21
-2209.8614898246051
 31
0.0
  0
ARC
  5
85BA
  8
01
 10
-347.9044288918887
 20
-2201.3614898246028
 30
0.0
 40
3.0
 50
90.0
 51
180.0
  0
LINE
  5
85BB
  8
01
 10
-110.9044288918887
 20
-2164.3614898246042
 30
0.0
 11
-110.9044288918888
 21
-2209.8614898246042
 31
0.0
  0
LINE
  5
85BC
  8
01
  6
BYBLOCK
 10
-110.9044288918888
 20
-2209.8614898246042
 30
0.0
 11
-350.90442889188881
 21
-2209.8614898246042
 31
0.0
  0
LINE
  5
85BD
  8
01
  6
BYBLOCK
 10
-113.9044288918888
 20
-2198.3614898246028
 30
0.0
 11
-347.9044288918887
 21
-2198.3614898246028
 31
0.0
  0
ARC
  5
85BE
  8
01
 10
-113.9044288918888
 20
-2201.3614898246028
 30
0.0
 40
3.0
 50
0.0
 51
90.0
  0
LINE
  5
85BF
  8
01
  6
BYBLOCK
 10
-110.9044288918888
 20
-2164.3614898246042
 30
0.0
 11
-350.90442889188881
 21
-2164.3614898246042
 31
0.0
  0
TEXT
  5
8723
  8
1TEXT
 10
-70.750518001832774
 20
-2055.5313858128579
 30
0.0
 40
4.0
  1
材質：アルミ
 72
     1
 11
-57.417184668499431
 21
-2055.5313858128579
 31
0.0
  0
CIRCLE
  5
8839
  8
01
  6
BYBLOCK
 10
-140.90442889188779
 20
-2099.812077882139
 30
0.0
 40
14.0
  0
LINE
  5
883A
  8
01
 10
-134.59966878542849
 20
-2087.3120778821399
 30
0.0
 11
-147.20918899834709
 21
-2087.3120778821399
 31
0.0
  0
CIRCLE
  5
883B
  8
01
  6
BYBLOCK
 10
-230.90442889188881
 20
-2099.812077882139
 30
0.0
 40
14.0
  0
LINE
  5
883C
  8
01
 10
-224.59966878542949
 20
-2087.312077882139
 30
0.0
 11
-237.209188998348
 21
-2087.312077882139
 31
0.0
  0
CIRCLE
  5
883D
  8
01
  6
BYBLOCK
 10
-320.90442889188989
 20
-2099.812077882139
 30
0.0
 40
14.0
  0
LINE
  5
883E
  8
01
 10
-327.20918899834919
 20
-2087.3120778821399
 30
0.0
 11
-314.59966878543071
 21
-2087.3120778821399
 31
0.0
  0
LINE
  5
8863
  8
1CENTER
 10
-161.90442889188759
 20
-2099.812077882139
 30
0.0
 11
-119.90442889188721
 21
-2099.812077882139
 31
0.0
  0
LINE
  5
8864
  8
1CENTER
 10
-140.90442889188739
 20
-2120.8120778821399
 30
0.0
 11
-140.90442889188739
 21
-2078.8120778821399
 31
0.0
  0
LINE
  5
8872
  8
1CENTER
 10
-251.9044288918891
 20
-2099.8120778821381
 30
0.0
 11
-209.90442889188861
 21
-2099.8120778821381
 31
0.0
  0
LINE
  5
8873
  8
1CENTER
 10
-230.90442889188881
 20
-2120.812077882139
 30
0.0
 11
-230.90442889188881
 21
-2078.812077882139
 31
0.0
  0
LINE
  5
8874
  8
1CENTER
 10
-341.90442889189012
 20
-2099.8120778821381
 30
0.0
 11
-299.90442889188972
 21
-2099.8120778821381
 31
0.0
  0
LINE
  5
8875
  8
1CENTER
 10
-320.90442889188989
 20
-2120.812077882139
 30
0.0
 11
-320.90442889188989
 21
-2078.812077882139
 31
0.0
  0
LINE
  5
8A53
  8
01
  6
BYBLOCK
 10
-78.154428891889097
 20
-2198.3614898246028
 30
0.0
 11
-80.654428891889097
 21
-2198.3614898246028
 31
0.0
  0
LINE
  5
8A54
  8
01
  6
BYBLOCK
 10
16.845571108107031
 20
-2209.8614898246042
 30
0.0
 11
-80.654428891889097
 21
-2209.8614898246042
 31
0.0
  0
ARC
  5
8A55
  8
01
  6
BYBLOCK
 10
-80.654428891889097
 20
-2198.8614898246028
 30
0.0
 40
0.5
 50
90.0
 51
180.0
  0
LINE
  5
8A56
  8
01
  6
BYBLOCK
 10
-81.154428891889097
 20
-2198.8614898246028
 30
0.0
 11
-81.154428891889097
 21
-2209.3614898246042
 31
0.0
  0
ARC
  5
8A57
  8
01
  6
BYBLOCK
 10
-80.654428891889097
 20
-2209.3614898246042
 30
0.0
 40
0.5
 50
180.0
 51
270.0
  0
ARC
  5
8A58
  8
01
  6
BYBLOCK
 10
-78.154428891889097
 20
-2198.8614898246028
 30
0.0
 40
0.5
 50
0.0
 51
90.0
  0
LINE
  5
8A59
  8
01
  6
BYBLOCK
 10
6.3455711081074853
 20
-2165.3614898246042
 30
0.0
 11
6.3455711081074853
 21
-2200.8614898246042
 31
0.0
  0
ARC
  5
8A5A
  8
01
  6
BYBLOCK
 10
-15.65442889189069
 20
-2209.3614898246042
 30
0.0
 40
3.5
 50
61.92751306417086
 51
118.0724869358291
  0
ARC
  5
8A5B
  8
01
  6
BYBLOCK
 10
-47.654428891890007
 20
-2209.3614898246042
 30
0.0
 40
3.5
 50
61.92751306417086
 51
118.0724869358291
  0
ARC
  5
8A5C
  8
01
  6
BYBLOCK
 10
-63.654428891890007
 20
-2209.3614898246042
 30
0.0
 40
3.5
 50
61.92751306417086
 51
118.0724869358291
  0
ARC
  5
8A5D
  8
01
  6
BYBLOCK
 10
-71.654428891890007
 20
-2209.3614898246042
 30
0.0
 40
3.5
 50
61.92751306417086
 51
118.0724869358291
  0
LINE
  5
8A5E
  8
01
  6
BYBLOCK
 10
-77.654428891889097
 20
-2198.8614898246028
 30
0.0
 11
-77.654428891889097
 21
-2204.8614898246042
 31
0.0
  0
ARC
  5
8A5F
  8
01
  6
BYBLOCK
 10
-75.654428891889097
 20
-2204.8614898246042
 30
0.0
 40
2.0
 50
180.0
 51
270.0
  0
ARC
  5
8A60
  8
01
  6
BYBLOCK
 10
-75.654428891890007
 20
-2201.8614898246042
 30
0.0
 40
5.0
 50
270.0
 51
298.07248693582898
  0
ARC
  5
8A61
  8
01
  6
BYBLOCK
 10
-67.654428891890007
 20
-2201.8614898246042
 30
0.0
 40
5.0
 50
241.9275130641708
 51
298.07248693582898
  0
ARC
  5
8A62
  8
01
  6
BYBLOCK
 10
-55.654428891890007
 20
-2209.3614898246042
 30
0.0
 40
3.5
 50
61.92751306417086
 51
118.0724869358291
  0
ARC
  5
8A63
  8
01
  6
BYBLOCK
 10
-59.654428891890007
 20
-2201.8614898246042
 30
0.0
 40
5.0
 50
241.9275130641708
 51
298.07248693582898
  0
ARC
  5
8A64
  8
01
  6
BYBLOCK
 10
-51.654428891890021
 20
-2201.8614898246042
 30
0.0
 40
5.0
 50
241.9275130641708
 51
298.07248693582898
  0
ARC
  5
8A65
  8
01
  6
BYBLOCK
 10
-31.654428891890021
 20
-2209.3614898246042
 30
0.0
 40
3.5
 50
61.92751306417086
 51
118.0724869358291
  0
ARC
  5
8A66
  8
01
  6
BYBLOCK
 10
-39.654428891890007
 20
-2209.3614898246042
 30
0.0
 40
3.5
 50
61.92751306417086
 51
118.0724869358291
  0
ARC
  5
8A67
  8
01
  6
BYBLOCK
 10
-43.654428891890007
 20
-2201.8614898246042
 30
0.0
 40
5.0
 50
241.9275130641708
 51
298.07248693582898
  0
ARC
  5
8A68
  8
01
  6
BYBLOCK
 10
-35.654428891890007
 20
-2201.8614898246042
 30
0.0
 40
5.0
 50
241.9275130641708
 51
298.07248693582898
  0
ARC
  5
8A69
  8
01
  6
BYBLOCK
 10
-23.65442889189001
 20
-2209.3614898246042
 30
0.0
 40
3.5
 50
61.92751306417086
 51
118.0724869358291
  0
ARC
  5
8A6A
  8
01
  6
BYBLOCK
 10
-27.654428891890021
 20
-2201.8614898246042
 30
0.0
 40
5.0
 50
241.9275130641708
 51
298.07248693582898
  0
ARC
  5
8A6B
  8
01
  6
BYBLOCK
 10
-19.65442889189001
 20
-2201.8614898246042
 30
0.0
 40
5.0
 50
241.9275130641708
 51
298.07248693582898
  0
ARC
  5
8A6C
  8
01
  6
BYBLOCK
 10
0.3455711081074853
 20
-2209.3614898246042
 30
0.0
 40
3.5
 50
90.0
 51
118.0724869358291
  0
ARC
  5
8A6D
  8
01
  6
BYBLOCK
 10
-7.6544288918916052
 20
-2209.3614898246042
 30
0.0
 40
3.5
 50
61.92751306417086
 51
118.0724869358291
  0
ARC
  5
8A6E
  8
01
  6
BYBLOCK
 10
-11.65442889189069
 20
-2201.8614898246042
 30
0.0
 40
5.0
 50
241.9275130641708
 51
298.07248693582898
  0
ARC
  5
8A6F
  8
01
  6
BYBLOCK
 10
-3.6544288918916048
 20
-2201.8614898246042
 30
0.0
 40
5.0
 50
241.9275130641708
 51
298.07248693582898
  0
LINE
  5
8A70
  8
01
  6
BYBLOCK
 10
15.845571108107711
 20
-2207.8614898246042
 30
0.0
 11
15.845571108107711
 21
-2198.8614898246042
 31
0.0
  0
LINE
  5
8A71
  8
01
  6
BYBLOCK
 10
17.345571108107031
 20
-2208.8614898246042
 30
0.0
 11
17.345571108107031
 21
-2209.3614898246042
 31
0.0
  0
ARC
  5
8A72
  8
01
  6
BYBLOCK
 10
16.845571108107031
 20
-2209.3614898246042
 30
0.0
 40
0.5
 50
270.0
 51
0.0
  0
ARC
  5
8A73
  8
01
  6
BYBLOCK
 10
16.845571108107031
 20
-2208.8614898246042
 30
0.0
 40
0.5
 50
0.0
 51
90.0
  0
LINE
  5
8A74
  8
01
  6
BYBLOCK
 10
16.845571108107031
 20
-2208.3614898246042
 30
0.0
 11
16.345571108107709
 21
-2208.3614898246042
 31
0.0
  0
LINE
  5
8A75
  8
01
  6
BYBLOCK
 10
8.8455711081074853
 20
-2171.259405586261
 30
0.0
 11
8.8455711081074853
 21
-2185.3709568057029
 31
0.0
  0
ARC
  5
8A76
  8
01
  6
BYBLOCK
 10
10.345571108107031
 20
-2195.8614898246042
 30
0.0
 40
1.0
 50
180.0
 51
270.0
  0
ARC
  5
8A77
  8
01
  6
BYBLOCK
 10
10.34557110810748
 20
-2189.6114898246051
 30
0.0
 40
1.0
 50
90.0
 51
180.0
  0
LINE
  5
8A78
  8
01
  6
BYBLOCK
 10
9.3455711081074853
 20
-2189.6114898246051
 30
0.0
 11
9.3455711081074853
 21
-2195.8614898246042
 31
0.0
  0
LINE
  5
8A79
  8
01
  6
BYBLOCK
 10
16.845571108107031
 20
-2196.8614898246042
 30
0.0
 11
10.345571108107031
 21
-2196.8614898246042
 31
0.0
  0
LINE
  5
8A7A
  8
01
  6
BYBLOCK
 10
10.34557110810748
 20
-2188.6114898246042
 30
0.0
 11
16.845571108107482
 21
-2188.6114898246042
 31
0.0
  0
ARC
  5
8A7B
  8
01
  6
BYBLOCK
 10
16.845571108107482
 20
-2188.1114898246042
 30
0.0
 40
0.5
 50
270.0
 51
0.0
  0
LINE
  5
8A7C
  8
01
  6
BYBLOCK
 10
17.345571108107482
 20
-2187.1114898246042
 30
0.0
 11
17.345571108107482
 21
-2188.1114898246042
 31
0.0
  0
LINE
  5
8A7D
  8
01
  6
BYBLOCK
 10
13.34557110810726
 20
-2164.3614898246042
 30
0.0
 11
7.3455711081074853
 21
-2164.3614898246042
 31
0.0
  0
LINE
  5
8A7E
  8
01
  6
BYBLOCK
 10
12.84557110810748
 20
-2166.3614898246042
 30
0.0
 11
9.087244378053235
 21
-2166.3614898246042
 31
0.0
  0
ARC
  5
8A7F
  8
01
  6
BYBLOCK
 10
7.3455711081074853
 20
-2165.3614898246042
 30
0.0
 40
1.0
 50
90.0
 51
180.0
  0
ARC
  5
8A80
  8
01
  6
BYBLOCK
 10
14.345571108107251
 20
-2168.8614898246042
 30
0.0
 40
0.9999999999998864
 50
180.0
 51
0.0
  0
ARC
  5
8A81
  8
01
  6
BYBLOCK
 10
13.34557110810748
 20
-2166.3614898246042
 30
0.0
 40
2.0
 50
0.0
 51
90.0
  0
ARC
  5
8A82
  8
01
  6
BYBLOCK
 10
12.84557110810748
 20
-2166.8614898246042
 30
0.0
 40
0.5
 50
0.0
 51
90.0
  0
LINE
  5
8A83
  8
01
  6
BYBLOCK
 10
13.34557110810748
 20
-2166.8614898246042
 30
0.0
 11
13.34557110810748
 21
-2168.8614898246042
 31
0.0
  0
LINE
  5
8A84
  8
01
  6
BYBLOCK
 10
15.34557110810748
 20
-2166.3614898246042
 30
0.0
 11
15.34557110810748
 21
-2168.8614898246042
 31
0.0
  0
LINE
  5
8A85
  8
01
  6
BYBLOCK
 10
14.345571108108389
 20
-2186.6114898246042
 30
0.0
 11
16.845571108107482
 21
-2186.6114898246042
 31
0.0
  0
ARC
  5
8A86
  8
01
  6
BYBLOCK
 10
16.845571108107482
 20
-2187.1114898246042
 30
0.0
 40
0.5
 50
0.0
 51
90.0
1001
GENIUS_GENOBJ-N-FIL_13
1002
{
1000
OWNER
1000
GEN
1002
}
1001
GENIUS_GENODEF_13
1002
{
1000
HIER
1070
     0
1002
}
1002
{
1000
MANEDIT
1070
     0
1002
}
1002
{
1000
NOSEL
1070
     0
1002
}
1002
{
1000
BEHIND
1070
     0
1002
}
1002
{
1000
OTHER
1070
     0
1002
}
1002
{
1000
REACTOR
1002
}
  0
LINE
  5
8A87
  8
01
  6
BYBLOCK
 10
1.345571108107485
 20
-2205.8614898246042
 30
0.0
 11
0.3455711081074853
 21
-2205.8614898246042
 31
0.0
  0
ARC
  5
8A88
  8
01
  6
BYBLOCK
 10
1.345571108107485
 20
-2200.8614898246042
 30
0.0
 40
5.0
 50
270.0
 51
0.0
1001
GENIUS_GENOBJ-N-FIL_13
1002
{
1000
OWNER
1000
GEN
1002
}
1001
GENIUS_GENODEF_13
1002
{
1000
HIER
1070
     0
1002
}
1002
{
1000
MANEDIT
1070
     0
1002
}
1002
{
1000
NOSEL
1070
     0
1002
}
1002
{
1000
BEHIND
1070
     0
1002
}
1002
{
1000
OTHER
1070
     0
1002
}
1002
{
1000
REACTOR
1002
}
  0
ARC
  5
8A89
  8
01
  6
BYBLOCK
 10
16.345571108107709
 20
-2207.8614898246042
 30
0.0
 40
0.5
 50
180.0
 51
270.0
1001
GENIUS_GENOBJ-N-FIL_13
1002
{
1000
OWNER
1000
GEN
1002
}
1001
GENIUS_GENODEF_13
1002
{
1000
HIER
1070
     0
1002
}
1002
{
1000
MANEDIT
1070
     0
1002
}
1002
{
1000
NOSEL
1070
     0
1002
}
1002
{
1000
BEHIND
1070
     0
1002
}
1002
{
1000
OTHER
1070
     0
1002
}
1002
{
1000
REACTOR
1002
}
  0
ARC
  5
8A8A
  8
01
  6
BYBLOCK
 10
16.845571108107031
 20
-2197.3614898246042
 30
0.0
 40
0.5
 50
0.0
 51
90.0
  0
ARC
  5
8A8B
  8
01
  6
BYBLOCK
 10
16.845571108107031
 20
-2197.8614898246042
 30
0.0
 40
0.5
 50
270.0
 51
0.0
  0
LINE
  5
8A8C
  8
01
  6
BYBLOCK
 10
17.345571108107031
 20
-2197.3614898246042
 30
0.0
 11
17.345571108107031
 21
-2197.8614898246042
 31
0.0
  0
LINE
  5
8A8D
  8
01
  6
BYBLOCK
 10
16.845571108107031
 20
-2198.3614898246042
 30
0.0
 11
16.345571108107709
 21
-2198.3614898246042
 31
0.0
  0
ARC
  5
8A8E
  8
01
  6
BYBLOCK
 10
16.345571108107709
 20
-2198.8614898246042
 30
0.0
 40
0.5
 50
90.0
 51
180.0
1001
GENIUS_GENOBJ-N-FIL_13
1002
{
1000
OWNER
1000
GEN
1002
}
1001
GENIUS_GENODEF_13
1002
{
1000
HIER
1070
     0
1002
}
1002
{
1000
MANEDIT
1070
     0
1002
}
1002
{
1000
NOSEL
1070
     0
1002
}
1002
{
1000
BEHIND
1070
     0
1002
}
1002
{
1000
OTHER
1070
     0
1002
}
1002
{
1000
REACTOR
1002
}
  0
ARC
  5
8A8F
  8
01
  6
BYBLOCK
 10
14.345571108107251
 20
-2168.8614898246042
 30
0.0
 40
6.0
 50
157.29634373355
 51
203.55646430910471
  0
ARC
  5
8A90
  8
01
  6
BYBLOCK
 10
9.087244378053235
 20
-2166.6614898246039
 30
0.0
 40
0.3
 50
90.0
 51
157.29634373355
  0
ARC
  5
8A91
  8
01
  6
BYBLOCK
 10
14.345571108107251
 20
-2168.8614898246042
 30
0.0
 40
17.75
 50
253.15072037719781
 51
270.0
  0
ARC
  5
8A92
  8
01
  6
BYBLOCK
 10
9.3455711081074853
 20
-2185.3709568057029
 30
0.0
 40
0.5
 50
180.0
 51
253.15072037719781
  0
LINE
  5
8AA0
  8
01
 10
15.845571108107711
 20
-2199.4114898246039
 30
0.0
 11
16.345571108107709
 21
-2199.4114898246039
 31
0.0
  0
LINE
  5
8AA1
  8
01
 10
16.345571108107709
 20
-2199.4114898246039
 30
0.0
 11
16.345571108107709
 21
-2207.311489824604
 31
0.0
  0
LINE
  5
8AA2
  8
01
 10
15.845571108107711
 20
-2199.4114898246039
 30
0.0
 11
15.845571108107711
 21
-2207.311489824604
 31
0.0
  0
LINE
  5
8AA3
  8
01
 10
15.845571108107711
 20
-2207.311489824604
 30
0.0
 11
16.345571108107709
 21
-2207.311489824604
 31
0.0
  0
ARC
  5
8AA5
  8
01
 10
14.04557110810776
 20
-2203.3614898246042
 30
0.0
 40
4.0
 50
305.09963219541288
 51
54.900367804587098
  0
TEXT
  5
8CDA
  8
1HATCH
 10
-31.971553170282061
 20
-2181.6375504238681
 30
0.0
 40
3.5
  1
クリアバンポン
  0
SOLID
  5
8CDB
  8
1HATCH
 10
14.02233568883511
 20
-2199.6753259925831
 30
0.0
 11
15.07048589459577
 21
-2201.410979257862
 31
0.0
 12
13.51607788419102
 22
-2200.1090856952769
 32
0.0
 13
13.51607788419102
 23
-2200.1090856952769
 33
0.0
  0
LINE
  5
8CDD
  8
1DIM
 10
-140.90442889188739
 20
-2120.8120778821399
 30
0.0
 11
-140.90442889188739
 21
-2150.8120778821399
 31
0.0
  0
LINE
  5
8CDE
  8
1DIM
 10
-110.9044288918888
 20
-2129.8120778821399
 30
0.0
 11
-110.9044288918888
 21
-2150.8120778821399
 31
0.0
  0
LINE
  5
8CDF
  8
1DIM
 10
-138.90442889188739
 20
-2149.8120778821399
 30
0.0
 11
-112.9044288918888
 21
-2149.8120778821399
 31
0.0
  0
LINE
  5
8CE3
  8
1DIM
 10
-230.90442889188881
 20
-2120.812077882139
 30
0.0
 11
-230.90442889188881
 21
-2150.8120778821399
 31
0.0
  0
LINE
  5
8CE4
  8
1DIM
 10
-140.90442889188739
 20
-2120.8120778821399
 30
0.0
 11
-140.90442889188739
 21
-2150.8120778821399
 31
0.0
  0
LINE
  5
8CE5
  8
1DIM
 10
-228.90442889188881
 20
-2149.8120778821399
 30
0.0
 11
-142.90442889188739
 21
-2149.8120778821399
 31
0.0
  0
LINE
  5
8CE9
  8
1DIM
 10
-320.90442889188989
 20
-2120.812077882139
 30
0.0
 11
-320.90442889188989
 21
-2150.8120778821399
 31
0.0
  0
LINE
  5
8CEA
  8
1DIM
 10
-230.90442889188881
 20
-2120.812077882139
 30
0.0
 11
-230.90442889188881
 21
-2150.8120778821399
 31
0.0
  0
LINE
  5
8CEB
  8
1DIM
 10
-318.90442889188989
 20
-2149.8120778821399
 30
0.0
 11
-232.90442889188881
 21
-2149.8120778821399
 31
0.0
  0
LINE
  5
8CEF
  8
1DIM
 10
-119.90442889188721
 20
-2099.812077882139
 30
0.0
 11
-89.90442889188887
 21
-2099.812077882139
 31
0.0
  0
LINE
  5
8CF0
  8
1DIM
 10
-110.9044288918888
 20
-2129.8120778821399
 30
0.0
 11
-89.90442889188887
 21
-2129.8120778821399
 31
0.0
  0
LINE
  5
8CF1
  8
1DIM
 10
-90.90442889188887
 20
-2101.812077882139
 30
0.0
 11
-90.90442889188887
 21
-2127.8120778821399
 31
0.0
  0
LINE
  5
8CF5
  8
1DIM
 10
-140.90442889188779
 20
-2085.8120778821399
 30
0.0
 11
-89.90442889188887
 21
-2085.8120778821399
 31
0.0
  0
LINE
  5
8CF6
  8
1DIM
 10
-134.59966878542849
 20
-2087.3120778821399
 30
0.0
 11
-89.90442889188887
 21
-2087.3120778821399
 31
0.0
  0
LINE
  5
8CF7
  8
1DIM
 10
-90.90442889188887
 20
-2083.812077882139
 30
0.0
 11
-90.90442889188887
 21
-2081.8120778821399
 31
0.0
  0
LINE
  5
8CF8
  8
1DIM
 10
-90.90442889188887
 20
-2089.312077882139
 30
0.0
 11
-90.90442889188887
 21
-2099.545411215473
 31
0.0
  0
LINE
  5
8CF9
  8
1DIM
 10
-90.90442889188887
 20
-2085.8120778821399
 30
0.0
 11
-90.90442889188887
 21
-2087.3120778821399
 31
0.0
  0
LINE
  5
8CFD
  8
1DIM
 10
-151.48875342920181
 20
-2105.4664632677341
 30
0.0
 11
-130.32010435457411
 21
-2094.1576924965452
 31
0.0
  0
LINE
  5
8CFE
  8
1DIM
 10
-128.5560502650219
 20
-2093.2152949322799
 30
0.0
 11
-96.159913752915713
 21
-2075.9085466180159
 31
0.0
  0
LINE
  5
8D02
  8
1DIM
 10
-81.154428891889097
 20
-2209.3614898246042
 30
0.0
 11
-81.154428891889097
 21
-2230.8614898246042
 31
0.0
  0
LINE
  5
8D03
  8
1DIM
 10
-77.654428891889097
 20
-2204.8614898246042
 30
0.0
 11
-77.654428891889097
 21
-2230.8614898246042
 31
0.0
  0
LINE
  5
8D04
  8
1DIM
 10
-75.654428891889097
 20
-2229.8614898246042
 30
0.0
 11
-73.654428891889097
 21
-2229.8614898246042
 31
0.0
  0
LINE
  5
8D05
  8
1DIM
 10
-83.154428891889097
 20
-2229.8614898246042
 30
0.0
 11
-95.304428891888875
 21
-2229.8614898246042
 31
0.0
  0
LINE
  5
8D06
  8
1DIM
 10
-77.654428891889097
 20
-2229.8614898246042
 30
0.0
 11
-81.154428891889097
 21
-2229.8614898246042
 31
0.0
  0
LINE
  5
8D0A
  8
1DIM
 10
-110.9044288918888
 20
-2209.8614898246042
 30
0.0
 11
-89.904428891888884
 21
-2209.8614898246042
 31
0.0
  0
LINE
  5
8D0B
  8
1DIM
 10
-110.9044288918888
 20
-2164.3614898246042
 30
0.0
 11
-89.904428891888884
 21
-2164.3614898246042
 31
0.0
  0
LINE
  5
8D0C
  8
1DIM
 10
-90.904428891888884
 20
-2207.8614898246042
 30
0.0
 11
-90.904428891888884
 21
-2166.3614898246042
 31
0.0
  0
LINE
  5
8D10
  8
1DIM
 10
-77.654428891889097
 20
-2204.8614898246042
 30
0.0
 11
-77.654428891889097
 21
-2230.8614898246042
 31
0.0
  0
LINE
  5
8D11
  8
1DIM
 10
6.3455711081074853
 20
-2200.8614898246042
 30
0.0
 11
6.3455711081074826
 21
-2230.8614898246042
 31
0.0
  0
LINE
  5
8D12
  8
1DIM
 10
-75.654428891889097
 20
-2229.8614898246042
 30
0.0
 11
4.3455711081074826
 21
-2229.8614898246042
 31
0.0
  0
LINE
  5
8D16
  8
1DIM
 10
-81.154428891889097
 20
-2209.3614898246042
 30
0.0
 11
-81.154428891889097
 21
-2240.8614898246051
 31
0.0
  0
LINE
  5
8D17
  8
1DIM
 10
18.045571108107762
 20
-2203.3614898246042
 30
0.0
 11
18.045571108107762
 21
-2240.8614898246051
 31
0.0
  0
LINE
  5
8D18
  8
1DIM
 10
-79.154428891889097
 20
-2239.8614898246051
 30
0.0
 11
16.045571108107762
 21
-2239.8614898246051
 31
0.0
  0
LINE
  5
8D1C
  8
1DIM
 10
-350.90442889188881
 20
-2209.8614898246051
 30
0.0
 11
-350.90442889188881
 21
-2230.8614898246042
 31
0.0
  0
LINE
  5
8D1D
  8
1DIM
 10
-110.9044288918888
 20
-2209.8614898246042
 30
0.0
 11
-110.9044288918888
 21
-2230.8614898246042
 31
0.0
  0
LINE
  5
8D1E
  8
1DIM
 10
-348.90442889188881
 20
-2229.8614898246042
 30
0.0
 11
-112.9044288918888
 21
-2229.8614898246042
 31
0.0
  0
TEXT
  5
8D22
  8
1DIM
 10
-235.27942889188881
 20
-2229.1614898246048
 30
0.0
 40
3.5
  1
240
  0
LINE
  5
8D23
  8
0
  6
BYBLOCK
 10
-112.9044288918888
 20
-2229.325591444604
 30
0.0
 11
-110.9044288918888
 21
-2229.8614898246042
 31
0.0
  0
LINE
  5
8D24
  8
0
  6
BYBLOCK
 10
-110.9044288918888
 20
-2229.8614898246042
 30
0.0
 11
-112.9044288918888
 21
-2230.3973882046039
 31
0.0
  0
LINE
  5
8D25
  8
0
  6
BYBLOCK
 10
-110.9044288918888
 20
-2229.8614898246042
 30
0.0
 11
-112.9044288918888
 21
-2229.8614898246042
 31
0.0
  0
LINE
  5
8D26
  8
0
  6
BYBLOCK
 10
-348.90442889188881
 20
-2230.3973882046039
 30
0.0
 11
-350.90442889188881
 21
-2229.8614898246042
 31
0.0
  0
LINE
  5
8D27
  8
0
  6
BYBLOCK
 10
-350.90442889188881
 20
-2229.8614898246042
 30
0.0
 11
-348.90442889188881
 21
-2229.325591444604
 31
0.0
  0
LINE
  5
8D28
  8
0
  6
BYBLOCK
 10
-350.90442889188881
 20
-2229.8614898246042
 30
0.0
 11
-348.90442889188881
 21
-2229.8614898246042
 31
0.0
  0
TEXT
  5
8D29
  8
1DIM
 10
-34.47109555855733
 20
-2239.1614898246048
 30
0.0
 40
3.5
  1
99
  0
LINE
  5
8D2A
  8
0
  6
BYBLOCK
 10
16.045571108107762
 20
-2239.325591444604
 30
0.0
 11
18.045571108107762
 21
-2239.8614898246051
 31
0.0
  0
LINE
  5
8D2B
  8
0
  6
BYBLOCK
 10
18.045571108107762
 20
-2239.8614898246051
 30
0.0
 11
16.045571108107762
 21
-2240.3973882046048
 31
0.0
  0
LINE
  5
8D2C
  8
0
  6
BYBLOCK
 10
18.045571108107762
 20
-2239.8614898246051
 30
0.0
 11
16.045571108107762
 21
-2239.8614898246051
 31
0.0
  0
LINE
  5
8D2D
  8
0
  6
BYBLOCK
 10
-79.154428891889097
 20
-2240.3973882046048
 30
0.0
 11
-81.154428891889097
 21
-2239.8614898246051
 31
0.0
  0
LINE
  5
8D2E
  8
0
  6
BYBLOCK
 10
-81.154428891889097
 20
-2239.8614898246051
 30
0.0
 11
-79.154428891889097
 21
-2239.325591444604
 31
0.0
  0
LINE
  5
8D2F
  8
0
  6
BYBLOCK
 10
-81.154428891889097
 20
-2239.8614898246051
 30
0.0
 11
-79.154428891889097
 21
-2239.8614898246051
 31
0.0
  0
TEXT
  5
8D30
  8
1DIM
 10
-38.571095558557481
 20
-2229.1614898246048
 30
0.0
 40
3.5
  1
84
  0
LINE
  5
8D31
  8
0
  6
BYBLOCK
 10
4.3455711081074826
 20
-2229.325591444604
 30
0.0
 11
6.3455711081074826
 21
-2229.8614898246042
 31
0.0
  0
LINE
  5
8D32
  8
0
  6
BYBLOCK
 10
6.3455711081074826
 20
-2229.8614898246042
 30
0.0
 11
4.3455711081074826
 21
-2230.3973882046039
 31
0.0
  0
LINE
  5
8D33
  8
0
  6
BYBLOCK
 10
6.3455711081074826
 20
-2229.8614898246042
 30
0.0
 11
4.3455711081074826
 21
-2229.8614898246042
 31
0.0
  0
LINE
  5
8D34
  8
0
  6
BYBLOCK
 10
-75.654428891889097
 20
-2230.3973882046039
 30
0.0
 11
-77.654428891889097
 21
-2229.8614898246042
 31
0.0
  0
LINE
  5
8D35
  8
0
  6
BYBLOCK
 10
-77.654428891889097
 20
-2229.8614898246042
 30
0.0
 11
-75.654428891889097
 21
-2229.325591444604
 31
0.0
  0
LINE
  5
8D36
  8
0
  6
BYBLOCK
 10
-77.654428891889097
 20
-2229.8614898246042
 30
0.0
 11
-75.654428891889097
 21
-2229.8614898246042
 31
0.0
  0
TEXT
  5
8D37
  8
1DIM
 10
-91.604428891888531
 20
-2192.3614898246042
 30
0.0
 40
3.5
  1
45.5
 50
90.0
  0
LINE
  5
8D38
  8
0
  6
BYBLOCK
 10
-91.44032727188889
 20
-2166.3614898246042
 30
0.0
 11
-90.904428891888884
 21
-2164.3614898246042
 31
0.0
  0
LINE
  5
8D39
  8
0
  6
BYBLOCK
 10
-90.904428891888884
 20
-2164.3614898246042
 30
0.0
 11
-90.368530511888878
 21
-2166.3614898246042
 31
0.0
  0
LINE
  5
8D3A
  8
0
  6
BYBLOCK
 10
-90.904428891888884
 20
-2164.3614898246042
 30
0.0
 11
-90.904428891888884
 21
-2166.3614898246042
 31
0.0
  0
LINE
  5
8D3B
  8
0
  6
BYBLOCK
 10
-90.368530511888906
 20
-2207.8614898246042
 30
0.0
 11
-90.904428891888898
 21
-2209.8614898246042
 31
0.0
  0
LINE
  5
8D3C
  8
0
  6
BYBLOCK
 10
-90.904428891888898
 20
-2209.8614898246042
 30
0.0
 11
-91.440327271888904
 21
-2207.8614898246042
 31
0.0
  0
LINE
  5
8D3D
  8
0
  6
BYBLOCK
 10
-90.904428891888898
 20
-2209.8614898246042
 30
0.0
 11
-90.904428891888898
 21
-2207.8614898246042
 31
0.0
  0
TEXT
  5
8D3E
  8
1DIM
 10
-94.437762225222201
 20
-2229.1614898246048
 30
0.0
 40
3.5
  1
3.5
  0
LINE
  5
8D3F
  8
0
  6
BYBLOCK
 10
-83.154428891889097
 20
-2229.325591444604
 30
0.0
 11
-81.154428891889097
 21
-2229.8614898246042
 31
0.0
  0
LINE
  5
8D40
  8
0
  6
BYBLOCK
 10
-81.154428891889097
 20
-2229.8614898246042
 30
0.0
 11
-83.154428891889097
 21
-2230.3973882046039
 31
0.0
  0
LINE
  5
8D41
  8
0
  6
BYBLOCK
 10
-81.154428891889097
 20
-2229.8614898246042
 30
0.0
 11
-83.154428891889097
 21
-2229.8614898246042
 31
0.0
  0
LINE
  5
8D42
  8
0
  6
BYBLOCK
 10
-75.654428891889097
 20
-2230.3973882046039
 30
0.0
 11
-77.654428891889097
 21
-2229.8614898246042
 31
0.0
  0
LINE
  5
8D43
  8
0
  6
BYBLOCK
 10
-77.654428891889097
 20
-2229.8614898246042
 30
0.0
 11
-75.654428891889097
 21
-2229.325591444604
 31
0.0
  0
LINE
  5
8D44
  8
0
  6
BYBLOCK
 10
-77.654428891889097
 20
-2229.8614898246042
 30
0.0
 11
-75.654428891889097
 21
-2229.8614898246042
 31
0.0
  0
TEXT
  5
8D45
  8
1DIM
 10
-105.1189174884686
 20
-2079.9010224385402
 30
0.0
 40
3.5
  1
\U+00D828
 50
28.11214024855953
  0
LINE
  5
8D46
  8
0
  6
BYBLOCK
 10
-130.57261901857709
 20
-2093.6850156321339
 30
0.0
 11
-128.5560502650219
 21
-2093.2152949322799
 31
0.0
  0
LINE
  5
8D47
  8
0
  6
BYBLOCK
 10
-128.5560502650219
 20
-2093.2152949322799
 30
0.0
 11
-130.0675896905712
 21
-2094.630369360957
 31
0.0
  0
LINE
  5
8D48
  8
0
  6
BYBLOCK
 10
-128.5560502650219
 20
-2093.2152949322799
 30
0.0
 11
-130.32010435457411
 21
-2094.1576924965452
 31
0.0
  0
LINE
  5
8D49
  8
0
  6
BYBLOCK
 10
-151.23623876519881
 20
-2105.9391401321459
 30
0.0
 11
-153.252807518754
 21
-2106.4088608319998
 31
0.0
  0
LINE
  5
8D4A
  8
0
  6
BYBLOCK
 10
-153.252807518754
 20
-2106.4088608319998
 30
0.0
 11
-151.7412680932047
 21
-2104.9937864033218
 31
0.0
  0
LINE
  5
8D4B
  8
0
  6
BYBLOCK
 10
-153.252807518754
 20
-2106.4088608319998
 30
0.0
 11
-151.48875342920169
 21
-2105.4664632677341
 31
0.0
  0
TEXT
  5
8D4C
  8
1DIM
 10
-91.604428891888531
 20
-2098.3454112154732
 30
0.0
 40
3.5
  1
1.5
 50
90.0
  0
LINE
  5
8D4D
  8
0
  6
BYBLOCK
 10
-91.440327271888876
 20
-2089.312077882139
 30
0.0
 11
-90.90442889188887
 21
-2087.3120778821399
 31
0.0
  0
LINE
  5
8D4E
  8
0
  6
BYBLOCK
 10
-90.90442889188887
 20
-2087.3120778821399
 30
0.0
 11
-90.368530511888864
 21
-2089.312077882139
 31
0.0
  0
LINE
  5
8D4F
  8
0
  6
BYBLOCK
 10
-90.90442889188887
 20
-2087.3120778821399
 30
0.0
 11
-90.90442889188887
 21
-2089.312077882139
 31
0.0
  0
LINE
  5
8D50
  8
0
  6
BYBLOCK
 10
-90.368530511888864
 20
-2083.812077882139
 30
0.0
 11
-90.90442889188887
 21
-2085.8120778821399
 31
0.0
  0
LINE
  5
8D51
  8
0
  6
BYBLOCK
 10
-90.90442889188887
 20
-2085.8120778821399
 30
0.0
 11
-91.440327271888876
 21
-2083.812077882139
 31
0.0
  0
LINE
  5
8D52
  8
0
  6
BYBLOCK
 10
-90.90442889188887
 20
-2085.8120778821399
 30
0.0
 11
-90.90442889188887
 21
-2083.812077882139
 31
0.0
  0
TEXT
  5
8D53
  8
1DIM
 10
-91.604428891888531
 20
-2117.4370778821399
 30
0.0
 40
3.5
  1
30
 50
90.0
  0
LINE
  5
8D54
  8
0
  6
BYBLOCK
 10
-90.368530511888864
 20
-2127.8120778821399
 30
0.0
 11
-90.90442889188887
 21
-2129.8120778821399
 31
0.0
  0
LINE
  5
8D55
  8
0
  6
BYBLOCK
 10
-90.90442889188887
 20
-2129.8120778821399
 30
0.0
 11
-91.440327271888876
 21
-2127.8120778821399
 31
0.0
  0
LINE
  5
8D56
  8
0
  6
BYBLOCK
 10
-90.90442889188887
 20
-2129.8120778821399
 30
0.0
 11
-90.90442889188887
 21
-2127.8120778821399
 31
0.0
  0
LINE
  5
8D57
  8
0
  6
BYBLOCK
 10
-91.440327271888876
 20
-2101.812077882139
 30
0.0
 11
-90.90442889188887
 21
-2099.812077882139
 31
0.0
  0
LINE
  5
8D58
  8
0
  6
BYBLOCK
 10
-90.90442889188887
 20
-2099.812077882139
 30
0.0
 11
-90.368530511888864
 21
-2101.812077882139
 31
0.0
  0
LINE
  5
8D59
  8
0
  6
BYBLOCK
 10
-90.90442889188887
 20
-2099.812077882139
 30
0.0
 11
-90.90442889188887
 21
-2101.812077882139
 31
0.0
  0
TEXT
  5
8D5A
  8
1DIM
 10
-278.52942889188932
 20
-2149.1120778821401
 30
0.0
 40
3.5
  1
90
  0
LINE
  5
8D5B
  8
0
  6
BYBLOCK
 10
-232.90442889188881
 20
-2149.2761795021388
 30
0.0
 11
-230.90442889188881
 21
-2149.8120778821399
 31
0.0
  0
LINE
  5
8D5C
  8
0
  6
BYBLOCK
 10
-230.90442889188881
 20
-2149.8120778821399
 30
0.0
 11
-232.90442889188881
 21
-2150.34797626214
 31
0.0
  0
LINE
  5
8D5D
  8
0
  6
BYBLOCK
 10
-230.90442889188881
 20
-2149.8120778821399
 30
0.0
 11
-232.90442889188881
 21
-2149.8120778821399
 31
0.0
  0
LINE
  5
8D5E
  8
0
  6
BYBLOCK
 10
-318.90442889188989
 20
-2150.34797626214
 30
0.0
 11
-320.90442889188989
 21
-2149.8120778821399
 31
0.0
  0
LINE
  5
8D5F
  8
0
  6
BYBLOCK
 10
-320.90442889188989
 20
-2149.8120778821399
 30
0.0
 11
-318.90442889188989
 21
-2149.2761795021388
 31
0.0
  0
LINE
  5
8D60
  8
0
  6
BYBLOCK
 10
-320.90442889188989
 20
-2149.8120778821399
 30
0.0
 11
-318.90442889188989
 21
-2149.8120778821399
 31
0.0
  0
TEXT
  5
8D61
  8
1DIM
 10
-188.5294288918881
 20
-2149.1120778821401
 30
0.0
 40
3.5
  1
90
  0
LINE
  5
8D62
  8
0
  6
BYBLOCK
 10
-142.90442889188739
 20
-2149.2761795021388
 30
0.0
 11
-140.90442889188739
 21
-2149.8120778821399
 31
0.0
  0
LINE
  5
8D63
  8
0
  6
BYBLOCK
 10
-140.90442889188739
 20
-2149.8120778821399
 30
0.0
 11
-142.90442889188739
 21
-2150.34797626214
 31
0.0
  0
LINE
  5
8D64
  8
0
  6
BYBLOCK
 10
-140.90442889188739
 20
-2149.8120778821399
 30
0.0
 11
-142.90442889188739
 21
-2149.8120778821399
 31
0.0
  0
LINE
  5
8D65
  8
0
  6
BYBLOCK
 10
-228.90442889188881
 20
-2150.34797626214
 30
0.0
 11
-230.90442889188881
 21
-2149.8120778821399
 31
0.0
  0
LINE
  5
8D66
  8
0
  6
BYBLOCK
 10
-230.90442889188881
 20
-2149.8120778821399
 30
0.0
 11
-228.90442889188881
 21
-2149.2761795021388
 31
0.0
  0
LINE
  5
8D67
  8
0
  6
BYBLOCK
 10
-230.90442889188881
 20
-2149.8120778821399
 30
0.0
 11
-228.90442889188881
 21
-2149.8120778821399
 31
0.0
  0
TEXT
  5
8D68
  8
1DIM
 10
-128.5294288918881
 20
-2149.1120778821401
 30
0.0
 40
3.5
  1
30
  0
LINE
  5
8D69
  8
0
  6
BYBLOCK
 10
-112.9044288918888
 20
-2149.2761795021388
 30
0.0
 11
-110.9044288918888
 21
-2149.8120778821399
 31
0.0
  0
LINE
  5
8D6A
  8
0
  6
BYBLOCK
 10
-110.9044288918888
 20
-2149.8120778821399
 30
0.0
 11
-112.9044288918888
 21
-2150.34797626214
 31
0.0
  0
LINE
  5
8D6B
  8
0
  6
BYBLOCK
 10
-110.9044288918888
 20
-2149.8120778821399
 30
0.0
 11
-112.9044288918888
 21
-2149.8120778821399
 31
0.0
  0
LINE
  5
8D6C
  8
0
  6
BYBLOCK
 10
-138.90442889188739
 20
-2150.34797626214
 30
0.0
 11
-140.90442889188739
 21
-2149.8120778821399
 31
0.0
  0
LINE
  5
8D6D
  8
0
  6
BYBLOCK
 10
-140.90442889188739
 20
-2149.8120778821399
 30
0.0
 11
-138.90442889188739
 21
-2149.2761795021388
 31
0.0
  0
LINE
  5
8D6E
  8
0
  6
BYBLOCK
 10
-140.90442889188739
 20
-2149.8120778821399
 30
0.0
 11
-138.90442889188739
 21
-2149.8120778821399
 31
0.0
  0
LINE
  5
8D6F
  8
1HATCH
 10
13.76920678651307
 20
-2199.8922058439298
 30
0.0
 11
-1.271553170282238
 21
-2182.3375504238679
 31
0.0
  0
LINE
  5
8D70
  8
1HATCH
 10
-1.271553170282238
 20
-2182.3375504238679
 30
0.0
 11
-36.638219836948913
 21
-2182.3375504238679
 31
0.0
  0
VIEWPORT
  5
57
 67
     1
  8
0
 10
-12.724804992755111
 20
14.18057439074232
 30
0.0
 40
411.02857174679178
 41
291.0229083885767
 68
     1
 69
     1
1001
ACAD
1000
MVIEW
1002
{
1070
    16
1010
0.0
1020
0.0
1030
0.0
1010
0.0
1020
0.0
1030
1.0
1040
0.0
1040
291.0229083885767
1040
-12.724804992755111
1040
14.18057439074232
1040
50.0
1040
0.0
1040
0.0
1070
     0
1070
   100
1070
     1
1070
     1
1070
     0
1070
     0
1070
     0
1070
     0
1040
0.0
1040
0.0
1040
0.0
1040
10.0
1040
10.0
1040
10.0
1040
10.0
1070
     0
1002
{
1002
}
1002
}
  0
ENDSEC
  0
EOF
