  0
SECTION
  2
HEADER
  9
$ACADVER
  1
AC1009
  9
$INSBASE
 10
0.0
 20
0.0
 30
0.0
  9
$EXTMIN
 10
-284.33152221185469
 20
-2230.1114898246051
 30
0.0
  9
$EXTMAX
 10
56.013797869324542
 20
-2039.1615088246051
 30
0.0
  9
$LIMMIN
 10
0.0
 20
0.0
  9
$LIMMAX
 10
420.0
 20
297.0
  9
$ORTHOMODE
 70
     0
  9
$REGENMODE
 70
     1
  9
$FILLMODE
 70
     1
  9
$QTEXTMODE
 70
     0
  9
$MIRRTEXT
 70
     1
  9
$DRAGMODE
 70
     2
  9
$LTSCALE
 40
0.5
  9
$OSMODE
 70
  2175
  9
$ATTMODE
 70
     1
  9
$TEXTSIZE
 40
4.0
  9
$TRACEWID
 40
1.0
  9
$TEXTSTYLE
  7
STANDARD
  9
$CLAYER
  8
1TEXT
  9
$CELTYPE
  6
BYLAYER
  9
$CECOLOR
 62
   256
  9
$DIMSCALE
 40
1.0
  9
$DIMASZ
 40
2.0
  9
$DIMEXO
 40
0.0
  9
$DIMDLI
 40
7.0
  9
$DIMRND
 40
0.0
  9
$DIMDLE
 40
0.0
  9
$DIMEXE
 40
1.0
  9
$DIMTP
 40
0.0
  9
$DIMTM
 40
0.0
  9
$DIMTXT
 40
3.5
  9
$DIMCEN
 40
0.0
  9
$DIMTSZ
 40
0.0
  9
$DIMTOL
 70
     0
  9
$DIMLIM
 70
     0
  9
$DIMTIH
 70
     0
  9
$DIMTOH
 70
     0
  9
$DIMSE1
 70
     0
  9
$DIMSE2
 70
     0
  9
$DIMTAD
 70
     1
  9
$DIMZIN
 70
     8
  9
$DIMBLK
  1

  9
$DIMASO
 70
     1
  9
$DIMSHO
 70
     1
  9
$DIMPOST
  1
 
  9
$DIMAPOST
  1

  9
$DIMALT
 70
     0
  9
$DIMALTD
 70
     2
  9
$DIMALTF
 40
25.399999999999999
  9
$DIMLFAC
 40
1.0
  9
$DIMTOFL
 70
     1
  9
$DIMTVP
 40
0.0
  9
$DIMTIX
 70
     0
  9
$DIMSOXD
 70
     0
  9
$DIMSAH
 70
     1
  9
$DIMBLK1
  1
OPEN30
  9
$DIMBLK2
  1
OPEN30
  9
$DIMSTYLE
  2
NEWX10
  9
$DIMCLRD
 70
   256
  9
$DIMCLRE
 70
   256
  9
$DIMCLRT
 70
   201
  9
$DIMTFAC
 40
0.7
  9
$DIMGAP
 40
0.7
  9
$LUNITS
 70
     2
  9
$LUPREC
 70
     4
  9
$SKETCHINC
 40
1.0
  9
$FILLETRAD
 40
0.0
  9
$AUNITS
 70
     0
  9
$AUPREC
 70
     2
  9
$MENU
  1
acad
  9
$ELEVATION
 40
0.0
  9
$PELEVATION
 40
0.0
  9
$THICKNESS
 40
0.0
  9
$LIMCHECK
 70
     0
  9
$BLIPMODE
 70
     0
  9
$CHAMFERA
 40
10.0
  9
$CHAMFERB
 40
10.0
  9
$SKPOLY
 70
     0
  9
$TDCREATE
 40
2453033.7326634838
  9
$TDUPDATE
 40
2455044.6830345718
  9
$TDINDWG
 40
0.2501846412
  9
$TDUSRTIMER
 40
0.2501846412
  9
$USRTIMER
 70
     1
  9
$ANGBASE
 50
0.0
  9
$ANGDIR
 70
     0
  9
$PDMODE
 70
     0
  9
$PDSIZE
 40
0.0
  9
$PLINEWID
 40
0.0
  9
$COORDS
 70
     2
  9
$SPLFRAME
 70
     0
  9
$SPLINETYPE
 70
     6
  9
$SPLINESEGS
 70
     8
  9
$ATTDIA
 70
     0
  9
$ATTREQ
 70
     1
  9
$HANDLING
 70
     1
  9
$HANDSEED
  5
9912
  9
$SURFTAB1
 70
     6
  9
$SURFTAB2
 70
     6
  9
$SURFTYPE
 70
     6
  9
$SURFU
 70
     6
  9
$SURFV
 70
     6
  9
$UCSNAME
  2

  9
$UCSORG
 10
0.0
 20
0.0
 30
0.0
  9
$UCSXDIR
 10
1.0
 20
0.0
 30
0.0
  9
$UCSYDIR
 10
0.0
 20
1.0
 30
0.0
  9
$PUCSNAME
  2

  9
$PUCSORG
 10
0.0
 20
0.0
 30
0.0
  9
$PUCSXDIR
 10
1.0
 20
0.0
 30
0.0
  9
$PUCSYDIR
 10
0.0
 20
1.0
 30
0.0
  9
$USERI1
 70
     0
  9
$USERI2
 70
     0
  9
$USERI3
 70
     0
  9
$USERI4
 70
     0
  9
$USERI5
 70
     0
  9
$USERR1
 40
0.0
  9
$USERR2
 40
0.0
  9
$USERR3
 40
0.0
  9
$USERR4
 40
0.0
  9
$USERR5
 40
0.0
  9
$WORLDVIEW
 70
     1
  9
$SHADEDGE
 70
     3
  9
$SHADEDIF
 70
    70
  9
$TILEMODE
 70
     1
  9
$MAXACTVP
 70
    48
  9
$PLIMCHECK
 70
     0
  9
$PEXTMIN
 10
1.0000000000000000E+020
 20
1.0000000000000000E+020
 30
1.0000000000000000E+020
  9
$PEXTMAX
 10
-1.0000000000000000E+020
 20
-1.0000000000000000E+020
 30
-1.0000000000000000E+020
  9
$PLIMMIN
 10
0.0
 20
0.0
  9
$PLIMMAX
 10
420.0
 20
297.0
  9
$UNITMODE
 70
     0
  9
$VISRETAIN
 70
     1
  9
$PLINEGEN
 70
     0
  9
$PSLTSCALE
 70
     1
  0
ENDSEC
  0
SECTION
  2
TABLES
  0
TABLE
  2
VPORT
 70
     1
  0
VPORT
  2
*ACTIVE
 70
     0
 10
0.0
 20
0.0
 11
1.0
 21
1.0
 12
-114.1435047317752
 22
-2134.654568597362
 13
0.0
 23
0.0
 14
10.0
 24
10.0
 15
10.0
 25
10.0
 16
0.0
 26
0.0
 36
1.0
 17
0.0
 27
0.0
 37
0.0
 40
255.07202533598829
 41
1.4123581336696089
 42
50.0
 43
0.0
 44
0.0
 50
0.0
 51
0.0
 71
     0
 72
   100
 73
     1
 74
     1
 75
     0
 76
     0
 77
     0
 78
     0
  0
ENDTAB
  0
TABLE
  2
LTYPE
 70
    14
  0
LTYPE
  2
CONTINUOUS
 70
     0
  3
Solid line
 72
    65
 73
     0
 40
0.0
  0
LTYPE
  2
XREF1|CENTER2
 70
    48
  3
Center (.5x) ___ _ ___ _ ___ _ ___ _ ___ _ ___
 72
    65
 73
     4
 40
28.574999999999999
 49
19.050000000000001
 49
-3.1749999999999989
 49
3.1749999999999989
 49
-3.1749999999999989
  0
LTYPE
  2
PHANTOM2
 70
     0
  3
Phantom (.5x) ___ _ _ ___ _ _ ___ _ _ ___ _ _
 72
    65
 73
     6
 40
31.75
 49
15.875
 49
-3.1749999999999989
 49
3.1749999999999989
 49
-3.1749999999999989
 49
3.1749999999999989
 49
-3.1749999999999989
  0
LTYPE
  2
A3WAKUDAKE|CENTER2
 70
    48
  3
Center (.5x) ___ _ ___ _ ___ _ ___ _ ___ _ ___
 72
    65
 73
     4
 40
28.574999999999999
 49
19.050000000000001
 49
-3.1749999999999989
 49
3.1749999999999989
 49
-3.1749999999999989
  0
ENDTAB
  0
TABLE
  2
LAYER
 70
    43
  0
LAYER
  2
0
 70
     0
 62
     7
  6
CONTINUOUS
  0
LAYER
  2
1TEXT
 70
     0
 62
     7
  6
CONTINUOUS
  0
LAYER
  2
1DIM
 70
     0
 62
     7
  6
CONTINUOUS
  0
LAYER
  2
1PHANTOM
 70
     0
 62
     7
  6
PHANTOM2
  0
LAYER
  2
01
 70
     0
 62
     1
  6
CONTINUOUS
  0
LAYER
  2
1HATCH
 70
     0
 62
     7
  6
CONTINUOUS
  0
LAYER
  2
XREF1|1CENTER
 70
    48
 62
     7
  6
XREF1|CENTER2
  0
LAYER
  2
A3WAKUDAKE|THICK
 70
    48
 62
     7
  6
CONTINUOUS
  0
LAYER
  2
A3WAKUDAKE|POINT
 70
    48
 62
     7
  6
CONTINUOUS
  0
LAYER
  2
A3WAKUDAKE|1CENTER
 70
    48
 62
     7
  6
A3WAKUDAKE|CENTER2
  0
LAYER
  2
A3WAKUDAKE|0-6
 70
    48
 62
     7
  6
CONTINUOUS
  0
LAYER
  2
A3WAKUDAKE|1DIM
 70
    48
 62
     7
  6
CONTINUOUS
  0
ENDTAB
  0
TABLE
  2
STYLE
 70
    22
  0
STYLE
  2
STANDARD
 70
     0
 40
0.0
 41
1.0
 50
0.0
 71
     0
 42
4.0
  3
txt.shx
  4
extfont.shx
  0
ENDTAB
  0
TABLE
  2
VIEW
 70
     0
  0
ENDTAB
  0
TABLE
  2
UCS
 70
     0
  0
ENDTAB
  0
TABLE
  2
APPID
 70
    11
  0
APPID
  2
ACAD
 70
     0
  0
APPID
  2
DRAWINGVARIABLESXDATA
 70
     0
  0
APPID
  2
CONTENTTABDATA
 70
     0
  0
APPID
  2
CONTENTCURRENTTAB
 70
     0
  0
APPID
  2
CONTENTBLOCKDESCRIPTION
 70
     0
  0
APPID
  2
CONTENTBLOCKICON
 70
     0
  0
APPID
  2
CONTENTLONGBLOCKNAME
 70
     0
  0
APPID
  2
ACAD_PSEXT
 70
     0
  0
APPID
  2
ACAD_DSTYLE_DIMTEXT_FILL
 70
     0
  0
APPID
  2
ACAD_MLEADERVER
 70
     0
  0
APPID
  2
ACAD_DSTYLE_DIMRADIAL_EXTENSION
 70
     0
  0
ENDTAB
  0
TABLE
  2
DIMSTYLE
 70
     9
  0
DIMSTYLE
  2
NEWX10
 70
     0
  3
 
  4

  5

  6
OPEN30
  7
OPEN30
 40
1.0
 41
2.0
 42
0.0
 43
7.0
 44
1.0
 45
0.0
 46
0.0
 47
0.0
 48
0.0
140
3.5
141
0.0
142
0.0
143
25.399999999999999
144
1.0
145
0.0
146
0.7
147
0.7
 71
     0
 72
     0
 73
     0
 74
     0
 75
     0
 76
     0
 77
     1
 78
     8
170
     0
171
     2
172
     1
173
     1
174
     0
175
     0
176
   256
177
   256
178
   201
  0
ENDTAB
  0
ENDSEC
  0
SECTION
  2
BLOCKS
  0
BLOCK
  8
0
  2
$MODEL_SPACE
 70
     0
 10
0.0
 20
0.0
 30
0.0
  3
$MODEL_SPACE
  1

  0
ENDBLK
  5
1A
  8
0
  0
BLOCK
 67
     1
  8
0
  2
$PAPER_SPACE
 70
     0
 10
0.0
 20
0.0
 30
0.0
  3
$PAPER_SPACE
  1

  0
ENDBLK
  5
17
 67
     1
  8
0
  0
BLOCK
  8
0
  2
_OPEN30
 70
     0
 10
0.0
 20
0.0
 30
0.0
  3
_OPEN30
  1

  0
LINE
  5
44
  8
0
  6
BYBLOCK
 62
     0
 10
-1.0
 20
0.26794919
 30
0.0
 11
0.0
 21
0.0
 31
0.0
  0
LINE
  5
45
  8
0
  6
BYBLOCK
 62
     0
 10
0.0
 20
0.0
 30
0.0
 11
-1.0
 21
-0.26794919
 31
0.0
  0
LINE
  5
46
  8
0
  6
BYBLOCK
 62
     0
 10
0.0
 20
0.0
 30
0.0
 11
-1.0
 21
0.0
 31
0.0
  0
ENDBLK
  5
47
  8
0
  0
BLOCK
  8
0
  2
XREF1
 70
    36
 10
0.0
 20
0.0
 30
0.0
  3
XREF1
  1
D:\ACLT\FORMAT\KAWAJUN(9)図面用.dwg
  0
ENDBLK
  5
5D
  8
0
  0
BLOCK
  8
0
  2
A3WAKUDAKE
 70
    36
 10
0.0
 20
0.0
 30
0.0
  3
A3WAKUDAKE
  1
D:\ACLT\FORMAT\A3WAKUdake.dwg
  0
ENDBLK
  5
6DC
  8
0
  0
BLOCK
  8
0
  2
*U179
 70
     1
 10
0.0
 20
0.0
 30
0.0
  3
*U179
  1

  0
TEXT
  5
9657
  8
0
 62
   201
 10
-63.717024855154051
 20
-3.8109119089904788
 30
0.0
 40
3.5
  1
φ5
 50
48.83031736650419
  0
ENDBLK
  5
9659
  8
0
  0
BLOCK
  8
0
  2
*U180
 70
     1
 10
0.0
 20
0.0
 30
0.0
  3
*U180
  1

  0
TEXT
  5
965B
  8
1TEXT
 62
   201
 10
21.614708555164611
 20
22.401236958861659
 30
0.0
 40
2.0
  1
二文字
  0
TEXT
  5
965C
  8
1TEXT
 62
   201
 10
21.614708555164611
 20
19.067903625528331
 30
0.0
 40
2.0
  1
(別途指定)
  0
TEXT
  5
965D
  8
1TEXT
 62
   201
 10
21.614708555164611
 20
15.73457029219499
 30
0.0
 40
2.0
  1
天地 約1.8
  0
TEXT
  5
965E
  8
1TEXT
 62
   201
 10
21.614708555164611
 20
12.401236958861659
 30
0.0
 40
2.0
  1
凸0.2
  0
ENDBLK
  5
9660
  8
0
  0
BLOCK
  8
0
  2
*U181
 70
     1
 10
0.0
 20
0.0
 30
0.0
  3
*U181
  1

  0
SOLID
  5
9662
  8
1DIM
 10
17.769912945885331
 20
22.805130681268722
 30
0.0
 11
17.678379796037799
 21
23.814783819854821
 31
0.0
 12
18.0924202800296
 22
22.889392953575271
 32
0.0
 13
18.0924202800296
 23
22.889392953575271
 33
0.0
  0
POLYLINE
  5
9663
  8
1DIM
 66
     1
 10
0.0
 20
0.0
 30
0.0
  0
VERTEX
  5
9664
  8
1DIM
 10
17.931166612957469
 20
22.847261817422002
 30
0.0
  0
VERTEX
  5
9665
  8
1DIM
 10
20.91703607932029
 20
11.41907722970881
 30
0.0
  0
VERTEX
  5
9666
  8
1DIM
 10
35.143226555510758
 20
11.41907722970881
 30
0.0
  0
SEQEND
  5
9667
  8
1DIM
  0
ENDBLK
  5
9669
  8
0
  0
BLOCK
  8
0
  2
*U182
 70
     1
 10
0.0
 20
0.0
 30
0.0
  3
*U182
  1

  0
TEXT
  5
966B
  8
1DIM
 62
   201
 10
8.9421530727463576
 20
19.285028579396069
 30
0.0
 40
2.0
  1
枠
  0
TEXT
  5
966C
  8
1DIM
 62
   201
 10
7.0754864060796896
 20
15.951695246062741
 30
0.0
 40
2.0
  1
φ5
  0
TEXT
  5
966D
  8
1DIM
 62
   201
 10
4.7421530727463583
 20
12.61836191272941
 30
0.0
 40
2.0
  1
凹0.3
  0
ENDBLK
  5
966F
  8
0
  0
BLOCK
  8
0
  2
*U183
 70
     1
 10
0.0
 20
0.0
 30
0.0
  3
*U183
  1

  0
SOLID
  5
9671
  8
1DIM
 10
14.77538895849114
 20
20.894651819020488
 30
0.0
 11
15.75963814806016
 21
22.667323431007279
 31
0.0
 12
15.403512140193291
 22
20.67125595278117
 32
0.0
 13
15.403512140193291
 23
20.67125595278117
 33
0.0
  0
POLYLINE
  5
9672
  8
1DIM
 66
     1
 10
0.0
 20
0.0
 30
0.0
  0
VERTEX
  5
9673
  8
1DIM
 10
15.089450549342221
 20
20.782953885900831
 30
0.0
  0
VERTEX
  5
9674
  8
1DIM
 10
11.821762131327951
 20
11.59517937383526
 30
0.0
  0
VERTEX
  5
9675
  8
1DIM
 10
2.3789049884708091
 20
11.59517937383526
 30
0.0
  0
SEQEND
  5
9676
  8
1DIM
  0
ENDBLK
  5
9678
  8
0
  0
BLOCK
  8
0
  2
*U184
 70
     1
 10
0.0
 20
0.0
 30
0.0
  3
*U184
  1

  0
TEXT
  5
967B
  8
1TEXT
 10
14.9745471932972
 20
24.09947430071913
 30
0.0
 40
1.8
  1
XY
  0
ENDBLK
  5
967D
  8
0
  0
BLOCK
  8
0
  2
*U185
 70
     1
 10
0.0
 20
0.0
 30
0.0
  3
*U185
  1

  0
TEXT
  5
9682
  8
1DIM
 62
   201
 10
-91.604428891888531
 20
-2081.7781754912712
 30
0.0
 40
3.5
  1
56
 50
90.0
  0
ENDBLK
  5
9684
  8
0
  0
BLOCK
  8
0
  2
*U186
 70
     1
 10
0.0
 20
0.0
 30
0.0
  3
*U186
  1

  0
TEXT
  5
9686
  8
1DIM
 62
   201
 10
-91.604428891888517
 20
-2112.0281754912712
 30
0.0
 40
3.5
  1
8
 50
90.0
  0
ENDBLK
  5
9688
  8
0
  0
BLOCK
  8
0
  2
*U187
 70
     1
 10
0.0
 20
0.0
 30
0.0
  3
*U187
  1

  0
TEXT
  5
968A
  8
1DIM
 62
   201
 10
-140.32109555855541
 20
-2228.4114898246048
 30
0.0
 40
3.5
  1
53
  0
ENDBLK
  5
968C
  8
0
  0
BLOCK
  8
0
  2
*U188
 70
     1
 10
0.0
 20
0.0
 30
0.0
  3
*U188
  1

  0
TEXT
  5
968E
  8
1DIM
 62
   201
 10
-144.3210955585555
 20
-2134.1615088246049
 30
0.0
 40
3.5
  1
45
  0
ENDBLK
  5
9690
  8
0
  0
BLOCK
  8
0
  2
*U189
 70
     1
 10
0.0
 20
0.0
 30
0.0
  3
*U189
  1

  0
TEXT
  5
9692
  8
1DIM
 62
   201
 10
-116.0710955585555
 20
-2134.1615088246049
 30
0.0
 40
3.5
  1
8
  0
ENDBLK
  5
9694
  8
0
  0
BLOCK
  8
0
  2
*U190
 70
     1
 10
0.0
 20
0.0
 30
0.0
  3
*U190
  1

  0
TEXT
  5
9696
  8
1DIM
 62
   201
 10
-35.971095558556193
 20
-2228.4114898246048
 30
0.0
 40
3.5
  1
76
  0
ENDBLK
  5
9698
  8
0
  0
BLOCK
  8
0
  2
*U191
 70
     1
 10
0.0
 20
0.0
 30
0.0
  3
*U191
  1

  0
TEXT
  5
969A
  8
1DIM
 62
   201
 10
-91.604428891888517
 20
-2189.6531564912739
 30
0.0
 40
3.5
  1
24
 50
90.0
  0
ENDBLK
  5
969C
  8
0
  0
BLOCK
  8
0
  2
*U192
 70
     1
 10
0.0
 20
0.0
 30
0.0
  3
*U192
  1

  0
TEXT
  5
969E
  8
1DIM
 62
   201
 10
-81.604428891888503
 20
-2194.9031564912711
 30
0.0
 40
3.5
  1
34
 50
90.0
  0
ENDBLK
  5
96A0
  8
0
  0
BLOCK
  8
0
  2
*U193
 70
     1
 10
0.0
 20
0.0
 30
0.0
  3
*U193
  1

  0
TEXT
  5
96A2
  8
1DIM
 62
   201
 10
911.8418564197824
 20
496.98197198518858
 30
0.0
 40
3.5
  1
53
  0
ENDBLK
  5
96A4
  8
0
  0
BLOCK
  8
0
  2
*U194
 70
     1
 10
0.0
 20
0.0
 30
0.0
  3
*U194
  1

  0
TEXT
  5
96A6
  8
1DIM
 62
   201
 10
880.19309072685655
 20
453.05846838777097
 30
0.0
 40
3.5
  1
75
 50
90.0
  0
ENDBLK
  5
96A8
  8
0
  0
BLOCK
  8
0
  2
*U195
 70
     1
 10
0.0
 20
0.0
 30
0.0
  3
*U195
  1

  0
TEXT
  5
96AA
  8
1DIM
 62
   201
 10
881.68090024170158
 20
379.82938058281383
 30
0.0
 40
3.5
  1
34.25
 50
90.0
  0
ENDBLK
  5
96AC
  8
0
  0
BLOCK
  8
0
  2
*U196
 70
     1
 10
0.0
 20
0.0
 30
0.0
  3
*U196
  1

  0
TEXT
  5
96AE
  8
1DIM
 62
   201
 10
1068.3510487660069
 20
453.05846838777097
 30
0.0
 40
3.5
  1
75
 50
90.0
  0
ENDBLK
  5
96B0
  8
0
  0
BLOCK
  8
0
  2
*U197
 70
     1
 10
0.0
 20
0.0
 30
0.0
  3
*U197
  1

  0
TEXT
  5
96B2
  8
1DIM
 62
   201
 10
1066.863239251162
 20
379.82938058281383
 30
0.0
 40
3.5
  1
34.25
 50
90.0
  0
ENDBLK
  5
96B4
  8
0
  0
BLOCK
  8
0
  2
*U198
 70
     1
 10
0.0
 20
0.0
 30
0.0
  3
*U198
  1

  0
TEXT
  5
96B6
  8
1DIM
 62
   201
 10
1032.268949739748
 20
496.98197198518858
 30
0.0
 40
3.5
  1
53
  0
ENDBLK
  5
96B8
  8
0
  0
BLOCK
  8
0
  2
*U199
 70
     1
 10
0.0
 20
0.0
 30
0.0
  3
*U199
  1

  0
TEXT
  5
96BA
  8
1DIM
 62
   201
 10
143.31469816378799
 20
-2032.0771206525239
 30
0.0
 40
3.5
  1
53
  0
ENDBLK
  5
96BC
  8
0
  0
BLOCK
  8
0
  2
*U200
 70
     1
 10
0.0
 20
0.0
 30
0.0
  3
*U200
  1

  0
TEXT
  5
96BE
  8
1DIM
 62
   201
 10
111.6659324708627
 20
-2076.0006242499421
 30
0.0
 40
3.5
  1
75
 50
90.0
  0
ENDBLK
  5
96C0
  8
0
  0
BLOCK
  8
0
  2
*U201
 70
     1
 10
0.0
 20
0.0
 30
0.0
  3
*U201
  1

  0
TEXT
  5
96C2
  8
1DIM
 62
   201
 10
113.1537419857078
 20
-2149.2297120548992
 30
0.0
 40
3.5
  1
34.25
 50
90.0
  0
ENDBLK
  5
96C4
  8
0
  0
BLOCK
  8
0
  2
*U202
 70
     1
 10
0.0
 20
0.0
 30
0.0
  3
*U202
  1

  0
TEXT
  5
96C6
  8
1DIM
 62
   201
 10
263.74179148375367
 20
-2032.0771206525239
 30
0.0
 40
3.5
  1
53
  0
ENDBLK
  5
96C8
  8
0
  0
BLOCK
  8
0
  2
*U203
 70
     1
 10
0.0
 20
0.0
 30
0.0
  3
*U203
  1

  0
TEXT
  5
96CA
  8
1DIM
 62
   201
 10
299.8238905100132
 20
-2076.0006242499421
 30
0.0
 40
3.5
  1
75
 50
90.0
  0
ENDBLK
  5
96CC
  8
0
  0
BLOCK
  8
0
  2
*U204
 70
     1
 10
0.0
 20
0.0
 30
0.0
  3
*U204
  1

  0
TEXT
  5
96CE
  8
1DIM
 62
   201
 10
298.33608099516812
 20
-2149.2297120548992
 30
0.0
 40
3.5
  1
34.25
 50
90.0
  0
ENDBLK
  5
96D0
  8
0
  0
BLOCK
  8
0
  2
*U205
 70
     1
 10
0.0
 20
0.0
 30
0.0
  3
*U205
  1

  0
TEXT
  5
96D2
  8
1DIM
 62
   201
 10
127.0884474320678
 20
-2143.979712054901
 30
0.0
 40
3.5
  1
23.75
 50
90.0
  0
ENDBLK
  5
96D4
  8
0
  0
BLOCK
  8
0
  2
*U206
 70
     1
 10
0.0
 20
0.0
 30
0.0
  3
*U206
  1

  0
TEXT
  5
96D6
  8
1DIM
 62
   201
 10
377.03782795393971
 20
-2044.1196196622791
 30
0.0
 40
3.5
  1
10.5
  0
ENDBLK
  5
96D8
  8
0
  0
BLOCK
  8
0
  2
*U207
 70
     1
 10
0.0
 20
0.0
 30
0.0
  3
*U207
  1

  0
TEXT
  5
96DA
  8
1DIM
 62
   201
 10
643.11300312462333
 20
413.1519822271016
 30
0.0
 40
3.5
  1
4.25 
  0
TEXT
  5
96DB
  8
1DIM
 62
   201
 10
656.87966979128987
 20
413.67698222710158
 30
0.0
 40
2.4500000000000002
  1
±0.1
  0
ENDBLK
  5
96DD
  8
0
  0
BLOCK
  8
0
  2
*U208
 70
     1
 10
0.0
 20
0.0
 30
0.0
  3
*U208
  1

  0
TEXT
  5
96DF
  8
1DIM
 62
   201
 10
677.83383645795675
 20
419.05207360964192
 30
0.0
 40
3.5
  1
8.75
  0
ENDBLK
  5
96E1
  8
0
  0
BLOCK
  8
0
  2
*U209
 70
     1
 10
0.0
 20
0.0
 30
0.0
  3
*U209
  1

  0
TEXT
  5
96E3
  8
1DIM
 62
   201
 10
659.26716979129014
 20
407.49131543403291
 30
0.0
 40
3.5
  1
2
  0
ENDBLK
  5
96E5
  8
0
  0
BLOCK
  8
0
  2
*U210
 70
     1
 10
0.0
 20
0.0
 30
0.0
  3
*U210
  1

  0
TEXT
  5
96E7
  8
1DIM
 62
   201
 10
613.15329057169902
 20
359.21323838642718
 30
0.0
 40
3.5
  1
20 
 50
90.0
  0
TEXT
  5
96E8
  8
1DIM
 62
   201
 10
610.99495723836571
 20
367.72990505309377
 30
0.0
 40
2.4500000000000002
  1
+0.2 
 50
90.0
  0
TEXT
  5
96E9
  8
1DIM
 62
   201
 10
614.26162390503237
 20
367.72990505309377
 30
0.0
 40
2.4500000000000002
  1
 0 
 50
90.0
  0
ENDBLK
  5
96EB
  8
0
  0
BLOCK
  8
0
  2
*U211
 70
     1
 10
0.0
 20
0.0
 30
0.0
  3
*U211
  1

  0
TEXT
  5
96ED
  8
1DIM
 62
   201
 10
625.93326327944953
 20
364.81386067587329
 30
0.0
 40
3.5
  1
3.5
 50
90.0
  0
ENDBLK
  5
96EF
  8
0
  0
BLOCK
  8
0
  2
*U212
 70
     1
 10
0.0
 20
0.0
 30
0.0
  3
*U212
  1

  0
TEXT
  5
96F1
  8
1DIM
 62
   201
 10
679.91716979129012
 20
410.14558366309438
 30
0.0
 40
3.5
  1
2.5
  0
ENDBLK
  5
96F3
  8
0
  0
BLOCK
  8
0
  2
*U213
 70
     1
 10
0.0
 20
0.0
 30
0.0
  3
*U213
  1

  0
TEXT
  5
96F5
  8
1DIM
 62
   201
 10
631.18499086813927
 20
386.88052734254018
 30
0.0
 40
3.5
  1
2
 50
90.0
  0
ENDBLK
  5
96F7
  8
0
  0
BLOCK
  8
0
  2
*U214
 70
     1
 10
0.0
 20
0.0
 30
0.0
  3
*U214
  1

  0
TEXT
  5
96F9
  8
1DIM
 62
   201
 10
604.1770231298284
 20
358.0555273425403
 30
0.0
 40
3.5
  1
34.25
 50
90.0
  0
ENDBLK
  5
96FB
  8
0
  0
BLOCK
  8
0
  2
*U215
 70
     1
 10
0.0
 20
0.0
 30
0.0
  3
*U215
  1

  0
TEXT
  5
96FD
  8
1DIM
 62
   201
 10
699.88383645795614
 20
425.02237994194229
 30
0.0
 40
3.5
  1
73
  0
ENDBLK
  5
96FF
  8
0
  0
BLOCK
  8
0
  2
*U216
 70
     1
 10
0.0
 20
0.0
 30
0.0
  3
*U216
  1

  0
TEXT
  5
9701
  8
1DIM
 62
   201
 10
734.133836457955
 20
393.31165201217812
 30
0.0
 40
3.5
  1
8
  0
ENDBLK
  5
9703
  8
0
  0
BLOCK
  8
0
  2
*U217
 70
     1
 10
0.0
 20
0.0
 30
0.0
  3
*U217
  1

  0
TEXT
  5
9705
  8
1DIM
 62
   201
 10
672.66716979128955
 20
326.11763457396739
 30
0.0
 40
3.5
  1
3.5
  0
ENDBLK
  5
9707
  8
0
  0
BLOCK
  8
0
  2
*U218
 70
     1
 10
0.0
 20
0.0
 30
0.0
  3
*U218
  1

  0
TEXT
  5
9709
  8
1DIM
 62
   201
 10
657.26716979128958
 20
400.77362958681027
 30
0.0
 40
3.5
  1
2
  0
ENDBLK
  5
970B
  8
0
  0
BLOCK
  8
0
  2
*U219
 70
     1
 10
0.0
 20
0.0
 30
0.0
  3
*U219
  1

  0
TEXT
  5
970D
  8
1DIM
 62
   201
 10
653.26716979128958
 20
329.35369480309009
 30
0.0
 40
3.5
  1
1.5
  0
ENDBLK
  5
970F
  8
0
  0
BLOCK
  8
0
  2
*U220
 70
     1
 10
0.0
 20
0.0
 30
0.0
  3
*U220
  1

  0
TEXT
  5
9711
  8
1DIM
 62
   201
 10
784.63478147443709
 20
384.75340417862139
 30
0.0
 40
3.5
  1
53
  0
ENDBLK
  5
9713
  8
0
  0
BLOCK
  8
0
  2
*U221
 70
     1
 10
0.0
 20
0.0
 30
0.0
  3
*U221
  1

  0
TEXT
  5
9715
  8
1DIM
 62
   201
 10
780.63478147443709
 20
404.87147825375001
 30
0.0
 40
3.5
  1
45
  0
ENDBLK
  5
9717
  8
0
  0
BLOCK
  8
0
  2
*U222
 70
     1
 10
0.0
 20
0.0
 30
0.0
  3
*U222
  1

  0
TEXT
  5
9719
  8
1DIM
 62
   201
 10
784.63478147443709
 20
465.87202197237582
 30
0.0
 40
3.5
  1
53
  0
ENDBLK
  5
971B
  8
0
  0
BLOCK
  8
0
  2
*U223
 70
     1
 10
0.0
 20
0.0
 30
0.0
  3
*U223
  1

  0
TEXT
  5
971D
  8
1DIM
 62
   201
 10
754.69266769470494
 20
329.5326297019767
 30
0.0
 40
3.5
  1
R1
 50
48.77129443500462
  0
ENDBLK
  5
971F
  8
0
  0
BLOCK
  8
0
  2
*U224
 70
     1
 10
0.0
 20
0.0
 30
0.0
  3
*U224
  1

  0
TEXT
  5
9721
  8
1DIM
 62
   201
 10
752.90416680225837
 20
347.79587931016277
 30
0.0
 40
3.5
  1
R1
 50
335.5499706849991
  0
ENDBLK
  5
9723
  8
0
  0
BLOCK
  8
0
  2
*U225
 70
     1
 10
0.0
 20
0.0
 30
0.0
  3
*U225
  1

  0
TEXT
  5
9725
  8
1DIM
 62
   201
 10
558.5687379943887
 20
391.03186802356652
 30
0.0
 40
3.5
  1
33
  0
ENDBLK
  5
9727
  8
0
  0
BLOCK
  8
0
  2
*U226
 70
     1
 10
0.0
 20
0.0
 30
0.0
  3
*U226
  1

  0
TEXT
  5
9729
  8
1DIM
 62
   201
 10
558.8604046610551
 20
332.7636435943437
 30
0.0
 40
3.5
  1
40
  0
ENDBLK
  5
972B
  8
0
  0
BLOCK
  8
0
  2
*U227
 70
     1
 10
0.0
 20
0.0
 30
0.0
  3
*U227
  1

  0
TEXT
  5
972D
  8
1DIM
 62
   201
 10
588.30673387654792
 20
350.55741125778292
 30
0.0
 40
3.5
  1
\U+00D89
 50
328.40987928677748
  0
ENDBLK
  5
972F
  8
0
  0
BLOCK
  8
0
  2
*U228
 70
     1
 10
0.0
 20
0.0
 30
0.0
  3
*U228
  1

  0
TEXT
  5
9731
  8
1DIM
 62
   201
 10
501.91045392075068
 20
349.76386067587367
 30
0.0
 40
3.5
  1
6
 50
90.0
  0
ENDBLK
  5
9733
  8
0
  0
BLOCK
  8
0
  2
*U229
 70
     1
 10
0.0
 20
0.0
 30
0.0
  3
*U229
  1

  0
TEXT
  5
9735
  8
1DIM
 62
   201
 10
510.62039187416269
 20
336.89719400920592
 30
0.0
 40
3.5
  1
1.5
 50
90.0
  0
ENDBLK
  5
9737
  8
0
  0
BLOCK
  8
0
  2
*U230
 70
     1
 10
0.0
 20
0.0
 30
0.0
  3
*U230
  1

  0
TEXT
  5
9739
  8
1DIM
 62
   201
 10
526.02362421806504
 20
342.39719400920637
 30
0.0
 40
3.5
  1
3
 50
90.0
  0
ENDBLK
  5
973B
  8
0
  0
BLOCK
  8
0
  2
*U231
 70
     1
 10
0.0
 20
0.0
 30
0.0
  3
*U231
  1

  0
TEXT
  5
973D
  8
1DIM
 62
   201
 10
519.80411124922421
 20
358.71386067587218
 30
0.0
 40
3.5
  1
6.5
 50
90.0
  0
ENDBLK
  5
973F
  8
0
  0
BLOCK
  8
0
  2
*U232
 70
     1
 10
0.0
 20
0.0
 30
0.0
  3
*U232
  1

  0
TEXT
  5
9741
  8
1DIM
 62
   201
 10
675.69147158885619
 20
376.46227111651939
 30
0.0
 40
3.5
  1
R5.75
 50
347.00355848473419
  0
ENDBLK
  5
9743
  8
0
  0
BLOCK
  8
0
  2
*U233
 70
     1
 10
0.0
 20
0.0
 30
0.0
  3
*U233
  1

  0
TEXT
  5
9745
  8
1DIM
 62
   201
 10
794.32320764375015
 20
322.61068766754971
 30
0.0
 40
3.5
  1
R3
 50
52.583550300282738
  0
ENDBLK
  5
9747
  8
0
  0
BLOCK
  8
0
  2
*U234
 70
     1
 10
0.0
 20
0.0
 30
0.0
  3
*U234
  1

  0
TEXT
  5
9749
  8
1DIM
 62
   201
 10
816.05190833664767
 20
342.55902751404909
 30
0.0
 40
3.5
  1
R11
 50
34.228309502318247
  0
ENDBLK
  5
974B
  8
0
  0
BLOCK
  8
0
  2
*U235
 70
     1
 10
0.0
 20
0.0
 30
0.0
  3
*U235
  1

  0
TEXT
  5
974D
  8
1DIM
 62
   201
 10
752.23044555102445
 20
266.4758925297777
 30
0.0
 40
3.5
  1
R1
 50
22.917003675475389
  0
ENDBLK
  5
974F
  8
0
  0
BLOCK
  8
0
  2
*U236
 70
     1
 10
0.0
 20
0.0
 30
0.0
  3
*U236
  1

  0
TEXT
  5
9751
  8
1DIM
 62
   201
 10
753.11278984712646
 20
276.66489166948043
 30
0.0
 40
3.5
  1
R1
 50
333.21225220738802
  0
ENDBLK
  5
9753
  8
0
  0
BLOCK
  8
0
  2
*U237
 70
     1
 10
0.0
 20
0.0
 30
0.0
  3
*U237
  1

  0
TEXT
  5
9755
  8
1DIM
 62
   201
 10
753.90256955305222
 20
285.31410049730061
 30
0.0
 40
3.5
  1
R1
 50
325.5170753361956
  0
ENDBLK
  5
9757
  8
0
  0
BLOCK
  8
0
  2
*U238
 70
     1
 10
0.0
 20
0.0
 30
0.0
  3
*U238
  1

  0
TEXT
  5
9759
  8
1DIM
 62
   201
 10
791.23283806950087
 20
289.32645256129808
 30
0.0
 40
3.5
  1
R3
 50
334.32381476074812
  0
ENDBLK
  5
975B
  8
0
  0
BLOCK
  8
0
  2
*U239
 70
     1
 10
0.0
 20
0.0
 30
0.0
  3
*U239
  1

  0
TEXT
  5
975D
  8
1DIM
 62
   201
 10
817.08965191661537
 20
275.45114327330668
 30
0.0
 40
3.5
  1
R1
 50
38.316506889741731
  0
ENDBLK
  5
975F
  8
0
  0
BLOCK
  8
0
  2
*U240
 70
     1
 10
0.0
 20
0.0
 30
0.0
  3
*U240
  1

  0
TEXT
  5
9761
  8
1DIM
 62
   201
 10
818.76996654831009
 20
269.34012002347839
 30
0.0
 40
3.5
  1
R1
 50
347.72570579751238
  0
ENDBLK
  5
9763
  8
0
  0
BLOCK
  8
0
  2
*U241
 70
     1
 10
0.0
 20
0.0
 30
0.0
  3
*U241
  1

  0
TEXT
  5
9765
  8
1DIM
 62
   201
 10
753.16619070699858
 20
353.49934391297887
 30
0.0
 40
3.5
  1
R3
 50
39.056965052838187
  0
ENDBLK
  5
9767
  8
0
  0
BLOCK
  8
0
  2
*U242
 70
     1
 10
0.0
 20
0.0
 30
0.0
  3
*U242
  1

  0
TEXT
  5
9769
  8
1DIM
 62
   201
 10
752.41479180136344
 20
385.96143651689022
 30
0.0
 40
3.5
  1
R3
 50
332.74904964063597
  0
ENDBLK
  5
976B
  8
0
  0
BLOCK
  8
0
  2
*U243
 70
     1
 10
0.0
 20
0.0
 30
0.0
  3
*U243
  1

  0
TEXT
  5
976D
  8
1DIM
 62
   201
 10
752.40587259303447
 20
465.13640888961532
 30
0.0
 40
3.5
  1
R1
 50
342.03855650467182
  0
ENDBLK
  5
976F
  8
0
  0
BLOCK
  8
0
  2
*U244
 70
     1
 10
0.0
 20
0.0
 30
0.0
  3
*U244
  1

  0
TEXT
  5
9771
  8
1DIM
 62
   201
 10
818.26839267782987
 20
463.67441006287032
 30
0.0
 40
3.5
  1
R1
 50
17.709614118263271
  0
ENDBLK
  5
9773
  8
0
  0
BLOCK
  8
0
  2
*U245
 70
     1
 10
0.0
 20
0.0
 30
0.0
  3
*U245
  1

  0
TEXT
  5
9775
  8
1DIM
 62
   201
 10
669.83165086010536
 20
344.05280826435569
 30
0.0
 40
3.5
  1
R1
 50
294.85667826028998
  0
ENDBLK
  5
9777
  8
0
  0
BLOCK
  8
0
  2
*U246
 70
     1
 10
0.0
 20
0.0
 30
0.0
  3
*U246
  1

  0
TEXT
  5
9779
  8
1DIM
 62
   201
 10
637.94900782411014
 20
355.32452640118731
 30
0.0
 40
3.5
  1
R0.3
 50
348.38227694112049
  0
ENDBLK
  5
977B
  8
0
  0
BLOCK
  8
0
  2
*U247
 70
     1
 10
0.0
 20
0.0
 30
0.0
  3
*U247
  1

  0
TEXT
  5
977D
  8
1DIM
 62
   201
 10
651.69289619756876
 20
356.33923829040327
 30
0.0
 40
3.5
  1
R0.3
 50
337.04387999790578
  0
ENDBLK
  5
977F
  8
0
  0
BLOCK
  8
0
  2
*U248
 70
     1
 10
0.0
 20
0.0
 30
0.0
  3
*U248
  1

  0
TEXT
  5
9781
  8
1DIM
 62
   201
 10
642.82156029068619
 20
338.06380207271587
 30
0.0
 40
3.5
  1
R0.3
 50
44.83496102105196
  0
ENDBLK
  5
9783
  8
0
  0
BLOCK
  8
0
  2
*U249
 70
     1
 10
0.0
 20
0.0
 30
0.0
  3
*U249
  1

  0
TEXT
  5
9785
  8
1DIM
 62
   201
 10
651.66491720928536
 20
336.26599067786412
 30
0.0
 40
3.5
  1
R0.3
 50
59.225178979260029
  0
ENDBLK
  5
9787
  8
0
  0
BLOCK
  8
0
  2
*U250
 70
     1
 10
0.0
 20
0.0
 30
0.0
  3
*U250
  1

  0
TEXT
  5
9789
  8
1DIM
 62
   201
 10
657.34116993077021
 20
334.83493671858429
 30
0.0
 40
3.5
  1
R0.5
 50
63.835444700120782
  0
ENDBLK
  5
978B
  8
0
  0
BLOCK
  8
0
  2
*U251
 70
     1
 10
0.0
 20
0.0
 30
0.0
  3
*U251
  1

  0
TEXT
  5
978D
  8
1DIM
 62
   201
 10
671.61267569417214
 20
352.42336393008043
 30
0.0
 40
3.5
  1
R1
 50
292.3186003150675
  0
ENDBLK
  5
978F
  8
0
  0
BLOCK
  8
0
  2
*U252
 70
     1
 10
0.0
 20
0.0
 30
0.0
  3
*U252
  1

  0
TEXT
  5
9791
  8
1DIM
 62
   201
 10
677.49270178374559
 20
354.83365140434671
 30
0.0
 40
3.5
  1
R1
 50
299.8250644279824
  0
ENDBLK
  5
9793
  8
0
  0
BLOCK
  8
0
  2
*U253
 70
     1
 10
0.0
 20
0.0
 30
0.0
  3
*U253
  1

  0
TEXT
  5
9795
  8
1DIM
 62
   201
 10
659.756666108898
 20
370.53571797783661
 30
0.0
 40
3.5
  1
R1
 50
47.30688449523673
  0
ENDBLK
  5
9797
  8
0
  0
BLOCK
  8
0
  2
*U254
 70
     1
 10
0.0
 20
0.0
 30
0.0
  3
*U254
  1

  0
TEXT
  5
9799
  8
1DIM
 62
   201
 10
642.15046509785009
 20
368.5072115426749
 30
0.0
 40
3.5
  1
R0.3
 50
27.538640051181972
  0
ENDBLK
  5
979B
  8
0
  0
BLOCK
  8
0
  2
*U255
 70
     1
 10
0.0
 20
0.0
 30
0.0
  3
*U255
  1

  0
TEXT
  5
979D
  8
1DIM
 62
   201
 10
649.99810881055475
 20
386.79372580972472
 30
0.0
 40
3.5
  1
R2
 50
342.19509580859608
  0
ENDBLK
  5
979F
  8
0
  0
BLOCK
  8
0
  2
*U256
 70
     1
 10
0.0
 20
0.0
 30
0.0
  3
*U256
  1

  0
TEXT
  5
97A1
  8
1DIM
 62
   201
 10
653.51634719880599
 20
394.85320682361117
 30
0.0
 40
3.5
  1
R0.5
 50
317.0723308942799
  0
ENDBLK
  5
97A3
  8
0
  0
BLOCK
  8
0
  2
*U257
 70
     1
 10
0.0
 20
0.0
 30
0.0
  3
*U257
  1

  0
TEXT
  5
97A5
  8
1DIM
 62
   201
 10
679.24337848382459
 20
383.63288243587238
 30
0.0
 40
3.5
  1
R1
 50
18.277933788264829
  0
ENDBLK
  5
97A7
  8
0
  0
BLOCK
  8
0
  2
*U258
 70
     1
 10
0.0
 20
0.0
 30
0.0
  3
*U258
  1

  0
TEXT
  5
97A9
  8
1DIM
 62
   201
 10
678.90796890952925
 20
390.2310270661954
 30
0.0
 40
3.5
  1
R0.3
 50
54.12695502398374
  0
ENDBLK
  5
97AB
  8
0
  0
BLOCK
  8
0
  2
*U259
 70
     1
 10
0.0
 20
0.0
 30
0.0
  3
*U259
  1

  0
TEXT
  5
97AD
  8
1DIM
 62
   201
 10
719.4142064242543
 20
393.45571784185847
 30
0.0
 40
3.5
  1
4-R1
 50
318.64544274004589
  0
ENDBLK
  5
97AF
  8
0
  0
BLOCK
  8
0
  2
*U260
 70
     1
 10
0.0
 20
0.0
 30
0.0
  3
*U260
  1

  0
TEXT
  5
97B1
  8
1DIM
 62
   201
 10
576.16233531975672
 20
338.34985236397353
 30
0.0
 40
3.5
  1
R6
 50
73.574140599849187
  0
ENDBLK
  5
97B3
  8
0
  0
BLOCK
  8
0
  2
*U261
 70
     1
 10
0.0
 20
0.0
 30
0.0
  3
*U261
  1

  0
TEXT
  5
97B5
  8
1DIM
 62
   201
 10
590.24571157756361
 20
344.20290650218328
 30
0.0
 40
3.5
  1
R1
 50
297.59002529248301
  0
ENDBLK
  5
97B7
  8
0
  0
BLOCK
  8
0
  2
*U262
 70
     1
 10
0.0
 20
0.0
 30
0.0
  3
*U262
  1

  0
TEXT
  5
97B9
  8
1DIM
 62
   201
 10
591.81663185269258
 20
362.74417652408067
 30
0.0
 40
3.5
  1
R1
 50
25.72493063718122
  0
ENDBLK
  5
97BB
  8
0
  0
BLOCK
  8
0
  2
*U263
 70
     1
 10
0.0
 20
0.0
 30
0.0
  3
*U263
  1

  0
TEXT
  5
97BD
  8
1DIM
 62
   201
 10
578.66881183550265
 20
362.16826709918348
 30
0.0
 40
3.5
  1
R1
 50
48.585669030203391
  0
ENDBLK
  5
97BF
  8
0
  0
BLOCK
  8
0
  2
*U264
 70
     1
 10
0.0
 20
0.0
 30
0.0
  3
*U264
  1

  0
TEXT
  5
97C1
  8
1DIM
 62
   201
 10
571.39732520399014
 20
370.58272289813323
 30
0.0
 40
3.5
  1
R1
 50
46.950924971970522
  0
ENDBLK
  5
97C3
  8
0
  0
BLOCK
  8
0
  2
*U265
 70
     1
 10
0.0
 20
0.0
 30
0.0
  3
*U265
  1

  0
TEXT
  5
97C5
  8
1DIM
 62
   201
 10
591.74564151278685
 20
374.46802907555042
 30
0.0
 40
3.5
  1
R1
 50
318.98485353507618
  0
ENDBLK
  5
97C7
  8
0
  0
BLOCK
  8
0
  2
*U266
 70
     1
 10
0.0
 20
0.0
 30
0.0
  3
*U266
  1

  0
TEXT
  5
97C9
  8
1DIM
 62
   201
 10
580.64325650929879
 20
383.60772960314449
 30
0.0
 40
3.5
  1
R1
 50
43.434466239760411
  0
ENDBLK
  5
97CB
  8
0
  0
BLOCK
  8
0
  2
*U267
 70
     1
 10
0.0
 20
0.0
 30
0.0
  3
*U267
  1

  0
TEXT
  5
97CD
  8
1DIM
 62
   201
 10
591.46839588030423
 20
384.76978767415972
 30
0.0
 40
3.5
  1
R1
 50
31.680879352768152
  0
ENDBLK
  5
97CF
  8
0
  0
BLOCK
  8
0
  2
*X268
 70
     1
 10
0.0
 20
0.0
 30
0.0
  3
*X268
  1

  0
LINE
  5
97D1
  8
0
 62
     0
 10
4.999963781330016
 20
0.6648318481563891
 30
0.0
 11
4.6648058190851449
 21
0.9999898104012601
 31
0.0
  0
LINE
  5
97D2
  8
0
 62
     0
 10
4.9999616918183198
 20
0.2158211316146108
 30
0.0
 11
4.2157909235005491
 21
0.9999918999323753
 31
0.0
  0
LINE
  5
97D3
  8
0
 62
     0
 10
2.4999712361998969
 20
2.266798781179574
 30
0.0
 11
2.3833706844548028
 21
2.3833993329246681
 31
0.0
  0
LINE
  5
97D4
  8
0
 62
     0
 10
4.9999596023066308
 20
-0.2331895849271461
 30
0.0
 11
3.7667760279159941
 21
0.9999939894634906
 31
0.0
  0
LINE
  5
97D5
  8
0
 62
     0
 10
2.4999691466882008
 20
1.8177880646378091
 30
0.0
 11
2.1588632366673721
 21
2.1588939746586391
 31
0.0
  0
LINE
  5
97D6
  8
0
 62
     0
 10
4.9999575127949347
 20
-0.6822003014689173
 30
0.0
 11
3.3177611323313978
 21
0.9999960789946271
 31
0.0
  0
LINE
  5
97D7
  8
0
 62
     0
 10
2.4999670571765189
 20
1.368777348096045
 30
0.0
 11
1.934355788879955
 21
1.934388616392595
 31
0.0
  0
LINE
  5
97D8
  8
0
 62
     0
 10
4.8687555439913117
 20
-1.0000111387187469
 30
0.0
 11
2.868746236746829
 21
0.999998168525721
 31
0.0
  0
LINE
  5
97D9
  8
0
 62
     0
 10
4.4197406484067079
 20
-1.000009049187589
 30
0.0
 11
1.709848341092538
 21
1.709883258126581
 31
0.0
  0
LINE
  5
97DA
  8
0
 62
     0
 10
3.970725752822104
 20
-1.000006959656452
 30
0.0
 11
1.485340893305092
 21
1.485377899860566
 31
0.0
  0
LINE
  5
97DB
  8
0
 62
     0
 10
3.521710857237522
 20
-1.0000048701253299
 30
0.0
 11
1.2608334455176751
 21
1.2608725415945219
 31
0.0
  0
LINE
  5
97DC
  8
0
 62
     0
 10
3.072695961652939
 20
-1.000002780594186
 30
0.0
 11
1.036325997730259
 21
1.0363671833284931
 31
0.0
  0
LINE
  5
97DD
  8
0
 62
     0
 10
2.6236810660683281
 20
-1.0000006910630499
 30
0.0
 11
0.8118185499428136
 21
0.8118618250624649
 31
0.0
  0
LINE
  5
97DE
  8
0
 62
     0
 10
2.4999545201063849
 20
-1.3252869511545811
 30
0.0
 11
0.5873111021553826
 21
0.5873564667964361
 31
0.0
  0
LINE
  5
97DF
  8
0
 62
     0
 10
2.4999524305947101
 20
-1.7742976676963591
 30
0.0
 11
0.3628036543679656
 21
0.3628511085303927
 31
0.0
  0
LINE
  5
97E0
  8
0
 62
     0
 10
2.4999503410830348
 20
-2.2233083842381229
 30
0.0
 11
0.1382962065805344
 21
0.1383457502643637
 31
0.0
  0
LINE
  5
97E1
  8
0
 62
     0
 10
4.6010502818750387
 20
-1.000009892928265
 30
0.0
 11
4.9999578901918467
 21
-0.6011022846114571
 31
0.0
  0
LINE
  5
97E2
  8
0
 62
     0
 10
4.152039565333272
 20
-1.0000078034165789
 30
0.0
 11
4.9999599797229841
 21
-0.1520873890268675
 31
0.0
  0
LINE
  5
97E3
  8
0
 62
     0
 10
3.703028848791504
 20
-1.000005713904887
 30
0.0
 11
4.9999620692541127
 21
0.2969275065577221
 31
0.0
  0
LINE
  5
97E4
  8
0
 62
     0
 10
2.3514924413035478
 20
-2.3515421213928418
 30
0.0
 11
2.4999504351984241
 21
-2.203084127497966
 31
0.0
  0
LINE
  5
97E5
  8
0
 62
     0
 10
3.254018132249743
 20
-1.0000036243931869
 30
0.0
 11
4.9999641587852457
 21
0.7459424021423189
 31
0.0
  0
LINE
  5
97E6
  8
0
 62
     0
 10
2.1269870830375228
 20
-2.1270346736054071
 30
0.0
 11
2.499952524729554
 21
-1.7540692319133759
 31
0.0
  0
LINE
  5
97E7
  8
0
 62
     0
 10
2.805007415707979
 20
-1.0000015348814979
 30
0.0
 11
4.8049981085933267
 21
0.9999891580038494
 31
0.0
  0
LINE
  5
97E8
  8
0
 62
     0
 10
1.902481724771508
 20
-1.9025272258179691
 30
0.0
 11
2.4999546142606759
 21
-1.305054336328801
 31
0.0
  0
LINE
  5
97E9
  8
0
 62
     0
 10
1.6779763665054901
 20
-1.678019778030527
 30
0.0
 11
4.3559873920515422
 21
0.9999912475155242
 31
0.0
  0
LINE
  5
97EA
  8
0
 62
     0
 10
1.4534710082394611
 20
-1.4535123302430959
 30
0.0
 11
3.9069766755097461
 21
0.9999933370271882
 31
0.0
  0
LINE
  5
97EB
  8
0
 62
     0
 10
1.228965649973442
 20
-1.2290048824556541
 30
0.0
 11
3.457965958967967
 21
0.9999954265388737
 31
0.0
  0
LINE
  5
97EC
  8
0
 62
     0
 10
1.004460291707417
 20
-1.0044974346682201
 30
0.0
 11
3.008955242426171
 21
0.9999975160505378
 31
0.0
  0
LINE
  5
97ED
  8
0
 62
     0
 10
0.779954933441406
 20
-0.7799899868807821
 30
0.0
 11
2.55994452588439
 21
0.999999605562202
 31
0.0
  0
LINE
  5
97EE
  8
0
 62
     0
 10
0.5554495751753877
 20
-0.5554825390933403
 30
0.0
 11
2.4999671514474988
 21
1.3890350371787681
 31
0.0
  0
LINE
  5
97EF
  8
0
 62
     0
 10
0.3309442169093621
 20
-0.3309750913059091
 30
0.0
 11
2.4999692409786181
 21
1.838049932763347
 31
0.0
  0
LINE
  5
97F0
  8
0
 62
     0
 10
0.1064388586433438
 20
-0.1064676435184673
 30
0.0
 11
2.4999713305097622
 21
2.2870648283479511
 31
0.0
  0
ENDBLK
  5
97F2
  8
0
  0
BLOCK
  8
0
  2
*U269
 70
     1
 10
0.0
 20
0.0
 30
0.0
  3
*U269
  1

  0
TEXT
  5
97F4
  8
1DIM
 62
   201
 10
597.45274885415154
 20
352.7638606758735
 30
0.0
 40
3.5
  1
9
 50
90.0
  0
ENDBLK
  5
97F6
  8
0
  0
BLOCK
  8
0
  2
*U270
 70
     1
 10
0.0
 20
0.0
 30
0.0
  3
*U270
  1

  0
TEXT
  5
97F8
  8
1DIM
 62
   201
 10
651.25168196656944
 20
367.37279289674677
 30
0.0
 40
3.5
  1
R0.3
 50
333.31687304292228
  0
ENDBLK
  5
97FA
  8
0
  0
BLOCK
  8
0
  2
*U271
 70
     1
 10
0.0
 20
0.0
 30
0.0
  3
*U271
  1

  0
TEXT
  5
97FC
  8
1DIM
 62
   201
 10
697.06144097437664
 20
354.3704166210473
 30
0.0
 40
3.5
  1
R17.5
 50
320.86934240267482
  0
ENDBLK
  5
97FE
  8
0
  0
BLOCK
  8
0
  2
*U272
 70
     1
 10
0.0
 20
0.0
 30
0.0
  3
*U272
  1

  0
TEXT
  5
9800
  8
1DIM
 62
   201
 10
684.5095213976316
 20
355.41972438374978
 30
0.0
 40
3.5
  1
R0.5
 50
331.6106187466666
  0
ENDBLK
  5
9802
  8
0
  0
BLOCK
  8
0
  2
*U273
 70
     1
 10
0.0
 20
0.0
 30
0.0
  3
*U273
  1

  0
TEXT
  5
9804
  8
1DIM
 62
   201
 10
376.80734396113962
 20
-2179.2553312533191
 30
0.0
 40
3.5
  1
R3
 50
52.583550300278823
  0
ENDBLK
  5
9806
  8
0
  0
BLOCK
  8
0
  2
*U274
 70
     1
 10
0.0
 20
0.0
 30
0.0
  3
*U274
  1

  0
TEXT
  5
9808
  8
1DIM
 62
   201
 10
398.53604465403782
 20
-2159.3069914068201
 30
0.0
 40
3.5
  1
R11
 50
34.228309502317941
  0
ENDBLK
  5
980A
  8
0
  0
BLOCK
  8
0
  2
*U275
 70
     1
 10
0.0
 20
0.0
 30
0.0
  3
*U275
  1

  0
TEXT
  5
980C
  8
1DIM
 62
   201
 10
334.71458186841409
 20
-2235.3901263910898
 30
0.0
 40
3.5
  1
R1
 50
22.917003675462109
  0
ENDBLK
  5
980E
  8
0
  0
BLOCK
  8
0
  2
*U276
 70
     1
 10
0.0
 20
0.0
 30
0.0
  3
*U276
  1

  0
TEXT
  5
9810
  8
1DIM
 62
   201
 10
335.59692616451701
 20
-2225.2011272513878
 30
0.0
 40
3.5
  1
R1
 50
333.21225220738069
  0
ENDBLK
  5
9812
  8
0
  0
BLOCK
  8
0
  2
*U277
 70
     1
 10
0.0
 20
0.0
 30
0.0
  3
*U277
  1

  0
TEXT
  5
9814
  8
1DIM
 62
   201
 10
336.38670587044288
 20
-2216.5519184235682
 30
0.0
 40
3.5
  1
R1
 50
325.51707533619032
  0
ENDBLK
  5
9816
  8
0
  0
BLOCK
  8
0
  2
*U278
 70
     1
 10
0.0
 20
0.0
 30
0.0
  3
*U278
  1

  0
TEXT
  5
9818
  8
1DIM
 62
   201
 10
373.71697438689131
 20
-2212.53956635957
 30
0.0
 40
3.5
  1
R3
 50
334.32381476074409
  0
ENDBLK
  5
981A
  8
0
  0
BLOCK
  8
0
  2
*U279
 70
     1
 10
0.0
 20
0.0
 30
0.0
  3
*U279
  1

  0
TEXT
  5
981C
  8
1DIM
 62
   201
 10
399.57378823400597
 20
-2226.4148756475638
 30
0.0
 40
3.5
  1
R1
 50
38.316506889726419
  0
ENDBLK
  5
981E
  8
0
  0
BLOCK
  8
0
  2
*U280
 70
     1
 10
0.0
 20
0.0
 30
0.0
  3
*U280
  1

  0
TEXT
  5
9820
  8
1DIM
 62
   201
 10
401.25410286570002
 20
-2232.5258988973928
 30
0.0
 40
3.5
  1
R1
 50
347.72570579749328
  0
ENDBLK
  5
9822
  8
0
  0
BLOCK
  8
0
  2
*U281
 70
     1
 10
0.0
 20
0.0
 30
0.0
  3
*U281
  1

  0
TEXT
  5
9824
  8
1DIM
 62
   201
 10
335.6503270243885
 20
-2148.3666750078901
 30
0.0
 40
3.5
  1
R3
 50
39.056965052833952
  0
ENDBLK
  5
9826
  8
0
  0
BLOCK
  8
0
  2
*U282
 70
     1
 10
0.0
 20
0.0
 30
0.0
  3
*U282
  1

  0
TEXT
  5
9828
  8
1DIM
 62
   201
 10
334.89892811875319
 20
-2115.9045824039808
 30
0.0
 40
3.5
  1
R3
 50
332.74904964064137
  0
ENDBLK
  5
982A
  8
0
  0
BLOCK
  8
0
  2
*U283
 70
     1
 10
0.0
 20
0.0
 30
0.0
  3
*U283
  1

  0
TEXT
  5
982C
  8
1DIM
 62
   201
 10
334.89000891042508
 20
-2036.7296100312531
 30
0.0
 40
3.5
  1
R1
 50
342.03855650466153
  0
ENDBLK
  5
982E
  8
0
  0
BLOCK
  8
0
  2
*U284
 70
     1
 10
0.0
 20
0.0
 30
0.0
  3
*U284
  1

  0
TEXT
  5
9830
  8
1DIM
 62
   201
 10
400.7525289952199
 20
-2038.191608857999
 30
0.0
 40
3.5
  1
R1
 50
17.709614118267488
  0
ENDBLK
  5
9832
  8
0
  0
BLOCK
  8
0
  2
*U285
 70
     1
 10
0.0
 20
0.0
 30
0.0
  3
*U285
  1

  0
TEXT
  5
9834
  8
1DIM
 62
   201
 10
252.31578717749559
 20
-2157.813210656514
 30
0.0
 40
3.5
  1
R1
 50
294.8566782602885
  0
ENDBLK
  5
9836
  8
0
  0
BLOCK
  8
0
  2
*U286
 70
     1
 10
0.0
 20
0.0
 30
0.0
  3
*U286
  1

  0
TEXT
  5
9838
  8
1DIM
 62
   201
 10
220.4331441415045
 20
-2146.5414925196628
 30
0.0
 40
3.5
  1
R0.3
 50
348.38227694107911
  0
ENDBLK
  5
983A
  8
0
  0
BLOCK
  8
0
  2
*U287
 70
     1
 10
0.0
 20
0.0
 30
0.0
  3
*U287
  1

  0
TEXT
  5
983C
  8
1DIM
 62
   201
 10
234.17703251496019
 20
-2145.5267806304641
 30
0.0
 40
3.5
  1
R0.3
 50
337.04387999789577
  0
ENDBLK
  5
983E
  8
0
  0
BLOCK
  8
0
  2
*U288
 70
     1
 10
0.0
 20
0.0
 30
0.0
  3
*U288
  1

  0
TEXT
  5
9840
  8
1DIM
 62
   201
 10
225.305696608061
 20
-2163.802216848138
 30
0.0
 40
3.5
  1
R0.3
 50
44.834961021009761
  0
ENDBLK
  5
9842
  8
0
  0
BLOCK
  8
0
  2
*U289
 70
     1
 10
0.0
 20
0.0
 30
0.0
  3
*U289
  1

  0
TEXT
  5
9844
  8
1DIM
 62
   201
 10
234.14905352668461
 20
-2165.6000282430109
 30
0.0
 40
3.5
  1
R0.3
 50
59.225178979284252
  0
ENDBLK
  5
9846
  8
0
  0
BLOCK
  8
0
  2
*U290
 70
     1
 10
0.0
 20
0.0
 30
0.0
  3
*U290
  1

  0
TEXT
  5
9848
  8
1DIM
 62
   201
 10
239.82530624815661
 20
-2167.031082202283
 30
0.0
 40
3.5
  1
R0.5
 50
63.835444700106471
  0
ENDBLK
  5
984A
  8
0
  0
BLOCK
  8
0
  2
*U291
 70
     1
 10
0.0
 20
0.0
 30
0.0
  3
*U291
  1

  0
TEXT
  5
984C
  8
1DIM
 62
   201
 10
254.09681201156241
 20
-2149.4426549907889
 30
0.0
 40
3.5
  1
R1
 50
292.31860031506898
  0
ENDBLK
  5
984E
  8
0
  0
BLOCK
  8
0
  2
*U292
 70
     1
 10
0.0
 20
0.0
 30
0.0
  3
*U292
  1

  0
TEXT
  5
9850
  8
1DIM
 62
   201
 10
259.9768381011358
 20
-2147.0323675165232
 30
0.0
 40
3.5
  1
R1
 50
299.82506442797762
  0
ENDBLK
  5
9852
  8
0
  0
BLOCK
  8
0
  2
*U293
 70
     1
 10
0.0
 20
0.0
 30
0.0
  3
*U293
  1

  0
TEXT
  5
9854
  8
1DIM
 62
   201
 10
242.24080242628921
 20
-2131.3303009430351
 30
0.0
 40
3.5
  1
R1
 50
47.306884495248163
  0
ENDBLK
  5
9856
  8
0
  0
BLOCK
  8
0
  2
*U294
 70
     1
 10
0.0
 20
0.0
 30
0.0
  3
*U294
  1

  0
TEXT
  5
9858
  8
1DIM
 62
   201
 10
224.63460141524001
 20
-2133.3588073781939
 30
0.0
 40
3.5
  1
R0.3
 50
27.538640051181972
  0
ENDBLK
  5
985A
  8
0
  0
BLOCK
  8
0
  2
*U295
 70
     1
 10
0.0
 20
0.0
 30
0.0
  3
*U295
  1

  0
TEXT
  5
985C
  8
1DIM
 62
   201
 10
232.4822451279438
 20
-2115.0722931111459
 30
0.0
 40
3.5
  1
R2
 50
342.1950958086033
  0
ENDBLK
  5
985E
  8
0
  0
BLOCK
  8
0
  2
*U296
 70
     1
 10
0.0
 20
0.0
 30
0.0
  3
*U296
  1

  0
TEXT
  5
9860
  8
1DIM
 62
   201
 10
236.000483516196
 20
-2107.0128120972581
 30
0.0
 40
3.5
  1
R0.5
 50
317.0723308942799
  0
ENDBLK
  5
9862
  8
0
  0
BLOCK
  8
0
  2
*U297
 70
     1
 10
0.0
 20
0.0
 30
0.0
  3
*U297
  1

  0
TEXT
  5
9864
  8
1DIM
 62
   201
 10
261.72751480121508
 20
-2118.233136484997
 30
0.0
 40
3.5
  1
R1
 50
18.277933788257599
  0
ENDBLK
  5
9866
  8
0
  0
BLOCK
  8
0
  2
*U298
 70
     1
 10
0.0
 20
0.0
 30
0.0
  3
*U298
  1

  0
TEXT
  5
9868
  8
1DIM
 62
   201
 10
261.39210522692667
 20
-2111.6349918546789
 30
0.0
 40
3.5
  1
R0.3
 50
54.126955023942642
  0
ENDBLK
  5
986A
  8
0
  0
BLOCK
  8
0
  2
*U299
 70
     1
 10
0.0
 20
0.0
 30
0.0
  3
*U299
  1

  0
TEXT
  5
986C
  8
1DIM
 62
   201
 10
301.89834274164099
 20
-2108.4103010790141
 30
0.0
 40
3.5
  1
4-R1
 50
318.64544274006028
  0
ENDBLK
  5
986E
  8
0
  0
BLOCK
  8
0
  2
*U300
 70
     1
 10
0.0
 20
0.0
 30
0.0
  3
*U300
  1

  0
TEXT
  5
9870
  8
1DIM
 62
   201
 10
158.6464716371471
 20
-2163.5161665568962
 30
0.0
 40
3.5
  1
R6
 50
73.574140599851589
  0
ENDBLK
  5
9872
  8
0
  0
BLOCK
  8
0
  2
*U301
 70
     1
 10
0.0
 20
0.0
 30
0.0
  3
*U301
  1

  0
TEXT
  5
9874
  8
1DIM
 62
   201
 10
172.729847894953
 20
-2157.663112418687
 30
0.0
 40
3.5
  1
R1
 50
297.59002529247391
  0
ENDBLK
  5
9876
  8
0
  0
BLOCK
  8
0
  2
*U302
 70
     1
 10
0.0
 20
0.0
 30
0.0
  3
*U302
  1

  0
TEXT
  5
9878
  8
1DIM
 62
   201
 10
174.3007681700827
 20
-2139.1218423967889
 30
0.0
 40
3.5
  1
R1
 50
25.72493063718407
  0
ENDBLK
  5
987A
  8
0
  0
BLOCK
  8
0
  2
*U303
 70
     1
 10
0.0
 20
0.0
 30
0.0
  3
*U303
  1

  0
TEXT
  5
987C
  8
1DIM
 62
   201
 10
161.15294815289269
 20
-2139.6977518216859
 30
0.0
 40
3.5
  1
R1
 50
48.585669030205537
  0
ENDBLK
  5
987E
  8
0
  0
BLOCK
  8
0
  2
*U304
 70
     1
 10
0.0
 20
0.0
 30
0.0
  3
*U304
  1

  0
TEXT
  5
9880
  8
1DIM
 62
   201
 10
153.8814615213802
 20
-2131.2832960227361
 30
0.0
 40
3.5
  1
R1
 50
46.950924971970522
  0
ENDBLK
  5
9882
  8
0
  0
BLOCK
  8
0
  2
*U305
 70
     1
 10
0.0
 20
0.0
 30
0.0
  3
*U305
  1

  0
TEXT
  5
9884
  8
1DIM
 62
   201
 10
174.22977783017669
 20
-2127.3979898453199
 30
0.0
 40
3.5
  1
R1
 50
318.98485353506879
  0
ENDBLK
  5
9886
  8
0
  0
BLOCK
  8
0
  2
*U306
 70
     1
 10
0.0
 20
0.0
 30
0.0
  3
*U306
  1

  0
TEXT
  5
9888
  8
1DIM
 62
   201
 10
163.12739282668861
 20
-2118.258289317725
 30
0.0
 40
3.5
  1
R1
 50
43.434466239757761
  0
ENDBLK
  5
988A
  8
0
  0
BLOCK
  8
0
  2
*U307
 70
     1
 10
0.0
 20
0.0
 30
0.0
  3
*U307
  1

  0
TEXT
  5
988C
  8
1DIM
 62
   201
 10
173.9525321976945
 20
-2117.09623124671
 30
0.0
 40
3.5
  1
R1
 50
31.680879352764531
  0
ENDBLK
  5
988E
  8
0
  0
BLOCK
  8
0
  2
*U308
 70
     1
 10
0.0
 20
0.0
 30
0.0
  3
*U308
  1

  0
TEXT
  5
9890
  8
1DIM
 62
   201
 10
179.936885171542
 20
-2149.1021582449962
 30
0.0
 40
3.5
  1
9
 50
90.0
  0
ENDBLK
  5
9892
  8
0
  0
BLOCK
  8
0
  2
*U309
 70
     1
 10
0.0
 20
0.0
 30
0.0
  3
*U309
  1

  0
TEXT
  5
9894
  8
1DIM
 62
   201
 10
233.73581828395831
 20
-2134.4932260241239
 30
0.0
 40
3.5
  1
R0.3
 50
333.31687304293212
  0
ENDBLK
  5
9896
  8
0
  0
BLOCK
  8
0
  2
*U310
 70
     1
 10
0.0
 20
0.0
 30
0.0
  3
*U310
  1

  0
TEXT
  5
9898
  8
1DIM
 62
   201
 10
279.54557729176662
 20
-2147.4956022998222
 30
0.0
 40
3.5
  1
R17.5
 50
320.86934240267499
  0
ENDBLK
  5
989A
  8
0
  0
BLOCK
  8
0
  2
*U311
 70
     1
 10
0.0
 20
0.0
 30
0.0
  3
*U311
  1

  0
TEXT
  5
989C
  8
1DIM
 62
   201
 10
266.9936577150234
 20
-2146.446294537116
 30
0.0
 40
3.5
  1
R0.5
 50
331.61061874668383
  0
ENDBLK
  5
989E
  8
0
  0
BLOCK
  8
0
  2
*U312
 70
     1
 10
0.0
 20
0.0
 30
0.0
  3
*U312
  1

  0
TEXT
  5
98A0
  8
1DIM
 62
   201
 10
224.89713944201341
 20
-2088.7140366937679
 30
0.0
 40
3.5
  1
4.25 
  0
TEXT
  5
98A1
  8
1DIM
 62
   201
 10
238.66380610868009
 20
-2088.1890366937678
 30
0.0
 40
2.4500000000000002
  1
±0.1
  0
ENDBLK
  5
98A3
  8
0
  0
BLOCK
  8
0
  2
*U313
 70
     1
 10
0.0
 20
0.0
 30
0.0
  3
*U313
  1

  0
TEXT
  5
98A5
  8
1DIM
 62
   201
 10
260.31797277534679
 20
-2082.8139453112281
 30
0.0
 40
3.5
  1
8.75
  0
ENDBLK
  5
98A7
  8
0
  0
BLOCK
  8
0
  2
*U314
 70
     1
 10
0.0
 20
0.0
 30
0.0
  3
*U314
  1

  0
TEXT
  5
98A9
  8
1DIM
 62
   201
 10
241.7513061086801
 20
-2094.3747034868361
 30
0.0
 40
3.5
  1
2
  0
ENDBLK
  5
98AB
  8
0
  0
BLOCK
  8
0
  2
*U315
 70
     1
 10
0.0
 20
0.0
 30
0.0
  3
*U315
  1

  0
TEXT
  5
98AD
  8
1DIM
 62
   201
 10
195.637426889089
 20
-2142.6527805344422
 30
0.0
 40
3.5
  1
20 
 50
90.0
  0
TEXT
  5
98AE
  8
1DIM
 62
   201
 10
193.47909355575561
 20
-2134.1361138677748
 30
0.0
 40
2.4500000000000002
  1
+0.2 
 50
90.0
  0
TEXT
  5
98AF
  8
1DIM
 62
   201
 10
196.74576022242221
 20
-2134.1361138677748
 30
0.0
 40
2.4500000000000002
  1
 0 
 50
90.0
  0
ENDBLK
  5
98B1
  8
0
  0
BLOCK
  8
0
  2
*U316
 70
     1
 10
0.0
 20
0.0
 30
0.0
  3
*U316
  1

  0
TEXT
  5
98B3
  8
1DIM
 62
   201
 10
208.4173995968396
 20
-2137.052158244996
 30
0.0
 40
3.5
  1
3.5
 50
90.0
  0
ENDBLK
  5
98B5
  8
0
  0
BLOCK
  8
0
  2
*U317
 70
     1
 10
0.0
 20
0.0
 30
0.0
  3
*U317
  1

  0
TEXT
  5
98B7
  8
1DIM
 62
   201
 10
262.4013061086801
 20
-2091.7204352577751
 30
0.0
 40
3.5
  1
2.5
  0
ENDBLK
  5
98B9
  8
0
  0
BLOCK
  8
0
  2
*U318
 70
     1
 10
0.0
 20
0.0
 30
0.0
  3
*U318
  1

  0
TEXT
  5
98BB
  8
1DIM
 62
   201
 10
213.6691271855299
 20
-2114.9854915783289
 30
0.0
 40
3.5
  1
2
 50
90.0
  0
ENDBLK
  5
98BD
  8
0
  0
BLOCK
  8
0
  2
*U319
 70
     1
 10
0.0
 20
0.0
 30
0.0
  3
*U319
  1

  0
TEXT
  5
98BF
  8
1DIM
 62
   201
 10
186.66115944721889
 20
-2143.8104915783292
 30
0.0
 40
3.5
  1
34.25
 50
90.0
  0
ENDBLK
  5
98C1
  8
0
  0
BLOCK
  8
0
  2
*U320
 70
     1
 10
0.0
 20
0.0
 30
0.0
  3
*U320
  1

  0
TEXT
  5
98C3
  8
1DIM
 62
   201
 10
282.36797277534612
 20
-2076.8436389789272
 30
0.0
 40
3.5
  1
73
  0
ENDBLK
  5
98C5
  8
0
  0
BLOCK
  8
0
  2
*U321
 70
     1
 10
0.0
 20
0.0
 30
0.0
  3
*U321
  1

  0
TEXT
  5
98C7
  8
1DIM
 62
   201
 10
316.61797277534492
 20
-2108.554366908691
 30
0.0
 40
3.5
  1
8
  0
ENDBLK
  5
98C9
  8
0
  0
BLOCK
  8
0
  2
*U322
 70
     1
 10
0.0
 20
0.0
 30
0.0
  3
*U322
  1

  0
TEXT
  5
98CB
  8
1DIM
 62
   201
 10
255.15130610867959
 20
-2175.7483843469022
 30
0.0
 40
3.5
  1
3.5
  0
ENDBLK
  5
98CD
  8
0
  0
BLOCK
  8
0
  2
*U323
 70
     1
 10
0.0
 20
0.0
 30
0.0
  3
*U323
  1

  0
TEXT
  5
98CF
  8
1DIM
 62
   201
 10
239.7513061086795
 20
-2101.0923893340591
 30
0.0
 40
3.5
  1
2
  0
ENDBLK
  5
98D1
  8
0
  0
BLOCK
  8
0
  2
*U324
 70
     1
 10
0.0
 20
0.0
 30
0.0
  3
*U324
  1

  0
TEXT
  5
98D3
  8
1DIM
 62
   201
 10
235.75130610867959
 20
-2172.5123241177789
 30
0.0
 40
3.5
  1
1.5
  0
ENDBLK
  5
98D5
  8
0
  0
BLOCK
  8
0
  2
*U325
 70
     1
 10
0.0
 20
0.0
 30
0.0
  3
*U325
  1

  0
TEXT
  5
98D7
  8
1DIM
 62
   201
 10
367.11891779182702
 20
-2117.1126147422478
 30
0.0
 40
3.5
  1
53
  0
ENDBLK
  5
98D9
  8
0
  0
BLOCK
  8
0
  2
*U326
 70
     1
 10
0.0
 20
0.0
 30
0.0
  3
*U326
  1

  0
TEXT
  5
98DB
  8
1DIM
 62
   201
 10
363.1189177918269
 20
-2096.99454066712
 30
0.0
 40
3.5
  1
45
  0
ENDBLK
  5
98DD
  8
0
  0
BLOCK
  8
0
  2
*U327
 70
     1
 10
0.0
 20
0.0
 30
0.0
  3
*U327
  1

  0
TEXT
  5
98DF
  8
1DIM
 62
   201
 10
367.1189177918269
 20
-2035.993996948494
 30
0.0
 40
3.5
  1
53
  0
ENDBLK
  5
98E1
  8
0
  0
BLOCK
  8
0
  2
*U328
 70
     1
 10
0.0
 20
0.0
 30
0.0
  3
*U328
  1

  0
TEXT
  5
98E3
  8
1DIM
 62
   201
 10
337.17680401209623
 20
-2172.3333892188939
 30
0.0
 40
3.5
  1
R1
 50
48.771294435016848
  0
ENDBLK
  5
98E5
  8
0
  0
BLOCK
  8
0
  2
*U329
 70
     1
 10
0.0
 20
0.0
 30
0.0
  3
*U329
  1

  0
TEXT
  5
98E7
  8
1DIM
 62
   201
 10
335.38830311964853
 20
-2154.070139610707
 30
0.0
 40
3.5
  1
R1
 50
335.54997068500211
  0
ENDBLK
  5
98E9
  8
0
  0
BLOCK
  8
0
  2
*U330
 70
     1
 10
0.0
 20
0.0
 30
0.0
  3
*U330
  1

  0
TEXT
  5
98EB
  8
1DIM
 62
   201
 10
141.0528743117786
 20
-2110.8341508973031
 30
0.0
 40
3.5
  1
33
  0
ENDBLK
  5
98ED
  8
0
  0
BLOCK
  8
0
  2
*U331
 70
     1
 10
0.0
 20
0.0
 30
0.0
  3
*U331
  1

  0
TEXT
  5
98EF
  8
1DIM
 62
   201
 10
141.3445409784452
 20
-2169.1023753265258
 30
0.0
 40
3.5
  1
40
  0
ENDBLK
  5
98F1
  8
0
  0
BLOCK
  8
0
  2
*U332
 70
     1
 10
0.0
 20
0.0
 30
0.0
  3
*U332
  1

  0
TEXT
  5
98F3
  8
1DIM
 62
   201
 10
170.7908701939381
 20
-2151.3086076630861
 30
0.0
 40
3.5
  1
\U+00D89
 50
328.40987928678368
  0
ENDBLK
  5
98F5
  8
0
  0
BLOCK
  8
0
  2
*U333
 70
     1
 10
0.0
 20
0.0
 30
0.0
  3
*U333
  1

  0
TEXT
  5
98F7
  8
1DIM
 62
   201
 10
84.39459023814112
 20
-2152.1021582449948
 30
0.0
 40
3.5
  1
6
 50
90.0
  0
ENDBLK
  5
98F9
  8
0
  0
BLOCK
  8
0
  2
*U334
 70
     1
 10
0.0
 20
0.0
 30
0.0
  3
*U334
  1

  0
TEXT
  5
98FB
  8
1DIM
 62
   201
 10
93.104528191553129
 20
-2164.9688249116639
 30
0.0
 40
3.5
  1
1.5
 50
90.0
  0
ENDBLK
  5
98FD
  8
0
  0
BLOCK
  8
0
  2
*U335
 70
     1
 10
0.0
 20
0.0
 30
0.0
  3
*U335
  1

  0
TEXT
  5
98FF
  8
1DIM
 62
   201
 10
108.5077605354555
 20
-2159.468824911663
 30
0.0
 40
3.5
  1
3
 50
90.0
  0
ENDBLK
  5
9901
  8
0
  0
BLOCK
  8
0
  2
*U336
 70
     1
 10
0.0
 20
0.0
 30
0.0
  3
*U336
  1

  0
TEXT
  5
9903
  8
1DIM
 62
   201
 10
102.2882475666148
 20
-2143.1521582449982
 30
0.0
 40
3.5
  1
6.5
 50
90.0
  0
ENDBLK
  5
9905
  8
0
  0
BLOCK
  8
0
  2
*U337
 70
     1
 10
0.0
 20
0.0
 30
0.0
  3
*U337
  1

  0
TEXT
  5
9907
  8
1DIM
 62
   201
 10
258.1756079062464
 20
-2125.4037478043492
 30
0.0
 40
3.5
  1
R5.75
 50
347.00355848473419
  0
ENDBLK
  5
9909
  8
0
  0
BLOCK
  8
0
  2
*U338
 70
     1
 10
0.0
 20
0.0
 30
0.0
  3
*U338
  1

  0
TEXT
  5
990B
  8
1DIM
 62
   201
 10
70.212811512280538
 20
-2143.8104915783301
 30
0.0
 40
3.5
  1
34.25
 50
90.0
  0
ENDBLK
  5
990D
  8
0
  0
BLOCK
  8
0
  2
*U339
 70
     1
 10
0.0
 20
0.0
 30
0.0
  3
*U339
  1

  0
TEXT
  5
990F
  8
1DIM
 62
   201
 10
306.88153032710972
 20
-2138.5604915783319
 30
0.0
 40
3.5
  1
23.75
 50
90.0
  0
ENDBLK
  5
9911
  8
0
  0
ENDSEC
  0
SECTION
  2
ENTITIES
  0
TEXT
  5
349B
  8
1TEXT
 10
-72.819933440305235
 20
-2049.3874125341122
 30
0.0
 40
8.0
  1
KC043
  0
TEXT
  5
34CA
  8
1TEXT
 10
-66.206481703584686
 20
-2067.5072939956399
 30
0.0
 40
4.0
  1
表面処理：
 72
     1
 11
-55.55886265596564
 21
-2067.5072939956399
 31
0.0
  0
TEXT
  5
34CC
  8
1TEXT
 10
-63.958862655965639
 20
-2074.4851890156242
 30
0.0
 40
4.0
  1
クローム
 41
0.9
 72
     1
 11
-55.55886265596564
 21
-2074.4851890156242
 31
0.0
  0
LINE
  5
34CD
  8
1DIM
 10
-72.958862655965277
 20
-2062.0072939956399
 30
0.0
 11
-2.9588626559652762
 21
-2062.0072939956399
 31
0.0
  0
LINE
  5
34CE
  8
1DIM
 10
-72.958862655965277
 20
-2076.0072939956399
 30
0.0
 11
-2.9588626559652762
 21
-2076.0072939956399
 31
0.0
  0
LINE
  5
34CF
  8
1DIM
 10
-72.958862655965277
 20
-2069.0072939956399
 30
0.0
 11
-2.9588626559652762
 21
-2069.0072939956399
 31
0.0
  0
LINE
  5
34D2
  8
1DIM
 10
-37.958862655965277
 20
-2062.0072939956399
 30
0.0
 11
-37.958862655965277
 21
-2076.0072939956399
 31
0.0
  0
TEXT
  5
34D4
  8
1TEXT
 10
-33.558862655964731
 20
-2074.7216509792888
 30
0.0
 40
4.0
  1
KC043XC
 72
     1
 11
-20.558862655964731
 21
-2074.7216509792888
 31
0.0
  0
TEXT
  5
34D5
  8
1TEXT
 10
-27.358862655965641
 20
-2067.5072939956399
 30
0.0
 40
4.0
  1
コード
 72
     1
 11
-20.55886265596564
 21
-2067.5072939956399
 31
0.0
  0
LINE
  5
34D6
  8
1DIM
 10
-72.958862655965277
 20
-2076.0072939956399
 30
0.0
 11
-72.958862655965277
 21
-2062.0072939956399
 31
0.0
  0
LINE
  5
34D7
  8
1DIM
 10
-2.9588626559652762
 20
-2076.0072939956399
 30
0.0
 11
-2.9588626559652762
 21
-2062.0072939956399
 31
0.0
  0
LINE
  5
85BE
  8
01
  6
BYBLOCK
 10
-232.3315222118546
 20
-2041.8615088246049
 30
0.0
 11
-283.33152221185469
 21
-2041.8615088246049
 31
0.0
  0
ARC
  5
85BF
  8
01
  6
BYBLOCK
 10
-232.3315222118546
 20
-2042.8615088246049
 30
0.0
 40
1.0
 50
0.0
 51
90.0
  0
LINE
  5
85C0
  8
01
  6
BYBLOCK
 10
-232.3315222118546
 20
-2050.8615088246038
 30
0.0
 11
-273.33152221185469
 21
-2050.8615088246038
 31
0.0
  0
LINE
  5
85C1
  8
01
  6
BYBLOCK
 10
-232.33152221185469
 20
-2114.8615088246038
 30
0.0
 11
-273.33152221185469
 21
-2114.8615088246038
 31
0.0
  0
LINE
  5
85C2
  8
01
  6
BYBLOCK
 10
-232.3315222118546
 20
-2106.8615088246052
 30
0.0
 11
-273.33152221185469
 21
-2106.8615088246052
 31
0.0
  0
ARC
  5
85C3
  8
01
  6
BYBLOCK
 10
-232.3315222118546
 20
-2107.8615088246052
 30
0.0
 40
1.0
 50
0.0
 51
90.0
  0
LINE
  5
85C4
  8
01
  6
BYBLOCK
 10
-231.33152221185469
 20
-2113.8615088246052
 30
0.0
 11
-231.3315222118546
 21
-2107.8615088246052
 31
0.0
  0
ARC
  5
85C5
  8
01
  6
BYBLOCK
 10
-232.33152221185469
 20
-2113.8615088246052
 30
0.0
 40
1.0
 50
270.0
 51
0.0
  0
LINE
  5
85C6
  8
01
  6
BYBLOCK
 10
-276.33152221185469
 20
-2103.8615088246052
 30
0.0
 11
-276.33152221185469
 21
-2053.8615088246052
 31
0.0
  0
ARC
  5
85C7
  8
01
  6
BYBLOCK
 10
-273.33152221185469
 20
-2053.8615088246052
 30
0.0
 40
3.0
 50
90.0
 51
180.0
  0
ARC
  5
85C8
  8
01
  6
BYBLOCK
 10
-273.33152221185469
 20
-2103.8615088246052
 30
0.0
 40
3.0
 50
180.0
 51
270.0
  0
LINE
  5
85C9
  8
01
  6
BYBLOCK
 10
-284.33152221185469
 20
-2103.8615088246052
 30
0.0
 11
-284.33152221185469
 21
-2040.8615088246061
 31
0.0
  0
ARC
  5
85CA
  8
01
  6
BYBLOCK
 10
-283.33152221185469
 20
-2042.8615088246049
 30
0.0
 40
1.0
 50
90.0
 51
180.0
  0
ARC
  5
85CB
  8
01
  6
BYBLOCK
 10
-273.33152221185469
 20
-2103.8615088246052
 30
0.0
 40
11.0
 50
180.0
 51
270.0
  0
LINE
  5
85CC
  8
01
  6
BYBLOCK
 10
-231.3315222118546
 20
-2049.8615088246052
 30
0.0
 11
-231.3315222118546
 21
-2040.8615088246061
 31
0.0
  0
ARC
  5
85CD
  8
01
  6
BYBLOCK
 10
-232.3315222118546
 20
-2040.8615088246061
 30
0.0
 40
1.0
 50
0.0
 51
90.0
  0
ARC
  5
85CE
  8
01
  6
BYBLOCK
 10
-232.3315222118546
 20
-2049.8615088246052
 30
0.0
 40
1.0
 50
270.0
 51
0.0
  0
LINE
  5
85CF
  8
01
 10
-284.33152221185469
 20
-2175.8614898246042
 30
0.0
 11
-284.33152221185441
 21
-2208.111489824606
 31
0.0
  0
ARC
  5
85D0
  8
01
 10
-283.33152221185452
 20
-2208.111489824606
 30
0.0
 40
1.0
 50
180.0
 51
270.0
  0
ARC
  5
85D1
  8
01
 10
-283.33152221185469
 20
-2175.8614898246042
 30
0.0
 40
1.0
 50
90.0
 51
180.0
  0
LINE
  5
85D2
  8
01
 10
-234.33152221185469
 20
-2198.6114898246101
 30
0.0
 11
-283.33152221185458
 21
-2198.6114898246101
 31
0.0
  0
ARC
  5
85D3
  8
01
 10
-283.33152221185458
 20
-2197.6114898246092
 30
0.0
 40
1.0
 50
180.0
 51
270.0
  0
LINE
  5
85D4
  8
01
 10
-232.33152221185469
 20
-2174.8614898246051
 30
0.0
 11
-283.33152221185469
 21
-2174.8614898246042
 31
0.0
  0
ARC
  5
85D5
  8
01
 10
-232.33152221185469
 20
-2175.8614898246051
 30
0.0
 40
1.0
 50
0.0
 51
90.0
  0
ARC
  5
85D6
  8
01
 10
-234.3315222118546
 20
-2177.8614898246051
 30
0.0
 40
3.0
 50
0.0
 51
89.999999999993491
  0
LINE
  5
85D7
  8
01
 10
-231.33152221185469
 20
-2175.8614898246051
 30
0.0
 11
-231.3315222118548
 21
-2208.111489824606
 31
0.0
  0
ARC
  5
85D8
  8
01
 10
-234.33152221185469
 20
-2195.6114898246101
 30
0.0
 40
3.0
 50
270.0
 51
0.0
  0
LINE
  5
85D9
  8
01
 10
-232.3315222118548
 20
-2209.1114898246051
 30
0.0
 11
-283.33152221185452
 21
-2209.1114898246051
 31
0.0
  0
ARC
  5
85DA
  8
01
 10
-232.3315222118548
 20
-2208.111489824606
 30
0.0
 40
1.0
 50
270.0
 51
0.0
  0
LINE
  5
85DB
  8
01
  6
BYBLOCK
 10
-232.3315222118546
 20
-2039.8615088246061
 30
0.0
 11
-283.33152221185469
 21
-2039.8615088246061
 31
0.0
  0
ARC
  5
85DC
  8
01
  6
BYBLOCK
 10
-283.33152221185469
 20
-2040.8615088246061
 30
0.0
 40
1.0
 50
90.0
 51
180.0
  0
LINE
  5
85F3
  8
01
  6
BYBLOCK
 10
-69.904428891889097
 20
-2174.8614898246051
 30
0.0
 11
0.0955711081099935
 21
-2174.8614898246051
 31
0.0
  0
ARC
  5
85F4
  8
01
 10
0.0955711081099935
 20
-2176.8614898246051
 30
0.0
 40
2.0
 50
0.0
 51
90.0
  0
LINE
  5
85F5
  8
01
  6
BYBLOCK
 10
-4.1544288918900056
 20
-2181.706697704516
 30
0.0
 11
-4.1544288918900056
 21
-2195.4238682288142
 31
0.0
  0
LINE
  5
85F7
  8
1PHANTOM
 10
2.595571108109993
 20
-2198.9114898246039
 30
0.0
 11
2.5955711081095378
 21
-2207.311489824604
 31
0.0
  0
LINE
  5
85F8
  8
01
  6
BYBLOCK
 10
0.5955711081099935
 20
-2199.6114898246042
 30
0.0
 11
0.5955711081099935
 21
-2208.1114898246051
 31
0.0
  0
ARC
  5
85F9
  8
01
 10
1.595571108109993
 20
-2208.1114898246051
 30
0.0
 40
1.0
 50
180.0
 51
270.0
  0
LINE
  5
85FA
  8
01
 10
0.0955711081099935
 20
-2177.3614898246051
 30
0.0
 11
0.0955711081099935
 21
-2179.3614898246051
 31
0.0
  0
LINE
  5
85FB
  8
01
 10
2.095571108109993
 20
-2176.8614898246051
 30
0.0
 11
2.095571108109993
 21
-2179.3614898246051
 31
0.0
  0
LINE
  5
85FC
  8
01
 10
-0.4044288918900066
 20
-2176.8614898246051
 30
0.0
 11
-3.8906599335278989
 21
-2176.8614898246051
 31
0.0
  0
ARC
  5
85FD
  8
01
 10
-0.4044288918900066
 20
-2177.3614898246051
 30
0.0
 40
0.5
 50
0.0
 51
90.0
  0
ARC
  5
85FE
  8
01
 10
1.095571108109993
 20
-2179.3614898246051
 30
0.0
 40
0.9999999999998863
 50
180.0
 51
0.0
  0
ARC
  5
85FF
  8
01
 10
1.095571108109993
 20
-2179.3614898246051
 30
0.0
 40
5.75
 50
156.19220792229771
 51
204.07061462257471
  0
ARC
  5
8600
  8
01
 10
-3.8906599335278989
 20
-2177.1614898246048
 30
0.0
 40
0.3
 50
90.0
 51
156.1922079222679
  0
ARC
  5
8601
  8
01
 10
1.095571108109993
 20
-2179.3614898246051
 30
0.0
 40
17.25
 50
253.5258881106833
 51
278.096749769795
  0
ARC
  5
8602
  8
01
 10
-3.6544288918900061
 20
-2195.4238682288142
 30
0.0
 40
0.5
 50
180.0
 51
253.5258881106833
  0
ARC
  5
8603
  8
01
 10
3.595571108109993
 20
-2196.9345515953951
 30
0.0
 40
0.5
 50
0.0
 51
98.096749769794954
  0
LINE
  5
8604
  8
01
 10
4.0955711081099926
 20
-2196.9345515953951
 30
0.0
 11
4.0955711081099926
 21
-2203.1114898246051
 31
0.0
  0
LINE
  5
8605
  8
01
 10
4.0955711081095378
 20
-2203.1114898246051
 30
0.0
 11
4.0955711081104482
 21
-2208.6114898246051
 31
0.0
  0
LINE
  5
8606
  8
01
 10
-69.904428891888188
 20
-2198.611489824611
 30
0.0
 11
-0.4044288918900066
 21
-2198.6114898246051
 31
0.0
  0
ARC
  5
8607
  8
01
 10
-0.4044288918900066
 20
-2199.6114898246042
 30
0.0
 40
1.0
 50
0.0
 51
90.0
  0
ARC
  5
8608
  8
01
 10
-69.904428891888642
 20
-2197.611489824611
 30
0.0
 40
1.0
 50
180.0
 51
270.0
  0
LINE
  5
8609
  8
1PHANTOM
 10
2.8955711081101749
 20
-2198.6114898246051
 30
0.0
 11
3.7955711081102659
 21
-2198.6114898246051
 31
0.0
  0
ARC
  5
860A
  8
1PHANTOM
 10
3.7955711081102659
 20
-2198.311489824604
 30
0.0
 40
0.3
 50
270.0
 51
0.0
  0
ARC
  5
860B
  8
1PHANTOM
 10
2.8955711081101749
 20
-2198.9114898246039
 30
0.0
 40
0.3
 50
90.0
 51
180.0
  0
LINE
  5
860C
  8
01
 10
1.595571108110448
 20
-2209.1114898246051
 30
0.0
 11
3.595571108109993
 21
-2209.1114898246051
 31
0.0
  0
LINE
  5
860D
  8
1PHANTOM
 10
2.8955711081097202
 20
-2207.6114898246051
 30
0.0
 11
3.7955711081098111
 21
-2207.6114898246051
 31
0.0
  0
ARC
  5
860E
  8
1PHANTOM
 10
2.8955711081097202
 20
-2207.311489824604
 30
0.0
 40
0.3
 50
180.0
 51
270.0
  0
LINE
  5
860F
  8
01
 10
-70.904428891889097
 20
-2175.8614898246051
 30
0.0
 11
-70.904428891888642
 21
-2197.611489824611
 31
0.0
  0
ARC
  5
8610
  8
01
 10
-69.904428891889097
 20
-2175.8614898246051
 30
0.0
 40
1.0
 50
90.0
 51
180.0
  0
ARC
  5
8611
  8
01
 10
3.595571108109993
 20
-2208.6114898246051
 30
0.0
 40
0.5
 50
270.0
 51
0.0
  0
ARC
  5
8612
  8
1PHANTOM
 10
3.7955711081098111
 20
-2207.9114898246048
 30
0.0
 40
0.3
 50
0.0
 51
90.0
  0
LINE
  5
862A
  8
1PHANTOM
 10
2.595571108109993
 20
-2199.1614898246048
 30
0.0
 11
3.095571108109993
 21
-2199.1614898246048
 31
0.0
  0
LINE
  5
862B
  8
1PHANTOM
 10
3.095571108109993
 20
-2199.1614898246048
 30
0.0
 11
3.095571108109993
 21
-2207.0614898246049
 31
0.0
  0
LINE
  5
862C
  8
1PHANTOM
 10
2.595571108109993
 20
-2199.1614898246048
 30
0.0
 11
2.595571108109993
 21
-2207.0614898246049
 31
0.0
  0
LINE
  5
862D
  8
1PHANTOM
 10
2.595571108109993
 20
-2207.0614898246049
 30
0.0
 11
3.095571108109993
 21
-2207.0614898246049
 31
0.0
  0
ARC
  5
862F
  8
1PHANTOM
 10
0.7955711081098116
 20
-2203.1114898246051
 30
0.0
 40
4.0
 50
305.0996321953765
 51
325.58849133023421
  0
LINE
  5
8634
  8
01
  6
BYBLOCK
 10
-162.9044288918889
 20
-2041.8615088246049
 30
0.0
 11
-111.9044288918888
 21
-2041.8615088246049
 31
0.0
  0
ARC
  5
8635
  8
01
  6
BYBLOCK
 10
-162.9044288918889
 20
-2042.8615088246049
 30
0.0
 40
1.0
 50
90.0
 51
180.0
  0
LINE
  5
8636
  8
01
  6
BYBLOCK
 10
-162.9044288918889
 20
-2050.8615088246038
 30
0.0
 11
-121.9044288918889
 21
-2050.8615088246038
 31
0.0
  0
LINE
  5
8637
  8
01
  6
BYBLOCK
 10
-162.9044288918887
 20
-2114.8615088246038
 30
0.0
 11
-121.9044288918889
 21
-2114.8615088246038
 31
0.0
  0
LINE
  5
8638
  8
01
  6
BYBLOCK
 10
-162.9044288918889
 20
-2106.8615088246052
 30
0.0
 11
-121.9044288918889
 21
-2106.8615088246052
 31
0.0
  0
ARC
  5
8639
  8
01
  6
BYBLOCK
 10
-162.9044288918889
 20
-2107.8615088246052
 30
0.0
 40
1.0
 50
90.0
 51
180.0
  0
LINE
  5
863A
  8
01
  6
BYBLOCK
 10
-163.9044288918887
 20
-2113.8615088246052
 30
0.0
 11
-163.90442889188881
 21
-2107.8615088246052
 31
0.0
  0
ARC
  5
863B
  8
01
  6
BYBLOCK
 10
-162.9044288918887
 20
-2113.8615088246052
 30
0.0
 40
1.0
 50
180.0
 51
270.0
  0
LINE
  5
863C
  8
01
  6
BYBLOCK
 10
-118.9044288918889
 20
-2103.8615088246052
 30
0.0
 11
-118.9044288918889
 21
-2053.8615088246052
 31
0.0
  0
ARC
  5
863D
  8
01
  6
BYBLOCK
 10
-121.9044288918889
 20
-2053.8615088246052
 30
0.0
 40
3.0
 50
0.0
 51
90.0
  0
ARC
  5
863E
  8
01
  6
BYBLOCK
 10
-121.9044288918889
 20
-2103.8615088246052
 30
0.0
 40
3.0
 50
270.0
 51
0.0
  0
LINE
  5
863F
  8
01
  6
BYBLOCK
 10
-110.9044288918888
 20
-2103.8615088246052
 30
0.0
 11
-110.9044288918888
 21
-2040.8615088246061
 31
0.0
  0
ARC
  5
8640
  8
01
  6
BYBLOCK
 10
-111.9044288918888
 20
-2042.8615088246049
 30
0.0
 40
1.0
 50
0.0
 51
90.0
  0
ARC
  5
8641
  8
01
  6
BYBLOCK
 10
-121.9044288918889
 20
-2103.8615088246052
 30
0.0
 40
11.0
 50
270.0
 51
0.0
  0
LINE
  5
8642
  8
01
  6
BYBLOCK
 10
-163.90442889188881
 20
-2049.8615088246052
 30
0.0
 11
-163.90442889188881
 21
-2040.8615088246061
 31
0.0
  0
ARC
  5
8643
  8
01
  6
BYBLOCK
 10
-162.9044288918889
 20
-2040.8615088246061
 30
0.0
 40
1.0
 50
90.0
 51
180.0
  0
ARC
  5
8644
  8
01
  6
BYBLOCK
 10
-162.9044288918889
 20
-2049.8615088246052
 30
0.0
 40
1.0
 50
180.0
 51
270.0
  0
LINE
  5
8645
  8
01
 10
-110.9044288918888
 20
-2175.8614898246051
 30
0.0
 11
-110.9044288918888
 21
-2208.111489824606
 31
0.0
  0
ARC
  5
8646
  8
01
 10
-111.9044288918888
 20
-2208.111489824606
 30
0.0
 40
1.0
 50
270.0
 51
0.0
  0
ARC
  5
8647
  8
01
 10
-111.9044288918888
 20
-2175.8614898246051
 30
0.0
 40
1.0
 50
0.0
 51
90.0
  0
LINE
  5
8648
  8
01
 10
-160.9044288918887
 20
-2198.611489824611
 30
0.0
 11
-111.9044288918888
 21
-2198.6114898246101
 31
0.0
  0
ARC
  5
8649
  8
01
 10
-111.9044288918888
 20
-2197.6114898246101
 30
0.0
 40
1.0
 50
270.0
 51
0.0
  0
LINE
  5
864A
  8
01
 10
-162.9044288918887
 20
-2174.8614898246051
 30
0.0
 11
-111.9044288918888
 21
-2174.8614898246051
 31
0.0
  0
ARC
  5
864B
  8
01
 10
-162.9044288918887
 20
-2175.8614898246051
 30
0.0
 40
1.0
 50
90.0
 51
180.0
  0
ARC
  5
864C
  8
01
 10
-160.90442889188881
 20
-2177.8614898246051
 30
0.0
 40
3.0
 50
90.000000000013017
 51
180.0
  0
LINE
  5
864D
  8
01
 10
-163.9044288918887
 20
-2175.8614898246051
 30
0.0
 11
-163.90442889188861
 21
-2208.111489824606
 31
0.0
  0
ARC
  5
864E
  8
01
 10
-160.9044288918887
 20
-2195.611489824611
 30
0.0
 40
3.0
 50
180.0
 51
270.0
  0
LINE
  5
864F
  8
01
 10
-162.90442889188861
 20
-2209.111489824606
 30
0.0
 11
-111.9044288918888
 21
-2209.111489824606
 31
0.0
  0
ARC
  5
8650
  8
01
 10
-162.90442889188861
 20
-2208.111489824606
 30
0.0
 40
1.0
 50
180.0
 51
270.0
  0
LINE
  5
8651
  8
01
  6
BYBLOCK
 10
-162.9044288918889
 20
-2039.8615088246061
 30
0.0
 11
-111.9044288918888
 21
-2039.8615088246061
 31
0.0
  0
ARC
  5
8652
  8
01
  6
BYBLOCK
 10
-111.9044288918888
 20
-2040.8615088246061
 30
0.0
 40
1.0
 50
0.0
 51
90.0
  0
ARC
  5
870A
  8
1PHANTOM
 10
0.7955711081098116
 20
-2203.1114898246051
 30
0.0
 40
4.0
 50
34.411508669765787
 51
54.90036780462335
  0
ARC
  5
870B
  8
01
 10
0.7955711081098116
 20
-2203.1114898246051
 30
0.0
 40
4.0
 50
325.58849133023421
 51
34.411508669765787
  0
ARC
  5
870D
  8
01
 10
-117.4044288918884
 20
-2043.161508824606
 30
0.0
 40
4.0
 50
55.588491330236103
 51
124.4115086697675
  0
ARC
  5
870E
  8
01
 10
-157.4044288918893
 20
-2043.161508824606
 30
0.0
 40
4.0
 50
55.5884913302325
 51
124.4115086697669
  0
ARC
  5
870F
  8
01
 10
-237.83152221185409
 20
-2043.161508824606
 30
0.0
 40
4.0
 50
55.588491330236103
 51
124.4115086697675
  0
ARC
  5
8710
  8
01
 10
-277.83152221185497
 20
-2043.161508824606
 30
0.0
 40
4.0
 50
55.5884913302325
 51
124.4115086697669
  0
TEXT
  5
87F8
  8
1TEXT
 10
-71.227247951083626
 20
-2059.7847283724291
 30
0.0
 40
4.0
  1
材質：亜鉛ダイキャスト
 72
     1
 11
-45.760581284416958
 21
-2059.7847283724291
 31
0.0
  0
TEXT
  5
95DA
  8
1HATCH
 10
22.64713120265769
 20
-2181.262972597171
 30
0.0
 40
3.5
  1
クリアバンポン
  0
SOLID
  5
95DB
  8
1HATCH
 10
5.8595001481846136
 20
-2199.7345078685798
 30
0.0
 11
4.305092137779865
 21
-2201.0364014311649
 31
0.0
 12
5.3532423435405239
 22
-2199.300748165886
 32
0.0
 13
5.3532423435405239
 23
-2199.300748165886
 33
0.0
  0
LINE
  5
95DD
  8
1DIM
 10
-118.9044288918889
 20
-2103.8615088246052
 30
0.0
 11
-118.9044288918889
 21
-2135.8615088246052
 31
0.0
  0
LINE
  5
95DE
  8
1DIM
 10
-110.9044288918888
 20
-2103.8615088246052
 30
0.0
 11
-110.9044288918888
 21
-2135.8615088246052
 31
0.0
  0
LINE
  5
95DF
  8
1DIM
 10
-116.9044288918889
 20
-2134.8615088246052
 30
0.0
 11
-112.9044288918888
 21
-2134.8615088246052
 31
0.0
  0
LINE
  5
95E3
  8
1DIM
 10
-118.9044288918889
 20
-2103.8615088246052
 30
0.0
 11
-118.9044288918889
 21
-2135.8615088246052
 31
0.0
  0
LINE
  5
95E4
  8
1DIM
 10
-163.9044288918887
 20
-2113.8615088246052
 30
0.0
 11
-163.9044288918887
 21
-2135.8615088246052
 31
0.0
  0
LINE
  5
95E5
  8
1DIM
 10
-120.9044288918889
 20
-2134.8615088246052
 30
0.0
 11
-161.9044288918887
 21
-2134.8615088246052
 31
0.0
  0
LINE
  5
95E9
  8
1DIM
 10
-110.9044288918888
 20
-2208.111489824606
 30
0.0
 11
-110.9044288918888
 21
-2230.1114898246051
 31
0.0
  0
LINE
  5
95EA
  8
1DIM
 10
-163.90442889188861
 20
-2208.111489824606
 30
0.0
 11
-163.90442889188861
 21
-2230.1114898246051
 31
0.0
  0
LINE
  5
95EB
  8
1DIM
 10
-112.9044288918888
 20
-2229.1114898246051
 30
0.0
 11
-161.90442889188861
 21
-2229.1114898246051
 31
0.0
  0
LINE
  5
95EF
  8
1DIM
 10
-121.9044288918889
 20
-2106.8615088246052
 30
0.0
 11
-89.904428891888855
 21
-2106.8615088246052
 31
0.0
  0
LINE
  5
95F0
  8
1DIM
 10
-121.9044288918888
 20
-2114.8615088246038
 30
0.0
 11
-89.904428891888855
 21
-2114.8615088246038
 31
0.0
  0
LINE
  5
95F1
  8
1DIM
 10
-90.904428891888855
 20
-2108.8615088246052
 30
0.0
 11
-90.904428891888855
 21
-2112.8615088246052
 31
0.0
  0
LINE
  5
95F5
  8
1DIM
 10
-121.9044288918889
 20
-2050.8615088246038
 30
0.0
 11
-89.904428891888855
 21
-2050.8615088246038
 31
0.0
  0
LINE
  5
95F6
  8
1DIM
 10
-121.9044288918889
 20
-2106.8615088246052
 30
0.0
 11
-89.90442889188887
 21
-2106.8615088246052
 31
0.0
  0
LINE
  5
95F7
  8
1DIM
 10
-90.904428891888855
 20
-2052.8615088246052
 30
0.0
 11
-90.90442889188887
 21
-2104.8615088246052
 31
0.0
  0
LINE
  5
95FB
  8
1DIM
 10
4.7955711081098107
 20
-2203.1114898246051
 30
0.0
 11
4.7955711081098089
 21
-2230.1114898246051
 31
0.0
  0
LINE
  5
95FC
  8
1DIM
 10
-70.90442889188887
 20
-2197.611489824611
 30
0.0
 11
-70.90442889188887
 21
-2230.1114898246051
 31
0.0
  0
LINE
  5
95FD
  8
1DIM
 10
2.7955711081098089
 20
-2229.1114898246051
 30
0.0
 11
-68.90442889188887
 21
-2229.1114898246051
 31
0.0
  0
LINE
  5
9601
  8
1DIM
 10
-111.9044288918888
 20
-2198.6114898246101
 30
0.0
 11
-89.90442889188887
 21
-2198.6114898246101
 31
0.0
  0
LINE
  5
9602
  8
1DIM
 10
-111.9044288918888
 20
-2174.8614898246051
 30
0.0
 11
-89.90442889188887
 21
-2174.8614898246051
 31
0.0
  0
LINE
  5
9603
  8
1DIM
 10
-90.90442889188887
 20
-2196.6114898246101
 30
0.0
 11
-90.90442889188887
 21
-2176.8614898246051
 31
0.0
  0
LINE
  5
9607
  8
1DIM
 10
-111.9044288918888
 20
-2209.111489824606
 30
0.0
 11
-79.90442889188887
 21
-2209.111489824606
 31
0.0
  0
LINE
  5
9608
  8
1DIM
 10
-111.9044288918888
 20
-2174.8614898246051
 30
0.0
 11
-79.904428891888855
 21
-2174.8614898246051
 31
0.0
  0
LINE
  5
9609
  8
1DIM
 10
-80.904428891888855
 20
-2207.111489824606
 30
0.0
 11
-80.904428891888855
 21
-2176.8614898246051
 31
0.0
  0
TEXT
  5
960D
  8
1DIM
 10
-81.604428891888503
 20
-2194.9031564912711
 30
0.0
 40
3.5
  1
34
 50
90.0
  0
LINE
  5
960E
  8
0
  6
BYBLOCK
 10
-81.440327271888862
 20
-2176.8614898246051
 30
0.0
 11
-80.904428891888855
 21
-2174.8614898246051
 31
0.0
  0
LINE
  5
960F
  8
0
  6
BYBLOCK
 10
-80.904428891888855
 20
-2174.8614898246051
 30
0.0
 11
-80.368530511888835
 21
-2176.8614898246051
 31
0.0
  0
LINE
  5
9610
  8
0
  6
BYBLOCK
 10
-80.904428891888855
 20
-2174.8614898246051
 30
0.0
 11
-80.904428891888855
 21
-2176.8614898246051
 31
0.0
  0
LINE
  5
9611
  8
0
  6
BYBLOCK
 10
-80.368530511888864
 20
-2207.111489824606
 30
0.0
 11
-80.90442889188887
 21
-2209.111489824606
 31
0.0
  0
LINE
  5
9612
  8
0
  6
BYBLOCK
 10
-80.90442889188887
 20
-2209.111489824606
 30
0.0
 11
-81.440327271888876
 21
-2207.111489824606
 31
0.0
  0
LINE
  5
9613
  8
0
  6
BYBLOCK
 10
-80.90442889188887
 20
-2209.111489824606
 30
0.0
 11
-80.90442889188887
 21
-2207.111489824606
 31
0.0
  0
TEXT
  5
9614
  8
1DIM
 10
-91.604428891888517
 20
-2189.6531564912739
 30
0.0
 40
3.5
  1
24
 50
90.0
  0
LINE
  5
9615
  8
0
  6
BYBLOCK
 10
-91.440327271888876
 20
-2176.8614898246051
 30
0.0
 11
-90.90442889188887
 21
-2174.8614898246051
 31
0.0
  0
LINE
  5
9616
  8
0
  6
BYBLOCK
 10
-90.90442889188887
 20
-2174.8614898246051
 30
0.0
 11
-90.368530511888864
 21
-2176.8614898246051
 31
0.0
  0
LINE
  5
9617
  8
0
  6
BYBLOCK
 10
-90.90442889188887
 20
-2174.8614898246051
 30
0.0
 11
-90.90442889188887
 21
-2176.8614898246051
 31
0.0
  0
LINE
  5
9618
  8
0
  6
BYBLOCK
 10
-90.368530511888864
 20
-2196.6114898246101
 30
0.0
 11
-90.90442889188887
 21
-2198.6114898246101
 31
0.0
  0
LINE
  5
9619
  8
0
  6
BYBLOCK
 10
-90.90442889188887
 20
-2198.6114898246101
 30
0.0
 11
-91.440327271888876
 21
-2196.6114898246101
 31
0.0
  0
LINE
  5
961A
  8
0
  6
BYBLOCK
 10
-90.90442889188887
 20
-2198.6114898246101
 30
0.0
 11
-90.90442889188887
 21
-2196.6114898246101
 31
0.0
  0
TEXT
  5
961B
  8
1DIM
 10
-35.971095558556193
 20
-2228.4114898246048
 30
0.0
 40
3.5
  1
76
  0
LINE
  5
961C
  8
0
  6
BYBLOCK
 10
-68.90442889188887
 20
-2229.6473882046062
 30
0.0
 11
-70.90442889188887
 21
-2229.1114898246051
 31
0.0
  0
LINE
  5
961D
  8
0
  6
BYBLOCK
 10
-70.90442889188887
 20
-2229.1114898246051
 30
0.0
 11
-68.90442889188887
 21
-2228.5755914446049
 31
0.0
  0
LINE
  5
961E
  8
0
  6
BYBLOCK
 10
-70.90442889188887
 20
-2229.1114898246051
 30
0.0
 11
-68.90442889188887
 21
-2229.1114898246051
 31
0.0
  0
LINE
  5
961F
  8
0
  6
BYBLOCK
 10
2.7955711081098089
 20
-2228.5755914446049
 30
0.0
 11
4.7955711081098089
 21
-2229.1114898246051
 31
0.0
  0
LINE
  5
9620
  8
0
  6
BYBLOCK
 10
4.7955711081098089
 20
-2229.1114898246051
 30
0.0
 11
2.7955711081098089
 21
-2229.6473882046062
 31
0.0
  0
LINE
  5
9621
  8
0
  6
BYBLOCK
 10
4.7955711081098089
 20
-2229.1114898246051
 30
0.0
 11
2.7955711081098089
 21
-2229.1114898246051
 31
0.0
  0
TEXT
  5
9622
  8
1DIM
 10
-91.604428891888531
 20
-2081.7781754912712
 30
0.0
 40
3.5
  1
56
 50
90.0
  0
LINE
  5
9623
  8
0
  6
BYBLOCK
 10
-90.368530511888864
 20
-2104.8615088246052
 30
0.0
 11
-90.90442889188887
 21
-2106.8615088246052
 31
0.0
  0
LINE
  5
9624
  8
0
  6
BYBLOCK
 10
-90.90442889188887
 20
-2106.8615088246052
 30
0.0
 11
-91.440327271888876
 21
-2104.8615088246052
 31
0.0
  0
LINE
  5
9625
  8
0
  6
BYBLOCK
 10
-90.90442889188887
 20
-2106.8615088246052
 30
0.0
 11
-90.90442889188887
 21
-2104.8615088246052
 31
0.0
  0
LINE
  5
9626
  8
0
  6
BYBLOCK
 10
-91.440327271888862
 20
-2052.8615088246052
 30
0.0
 11
-90.904428891888855
 21
-2050.8615088246038
 31
0.0
  0
LINE
  5
9627
  8
0
  6
BYBLOCK
 10
-90.904428891888855
 20
-2050.8615088246038
 30
0.0
 11
-90.368530511888835
 21
-2052.8615088246052
 31
0.0
  0
LINE
  5
9628
  8
0
  6
BYBLOCK
 10
-90.904428891888855
 20
-2050.8615088246038
 30
0.0
 11
-90.904428891888855
 21
-2052.8615088246052
 31
0.0
  0
TEXT
  5
9629
  8
1DIM
 10
-91.604428891888517
 20
-2112.0281754912712
 30
0.0
 40
3.5
  1
8
 50
90.0
  0
LINE
  5
962A
  8
0
  6
BYBLOCK
 10
-90.368530511888835
 20
-2112.8615088246052
 30
0.0
 11
-90.904428891888855
 21
-2114.8615088246038
 31
0.0
  0
LINE
  5
962B
  8
0
  6
BYBLOCK
 10
-90.904428891888855
 20
-2114.8615088246038
 30
0.0
 11
-91.440327271888862
 21
-2112.8615088246052
 31
0.0
  0
LINE
  5
962C
  8
0
  6
BYBLOCK
 10
-90.904428891888855
 20
-2114.8615088246038
 30
0.0
 11
-90.904428891888855
 21
-2112.8615088246052
 31
0.0
  0
LINE
  5
962D
  8
0
  6
BYBLOCK
 10
-91.440327271888862
 20
-2108.8615088246052
 30
0.0
 11
-90.904428891888855
 21
-2106.8615088246052
 31
0.0
  0
LINE
  5
962E
  8
0
  6
BYBLOCK
 10
-90.904428891888855
 20
-2106.8615088246052
 30
0.0
 11
-90.368530511888835
 21
-2108.8615088246052
 31
0.0
  0
LINE
  5
962F
  8
0
  6
BYBLOCK
 10
-90.904428891888855
 20
-2106.8615088246052
 30
0.0
 11
-90.904428891888855
 21
-2108.8615088246052
 31
0.0
  0
TEXT
  5
9630
  8
1DIM
 10
-140.32109555855541
 20
-2228.4114898246048
 30
0.0
 40
3.5
  1
53
  0
LINE
  5
9631
  8
0
  6
BYBLOCK
 10
-161.90442889188861
 20
-2229.6473882046062
 30
0.0
 11
-163.90442889188861
 21
-2229.1114898246051
 31
0.0
  0
LINE
  5
9632
  8
0
  6
BYBLOCK
 10
-163.90442889188861
 20
-2229.1114898246051
 30
0.0
 11
-161.90442889188861
 21
-2228.5755914446049
 31
0.0
  0
LINE
  5
9633
  8
0
  6
BYBLOCK
 10
-163.90442889188861
 20
-2229.1114898246051
 30
0.0
 11
-161.90442889188861
 21
-2229.1114898246051
 31
0.0
  0
LINE
  5
9634
  8
0
  6
BYBLOCK
 10
-112.9044288918888
 20
-2228.5755914446049
 30
0.0
 11
-110.9044288918888
 21
-2229.1114898246051
 31
0.0
  0
LINE
  5
9635
  8
0
  6
BYBLOCK
 10
-110.9044288918888
 20
-2229.1114898246051
 30
0.0
 11
-112.9044288918888
 21
-2229.6473882046062
 31
0.0
  0
LINE
  5
9636
  8
0
  6
BYBLOCK
 10
-110.9044288918888
 20
-2229.1114898246051
 30
0.0
 11
-112.9044288918888
 21
-2229.1114898246051
 31
0.0
  0
TEXT
  5
9637
  8
1DIM
 10
-144.3210955585555
 20
-2134.1615088246049
 30
0.0
 40
3.5
  1
45
  0
LINE
  5
9638
  8
0
  6
BYBLOCK
 10
-161.9044288918887
 20
-2135.3974072046049
 30
0.0
 11
-163.9044288918887
 21
-2134.8615088246052
 31
0.0
  0
LINE
  5
9639
  8
0
  6
BYBLOCK
 10
-163.9044288918887
 20
-2134.8615088246052
 30
0.0
 11
-161.9044288918887
 21
-2134.325610444605
 31
0.0
  0
LINE
  5
963A
  8
0
  6
BYBLOCK
 10
-163.9044288918887
 20
-2134.8615088246052
 30
0.0
 11
-161.9044288918887
 21
-2134.8615088246052
 31
0.0
  0
LINE
  5
963B
  8
0
  6
BYBLOCK
 10
-120.9044288918889
 20
-2134.325610444605
 30
0.0
 11
-118.9044288918889
 21
-2134.8615088246052
 31
0.0
  0
LINE
  5
963C
  8
0
  6
BYBLOCK
 10
-118.9044288918889
 20
-2134.8615088246052
 30
0.0
 11
-120.9044288918889
 21
-2135.3974072046049
 31
0.0
  0
LINE
  5
963D
  8
0
  6
BYBLOCK
 10
-118.9044288918889
 20
-2134.8615088246052
 30
0.0
 11
-120.9044288918889
 21
-2134.8615088246052
 31
0.0
  0
TEXT
  5
963E
  8
1DIM
 10
-116.0710955585555
 20
-2134.1615088246049
 30
0.0
 40
3.5
  1
8
  0
LINE
  5
963F
  8
0
  6
BYBLOCK
 10
-112.9044288918888
 20
-2134.325610444605
 30
0.0
 11
-110.9044288918888
 21
-2134.8615088246052
 31
0.0
  0
LINE
  5
9640
  8
0
  6
BYBLOCK
 10
-110.9044288918888
 20
-2134.8615088246052
 30
0.0
 11
-112.9044288918888
 21
-2135.3974072046049
 31
0.0
  0
LINE
  5
9641
  8
0
  6
BYBLOCK
 10
-110.9044288918888
 20
-2134.8615088246052
 30
0.0
 11
-112.9044288918888
 21
-2134.8615088246052
 31
0.0
  0
LINE
  5
9642
  8
0
  6
BYBLOCK
 10
-116.9044288918889
 20
-2135.3974072046049
 30
0.0
 11
-118.9044288918889
 21
-2134.8615088246052
 31
0.0
  0
LINE
  5
9643
  8
0
  6
BYBLOCK
 10
-118.9044288918889
 20
-2134.8615088246052
 30
0.0
 11
-116.9044288918889
 21
-2134.325610444605
 31
0.0
  0
LINE
  5
9644
  8
0
  6
BYBLOCK
 10
-118.9044288918889
 20
-2134.8615088246052
 30
0.0
 11
-116.9044288918889
 21
-2134.8615088246052
 31
0.0
  0
LINE
  5
9645
  8
1HATCH
 10
5.6063712458625687
 20
-2199.5176280172332
 30
0.0
 11
20.647131202657871
 21
-2181.9629725971708
 31
0.0
  0
LINE
  5
9646
  8
1HATCH
 10
20.647131202657871
 20
-2181.9629725971708
 30
0.0
 11
56.013797869324542
 21
-2181.9629725971708
 31
0.0
  0
VIEWPORT
  5
57
 67
     1
  8
0
 10
-12.724804992755111
 20
14.18057439074232
 30
0.0
 40
411.05128286748851
 41
291.03898867314149
 68
     1
 69
     1
1001
ACAD
1000
MVIEW
1002
{
1070
    16
1010
0.0
1020
0.0
1030
0.0
1010
0.0
1020
0.0
1030
1.0
1040
0.0
1040
291.03898867314149
1040
-12.724804992755111
1040
14.18057439074232
1040
50.0
1040
0.0
1040
0.0
1070
     0
1070
   100
1070
     1
1070
     1
1070
     0
1070
     0
1070
     0
1070
     0
1040
0.0
1040
0.0
1040
0.0
1040
10.0
1040
10.0
1040
10.0
1040
10.0
1070
     0
1002
{
1002
}
1002
}
  0
ENDSEC
  0
EOF
