  0
SECTION
  2
HEADER
  9
$ACADVER
  1
AC1009
  9
$INSBASE
 10
0.0
 20
0.0
 30
0.0
  9
$EXTMIN
 10
77.534125626506921
 20
-2239.195662802751
 30
0.0
  9
$EXTMAX
 10
416.7341256265035
 20
-2022.445662802754
 30
0.0
  9
$LIMMIN
 10
0.0
 20
0.0
  9
$LIMMAX
 10
420.0
 20
297.0
  9
$ORTHOMODE
 70
     0
  9
$REGENMODE
 70
     1
  9
$FILLMODE
 70
     1
  9
$QTEXTMODE
 70
     0
  9
$MIRRTEXT
 70
     1
  9
$DRAGMODE
 70
     2
  9
$LTSCALE
 40
0.5
  9
$OSMODE
 70
  2175
  9
$ATTMODE
 70
     1
  9
$TEXTSIZE
 40
4.0
  9
$TRACEWID
 40
1.0
  9
$TEXTSTYLE
  7
STANDARD
  9
$CLAYER
  8
1TEXT
  9
$CELTYPE
  6
BYLAYER
  9
$CECOLOR
 62
   256
  9
$DIMSCALE
 40
1.0
  9
$DIMASZ
 40
2.0
  9
$DIMEXO
 40
0.0
  9
$DIMDLI
 40
7.0
  9
$DIMRND
 40
0.0
  9
$DIMDLE
 40
0.0
  9
$DIMEXE
 40
1.0
  9
$DIMTP
 40
0.0
  9
$DIMTM
 40
0.0
  9
$DIMTXT
 40
3.5
  9
$DIMCEN
 40
0.0
  9
$DIMTSZ
 40
0.0
  9
$DIMTOL
 70
     0
  9
$DIMLIM
 70
     0
  9
$DIMTIH
 70
     0
  9
$DIMTOH
 70
     0
  9
$DIMSE1
 70
     0
  9
$DIMSE2
 70
     0
  9
$DIMTAD
 70
     1
  9
$DIMZIN
 70
     8
  9
$DIMBLK
  1

  9
$DIMASO
 70
     1
  9
$DIMSHO
 70
     1
  9
$DIMPOST
  1
 
  9
$DIMAPOST
  1

  9
$DIMALT
 70
     0
  9
$DIMALTD
 70
     2
  9
$DIMALTF
 40
25.399999999999999
  9
$DIMLFAC
 40
1.0
  9
$DIMTOFL
 70
     1
  9
$DIMTVP
 40
0.0
  9
$DIMTIX
 70
     0
  9
$DIMSOXD
 70
     0
  9
$DIMSAH
 70
     1
  9
$DIMBLK1
  1
OPEN30
  9
$DIMBLK2
  1
OPEN30
  9
$DIMSTYLE
  2
NEWX10
  9
$DIMCLRD
 70
   256
  9
$DIMCLRE
 70
   256
  9
$DIMCLRT
 70
   201
  9
$DIMTFAC
 40
0.7
  9
$DIMGAP
 40
0.7
  9
$LUNITS
 70
     2
  9
$LUPREC
 70
     4
  9
$SKETCHINC
 40
1.0
  9
$FILLETRAD
 40
0.0
  9
$AUNITS
 70
     0
  9
$AUPREC
 70
     2
  9
$MENU
  1
acad
  9
$ELEVATION
 40
0.0
  9
$PELEVATION
 40
0.0
  9
$THICKNESS
 40
0.0
  9
$LIMCHECK
 70
     0
  9
$BLIPMODE
 70
     0
  9
$CHAMFERA
 40
10.0
  9
$CHAMFERB
 40
10.0
  9
$SKPOLY
 70
     0
  9
$TDCREATE
 40
2453033.7326634838
  9
$TDUPDATE
 40
2455044.6828099652
  9
$TDINDWG
 40
0.2489594329
  9
$TDUSRTIMER
 40
0.2489594329
  9
$USRTIMER
 70
     1
  9
$ANGBASE
 50
0.0
  9
$ANGDIR
 70
     0
  9
$PDMODE
 70
     0
  9
$PDSIZE
 40
0.0
  9
$PLINEWID
 40
0.0
  9
$COORDS
 70
     2
  9
$SPLFRAME
 70
     0
  9
$SPLINETYPE
 70
     6
  9
$SPLINESEGS
 70
     8
  9
$ATTDIA
 70
     0
  9
$ATTREQ
 70
     1
  9
$HANDLING
 70
     1
  9
$HANDSEED
  5
8B5C
  9
$SURFTAB1
 70
     6
  9
$SURFTAB2
 70
     6
  9
$SURFTYPE
 70
     6
  9
$SURFU
 70
     6
  9
$SURFV
 70
     6
  9
$UCSNAME
  2

  9
$UCSORG
 10
0.0
 20
0.0
 30
0.0
  9
$UCSXDIR
 10
1.0
 20
0.0
 30
0.0
  9
$UCSYDIR
 10
0.0
 20
1.0
 30
0.0
  9
$PUCSNAME
  2

  9
$PUCSORG
 10
0.0
 20
0.0
 30
0.0
  9
$PUCSXDIR
 10
1.0
 20
0.0
 30
0.0
  9
$PUCSYDIR
 10
0.0
 20
1.0
 30
0.0
  9
$USERI1
 70
     0
  9
$USERI2
 70
     0
  9
$USERI3
 70
     0
  9
$USERI4
 70
     0
  9
$USERI5
 70
     0
  9
$USERR1
 40
0.0
  9
$USERR2
 40
0.0
  9
$USERR3
 40
0.0
  9
$USERR4
 40
0.0
  9
$USERR5
 40
0.0
  9
$WORLDVIEW
 70
     1
  9
$SHADEDGE
 70
     3
  9
$SHADEDIF
 70
    70
  9
$TILEMODE
 70
     1
  9
$MAXACTVP
 70
    48
  9
$PLIMCHECK
 70
     0
  9
$PEXTMIN
 10
1.0000000000000000E+020
 20
1.0000000000000000E+020
 30
1.0000000000000000E+020
  9
$PEXTMAX
 10
-1.0000000000000000E+020
 20
-1.0000000000000000E+020
 30
-1.0000000000000000E+020
  9
$PLIMMIN
 10
0.0
 20
0.0
  9
$PLIMMAX
 10
420.0
 20
297.0
  9
$UNITMODE
 70
     0
  9
$VISRETAIN
 70
     1
  9
$PLINEGEN
 70
     0
  9
$PSLTSCALE
 70
     1
  0
ENDSEC
  0
SECTION
  2
TABLES
  0
TABLE
  2
VPORT
 70
     1
  0
VPORT
  2
*ACTIVE
 70
     0
 10
0.0
 20
0.0
 11
1.0
 21
1.0
 12
247.1383677203423
 22
-2130.818339618665
 13
0.0
 23
0.0
 14
10.0
 24
10.0
 15
10.0
 25
10.0
 16
0.0
 26
0.0
 36
1.0
 17
0.0
 27
0.0
 37
0.0
 40
254.1676457494957
 41
1.4123581336696089
 42
50.0
 43
0.0
 44
0.0
 50
0.0
 51
0.0
 71
     0
 72
   100
 73
     1
 74
     1
 75
     0
 76
     0
 77
     0
 78
     0
  0
ENDTAB
  0
TABLE
  2
LTYPE
 70
    14
  0
LTYPE
  2
CONTINUOUS
 70
     0
  3
Solid line
 72
    65
 73
     0
 40
0.0
  0
LTYPE
  2
XREF1|CENTER2
 70
    48
  3
Center (.5x) ___ _ ___ _ ___ _ ___ _ ___ _ ___
 72
    65
 73
     4
 40
28.574999999999999
 49
19.050000000000001
 49
-3.1749999999999989
 49
3.1749999999999989
 49
-3.1749999999999989
  0
LTYPE
  2
A3WAKUDAKE|CENTER2
 70
    48
  3
Center (.5x) ___ _ ___ _ ___ _ ___ _ ___ _ ___
 72
    65
 73
     4
 40
28.574999999999999
 49
19.050000000000001
 49
-3.1749999999999989
 49
3.1749999999999989
 49
-3.1749999999999989
  0
ENDTAB
  0
TABLE
  2
LAYER
 70
    43
  0
LAYER
  2
0
 70
     0
 62
     7
  6
CONTINUOUS
  0
LAYER
  2
1TEXT
 70
     0
 62
     7
  6
CONTINUOUS
  0
LAYER
  2
1DIM
 70
     0
 62
     7
  6
CONTINUOUS
  0
LAYER
  2
01
 70
     0
 62
     1
  6
CONTINUOUS
  0
LAYER
  2
1HATCH
 70
     0
 62
     7
  6
CONTINUOUS
  0
LAYER
  2
XREF1|1CENTER
 70
    48
 62
     7
  6
XREF1|CENTER2
  0
LAYER
  2
A3WAKUDAKE|THICK
 70
    48
 62
     7
  6
CONTINUOUS
  0
LAYER
  2
A3WAKUDAKE|POINT
 70
    48
 62
     7
  6
CONTINUOUS
  0
LAYER
  2
A3WAKUDAKE|1CENTER
 70
    48
 62
     7
  6
A3WAKUDAKE|CENTER2
  0
LAYER
  2
A3WAKUDAKE|0-6
 70
    48
 62
     7
  6
CONTINUOUS
  0
LAYER
  2
A3WAKUDAKE|1DIM
 70
    48
 62
     7
  6
CONTINUOUS
  0
ENDTAB
  0
TABLE
  2
STYLE
 70
    22
  0
STYLE
  2
STANDARD
 70
     0
 40
0.0
 41
1.0
 50
0.0
 71
     0
 42
4.0
  3
txt.shx
  4
extfont.shx
  0
ENDTAB
  0
TABLE
  2
VIEW
 70
     0
  0
ENDTAB
  0
TABLE
  2
UCS
 70
     0
  0
ENDTAB
  0
TABLE
  2
APPID
 70
    12
  0
APPID
  2
ACAD
 70
     0
  0
APPID
  2
DRAWINGVARIABLESXDATA
 70
     0
  0
APPID
  2
CONTENTTABDATA
 70
     0
  0
APPID
  2
CONTENTCURRENTTAB
 70
     0
  0
APPID
  2
CONTENTBLOCKDESCRIPTION
 70
     0
  0
APPID
  2
CONTENTBLOCKICON
 70
     0
  0
APPID
  2
CONTENTLONGBLOCKNAME
 70
     0
  0
APPID
  2
ACAD_PSEXT
 70
     0
  0
APPID
  2
ACAD_DSTYLE_DIMTEXT_FILL
 70
     0
  0
APPID
  2
ACAD_MLEADERVER
 70
     0
  0
APPID
  2
GENIUS_GENODEF_13
 70
     0
  0
APPID
  2
GENIUS_GENOBJ-N-FIL_13
 70
     0
  0
ENDTAB
  0
TABLE
  2
DIMSTYLE
 70
     8
  0
DIMSTYLE
  2
NEWX10
 70
     0
  3
 
  4

  5

  6
OPEN30
  7
OPEN30
 40
1.0
 41
2.0
 42
0.0
 43
7.0
 44
1.0
 45
0.0
 46
0.0
 47
0.0
 48
0.0
140
3.5
141
0.0
142
0.0
143
25.399999999999999
144
1.0
145
0.0
146
0.7
147
0.7
 71
     0
 72
     0
 73
     0
 74
     0
 75
     0
 76
     0
 77
     1
 78
     8
170
     0
171
     2
172
     1
173
     1
174
     0
175
     0
176
   256
177
   256
178
   201
  0
ENDTAB
  0
ENDSEC
  0
SECTION
  2
BLOCKS
  0
BLOCK
  8
0
  2
$MODEL_SPACE
 70
     0
 10
0.0
 20
0.0
 30
0.0
  3
$MODEL_SPACE
  1

  0
ENDBLK
  5
1A
  8
0
  0
BLOCK
 67
     1
  8
0
  2
$PAPER_SPACE
 70
     0
 10
0.0
 20
0.0
 30
0.0
  3
$PAPER_SPACE
  1

  0
ENDBLK
  5
17
 67
     1
  8
0
  0
BLOCK
  8
0
  2
_OPEN30
 70
     0
 10
0.0
 20
0.0
 30
0.0
  3
_OPEN30
  1

  0
LINE
  5
44
  8
0
  6
BYBLOCK
 62
     0
 10
-1.0
 20
0.26794919
 30
0.0
 11
0.0
 21
0.0
 31
0.0
  0
LINE
  5
45
  8
0
  6
BYBLOCK
 62
     0
 10
0.0
 20
0.0
 30
0.0
 11
-1.0
 21
-0.26794919
 31
0.0
  0
LINE
  5
46
  8
0
  6
BYBLOCK
 62
     0
 10
0.0
 20
0.0
 30
0.0
 11
-1.0
 21
0.0
 31
0.0
  0
ENDBLK
  5
47
  8
0
  0
BLOCK
  8
0
  2
XREF1
 70
    36
 10
0.0
 20
0.0
 30
0.0
  3
XREF1
  1
D:\ACLT\FORMAT\KAWAJUN(9)図面用.dwg
  0
ENDBLK
  5
5D
  8
0
  0
BLOCK
  8
0
  2
A3WAKUDAKE
 70
    36
 10
0.0
 20
0.0
 30
0.0
  3
A3WAKUDAKE
  1
D:\ACLT\FORMAT\A3WAKUdake.dwg
  0
ENDBLK
  5
6DC
  8
0
  0
BLOCK
  8
0
  2
*U43
 70
     1
 10
0.0
 20
0.0
 30
0.0
  3
*U43
  1

  0
TEXT
  5
8AE6
  8
0
 62
   201
 10
-63.717024855154051
 20
-3.8109119089904788
 30
0.0
 40
3.5
  1
φ5
 50
48.83031736650419
  0
ENDBLK
  5
8AE8
  8
0
  0
BLOCK
  8
0
  2
*U44
 70
     1
 10
0.0
 20
0.0
 30
0.0
  3
*U44
  1

  0
TEXT
  5
8AEA
  8
1TEXT
 62
   201
 10
21.614708555164611
 20
22.401236958861659
 30
0.0
 40
2.0
  1
二文字
  0
TEXT
  5
8AEB
  8
1TEXT
 62
   201
 10
21.614708555164611
 20
19.067903625528331
 30
0.0
 40
2.0
  1
(別途指定)
  0
TEXT
  5
8AEC
  8
1TEXT
 62
   201
 10
21.614708555164611
 20
15.73457029219499
 30
0.0
 40
2.0
  1
天地 約1.8
  0
TEXT
  5
8AED
  8
1TEXT
 62
   201
 10
21.614708555164611
 20
12.401236958861659
 30
0.0
 40
2.0
  1
凸0.2
  0
ENDBLK
  5
8AEF
  8
0
  0
BLOCK
  8
0
  2
*U45
 70
     1
 10
0.0
 20
0.0
 30
0.0
  3
*U45
  1

  0
SOLID
  5
8AF1
  8
1DIM
 10
17.769912945885331
 20
22.805130681268722
 30
0.0
 11
17.678379796037799
 21
23.814783819854821
 31
0.0
 12
18.0924202800296
 22
22.889392953575271
 32
0.0
 13
18.0924202800296
 23
22.889392953575271
 33
0.0
  0
POLYLINE
  5
8AF2
  8
1DIM
 66
     1
 10
0.0
 20
0.0
 30
0.0
  0
VERTEX
  5
8AF3
  8
1DIM
 10
17.931166612957469
 20
22.847261817422002
 30
0.0
  0
VERTEX
  5
8AF4
  8
1DIM
 10
20.91703607932029
 20
11.41907722970881
 30
0.0
  0
VERTEX
  5
8AF5
  8
1DIM
 10
35.143226555510758
 20
11.41907722970881
 30
0.0
  0
SEQEND
  5
8AF6
  8
1DIM
  0
ENDBLK
  5
8AF8
  8
0
  0
BLOCK
  8
0
  2
*U46
 70
     1
 10
0.0
 20
0.0
 30
0.0
  3
*U46
  1

  0
TEXT
  5
8AFA
  8
1DIM
 62
   201
 10
8.9421530727463576
 20
19.285028579396069
 30
0.0
 40
2.0
  1
枠
  0
TEXT
  5
8AFB
  8
1DIM
 62
   201
 10
7.0754864060796896
 20
15.951695246062741
 30
0.0
 40
2.0
  1
φ5
  0
TEXT
  5
8AFC
  8
1DIM
 62
   201
 10
4.7421530727463583
 20
12.61836191272941
 30
0.0
 40
2.0
  1
凹0.3
  0
ENDBLK
  5
8AFE
  8
0
  0
BLOCK
  8
0
  2
*U47
 70
     1
 10
0.0
 20
0.0
 30
0.0
  3
*U47
  1

  0
SOLID
  5
8B00
  8
1DIM
 10
14.77538895849114
 20
20.894651819020488
 30
0.0
 11
15.75963814806016
 21
22.667323431007279
 31
0.0
 12
15.403512140193291
 22
20.67125595278117
 32
0.0
 13
15.403512140193291
 23
20.67125595278117
 33
0.0
  0
POLYLINE
  5
8B01
  8
1DIM
 66
     1
 10
0.0
 20
0.0
 30
0.0
  0
VERTEX
  5
8B02
  8
1DIM
 10
15.089450549342221
 20
20.782953885900831
 30
0.0
  0
VERTEX
  5
8B03
  8
1DIM
 10
11.821762131327951
 20
11.59517937383526
 30
0.0
  0
VERTEX
  5
8B04
  8
1DIM
 10
2.3789049884708091
 20
11.59517937383526
 30
0.0
  0
SEQEND
  5
8B05
  8
1DIM
  0
ENDBLK
  5
8B07
  8
0
  0
BLOCK
  8
0
  2
*U48
 70
     1
 10
0.0
 20
0.0
 30
0.0
  3
*U48
  1

  0
TEXT
  5
8B0A
  8
1TEXT
 10
14.9745471932972
 20
24.09947430071913
 30
0.0
 40
1.8
  1
XY
  0
ENDBLK
  5
8B0C
  8
0
  0
BLOCK
  8
0
  2
*U49
 70
     1
 10
0.0
 20
0.0
 30
0.0
  3
*U49
  1

  0
TEXT
  5
8B11
  8
1DIM
 62
   201
 10
753.05186183963065
 20
237.62572415909929
 30
0.0
 40
3.5
  1
200
  0
ENDBLK
  5
8B13
  8
0
  0
BLOCK
  8
0
  2
*U50
 70
     1
 10
0.0
 20
0.0
 30
0.0
  3
*U50
  1

  0
TEXT
  5
8B15
  8
1DIM
 62
   201
 10
660.09352850629773
 20
285.0557727222232
 30
0.0
 40
3.5
  1
10
  0
ENDBLK
  5
8B17
  8
0
  0
BLOCK
  8
0
  2
*U51
 70
     1
 10
0.0
 20
0.0
 30
0.0
  3
*U51
  1

  0
TEXT
  5
8B19
  8
1DIM
 62
   201
 10
850.09352850629739
 20
285.39985749616977
 30
0.0
 40
3.5
  1
10
  0
ENDBLK
  5
8B1B
  8
0
  0
BLOCK
  8
0
  2
*U52
 70
     1
 10
0.0
 20
0.0
 30
0.0
  3
*U52
  1

  0
TEXT
  5
8B1D
  8
1DIM
 62
   201
 10
927.59374985736724
 20
236.43139656523419
 30
0.0
 40
3.5
  1
7
  0
ENDBLK
  5
8B1F
  8
0
  0
BLOCK
  8
0
  2
*U53
 70
     1
 10
0.0
 20
0.0
 30
0.0
  3
*U53
  1

  0
TEXT
  5
8B21
  8
1DIM
 62
   201
 10
906.38541652403387
 20
243.03152535675321
 30
0.0
 40
3.5
  1
37.25
  0
ENDBLK
  5
8B23
  8
0
  0
BLOCK
  8
0
  2
*U54
 70
     1
 10
0.0
 20
0.0
 30
0.0
  3
*U54
  1

  0
TEXT
  5
8B25
  8
1DIM
 62
   201
 10
885.10749349645243
 20
177.01535431520699
 30
0.0
 40
3.5
  1
99.2
 50
90.0
  0
ENDBLK
  5
8B27
  8
0
  0
BLOCK
  8
0
  2
*U55
 70
     1
 10
0.0
 20
0.0
 30
0.0
  3
*U55
  1

  0
TEXT
  5
8B29
  8
1DIM
 62
   201
 10
173.45079229317349
 20
-2065.161240503408
 30
0.0
 40
3.5
  1
200
  0
ENDBLK
  5
8B2B
  8
0
  0
BLOCK
  8
0
  2
*U56
 70
     1
 10
0.0
 20
0.0
 30
0.0
  3
*U56
  1

  0
TEXT
  5
8B2D
  8
1DIM
 62
   201
 10
80.492458959840405
 20
-2017.7311919402839
 30
0.0
 40
3.5
  1
10
  0
ENDBLK
  5
8B2F
  8
0
  0
BLOCK
  8
0
  2
*U57
 70
     1
 10
0.0
 20
0.0
 30
0.0
  3
*U57
  1

  0
TEXT
  5
8B31
  8
1DIM
 62
   201
 10
270.49245895984012
 20
-2017.387107166337
 30
0.0
 40
3.5
  1
10
  0
ENDBLK
  5
8B33
  8
0
  0
BLOCK
  8
0
  2
*U58
 70
     1
 10
0.0
 20
0.0
 30
0.0
  3
*U58
  1

  0
TEXT
  5
8B35
  8
1DIM
 62
   201
 10
419.90016787653281
 20
-2216.1123294694171
 30
0.0
 40
3.5
  1
7
 50
90.0
  0
ENDBLK
  5
8B37
  8
0
  0
BLOCK
  8
0
  2
*U59
 70
     1
 10
0.0
 20
0.0
 30
0.0
  3
*U59
  1

  0
TEXT
  5
8B39
  8
1DIM
 62
   201
 10
426.50029666805187
 20
-2206.570662802751
 30
0.0
 40
3.5
  1
37.25
 50
90.0
  0
ENDBLK
  5
8B3B
  8
0
  0
BLOCK
  8
0
  2
*U60
 70
     1
 10
0.0
 20
0.0
 30
0.0
  3
*U60
  1

  0
TEXT
  5
8B3D
  8
1DIM
 62
   201
 10
361.88412562650518
 20
-2171.29273977517
 30
0.0
 40
3.5
  1
99.2
  0
ENDBLK
  5
8B3F
  8
0
  0
BLOCK
  8
0
  2
*U61
 70
     1
 10
0.0
 20
0.0
 30
0.0
  3
*U61
  1

  0
TEXT
  5
8B41
  8
1DIM
 62
   201
 10
173.45079229317349
 20
-2237.4956628027512
 30
0.0
 40
3.5
  1
200
  0
ENDBLK
  5
8B43
  8
0
  0
BLOCK
  8
0
  2
*U62
 70
     1
 10
0.0
 20
0.0
 30
0.0
  3
*U62
  1

  0
TEXT
  5
8B45
  8
1DIM
 62
   201
 10
364.21745895983901
 20
-2237.4956628027512
 30
0.0
 40
3.5
  1
99
  0
ENDBLK
  5
8B47
  8
0
  0
BLOCK
  8
0
  2
*U63
 70
     1
 10
0.0
 20
0.0
 30
0.0
  3
*U63
  1

  0
TEXT
  5
8B49
  8
1DIM
 62
   201
 10
296.83412562650727
 20
-2093.5706628027501
 30
0.0
 40
3.5
  1
20
 50
90.0
  0
ENDBLK
  5
8B4B
  8
0
  0
BLOCK
  8
0
  2
*U64
 70
     1
 10
0.0
 20
0.0
 30
0.0
  3
*U64
  1

  0
TEXT
  5
8B4D
  8
1DIM
 62
   201
 10
296.83412562650727
 20
-2053.5706628027501
 30
0.0
 40
3.5
  1
20
 50
90.0
  0
ENDBLK
  5
8B4F
  8
0
  0
BLOCK
  8
0
  2
*U65
 70
     1
 10
0.0
 20
0.0
 30
0.0
  3
*U65
  1

  0
TEXT
  5
8B51
  8
1DIM
 62
   201
 10
296.83412562650727
 20
-2073.5706628027501
 30
0.0
 40
3.5
  1
20
 50
90.0
  0
ENDBLK
  5
8B53
  8
0
  0
BLOCK
  8
0
  2
*U66
 70
     1
 10
0.0
 20
0.0
 30
0.0
  3
*U66
  1

  0
TEXT
  5
8B55
  8
1DIM
 62
   201
 10
296.83412562650727
 20
-2113.5706628027501
 30
0.0
 40
3.5
  1
20
 50
90.0
  0
ENDBLK
  5
8B57
  8
0
  0
BLOCK
  8
0
  2
*U67
 70
     1
 10
0.0
 20
0.0
 30
0.0
  3
*U67
  1

  0
TEXT
  5
8B59
  8
1DIM
 62
   201
 10
296.83412562650727
 20
-2204.820662802751
 30
0.0
 40
3.5
  1
37.5
 50
90.0
  0
ENDBLK
  5
8B5B
  8
0
  0
ENDSEC
  0
SECTION
  2
ENTITIES
  0
TEXT
  5
349B
  8
1TEXT
 10
317.54030317887913
 20
-2034.661669710915
 30
0.0
 40
8.0
  1
KC047
  0
TEXT
  5
34CA
  8
1TEXT
 10
325.18553333926189
 20
-2054.400525692502
 30
0.0
 40
4.0
  1
表面処理：
 72
     1
 11
335.8331523868809
 21
-2054.400525692502
 31
0.0
  0
TEXT
  5
34CC
  8
1TEXT
 10
319.033152386881
 20
-2061.3784207124859
 30
0.0
 40
4.0
  1
ブラストシルバー
 41
0.9
 72
     1
 11
335.8331523868809
 21
-2061.3784207124859
 31
0.0
  0
LINE
  5
34CD
  8
1DIM
 10
318.43315238688132
 20
-2048.900525692502
 30
0.0
 11
388.43315238688132
 21
-2048.900525692502
 31
0.0
  0
LINE
  5
34CE
  8
1DIM
 10
318.43315238688132
 20
-2062.900525692502
 30
0.0
 11
388.43315238688132
 21
-2062.900525692502
 31
0.0
  0
LINE
  5
34CF
  8
1DIM
 10
318.43315238688132
 20
-2055.900525692502
 30
0.0
 11
388.43315238688132
 21
-2055.900525692502
 31
0.0
  0
LINE
  5
34D2
  8
1DIM
 10
353.43315238688132
 20
-2048.900525692502
 30
0.0
 11
353.43315238688132
 21
-2062.900525692502
 31
0.0
  0
TEXT
  5
34D4
  8
1TEXT
 10
357.83315238688192
 20
-2061.614882676151
 30
0.0
 40
4.0
  1
KC047XS
 72
     1
 11
370.83315238688192
 21
-2061.614882676151
 31
0.0
  0
TEXT
  5
34D5
  8
1TEXT
 10
364.03315238688089
 20
-2054.400525692502
 30
0.0
 40
4.0
  1
コード
 72
     1
 11
370.8331523868809
 21
-2054.400525692502
 31
0.0
  0
LINE
  5
34D6
  8
1DIM
 10
318.43315238688132
 20
-2062.900525692502
 30
0.0
 11
318.43315238688132
 21
-2048.900525692502
 31
0.0
  0
LINE
  5
34D7
  8
1DIM
 10
388.43315238688132
 20
-2062.900525692502
 30
0.0
 11
388.43315238688132
 21
-2048.900525692502
 31
0.0
  0
TEXT
  5
86F9
  8
1TEXT
 10
319.29016716055469
 20
-2045.13449810618
 30
0.0
 40
4.0
  1
材質：アルミ
 72
     1
 11
332.623500493888
 21
-2045.13449810618
 31
0.0
  0
LINE
  5
8873
  8
01
  6
BYBLOCK
 10
277.53412562650692
 20
-2024.445662802754
 30
0.0
 11
77.534125626506921
 21
-2024.445662802754
 31
0.0
  0
LINE
  5
8874
  8
01
  6
BYBLOCK
 10
252.53412562650689
 20
-2040.9456628027499
 30
0.0
 11
102.53412562650691
 21
-2040.945662802751
 31
0.0
  0
ARC
  5
8875
  8
01
  6
BYBLOCK
 10
102.53412562650691
 20
-2045.945662802751
 30
0.0
 40
5.0
 50
90.0
 51
180.0
  0
LINE
  5
8876
  8
01
  6
BYBLOCK
 10
252.53412562650689
 20
-2060.9456628027501
 30
0.0
 11
102.53412562650691
 21
-2060.9456628027501
 31
0.0
  0
ARC
  5
8877
  8
01
  6
BYBLOCK
 10
252.53412562650689
 20
-2055.9456628027501
 30
0.0
 40
5.0
 50
270.0
 51
0.0
  0
LINE
  5
8878
  8
01
  6
BYBLOCK
 10
252.53412562650689
 20
-2080.9456628027501
 30
0.0
 11
102.53412562650691
 21
-2080.945662802751
 31
0.0
  0
ARC
  5
8879
  8
01
  6
BYBLOCK
 10
252.53412562650689
 20
-2085.9456628027501
 30
0.0
 40
5.0
 50
0.0
 51
90.0
  0
LINE
  5
887A
  8
01
  6
BYBLOCK
 10
252.53412562650689
 20
-2100.9456628027501
 30
0.0
 11
102.53412562650691
 21
-2100.9456628027501
 31
0.0
  0
ARC
  5
887B
  8
01
  6
BYBLOCK
 10
102.53412562650691
 20
-2095.9456628027501
 30
0.0
 40
5.0
 50
180.0
 51
270.0
  0
LINE
  5
887C
  8
01
  6
BYBLOCK
 10
272.53412562650692
 20
-2120.9456628027501
 30
0.0
 11
82.534125626506935
 21
-2120.9456628027501
 31
0.0
  0
ARC
  5
887D
  8
01
  6
BYBLOCK
 10
272.53412562650692
 20
-2115.9456628027501
 30
0.0
 40
5.0
 50
270.0
 51
0.0
  0
LINE
  5
887E
  8
01
  6
BYBLOCK
 10
77.534125626506921
 20
-2022.445662802754
 30
0.0
 11
77.534125626506921
 21
-2115.9456628027501
 31
0.0
  0
ARC
  5
887F
  8
01
  6
BYBLOCK
 10
82.534125626506935
 20
-2115.9456628027501
 30
0.0
 40
5.0
 50
180.0
 51
270.0
  0
LINE
  5
8880
  8
01
  6
BYBLOCK
 10
97.534125626506935
 20
-2045.945662802751
 30
0.0
 11
97.534125626506935
 21
-2055.9456628027501
 31
0.0
  0
ARC
  5
8881
  8
01
  6
BYBLOCK
 10
102.53412562650691
 20
-2055.9456628027501
 30
0.0
 40
5.0
 50
180.0
 51
270.0
  0
LINE
  5
8882
  8
01
  6
BYBLOCK
 10
97.534125626506935
 20
-2085.9456628027501
 30
0.0
 11
97.534125626506935
 21
-2095.9456628027501
 31
0.0
  0
ARC
  5
8883
  8
01
  6
BYBLOCK
 10
102.53412562650691
 20
-2085.9456628027501
 30
0.0
 40
5.0
 50
90.0
 51
180.0
  0
LINE
  5
8884
  8
01
  6
BYBLOCK
 10
277.53412562650692
 20
-2022.445662802754
 30
0.0
 11
277.53412562650692
 21
-2115.9456628027501
 31
0.0
  0
LINE
  5
8885
  8
01
  6
BYBLOCK
 10
257.53412562650692
 20
-2045.945662802751
 30
0.0
 11
257.53412562650692
 21
-2055.9456628027501
 31
0.0
  0
ARC
  5
8886
  8
01
  6
BYBLOCK
 10
252.53412562650689
 20
-2045.945662802751
 30
0.0
 40
5.0
 50
0.0
 51
90.0
  0
LINE
  5
8887
  8
01
  6
BYBLOCK
 10
257.53412562650692
 20
-2085.9456628027501
 30
0.0
 11
257.53412562650692
 21
-2095.9456628027492
 31
0.0
  0
ARC
  5
8888
  8
01
  6
BYBLOCK
 10
252.53412562650689
 20
-2095.9456628027492
 30
0.0
 40
5.0
 50
270.0
 51
0.0
  0
LINE
  5
8889
  8
01
 10
277.53412562650692
 20
-2022.445662802754
 30
0.0
 11
77.534125626506921
 21
-2022.445662802754
 31
0.0
  0
LINE
  5
888A
  8
01
 10
77.534125626506921
 20
-2180.9456628027501
 30
0.0
 11
77.534125626507034
 21
-2218.195662802751
 31
0.0
  0
LINE
  5
888B
  8
01
 10
277.53412562650692
 20
-2180.9456628027501
 30
0.0
 11
277.53412562650692
 21
-2218.195662802751
 31
0.0
  0
LINE
  5
888C
  8
01
 10
277.53412562650692
 20
-2182.9456628027501
 30
0.0
 11
77.534125626506921
 21
-2182.9456628027501
 31
0.0
  0
LINE
  5
888D
  8
01
 10
277.53412562650692
 20
-2185.9456628027492
 30
0.0
 11
77.534125626506921
 21
-2185.9456628027501
 31
0.0
  0
LINE
  5
888E
  8
01
 10
277.53412562650698
 20
-2212.8551728127468
 30
0.0
 11
77.534125626506921
 21
-2212.8551728127468
 31
0.0
  0
LINE
  5
888F
  8
01
 10
277.53412562650692
 20
-2218.195662802751
 30
0.0
 11
77.534125626506921
 21
-2218.195662802751
 31
0.0
  0
LINE
  5
8890
  8
01
 10
277.53412562650692
 20
-2180.9456628027501
 30
0.0
 11
77.534125626506921
 21
-2180.9456628027501
 31
0.0
  0
LINE
  5
889A
  8
01
  6
BYBLOCK
 10
405.03412562650323
 20
-2186.445662802751
 30
0.0
 11
405.03412562650323
 21
-2212.2783125335609
 31
0.0
  0
LINE
  5
889B
  8
01
  6
BYBLOCK
 10
407.53412562650328
 20
-2189.8435785644069
 30
0.0
 11
407.53412562650328
 21
-2203.9551297838489
 31
0.0
  0
LINE
  5
889C
  8
01
  6
BYBLOCK
 10
414.53412562650283
 20
-2216.195662802751
 30
0.0
 11
414.53412562650419
 21
-2207.195662802751
 31
0.0
  0
LINE
  5
889D
  8
01
  6
BYBLOCK
 10
416.03412562650283
 20
-2217.695662802751
 30
0.0
 11
416.03412562650328
 21
-2217.195662802751
 31
0.0
  0
LINE
  5
889E
  8
01
  6
BYBLOCK
 10
318.03412562650777
 20
-2185.9456628027501
 30
0.0
 11
404.53412562650323
 21
-2185.945662802751
 31
0.0
  0
LINE
  5
889F
  8
01
  6
BYBLOCK
 10
318.03412562650692
 20
-2182.945662802751
 30
0.0
 11
408.03412562650323
 21
-2182.945662802751
 31
0.0
  0
ARC
  5
88A0
  8
01
  6
BYBLOCK
 10
318.03412562650777
 20
-2185.4456628027501
 30
0.0
 40
0.5
 50
180.0
 51
270.0
  0
ARC
  5
88A1
  8
01
  6
BYBLOCK
 10
318.03412562650692
 20
-2183.445662802751
 30
0.0
 40
0.5
 50
90.0
 51
180.0
  0
LINE
  5
88A2
  8
01
  6
BYBLOCK
 10
317.53412562650692
 20
-2183.445662802751
 30
0.0
 11
317.53412562650777
 21
-2185.4456628027501
 31
0.0
  0
ARC
  5
88A3
  8
01
  6
BYBLOCK
 10
404.53412562650323
 20
-2186.445662802751
 30
0.0
 40
0.5
 50
0.0
 51
90.0
  0
LINE
  5
88A4
  8
01
  6
BYBLOCK
 10
414.03412562650323
 20
-2184.945662802751
 30
0.0
 11
414.03412562650323
 21
-2187.445662802751
 31
0.0
  0
LINE
  5
88A5
  8
01
  6
BYBLOCK
 10
412.03412562650328
 20
-2185.4456628027501
 30
0.0
 11
412.03412562650328
 21
-2187.445662802751
 31
0.0
  0
ARC
  5
88A6
  8
01
  6
BYBLOCK
 10
413.03412562650323
 20
-2187.445662802751
 30
0.0
 40
0.9999999999998864
 50
180.0
 51
0.0
  0
LINE
  5
88A7
  8
01
  6
BYBLOCK
 10
411.53412562650328
 20
-2184.945662802751
 30
0.0
 11
407.77579889644949
 21
-2184.945662802751
 31
0.0
  0
LINE
  5
88A8
  8
01
  6
BYBLOCK
 10
413.76617643407229
 20
-2183.9456628027501
 30
0.0
 11
412.03412562650328
 21
-2180.9456628027501
 31
0.0
  0
LINE
  5
88A9
  8
01
  6
BYBLOCK
 10
412.03412562650328
 20
-2180.9456628027501
 30
0.0
 11
411.44000289968881
 21
-2180.9456628027501
 31
0.0
  0
ARC
  5
88AA
  8
01
  6
BYBLOCK
 10
411.53412562650328
 20
-2185.4456628027501
 30
0.0
 40
0.5
 50
0.0
 51
90.0
  0
ARC
  5
88AB
  8
01
  6
BYBLOCK
 10
412.03412562650328
 20
-2184.945662802751
 30
0.0
 40
2.0
 50
0.0
 51
29.9999999999973
  0
LINE
  5
88AC
  8
01
  6
BYBLOCK
 10
413.03412562650323
 20
-2205.195662802751
 30
0.0
 11
415.53412562650328
 21
-2205.195662802751
 31
0.0
  0
ARC
  5
88AD
  8
01
  6
BYBLOCK
 10
408.03412562650323
 20
-2179.945662802751
 30
0.0
 40
3.0
 50
270.0
 51
330.8446345737371
  0
ARC
  5
88AE
  8
01
  6
BYBLOCK
 10
411.44000289968881
 20
-2181.8456628027511
 30
0.0
 40
0.9
 50
90.0
 51
150.84463457373701
1001
GENIUS_GENOBJ-N-FIL_13
1002
{
1000
OWNER
1000
GEN
1002
}
1001
GENIUS_GENODEF_13
1002
{
1000
HIER
1070
     0
1002
}
1002
{
1000
MANEDIT
1070
     0
1002
}
1002
{
1000
NOSEL
1070
     0
1002
}
1002
{
1000
BEHIND
1070
     0
1002
}
1002
{
1000
OTHER
1070
     0
1002
}
1002
{
1000
REACTOR
1002
}
  0
LINE
  5
88AF
  8
01
  6
BYBLOCK
 10
414.2832769389214
 20
-2218.195662802751
 30
0.0
 11
415.53412562650328
 21
-2218.195662802751
 31
0.0
  0
LINE
  5
88B0
  8
01
  6
BYBLOCK
 10
405.53412562650323
 20
-2213.144337937345
 30
0.0
 11
414.2832769389214
 21
-2218.195662802751
 31
0.0
  0
ARC
  5
88B1
  8
01
  6
BYBLOCK
 10
406.03412562650323
 20
-2212.2783125335609
 30
0.0
 40
1.0
 50
180.0
 51
240.0000000000027
1001
GENIUS_GENOBJ-N-FIL_13
1002
{
1000
OWNER
1000
GEN
1002
}
1001
GENIUS_GENODEF_13
1002
{
1000
HIER
1070
     0
1002
}
1002
{
1000
MANEDIT
1070
     0
1002
}
1002
{
1000
NOSEL
1070
     0
1002
}
1002
{
1000
BEHIND
1070
     0
1002
}
1002
{
1000
OTHER
1070
     0
1002
}
1002
{
1000
REACTOR
1002
}
  0
ARC
  5
88B2
  8
01
  6
BYBLOCK
 10
415.53412562650328
 20
-2217.695662802751
 30
0.0
 40
0.5
 50
270.0
 51
359.99999999998698
1001
GENIUS_GENOBJ-N-FIL_13
1002
{
1000
OWNER
1000
GEN
1002
}
1001
GENIUS_GENODEF_13
1002
{
1000
HIER
1070
     0
1002
}
1002
{
1000
MANEDIT
1070
     0
1002
}
1002
{
1000
NOSEL
1070
     0
1002
}
1002
{
1000
BEHIND
1070
     0
1002
}
1002
{
1000
OTHER
1070
     0
1002
}
1002
{
1000
REACTOR
1002
}
  0
ARC
  5
88B3
  8
01
  6
BYBLOCK
 10
415.53412562650328
 20
-2217.195662802751
 30
0.0
 40
0.5
 50
359.99999999998698
 51
90.0
1001
GENIUS_GENOBJ-N-FIL_13
1002
{
1000
OWNER
1000
GEN
1002
}
1001
GENIUS_GENODEF_13
1002
{
1000
HIER
1070
     0
1002
}
1002
{
1000
MANEDIT
1070
     0
1002
}
1002
{
1000
NOSEL
1070
     0
1002
}
1002
{
1000
BEHIND
1070
     0
1002
}
1002
{
1000
OTHER
1070
     0
1002
}
1002
{
1000
REACTOR
1002
}
  0
LINE
  5
88B4
  8
01
  6
BYBLOCK
 10
415.03412562650271
 20
-2216.6956628027501
 30
0.0
 11
415.53412562650328
 21
-2216.6956628027501
 31
0.0
  0
ARC
  5
88B5
  8
01
  6
BYBLOCK
 10
415.03412562650271
 20
-2216.195662802751
 30
0.0
 40
0.5
 50
179.99999999998701
 51
270.0
1001
GENIUS_GENOBJ-N-FIL_13
1002
{
1000
OWNER
1000
GEN
1002
}
1001
GENIUS_GENODEF_13
1002
{
1000
HIER
1070
     0
1002
}
1002
{
1000
MANEDIT
1070
     0
1002
}
1002
{
1000
NOSEL
1070
     0
1002
}
1002
{
1000
BEHIND
1070
     0
1002
}
1002
{
1000
OTHER
1070
     0
1002
}
1002
{
1000
REACTOR
1002
}
  0
LINE
  5
88B6
  8
01
  6
BYBLOCK
 10
415.03412562650419
 20
-2206.695662802751
 30
0.0
 11
415.53412562650328
 21
-2206.695662802751
 31
0.0
  0
LINE
  5
88B7
  8
01
  6
BYBLOCK
 10
416.03412562650328
 20
-2205.695662802751
 30
0.0
 11
416.03412562650328
 21
-2206.195662802751
 31
0.0
  0
ARC
  5
88B8
  8
01
  6
BYBLOCK
 10
415.53412562650328
 20
-2205.695662802751
 30
0.0
 40
0.5
 50
0.0
 51
90.0
  0
ARC
  5
88B9
  8
01
  6
BYBLOCK
 10
415.53412562650328
 20
-2206.195662802751
 30
0.0
 40
0.5
 50
270.0
 51
0.0
  0
ARC
  5
88BA
  8
01
  6
BYBLOCK
 10
415.03412562650419
 20
-2207.195662802751
 30
0.0
 40
0.5
 50
90.0
 51
179.99999999998701
  0
ARC
  5
88BB
  8
01
  6
BYBLOCK
 10
413.03412562650323
 20
-2187.445662802751
 30
0.0
 40
6.0
 50
157.2963437335618
 51
203.5564643091046
  0
ARC
  5
88BC
  8
01
  6
BYBLOCK
 10
407.77579889644949
 20
-2185.2456628027512
 30
0.0
 40
0.3
 50
90.0
 51
157.2963437335618
  0
ARC
  5
88BD
  8
01
  6
BYBLOCK
 10
413.03412562650323
 20
-2187.445662802751
 30
0.0
 40
17.75
 50
253.1507203771969
 51
270.0
  0
ARC
  5
88BE
  8
01
  6
BYBLOCK
 10
408.03412562650323
 20
-2203.9551297838489
 30
0.0
 40
0.5
 50
180.0
 51
253.1507203771969
  0
LINE
  5
88D0
  8
01
 10
414.53412562650368
 20
-2207.7456628027512
 30
0.0
 11
415.03412562650368
 21
-2207.7456628027512
 31
0.0
  0
LINE
  5
88D1
  8
01
 10
415.03412562650368
 20
-2207.7456628027512
 30
0.0
 11
415.03412562650368
 21
-2215.6456628027508
 31
0.0
  0
LINE
  5
88D2
  8
01
 10
414.53412562650368
 20
-2207.7456628027512
 30
0.0
 11
414.53412562650368
 21
-2215.6456628027508
 31
0.0
  0
LINE
  5
88D3
  8
01
 10
414.53412562650368
 20
-2215.6456628027508
 30
0.0
 11
415.03412562650368
 21
-2215.6456628027508
 31
0.0
  0
ARC
  5
88D5
  8
01
 10
412.7341256265035
 20
-2211.695662802751
 30
0.0
 40
4.0
 50
305.09963219541282
 51
54.900367804587219
  0
TEXT
  5
8A76
  8
1HATCH
 10
370.10659608008939
 20
-2226.7825353005892
 30
0.0
 40
3.5
  1
クリアバンポン
  0
SOLID
  5
8A77
  8
1HATCH
 10
412.56205425864528
 20
-2213.5607296522398
 30
0.0
 11
414.2841256265034
 21
-2212.4904113280418
 31
0.0
 12
413.00226946475613
 22
-2214.0613842405078
 32
0.0
 13
413.00226946475613
 23
-2214.0613842405078
 33
0.0
  0
LINE
  5
8A79
  8
1DIM
 10
252.53412562650689
 20
-2100.9456628027501
 30
0.0
 11
298.53412562650692
 21
-2100.9456628027501
 31
0.0
  0
LINE
  5
8A7A
  8
1DIM
 10
272.53412562650692
 20
-2120.9456628027501
 30
0.0
 11
298.53412562650692
 21
-2120.9456628027501
 31
0.0
  0
LINE
  5
8A7B
  8
1DIM
 10
297.53412562650692
 20
-2102.9456628027501
 30
0.0
 11
297.53412562650692
 21
-2118.9456628027501
 31
0.0
  0
LINE
  5
8A7F
  8
1DIM
 10
252.53412562650689
 20
-2060.9456628027501
 30
0.0
 11
298.53412562650692
 21
-2060.9456628027501
 31
0.0
  0
LINE
  5
8A80
  8
1DIM
 10
252.53412562650689
 20
-2080.9456628027501
 30
0.0
 11
298.53412562650692
 21
-2080.9456628027501
 31
0.0
  0
LINE
  5
8A81
  8
1DIM
 10
297.53412562650692
 20
-2062.9456628027501
 30
0.0
 11
297.53412562650692
 21
-2078.9456628027501
 31
0.0
  0
LINE
  5
8A85
  8
1DIM
 10
252.53412562650689
 20
-2040.9456628027499
 30
0.0
 11
298.53412562650692
 21
-2040.9456628027499
 31
0.0
  0
LINE
  5
8A86
  8
1DIM
 10
252.53412562650689
 20
-2060.9456628027501
 30
0.0
 11
298.53412562650692
 21
-2060.9456628027501
 31
0.0
  0
LINE
  5
8A87
  8
1DIM
 10
297.53412562650692
 20
-2042.9456628027499
 30
0.0
 11
297.53412562650692
 21
-2058.9456628027501
 31
0.0
  0
LINE
  5
8A8B
  8
1DIM
 10
252.53412562650689
 20
-2080.9456628027501
 30
0.0
 11
298.53412562650692
 21
-2080.9456628027501
 31
0.0
  0
LINE
  5
8A8C
  8
1DIM
 10
252.53412562650689
 20
-2100.9456628027501
 30
0.0
 11
298.53412562650692
 21
-2100.9456628027501
 31
0.0
  0
LINE
  5
8A8D
  8
1DIM
 10
297.53412562650692
 20
-2082.9456628027501
 30
0.0
 11
297.53412562650692
 21
-2098.9456628027501
 31
0.0
  0
LINE
  5
8A91
  8
1DIM
 10
416.7341256265035
 20
-2211.695662802751
 30
0.0
 11
416.7341256265035
 21
-2239.195662802751
 31
0.0
  0
LINE
  5
8A92
  8
1DIM
 10
317.53412562650777
 20
-2185.445662802751
 30
0.0
 11
317.53412562650777
 21
-2239.195662802751
 31
0.0
  0
LINE
  5
8A93
  8
1DIM
 10
414.7341256265035
 20
-2238.195662802751
 30
0.0
 11
319.53412562650777
 21
-2238.195662802751
 31
0.0
  0
LINE
  5
8A97
  8
1DIM
 10
277.53412562650692
 20
-2218.195662802751
 30
0.0
 11
298.53412562650692
 21
-2218.195662802751
 31
0.0
  0
LINE
  5
8A98
  8
1DIM
 10
277.53412562650692
 20
-2180.9456628027501
 30
0.0
 11
298.53412562650692
 21
-2180.9456628027501
 31
0.0
  0
LINE
  5
8A99
  8
1DIM
 10
297.53412562650692
 20
-2216.195662802751
 30
0.0
 11
297.53412562650692
 21
-2182.945662802751
 31
0.0
  0
LINE
  5
8A9D
  8
1DIM
 10
77.534125626506921
 20
-2218.195662802751
 30
0.0
 11
77.534125626506921
 21
-2239.195662802751
 31
0.0
  0
LINE
  5
8A9E
  8
1DIM
 10
277.53412562650692
 20
-2218.195662802751
 30
0.0
 11
277.53412562650692
 21
-2239.195662802751
 31
0.0
  0
LINE
  5
8A9F
  8
1DIM
 10
79.534125626506921
 20
-2238.195662802751
 30
0.0
 11
275.53412562650692
 21
-2238.195662802751
 31
0.0
  0
TEXT
  5
8AA3
  8
1DIM
 10
173.45079229317349
 20
-2237.4956628027512
 30
0.0
 40
3.5
  1
200
  0
LINE
  5
8AA4
  8
0
  6
BYBLOCK
 10
275.53412562650692
 20
-2237.6597644227509
 30
0.0
 11
277.53412562650692
 21
-2238.195662802751
 31
0.0
  0
LINE
  5
8AA5
  8
0
  6
BYBLOCK
 10
277.53412562650692
 20
-2238.195662802751
 30
0.0
 11
275.53412562650692
 21
-2238.7315611827512
 31
0.0
  0
LINE
  5
8AA6
  8
0
  6
BYBLOCK
 10
277.53412562650692
 20
-2238.195662802751
 30
0.0
 11
275.53412562650692
 21
-2238.195662802751
 31
0.0
  0
LINE
  5
8AA7
  8
0
  6
BYBLOCK
 10
79.534125626506921
 20
-2238.7315611827512
 30
0.0
 11
77.534125626506921
 21
-2238.195662802751
 31
0.0
  0
LINE
  5
8AA8
  8
0
  6
BYBLOCK
 10
77.534125626506921
 20
-2238.195662802751
 30
0.0
 11
79.534125626506921
 21
-2237.6597644227509
 31
0.0
  0
LINE
  5
8AA9
  8
0
  6
BYBLOCK
 10
77.534125626506921
 20
-2238.195662802751
 30
0.0
 11
79.534125626506921
 21
-2238.195662802751
 31
0.0
  0
TEXT
  5
8AAA
  8
1DIM
 10
296.83412562650727
 20
-2204.820662802751
 30
0.0
 40
3.5
  1
37.5
 50
90.0
  0
LINE
  5
8AAB
  8
0
  6
BYBLOCK
 10
296.99822724650687
 20
-2182.945662802751
 30
0.0
 11
297.53412562650692
 21
-2180.9456628027501
 31
0.0
  0
LINE
  5
8AAC
  8
0
  6
BYBLOCK
 10
297.53412562650692
 20
-2180.9456628027501
 30
0.0
 11
298.07002400650691
 21
-2182.945662802751
 31
0.0
  0
LINE
  5
8AAD
  8
0
  6
BYBLOCK
 10
297.53412562650692
 20
-2180.9456628027501
 30
0.0
 11
297.53412562650692
 21
-2182.945662802751
 31
0.0
  0
LINE
  5
8AAE
  8
0
  6
BYBLOCK
 10
298.07002400650691
 20
-2216.195662802751
 30
0.0
 11
297.53412562650692
 21
-2218.195662802751
 31
0.0
  0
LINE
  5
8AAF
  8
0
  6
BYBLOCK
 10
297.53412562650692
 20
-2218.195662802751
 30
0.0
 11
296.99822724650687
 21
-2216.195662802751
 31
0.0
  0
LINE
  5
8AB0
  8
0
  6
BYBLOCK
 10
297.53412562650692
 20
-2218.195662802751
 30
0.0
 11
297.53412562650692
 21
-2216.195662802751
 31
0.0
  0
TEXT
  5
8AB1
  8
1DIM
 10
364.21745895983901
 20
-2237.4956628027512
 30
0.0
 40
3.5
  1
99
  0
LINE
  5
8AB2
  8
0
  6
BYBLOCK
 10
319.53412562650777
 20
-2238.7315611827512
 30
0.0
 11
317.53412562650777
 21
-2238.195662802751
 31
0.0
  0
LINE
  5
8AB3
  8
0
  6
BYBLOCK
 10
317.53412562650777
 20
-2238.195662802751
 30
0.0
 11
319.53412562650777
 21
-2237.6597644227509
 31
0.0
  0
LINE
  5
8AB4
  8
0
  6
BYBLOCK
 10
317.53412562650777
 20
-2238.195662802751
 30
0.0
 11
319.53412562650777
 21
-2238.195662802751
 31
0.0
  0
LINE
  5
8AB5
  8
0
  6
BYBLOCK
 10
414.7341256265035
 20
-2237.6597644227509
 30
0.0
 11
416.7341256265035
 21
-2238.195662802751
 31
0.0
  0
LINE
  5
8AB6
  8
0
  6
BYBLOCK
 10
416.7341256265035
 20
-2238.195662802751
 30
0.0
 11
414.7341256265035
 21
-2238.7315611827512
 31
0.0
  0
LINE
  5
8AB7
  8
0
  6
BYBLOCK
 10
416.7341256265035
 20
-2238.195662802751
 30
0.0
 11
414.7341256265035
 21
-2238.195662802751
 31
0.0
  0
TEXT
  5
8AB8
  8
1DIM
 10
296.83412562650727
 20
-2093.5706628027501
 30
0.0
 40
3.5
  1
20
 50
90.0
  0
LINE
  5
8AB9
  8
0
  6
BYBLOCK
 10
298.07002400650691
 20
-2098.9456628027501
 30
0.0
 11
297.53412562650692
 21
-2100.9456628027501
 31
0.0
  0
LINE
  5
8ABA
  8
0
  6
BYBLOCK
 10
297.53412562650692
 20
-2100.9456628027501
 30
0.0
 11
296.99822724650687
 21
-2098.9456628027501
 31
0.0
  0
LINE
  5
8ABB
  8
0
  6
BYBLOCK
 10
297.53412562650692
 20
-2100.9456628027501
 30
0.0
 11
297.53412562650692
 21
-2098.9456628027501
 31
0.0
  0
LINE
  5
8ABC
  8
0
  6
BYBLOCK
 10
296.99822724650687
 20
-2082.9456628027501
 30
0.0
 11
297.53412562650692
 21
-2080.9456628027501
 31
0.0
  0
LINE
  5
8ABD
  8
0
  6
BYBLOCK
 10
297.53412562650692
 20
-2080.9456628027501
 30
0.0
 11
298.07002400650691
 21
-2082.9456628027501
 31
0.0
  0
LINE
  5
8ABE
  8
0
  6
BYBLOCK
 10
297.53412562650692
 20
-2080.9456628027501
 30
0.0
 11
297.53412562650692
 21
-2082.9456628027501
 31
0.0
  0
TEXT
  5
8ABF
  8
1DIM
 10
296.83412562650727
 20
-2053.5706628027501
 30
0.0
 40
3.5
  1
20
 50
90.0
  0
LINE
  5
8AC0
  8
0
  6
BYBLOCK
 10
298.07002400650691
 20
-2058.9456628027501
 30
0.0
 11
297.53412562650692
 21
-2060.9456628027501
 31
0.0
  0
LINE
  5
8AC1
  8
0
  6
BYBLOCK
 10
297.53412562650692
 20
-2060.9456628027501
 30
0.0
 11
296.99822724650687
 21
-2058.9456628027501
 31
0.0
  0
LINE
  5
8AC2
  8
0
  6
BYBLOCK
 10
297.53412562650692
 20
-2060.9456628027501
 30
0.0
 11
297.53412562650692
 21
-2058.9456628027501
 31
0.0
  0
LINE
  5
8AC3
  8
0
  6
BYBLOCK
 10
296.99822724650687
 20
-2042.9456628027499
 30
0.0
 11
297.53412562650692
 21
-2040.9456628027499
 31
0.0
  0
LINE
  5
8AC4
  8
0
  6
BYBLOCK
 10
297.53412562650692
 20
-2040.9456628027499
 30
0.0
 11
298.07002400650691
 21
-2042.9456628027499
 31
0.0
  0
LINE
  5
8AC5
  8
0
  6
BYBLOCK
 10
297.53412562650692
 20
-2040.9456628027499
 30
0.0
 11
297.53412562650692
 21
-2042.9456628027499
 31
0.0
  0
TEXT
  5
8AC6
  8
1DIM
 10
296.83412562650727
 20
-2073.5706628027501
 30
0.0
 40
3.5
  1
20
 50
90.0
  0
LINE
  5
8AC7
  8
0
  6
BYBLOCK
 10
298.07002400650691
 20
-2078.9456628027501
 30
0.0
 11
297.53412562650692
 21
-2080.9456628027501
 31
0.0
  0
LINE
  5
8AC8
  8
0
  6
BYBLOCK
 10
297.53412562650692
 20
-2080.9456628027501
 30
0.0
 11
296.99822724650687
 21
-2078.9456628027501
 31
0.0
  0
LINE
  5
8AC9
  8
0
  6
BYBLOCK
 10
297.53412562650692
 20
-2080.9456628027501
 30
0.0
 11
297.53412562650692
 21
-2078.9456628027501
 31
0.0
  0
LINE
  5
8ACA
  8
0
  6
BYBLOCK
 10
296.99822724650687
 20
-2062.9456628027501
 30
0.0
 11
297.53412562650692
 21
-2060.9456628027501
 31
0.0
  0
LINE
  5
8ACB
  8
0
  6
BYBLOCK
 10
297.53412562650692
 20
-2060.9456628027501
 30
0.0
 11
298.07002400650691
 21
-2062.9456628027501
 31
0.0
  0
LINE
  5
8ACC
  8
0
  6
BYBLOCK
 10
297.53412562650692
 20
-2060.9456628027501
 30
0.0
 11
297.53412562650692
 21
-2062.9456628027501
 31
0.0
  0
TEXT
  5
8ACD
  8
1DIM
 10
296.83412562650727
 20
-2113.5706628027501
 30
0.0
 40
3.5
  1
20
 50
90.0
  0
LINE
  5
8ACE
  8
0
  6
BYBLOCK
 10
298.07002400650691
 20
-2118.9456628027501
 30
0.0
 11
297.53412562650692
 21
-2120.9456628027501
 31
0.0
  0
LINE
  5
8ACF
  8
0
  6
BYBLOCK
 10
297.53412562650692
 20
-2120.9456628027501
 30
0.0
 11
296.99822724650687
 21
-2118.9456628027501
 31
0.0
  0
LINE
  5
8AD0
  8
0
  6
BYBLOCK
 10
297.53412562650692
 20
-2120.9456628027501
 30
0.0
 11
297.53412562650692
 21
-2118.9456628027501
 31
0.0
  0
LINE
  5
8AD1
  8
0
  6
BYBLOCK
 10
296.99822724650687
 20
-2102.9456628027501
 30
0.0
 11
297.53412562650692
 21
-2100.9456628027501
 31
0.0
  0
LINE
  5
8AD2
  8
0
  6
BYBLOCK
 10
297.53412562650692
 20
-2100.9456628027501
 30
0.0
 11
298.07002400650691
 21
-2102.9456628027501
 31
0.0
  0
LINE
  5
8AD3
  8
0
  6
BYBLOCK
 10
297.53412562650692
 20
-2100.9456628027501
 30
0.0
 11
297.53412562650692
 21
-2102.9456628027501
 31
0.0
  0
LINE
  5
8AD4
  8
1HATCH
 10
412.78216186170067
 20
-2213.8110569463738
 30
0.0
 11
397.23365678639368
 21
-2227.482535300589
 31
0.0
  0
LINE
  5
8AD5
  8
1HATCH
 10
397.23365678639368
 20
-2227.482535300589
 30
0.0
 11
370.26699011972698
 21
-2227.482535300589
 31
0.0
  0
VIEWPORT
  5
57
 67
     1
  8
0
 10
-12.71820606546887
 20
10.09248672500371
 30
0.0
 40
405.32942242450349
 41
286.98770712734932
 68
     1
 69
     1
1001
ACAD
1000
MVIEW
1002
{
1070
    16
1010
0.0
1020
0.0
1030
0.0
1010
0.0
1020
0.0
1030
1.0
1040
0.0
1040
286.98770712734932
1040
-12.71820606546887
1040
10.09248672500371
1040
50.0
1040
0.0
1040
0.0
1070
     0
1070
   100
1070
     1
1070
     1
1070
     0
1070
     0
1070
     0
1070
     0
1040
0.0
1040
0.0
1040
0.0
1040
10.0
1040
10.0
1040
10.0
1040
10.0
1070
     0
1002
{
1002
}
1002
}
  0
ENDSEC
  0
EOF
