  0
SECTION
  2
HEADER
  9
$ACADVER
  1
AC1009
  9
$INSBASE
 10
0.0
 20
0.0
 30
0.0
  9
$EXTMIN
 10
102.66895606310391
 20
-2547.205186554967
 30
0.0
  9
$EXTMAX
 10
376.091355381862
 20
-2142.396564221624
 30
0.0
  9
$LIMMIN
 10
0.0
 20
0.0
  9
$LIMMAX
 10
420.0
 20
297.0
  9
$ORTHOMODE
 70
     0
  9
$REGENMODE
 70
     1
  9
$FILLMODE
 70
     1
  9
$QTEXTMODE
 70
     0
  9
$MIRRTEXT
 70
     1
  9
$DRAGMODE
 70
     2
  9
$LTSCALE
 40
0.5
  9
$OSMODE
 70
    63
  9
$ATTMODE
 70
     1
  9
$TEXTSIZE
 40
4.0
  9
$TRACEWID
 40
1.0
  9
$TEXTSTYLE
  7
STANDARD
  9
$CLAYER
  8
1TEXT
  9
$CELTYPE
  6
BYLAYER
  9
$CECOLOR
 62
   256
  9
$DIMSCALE
 40
1.0
  9
$DIMASZ
 40
2.0
  9
$DIMEXO
 40
0.0
  9
$DIMDLI
 40
7.0
  9
$DIMRND
 40
0.0
  9
$DIMDLE
 40
0.0
  9
$DIMEXE
 40
1.0
  9
$DIMTP
 40
0.0
  9
$DIMTM
 40
0.0
  9
$DIMTXT
 40
3.5
  9
$DIMCEN
 40
0.0
  9
$DIMTSZ
 40
0.0
  9
$DIMTOL
 70
     0
  9
$DIMLIM
 70
     0
  9
$DIMTIH
 70
     0
  9
$DIMTOH
 70
     0
  9
$DIMSE1
 70
     0
  9
$DIMSE2
 70
     0
  9
$DIMTAD
 70
     1
  9
$DIMZIN
 70
     8
  9
$DIMBLK
  1

  9
$DIMASO
 70
     1
  9
$DIMSHO
 70
     1
  9
$DIMPOST
  1
 
  9
$DIMAPOST
  1

  9
$DIMALT
 70
     0
  9
$DIMALTD
 70
     2
  9
$DIMALTF
 40
25.399999999999999
  9
$DIMLFAC
 40
1.0
  9
$DIMTOFL
 70
     1
  9
$DIMTVP
 40
0.0
  9
$DIMTIX
 70
     0
  9
$DIMSOXD
 70
     0
  9
$DIMSAH
 70
     1
  9
$DIMBLK1
  1
OPEN30
  9
$DIMBLK2
  1
OPEN30
  9
$DIMSTYLE
  2
NEWX10
  9
$DIMCLRD
 70
   256
  9
$DIMCLRE
 70
   256
  9
$DIMCLRT
 70
   201
  9
$DIMTFAC
 40
0.7
  9
$DIMGAP
 40
0.7
  9
$LUNITS
 70
     2
  9
$LUPREC
 70
     4
  9
$SKETCHINC
 40
1.0
  9
$FILLETRAD
 40
0.0
  9
$AUNITS
 70
     0
  9
$AUPREC
 70
     2
  9
$MENU
  1
acad
  9
$ELEVATION
 40
0.0
  9
$PELEVATION
 40
0.0
  9
$THICKNESS
 40
0.0
  9
$LIMCHECK
 70
     0
  9
$BLIPMODE
 70
     0
  9
$CHAMFERA
 40
10.0
  9
$CHAMFERB
 40
10.0
  9
$SKPOLY
 70
     0
  9
$TDCREATE
 40
2453033.7326634838
  9
$TDUPDATE
 40
2456958.59368779
  9
$TDINDWG
 40
0.3073343634
  9
$TDUSRTIMER
 40
0.3073343634
  9
$USRTIMER
 70
     1
  9
$ANGBASE
 50
0.0
  9
$ANGDIR
 70
     0
  9
$PDMODE
 70
     0
  9
$PDSIZE
 40
0.0
  9
$PLINEWID
 40
0.0
  9
$COORDS
 70
     0
  9
$SPLFRAME
 70
     0
  9
$SPLINETYPE
 70
     6
  9
$SPLINESEGS
 70
     8
  9
$ATTDIA
 70
     0
  9
$ATTREQ
 70
     1
  9
$HANDLING
 70
     1
  9
$HANDSEED
  5
B6E2
  9
$SURFTAB1
 70
     6
  9
$SURFTAB2
 70
     6
  9
$SURFTYPE
 70
     6
  9
$SURFU
 70
     6
  9
$SURFV
 70
     6
  9
$UCSNAME
  2

  9
$UCSORG
 10
0.0
 20
0.0
 30
0.0
  9
$UCSXDIR
 10
1.0
 20
0.0
 30
0.0
  9
$UCSYDIR
 10
0.0
 20
1.0
 30
0.0
  9
$PUCSNAME
  2

  9
$PUCSORG
 10
0.0
 20
0.0
 30
0.0
  9
$PUCSXDIR
 10
1.0
 20
0.0
 30
0.0
  9
$PUCSYDIR
 10
0.0
 20
1.0
 30
0.0
  9
$USERI1
 70
     0
  9
$USERI2
 70
     0
  9
$USERI3
 70
     0
  9
$USERI4
 70
     0
  9
$USERI5
 70
     0
  9
$USERR1
 40
0.0
  9
$USERR2
 40
0.0
  9
$USERR3
 40
0.0
  9
$USERR4
 40
0.0
  9
$USERR5
 40
0.0
  9
$WORLDVIEW
 70
     1
  9
$SHADEDGE
 70
     3
  9
$SHADEDIF
 70
    70
  9
$TILEMODE
 70
     1
  9
$MAXACTVP
 70
    48
  9
$PLIMCHECK
 70
     0
  9
$PEXTMIN
 10
1.0000000000000000E+020
 20
1.0000000000000000E+020
 30
1.0000000000000000E+020
  9
$PEXTMAX
 10
-1.0000000000000000E+020
 20
-1.0000000000000000E+020
 30
-1.0000000000000000E+020
  9
$PLIMMIN
 10
0.0
 20
0.0
  9
$PLIMMAX
 10
420.0
 20
297.0
  9
$UNITMODE
 70
     0
  9
$VISRETAIN
 70
     1
  9
$PLINEGEN
 70
     0
  9
$PSLTSCALE
 70
     1
  0
ENDSEC
  0
SECTION
  2
TABLES
  0
TABLE
  2
VPORT
 70
     1
  0
VPORT
  2
*ACTIVE
 70
     0
 10
0.0
 20
0.0
 11
1.0
 21
1.0
 12
239.3838511097523
 22
-2344.8350521885282
 13
0.0
 23
0.0
 14
10.0
 24
10.0
 15
10.0
 25
10.0
 16
0.0
 26
0.0
 36
1.0
 17
0.0
 27
0.0
 37
0.0
 40
429.36681577302522
 41
2.1771217712177111
 42
50.0
 43
0.0
 44
0.0
 50
0.0
 51
0.0
 71
     0
 72
   100
 73
     1
 74
     1
 75
     0
 76
     0
 77
     0
 78
     0
  0
ENDTAB
  0
TABLE
  2
LTYPE
 70
    14
  0
LTYPE
  2
CONTINUOUS
 70
     0
  3
Solid line
 72
    65
 73
     0
 40
0.0
  0
LTYPE
  2
CENTER2
 70
     0
  3
Center (.5x) ___ _ ___ _ ___ _ ___ _ ___ _ ___
 72
    65
 73
     4
 40
28.574999999999999
 49
19.050000000000001
 49
-3.1749999999999989
 49
3.1749999999999989
 49
-3.1749999999999989
  0
LTYPE
  2
XREF1|CENTER2
 70
    48
  3
Center (.5x) ___ _ ___ _ ___ _ ___ _ ___ _ ___
 72
    65
 73
     4
 40
28.574999999999999
 49
19.050000000000001
 49
-3.1749999999999989
 49
3.1749999999999989
 49
-3.1749999999999989
  0
LTYPE
  2
A3WAKUDAKE|CENTER2
 70
    48
  3
Center (.5x) ___ _ ___ _ ___ _ ___ _ ___ _ ___
 72
    65
 73
     4
 40
28.574999999999999
 49
19.050000000000001
 49
-3.1749999999999989
 49
3.1749999999999989
 49
-3.1749999999999989
  0
ENDTAB
  0
TABLE
  2
LAYER
 70
    43
  0
LAYER
  2
0
 70
     0
 62
     7
  6
CONTINUOUS
  0
LAYER
  2
1CENTER
 70
     0
 62
     7
  6
CENTER2
  0
LAYER
  2
1TEXT
 70
     0
 62
     7
  6
CONTINUOUS
  0
LAYER
  2
1DIM
 70
     0
 62
     7
  6
CONTINUOUS
  0
LAYER
  2
01
 70
     0
 62
     1
  6
CONTINUOUS
  0
LAYER
  2
1HATCH
 70
     0
 62
     7
  6
CONTINUOUS
  0
LAYER
  2
XREF1|1CENTER
 70
    48
 62
     7
  6
XREF1|CENTER2
  0
LAYER
  2
A3WAKUDAKE|THICK
 70
    48
 62
     7
  6
CONTINUOUS
  0
LAYER
  2
A3WAKUDAKE|POINT
 70
    48
 62
     7
  6
CONTINUOUS
  0
LAYER
  2
A3WAKUDAKE|1CENTER
 70
    48
 62
     7
  6
A3WAKUDAKE|CENTER2
  0
LAYER
  2
A3WAKUDAKE|0-6
 70
    48
 62
     7
  6
CONTINUOUS
  0
LAYER
  2
A3WAKUDAKE|1DIM
 70
    48
 62
     7
  6
CONTINUOUS
  0
ENDTAB
  0
TABLE
  2
STYLE
 70
    22
  0
STYLE
  2
STANDARD
 70
     0
 40
0.0
 41
1.0
 50
0.0
 71
     0
 42
4.0
  3
txt.shx
  4
extfont.shx
  0
ENDTAB
  0
TABLE
  2
VIEW
 70
    15
  0
ENDTAB
  0
TABLE
  2
UCS
 70
     0
  0
ENDTAB
  0
TABLE
  2
APPID
 70
    12
  0
APPID
  2
ACAD
 70
     0
  0
APPID
  2
DRAWINGVARIABLESXDATA
 70
     0
  0
APPID
  2
CONTENTTABDATA
 70
     0
  0
APPID
  2
CONTENTCURRENTTAB
 70
     0
  0
APPID
  2
CONTENTBLOCKDESCRIPTION
 70
     0
  0
APPID
  2
CONTENTBLOCKICON
 70
     0
  0
APPID
  2
CONTENTLONGBLOCKNAME
 70
     0
  0
APPID
  2
ACAD_PSEXT
 70
     0
  0
APPID
  2
ACAD_DSTYLE_DIMTEXT_FILL
 70
     0
  0
APPID
  2
ACAD_MLEADERVER
 70
     0
  0
APPID
  2
GENIUS_GENODEF_13
 70
     0
  0
APPID
  2
GENIUS_GENOBJ-N-FIL_13
 70
     0
  0
ENDTAB
  0
TABLE
  2
DIMSTYLE
 70
     8
  0
DIMSTYLE
  2
NEWX10
 70
     0
  3
 
  4

  5

  6
OPEN30
  7
OPEN30
 40
1.0
 41
2.0
 42
0.0
 43
7.0
 44
1.0
 45
0.0
 46
0.0
 47
0.0
 48
0.0
140
3.5
141
0.0
142
0.0
143
25.399999999999999
144
1.0
145
0.0
146
0.7
147
0.7
 71
     0
 72
     0
 73
     0
 74
     0
 75
     0
 76
     0
 77
     1
 78
     8
170
     0
171
     2
172
     1
173
     1
174
     0
175
     0
176
   256
177
   256
178
   201
  0
ENDTAB
  0
ENDSEC
  0
SECTION
  2
BLOCKS
  0
BLOCK
  8
0
  2
$MODEL_SPACE
 70
     0
 10
0.0
 20
0.0
 30
0.0
  3
$MODEL_SPACE
  1

  0
ENDBLK
  5
1A
  8
0
  0
BLOCK
 67
     1
  8
0
  2
$PAPER_SPACE
 70
     0
 10
0.0
 20
0.0
 30
0.0
  3
$PAPER_SPACE
  1

  0
ENDBLK
  5
17
 67
     1
  8
0
  0
BLOCK
  8
0
  2
_OPEN30
 70
     0
 10
0.0
 20
0.0
 30
0.0
  3
_OPEN30
  1

  0
LINE
  5
44
  8
0
  6
BYBLOCK
 62
     0
 10
-1.0
 20
0.26794919
 30
0.0
 11
0.0
 21
0.0
 31
0.0
  0
LINE
  5
45
  8
0
  6
BYBLOCK
 62
     0
 10
0.0
 20
0.0
 30
0.0
 11
-1.0
 21
-0.26794919
 31
0.0
  0
LINE
  5
46
  8
0
  6
BYBLOCK
 62
     0
 10
0.0
 20
0.0
 30
0.0
 11
-1.0
 21
0.0
 31
0.0
  0
ENDBLK
  5
47
  8
0
  0
BLOCK
  8
0
  2
XREF1
 70
    36
 10
0.0
 20
0.0
 30
0.0
  3
XREF1
  1
D:\ACLT\FORMAT\KAWAJUN(9)図面用.dwg
  0
ENDBLK
  5
5D
  8
0
  0
BLOCK
  8
0
  2
A3WAKUDAKE
 70
    36
 10
0.0
 20
0.0
 30
0.0
  3
A3WAKUDAKE
  1
D:\ACLT\FORMAT\A3WAKUdake.dwg
  0
ENDBLK
  5
6DC
  8
0
  0
BLOCK
  8
0
  2
*U365
 70
     1
 10
0.0
 20
0.0
 30
0.0
  3
*U365
  1

  0
TEXT
  5
B470
  8
1DIM
 62
   201
 10
1634.7931461510279
 20
703.22698170377146
 30
0.0
 40
3.5
  1
136.29
 50
90.0
  0
ENDBLK
  5
B472
  8
0
  0
BLOCK
  8
0
  2
*U366
 70
     1
 10
0.0
 20
0.0
 30
0.0
  3
*U366
  1

  0
TEXT
  5
B474
  8
1DIM
 62
   201
 10
1556.1589464704759
 20
785.57376977127205
 30
0.0
 40
3.5
  1
108
  0
ENDBLK
  5
B476
  8
0
  0
BLOCK
  8
0
  2
*U367
 70
     1
 10
0.0
 20
0.0
 30
0.0
  3
*U367
  1

  0
TEXT
  5
B478
  8
1DIM
 62
   201
 10
1676.04504555271
 20
783.95655882947221
 30
0.0
 40
3.5
  1
79.18
  0
ENDBLK
  5
B47A
  8
0
  0
BLOCK
  8
0
  2
*U368
 70
     1
 10
0.0
 20
0.0
 30
0.0
  3
*U368
  1

  0
TEXT
  5
B47C
  8
1DIM
 62
   201
 10
231.51148907698999
 20
-2257.872592472439
 30
0.0
 40
3.5
  1
136.29
 50
90.0
  0
ENDBLK
  5
B47E
  8
0
  0
BLOCK
  8
0
  2
*U369
 70
     1
 10
0.0
 20
0.0
 30
0.0
  3
*U369
  1

  0
TEXT
  5
B480
  8
1DIM
 62
   201
 10
152.87728939643719
 20
-2175.5258044049392
 30
0.0
 40
3.5
  1
108
  0
ENDBLK
  5
B482
  8
0
  0
BLOCK
  8
0
  2
*U370
 70
     1
 10
0.0
 20
0.0
 30
0.0
  3
*U370
  1

  0
TEXT
  5
B484
  8
1DIM
 62
   201
 10
272.7633884786714
 20
-2177.143015346739
 30
0.0
 40
3.5
  1
79.18
  0
ENDBLK
  5
B486
  8
0
  0
BLOCK
  8
0
  2
*X371
 70
     1
 10
0.0
 20
0.0
 30
0.0
  3
*X371
  1

  0
LINE
  5
B48E
  8
0
 62
     0
 10
1250.0145183271629
 20
107.2997035937246
 30
0.0
 11
1250.1990204408919
 21
107.4842057074529
 31
0.0
  0
LINE
  5
B48F
  8
0
 62
     0
 10
1247.7694542968959
 20
107.2997035937248
 30
0.0
 11
1250.1990204408919
 21
109.7292697377202
 31
0.0
  0
LINE
  5
B490
  8
0
 62
     0
 10
1245.5243902666291
 20
107.2997035937246
 30
0.0
 11
1250.1990204408919
 21
111.9743337679874
 31
0.0
  0
LINE
  5
B491
  8
0
 62
     0
 10
1243.2793262363609
 20
107.2997035937248
 30
0.0
 11
1250.1990204408919
 21
114.2193977982547
 31
0.0
  0
LINE
  5
B492
  8
0
 62
     0
 10
1241.0342622060939
 20
107.2997035937246
 30
0.0
 11
1250.0342622060939
 21
116.2997035937247
 31
0.0
  0
LINE
  5
B493
  8
0
 62
     0
 10
1238.7891981758271
 20
107.2997035937248
 30
0.0
 11
1247.7891981758271
 21
116.2997035937245
 31
0.0
  0
LINE
  5
B494
  8
0
 62
     0
 10
1236.5441341455601
 20
107.2997035937246
 30
0.0
 11
1245.5441341455601
 21
116.2997035937247
 31
0.0
  0
LINE
  5
B495
  8
0
 62
     0
 10
1234.2990701152919
 20
107.2997035937248
 30
0.0
 11
1243.2990701152919
 21
116.2997035937245
 31
0.0
  0
LINE
  5
B496
  8
0
 62
     0
 10
1232.0540060850251
 20
107.2997035937246
 30
0.0
 11
1241.0540060850251
 21
116.2997035937247
 31
0.0
  0
LINE
  5
B497
  8
0
 62
     0
 10
1229.8089420547581
 20
107.2997035937248
 30
0.0
 11
1238.8089420547581
 21
116.2997035937245
 31
0.0
  0
LINE
  5
B498
  8
0
 62
     0
 10
1227.8146302341729
 20
107.5504558034075
 30
0.0
 11
1236.5638780244899
 21
116.2997035937247
 31
0.0
  0
LINE
  5
B499
  8
0
 62
     0
 10
1227.563878024491
 20
107.2997035937246
 30
0.0
 11
1227.643085744854
 21
107.3789113140881
 31
0.0
  0
LINE
  5
B49A
  8
0
 62
     0
 10
1227.61041020895
 20
109.59129980845189
 30
0.0
 11
1234.3188139942231
 21
116.2997035937245
 31
0.0
  0
LINE
  5
B49B
  8
0
 62
     0
 10
1227.407719212812
 20
111.63367284258079
 30
0.0
 11
1232.0737499639561
 21
116.2997035937247
 31
0.0
  0
LINE
  5
B49C
  8
0
 62
     0
 10
1223.0737499639561
 20
107.2997035937246
 30
0.0
 11
1223.907719212812
 21
108.13367284258101
 31
0.0
  0
LINE
  5
B49D
  8
0
 62
     0
 10
1227.407719212812
 20
113.87873687284829
 30
0.0
 11
1229.8286859336879
 21
116.2997035937245
 31
0.0
  0
LINE
  5
B49E
  8
0
 62
     0
 10
1220.8286859336879
 20
107.2997035937244
 30
0.0
 11
1223.868636825172
 21
110.3396544852077
 31
0.0
  0
LINE
  5
B49F
  8
0
 62
     0
 10
1227.407719212812
 20
116.1238009031154
 30
0.0
 11
1227.5836219034211
 21
116.2997035937247
 31
0.0
  0
LINE
  5
B4A0
  8
0
 62
     0
 10
1218.5836219034211
 20
107.2997035937246
 30
0.0
 11
1223.6644167999491
 21
112.38049849025229
 31
0.0
  0
LINE
  5
B4A1
  8
0
 62
     0
 10
1223.6114355556831
 20
114.5725812762538
 30
0.0
 11
1223.907719212812
 21
114.86886493338309
 31
0.0
  0
LINE
  5
B4A2
  8
0
 62
     0
 10
1216.3385578731541
 20
107.2997035937246
 30
0.0
 11
1223.460196774726
 21
114.4213424952969
 31
0.0
  0
LINE
  5
B4A3
  8
0
 62
     0
 10
1214.093493842887
 20
107.2997035937246
 30
0.0
 11
1223.093493842887
 21
116.2997035937245
 31
0.0
  0
LINE
  5
B4A4
  8
0
 62
     0
 10
1211.8484298126191
 20
107.2997035937246
 30
0.0
 11
1220.8484298126191
 21
116.2997035937247
 31
0.0
  0
LINE
  5
B4A5
  8
0
 62
     0
 10
1209.6033657823521
 20
107.2997035937246
 30
0.0
 11
1218.6033657823521
 21
116.2997035937245
 31
0.0
  0
LINE
  5
B4A6
  8
0
 62
     0
 10
1207.358301752085
 20
107.2997035937246
 30
0.0
 11
1216.358301752085
 21
116.2997035937247
 31
0.0
  0
LINE
  5
B4A7
  8
0
 62
     0
 10
1205.113237721818
 20
107.2997035937246
 30
0.0
 11
1214.1132377218171
 21
116.2997035937245
 31
0.0
  0
LINE
  5
B4A8
  8
0
 62
     0
 10
1202.8681736915501
 20
107.2997035937246
 30
0.0
 11
1211.8681736915501
 21
116.2997035937247
 31
0.0
  0
LINE
  5
B4A9
  8
0
 62
     0
 10
1200.623109661283
 20
107.2997035937246
 30
0.0
 11
1209.623109661283
 21
116.2997035937245
 31
0.0
  0
LINE
  5
B4AA
  8
0
 62
     0
 10
1198.378045631016
 20
107.2997035937246
 30
0.0
 11
1207.378045631016
 21
116.2997035937247
 31
0.0
  0
LINE
  5
B4AB
  8
0
 62
     0
 10
1196.132981600749
 20
107.2997035937246
 30
0.0
 11
1205.1329816007481
 21
116.2997035937245
 31
0.0
  0
LINE
  5
B4AC
  8
0
 62
     0
 10
1194.1415088162321
 20
107.5532948394753
 30
0.0
 11
1202.887917570481
 21
116.2997035937247
 31
0.0
  0
LINE
  5
B4AD
  8
0
 62
     0
 10
1194.1415088162321
 20
109.7983588697426
 30
0.0
 11
1200.642853540214
 21
116.2997035937245
 31
0.0
  0
LINE
  5
B4AE
  8
0
 62
     0
 10
1194.1415088162321
 20
112.04342290001
 30
0.0
 11
1198.397789509947
 21
116.2997035937247
 31
0.0
  0
LINE
  5
B4AF
  8
0
 62
     0
 10
1194.1415088162321
 20
114.2884869302772
 30
0.0
 11
1196.152725479679
 21
116.2997035937245
 31
0.0
  0
ENDBLK
  5
B4B1
  8
0
  0
BLOCK
  8
0
  2
*X372
 70
     1
 10
0.0
 20
0.0
 30
0.0
  3
*X372
  1

  0
LINE
  5
B4B3
  8
0
 62
     0
 10
1250.1990204408919
 20
128.45993724023239
 30
0.0
 11
1249.359254087399
 21
129.29970359372459
 31
0.0
  0
LINE
  5
B4B4
  8
0
 62
     0
 10
1248.619667044595
 20
127.7942266062615
 30
0.0
 11
1247.114190057132
 21
129.29970359372439
 31
0.0
  0
LINE
  5
B4B5
  8
0
 62
     0
 10
1249.180933052161
 20
127.2329605986947
 30
0.0
 11
1249.180933052161
 21
127.2329605986947
 31
0.0
  0
LINE
  5
B4B6
  8
0
 62
     0
 10
1250.1990204408919
 20
126.21487320996491
 30
0.0
 11
1249.742199059729
 21
126.6716945911279
 31
0.0
  0
LINE
  5
B4B7
  8
0
 62
     0
 10
1245.532704002977
 20
128.6361256176119
 30
0.0
 11
1244.869126026864
 21
129.29970359372479
 31
0.0
  0
LINE
  5
B4B8
  8
0
 62
     0
 10
1246.0939700105439
 20
128.07485961004511
 30
0.0
 11
1246.0939700105439
 21
128.07485961004511
 31
0.0
  0
LINE
  5
B4B9
  8
0
 62
     0
 10
1249.461566055945
 20
124.70726356464419
 30
0.0
 11
1246.6552360181111
 21
127.51359360247829
 31
0.0
  0
LINE
  5
B4BA
  8
0
 62
     0
 10
1250.0228320635119
 20
124.14599755707739
 30
0.0
 11
1250.0228320635119
 21
124.14599755707739
 31
0.0
  0
LINE
  5
B4BB
  8
0
 62
     0
 10
1243.0070069689259
 20
128.91675862139519
 30
0.0
 11
1243.0070069689259
 21
128.91675862139519
 31
0.0
  0
LINE
  5
B4BC
  8
0
 62
     0
 10
1246.374603014327
 20
125.5491625759943
 30
0.0
 11
1243.5682729764931
 21
128.3554926138284
 31
0.0
  0
LINE
  5
B4BD
  8
0
 62
     0
 10
1246.935869021894
 20
124.9878965684275
 30
0.0
 11
1246.935869021894
 21
124.9878965684275
 31
0.0
  0
LINE
  5
B4BE
  8
0
 62
     0
 10
1250.1990204408919
 20
121.7247451494304
 30
0.0
 11
1247.4971350294611
 21
124.4266305608606
 31
0.0
  0
LINE
  5
B4BF
  8
0
 62
     0
 10
1243.2876399727099
 20
126.39106158734469
 30
0.0
 11
1240.4813099348751
 21
129.1973916251788
 31
0.0
  0
LINE
  5
B4C0
  8
0
 62
     0
 10
1243.848905980276
 20
125.82979557977779
 30
0.0
 11
1243.848905980276
 21
125.82979557977779
 31
0.0
  0
LINE
  5
B4C1
  8
0
 62
     0
 10
1247.216502025678
 20
122.46219953437689
 30
0.0
 11
1244.4101719878429
 21
125.26852957221099
 31
0.0
  0
LINE
  5
B4C2
  8
0
 62
     0
 10
1247.7777680332449
 20
121.90093352681011
 30
0.0
 11
1247.7777680332449
 21
121.90093352681011
 31
0.0
  0
LINE
  5
B4C3
  8
0
 62
     0
 10
1250.1990204408919
 20
119.4796811191631
 30
0.0
 11
1248.3390340408109
 21
121.33966751924321
 31
0.0
  0
LINE
  5
B4C4
  8
0
 62
     0
 10
1240.2006769310919
 20
127.2329605986948
 30
0.0
 11
1238.133933936062
 21
129.29970359372439
 31
0.0
  0
LINE
  5
B4C5
  8
0
 62
     0
 10
1240.7619429386591
 20
126.671694591128
 30
0.0
 11
1240.7619429386591
 21
126.671694591128
 31
0.0
  0
LINE
  5
B4C6
  8
0
 62
     0
 10
1244.12953898406
 20
123.3040985457271
 30
0.0
 11
1241.323208946226
 21
126.1104285835612
 31
0.0
  0
LINE
  5
B4C7
  8
0
 62
     0
 10
1244.6908049916269
 20
122.7428325381602
 30
0.0
 11
1244.6908049916269
 21
122.7428325381602
 31
0.0
  0
LINE
  5
B4C8
  8
0
 62
     0
 10
1248.058401037028
 20
119.3752364927593
 30
0.0
 11
1245.2520709991941
 21
122.1815665305934
 31
0.0
  0
LINE
  5
B4C9
  8
0
 62
     0
 10
1248.619667044595
 20
118.8139704851925
 30
0.0
 11
1248.619667044595
 21
118.8139704851925
 31
0.0
  0
LINE
  5
B4CA
  8
0
 62
     0
 10
1250.1990204408919
 20
117.2346170888959
 30
0.0
 11
1249.1809330521619
 21
118.2527044776256
 31
0.0
  0
LINE
  5
B4CB
  8
0
 62
     0
 10
1237.113713889474
 20
128.074859610045
 30
0.0
 11
1235.888869905795
 21
129.2997035937245
 31
0.0
  0
LINE
  5
B4CC
  8
0
 62
     0
 10
1237.6749798970411
 20
127.5135936024782
 30
0.0
 11
1237.6749798970411
 21
127.5135936024782
 31
0.0
  0
LINE
  5
B4CD
  8
0
 62
     0
 10
1241.042575942442
 20
124.14599755707719
 30
0.0
 11
1238.236245904608
 21
126.9523275949113
 31
0.0
  0
LINE
  5
B4CE
  8
0
 62
     0
 10
1241.6038419500089
 20
123.58473154951039
 30
0.0
 11
1241.6038419500089
 21
123.58473154951039
 31
0.0
  0
LINE
  5
B4CF
  8
0
 62
     0
 10
1244.97143799541
 20
120.21713550410951
 30
0.0
 11
1242.1651079575761
 21
123.02346554194359
 31
0.0
  0
LINE
  5
B4D0
  8
0
 62
     0
 10
1245.532704002977
 20
119.65586949654261
 30
0.0
 11
1245.532704002977
 21
119.65586949654261
 31
0.0
  0
LINE
  5
B4D1
  8
0
 62
     0
 10
1248.888869905795
 20
116.2997035937249
 30
0.0
 11
1246.0939700105439
 21
119.09460348897581
 31
0.0
  0
LINE
  5
B4D2
  8
0
 62
     0
 10
1234.0267508478571
 20
128.91675862139539
 30
0.0
 11
1233.6438058755271
 21
129.2997035937247
 31
0.0
  0
LINE
  5
B4D3
  8
0
 62
     0
 10
1234.5880168554229
 20
128.35549261382849
 30
0.0
 11
1234.5880168554229
 21
128.35549261382849
 31
0.0
  0
LINE
  5
B4D4
  8
0
 62
     0
 10
1237.955612900824
 20
124.9878965684276
 30
0.0
 11
1235.14928286299
 21
127.7942266062617
 31
0.0
  0
LINE
  5
B4D5
  8
0
 62
     0
 10
1238.5168789083921
 20
124.4266305608608
 30
0.0
 11
1238.5168789083921
 21
124.4266305608608
 31
0.0
  0
LINE
  5
B4D6
  8
0
 62
     0
 10
1241.8844749537921
 20
121.0590345154598
 30
0.0
 11
1239.0781449159581
 21
123.865364553294
 31
0.0
  0
LINE
  5
B4D7
  8
0
 62
     0
 10
1242.4457409613599
 20
120.497768507893
 30
0.0
 11
1242.4457409613599
 21
120.497768507893
 31
0.0
  0
LINE
  5
B4D8
  8
0
 62
     0
 10
1245.813337006761
 20
117.1301724624921
 30
0.0
 11
1243.0070069689259
 21
119.9365025003262
 31
0.0
  0
LINE
  5
B4D9
  8
0
 62
     0
 10
1246.374603014327
 20
116.5689064549253
 30
0.0
 11
1246.374603014327
 21
116.5689064549253
 31
0.0
  0
LINE
  5
B4DA
  8
0
 62
     0
 10
1231.501053813806
 20
129.19739162517871
 30
0.0
 11
1231.501053813806
 21
129.19739162517871
 31
0.0
  0
LINE
  5
B4DB
  8
0
 62
     0
 10
1234.8686498592069
 20
125.8297955797777
 30
0.0
 11
1232.062319821373
 21
128.63612561761181
 31
0.0
  0
LINE
  5
B4DC
  8
0
 62
     0
 10
1235.4299158667741
 20
125.26852957221089
 30
0.0
 11
1235.4299158667741
 21
125.26852957221089
 31
0.0
  0
LINE
  5
B4DD
  8
0
 62
     0
 10
1238.797511912175
 20
121.90093352680999
 30
0.0
 11
1235.991181874341
 21
124.70726356464409
 31
0.0
  0
LINE
  5
B4DE
  8
0
 62
     0
 10
1239.3587779197419
 20
121.33966751924309
 30
0.0
 11
1239.3587779197419
 21
121.33966751924309
 31
0.0
  0
LINE
  5
B4DF
  8
0
 62
     0
 10
1242.726373965143
 20
117.97207147384221
 30
0.0
 11
1239.9200439273091
 21
120.77840151167629
 31
0.0
  0
LINE
  5
B4E0
  8
0
 62
     0
 10
1243.2876399727099
 20
117.41080546627541
 30
0.0
 11
1243.2876399727099
 21
117.41080546627541
 31
0.0
  0
LINE
  5
B4E1
  8
0
 62
     0
 10
1244.3987418452609
 20
116.2997035937249
 30
0.0
 11
1243.8489059802771
 21
116.84953945870851
 31
0.0
  0
LINE
  5
B4E2
  8
0
 62
     0
 10
1231.7816868175889
 20
126.6716945911282
 30
0.0
 11
1229.153677814993
 21
129.2997035937245
 31
0.0
  0
LINE
  5
B4E3
  8
0
 62
     0
 10
1232.3429528251561
 20
126.1104285835614
 30
0.0
 11
1232.3429528251561
 21
126.1104285835614
 31
0.0
  0
LINE
  5
B4E4
  8
0
 62
     0
 10
1235.710548870557
 20
122.7428325381604
 30
0.0
 11
1232.904218832723
 21
125.5491625759945
 31
0.0
  0
LINE
  5
B4E5
  8
0
 62
     0
 10
1236.2718148781239
 20
122.1815665305936
 30
0.0
 11
1236.2718148781239
 21
122.1815665305936
 31
0.0
  0
LINE
  5
B4E6
  8
0
 62
     0
 10
1239.6394109235259
 20
118.8139704851926
 30
0.0
 11
1236.8330808856911
 21
121.6203005230268
 31
0.0
  0
LINE
  5
B4E7
  8
0
 62
     0
 10
1240.2006769310919
 20
118.2527044776258
 30
0.0
 11
1240.2006769310919
 21
118.2527044776258
 31
0.0
  0
LINE
  5
B4E8
  8
0
 62
     0
 10
1242.1536778149939
 20
116.2997035937246
 30
0.0
 11
1240.7619429386591
 21
117.691438470059
 31
0.0
  0
LINE
  5
B4E9
  8
0
 62
     0
 10
1228.6947237759721
 20
127.5135936024781
 30
0.0
 11
1228.3577192128109
 21
127.8505981656389
 31
0.0
  0
LINE
  5
B4EA
  8
0
 62
     0
 10
1229.255989783539
 20
126.9523275949113
 30
0.0
 11
1229.255989783539
 21
126.9523275949113
 31
0.0
  0
LINE
  5
B4EB
  8
0
 62
     0
 10
1232.6235858289399
 20
123.58473154951029
 30
0.0
 11
1229.8172557911059
 21
126.3910615873444
 31
0.0
  0
LINE
  5
B4EC
  8
0
 62
     0
 10
1233.1848518365071
 20
123.02346554194349
 30
0.0
 11
1233.1848518365071
 21
123.02346554194349
 31
0.0
  0
LINE
  5
B4ED
  8
0
 62
     0
 10
1236.5524478819079
 20
119.65586949654261
 30
0.0
 11
1233.746117844074
 21
122.46219953437669
 31
0.0
  0
LINE
  5
B4EE
  8
0
 62
     0
 10
1237.1137138894751
 20
119.09460348897569
 30
0.0
 11
1237.1137138894751
 21
119.09460348897569
 31
0.0
  0
LINE
  5
B4EF
  8
0
 62
     0
 10
1239.908613784726
 20
116.2997035937249
 30
0.0
 11
1237.674979897042
 21
118.53333748140891
 31
0.0
  0
LINE
  5
B4F0
  8
0
 62
     0
 10
1229.5366227873219
 20
124.4266305608608
 30
0.0
 11
1228.3577192128121
 21
125.6055341353716
 31
0.0
  0
LINE
  5
B4F1
  8
0
 62
     0
 10
1230.0978887948891
 20
123.865364553294
 30
0.0
 11
1230.0978887948891
 21
123.865364553294
 31
0.0
  0
LINE
  5
B4F2
  8
0
 62
     0
 10
1233.4654848402899
 20
120.497768507893
 30
0.0
 11
1230.659154802456
 21
123.3040985457271
 31
0.0
  0
LINE
  5
B4F3
  8
0
 62
     0
 10
1234.0267508478571
 20
119.9365025003262
 30
0.0
 11
1234.0267508478571
 21
119.9365025003262
 31
0.0
  0
LINE
  5
B4F4
  8
0
 62
     0
 10
1237.3943468932589
 20
116.5689064549253
 30
0.0
 11
1234.588016855424
 21
119.3752364927594
 31
0.0
  0
LINE
  5
B4F5
  8
0
 62
     0
 10
1222.5207976927379
 20
129.19739162517871
 30
0.0
 11
1222.4184857241919
 21
129.29970359372439
 31
0.0
  0
LINE
  5
B4F6
  8
0
 62
     0
 10
1230.3785217986731
 20
121.33966751924299
 30
0.0
 11
1228.3577192128121
 21
123.3604701051041
 31
0.0
  0
LINE
  5
B4F7
  8
0
 62
     0
 10
1230.93978780624
 20
120.77840151167619
 30
0.0
 11
1230.93978780624
 21
120.77840151167619
 31
0.0
  0
LINE
  5
B4F8
  8
0
 62
     0
 10
1234.3073838516409
 20
117.41080546627521
 30
0.0
 11
1231.5010538138069
 21
120.21713550410929
 31
0.0
  0
LINE
  5
B4F9
  8
0
 62
     0
 10
1234.8686498592081
 20
116.84953945870841
 30
0.0
 11
1234.8686498592081
 21
116.84953945870841
 31
0.0
  0
LINE
  5
B4FA
  8
0
 62
     0
 10
1222.9577192128129
 20
126.5154060748366
 30
0.0
 11
1220.556366666254
 21
128.9167586213953
 31
0.0
  0
LINE
  5
B4FB
  8
0
 62
     0
 10
1231.2204208100229
 20
118.2527044776256
 30
0.0
 11
1228.414090772189
 21
121.0590345154597
 31
0.0
  0
LINE
  5
B4FC
  8
0
 62
     0
 10
1231.7816868175901
 20
117.6914384700587
 30
0.0
 11
1231.7816868175901
 21
117.6914384700587
 31
0.0
  0
LINE
  5
B4FD
  8
0
 62
     0
 10
1233.173421693924
 20
116.2997035937249
 30
0.0
 11
1232.342952825157
 21
117.1301724624919
 31
0.0
  0
LINE
  5
B4FE
  8
0
 62
     0
 10
1220.27573366247
 20
126.9523275949113
 30
0.0
 11
1217.9283576636569
 21
129.2997035937247
 31
0.0
  0
LINE
  5
B4FF
  8
0
 62
     0
 10
1220.8369996700369
 20
126.3910615873445
 30
0.0
 11
1220.8369996700369
 21
126.3910615873445
 31
0.0
  0
LINE
  5
B500
  8
0
 62
     0
 10
1222.9577192128129
 20
124.27034204456911
 30
0.0
 11
1221.3982656776041
 21
125.8297955797777
 31
0.0
  0
LINE
  5
B501
  8
0
 62
     0
 10
1228.694723775973
 20
118.53333748140901
 30
0.0
 11
1228.694723775973
 21
118.53333748140901
 31
0.0
  0
LINE
  5
B502
  8
0
 62
     0
 10
1230.9283576636569
 20
116.2997035937246
 30
0.0
 11
1229.2559897835399
 21
117.97207147384211
 31
0.0
  0
LINE
  5
B503
  8
0
 62
     0
 10
1217.188770620852
 20
127.7942266062617
 30
0.0
 11
1215.683293633389
 21
129.2997035937247
 31
0.0
  0
LINE
  5
B504
  8
0
 62
     0
 10
1217.7500366284189
 20
127.2329605986949
 30
0.0
 11
1217.7500366284189
 21
127.2329605986949
 31
0.0
  0
LINE
  5
B505
  8
0
 62
     0
 10
1221.11763267382
 20
123.865364553294
 30
0.0
 11
1218.3113026359861
 21
126.6716945911281
 31
0.0
  0
LINE
  5
B506
  8
0
 62
     0
 10
1221.678898681387
 20
123.3040985457271
 30
0.0
 11
1221.678898681387
 21
123.3040985457271
 31
0.0
  0
LINE
  5
B507
  8
0
 62
     0
 10
1222.9577192128129
 20
122.0252780143021
 30
0.0
 11
1222.2401646889541
 21
122.7428325381603
 31
0.0
  0
LINE
  5
B508
  8
0
 62
     0
 10
1228.6832936333899
 20
116.2997035937246
 30
0.0
 11
1228.3577192128121
 21
116.6252780143024
 31
0.0
  0
LINE
  5
B509
  8
0
 62
     0
 10
1214.1018075792349
 20
128.63612561761181
 30
0.0
 11
1213.438229603122
 21
129.29970359372439
 31
0.0
  0
LINE
  5
B50A
  8
0
 62
     0
 10
1214.6630735868009
 20
128.074859610045
 30
0.0
 11
1214.6630735868009
 21
128.074859610045
 31
0.0
  0
LINE
  5
B50B
  8
0
 62
     0
 10
1218.030669632202
 20
124.70726356464399
 30
0.0
 11
1215.2243395943681
 21
127.5135936024782
 31
0.0
  0
LINE
  5
B50C
  8
0
 62
     0
 10
1218.5919356397701
 20
124.14599755707719
 30
0.0
 11
1218.5919356397701
 21
124.14599755707719
 31
0.0
  0
LINE
  5
B50D
  8
0
 62
     0
 10
1221.959531685171
 20
120.77840151167629
 30
0.0
 11
1219.1532016473359
 21
123.58473154951039
 31
0.0
  0
LINE
  5
B50E
  8
0
 62
     0
 10
1222.5207976927379
 20
120.21713550410951
 30
0.0
 11
1222.5207976927379
 21
120.21713550410951
 31
0.0
  0
LINE
  5
B50F
  8
0
 62
     0
 10
1211.5761105451841
 20
128.91675862139539
 30
0.0
 11
1211.5761105451841
 21
128.91675862139539
 31
0.0
  0
LINE
  5
B510
  8
0
 62
     0
 10
1214.943706590585
 20
125.5491625759945
 30
0.0
 11
1212.137376552751
 21
128.3554926138286
 31
0.0
  0
LINE
  5
B511
  8
0
 62
     0
 10
1215.5049725981521
 20
124.9878965684277
 30
0.0
 11
1215.5049725981521
 21
124.9878965684277
 31
0.0
  0
LINE
  5
B512
  8
0
 62
     0
 10
1218.872568643553
 20
121.6203005230267
 30
0.0
 11
1216.066238605719
 21
124.4266305608608
 31
0.0
  0
LINE
  5
B513
  8
0
 62
     0
 10
1219.4338346511199
 20
121.0590345154599
 30
0.0
 11
1219.4338346511199
 21
121.0590345154599
 31
0.0
  0
LINE
  5
B514
  8
0
 62
     0
 10
1222.801430696521
 20
117.691438470059
 30
0.0
 11
1219.9951006586871
 21
120.4977685078931
 31
0.0
  0
LINE
  5
B515
  8
0
 62
     0
 10
1211.856743548967
 20
126.39106158734459
 30
0.0
 11
1209.050413511133
 21
129.19739162517871
 31
0.0
  0
LINE
  5
B516
  8
0
 62
     0
 10
1212.4180095565339
 20
125.82979557977779
 30
0.0
 11
1212.4180095565339
 21
125.82979557977779
 31
0.0
  0
LINE
  5
B517
  8
0
 62
     0
 10
1215.785605601935
 20
122.46219953437679
 30
0.0
 11
1212.979275564101
 21
125.26852957221089
 31
0.0
  0
LINE
  5
B518
  8
0
 62
     0
 10
1216.3468716095019
 20
121.90093352680999
 30
0.0
 11
1216.3468716095019
 21
121.90093352680999
 31
0.0
  0
LINE
  5
B519
  8
0
 62
     0
 10
1219.714467654903
 20
118.53333748140911
 30
0.0
 11
1216.9081376170691
 21
121.33966751924321
 31
0.0
  0
LINE
  5
B51A
  8
0
 62
     0
 10
1220.27573366247
 20
117.97207147384221
 30
0.0
 11
1220.27573366247
 21
117.97207147384221
 31
0.0
  0
LINE
  5
B51B
  8
0
 62
     0
 10
1221.9481015425879
 20
116.2997035937246
 30
0.0
 11
1220.8369996700369
 21
117.41080546627541
 31
0.0
  0
LINE
  5
B51C
  8
0
 62
     0
 10
1208.7697805073501
 20
127.2329605986949
 30
0.0
 11
1206.70303751232
 21
129.2997035937247
 31
0.0
  0
LINE
  5
B51D
  8
0
 62
     0
 10
1209.331046514917
 20
126.6716945911281
 30
0.0
 11
1209.331046514917
 21
126.6716945911281
 31
0.0
  0
LINE
  5
B51E
  8
0
 62
     0
 10
1212.6986425603179
 20
123.3040985457271
 30
0.0
 11
1209.892312522484
 21
126.1104285835613
 31
0.0
  0
LINE
  5
B51F
  8
0
 62
     0
 10
1213.2599085678851
 20
122.7428325381603
 30
0.0
 11
1213.2599085678851
 21
122.7428325381603
 31
0.0
  0
LINE
  5
B520
  8
0
 62
     0
 10
1216.627504613286
 20
119.3752364927594
 30
0.0
 11
1213.821174575452
 21
122.1815665305935
 31
0.0
  0
LINE
  5
B521
  8
0
 62
     0
 10
1217.1887706208529
 20
118.8139704851925
 30
0.0
 11
1217.1887706208529
 21
118.8139704851925
 31
0.0
  0
LINE
  5
B522
  8
0
 62
     0
 10
1219.7030375123211
 20
116.2997035937249
 30
0.0
 11
1217.75003662842
 21
118.2527044776257
 31
0.0
  0
LINE
  5
B523
  8
0
 62
     0
 10
1205.6828174657319
 20
128.07485961004511
 30
0.0
 11
1204.4579734820529
 21
129.29970359372439
 31
0.0
  0
LINE
  5
B524
  8
0
 62
     0
 10
1206.244083473299
 20
127.51359360247829
 30
0.0
 11
1206.244083473299
 21
127.51359360247829
 31
0.0
  0
LINE
  5
B525
  8
0
 62
     0
 10
1209.6116795186999
 20
124.14599755707729
 30
0.0
 11
1206.805349480866
 21
126.9523275949114
 31
0.0
  0
LINE
  5
B526
  8
0
 62
     0
 10
1210.1729455262671
 20
123.58473154951049
 30
0.0
 11
1210.1729455262671
 21
123.58473154951049
 31
0.0
  0
LINE
  5
B527
  8
0
 62
     0
 10
1213.540541571668
 20
120.21713550410951
 30
0.0
 11
1210.734211533834
 21
123.02346554194359
 31
0.0
  0
LINE
  5
B528
  8
0
 62
     0
 10
1214.1018075792349
 20
119.65586949654271
 30
0.0
 11
1214.1018075792349
 21
119.65586949654271
 31
0.0
  0
LINE
  5
B529
  8
0
 62
     0
 10
1217.4579734820529
 20
116.2997035937246
 30
0.0
 11
1214.6630735868021
 21
119.09460348897591
 31
0.0
  0
LINE
  5
B52A
  8
0
 62
     0
 10
1202.5958544241139
 20
128.91675862139519
 30
0.0
 11
1202.212909451785
 21
129.2997035937245
 31
0.0
  0
LINE
  5
B52B
  8
0
 62
     0
 10
1203.1571204316811
 20
128.3554926138284
 30
0.0
 11
1203.1571204316811
 21
128.3554926138284
 31
0.0
  0
LINE
  5
B52C
  8
0
 62
     0
 10
1206.5247164770819
 20
124.9878965684275
 30
0.0
 11
1203.718386439248
 21
127.7942266062616
 31
0.0
  0
LINE
  5
B52D
  8
0
 62
     0
 10
1207.0859824846491
 20
124.4266305608607
 30
0.0
 11
1207.0859824846491
 21
124.4266305608607
 31
0.0
  0
LINE
  5
B52E
  8
0
 62
     0
 10
1210.45357853005
 20
121.0590345154597
 30
0.0
 11
1207.647248492216
 21
123.8653645532938
 31
0.0
  0
LINE
  5
B52F
  8
0
 62
     0
 10
1211.0148445376169
 20
120.4977685078929
 30
0.0
 11
1211.0148445376169
 21
120.4977685078929
 31
0.0
  0
LINE
  5
B530
  8
0
 62
     0
 10
1214.3824405830189
 20
117.1301724624919
 30
0.0
 11
1211.5761105451841
 21
119.9365025003261
 31
0.0
  0
LINE
  5
B531
  8
0
 62
     0
 10
1214.9437065905861
 20
116.5689064549251
 30
0.0
 11
1214.9437065905861
 21
116.5689064549251
 31
0.0
  0
LINE
  5
B532
  8
0
 62
     0
 10
1200.070157390064
 20
129.1973916251788
 30
0.0
 11
1200.070157390064
 21
129.1973916251788
 31
0.0
  0
LINE
  5
B533
  8
0
 62
     0
 10
1203.4377534354651
 20
125.82979557977789
 30
0.0
 11
1200.6314233976309
 21
128.63612561761201
 31
0.0
  0
LINE
  5
B534
  8
0
 62
     0
 10
1203.999019443032
 20
125.26852957221099
 30
0.0
 11
1203.999019443032
 21
125.26852957221099
 31
0.0
  0
LINE
  5
B535
  8
0
 62
     0
 10
1207.3666154884329
 20
121.90093352681011
 30
0.0
 11
1204.5602854505989
 21
124.70726356464419
 31
0.0
  0
LINE
  5
B536
  8
0
 62
     0
 10
1207.9278814960001
 20
121.33966751924331
 30
0.0
 11
1207.9278814960001
 21
121.33966751924331
 31
0.0
  0
LINE
  5
B537
  8
0
 62
     0
 10
1211.2954775414009
 20
117.97207147384231
 30
0.0
 11
1208.489147503567
 21
120.77840151167641
 31
0.0
  0
LINE
  5
B538
  8
0
 62
     0
 10
1211.8567435489681
 20
117.41080546627551
 30
0.0
 11
1211.8567435489681
 21
117.41080546627551
 31
0.0
  0
LINE
  5
B539
  8
0
 62
     0
 10
1212.9678454215191
 20
116.2997035937246
 30
0.0
 11
1212.418009556535
 21
116.8495394587087
 31
0.0
  0
LINE
  5
B53A
  8
0
 62
     0
 10
1200.3507903938471
 20
126.671694591128
 30
0.0
 11
1197.7227813912509
 21
129.2997035937245
 31
0.0
  0
LINE
  5
B53B
  8
0
 62
     0
 10
1200.912056401414
 20
126.1104285835612
 30
0.0
 11
1200.912056401414
 21
126.1104285835612
 31
0.0
  0
LINE
  5
B53C
  8
0
 62
     0
 10
1204.279652446816
 20
122.7428325381602
 30
0.0
 11
1201.4733224089809
 21
125.5491625759944
 31
0.0
  0
LINE
  5
B53D
  8
0
 62
     0
 10
1204.8409184543821
 20
122.1815665305934
 30
0.0
 11
1204.8409184543821
 21
122.1815665305934
 31
0.0
  0
LINE
  5
B53E
  8
0
 62
     0
 10
1208.2085144997841
 20
118.8139704851925
 30
0.0
 11
1205.402184461949
 21
121.6203005230266
 31
0.0
  0
LINE
  5
B53F
  8
0
 62
     0
 10
1208.7697805073501
 20
118.2527044776257
 30
0.0
 11
1208.7697805073501
 21
118.2527044776257
 31
0.0
  0
LINE
  5
B540
  8
0
 62
     0
 10
1210.7227813912509
 20
116.2997035937249
 30
0.0
 11
1209.331046514917
 21
117.6914384700588
 31
0.0
  0
LINE
  5
B541
  8
0
 62
     0
 10
1197.26382735223
 20
127.51359360247839
 30
0.0
 11
1195.4777173609839
 21
129.2997035937245
 31
0.0
  0
LINE
  5
B542
  8
0
 62
     0
 10
1197.8250933597969
 20
126.95232759491159
 30
0.0
 11
1197.8250933597969
 21
126.95232759491159
 31
0.0
  0
LINE
  5
B543
  8
0
 62
     0
 10
1201.1926894051981
 20
123.58473154951071
 30
0.0
 11
1198.3863593673641
 21
126.39106158734479
 31
0.0
  0
LINE
  5
B544
  8
0
 62
     0
 10
1201.753955412765
 20
123.02346554194381
 30
0.0
 11
1201.753955412765
 21
123.02346554194381
 31
0.0
  0
LINE
  5
B545
  8
0
 62
     0
 10
1205.1215514581661
 20
119.65586949654291
 30
0.0
 11
1202.3152214203319
 21
122.46219953437701
 31
0.0
  0
LINE
  5
B546
  8
0
 62
     0
 10
1205.682817465733
 20
119.09460348897611
 30
0.0
 11
1205.682817465733
 21
119.09460348897611
 31
0.0
  0
LINE
  5
B547
  8
0
 62
     0
 10
1208.4777173609839
 20
116.2997035937246
 30
0.0
 11
1206.2440834733
 21
118.53333748140921
 31
0.0
  0
LINE
  5
B548
  8
0
 62
     0
 10
1194.176864310612
 20
128.35549261382829
 30
0.0
 11
1194.141508816231
 21
128.3908481082097
 31
0.0
  0
LINE
  5
B549
  8
0
 62
     0
 10
1194.7381303181789
 20
127.7942266062615
 30
0.0
 11
1194.7381303181789
 21
127.7942266062615
 31
0.0
  0
LINE
  5
B54A
  8
0
 62
     0
 10
1198.1057263635801
 20
124.4266305608606
 30
0.0
 11
1195.2993963257461
 21
127.2329605986947
 31
0.0
  0
LINE
  5
B54B
  8
0
 62
     0
 10
1198.666992371147
 20
123.8653645532937
 30
0.0
 11
1198.666992371147
 21
123.8653645532937
 31
0.0
  0
LINE
  5
B54C
  8
0
 62
     0
 10
1202.0345884165481
 20
120.4977685078928
 30
0.0
 11
1199.2282583787139
 21
123.3040985457269
 31
0.0
  0
LINE
  5
B54D
  8
0
 62
     0
 10
1202.595854424115
 20
119.9365025003259
 30
0.0
 11
1202.595854424115
 21
119.9365025003259
 31
0.0
  0
LINE
  5
B54E
  8
0
 62
     0
 10
1205.9634504695159
 20
116.568906454925
 30
0.0
 11
1203.157120431682
 21
119.3752364927591
 31
0.0
  0
LINE
  5
B54F
  8
0
 62
     0
 10
1195.018763321963
 20
125.26852957221109
 30
0.0
 11
1194.141508816231
 21
126.14578407794259
 31
0.0
  0
LINE
  5
B550
  8
0
 62
     0
 10
1195.5800293295299
 20
124.70726356464419
 30
0.0
 11
1195.5800293295299
 21
124.70726356464419
 31
0.0
  0
LINE
  5
B551
  8
0
 62
     0
 10
1198.947625374931
 20
121.33966751924331
 30
0.0
 11
1196.1412953370971
 21
124.14599755707739
 31
0.0
  0
LINE
  5
B552
  8
0
 62
     0
 10
1199.5088913824979
 20
120.77840151167641
 30
0.0
 11
1199.5088913824979
 21
120.77840151167641
 31
0.0
  0
LINE
  5
B553
  8
0
 62
     0
 10
1202.8764874278991
 20
117.41080546627551
 30
0.0
 11
1200.0701573900651
 21
120.21713550410961
 31
0.0
  0
LINE
  5
B554
  8
0
 62
     0
 10
1203.437753435466
 20
116.8495394587087
 30
0.0
 11
1203.437753435466
 21
116.8495394587087
 31
0.0
  0
LINE
  5
B555
  8
0
 62
     0
 10
1195.860662333313
 20
122.1815665305932
 30
0.0
 11
1194.141508816231
 21
123.90072004767489
 31
0.0
  0
LINE
  5
B556
  8
0
 62
     0
 10
1196.42192834088
 20
121.6203005230264
 30
0.0
 11
1196.42192834088
 21
121.6203005230264
 31
0.0
  0
LINE
  5
B557
  8
0
 62
     0
 10
1199.7895243862811
 20
118.2527044776255
 30
0.0
 11
1196.9831943484469
 21
121.0590345154596
 31
0.0
  0
LINE
  5
B558
  8
0
 62
     0
 10
1200.350790393848
 20
117.6914384700586
 30
0.0
 11
1200.350790393848
 21
117.6914384700586
 31
0.0
  0
LINE
  5
B559
  8
0
 62
     0
 10
1201.7425252701821
 20
116.2997035937246
 30
0.0
 11
1200.9120564014149
 21
117.1301724624918
 31
0.0
  0
LINE
  5
B55A
  8
0
 62
     0
 10
1196.702561344664
 20
119.09460348897591
 30
0.0
 11
1194.1415088162321
 21
121.65565601740791
 31
0.0
  0
LINE
  5
B55B
  8
0
 62
     0
 10
1197.26382735223
 20
118.53333748140901
 30
0.0
 11
1197.26382735223
 21
118.53333748140901
 31
0.0
  0
LINE
  5
B55C
  8
0
 62
     0
 10
1199.4974612399151
 20
116.2997035937249
 30
0.0
 11
1197.8250933597981
 21
117.97207147384221
 31
0.0
  0
LINE
  5
B55D
  8
0
 62
     0
 10
1194.1768643106129
 20
119.3752364927592
 30
0.0
 11
1194.1768643106129
 21
119.3752364927592
 31
0.0
  0
LINE
  5
B55E
  8
0
 62
     0
 10
1197.2523972096481
 20
116.2997035937246
 30
0.0
 11
1194.7381303181801
 21
118.8139704851923
 31
0.0
  0
LINE
  5
B55F
  8
0
 62
     0
 10
1194.457497314397
 20
116.8495394587087
 30
0.0
 11
1194.1415088162321
 21
117.16552795687301
 31
0.0
  0
ENDBLK
  5
B561
  8
0
  0
BLOCK
  8
0
  2
*U373
 70
     1
 10
0.0
 20
0.0
 30
0.0
  3
*U373
  1

  0
SOLID
  5
B563
  8
1DIM
 10
1214.538283105062
 20
100.9182046784676
 30
0.0
 11
1216.5621252651349
 21
106.65441099546069
 31
0.0
 12
1216.5080712165229
 22
100.5718886436868
 32
0.0
 13
1216.5080712165229
 23
100.5718886436868
 33
0.0
  0
POLYLINE
  5
B564
  8
1DIM
 66
     1
 10
0.0
 20
0.0
 30
0.0
  0
VERTEX
  5
B565
  8
1DIM
 10
1215.523177160793
 20
100.7450466610772
 30
0.0
  0
VERTEX
  5
B566
  8
1DIM
 10
1205.1128474886079
 20
41.532819778077531
 30
0.0
  0
VERTEX
  5
B567
  8
1DIM
 10
1081.512847488608
 20
41.532819778077531
 30
0.0
  0
SEQEND
  5
B568
  8
1DIM
  0
ENDBLK
  5
B56A
  8
0
  0
BLOCK
  8
0
  2
*U374
 70
     1
 10
0.0
 20
0.0
 30
0.0
  3
*U374
  1

  0
TEXT
  5
B56C
  8
1DIM
 62
   201
 10
1080.112847488607
 20
43.632819778077533
 30
0.0
 40
10.5
  1
コンパネ等9mm以上
  0
ENDBLK
  5
B56E
  8
0
  0
BLOCK
  8
0
  2
*U375
 70
     1
 10
0.0
 20
0.0
 30
0.0
  3
*U375
  1

  0
SOLID
  5
B570
  8
1DIM
 10
1218.8037102355761
 20
117.25824245097949
 30
0.0
 11
1223.420225460696
 21
121.219023583059
 31
0.0
 12
1220.3378292635541
 22
115.9750905472693
 32
0.0
 13
1220.3378292635541
 23
115.9750905472693
 33
0.0
  0
POLYLINE
  5
B571
  8
1DIM
 66
     1
 10
0.0
 20
0.0
 30
0.0
  0
VERTEX
  5
B572
  8
1DIM
 10
1219.570769749565
 20
116.61666649912441
 30
0.0
  0
VERTEX
  5
B573
  8
1DIM
 10
1192.7432535476621
 20
84.542051670024676
 30
0.0
  0
VERTEX
  5
B574
  8
1DIM
 10
1078.2432535476621
 20
84.542051670024676
 30
0.0
  0
SEQEND
  5
B575
  8
1DIM
  0
ENDBLK
  5
B577
  8
0
  0
BLOCK
  8
0
  2
*U376
 70
     1
 10
0.0
 20
0.0
 30
0.0
  3
*U376
  1

  0
TEXT
  5
B579
  8
1DIM
 62
   201
 10
1076.843253547662
 20
86.642051670024671
 30
0.0
 40
10.5
  1
カウンター下穴\U+03C66
  0
ENDBLK
  5
B57B
  8
0
  0
BLOCK
  8
0
  2
*U377
 70
     1
 10
0.0
 20
0.0
 30
0.0
  3
*U377
  1

  0
SOLID
  5
B57D
  8
1HATCH
 10
137.18389321616061
 20
426.57839808175947
 30
0.0
 11
134.24511806030111
 21
421.25264925335023
 31
0.0
 12
135.29777061473811
 22
427.24363603347558
 32
0.0
 13
135.29777061473811
 23
427.24363603347558
 33
0.0
  0
POLYLINE
  5
B57E
  8
1HATCH
 66
     1
 10
0.0
 20
0.0
 30
0.0
  0
VERTEX
  5
B57F
  8
1HATCH
 10
136.24083191544929
 20
426.91101705761753
 30
0.0
  0
VERTEX
  5
B580
  8
1HATCH
 10
151.12155974485441
 20
469.10175048203331
 30
0.0
  0
VERTEX
  5
B581
  8
1HATCH
 10
292.92155974485428
 20
469.10175048203331
 30
0.0
  0
SEQEND
  5
B582
  8
1HATCH
  0
ENDBLK
  5
B584
  8
0
  0
BLOCK
  8
0
  2
*U378
 70
     1
 10
0.0
 20
0.0
 30
0.0
  3
*U378
  1

  0
TEXT
  5
B586
  8
1HATCH
 62
   201
 10
159.2215597448544
 20
488.70175048203339
 30
0.0
 40
10.5
  1
材質：亜鉛ダイキャスト
  0
TEXT
  5
B587
  8
1HATCH
 62
   201
 10
159.2215597448544
 20
471.20175048203339
 30
0.0
 40
10.5
  1
仕上げ：クローム
  0
ENDBLK
  5
B589
  8
0
  0
BLOCK
  8
0
  2
*U379
 70
     1
 10
0.0
 20
0.0
 30
0.0
  3
*U379
  1

  0
SOLID
  5
B58B
  8
1HATCH
 10
468.02073301638291
 20
428.334057868108
 30
0.0
 11
464.53492856831957
 21
423.34916395250042
 31
0.0
 12
466.21558880331759
 22
429.19513531528497
 32
0.0
 13
466.21558880331759
 23
429.19513531528497
 33
0.0
  0
POLYLINE
  5
B58C
  8
1HATCH
 66
     1
 10
0.0
 20
0.0
 30
0.0
  0
VERTEX
  5
B58D
  8
1HATCH
 10
467.11816090985019
 20
428.76459659169649
 30
0.0
  0
VERTEX
  5
B58E
  8
1HATCH
 10
486.35951195918898
 20
469.10175048203331
 30
0.0
  0
VERTEX
  5
B58F
  8
1HATCH
 10
641.45951195918894
 20
469.10175048203331
 30
0.0
  0
SEQEND
  5
B590
  8
1HATCH
  0
ENDBLK
  5
B592
  8
0
  0
BLOCK
  8
0
  2
*U380
 70
     1
 10
0.0
 20
0.0
 30
0.0
  3
*U380
  1

  0
TEXT
  5
B594
  8
1HATCH
 62
   201
 10
494.459511959189
 20
488.70175048203339
 30
0.0
 40
10.5
  1
材質：アルミ
  0
TEXT
  5
B595
  8
1HATCH
 62
   201
 10
494.459511959189
 20
471.20175048203339
 30
0.0
 40
10.5
  1
仕上げ：ブラストシルバー
  0
ENDBLK
  5
B597
  8
0
  0
BLOCK
  8
0
  2
*U381
 70
     1
 10
0.0
 20
0.0
 30
0.0
  3
*U381
  1

  0
SOLID
  5
B599
  8
1HATCH
 10
893.93112288036161
 20
638.04081117635144
 30
0.0
 11
889.16929408793374
 21
634.25597477941074
 31
0.0
 12
892.44621222230353
 22
639.38060233081774
 32
0.0
 13
892.44621222230353
 23
639.38060233081774
 33
0.0
  0
POLYLINE
  5
B59A
  8
1HATCH
 66
     1
 10
0.0
 20
0.0
 30
0.0
  0
VERTEX
  5
B59B
  8
1HATCH
 10
893.18866755133251
 20
638.71070675358453
 30
0.0
  0
VERTEX
  5
B59C
  8
1HATCH
 10
906.04573577248709
 20
652.96038855610175
 30
0.0
  0
VERTEX
  5
B59D
  8
1HATCH
 10
999.54573577248709
 20
652.96038855610175
 30
0.0
  0
SEQEND
  5
B59E
  8
1HATCH
  0
ENDBLK
  5
B5A0
  8
0
  0
BLOCK
  8
0
  2
*U382
 70
     1
 10
0.0
 20
0.0
 30
0.0
  3
*U382
  1

  0
TEXT
  5
B5A2
  8
1HATCH
 62
   201
 10
914.14573577248711
 20
672.56038855610166
 30
0.0
 40
10.5
  1
材質：ガラス
  0
TEXT
  5
B5A3
  8
1HATCH
 62
   201
 10
914.14573577248711
 20
655.06038855610177
 30
0.0
 40
10.5
  1
仕上げ：乳白色
  0
ENDBLK
  5
B5A5
  8
0
  0
BLOCK
  8
0
  2
*U383
 70
     1
 10
0.0
 20
0.0
 30
0.0
  3
*U383
  1

  0
SOLID
  5
B5A7
  8
1HATCH
 10
263.76358929139582
 20
353.20008168026862
 30
0.0
 11
260.7487569880841
 21
347.91701569706271
 31
0.0
 12
261.88719857774458
 22
353.89229399576402
 32
0.0
 13
261.88719857774458
 23
353.89229399576402
 33
0.0
  0
POLYLINE
  5
B5A8
  8
1HATCH
 66
     1
 10
0.0
 20
0.0
 30
0.0
  0
VERTEX
  5
B5A9
  8
1HATCH
 10
262.82539393457017
 20
353.54618783801629
 30
0.0
  0
VERTEX
  5
B5AA
  8
1HATCH
 10
305.45456652865948
 20
469.10175048203342
 30
0.0
  0
VERTEX
  5
B5AB
  8
1HATCH
 10
460.55456652865939
 20
469.10175048203342
 30
0.0
  0
SEQEND
  5
B5AC
  8
1HATCH
  0
ENDBLK
  5
B5AE
  8
0
  0
BLOCK
  8
0
  2
*U384
 70
     1
 10
0.0
 20
0.0
 30
0.0
  3
*U384
  1

  0
TEXT
  5
B5B0
  8
1HATCH
 62
   201
 10
313.55456652865951
 20
488.70175048203339
 30
0.0
 40
10.5
  1
材質：アルミ
  0
TEXT
  5
B5B1
  8
1HATCH
 62
   201
 10
313.55456652865951
 20
471.20175048203339
 30
0.0
 40
10.5
  1
仕上げ：ブラストシルバー
  0
ENDBLK
  5
B5B3
  8
0
  0
BLOCK
  8
0
  2
*U385
 70
     1
 10
0.0
 20
0.0
 30
0.0
  3
*U385
  1

  0
SOLID
  5
B5B5
  8
1HATCH
 10
591.71617527165131
 20
354.47044687433311
 30
0.0
 11
587.75087442127995
 21
349.85781322683351
 31
0.0
 12
590.00584539406384
 22
355.50715884485891
 32
0.0
 13
590.00584539406384
 23
355.50715884485891
 33
0.0
  0
POLYLINE
  5
B5B6
  8
1HATCH
 66
     1
 10
0.0
 20
0.0
 30
0.0
  0
VERTEX
  5
B5B7
  8
1HATCH
 10
590.86101033285763
 20
354.98880285959598
 30
0.0
  0
VERTEX
  5
B5B8
  8
1HATCH
 10
660.03027431077567
 20
469.10175048203331
 30
0.0
  0
VERTEX
  5
B5B9
  8
1HATCH
 10
815.13027431077569
 20
469.10175048203331
 30
0.0
  0
SEQEND
  5
B5BA
  8
1HATCH
  0
ENDBLK
  5
B5BC
  8
0
  0
BLOCK
  8
0
  2
*U386
 70
     1
 10
0.0
 20
0.0
 30
0.0
  3
*U386
  1

  0
TEXT
  5
B5BE
  8
1HATCH
 62
   201
 10
668.1302743107758
 20
488.70175048203339
 30
0.0
 40
10.5
  1
材質：アルミ
  0
TEXT
  5
B5BF
  8
1HATCH
 62
   201
 10
668.1302743107758
 20
471.20175048203339
 30
0.0
 40
10.5
  1
仕上げ：ブラストシルバー
  0
ENDBLK
  5
B5C1
  8
0
  0
BLOCK
  8
0
  2
*U387
 70
     1
 10
0.0
 20
0.0
 30
0.0
  3
*U387
  1

  0
SOLID
  5
B5C3
  8
1HATCH
 10
910.88751405916435
 20
356.34821100656973
 30
0.0
 11
906.52759938140059
 21
352.10661413715582
 31
0.0
 12
909.27618995677255
 22
357.5329618820922
 32
0.0
 13
909.27618995677255
 23
357.5329618820922
 33
0.0
  0
POLYLINE
  5
B5C4
  8
1HATCH
 66
     1
 10
0.0
 20
0.0
 30
0.0
  0
VERTEX
  5
B5C5
  8
1HATCH
 10
910.08185200796845
 20
356.9405864443309
 30
0.0
  0
VERTEX
  5
B5C6
  8
1HATCH
 10
992.55007618214847
 20
469.10175048203331
 30
0.0
  0
VERTEX
  5
B5C7
  8
1HATCH
 10
1147.650076182148
 20
469.10175048203331
 30
0.0
  0
SEQEND
  5
B5C8
  8
1HATCH
  0
ENDBLK
  5
B5CA
  8
0
  0
BLOCK
  8
0
  2
*U388
 70
     1
 10
0.0
 20
0.0
 30
0.0
  3
*U388
  1

  0
TEXT
  5
B5CC
  8
1HATCH
 62
   201
 10
1000.650076182148
 20
488.70175048203339
 30
0.0
 40
10.5
  1
材質：アルミ
  0
TEXT
  5
B5CD
  8
1HATCH
 62
   201
 10
1000.650076182148
 20
471.20175048203339
 30
0.0
 40
10.5
  1
仕上げ：ブラストシルバー
  0
ENDBLK
  5
B5CF
  8
0
  0
BLOCK
  8
0
  2
*U389
 70
     1
 10
0.0
 20
0.0
 30
0.0
  3
*U389
  1

  0
SOLID
  5
B5D1
  8
1HATCH
 10
846.4850267627312
 20
345.0846529551128
 30
0.0
 11
845.72216644630589
 21
339.04991649544672
 31
0.0
 12
844.48657924519489
 22
345.00586514099848
 32
0.0
 13
844.48657924519489
 23
345.00586514099848
 33
0.0
  0
POLYLINE
  5
B5D2
  8
1HATCH
 66
     1
 10
0.0
 20
0.0
 30
0.0
  0
VERTEX
  5
B5D3
  8
1HATCH
 10
845.48580300396304
 20
345.0452590480557
 30
0.0
  0
VERTEX
  5
B5D4
  8
1HATCH
 10
840.59493661843123
 20
469.10175048203331
 30
0.0
  0
VERTEX
  5
B5D5
  8
1HATCH
 10
945.29493661843105
 20
469.10175048203331
 30
0.0
  0
SEQEND
  5
B5D6
  8
1HATCH
  0
ENDBLK
  5
B5D8
  8
0
  0
BLOCK
  8
0
  2
*U390
 70
     1
 10
0.0
 20
0.0
 30
0.0
  3
*U390
  1

  0
TEXT
  5
B5DA
  8
1HATCH
 62
   201
 10
848.69493661843126
 20
488.70175048203339
 30
0.0
 40
10.5
  1
材質：ステンレス
  0
TEXT
  5
B5DB
  8
1HATCH
 62
   201
 10
848.69493661843126
 20
471.20175048203339
 30
0.0
 40
10.5
  1
仕上げ：鏡面
  0
ENDBLK
  5
B5DD
  8
0
  0
ENDSEC
  0
SECTION
  2
ENTITIES
  0
TEXT
  5
349B
  8
1TEXT
 10
118.07343310078809
 20
-2150.3965642216258
 30
0.0
 40
8.0
  1
KC-048-X
  0
TEXT
  5
34CA
  8
1TEXT
 10
124.9295694692284
 20
-2165.9334828268261
 30
0.0
 40
4.0
  1
表面処理：
 72
     1
 11
135.57718851684751
 21
-2165.9334828268261
 31
0.0
  0
TEXT
  5
34CC
  8
1TEXT
 10
118.7771885168475
 20
-2172.91137784681
 30
0.0
 40
4.0
  1
ブラストシルバー
 41
0.9
 72
     1
 11
135.57718851684751
 21
-2172.91137784681
 31
0.0
  0
LINE
  5
34CD
  8
1DIM
 10
118.17718851684781
 20
-2160.4334828268261
 30
0.0
 11
188.17718851684791
 21
-2160.4334828268261
 31
0.0
  0
LINE
  5
34CE
  8
1DIM
 10
118.17718851684781
 20
-2174.4334828268261
 30
0.0
 11
188.17718851684791
 21
-2174.4334828268261
 31
0.0
  0
LINE
  5
34CF
  8
1DIM
 10
118.17718851684781
 20
-2167.4334828268261
 30
0.0
 11
188.17718851684791
 21
-2167.4334828268261
 31
0.0
  0
LINE
  5
34D2
  8
1DIM
 10
153.17718851684779
 20
-2160.4334828268261
 30
0.0
 11
153.17718851684779
 21
-2174.4334828268261
 31
0.0
  0
TEXT
  5
34D4
  8
1TEXT
 10
155.27718851684841
 20
-2173.147839810475
 30
0.0
 40
4.0
  1
KC-048-XS
 41
0.9
 72
     1
 11
170.57718851684839
 21
-2173.147839810475
 31
0.0
  0
TEXT
  5
34D5
  8
1TEXT
 10
163.7771885168475
 20
-2165.9334828268261
 30
0.0
 40
4.0
  1
コード
 72
     1
 11
170.57718851684751
 21
-2165.9334828268261
 31
0.0
  0
LINE
  5
34D6
  8
1DIM
 10
118.17718851684781
 20
-2174.4334828268261
 30
0.0
 11
118.17718851684781
 21
-2160.4334828268261
 31
0.0
  0
LINE
  5
34D7
  8
1DIM
 10
188.17718851684791
 20
-2174.4334828268261
 30
0.0
 11
188.17718851684791
 21
-2160.4334828268261
 31
0.0
  0
LINE
  5
A1AC
  8
01
  6
BYBLOCK
 10
191.66895606310391
 20
-2204.5828978371642
 30
0.0
 11
121.66895606310391
 21
-2204.5828978371642
 31
0.0
  0
LINE
  5
A1AD
  8
01
 10
191.66895606310391
 20
-2195.8328978371628
 30
0.0
 11
121.66895606310391
 21
-2195.8328978371642
 31
0.0
  0
LINE
  5
A1AE
  8
01
 10
191.66895606310399
 20
-2193.8328978371642
 30
0.0
 11
121.66895606310371
 21
-2193.8328978371651
 31
0.0
  0
LINE
  5
A1AF
  8
01
 10
191.66895606310391
 20
-2204.5828978371642
 30
0.0
 11
191.66895606310391
 21
-2193.8328978371651
 31
0.0
  0
LINE
  5
A1B0
  8
01
 10
121.66895606310391
 20
-2204.5828978371642
 30
0.0
 11
121.66895606310391
 21
-2193.8328978371651
 31
0.0
  0
ARC
  5
A1B3
  8
01
 10
186.66895606310391
 20
-2197.132897837163
 30
0.0
 40
4.0
 50
55.588491330209202
 51
124.411508669791
  0
ARC
  5
A1B5
  8
01
 10
126.66895606310391
 20
-2197.132897837163
 30
0.0
 40
4.0
 50
55.588491330205372
 51
124.4115086697871
  0
LINE
  5
A573
  8
01
 10
191.66977536498891
 20
-2316.8034549627951
 30
0.0
 11
121.66977536498889
 21
-2316.8034549627951
 31
0.0
  0
LINE
  5
A574
  8
01
 10
191.66977536498891
 20
-2344.66681485666
 30
0.0
 11
121.66977536498889
 21
-2344.66681485666
 31
0.0
  0
LINE
  5
A575
  8
01
 10
191.66977536498891
 20
-2352.0534549627951
 30
0.0
 11
121.66977536498889
 21
-2352.0534549627951
 31
0.0
  0
LINE
  5
A576
  8
01
 10
191.66977536498891
 20
-2352.0534549627951
 30
0.0
 11
191.66977536498891
 21
-2351.7134549627958
 31
0.0
  0
LINE
  5
A577
  8
01
 10
191.66977536498891
 20
-2344.66681485666
 30
0.0
 11
191.66977536498891
 21
-2316.8034549627951
 31
0.0
  0
LINE
  5
A578
  8
1CENTER
 10
176.66977536498891
 20
-2348.6553323829039
 30
0.0
 11
176.66977536498891
 21
-2341.3500603657249
 31
0.0
  0
LINE
  5
A579
  8
01
 10
121.66977536498889
 20
-2352.0534549627951
 30
0.0
 11
121.66977536498889
 21
-2351.7134549627958
 31
0.0
  0
LINE
  5
A57A
  8
01
 10
121.66977536498889
 20
-2344.66681485666
 30
0.0
 11
121.66977536498889
 21
-2316.8034549627951
 31
0.0
  0
POLYLINE
  5
A57B
  8
01
 10
174.52909950425328
 20
-2344.6668148566596
 30
0.0
 66
     1
 70
     8
  0
VERTEX
  8
01
  5
B5DE
 10
174.529
 20
-2344.67
 30
0.000000
  70
    32
  0
VERTEX
  8
01
  5
B5DF
 10
174.534
 20
-2344.71
 30
0.000000
  70
    32
  0
VERTEX
  8
01
  5
B5E0
 10
174.541
 20
-2344.76
 30
0.000000
  70
    32
  0
VERTEX
  8
01
  5
B5E1
 10
174.548
 20
-2344.80
 30
0.000000
  70
    32
  0
VERTEX
  8
01
  5
B5E2
 10
174.557
 20
-2344.85
 30
0.000000
  70
    32
  0
VERTEX
  8
01
  5
B5E3
 10
174.566
 20
-2344.89
 30
0.000000
  70
    32
  0
VERTEX
  8
01
  5
B5E4
 10
174.577
 20
-2344.94
 30
0.000000
  70
    32
  0
VERTEX
  8
01
  5
B5E5
 10
174.589
 20
-2344.98
 30
0.000000
  70
    32
  0
VERTEX
  8
01
  5
B5E6
 10
174.602
 20
-2345.02
 30
0.000000
  70
    32
  0
VERTEX
  8
01
  5
B5E7
 10
174.616
 20
-2345.07
 30
0.000000
  70
    32
  0
VERTEX
  8
01
  5
B5E8
 10
174.632
 20
-2345.11
 30
0.000000
  70
    32
  0
VERTEX
  8
01
  5
B5E9
 10
174.648
 20
-2345.15
 30
0.000000
  70
    32
  0
VERTEX
  8
01
  5
B5EA
 10
174.665
 20
-2345.19
 30
0.000000
  70
    32
  0
VERTEX
  8
01
  5
B5EB
 10
174.684
 20
-2345.24
 30
0.000000
  70
    32
  0
VERTEX
  8
01
  5
B5EC
 10
174.703
 20
-2345.28
 30
0.000000
  70
    32
  0
VERTEX
  8
01
  5
B5ED
 10
174.724
 20
-2345.32
 30
0.000000
  70
    32
  0
VERTEX
  8
01
  5
B5EE
 10
174.746
 20
-2345.36
 30
0.000000
  70
    32
  0
VERTEX
  8
01
  5
B5EF
 10
174.768
 20
-2345.40
 30
0.000000
  70
    32
  0
VERTEX
  8
01
  5
B5F0
 10
174.792
 20
-2345.44
 30
0.000000
  70
    32
  0
VERTEX
  8
01
  5
B5F1
 10
174.817
 20
-2345.48
 30
0.000000
  70
    32
  0
VERTEX
  8
01
  5
B5F2
 10
174.842
 20
-2345.52
 30
0.000000
  70
    32
  0
VERTEX
  8
01
  5
B5F3
 10
174.869
 20
-2345.56
 30
0.000000
  70
    32
  0
VERTEX
  8
01
  5
B5F4
 10
174.897
 20
-2345.59
 30
0.000000
  70
    32
  0
VERTEX
  8
01
  5
B5F5
 10
174.925
 20
-2345.63
 30
0.000000
  70
    32
  0
VERTEX
  8
01
  5
B5F6
 10
174.955
 20
-2345.67
 30
0.000000
  70
    32
  0
VERTEX
  8
01
  5
B5F7
 10
174.985
 20
-2345.70
 30
0.000000
  70
    32
  0
VERTEX
  8
01
  5
B5F8
 10
175.016
 20
-2345.74
 30
0.000000
  70
    32
  0
VERTEX
  8
01
  5
B5F9
 10
175.048
 20
-2345.77
 30
0.000000
  70
    32
  0
VERTEX
  8
01
  5
B5FA
 10
175.082
 20
-2345.81
 30
0.000000
  70
    32
  0
VERTEX
  8
01
  5
B5FB
 10
175.115
 20
-2345.84
 30
0.000000
  70
    32
  0
VERTEX
  8
01
  5
B5FC
 10
175.150
 20
-2345.87
 30
0.000000
  70
    32
  0
VERTEX
  8
01
  5
B5FD
 10
175.186
 20
-2345.90
 30
0.000000
  70
    32
  0
VERTEX
  8
01
  5
B5FE
 10
175.222
 20
-2345.94
 30
0.000000
  70
    32
  0
VERTEX
  8
01
  5
B5FF
 10
175.259
 20
-2345.97
 30
0.000000
  70
    32
  0
VERTEX
  8
01
  5
B600
 10
175.297
 20
-2346.00
 30
0.000000
  70
    32
  0
VERTEX
  8
01
  5
B601
 10
175.335
 20
-2346.02
 30
0.000000
  70
    32
  0
VERTEX
  8
01
  5
B602
 10
175.375
 20
-2346.05
 30
0.000000
  70
    32
  0
VERTEX
  8
01
  5
B603
 10
175.415
 20
-2346.08
 30
0.000000
  70
    32
  0
VERTEX
  8
01
  5
B604
 10
175.455
 20
-2346.10
 30
0.000000
  70
    32
  0
VERTEX
  8
01
  5
B605
 10
175.497
 20
-2346.13
 30
0.000000
  70
    32
  0
VERTEX
  8
01
  5
B606
 10
175.538
 20
-2346.15
 30
0.000000
  70
    32
  0
VERTEX
  8
01
  5
B607
 10
175.581
 20
-2346.18
 30
0.000000
  70
    32
  0
VERTEX
  8
01
  5
B608
 10
175.624
 20
-2346.20
 30
0.000000
  70
    32
  0
VERTEX
  8
01
  5
B609
 10
175.668
 20
-2346.22
 30
0.000000
  70
    32
  0
VERTEX
  8
01
  5
B60A
 10
175.712
 20
-2346.24
 30
0.000000
  70
    32
  0
VERTEX
  8
01
  5
B60B
 10
175.757
 20
-2346.26
 30
0.000000
  70
    32
  0
VERTEX
  8
01
  5
B60C
 10
175.802
 20
-2346.28
 30
0.000000
  70
    32
  0
VERTEX
  8
01
  5
B60D
 10
175.847
 20
-2346.30
 30
0.000000
  70
    32
  0
VERTEX
  8
01
  5
B60E
 10
175.893
 20
-2346.32
 30
0.000000
  70
    32
  0
VERTEX
  8
01
  5
B60F
 10
175.940
 20
-2346.33
 30
0.000000
  70
    32
  0
VERTEX
  8
01
  5
B610
 10
175.987
 20
-2346.35
 30
0.000000
  70
    32
  0
VERTEX
  8
01
  5
B611
 10
176.034
 20
-2346.36
 30
0.000000
  70
    32
  0
VERTEX
  8
01
  5
B612
 10
176.082
 20
-2346.37
 30
0.000000
  70
    32
  0
VERTEX
  8
01
  5
B613
 10
176.130
 20
-2346.38
 30
0.000000
  70
    32
  0
VERTEX
  8
01
  5
B614
 10
176.178
 20
-2346.40
 30
0.000000
  70
    32
  0
VERTEX
  8
01
  5
B615
 10
176.226
 20
-2346.41
 30
0.000000
  70
    32
  0
VERTEX
  8
01
  5
B616
 10
176.275
 20
-2346.41
 30
0.000000
  70
    32
  0
VERTEX
  8
01
  5
B617
 10
176.324
 20
-2346.42
 30
0.000000
  70
    32
  0
VERTEX
  8
01
  5
B618
 10
176.373
 20
-2346.43
 30
0.000000
  70
    32
  0
VERTEX
  8
01
  5
B619
 10
176.422
 20
-2346.43
 30
0.000000
  70
    32
  0
VERTEX
  8
01
  5
B61A
 10
176.472
 20
-2346.44
 30
0.000000
  70
    32
  0
VERTEX
  8
01
  5
B61B
 10
176.521
 20
-2346.44
 30
0.000000
  70
    32
  0
VERTEX
  8
01
  5
B61C
 10
176.571
 20
-2346.45
 30
0.000000
  70
    32
  0
VERTEX
  8
01
  5
B61D
 10
176.620
 20
-2346.45
 30
0.000000
  70
    32
  0
VERTEX
  8
01
  5
B61E
 10
176.670
 20
-2346.45
 30
0.000000
  70
    32
  0
VERTEX
  8
01
  5
B61F
 10
176.719
 20
-2346.45
 30
0.000000
  70
    32
  0
VERTEX
  8
01
  5
B620
 10
176.769
 20
-2346.45
 30
0.000000
  70
    32
  0
VERTEX
  8
01
  5
B621
 10
176.819
 20
-2346.44
 30
0.000000
  70
    32
  0
VERTEX
  8
01
  5
B622
 10
176.868
 20
-2346.44
 30
0.000000
  70
    32
  0
VERTEX
  8
01
  5
B623
 10
176.917
 20
-2346.43
 30
0.000000
  70
    32
  0
VERTEX
  8
01
  5
B624
 10
176.967
 20
-2346.43
 30
0.000000
  70
    32
  0
VERTEX
  8
01
  5
B625
 10
177.016
 20
-2346.42
 30
0.000000
  70
    32
  0
VERTEX
  8
01
  5
B626
 10
177.065
 20
-2346.41
 30
0.000000
  70
    32
  0
VERTEX
  8
01
  5
B627
 10
177.113
 20
-2346.41
 30
0.000000
  70
    32
  0
VERTEX
  8
01
  5
B628
 10
177.162
 20
-2346.40
 30
0.000000
  70
    32
  0
VERTEX
  8
01
  5
B629
 10
177.210
 20
-2346.38
 30
0.000000
  70
    32
  0
VERTEX
  8
01
  5
B62A
 10
177.258
 20
-2346.37
 30
0.000000
  70
    32
  0
VERTEX
  8
01
  5
B62B
 10
177.305
 20
-2346.36
 30
0.000000
  70
    32
  0
VERTEX
  8
01
  5
B62C
 10
177.353
 20
-2346.35
 30
0.000000
  70
    32
  0
VERTEX
  8
01
  5
B62D
 10
177.400
 20
-2346.33
 30
0.000000
  70
    32
  0
VERTEX
  8
01
  5
B62E
 10
177.446
 20
-2346.32
 30
0.000000
  70
    32
  0
VERTEX
  8
01
  5
B62F
 10
177.492
 20
-2346.30
 30
0.000000
  70
    32
  0
VERTEX
  8
01
  5
B630
 10
177.538
 20
-2346.28
 30
0.000000
  70
    32
  0
VERTEX
  8
01
  5
B631
 10
177.583
 20
-2346.26
 30
0.000000
  70
    32
  0
VERTEX
  8
01
  5
B632
 10
177.628
 20
-2346.24
 30
0.000000
  70
    32
  0
VERTEX
  8
01
  5
B633
 10
177.672
 20
-2346.22
 30
0.000000
  70
    32
  0
VERTEX
  8
01
  5
B634
 10
177.715
 20
-2346.20
 30
0.000000
  70
    32
  0
VERTEX
  8
01
  5
B635
 10
177.759
 20
-2346.18
 30
0.000000
  70
    32
  0
VERTEX
  8
01
  5
B636
 10
177.801
 20
-2346.15
 30
0.000000
  70
    32
  0
VERTEX
  8
01
  5
B637
 10
177.843
 20
-2346.13
 30
0.000000
  70
    32
  0
VERTEX
  8
01
  5
B638
 10
177.884
 20
-2346.10
 30
0.000000
  70
    32
  0
VERTEX
  8
01
  5
B639
 10
177.925
 20
-2346.08
 30
0.000000
  70
    32
  0
VERTEX
  8
01
  5
B63A
 10
177.965
 20
-2346.05
 30
0.000000
  70
    32
  0
VERTEX
  8
01
  5
B63B
 10
178.004
 20
-2346.02
 30
0.000000
  70
    32
  0
VERTEX
  8
01
  5
B63C
 10
178.043
 20
-2346.00
 30
0.000000
  70
    32
  0
VERTEX
  8
01
  5
B63D
 10
178.081
 20
-2345.97
 30
0.000000
  70
    32
  0
VERTEX
  8
01
  5
B63E
 10
178.118
 20
-2345.94
 30
0.000000
  70
    32
  0
VERTEX
  8
01
  5
B63F
 10
178.154
 20
-2345.90
 30
0.000000
  70
    32
  0
VERTEX
  8
01
  5
B640
 10
178.189
 20
-2345.87
 30
0.000000
  70
    32
  0
VERTEX
  8
01
  5
B641
 10
178.224
 20
-2345.84
 30
0.000000
  70
    32
  0
VERTEX
  8
01
  5
B642
 10
178.258
 20
-2345.81
 30
0.000000
  70
    32
  0
VERTEX
  8
01
  5
B643
 10
178.291
 20
-2345.77
 30
0.000000
  70
    32
  0
VERTEX
  8
01
  5
B644
 10
178.323
 20
-2345.74
 30
0.000000
  70
    32
  0
VERTEX
  8
01
  5
B645
 10
178.355
 20
-2345.70
 30
0.000000
  70
    32
  0
VERTEX
  8
01
  5
B646
 10
178.385
 20
-2345.67
 30
0.000000
  70
    32
  0
VERTEX
  8
01
  5
B647
 10
178.414
 20
-2345.63
 30
0.000000
  70
    32
  0
VERTEX
  8
01
  5
B648
 10
178.443
 20
-2345.59
 30
0.000000
  70
    32
  0
VERTEX
  8
01
  5
B649
 10
178.471
 20
-2345.56
 30
0.000000
  70
    32
  0
VERTEX
  8
01
  5
B64A
 10
178.497
 20
-2345.52
 30
0.000000
  70
    32
  0
VERTEX
  8
01
  5
B64B
 10
178.523
 20
-2345.48
 30
0.000000
  70
    32
  0
VERTEX
  8
01
  5
B64C
 10
178.547
 20
-2345.44
 30
0.000000
  70
    32
  0
VERTEX
  8
01
  5
B64D
 10
178.571
 20
-2345.40
 30
0.000000
  70
    32
  0
VERTEX
  8
01
  5
B64E
 10
178.594
 20
-2345.36
 30
0.000000
  70
    32
  0
VERTEX
  8
01
  5
B64F
 10
178.615
 20
-2345.32
 30
0.000000
  70
    32
  0
VERTEX
  8
01
  5
B650
 10
178.636
 20
-2345.28
 30
0.000000
  70
    32
  0
VERTEX
  8
01
  5
B651
 10
178.656
 20
-2345.24
 30
0.000000
  70
    32
  0
VERTEX
  8
01
  5
B652
 10
178.674
 20
-2345.19
 30
0.000000
  70
    32
  0
VERTEX
  8
01
  5
B653
 10
178.692
 20
-2345.15
 30
0.000000
  70
    32
  0
VERTEX
  8
01
  5
B654
 10
178.708
 20
-2345.11
 30
0.000000
  70
    32
  0
VERTEX
  8
01
  5
B655
 10
178.723
 20
-2345.07
 30
0.000000
  70
    32
  0
VERTEX
  8
01
  5
B656
 10
178.737
 20
-2345.02
 30
0.000000
  70
    32
  0
VERTEX
  8
01
  5
B657
 10
178.750
 20
-2344.98
 30
0.000000
  70
    32
  0
VERTEX
  8
01
  5
B658
 10
178.762
 20
-2344.94
 30
0.000000
  70
    32
  0
VERTEX
  8
01
  5
B659
 10
178.773
 20
-2344.89
 30
0.000000
  70
    32
  0
VERTEX
  8
01
  5
B65A
 10
178.783
 20
-2344.85
 30
0.000000
  70
    32
  0
VERTEX
  8
01
  5
B65B
 10
178.791
 20
-2344.80
 30
0.000000
  70
    32
  0
VERTEX
  8
01
  5
B65C
 10
178.799
 20
-2344.76
 30
0.000000
  70
    32
  0
VERTEX
  8
01
  5
B65D
 10
178.805
 20
-2344.71
 30
0.000000
  70
    32
  0
VERTEX
  8
01
  5
B65E
 10
178.810
 20
-2344.67
 30
0.000000
  70
    32
  0
SEQEND
  8
01
  5
B65F
  0
LINE
  5
A57C
  8
1CENTER
 10
136.66977536498871
 20
-2348.6553323829039
 30
0.0
 11
136.66977536498871
 21
-2341.3500603657249
 31
0.0
  0
POLYLINE
  5
A57D
  8
01
 10
138.81045122572434
 20
-2344.6668148566596
 30
0.0
 66
     1
 70
     8
  0
VERTEX
  8
01
  5
B660
 10
138.810
 20
-2344.67
 30
0.000000
  70
    32
  0
VERTEX
  8
01
  5
B661
 10
138.805
 20
-2344.71
 30
0.000000
  70
    32
  0
VERTEX
  8
01
  5
B662
 10
138.799
 20
-2344.76
 30
0.000000
  70
    32
  0
VERTEX
  8
01
  5
B663
 10
138.791
 20
-2344.80
 30
0.000000
  70
    32
  0
VERTEX
  8
01
  5
B664
 10
138.783
 20
-2344.85
 30
0.000000
  70
    32
  0
VERTEX
  8
01
  5
B665
 10
138.773
 20
-2344.89
 30
0.000000
  70
    32
  0
VERTEX
  8
01
  5
B666
 10
138.762
 20
-2344.94
 30
0.000000
  70
    32
  0
VERTEX
  8
01
  5
B667
 10
138.750
 20
-2344.98
 30
0.000000
  70
    32
  0
VERTEX
  8
01
  5
B668
 10
138.737
 20
-2345.02
 30
0.000000
  70
    32
  0
VERTEX
  8
01
  5
B669
 10
138.723
 20
-2345.07
 30
0.000000
  70
    32
  0
VERTEX
  8
01
  5
B66A
 10
138.708
 20
-2345.11
 30
0.000000
  70
    32
  0
VERTEX
  8
01
  5
B66B
 10
138.692
 20
-2345.15
 30
0.000000
  70
    32
  0
VERTEX
  8
01
  5
B66C
 10
138.674
 20
-2345.19
 30
0.000000
  70
    32
  0
VERTEX
  8
01
  5
B66D
 10
138.656
 20
-2345.24
 30
0.000000
  70
    32
  0
VERTEX
  8
01
  5
B66E
 10
138.636
 20
-2345.28
 30
0.000000
  70
    32
  0
VERTEX
  8
01
  5
B66F
 10
138.615
 20
-2345.32
 30
0.000000
  70
    32
  0
VERTEX
  8
01
  5
B670
 10
138.594
 20
-2345.36
 30
0.000000
  70
    32
  0
VERTEX
  8
01
  5
B671
 10
138.571
 20
-2345.40
 30
0.000000
  70
    32
  0
VERTEX
  8
01
  5
B672
 10
138.547
 20
-2345.44
 30
0.000000
  70
    32
  0
VERTEX
  8
01
  5
B673
 10
138.523
 20
-2345.48
 30
0.000000
  70
    32
  0
VERTEX
  8
01
  5
B674
 10
138.497
 20
-2345.52
 30
0.000000
  70
    32
  0
VERTEX
  8
01
  5
B675
 10
138.471
 20
-2345.56
 30
0.000000
  70
    32
  0
VERTEX
  8
01
  5
B676
 10
138.443
 20
-2345.59
 30
0.000000
  70
    32
  0
VERTEX
  8
01
  5
B677
 10
138.414
 20
-2345.63
 30
0.000000
  70
    32
  0
VERTEX
  8
01
  5
B678
 10
138.385
 20
-2345.67
 30
0.000000
  70
    32
  0
VERTEX
  8
01
  5
B679
 10
138.355
 20
-2345.70
 30
0.000000
  70
    32
  0
VERTEX
  8
01
  5
B67A
 10
138.323
 20
-2345.74
 30
0.000000
  70
    32
  0
VERTEX
  8
01
  5
B67B
 10
138.291
 20
-2345.77
 30
0.000000
  70
    32
  0
VERTEX
  8
01
  5
B67C
 10
138.258
 20
-2345.81
 30
0.000000
  70
    32
  0
VERTEX
  8
01
  5
B67D
 10
138.224
 20
-2345.84
 30
0.000000
  70
    32
  0
VERTEX
  8
01
  5
B67E
 10
138.189
 20
-2345.87
 30
0.000000
  70
    32
  0
VERTEX
  8
01
  5
B67F
 10
138.154
 20
-2345.90
 30
0.000000
  70
    32
  0
VERTEX
  8
01
  5
B680
 10
138.118
 20
-2345.94
 30
0.000000
  70
    32
  0
VERTEX
  8
01
  5
B681
 10
138.081
 20
-2345.97
 30
0.000000
  70
    32
  0
VERTEX
  8
01
  5
B682
 10
138.043
 20
-2346.00
 30
0.000000
  70
    32
  0
VERTEX
  8
01
  5
B683
 10
138.004
 20
-2346.02
 30
0.000000
  70
    32
  0
VERTEX
  8
01
  5
B684
 10
137.965
 20
-2346.05
 30
0.000000
  70
    32
  0
VERTEX
  8
01
  5
B685
 10
137.925
 20
-2346.08
 30
0.000000
  70
    32
  0
VERTEX
  8
01
  5
B686
 10
137.884
 20
-2346.10
 30
0.000000
  70
    32
  0
VERTEX
  8
01
  5
B687
 10
137.843
 20
-2346.13
 30
0.000000
  70
    32
  0
VERTEX
  8
01
  5
B688
 10
137.801
 20
-2346.15
 30
0.000000
  70
    32
  0
VERTEX
  8
01
  5
B689
 10
137.759
 20
-2346.18
 30
0.000000
  70
    32
  0
VERTEX
  8
01
  5
B68A
 10
137.715
 20
-2346.20
 30
0.000000
  70
    32
  0
VERTEX
  8
01
  5
B68B
 10
137.672
 20
-2346.22
 30
0.000000
  70
    32
  0
VERTEX
  8
01
  5
B68C
 10
137.628
 20
-2346.24
 30
0.000000
  70
    32
  0
VERTEX
  8
01
  5
B68D
 10
137.583
 20
-2346.26
 30
0.000000
  70
    32
  0
VERTEX
  8
01
  5
B68E
 10
137.538
 20
-2346.28
 30
0.000000
  70
    32
  0
VERTEX
  8
01
  5
B68F
 10
137.492
 20
-2346.30
 30
0.000000
  70
    32
  0
VERTEX
  8
01
  5
B690
 10
137.446
 20
-2346.32
 30
0.000000
  70
    32
  0
VERTEX
  8
01
  5
B691
 10
137.400
 20
-2346.33
 30
0.000000
  70
    32
  0
VERTEX
  8
01
  5
B692
 10
137.353
 20
-2346.35
 30
0.000000
  70
    32
  0
VERTEX
  8
01
  5
B693
 10
137.305
 20
-2346.36
 30
0.000000
  70
    32
  0
VERTEX
  8
01
  5
B694
 10
137.258
 20
-2346.37
 30
0.000000
  70
    32
  0
VERTEX
  8
01
  5
B695
 10
137.210
 20
-2346.38
 30
0.000000
  70
    32
  0
VERTEX
  8
01
  5
B696
 10
137.162
 20
-2346.40
 30
0.000000
  70
    32
  0
VERTEX
  8
01
  5
B697
 10
137.113
 20
-2346.41
 30
0.000000
  70
    32
  0
VERTEX
  8
01
  5
B698
 10
137.065
 20
-2346.41
 30
0.000000
  70
    32
  0
VERTEX
  8
01
  5
B699
 10
137.016
 20
-2346.42
 30
0.000000
  70
    32
  0
VERTEX
  8
01
  5
B69A
 10
136.967
 20
-2346.43
 30
0.000000
  70
    32
  0
VERTEX
  8
01
  5
B69B
 10
136.917
 20
-2346.43
 30
0.000000
  70
    32
  0
VERTEX
  8
01
  5
B69C
 10
136.868
 20
-2346.44
 30
0.000000
  70
    32
  0
VERTEX
  8
01
  5
B69D
 10
136.819
 20
-2346.44
 30
0.000000
  70
    32
  0
VERTEX
  8
01
  5
B69E
 10
136.769
 20
-2346.45
 30
0.000000
  70
    32
  0
VERTEX
  8
01
  5
B69F
 10
136.719
 20
-2346.45
 30
0.000000
  70
    32
  0
VERTEX
  8
01
  5
B6A0
 10
136.670
 20
-2346.45
 30
0.000000
  70
    32
  0
VERTEX
  8
01
  5
B6A1
 10
136.620
 20
-2346.45
 30
0.000000
  70
    32
  0
VERTEX
  8
01
  5
B6A2
 10
136.571
 20
-2346.45
 30
0.000000
  70
    32
  0
VERTEX
  8
01
  5
B6A3
 10
136.521
 20
-2346.44
 30
0.000000
  70
    32
  0
VERTEX
  8
01
  5
B6A4
 10
136.472
 20
-2346.44
 30
0.000000
  70
    32
  0
VERTEX
  8
01
  5
B6A5
 10
136.422
 20
-2346.43
 30
0.000000
  70
    32
  0
VERTEX
  8
01
  5
B6A6
 10
136.373
 20
-2346.43
 30
0.000000
  70
    32
  0
VERTEX
  8
01
  5
B6A7
 10
136.324
 20
-2346.42
 30
0.000000
  70
    32
  0
VERTEX
  8
01
  5
B6A8
 10
136.275
 20
-2346.41
 30
0.000000
  70
    32
  0
VERTEX
  8
01
  5
B6A9
 10
136.226
 20
-2346.41
 30
0.000000
  70
    32
  0
VERTEX
  8
01
  5
B6AA
 10
136.178
 20
-2346.40
 30
0.000000
  70
    32
  0
VERTEX
  8
01
  5
B6AB
 10
136.130
 20
-2346.38
 30
0.000000
  70
    32
  0
VERTEX
  8
01
  5
B6AC
 10
136.082
 20
-2346.37
 30
0.000000
  70
    32
  0
VERTEX
  8
01
  5
B6AD
 10
136.034
 20
-2346.36
 30
0.000000
  70
    32
  0
VERTEX
  8
01
  5
B6AE
 10
135.987
 20
-2346.35
 30
0.000000
  70
    32
  0
VERTEX
  8
01
  5
B6AF
 10
135.940
 20
-2346.33
 30
0.000000
  70
    32
  0
VERTEX
  8
01
  5
B6B0
 10
135.893
 20
-2346.32
 30
0.000000
  70
    32
  0
VERTEX
  8
01
  5
B6B1
 10
135.847
 20
-2346.30
 30
0.000000
  70
    32
  0
VERTEX
  8
01
  5
B6B2
 10
135.802
 20
-2346.28
 30
0.000000
  70
    32
  0
VERTEX
  8
01
  5
B6B3
 10
135.757
 20
-2346.26
 30
0.000000
  70
    32
  0
VERTEX
  8
01
  5
B6B4
 10
135.712
 20
-2346.24
 30
0.000000
  70
    32
  0
VERTEX
  8
01
  5
B6B5
 10
135.668
 20
-2346.22
 30
0.000000
  70
    32
  0
VERTEX
  8
01
  5
B6B6
 10
135.624
 20
-2346.20
 30
0.000000
  70
    32
  0
VERTEX
  8
01
  5
B6B7
 10
135.581
 20
-2346.18
 30
0.000000
  70
    32
  0
VERTEX
  8
01
  5
B6B8
 10
135.538
 20
-2346.15
 30
0.000000
  70
    32
  0
VERTEX
  8
01
  5
B6B9
 10
135.497
 20
-2346.13
 30
0.000000
  70
    32
  0
VERTEX
  8
01
  5
B6BA
 10
135.455
 20
-2346.10
 30
0.000000
  70
    32
  0
VERTEX
  8
01
  5
B6BB
 10
135.415
 20
-2346.08
 30
0.000000
  70
    32
  0
VERTEX
  8
01
  5
B6BC
 10
135.375
 20
-2346.05
 30
0.000000
  70
    32
  0
VERTEX
  8
01
  5
B6BD
 10
135.335
 20
-2346.02
 30
0.000000
  70
    32
  0
VERTEX
  8
01
  5
B6BE
 10
135.297
 20
-2346.00
 30
0.000000
  70
    32
  0
VERTEX
  8
01
  5
B6BF
 10
135.259
 20
-2345.97
 30
0.000000
  70
    32
  0
VERTEX
  8
01
  5
B6C0
 10
135.222
 20
-2345.94
 30
0.000000
  70
    32
  0
VERTEX
  8
01
  5
B6C1
 10
135.186
 20
-2345.90
 30
0.000000
  70
    32
  0
VERTEX
  8
01
  5
B6C2
 10
135.150
 20
-2345.87
 30
0.000000
  70
    32
  0
VERTEX
  8
01
  5
B6C3
 10
135.115
 20
-2345.84
 30
0.000000
  70
    32
  0
VERTEX
  8
01
  5
B6C4
 10
135.082
 20
-2345.81
 30
0.000000
  70
    32
  0
VERTEX
  8
01
  5
B6C5
 10
135.048
 20
-2345.77
 30
0.000000
  70
    32
  0
VERTEX
  8
01
  5
B6C6
 10
135.016
 20
-2345.74
 30
0.000000
  70
    32
  0
VERTEX
  8
01
  5
B6C7
 10
134.985
 20
-2345.70
 30
0.000000
  70
    32
  0
VERTEX
  8
01
  5
B6C8
 10
134.955
 20
-2345.67
 30
0.000000
  70
    32
  0
VERTEX
  8
01
  5
B6C9
 10
134.925
 20
-2345.63
 30
0.000000
  70
    32
  0
VERTEX
  8
01
  5
B6CA
 10
134.897
 20
-2345.59
 30
0.000000
  70
    32
  0
VERTEX
  8
01
  5
B6CB
 10
134.869
 20
-2345.56
 30
0.000000
  70
    32
  0
VERTEX
  8
01
  5
B6CC
 10
134.842
 20
-2345.52
 30
0.000000
  70
    32
  0
VERTEX
  8
01
  5
B6CD
 10
134.817
 20
-2345.48
 30
0.000000
  70
    32
  0
VERTEX
  8
01
  5
B6CE
 10
134.792
 20
-2345.44
 30
0.000000
  70
    32
  0
VERTEX
  8
01
  5
B6CF
 10
134.768
 20
-2345.40
 30
0.000000
  70
    32
  0
VERTEX
  8
01
  5
B6D0
 10
134.746
 20
-2345.36
 30
0.000000
  70
    32
  0
VERTEX
  8
01
  5
B6D1
 10
134.724
 20
-2345.32
 30
0.000000
  70
    32
  0
VERTEX
  8
01
  5
B6D2
 10
134.703
 20
-2345.28
 30
0.000000
  70
    32
  0
VERTEX
  8
01
  5
B6D3
 10
134.684
 20
-2345.24
 30
0.000000
  70
    32
  0
VERTEX
  8
01
  5
B6D4
 10
134.665
 20
-2345.19
 30
0.000000
  70
    32
  0
VERTEX
  8
01
  5
B6D5
 10
134.648
 20
-2345.15
 30
0.000000
  70
    32
  0
VERTEX
  8
01
  5
B6D6
 10
134.632
 20
-2345.11
 30
0.000000
  70
    32
  0
VERTEX
  8
01
  5
B6D7
 10
134.616
 20
-2345.07
 30
0.000000
  70
    32
  0
VERTEX
  8
01
  5
B6D8
 10
134.602
 20
-2345.02
 30
0.000000
  70
    32
  0
VERTEX
  8
01
  5
B6D9
 10
134.589
 20
-2344.98
 30
0.000000
  70
    32
  0
VERTEX
  8
01
  5
B6DA
 10
134.577
 20
-2344.94
 30
0.000000
  70
    32
  0
VERTEX
  8
01
  5
B6DB
 10
134.566
 20
-2344.89
 30
0.000000
  70
    32
  0
VERTEX
  8
01
  5
B6DC
 10
134.557
 20
-2344.85
 30
0.000000
  70
    32
  0
VERTEX
  8
01
  5
B6DD
 10
134.548
 20
-2344.80
 30
0.000000
  70
    32
  0
VERTEX
  8
01
  5
B6DE
 10
134.541
 20
-2344.76
 30
0.000000
  70
    32
  0
VERTEX
  8
01
  5
B6DF
 10
134.534
 20
-2344.71
 30
0.000000
  70
    32
  0
VERTEX
  8
01
  5
B6E0
 10
134.529
 20
-2344.67
 30
0.000000
  70
    32
  0
SEQEND
  8
01
  5
B6E1
  0
LINE
  5
A59B
  8
01
  6
BYBLOCK
 10
318.39608159918322
 20
-2317.8034549627951
 30
0.0
 11
318.39608159918322
 21
-2344.3668148566589
 31
0.0
  0
LINE
  5
A59C
  8
01
  6
BYBLOCK
 10
320.89608159918322
 20
-2323.701370724451
 30
0.0
 11
320.89608159918322
 21
-2337.8129219438952
 31
0.0
  0
LINE
  5
A59D
  8
01
  6
BYBLOCK
 10
325.39608159918322
 20
-2316.8034549627951
 30
0.0
 11
319.39608159918322
 21
-2316.803454962796
 31
0.0
  0
LINE
  5
A59E
  8
01
  6
BYBLOCK
 10
324.89608159918322
 20
-2318.8034549627951
 30
0.0
 11
321.13775486912891
 21
-2318.8034549627951
 31
0.0
  0
ARC
  5
A59F
  8
01
  6
BYBLOCK
 10
319.39608159918322
 20
-2317.8034549627951
 30
0.0
 40
1.0
 50
90.0
 51
180.0
  0
ARC
  5
A5A0
  8
01
  6
BYBLOCK
 10
326.39608159918271
 20
-2321.3034549627951
 30
0.0
 40
0.9999999999998864
 50
180.0
 51
0.0
  0
ARC
  5
A5A1
  8
01
  6
BYBLOCK
 10
325.39608159918322
 20
-2318.8034549627951
 30
0.0
 40
2.0
 50
0.0
 51
90.0
  0
ARC
  5
A5A2
  8
01
  6
BYBLOCK
 10
324.89608159918322
 20
-2319.3034549627951
 30
0.0
 40
0.5
 50
0.0
 51
90.0
  0
LINE
  5
A5A3
  8
01
  6
BYBLOCK
 10
325.39608159918322
 20
-2319.3034549627951
 30
0.0
 11
325.39608159918322
 21
-2321.3034549627951
 31
0.0
  0
LINE
  5
A5A4
  8
01
  6
BYBLOCK
 10
327.39608159918322
 20
-2318.8034549627951
 30
0.0
 11
327.39608159918322
 21
-2321.3034549627951
 31
0.0
  0
LINE
  5
A5A5
  8
01
  6
BYBLOCK
 10
326.39608159918407
 20
-2339.0534549627951
 30
0.0
 11
328.89608159918322
 21
-2339.0534549627951
 31
0.0
  0
LINE
  5
A5A6
  8
01
  6
BYBLOCK
 10
327.89608159918311
 20
-2341.0534549627951
 30
0.0
 11
327.89608159918311
 21
-2350.2534549627949
 31
0.0
  0
LINE
  5
A5A7
  8
01
  6
BYBLOCK
 10
328.19608159918329
 20
-2350.5534549627951
 30
0.0
 11
328.89608159918322
 21
-2350.5534549627951
 31
0.0
  0
LINE
  5
A5A8
  8
01
  6
BYBLOCK
 10
329.39608159918322
 20
-2351.0534549627951
 30
0.0
 11
329.39608159918322
 21
-2351.5534549627951
 31
0.0
  0
ARC
  5
A5A9
  8
01
  6
BYBLOCK
 10
328.89608159918322
 20
-2351.0534549627951
 30
0.0
 40
0.5
 50
0.0
 51
90.0
1001
GENIUS_GENOBJ-N-FIL_13
1002
{
1000
OWNER
1000
GEN
1002
}
1001
GENIUS_GENODEF_13
1002
{
1000
HIER
1070
     0
1002
}
1002
{
1000
MANEDIT
1070
     0
1002
}
1002
{
1000
NOSEL
1070
     0
1002
}
1002
{
1000
BEHIND
1070
     0
1002
}
1002
{
1000
OTHER
1070
     0
1002
}
1002
{
1000
REACTOR
1002
}
  0
LINE
  5
A5AA
  8
01
  6
BYBLOCK
 10
327.64523291160009
 20
-2352.0534549627951
 30
0.0
 11
328.89608159918322
 21
-2352.0534549627951
 31
0.0
  0
ARC
  5
A5AB
  8
01
  6
BYBLOCK
 10
328.89608159918322
 20
-2351.5534549627951
 30
0.0
 40
0.5
 50
270.0
 51
0.0
1001
GENIUS_GENODEF_13
1002
{
1000
HIER
1070
     0
1002
}
1002
{
1000
MANEDIT
1070
     0
1002
}
1002
{
1000
NOSEL
1070
     0
1002
}
1002
{
1000
BEHIND
1070
     0
1002
}
1002
{
1000
OTHER
1070
     0
1002
}
1002
{
1000
REACTOR
1002
}
1001
GENIUS_GENOBJ-N-FIL_13
1002
{
1000
OWNER
1000
GEN
1002
}
  0
LINE
  5
A5AC
  8
01
  6
BYBLOCK
 10
325.39608159918288
 20
-2350.754906847123
 30
0.0
 11
327.64523291160009
 21
-2352.0534549627951
 31
0.0
  0
ARC
  5
A5AD
  8
01
  6
BYBLOCK
 10
321.39608159918288
 20
-2347.7134549627958
 30
0.0
 40
4.0
 50
0.0
 51
128.89587133434239
  0
ARC
  5
A5AE
  8
01
  6
BYBLOCK
 10
318.6960815991834
 20
-2344.3668148566589
 30
0.0
 40
0.3
 50
180.0
 51
308.89587133434247
1001
GENIUS_GENOBJ-N-FIL_13
1002
{
1000
OWNER
1000
GEN
1002
}
1001
GENIUS_GENODEF_13
1002
{
1000
HIER
1070
     0
1002
}
1002
{
1000
MANEDIT
1070
     0
1002
}
1002
{
1000
NOSEL
1070
     0
1002
}
1002
{
1000
BEHIND
1070
     0
1002
}
1002
{
1000
OTHER
1070
     0
1002
}
1002
{
1000
REACTOR
1002
}
  0
ARC
  5
A5B0
  8
01
  6
BYBLOCK
 10
328.19608159918329
 20
-2350.2534549627949
 30
0.0
 40
0.3
 50
180.0
 51
270.0
1001
GENIUS_GENODEF_13
1002
{
1000
HIER
1070
     0
1002
}
1002
{
1000
MANEDIT
1070
     0
1002
}
1002
{
1000
NOSEL
1070
     0
1002
}
1002
{
1000
BEHIND
1070
     0
1002
}
1002
{
1000
OTHER
1070
     0
1002
}
1002
{
1000
REACTOR
1002
}
1001
GENIUS_GENOBJ-N-FIL_13
1002
{
1000
OWNER
1000
GEN
1002
}
  0
ARC
  5
A5B1
  8
01
  6
BYBLOCK
 10
328.89608159918322
 20
-2340.0534549627951
 30
0.0
 40
0.5
 50
270.0
 51
0.0
1001
GENIUS_GENODEF_13
1002
{
1000
HIER
1070
     0
1002
}
1002
{
1000
MANEDIT
1070
     0
1002
}
1002
{
1000
NOSEL
1070
     0
1002
}
1002
{
1000
BEHIND
1070
     0
1002
}
1002
{
1000
OTHER
1070
     0
1002
}
1002
{
1000
REACTOR
1002
}
1001
GENIUS_GENOBJ-N-FIL_13
1002
{
1000
OWNER
1000
GEN
1002
}
  0
ARC
  5
A5B2
  8
01
  6
BYBLOCK
 10
328.89608159918322
 20
-2339.5534549627951
 30
0.0
 40
0.5
 50
0.0
 51
90.0
1001
GENIUS_GENOBJ-N-FIL_13
1002
{
1000
OWNER
1000
GEN
1002
}
1001
GENIUS_GENODEF_13
1002
{
1000
HIER
1070
     0
1002
}
1002
{
1000
MANEDIT
1070
     0
1002
}
1002
{
1000
NOSEL
1070
     0
1002
}
1002
{
1000
BEHIND
1070
     0
1002
}
1002
{
1000
OTHER
1070
     0
1002
}
1002
{
1000
REACTOR
1002
}
  0
LINE
  5
A5B3
  8
01
  6
BYBLOCK
 10
329.39608159918322
 20
-2339.5534549627951
 30
0.0
 11
329.39608159918322
 21
-2340.0534549627951
 31
0.0
  0
LINE
  5
A5B4
  8
01
  6
BYBLOCK
 10
328.39608159918322
 20
-2340.5534549627951
 30
0.0
 11
328.89608159918322
 21
-2340.5534549627951
 31
0.0
  0
ARC
  5
A5B5
  8
01
  6
BYBLOCK
 10
328.39608159918322
 20
-2341.0534549627951
 30
0.0
 40
0.5
 50
90.0
 51
180.0
  0
ARC
  5
A5B6
  8
01
  6
BYBLOCK
 10
326.39608159918299
 20
-2321.3034549627941
 30
0.0
 40
6.0
 50
157.2963437335614
 51
203.55646430911361
  0
ARC
  5
A5B7
  8
01
  6
BYBLOCK
 10
321.13775486912891
 20
-2319.1034549627948
 30
0.0
 40
0.3
 50
89.999999999986969
 51
157.2963437335614
  0
ARC
  5
A5B8
  8
01
  6
BYBLOCK
 10
326.39608159918299
 20
-2321.3034549627941
 30
0.0
 40
17.75
 50
253.15072037718431
 51
270.0
  0
ARC
  5
A5B9
  8
01
  6
BYBLOCK
 10
321.39608159918322
 20
-2337.8129219438952
 30
0.0
 40
0.5
 50
180.0
 51
253.15072037718431
  0
LINE
  5
A5C2
  8
01
 10
327.89608159918362
 20
-2341.7034549627951
 30
0.0
 11
328.39608159918362
 21
-2341.7034549627951
 31
0.0
  0
LINE
  5
A5C3
  8
01
 10
328.39608159918362
 20
-2341.7034549627951
 30
0.0
 11
328.39608159918362
 21
-2349.6034549627948
 31
0.0
  0
LINE
  5
A5C4
  8
01
 10
327.89608159918362
 20
-2341.7034549627951
 30
0.0
 11
327.89608159918362
 21
-2349.6034549627948
 31
0.0
  0
LINE
  5
A5C5
  8
01
 10
327.89608159918362
 20
-2349.6034549627948
 30
0.0
 11
328.39608159918362
 21
-2349.6034549627948
 31
0.0
  0
ARC
  5
A5C7
  8
01
 10
326.09608159918389
 20
-2345.653454962795
 30
0.0
 40
4.0
 50
305.09963219540327
 51
54.900367804596648
  0
LINE
  5
B10A
  8
01
 10
210.66895606310339
 20
-2266.5828978371651
 30
0.0
 11
210.66895606310339
 21
-2201.5828978371651
 31
0.0
  0
LINE
  5
B10B
  8
01
 10
202.66895606310339
 20
-2266.5828978371651
 30
0.0
 11
202.6689560631043
 21
-2205.5828978371651
 31
0.0
  0
LINE
  5
B10C
  8
01
 10
110.6689560631043
 20
-2266.5828978371651
 30
0.0
 11
110.6689560631043
 21
-2205.5828978371651
 31
0.0
  0
LINE
  5
B10D
  8
01
 10
102.66895606310391
 20
-2266.5828978371651
 30
0.0
 11
102.66895606310391
 21
-2201.5828978371651
 31
0.0
  0
CIRCLE
  5
B10E
  8
01
 10
206.66895606310391
 20
-2266.5828978371651
 30
0.0
 40
4.0
  0
CIRCLE
  5
B10F
  8
01
 10
106.66895606310381
 20
-2266.5828978371651
 30
0.0
 40
4.0
  0
LINE
  5
B110
  8
01
 10
206.66895606310391
 20
-2197.5828978371651
 30
0.0
 11
191.66895606310391
 21
-2197.5828978371651
 31
0.0
  0
LINE
  5
B111
  8
01
 10
121.66895606310391
 20
-2197.5828978371651
 30
0.0
 11
106.66895606310381
 21
-2197.5828978371651
 31
0.0
  0
LINE
  5
B112
  8
01
 10
206.66895606310391
 20
-2205.5828978371651
 30
0.0
 11
106.66895606310381
 21
-2205.5828978371651
 31
0.0
  0
ARC
  5
B113
  8
01
 10
206.66895606310391
 20
-2201.5828978371651
 30
0.0
 40
4.0
 50
270.0
 51
90.0
  0
ARC
  5
B114
  8
01
 10
106.66895606310381
 20
-2201.5828978371651
 30
0.0
 40
4.0
 50
90.0
 51
270.0
  0
LINE
  5
B25C
  8
01
 10
192.67018759257761
 20
-2351.7134549627958
 30
0.0
 11
120.6701871771368
 21
-2351.7134549627958
 31
0.0
  0
LINE
  5
B25D
  8
01
 10
192.6693680829969
 20
-2343.713454962799
 30
0.0
 11
191.66977536498891
 21
-2343.713454962799
 31
0.0
  0
LINE
  5
B25E
  8
01
 10
121.66977536498889
 20
-2343.713454962799
 30
0.0
 11
120.66977536498889
 21
-2343.713454962799
 31
0.0
  0
LINE
  5
B25F
  8
01
 10
210.6710066867675
 20
-2333.7134549627958
 30
0.0
 11
210.6710066867675
 21
-2529.7134549627958
 31
0.0
  0
LINE
  5
B260
  8
01
 10
202.67100668676741
 20
-2333.7134549627958
 30
0.0
 11
202.67100668676741
 21
-2529.7134549627958
 31
0.0
  0
ARC
  5
B261
  8
01
 10
192.67100668676741
 20
-2361.7134549627958
 30
0.0
 40
10.0
 50
0.0
 51
90.0
  0
ARC
  5
B262
  8
01
 10
206.66895606310391
 20
-2333.715675612093
 30
0.0
 40
4.0
 50
0.0
 51
180.0
  0
LINE
  5
B263
  8
01
 10
110.6710066867674
 20
-2333.7134549627958
 30
0.0
 11
110.6710066867674
 21
-2529.7134549627958
 31
0.0
  0
ARC
  5
B264
  8
01
 10
120.6710066867674
 20
-2361.7134549627958
 30
0.0
 40
10.0
 50
90.0
 51
180.0
  0
LINE
  5
B265
  8
01
 10
102.6710066867674
 20
-2333.7134549627958
 30
0.0
 11
102.6710066867674
 21
-2529.7134549627958
 31
0.0
  0
ARC
  5
B266
  8
01
 10
120.6710066867674
 20
-2361.7134549627958
 30
0.0
 40
18.0
 50
90.0
 51
123.7489885958983
  0
ARC
  5
B267
  8
01
 10
192.67100668676741
 20
-2361.7134549627958
 30
0.0
 40
18.0
 50
56.251011404101646
 51
90.0
  0
ARC
  5
B268
  8
01
 10
206.67100668676741
 20
-2529.7134549627958
 30
0.0
 40
4.0
 50
180.0
 51
0.0
  0
ARC
  5
B269
  8
01
 10
106.6710066867674
 20
-2529.7134549627958
 30
0.0
 40
4.0
 50
180.0
 51
0.0
  0
ARC
  5
B26A
  8
01
 10
106.6710066867674
 20
-2333.7134549627958
 30
0.0
 40
4.0
 50
0.000000000000007
 51
180.0
  0
ARC
  5
B26D
  8
01
 10
321.39608159918288
 20
-2347.7134549627958
 30
0.0
 40
4.0
 50
0.0
 51
180.0
  0
LINE
  5
B26F
  8
01
 10
317.39608159918288
 20
-2347.7134549627958
 30
0.0
 11
317.39608159918248
 21
-2517.7134549627949
 31
0.0
  0
LINE
  5
B270
  8
01
 10
325.39608159918288
 20
-2347.7134549627958
 30
0.0
 11
325.39608159918288
 21
-2517.7134549627949
 31
0.0
  0
LINE
  5
B271
  8
01
 10
260.39608159918288
 20
-2333.7134549627949
 30
0.0
 11
260.39608159918288
 21
-2517.7134549627949
 31
0.0
  0
ARC
  5
B272
  8
01
 10
268.39608159918299
 20
-2517.7134549627949
 30
0.0
 40
8.0
 50
180.0
 51
270.0
  0
LINE
  5
B273
  8
01
 10
252.39608159918291
 20
-2333.7134549627949
 30
0.0
 11
252.39608159918291
 21
-2517.7134549627949
 31
0.0
  0
ARC
  5
B274
  8
01
 10
268.39608159918299
 20
-2517.7134549627949
 30
0.0
 40
16.0
 50
180.0
 51
270.0
  0
ARC
  5
B275
  8
01
 10
256.39608159918288
 20
-2333.7134549627949
 30
0.0
 40
4.0
 50
0.0
 51
180.0
  0
LINE
  5
B276
  8
01
 10
309.39608159918288
 20
-2533.7134549627949
 30
0.0
 11
268.39608159918299
 21
-2533.7134549627949
 31
0.0
  0
ARC
  5
B277
  8
01
 10
309.39608159918288
 20
-2517.7134549627949
 30
0.0
 40
16.0
 50
270.0
 51
0.0
  0
LINE
  5
B278
  8
01
 10
309.39608159918248
 20
-2525.7134549627949
 30
0.0
 11
268.39608159918299
 21
-2525.7134549627949
 31
0.0
  0
ARC
  5
B279
  8
01
 10
309.39608159918248
 20
-2517.7134549627949
 30
0.0
 40
8.0
 50
270.0
 51
0.0
  0
TEXT
  5
B32B
  8
1TEXT
 10
146.97416344173089
 20
-2190.1883527716941
 30
0.0
 40
4.0
  1
上面図
 41
0.9
 72
     1
 11
152.85416344173089
 21
-2190.1883527716941
 31
0.0
  0
LINE
  5
B3BA
  8
1DIM
 10
330.09608159918389
 20
-2345.653454962795
 30
0.0
 11
330.09608159918389
 21
-2310.5993100708729
 31
0.0
  0
LINE
  5
B3BB
  8
1DIM
 10
318.39608159918322
 20
-2317.8034549627951
 30
0.0
 11
318.39608159918322
 21
-2310.5993100708729
 31
0.0
  0
LINE
  5
B3BC
  8
1DIM
 10
328.09608159918389
 20
-2311.5993100708738
 30
0.0
 11
320.39608159918322
 21
-2311.5993100708738
 31
0.0
  0
LINE
  5
B3C0
  8
1DIM
 10
252.39608159918291
 20
-2517.7134549627949
 30
0.0
 11
252.39608159918291
 21
-2547.205186554967
 31
0.0
  0
LINE
  5
B3C1
  8
1DIM
 10
330.09608159918389
 20
-2345.653454962795
 30
0.0
 11
330.09608159918389
 21
-2547.205186554967
 31
0.0
  0
LINE
  5
B3C2
  8
1DIM
 10
254.39608159918291
 20
-2546.205186554967
 30
0.0
 11
328.09608159918389
 21
-2546.205186554967
 31
0.0
  0
LINE
  5
B3C6
  8
1DIM
 10
191.66977536498891
 20
-2352.0534549627951
 30
0.0
 11
225.64383719426399
 21
-2352.0534549627951
 31
0.0
  0
LINE
  5
B3C7
  8
1DIM
 10
191.66977536498891
 20
-2316.8034549627951
 30
0.0
 11
225.64383719426399
 21
-2316.8034549627951
 31
0.0
  0
LINE
  5
B3C8
  8
1DIM
 10
224.64383719426411
 20
-2350.0534549627951
 30
0.0
 11
224.64383719426411
 21
-2318.8034549627951
 31
0.0
  0
LINE
  5
B3CC
  8
1DIM
 10
191.66977536498891
 20
-2316.8034549627951
 30
0.0
 11
243.35068736303771
 21
-2316.8034549627951
 31
0.0
  0
LINE
  5
B3CD
  8
1DIM
 10
206.67100668676741
 20
-2533.7134549627958
 30
0.0
 11
243.35068736303759
 21
-2533.7134549627958
 31
0.0
  0
LINE
  5
B3CE
  8
1DIM
 10
242.35068736303771
 20
-2318.8034549627951
 30
0.0
 11
242.35068736303771
 21
-2531.7134549627958
 31
0.0
  0
LINE
  5
B3D2
  8
1DIM
 10
202.67100668676741
 20
-2529.7134549627958
 30
0.0
 11
202.67100668676741
 21
-2540.061365266195
 31
0.0
  0
LINE
  5
B3D3
  8
1DIM
 10
210.6710066867675
 20
-2529.7134549627958
 30
0.0
 11
210.6710066867675
 21
-2540.061365266195
 31
0.0
  0
LINE
  5
B3D4
  8
1DIM
 10
204.67100668676741
 20
-2539.061365266195
 30
0.0
 11
208.6710066867675
 21
-2539.061365266195
 31
0.0
  0
LINE
  5
B3D8
  8
1DIM
 10
102.6710066867674
 20
-2529.7134549627958
 30
0.0
 11
102.6710066867674
 21
-2547.205186554967
 31
0.0
  0
LINE
  5
B3D9
  8
1DIM
 10
210.6710066867675
 20
-2529.7134549627958
 30
0.0
 11
210.6710066867675
 21
-2547.205186554967
 31
0.0
  0
LINE
  5
B3DA
  8
1DIM
 10
104.6710066867674
 20
-2546.205186554967
 30
0.0
 11
208.6710066867675
 21
-2546.205186554967
 31
0.0
  0
LINE
  5
B3DE
  8
1DIM
 10
121.66977536498889
 20
-2352.0534549627951
 30
0.0
 11
121.66977536498889
 21
-2540.061365266195
 31
0.0
  0
LINE
  5
B3DF
  8
1DIM
 10
191.66977536498891
 20
-2352.0534549627951
 30
0.0
 11
191.66977536498891
 21
-2540.061365266195
 31
0.0
  0
LINE
  5
B3E0
  8
1DIM
 10
123.66977536498889
 20
-2539.061365266195
 30
0.0
 11
189.66977536498891
 21
-2539.061365266195
 31
0.0
  0
TEXT
  5
B3E4
  8
1HATCH
 10
348.09135538186172
 20
-2323.6788092600941
 30
0.0
 40
3.5
  1
クリアバンポン
  0
SOLID
  5
B3E5
  8
1HATCH
 10
331.30372432738858
 20
-2342.1503445315029
 30
0.0
 11
329.74931631698382
 21
-2343.452238094088
 31
0.0
 12
330.7974665227444
 22
-2341.7165848288091
 32
0.0
 13
330.7974665227444
 23
-2341.7165848288091
 33
0.0
  0
TEXT
  5
B3E7
  8
1HATCH
 10
343.9542547873798
 20
-2296.8378514796718
 30
0.0
 40
3.5
  1
材質：アルミ
  0
SOLID
  5
B3E8
  8
1HATCH
 10
326.46662373290673
 20
-2315.3093867510811
 30
0.0
 11
324.91221572250203
 21
-2316.6112803136662
 31
0.0
 12
325.9603659282626
 22
-2314.8756270483868
 32
0.0
 13
325.9603659282626
 23
-2314.8756270483868
 33
0.0
  0
TEXT
  5
B3EA
  8
1HATCH
 10
279.33848634230708
 20
-2320.5091577571088
 30
0.0
 40
3.5
  1
材質：ステンレス
  0
SOLID
  5
B3EB
  8
1HATCH
 10
261.85085528783401
 20
-2338.9806930285181
 30
0.0
 11
260.29644727742931
 21
-2340.2825865911032
 31
0.0
 12
261.34459748318989
 22
-2338.5469333258238
 32
0.0
 13
261.34459748318989
 23
-2338.5469333258238
 33
0.0
  0
LINE
  5
B3ED
  8
1HATCH
 10
261.59772638551198
 20
-2338.763813177171
 30
0.0
 11
276.6384863423072
 21
-2321.2091577571091
 31
0.0
  0
LINE
  5
B3EE
  8
1HATCH
 10
276.6384863423072
 20
-2321.2091577571091
 30
0.0
 11
279.33848634230731
 21
-2321.2091577571091
 31
0.0
  0
LINE
  5
B3EF
  8
1HATCH
 10
326.21349483058469
 20
-2315.092506899734
 30
0.0
 11
341.25425478737998
 21
-2297.5378514796712
 31
0.0
  0
LINE
  5
B3F0
  8
1HATCH
 10
341.25425478737998
 20
-2297.5378514796712
 30
0.0
 11
343.95425478737991
 21
-2297.5378514796712
 31
0.0
  0
LINE
  5
B3F1
  8
1HATCH
 10
331.0505954250666
 20
-2341.9334646801558
 30
0.0
 11
346.09135538186177
 21
-2324.3788092600939
 31
0.0
  0
LINE
  5
B3F2
  8
1HATCH
 10
346.09135538186177
 20
-2324.3788092600939
 30
0.0
 11
348.79135538186182
 21
-2324.3788092600939
 31
0.0
  0
TEXT
  5
B3F3
  8
1DIM
 10
154.04477536498891
 20
-2538.3613652661952
 30
0.0
 40
3.5
  1
70
  0
LINE
  5
B3F4
  8
0
  6
BYBLOCK
 10
189.66977536498891
 20
-2538.525466886194
 30
0.0
 11
191.66977536498891
 21
-2539.061365266195
 31
0.0
  0
LINE
  5
B3F5
  8
0
  6
BYBLOCK
 10
191.66977536498891
 20
-2539.061365266195
 30
0.0
 11
189.66977536498891
 21
-2539.5972636461952
 31
0.0
  0
LINE
  5
B3F6
  8
0
  6
BYBLOCK
 10
191.66977536498891
 20
-2539.061365266195
 30
0.0
 11
189.66977536498891
 21
-2539.061365266195
 31
0.0
  0
LINE
  5
B3F7
  8
0
  6
BYBLOCK
 10
123.66977536498889
 20
-2539.5972636461952
 30
0.0
 11
121.66977536498889
 21
-2539.061365266195
 31
0.0
  0
LINE
  5
B3F8
  8
0
  6
BYBLOCK
 10
121.66977536498889
 20
-2539.061365266195
 30
0.0
 11
123.66977536498889
 21
-2538.525466886194
 31
0.0
  0
LINE
  5
B3F9
  8
0
  6
BYBLOCK
 10
121.66977536498889
 20
-2539.061365266195
 30
0.0
 11
123.66977536498889
 21
-2539.061365266195
 31
0.0
  0
TEXT
  5
B3FA
  8
1DIM
 10
152.87934002010081
 20
-2545.5051865549672
 30
0.0
 40
3.5
  1
108
  0
LINE
  5
B3FB
  8
0
  6
BYBLOCK
 10
208.6710066867675
 20
-2545.6692881749668
 30
0.0
 11
210.6710066867675
 21
-2546.205186554967
 31
0.0
  0
LINE
  5
B3FC
  8
0
  6
BYBLOCK
 10
210.6710066867675
 20
-2546.205186554967
 30
0.0
 11
208.6710066867675
 21
-2546.7410849349671
 31
0.0
  0
LINE
  5
B3FD
  8
0
  6
BYBLOCK
 10
210.6710066867675
 20
-2546.205186554967
 30
0.0
 11
208.6710066867675
 21
-2546.205186554967
 31
0.0
  0
LINE
  5
B3FE
  8
0
  6
BYBLOCK
 10
104.6710066867674
 20
-2546.7410849349671
 30
0.0
 11
102.6710066867674
 21
-2546.205186554967
 31
0.0
  0
LINE
  5
B3FF
  8
0
  6
BYBLOCK
 10
102.6710066867674
 20
-2546.205186554967
 30
0.0
 11
104.6710066867674
 21
-2545.6692881749668
 31
0.0
  0
LINE
  5
B400
  8
0
  6
BYBLOCK
 10
102.6710066867674
 20
-2546.205186554967
 30
0.0
 11
104.6710066867674
 21
-2546.205186554967
 31
0.0
  0
TEXT
  5
B401
  8
1DIM
 10
205.50434002010081
 20
-2538.3613652661952
 30
0.0
 40
3.5
  1
8
  0
LINE
  5
B402
  8
0
  6
BYBLOCK
 10
208.6710066867675
 20
-2538.525466886194
 30
0.0
 11
210.6710066867675
 21
-2539.061365266195
 31
0.0
  0
LINE
  5
B403
  8
0
  6
BYBLOCK
 10
210.6710066867675
 20
-2539.061365266195
 30
0.0
 11
208.6710066867675
 21
-2539.5972636461952
 31
0.0
  0
LINE
  5
B404
  8
0
  6
BYBLOCK
 10
210.6710066867675
 20
-2539.061365266195
 30
0.0
 11
208.6710066867675
 21
-2539.061365266195
 31
0.0
  0
LINE
  5
B405
  8
0
  6
BYBLOCK
 10
204.67100668676741
 20
-2539.5972636461952
 30
0.0
 11
202.67100668676741
 21
-2539.061365266195
 31
0.0
  0
LINE
  5
B406
  8
0
  6
BYBLOCK
 10
202.67100668676741
 20
-2539.061365266195
 30
0.0
 11
204.67100668676741
 21
-2538.525466886194
 31
0.0
  0
LINE
  5
B407
  8
0
  6
BYBLOCK
 10
202.67100668676741
 20
-2539.061365266195
 30
0.0
 11
204.67100668676741
 21
-2539.061365266195
 31
0.0
  0
TEXT
  5
B408
  8
1DIM
 10
241.65068736303809
 20
-2429.3417882961289
 30
0.0
 40
3.5
  1
217
 50
90.0
  0
LINE
  5
B409
  8
0
  6
BYBLOCK
 10
242.88658574303761
 20
-2531.7134549627958
 30
0.0
 11
242.35068736303771
 21
-2533.7134549627958
 31
0.0
  0
LINE
  5
B40A
  8
0
  6
BYBLOCK
 10
242.35068736303771
 20
-2533.7134549627958
 30
0.0
 11
241.81478898303769
 21
-2531.7134549627958
 31
0.0
  0
LINE
  5
B40B
  8
0
  6
BYBLOCK
 10
242.35068736303771
 20
-2533.7134549627958
 30
0.0
 11
242.35068736303771
 21
-2531.7134549627958
 31
0.0
  0
LINE
  5
B40C
  8
0
  6
BYBLOCK
 10
241.81478898303769
 20
-2318.8034549627951
 30
0.0
 11
242.35068736303771
 21
-2316.8034549627951
 31
0.0
  0
LINE
  5
B40D
  8
0
  6
BYBLOCK
 10
242.35068736303771
 20
-2316.8034549627951
 30
0.0
 11
242.8865857430377
 21
-2318.8034549627951
 31
0.0
  0
LINE
  5
B40E
  8
0
  6
BYBLOCK
 10
242.35068736303771
 20
-2316.8034549627951
 30
0.0
 11
242.35068736303771
 21
-2318.8034549627951
 31
0.0
  0
TEXT
  5
B40F
  8
1DIM
 10
223.9438371942644
 20
-2337.345121629462
 30
0.0
 40
3.5
  1
35
 50
90.0
  0
LINE
  5
B410
  8
0
  6
BYBLOCK
 10
224.10793881426409
 20
-2318.8034549627951
 30
0.0
 11
224.64383719426411
 21
-2316.8034549627951
 31
0.0
  0
LINE
  5
B411
  8
0
  6
BYBLOCK
 10
224.64383719426411
 20
-2316.8034549627951
 30
0.0
 11
225.17973557426399
 21
-2318.8034549627951
 31
0.0
  0
LINE
  5
B412
  8
0
  6
BYBLOCK
 10
224.64383719426411
 20
-2316.8034549627951
 30
0.0
 11
224.64383719426411
 21
-2318.8034549627951
 31
0.0
  0
LINE
  5
B413
  8
0
  6
BYBLOCK
 10
225.17973557426399
 20
-2350.0534549627951
 30
0.0
 11
224.64383719426411
 21
-2352.0534549627951
 31
0.0
  0
LINE
  5
B414
  8
0
  6
BYBLOCK
 10
224.64383719426411
 20
-2352.0534549627951
 30
0.0
 11
224.10793881426409
 21
-2350.0534549627951
 31
0.0
  0
LINE
  5
B415
  8
0
  6
BYBLOCK
 10
224.64383719426411
 20
-2352.0534549627951
 30
0.0
 11
224.64383719426411
 21
-2350.0534549627951
 31
0.0
  0
TEXT
  5
B416
  8
1DIM
 10
285.99608159918341
 20
-2545.5051865549672
 30
0.0
 40
3.5
  1
77.5
  0
LINE
  5
B417
  8
0
  6
BYBLOCK
 10
328.09608159918389
 20
-2545.6692881749668
 30
0.0
 11
330.09608159918389
 21
-2546.205186554967
 31
0.0
  0
LINE
  5
B418
  8
0
  6
BYBLOCK
 10
330.09608159918389
 20
-2546.205186554967
 30
0.0
 11
328.09608159918389
 21
-2546.7410849349671
 31
0.0
  0
LINE
  5
B419
  8
0
  6
BYBLOCK
 10
330.09608159918389
 20
-2546.205186554967
 30
0.0
 11
328.09608159918389
 21
-2546.205186554967
 31
0.0
  0
LINE
  5
B41A
  8
0
  6
BYBLOCK
 10
254.39608159918291
 20
-2546.7410849349671
 30
0.0
 11
252.39608159918291
 21
-2546.205186554967
 31
0.0
  0
LINE
  5
B41B
  8
0
  6
BYBLOCK
 10
252.39608159918291
 20
-2546.205186554967
 30
0.0
 11
254.39608159918291
 21
-2545.6692881749668
 31
0.0
  0
LINE
  5
B41C
  8
0
  6
BYBLOCK
 10
252.39608159918291
 20
-2546.205186554967
 30
0.0
 11
254.39608159918291
 21
-2546.205186554967
 31
0.0
  0
TEXT
  5
B41D
  8
1DIM
 10
320.16274826585021
 20
-2310.899310070874
 30
0.0
 40
3.5
  1
11.5
  0
LINE
  5
B41E
  8
0
  6
BYBLOCK
 10
320.39608159918322
 20
-2312.1352084508731
 30
0.0
 11
318.39608159918322
 21
-2311.5993100708738
 31
0.0
  0
LINE
  5
B41F
  8
0
  6
BYBLOCK
 10
318.39608159918322
 20
-2311.5993100708738
 30
0.0
 11
320.39608159918322
 21
-2311.0634116908732
 31
0.0
  0
LINE
  5
B420
  8
0
  6
BYBLOCK
 10
318.39608159918322
 20
-2311.5993100708738
 30
0.0
 11
320.39608159918322
 21
-2311.5993100708738
 31
0.0
  0
LINE
  5
B421
  8
0
  6
BYBLOCK
 10
328.09608159918389
 20
-2311.0634116908732
 30
0.0
 11
330.09608159918389
 21
-2311.5993100708738
 31
0.0
  0
LINE
  5
B422
  8
0
  6
BYBLOCK
 10
330.09608159918389
 20
-2311.5993100708738
 30
0.0
 11
328.09608159918389
 21
-2312.1352084508731
 31
0.0
  0
LINE
  5
B423
  8
0
  6
BYBLOCK
 10
330.09608159918389
 20
-2311.5993100708738
 30
0.0
 11
328.09608159918389
 21
-2311.5993100708738
 31
0.0
  0
VIEWPORT
  5
57
 67
     1
  8
0
 10
101.0799916993316
 20
12.3463667996557
 30
0.0
 40
633.33631265210613
 41
290.90532326901831
 68
     1
 69
     1
1001
ACAD
1000
MVIEW
1002
{
1070
    16
1010
0.0
1020
0.0
1030
0.0
1010
0.0
1020
0.0
1030
1.0
1040
0.0
1040
290.90532326901831
1040
101.0799916993316
1040
12.3463667996557
1040
50.0
1040
0.0
1040
0.0
1070
     0
1070
   100
1070
     1
1070
     1
1070
     0
1070
     0
1070
     0
1070
     0
1040
0.0
1040
0.0
1040
0.0
1040
10.0
1040
10.0
1040
10.0
1040
10.0
1070
     0
1002
{
1002
}
1002
}
  0
ENDSEC
  0
EOF
