  0
SECTION
  2
HEADER
  9
$ACADVER
  1
AC1009
  9
$DWGCODEPAGE
  3
ansi_932
  9
$INSBASE
 10
0.0
 20
0.0
 30
0.0
  9
$EXTMIN
 10
54.95424094443399
 20
-2491.395460992459
 30
0.0
  9
$EXTMAX
 10
372.2350251723101
 20
-2324.302387377089
 30
0.0
  9
$LIMMIN
 10
0.0
 20
0.0
  9
$LIMMAX
 10
420.0
 20
297.0
  9
$ORTHOMODE
 70
     0
  9
$REGENMODE
 70
     1
  9
$FILLMODE
 70
     1
  9
$QTEXTMODE
 70
     0
  9
$MIRRTEXT
 70
     0
  9
$DRAGMODE
 70
     2
  9
$LTSCALE
 40
0.5
  9
$OSMODE
 70
 14591
  9
$ATTMODE
 70
     1
  9
$TEXTSIZE
 40
4.0
  9
$TRACEWID
 40
1.0
  9
$TEXTSTYLE
  7
STANDARD
  9
$CLAYER
  8
1TEXT
  9
$CELTYPE
  6
BYLAYER
  9
$CECOLOR
 62
   256
  9
$DIMSCALE
 40
1.0
  9
$DIMASZ
 40
2.0
  9
$DIMEXO
 40
0.0
  9
$DIMDLI
 40
7.0
  9
$DIMRND
 40
0.0
  9
$DIMDLE
 40
0.0
  9
$DIMEXE
 40
1.0
  9
$DIMTP
 40
0.0
  9
$DIMTM
 40
0.0
  9
$DIMTXT
 40
3.5
  9
$DIMCEN
 40
0.0
  9
$DIMTSZ
 40
0.0
  9
$DIMTOL
 70
     0
  9
$DIMLIM
 70
     0
  9
$DIMTIH
 70
     0
  9
$DIMTOH
 70
     0
  9
$DIMSE1
 70
     0
  9
$DIMSE2
 70
     0
  9
$DIMTAD
 70
     1
  9
$DIMZIN
 70
     8
  9
$DIMBLK
  1

  9
$DIMASO
 70
     1
  9
$DIMSHO
 70
     1
  9
$DIMPOST
  1
 
  9
$DIMAPOST
  1

  9
$DIMALT
 70
     0
  9
$DIMALTD
 70
     2
  9
$DIMALTF
 40
25.4
  9
$DIMLFAC
 40
1.0
  9
$DIMTOFL
 70
     1
  9
$DIMTVP
 40
0.0
  9
$DIMTIX
 70
     0
  9
$DIMSOXD
 70
     0
  9
$DIMSAH
 70
     1
  9
$DIMBLK1
  1
OPEN30
  9
$DIMBLK2
  1
OPEN30
  9
$DIMSTYLE
  2
NEWX10
  9
$DIMCLRD
 70
   256
  9
$DIMCLRE
 70
   256
  9
$DIMCLRT
 70
   201
  9
$DIMTFAC
 40
0.7
  9
$DIMGAP
 40
0.7
  9
$LUNITS
 70
     2
  9
$LUPREC
 70
     4
  9
$SKETCHINC
 40
1.0
  9
$FILLETRAD
 40
0.0
  9
$AUNITS
 70
     0
  9
$AUPREC
 70
     2
  9
$MENU
  1
acad
  9
$ELEVATION
 40
0.0
  9
$PELEVATION
 40
0.0
  9
$THICKNESS
 40
0.0
  9
$LIMCHECK
 70
     0
  9
$CHAMFERA
 40
10.0
  9
$CHAMFERB
 40
10.0
  9
$SKPOLY
 70
     0
  9
$TDCREATE
 40
2453033.732663484
  9
$TDUPDATE
 40
2459825.427412431
  9
$TDINDWG
 40
1.7120363079
  9
$TDUSRTIMER
 40
1.7120363079
  9
$USRTIMER
 70
     1
  9
$ANGBASE
 50
0.0
  9
$ANGDIR
 70
     0
  9
$PDMODE
 70
     0
  9
$PDSIZE
 40
0.0
  9
$PLINEWID
 40
0.0
  9
$COORDS
 70
     2
  9
$SPLFRAME
 70
     0
  9
$SPLINETYPE
 70
     6
  9
$SPLINESEGS
 70
     8
  9
$ATTDIA
 70
     0
  9
$ATTREQ
 70
     1
  9
$HANDLING
 70
     1
  9
$HANDSEED
  5
1B63A
  9
$SURFTAB1
 70
     6
  9
$SURFTAB2
 70
     6
  9
$SURFTYPE
 70
     6
  9
$SURFU
 70
     6
  9
$SURFV
 70
     6
  9
$UCSNAME
  2

  9
$UCSORG
 10
0.0
 20
0.0
 30
0.0
  9
$UCSXDIR
 10
1.0
 20
0.0
 30
0.0
  9
$UCSYDIR
 10
0.0
 20
1.0
 30
0.0
  9
$PUCSNAME
  2

  9
$PUCSORG
 10
0.0
 20
0.0
 30
0.0
  9
$PUCSXDIR
 10
1.0
 20
0.0
 30
0.0
  9
$PUCSYDIR
 10
0.0
 20
1.0
 30
0.0
  9
$USERI1
 70
     0
  9
$USERI2
 70
     0
  9
$USERI3
 70
     0
  9
$USERI4
 70
     0
  9
$USERI5
 70
     0
  9
$USERR1
 40
0.0
  9
$USERR2
 40
0.0
  9
$USERR3
 40
0.0
  9
$USERR4
 40
0.0
  9
$USERR5
 40
0.0
  9
$WORLDVIEW
 70
     1
  9
$SHADEDGE
 70
     3
  9
$SHADEDIF
 70
    70
  9
$TILEMODE
 70
     1
  9
$MAXACTVP
 70
    48
  9
$PLIMCHECK
 70
     0
  9
$PEXTMIN
 10
1.000000000000000E+20
 20
1.000000000000000E+20
 30
1.000000000000000E+20
  9
$PEXTMAX
 10
-1.000000000000000E+20
 20
-1.000000000000000E+20
 30
-1.000000000000000E+20
  9
$PLIMMIN
 10
0.0
 20
0.0
  9
$PLIMMAX
 10
420.0
 20
297.0
  9
$UNITMODE
 70
     0
  9
$VISRETAIN
 70
     1
  9
$PLINEGEN
 70
     0
  9
$PSLTSCALE
 70
     1
  0
ENDSEC
  0
SECTION
  2
TABLES
  0
TABLE
  2
VPORT
 70
     1
  0
VPORT
  2
*ACTIVE
 70
     0
 10
0.0
 20
0.0
 11
1.0
 21
1.0
 12
213.594633058372
 22
-2407.848924184775
 13
0.0
 23
0.0
 14
10.0
 24
10.0
 15
10.0
 25
10.0
 16
0.0
 26
0.0
 36
1.0
 17
0.0
 27
0.0
 37
0.0
 40
182.5040681473396
 41
1.866585067319462
 42
50.0
 43
0.0
 44
0.0
 50
0.0
 51
0.0
 71
     0
 72
   100
 73
     1
 74
     1
 75
     0
 76
     0
 77
     0
 78
     0
  0
ENDTAB
  0
TABLE
  2
LTYPE
 70
    15
  0
LTYPE
  2
CONTINUOUS
 70
     0
  3
Solid line
 72
    65
 73
     0
 40
0.0
  0
LTYPE
  2
CENTER2
 70
     0
  3
Center (.5x) ___ _ ___ _ ___ _ ___ _ ___ _ ___
 72
    65
 73
     4
 40
28.575
 49
19.05
 49
-3.175
 49
3.175
 49
-3.175
  0
LTYPE
  2
XREF1|CENTER2
 70
    16
  3
Center (.5x) ___ _ ___ _ ___ _ ___ _ ___ _ ___
 72
    65
 73
     4
 40
28.575
 49
19.05
 49
-3.175
 49
3.175
 49
-3.175
  0
LTYPE
  2
PHANTOM2
 70
     0
  3
Phantom (0.5x) ___ _ _ ___ _ _ ___ _ _ ___ _ _
 72
    65
 73
     6
 40
31.75
 49
15.875
 49
-3.175
 49
3.175
 49
-3.175
 49
3.175
 49
-3.175
  0
ENDTAB
  0
TABLE
  2
LAYER
 70
    42
  0
LAYER
  2
0
 70
     0
 62
     7
  6
CONTINUOUS
  0
LAYER
  2
1CENTER
 70
     0
 62
     7
  6
CENTER2
  0
LAYER
  2
1TEXT
 70
     0
 62
     7
  6
CONTINUOUS
  0
LAYER
  2
DEFPOINTS
 70
     0
 62
     7
  6
CONTINUOUS
  0
LAYER
  2
1DIM
 70
     0
 62
     7
  6
CONTINUOUS
  0
LAYER
  2
1PHANTOM
 70
     0
 62
     7
  6
PHANTOM2
  0
LAYER
  2
01
 70
     0
 62
     1
  6
CONTINUOUS
  0
LAYER
  2
1HATCH
 70
     0
 62
     7
  6
CONTINUOUS
  0
LAYER
  2
THICK
 70
     0
 62
     7
  6
CONTINUOUS
  0
ENDTAB
  0
TABLE
  2
STYLE
 70
    22
  0
STYLE
  2
STANDARD
 70
     0
 40
0.0
 41
1.0
 50
0.0
 71
     0
 42
4.0
  3
txt.shx
  4
extfont.shx
  0
STYLE
  2
XREF1|STANDARD
 70
    16
 40
0.0
 41
1.0
 50
0.0
 71
     0
 42
4.0
  3
romans.shx
  4
extfont.shx
  0
ENDTAB
  0
TABLE
  2
VIEW
 70
     0
  0
ENDTAB
  0
TABLE
  2
UCS
 70
     0
  0
ENDTAB
  0
TABLE
  2
APPID
 70
    13
  0
APPID
  2
ACAD
 70
     0
  0
APPID
  2
DRAWINGVARIABLESXDATA
 70
     0
  0
APPID
  2
CONTENTTABDATA
 70
     0
  0
APPID
  2
CONTENTCURRENTTAB
 70
     0
  0
APPID
  2
CONTENTBLOCKDESCRIPTION
 70
     0
  0
APPID
  2
CONTENTBLOCKICON
 70
     0
  0
APPID
  2
CONTENTLONGBLOCKNAME
 70
     0
  0
APPID
  2
ACAD_PSEXT
 70
     0
  0
APPID
  2
ACAD_DSTYLE_DIMTEXT_FILL
 70
     0
  0
APPID
  2
ACAD_MLEADERVER
 70
     0
  0
APPID
  2
ACADANNOTATIVE
 70
     0
  0
APPID
  2
ACDBBLOCKREPETAG
 70
     0
  0
APPID
  2
ACAD_OBJECT_CHANGE_GUID
 70
     0
  0
ENDTAB
  0
TABLE
  2
DIMSTYLE
 70
     5
  0
DIMSTYLE
  2
NEWX10
 70
     0
  3
 
  4

  5

  6
OPEN30
  7
OPEN30
 40
1.0
 41
2.0
 42
0.0
 43
7.0
 44
1.0
 45
0.0
 46
0.0
 47
0.0
 48
0.0
140
3.5
141
0.0
142
0.0
143
25.4
144
1.0
145
0.0
146
0.7
147
0.7
 71
     0
 72
     0
 73
     0
 74
     0
 75
     0
 76
     0
 77
     1
 78
     8
170
     0
171
     2
172
     1
173
     1
174
     0
175
     0
176
   256
177
   256
178
   201
  0
ENDTAB
  0
ENDSEC
  0
SECTION
  2
BLOCKS
  0
BLOCK
  8
0
  2
$MODEL_SPACE
 70
     0
 10
0.0
 20
0.0
 30
0.0
  3
$MODEL_SPACE
  1

  0
ENDBLK
  5
1A
  8
0
  0
BLOCK
 67
     1
  8
0
  2
$PAPER_SPACE
 70
     0
 10
0.0
 20
0.0
 30
0.0
  3
$PAPER_SPACE
  1

  0
ENDBLK
  5
17
 67
     1
  8
0
  0
BLOCK
  8
0
  2
_OPEN30
 70
     0
 10
0.0
 20
0.0
 30
0.0
  3
_OPEN30
  1

  0
LINE
  5
44
  8
0
  6
BYBLOCK
 62
     0
 10
-1.0
 20
0.26794919
 30
0.0
 11
0.0
 21
0.0
 31
0.0
  0
LINE
  5
45
  8
0
  6
BYBLOCK
 62
     0
 10
0.0
 20
0.0
 30
0.0
 11
-1.0
 21
-0.26794919
 31
0.0
  0
LINE
  5
46
  8
0
  6
BYBLOCK
 62
     0
 10
0.0
 20
0.0
 30
0.0
 11
-1.0
 21
0.0
 31
0.0
  0
ENDBLK
  5
47
  8
0
  0
BLOCK
  8
0
  2
XREF1
 70
     4
 10
0.0
 20
0.0
 30
0.0
  3
XREF1
  1
D:\ACLT\FORMAT\KAWAJUN(9)図面用.dwg
  0
ENDBLK
  5
5D
  8
0
  0
BLOCK
  8
0
  2
部品表枠
 70
     0
 10
0.0
 20
0.0
 30
0.0
  3
部品表枠
  1

  0
LINE
  5
525
  8
THICK
 10
0.0000276283344682
 20
0.0000042971153675
 30
0.0
 11
0.0000276283344682
 21
7.000004297115368
 31
0.0
  0
LINE
  5
526
  8
0
 10
0.0000276283344682
 20
7.000004297115368
 30
0.0
 11
170.0000276283345
 21
7.000004297115368
 31
0.0
  0
LINE
  5
527
  8
0
 10
8.000027628334468
 20
7.000004297115368
 30
0.0
 11
8.000027628334468
 21
0.0000042971153675
 31
0.0
  0
LINE
  5
528
  8
0
 10
38.00002762833446
 20
7.000004297115368
 30
0.0
 11
38.00002762833446
 21
0.0000042971153675
 31
0.0
  0
LINE
  5
529
  8
0
 10
88.00002762833446
 20
7.000004297115368
 30
0.0
 11
88.00002762833446
 21
0.0000042971153675
 31
0.0
  0
LINE
  5
52A
  8
0
 10
96.00002762833446
 20
7.000004297115368
 30
0.0
 11
96.00002762833446
 21
0.0000042971153675
 31
0.0
  0
LINE
  5
52B
  8
0
 10
131.0000276283345
 20
7.000004297115368
 30
0.0
 11
131.0000276283345
 21
0.0000042971153675
 31
0.0
  0
ENDBLK
  5
52C
  8
0
  0
BLOCK
  8
0
  2
*D9
 70
     1
 10
0.0
 20
0.0
 30
0.0
  3
*D9
  1

  0
LINE
  5
68F
  8
0
  6
BYBLOCK
 10
-58.26387776171523
 20
1.361463227742888
 30
0.0
 11
-64.67124579898496
 21
-5.965433292118185
 31
0.0
  0
LINE
  5
690
  8
0
  6
BYBLOCK
 10
-70.59586692933682
 20
-12.7403033618524
 30
0.0
 11
-71.91244940274841
 21
-14.24583004401563
 31
0.0
  0
TEXT
  5
691
  8
0
  6
CONTINUOUS
 62
   201
 10
-63.79382549943639
 20
-3.898734298783332
 30
0.0
 40
3.5
  1
φ5
 50
48.8303173665042
  0
LINE
  5
692
  8
0
  6
BYBLOCK
 10
-69.27928445592524
 20
-11.23477667968916
 30
0.0
 11
-65.98782827239654
 21
-7.470959974281413
 31
0.0
  0
INSERT
  5
693
  8
0
  6
BYBLOCK
  2
_OPEN30
 10
-69.27928445592524
 20
-11.23477667968916
 30
0.0
 41
2.0
 42
2.0
 43
2.0
 50
48.83031736650419
  0
INSERT
  5
694
  8
0
  6
BYBLOCK
  2
_OPEN30
 10
-65.98782827239654
 20
-7.470959974281413
 30
0.0
 41
2.0
 42
2.0
 43
2.0
 50
228.8303173665042
  0
POINT
  5
695
  8
DEFPOINTS
  6
BYBLOCK
 62
     0
 10
-65.98782827239654
 20
-7.470959974281413
 30
0.0
  0
POINT
  5
696
  8
DEFPOINTS
  6
BYBLOCK
 62
     0
 10
-69.27928445592524
 20
-11.23477667968916
 30
0.0
  0
ENDBLK
  5
697
  8
0
  0
BLOCK
  8
0
  2
A3WAKUKAWAJUN2017_HYOUDAI_
 70
     0
 10
0.0
 20
0.0
 30
0.0
  3
A3WAKUKAWAJUN2017_HYOUDAI_
  1

  0
LINE
  5
1AA89
  8
0
 10
13.26299999998673
 20
-0.0001000000000317
 30
0.0
 11
9.236999999990758
 21
8.999899999990987
 31
0.0
1001
ACAD
1000
ASC_BOUNDS
1002
{
1070
    19
1005
1AACA
1002
}
  0
LINE
  5
1AA8A
  8
0
 10
5.657999999994331
 20
0.9999999999989768
 30
0.0
 11
9.236999999990758
 21
8.999999999991019
 31
0.0
1001
ACAD
1000
ASC_BOUNDS
1002
{
1070
    19
1005
1AACA
1002
}
  0
LINE
  5
1AA8B
  8
0
 10
18.59199999998134
 20
-0.2368999999997641
 30
0.0
 11
16.46099999998353
 21
5.432899999994561
 31
0.0
1001
ACAD
1000
ASC_BOUNDS
1002
{
1070
    19
1005
1AACB
1002
}
  0
LINE
  5
1AA8C
  8
0
 10
18.59199999998134
 20
-0.2368999999997641
 30
0.0
 11
22.38199999997767
 21
8.763099999991255
 31
0.0
1001
ACAD
1000
ASC_BOUNDS
1002
{
1070
    19
1005
1AACB
1002
}
  0
LINE
  5
1AA8D
  8
0
 10
14.32899999998563
 20
-0.2368999999997641
 30
0.0
 11
16.46099999998353
 21
5.432899999994561
 31
0.0
1001
ACAD
1000
ASC_BOUNDS
1002
{
1070
    19
1005
1AACB
1002
}
  0
LINE
  5
1AA8E
  8
0
 10
14.32899999998563
 20
-0.2368999999997641
 30
0.0
 11
10.53899999998941
 21
8.763099999991255
 31
0.0
1001
ACAD
1000
ASC_BOUNDS
1002
{
1070
    19
1005
1AACB
1002
}
  0
LINE
  5
1AA8F
  8
0
 10
19.53899999998043
 20
-0.0001000000000317
 30
0.0
 11
23.56599999997638
 21
8.999899999990987
 31
0.0
1001
ACAD
1000
ASC_BOUNDS
1002
{
1070
    19
1005
1AACC
1002
}
  0
LINE
  5
1AA90
  8
0
 10
26.97358892824991
 20
1.383099999991202
 30
0.0
 11
23.56599999997638
 21
8.999899999990987
 31
0.0
1001
ACAD
1000
ASC_BOUNDS
1002
{
1070
    19
1005
1AACC
1002
}
  0
LINE
  5
1AA91
  8
0
 10
5.657999999994331
 20
0.9999999999989768
 30
0.0
 11
3.181999999996833
 21
4.668599999995308
 31
0.0
1001
ACAD
1000
ASC_BOUNDS
1002
{
1070
    19
1005
1AACA
1002
}
  0
LINE
  5
1AA92
  8
0
 10
4.617999999995391
 20
-0.0001000000000317
 30
0.0
 11
1.420999999998571
 21
4.736799999995242
 31
0.0
1001
ACAD
1000
ASC_BOUNDS
1002
{
1070
    19
1005
1AACA
1002
}
  0
LINE
  5
1AA93
  8
0
 10
1.420999999998571
 20
8.763099999991255
 30
0.0
 11
1.420999999998571
 21
0.0
 31
0.0
1001
ACAD
1000
ASC_BOUNDS
1002
{
1070
    19
1005
1AACF
1002
}
  0
LINE
  5
1AA94
  8
0
 10
0.0
 20
8.763099999991255
 30
0.0
 11
0.0
 21
0.0
 31
0.0
1001
ACAD
1000
ASC_BOUNDS
1002
{
1070
    19
1005
1AACF
1002
}
  0
LINE
  5
1AA95
  8
0
 10
6.766999999993232
 20
-0.0001000000000317
 30
0.0
 11
7.826999999992154
 21
2.368399999997621
 31
0.0
1001
ACAD
1000
ASC_BOUNDS
1002
{
1070
    19
1005
1AACA
1002
}
  0
LINE
  5
1AA96
  8
0
 10
0.0
 20
0.0
 30
0.0
 11
1.420999999998571
 21
0.0
 31
0.0
1001
ACAD
1000
ASC_BOUNDS
1002
{
1070
    19
1005
1AACF
1002
}
  0
LINE
  5
1AA97
  8
0
 10
4.617999999995391
 20
0.0
 30
0.0
 11
6.766999999993232
 21
0.0
 31
0.0
1001
ACAD
1000
ASC_BOUNDS
1002
{
1070
    19
1005
1AACA
1002
}
  0
LINE
  5
1AA98
  8
0
 10
11.70599999998831
 20
-0.0001000000000317
 30
0.0
 11
10.64699999998936
 21
2.368399999997621
 31
0.0
1001
ACAD
1000
ASC_BOUNDS
1002
{
1070
    19
1005
1AACA
1002
}
  0
LINE
  5
1AA99
  8
0
 10
7.826999999992154
 20
2.368399999997621
 30
0.0
 11
10.64699999998936
 21
2.368399999997621
 31
0.0
1001
ACAD
1000
ASC_BOUNDS
1002
{
1070
    19
1005
1AACA
1002
}
  0
LINE
  5
1AA9A
  8
0
 10
11.70599999998831
 20
0.0
 30
0.0
 11
13.26299999998673
 21
0.0
 31
0.0
1001
ACAD
1000
ASC_BOUNDS
1002
{
1070
    19
1005
1AACA
1002
}
  0
LINE
  5
1AA9B
  8
0
 10
22.15599999997789
 20
2.368399999997621
 30
0.0
 11
24.97599999997499
 21
2.368399999997621
 31
0.0
1001
ACAD
1000
ASC_BOUNDS
1002
{
1070
    19
1005
1AACC
1002
}
  0
LINE
  5
1AA9C
  8
0
 10
19.53899999998043
 20
0.0
 30
0.0
 11
21.09599999997886
 21
0.0
 31
0.0
1001
ACAD
1000
ASC_BOUNDS
1002
{
1070
    19
1005
1AACC
1002
}
  0
LINE
  5
1AA9D
  8
0
 10
21.09599999997886
 20
-0.0001000000000317
 30
0.0
 11
22.15599999997789
 21
2.368399999997621
 31
0.0
1001
ACAD
1000
ASC_BOUNDS
1002
{
1070
    19
1005
1AACC
1002
}
  0
LINE
  5
1AA9E
  8
0
 10
26.02015566812236
 20
0.0330999999912365
 30
0.0
 11
24.97599999997499
 21
2.368399999997621
 31
0.0
1001
ACAD
1000
ASC_BOUNDS
1002
{
1070
    19
1005
1AACC
1002
}
  0
LINE
  5
1AA9F
  8
0
 10
14.32399999998563
 20
3.315799999996671
 30
0.0
 11
16.46099999998353
 21
8.999899999990987
 31
0.0
1001
ACAD
1000
ASC_BOUNDS
1002
{
1070
    19
1005
1AACB
1002
}
  0
LINE
  5
1AAA0
  8
0
 10
6.432999999993513
 20
8.763099999991255
 30
0.0
 11
3.181999999996833
 21
4.668599999995308
 31
0.0
1001
ACAD
1000
ASC_BOUNDS
1002
{
1070
    19
1005
1AACA
1002
}
  0
LINE
  5
1AAA1
  8
0
 10
4.617999999995391
 20
8.763099999991255
 30
0.0
 11
1.420999999998571
 21
4.736799999995242
 31
0.0
1001
ACAD
1000
ASC_BOUNDS
1002
{
1070
    19
1005
1AACA
1002
}
  0
LINE
  5
1AAA2
  8
0
 10
0.0
 20
8.763099999991255
 30
0.0
 11
1.420999999998571
 21
8.763099999991255
 31
0.0
1001
ACAD
1000
ASC_BOUNDS
1002
{
1070
    19
1005
1AACF
1002
}
  0
LINE
  5
1AAA3
  8
0
 10
4.617999999995391
 20
8.763099999991255
 30
0.0
 11
6.432999999993513
 21
8.763099999991255
 31
0.0
1001
ACAD
1000
ASC_BOUNDS
1002
{
1070
    19
1005
1AACA
1002
}
  0
LINE
  5
1AAA4
  8
0
 10
14.32399999998563
 20
3.315799999996671
 30
0.0
 11
12.02999999998792
 21
8.763099999991255
 31
0.0
1001
ACAD
1000
ASC_BOUNDS
1002
{
1070
    19
1005
1AACB
1002
}
  0
LINE
  5
1AAA5
  8
0
 10
10.06399999998996
 20
3.670999999996297
 30
0.0
 11
9.236999999990758
 21
5.5200999999945
 31
0.0
1001
ACAD
1000
ASC_BOUNDS
1002
{
1070
    19
1005
1AACA
1002
}
  0
LINE
  5
1AAA6
  8
0
 10
8.409999999991555
 20
3.670999999996297
 30
0.0
 11
9.236999999990758
 21
5.5200999999945
 31
0.0
1001
ACAD
1000
ASC_BOUNDS
1002
{
1070
    19
1005
1AACA
1002
}
  0
LINE
  5
1AAA7
  8
0
 10
8.409999999991555
 20
3.670999999996297
 30
0.0
 11
10.06399999998996
 21
3.670999999996297
 31
0.0
1001
ACAD
1000
ASC_BOUNDS
1002
{
1070
    19
1005
1AACA
1002
}
  0
LINE
  5
1AAA8
  8
0
 10
10.53899999998941
 20
8.763099999991255
 30
0.0
 11
12.02999999998792
 21
8.763099999991255
 31
0.0
1001
ACAD
1000
ASC_BOUNDS
1002
{
1070
    19
1005
1AACB
1002
}
  0
LINE
  5
1AAA9
  8
0
 10
22.7389999999773
 20
3.670999999996297
 30
0.0
 11
23.56599999997638
 21
5.5200999999945
 31
0.0
1001
ACAD
1000
ASC_BOUNDS
1002
{
1070
    19
1005
1AACC
1002
}
  0
LINE
  5
1AAAA
  8
0
 10
22.7389999999773
 20
3.670999999996297
 30
0.0
 11
24.39299999997559
 21
3.670999999996297
 31
0.0
1001
ACAD
1000
ASC_BOUNDS
1002
{
1070
    19
1005
1AACC
1002
}
  0
LINE
  5
1AAAB
  8
0
 10
18.59799999998143
 20
3.315799999996671
 30
0.0
 11
20.89099999997916
 21
8.763099999991255
 31
0.0
1001
ACAD
1000
ASC_BOUNDS
1002
{
1070
    19
1005
1AACB
1002
}
  0
LINE
  5
1AAAC
  8
0
 10
18.59799999998143
 20
3.315799999996671
 30
0.0
 11
16.46099999998353
 21
8.999899999990987
 31
0.0
1001
ACAD
1000
ASC_BOUNDS
1002
{
1070
    19
1005
1AACB
1002
}
  0
LINE
  5
1AAAD
  8
0
 10
20.89099999997916
 20
8.763099999991255
 30
0.0
 11
22.38199999997767
 21
8.763099999991255
 31
0.0
1001
ACAD
1000
ASC_BOUNDS
1002
{
1070
    19
1005
1AACB
1002
}
  0
LINE
  5
1AAAE
  8
0
 10
24.39299999997559
 20
3.670999999996297
 30
0.0
 11
23.56599999997638
 21
5.5200999999945
 31
0.0
1001
ACAD
1000
ASC_BOUNDS
1002
{
1070
    19
1005
1AACC
1002
}
  0
LINE
  5
1AAAF
  8
0
 10
44.99999999995498
 20
-0.2368999999997641
 30
0.0
 11
40.02599999995994
 21
5.341799999994635
 31
0.0
1001
ACAD
1000
ASC_BOUNDS
1002
{
1070
    19
1005
1AACE
1002
}
  0
LINE
  5
1AAB0
  8
0
 10
40.02599999995994
 20
5.341799999994635
 30
0.0
 11
40.02599999995994
 21
0.0
 31
0.0
1001
ACAD
1000
ASC_BOUNDS
1002
{
1070
    19
1005
1AACE
1002
}
  0
LINE
  5
1AAB1
  8
0
 10
38.60499999996136
 20
8.999999999991019
 30
0.0
 11
38.60499999996136
 21
0.0
 31
0.0
1001
ACAD
1000
ASC_BOUNDS
1002
{
1070
    19
1005
1AACE
1002
}
  0
LINE
  5
1AAB2
  8
0
 10
44.99999999995498
 20
8.763099999991255
 30
0.0
 11
44.99999999995498
 21
-0.2368999999997641
 31
0.0
1001
ACAD
1000
ASC_BOUNDS
1002
{
1070
    19
1005
1AACE
1002
}
  0
LINE
  5
1AAB3
  8
0
 10
38.60499999996136
 20
0.0
 30
0.0
 11
40.02599999995994
 21
0.0
 31
0.0
1001
ACAD
1000
ASC_BOUNDS
1002
{
1070
    19
1005
1AACE
1002
}
  0
LINE
  5
1AAB4
  8
0
 10
43.57899999995641
 20
3.421199999996588
 30
0.0
 11
38.60499999996136
 21
8.999899999990987
 31
0.0
1001
ACAD
1000
ASC_BOUNDS
1002
{
1070
    19
1005
1AACE
1002
}
  0
LINE
  5
1AAB5
  8
0
 10
43.57899999995641
 20
8.763099999991255
 30
0.0
 11
43.57899999995641
 21
3.421199999996588
 31
0.0
1001
ACAD
1000
ASC_BOUNDS
1002
{
1070
    19
1005
1AACE
1002
}
  0
LINE
  5
1AAB6
  8
0
 10
43.57899999995641
 20
8.763099999991255
 30
0.0
 11
44.99999999995498
 21
8.763099999991255
 31
0.0
1001
ACAD
1000
ASC_BOUNDS
1002
{
1070
    19
1005
1AACE
1002
}
  0
LINE
  5
1AAB7
  8
0
 10
37.67199999996831
 20
8.763099999991255
 30
0.0
 11
36.23199999996837
 21
8.763099999991255
 31
0.0
  0
LINE
  5
1AAB8
  8
0
 10
31.64199999996833
 20
8.763099999991255
 30
0.0
 11
31.64199999996833
 21
2.481619422925121
 31
0.0
  0
LINE
  5
1AAB9
  8
0
 10
37.67199999996831
 20
8.763099999991255
 30
0.0
 11
37.67199999996831
 21
2.481619422925121
 31
0.0
  0
LINE
  5
1AABA
  8
0
 10
36.23199999996837
 20
8.763099999991255
 30
0.0
 11
36.23199999996837
 21
2.481619422925064
 31
0.0
  0
LINE
  5
1AABB
  8
0
 10
33.08199999996839
 20
8.763099999991255
 30
0.0
 11
33.08199999996839
 21
2.481619422925121
 31
0.0
  0
ARC
  5
1AABC
  8
0
 10
34.65699999996832
 20
3.183099999991214
 30
0.0
 40
3.420000000000007
 50
240.0000000000255
 51
299.9999999999766
  0
ARC
  5
1AABD
  8
0
 10
34.65699999996832
 20
3.183099999991214
 30
0.0
 40
1.97999999999999
 50
240.000000000026
 51
299.9999999999703
  0
LINE
  5
1AABE
  8
0
 10
33.08199999996828
 20
8.763099999991255
 30
0.0
 11
31.64199999996833
 21
8.763099999991255
 31
0.0
  0
ARC
  5
1AABF
  8
0
 10
35.06199999996829
 20
2.481619422925064
 30
0.0
 40
1.17
 50
299.9999999999699
 51
0.0
  0
ARC
  5
1AAC0
  8
0
 10
34.25199999996835
 20
2.481619422925121
 30
0.0
 40
1.17
 50
180.0
 51
240.0000000000238
  0
ARC
  5
1AAC1
  8
0
 10
35.06199999996841
 20
2.481619422925121
 30
0.0
 40
2.61
 50
299.9999999999756
 51
0.0
  0
ARC
  5
1AAC2
  8
0
 10
34.25199999996835
 20
2.481619422925121
 30
0.0
 40
2.61
 50
180.0
 51
240.0000000000244
  0
LINE
  5
1AAC3
  8
0
 10
29.30199999996933
 20
8.763099999991255
 30
0.0
 11
30.74199999996927
 21
8.763099999991255
 31
0.0
1001
ACAD
1000
ASC_BOUNDS
1002
{
1070
    19
1005
1AACC
1002
}
  0
LINE
  5
1AAC4
  8
0
 10
30.74199999996927
 20
8.763099999991255
 30
0.0
 11
30.74199999996927
 21
2.373099999991211
 31
0.0
1001
ACAD
1000
ASC_BOUNDS
1002
{
1070
    19
1005
1AACC
1002
}
  0
LINE
  5
1AAC5
  8
0
 10
26.02015566812236
 20
0.0330999999912365
 30
0.0
 11
28.40199999996923
 21
0.0330999999912365
 31
0.0
1001
ACAD
1000
ASC_BOUNDS
1002
{
1070
    19
1005
1AACC
1002
}
  0
LINE
  5
1AAC6
  8
0
 10
29.30199999996933
 20
8.763099999991255
 30
0.0
 11
29.30199999996933
 21
2.283099999991236
 31
0.0
1001
ACAD
1000
ASC_BOUNDS
1002
{
1070
    19
1005
1AACC
1002
}
  0
LINE
  5
1AAC7
  8
0
 10
26.97358892824991
 20
1.383099999991202
 30
0.0
 11
28.40199999996923
 21
1.383099999991202
 31
0.0
1001
ACAD
1000
ASC_BOUNDS
1002
{
1070
    19
1005
1AACC
1002
}
  0
ARC
  5
1AAC8
  8
0
 10
28.40199999996923
 20
2.283099999991236
 30
0.0
 40
0.9
 50
270.0
 51
0.0
1001
ACAD
1000
ASC_BOUNDS
1002
{
1070
    19
1005
1AACC
1002
}
  0
ARC
  5
1AAC9
  8
0
 10
28.40199999996923
 20
2.373099999991211
 30
0.0
 40
2.34
 50
270.0
 51
0.0
1001
ACAD
1000
ASC_BOUNDS
1002
{
1070
    19
1005
1AACC
1002
}
  0
INSERT
  5
1AACA
  8
0
  2
*X84
 10
0.0
 20
0.0
 30
0.0
1001
ACAD
1000
HATCH
1002
{
1070
    19
1000
ANSI37
1040
0.15
1040
0.0
1000
ASC_BOUNDS
1070
     2
1070
     2
1070
    12
1005
1AA89
1005
1AA8A
1005
1AA91
1005
1AAA0
1005
1AAA3
1005
1AAA1
1005
1AA92
1005
1AA97
1005
1AA95
1005
1AA99
1005
1AA98
1005
1AA9A
1070
     2
1070
     3
1005
1AAA5
1005
1AAA7
1005
1AAA6
1000
ASC_SEEDPOINT
1011
3.614004224891801
1021
2.996669441146025
1031
0.0
1021
2.996669441146025
1031
0.0
1000
R14_HATCH_DATA
1000
1AACA
1011
1.0
1021
0.0
1031
0.0
1021
0.0
1031
0.0
1011
0.0
1021
1.0
1031
0.0
1021
1.0
1031
0.0
1011
0.0
1021
0.0
1031
1.0
1021
0.0
1031
1.0
1040
0.0
1010
0.0
1020
0.0
1030
1.0
1000
ANSI37
1070
     0
1070
     1
1071
        2
1071
        7
1070
     0
1070
     1
1071
       17
1040
13.26299999998673
1040
-0.0001000000000317
1040
9.236999999990758
1040
8.999899999990987
1040
9.236999999990758
1040
8.999999999991019
1040
5.657999999994331
1040
0.9999999999989768
1040
3.181999999996833
1040
4.668599999995308
1040
6.432999999993513
1040
8.763099999991255
1040
4.617999999995391
1040
8.763099999991255
1040
1.420999999998571
1040
4.736799999995242
1040
4.617999999995391
1040
-0.0001000000000317
1040
4.617999999995391
1040
0.0
1040
6.766999999993232
1040
0.0
1040
6.766999999993232
1040
-0.0001000000000317
1040
7.826999999992154
1040
2.368399999997621
1040
10.64699999998936
1040
2.368399999997621
1040
11.70599999998831
1040
-0.0001000000000317
1040
11.70599999998831
1040
0.0
1040
13.26299999998673
1040
0.0
1071
       12
1005
1AA89
1005
1AA8A
1005
1AA91
1005
1AAA0
1005
1AAA3
1005
1AAA1
1005
1AA92
1005
1AA97
1005
1AA95
1005
1AA99
1005
1AA98
1005
1AA9A
1071
       22
1070
     0
1070
     1
1071
        3
1040
9.236999999990758
1040
5.5200999999945
1040
10.06399999998996
1040
3.670999999996297
1040
8.409999999991555
1040
3.670999999996297
1071
        3
1005
1AAA5
1005
1AAA7
1005
1AAA6
1070
     0
1070
     1
1040
0.0
1040
0.15
1070
     0
1070
     2
1040
0.7853981633974483
1040
49.29960901727088
1040
-10.17736998311392
1040
-0.3367596045400932
1040
0.3367596045400932
1070
     0
1040
2.356194490192345
1040
49.29960901727088
1040
-10.17736998311392
1040
-0.3367596045400932
1040
-0.3367596045400932
1070
     0
1040
0.0110235143455945
1071
        2
1040
3.614004224891801
1040
2.996669441146025
1040
0.0
1040
3.614004224891801
1040
2.996669441146025
1040
0.0
1002
}
  0
INSERT
  5
1AACB
  8
0
  2
*X85
 10
0.0
 20
0.0
 30
0.0
1001
ACAD
1000
HATCH
1002
{
1070
    19
1000
ANSI37
1040
0.15
1040
0.0
1000
ASC_BOUNDS
1070
     1
1070
     2
1070
    10
1005
1AA8B
1005
1AA8C
1005
1AAAD
1005
1AAAB
1005
1AAAC
1005
1AA9F
1005
1AAA4
1005
1AAA8
1005
1AA8E
1005
1AA8D
1000
ASC_SEEDPOINT
1011
14.73245321214324
1021
2.798246178283421
1031
0.0
1021
2.798246178283421
1031
0.0
1000
R14_HATCH_DATA
1000
1AACB
1011
1.0
1021
0.0
1031
0.0
1021
0.0
1031
0.0
1011
0.0
1021
1.0
1031
0.0
1021
1.0
1031
0.0
1011
0.0
1021
0.0
1031
1.0
1021
0.0
1031
1.0
1040
0.0
1010
0.0
1020
0.0
1030
1.0
1000
ANSI37
1070
     0
1070
     1
1071
        1
1071
        7
1070
     0
1070
     1
1071
       10
1040
16.46099999998353
1040
5.432899999994561
1040
18.59199999998134
1040
-0.2368999999997641
1040
22.38199999997767
1040
8.763099999991255
1040
20.89099999997916
1040
8.763099999991255
1040
18.59799999998143
1040
3.315799999996671
1040
16.46099999998353
1040
8.999899999990987
1040
14.32399999998563
1040
3.315799999996671
1040
12.02999999998792
1040
8.763099999991255
1040
10.53899999998941
1040
8.763099999991255
1040
14.32899999998563
1040
-0.2368999999997641
1071
       10
1005
1AA8B
1005
1AA8C
1005
1AAAD
1005
1AAAB
1005
1AAAC
1005
1AA9F
1005
1AAA4
1005
1AAA8
1005
1AA8E
1005
1AA8D
1070
     0
1070
     1
1040
0.0
1040
0.15
1070
     0
1070
     2
1040
0.7853981633974483
1040
49.29960901727088
1040
-10.17736998311392
1040
-0.3367596045400932
1040
0.3367596045400932
1070
     0
1040
2.356194490192345
1040
49.29960901727088
1040
-10.17736998311392
1040
-0.3367596045400932
1040
-0.3367596045400932
1070
     0
1040
0.0110235143455945
1071
        1
1040
14.73245321214324
1040
2.798246178283421
1040
0.0
1002
}
  0
INSERT
  5
1AACC
  8
0
  2
*X86
 10
0.0
 20
0.0
 30
0.0
1001
ACAD
1000
HATCH
1002
{
1070
    19
1000
ANSI37
1040
0.15
1040
0.0
1000
ASC_BOUNDS
1070
     2
1070
     2
1070
    13
1005
1AA8F
1005
1AA9C
1005
1AA9D
1005
1AA9B
1005
1AA9E
1005
1AAC5
1005
1AAC9
1005
1AAC4
1005
1AAC3
1005
1AAC6
1005
1AAC8
1005
1AAC7
1005
1AA90
1070
     2
1070
     3
1005
1AAA9
1005
1AAAE
1005
1AAAA
1000
ASC_SEEDPOINT
1011
21.97929957367762
1021
3.294304244259308
1031
0.0
1021
3.294304244259308
1031
0.0
1000
R14_HATCH_DATA
1000
1AACC
1011
1.0
1021
0.0
1031
0.0
1021
0.0
1031
0.0
1011
0.0
1021
1.0
1031
0.0
1021
1.0
1031
0.0
1011
0.0
1021
0.0
1031
1.0
1021
0.0
1031
1.0
1040
0.0
1010
0.0
1020
0.0
1030
1.0
1000
ANSI37
1070
     0
1070
     1
1071
        2
1071
        7
1070
     1
1070
     1
1071
       15
1040
23.56599999997638
1040
8.999899999990987
1040
0.0
1040
19.53899999998043
1040
-0.0001000000000317
1040
0.0
1040
19.53899999998043
1040
0.0
1040
0.0
1040
21.09599999997886
1040
0.0
1040
0.0
1040
21.09599999997886
1040
-0.0001000000000317
1040
0.0
1040
22.15599999997789
1040
2.368399999997621
1040
0.0
1040
24.97599999997499
1040
2.368399999997621
1040
0.0
1040
26.02015566812236
1040
0.0330999999912365
1040
0.0
1040
28.40199999996923
1040
0.0330999999912365
1040
0.414213562373095
1040
30.74199999996923
1040
2.373099999991211
1040
0.0
1040
30.74199999996927
1040
8.763099999991255
1040
0.0
1040
29.30199999996933
1040
8.763099999991255
1040
0.0
1040
29.30199999996933
1040
2.283099999991236
1040
-0.414213562373095
1040
28.40199999996923
1040
1.383099999991237
1040
0.0
1040
26.97358892824991
1040
1.383099999991202
1040
0.0
1071
       13
1005
1AA8F
1005
1AA9C
1005
1AA9D
1005
1AA9B
1005
1AA9E
1005
1AAC5
1005
1AAC9
1005
1AAC4
1005
1AAC3
1005
1AAC6
1005
1AAC8
1005
1AAC7
1005
1AA90
1071
       22
1070
     0
1070
     1
1071
        3
1040
22.7389999999773
1040
3.670999999996297
1040
23.56599999997638
1040
5.5200999999945
1040
24.39299999997559
1040
3.670999999996297
1071
        3
1005
1AAA9
1005
1AAAE
1005
1AAAA
1070
     0
1070
     1
1040
0.0
1040
0.15
1070
     0
1070
     2
1040
0.7853981633974483
1040
49.29960901727088
1040
-10.17736998311392
1040
-0.3367596045400932
1040
0.3367596045400932
1070
     0
1040
2.356194490192345
1040
49.29960901727088
1040
-10.17736998311392
1040
-0.3367596045400932
1040
-0.3367596045400932
1070
     0
1040
0.0110235143455945
1071
        2
1040
21.97929957367762
1040
3.294304244259308
1040
0.0
1040
21.97929957367762
1040
3.294304244259308
1040
0.0
1002
}
  0
INSERT
  5
1AACD
  8
0
  2
*X87
 10
0.0
 20
0.0
 30
0.0
1001
ACAD
1000
HATCH
1002
{
1070
    19
1000
ANSI37
1040
0.15
1040
0.0
1000
R14_HATCH_DATA
1000
1AACD
1011
1.0
1021
0.0
1031
0.0
1021
0.0
1031
0.0
1011
0.0
1021
1.0
1031
0.0
1021
1.0
1031
0.0
1011
0.0
1021
0.0
1031
1.0
1021
0.0
1031
1.0
1040
0.0
1010
0.0
1020
0.0
1030
1.0
1000
ANSI37
1070
     0
1070
     1
1071
        1
1071
        7
1070
     1
1070
     1
1071
       12
1040
31.64199999996833
1040
2.481619422925121
1040
0.2679491924310942
1040
32.94699999997067
1040
0.2212931190493919
1040
0.2679491924301353
1040
36.36699999995983
1040
0.2212931190459813
1040
0.2679491924321411
1040
37.67199999996831
1040
2.481619422928361
1040
0.0
1040
37.67199999996831
1040
8.763099999991255
1040
0.0
1040
36.23199999996837
1040
8.763099999991255
1040
0.0
1040
36.23199999996837
1040
2.481619422925064
1040
-0.2679491924310291
1040
35.64699999996708
1040
1.468369700498386
1040
-0.267949192430519
1040
33.66699999997093
1040
1.468369700497703
1040
-0.267949192431809
1040
33.08199999996839
1040
2.481619422926997
1040
0.0
1040
33.08199999996839
1040
8.763099999991255
1040
0.0
1040
31.64199999996833
1040
8.763099999991255
1040
0.0
1071
        0
1070
     0
1070
     1
1040
0.0
1040
0.15
1070
     0
1070
     2
1040
0.7853981633974483
1040
49.29960901727088
1040
-10.17736998311392
1040
-0.3367596045400932
1040
0.3367596045400932
1070
     0
1040
2.356194490192345
1040
49.29960901727088
1040
-10.17736998311392
1040
-0.3367596045400932
1040
-0.3367596045400932
1070
     0
1040
0.0110235143455945
1071
        1
1040
32.30357378967278
1040
3.988785755459219
1040
0.0
1002
}
  0
INSERT
  5
1AACE
  8
0
  2
*X88
 10
0.0
 20
0.0
 30
0.0
1001
ACAD
1000
HATCH
1002
{
1070
    19
1000
ANSI37
1040
0.15
1040
0.0
1000
ASC_BOUNDS
1070
     1
1070
     2
1070
     8
1005
1AAAF
1005
1AAB2
1005
1AAB6
1005
1AAB5
1005
1AAB4
1005
1AAB1
1005
1AAB3
1005
1AAB0
1000
ASC_SEEDPOINT
1011
39.74896370716704
1021
4.484843821435049
1031
0.0
1021
4.484843821435049
1031
0.0
1000
R14_HATCH_DATA
1000
1AACE
1011
1.0
1021
0.0
1031
0.0
1021
0.0
1031
0.0
1011
0.0
1021
1.0
1031
0.0
1021
1.0
1031
0.0
1011
0.0
1021
0.0
1031
1.0
1021
0.0
1031
1.0
1040
0.0
1010
0.0
1020
0.0
1030
1.0
1000
ANSI37
1070
     0
1070
     1
1071
        1
1071
        7
1070
     0
1070
     1
1071
        9
1040
40.02599999995994
1040
5.341799999994635
1040
44.99999999995498
1040
-0.2368999999997641
1040
44.99999999995498
1040
8.763099999991255
1040
43.57899999995641
1040
8.763099999991255
1040
43.57899999995641
1040
3.421199999996588
1040
38.60499999996136
1040
8.999899999990987
1040
38.60499999996136
1040
8.999999999991019
1040
38.60499999996136
1040
0.0
1040
40.02599999995994
1040
0.0
1071
        8
1005
1AAAF
1005
1AAB2
1005
1AAB6
1005
1AAB5
1005
1AAB4
1005
1AAB1
1005
1AAB3
1005
1AAB0
1070
     0
1070
     1
1040
0.0
1040
0.15
1070
     0
1070
     2
1040
0.7853981633974483
1040
49.29960901727088
1040
-10.17736998311392
1040
-0.3367596045400932
1040
0.3367596045400932
1070
     0
1040
2.356194490192345
1040
49.29960901727088
1040
-10.17736998311392
1040
-0.3367596045400932
1040
-0.3367596045400932
1070
     0
1040
0.0110235143455945
1071
        1
1040
39.74896370716704
1040
4.484843821435049
1040
0.0
1002
}
  0
INSERT
  5
1AACF
  8
0
  2
*X89
 10
0.0
 20
0.0
 30
0.0
1001
ACAD
1000
HATCH
1002
{
1070
    19
1000
ANSI37
1040
0.15
1040
0.0
1000
ASC_BOUNDS
1070
     1
1070
     2
1070
     4
1005
1AA93
1005
1AAA2
1005
1AA94
1005
1AA96
1000
ASC_SEEDPOINT
1011
1.079051535452663
1021
4.148538732891836
1031
0.0
1021
4.148538732891836
1031
0.0
1000
R14_HATCH_DATA
1000
1AACF
1011
1.0
1021
0.0
1031
0.0
1021
0.0
1031
0.0
1011
0.0
1021
1.0
1031
0.0
1021
1.0
1031
0.0
1011
0.0
1021
0.0
1031
1.0
1021
0.0
1031
1.0
1040
0.0
1010
0.0
1020
0.0
1030
1.0
1000
ANSI37
1070
     0
1070
     1
1071
        1
1071
        7
1070
     0
1070
     1
1071
        4
1040
1.420999999998571
1040
0.0
1040
1.420999999998571
1040
8.763099999991255
1040
0.0
1040
8.763099999991255
1040
0.0
1040
0.0
1071
        4
1005
1AA93
1005
1AAA2
1005
1AA94
1005
1AA96
1070
     0
1070
     1
1040
0.0
1040
0.15
1070
     0
1070
     2
1040
0.7853981633974483
1040
49.29960901727088
1040
-10.17736998311392
1040
-0.3367596045400932
1040
0.3367596045400932
1070
     0
1040
2.356194490192345
1040
49.29960901727088
1040
-10.17736998311392
1040
-0.3367596045400932
1040
-0.3367596045400932
1070
     0
1040
0.0053004257112761
1071
        1
1040
1.079051535452663
1040
4.148538732891836
1040
0.0
1002
}
  0
ENDBLK
  5
1B187
  8
0
  0
BLOCK
  8
0
  2
*X84
 70
     1
 10
0.0
 20
0.0
 30
0.0
  3
*X84
  1

  0
LINE
  5
1B4A1
  8
0
  6
CONTINUOUS
 10
3.418023043697893
 20
7.251849696850613
 30
0.0
 11
4.929273346838536
 21
8.763099999991255
 31
0.0
  0
LINE
  5
1B4A2
  8
0
  6
CONTINUOUS
 10
1.483656411257782
 20
4.643963855330318
 30
0.0
 11
5.60279255591872
 21
8.763099999991255
 31
0.0
  0
LINE
  5
1B4A3
  8
0
  6
CONTINUOUS
 10
1.755053947328235
 20
4.241842182320584
 30
0.0
 11
6.276311764998907
 21
8.763099999991255
 31
0.0
  0
LINE
  5
1B4A4
  8
0
  6
CONTINUOUS
 10
2.026451483398688
 20
3.839720509310849
 30
0.0
 11
4.441040904851878
 21
6.254309930764039
 31
0.0
  0
LINE
  5
1B4A5
  8
0
  6
CONTINUOUS
 10
2.297849019469139
 20
3.437598836301114
 30
0.0
 11
3.321765168359338
 21
4.461514985191313
 31
0.0
  0
LINE
  5
1B4A6
  8
0
  6
CONTINUOUS
 10
2.569246555539591
 20
3.03547716329138
 30
0.0
 11
3.593163397972743
 21
4.059394005724531
 31
0.0
  0
LINE
  5
1B4A7
  8
0
  6
CONTINUOUS
 10
2.840644091610043
 20
2.633355490281646
 30
0.0
 11
3.864561627586149
 21
3.657273026257751
 31
0.0
  0
LINE
  5
1B4A8
  8
0
  6
CONTINUOUS
 10
3.112041627680496
 20
2.231233817271911
 30
0.0
 11
4.135959857199554
 21
3.25515204679097
 31
0.0
  0
LINE
  5
1B4A9
  8
0
  6
CONTINUOUS
 10
3.383439163750948
 20
1.829112144262177
 30
0.0
 11
4.40735808681296
 21
2.853031067324189
 31
0.0
  0
LINE
  5
1B4AA
  8
0
  6
CONTINUOUS
 10
3.654836699821399
 20
1.426990471252442
 30
0.0
 11
4.678756316426365
 21
2.450910087857407
 31
0.0
  0
LINE
  5
1B4AB
  8
0
  6
CONTINUOUS
 10
3.926234235891853
 20
1.024868798242709
 30
0.0
 11
4.95015454603977
 21
2.048789108390626
 31
0.0
  0
LINE
  5
1B4AC
  8
0
  6
CONTINUOUS
 10
4.197631771962304
 20
0.6227471252329737
 30
0.0
 11
5.221552775653176
 21
1.646668128923846
 31
0.0
  0
LINE
  5
1B4AD
  8
0
  6
CONTINUOUS
 10
8.715877546767851
 20
7.835069736359266
 30
0.0
 11
9.435953450375058
 21
8.555145639966472
 31
0.0
  0
LINE
  5
1B4AE
  8
0
  6
CONTINUOUS
 10
8.170620868422267
 20
6.616293848933497
 30
0.0
 11
9.644120833743461
 21
8.08979381425469
 31
0.0
  0
LINE
  5
1B4AF
  8
0
  6
CONTINUOUS
 10
7.625364190076684
 20
5.397517961507727
 30
0.0
 11
9.852288217111864
 21
7.624441988542907
 31
0.0
  0
LINE
  5
1B4B0
  8
0
  6
CONTINUOUS
 10
7.080107511731101
 20
4.178742074081957
 30
0.0
 11
10.06045560048027
 21
7.159090162831124
 31
0.0
  0
LINE
  5
1B4B1
  8
0
  6
CONTINUOUS
 10
6.534850833385518
 20
2.959966186656187
 30
0.0
 11
10.26862298384867
 21
6.693738337119342
 31
0.0
  0
LINE
  5
1B4B2
  8
0
  6
CONTINUOUS
 10
4.469029308032756
 20
0.2206254522232385
 30
0.0
 11
5.492951005266582
 21
1.244547149457064
 31
0.0
  0
LINE
  5
1B4B3
  8
0
  6
CONTINUOUS
 10
5.989594155039935
 20
1.741190299230417
 30
0.0
 11
8.806950407233131
 21
4.558546551423613
 31
0.0
  0
LINE
  5
1B4B4
  8
0
  6
CONTINUOUS
 10
9.401251593263643
 20
5.152847737454126
 30
0.0
 11
10.47679036721708
 21
6.228386511407559
 31
0.0
  0
LINE
  5
1B4B5
  8
0
  6
CONTINUOUS
 10
4.921837203428691
 20
-0.0000858614610131
 30
0.0
 11
8.592923064886001
 21
3.670999999996297
 31
0.0
  0
LINE
  5
1B4B6
  8
0
  6
CONTINUOUS
 10
9.609390446785305
 20
4.6874673818956
 30
0.0
 11
10.68495775058548
 21
5.763034685695775
 31
0.0
  0
LINE
  5
1B4B7
  8
0
  6
CONTINUOUS
 10
5.595387755019432
 20
-0.0000545189504582
 30
0.0
 11
7.716137258923768
 21
2.120694984953879
 31
0.0
  0
LINE
  5
1B4B8
  8
0
  6
CONTINUOUS
 10
6.268938306610172
 20
-0.000023176439905
 30
0.0
 11
7.170485805526503
 21
0.9015243224764267
 31
0.0
  0
LINE
  5
1B4B9
  8
0
  6
CONTINUOUS
 10
7.963842273967511
 20
2.368399999997621
 30
0.0
 11
9.266442273966188
 21
3.670999999996297
 31
0.0
  0
LINE
  5
1B4BA
  8
0
  6
CONTINUOUS
 10
8.637361483047696
 20
2.368399999997621
 30
0.0
 11
9.939961483046375
 21
3.670999999996297
 31
0.0
  0
LINE
  5
1B4BB
  8
0
  6
CONTINUOUS
 10
9.817529300306965
 20
4.222087026337075
 30
0.0
 11
10.89312513395388
 21
5.297682859983993
 31
0.0
  0
LINE
  5
1B4BC
  8
0
  6
CONTINUOUS
 10
10.02566815382863
 20
3.756706670778549
 30
0.0
 11
11.10129251732229
 21
4.832331034272211
 31
0.0
  0
LINE
  5
1B4BD
  8
0
  6
CONTINUOUS
 10
9.310880692127883
 20
2.368399999997621
 30
0.0
 11
11.30945990069069
 21
4.366979208560428
 31
0.0
  0
LINE
  5
1B4BE
  8
0
  6
CONTINUOUS
 10
9.98439990120807
 20
2.36839999999762
 30
0.0
 11
11.5176272840591
 21
3.901627382848645
 31
0.0
  0
LINE
  5
1B4BF
  8
0
  6
CONTINUOUS
 10
10.65037369446246
 20
2.36085458417182
 30
0.0
 11
11.7257946674275
 21
3.436275557136862
 31
0.0
  0
LINE
  5
1B4C0
  8
0
  6
CONTINUOUS
 10
10.85847197087848
 20
1.895433651507656
 30
0.0
 11
11.9339620507959
 21
2.97092373142508
 31
0.0
  0
LINE
  5
1B4C1
  8
0
  6
CONTINUOUS
 10
11.0665702472945
 20
1.430012718843491
 30
0.0
 11
12.14212943416431
 21
2.505571905713296
 31
0.0
  0
LINE
  5
1B4C2
  8
0
  6
CONTINUOUS
 10
11.27466852371052
 20
0.9645917861793256
 30
0.0
 11
12.35029681753271
 21
2.040220080001513
 31
0.0
  0
LINE
  5
1B4C3
  8
0
  6
CONTINUOUS
 10
11.48276680012654
 20
0.4991708535151611
 30
0.0
 11
12.55846420090111
 21
1.57486825428973
 31
0.0
  0
LINE
  5
1B4C4
  8
0
  6
CONTINUOUS
 10
11.69086507654257
 20
0.0337499208509957
 30
0.0
 11
12.76663158426952
 21
1.109516428577947
 31
0.0
  0
LINE
  5
1B4C5
  8
0
  6
CONTINUOUS
 10
12.33057447873954
 20
-0.0000598860322123
 30
0.0
 11
12.97479896763792
 21
0.6441646028661663
 31
0.0
  0
LINE
  5
1B4C6
  8
0
  6
CONTINUOUS
 10
13.00413694809395
 20
-0.0000166257579952
 30
0.0
 11
13.18296635100632
 21
0.1788127771543824
 31
0.0
  0
LINE
  5
1B4C7
  8
0
  6
CONTINUOUS
 10
4.772852165289667
 20
-0.000092794222212
 30
0.0
 11
4.296495091028902
 21
0.4762642800385528
 31
0.0
  0
LINE
  5
1B4C8
  8
0
  6
CONTINUOUS
 10
5.446340034776103
 20
-0.0000614546284616
 30
0.0
 11
2.898195908335625
 21
2.548082671812017
 31
0.0
  0
LINE
  5
1B4C9
  8
0
  6
CONTINUOUS
 10
6.119827904262539
 20
-0.0000301150347113
 30
0.0
 11
1.499896725642348
 21
4.61990106358548
 31
0.0
  0
LINE
  5
1B4CA
  8
0
  6
CONTINUOUS
 10
6.775136745476159
 20
0.0181802528318542
 30
0.0
 11
5.699826040202669
 21
1.093490958105344
 31
0.0
  0
LINE
  5
1B4CB
  8
0
  6
CONTINUOUS
 10
6.983376846288489
 20
0.4834593610997118
 30
0.0
 11
5.908008617934405
 21
1.558827589453796
 31
0.0
  0
LINE
  5
1B4CC
  8
0
  6
CONTINUOUS
 10
5.377063484962296
 20
1.416253513345719
 30
0.0
 11
1.702276957014131
 21
5.091040041293883
 31
0.0
  0
LINE
  5
1B4CD
  8
0
  6
CONTINUOUS
 10
3.978745891735324
 20
3.488090315652877
 30
0.0
 11
2.000373521109399
 21
5.466462686278803
 31
0.0
  0
LINE
  5
1B4CE
  8
0
  6
CONTINUOUS
 10
7.191616947100819
 20
0.948738469367568
 30
0.0
 11
6.11619119566614
 21
2.024164220802247
 31
0.0
  0
LINE
  5
1B4CF
  8
0
  6
CONTINUOUS
 10
7.399857047913149
 20
1.414017577635424
 30
0.0
 11
6.324373773397875
 21
2.489500852150698
 31
0.0
  0
LINE
  5
1B4D0
  8
0
  6
CONTINUOUS
 10
7.608097148725479
 20
1.879296685903281
 30
0.0
 11
6.53255635112961
 21
2.95483748349915
 31
0.0
  0
LINE
  5
1B4D1
  8
0
  6
CONTINUOUS
 10
7.816337249537808
 20
2.344575794171138
 30
0.0
 11
6.740738928861345
 21
3.420174114847601
 31
0.0
  0
LINE
  5
1B4D2
  8
0
  6
CONTINUOUS
 10
3.310241080789734
 20
4.830114335678653
 30
0.0
 11
2.298470085204666
 21
5.84188533126372
 31
0.0
  0
LINE
  5
1B4D3
  8
0
  6
CONTINUOUS
 10
3.60832983563551
 20
5.205544789913063
 30
0.0
 11
2.596566649299935
 21
6.217307976248638
 31
0.0
  0
LINE
  5
1B4D4
  8
0
  6
CONTINUOUS
 10
3.906418590481286
 20
5.580975244147473
 30
0.0
 11
2.894663213395203
 21
6.592730621233557
 31
0.0
  0
LINE
  5
1B4D5
  8
0
  6
CONTINUOUS
 10
4.204507345327062
 20
5.956405698381884
 30
0.0
 11
3.192759777490472
 21
6.968153266218474
 31
0.0
  0
LINE
  5
1B4D6
  8
0
  6
CONTINUOUS
 10
8.466032252791512
 20
2.368399999997621
 30
0.0
 11
6.948921506593081
 21
3.885510746196053
 31
0.0
  0
LINE
  5
1B4D7
  8
0
  6
CONTINUOUS
 10
9.139551461871699
 20
2.36839999999762
 30
0.0
 11
7.157104084324816
 21
4.350847377544504
 31
0.0
  0
LINE
  5
1B4D8
  8
0
  6
CONTINUOUS
 10
4.502596100172839
 20
6.331836152616295
 30
0.0
 11
3.49085634158574
 21
7.343575911203393
 31
0.0
  0
LINE
  5
1B4D9
  8
0
  6
CONTINUOUS
 10
4.800684855018615
 20
6.707266606850705
 30
0.0
 11
3.788952905681008
 21
7.718998556188312
 31
0.0
  0
LINE
  5
1B4DA
  8
0
  6
CONTINUOUS
 10
12.18154012887317
 20
-0.0000694579236642
 30
0.0
 11
11.32140332908496
 21
0.8600673418645499
 31
0.0
  0
LINE
  5
1B4DB
  8
0
  6
CONTINUOUS
 10
12.85501608323566
 20
-0.0000262032059659
 30
0.0
 11
10.77672456435345
 21
2.078265315676246
 31
0.0
  0
LINE
  5
1B4DC
  8
0
  6
CONTINUOUS
 10
9.813070670951886
 20
2.36839999999762
 30
0.0
 11
8.51047067095321
 21
3.670999999996297
 31
0.0
  0
LINE
  5
1B4DD
  8
0
  6
CONTINUOUS
 10
10.48658988003207
 20
2.36839999999762
 30
0.0
 11
9.183989880033396
 21
3.670999999996297
 31
0.0
  0
LINE
  5
1B4DE
  8
0
  6
CONTINUOUS
 10
8.441048632286794
 20
3.740422038662712
 30
0.0
 11
7.365286662056551
 21
4.816184008892956
 31
0.0
  0
LINE
  5
1B4DF
  8
0
  6
CONTINUOUS
 10
8.649187485808454
 20
4.205802394221237
 30
0.0
 11
7.573469239788285
 21
5.281520640241407
 31
0.0
  0
LINE
  5
1B4E0
  8
0
  6
CONTINUOUS
 10
5.098773609864391
 20
7.082697061085115
 30
0.0
 11
4.087049469776277
 21
8.09442120117323
 31
0.0
  0
LINE
  5
1B4E1
  8
0
  6
CONTINUOUS
 10
5.396862364710167
 20
7.458127515319526
 30
0.0
 11
4.385146033871544
 21
8.469843846158149
 31
0.0
  0
LINE
  5
1B4E2
  8
0
  6
CONTINUOUS
 10
13.04801363231285
 20
0.4804954567970334
 30
0.0
 11
9.85750908911358
 21
3.670999999996297
 31
0.0
  0
LINE
  5
1B4E3
  8
0
  6
CONTINUOUS
 10
8.857326339330116
 20
4.671182749779763
 30
0.0
 11
7.781651817520021
 21
5.746857271589858
 31
0.0
  0
LINE
  5
1B4E4
  8
0
  6
CONTINUOUS
 10
5.694951119555943
 20
7.833557969553937
 30
0.0
 11
4.765409089118624
 21
8.763099999991255
 31
0.0
  0
LINE
  5
1B4E5
  8
0
  6
CONTINUOUS
 10
12.50286117236978
 20
1.699167125820288
 30
0.0
 11
9.68611877250287
 21
4.515909525687196
 31
0.0
  0
LINE
  5
1B4E6
  8
0
  6
CONTINUOUS
 10
9.065465192851777
 20
5.136563105338288
 30
0.0
 11
7.989834395251757
 21
6.21219390293831
 31
0.0
  0
LINE
  5
1B4E7
  8
0
  6
CONTINUOUS
 10
5.993039874401719
 20
8.208988423788346
 30
0.0
 11
5.43892829819881
 21
8.763099999991255
 31
0.0
  0
LINE
  5
1B4E8
  8
0
  6
CONTINUOUS
 10
11.95770871242671
 20
2.917838794843543
 30
0.0
 11
8.19801697298349
 21
6.677530534286761
 31
0.0
  0
LINE
  5
1B4E9
  8
0
  6
CONTINUOUS
 10
6.291128629247495
 20
8.584418878022756
 30
0.0
 11
6.112447507278997
 21
8.763099999991255
 31
0.0
  0
LINE
  5
1B4EA
  8
0
  6
CONTINUOUS
 10
11.41255625248364
 20
4.136510463866797
 30
0.0
 11
8.406199550715227
 21
7.142867165635211
 31
0.0
  0
LINE
  5
1B4EB
  8
0
  6
CONTINUOUS
 10
10.86740379254057
 20
5.355182132890051
 30
0.0
 11
8.614382128446962
 21
7.608203796983664
 31
0.0
  0
LINE
  5
1B4EC
  8
0
  6
CONTINUOUS
 10
10.3222513325975
 20
6.573853801913305
 30
0.0
 11
8.822564706178696
 21
8.073540428332114
 31
0.0
  0
LINE
  5
1B4ED
  8
0
  6
CONTINUOUS
 10
9.777098872654436
 20
7.792525470936562
 30
0.0
 11
9.030747283910433
 21
8.538877059680566
 31
0.0
  0
ENDBLK
  5
1B62F
  8
0
  0
BLOCK
  8
0
  2
*X85
 70
     1
 10
0.0
 20
0.0
 30
0.0
  3
*X85
  1

  0
LINE
  5
1B4EF
  8
0
  6
CONTINUOUS
 10
10.67292308101235
 20
8.445076852443387
 30
0.0
 11
10.99094622856022
 21
8.763099999991255
 31
0.0
  0
LINE
  5
1B4F0
  8
0
  6
CONTINUOUS
 10
10.87250383178748
 20
7.971138394138331
 30
0.0
 11
11.6644654376404
 21
8.763099999991255
 31
0.0
  0
LINE
  5
1B4F1
  8
0
  6
CONTINUOUS
 10
11.07208458256261
 20
7.497199935833273
 30
0.0
 11
12.12126590876355
 21
8.546381262034211
 31
0.0
  0
LINE
  5
1B4F2
  8
0
  6
CONTINUOUS
 10
11.27166533333774
 20
7.023261477528216
 30
0.0
 11
12.32085164573666
 21
8.072447789927136
 31
0.0
  0
LINE
  5
1B4F3
  8
0
  6
CONTINUOUS
 10
11.47124608411287
 20
6.549323019223158
 30
0.0
 11
12.52043738270977
 21
7.59851431782006
 31
0.0
  0
LINE
  5
1B4F4
  8
0
  6
CONTINUOUS
 10
11.670826834888
 20
6.075384560918101
 30
0.0
 11
12.72002311968288
 21
7.124580845712984
 31
0.0
  0
LINE
  5
1B4F5
  8
0
  6
CONTINUOUS
 10
11.87040758566313
 20
5.601446102613043
 30
0.0
 11
12.91960885665599
 21
6.650647373605907
 31
0.0
  0
LINE
  5
1B4F6
  8
0
  6
CONTINUOUS
 10
12.06998833643825
 20
5.127507644307986
 30
0.0
 11
13.1191945936291
 21
6.176713901498832
 31
0.0
  0
LINE
  5
1B4F7
  8
0
  6
CONTINUOUS
 10
12.26956908721338
 20
4.65356918600293
 30
0.0
 11
13.31878033060221
 21
5.702780429391757
 31
0.0
  0
LINE
  5
1B4F8
  8
0
  6
CONTINUOUS
 10
12.46914983798851
 20
4.179630727697873
 30
0.0
 11
13.51836606757532
 21
5.228846957284683
 31
0.0
  0
LINE
  5
1B4F9
  8
0
  6
CONTINUOUS
 10
12.66873058876364
 20
3.705692269392816
 30
0.0
 11
13.71795180454843
 21
4.754913485177607
 31
0.0
  0
LINE
  5
1B4FA
  8
0
  6
CONTINUOUS
 10
12.86831133953877
 20
3.231753811087759
 30
0.0
 11
13.91753754152154
 21
4.280980013070531
 31
0.0
  0
LINE
  5
1B4FB
  8
0
  6
CONTINUOUS
 10
13.0678920903139
 20
2.757815352782702
 30
0.0
 11
14.11712327849465
 21
3.807046540963456
 31
0.0
  0
LINE
  5
1B4FC
  8
0
  6
CONTINUOUS
 10
13.26747284108903
 20
2.283876894477644
 30
0.0
 11
14.31670901546777
 21
3.333113068856379
 31
0.0
  0
LINE
  5
1B4FD
  8
0
  6
CONTINUOUS
 10
16.36767838827179
 20
8.751678487061342
 30
0.0
 11
16.50332410898388
 21
8.887324207773432
 31
0.0
  0
LINE
  5
1B4FE
  8
0
  6
CONTINUOUS
 10
15.96190732182191
 20
7.67238821153127
 30
0.0
 11
16.68735328004734
 21
8.397834169756699
 31
0.0
  0
LINE
  5
1B4FF
  8
0
  6
CONTINUOUS
 10
15.55613625537202
 20
6.593097936001196
 30
0.0
 11
16.87138245111079
 21
7.908344131739965
 31
0.0
  0
LINE
  5
1B500
  8
0
  6
CONTINUOUS
 10
15.15036518892213
 20
5.513807660471122
 30
0.0
 11
17.05541162217424
 21
7.418854093723231
 31
0.0
  0
LINE
  5
1B501
  8
0
  6
CONTINUOUS
 10
14.74459412247225
 20
4.434517384941048
 30
0.0
 11
17.2394407932377
 21
6.929364055706499
 31
0.0
  0
LINE
  5
1B502
  8
0
  6
CONTINUOUS
 10
14.33882305602236
 20
3.355227109410975
 30
0.0
 11
17.42346996430115
 21
6.439874017689766
 31
0.0
  0
LINE
  5
1B503
  8
0
  6
CONTINUOUS
 10
13.46705359186416
 20
1.809938436172586
 30
0.0
 11
16.0819338255367
 21
4.424818669845129
 31
0.0
  0
LINE
  5
1B504
  8
0
  6
CONTINUOUS
 10
16.63283254238972
 20
4.975717386698149
 30
0.0
 11
17.60749913536461
 21
5.950383979673033
 31
0.0
  0
LINE
  5
1B505
  8
0
  6
CONTINUOUS
 10
13.66663434263929
 20
1.335999977867529
 30
0.0
 11
15.67604797733754
 21
3.345413612565779
 31
0.0
  0
LINE
  5
1B506
  8
0
  6
CONTINUOUS
 10
13.86621509341442
 20
0.8620615195624723
 30
0.0
 11
15.27016212913838
 21
2.26600855528643
 31
0.0
  0
LINE
  5
1B507
  8
0
  6
CONTINUOUS
 10
16.81682257348267
 20
4.486188208710908
 30
0.0
 11
17.79152830642806
 21
5.460893941656299
 31
0.0
  0
LINE
  5
1B508
  8
0
  6
CONTINUOUS
 10
17.00081260457561
 20
3.996659030723667
 30
0.0
 11
17.97555747749151
 21
4.971403903639565
 31
0.0
  0
LINE
  5
1B509
  8
0
  6
CONTINUOUS
 10
20.74362343514722
 20
8.412989070375462
 30
0.0
 11
21.09373436476302
 21
8.763099999991256
 31
0.0
  0
LINE
  5
1B50A
  8
0
  6
CONTINUOUS
 10
20.25401257174777
 20
7.249858997895826
 30
0.0
 11
21.7672535738432
 21
8.763099999991255
 31
0.0
  0
LINE
  5
1B50B
  8
0
  6
CONTINUOUS
 10
14.06579584418955
 20
0.3881230612574149
 30
0.0
 11
14.86427628093921
 21
1.186603498007082
 31
0.0
  0
LINE
  5
1B50C
  8
0
  6
CONTINUOUS
 10
14.26537659496467
 20
-0.0858153970476412
 30
0.0
 11
14.45839043274005
 21
0.1071984407277329
 31
0.0
  0
LINE
  5
1B50D
  8
0
  6
CONTINUOUS
 10
17.18480263566856
 20
3.507129852736426
 30
0.0
 11
18.15958664855496
 21
4.481913865622833
 31
0.0
  0
LINE
  5
1B50E
  8
0
  6
CONTINUOUS
 10
17.3687926667615
 20
3.017600674749186
 30
0.0
 11
18.34361581961842
 21
3.9924238276061
 31
0.0
  0
LINE
  5
1B50F
  8
0
  6
CONTINUOUS
 10
19.76440170834832
 20
6.086728925416191
 30
0.0
 11
22.33924590259489
 21
8.661573119662755
 31
0.0
  0
LINE
  5
1B510
  8
0
  6
CONTINUOUS
 10
19.27479084494887
 20
4.923598852936555
 30
0.0
 11
21.84929622842713
 21
7.498104236414807
 31
0.0
  0
LINE
  5
1B511
  8
0
  6
CONTINUOUS
 10
17.55278269785445
 20
2.528071496761945
 30
0.0
 11
18.52764499068187
 21
3.502933789589366
 31
0.0
  0
LINE
  5
1B512
  8
0
  6
CONTINUOUS
 10
18.78517998154942
 20
3.760468780456919
 30
0.0
 11
21.35934655425936
 21
6.33463535316686
 31
0.0
  0
LINE
  5
1B513
  8
0
  6
CONTINUOUS
 10
17.73677272894739
 20
2.038542318774704
 30
0.0
 11
20.8693968800916
 21
5.171166469918914
 31
0.0
  0
LINE
  5
1B514
  8
0
  6
CONTINUOUS
 10
17.92076276004034
 20
1.549013140787464
 30
0.0
 11
20.37944720592384
 21
4.007697586670968
 31
0.0
  0
LINE
  5
1B515
  8
0
  6
CONTINUOUS
 10
18.10475279113329
 20
1.059483962800223
 30
0.0
 11
19.88949753175608
 21
2.84422870342302
 31
0.0
  0
LINE
  5
1B516
  8
0
  6
CONTINUOUS
 10
18.28874282222623
 20
0.5699547848129822
 30
0.0
 11
19.39954785758832
 21
1.680759820175074
 31
0.0
  0
LINE
  5
1B517
  8
0
  6
CONTINUOUS
 10
18.47273285331918
 20
0.0804256068257416
 30
0.0
 11
18.90959818342056
 21
0.517290936927127
 31
0.0
  0
LINE
  5
1B518
  8
0
  6
CONTINUOUS
 10
14.3590401358224
 20
-0.1570118376323384
 30
0.0
 11
14.24903296539946
 21
-0.0470046672093929
 31
0.0
  0
LINE
  5
1B519
  8
0
  6
CONTINUOUS
 10
14.54309291258661
 20
0.332454594683643
 30
0.0
 11
13.75908329123172
 21
1.116464216038529
 31
0.0
  0
LINE
  5
1B51A
  8
0
  6
CONTINUOUS
 10
14.72714568935081
 20
0.8219210269996244
 30
0.0
 11
13.26913361706399
 21
2.27993309928645
 31
0.0
  0
LINE
  5
1B51B
  8
0
  6
CONTINUOUS
 10
14.91119846611502
 20
1.311387459315606
 30
0.0
 11
12.77918394289625
 21
3.443401982534371
 31
0.0
  0
LINE
  5
1B51C
  8
0
  6
CONTINUOUS
 10
15.09525124287922
 20
1.800853891631587
 30
0.0
 11
12.28923426872852
 21
4.606870865782293
 31
0.0
  0
LINE
  5
1B51D
  8
0
  6
CONTINUOUS
 10
15.27930401964343
 20
2.290320323947569
 30
0.0
 11
11.79928459456078
 21
5.770339749030213
 31
0.0
  0
LINE
  5
1B51E
  8
0
  6
CONTINUOUS
 10
15.46335679640763
 20
2.77978675626355
 30
0.0
 11
14.48885470994921
 21
3.754288842721972
 31
0.0
  0
LINE
  5
1B51F
  8
0
  6
CONTINUOUS
 10
13.88507249233704
 20
4.358071060334137
 30
0.0
 11
11.30933492039305
 21
6.933808632278135
 31
0.0
  0
LINE
  5
1B520
  8
0
  6
CONTINUOUS
 10
18.75840522805855
 20
0.1582575336928151
 30
0.0
 11
18.25383727664818
 21
0.6628254851031863
 31
0.0
  0
LINE
  5
1B521
  8
0
  6
CONTINUOUS
 10
15.64740957317184
 20
3.269253188579531
 30
0.0
 11
14.67288388101266
 21
4.243778880738705
 31
0.0
  0
LINE
  5
1B522
  8
0
  6
CONTINUOUS
 10
13.39509276772158
 20
5.521569994029786
 30
0.0
 11
10.81938524622531
 21
8.097277515526056
 31
0.0
  0
LINE
  5
1B523
  8
0
  6
CONTINUOUS
 10
18.95798597883369
 20
0.6321959919978686
 30
0.0
 11
17.84825644852853
 21
1.741925522303024
 31
0.0
  0
LINE
  5
1B524
  8
0
  6
CONTINUOUS
 10
19.15756672960882
 20
1.106134450302922
 30
0.0
 11
17.44267562040888
 21
2.821025559502861
 31
0.0
  0
LINE
  5
1B525
  8
0
  6
CONTINUOUS
 10
15.83146234993604
 20
3.758719620895513
 30
0.0
 11
14.85691305207612
 21
4.733268918755439
 31
0.0
  0
LINE
  5
1B526
  8
0
  6
CONTINUOUS
 10
16.01551512670025
 20
4.248186053211494
 30
0.0
 11
15.04094222313957
 21
5.222758956772172
 31
0.0
  0
LINE
  5
1B527
  8
0
  6
CONTINUOUS
 10
12.90511304310612
 20
6.685068927725435
 30
0.0
 11
10.8270819708403
 21
8.763099999991255
 31
0.0
  0
LINE
  5
1B528
  8
0
  6
CONTINUOUS
 10
12.41513331849066
 20
7.848567861421083
 30
0.0
 11
11.50060117992049
 21
8.763099999991255
 31
0.0
  0
LINE
  5
1B529
  8
0
  6
CONTINUOUS
 10
19.35714748038395
 20
1.580072908607975
 30
0.0
 11
17.03709479228923
 21
3.900125596702697
 31
0.0
  0
LINE
  5
1B52A
  8
0
  6
CONTINUOUS
 10
19.55672823115909
 20
2.054011366913028
 30
0.0
 11
16.63151396416958
 21
4.979225633902534
 31
0.0
  0
LINE
  5
1B52B
  8
0
  6
CONTINUOUS
 10
16.19956790346445
 20
4.737652485527476
 30
0.0
 11
15.22497139420302
 21
5.712248994788904
 31
0.0
  0
LINE
  5
1B52C
  8
0
  6
CONTINUOUS
 10
16.38362068022866
 20
5.227118917843457
 30
0.0
 11
15.40900056526648
 21
6.201739032805637
 31
0.0
  0
LINE
  5
1B52D
  8
0
  6
CONTINUOUS
 10
19.75630898193422
 20
2.527949825218081
 30
0.0
 11
18.70774536448286
 21
3.576513442669441
 31
0.0
  0
LINE
  5
1B52E
  8
0
  6
CONTINUOUS
 10
19.95588973270936
 20
3.001888283523134
 30
0.0
 11
18.90726987211446
 21
4.050508144118028
 31
0.0
  0
LINE
  5
1B52F
  8
0
  6
CONTINUOUS
 10
20.15547048348449
 20
3.475826741828186
 30
0.0
 11
19.10679437974606
 21
4.524502845566614
 31
0.0
  0
LINE
  5
1B530
  8
0
  6
CONTINUOUS
 10
20.35505123425962
 20
3.94976520013324
 30
0.0
 11
19.30631888737766
 21
4.998497547015201
 31
0.0
  0
LINE
  5
1B531
  8
0
  6
CONTINUOUS
 10
20.55463198503475
 20
4.423703658438292
 30
0.0
 11
19.50584339500926
 21
5.472492248463787
 31
0.0
  0
LINE
  5
1B532
  8
0
  6
CONTINUOUS
 10
18.37481191085755
 20
3.909446896294752
 30
0.0
 11
15.59302973632993
 21
6.691229070822371
 31
0.0
  0
LINE
  5
1B533
  8
0
  6
CONTINUOUS
 10
17.96904084440766
 20
4.988737171824825
 30
0.0
 11
15.77705890739338
 21
7.180719108839104
 31
0.0
  0
LINE
  5
1B534
  8
0
  6
CONTINUOUS
 10
17.56326977795777
 20
6.068027447354899
 30
0.0
 11
15.96108807845684
 21
7.670209146855838
 31
0.0
  0
LINE
  5
1B535
  8
0
  6
CONTINUOUS
 10
17.15749871150789
 20
7.147317722884972
 30
0.0
 11
16.14511724952029
 21
8.15969918487257
 31
0.0
  0
LINE
  5
1B536
  8
0
  6
CONTINUOUS
 10
16.751727645058
 20
8.226607998415046
 30
0.0
 11
16.32914642058374
 21
8.649189222889303
 31
0.0
  0
LINE
  5
1B537
  8
0
  6
CONTINUOUS
 10
20.75421273580989
 20
4.897642116743345
 30
0.0
 11
19.70536790264086
 21
5.946486949912374
 31
0.0
  0
LINE
  5
1B538
  8
0
  6
CONTINUOUS
 10
20.95379348658502
 20
5.371580575048398
 30
0.0
 11
19.90489241027246
 21
6.42048165136096
 31
0.0
  0
LINE
  5
1B539
  8
0
  6
CONTINUOUS
 10
21.15337423736015
 20
5.845519033353452
 30
0.0
 11
20.10441691790406
 21
6.894476352809547
 31
0.0
  0
LINE
  5
1B53A
  8
0
  6
CONTINUOUS
 10
21.35295498813529
 20
6.319457491658505
 30
0.0
 11
20.30394142553566
 21
7.368471054258134
 31
0.0
  0
LINE
  5
1B53B
  8
0
  6
CONTINUOUS
 10
21.55253573891042
 20
6.793395949963558
 30
0.0
 11
20.50346593316726
 21
7.842465755706721
 31
0.0
  0
LINE
  5
1B53C
  8
0
  6
CONTINUOUS
 10
21.75211648968556
 20
7.267334408268612
 30
0.0
 11
20.70299044079886
 21
8.316460457155308
 31
0.0
  0
LINE
  5
1B53D
  8
0
  6
CONTINUOUS
 10
21.95169724046069
 20
7.741272866573663
 30
0.0
 11
20.9298701070431
 21
8.763099999991256
 31
0.0
  0
LINE
  5
1B53E
  8
0
  6
CONTINUOUS
 10
22.15127799123582
 20
8.215211324878716
 30
0.0
 11
21.60338931612328
 21
8.763099999991256
 31
0.0
  0
LINE
  5
1B53F
  8
0
  6
CONTINUOUS
 10
22.35085874201096
 20
8.689149783183769
 30
0.0
 11
22.27690852520347
 21
8.763099999991255
 31
0.0
  0
ENDBLK
  5
1B631
  8
0
  0
BLOCK
  8
0
  2
*X86
 70
     1
 10
0.0
 20
0.0
 30
0.0
  3
*X86
  1

  0
LINE
  5
1B541
  8
0
  6
CONTINUOUS
 10
23.19462913593892
 20
8.169917934846424
 30
0.0
 11
23.70775465517246
 21
8.683043454079957
 31
0.0
  0
LINE
  5
1B542
  8
0
  6
CONTINUOUS
 10
22.64923161835078
 20
6.951001208178088
 30
0.0
 11
23.9159364069932
 21
8.217705996820516
 31
0.0
  0
LINE
  5
1B543
  8
0
  6
CONTINUOUS
 10
22.10383410076263
 20
5.732084481509751
 30
0.0
 11
24.12411815881395
 21
7.752368539561078
 31
0.0
  0
LINE
  5
1B544
  8
0
  6
CONTINUOUS
 10
21.55843658317447
 20
4.513167754841414
 30
0.0
 11
24.3322999106347
 21
7.287031082301639
 31
0.0
  0
LINE
  5
1B545
  8
0
  6
CONTINUOUS
 10
21.01303906558632
 20
3.294251028173077
 30
0.0
 11
24.54048166245544
 21
6.821693625042199
 31
0.0
  0
LINE
  5
1B546
  8
0
  6
CONTINUOUS
 10
20.46764154799817
 20
2.075334301504738
 30
0.0
 11
23.28571549467848
 21
4.89340824818505
 31
0.0
  0
LINE
  5
1B547
  8
0
  6
CONTINUOUS
 10
19.92224403041002
 20
0.8564175748364002
 30
0.0
 11
22.74075865492779
 21
3.674932199354171
 31
0.0
  0
LINE
  5
1B548
  8
0
  6
CONTINUOUS
 10
23.67305085490148
 20
5.280743608408048
 30
0.0
 11
24.74866341427619
 21
6.356356167782759
 31
0.0
  0
LINE
  5
1B549
  8
0
  6
CONTINUOUS
 10
23.88118970842314
 20
4.815363252849522
 30
0.0
 11
24.95684516609694
 21
5.89101871052332
 31
0.0
  0
LINE
  5
1B54A
  8
0
  6
CONTINUOUS
 10
19.73925852647308
 20
-0.0000871381807288
 30
0.0
 11
23.4103456646501
 21
3.670999999996297
 31
0.0
  0
LINE
  5
1B54B
  8
0
  6
CONTINUOUS
 10
24.0893285619448
 20
4.349982897290997
 30
0.0
 11
25.16502691791769
 21
5.42568125326388
 31
0.0
  0
LINE
  5
1B54C
  8
0
  6
CONTINUOUS
 10
20.41282099582748
 20
-0.0000438779065108
 30
0.0
 11
21.64944178675636
 21
1.236576913022366
 31
0.0
  0
LINE
  5
1B54D
  8
0
  6
CONTINUOUS
 10
22.78126487373161
 20
2.36839999999762
 30
0.0
 11
24.08386487373029
 21
3.670999999996297
 31
0.0
  0
LINE
  5
1B54E
  8
0
  6
CONTINUOUS
 10
24.29746741546646
 20
3.884602541732471
 30
0.0
 11
25.37320866973843
 21
4.960343796004441
 31
0.0
  0
LINE
  5
1B54F
  8
0
  6
CONTINUOUS
 10
21.08638346518189
 20
-0.0000006176322938
 30
0.0
 11
21.10379033335899
 21
0.0174062505448083
 31
0.0
  0
LINE
  5
1B550
  8
0
  6
CONTINUOUS
 10
23.4547840828118
 20
2.36839999999762
 30
0.0
 11
25.58139042155918
 21
4.495006338745002
 31
0.0
  0
LINE
  5
1B551
  8
0
  6
CONTINUOUS
 10
29.30199999996933
 20
8.215615917155148
 30
0.0
 11
29.84948408280543
 21
8.763099999991255
 31
0.0
  0
LINE
  5
1B552
  8
0
  6
CONTINUOUS
 10
24.12830329189199
 20
2.36839999999762
 30
0.0
 11
25.78957217337993
 21
4.029668881485562
 31
0.0
  0
LINE
  5
1B553
  8
0
  6
CONTINUOUS
 10
29.30199999996933
 20
7.54209670807496
 30
0.0
 11
30.52300329188562
 21
8.763099999991255
 31
0.0
  0
LINE
  5
1B554
  8
0
  6
CONTINUOUS
 10
24.80182250097217
 20
2.36839999999762
 30
0.0
 11
25.99775392520067
 21
3.564331424226122
 31
0.0
  0
LINE
  5
1B555
  8
0
  6
CONTINUOUS
 10
29.30199999996933
 20
6.868577498994774
 30
0.0
 11
30.74199999996926
 21
8.308577498994712
 31
0.0
  0
LINE
  5
1B556
  8
0
  6
CONTINUOUS
 10
25.13028238392013
 20
2.023340673865392
 30
0.0
 11
26.20593567702142
 21
3.098993966966683
 31
0.0
  0
LINE
  5
1B557
  8
0
  6
CONTINUOUS
 10
25.33838066033617
 20
1.557919741201244
 30
0.0
 11
26.41411742884217
 21
2.633656509707244
 31
0.0
  0
LINE
  5
1B558
  8
0
  6
CONTINUOUS
 10
25.54647893675221
 20
1.092498808537098
 30
0.0
 11
26.62229918066291
 21
2.168319052447804
 31
0.0
  0
LINE
  5
1B559
  8
0
  6
CONTINUOUS
 10
25.75457721316825
 20
0.62707787587295
 30
0.0
 11
26.83048093248366
 21
1.702981595188365
 31
0.0
  0
LINE
  5
1B55A
  8
0
  6
CONTINUOUS
 10
29.30199999996933
 20
6.195058289914587
 30
0.0
 11
30.74199999996926
 21
7.635058289914522
 31
0.0
  0
LINE
  5
1B55B
  8
0
  6
CONTINUOUS
 10
29.30199999996933
 20
5.521539080834401
 30
0.0
 11
30.74199999996926
 21
6.961539080834331
 31
0.0
  0
LINE
  5
1B55C
  8
0
  6
CONTINUOUS
 10
29.30199999996933
 20
4.848019871754214
 30
0.0
 11
30.74199999996925
 21
6.288019871754143
 31
0.0
  0
LINE
  5
1B55D
  8
0
  6
CONTINUOUS
 10
29.30199999996933
 20
4.174500662674028
 30
0.0
 11
30.74199999996925
 21
5.614500662673953
 31
0.0
  0
LINE
  5
1B55E
  8
0
  6
CONTINUOUS
 10
25.96267548958429
 20
0.1616569432088024
 30
0.0
 11
27.18411854636669
 21
1.383099999991207
 31
0.0
  0
LINE
  5
1B55F
  8
0
  6
CONTINUOUS
 10
29.30199999996933
 20
3.500981453593841
 30
0.0
 11
30.74199999996925
 21
4.940981453593762
 31
0.0
  0
LINE
  5
1B560
  8
0
  6
CONTINUOUS
 10
26.50763775544691
 20
0.0330999999912356
 30
0.0
 11
27.85763775544689
 21
1.383099999991223
 31
0.0
  0
LINE
  5
1B561
  8
0
  6
CONTINUOUS
 10
29.30199999996933
 20
2.827462244513656
 30
0.0
 11
30.74199999996925
 21
4.267462244513574
 31
0.0
  0
LINE
  5
1B562
  8
0
  6
CONTINUOUS
 10
27.18115696452709
 20
0.0330999999912356
 30
0.0
 11
28.6224847300034
 21
1.474427765467545
 31
0.0
  0
LINE
  5
1B563
  8
0
  6
CONTINUOUS
 10
29.21067223449293
 20
2.062615269957069
 30
0.0
 11
30.74199999996924
 21
3.593943035433383
 31
0.0
  0
LINE
  5
1B564
  8
0
  6
CONTINUOUS
 10
27.85467617360728
 20
0.0330999999912356
 30
0.0
 11
30.74199999996924
 21
2.920423826353195
 31
0.0
  0
LINE
  5
1B565
  8
0
  6
CONTINUOUS
 10
28.57438609860264
 20
0.0792907159064073
 30
0.0
 11
30.69580928405405
 21
2.200713901357819
 31
0.0
  0
LINE
  5
1B566
  8
0
  6
CONTINUOUS
 10
29.49443044814297
 20
0.3258158563665496
 30
0.0
 11
30.44928414359389
 21
1.280669551817477
 31
0.0
  0
LINE
  5
1B567
  8
0
  6
CONTINUOUS
 10
19.59027867740337
 20
-0.0000967065718083
 30
0.0
 11
19.55485265190471
 21
0.035329318926844
 31
0.0
  0
LINE
  5
1B568
  8
0
  6
CONTINUOUS
 10
20.26375463176586
 20
-0.0000534518541091
 30
0.0
 11
19.76305575737534
 21
0.5006454225364014
 31
0.0
  0
LINE
  5
1B569
  8
0
  6
CONTINUOUS
 10
20.93723058612834
 20
-0.0000101971364099
 30
0.0
 11
19.97125886284597
 21
0.965961526145958
 31
0.0
  0
LINE
  5
1B56A
  8
0
  6
CONTINUOUS
 10
21.25514828313686
 20
0.355591314935257
 30
0.0
 11
20.1794619683166
 21
1.431277629755512
 31
0.0
  0
LINE
  5
1B56B
  8
0
  6
CONTINUOUS
 10
21.46338838394921
 20
0.8208704232030986
 30
0.0
 11
20.38766507378723
 21
1.896593733365069
 31
0.0
  0
LINE
  5
1B56C
  8
0
  6
CONTINUOUS
 10
21.67162848476155
 20
1.28614953147094
 30
0.0
 11
20.59586817925786
 21
2.361909836974626
 31
0.0
  0
LINE
  5
1B56D
  8
0
  6
CONTINUOUS
 10
21.8798685855739
 20
1.751428639738782
 30
0.0
 11
20.80407128472849
 21
2.827225940584183
 31
0.0
  0
LINE
  5
1B56E
  8
0
  6
CONTINUOUS
 10
22.08810868638624
 20
2.216707748006623
 30
0.0
 11
21.01227439019912
 21
3.292542044193739
 31
0.0
  0
LINE
  5
1B56F
  8
0
  6
CONTINUOUS
 10
22.60993564347543
 20
2.36839999999762
 30
0.0
 11
21.22047749566975
 21
3.757858147803296
 31
0.0
  0
LINE
  5
1B570
  8
0
  6
CONTINUOUS
 10
23.28345485255561
 20
2.36839999999762
 30
0.0
 11
21.42868060114038
 21
4.223174251412853
 31
0.0
  0
LINE
  5
1B571
  8
0
  6
CONTINUOUS
 10
26.29227406164219
 20
0.0330999999912356
 30
0.0
 11
25.80009199592872
 21
0.5252820657046957
 31
0.0
  0
LINE
  5
1B572
  8
0
  6
CONTINUOUS
 10
23.9569740616358
 20
2.36839999999762
 30
0.0
 11
21.63688370661101
 21
4.688490355022409
 31
0.0
  0
LINE
  5
1B573
  8
0
  6
CONTINUOUS
 10
26.96579327072237
 20
0.0330999999912356
 30
0.0
 11
25.2554132311971
 21
1.743480039516508
 31
0.0
  0
LINE
  5
1B574
  8
0
  6
CONTINUOUS
 10
24.63049327071599
 20
2.36839999999762
 30
0.0
 11
23.32789327071731
 21
3.670999999996297
 31
0.0
  0
LINE
  5
1B575
  8
0
  6
CONTINUOUS
 10
22.92098674744635
 20
4.077906523267254
 30
0.0
 11
21.84508681208164
 21
5.153806458631966
 31
0.0
  0
LINE
  5
1B576
  8
0
  6
CONTINUOUS
 10
27.63931247980256
 20
0.0330999999912356
 30
0.0
 11
24.0014124797975
 21
3.670999999996297
 31
0.0
  0
LINE
  5
1B577
  8
0
  6
CONTINUOUS
 10
23.129125600968
 20
4.5432868788258
 30
0.0
 11
22.05328991755227
 21
5.619122562241522
 31
0.0
  0
LINE
  5
1B578
  8
0
  6
CONTINUOUS
 10
28.31283168888275
 20
0.0330999999912356
 30
0.0
 11
24.16488385994816
 21
4.181047828925828
 31
0.0
  0
LINE
  5
1B579
  8
0
  6
CONTINUOUS
 10
23.33726445448964
 20
5.008667234384345
 30
0.0
 11
22.2614930230229
 21
6.084438665851079
 31
0.0
  0
LINE
  5
1B57A
  8
0
  6
CONTINUOUS
 10
28.86286302309502
 20
0.1565878748591523
 30
0.0
 11
27.63635089796295
 21
1.383099999991217
 31
0.0
  0
LINE
  5
1B57B
  8
0
  6
CONTINUOUS
 10
26.43704649509776
 20
2.582404402856405
 30
0.0
 11
23.61992702019732
 21
5.399523877756844
 31
0.0
  0
LINE
  5
1B57C
  8
0
  6
CONTINUOUS
 10
23.54540330801128
 20
5.47404758994289
 30
0.0
 11
22.46969612849353
 21
6.549754769460635
 31
0.0
  0
LINE
  5
1B57D
  8
0
  6
CONTINUOUS
 10
29.39405087596853
 20
0.2989192310658284
 30
0.0
 11
28.30987010704312
 21
1.383099999991234
 31
0.0
  0
LINE
  5
1B57E
  8
0
  6
CONTINUOUS
 10
25.89179548232307
 20
3.801174624711282
 30
0.0
 11
22.67789923396416
 21
7.015070873070191
 31
0.0
  0
LINE
  5
1B57F
  8
0
  6
CONTINUOUS
 10
29.79594438047407
 20
0.570544935640473
 30
0.0
 11
28.81310432793121
 21
1.553384988183336
 31
0.0
  0
LINE
  5
1B580
  8
0
  6
CONTINUOUS
 10
25.34654446954838
 20
5.01994484656616
 30
0.0
 11
22.88610233943479
 21
7.480386976679748
 31
0.0
  0
LINE
  5
1B581
  8
0
  6
CONTINUOUS
 10
30.13270398501416
 20
0.9073045401805646
 30
0.0
 11
29.14234640337737
 21
1.897662121817355
 31
0.0
  0
LINE
  5
1B582
  8
0
  6
CONTINUOUS
 10
24.80129345677369
 20
6.238715068421037
 30
0.0
 11
23.09430544490542
 21
7.945703080289305
 31
0.0
  0
LINE
  5
1B583
  8
0
  6
CONTINUOUS
 10
30.44581292956759
 20
1.26771480470732
 30
0.0
 11
29.30199999996933
 21
2.411527734305588
 31
0.0
  0
LINE
  5
1B584
  8
0
  6
CONTINUOUS
 10
30.58814428577427
 20
1.798902657580827
 30
0.0
 11
29.30199999996933
 21
3.085046943385775
 31
0.0
  0
LINE
  5
1B585
  8
0
  6
CONTINUOUS
 10
24.256042443999
 20
7.457485290275915
 30
0.0
 11
23.30250855037605
 21
8.411019183898862
 31
0.0
  0
LINE
  5
1B586
  8
0
  6
CONTINUOUS
 10
23.71079143122431
 20
8.676255512130794
 30
0.0
 11
23.51071165584668
 21
8.876335287508418
 31
0.0
  0
LINE
  5
1B587
  8
0
  6
CONTINUOUS
 10
30.73047564198095
 20
2.330090510454333
 30
0.0
 11
29.30199999996933
 21
3.758566152465961
 31
0.0
  0
LINE
  5
1B588
  8
0
  6
CONTINUOUS
 10
30.74199999996924
 20
2.992085361546236
 30
0.0
 11
29.30199999996933
 21
4.432085361546148
 31
0.0
  0
LINE
  5
1B589
  8
0
  6
CONTINUOUS
 10
30.74199999996924
 20
3.665604570626419
 30
0.0
 11
29.30199999996933
 21
5.105604570626333
 31
0.0
  0
LINE
  5
1B58A
  8
0
  6
CONTINUOUS
 10
30.74199999996925
 20
4.339123779706602
 30
0.0
 11
29.30199999996933
 21
5.77912377970652
 31
0.0
  0
LINE
  5
1B58B
  8
0
  6
CONTINUOUS
 10
30.74199999996925
 20
5.012642988786785
 30
0.0
 11
29.30199999996933
 21
6.452642988786707
 31
0.0
  0
LINE
  5
1B58C
  8
0
  6
CONTINUOUS
 10
30.74199999996925
 20
5.68616219786697
 30
0.0
 11
29.30199999996933
 21
7.126162197866894
 31
0.0
  0
LINE
  5
1B58D
  8
0
  6
CONTINUOUS
 10
30.74199999996925
 20
6.359681406947153
 30
0.0
 11
29.30199999996933
 21
7.799681406947081
 31
0.0
  0
LINE
  5
1B58E
  8
0
  6
CONTINUOUS
 10
30.74199999996926
 20
7.033200616027337
 30
0.0
 11
29.30199999996933
 21
8.473200616027269
 31
0.0
  0
LINE
  5
1B58F
  8
0
  6
CONTINUOUS
 10
30.74199999996926
 20
7.706719825107518
 30
0.0
 11
29.68561982508552
 21
8.763099999991255
 31
0.0
  0
LINE
  5
1B590
  8
0
  6
CONTINUOUS
 10
30.74199999996926
 20
8.380239034187703
 30
0.0
 11
30.35913903416571
 21
8.763099999991255
 31
0.0
  0
ENDBLK
  5
1B633
  8
0
  0
BLOCK
  8
0
  2
*X87
 70
     1
 10
0.0
 20
0.0
 30
0.0
  3
*X87
  1

  0
LINE
  5
1B592
  8
0
  6
CONTINUOUS
 10
31.64199999996833
 20
8.5350582899136
 30
0.0
 11
31.87004171004599
 21
8.763099999991255
 31
0.0
  0
LINE
  5
1B593
  8
0
  6
CONTINUOUS
 10
31.64199999996833
 20
7.861539080833413
 30
0.0
 11
32.54356091912618
 21
8.763099999991255
 31
0.0
  0
LINE
  5
1B594
  8
0
  6
CONTINUOUS
 10
31.64199999996833
 20
7.188019871753227
 30
0.0
 11
33.08199999996839
 21
8.628019871753281
 31
0.0
  0
LINE
  5
1B595
  8
0
  6
CONTINUOUS
 10
31.64199999996833
 20
6.514500662673041
 30
0.0
 11
33.08199999996839
 21
7.954500662673095
 31
0.0
  0
LINE
  5
1B596
  8
0
  6
CONTINUOUS
 10
31.64199999996833
 20
5.840981453592855
 30
0.0
 11
33.08199999996839
 21
7.28098145359291
 31
0.0
  0
LINE
  5
1B597
  8
0
  6
CONTINUOUS
 10
31.64199999996833
 20
5.167462244512668
 30
0.0
 11
33.08199999996839
 21
6.607462244512723
 31
0.0
  0
LINE
  5
1B598
  8
0
  6
CONTINUOUS
 10
31.64199999996833
 20
4.493943035432482
 30
0.0
 11
33.08199999996839
 21
5.933943035432536
 31
0.0
  0
LINE
  5
1B599
  8
0
  6
CONTINUOUS
 10
31.64199999996833
 20
3.820423826352294
 30
0.0
 11
33.08199999996839
 21
5.260423826352349
 31
0.0
  0
LINE
  5
1B59A
  8
0
  6
CONTINUOUS
 10
31.64199999996833
 20
3.146904617272108
 30
0.0
 11
33.08199999996839
 21
4.586904617272163
 31
0.0
  0
LINE
  5
1B59B
  8
0
  6
CONTINUOUS
 10
36.23199999996837
 20
8.410423826352327
 30
0.0
 11
36.58467617360729
 21
8.763099999991255
 31
0.0
  0
LINE
  5
1B59C
  8
0
  6
CONTINUOUS
 10
36.23199999996837
 20
7.73690461727214
 30
0.0
 11
37.25819538268748
 21
8.763099999991255
 31
0.0
  0
LINE
  5
1B59D
  8
0
  6
CONTINUOUS
 10
31.64323424774199
 20
2.474619655965573
 30
0.0
 11
33.08199999996839
 21
3.913385408191976
 31
0.0
  0
LINE
  5
1B59E
  8
0
  6
CONTINUOUS
 10
31.74419223861915
 20
1.902058437762552
 30
0.0
 11
33.08199999996839
 21
3.239866199111789
 31
0.0
  0
LINE
  5
1B59F
  8
0
  6
CONTINUOUS
 10
36.23199999996837
 20
7.063385408191953
 30
0.0
 11
37.67199999996831
 21
8.503385408191894
 31
0.0
  0
LINE
  5
1B5A0
  8
0
  6
CONTINUOUS
 10
36.23199999996837
 20
6.389866199111767
 30
0.0
 11
37.67199999996831
 21
7.829866199111708
 31
0.0
  0
LINE
  5
1B5A1
  8
0
  6
CONTINUOUS
 10
31.91111233414976
 20
1.39545932421297
 30
0.0
 11
33.08199999996839
 21
2.566346990031603
 31
0.0
  0
LINE
  5
1B5A2
  8
0
  6
CONTINUOUS
 10
36.23199999996837
 20
5.71634699003158
 30
0.0
 11
37.67199999996831
 21
7.156346990031522
 31
0.0
  0
LINE
  5
1B5A3
  8
0
  6
CONTINUOUS
 10
32.1576374746103
 20
0.9684652555933289
 30
0.0
 11
33.20642631446081
 21
2.017254095443838
 31
0.0
  0
LINE
  5
1B5A4
  8
0
  6
CONTINUOUS
 10
36.23199999996837
 20
5.042827780951393
 30
0.0
 11
37.67199999996831
 21
6.482827780951334
 31
0.0
  0
LINE
  5
1B5A5
  8
0
  6
CONTINUOUS
 10
32.47774023927325
 20
0.6150488111760914
 30
0.0
 11
33.49903056428258
 21
1.636339136185419
 31
0.0
  0
LINE
  5
1B5A6
  8
0
  6
CONTINUOUS
 10
36.23199999996837
 20
4.369308571871207
 30
0.0
 11
37.67199999996831
 21
5.809308571871148
 31
0.0
  0
LINE
  5
1B5A7
  8
0
  6
CONTINUOUS
 10
32.84396249154443
 20
0.3077518543670883
 30
0.0
 11
33.93324121824649
 21
1.397030581069146
 31
0.0
  0
LINE
  5
1B5A8
  8
0
  6
CONTINUOUS
 10
36.23199999996837
 20
3.695789362791021
 30
0.0
 11
37.67199999996831
 21
5.135789362790963
 31
0.0
  0
LINE
  5
1B5A9
  8
0
  6
CONTINUOUS
 10
33.30186329036846
 20
0.0921334441109263
 30
0.0
 11
34.46442907112041
 21
1.254699224862875
 31
0.0
  0
LINE
  5
1B5AA
  8
0
  6
CONTINUOUS
 10
36.23199999996837
 20
3.022270153710834
 30
0.0
 11
37.67199999996831
 21
4.462270153710776
 31
0.0
  0
LINE
  5
1B5AB
  8
0
  6
CONTINUOUS
 10
33.79565647746294
 20
-0.0875925778747773
 30
0.0
 11
35.24350171668284
 21
1.360252661345124
 31
0.0
  0
LINE
  5
1B5AC
  8
0
  6
CONTINUOUS
 10
36.18336676155003
 20
2.300117706212308
 30
0.0
 11
37.67199999996831
 21
3.788750944630589
 31
0.0
  0
LINE
  5
1B5AD
  8
0
  6
CONTINUOUS
 10
34.37182574910968
 20
-0.184942515308224
 30
0.0
 11
37.67199999996831
 21
3.115231735550402
 31
0.0
  0
LINE
  5
1B5AE
  8
0
  6
CONTINUOUS
 10
35.0453449581892
 20
-0.1849425153088955
 30
0.0
 11
37.66345697088136
 21
2.433169497383271
 31
0.0
  0
LINE
  5
1B5AF
  8
0
  6
CONTINUOUS
 10
35.98667157609191
 20
0.0828648935136398
 30
0.0
 11
37.51927401744566
 21
1.615467334867382
 31
0.0
  0
LINE
  5
1B5B0
  8
0
  6
CONTINUOUS
 10
32.27747408544484
 20
0.7830920669904482
 30
0.0
 11
32.24716210471949
 21
0.8134040477157893
 31
0.0
  0
LINE
  5
1B5B1
  8
0
  6
CONTINUOUS
 10
33.83656881101902
 20
-0.1024834495035494
 30
0.0
 11
31.72538911593758
 21
2.008696245577891
 31
0.0
  0
LINE
  5
1B5B2
  8
0
  6
CONTINUOUS
 10
34.5925470859041
 20
-0.1849425153084434
 30
0.0
 11
31.64199999996833
 21
2.765604570627322
 31
0.0
  0
LINE
  5
1B5B3
  8
0
  6
CONTINUOUS
 10
35.26201302775981
 20
-0.1808892480839752
 30
0.0
 11
31.64199999996833
 21
3.439123779707508
 31
0.0
  0
LINE
  5
1B5B4
  8
0
  6
CONTINUOUS
 10
35.75580621485512
 20
-0.0011632260990879
 30
0.0
 11
34.51294304365551
 21
1.241699945100514
 31
0.0
  0
LINE
  5
1B5B5
  8
0
  6
CONTINUOUS
 10
33.08199999996839
 20
2.672642988787641
 30
0.0
 11
31.64199999996833
 21
4.112642988787695
 31
0.0
  0
LINE
  5
1B5B6
  8
0
  6
CONTINUOUS
 10
36.24959940195042
 20
0.1785627958857976
 30
0.0
 11
35.10501653033629
 21
1.323145667499924
 31
0.0
  0
LINE
  5
1B5B7
  8
0
  6
CONTINUOUS
 10
33.08199999996839
 20
3.346162197867827
 30
0.0
 11
31.64199999996833
 21
4.786162197867881
 31
0.0
  0
LINE
  5
1B5B8
  8
0
  6
CONTINUOUS
 10
36.64615197150552
 20
0.4555294354108876
 30
0.0
 11
35.6362043832099
 21
1.465477023706505
 31
0.0
  0
LINE
  5
1B5B9
  8
0
  6
CONTINUOUS
 10
33.08199999996839
 20
4.019681406948013
 30
0.0
 11
31.64199999996833
 21
5.459681406948068
 31
0.0
  0
LINE
  5
1B5BA
  8
0
  6
CONTINUOUS
 10
37.0123742237774
 20
0.7628263922191891
 30
0.0
 11
35.97691545773309
 21
1.798285158263504
 31
0.0
  0
LINE
  5
1B5BB
  8
0
  6
CONTINUOUS
 10
33.08199999996839
 20
4.6932006160282
 30
0.0
 11
31.64199999996833
 21
6.133200616028255
 31
0.0
  0
LINE
  5
1B5BC
  8
0
  6
CONTINUOUS
 10
37.27491524157143
 20
1.173804583505349
 30
0.0
 11
36.17602012811361
 21
2.272699696963169
 31
0.0
  0
LINE
  5
1B5BD
  8
0
  6
CONTINUOUS
 10
33.08199999996839
 20
5.366719825108387
 30
0.0
 11
31.64199999996833
 21
6.806719825108441
 31
0.0
  0
LINE
  5
1B5BE
  8
0
  6
CONTINUOUS
 10
37.51739996707661
 20
1.604839067080355
 30
0.0
 11
36.23199999996837
 21
2.890239034188595
 31
0.0
  0
LINE
  5
1B5BF
  8
0
  6
CONTINUOUS
 10
37.6183579579535
 20
2.177400285283649
 30
0.0
 11
36.23199999996837
 21
3.563758243268782
 31
0.0
  0
LINE
  5
1B5C0
  8
0
  6
CONTINUOUS
 10
33.08199999996839
 20
6.040239034188573
 30
0.0
 11
31.64199999996833
 21
7.480239034188628
 31
0.0
  0
LINE
  5
1B5C1
  8
0
  6
CONTINUOUS
 10
33.08199999996839
 20
6.713758243268759
 30
0.0
 11
31.64199999996833
 21
8.153758243268815
 31
0.0
  0
LINE
  5
1B5C2
  8
0
  6
CONTINUOUS
 10
37.67199999996831
 20
2.797277452349027
 30
0.0
 11
36.23199999996837
 21
4.237277452348969
 31
0.0
  0
LINE
  5
1B5C3
  8
0
  6
CONTINUOUS
 10
37.67199999996831
 20
3.470796661429214
 30
0.0
 11
36.23199999996837
 21
4.910796661429155
 31
0.0
  0
LINE
  5
1B5C4
  8
0
  6
CONTINUOUS
 10
37.67199999996831
 20
4.1443158705094
 30
0.0
 11
36.23199999996837
 21
5.584315870509341
 31
0.0
  0
LINE
  5
1B5C5
  8
0
  6
CONTINUOUS
 10
33.08199999996839
 20
7.387277452348946
 30
0.0
 11
31.70617745232608
 21
8.763099999991255
 31
0.0
  0
LINE
  5
1B5C6
  8
0
  6
CONTINUOUS
 10
33.08199999996839
 20
8.060796661429134
 30
0.0
 11
32.37969666140626
 21
8.763099999991255
 31
0.0
  0
LINE
  5
1B5C7
  8
0
  6
CONTINUOUS
 10
33.08199999996839
 20
8.734315870509318
 30
0.0
 11
33.05321587048645
 21
8.763099999991255
 31
0.0
  0
LINE
  5
1B5C8
  8
0
  6
CONTINUOUS
 10
37.67199999996831
 20
4.817835079589586
 30
0.0
 11
36.23199999996837
 21
6.257835079589528
 31
0.0
  0
LINE
  5
1B5C9
  8
0
  6
CONTINUOUS
 10
37.67199999996831
 20
5.491354288669772
 30
0.0
 11
36.23199999996837
 21
6.931354288669715
 31
0.0
  0
LINE
  5
1B5CA
  8
0
  6
CONTINUOUS
 10
37.67199999996831
 20
6.164873497749959
 30
0.0
 11
36.23199999996837
 21
7.6048734977499
 31
0.0
  0
LINE
  5
1B5CB
  8
0
  6
CONTINUOUS
 10
37.67199999996831
 20
6.838392706830145
 30
0.0
 11
36.23199999996837
 21
8.278392706830086
 31
0.0
  0
LINE
  5
1B5CC
  8
0
  6
CONTINUOUS
 10
37.67199999996831
 20
7.511911915910333
 30
0.0
 11
36.42081191588738
 21
8.763099999991255
 31
0.0
  0
LINE
  5
1B5CD
  8
0
  6
CONTINUOUS
 10
37.67199999996831
 20
8.185431124990519
 30
0.0
 11
37.09433112496757
 21
8.763099999991255
 31
0.0
  0
ENDBLK
  5
1B635
  8
0
  0
BLOCK
  8
0
  2
*X88
 70
     1
 10
0.0
 20
0.0
 30
0.0
  3
*X88
  1

  0
LINE
  5
1B5CF
  8
0
  6
CONTINUOUS
 10
38.60499999996136
 20
8.762866199104765
 30
0.0
 11
38.71672554182345
 21
8.874591740966855
 31
0.0
  0
LINE
  5
1B5D0
  8
0
  6
CONTINUOUS
 10
38.60499999996136
 20
8.089346990024577
 30
0.0
 11
39.03418785440363
 21
8.518534844466847
 31
0.0
  0
LINE
  5
1B5D1
  8
0
  6
CONTINUOUS
 10
38.60499999996136
 20
7.41582778094439
 30
0.0
 11
39.35165016698382
 21
8.16247794796684
 31
0.0
  0
LINE
  5
1B5D2
  8
0
  6
CONTINUOUS
 10
38.60499999996136
 20
6.742308571864204
 30
0.0
 11
39.66911247956399
 21
7.806421051466834
 31
0.0
  0
LINE
  5
1B5D3
  8
0
  6
CONTINUOUS
 10
38.60499999996136
 20
6.068789362784018
 30
0.0
 11
39.98657479214418
 21
7.450364154966827
 31
0.0
  0
LINE
  5
1B5D4
  8
0
  6
CONTINUOUS
 10
38.60499999996136
 20
5.395270153703832
 30
0.0
 11
40.30403710472435
 21
7.09430725846682
 31
0.0
  0
LINE
  5
1B5D5
  8
0
  6
CONTINUOUS
 10
38.60499999996136
 20
4.721750944623645
 30
0.0
 11
40.62149941730453
 21
6.738250361966813
 31
0.0
  0
LINE
  5
1B5D6
  8
0
  6
CONTINUOUS
 10
38.60499999996136
 20
4.048231735543458
 30
0.0
 11
40.93896172988471
 21
6.382193465466806
 31
0.0
  0
LINE
  5
1B5D7
  8
0
  6
CONTINUOUS
 10
38.60499999996136
 20
3.374712526463272
 30
0.0
 11
40.02599999995994
 21
4.795712526461843
 31
0.0
  0
LINE
  5
1B5D8
  8
0
  6
CONTINUOUS
 10
38.60499999996136
 20
2.701193317383085
 30
0.0
 11
40.02599999995994
 21
4.122193317381657
 31
0.0
  0
LINE
  5
1B5D9
  8
0
  6
CONTINUOUS
 10
40.28339754687704
 20
5.053110073378947
 30
0.0
 11
41.25642404246489
 21
6.026136568966799
 31
0.0
  0
LINE
  5
1B5DA
  8
0
  6
CONTINUOUS
 10
40.60085985945722
 20
4.697053176878939
 30
0.0
 11
41.57388635504507
 21
5.670079672466793
 31
0.0
  0
LINE
  5
1B5DB
  8
0
  6
CONTINUOUS
 10
43.57899999995641
 20
8.348712526458318
 30
0.0
 11
43.99338747348935
 21
8.763099999991255
 31
0.0
  0
LINE
  5
1B5DC
  8
0
  6
CONTINUOUS
 10
43.57899999995641
 20
7.675193317378131
 30
0.0
 11
44.66690668256953
 21
8.763099999991255
 31
0.0
  0
LINE
  5
1B5DD
  8
0
  6
CONTINUOUS
 10
38.60499999996136
 20
2.027674108302898
 30
0.0
 11
40.02599999995994
 21
3.44867410830147
 31
0.0
  0
LINE
  5
1B5DE
  8
0
  6
CONTINUOUS
 10
38.60499999996136
 20
1.354154899222712
 30
0.0
 11
40.02599999995994
 21
2.775154899221284
 31
0.0
  0
LINE
  5
1B5DF
  8
0
  6
CONTINUOUS
 10
38.60499999996136
 20
0.6806356901425255
 30
0.0
 11
40.02599999995994
 21
2.101635690141098
 31
0.0
  0
LINE
  5
1B5E0
  8
0
  6
CONTINUOUS
 10
38.60499999996136
 20
0.0071164810623383
 30
0.0
 11
40.02599999995994
 21
1.428116481060911
 31
0.0
  0
LINE
  5
1B5E1
  8
0
  6
CONTINUOUS
 10
40.9183221720374
 20
4.340996280378933
 30
0.0
 11
41.89134866762525
 21
5.314022775966786
 31
0.0
  0
LINE
  5
1B5E2
  8
0
  6
CONTINUOUS
 10
41.23578448461758
 20
3.984939383878926
 30
0.0
 11
42.20881098020543
 21
4.957965879466778
 31
0.0
  0
LINE
  5
1B5E3
  8
0
  6
CONTINUOUS
 10
41.55324679719776
 20
3.628882487378919
 30
0.0
 11
42.52627329278561
 21
4.601908982966772
 31
0.0
  0
LINE
  5
1B5E4
  8
0
  6
CONTINUOUS
 10
41.87070910977793
 20
3.272825590878912
 30
0.0
 11
42.84373560536579
 21
4.245852086466765
 31
0.0
  0
LINE
  5
1B5E5
  8
0
  6
CONTINUOUS
 10
43.57899999995641
 20
7.001674108297943
 30
0.0
 11
44.99999999995498
 21
8.422674108296516
 31
0.0
  0
LINE
  5
1B5E6
  8
0
  6
CONTINUOUS
 10
43.57899999995641
 20
6.328154899217758
 30
0.0
 11
44.99999999995498
 21
7.749154899216329
 31
0.0
  0
LINE
  5
1B5E7
  8
0
  6
CONTINUOUS
 10
43.57899999995641
 20
5.654635690137571
 30
0.0
 11
44.99999999995498
 21
7.075635690136142
 31
0.0
  0
LINE
  5
1B5E8
  8
0
  6
CONTINUOUS
 10
43.57899999995641
 20
4.981116481057384
 30
0.0
 11
44.99999999995498
 21
6.402116481055955
 31
0.0
  0
LINE
  5
1B5E9
  8
0
  6
CONTINUOUS
 10
39.27140272797921
 20
-0.0000000000000009
 30
0.0
 11
40.02599999995994
 21
0.7545972719807246
 31
0.0
  0
LINE
  5
1B5EA
  8
0
  6
CONTINUOUS
 10
39.9449219370594
 20
-0.0000000000000009
 30
0.0
 11
40.02599999995994
 21
0.0810780629005379
 31
0.0
  0
LINE
  5
1B5EB
  8
0
  6
CONTINUOUS
 10
42.18817142235812
 20
2.916768694378905
 30
0.0
 11
43.16119791794597
 21
3.889795189966758
 31
0.0
  0
LINE
  5
1B5EC
  8
0
  6
CONTINUOUS
 10
42.50563373493829
 20
2.560711797878898
 30
0.0
 11
43.47866023052615
 21
3.533738293466751
 31
0.0
  0
LINE
  5
1B5ED
  8
0
  6
CONTINUOUS
 10
43.57899999995641
 20
4.307597271977198
 30
0.0
 11
44.99999999995498
 21
5.728597271975769
 31
0.0
  0
LINE
  5
1B5EE
  8
0
  6
CONTINUOUS
 10
43.57899999995641
 20
3.634078062897011
 30
0.0
 11
44.99999999995498
 21
5.055078062895582
 31
0.0
  0
LINE
  5
1B5EF
  8
0
  6
CONTINUOUS
 10
42.82309604751848
 20
2.204654901378891
 30
0.0
 11
44.99999999995498
 21
4.381558853815395
 31
0.0
  0
LINE
  5
1B5F0
  8
0
  6
CONTINUOUS
 10
43.14055836009865
 20
1.848598004878885
 30
0.0
 11
44.99999999995498
 21
3.70803964473521
 31
0.0
  0
LINE
  5
1B5F1
  8
0
  6
CONTINUOUS
 10
43.45802067267883
 20
1.492541108378878
 30
0.0
 11
44.99999999995498
 21
3.034520435655023
 31
0.0
  0
LINE
  5
1B5F2
  8
0
  6
CONTINUOUS
 10
43.77548298525902
 20
1.136484211878871
 30
0.0
 11
44.99999999995498
 21
2.361001226574837
 31
0.0
  0
LINE
  5
1B5F3
  8
0
  6
CONTINUOUS
 10
44.09294529783919
 20
0.7804273153788639
 30
0.0
 11
44.99999999995498
 21
1.687482017494649
 31
0.0
  0
LINE
  5
1B5F4
  8
0
  6
CONTINUOUS
 10
44.41040761041938
 20
0.4243704188788566
 30
0.0
 11
44.99999999995498
 21
1.013962808414463
 31
0.0
  0
LINE
  5
1B5F5
  8
0
  6
CONTINUOUS
 10
44.72786992299955
 20
0.0683135223788494
 30
0.0
 11
44.99999999995498
 21
0.340443599334276
 31
0.0
  0
LINE
  5
1B5F6
  8
0
  6
CONTINUOUS
 10
39.12223903415696
 20
-0.0000000000000009
 30
0.0
 11
38.60499999996136
 21
0.5172390341955961
 31
0.0
  0
LINE
  5
1B5F7
  8
0
  6
CONTINUOUS
 10
39.79575824323715
 20
-0.0000000000000009
 30
0.0
 11
38.60499999996136
 21
1.190758243275783
 31
0.0
  0
LINE
  5
1B5F8
  8
0
  6
CONTINUOUS
 10
40.02599999995994
 20
0.443277452357397
 30
0.0
 11
38.60499999996136
 21
1.864277452355969
 31
0.0
  0
LINE
  5
1B5F9
  8
0
  6
CONTINUOUS
 10
40.02599999995994
 20
1.116796661437583
 30
0.0
 11
38.60499999996136
 21
2.537796661436155
 31
0.0
  0
LINE
  5
1B5FA
  8
0
  6
CONTINUOUS
 10
40.02599999995994
 20
1.79031587051777
 30
0.0
 11
38.60499999996136
 21
3.211315870516341
 31
0.0
  0
LINE
  5
1B5FB
  8
0
  6
CONTINUOUS
 10
40.02599999995994
 20
2.463835079597956
 30
0.0
 11
38.60499999996136
 21
3.884835079596527
 31
0.0
  0
LINE
  5
1B5FC
  8
0
  6
CONTINUOUS
 10
40.02599999995994
 20
3.137354288678143
 30
0.0
 11
38.60499999996136
 21
4.558354288676714
 31
0.0
  0
LINE
  5
1B5FD
  8
0
  6
CONTINUOUS
 10
40.02599999995994
 20
3.810873497758329
 30
0.0
 11
38.60499999996136
 21
5.2318734977569
 31
0.0
  0
LINE
  5
1B5FE
  8
0
  6
CONTINUOUS
 10
40.02599999995994
 20
4.484392706838515
 30
0.0
 11
38.60499999996136
 21
5.905392706837086
 31
0.0
  0
LINE
  5
1B5FF
  8
0
  6
CONTINUOUS
 10
44.99999999995498
 20
0.183911915923658
 30
0.0
 11
41.53858364506288
 21
3.64532827081576
 31
0.0
  0
LINE
  5
1B600
  8
0
  6
CONTINUOUS
 10
40.02599999995994
 20
5.157911915918703
 30
0.0
 11
38.60499999996136
 21
6.578911915917274
 31
0.0
  0
LINE
  5
1B601
  8
0
  6
CONTINUOUS
 10
44.99999999995498
 20
0.8574311250038447
 30
0.0
 11
38.60499999996136
 21
7.25243112499746
 31
0.0
  0
LINE
  5
1B602
  8
0
  6
CONTINUOUS
 10
44.99999999995498
 20
1.530950334084031
 30
0.0
 11
38.60499999996136
 21
7.925950334077647
 31
0.0
  0
LINE
  5
1B603
  8
0
  6
CONTINUOUS
 10
44.99999999995498
 20
2.204469543164218
 30
0.0
 11
43.57899999995641
 21
3.625469543162789
 31
0.0
  0
LINE
  5
1B604
  8
0
  6
CONTINUOUS
 10
41.89876730984767
 20
5.305702233271528
 30
0.0
 11
38.60499999996136
 21
8.599469543157834
 31
0.0
  0
LINE
  5
1B605
  8
0
  6
CONTINUOUS
 10
44.99999999995498
 20
2.877988752244405
 30
0.0
 11
43.57899999995641
 21
4.298988752242975
 31
0.0
  0
LINE
  5
1B606
  8
0
  6
CONTINUOUS
 10
44.99999999995498
 20
3.551507961324591
 30
0.0
 11
43.57899999995641
 21
4.972507961323163
 31
0.0
  0
LINE
  5
1B607
  8
0
  6
CONTINUOUS
 10
44.99999999995498
 20
4.225027170404777
 30
0.0
 11
43.57899999995641
 21
5.646027170403348
 31
0.0
  0
LINE
  5
1B608
  8
0
  6
CONTINUOUS
 10
44.99999999995498
 20
4.898546379484964
 30
0.0
 11
43.57899999995641
 21
6.319546379483535
 31
0.0
  0
LINE
  5
1B609
  8
0
  6
CONTINUOUS
 10
44.99999999995498
 20
5.572065588565151
 30
0.0
 11
43.57899999995641
 21
6.993065588563722
 31
0.0
  0
LINE
  5
1B60A
  8
0
  6
CONTINUOUS
 10
44.99999999995498
 20
6.245584797645336
 30
0.0
 11
43.57899999995641
 21
7.666584797643908
 31
0.0
  0
LINE
  5
1B60B
  8
0
  6
CONTINUOUS
 10
44.99999999995498
 20
6.919104006725522
 30
0.0
 11
43.57899999995641
 21
8.340104006724093
 31
0.0
  0
LINE
  5
1B60C
  8
0
  6
CONTINUOUS
 10
44.99999999995498
 20
7.592623215805709
 30
0.0
 11
43.82952321576943
 21
8.763099999991255
 31
0.0
  0
LINE
  5
1B60D
  8
0
  6
CONTINUOUS
 10
44.99999999995498
 20
8.266142424885896
 30
0.0
 11
44.50304242484962
 21
8.763099999991255
 31
0.0
  0
ENDBLK
  5
1B637
  8
0
  0
BLOCK
  8
0
  2
*X89
 70
     1
 10
0.0
 20
0.0
 30
0.0
  3
*X89
  1

  0
LINE
  5
1B60F
  8
0
  6
CONTINUOUS
 10
0.0
 20
8.548461116714023
 30
0.0
 11
0.2146388832772324
 21
8.763099999991255
 31
0.0
  0
LINE
  5
1B610
  8
0
  6
CONTINUOUS
 10
-0.0000000000000002
 20
7.874941907633837
 30
0.0
 11
0.8881580923574184
 21
8.763099999991255
 31
0.0
  0
LINE
  5
1B611
  8
0
  6
CONTINUOUS
 10
0.0
 20
7.20142269855365
 30
0.0
 11
1.420999999998572
 21
8.622422698552223
 31
0.0
  0
LINE
  5
1B612
  8
0
  6
CONTINUOUS
 10
-0.0000000000000001
 20
6.527903489473465
 30
0.0
 11
1.420999999998571
 21
7.948903489472036
 31
0.0
  0
LINE
  5
1B613
  8
0
  6
CONTINUOUS
 10
-0.0000000000000002
 20
5.854384280393278
 30
0.0
 11
1.420999999998571
 21
7.275384280391849
 31
0.0
  0
LINE
  5
1B614
  8
0
  6
CONTINUOUS
 10
-0.0000000000000002
 20
5.180865071313091
 30
0.0
 11
1.420999999998571
 21
6.601865071311663
 31
0.0
  0
LINE
  5
1B615
  8
0
  6
CONTINUOUS
 10
0.0
 20
4.507345862232905
 30
0.0
 11
1.420999999998571
 21
5.928345862231477
 31
0.0
  0
LINE
  5
1B616
  8
0
  6
CONTINUOUS
 10
-0.0000000000000003
 20
3.833826653152718
 30
0.0
 11
1.420999999998571
 21
5.25482665315129
 31
0.0
  0
LINE
  5
1B617
  8
0
  6
CONTINUOUS
 10
-0.0000000000000002
 20
3.160307444072532
 30
0.0
 11
1.420999999998571
 21
4.581307444071103
 31
0.0
  0
LINE
  5
1B618
  8
0
  6
CONTINUOUS
 10
-0.0000000000000001
 20
2.486788234992345
 30
0.0
 11
1.420999999998571
 21
3.907788234990917
 31
0.0
  0
LINE
  5
1B619
  8
0
  6
CONTINUOUS
 10
-0.0000000000000006
 20
1.813269025912159
 30
0.0
 11
1.420999999998571
 21
3.234269025910731
 31
0.0
  0
LINE
  5
1B61A
  8
0
  6
CONTINUOUS
 10
0.0
 20
1.139749816831973
 30
0.0
 11
1.420999999998571
 21
2.560749816830544
 31
0.0
  0
LINE
  5
1B61B
  8
0
  6
CONTINUOUS
 10
0.0000000000000002
 20
0.466230607751787
 30
0.0
 11
1.420999999998571
 21
1.887230607750358
 31
0.0
  0
LINE
  5
1B61C
  8
0
  6
CONTINUOUS
 10
0.2072886013284003
 20
-0.0000000000000009
 30
0.0
 11
1.420999999998571
 21
1.213711398670171
 31
0.0
  0
LINE
  5
1B61D
  8
0
  6
CONTINUOUS
 10
0.8808078104085864
 20
-0.0000000000000009
 30
0.0
 11
1.420999999998571
 21
0.5401921895899839
 31
0.0
  0
LINE
  5
1B61E
  8
0
  6
CONTINUOUS
 10
0.0581249075061505
 20
-0.0000000000000009
 30
0.0
 11
-0.0000000000000002
 21
0.0581249075061496
 31
0.0
  0
LINE
  5
1B61F
  8
0
  6
CONTINUOUS
 10
0.7316441165863372
 20
-0.0000000000000009
 30
0.0
 11
-0.0000000000000002
 21
0.7316441165863363
 31
0.0
  0
LINE
  5
1B620
  8
0
  6
CONTINUOUS
 10
1.405163325666523
 20
-0.0000000000000009
 30
0.0
 11
-0.0000000000000002
 21
1.405163325666523
 31
0.0
  0
LINE
  5
1B621
  8
0
  6
CONTINUOUS
 10
1.420999999998572
 20
0.6576825347481381
 30
0.0
 11
-0.0000000000000001
 21
2.07868253474671
 31
0.0
  0
LINE
  5
1B622
  8
0
  6
CONTINUOUS
 10
1.420999999998571
 20
1.331201743828324
 30
0.0
 11
-0.0000000000000001
 21
2.752201743826896
 31
0.0
  0
LINE
  5
1B623
  8
0
  6
CONTINUOUS
 10
1.420999999998571
 20
2.004720952908511
 30
0.0
 11
-0.0000000000000002
 21
3.425720952907082
 31
0.0
  0
LINE
  5
1B624
  8
0
  6
CONTINUOUS
 10
1.420999999998571
 20
2.678240161988697
 30
0.0
 11
-0.0000000000000001
 21
4.099240161987269
 31
0.0
  0
LINE
  5
1B625
  8
0
  6
CONTINUOUS
 10
1.420999999998572
 20
3.351759371068884
 30
0.0
 11
0.0
 21
4.772759371067455
 31
0.0
  0
LINE
  5
1B626
  8
0
  6
CONTINUOUS
 10
1.420999999998571
 20
4.02527858014907
 30
0.0
 11
-0.0000000000000003
 21
5.446278580147642
 31
0.0
  0
LINE
  5
1B627
  8
0
  6
CONTINUOUS
 10
1.420999999998571
 20
4.698797789229257
 30
0.0
 11
0.0
 21
6.119797789227828
 31
0.0
  0
LINE
  5
1B628
  8
0
  6
CONTINUOUS
 10
1.420999999998571
 20
5.372316998309444
 30
0.0
 11
-0.0000000000000001
 21
6.793316998308015
 31
0.0
  0
LINE
  5
1B629
  8
0
  6
CONTINUOUS
 10
1.420999999998572
 20
6.045836207389629
 30
0.0
 11
-0.0000000000000004
 21
7.466836207388202
 31
0.0
  0
LINE
  5
1B62A
  8
0
  6
CONTINUOUS
 10
1.420999999998571
 20
6.719355416469816
 30
0.0
 11
0.0
 21
8.140355416468388
 31
0.0
  0
LINE
  5
1B62B
  8
0
  6
CONTINUOUS
 10
1.420999999998571
 20
7.392874625550003
 30
0.0
 11
0.0507746255573185
 21
8.763099999991255
 31
0.0
  0
LINE
  5
1B62C
  8
0
  6
CONTINUOUS
 10
1.420999999998571
 20
8.06639383463019
 30
0.0
 11
0.7242938346375052
 21
8.763099999991255
 31
0.0
  0
LINE
  5
1B62D
  8
0
  6
CONTINUOUS
 10
1.420999999998571
 20
8.739913043710375
 30
0.0
 11
1.397813043717691
 21
8.763099999991255
 31
0.0
  0
ENDBLK
  5
1B639
  8
0
  0
ENDSEC
  0
SECTION
  2
ENTITIES
  0
TEXT
  5
1A3D9
  8
1TEXT
 10
287.8700022602819
 20
-2332.302387377089
 30
0.0
 40
8.0
  1
KC-067-X
  0
TEXT
  5
1A3DA
  8
1TEXT
 10
296.5689900017942
 20
-2342.340499473912
 30
0.0
 40
4.0
  1
表面処理
 72
     1
 11
305.8356566684608
 21
-2342.340499473912
 31
0.0
  0
TEXT
  5
1A3DB
  8
1TEXT
 10
299.2089900017942
 20
-2349.318394493896
 30
0.0
 40
4.0
  1
クローム
 41
0.7
 72
     1
 11
305.8356566684608
 21
-2349.318394493896
 31
0.0
  0
LINE
  5
1A3DC
  8
1DIM
 10
288.4356566684608
 20
-2336.840499473912
 30
0.0
 11
358.4356566684608
 21
-2336.840499473912
 31
0.0
  0
LINE
  5
1A3DD
  8
1DIM
 10
288.4356566684608
 20
-2350.840499473912
 30
0.0
 11
358.4356566684608
 21
-2350.840499473912
 31
0.0
  0
LINE
  5
1A3DE
  8
1DIM
 10
288.4356566684608
 20
-2343.840499473912
 30
0.0
 11
358.4356566684608
 21
-2343.840499473912
 31
0.0
  0
LINE
  5
1A3DF
  8
1DIM
 10
323.4356566684608
 20
-2336.840499473912
 30
0.0
 11
323.4356566684606
 21
-2364.840499473912
 31
0.0
  0
TEXT
  5
1A3E0
  8
1TEXT
 10
325.5231566684613
 20
-2349.554856457562
 30
0.0
 40
4.0
  1
KC-067-XC
 41
0.9
 72
     1
 11
340.8356566684613
 21
-2349.554856457562
 31
0.0
  0
TEXT
  5
1A3E1
  8
1TEXT
 10
333.9689900017942
 20
-2342.340499473912
 30
0.0
 40
4.0
  1
コード
 72
     1
 11
340.8356566684608
 21
-2342.340499473912
 31
0.0
  0
LINE
  5
1A3E2
  8
1DIM
 10
288.4356566684609
 20
-2364.840499473912
 30
0.0
 11
288.4356566684608
 21
-2336.840499473912
 31
0.0
  0
LINE
  5
1A3E3
  8
1DIM
 10
358.4356566684608
 20
-2364.840499473912
 30
0.0
 11
358.4356566684608
 21
-2336.840499473912
 31
0.0
  0
LINE
  5
1A675
  8
01
 10
234.954240944434
 20
-2397.503170791006
 30
0.0
 11
64.95424094443399
 21
-2397.503170791006
 31
0.0
  0
LINE
  5
1A676
  8
01
 10
234.9542409444342
 20
-2391.503170791006
 30
0.0
 11
64.95424094443399
 21
-2391.503170791006
 31
0.0
  0
ARC
  5
1A677
  8
01
 10
234.9542409444342
 20
-2387.503170791006
 30
0.0
 40
4.0
 50
270.0
 51
0.0
  0
ARC
  5
1A678
  8
01
 10
64.95424094443399
 20
-2387.503170791006
 30
0.0
 40
4.0
 50
180.0
 51
270.0
  0
LINE
  5
1A679
  8
01
 10
234.9542409444342
 20
-2366.503170791006
 30
0.0
 11
64.95424094443399
 21
-2366.503170791006
 31
0.0
  0
ARC
  5
1A67A
  8
01
 10
64.95424094443399
 20
-2370.503170791006
 30
0.0
 40
4.0
 50
90.0
 51
180.0
  0
LINE
  5
1A67B
  8
01
 10
243.954240944434
 20
-2364.253170791006
 30
0.0
 11
55.95424094443399
 21
-2364.253170791006
 31
0.0
  0
ARC
  5
1A67C
  8
01
 10
55.95424094443399
 20
-2365.253170791006
 30
0.0
 40
1.0
 50
90.0
 51
180.0
  0
LINE
  5
1A67D
  8
01
 10
205.4542409444342
 20
-2361.253170791006
 30
0.0
 11
94.45424094443354
 21
-2361.253170791006
 31
0.0
  0
LINE
  5
1A67E
  8
01
 10
241.954240944434
 20
-2345.753170791006
 30
0.0
 11
206.4542409444344
 21
-2345.753170791006
 31
0.0
  0
ARC
  5
1A67F
  8
01
 10
241.954240944434
 20
-2346.753170791006
 30
0.0
 40
1.0
 50
0.0
 51
90.0
  0
LINE
  5
1A680
  8
01
 10
238.9542409444342
 20
-2370.503170791006
 30
0.0
 11
238.9542409444342
 21
-2387.503170791006
 31
0.0
  0
ARC
  5
1A681
  8
01
 10
234.9542409444342
 20
-2370.503170791006
 30
0.0
 40
4.0
 50
0.0
 51
90.0
  0
LINE
  5
1A682
  8
01
 10
244.954240944434
 20
-2365.253170791006
 30
0.0
 11
244.954240944434
 21
-2387.503170791006
 31
0.0
  0
ARC
  5
1A683
  8
01
 10
243.954240944434
 20
-2365.253170791006
 30
0.0
 40
1.0
 50
0.0
 51
90.0
  0
ARC
  5
1A684
  8
01
 10
234.954240944434
 20
-2387.503170791006
 30
0.0
 40
10.0
 50
270.0
 51
0.0
  0
LINE
  5
1A685
  8
01
 10
60.95424094443399
 20
-2370.503170791006
 30
0.0
 11
60.95424094443399
 21
-2387.503170791006
 31
0.0
  0
ARC
  5
1A686
  8
01
 10
64.95424094443399
 20
-2387.503170791006
 30
0.0
 40
10.0
 50
180.0
 51
270.0
  0
LINE
  5
1A687
  8
01
  6
BYBLOCK
 10
205.4542409444342
 20
-2355.753168699813
 30
0.0
 11
242.954240944434
 21
-2355.753168699813
 31
0.0
  0
LINE
  5
1A688
  8
01
 10
216.904240944434
 20
-2353.953169658881
 30
0.0
 11
229.0042409444339
 21
-2353.953169658881
 31
0.0
  0
LINE
  5
1A689
  8
01
 10
216.904240944434
 20
-2353.803169658881
 30
0.0
 11
229.0042409444339
 21
-2353.803169658881
 31
0.0
  0
LINE
  5
1A68A
  8
01
 10
216.904240944434
 20
-2347.753169658881
 30
0.0
 11
229.0042409444339
 21
-2347.753169658881
 31
0.0
  0
LINE
  5
1A68B
  8
01
 10
216.904240944434
 20
-2347.903169658881
 30
0.0
 11
229.0042409444339
 21
-2347.903169658881
 31
0.0
  0
LINE
  5
1A68C
  8
01
 10
54.95424094443445
 20
-2452.195467474343
 30
0.0
 11
54.95424094443422
 21
-2472.195466250422
 31
0.0
  0
ARC
  5
1A68D
  8
01
 10
55.95424094443422
 20
-2472.195466250422
 30
0.0
 40
1.0
 50
180.0
 51
270.0
  0
LINE
  5
1A68E
  8
01
 10
57.95424094443422
 20
-2447.195467884319
 30
0.0
 11
93.45424094443422
 21
-2447.195467884319
 31
0.0
  0
ARC
  5
1A68F
  8
01
 10
57.95424094443422
 20
-2448.195467884319
 30
0.0
 40
1.0
 50
90.0
 51
180.0
  0
LINE
  5
1A690
  8
01
 10
55.95424094443422
 20
-2473.195466250422
 30
0.0
 11
243.954240944434
 21
-2473.195466250422
 31
0.0
  0
ARC
  5
1A691
  8
01
 10
243.954240944434
 20
-2472.195466250422
 30
0.0
 40
1.0
 50
270.0
 51
0.0
  0
LINE
  5
1A692
  8
01
 10
94.45424094443422
 20
-2451.195467474343
 30
0.0
 11
94.45424094443422
 21
-2448.195467884319
 31
0.0
  0
ARC
  5
1A693
  8
01
 10
93.45424094443422
 20
-2448.195467884319
 30
0.0
 40
1.0
 50
0.0
 51
90.0
  0
LINE
  5
1A694
  8
01
 10
55.95424094443445
 20
-2451.195467474343
 30
0.0
 11
243.954240944434
 21
-2451.195467474343
 31
0.0
  0
LINE
  5
1A695
  8
01
 10
242.954240944434
 20
-2346.753170791006
 30
0.0
 11
242.954240944434
 21
-2364.253170791006
 31
0.0
  0
LINE
  5
1A696
  8
01
 10
205.4542409444344
 20
-2346.753170791006
 30
0.0
 11
205.4542409444344
 21
-2363.253170791006
 31
0.0
  0
ARC
  5
1A697
  8
01
 10
206.4542409444344
 20
-2346.753170791006
 30
0.0
 40
1.0
 50
90.0
 51
180.0
  0
ARC
  5
1A698
  8
01
 10
229.0042409444339
 20
-2350.853169658881
 30
0.0
 40
3.100000000000021
 50
270.0
 51
90.0
  0
ARC
  5
1A699
  8
01
 10
229.0042409444339
 20
-2350.853169658881
 30
0.0
 40
2.950000000000021
 50
270.0
 51
90.0
  0
ARC
  5
1A69A
  8
01
 10
216.904240944434
 20
-2350.853169658881
 30
0.0
 40
3.100000000000021
 50
90.0
 51
270.0
  0
ARC
  5
1A69B
  8
01
 10
216.904240944434
 20
-2350.853169658881
 30
0.0
 40
2.950000000000021
 50
90.0
 51
270.0
  0
LINE
  5
1A69C
  8
01
 10
244.954240944434
 20
-2452.195467474343
 30
0.0
 11
244.954240944434
 21
-2472.195466250422
 31
0.0
  0
LINE
  5
1A69D
  8
01
 10
205.4542409444342
 20
-2451.195467474343
 30
0.0
 11
205.4542409444342
 21
-2448.195467884319
 31
0.0
  0
ARC
  5
1A69E
  8
01
 10
206.4542409444342
 20
-2448.195467884319
 30
0.0
 40
1.0
 50
90.0
 51
180.0
  0
LINE
  5
1A69F
  8
01
 10
94.45424094443354
 20
-2346.753170791006
 30
0.0
 11
94.45424094443354
 21
-2363.253170791006
 31
0.0
  0
ARC
  5
1A6A0
  8
01
 10
93.45424094443354
 20
-2346.753170791006
 30
0.0
 40
1.0
 50
0.0
 51
90.0
  0
ARC
  5
1A6A1
  8
01
 10
95.45424094443354
 20
-2363.253170791006
 30
0.0
 40
1.0
 50
180.0
 51
270.0
  0
ARC
  5
1A6A2
  8
01
 10
204.4542409444344
 20
-2363.253170791006
 30
0.0
 40
1.0
 50
270.0
 51
0.0
  0
CIRCLE
  5
1A6A3
  8
01
 10
234.954240944434
 20
-2349.753170791006
 30
0.0
 40
1.649999999999864
  0
CIRCLE
  5
1A6A4
  8
1HATCH
 10
234.954240944434
 20
-2349.753170791006
 30
0.0
 40
2.0
  0
LINE
  5
1A6A5
  8
1CENTER
 10
231.454240944434
 20
-2349.753170791006
 30
0.0
 11
238.454240944434
 21
-2349.753170791006
 31
0.0
  0
LINE
  5
1A6A6
  8
1CENTER
 10
234.954240944434
 20
-2353.253170791006
 30
0.0
 11
234.954240944434
 21
-2346.253170791006
 31
0.0
  0
CIRCLE
  5
1A6A7
  8
01
 10
210.9542409444351
 20
-2349.753170791006
 30
0.0
 40
1.649999999999864
  0
CIRCLE
  5
1A6A8
  8
1HATCH
 10
210.9542409444351
 20
-2349.753170791006
 30
0.0
 40
2.0
  0
LINE
  5
1A6A9
  8
1CENTER
 10
214.4542409444351
 20
-2349.753170791006
 30
0.0
 11
207.4542409444351
 21
-2349.753170791006
 31
0.0
  0
LINE
  5
1A6AA
  8
1CENTER
 10
210.9542409444351
 20
-2353.253170791006
 30
0.0
 11
210.9542409444349
 21
-2346.253170791006
 31
0.0
  0
LINE
  5
1A6AB
  8
1PHANTOM
 10
307.5197895876321
 20
-2473.195467817477
 30
0.0
 11
307.4197895876322
 21
-2473.195467813106
 31
0.0
  0
ARC
  5
1A6AC
  8
01
  6
BYBLOCK
 10
277.0197901405794
 20
-2452.195466075577
 30
0.0
 40
1.0
 50
89.99999749551827
 51
179.9999974955313
  0
LINE
  5
1A6AD
  8
01
  6
BYBLOCK
 10
309.2697901187261
 20
-2451.695466097432
 30
0.0
 11
309.2697900968702
 21
-2452.195467926755
 31
0.0
  0
ARC
  5
1A6AE
  8
01
  6
BYBLOCK
 10
308.7697901187261
 20
-2451.695466075577
 30
0.0
 40
0.5
 50
359.9999974955313
 51
90.0
  0
LINE
  5
1A6AF
  8
1PHANTOM
 10
307.0197900968702
 20
-2452.19546738692
 30
0.0
 11
307.019789222643
 21
-2472.19546738692
 31
0.0
  0
ARC
  5
1A6B0
  8
1PHANTOM
 10
308.0197900968702
 20
-2452.195467430632
 30
0.0
 40
1.0
 50
89.99999749551827
 51
179.9999974955313
  0
LINE
  5
1A6B1
  8
1PHANTOM
 10
282.0197900968705
 20
-2452.195466294134
 30
0.0
 11
282.0197892226428
 21
-2472.195466294133
 31
0.0
  0
ARC
  5
1A6B2
  8
1PHANTOM
 10
281.0197900968705
 20
-2452.195466250423
 30
0.0
 40
1.0
 50
359.9999974955313
 51
89.99999749551827
  0
LINE
  5
1A6B3
  8
01
  6
BYBLOCK
 10
309.2697900094478
 20
-2454.195468002028
 30
0.0
 11
309.2697898127464
 21
-2458.695467474343
 31
0.0
  0
LINE
  5
1A6B5
  8
01
  6
BYBLOCK
 10
309.2697892663538
 20
-2471.195467474343
 30
0.0
 11
309.2697892007865
 21
-2472.695467474343
 31
0.0
  0
ARC
  5
1A6B7
  8
01
  6
BYBLOCK
 10
277.0197892226425
 20
-2472.195466075576
 30
0.0
 40
1.0
 50
179.9999974955053
 51
269.9999974955182
  0
LINE
  5
1A6B8
  8
01
  6
BYBLOCK
 10
308.7697891789309
 20
-2473.195467452487
 30
0.0
 11
277.0196413420543
 21
-2473.195466064642
 31
0.0
  0
ARC
  5
1A6B9
  8
01
  6
BYBLOCK
 10
308.7697892007865
 20
-2472.695467452487
 30
0.0
 40
0.5
 50
269.9999974955182
 51
359.9999974955052
  0
ARC
  5
1A6BA
  8
1PHANTOM
 10
308.0197892226428
 20
-2472.195467430632
 30
0.0
 40
1.0
 50
179.9999974955313
 51
269.9999974955182
  0
ARC
  5
1A6BB
  8
1PHANTOM
 10
281.0197892226428
 20
-2472.195466250422
 30
0.0
 40
1.0
 50
269.9999974955182
 51
359.9999974955313
  0
LINE
  5
1A6BF
  8
01
 10
314.2697899001686
 20
-2467.055275472404
 30
0.0
 11
314.2697899001687
 21
-2468.695460992459
 31
0.0
  0
LINE
  5
1A6C2
  8
01
  6
BYBLOCK
 10
309.2697900094478
 20
-2454.195468002028
 30
0.0
 11
327.2697905401404
 21
-2454.195468002028
 31
0.0
  0
LINE
  5
1A6C3
  8
01
  6
BYBLOCK
 10
276.0197901405794
 20
-2452.195466075577
 30
0.0
 11
276.0197892226425
 21
-2472.195466031865
 31
0.0
  0
LINE
  5
1A6C4
  8
01
  6
BYBLOCK
 10
309.2697900968702
 20
-2452.195467926755
 30
0.0
 11
310.6097313804647
 21
-2452.195467985326
 31
0.0
  0
ARC
  5
1A6C7
  8
01
  6
BYBLOCK
 10
326.7697907132005
 20
-2448.195468239292
 30
0.0
 40
1.0
 50
359.9999974955313
 51
89.99999749529681
  0
LINE
  5
1A6C8
  8
01
  6
BYBLOCK
 10
327.7697907132005
 20
-2448.195468283003
 30
0.0
 11
327.7697905401405
 21
-2453.695468017761
 31
0.0
  0
ARC
  5
1A6C9
  8
01
  6
BYBLOCK
 10
327.2697905401404
 20
-2453.695468002028
 30
0.0
 40
0.5
 50
270.0
 51
359.9999981971692
  0
LINE
  5
1A6CA
  8
01
 10
318.6798505573596
 20
-2447.195467885669
 30
0.0
 11
326.7697907132005
 21
-2447.195468239292
 31
0.0
  0
ARC
  5
1A6CB
  8
01
 10
318.6798504699369
 20
-2449.195467885669
 30
0.0
 40
2.0
 50
89.99999749552478
 51
126.5288562294653
  0
LINE
  5
1A6D4
  8
01
  6
BYBLOCK
 10
56.95424094443422
 20
-2451.195467474343
 30
0.0
 11
56.95424094443422
 21
-2448.195467884319
 31
0.0
  0
ARC
  5
1A6D5
  8
01
 10
55.95424094443445
 20
-2452.195467474343
 30
0.0
 40
1.0
 50
90.0
 51
180.0
  0
ARC
  5
1A6D6
  8
01
 10
243.954240944434
 20
-2452.195467474343
 30
0.0
 40
1.0
 50
0.0
 51
90.0
  0
LINE
  5
1A6D7
  8
01
  6
BYBLOCK
 10
277.0197901842909
 20
-2451.195466075577
 30
0.0
 11
308.7697901187261
 21
-2451.195466075577
 31
0.0
  0
LINE
  5
1A6D8
  8
01
 10
54.95424094443399
 20
-2387.503170791006
 30
0.0
 11
54.95424094443399
 21
-2365.253170791006
 31
0.0
  0
LINE
  5
1A6D9
  8
01
 10
311.8001865933312
 20
-2451.802582354095
 30
0.0
 11
317.4893953444933
 21
-2447.5883535169
 31
0.0
  0
ARC
  5
1A6DA
  8
01
 10
310.6097314678876
 20
-2450.195467985326
 30
0.0
 40
2.0
 50
269.9999974955182
 51
306.5288562294653
  0
LINE
  5
1A6DB
  8
01
 10
57.95424094443399
 20
-2345.753170791006
 30
0.0
 11
93.45424094443354
 21
-2345.753170791006
 31
0.0
  0
ARC
  5
1A6DC
  8
01
 10
57.95424094443399
 20
-2346.753170791006
 30
0.0
 40
1.0
 50
90.0
 51
180.0
  0
LINE
  5
1A6DD
  8
01
  6
BYBLOCK
 10
94.45424094443376
 20
-2355.753168699813
 30
0.0
 11
56.95424094443399
 21
-2355.753168699813
 31
0.0
  0
LINE
  5
1A6DE
  8
01
 10
83.00424094443395
 20
-2353.953169658881
 30
0.0
 11
70.90424094443404
 21
-2353.953169658881
 31
0.0
  0
LINE
  5
1A6DF
  8
01
 10
83.00424094443395
 20
-2353.803169658881
 30
0.0
 11
70.90424094443404
 21
-2353.803169658881
 31
0.0
  0
LINE
  5
1A6E0
  8
01
 10
83.00424094443395
 20
-2347.753169658881
 30
0.0
 11
70.90424094443404
 21
-2347.753169658881
 31
0.0
  0
LINE
  5
1A6E1
  8
01
 10
83.00424094443395
 20
-2347.903169658881
 30
0.0
 11
70.90424094443404
 21
-2347.903169658881
 31
0.0
  0
LINE
  5
1A6E2
  8
01
 10
56.95424094443399
 20
-2346.753170791006
 30
0.0
 11
56.95424094443399
 21
-2364.253170791006
 31
0.0
  0
ARC
  5
1A6E3
  8
01
 10
70.90424094443404
 20
-2350.853169658881
 30
0.0
 40
3.100000000000021
 50
90.0
 51
270.0
  0
ARC
  5
1A6E4
  8
01
 10
70.90424094443404
 20
-2350.853169658881
 30
0.0
 40
2.950000000000021
 50
90.0
 51
270.0
  0
ARC
  5
1A6E5
  8
01
 10
83.00424094443395
 20
-2350.853169658881
 30
0.0
 40
3.100000000000021
 50
270.0
 51
90.0
  0
ARC
  5
1A6E6
  8
01
 10
83.00424094443395
 20
-2350.853169658881
 30
0.0
 40
2.950000000000021
 50
270.0
 51
90.0
  0
CIRCLE
  5
1A6E7
  8
01
 10
64.95424094443399
 20
-2349.753170791006
 30
0.0
 40
1.649999999999864
  0
CIRCLE
  5
1A6E8
  8
1HATCH
 10
64.95424094443399
 20
-2349.753170791006
 30
0.0
 40
2.0
  0
LINE
  5
1A6E9
  8
1CENTER
 10
68.45424094443399
 20
-2349.753170791006
 30
0.0
 11
61.45424094443399
 21
-2349.753170791006
 31
0.0
  0
LINE
  5
1A6EA
  8
1CENTER
 10
64.95424094443399
 20
-2353.253170791006
 30
0.0
 11
64.95424094443399
 21
-2346.253170791006
 31
0.0
  0
CIRCLE
  5
1A6EB
  8
01
 10
88.95424094443308
 20
-2349.753170791006
 30
0.0
 40
1.649999999999864
  0
CIRCLE
  5
1A6EC
  8
1HATCH
 10
88.95424094443308
 20
-2349.753170791006
 30
0.0
 40
2.0
  0
LINE
  5
1A6ED
  8
1CENTER
 10
85.45424094443308
 20
-2349.753170791006
 30
0.0
 11
92.45424094443308
 21
-2349.753170791006
 31
0.0
  0
LINE
  5
1A6EE
  8
1CENTER
 10
88.95424094443285
 20
-2353.253170791006
 30
0.0
 11
88.95424094443308
 21
-2346.253170791006
 31
0.0
  0
LINE
  5
1A6EF
  8
01
 10
241.9542409444342
 20
-2447.195467884319
 30
0.0
 11
206.4542409444342
 21
-2447.195467884319
 31
0.0
  0
ARC
  5
1A6F0
  8
01
 10
241.9542409444342
 20
-2448.195467884319
 30
0.0
 40
1.0
 50
0.0
 51
90.0
  0
LINE
  5
1A6F1
  8
01
  6
BYBLOCK
 10
242.9542409444342
 20
-2451.195467474343
 30
0.0
 11
242.9542409444342
 21
-2448.195467884319
 31
0.0
  0
ARC
  5
1A6F2
  8
01
  6
BYBLOCK
 10
312.7697899153865
 20
-2468.095460992459
 30
0.0
 40
1.0
 50
180.0
 51
270.0
  0
LINE
  5
1A6F4
  8
01
  6
BYBLOCK
 10
311.7697899153869
 20
-2467.095467842482
 30
0.0
 11
311.7697899153869
 21
-2468.795460992459
 31
0.0
  0
LINE
  5
1A6F7
  8
01
  6
BYBLOCK
 10
309.2697899153869
 20
-2451.695015144179
 30
0.0
 11
309.2697899153864
 21
-2471.194328191395
 31
0.0
  0
ARC
  5
1A6F9
  8
01
  6
BYBLOCK
 10
309.5697899153867
 20
-2468.795460992459
 30
0.0
 40
0.3
 50
180.0
 51
270.0
  0
ARC
  5
1A6FA
  8
01
  6
BYBLOCK
 10
310.7697899153869
 20
-2469.295460992459
 30
0.0
 40
1.5
 50
180.0
 51
270.0
  0
LINE
  5
1A6FC
  8
01
  6
BYBLOCK
 10
314.419789915387
 20
-2456.195468002028
 30
0.0
 11
314.419789915387
 21
-2466.795467842482
 31
0.0
  0
ARC
  5
1A700
  8
01
  6
BYBLOCK
 10
314.7197899153867
 20
-2456.195468002028
 30
0.0
 40
0.3
 50
90.0
 51
180.0
  0
LINE
  5
1A701
  8
01
  6
BYBLOCK
 10
327.7697899153865
 20
-2454.495468002028
 30
0.0
 11
327.7697899153865
 21
-2455.595468002028
 31
0.0
  0
ARC
  5
1A702
  8
01
  6
BYBLOCK
 10
327.4697899153867
 20
-2454.495468002028
 30
0.0
 40
0.3
 50
0.0
 51
90.0
  0
LINE
  5
1A703
  8
01
  6
BYBLOCK
 10
321.6197899153865
 20
-2458.386895824672
 30
0.0
 11
321.6197899153859
 21
-2460.795467714756
 31
0.0
  0
LINE
  5
1A705
  8
01
  6
BYBLOCK
 10
320.1197899153869
 20
-2455.895468002027
 30
0.0
 11
320.1197899153864
 21
-2459.295467714755
 31
0.0
  0
LINE
  5
1A706
  8
01
  6
BYBLOCK
 10
318.6197899153864
 20
-2459.295467714755
 30
0.0
 11
318.6197899153859
 21
-2461.095467714756
 31
0.0
  0
LINE
  5
1A707
  8
01
  6
BYBLOCK
 10
319.469789903466
 20
-2469.095460992459
 30
0.0
 11
312.7697899153865
 21
-2469.095460992459
 31
0.0
  0
ARC
  5
1A708
  8
01
  6
BYBLOCK
 10
319.469789903466
 20
-2469.39546100438
 30
0.0
 40
0.300000011920929
 50
0.0
 51
89.9999999997655
  0
ARC
  5
1A709
  8
01
  6
BYBLOCK
 10
315.4697899153867
 20
-2469.695460992459
 30
0.0
 40
2.500000000000002
 50
206.1038811373416
 51
295.7724248166085
  0
LINE
  5
1A70A
  8
01
  6
BYBLOCK
 10
316.5567842793899
 20
-2471.946781327868
 30
0.0
 11
316.9002292442502
 21
-2471.78095741766
 31
0.0
  0
LINE
  5
1A70B
  8
01
  6
BYBLOCK
 10
319.2045876609878
 20
-2470.668354927361
 30
0.0
 11
316.9002292442502
 21
-2471.78095741766
 31
0.0
  0
LINE
  5
1A70C
  8
01
  6
BYBLOCK
 10
310.7697899153869
 20
-2470.795460992459
 30
0.0
 11
313.224795483323
 21
-2470.795460992459
 31
0.0
  0
LINE
  5
1A70D
  8
01
  6
BYBLOCK
 10
309.5697899153867
 20
-2454.195468002028
 30
0.0
 11
327.4697899153867
 21
-2454.195468002028
 31
0.0
  0
ARC
  5
1A70E
  8
01
  6
BYBLOCK
 10
309.5697899153867
 20
-2454.495468002028
 30
0.0
 40
0.3
 50
90.0
 51
180.0
  0
LINE
  5
1A70F
  8
01
  6
BYBLOCK
 10
314.7197899153867
 20
-2455.895468002028
 30
0.0
 11
327.4697899153867
 21
-2455.895468002027
 31
0.0
  0
ARC
  5
1A712
  8
01
  6
BYBLOCK
 10
327.4697899153867
 20
-2455.595468002028
 30
0.0
 40
0.3
 50
270.0
 51
0.0
  0
LINE
  5
1A713
  8
01
  6
BYBLOCK
 10
314.1197899153868
 20
-2467.095467842482
 30
0.0
 11
311.7697899153869
 21
-2467.095467842482
 31
0.0
  0
ARC
  5
1A716
  8
01
  6
BYBLOCK
 10
314.1197899153868
 20
-2466.795467842482
 30
0.0
 40
0.3
 50
270.0
 51
0.0
  0
LINE
  5
1A717
  8
01
  6
BYBLOCK
 10
311.4697899153867
 20
-2469.095460992459
 30
0.0
 11
309.5697899153867
 21
-2469.095460992459
 31
0.0
  0
ARC
  5
1A719
  8
01
  6
BYBLOCK
 10
311.4697899153867
 20
-2468.795460992459
 30
0.0
 40
0.3
 50
270.0
 51
0.0
  0
LINE
  5
1A71A
  8
01
  6
BYBLOCK
 10
319.7697899153869
 20
-2469.39546100438
 30
0.0
 11
319.7697899153869
 21
-2469.767826793197
 31
0.0
  0
ARC
  5
1A71B
  8
01
  6
BYBLOCK
 10
318.7697899153869
 20
-2469.767826793197
 30
0.0
 40
1.0
 50
295.7724248168182
 51
0.0
  0
LINE
  5
1A71C
  8
01
 10
311.9697899153865
 20
-2468.695460992459
 30
0.0
 11
315.0197899153875
 21
-2468.695460992459
 31
0.0
  0
ARC
  5
1A71D
  8
01
 10
319.1197899153846
 20
-2468.995460992459
 30
0.0
 40
0.3
 50
0.0
 51
27.03569178938863
  0
LINE
  5
1A71E
  8
01
 10
319.4197899153847
 20
-2468.995460992459
 30
0.0
 11
319.4197899153847
 21
-2469.095460992459
 31
0.0
  0
LINE
  5
1A721
  8
01
 10
318.6197899153864
 20
-2459.295467714755
 30
0.0
 11
320.1197899153864
 21
-2459.295467714755
 31
0.0
  0
LINE
  5
1A722
  8
01
 10
318.6197899153859
 20
-2461.095467714756
 30
0.0
 11
321.3197899153862
 21
-2461.095467714756
 31
0.0
  0
ARC
  5
1A723
  8
01
 10
321.3197899153862
 20
-2460.795467714755
 30
0.0
 40
0.3
 50
270.0
 51
0.0
  0
LINE
  5
1A72A
  8
01
 10
327.2697905244078
 20
-2455.895468002027
 30
0.0
 11
327.2697905244078
 21
-2456.495468002027
 31
0.0
  0
ARC
  5
1A72C
  8
01
 10
325.2697905244078
 20
-2456.495468002028
 30
0.0
 40
2.0
 50
270.0
 51
0.0
  0
LINE
  5
1A72E
  8
01
 10
325.2697905244078
 20
-2458.495468002028
 30
0.0
 11
322.2697905244078
 21
-2458.495468002028
 31
0.0
  0
LINE
  5
1A73A
  8
01
  6
BYBLOCK
 10
314.6197899153869
 20
-2456.895468002027
 30
0.0
 11
314.6197899153869
 21
-2467.995460992459
 31
0.0
  0
ARC
  5
1A73B
  8
01
  6
BYBLOCK
 10
315.6197899153869
 20
-2456.895468002027
 30
0.0
 40
1.0
 50
90.0
 51
180.0
  0
LINE
  5
1A73C
  8
01
  6
BYBLOCK
 10
320.1197899153869
 20
-2456.895468002028
 30
0.0
 11
320.1197899153865
 21
-2458.795467714756
 31
0.0
  0
ARC
  5
1A73D
  8
01
 10
319.8197899153868
 20
-2458.795467714756
 30
0.0
 40
0.3
 50
270.0
 51
0.0
  0
LINE
  5
1A73E
  8
01
  6
BYBLOCK
 10
320.119789915386
 20
-2461.395467714756
 30
0.0
 11
320.1197899153847
 21
-2467.895460992459
 31
0.0
  0
ARC
  5
1A73F
  8
01
 10
319.8197899153863
 20
-2461.395467714756
 30
0.0
 40
0.3
 50
359.999999999974
 51
90.0
  0
LINE
  5
1A740
  8
01
  6
BYBLOCK
 10
318.6197899153869
 20
-2459.095467714756
 30
0.0
 11
318.6197899153865
 21
-2461.095467714756
 31
0.0
  0
ARC
  5
1A741
  8
01
  6
BYBLOCK
 10
319.1197899153847
 20
-2467.895460992459
 30
0.0
 40
1.0
 50
269.9999999999935
 51
359.999999999974
  0
ARC
  5
1A742
  8
01
  6
BYBLOCK
 10
315.6197899153869
 20
-2467.895460992459
 30
0.0
 40
1.0
 50
180.0
 51
269.9999999999935
  0
LINE
  5
1A743
  8
01
  6
BYBLOCK
 10
315.6197899153869
 20
-2455.895468002027
 30
0.0
 11
319.1197899153869
 21
-2455.895468002027
 31
0.0
  0
ARC
  5
1A745
  8
01
  6
BYBLOCK
 10
319.1197899153869
 20
-2456.895468002027
 30
0.0
 40
1.0
 50
0.0
 51
90.0
  0
LINE
  5
1A74C
  8
01
 10
318.6197899153865
 20
-2461.095467714756
 30
0.0
 11
319.8197899153863
 21
-2461.095467714756
 31
0.0
  0
LINE
  5
1A74D
  8
01
 10
318.6197899153869
 20
-2459.095467714756
 30
0.0
 11
319.8197899153868
 21
-2459.095467714756
 31
0.0
  0
LINE
  5
1A7FC
  8
01
  6
BYBLOCK
 10
315.6197899153869
 20
-2468.895460992459
 30
0.0
 11
319.1197899153847
 21
-2468.895460992459
 31
0.0
  0
LINE
  5
1A7FD
  8
01
 10
320.2697905244078
 20
-2455.895468002027
 30
0.0
 11
320.2697905244078
 21
-2456.495468002027
 31
0.0
  0
ARC
  5
1A7FE
  8
01
 10
322.2697905244078
 20
-2456.495468002028
 30
0.0
 40
2.0
 50
180.0
 51
270.0
  0
LINE
  5
1A7FF
  8
01
 10
314.6197899153869
 20
-2465.445464497243
 30
0.0
 11
320.1197899153858
 21
-2465.445464497243
 31
0.0
  0
LINE
  5
1A800
  8
1PHANTOM
 10
332.2697899153867
 20
-2482.895453836546
 30
0.0
 11
331.7697899153867
 21
-2483.395460992459
 31
0.0
  0
LINE
  5
1A801
  8
1PHANTOM
 10
331.7697899153867
 20
-2483.395460992459
 30
0.0
 11
332.2697899153867
 21
-2483.895453836648
 31
0.0
  0
LINE
  5
1A802
  8
1PHANTOM
 10
330.2697899153867
 20
-2491.395460992459
 30
0.0
 11
330.2697899153867
 21
-2473.395460992459
 31
0.0
  0
LINE
  5
1A803
  8
1PHANTOM
 10
330.2697899153867
 20
-2473.395460992459
 30
0.0
 11
310.4697899153867
 21
-2473.395460992459
 31
0.0
  0
LINE
  5
1A804
  8
1PHANTOM
 10
310.4697899153867
 20
-2473.395460992459
 30
0.0
 11
310.4697899153867
 21
-2476.395460992459
 31
0.0
  0
LINE
  5
1A805
  8
1PHANTOM
 10
310.2697899153867
 20
-2445.395460992459
 30
0.0
 11
331.2697899153867
 21
-2445.395460992459
 31
0.0
  0
LINE
  5
1A806
  8
1PHANTOM
 10
310.4697899153867
 20
-2476.395460992459
 30
0.0
 11
309.4697899153867
 21
-2476.395460992459
 31
0.0
  0
LINE
  5
1A807
  8
1PHANTOM
 10
332.2697899153867
 20
-2446.395460992459
 30
0.0
 11
332.2697899153867
 21
-2482.895453836546
 31
0.0
  0
LINE
  5
1A808
  8
1PHANTOM
 10
309.2697899153867
 20
-2451.395460992459
 30
0.0
 11
309.2697899153867
 21
-2446.395460992459
 31
0.0
  0
ARC
  5
1A809
  8
1PHANTOM
 10
310.2697899153867
 20
-2446.395460992459
 30
0.0
 40
1.0
 50
90.0
 51
179.9999999997655
  0
LINE
  5
1A80A
  8
1PHANTOM
 10
310.7697899153867
 20
-2452.395460992459
 30
0.0
 11
310.2697899153867
 21
-2452.395460992459
 31
0.0
  0
ARC
  5
1A80B
  8
1PHANTOM
 10
331.2697899153867
 20
-2446.395460992459
 30
0.0
 40
1.0
 50
0.0
 51
89.99999999977852
  0
LINE
  5
1A80C
  8
1PHANTOM
 10
315.6101186295454
 20
-2472.191519455714
 30
0.0
 11
327.9577334332888
 21
-2471.497335031012
 31
0.0
  0
ARC
  5
1A80D
  8
1PHANTOM
 10
310.2697899153867
 20
-2451.395460992459
 30
0.0
 40
1.0
 50
180.0
 51
269.9999999997785
  0
ARC
  5
1A80E
  8
1PHANTOM
 10
-327.845470461962
 20
-2469.500488260409
 30
0.0
 40
1.999999999999999
 50
182.3373058591114
 51
266.7822115247994
210
0.0
220
0.0
230
-1.0
  0
LINE
  5
1A80F
  8
1PHANTOM
 10
329.8438065681631
 20
-2469.582052999438
 30
0.0
 11
330.684828089304
 21
-2448.977025731488
 31
0.0
  0
LINE
  5
1A810
  8
1PHANTOM
 10
328.6864919831029
 20
-2446.895460992459
 30
0.0
 11
313.0962191912389
 21
-2446.895460992459
 31
0.0
  0
ARC
  5
1A811
  8
1PHANTOM
 10
313.0962191912389
 20
-2448.895460992459
 30
0.0
 40
2.0
 50
90.0
 51
174.8055710922717
  0
ARC
  5
1A812
  8
1PHANTOM
 10
328.6864919831029
 20
-2448.895460992459
 30
0.0
 40
2.0
 50
357.6626941408886
 51
90.0
  0
ARC
  5
1A813
  8
1PHANTOM
 10
315.4697899153867
 20
-2469.695460992459
 30
0.0
 40
2.5
 50
218.9448035942289
 51
273.2177884749917
  0
LINE
  5
1A814
  8
1PHANTOM
 10
312.0467738803353
 20
-2470.895460992459
 30
0.0
 11
312.7476583976235
 21
-2470.895460992459
 31
0.0
  0
ARC
  5
1A815
  8
1PHANTOM
 10
312.7476583976235
 20
-2471.895460992459
 30
0.0
 40
0.9999999999999992
 50
38.94480359409178
 51
89.99999999986973
  0
LINE
  5
1A816
  8
1PHANTOM
 10
332.2697899153867
 20
-2483.895453836648
 30
0.0
 11
332.2697899153867
 21
-2487.149249741224
 31
0.0
  0
ARC
  5
1A817
  8
1PHANTOM
 10
330.2697899153867
 20
-2487.149249741224
 30
0.0
 40
2.0
 50
345.963756532068
 51
0.0
  0
LINE
  5
1A818
  8
1PHANTOM
 10
330.8794017121844
 20
-2491.395460992459
 30
0.0
 11
330.2697899153867
 21
-2491.395460992459
 31
0.0
  0
ARC
  5
1A819
  8
1PHANTOM
 10
330.8794017121844
 20
-2490.895460992459
 30
0.0
 40
0.5
 50
270.0
 51
345.963756532068
  0
LINE
  5
1A81A
  8
1PHANTOM
 10
332.2100749156774
 20
-2487.634320991297
 30
0.0
 11
331.3644729622571
 21
-2491.016728804977
 31
0.0
  0
LINE
  5
1A81B
  8
1PHANTOM
 10
309.3256363104789
 20
-2473.598881057245
 30
0.0
 11
309.4697899153867
 21
-2476.395460992459
 31
0.0
  0
ARC
  5
1A81C
  8
1PHANTOM
 10
311.3229845631378
 20
-2473.495924961747
 30
0.0
 40
2.0
 50
120.9637565320767
 51
182.9507791089973
  0
ARC
  5
1A81D
  8
1PHANTOM
 10
309.9446805364831
 20
-2475.895460992459
 30
0.0
 40
0.5
 50
182.9507791089973
 51
270.0
  0
LINE
  5
1A81E
  8
1PHANTOM
 10
310.9450319142251
 20
-2450.467799005238
 30
0.0
 11
311.1044327783035
 21
-2448.714389500374
 31
0.0
  0
ARC
  5
1A81F
  8
1PHANTOM
 10
310.7697899153867
 20
-2451.895460992459
 30
0.0
 40
0.5
 50
270.0
 51
29.90981253300991
  0
ARC
  5
1A820
  8
1PHANTOM
 10
312.9368183271605
 20
-2450.648870497323
 30
0.0
 40
2.0
 50
174.8055710922717
 51
209.9098125330099
  0
LINE
  5
1A822
  8
1PHANTOM
 10
311.5322781249077
 20
-2471.037968066747
 30
0.0
 11
310.2939930522826
 21
-2471.780939110322
 31
0.0
  0
ARC
  5
1A823
  8
1PHANTOM
 10
312.0467738803353
 20
-2471.895460992459
 30
0.0
 40
1.0
 50
90.0
 51
120.9637565320767
  0
TEXT
  5
1A96E
  8
1TEXT
 10
294.2623233351276
 20
-2356.318394493896
 30
0.0
 40
4.0
  1
サテンニッケル
 41
0.7
 72
     1
 11
305.8356566684609
 21
-2356.318394493896
 31
0.0
  0
LINE
  5
1A96F
  8
1DIM
 10
288.4356566684608
 20
-2357.840499473912
 30
0.0
 11
358.4356566684608
 21
-2357.840499473912
 31
0.0
  0
TEXT
  5
1A970
  8
1TEXT
 10
325.5231566684614
 20
-2356.554856457562
 30
0.0
 40
4.0
  1
KC-067-XN
 41
0.9
 72
     1
 11
340.8356566684614
 21
-2356.554856457562
 31
0.0
  0
TEXT
  5
1B1A7
  8
1TEXT
 10
294.5423233351276
 20
-2363.318394493896
 30
0.0
 40
4.0
  1
パールブラック
 41
0.7
 72
     1
 11
305.835656668461
 21
-2363.318394493896
 31
0.0
  0
LINE
  5
1B1A8
  8
1DIM
 10
288.4356566684609
 20
-2364.840499473912
 30
0.0
 11
358.4356566684609
 21
-2364.840499473912
 31
0.0
  0
TEXT
  5
1B1A9
  8
1TEXT
 10
325.5056566684614
 20
-2363.554856457562
 30
0.0
 40
4.0
  1
KC-067-GQ
 41
0.9
 72
     1
 11
340.8356566684614
 21
-2363.554856457562
 31
0.0
  0
TEXT
  5
1B409
  8
1TEXT
  6
CONTINUOUS
 10
282.5048288156802
 20
-2373.313892381013
 30
0.0
 40
3.5
  1
注記：この製品はPA52に取り付けて使用す
  0
TEXT
  5
1B40A
  8
1TEXT
  6
CONTINUOUS
 10
281.9214954823469
 20
-2379.263892381013
 30
0.0
 40
3.5
  1
る製品です。単体でのご使用は出来ません。
  0
LINE
  5
1B40B
  8
1DIM
 10
54.95424094443399
 20
-2387.503170791006
 30
0.0
 11
54.95424094443399
 21
-2414.732064480286
 31
0.0
  0
LINE
  5
1B40C
  8
1DIM
 10
244.954240944434
 20
-2387.503170791006
 30
0.0
 11
244.954240944434
 21
-2414.732064480286
 31
0.0
  0
LINE
  5
1B40D
  8
1DIM
 10
56.95424094443399
 20
-2413.732064480286
 30
0.0
 11
242.954240944434
 21
-2413.732064480286
 31
0.0
  0
LINE
  5
1B411
  8
1DIM
 10
234.954240944434
 20
-2397.503170791006
 30
0.0
 11
268.5960238612926
 21
-2397.503170791006
 31
0.0
  0
LINE
  5
1B412
  8
1DIM
 10
241.954240944434
 20
-2345.753170791006
 30
0.0
 11
268.5960238612926
 21
-2345.753170791006
 31
0.0
  0
LINE
  5
1B413
  8
1DIM
 10
267.5960238612926
 20
-2395.503170791006
 30
0.0
 11
267.5960238612926
 21
-2347.753170791006
 31
0.0
  0
LINE
  5
1B417
  8
1DIM
 10
243.954240944434
 20
-2473.195466250422
 30
0.0
 11
253.3874175482011
 21
-2473.195466250422
 31
0.0
1001
ACAD
1000
DSTYLE
1002
{
1070
   271
1070
     0
1002
}
  0
LINE
  5
1B418
  8
1DIM
 10
243.954240944434
 20
-2451.195467474343
 30
0.0
 11
253.3874175482011
 21
-2451.195467474343
 31
0.0
1001
ACAD
1000
DSTYLE
1002
{
1070
   271
1070
     0
1002
}
  0
LINE
  5
1B419
  8
1DIM
 10
252.3874175482011
 20
-2471.195466250422
 30
0.0
 11
252.3874175482011
 21
-2453.195467474343
 31
0.0
1001
ACAD
1000
DSTYLE
1002
{
1070
   271
1070
     0
1002
}
  0
LINE
  5
1B41D
  8
1DIM
 10
243.954240944434
 20
-2473.195466250422
 30
0.0
 11
260.9611227243578
 21
-2473.195466250422
 31
0.0
1001
ACAD
1000
DSTYLE
1002
{
1070
   271
1070
     0
1002
}
  0
LINE
  5
1B41E
  8
1DIM
 10
241.9542409444342
 20
-2447.195467884319
 30
0.0
 11
260.9611227243578
 21
-2447.195467884319
 31
0.0
1001
ACAD
1000
DSTYLE
1002
{
1070
   271
1070
     0
1002
}
  0
LINE
  5
1B41F
  8
1DIM
 10
259.9611227243578
 20
-2471.195466250422
 30
0.0
 11
259.9611227243578
 21
-2449.195467884319
 31
0.0
1001
ACAD
1000
DSTYLE
1002
{
1070
   271
1070
     0
1002
}
  0
LINE
  5
1B423
  8
1DIM
 10
234.9542409444342
 20
-2391.503170791006
 30
0.0
 11
252.1699675254017
 21
-2391.503170791006
 31
0.0
  0
LINE
  5
1B424
  8
1DIM
 10
234.9542409444342
 20
-2366.503170791006
 30
0.0
 11
252.1699675254017
 21
-2366.503170791006
 31
0.0
  0
LINE
  5
1B425
  8
1DIM
 10
251.1699675254017
 20
-2389.503170791006
 30
0.0
 11
251.1699675254017
 21
-2368.503170791006
 31
0.0
  0
LINE
  5
1B429
  8
1DIM
 10
238.9542409444342
 20
-2387.503170791006
 30
0.0
 11
238.9542409444342
 21
-2406.187253055564
 31
0.0
  0
LINE
  5
1B42A
  8
1DIM
 10
60.95424094443399
 20
-2387.503170791006
 30
0.0
 11
60.95424094443399
 21
-2406.187253055564
 31
0.0
  0
LINE
  5
1B42B
  8
1DIM
 10
236.9542409444342
 20
-2405.187253055564
 30
0.0
 11
62.95424094443399
 21
-2405.187253055564
 31
0.0
  0
LINE
  5
1B42F
  8
1DIM
 10
309.2697899153867
 20
-2446.395460992459
 30
0.0
 11
309.2697899153867
 21
-2429.979066822236
 31
0.0
  0
LINE
  5
1B430
  8
1DIM
 10
276.0197901405794
 20
-2452.195466075577
 30
0.0
 11
276.0197901405794
 21
-2429.979066822236
 31
0.0
  0
LINE
  5
1B431
  8
1DIM
 10
307.2697899153867
 20
-2430.979066822236
 30
0.0
 11
278.0197901405794
 21
-2430.979066822236
 31
0.0
  0
LINE
  5
1B435
  8
1DIM
 10
309.2697899153867
 20
-2446.395460992459
 30
0.0
 11
309.2697899153867
 21
-2429.979066822236
 31
0.0
  0
LINE
  5
1B436
  8
1DIM
 10
332.2697899153867
 20
-2446.395460992459
 30
0.0
 11
332.2697899153867
 21
-2429.979066822236
 31
0.0
  0
LINE
  5
1B437
  8
1DIM
 10
311.2697899153867
 20
-2430.979066822236
 30
0.0
 11
330.2697899153867
 21
-2430.979066822236
 31
0.0
  0
LINE
  5
1B43C
  8
1DIM
 10
328.9342243169451
 20
-2444.157515649867
 30
0.0
 11
334.6030597247035
 21
-2436.844135520901
 31
0.0
  0
LINE
  5
1B43D
  8
1DIM
 10
334.6030597247035
 20
-2436.844135520901
 30
0.0
 11
349.3030597247035
 21
-2436.844135520901
 31
0.0
  0
TEXT
  5
1B43E
  8
1DIM
  6
CONTINUOUS
 10
337.3030597247035
 20
-2436.144135520901
 30
0.0
 40
3.5
  1
PA52
  0
LINE
  5
1B440
  8
1DIM
 10
319.2960315705707
 20
-2471.537000287497
 30
0.0
 11
338.3016918389768
 21
-2483.57034265506
 31
0.0
  0
LINE
  5
1B441
  8
1DIM
 10
338.3016918389768
 20
-2483.57034265506
 30
0.0
 11
372.2350251723101
 21
-2483.57034265506
 31
0.0
  0
TEXT
  5
1B442
  8
1DIM
  6
CONTINUOUS
 10
340.7683585056434
 20
-2482.87034265506
 30
0.0
 40
3.5
  1
材質：POM樹脂
  0
LINE
  5
1B444
  8
1DIM
 10
321.3172028231538
 20
-2462.963996476749
 30
0.0
 11
337.8224668970414
 21
-2477.583043951646
 31
0.0
  0
LINE
  5
1B445
  8
1DIM
 10
337.8224668970414
 20
-2477.583043951646
 30
0.0
 11
370.4224668970414
 21
-2477.583043951646
 31
0.0
  0
TEXT
  5
1B446
  8
1DIM
  6
CONTINUOUS
 10
340.289133563708
 20
-2476.883043951646
 30
0.0
 40
3.5
  1
材質：ABS樹脂
  0
LINE
  5
1B447
  8
1DIM
 10
327.7697905401405
 20
-2453.695468017761
 30
0.0
 11
327.7697905401405
 21
-2489.348857037313
 31
0.0
1001
ACAD
1000
DSTYLE
1002
{
1070
   271
1070
     0
1002
}
  0
LINE
  5
1B448
  8
1DIM
 10
276.0197892226425
 20
-2472.195466031865
 30
0.0
 11
276.0197892226425
 21
-2489.348857037313
 31
0.0
1001
ACAD
1000
DSTYLE
1002
{
1070
   271
1070
     0
1002
}
  0
LINE
  5
1B449
  8
1DIM
 10
325.7697905401405
 20
-2488.348857037313
 30
0.0
 11
278.0197892226425
 21
-2488.348857037313
 31
0.0
1001
ACAD
1000
DSTYLE
1002
{
1070
   271
1070
     0
1002
}
  0
LINE
  5
1B44E
  8
1DIM
 10
151.5323936098845
 20
-2449.966876516287
 30
0.0
 11
167.2542412182731
 21
-2437.727427807831
 31
0.0
  0
LINE
  5
1B44F
  8
1DIM
 10
167.2542412182731
 20
-2437.727427807831
 30
0.0
 11
214.5209078849398
 21
-2437.727427807831
 31
0.0
  0
TEXT
  5
1B450
  8
1DIM
  6
CONTINUOUS
 10
169.7209078849397
 20
-2431.194094474497
 30
0.0
 40
3.5
  1
材質：亜鉛ダイキャスト
  0
TEXT
  5
1B451
  8
1DIM
  6
CONTINUOUS
 10
169.8375745516064
 20
-2437.027427807831
 30
0.0
 40
3.5
  1
仕上げ：各種メッキ
  0
LINE
  5
1B452
  8
0
  6
BYBLOCK
 10
56.95424094443399
 20
-2414.267962860286
 30
0.0
 11
54.95424094443399
 21
-2413.732064480286
 31
0.0
  0
LINE
  5
1B453
  8
0
  6
BYBLOCK
 10
54.95424094443399
 20
-2413.732064480286
 30
0.0
 11
56.95424094443399
 21
-2413.196166100286
 31
0.0
  0
LINE
  5
1B454
  8
0
  6
BYBLOCK
 10
54.95424094443399
 20
-2413.732064480286
 30
0.0
 11
56.95424094443399
 21
-2413.732064480286
 31
0.0
  0
LINE
  5
1B455
  8
0
  6
BYBLOCK
 10
242.954240944434
 20
-2413.196166100286
 30
0.0
 11
244.954240944434
 21
-2413.732064480286
 31
0.0
  0
LINE
  5
1B456
  8
0
  6
BYBLOCK
 10
244.954240944434
 20
-2413.732064480286
 30
0.0
 11
242.954240944434
 21
-2414.267962860286
 31
0.0
  0
LINE
  5
1B457
  8
0
  6
BYBLOCK
 10
244.954240944434
 20
-2413.732064480286
 30
0.0
 11
242.954240944434
 21
-2413.732064480286
 31
0.0
  0
TEXT
  5
1B458
  8
1DIM
  6
CONTINUOUS
 10
146.0888474259155
 20
-2413.032064480286
 30
0.0
 40
3.5
  1
190
  0
LINE
  5
1B459
  8
0
  6
BYBLOCK
 10
268.1319222412926
 20
-2395.503170791006
 30
0.0
 11
267.5960238612926
 21
-2397.503170791006
 31
0.0
  0
LINE
  5
1B45A
  8
0
  6
BYBLOCK
 10
267.5960238612926
 20
-2397.503170791006
 30
0.0
 11
267.0601254812926
 21
-2395.503170791006
 31
0.0
  0
LINE
  5
1B45B
  8
0
  6
BYBLOCK
 10
267.5960238612926
 20
-2397.503170791006
 30
0.0
 11
267.5960238612926
 21
-2395.503170791006
 31
0.0
  0
LINE
  5
1B45C
  8
0
  6
BYBLOCK
 10
267.0601254812926
 20
-2347.753170791006
 30
0.0
 11
267.5960238612926
 21
-2345.753170791006
 31
0.0
  0
LINE
  5
1B45D
  8
0
  6
BYBLOCK
 10
267.5960238612926
 20
-2345.753170791006
 30
0.0
 11
268.1319222412926
 21
-2347.753170791006
 31
0.0
  0
LINE
  5
1B45E
  8
0
  6
BYBLOCK
 10
267.5960238612926
 20
-2345.753170791006
 30
0.0
 11
267.5960238612926
 21
-2347.753170791006
 31
0.0
  0
TEXT
  5
1B45F
  8
1DIM
  6
CONTINUOUS
 10
266.8960238612931
 20
-2378.05699023545
 30
0.0
 40
3.5
  1
51.75
 50
90.0
  0
LINE
  5
1B460
  8
0
  6
BYBLOCK
 10
252.9233159282011
 20
-2471.195466250422
 30
0.0
 11
252.3874175482011
 21
-2473.195466250422
 31
0.0
  0
LINE
  5
1B461
  8
0
  6
BYBLOCK
 10
252.3874175482011
 20
-2473.195466250422
 30
0.0
 11
251.8515191682012
 21
-2471.195466250422
 31
0.0
  0
LINE
  5
1B462
  8
0
  6
BYBLOCK
 10
252.3874175482011
 20
-2473.195466250422
 30
0.0
 11
252.3874175482011
 21
-2471.195466250422
 31
0.0
  0
LINE
  5
1B463
  8
0
  6
BYBLOCK
 10
251.8515191682012
 20
-2453.195467474343
 30
0.0
 11
252.3874175482011
 21
-2451.195467474343
 31
0.0
  0
LINE
  5
1B464
  8
0
  6
BYBLOCK
 10
252.3874175482011
 20
-2451.195467474343
 30
0.0
 11
252.9233159282011
 21
-2453.195467474343
 31
0.0
  0
LINE
  5
1B465
  8
0
  6
BYBLOCK
 10
252.3874175482011
 20
-2451.195467474343
 30
0.0
 11
252.3874175482011
 21
-2453.195467474343
 31
0.0
  0
TEXT
  5
1B466
  8
1DIM
  6
CONTINUOUS
 10
251.6874175482017
 20
-2465.112133529049
 30
0.0
 40
3.5
  1
22
 50
90.0
1001
ACAD
1000
DSTYLE
1002
{
1070
   271
1070
     0
1002
}
  0
LINE
  5
1B467
  8
0
  6
BYBLOCK
 10
260.4970211043578
 20
-2471.195466250422
 30
0.0
 11
259.9611227243578
 21
-2473.195466250422
 31
0.0
  0
LINE
  5
1B468
  8
0
  6
BYBLOCK
 10
259.9611227243578
 20
-2473.195466250422
 30
0.0
 11
259.4252243443578
 21
-2471.195466250422
 31
0.0
  0
LINE
  5
1B469
  8
0
  6
BYBLOCK
 10
259.9611227243578
 20
-2473.195466250422
 30
0.0
 11
259.9611227243578
 21
-2471.195466250422
 31
0.0
  0
LINE
  5
1B46A
  8
0
  6
BYBLOCK
 10
259.4252243443578
 20
-2449.195467884319
 30
0.0
 11
259.9611227243578
 21
-2447.195467884319
 31
0.0
  0
LINE
  5
1B46B
  8
0
  6
BYBLOCK
 10
259.9611227243578
 20
-2447.195467884319
 30
0.0
 11
260.4970211043578
 21
-2449.195467884319
 31
0.0
  0
LINE
  5
1B46C
  8
0
  6
BYBLOCK
 10
259.9611227243578
 20
-2447.195467884319
 30
0.0
 11
259.9611227243578
 21
-2449.195467884319
 31
0.0
  0
TEXT
  5
1B46D
  8
1DIM
  6
CONTINUOUS
 10
259.2611227243583
 20
-2463.112133734037
 30
0.0
 40
3.5
  1
26
 50
90.0
1001
ACAD
1000
DSTYLE
1002
{
1070
   271
1070
     0
1002
}
  0
LINE
  5
1B46E
  8
0
  6
BYBLOCK
 10
251.7058659054017
 20
-2389.503170791006
 30
0.0
 11
251.1699675254017
 21
-2391.503170791006
 31
0.0
  0
LINE
  5
1B46F
  8
0
  6
BYBLOCK
 10
251.1699675254017
 20
-2391.503170791006
 30
0.0
 11
250.6340691454017
 21
-2389.503170791006
 31
0.0
  0
LINE
  5
1B470
  8
0
  6
BYBLOCK
 10
251.1699675254017
 20
-2391.503170791006
 30
0.0
 11
251.1699675254017
 21
-2389.503170791006
 31
0.0
  0
LINE
  5
1B471
  8
0
  6
BYBLOCK
 10
250.6340691454017
 20
-2368.503170791006
 30
0.0
 11
251.1699675254017
 21
-2366.503170791006
 31
0.0
  0
LINE
  5
1B472
  8
0
  6
BYBLOCK
 10
251.1699675254017
 20
-2366.503170791006
 30
0.0
 11
251.7058659054017
 21
-2368.503170791006
 31
0.0
  0
LINE
  5
1B473
  8
0
  6
BYBLOCK
 10
251.1699675254017
 20
-2366.503170791006
 30
0.0
 11
251.1699675254017
 21
-2368.503170791006
 31
0.0
  0
TEXT
  5
1B474
  8
1DIM
  6
CONTINUOUS
 10
250.4699675254014
 20
-2381.919837457672
 30
0.0
 40
3.5
  1
25
 50
90.0
  0
LINE
  5
1B475
  8
0
  6
BYBLOCK
 10
236.9542409444342
 20
-2404.651354675564
 30
0.0
 11
238.9542409444342
 21
-2405.187253055564
 31
0.0
  0
LINE
  5
1B476
  8
0
  6
BYBLOCK
 10
238.9542409444342
 20
-2405.187253055564
 30
0.0
 11
236.9542409444342
 21
-2405.723151435564
 31
0.0
  0
LINE
  5
1B477
  8
0
  6
BYBLOCK
 10
238.9542409444342
 20
-2405.187253055564
 30
0.0
 11
236.9542409444342
 21
-2405.187253055564
 31
0.0
  0
LINE
  5
1B478
  8
0
  6
BYBLOCK
 10
62.95424094443399
 20
-2405.723151435564
 30
0.0
 11
60.95424094443399
 21
-2405.187253055564
 31
0.0
  0
LINE
  5
1B479
  8
0
  6
BYBLOCK
 10
60.95424094443399
 20
-2405.187253055564
 30
0.0
 11
62.95424094443399
 21
-2404.651354675564
 31
0.0
  0
LINE
  5
1B47A
  8
0
  6
BYBLOCK
 10
60.95424094443399
 20
-2405.187253055564
 30
0.0
 11
62.95424094443399
 21
-2405.187253055564
 31
0.0
  0
TEXT
  5
1B47B
  8
1DIM
  6
CONTINUOUS
 10
145.8709076111008
 20
-2404.487253055564
 30
0.0
 40
3.5
  1
178
  0
LINE
  5
1B47C
  8
0
  6
BYBLOCK
 10
307.2697899153867
 20
-2430.443168442236
 30
0.0
 11
309.2697899153867
 21
-2430.979066822236
 31
0.0
  0
LINE
  5
1B47D
  8
0
  6
BYBLOCK
 10
309.2697899153867
 20
-2430.979066822236
 30
0.0
 11
307.2697899153867
 21
-2431.514965202236
 31
0.0
  0
LINE
  5
1B47E
  8
0
  6
BYBLOCK
 10
309.2697899153867
 20
-2430.979066822236
 30
0.0
 11
307.2697899153867
 21
-2430.979066822236
 31
0.0
  0
LINE
  5
1B47F
  8
0
  6
BYBLOCK
 10
278.0197901405794
 20
-2431.514965202236
 30
0.0
 11
276.0197901405794
 21
-2430.979066822236
 31
0.0
  0
LINE
  5
1B480
  8
0
  6
BYBLOCK
 10
276.0197901405794
 20
-2430.979066822236
 30
0.0
 11
278.0197901405794
 21
-2430.443168442236
 31
0.0
  0
LINE
  5
1B481
  8
0
  6
BYBLOCK
 10
276.0197901405794
 20
-2430.979066822236
 30
0.0
 11
278.0197901405794
 21
-2430.979066822236
 31
0.0
  0
TEXT
  5
1B482
  8
1DIM
  6
CONTINUOUS
 10
285.644790027983
 20
-2430.279066822236
 30
0.0
 40
3.5
  1
33.25
  0
LINE
  5
1B483
  8
0
  6
BYBLOCK
 10
311.2697899153867
 20
-2431.514965202236
 30
0.0
 11
309.2697899153867
 21
-2430.979066822236
 31
0.0
  0
LINE
  5
1B484
  8
0
  6
BYBLOCK
 10
309.2697899153867
 20
-2430.979066822236
 30
0.0
 11
311.2697899153867
 21
-2430.443168442236
 31
0.0
  0
LINE
  5
1B485
  8
0
  6
BYBLOCK
 10
309.2697899153867
 20
-2430.979066822236
 30
0.0
 11
311.2697899153867
 21
-2430.979066822236
 31
0.0
  0
LINE
  5
1B486
  8
0
  6
BYBLOCK
 10
330.2697899153867
 20
-2430.443168442236
 30
0.0
 11
332.2697899153867
 21
-2430.979066822236
 31
0.0
  0
LINE
  5
1B487
  8
0
  6
BYBLOCK
 10
332.2697899153867
 20
-2430.979066822236
 30
0.0
 11
330.2697899153867
 21
-2431.514965202236
 31
0.0
  0
LINE
  5
1B488
  8
0
  6
BYBLOCK
 10
332.2697899153867
 20
-2430.979066822236
 30
0.0
 11
330.2697899153867
 21
-2430.979066822236
 31
0.0
  0
TEXT
  5
1B489
  8
1DIM
  6
CONTINUOUS
 10
317.85312324872
 20
-2430.279066822236
 30
0.0
 40
3.5
  1
23
  0
LINE
  5
1B48A
  8
0
  6
BYBLOCK
 10
329.3577793786305
 20
-2444.485826757518
 30
0.0
 11
327.7089505713835
 21
-2445.738244674221
 31
0.0
  0
LINE
  5
1B48B
  8
0
  6
BYBLOCK
 10
327.7089505713835
 20
-2445.738244674221
 30
0.0
 11
328.5106692552598
 21
-2443.829204542215
 31
0.0
  0
LINE
  5
1B48C
  8
0
  6
BYBLOCK
 10
327.7089505713835
 20
-2445.738244674221
 30
0.0
 11
328.9342243169451
 21
-2444.157515649867
 31
0.0
  0
LINE
  5
1B48D
  8
0
  6
BYBLOCK
 10
319.0093588292818
 20
-2471.989775963842
 30
0.0
 11
317.6062497266929
 21
-2470.467123042155
 31
0.0
  0
LINE
  5
1B48E
  8
0
  6
BYBLOCK
 10
317.6062497266929
 20
-2470.467123042155
 30
0.0
 11
319.5827043118596
 21
-2471.084224611154
 31
0.0
  0
LINE
  5
1B48F
  8
0
  6
BYBLOCK
 10
317.6062497266929
 20
-2470.467123042155
 30
0.0
 11
319.2960315705707
 21
-2471.537000287497
 31
0.0
  0
LINE
  5
1B490
  8
0
  6
BYBLOCK
 10
320.9618819568859
 20
-2463.36516247192
 30
0.0
 11
319.820030933324
 21
-2461.637920938816
 31
0.0
  0
LINE
  5
1B491
  8
0
  6
BYBLOCK
 10
319.820030933324
 20
-2461.637920938816
 30
0.0
 11
321.6725236894217
 21
-2462.562830481578
 31
0.0
  0
LINE
  5
1B492
  8
0
  6
BYBLOCK
 10
319.820030933324
 20
-2461.637920938816
 30
0.0
 11
321.3172028231538
 21
-2462.963996476749
 31
0.0
  0
LINE
  5
1B493
  8
0
  6
BYBLOCK
 10
325.7697905401405
 20
-2487.812958657313
 30
0.0
 11
327.7697905401405
 21
-2488.348857037313
 31
0.0
  0
LINE
  5
1B494
  8
0
  6
BYBLOCK
 10
327.7697905401405
 20
-2488.348857037313
 30
0.0
 11
325.7697905401405
 21
-2488.884755417313
 31
0.0
  0
LINE
  5
1B495
  8
0
  6
BYBLOCK
 10
327.7697905401405
 20
-2488.348857037313
 30
0.0
 11
325.7697905401405
 21
-2488.348857037313
 31
0.0
  0
LINE
  5
1B496
  8
0
  6
BYBLOCK
 10
278.0197892226425
 20
-2488.884755417313
 30
0.0
 11
276.0197892226425
 21
-2488.348857037313
 31
0.0
  0
LINE
  5
1B497
  8
0
  6
BYBLOCK
 10
276.0197892226425
 20
-2488.348857037313
 30
0.0
 11
278.0197892226425
 21
-2487.812958657313
 31
0.0
  0
LINE
  5
1B498
  8
0
  6
BYBLOCK
 10
276.0197892226425
 20
-2488.348857037313
 30
0.0
 11
278.0197892226425
 21
-2488.348857037313
 31
0.0
  0
TEXT
  5
1B499
  8
1DIM
  6
CONTINUOUS
 10
298.9659704369471
 20
-2487.648857037313
 30
0.0
 40
3.5
  1
52
1001
ACAD
1000
DSTYLE
1002
{
1070
   271
1070
     0
1002
}
  0
LINE
  5
1B49A
  8
0
  6
BYBLOCK
 10
151.8615934841462
 20
-2450.389741171316
 30
0.0
 11
149.9542412182731
 21
-2451.195467184024
 31
0.0
  0
LINE
  5
1B49B
  8
0
  6
BYBLOCK
 10
149.9542412182731
 20
-2451.195467184024
 30
0.0
 11
151.2031937356226
 21
-2449.544011861258
 31
0.0
  0
LINE
  5
1B49C
  8
0
  6
BYBLOCK
 10
149.9542412182731
 20
-2451.195467184024
 30
0.0
 11
151.5323936098845
 21
-2449.966876516287
 31
0.0
  0
VIEWPORT
  5
57
 67
     1
  8
0
 10
0.0
 20
0.0
 30
0.0
 40
554.37576499388
 41
297.0
 68
     1
 69
     1
1001
ACAD
1000
MVIEW
1002
{
1070
    16
1010
0.0
1020
0.0
1030
0.0
1010
0.0
1020
0.0
1030
1.0
1040
0.0
1040
297.0
1040
-4.171999999999798
1040
12.83899999999977
1040
50.0
1040
0.0
1040
0.0
1070
     0
1070
  1000
1070
     0
1070
     1
1070
     0
1070
     0
1070
     0
1070
     0
1040
0.0
1040
0.0
1040
0.0
1040
10.0
1040
10.0
1040
10.0
1040
10.0
1070
     0
1002
{
1002
}
1002
}
  0
ENDSEC
  0
EOF
