  0
SECTION
  2
HEADER
  9
$ACADVER
  1
AC1012
  9
$DWGCODEPAGE
  3
ansi_932
  9
$INSBASE
 10
0.0
 20
0.0
 30
0.0
  9
$EXTMIN
 10
-1351.199464273612
 20
-1574.644616094246
 30
0.0
  9
$EXTMAX
 10
-334.0086965133015
 20
-1339.683967674933
 30
0.0
  9
$LIMMIN
 10
0.0
 20
0.0
  9
$LIMMAX
 10
420.0
 20
297.0
  9
$ORTHOMODE
 70
     0
  9
$REGENMODE
 70
     1
  9
$FILLMODE
 70
     1
  9
$QTEXTMODE
 70
     0
  9
$MIRRTEXT
 70
     0
  9
$DRAGMODE
 70
     2
  9
$LTSCALE
 40
0.5
  9
$OSMODE
 70
 14463
  9
$ATTMODE
 70
     1
  9
$TEXTSIZE
 40
4.0
  9
$TRACEWID
 40
1.0
  9
$TEXTSTYLE
  7
STANDARD
  9
$CLAYER
  8
1TEXT
  9
$CELTYPE
  6
BYLAYER
  9
$CECOLOR
 62
   256
  9
$CELTSCALE
 40
1.0
  9
$DELOBJ
 70
     1
  9
$DISPSILH
 70
     0
  9
$DIMSCALE
 40
1.0
  9
$DIMASZ
 40
2.0
  9
$DIMEXO
 40
0.0
  9
$DIMDLI
 40
7.0
  9
$DIMRND
 40
0.0
  9
$DIMDLE
 40
0.0
  9
$DIMEXE
 40
1.0
  9
$DIMTP
 40
0.0
  9
$DIMTM
 40
0.0
  9
$DIMTXT
 40
3.5
  9
$DIMCEN
 40
0.0
  9
$DIMTSZ
 40
0.0
  9
$DIMTOL
 70
     0
  9
$DIMLIM
 70
     0
  9
$DIMTIH
 70
     0
  9
$DIMTOH
 70
     0
  9
$DIMSE1
 70
     0
  9
$DIMSE2
 70
     0
  9
$DIMTAD
 70
     1
  9
$DIMZIN
 70
     8
  9
$DIMBLK
  1

  9
$DIMASO
 70
     1
  9
$DIMSHO
 70
     1
  9
$DIMPOST
  1
 
  9
$DIMAPOST
  1

  9
$DIMALT
 70
     0
  9
$DIMALTD
 70
     2
  9
$DIMALTF
 40
25.4
  9
$DIMLFAC
 40
1.0
  9
$DIMTOFL
 70
     1
  9
$DIMTVP
 40
0.0
  9
$DIMTIX
 70
     0
  9
$DIMSOXD
 70
     0
  9
$DIMSAH
 70
     1
  9
$DIMBLK1
  1
OPEN30
  9
$DIMBLK2
  1
OPEN30
  9
$DIMSTYLE
  2
NEWX10
  9
$DIMCLRD
 70
   256
  9
$DIMCLRE
 70
   256
  9
$DIMCLRT
 70
   201
  9
$DIMTFAC
 40
0.7
  9
$DIMGAP
 40
0.7
  9
$DIMJUST
 70
     0
  9
$DIMSD1
 70
     0
  9
$DIMSD2
 70
     0
  9
$DIMTOLJ
 70
     1
  9
$DIMTZIN
 70
     8
  9
$DIMALTZ
 70
     0
  9
$DIMALTTZ
 70
     0
  9
$DIMFIT
 70
     2
  9
$DIMUPT
 70
     0
  9
$DIMUNIT
 70
     2
  9
$DIMDEC
 70
     3
  9
$DIMTDEC
 70
     4
  9
$DIMALTU
 70
     2
  9
$DIMALTTD
 70
     2
  9
$DIMTXSTY
  7
STANDARD
  9
$DIMAUNIT
 70
     0
  9
$LUNITS
 70
     2
  9
$LUPREC
 70
     4
  9
$SKETCHINC
 40
1.0
  9
$FILLETRAD
 40
0.0
  9
$AUNITS
 70
     0
  9
$AUPREC
 70
     2
  9
$MENU
  1
acad
  9
$ELEVATION
 40
0.0
  9
$PELEVATION
 40
0.0
  9
$THICKNESS
 40
0.0
  9
$LIMCHECK
 70
     0
  9
$CHAMFERA
 40
10.0
  9
$CHAMFERB
 40
10.0
  9
$CHAMFERC
 40
20.0
  9
$CHAMFERD
 40
0.0
  9
$SKPOLY
 70
     0
  9
$TDCREATE
 40
2453033.732663484
  9
$TDUPDATE
 40
2459646.56688794
  9
$TDINDWG
 40
1.7289815741
  9
$TDUSRTIMER
 40
1.7289815741
  9
$USRTIMER
 70
     1
  9
$ANGBASE
 50
0.0
  9
$ANGDIR
 70
     0
  9
$PDMODE
 70
     0
  9
$PDSIZE
 40
0.0
  9
$PLINEWID
 40
0.0
  9
$COORDS
 70
     2
  9
$SPLFRAME
 70
     0
  9
$SPLINETYPE
 70
     6
  9
$SPLINESEGS
 70
     8
  9
$ATTDIA
 70
     0
  9
$ATTREQ
 70
     1
  9
$HANDLING
 70
     1
  9
$HANDSEED
  5
191EC
  9
$SURFTAB1
 70
     6
  9
$SURFTAB2
 70
     6
  9
$SURFTYPE
 70
     6
  9
$SURFU
 70
     6
  9
$SURFV
 70
     6
  9
$UCSNAME
  2

  9
$UCSORG
 10
0.0
 20
0.0
 30
0.0
  9
$UCSXDIR
 10
1.0
 20
0.0
 30
0.0
  9
$UCSYDIR
 10
0.0
 20
1.0
 30
0.0
  9
$PUCSNAME
  2

  9
$PUCSORG
 10
0.0
 20
0.0
 30
0.0
  9
$PUCSXDIR
 10
1.0
 20
0.0
 30
0.0
  9
$PUCSYDIR
 10
0.0
 20
1.0
 30
0.0
  9
$USERI1
 70
     0
  9
$USERI2
 70
     0
  9
$USERI3
 70
     0
  9
$USERI4
 70
     0
  9
$USERI5
 70
     0
  9
$USERR1
 40
0.0
  9
$USERR2
 40
0.0
  9
$USERR3
 40
0.0
  9
$USERR4
 40
0.0
  9
$USERR5
 40
0.0
  9
$WORLDVIEW
 70
     1
  9
$SHADEDGE
 70
     3
  9
$SHADEDIF
 70
    70
  9
$TILEMODE
 70
     1
  9
$MAXACTVP
 70
    48
  9
$PINSBASE
 10
0.0
 20
0.0
 30
0.0
  9
$PLIMCHECK
 70
     0
  9
$PEXTMIN
 10
1.000000000000000E+20
 20
1.000000000000000E+20
 30
1.000000000000000E+20
  9
$PEXTMAX
 10
-1.000000000000000E+20
 20
-1.000000000000000E+20
 30
-1.000000000000000E+20
  9
$PLIMMIN
 10
0.0
 20
0.0
  9
$PLIMMAX
 10
420.0
 20
297.0
  9
$UNITMODE
 70
     0
  9
$VISRETAIN
 70
     1
  9
$PLINEGEN
 70
     0
  9
$PSLTSCALE
 70
     1
  9
$TREEDEPTH
 70
  3020
  9
$PICKSTYLE
 70
     1
  9
$CMLSTYLE
  2
STANDARD
  9
$CMLJUST
 70
     0
  9
$CMLSCALE
 40
20.0
  9
$SAVEIMAGES
 70
     1
  0
ENDSEC
  0
SECTION
  2
CLASSES
  0
CLASS
  1
DICTIONARYVAR
  2
AcDbDictionaryVar
  3
ObjectDBX Classes
 90
        0
280
     0
281
     0
  0
CLASS
  1
IDBUFFER
  2
AcDbIdBuffer
  3
ObjectDBX Classes
 90
    32768
280
     0
281
     0
  0
CLASS
  1
LWPOLYLINE
  2
AcDbPolyline
  3
ObjectDBX Classes
 90
    32768
280
     0
281
     1
  0
CLASS
  1
ACDBDICTIONARYWDFLT
  2
AcDbDictionaryWithDefault
  3
ObjectDBX Classes
 90
    32768
280
     0
281
     0
  0
CLASS
  1
ACDBPLACEHOLDER
  2
AcDbPlaceHolder
  3
ObjectDBX Classes
 90
        0
280
     0
281
     0
  0
CLASS
  1
LAYOUT
  2
AcDbLayout
  3
ObjectDBX Classes
 90
        0
280
     0
281
     0
  0
CLASS
  1
TABLESTYLE
  2
AcDbTableStyle
  3
ObjectDBX Classes
 90
     4095
280
     0
281
     0
  0
CLASS
  1
SORTENTSTABLE
  2
AcDbSortentsTable
  3
ObjectDBX Classes
 90
    32768
280
     0
281
     0
  0
CLASS
  1
DIMASSOC
  2
AcDbDimAssoc
  3
"AcDbDimAssoc|Product Desc:     AcDim ARX App For Dimension|Company:          Autodesk, Inc.|WEB Address:      www.autodesk.com"
 90
        0
280
     0
281
     0
  0
CLASS
  1
MATERIAL
  2
AcDbMaterial
  3
ObjectDBX Classes
 90
     1153
280
     0
281
     0
  0
CLASS
  1
VISUALSTYLE
  2
AcDbVisualStyle
  3
ObjectDBX Classes
 90
     4095
280
     0
281
     0
  0
CLASS
  1
SCALE
  2
AcDbScale
  3
ObjectDBX Classes
 90
     1153
280
     0
281
     0
  0
CLASS
  1
MLEADERSTYLE
  2
AcDbMLeaderStyle
  3
ACDB_MLEADERSTYLE_CLASS
 90
     4095
280
     0
281
     0
  0
CLASS
  1
CELLSTYLEMAP
  2
AcDbCellStyleMap
  3
ObjectDBX Classes
 90
     1152
280
     0
281
     0
  0
CLASS
  1
SUN
  2
AcDbSun
  3
SCENEOE
 90
     1153
280
     0
281
     0
  0
CLASS
  1
XRECORD
  2
AcDbXrecord
  3
ObjectDBX Classes
 90
    32768
280
     0
281
     0
  0
CLASS
  1
HATCH
  2
AcDbHatch
  3
ObjectDBX Classes
 90
    32768
280
     0
281
     1
  0
ENDSEC
  0
SECTION
  2
TABLES
  0
TABLE
  2
VPORT
  5
8
330
0
100
AcDbSymbolTable
 70
     1
  0
VPORT
  5
1604C
330
8
100
AcDbSymbolTableRecord
100
AcDbViewportTableRecord
  2
*ACTIVE
 70
     0
 10
0.0
 20
0.0
 11
1.0
 21
1.0
 12
-842.6040803934568
 22
-1457.16429188459
 13
0.0
 23
0.0
 14
10.0
 24
10.0
 15
10.0
 25
10.0
 16
0.0
 26
0.0
 36
1.0
 17
0.0
 27
0.0
 37
0.0
 40
682.3868905509812
 41
1.600472813238771
 42
50.0
 43
0.0
 44
0.0
 50
0.0
 51
0.0
 71
    16
 72
  1000
 73
     1
 74
     1
 75
     0
 76
     0
 77
     0
 78
     0
  0
ENDTAB
  0
TABLE
  2
LTYPE
  5
5
330
0
100
AcDbSymbolTable
 70
     5
  0
LTYPE
  5
12
330
5
100
AcDbSymbolTableRecord
100
AcDbLinetypeTableRecord
  2
BYBLOCK
 70
     0
  3

 72
    65
 73
     0
 40
0.0
  0
LTYPE
  5
13
330
5
100
AcDbSymbolTableRecord
100
AcDbLinetypeTableRecord
  2
BYLAYER
 70
     0
  3

 72
    65
 73
     0
 40
0.0
  0
LTYPE
  5
14
330
5
100
AcDbSymbolTableRecord
100
AcDbLinetypeTableRecord
  2
CONTINUOUS
 70
     0
  3
Solid line
 72
    65
 73
     0
 40
0.0
  0
LTYPE
  5
6A
330
5
100
AcDbSymbolTableRecord
100
AcDbLinetypeTableRecord
  2
XREF1|CENTER2
 70
    48
  3
Center (.5x) ___ _ ___ _ ___ _ ___ _ ___ _ ___
 72
    65
 73
     4
 40
28.575
 49
19.05
 74
     0
 49
-3.175
 74
     0
 49
3.175
 74
     0
 49
-3.175
 74
     0
  0
LTYPE
  5
FF
330
5
100
AcDbSymbolTableRecord
100
AcDbLinetypeTableRecord
  2
HIDDEN
 70
     0
  3
Hidden __ __ __ __ __ __ __ __ __ __ __ __ __ _
 72
    65
 73
     2
 40
9.524999999999999
 49
6.35
 74
     0
 49
-3.175
 74
     0
  0
LTYPE
  5
6E2
330
5
100
AcDbSymbolTableRecord
100
AcDbLinetypeTableRecord
  2
A3WAKUDAKE|CENTER2
 70
    48
  3
Center (.5x) ___ _ ___ _ ___ _ ___ _ ___ _ ___
 72
    65
 73
     4
 40
28.575
 49
19.05
 74
     0
 49
-3.175
 74
     0
 49
3.175
 74
     0
 49
-3.175
 74
     0
  0
LTYPE
  5
18174
330
5
100
AcDbSymbolTableRecord
100
AcDbLinetypeTableRecord
  2
CENTER2
 70
     0
  3
Center (.5x) ___ _ ___ _ ___ _ ___ _ ___ _ ___
 72
    65
 73
     4
 40
28.575
 49
19.05
 74
     0
 49
-3.175
 74
     0
 49
3.175
 74
     0
 49
-3.175
 74
     0
  0
ENDTAB
  0
TABLE
  2
LAYER
  5
2
102
{ACAD_XDICTIONARY
360
14E5F
102
}
330
0
100
AcDbSymbolTable
 70
    12
  0
LAYER
  5
E
102
{ACAD_XDICTIONARY
360
160B4
102
}
330
2
100
AcDbSymbolTableRecord
100
AcDbLayerTableRecord
  2
0
 70
     0
 62
     7
  6
CONTINUOUS
  0
LAYER
  5
29
102
{ACAD_XDICTIONARY
360
160B6
102
}
330
2
100
AcDbSymbolTableRecord
100
AcDbLayerTableRecord
  2
1CENTER
 70
     0
 62
     7
  6
CENTER2
  0
LAYER
  5
31
102
{ACAD_XDICTIONARY
360
160B8
102
}
330
2
100
AcDbSymbolTableRecord
100
AcDbLayerTableRecord
  2
1TEXT
 70
     0
 62
     7
  6
CONTINUOUS
  0
LAYER
  5
101
102
{ACAD_XDICTIONARY
360
160C2
102
}
330
2
100
AcDbSymbolTableRecord
100
AcDbLayerTableRecord
  2
1DIM
 70
     0
 62
     7
  6
CONTINUOUS
  0
LAYER
  5
102
102
{ACAD_XDICTIONARY
360
160C4
102
}
330
2
100
AcDbSymbolTableRecord
100
AcDbLayerTableRecord
  2
1HIDDEN
 70
     0
 62
     7
  6
HIDDEN
  0
LAYER
  5
25F
102
{ACAD_XDICTIONARY
360
160CA
102
}
330
2
100
AcDbSymbolTableRecord
100
AcDbLayerTableRecord
  2
01
 70
     0
 62
     1
  6
CONTINUOUS
  0
LAYER
  5
26D
102
{ACAD_XDICTIONARY
360
160E6
102
}
330
2
100
AcDbSymbolTableRecord
100
AcDbLayerTableRecord
  2
1HATCH
 70
     0
 62
     7
  6
CONTINUOUS
  0
LAYER
  5
6DD
102
{ACAD_XDICTIONARY
360
160FC
102
}
330
2
100
AcDbSymbolTableRecord
100
AcDbLayerTableRecord
  2
A3WAKUDAKE|THICK
 70
    48
 62
     7
  6
CONTINUOUS
  0
LAYER
  5
6DE
102
{ACAD_XDICTIONARY
360
160FE
102
}
330
2
100
AcDbSymbolTableRecord
100
AcDbLayerTableRecord
  2
A3WAKUDAKE|POINT
 70
    48
 62
     7
  6
CONTINUOUS
  0
LAYER
  5
6DF
102
{ACAD_XDICTIONARY
360
16100
102
}
330
2
100
AcDbSymbolTableRecord
100
AcDbLayerTableRecord
  2
A3WAKUDAKE|1CENTER
 70
    48
 62
     7
  6
A3WAKUDAKE|CENTER2
  0
LAYER
  5
6E0
102
{ACAD_XDICTIONARY
360
16102
102
}
330
2
100
AcDbSymbolTableRecord
100
AcDbLayerTableRecord
  2
A3WAKUDAKE|0-6
 70
    48
 62
     7
  6
CONTINUOUS
  0
LAYER
  5
172E8
330
2
100
AcDbSymbolTableRecord
100
AcDbLayerTableRecord
  2
1TEXT2
 70
     0
 62
     7
  6
CONTINUOUS
  0
ENDTAB
  0
TABLE
  2
STYLE
  5
3
330
0
100
AcDbSymbolTable
 70
     3
  0
STYLE
  5
F
330
3
100
AcDbSymbolTableRecord
100
AcDbTextStyleTableRecord
  2
STANDARD
 70
     0
 40
0.0
 41
1.0
 50
0.0
 71
     0
 42
4.0
  3
txt.shx
  4
extfont.shx
  0
STYLE
  5
18253
330
3
100
AcDbSymbolTableRecord
100
AcDbTextStyleTableRecord
  2
A3WAKUDAKE|STANDARD
 70
    48
 40
0.0
 41
1.0
 50
0.0
 71
     0
 42
4.0
  3
romans.shx
  4
extfont.shx
  0
STYLE
  5
1827B
330
3
100
AcDbSymbolTableRecord
100
AcDbTextStyleTableRecord
  2
XREF1|STANDARD
 70
    48
 40
0.0
 41
1.0
 50
0.0
 71
     0
 42
4.0
  3
romans.shx
  4
extfont.shx
  0
ENDTAB
  0
TABLE
  2
VIEW
  5
6
330
0
100
AcDbSymbolTable
 70
     0
  0
ENDTAB
  0
TABLE
  2
UCS
  5
7
330
0
100
AcDbSymbolTable
 70
     0
  0
ENDTAB
  0
TABLE
  2
APPID
  5
9
330
0
100
AcDbSymbolTable
 70
    14
  0
APPID
  5
10
330
9
100
AcDbSymbolTableRecord
100
AcDbRegAppTableRecord
  2
ACAD
 70
     0
  0
APPID
  5
21
330
9
100
AcDbSymbolTableRecord
100
AcDbRegAppTableRecord
  2
DRAWINGVARIABLESXDATA
 70
     0
  0
APPID
  5
64
330
9
100
AcDbSymbolTableRecord
100
AcDbRegAppTableRecord
  2
CONTENTTABDATA
 70
     0
  0
APPID
  5
65
330
9
100
AcDbSymbolTableRecord
100
AcDbRegAppTableRecord
  2
CONTENTCURRENTTAB
 70
     0
  0
APPID
  5
66
330
9
100
AcDbSymbolTableRecord
100
AcDbRegAppTableRecord
  2
CONTENTBLOCKDESCRIPTION
 70
     0
  0
APPID
  5
67
330
9
100
AcDbSymbolTableRecord
100
AcDbRegAppTableRecord
  2
CONTENTBLOCKICON
 70
     0
  0
APPID
  5
68
330
9
100
AcDbSymbolTableRecord
100
AcDbRegAppTableRecord
  2
CONTENTLONGBLOCKNAME
 70
     0
  0
APPID
  5
5A9
330
9
100
AcDbSymbolTableRecord
100
AcDbRegAppTableRecord
  2
ACAD_PSEXT
 70
     0
  0
APPID
  5
18AC
330
9
100
AcDbSymbolTableRecord
100
AcDbRegAppTableRecord
  2
ACAD_DSTYLE_DIMTEXT_FILL
 70
     0
  0
APPID
  5
160A5
330
9
100
AcDbSymbolTableRecord
100
AcDbRegAppTableRecord
  2
ACAD_MLEADERVER
 70
     0
  0
APPID
  5
163A5
330
9
100
AcDbSymbolTableRecord
100
AcDbRegAppTableRecord
  2
ACAD_DSTYLE_DIMRADIAL_EXTE
 70
     0
  0
APPID
  5
17223
330
9
100
AcDbSymbolTableRecord
100
AcDbRegAppTableRecord
  2
ACADANNOTATIVE
 70
     0
  0
APPID
  5
183D1
330
9
100
AcDbSymbolTableRecord
100
AcDbRegAppTableRecord
  2
ACAD_OBJECT_CHANGE_GUID
 70
     0
  0
APPID
  5
1855D
330
9
100
AcDbSymbolTableRecord
100
AcDbRegAppTableRecord
  2
ACDBBLOCKREPETAG
 70
     0
  0
ENDTAB
  0
TABLE
  2
DIMSTYLE
  5
A
330
0
100
AcDbSymbolTable
 70
     1
  0
DIMSTYLE
105
48
102
{ACAD_REACTORS
102
}
330
A
100
AcDbSymbolTableRecord
100
AcDbDimStyleTableRecord
  2
NEWX10
 70
     0
  3
 
  4

  5

  6
OPEN30
  7
OPEN30
 40
1.0
 41
2.0
 42
0.0
 43
7.0
 44
1.0
 45
0.0
 46
0.0
 47
0.0
 48
0.0
140
3.5
141
0.0
142
0.0
143
25.4
144
1.0
145
0.0
146
0.7
147
0.7
 71
     0
 72
     0
 73
     0
 74
     0
 75
     0
 76
     0
 77
     1
 78
     8
170
     0
171
     2
172
     1
173
     1
174
     0
175
     0
176
   256
177
   256
178
   201
179
     3
270
     2
271
     3
272
     4
273
     2
274
     2
340
F
275
     0
280
     0
281
     0
282
     0
283
     1
284
     8
285
     0
286
     0
287
     2
288
     0
  0
ENDTAB
  0
TABLE
  2
BLOCK_RECORD
  5
1
330
0
100
AcDbSymbolTable
 70
    10
  0
BLOCK_RECORD
  5
18
102
{ACAD_XDICTIONARY
360
6E9
102
}
330
1
100
AcDbSymbolTableRecord
100
AcDbBlockTableRecord
  2
*MODEL_SPACE
  0
BLOCK_RECORD
  5
15
102
{ACAD_XDICTIONARY
360
59B
102
}
330
1
100
AcDbSymbolTableRecord
100
AcDbBlockTableRecord
  2
*PAPER_SPACE
  0
BLOCK_RECORD
  5
42
330
1
100
AcDbSymbolTableRecord
100
AcDbBlockTableRecord
  2
_OPEN30
  0
BLOCK_RECORD
  5
5B
330
1
100
AcDbSymbolTableRecord
100
AcDbBlockTableRecord
  2
XREF1
  0
BLOCK_RECORD
  5
6DA
330
1
100
AcDbSymbolTableRecord
100
AcDbBlockTableRecord
  2
A3WAKUDAKE
  0
BLOCK_RECORD
  5
185AC
330
1
100
AcDbSymbolTableRecord
100
AcDbBlockTableRecord
  2
A3WAKUKAWAJUN2017_HYOUDAI_
  0
BLOCK_RECORD
  5
1904C
330
1
100
AcDbSymbolTableRecord
100
AcDbBlockTableRecord
  2
*X28
  0
BLOCK_RECORD
  5
1909A
330
1
100
AcDbSymbolTableRecord
100
AcDbBlockTableRecord
  2
*X29
  0
BLOCK_RECORD
  5
190EC
330
1
100
AcDbSymbolTableRecord
100
AcDbBlockTableRecord
  2
*X30
  0
BLOCK_RECORD
  5
1913D
330
1
100
AcDbSymbolTableRecord
100
AcDbBlockTableRecord
  2
*X31
  0
BLOCK_RECORD
  5
1917A
330
1
100
AcDbSymbolTableRecord
100
AcDbBlockTableRecord
  2
*X32
  0
BLOCK_RECORD
  5
191BA
330
1
100
AcDbSymbolTableRecord
100
AcDbBlockTableRecord
  2
*X33
  0
ENDTAB
  0
ENDSEC
  0
SECTION
  2
BLOCKS
  0
BLOCK
  5
19
330
18
100
AcDbEntity
  8
0
100
AcDbBlockBegin
  2
*MODEL_SPACE
 70
     0
 10
0.0
 20
0.0
 30
0.0
  3
*MODEL_SPACE
  1

  0
ENDBLK
  5
1A
330
18
100
AcDbEntity
  8
0
100
AcDbBlockEnd
  0
BLOCK
  5
16
330
15
100
AcDbEntity
 67
     1
  8
0
100
AcDbBlockBegin
  2
*PAPER_SPACE
 70
     0
 10
0.0
 20
0.0
 30
0.0
  3
*PAPER_SPACE
  1

  0
ENDBLK
  5
17
330
15
100
AcDbEntity
 67
     1
  8
0
100
AcDbBlockEnd
  0
BLOCK
  5
43
330
42
100
AcDbEntity
  8
0
100
AcDbBlockBegin
  2
_OPEN30
 70
     0
 10
0.0
 20
0.0
 30
0.0
  3
_OPEN30
  1

  0
LINE
  5
44
330
42
100
AcDbEntity
  8
0
  6
BYBLOCK
 62
     0
100
AcDbLine
 10
-1.0
 20
0.26794919
 30
0.0
 11
0.0
 21
0.0
 31
0.0
  0
LINE
  5
45
330
42
100
AcDbEntity
  8
0
  6
BYBLOCK
 62
     0
100
AcDbLine
 10
0.0
 20
0.0
 30
0.0
 11
-1.0
 21
-0.26794919
 31
0.0
  0
LINE
  5
46
330
42
100
AcDbEntity
  8
0
  6
BYBLOCK
 62
     0
100
AcDbLine
 10
0.0
 20
0.0
 30
0.0
 11
-1.0
 21
0.0
 31
0.0
  0
ENDBLK
  5
47
330
42
100
AcDbEntity
  8
0
100
AcDbBlockEnd
  0
BLOCK
  5
5C
330
5B
100
AcDbEntity
  8
0
100
AcDbBlockBegin
  2
XREF1
 70
    36
 10
0.0
 20
0.0
 30
0.0
  3
XREF1
  1
D:\ACLT\FORMAT\KAWAJUN(9)図面用.dwg
  0
ENDBLK
  5
5D
330
5B
100
AcDbEntity
  8
0
100
AcDbBlockEnd
  0
BLOCK
  5
6DB
330
6DA
100
AcDbEntity
  8
0
100
AcDbBlockBegin
  2
A3WAKUDAKE
 70
    36
 10
0.0
 20
0.0
 30
0.0
  3
A3WAKUDAKE
  1
D:\ACLT\FORMAT\A3WAKUdake.dwg
  0
ENDBLK
  5
6DC
330
6DA
100
AcDbEntity
  8
0
100
AcDbBlockEnd
  0
BLOCK
  5
18CAC
330
185AC
100
AcDbEntity
  8
0
100
AcDbBlockBegin
  2
A3WAKUKAWAJUN2017_HYOUDAI_
 70
     0
 10
0.0
 20
0.0
 30
0.0
  3
A3WAKUKAWAJUN2017_HYOUDAI_
  1

  0
LINE
  5
185AE
330
185AC
100
AcDbEntity
  8
0
100
AcDbLine
 10
13.26299999998673
 20
-0.0001000000000317
 30
0.0
 11
9.236999999990758
 21
8.999899999990987
 31
0.0
1001
ACAD
1000
ASC_BOUNDS
1002
{
1070
    19
1005
185EF
1002
}
  0
LINE
  5
185AF
330
185AC
100
AcDbEntity
  8
0
100
AcDbLine
 10
5.657999999994331
 20
0.9999999999989768
 30
0.0
 11
9.236999999990758
 21
8.999999999991019
 31
0.0
1001
ACAD
1000
ASC_BOUNDS
1002
{
1070
    19
1005
185EF
1002
}
  0
LINE
  5
185B0
330
185AC
100
AcDbEntity
  8
0
100
AcDbLine
 10
18.59199999998134
 20
-0.2368999999997641
 30
0.0
 11
16.46099999998353
 21
5.432899999994561
 31
0.0
1001
ACAD
1000
ASC_BOUNDS
1002
{
1070
    19
1005
185F0
1002
}
  0
LINE
  5
185B1
330
185AC
100
AcDbEntity
  8
0
100
AcDbLine
 10
18.59199999998134
 20
-0.2368999999997641
 30
0.0
 11
22.38199999997767
 21
8.763099999991255
 31
0.0
1001
ACAD
1000
ASC_BOUNDS
1002
{
1070
    19
1005
185F0
1002
}
  0
LINE
  5
185B2
330
185AC
100
AcDbEntity
  8
0
100
AcDbLine
 10
14.32899999998563
 20
-0.2368999999997641
 30
0.0
 11
16.46099999998353
 21
5.432899999994561
 31
0.0
1001
ACAD
1000
ASC_BOUNDS
1002
{
1070
    19
1005
185F0
1002
}
  0
LINE
  5
185B3
330
185AC
100
AcDbEntity
  8
0
100
AcDbLine
 10
14.32899999998563
 20
-0.2368999999997641
 30
0.0
 11
10.53899999998941
 21
8.763099999991255
 31
0.0
1001
ACAD
1000
ASC_BOUNDS
1002
{
1070
    19
1005
185F0
1002
}
  0
LINE
  5
185B4
330
185AC
100
AcDbEntity
  8
0
100
AcDbLine
 10
19.53899999998043
 20
-0.0001000000000317
 30
0.0
 11
23.56599999997638
 21
8.999899999990987
 31
0.0
1001
ACAD
1000
ASC_BOUNDS
1002
{
1070
    19
1005
185F1
1002
}
  0
LINE
  5
185B5
330
185AC
100
AcDbEntity
  8
0
100
AcDbLine
 10
26.97358892824991
 20
1.383099999991202
 30
0.0
 11
23.56599999997638
 21
8.999899999990987
 31
0.0
1001
ACAD
1000
ASC_BOUNDS
1002
{
1070
    19
1005
185F1
1002
}
  0
LINE
  5
185B6
330
185AC
100
AcDbEntity
  8
0
100
AcDbLine
 10
5.657999999994331
 20
0.9999999999989768
 30
0.0
 11
3.181999999996833
 21
4.668599999995308
 31
0.0
1001
ACAD
1000
ASC_BOUNDS
1002
{
1070
    19
1005
185EF
1002
}
  0
LINE
  5
185B7
330
185AC
100
AcDbEntity
  8
0
100
AcDbLine
 10
4.617999999995391
 20
-0.0001000000000317
 30
0.0
 11
1.420999999998571
 21
4.736799999995242
 31
0.0
1001
ACAD
1000
ASC_BOUNDS
1002
{
1070
    19
1005
185EF
1002
}
  0
LINE
  5
185B8
330
185AC
100
AcDbEntity
  8
0
100
AcDbLine
 10
1.420999999998571
 20
8.763099999991255
 30
0.0
 11
1.420999999998571
 21
0.0
 31
0.0
1001
ACAD
1000
ASC_BOUNDS
1002
{
1070
    19
1005
185F4
1002
}
  0
LINE
  5
185B9
330
185AC
100
AcDbEntity
  8
0
100
AcDbLine
 10
0.0
 20
8.763099999991255
 30
0.0
 11
0.0
 21
0.0
 31
0.0
1001
ACAD
1000
ASC_BOUNDS
1002
{
1070
    19
1005
185F4
1002
}
  0
LINE
  5
185BA
330
185AC
100
AcDbEntity
  8
0
100
AcDbLine
 10
6.766999999993232
 20
-0.0001000000000317
 30
0.0
 11
7.826999999992154
 21
2.368399999997621
 31
0.0
1001
ACAD
1000
ASC_BOUNDS
1002
{
1070
    19
1005
185EF
1002
}
  0
LINE
  5
185BB
330
185AC
100
AcDbEntity
  8
0
100
AcDbLine
 10
0.0
 20
0.0
 30
0.0
 11
1.420999999998571
 21
0.0
 31
0.0
1001
ACAD
1000
ASC_BOUNDS
1002
{
1070
    19
1005
185F4
1002
}
  0
LINE
  5
185BC
330
185AC
100
AcDbEntity
  8
0
100
AcDbLine
 10
4.617999999995391
 20
0.0
 30
0.0
 11
6.766999999993232
 21
0.0
 31
0.0
1001
ACAD
1000
ASC_BOUNDS
1002
{
1070
    19
1005
185EF
1002
}
  0
LINE
  5
185BD
330
185AC
100
AcDbEntity
  8
0
100
AcDbLine
 10
11.70599999998831
 20
-0.0001000000000317
 30
0.0
 11
10.64699999998936
 21
2.368399999997621
 31
0.0
1001
ACAD
1000
ASC_BOUNDS
1002
{
1070
    19
1005
185EF
1002
}
  0
LINE
  5
185BE
330
185AC
100
AcDbEntity
  8
0
100
AcDbLine
 10
7.826999999992154
 20
2.368399999997621
 30
0.0
 11
10.64699999998936
 21
2.368399999997621
 31
0.0
1001
ACAD
1000
ASC_BOUNDS
1002
{
1070
    19
1005
185EF
1002
}
  0
LINE
  5
185BF
330
185AC
100
AcDbEntity
  8
0
100
AcDbLine
 10
11.70599999998831
 20
0.0
 30
0.0
 11
13.26299999998673
 21
0.0
 31
0.0
1001
ACAD
1000
ASC_BOUNDS
1002
{
1070
    19
1005
185EF
1002
}
  0
LINE
  5
185C0
330
185AC
100
AcDbEntity
  8
0
100
AcDbLine
 10
22.15599999997789
 20
2.368399999997621
 30
0.0
 11
24.97599999997499
 21
2.368399999997621
 31
0.0
1001
ACAD
1000
ASC_BOUNDS
1002
{
1070
    19
1005
185F1
1002
}
  0
LINE
  5
185C1
330
185AC
100
AcDbEntity
  8
0
100
AcDbLine
 10
19.53899999998043
 20
0.0
 30
0.0
 11
21.09599999997886
 21
0.0
 31
0.0
1001
ACAD
1000
ASC_BOUNDS
1002
{
1070
    19
1005
185F1
1002
}
  0
LINE
  5
185C2
330
185AC
100
AcDbEntity
  8
0
100
AcDbLine
 10
21.09599999997886
 20
-0.0001000000000317
 30
0.0
 11
22.15599999997789
 21
2.368399999997621
 31
0.0
1001
ACAD
1000
ASC_BOUNDS
1002
{
1070
    19
1005
185F1
1002
}
  0
LINE
  5
185C3
330
185AC
100
AcDbEntity
  8
0
100
AcDbLine
 10
26.02015566812236
 20
0.0330999999912365
 30
0.0
 11
24.97599999997499
 21
2.368399999997621
 31
0.0
1001
ACAD
1000
ASC_BOUNDS
1002
{
1070
    19
1005
185F1
1002
}
  0
LINE
  5
185C4
330
185AC
100
AcDbEntity
  8
0
100
AcDbLine
 10
14.32399999998563
 20
3.315799999996671
 30
0.0
 11
16.46099999998353
 21
8.999899999990987
 31
0.0
1001
ACAD
1000
ASC_BOUNDS
1002
{
1070
    19
1005
185F0
1002
}
  0
LINE
  5
185C5
330
185AC
100
AcDbEntity
  8
0
100
AcDbLine
 10
6.432999999993513
 20
8.763099999991255
 30
0.0
 11
3.181999999996833
 21
4.668599999995308
 31
0.0
1001
ACAD
1000
ASC_BOUNDS
1002
{
1070
    19
1005
185EF
1002
}
  0
LINE
  5
185C6
330
185AC
100
AcDbEntity
  8
0
100
AcDbLine
 10
4.617999999995391
 20
8.763099999991255
 30
0.0
 11
1.420999999998571
 21
4.736799999995242
 31
0.0
1001
ACAD
1000
ASC_BOUNDS
1002
{
1070
    19
1005
185EF
1002
}
  0
LINE
  5
185C7
330
185AC
100
AcDbEntity
  8
0
100
AcDbLine
 10
0.0
 20
8.763099999991255
 30
0.0
 11
1.420999999998571
 21
8.763099999991255
 31
0.0
1001
ACAD
1000
ASC_BOUNDS
1002
{
1070
    19
1005
185F4
1002
}
  0
LINE
  5
185C8
330
185AC
100
AcDbEntity
  8
0
100
AcDbLine
 10
4.617999999995391
 20
8.763099999991255
 30
0.0
 11
6.432999999993513
 21
8.763099999991255
 31
0.0
1001
ACAD
1000
ASC_BOUNDS
1002
{
1070
    19
1005
185EF
1002
}
  0
LINE
  5
185C9
330
185AC
100
AcDbEntity
  8
0
100
AcDbLine
 10
14.32399999998563
 20
3.315799999996671
 30
0.0
 11
12.02999999998792
 21
8.763099999991255
 31
0.0
1001
ACAD
1000
ASC_BOUNDS
1002
{
1070
    19
1005
185F0
1002
}
  0
LINE
  5
185CA
330
185AC
100
AcDbEntity
  8
0
100
AcDbLine
 10
10.06399999998996
 20
3.670999999996297
 30
0.0
 11
9.236999999990758
 21
5.5200999999945
 31
0.0
1001
ACAD
1000
ASC_BOUNDS
1002
{
1070
    19
1005
185EF
1002
}
  0
LINE
  5
185CB
330
185AC
100
AcDbEntity
  8
0
100
AcDbLine
 10
8.409999999991555
 20
3.670999999996297
 30
0.0
 11
9.236999999990758
 21
5.5200999999945
 31
0.0
1001
ACAD
1000
ASC_BOUNDS
1002
{
1070
    19
1005
185EF
1002
}
  0
LINE
  5
185CC
330
185AC
100
AcDbEntity
  8
0
100
AcDbLine
 10
8.409999999991555
 20
3.670999999996297
 30
0.0
 11
10.06399999998996
 21
3.670999999996297
 31
0.0
1001
ACAD
1000
ASC_BOUNDS
1002
{
1070
    19
1005
185EF
1002
}
  0
LINE
  5
185CD
330
185AC
100
AcDbEntity
  8
0
100
AcDbLine
 10
10.53899999998941
 20
8.763099999991255
 30
0.0
 11
12.02999999998792
 21
8.763099999991255
 31
0.0
1001
ACAD
1000
ASC_BOUNDS
1002
{
1070
    19
1005
185F0
1002
}
  0
LINE
  5
185CE
330
185AC
100
AcDbEntity
  8
0
100
AcDbLine
 10
22.7389999999773
 20
3.670999999996297
 30
0.0
 11
23.56599999997638
 21
5.5200999999945
 31
0.0
1001
ACAD
1000
ASC_BOUNDS
1002
{
1070
    19
1005
185F1
1002
}
  0
LINE
  5
185CF
330
185AC
100
AcDbEntity
  8
0
100
AcDbLine
 10
22.7389999999773
 20
3.670999999996297
 30
0.0
 11
24.39299999997559
 21
3.670999999996297
 31
0.0
1001
ACAD
1000
ASC_BOUNDS
1002
{
1070
    19
1005
185F1
1002
}
  0
LINE
  5
185D0
330
185AC
100
AcDbEntity
  8
0
100
AcDbLine
 10
18.59799999998143
 20
3.315799999996671
 30
0.0
 11
20.89099999997916
 21
8.763099999991255
 31
0.0
1001
ACAD
1000
ASC_BOUNDS
1002
{
1070
    19
1005
185F0
1002
}
  0
LINE
  5
185D1
330
185AC
100
AcDbEntity
  8
0
100
AcDbLine
 10
18.59799999998143
 20
3.315799999996671
 30
0.0
 11
16.46099999998353
 21
8.999899999990987
 31
0.0
1001
ACAD
1000
ASC_BOUNDS
1002
{
1070
    19
1005
185F0
1002
}
  0
LINE
  5
185D2
330
185AC
100
AcDbEntity
  8
0
100
AcDbLine
 10
20.89099999997916
 20
8.763099999991255
 30
0.0
 11
22.38199999997767
 21
8.763099999991255
 31
0.0
1001
ACAD
1000
ASC_BOUNDS
1002
{
1070
    19
1005
185F0
1002
}
  0
LINE
  5
185D3
330
185AC
100
AcDbEntity
  8
0
100
AcDbLine
 10
24.39299999997559
 20
3.670999999996297
 30
0.0
 11
23.56599999997638
 21
5.5200999999945
 31
0.0
1001
ACAD
1000
ASC_BOUNDS
1002
{
1070
    19
1005
185F1
1002
}
  0
LINE
  5
185D4
330
185AC
100
AcDbEntity
  8
0
100
AcDbLine
 10
44.99999999995498
 20
-0.2368999999997641
 30
0.0
 11
40.02599999995994
 21
5.341799999994635
 31
0.0
1001
ACAD
1000
ASC_BOUNDS
1002
{
1070
    19
1005
185F3
1002
}
  0
LINE
  5
185D5
330
185AC
100
AcDbEntity
  8
0
100
AcDbLine
 10
40.02599999995994
 20
5.341799999994635
 30
0.0
 11
40.02599999995994
 21
0.0
 31
0.0
1001
ACAD
1000
ASC_BOUNDS
1002
{
1070
    19
1005
185F3
1002
}
  0
LINE
  5
185D6
330
185AC
100
AcDbEntity
  8
0
100
AcDbLine
 10
38.60499999996136
 20
8.999999999991019
 30
0.0
 11
38.60499999996136
 21
0.0
 31
0.0
1001
ACAD
1000
ASC_BOUNDS
1002
{
1070
    19
1005
185F3
1002
}
  0
LINE
  5
185D7
330
185AC
100
AcDbEntity
  8
0
100
AcDbLine
 10
44.99999999995498
 20
8.763099999991255
 30
0.0
 11
44.99999999995498
 21
-0.2368999999997641
 31
0.0
1001
ACAD
1000
ASC_BOUNDS
1002
{
1070
    19
1005
185F3
1002
}
  0
LINE
  5
185D8
330
185AC
100
AcDbEntity
  8
0
100
AcDbLine
 10
38.60499999996136
 20
0.0
 30
0.0
 11
40.02599999995994
 21
0.0
 31
0.0
1001
ACAD
1000
ASC_BOUNDS
1002
{
1070
    19
1005
185F3
1002
}
  0
LINE
  5
185D9
330
185AC
100
AcDbEntity
  8
0
100
AcDbLine
 10
43.57899999995641
 20
3.421199999996588
 30
0.0
 11
38.60499999996136
 21
8.999899999990987
 31
0.0
1001
ACAD
1000
ASC_BOUNDS
1002
{
1070
    19
1005
185F3
1002
}
  0
LINE
  5
185DA
330
185AC
100
AcDbEntity
  8
0
100
AcDbLine
 10
43.57899999995641
 20
8.763099999991255
 30
0.0
 11
43.57899999995641
 21
3.421199999996588
 31
0.0
1001
ACAD
1000
ASC_BOUNDS
1002
{
1070
    19
1005
185F3
1002
}
  0
LINE
  5
185DB
330
185AC
100
AcDbEntity
  8
0
100
AcDbLine
 10
43.57899999995641
 20
8.763099999991255
 30
0.0
 11
44.99999999995498
 21
8.763099999991255
 31
0.0
1001
ACAD
1000
ASC_BOUNDS
1002
{
1070
    19
1005
185F3
1002
}
  0
LINE
  5
185DC
330
185AC
100
AcDbEntity
  8
0
100
AcDbLine
 10
37.67199999996831
 20
8.763099999991255
 30
0.0
 11
36.23199999996837
 21
8.763099999991255
 31
0.0
  0
LINE
  5
185DD
330
185AC
100
AcDbEntity
  8
0
100
AcDbLine
 10
31.64199999996833
 20
8.763099999991255
 30
0.0
 11
31.64199999996833
 21
2.481619422925121
 31
0.0
  0
LINE
  5
185DE
330
185AC
100
AcDbEntity
  8
0
100
AcDbLine
 10
37.67199999996831
 20
8.763099999991255
 30
0.0
 11
37.67199999996831
 21
2.481619422925121
 31
0.0
  0
LINE
  5
185DF
330
185AC
100
AcDbEntity
  8
0
100
AcDbLine
 10
36.23199999996837
 20
8.763099999991255
 30
0.0
 11
36.23199999996837
 21
2.481619422925064
 31
0.0
  0
LINE
  5
185E0
330
185AC
100
AcDbEntity
  8
0
100
AcDbLine
 10
33.08199999996839
 20
8.763099999991255
 30
0.0
 11
33.08199999996839
 21
2.481619422925121
 31
0.0
  0
ARC
  5
185E1
330
185AC
100
AcDbEntity
  8
0
100
AcDbCircle
 10
34.65699999996832
 20
3.183099999991214
 30
0.0
 40
3.420000000000007
100
AcDbArc
 50
240.0000000000255
 51
299.9999999999766
  0
ARC
  5
185E2
330
185AC
100
AcDbEntity
  8
0
100
AcDbCircle
 10
34.65699999996832
 20
3.183099999991214
 30
0.0
 40
1.97999999999999
100
AcDbArc
 50
240.000000000026
 51
299.9999999999703
  0
LINE
  5
185E3
330
185AC
100
AcDbEntity
  8
0
100
AcDbLine
 10
33.08199999996828
 20
8.763099999991255
 30
0.0
 11
31.64199999996833
 21
8.763099999991255
 31
0.0
  0
ARC
  5
185E4
330
185AC
100
AcDbEntity
  8
0
100
AcDbCircle
 10
35.06199999996829
 20
2.481619422925064
 30
0.0
 40
1.17
100
AcDbArc
 50
299.9999999999699
 51
0.0
  0
ARC
  5
185E5
330
185AC
100
AcDbEntity
  8
0
100
AcDbCircle
 10
34.25199999996835
 20
2.481619422925121
 30
0.0
 40
1.17
100
AcDbArc
 50
180.0
 51
240.0000000000238
  0
ARC
  5
185E6
330
185AC
100
AcDbEntity
  8
0
100
AcDbCircle
 10
35.06199999996841
 20
2.481619422925121
 30
0.0
 40
2.61
100
AcDbArc
 50
299.9999999999756
 51
0.0
  0
ARC
  5
185E7
330
185AC
100
AcDbEntity
  8
0
100
AcDbCircle
 10
34.25199999996835
 20
2.481619422925121
 30
0.0
 40
2.61
100
AcDbArc
 50
180.0
 51
240.0000000000244
  0
LINE
  5
185E8
330
185AC
100
AcDbEntity
  8
0
100
AcDbLine
 10
29.30199999996933
 20
8.763099999991255
 30
0.0
 11
30.74199999996927
 21
8.763099999991255
 31
0.0
1001
ACAD
1000
ASC_BOUNDS
1002
{
1070
    19
1005
185F1
1002
}
  0
LINE
  5
185E9
330
185AC
100
AcDbEntity
  8
0
100
AcDbLine
 10
30.74199999996927
 20
8.763099999991255
 30
0.0
 11
30.74199999996927
 21
2.373099999991211
 31
0.0
1001
ACAD
1000
ASC_BOUNDS
1002
{
1070
    19
1005
185F1
1002
}
  0
LINE
  5
185EA
330
185AC
100
AcDbEntity
  8
0
100
AcDbLine
 10
26.02015566812236
 20
0.0330999999912365
 30
0.0
 11
28.40199999996923
 21
0.0330999999912365
 31
0.0
1001
ACAD
1000
ASC_BOUNDS
1002
{
1070
    19
1005
185F1
1002
}
  0
LINE
  5
185EB
330
185AC
100
AcDbEntity
  8
0
100
AcDbLine
 10
29.30199999996933
 20
8.763099999991255
 30
0.0
 11
29.30199999996933
 21
2.283099999991236
 31
0.0
1001
ACAD
1000
ASC_BOUNDS
1002
{
1070
    19
1005
185F1
1002
}
  0
LINE
  5
185EC
330
185AC
100
AcDbEntity
  8
0
100
AcDbLine
 10
26.97358892824991
 20
1.383099999991202
 30
0.0
 11
28.40199999996923
 21
1.383099999991202
 31
0.0
1001
ACAD
1000
ASC_BOUNDS
1002
{
1070
    19
1005
185F1
1002
}
  0
ARC
  5
185ED
330
185AC
100
AcDbEntity
  8
0
100
AcDbCircle
 10
28.40199999996923
 20
2.283099999991236
 30
0.0
 40
0.9
100
AcDbArc
 50
270.0
 51
0.0
1001
ACAD
1000
ASC_BOUNDS
1002
{
1070
    19
1005
185F1
1002
}
  0
ARC
  5
185EE
330
185AC
100
AcDbEntity
  8
0
100
AcDbCircle
 10
28.40199999996923
 20
2.373099999991211
 30
0.0
 40
2.34
100
AcDbArc
 50
270.0
 51
0.0
1001
ACAD
1000
ASC_BOUNDS
1002
{
1070
    19
1005
185F1
1002
}
  0
INSERT
  5
185EF
330
185AC
100
AcDbEntity
  8
0
100
AcDbBlockReference
  2
*X28
 10
0.0
 20
0.0
 30
0.0
1001
ACAD
1000
HATCH
1002
{
1070
    19
1000
ANSI37
1040
0.15
1040
0.0
1000
ASC_BOUNDS
1070
     2
1070
     2
1070
    12
1005
185AE
1005
185AF
1005
185B6
1005
185C5
1005
185C8
1005
185C6
1005
185B7
1005
185BC
1005
185BA
1005
185BE
1005
185BD
1005
185BF
1070
     2
1070
     3
1005
185CA
1005
185CC
1005
185CB
1000
ASC_SEEDPOINT
1011
3.614004224891801
1021
2.996669441146025
1031
0.0
1000
R14_HATCH_DATA
1000
185EF
1011
1.0
1021
0.0
1031
0.0
1011
0.0
1021
1.0
1031
0.0
1011
0.0
1021
0.0
1031
1.0
1040
0.0
1010
0.0
1020
0.0
1030
1.0
1000
ANSI37
1070
     0
1070
     1
1071
        2
1071
        7
1070
     0
1070
     1
1071
       17
1040
13.26299999998673
1040
-0.0001000000000317
1040
9.236999999990758
1040
8.999899999990987
1040
9.236999999990758
1040
8.999999999991019
1040
5.657999999994331
1040
0.9999999999989768
1040
3.181999999996833
1040
4.668599999995308
1040
6.432999999993513
1040
8.763099999991255
1040
4.617999999995391
1040
8.763099999991255
1040
1.420999999998571
1040
4.736799999995242
1040
4.617999999995391
1040
-0.0001000000000317
1040
4.617999999995391
1040
0.0
1040
6.766999999993232
1040
0.0
1040
6.766999999993232
1040
-0.0001000000000317
1040
7.826999999992154
1040
2.368399999997621
1040
10.64699999998936
1040
2.368399999997621
1040
11.70599999998831
1040
-0.0001000000000317
1040
11.70599999998831
1040
0.0
1040
13.26299999998673
1040
0.0
1071
       12
1005
185AE
1005
185AF
1005
185B6
1005
185C5
1005
185C8
1005
185C6
1005
185B7
1005
185BC
1005
185BA
1005
185BE
1005
185BD
1005
185BF
1071
       22
1070
     0
1070
     1
1071
        3
1040
9.236999999990758
1040
5.5200999999945
1040
10.06399999998996
1040
3.670999999996297
1040
8.409999999991555
1040
3.670999999996297
1071
        3
1005
185CA
1005
185CC
1005
185CB
1070
     0
1070
     1
1040
0.0
1040
0.15
1070
     0
1070
     2
1040
0.7853981633974483
1040
49.29960901727088
1040
-10.17736998311392
1040
-0.3367596045400932
1040
0.3367596045400932
1070
     0
1040
2.356194490192345
1040
49.29960901727088
1040
-10.17736998311392
1040
-0.3367596045400932
1040
-0.3367596045400932
1070
     0
1040
0.0110235143455945
1071
        2
1040
3.614004224891801
1040
2.996669441146025
1040
0.0
1040
3.614004224891801
1040
2.996669441146025
1040
0.0
1002
}
  0
INSERT
  5
185F0
330
185AC
100
AcDbEntity
  8
0
100
AcDbBlockReference
  2
*X29
 10
0.0
 20
0.0
 30
0.0
1001
ACAD
1000
HATCH
1002
{
1070
    19
1000
ANSI37
1040
0.15
1040
0.0
1000
ASC_BOUNDS
1070
     1
1070
     2
1070
    10
1005
185B0
1005
185B1
1005
185D2
1005
185D0
1005
185D1
1005
185C4
1005
185C9
1005
185CD
1005
185B3
1005
185B2
1000
ASC_SEEDPOINT
1011
14.73245321214324
1021
2.798246178283421
1031
0.0
1000
R14_HATCH_DATA
1000
185F0
1011
1.0
1021
0.0
1031
0.0
1011
0.0
1021
1.0
1031
0.0
1011
0.0
1021
0.0
1031
1.0
1040
0.0
1010
0.0
1020
0.0
1030
1.0
1000
ANSI37
1070
     0
1070
     1
1071
        1
1071
        7
1070
     0
1070
     1
1071
       10
1040
16.46099999998353
1040
5.432899999994561
1040
18.59199999998134
1040
-0.2368999999997641
1040
22.38199999997767
1040
8.763099999991255
1040
20.89099999997916
1040
8.763099999991255
1040
18.59799999998143
1040
3.315799999996671
1040
16.46099999998353
1040
8.999899999990987
1040
14.32399999998563
1040
3.315799999996671
1040
12.02999999998792
1040
8.763099999991255
1040
10.53899999998941
1040
8.763099999991255
1040
14.32899999998563
1040
-0.2368999999997641
1071
       10
1005
185B0
1005
185B1
1005
185D2
1005
185D0
1005
185D1
1005
185C4
1005
185C9
1005
185CD
1005
185B3
1005
185B2
1070
     0
1070
     1
1040
0.0
1040
0.15
1070
     0
1070
     2
1040
0.7853981633974483
1040
49.29960901727088
1040
-10.17736998311392
1040
-0.3367596045400932
1040
0.3367596045400932
1070
     0
1040
2.356194490192345
1040
49.29960901727088
1040
-10.17736998311392
1040
-0.3367596045400932
1040
-0.3367596045400932
1070
     0
1040
0.0110235143455945
1071
        1
1040
14.73245321214324
1040
2.798246178283421
1040
0.0
1002
}
  0
INSERT
  5
185F1
330
185AC
100
AcDbEntity
  8
0
100
AcDbBlockReference
  2
*X30
 10
0.0
 20
0.0
 30
0.0
1001
ACAD
1000
HATCH
1002
{
1070
    19
1000
ANSI37
1040
0.15
1040
0.0
1000
ASC_BOUNDS
1070
     2
1070
     2
1070
    13
1005
185B4
1005
185C1
1005
185C2
1005
185C0
1005
185C3
1005
185EA
1005
185EE
1005
185E9
1005
185E8
1005
185EB
1005
185ED
1005
185EC
1005
185B5
1070
     2
1070
     3
1005
185CE
1005
185D3
1005
185CF
1000
ASC_SEEDPOINT
1011
21.97929957367762
1021
3.294304244259308
1031
0.0
1000
R14_HATCH_DATA
1000
185F1
1011
1.0
1021
0.0
1031
0.0
1011
0.0
1021
1.0
1031
0.0
1011
0.0
1021
0.0
1031
1.0
1040
0.0
1010
0.0
1020
0.0
1030
1.0
1000
ANSI37
1070
     0
1070
     1
1071
        2
1071
        7
1070
     1
1070
     1
1071
       15
1040
23.56599999997638
1040
8.999899999990987
1040
0.0
1040
19.53899999998043
1040
-0.0001000000000317
1040
0.0
1040
19.53899999998043
1040
0.0
1040
0.0
1040
21.09599999997886
1040
0.0
1040
0.0
1040
21.09599999997886
1040
-0.0001000000000317
1040
0.0
1040
22.15599999997789
1040
2.368399999997621
1040
0.0
1040
24.97599999997499
1040
2.368399999997621
1040
0.0
1040
26.02015566812236
1040
0.0330999999912365
1040
0.0
1040
28.40199999996923
1040
0.0330999999912365
1040
0.414213562373095
1040
30.74199999996923
1040
2.373099999991211
1040
0.0
1040
30.74199999996927
1040
8.763099999991255
1040
0.0
1040
29.30199999996933
1040
8.763099999991255
1040
0.0
1040
29.30199999996933
1040
2.283099999991236
1040
-0.414213562373095
1040
28.40199999996923
1040
1.383099999991237
1040
0.0
1040
26.97358892824991
1040
1.383099999991202
1040
0.0
1071
       13
1005
185B4
1005
185C1
1005
185C2
1005
185C0
1005
185C3
1005
185EA
1005
185EE
1005
185E9
1005
185E8
1005
185EB
1005
185ED
1005
185EC
1005
185B5
1071
       22
1070
     0
1070
     1
1071
        3
1040
22.7389999999773
1040
3.670999999996297
1040
23.56599999997638
1040
5.5200999999945
1040
24.39299999997559
1040
3.670999999996297
1071
        3
1005
185CE
1005
185D3
1005
185CF
1070
     0
1070
     1
1040
0.0
1040
0.15
1070
     0
1070
     2
1040
0.7853981633974483
1040
49.29960901727088
1040
-10.17736998311392
1040
-0.3367596045400932
1040
0.3367596045400932
1070
     0
1040
2.356194490192345
1040
49.29960901727088
1040
-10.17736998311392
1040
-0.3367596045400932
1040
-0.3367596045400932
1070
     0
1040
0.0110235143455945
1071
        2
1040
21.97929957367762
1040
3.294304244259308
1040
0.0
1040
21.97929957367762
1040
3.294304244259308
1040
0.0
1002
}
  0
INSERT
  5
185F2
330
185AC
100
AcDbEntity
  8
0
100
AcDbBlockReference
  2
*X31
 10
0.0
 20
0.0
 30
0.0
1001
ACAD
1000
HATCH
1002
{
1070
    19
1000
ANSI37
1040
0.15
1040
0.0
1000
R14_HATCH_DATA
1000
185F2
1011
1.0
1021
0.0
1031
0.0
1011
0.0
1021
1.0
1031
0.0
1011
0.0
1021
0.0
1031
1.0
1040
0.0
1010
0.0
1020
0.0
1030
1.0
1000
ANSI37
1070
     0
1070
     1
1071
        1
1071
        7
1070
     1
1070
     1
1071
       12
1040
31.64199999996833
1040
2.481619422925121
1040
0.2679491924310942
1040
32.94699999997067
1040
0.2212931190493919
1040
0.2679491924301353
1040
36.36699999995983
1040
0.2212931190459813
1040
0.2679491924321411
1040
37.67199999996831
1040
2.481619422928361
1040
0.0
1040
37.67199999996831
1040
8.763099999991255
1040
0.0
1040
36.23199999996837
1040
8.763099999991255
1040
0.0
1040
36.23199999996837
1040
2.481619422925064
1040
-0.2679491924310291
1040
35.64699999996708
1040
1.468369700498386
1040
-0.267949192430519
1040
33.66699999997093
1040
1.468369700497703
1040
-0.267949192431809
1040
33.08199999996839
1040
2.481619422926997
1040
0.0
1040
33.08199999996839
1040
8.763099999991255
1040
0.0
1040
31.64199999996833
1040
8.763099999991255
1040
0.0
1071
        0
1070
     0
1070
     1
1040
0.0
1040
0.15
1070
     0
1070
     2
1040
0.7853981633974483
1040
49.29960901727088
1040
-10.17736998311392
1040
-0.3367596045400932
1040
0.3367596045400932
1070
     0
1040
2.356194490192345
1040
49.29960901727088
1040
-10.17736998311392
1040
-0.3367596045400932
1040
-0.3367596045400932
1070
     0
1040
0.0110235143455945
1071
        1
1040
32.30357378967278
1040
3.988785755459219
1040
0.0
1002
}
  0
INSERT
  5
185F3
330
185AC
100
AcDbEntity
  8
0
100
AcDbBlockReference
  2
*X32
 10
0.0
 20
0.0
 30
0.0
1001
ACAD
1000
HATCH
1002
{
1070
    19
1000
ANSI37
1040
0.15
1040
0.0
1000
ASC_BOUNDS
1070
     1
1070
     2
1070
     8
1005
185D4
1005
185D7
1005
185DB
1005
185DA
1005
185D9
1005
185D6
1005
185D8
1005
185D5
1000
ASC_SEEDPOINT
1011
39.74896370716704
1021
4.484843821435049
1031
0.0
1000
R14_HATCH_DATA
1000
185F3
1011
1.0
1021
0.0
1031
0.0
1011
0.0
1021
1.0
1031
0.0
1011
0.0
1021
0.0
1031
1.0
1040
0.0
1010
0.0
1020
0.0
1030
1.0
1000
ANSI37
1070
     0
1070
     1
1071
        1
1071
        7
1070
     0
1070
     1
1071
        9
1040
40.02599999995994
1040
5.341799999994635
1040
44.99999999995498
1040
-0.2368999999997641
1040
44.99999999995498
1040
8.763099999991255
1040
43.57899999995641
1040
8.763099999991255
1040
43.57899999995641
1040
3.421199999996588
1040
38.60499999996136
1040
8.999899999990987
1040
38.60499999996136
1040
8.999999999991019
1040
38.60499999996136
1040
0.0
1040
40.02599999995994
1040
0.0
1071
        8
1005
185D4
1005
185D7
1005
185DB
1005
185DA
1005
185D9
1005
185D6
1005
185D8
1005
185D5
1070
     0
1070
     1
1040
0.0
1040
0.15
1070
     0
1070
     2
1040
0.7853981633974483
1040
49.29960901727088
1040
-10.17736998311392
1040
-0.3367596045400932
1040
0.3367596045400932
1070
     0
1040
2.356194490192345
1040
49.29960901727088
1040
-10.17736998311392
1040
-0.3367596045400932
1040
-0.3367596045400932
1070
     0
1040
0.0110235143455945
1071
        1
1040
39.74896370716704
1040
4.484843821435049
1040
0.0
1002
}
  0
INSERT
  5
185F4
330
185AC
100
AcDbEntity
  8
0
100
AcDbBlockReference
  2
*X33
 10
0.0
 20
0.0
 30
0.0
1001
ACAD
1000
HATCH
1002
{
1070
    19
1000
ANSI37
1040
0.15
1040
0.0
1000
ASC_BOUNDS
1070
     1
1070
     2
1070
     4
1005
185B8
1005
185C7
1005
185B9
1005
185BB
1000
ASC_SEEDPOINT
1011
1.079051535452663
1021
4.148538732891836
1031
0.0
1000
R14_HATCH_DATA
1000
185F4
1011
1.0
1021
0.0
1031
0.0
1011
0.0
1021
1.0
1031
0.0
1011
0.0
1021
0.0
1031
1.0
1040
0.0
1010
0.0
1020
0.0
1030
1.0
1000
ANSI37
1070
     0
1070
     1
1071
        1
1071
        7
1070
     0
1070
     1
1071
        4
1040
1.420999999998571
1040
0.0
1040
1.420999999998571
1040
8.763099999991255
1040
0.0
1040
8.763099999991255
1040
0.0
1040
0.0
1071
        4
1005
185B8
1005
185C7
1005
185B9
1005
185BB
1070
     0
1070
     1
1040
0.0
1040
0.15
1070
     0
1070
     2
1040
0.7853981633974483
1040
49.29960901727088
1040
-10.17736998311392
1040
-0.3367596045400932
1040
0.3367596045400932
1070
     0
1040
2.356194490192345
1040
49.29960901727088
1040
-10.17736998311392
1040
-0.3367596045400932
1040
-0.3367596045400932
1070
     0
1040
0.0053004257112761
1071
        1
1040
1.079051535452663
1040
4.148538732891836
1040
0.0
1002
}
  0
ENDBLK
  5
18CAD
330
185AC
100
AcDbEntity
  8
0
100
AcDbBlockEnd
  0
BLOCK
  5
191DA
330
1904C
100
AcDbEntity
  8
0
100
AcDbBlockBegin
  2
*X28
 70
     1
 10
0.0
 20
0.0
 30
0.0
  3
*X28
  1

  0
LINE
  5
1904D
330
1904C
100
AcDbEntity
  8
0
  6
CONTINUOUS
100
AcDbLine
 10
3.418023043697893
 20
7.251849696850613
 30
0.0
 11
4.929273346838536
 21
8.763099999991255
 31
0.0
  0
LINE
  5
1904E
330
1904C
100
AcDbEntity
  8
0
  6
CONTINUOUS
100
AcDbLine
 10
1.483656411257782
 20
4.643963855330318
 30
0.0
 11
5.60279255591872
 21
8.763099999991255
 31
0.0
  0
LINE
  5
1904F
330
1904C
100
AcDbEntity
  8
0
  6
CONTINUOUS
100
AcDbLine
 10
1.755053947328235
 20
4.241842182320584
 30
0.0
 11
6.276311764998907
 21
8.763099999991255
 31
0.0
  0
LINE
  5
19050
330
1904C
100
AcDbEntity
  8
0
  6
CONTINUOUS
100
AcDbLine
 10
2.026451483398688
 20
3.839720509310849
 30
0.0
 11
4.441040904851878
 21
6.254309930764039
 31
0.0
  0
LINE
  5
19051
330
1904C
100
AcDbEntity
  8
0
  6
CONTINUOUS
100
AcDbLine
 10
2.297849019469139
 20
3.437598836301114
 30
0.0
 11
3.321765168359338
 21
4.461514985191313
 31
0.0
  0
LINE
  5
19052
330
1904C
100
AcDbEntity
  8
0
  6
CONTINUOUS
100
AcDbLine
 10
2.569246555539591
 20
3.03547716329138
 30
0.0
 11
3.593163397972743
 21
4.059394005724531
 31
0.0
  0
LINE
  5
19053
330
1904C
100
AcDbEntity
  8
0
  6
CONTINUOUS
100
AcDbLine
 10
2.840644091610043
 20
2.633355490281646
 30
0.0
 11
3.864561627586149
 21
3.657273026257751
 31
0.0
  0
LINE
  5
19054
330
1904C
100
AcDbEntity
  8
0
  6
CONTINUOUS
100
AcDbLine
 10
3.112041627680496
 20
2.231233817271911
 30
0.0
 11
4.135959857199554
 21
3.25515204679097
 31
0.0
  0
LINE
  5
19055
330
1904C
100
AcDbEntity
  8
0
  6
CONTINUOUS
100
AcDbLine
 10
3.383439163750948
 20
1.829112144262177
 30
0.0
 11
4.40735808681296
 21
2.853031067324189
 31
0.0
  0
LINE
  5
19056
330
1904C
100
AcDbEntity
  8
0
  6
CONTINUOUS
100
AcDbLine
 10
3.654836699821399
 20
1.426990471252442
 30
0.0
 11
4.678756316426365
 21
2.450910087857407
 31
0.0
  0
LINE
  5
19057
330
1904C
100
AcDbEntity
  8
0
  6
CONTINUOUS
100
AcDbLine
 10
3.926234235891853
 20
1.024868798242709
 30
0.0
 11
4.95015454603977
 21
2.048789108390626
 31
0.0
  0
LINE
  5
19058
330
1904C
100
AcDbEntity
  8
0
  6
CONTINUOUS
100
AcDbLine
 10
4.197631771962304
 20
0.6227471252329737
 30
0.0
 11
5.221552775653176
 21
1.646668128923846
 31
0.0
  0
LINE
  5
19059
330
1904C
100
AcDbEntity
  8
0
  6
CONTINUOUS
100
AcDbLine
 10
8.715877546767851
 20
7.835069736359266
 30
0.0
 11
9.435953450375058
 21
8.555145639966472
 31
0.0
  0
LINE
  5
1905A
330
1904C
100
AcDbEntity
  8
0
  6
CONTINUOUS
100
AcDbLine
 10
8.170620868422267
 20
6.616293848933497
 30
0.0
 11
9.644120833743461
 21
8.08979381425469
 31
0.0
  0
LINE
  5
1905B
330
1904C
100
AcDbEntity
  8
0
  6
CONTINUOUS
100
AcDbLine
 10
7.625364190076684
 20
5.397517961507727
 30
0.0
 11
9.852288217111864
 21
7.624441988542907
 31
0.0
  0
LINE
  5
1905C
330
1904C
100
AcDbEntity
  8
0
  6
CONTINUOUS
100
AcDbLine
 10
7.080107511731101
 20
4.178742074081957
 30
0.0
 11
10.06045560048027
 21
7.159090162831124
 31
0.0
  0
LINE
  5
1905D
330
1904C
100
AcDbEntity
  8
0
  6
CONTINUOUS
100
AcDbLine
 10
6.534850833385518
 20
2.959966186656187
 30
0.0
 11
10.26862298384867
 21
6.693738337119342
 31
0.0
  0
LINE
  5
1905E
330
1904C
100
AcDbEntity
  8
0
  6
CONTINUOUS
100
AcDbLine
 10
4.469029308032756
 20
0.2206254522232385
 30
0.0
 11
5.492951005266582
 21
1.244547149457064
 31
0.0
  0
LINE
  5
1905F
330
1904C
100
AcDbEntity
  8
0
  6
CONTINUOUS
100
AcDbLine
 10
5.989594155039935
 20
1.741190299230417
 30
0.0
 11
8.806950407233131
 21
4.558546551423613
 31
0.0
  0
LINE
  5
19060
330
1904C
100
AcDbEntity
  8
0
  6
CONTINUOUS
100
AcDbLine
 10
9.401251593263643
 20
5.152847737454126
 30
0.0
 11
10.47679036721708
 21
6.228386511407559
 31
0.0
  0
LINE
  5
19061
330
1904C
100
AcDbEntity
  8
0
  6
CONTINUOUS
100
AcDbLine
 10
4.921837203428691
 20
-0.0000858614610131
 30
0.0
 11
8.592923064886001
 21
3.670999999996297
 31
0.0
  0
LINE
  5
19062
330
1904C
100
AcDbEntity
  8
0
  6
CONTINUOUS
100
AcDbLine
 10
9.609390446785305
 20
4.6874673818956
 30
0.0
 11
10.68495775058548
 21
5.763034685695775
 31
0.0
  0
LINE
  5
19063
330
1904C
100
AcDbEntity
  8
0
  6
CONTINUOUS
100
AcDbLine
 10
5.595387755019432
 20
-0.0000545189504582
 30
0.0
 11
7.716137258923768
 21
2.120694984953879
 31
0.0
  0
LINE
  5
19064
330
1904C
100
AcDbEntity
  8
0
  6
CONTINUOUS
100
AcDbLine
 10
6.268938306610172
 20
-0.000023176439905
 30
0.0
 11
7.170485805526503
 21
0.9015243224764267
 31
0.0
  0
LINE
  5
19065
330
1904C
100
AcDbEntity
  8
0
  6
CONTINUOUS
100
AcDbLine
 10
7.963842273967511
 20
2.368399999997621
 30
0.0
 11
9.266442273966188
 21
3.670999999996297
 31
0.0
  0
LINE
  5
19066
330
1904C
100
AcDbEntity
  8
0
  6
CONTINUOUS
100
AcDbLine
 10
8.637361483047696
 20
2.368399999997621
 30
0.0
 11
9.939961483046375
 21
3.670999999996297
 31
0.0
  0
LINE
  5
19067
330
1904C
100
AcDbEntity
  8
0
  6
CONTINUOUS
100
AcDbLine
 10
9.817529300306965
 20
4.222087026337075
 30
0.0
 11
10.89312513395388
 21
5.297682859983993
 31
0.0
  0
LINE
  5
19068
330
1904C
100
AcDbEntity
  8
0
  6
CONTINUOUS
100
AcDbLine
 10
10.02566815382863
 20
3.756706670778549
 30
0.0
 11
11.10129251732229
 21
4.832331034272211
 31
0.0
  0
LINE
  5
19069
330
1904C
100
AcDbEntity
  8
0
  6
CONTINUOUS
100
AcDbLine
 10
9.310880692127883
 20
2.368399999997621
 30
0.0
 11
11.30945990069069
 21
4.366979208560428
 31
0.0
  0
LINE
  5
1906A
330
1904C
100
AcDbEntity
  8
0
  6
CONTINUOUS
100
AcDbLine
 10
9.98439990120807
 20
2.36839999999762
 30
0.0
 11
11.5176272840591
 21
3.901627382848645
 31
0.0
  0
LINE
  5
1906B
330
1904C
100
AcDbEntity
  8
0
  6
CONTINUOUS
100
AcDbLine
 10
10.65037369446246
 20
2.36085458417182
 30
0.0
 11
11.7257946674275
 21
3.436275557136862
 31
0.0
  0
LINE
  5
1906C
330
1904C
100
AcDbEntity
  8
0
  6
CONTINUOUS
100
AcDbLine
 10
10.85847197087848
 20
1.895433651507656
 30
0.0
 11
11.9339620507959
 21
2.97092373142508
 31
0.0
  0
LINE
  5
1906D
330
1904C
100
AcDbEntity
  8
0
  6
CONTINUOUS
100
AcDbLine
 10
11.0665702472945
 20
1.430012718843491
 30
0.0
 11
12.14212943416431
 21
2.505571905713296
 31
0.0
  0
LINE
  5
1906E
330
1904C
100
AcDbEntity
  8
0
  6
CONTINUOUS
100
AcDbLine
 10
11.27466852371052
 20
0.9645917861793256
 30
0.0
 11
12.35029681753271
 21
2.040220080001513
 31
0.0
  0
LINE
  5
1906F
330
1904C
100
AcDbEntity
  8
0
  6
CONTINUOUS
100
AcDbLine
 10
11.48276680012654
 20
0.4991708535151611
 30
0.0
 11
12.55846420090111
 21
1.57486825428973
 31
0.0
  0
LINE
  5
19070
330
1904C
100
AcDbEntity
  8
0
  6
CONTINUOUS
100
AcDbLine
 10
11.69086507654257
 20
0.0337499208509957
 30
0.0
 11
12.76663158426952
 21
1.109516428577947
 31
0.0
  0
LINE
  5
19071
330
1904C
100
AcDbEntity
  8
0
  6
CONTINUOUS
100
AcDbLine
 10
12.33057447873954
 20
-0.0000598860322123
 30
0.0
 11
12.97479896763792
 21
0.6441646028661663
 31
0.0
  0
LINE
  5
19072
330
1904C
100
AcDbEntity
  8
0
  6
CONTINUOUS
100
AcDbLine
 10
13.00413694809395
 20
-0.0000166257579952
 30
0.0
 11
13.18296635100632
 21
0.1788127771543824
 31
0.0
  0
LINE
  5
19073
330
1904C
100
AcDbEntity
  8
0
  6
CONTINUOUS
100
AcDbLine
 10
4.772852165289667
 20
-0.000092794222212
 30
0.0
 11
4.296495091028902
 21
0.4762642800385528
 31
0.0
  0
LINE
  5
19074
330
1904C
100
AcDbEntity
  8
0
  6
CONTINUOUS
100
AcDbLine
 10
5.446340034776103
 20
-0.0000614546284616
 30
0.0
 11
2.898195908335625
 21
2.548082671812017
 31
0.0
  0
LINE
  5
19075
330
1904C
100
AcDbEntity
  8
0
  6
CONTINUOUS
100
AcDbLine
 10
6.119827904262539
 20
-0.0000301150347113
 30
0.0
 11
1.499896725642348
 21
4.61990106358548
 31
0.0
  0
LINE
  5
19076
330
1904C
100
AcDbEntity
  8
0
  6
CONTINUOUS
100
AcDbLine
 10
6.775136745476159
 20
0.0181802528318542
 30
0.0
 11
5.699826040202669
 21
1.093490958105344
 31
0.0
  0
LINE
  5
19077
330
1904C
100
AcDbEntity
  8
0
  6
CONTINUOUS
100
AcDbLine
 10
6.983376846288489
 20
0.4834593610997118
 30
0.0
 11
5.908008617934405
 21
1.558827589453796
 31
0.0
  0
LINE
  5
19078
330
1904C
100
AcDbEntity
  8
0
  6
CONTINUOUS
100
AcDbLine
 10
5.377063484962296
 20
1.416253513345719
 30
0.0
 11
1.702276957014131
 21
5.091040041293883
 31
0.0
  0
LINE
  5
19079
330
1904C
100
AcDbEntity
  8
0
  6
CONTINUOUS
100
AcDbLine
 10
3.978745891735324
 20
3.488090315652877
 30
0.0
 11
2.000373521109399
 21
5.466462686278803
 31
0.0
  0
LINE
  5
1907A
330
1904C
100
AcDbEntity
  8
0
  6
CONTINUOUS
100
AcDbLine
 10
7.191616947100819
 20
0.948738469367568
 30
0.0
 11
6.11619119566614
 21
2.024164220802247
 31
0.0
  0
LINE
  5
1907B
330
1904C
100
AcDbEntity
  8
0
  6
CONTINUOUS
100
AcDbLine
 10
7.399857047913149
 20
1.414017577635424
 30
0.0
 11
6.324373773397875
 21
2.489500852150698
 31
0.0
  0
LINE
  5
1907C
330
1904C
100
AcDbEntity
  8
0
  6
CONTINUOUS
100
AcDbLine
 10
7.608097148725479
 20
1.879296685903281
 30
0.0
 11
6.53255635112961
 21
2.95483748349915
 31
0.0
  0
LINE
  5
1907D
330
1904C
100
AcDbEntity
  8
0
  6
CONTINUOUS
100
AcDbLine
 10
7.816337249537808
 20
2.344575794171138
 30
0.0
 11
6.740738928861345
 21
3.420174114847601
 31
0.0
  0
LINE
  5
1907E
330
1904C
100
AcDbEntity
  8
0
  6
CONTINUOUS
100
AcDbLine
 10
3.310241080789734
 20
4.830114335678653
 30
0.0
 11
2.298470085204666
 21
5.84188533126372
 31
0.0
  0
LINE
  5
1907F
330
1904C
100
AcDbEntity
  8
0
  6
CONTINUOUS
100
AcDbLine
 10
3.60832983563551
 20
5.205544789913063
 30
0.0
 11
2.596566649299935
 21
6.217307976248638
 31
0.0
  0
LINE
  5
19080
330
1904C
100
AcDbEntity
  8
0
  6
CONTINUOUS
100
AcDbLine
 10
3.906418590481286
 20
5.580975244147473
 30
0.0
 11
2.894663213395203
 21
6.592730621233557
 31
0.0
  0
LINE
  5
19081
330
1904C
100
AcDbEntity
  8
0
  6
CONTINUOUS
100
AcDbLine
 10
4.204507345327062
 20
5.956405698381884
 30
0.0
 11
3.192759777490472
 21
6.968153266218474
 31
0.0
  0
LINE
  5
19082
330
1904C
100
AcDbEntity
  8
0
  6
CONTINUOUS
100
AcDbLine
 10
8.466032252791512
 20
2.368399999997621
 30
0.0
 11
6.948921506593081
 21
3.885510746196053
 31
0.0
  0
LINE
  5
19083
330
1904C
100
AcDbEntity
  8
0
  6
CONTINUOUS
100
AcDbLine
 10
9.139551461871699
 20
2.36839999999762
 30
0.0
 11
7.157104084324816
 21
4.350847377544504
 31
0.0
  0
LINE
  5
19084
330
1904C
100
AcDbEntity
  8
0
  6
CONTINUOUS
100
AcDbLine
 10
4.502596100172839
 20
6.331836152616295
 30
0.0
 11
3.49085634158574
 21
7.343575911203393
 31
0.0
  0
LINE
  5
19085
330
1904C
100
AcDbEntity
  8
0
  6
CONTINUOUS
100
AcDbLine
 10
4.800684855018615
 20
6.707266606850705
 30
0.0
 11
3.788952905681008
 21
7.718998556188312
 31
0.0
  0
LINE
  5
19086
330
1904C
100
AcDbEntity
  8
0
  6
CONTINUOUS
100
AcDbLine
 10
12.18154012887317
 20
-0.0000694579236642
 30
0.0
 11
11.32140332908496
 21
0.8600673418645499
 31
0.0
  0
LINE
  5
19087
330
1904C
100
AcDbEntity
  8
0
  6
CONTINUOUS
100
AcDbLine
 10
12.85501608323566
 20
-0.0000262032059659
 30
0.0
 11
10.77672456435345
 21
2.078265315676246
 31
0.0
  0
LINE
  5
19088
330
1904C
100
AcDbEntity
  8
0
  6
CONTINUOUS
100
AcDbLine
 10
9.813070670951886
 20
2.36839999999762
 30
0.0
 11
8.51047067095321
 21
3.670999999996297
 31
0.0
  0
LINE
  5
19089
330
1904C
100
AcDbEntity
  8
0
  6
CONTINUOUS
100
AcDbLine
 10
10.48658988003207
 20
2.36839999999762
 30
0.0
 11
9.183989880033396
 21
3.670999999996297
 31
0.0
  0
LINE
  5
1908A
330
1904C
100
AcDbEntity
  8
0
  6
CONTINUOUS
100
AcDbLine
 10
8.441048632286794
 20
3.740422038662712
 30
0.0
 11
7.365286662056551
 21
4.816184008892956
 31
0.0
  0
LINE
  5
1908B
330
1904C
100
AcDbEntity
  8
0
  6
CONTINUOUS
100
AcDbLine
 10
8.649187485808454
 20
4.205802394221237
 30
0.0
 11
7.573469239788285
 21
5.281520640241407
 31
0.0
  0
LINE
  5
1908C
330
1904C
100
AcDbEntity
  8
0
  6
CONTINUOUS
100
AcDbLine
 10
5.098773609864391
 20
7.082697061085115
 30
0.0
 11
4.087049469776277
 21
8.09442120117323
 31
0.0
  0
LINE
  5
1908D
330
1904C
100
AcDbEntity
  8
0
  6
CONTINUOUS
100
AcDbLine
 10
5.396862364710167
 20
7.458127515319526
 30
0.0
 11
4.385146033871544
 21
8.469843846158149
 31
0.0
  0
LINE
  5
1908E
330
1904C
100
AcDbEntity
  8
0
  6
CONTINUOUS
100
AcDbLine
 10
13.04801363231285
 20
0.4804954567970334
 30
0.0
 11
9.85750908911358
 21
3.670999999996297
 31
0.0
  0
LINE
  5
1908F
330
1904C
100
AcDbEntity
  8
0
  6
CONTINUOUS
100
AcDbLine
 10
8.857326339330116
 20
4.671182749779763
 30
0.0
 11
7.781651817520021
 21
5.746857271589858
 31
0.0
  0
LINE
  5
19090
330
1904C
100
AcDbEntity
  8
0
  6
CONTINUOUS
100
AcDbLine
 10
5.694951119555943
 20
7.833557969553937
 30
0.0
 11
4.765409089118624
 21
8.763099999991255
 31
0.0
  0
LINE
  5
19091
330
1904C
100
AcDbEntity
  8
0
  6
CONTINUOUS
100
AcDbLine
 10
12.50286117236978
 20
1.699167125820288
 30
0.0
 11
9.68611877250287
 21
4.515909525687196
 31
0.0
  0
LINE
  5
19092
330
1904C
100
AcDbEntity
  8
0
  6
CONTINUOUS
100
AcDbLine
 10
9.065465192851777
 20
5.136563105338288
 30
0.0
 11
7.989834395251757
 21
6.21219390293831
 31
0.0
  0
LINE
  5
19093
330
1904C
100
AcDbEntity
  8
0
  6
CONTINUOUS
100
AcDbLine
 10
5.993039874401719
 20
8.208988423788346
 30
0.0
 11
5.43892829819881
 21
8.763099999991255
 31
0.0
  0
LINE
  5
19094
330
1904C
100
AcDbEntity
  8
0
  6
CONTINUOUS
100
AcDbLine
 10
11.95770871242671
 20
2.917838794843543
 30
0.0
 11
8.19801697298349
 21
6.677530534286761
 31
0.0
  0
LINE
  5
19095
330
1904C
100
AcDbEntity
  8
0
  6
CONTINUOUS
100
AcDbLine
 10
6.291128629247495
 20
8.584418878022756
 30
0.0
 11
6.112447507278997
 21
8.763099999991255
 31
0.0
  0
LINE
  5
19096
330
1904C
100
AcDbEntity
  8
0
  6
CONTINUOUS
100
AcDbLine
 10
11.41255625248364
 20
4.136510463866797
 30
0.0
 11
8.406199550715227
 21
7.142867165635211
 31
0.0
  0
LINE
  5
19097
330
1904C
100
AcDbEntity
  8
0
  6
CONTINUOUS
100
AcDbLine
 10
10.86740379254057
 20
5.355182132890051
 30
0.0
 11
8.614382128446962
 21
7.608203796983664
 31
0.0
  0
LINE
  5
19098
330
1904C
100
AcDbEntity
  8
0
  6
CONTINUOUS
100
AcDbLine
 10
10.3222513325975
 20
6.573853801913305
 30
0.0
 11
8.822564706178696
 21
8.073540428332114
 31
0.0
  0
LINE
  5
19099
330
1904C
100
AcDbEntity
  8
0
  6
CONTINUOUS
100
AcDbLine
 10
9.777098872654436
 20
7.792525470936562
 30
0.0
 11
9.030747283910433
 21
8.538877059680566
 31
0.0
  0
ENDBLK
  5
191DB
330
1904C
100
AcDbEntity
  8
0
100
AcDbBlockEnd
  0
BLOCK
  5
191DC
330
1909A
100
AcDbEntity
  8
0
100
AcDbBlockBegin
  2
*X29
 70
     1
 10
0.0
 20
0.0
 30
0.0
  3
*X29
  1

  0
LINE
  5
1909B
330
1909A
100
AcDbEntity
  8
0
  6
CONTINUOUS
100
AcDbLine
 10
10.67292308101235
 20
8.445076852443387
 30
0.0
 11
10.99094622856022
 21
8.763099999991255
 31
0.0
  0
LINE
  5
1909C
330
1909A
100
AcDbEntity
  8
0
  6
CONTINUOUS
100
AcDbLine
 10
10.87250383178748
 20
7.971138394138331
 30
0.0
 11
11.6644654376404
 21
8.763099999991255
 31
0.0
  0
LINE
  5
1909D
330
1909A
100
AcDbEntity
  8
0
  6
CONTINUOUS
100
AcDbLine
 10
11.07208458256261
 20
7.497199935833273
 30
0.0
 11
12.12126590876355
 21
8.546381262034211
 31
0.0
  0
LINE
  5
1909E
330
1909A
100
AcDbEntity
  8
0
  6
CONTINUOUS
100
AcDbLine
 10
11.27166533333774
 20
7.023261477528216
 30
0.0
 11
12.32085164573666
 21
8.072447789927136
 31
0.0
  0
LINE
  5
1909F
330
1909A
100
AcDbEntity
  8
0
  6
CONTINUOUS
100
AcDbLine
 10
11.47124608411287
 20
6.549323019223158
 30
0.0
 11
12.52043738270977
 21
7.59851431782006
 31
0.0
  0
LINE
  5
190A0
330
1909A
100
AcDbEntity
  8
0
  6
CONTINUOUS
100
AcDbLine
 10
11.670826834888
 20
6.075384560918101
 30
0.0
 11
12.72002311968288
 21
7.124580845712984
 31
0.0
  0
LINE
  5
190A1
330
1909A
100
AcDbEntity
  8
0
  6
CONTINUOUS
100
AcDbLine
 10
11.87040758566313
 20
5.601446102613043
 30
0.0
 11
12.91960885665599
 21
6.650647373605907
 31
0.0
  0
LINE
  5
190A2
330
1909A
100
AcDbEntity
  8
0
  6
CONTINUOUS
100
AcDbLine
 10
12.06998833643825
 20
5.127507644307986
 30
0.0
 11
13.1191945936291
 21
6.176713901498832
 31
0.0
  0
LINE
  5
190A3
330
1909A
100
AcDbEntity
  8
0
  6
CONTINUOUS
100
AcDbLine
 10
12.26956908721338
 20
4.65356918600293
 30
0.0
 11
13.31878033060221
 21
5.702780429391757
 31
0.0
  0
LINE
  5
190A4
330
1909A
100
AcDbEntity
  8
0
  6
CONTINUOUS
100
AcDbLine
 10
12.46914983798851
 20
4.179630727697873
 30
0.0
 11
13.51836606757532
 21
5.228846957284683
 31
0.0
  0
LINE
  5
190A5
330
1909A
100
AcDbEntity
  8
0
  6
CONTINUOUS
100
AcDbLine
 10
12.66873058876364
 20
3.705692269392816
 30
0.0
 11
13.71795180454843
 21
4.754913485177607
 31
0.0
  0
LINE
  5
190A6
330
1909A
100
AcDbEntity
  8
0
  6
CONTINUOUS
100
AcDbLine
 10
12.86831133953877
 20
3.231753811087759
 30
0.0
 11
13.91753754152154
 21
4.280980013070531
 31
0.0
  0
LINE
  5
190A7
330
1909A
100
AcDbEntity
  8
0
  6
CONTINUOUS
100
AcDbLine
 10
13.0678920903139
 20
2.757815352782702
 30
0.0
 11
14.11712327849465
 21
3.807046540963456
 31
0.0
  0
LINE
  5
190A8
330
1909A
100
AcDbEntity
  8
0
  6
CONTINUOUS
100
AcDbLine
 10
13.26747284108903
 20
2.283876894477644
 30
0.0
 11
14.31670901546777
 21
3.333113068856379
 31
0.0
  0
LINE
  5
190A9
330
1909A
100
AcDbEntity
  8
0
  6
CONTINUOUS
100
AcDbLine
 10
16.36767838827179
 20
8.751678487061342
 30
0.0
 11
16.50332410898388
 21
8.887324207773432
 31
0.0
  0
LINE
  5
190AA
330
1909A
100
AcDbEntity
  8
0
  6
CONTINUOUS
100
AcDbLine
 10
15.96190732182191
 20
7.67238821153127
 30
0.0
 11
16.68735328004734
 21
8.397834169756699
 31
0.0
  0
LINE
  5
190AB
330
1909A
100
AcDbEntity
  8
0
  6
CONTINUOUS
100
AcDbLine
 10
15.55613625537202
 20
6.593097936001196
 30
0.0
 11
16.87138245111079
 21
7.908344131739965
 31
0.0
  0
LINE
  5
190AC
330
1909A
100
AcDbEntity
  8
0
  6
CONTINUOUS
100
AcDbLine
 10
15.15036518892213
 20
5.513807660471122
 30
0.0
 11
17.05541162217424
 21
7.418854093723231
 31
0.0
  0
LINE
  5
190AD
330
1909A
100
AcDbEntity
  8
0
  6
CONTINUOUS
100
AcDbLine
 10
14.74459412247225
 20
4.434517384941048
 30
0.0
 11
17.2394407932377
 21
6.929364055706499
 31
0.0
  0
LINE
  5
190AE
330
1909A
100
AcDbEntity
  8
0
  6
CONTINUOUS
100
AcDbLine
 10
14.33882305602236
 20
3.355227109410975
 30
0.0
 11
17.42346996430115
 21
6.439874017689766
 31
0.0
  0
LINE
  5
190AF
330
1909A
100
AcDbEntity
  8
0
  6
CONTINUOUS
100
AcDbLine
 10
13.46705359186416
 20
1.809938436172586
 30
0.0
 11
16.0819338255367
 21
4.424818669845129
 31
0.0
  0
LINE
  5
190B0
330
1909A
100
AcDbEntity
  8
0
  6
CONTINUOUS
100
AcDbLine
 10
16.63283254238972
 20
4.975717386698149
 30
0.0
 11
17.60749913536461
 21
5.950383979673033
 31
0.0
  0
LINE
  5
190B1
330
1909A
100
AcDbEntity
  8
0
  6
CONTINUOUS
100
AcDbLine
 10
13.66663434263929
 20
1.335999977867529
 30
0.0
 11
15.67604797733754
 21
3.345413612565779
 31
0.0
  0
LINE
  5
190B2
330
1909A
100
AcDbEntity
  8
0
  6
CONTINUOUS
100
AcDbLine
 10
13.86621509341442
 20
0.8620615195624723
 30
0.0
 11
15.27016212913838
 21
2.26600855528643
 31
0.0
  0
LINE
  5
190B3
330
1909A
100
AcDbEntity
  8
0
  6
CONTINUOUS
100
AcDbLine
 10
16.81682257348267
 20
4.486188208710908
 30
0.0
 11
17.79152830642806
 21
5.460893941656299
 31
0.0
  0
LINE
  5
190B4
330
1909A
100
AcDbEntity
  8
0
  6
CONTINUOUS
100
AcDbLine
 10
17.00081260457561
 20
3.996659030723667
 30
0.0
 11
17.97555747749151
 21
4.971403903639565
 31
0.0
  0
LINE
  5
190B5
330
1909A
100
AcDbEntity
  8
0
  6
CONTINUOUS
100
AcDbLine
 10
20.74362343514722
 20
8.412989070375462
 30
0.0
 11
21.09373436476302
 21
8.763099999991256
 31
0.0
  0
LINE
  5
190B6
330
1909A
100
AcDbEntity
  8
0
  6
CONTINUOUS
100
AcDbLine
 10
20.25401257174777
 20
7.249858997895826
 30
0.0
 11
21.7672535738432
 21
8.763099999991255
 31
0.0
  0
LINE
  5
190B7
330
1909A
100
AcDbEntity
  8
0
  6
CONTINUOUS
100
AcDbLine
 10
14.06579584418955
 20
0.3881230612574149
 30
0.0
 11
14.86427628093921
 21
1.186603498007082
 31
0.0
  0
LINE
  5
190B8
330
1909A
100
AcDbEntity
  8
0
  6
CONTINUOUS
100
AcDbLine
 10
14.26537659496467
 20
-0.0858153970476412
 30
0.0
 11
14.45839043274005
 21
0.1071984407277329
 31
0.0
  0
LINE
  5
190B9
330
1909A
100
AcDbEntity
  8
0
  6
CONTINUOUS
100
AcDbLine
 10
17.18480263566856
 20
3.507129852736426
 30
0.0
 11
18.15958664855496
 21
4.481913865622833
 31
0.0
  0
LINE
  5
190BA
330
1909A
100
AcDbEntity
  8
0
  6
CONTINUOUS
100
AcDbLine
 10
17.3687926667615
 20
3.017600674749186
 30
0.0
 11
18.34361581961842
 21
3.9924238276061
 31
0.0
  0
LINE
  5
190BB
330
1909A
100
AcDbEntity
  8
0
  6
CONTINUOUS
100
AcDbLine
 10
19.76440170834832
 20
6.086728925416191
 30
0.0
 11
22.33924590259489
 21
8.661573119662755
 31
0.0
  0
LINE
  5
190BC
330
1909A
100
AcDbEntity
  8
0
  6
CONTINUOUS
100
AcDbLine
 10
19.27479084494887
 20
4.923598852936555
 30
0.0
 11
21.84929622842713
 21
7.498104236414807
 31
0.0
  0
LINE
  5
190BD
330
1909A
100
AcDbEntity
  8
0
  6
CONTINUOUS
100
AcDbLine
 10
17.55278269785445
 20
2.528071496761945
 30
0.0
 11
18.52764499068187
 21
3.502933789589366
 31
0.0
  0
LINE
  5
190BE
330
1909A
100
AcDbEntity
  8
0
  6
CONTINUOUS
100
AcDbLine
 10
18.78517998154942
 20
3.760468780456919
 30
0.0
 11
21.35934655425936
 21
6.33463535316686
 31
0.0
  0
LINE
  5
190BF
330
1909A
100
AcDbEntity
  8
0
  6
CONTINUOUS
100
AcDbLine
 10
17.73677272894739
 20
2.038542318774704
 30
0.0
 11
20.8693968800916
 21
5.171166469918914
 31
0.0
  0
LINE
  5
190C0
330
1909A
100
AcDbEntity
  8
0
  6
CONTINUOUS
100
AcDbLine
 10
17.92076276004034
 20
1.549013140787464
 30
0.0
 11
20.37944720592384
 21
4.007697586670968
 31
0.0
  0
LINE
  5
190C1
330
1909A
100
AcDbEntity
  8
0
  6
CONTINUOUS
100
AcDbLine
 10
18.10475279113329
 20
1.059483962800223
 30
0.0
 11
19.88949753175608
 21
2.84422870342302
 31
0.0
  0
LINE
  5
190C2
330
1909A
100
AcDbEntity
  8
0
  6
CONTINUOUS
100
AcDbLine
 10
18.28874282222623
 20
0.5699547848129822
 30
0.0
 11
19.39954785758832
 21
1.680759820175074
 31
0.0
  0
LINE
  5
190C3
330
1909A
100
AcDbEntity
  8
0
  6
CONTINUOUS
100
AcDbLine
 10
18.47273285331918
 20
0.0804256068257416
 30
0.0
 11
18.90959818342056
 21
0.517290936927127
 31
0.0
  0
LINE
  5
190C4
330
1909A
100
AcDbEntity
  8
0
  6
CONTINUOUS
100
AcDbLine
 10
14.3590401358224
 20
-0.1570118376323384
 30
0.0
 11
14.24903296539946
 21
-0.0470046672093929
 31
0.0
  0
LINE
  5
190C5
330
1909A
100
AcDbEntity
  8
0
  6
CONTINUOUS
100
AcDbLine
 10
14.54309291258661
 20
0.332454594683643
 30
0.0
 11
13.75908329123172
 21
1.116464216038529
 31
0.0
  0
LINE
  5
190C6
330
1909A
100
AcDbEntity
  8
0
  6
CONTINUOUS
100
AcDbLine
 10
14.72714568935081
 20
0.8219210269996244
 30
0.0
 11
13.26913361706399
 21
2.27993309928645
 31
0.0
  0
LINE
  5
190C7
330
1909A
100
AcDbEntity
  8
0
  6
CONTINUOUS
100
AcDbLine
 10
14.91119846611502
 20
1.311387459315606
 30
0.0
 11
12.77918394289625
 21
3.443401982534371
 31
0.0
  0
LINE
  5
190C8
330
1909A
100
AcDbEntity
  8
0
  6
CONTINUOUS
100
AcDbLine
 10
15.09525124287922
 20
1.800853891631587
 30
0.0
 11
12.28923426872852
 21
4.606870865782293
 31
0.0
  0
LINE
  5
190C9
330
1909A
100
AcDbEntity
  8
0
  6
CONTINUOUS
100
AcDbLine
 10
15.27930401964343
 20
2.290320323947569
 30
0.0
 11
11.79928459456078
 21
5.770339749030213
 31
0.0
  0
LINE
  5
190CA
330
1909A
100
AcDbEntity
  8
0
  6
CONTINUOUS
100
AcDbLine
 10
15.46335679640763
 20
2.77978675626355
 30
0.0
 11
14.48885470994921
 21
3.754288842721972
 31
0.0
  0
LINE
  5
190CB
330
1909A
100
AcDbEntity
  8
0
  6
CONTINUOUS
100
AcDbLine
 10
13.88507249233704
 20
4.358071060334137
 30
0.0
 11
11.30933492039305
 21
6.933808632278135
 31
0.0
  0
LINE
  5
190CC
330
1909A
100
AcDbEntity
  8
0
  6
CONTINUOUS
100
AcDbLine
 10
18.75840522805855
 20
0.1582575336928151
 30
0.0
 11
18.25383727664818
 21
0.6628254851031863
 31
0.0
  0
LINE
  5
190CD
330
1909A
100
AcDbEntity
  8
0
  6
CONTINUOUS
100
AcDbLine
 10
15.64740957317184
 20
3.269253188579531
 30
0.0
 11
14.67288388101266
 21
4.243778880738705
 31
0.0
  0
LINE
  5
190CE
330
1909A
100
AcDbEntity
  8
0
  6
CONTINUOUS
100
AcDbLine
 10
13.39509276772158
 20
5.521569994029786
 30
0.0
 11
10.81938524622531
 21
8.097277515526056
 31
0.0
  0
LINE
  5
190CF
330
1909A
100
AcDbEntity
  8
0
  6
CONTINUOUS
100
AcDbLine
 10
18.95798597883369
 20
0.6321959919978686
 30
0.0
 11
17.84825644852853
 21
1.741925522303024
 31
0.0
  0
LINE
  5
190D0
330
1909A
100
AcDbEntity
  8
0
  6
CONTINUOUS
100
AcDbLine
 10
19.15756672960882
 20
1.106134450302922
 30
0.0
 11
17.44267562040888
 21
2.821025559502861
 31
0.0
  0
LINE
  5
190D1
330
1909A
100
AcDbEntity
  8
0
  6
CONTINUOUS
100
AcDbLine
 10
15.83146234993604
 20
3.758719620895513
 30
0.0
 11
14.85691305207612
 21
4.733268918755439
 31
0.0
  0
LINE
  5
190D2
330
1909A
100
AcDbEntity
  8
0
  6
CONTINUOUS
100
AcDbLine
 10
16.01551512670025
 20
4.248186053211494
 30
0.0
 11
15.04094222313957
 21
5.222758956772172
 31
0.0
  0
LINE
  5
190D3
330
1909A
100
AcDbEntity
  8
0
  6
CONTINUOUS
100
AcDbLine
 10
12.90511304310612
 20
6.685068927725435
 30
0.0
 11
10.8270819708403
 21
8.763099999991255
 31
0.0
  0
LINE
  5
190D4
330
1909A
100
AcDbEntity
  8
0
  6
CONTINUOUS
100
AcDbLine
 10
12.41513331849066
 20
7.848567861421083
 30
0.0
 11
11.50060117992049
 21
8.763099999991255
 31
0.0
  0
LINE
  5
190D5
330
1909A
100
AcDbEntity
  8
0
  6
CONTINUOUS
100
AcDbLine
 10
19.35714748038395
 20
1.580072908607975
 30
0.0
 11
17.03709479228923
 21
3.900125596702697
 31
0.0
  0
LINE
  5
190D6
330
1909A
100
AcDbEntity
  8
0
  6
CONTINUOUS
100
AcDbLine
 10
19.55672823115909
 20
2.054011366913028
 30
0.0
 11
16.63151396416958
 21
4.979225633902534
 31
0.0
  0
LINE
  5
190D7
330
1909A
100
AcDbEntity
  8
0
  6
CONTINUOUS
100
AcDbLine
 10
16.19956790346445
 20
4.737652485527476
 30
0.0
 11
15.22497139420302
 21
5.712248994788904
 31
0.0
  0
LINE
  5
190D8
330
1909A
100
AcDbEntity
  8
0
  6
CONTINUOUS
100
AcDbLine
 10
16.38362068022866
 20
5.227118917843457
 30
0.0
 11
15.40900056526648
 21
6.201739032805637
 31
0.0
  0
LINE
  5
190D9
330
1909A
100
AcDbEntity
  8
0
  6
CONTINUOUS
100
AcDbLine
 10
19.75630898193422
 20
2.527949825218081
 30
0.0
 11
18.70774536448286
 21
3.576513442669441
 31
0.0
  0
LINE
  5
190DA
330
1909A
100
AcDbEntity
  8
0
  6
CONTINUOUS
100
AcDbLine
 10
19.95588973270936
 20
3.001888283523134
 30
0.0
 11
18.90726987211446
 21
4.050508144118028
 31
0.0
  0
LINE
  5
190DB
330
1909A
100
AcDbEntity
  8
0
  6
CONTINUOUS
100
AcDbLine
 10
20.15547048348449
 20
3.475826741828186
 30
0.0
 11
19.10679437974606
 21
4.524502845566614
 31
0.0
  0
LINE
  5
190DC
330
1909A
100
AcDbEntity
  8
0
  6
CONTINUOUS
100
AcDbLine
 10
20.35505123425962
 20
3.94976520013324
 30
0.0
 11
19.30631888737766
 21
4.998497547015201
 31
0.0
  0
LINE
  5
190DD
330
1909A
100
AcDbEntity
  8
0
  6
CONTINUOUS
100
AcDbLine
 10
20.55463198503475
 20
4.423703658438292
 30
0.0
 11
19.50584339500926
 21
5.472492248463787
 31
0.0
  0
LINE
  5
190DE
330
1909A
100
AcDbEntity
  8
0
  6
CONTINUOUS
100
AcDbLine
 10
18.37481191085755
 20
3.909446896294752
 30
0.0
 11
15.59302973632993
 21
6.691229070822371
 31
0.0
  0
LINE
  5
190DF
330
1909A
100
AcDbEntity
  8
0
  6
CONTINUOUS
100
AcDbLine
 10
17.96904084440766
 20
4.988737171824825
 30
0.0
 11
15.77705890739338
 21
7.180719108839104
 31
0.0
  0
LINE
  5
190E0
330
1909A
100
AcDbEntity
  8
0
  6
CONTINUOUS
100
AcDbLine
 10
17.56326977795777
 20
6.068027447354899
 30
0.0
 11
15.96108807845684
 21
7.670209146855838
 31
0.0
  0
LINE
  5
190E1
330
1909A
100
AcDbEntity
  8
0
  6
CONTINUOUS
100
AcDbLine
 10
17.15749871150789
 20
7.147317722884972
 30
0.0
 11
16.14511724952029
 21
8.15969918487257
 31
0.0
  0
LINE
  5
190E2
330
1909A
100
AcDbEntity
  8
0
  6
CONTINUOUS
100
AcDbLine
 10
16.751727645058
 20
8.226607998415046
 30
0.0
 11
16.32914642058374
 21
8.649189222889303
 31
0.0
  0
LINE
  5
190E3
330
1909A
100
AcDbEntity
  8
0
  6
CONTINUOUS
100
AcDbLine
 10
20.75421273580989
 20
4.897642116743345
 30
0.0
 11
19.70536790264086
 21
5.946486949912374
 31
0.0
  0
LINE
  5
190E4
330
1909A
100
AcDbEntity
  8
0
  6
CONTINUOUS
100
AcDbLine
 10
20.95379348658502
 20
5.371580575048398
 30
0.0
 11
19.90489241027246
 21
6.42048165136096
 31
0.0
  0
LINE
  5
190E5
330
1909A
100
AcDbEntity
  8
0
  6
CONTINUOUS
100
AcDbLine
 10
21.15337423736015
 20
5.845519033353452
 30
0.0
 11
20.10441691790406
 21
6.894476352809547
 31
0.0
  0
LINE
  5
190E6
330
1909A
100
AcDbEntity
  8
0
  6
CONTINUOUS
100
AcDbLine
 10
21.35295498813529
 20
6.319457491658505
 30
0.0
 11
20.30394142553566
 21
7.368471054258134
 31
0.0
  0
LINE
  5
190E7
330
1909A
100
AcDbEntity
  8
0
  6
CONTINUOUS
100
AcDbLine
 10
21.55253573891042
 20
6.793395949963558
 30
0.0
 11
20.50346593316726
 21
7.842465755706721
 31
0.0
  0
LINE
  5
190E8
330
1909A
100
AcDbEntity
  8
0
  6
CONTINUOUS
100
AcDbLine
 10
21.75211648968556
 20
7.267334408268612
 30
0.0
 11
20.70299044079886
 21
8.316460457155308
 31
0.0
  0
LINE
  5
190E9
330
1909A
100
AcDbEntity
  8
0
  6
CONTINUOUS
100
AcDbLine
 10
21.95169724046069
 20
7.741272866573663
 30
0.0
 11
20.9298701070431
 21
8.763099999991256
 31
0.0
  0
LINE
  5
190EA
330
1909A
100
AcDbEntity
  8
0
  6
CONTINUOUS
100
AcDbLine
 10
22.15127799123582
 20
8.215211324878716
 30
0.0
 11
21.60338931612328
 21
8.763099999991256
 31
0.0
  0
LINE
  5
190EB
330
1909A
100
AcDbEntity
  8
0
  6
CONTINUOUS
100
AcDbLine
 10
22.35085874201096
 20
8.689149783183769
 30
0.0
 11
22.27690852520347
 21
8.763099999991255
 31
0.0
  0
ENDBLK
  5
191DD
330
1909A
100
AcDbEntity
  8
0
100
AcDbBlockEnd
  0
BLOCK
  5
191DE
330
190EC
100
AcDbEntity
  8
0
100
AcDbBlockBegin
  2
*X30
 70
     1
 10
0.0
 20
0.0
 30
0.0
  3
*X30
  1

  0
LINE
  5
190ED
330
190EC
100
AcDbEntity
  8
0
  6
CONTINUOUS
100
AcDbLine
 10
23.19462913593892
 20
8.169917934846424
 30
0.0
 11
23.70775465517246
 21
8.683043454079957
 31
0.0
  0
LINE
  5
190EE
330
190EC
100
AcDbEntity
  8
0
  6
CONTINUOUS
100
AcDbLine
 10
22.64923161835078
 20
6.951001208178088
 30
0.0
 11
23.9159364069932
 21
8.217705996820516
 31
0.0
  0
LINE
  5
190EF
330
190EC
100
AcDbEntity
  8
0
  6
CONTINUOUS
100
AcDbLine
 10
22.10383410076263
 20
5.732084481509751
 30
0.0
 11
24.12411815881395
 21
7.752368539561078
 31
0.0
  0
LINE
  5
190F0
330
190EC
100
AcDbEntity
  8
0
  6
CONTINUOUS
100
AcDbLine
 10
21.55843658317447
 20
4.513167754841414
 30
0.0
 11
24.3322999106347
 21
7.287031082301639
 31
0.0
  0
LINE
  5
190F1
330
190EC
100
AcDbEntity
  8
0
  6
CONTINUOUS
100
AcDbLine
 10
21.01303906558632
 20
3.294251028173077
 30
0.0
 11
24.54048166245544
 21
6.821693625042199
 31
0.0
  0
LINE
  5
190F2
330
190EC
100
AcDbEntity
  8
0
  6
CONTINUOUS
100
AcDbLine
 10
20.46764154799817
 20
2.075334301504738
 30
0.0
 11
23.28571549467848
 21
4.89340824818505
 31
0.0
  0
LINE
  5
190F3
330
190EC
100
AcDbEntity
  8
0
  6
CONTINUOUS
100
AcDbLine
 10
19.92224403041002
 20
0.8564175748364002
 30
0.0
 11
22.74075865492779
 21
3.674932199354171
 31
0.0
  0
LINE
  5
190F4
330
190EC
100
AcDbEntity
  8
0
  6
CONTINUOUS
100
AcDbLine
 10
23.67305085490148
 20
5.280743608408048
 30
0.0
 11
24.74866341427619
 21
6.356356167782759
 31
0.0
  0
LINE
  5
190F5
330
190EC
100
AcDbEntity
  8
0
  6
CONTINUOUS
100
AcDbLine
 10
23.88118970842314
 20
4.815363252849522
 30
0.0
 11
24.95684516609694
 21
5.89101871052332
 31
0.0
  0
LINE
  5
190F6
330
190EC
100
AcDbEntity
  8
0
  6
CONTINUOUS
100
AcDbLine
 10
19.73925852647308
 20
-0.0000871381807288
 30
0.0
 11
23.4103456646501
 21
3.670999999996297
 31
0.0
  0
LINE
  5
190F7
330
190EC
100
AcDbEntity
  8
0
  6
CONTINUOUS
100
AcDbLine
 10
24.0893285619448
 20
4.349982897290997
 30
0.0
 11
25.16502691791769
 21
5.42568125326388
 31
0.0
  0
LINE
  5
190F8
330
190EC
100
AcDbEntity
  8
0
  6
CONTINUOUS
100
AcDbLine
 10
20.41282099582748
 20
-0.0000438779065108
 30
0.0
 11
21.64944178675636
 21
1.236576913022366
 31
0.0
  0
LINE
  5
190F9
330
190EC
100
AcDbEntity
  8
0
  6
CONTINUOUS
100
AcDbLine
 10
22.78126487373161
 20
2.36839999999762
 30
0.0
 11
24.08386487373029
 21
3.670999999996297
 31
0.0
  0
LINE
  5
190FA
330
190EC
100
AcDbEntity
  8
0
  6
CONTINUOUS
100
AcDbLine
 10
24.29746741546646
 20
3.884602541732471
 30
0.0
 11
25.37320866973843
 21
4.960343796004441
 31
0.0
  0
LINE
  5
190FB
330
190EC
100
AcDbEntity
  8
0
  6
CONTINUOUS
100
AcDbLine
 10
21.08638346518189
 20
-0.0000006176322938
 30
0.0
 11
21.10379033335899
 21
0.0174062505448083
 31
0.0
  0
LINE
  5
190FC
330
190EC
100
AcDbEntity
  8
0
  6
CONTINUOUS
100
AcDbLine
 10
23.4547840828118
 20
2.36839999999762
 30
0.0
 11
25.58139042155918
 21
4.495006338745002
 31
0.0
  0
LINE
  5
190FD
330
190EC
100
AcDbEntity
  8
0
  6
CONTINUOUS
100
AcDbLine
 10
29.30199999996933
 20
8.215615917155148
 30
0.0
 11
29.84948408280543
 21
8.763099999991255
 31
0.0
  0
LINE
  5
190FE
330
190EC
100
AcDbEntity
  8
0
  6
CONTINUOUS
100
AcDbLine
 10
24.12830329189199
 20
2.36839999999762
 30
0.0
 11
25.78957217337993
 21
4.029668881485562
 31
0.0
  0
LINE
  5
190FF
330
190EC
100
AcDbEntity
  8
0
  6
CONTINUOUS
100
AcDbLine
 10
29.30199999996933
 20
7.54209670807496
 30
0.0
 11
30.52300329188562
 21
8.763099999991255
 31
0.0
  0
LINE
  5
19100
330
190EC
100
AcDbEntity
  8
0
  6
CONTINUOUS
100
AcDbLine
 10
24.80182250097217
 20
2.36839999999762
 30
0.0
 11
25.99775392520067
 21
3.564331424226122
 31
0.0
  0
LINE
  5
19101
330
190EC
100
AcDbEntity
  8
0
  6
CONTINUOUS
100
AcDbLine
 10
29.30199999996933
 20
6.868577498994774
 30
0.0
 11
30.74199999996926
 21
8.308577498994712
 31
0.0
  0
LINE
  5
19102
330
190EC
100
AcDbEntity
  8
0
  6
CONTINUOUS
100
AcDbLine
 10
25.13028238392013
 20
2.023340673865392
 30
0.0
 11
26.20593567702142
 21
3.098993966966683
 31
0.0
  0
LINE
  5
19103
330
190EC
100
AcDbEntity
  8
0
  6
CONTINUOUS
100
AcDbLine
 10
25.33838066033617
 20
1.557919741201244
 30
0.0
 11
26.41411742884217
 21
2.633656509707244
 31
0.0
  0
LINE
  5
19104
330
190EC
100
AcDbEntity
  8
0
  6
CONTINUOUS
100
AcDbLine
 10
25.54647893675221
 20
1.092498808537098
 30
0.0
 11
26.62229918066291
 21
2.168319052447804
 31
0.0
  0
LINE
  5
19105
330
190EC
100
AcDbEntity
  8
0
  6
CONTINUOUS
100
AcDbLine
 10
25.75457721316825
 20
0.62707787587295
 30
0.0
 11
26.83048093248366
 21
1.702981595188365
 31
0.0
  0
LINE
  5
19106
330
190EC
100
AcDbEntity
  8
0
  6
CONTINUOUS
100
AcDbLine
 10
29.30199999996933
 20
6.195058289914587
 30
0.0
 11
30.74199999996926
 21
7.635058289914522
 31
0.0
  0
LINE
  5
19107
330
190EC
100
AcDbEntity
  8
0
  6
CONTINUOUS
100
AcDbLine
 10
29.30199999996933
 20
5.521539080834401
 30
0.0
 11
30.74199999996926
 21
6.961539080834331
 31
0.0
  0
LINE
  5
19108
330
190EC
100
AcDbEntity
  8
0
  6
CONTINUOUS
100
AcDbLine
 10
29.30199999996933
 20
4.848019871754214
 30
0.0
 11
30.74199999996925
 21
6.288019871754143
 31
0.0
  0
LINE
  5
19109
330
190EC
100
AcDbEntity
  8
0
  6
CONTINUOUS
100
AcDbLine
 10
29.30199999996933
 20
4.174500662674028
 30
0.0
 11
30.74199999996925
 21
5.614500662673953
 31
0.0
  0
LINE
  5
1910A
330
190EC
100
AcDbEntity
  8
0
  6
CONTINUOUS
100
AcDbLine
 10
25.96267548958429
 20
0.1616569432088024
 30
0.0
 11
27.18411854636669
 21
1.383099999991207
 31
0.0
  0
LINE
  5
1910B
330
190EC
100
AcDbEntity
  8
0
  6
CONTINUOUS
100
AcDbLine
 10
29.30199999996933
 20
3.500981453593841
 30
0.0
 11
30.74199999996925
 21
4.940981453593762
 31
0.0
  0
LINE
  5
1910C
330
190EC
100
AcDbEntity
  8
0
  6
CONTINUOUS
100
AcDbLine
 10
26.50763775544691
 20
0.0330999999912356
 30
0.0
 11
27.85763775544689
 21
1.383099999991223
 31
0.0
  0
LINE
  5
1910D
330
190EC
100
AcDbEntity
  8
0
  6
CONTINUOUS
100
AcDbLine
 10
29.30199999996933
 20
2.827462244513656
 30
0.0
 11
30.74199999996925
 21
4.267462244513574
 31
0.0
  0
LINE
  5
1910E
330
190EC
100
AcDbEntity
  8
0
  6
CONTINUOUS
100
AcDbLine
 10
27.18115696452709
 20
0.0330999999912356
 30
0.0
 11
28.6224847300034
 21
1.474427765467545
 31
0.0
  0
LINE
  5
1910F
330
190EC
100
AcDbEntity
  8
0
  6
CONTINUOUS
100
AcDbLine
 10
29.21067223449293
 20
2.062615269957069
 30
0.0
 11
30.74199999996924
 21
3.593943035433383
 31
0.0
  0
LINE
  5
19110
330
190EC
100
AcDbEntity
  8
0
  6
CONTINUOUS
100
AcDbLine
 10
27.85467617360728
 20
0.0330999999912356
 30
0.0
 11
30.74199999996924
 21
2.920423826353195
 31
0.0
  0
LINE
  5
19111
330
190EC
100
AcDbEntity
  8
0
  6
CONTINUOUS
100
AcDbLine
 10
28.57438609860264
 20
0.0792907159064073
 30
0.0
 11
30.69580928405405
 21
2.200713901357819
 31
0.0
  0
LINE
  5
19112
330
190EC
100
AcDbEntity
  8
0
  6
CONTINUOUS
100
AcDbLine
 10
29.49443044814297
 20
0.3258158563665496
 30
0.0
 11
30.44928414359389
 21
1.280669551817477
 31
0.0
  0
LINE
  5
19113
330
190EC
100
AcDbEntity
  8
0
  6
CONTINUOUS
100
AcDbLine
 10
19.59027867740337
 20
-0.0000967065718083
 30
0.0
 11
19.55485265190471
 21
0.035329318926844
 31
0.0
  0
LINE
  5
19114
330
190EC
100
AcDbEntity
  8
0
  6
CONTINUOUS
100
AcDbLine
 10
20.26375463176586
 20
-0.0000534518541091
 30
0.0
 11
19.76305575737534
 21
0.5006454225364014
 31
0.0
  0
LINE
  5
19115
330
190EC
100
AcDbEntity
  8
0
  6
CONTINUOUS
100
AcDbLine
 10
20.93723058612834
 20
-0.0000101971364099
 30
0.0
 11
19.97125886284597
 21
0.965961526145958
 31
0.0
  0
LINE
  5
19116
330
190EC
100
AcDbEntity
  8
0
  6
CONTINUOUS
100
AcDbLine
 10
21.25514828313686
 20
0.355591314935257
 30
0.0
 11
20.1794619683166
 21
1.431277629755512
 31
0.0
  0
LINE
  5
19117
330
190EC
100
AcDbEntity
  8
0
  6
CONTINUOUS
100
AcDbLine
 10
21.46338838394921
 20
0.8208704232030986
 30
0.0
 11
20.38766507378723
 21
1.896593733365069
 31
0.0
  0
LINE
  5
19118
330
190EC
100
AcDbEntity
  8
0
  6
CONTINUOUS
100
AcDbLine
 10
21.67162848476155
 20
1.28614953147094
 30
0.0
 11
20.59586817925786
 21
2.361909836974626
 31
0.0
  0
LINE
  5
19119
330
190EC
100
AcDbEntity
  8
0
  6
CONTINUOUS
100
AcDbLine
 10
21.8798685855739
 20
1.751428639738782
 30
0.0
 11
20.80407128472849
 21
2.827225940584183
 31
0.0
  0
LINE
  5
1911A
330
190EC
100
AcDbEntity
  8
0
  6
CONTINUOUS
100
AcDbLine
 10
22.08810868638624
 20
2.216707748006623
 30
0.0
 11
21.01227439019912
 21
3.292542044193739
 31
0.0
  0
LINE
  5
1911B
330
190EC
100
AcDbEntity
  8
0
  6
CONTINUOUS
100
AcDbLine
 10
22.60993564347543
 20
2.36839999999762
 30
0.0
 11
21.22047749566975
 21
3.757858147803296
 31
0.0
  0
LINE
  5
1911C
330
190EC
100
AcDbEntity
  8
0
  6
CONTINUOUS
100
AcDbLine
 10
23.28345485255561
 20
2.36839999999762
 30
0.0
 11
21.42868060114038
 21
4.223174251412853
 31
0.0
  0
LINE
  5
1911D
330
190EC
100
AcDbEntity
  8
0
  6
CONTINUOUS
100
AcDbLine
 10
26.29227406164219
 20
0.0330999999912356
 30
0.0
 11
25.80009199592872
 21
0.5252820657046957
 31
0.0
  0
LINE
  5
1911E
330
190EC
100
AcDbEntity
  8
0
  6
CONTINUOUS
100
AcDbLine
 10
23.9569740616358
 20
2.36839999999762
 30
0.0
 11
21.63688370661101
 21
4.688490355022409
 31
0.0
  0
LINE
  5
1911F
330
190EC
100
AcDbEntity
  8
0
  6
CONTINUOUS
100
AcDbLine
 10
26.96579327072237
 20
0.0330999999912356
 30
0.0
 11
25.2554132311971
 21
1.743480039516508
 31
0.0
  0
LINE
  5
19120
330
190EC
100
AcDbEntity
  8
0
  6
CONTINUOUS
100
AcDbLine
 10
24.63049327071599
 20
2.36839999999762
 30
0.0
 11
23.32789327071731
 21
3.670999999996297
 31
0.0
  0
LINE
  5
19121
330
190EC
100
AcDbEntity
  8
0
  6
CONTINUOUS
100
AcDbLine
 10
22.92098674744635
 20
4.077906523267254
 30
0.0
 11
21.84508681208164
 21
5.153806458631966
 31
0.0
  0
LINE
  5
19122
330
190EC
100
AcDbEntity
  8
0
  6
CONTINUOUS
100
AcDbLine
 10
27.63931247980256
 20
0.0330999999912356
 30
0.0
 11
24.0014124797975
 21
3.670999999996297
 31
0.0
  0
LINE
  5
19123
330
190EC
100
AcDbEntity
  8
0
  6
CONTINUOUS
100
AcDbLine
 10
23.129125600968
 20
4.5432868788258
 30
0.0
 11
22.05328991755227
 21
5.619122562241522
 31
0.0
  0
LINE
  5
19124
330
190EC
100
AcDbEntity
  8
0
  6
CONTINUOUS
100
AcDbLine
 10
28.31283168888275
 20
0.0330999999912356
 30
0.0
 11
24.16488385994816
 21
4.181047828925828
 31
0.0
  0
LINE
  5
19125
330
190EC
100
AcDbEntity
  8
0
  6
CONTINUOUS
100
AcDbLine
 10
23.33726445448964
 20
5.008667234384345
 30
0.0
 11
22.2614930230229
 21
6.084438665851079
 31
0.0
  0
LINE
  5
19126
330
190EC
100
AcDbEntity
  8
0
  6
CONTINUOUS
100
AcDbLine
 10
28.86286302309502
 20
0.1565878748591523
 30
0.0
 11
27.63635089796295
 21
1.383099999991217
 31
0.0
  0
LINE
  5
19127
330
190EC
100
AcDbEntity
  8
0
  6
CONTINUOUS
100
AcDbLine
 10
26.43704649509776
 20
2.582404402856405
 30
0.0
 11
23.61992702019732
 21
5.399523877756844
 31
0.0
  0
LINE
  5
19128
330
190EC
100
AcDbEntity
  8
0
  6
CONTINUOUS
100
AcDbLine
 10
23.54540330801128
 20
5.47404758994289
 30
0.0
 11
22.46969612849353
 21
6.549754769460635
 31
0.0
  0
LINE
  5
19129
330
190EC
100
AcDbEntity
  8
0
  6
CONTINUOUS
100
AcDbLine
 10
29.39405087596853
 20
0.2989192310658284
 30
0.0
 11
28.30987010704312
 21
1.383099999991234
 31
0.0
  0
LINE
  5
1912A
330
190EC
100
AcDbEntity
  8
0
  6
CONTINUOUS
100
AcDbLine
 10
25.89179548232307
 20
3.801174624711282
 30
0.0
 11
22.67789923396416
 21
7.015070873070191
 31
0.0
  0
LINE
  5
1912B
330
190EC
100
AcDbEntity
  8
0
  6
CONTINUOUS
100
AcDbLine
 10
29.79594438047407
 20
0.570544935640473
 30
0.0
 11
28.81310432793121
 21
1.553384988183336
 31
0.0
  0
LINE
  5
1912C
330
190EC
100
AcDbEntity
  8
0
  6
CONTINUOUS
100
AcDbLine
 10
25.34654446954838
 20
5.01994484656616
 30
0.0
 11
22.88610233943479
 21
7.480386976679748
 31
0.0
  0
LINE
  5
1912D
330
190EC
100
AcDbEntity
  8
0
  6
CONTINUOUS
100
AcDbLine
 10
30.13270398501416
 20
0.9073045401805646
 30
0.0
 11
29.14234640337737
 21
1.897662121817355
 31
0.0
  0
LINE
  5
1912E
330
190EC
100
AcDbEntity
  8
0
  6
CONTINUOUS
100
AcDbLine
 10
24.80129345677369
 20
6.238715068421037
 30
0.0
 11
23.09430544490542
 21
7.945703080289305
 31
0.0
  0
LINE
  5
1912F
330
190EC
100
AcDbEntity
  8
0
  6
CONTINUOUS
100
AcDbLine
 10
30.44581292956759
 20
1.26771480470732
 30
0.0
 11
29.30199999996933
 21
2.411527734305588
 31
0.0
  0
LINE
  5
19130
330
190EC
100
AcDbEntity
  8
0
  6
CONTINUOUS
100
AcDbLine
 10
30.58814428577427
 20
1.798902657580827
 30
0.0
 11
29.30199999996933
 21
3.085046943385775
 31
0.0
  0
LINE
  5
19131
330
190EC
100
AcDbEntity
  8
0
  6
CONTINUOUS
100
AcDbLine
 10
24.256042443999
 20
7.457485290275915
 30
0.0
 11
23.30250855037605
 21
8.411019183898862
 31
0.0
  0
LINE
  5
19132
330
190EC
100
AcDbEntity
  8
0
  6
CONTINUOUS
100
AcDbLine
 10
23.71079143122431
 20
8.676255512130794
 30
0.0
 11
23.51071165584668
 21
8.876335287508418
 31
0.0
  0
LINE
  5
19133
330
190EC
100
AcDbEntity
  8
0
  6
CONTINUOUS
100
AcDbLine
 10
30.73047564198095
 20
2.330090510454333
 30
0.0
 11
29.30199999996933
 21
3.758566152465961
 31
0.0
  0
LINE
  5
19134
330
190EC
100
AcDbEntity
  8
0
  6
CONTINUOUS
100
AcDbLine
 10
30.74199999996924
 20
2.992085361546236
 30
0.0
 11
29.30199999996933
 21
4.432085361546148
 31
0.0
  0
LINE
  5
19135
330
190EC
100
AcDbEntity
  8
0
  6
CONTINUOUS
100
AcDbLine
 10
30.74199999996924
 20
3.665604570626419
 30
0.0
 11
29.30199999996933
 21
5.105604570626333
 31
0.0
  0
LINE
  5
19136
330
190EC
100
AcDbEntity
  8
0
  6
CONTINUOUS
100
AcDbLine
 10
30.74199999996925
 20
4.339123779706602
 30
0.0
 11
29.30199999996933
 21
5.77912377970652
 31
0.0
  0
LINE
  5
19137
330
190EC
100
AcDbEntity
  8
0
  6
CONTINUOUS
100
AcDbLine
 10
30.74199999996925
 20
5.012642988786785
 30
0.0
 11
29.30199999996933
 21
6.452642988786707
 31
0.0
  0
LINE
  5
19138
330
190EC
100
AcDbEntity
  8
0
  6
CONTINUOUS
100
AcDbLine
 10
30.74199999996925
 20
5.68616219786697
 30
0.0
 11
29.30199999996933
 21
7.126162197866894
 31
0.0
  0
LINE
  5
19139
330
190EC
100
AcDbEntity
  8
0
  6
CONTINUOUS
100
AcDbLine
 10
30.74199999996925
 20
6.359681406947153
 30
0.0
 11
29.30199999996933
 21
7.799681406947081
 31
0.0
  0
LINE
  5
1913A
330
190EC
100
AcDbEntity
  8
0
  6
CONTINUOUS
100
AcDbLine
 10
30.74199999996926
 20
7.033200616027337
 30
0.0
 11
29.30199999996933
 21
8.473200616027269
 31
0.0
  0
LINE
  5
1913B
330
190EC
100
AcDbEntity
  8
0
  6
CONTINUOUS
100
AcDbLine
 10
30.74199999996926
 20
7.706719825107518
 30
0.0
 11
29.68561982508552
 21
8.763099999991255
 31
0.0
  0
LINE
  5
1913C
330
190EC
100
AcDbEntity
  8
0
  6
CONTINUOUS
100
AcDbLine
 10
30.74199999996926
 20
8.380239034187703
 30
0.0
 11
30.35913903416571
 21
8.763099999991255
 31
0.0
  0
ENDBLK
  5
191DF
330
190EC
100
AcDbEntity
  8
0
100
AcDbBlockEnd
  0
BLOCK
  5
191E0
330
1913D
100
AcDbEntity
  8
0
100
AcDbBlockBegin
  2
*X31
 70
     1
 10
0.0
 20
0.0
 30
0.0
  3
*X31
  1

  0
LINE
  5
1913E
330
1913D
100
AcDbEntity
  8
0
  6
CONTINUOUS
100
AcDbLine
 10
31.64199999996833
 20
8.5350582899136
 30
0.0
 11
31.87004171004599
 21
8.763099999991255
 31
0.0
  0
LINE
  5
1913F
330
1913D
100
AcDbEntity
  8
0
  6
CONTINUOUS
100
AcDbLine
 10
31.64199999996833
 20
7.861539080833413
 30
0.0
 11
32.54356091912618
 21
8.763099999991255
 31
0.0
  0
LINE
  5
19140
330
1913D
100
AcDbEntity
  8
0
  6
CONTINUOUS
100
AcDbLine
 10
31.64199999996833
 20
7.188019871753227
 30
0.0
 11
33.08199999996839
 21
8.628019871753281
 31
0.0
  0
LINE
  5
19141
330
1913D
100
AcDbEntity
  8
0
  6
CONTINUOUS
100
AcDbLine
 10
31.64199999996833
 20
6.514500662673041
 30
0.0
 11
33.08199999996839
 21
7.954500662673095
 31
0.0
  0
LINE
  5
19142
330
1913D
100
AcDbEntity
  8
0
  6
CONTINUOUS
100
AcDbLine
 10
31.64199999996833
 20
5.840981453592855
 30
0.0
 11
33.08199999996839
 21
7.28098145359291
 31
0.0
  0
LINE
  5
19143
330
1913D
100
AcDbEntity
  8
0
  6
CONTINUOUS
100
AcDbLine
 10
31.64199999996833
 20
5.167462244512668
 30
0.0
 11
33.08199999996839
 21
6.607462244512723
 31
0.0
  0
LINE
  5
19144
330
1913D
100
AcDbEntity
  8
0
  6
CONTINUOUS
100
AcDbLine
 10
31.64199999996833
 20
4.493943035432482
 30
0.0
 11
33.08199999996839
 21
5.933943035432536
 31
0.0
  0
LINE
  5
19145
330
1913D
100
AcDbEntity
  8
0
  6
CONTINUOUS
100
AcDbLine
 10
31.64199999996833
 20
3.820423826352294
 30
0.0
 11
33.08199999996839
 21
5.260423826352349
 31
0.0
  0
LINE
  5
19146
330
1913D
100
AcDbEntity
  8
0
  6
CONTINUOUS
100
AcDbLine
 10
31.64199999996833
 20
3.146904617272108
 30
0.0
 11
33.08199999996839
 21
4.586904617272163
 31
0.0
  0
LINE
  5
19147
330
1913D
100
AcDbEntity
  8
0
  6
CONTINUOUS
100
AcDbLine
 10
36.23199999996837
 20
8.410423826352327
 30
0.0
 11
36.58467617360729
 21
8.763099999991255
 31
0.0
  0
LINE
  5
19148
330
1913D
100
AcDbEntity
  8
0
  6
CONTINUOUS
100
AcDbLine
 10
36.23199999996837
 20
7.73690461727214
 30
0.0
 11
37.25819538268748
 21
8.763099999991255
 31
0.0
  0
LINE
  5
19149
330
1913D
100
AcDbEntity
  8
0
  6
CONTINUOUS
100
AcDbLine
 10
31.64323424774199
 20
2.474619655965573
 30
0.0
 11
33.08199999996839
 21
3.913385408191976
 31
0.0
  0
LINE
  5
1914A
330
1913D
100
AcDbEntity
  8
0
  6
CONTINUOUS
100
AcDbLine
 10
31.74419223861915
 20
1.902058437762552
 30
0.0
 11
33.08199999996839
 21
3.239866199111789
 31
0.0
  0
LINE
  5
1914B
330
1913D
100
AcDbEntity
  8
0
  6
CONTINUOUS
100
AcDbLine
 10
36.23199999996837
 20
7.063385408191953
 30
0.0
 11
37.67199999996831
 21
8.503385408191894
 31
0.0
  0
LINE
  5
1914C
330
1913D
100
AcDbEntity
  8
0
  6
CONTINUOUS
100
AcDbLine
 10
36.23199999996837
 20
6.389866199111767
 30
0.0
 11
37.67199999996831
 21
7.829866199111708
 31
0.0
  0
LINE
  5
1914D
330
1913D
100
AcDbEntity
  8
0
  6
CONTINUOUS
100
AcDbLine
 10
31.91111233414976
 20
1.39545932421297
 30
0.0
 11
33.08199999996839
 21
2.566346990031603
 31
0.0
  0
LINE
  5
1914E
330
1913D
100
AcDbEntity
  8
0
  6
CONTINUOUS
100
AcDbLine
 10
36.23199999996837
 20
5.71634699003158
 30
0.0
 11
37.67199999996831
 21
7.156346990031522
 31
0.0
  0
LINE
  5
1914F
330
1913D
100
AcDbEntity
  8
0
  6
CONTINUOUS
100
AcDbLine
 10
32.1576374746103
 20
0.9684652555933289
 30
0.0
 11
33.20642631446081
 21
2.017254095443838
 31
0.0
  0
LINE
  5
19150
330
1913D
100
AcDbEntity
  8
0
  6
CONTINUOUS
100
AcDbLine
 10
36.23199999996837
 20
5.042827780951393
 30
0.0
 11
37.67199999996831
 21
6.482827780951334
 31
0.0
  0
LINE
  5
19151
330
1913D
100
AcDbEntity
  8
0
  6
CONTINUOUS
100
AcDbLine
 10
32.47774023927325
 20
0.6150488111760914
 30
0.0
 11
33.49903056428258
 21
1.636339136185419
 31
0.0
  0
LINE
  5
19152
330
1913D
100
AcDbEntity
  8
0
  6
CONTINUOUS
100
AcDbLine
 10
36.23199999996837
 20
4.369308571871207
 30
0.0
 11
37.67199999996831
 21
5.809308571871148
 31
0.0
  0
LINE
  5
19153
330
1913D
100
AcDbEntity
  8
0
  6
CONTINUOUS
100
AcDbLine
 10
32.84396249154443
 20
0.3077518543670883
 30
0.0
 11
33.93324121824649
 21
1.397030581069146
 31
0.0
  0
LINE
  5
19154
330
1913D
100
AcDbEntity
  8
0
  6
CONTINUOUS
100
AcDbLine
 10
36.23199999996837
 20
3.695789362791021
 30
0.0
 11
37.67199999996831
 21
5.135789362790963
 31
0.0
  0
LINE
  5
19155
330
1913D
100
AcDbEntity
  8
0
  6
CONTINUOUS
100
AcDbLine
 10
33.30186329036846
 20
0.0921334441109263
 30
0.0
 11
34.46442907112041
 21
1.254699224862875
 31
0.0
  0
LINE
  5
19156
330
1913D
100
AcDbEntity
  8
0
  6
CONTINUOUS
100
AcDbLine
 10
36.23199999996837
 20
3.022270153710834
 30
0.0
 11
37.67199999996831
 21
4.462270153710776
 31
0.0
  0
LINE
  5
19157
330
1913D
100
AcDbEntity
  8
0
  6
CONTINUOUS
100
AcDbLine
 10
33.79565647746294
 20
-0.0875925778747773
 30
0.0
 11
35.24350171668284
 21
1.360252661345124
 31
0.0
  0
LINE
  5
19158
330
1913D
100
AcDbEntity
  8
0
  6
CONTINUOUS
100
AcDbLine
 10
36.18336676155003
 20
2.300117706212308
 30
0.0
 11
37.67199999996831
 21
3.788750944630589
 31
0.0
  0
LINE
  5
19159
330
1913D
100
AcDbEntity
  8
0
  6
CONTINUOUS
100
AcDbLine
 10
34.37182574910968
 20
-0.184942515308224
 30
0.0
 11
37.67199999996831
 21
3.115231735550402
 31
0.0
  0
LINE
  5
1915A
330
1913D
100
AcDbEntity
  8
0
  6
CONTINUOUS
100
AcDbLine
 10
35.0453449581892
 20
-0.1849425153088955
 30
0.0
 11
37.66345697088136
 21
2.433169497383271
 31
0.0
  0
LINE
  5
1915B
330
1913D
100
AcDbEntity
  8
0
  6
CONTINUOUS
100
AcDbLine
 10
35.98667157609191
 20
0.0828648935136398
 30
0.0
 11
37.51927401744566
 21
1.615467334867382
 31
0.0
  0
LINE
  5
1915C
330
1913D
100
AcDbEntity
  8
0
  6
CONTINUOUS
100
AcDbLine
 10
32.27747408544484
 20
0.7830920669904482
 30
0.0
 11
32.24716210471949
 21
0.8134040477157893
 31
0.0
  0
LINE
  5
1915D
330
1913D
100
AcDbEntity
  8
0
  6
CONTINUOUS
100
AcDbLine
 10
33.83656881101902
 20
-0.1024834495035494
 30
0.0
 11
31.72538911593758
 21
2.008696245577891
 31
0.0
  0
LINE
  5
1915E
330
1913D
100
AcDbEntity
  8
0
  6
CONTINUOUS
100
AcDbLine
 10
34.5925470859041
 20
-0.1849425153084434
 30
0.0
 11
31.64199999996833
 21
2.765604570627322
 31
0.0
  0
LINE
  5
1915F
330
1913D
100
AcDbEntity
  8
0
  6
CONTINUOUS
100
AcDbLine
 10
35.26201302775981
 20
-0.1808892480839752
 30
0.0
 11
31.64199999996833
 21
3.439123779707508
 31
0.0
  0
LINE
  5
19160
330
1913D
100
AcDbEntity
  8
0
  6
CONTINUOUS
100
AcDbLine
 10
35.75580621485512
 20
-0.0011632260990879
 30
0.0
 11
34.51294304365551
 21
1.241699945100514
 31
0.0
  0
LINE
  5
19161
330
1913D
100
AcDbEntity
  8
0
  6
CONTINUOUS
100
AcDbLine
 10
33.08199999996839
 20
2.672642988787641
 30
0.0
 11
31.64199999996833
 21
4.112642988787695
 31
0.0
  0
LINE
  5
19162
330
1913D
100
AcDbEntity
  8
0
  6
CONTINUOUS
100
AcDbLine
 10
36.24959940195042
 20
0.1785627958857976
 30
0.0
 11
35.10501653033629
 21
1.323145667499924
 31
0.0
  0
LINE
  5
19163
330
1913D
100
AcDbEntity
  8
0
  6
CONTINUOUS
100
AcDbLine
 10
33.08199999996839
 20
3.346162197867827
 30
0.0
 11
31.64199999996833
 21
4.786162197867881
 31
0.0
  0
LINE
  5
19164
330
1913D
100
AcDbEntity
  8
0
  6
CONTINUOUS
100
AcDbLine
 10
36.64615197150552
 20
0.4555294354108876
 30
0.0
 11
35.6362043832099
 21
1.465477023706505
 31
0.0
  0
LINE
  5
19165
330
1913D
100
AcDbEntity
  8
0
  6
CONTINUOUS
100
AcDbLine
 10
33.08199999996839
 20
4.019681406948013
 30
0.0
 11
31.64199999996833
 21
5.459681406948068
 31
0.0
  0
LINE
  5
19166
330
1913D
100
AcDbEntity
  8
0
  6
CONTINUOUS
100
AcDbLine
 10
37.0123742237774
 20
0.7628263922191891
 30
0.0
 11
35.97691545773309
 21
1.798285158263504
 31
0.0
  0
LINE
  5
19167
330
1913D
100
AcDbEntity
  8
0
  6
CONTINUOUS
100
AcDbLine
 10
33.08199999996839
 20
4.6932006160282
 30
0.0
 11
31.64199999996833
 21
6.133200616028255
 31
0.0
  0
LINE
  5
19168
330
1913D
100
AcDbEntity
  8
0
  6
CONTINUOUS
100
AcDbLine
 10
37.27491524157143
 20
1.173804583505349
 30
0.0
 11
36.17602012811361
 21
2.272699696963169
 31
0.0
  0
LINE
  5
19169
330
1913D
100
AcDbEntity
  8
0
  6
CONTINUOUS
100
AcDbLine
 10
33.08199999996839
 20
5.366719825108387
 30
0.0
 11
31.64199999996833
 21
6.806719825108441
 31
0.0
  0
LINE
  5
1916A
330
1913D
100
AcDbEntity
  8
0
  6
CONTINUOUS
100
AcDbLine
 10
37.51739996707661
 20
1.604839067080355
 30
0.0
 11
36.23199999996837
 21
2.890239034188595
 31
0.0
  0
LINE
  5
1916B
330
1913D
100
AcDbEntity
  8
0
  6
CONTINUOUS
100
AcDbLine
 10
37.6183579579535
 20
2.177400285283649
 30
0.0
 11
36.23199999996837
 21
3.563758243268782
 31
0.0
  0
LINE
  5
1916C
330
1913D
100
AcDbEntity
  8
0
  6
CONTINUOUS
100
AcDbLine
 10
33.08199999996839
 20
6.040239034188573
 30
0.0
 11
31.64199999996833
 21
7.480239034188628
 31
0.0
  0
LINE
  5
1916D
330
1913D
100
AcDbEntity
  8
0
  6
CONTINUOUS
100
AcDbLine
 10
33.08199999996839
 20
6.713758243268759
 30
0.0
 11
31.64199999996833
 21
8.153758243268815
 31
0.0
  0
LINE
  5
1916E
330
1913D
100
AcDbEntity
  8
0
  6
CONTINUOUS
100
AcDbLine
 10
37.67199999996831
 20
2.797277452349027
 30
0.0
 11
36.23199999996837
 21
4.237277452348969
 31
0.0
  0
LINE
  5
1916F
330
1913D
100
AcDbEntity
  8
0
  6
CONTINUOUS
100
AcDbLine
 10
37.67199999996831
 20
3.470796661429214
 30
0.0
 11
36.23199999996837
 21
4.910796661429155
 31
0.0
  0
LINE
  5
19170
330
1913D
100
AcDbEntity
  8
0
  6
CONTINUOUS
100
AcDbLine
 10
37.67199999996831
 20
4.1443158705094
 30
0.0
 11
36.23199999996837
 21
5.584315870509341
 31
0.0
  0
LINE
  5
19171
330
1913D
100
AcDbEntity
  8
0
  6
CONTINUOUS
100
AcDbLine
 10
33.08199999996839
 20
7.387277452348946
 30
0.0
 11
31.70617745232608
 21
8.763099999991255
 31
0.0
  0
LINE
  5
19172
330
1913D
100
AcDbEntity
  8
0
  6
CONTINUOUS
100
AcDbLine
 10
33.08199999996839
 20
8.060796661429134
 30
0.0
 11
32.37969666140626
 21
8.763099999991255
 31
0.0
  0
LINE
  5
19173
330
1913D
100
AcDbEntity
  8
0
  6
CONTINUOUS
100
AcDbLine
 10
33.08199999996839
 20
8.734315870509318
 30
0.0
 11
33.05321587048645
 21
8.763099999991255
 31
0.0
  0
LINE
  5
19174
330
1913D
100
AcDbEntity
  8
0
  6
CONTINUOUS
100
AcDbLine
 10
37.67199999996831
 20
4.817835079589586
 30
0.0
 11
36.23199999996837
 21
6.257835079589528
 31
0.0
  0
LINE
  5
19175
330
1913D
100
AcDbEntity
  8
0
  6
CONTINUOUS
100
AcDbLine
 10
37.67199999996831
 20
5.491354288669772
 30
0.0
 11
36.23199999996837
 21
6.931354288669715
 31
0.0
  0
LINE
  5
19176
330
1913D
100
AcDbEntity
  8
0
  6
CONTINUOUS
100
AcDbLine
 10
37.67199999996831
 20
6.164873497749959
 30
0.0
 11
36.23199999996837
 21
7.6048734977499
 31
0.0
  0
LINE
  5
19177
330
1913D
100
AcDbEntity
  8
0
  6
CONTINUOUS
100
AcDbLine
 10
37.67199999996831
 20
6.838392706830145
 30
0.0
 11
36.23199999996837
 21
8.278392706830086
 31
0.0
  0
LINE
  5
19178
330
1913D
100
AcDbEntity
  8
0
  6
CONTINUOUS
100
AcDbLine
 10
37.67199999996831
 20
7.511911915910333
 30
0.0
 11
36.42081191588738
 21
8.763099999991255
 31
0.0
  0
LINE
  5
19179
330
1913D
100
AcDbEntity
  8
0
  6
CONTINUOUS
100
AcDbLine
 10
37.67199999996831
 20
8.185431124990519
 30
0.0
 11
37.09433112496757
 21
8.763099999991255
 31
0.0
  0
ENDBLK
  5
191E1
330
1913D
100
AcDbEntity
  8
0
100
AcDbBlockEnd
  0
BLOCK
  5
191E2
330
1917A
100
AcDbEntity
  8
0
100
AcDbBlockBegin
  2
*X32
 70
     1
 10
0.0
 20
0.0
 30
0.0
  3
*X32
  1

  0
LINE
  5
1917B
330
1917A
100
AcDbEntity
  8
0
  6
CONTINUOUS
100
AcDbLine
 10
38.60499999996136
 20
8.762866199104765
 30
0.0
 11
38.71672554182345
 21
8.874591740966855
 31
0.0
  0
LINE
  5
1917C
330
1917A
100
AcDbEntity
  8
0
  6
CONTINUOUS
100
AcDbLine
 10
38.60499999996136
 20
8.089346990024577
 30
0.0
 11
39.03418785440363
 21
8.518534844466847
 31
0.0
  0
LINE
  5
1917D
330
1917A
100
AcDbEntity
  8
0
  6
CONTINUOUS
100
AcDbLine
 10
38.60499999996136
 20
7.41582778094439
 30
0.0
 11
39.35165016698382
 21
8.16247794796684
 31
0.0
  0
LINE
  5
1917E
330
1917A
100
AcDbEntity
  8
0
  6
CONTINUOUS
100
AcDbLine
 10
38.60499999996136
 20
6.742308571864204
 30
0.0
 11
39.66911247956399
 21
7.806421051466834
 31
0.0
  0
LINE
  5
1917F
330
1917A
100
AcDbEntity
  8
0
  6
CONTINUOUS
100
AcDbLine
 10
38.60499999996136
 20
6.068789362784018
 30
0.0
 11
39.98657479214418
 21
7.450364154966827
 31
0.0
  0
LINE
  5
19180
330
1917A
100
AcDbEntity
  8
0
  6
CONTINUOUS
100
AcDbLine
 10
38.60499999996136
 20
5.395270153703832
 30
0.0
 11
40.30403710472435
 21
7.09430725846682
 31
0.0
  0
LINE
  5
19181
330
1917A
100
AcDbEntity
  8
0
  6
CONTINUOUS
100
AcDbLine
 10
38.60499999996136
 20
4.721750944623645
 30
0.0
 11
40.62149941730453
 21
6.738250361966813
 31
0.0
  0
LINE
  5
19182
330
1917A
100
AcDbEntity
  8
0
  6
CONTINUOUS
100
AcDbLine
 10
38.60499999996136
 20
4.048231735543458
 30
0.0
 11
40.93896172988471
 21
6.382193465466806
 31
0.0
  0
LINE
  5
19183
330
1917A
100
AcDbEntity
  8
0
  6
CONTINUOUS
100
AcDbLine
 10
38.60499999996136
 20
3.374712526463272
 30
0.0
 11
40.02599999995994
 21
4.795712526461843
 31
0.0
  0
LINE
  5
19184
330
1917A
100
AcDbEntity
  8
0
  6
CONTINUOUS
100
AcDbLine
 10
38.60499999996136
 20
2.701193317383085
 30
0.0
 11
40.02599999995994
 21
4.122193317381657
 31
0.0
  0
LINE
  5
19185
330
1917A
100
AcDbEntity
  8
0
  6
CONTINUOUS
100
AcDbLine
 10
40.28339754687704
 20
5.053110073378947
 30
0.0
 11
41.25642404246489
 21
6.026136568966799
 31
0.0
  0
LINE
  5
19186
330
1917A
100
AcDbEntity
  8
0
  6
CONTINUOUS
100
AcDbLine
 10
40.60085985945722
 20
4.697053176878939
 30
0.0
 11
41.57388635504507
 21
5.670079672466793
 31
0.0
  0
LINE
  5
19187
330
1917A
100
AcDbEntity
  8
0
  6
CONTINUOUS
100
AcDbLine
 10
43.57899999995641
 20
8.348712526458318
 30
0.0
 11
43.99338747348935
 21
8.763099999991255
 31
0.0
  0
LINE
  5
19188
330
1917A
100
AcDbEntity
  8
0
  6
CONTINUOUS
100
AcDbLine
 10
43.57899999995641
 20
7.675193317378131
 30
0.0
 11
44.66690668256953
 21
8.763099999991255
 31
0.0
  0
LINE
  5
19189
330
1917A
100
AcDbEntity
  8
0
  6
CONTINUOUS
100
AcDbLine
 10
38.60499999996136
 20
2.027674108302898
 30
0.0
 11
40.02599999995994
 21
3.44867410830147
 31
0.0
  0
LINE
  5
1918A
330
1917A
100
AcDbEntity
  8
0
  6
CONTINUOUS
100
AcDbLine
 10
38.60499999996136
 20
1.354154899222712
 30
0.0
 11
40.02599999995994
 21
2.775154899221284
 31
0.0
  0
LINE
  5
1918B
330
1917A
100
AcDbEntity
  8
0
  6
CONTINUOUS
100
AcDbLine
 10
38.60499999996136
 20
0.6806356901425255
 30
0.0
 11
40.02599999995994
 21
2.101635690141098
 31
0.0
  0
LINE
  5
1918C
330
1917A
100
AcDbEntity
  8
0
  6
CONTINUOUS
100
AcDbLine
 10
38.60499999996136
 20
0.0071164810623383
 30
0.0
 11
40.02599999995994
 21
1.428116481060911
 31
0.0
  0
LINE
  5
1918D
330
1917A
100
AcDbEntity
  8
0
  6
CONTINUOUS
100
AcDbLine
 10
40.9183221720374
 20
4.340996280378933
 30
0.0
 11
41.89134866762525
 21
5.314022775966786
 31
0.0
  0
LINE
  5
1918E
330
1917A
100
AcDbEntity
  8
0
  6
CONTINUOUS
100
AcDbLine
 10
41.23578448461758
 20
3.984939383878926
 30
0.0
 11
42.20881098020543
 21
4.957965879466778
 31
0.0
  0
LINE
  5
1918F
330
1917A
100
AcDbEntity
  8
0
  6
CONTINUOUS
100
AcDbLine
 10
41.55324679719776
 20
3.628882487378919
 30
0.0
 11
42.52627329278561
 21
4.601908982966772
 31
0.0
  0
LINE
  5
19190
330
1917A
100
AcDbEntity
  8
0
  6
CONTINUOUS
100
AcDbLine
 10
41.87070910977793
 20
3.272825590878912
 30
0.0
 11
42.84373560536579
 21
4.245852086466765
 31
0.0
  0
LINE
  5
19191
330
1917A
100
AcDbEntity
  8
0
  6
CONTINUOUS
100
AcDbLine
 10
43.57899999995641
 20
7.001674108297943
 30
0.0
 11
44.99999999995498
 21
8.422674108296516
 31
0.0
  0
LINE
  5
19192
330
1917A
100
AcDbEntity
  8
0
  6
CONTINUOUS
100
AcDbLine
 10
43.57899999995641
 20
6.328154899217758
 30
0.0
 11
44.99999999995498
 21
7.749154899216329
 31
0.0
  0
LINE
  5
19193
330
1917A
100
AcDbEntity
  8
0
  6
CONTINUOUS
100
AcDbLine
 10
43.57899999995641
 20
5.654635690137571
 30
0.0
 11
44.99999999995498
 21
7.075635690136142
 31
0.0
  0
LINE
  5
19194
330
1917A
100
AcDbEntity
  8
0
  6
CONTINUOUS
100
AcDbLine
 10
43.57899999995641
 20
4.981116481057384
 30
0.0
 11
44.99999999995498
 21
6.402116481055955
 31
0.0
  0
LINE
  5
19195
330
1917A
100
AcDbEntity
  8
0
  6
CONTINUOUS
100
AcDbLine
 10
39.27140272797921
 20
-0.0000000000000009
 30
0.0
 11
40.02599999995994
 21
0.7545972719807246
 31
0.0
  0
LINE
  5
19196
330
1917A
100
AcDbEntity
  8
0
  6
CONTINUOUS
100
AcDbLine
 10
39.9449219370594
 20
-0.0000000000000009
 30
0.0
 11
40.02599999995994
 21
0.0810780629005379
 31
0.0
  0
LINE
  5
19197
330
1917A
100
AcDbEntity
  8
0
  6
CONTINUOUS
100
AcDbLine
 10
42.18817142235812
 20
2.916768694378905
 30
0.0
 11
43.16119791794597
 21
3.889795189966758
 31
0.0
  0
LINE
  5
19198
330
1917A
100
AcDbEntity
  8
0
  6
CONTINUOUS
100
AcDbLine
 10
42.50563373493829
 20
2.560711797878898
 30
0.0
 11
43.47866023052615
 21
3.533738293466751
 31
0.0
  0
LINE
  5
19199
330
1917A
100
AcDbEntity
  8
0
  6
CONTINUOUS
100
AcDbLine
 10
43.57899999995641
 20
4.307597271977198
 30
0.0
 11
44.99999999995498
 21
5.728597271975769
 31
0.0
  0
LINE
  5
1919A
330
1917A
100
AcDbEntity
  8
0
  6
CONTINUOUS
100
AcDbLine
 10
43.57899999995641
 20
3.634078062897011
 30
0.0
 11
44.99999999995498
 21
5.055078062895582
 31
0.0
  0
LINE
  5
1919B
330
1917A
100
AcDbEntity
  8
0
  6
CONTINUOUS
100
AcDbLine
 10
42.82309604751848
 20
2.204654901378891
 30
0.0
 11
44.99999999995498
 21
4.381558853815395
 31
0.0
  0
LINE
  5
1919C
330
1917A
100
AcDbEntity
  8
0
  6
CONTINUOUS
100
AcDbLine
 10
43.14055836009865
 20
1.848598004878885
 30
0.0
 11
44.99999999995498
 21
3.70803964473521
 31
0.0
  0
LINE
  5
1919D
330
1917A
100
AcDbEntity
  8
0
  6
CONTINUOUS
100
AcDbLine
 10
43.45802067267883
 20
1.492541108378878
 30
0.0
 11
44.99999999995498
 21
3.034520435655023
 31
0.0
  0
LINE
  5
1919E
330
1917A
100
AcDbEntity
  8
0
  6
CONTINUOUS
100
AcDbLine
 10
43.77548298525902
 20
1.136484211878871
 30
0.0
 11
44.99999999995498
 21
2.361001226574837
 31
0.0
  0
LINE
  5
1919F
330
1917A
100
AcDbEntity
  8
0
  6
CONTINUOUS
100
AcDbLine
 10
44.09294529783919
 20
0.7804273153788639
 30
0.0
 11
44.99999999995498
 21
1.687482017494649
 31
0.0
  0
LINE
  5
191A0
330
1917A
100
AcDbEntity
  8
0
  6
CONTINUOUS
100
AcDbLine
 10
44.41040761041938
 20
0.4243704188788566
 30
0.0
 11
44.99999999995498
 21
1.013962808414463
 31
0.0
  0
LINE
  5
191A1
330
1917A
100
AcDbEntity
  8
0
  6
CONTINUOUS
100
AcDbLine
 10
44.72786992299955
 20
0.0683135223788494
 30
0.0
 11
44.99999999995498
 21
0.340443599334276
 31
0.0
  0
LINE
  5
191A2
330
1917A
100
AcDbEntity
  8
0
  6
CONTINUOUS
100
AcDbLine
 10
39.12223903415696
 20
-0.0000000000000009
 30
0.0
 11
38.60499999996136
 21
0.5172390341955961
 31
0.0
  0
LINE
  5
191A3
330
1917A
100
AcDbEntity
  8
0
  6
CONTINUOUS
100
AcDbLine
 10
39.79575824323715
 20
-0.0000000000000009
 30
0.0
 11
38.60499999996136
 21
1.190758243275783
 31
0.0
  0
LINE
  5
191A4
330
1917A
100
AcDbEntity
  8
0
  6
CONTINUOUS
100
AcDbLine
 10
40.02599999995994
 20
0.443277452357397
 30
0.0
 11
38.60499999996136
 21
1.864277452355969
 31
0.0
  0
LINE
  5
191A5
330
1917A
100
AcDbEntity
  8
0
  6
CONTINUOUS
100
AcDbLine
 10
40.02599999995994
 20
1.116796661437583
 30
0.0
 11
38.60499999996136
 21
2.537796661436155
 31
0.0
  0
LINE
  5
191A6
330
1917A
100
AcDbEntity
  8
0
  6
CONTINUOUS
100
AcDbLine
 10
40.02599999995994
 20
1.79031587051777
 30
0.0
 11
38.60499999996136
 21
3.211315870516341
 31
0.0
  0
LINE
  5
191A7
330
1917A
100
AcDbEntity
  8
0
  6
CONTINUOUS
100
AcDbLine
 10
40.02599999995994
 20
2.463835079597956
 30
0.0
 11
38.60499999996136
 21
3.884835079596527
 31
0.0
  0
LINE
  5
191A8
330
1917A
100
AcDbEntity
  8
0
  6
CONTINUOUS
100
AcDbLine
 10
40.02599999995994
 20
3.137354288678143
 30
0.0
 11
38.60499999996136
 21
4.558354288676714
 31
0.0
  0
LINE
  5
191A9
330
1917A
100
AcDbEntity
  8
0
  6
CONTINUOUS
100
AcDbLine
 10
40.02599999995994
 20
3.810873497758329
 30
0.0
 11
38.60499999996136
 21
5.2318734977569
 31
0.0
  0
LINE
  5
191AA
330
1917A
100
AcDbEntity
  8
0
  6
CONTINUOUS
100
AcDbLine
 10
40.02599999995994
 20
4.484392706838515
 30
0.0
 11
38.60499999996136
 21
5.905392706837086
 31
0.0
  0
LINE
  5
191AB
330
1917A
100
AcDbEntity
  8
0
  6
CONTINUOUS
100
AcDbLine
 10
44.99999999995498
 20
0.183911915923658
 30
0.0
 11
41.53858364506288
 21
3.64532827081576
 31
0.0
  0
LINE
  5
191AC
330
1917A
100
AcDbEntity
  8
0
  6
CONTINUOUS
100
AcDbLine
 10
40.02599999995994
 20
5.157911915918703
 30
0.0
 11
38.60499999996136
 21
6.578911915917274
 31
0.0
  0
LINE
  5
191AD
330
1917A
100
AcDbEntity
  8
0
  6
CONTINUOUS
100
AcDbLine
 10
44.99999999995498
 20
0.8574311250038447
 30
0.0
 11
38.60499999996136
 21
7.25243112499746
 31
0.0
  0
LINE
  5
191AE
330
1917A
100
AcDbEntity
  8
0
  6
CONTINUOUS
100
AcDbLine
 10
44.99999999995498
 20
1.530950334084031
 30
0.0
 11
38.60499999996136
 21
7.925950334077647
 31
0.0
  0
LINE
  5
191AF
330
1917A
100
AcDbEntity
  8
0
  6
CONTINUOUS
100
AcDbLine
 10
44.99999999995498
 20
2.204469543164218
 30
0.0
 11
43.57899999995641
 21
3.625469543162789
 31
0.0
  0
LINE
  5
191B0
330
1917A
100
AcDbEntity
  8
0
  6
CONTINUOUS
100
AcDbLine
 10
41.89876730984767
 20
5.305702233271528
 30
0.0
 11
38.60499999996136
 21
8.599469543157834
 31
0.0
  0
LINE
  5
191B1
330
1917A
100
AcDbEntity
  8
0
  6
CONTINUOUS
100
AcDbLine
 10
44.99999999995498
 20
2.877988752244405
 30
0.0
 11
43.57899999995641
 21
4.298988752242975
 31
0.0
  0
LINE
  5
191B2
330
1917A
100
AcDbEntity
  8
0
  6
CONTINUOUS
100
AcDbLine
 10
44.99999999995498
 20
3.551507961324591
 30
0.0
 11
43.57899999995641
 21
4.972507961323163
 31
0.0
  0
LINE
  5
191B3
330
1917A
100
AcDbEntity
  8
0
  6
CONTINUOUS
100
AcDbLine
 10
44.99999999995498
 20
4.225027170404777
 30
0.0
 11
43.57899999995641
 21
5.646027170403348
 31
0.0
  0
LINE
  5
191B4
330
1917A
100
AcDbEntity
  8
0
  6
CONTINUOUS
100
AcDbLine
 10
44.99999999995498
 20
4.898546379484964
 30
0.0
 11
43.57899999995641
 21
6.319546379483535
 31
0.0
  0
LINE
  5
191B5
330
1917A
100
AcDbEntity
  8
0
  6
CONTINUOUS
100
AcDbLine
 10
44.99999999995498
 20
5.572065588565151
 30
0.0
 11
43.57899999995641
 21
6.993065588563722
 31
0.0
  0
LINE
  5
191B6
330
1917A
100
AcDbEntity
  8
0
  6
CONTINUOUS
100
AcDbLine
 10
44.99999999995498
 20
6.245584797645336
 30
0.0
 11
43.57899999995641
 21
7.666584797643908
 31
0.0
  0
LINE
  5
191B7
330
1917A
100
AcDbEntity
  8
0
  6
CONTINUOUS
100
AcDbLine
 10
44.99999999995498
 20
6.919104006725522
 30
0.0
 11
43.57899999995641
 21
8.340104006724093
 31
0.0
  0
LINE
  5
191B8
330
1917A
100
AcDbEntity
  8
0
  6
CONTINUOUS
100
AcDbLine
 10
44.99999999995498
 20
7.592623215805709
 30
0.0
 11
43.82952321576943
 21
8.763099999991255
 31
0.0
  0
LINE
  5
191B9
330
1917A
100
AcDbEntity
  8
0
  6
CONTINUOUS
100
AcDbLine
 10
44.99999999995498
 20
8.266142424885896
 30
0.0
 11
44.50304242484962
 21
8.763099999991255
 31
0.0
  0
ENDBLK
  5
191E3
330
1917A
100
AcDbEntity
  8
0
100
AcDbBlockEnd
  0
BLOCK
  5
191E4
330
191BA
100
AcDbEntity
  8
0
100
AcDbBlockBegin
  2
*X33
 70
     1
 10
0.0
 20
0.0
 30
0.0
  3
*X33
  1

  0
LINE
  5
191BB
330
191BA
100
AcDbEntity
  8
0
  6
CONTINUOUS
100
AcDbLine
 10
0.0
 20
8.548461116714023
 30
0.0
 11
0.2146388832772324
 21
8.763099999991255
 31
0.0
  0
LINE
  5
191BC
330
191BA
100
AcDbEntity
  8
0
  6
CONTINUOUS
100
AcDbLine
 10
-0.0000000000000002
 20
7.874941907633837
 30
0.0
 11
0.8881580923574184
 21
8.763099999991255
 31
0.0
  0
LINE
  5
191BD
330
191BA
100
AcDbEntity
  8
0
  6
CONTINUOUS
100
AcDbLine
 10
0.0
 20
7.20142269855365
 30
0.0
 11
1.420999999998572
 21
8.622422698552223
 31
0.0
  0
LINE
  5
191BE
330
191BA
100
AcDbEntity
  8
0
  6
CONTINUOUS
100
AcDbLine
 10
-0.0000000000000001
 20
6.527903489473465
 30
0.0
 11
1.420999999998571
 21
7.948903489472036
 31
0.0
  0
LINE
  5
191BF
330
191BA
100
AcDbEntity
  8
0
  6
CONTINUOUS
100
AcDbLine
 10
-0.0000000000000002
 20
5.854384280393278
 30
0.0
 11
1.420999999998571
 21
7.275384280391849
 31
0.0
  0
LINE
  5
191C0
330
191BA
100
AcDbEntity
  8
0
  6
CONTINUOUS
100
AcDbLine
 10
-0.0000000000000002
 20
5.180865071313091
 30
0.0
 11
1.420999999998571
 21
6.601865071311663
 31
0.0
  0
LINE
  5
191C1
330
191BA
100
AcDbEntity
  8
0
  6
CONTINUOUS
100
AcDbLine
 10
0.0
 20
4.507345862232905
 30
0.0
 11
1.420999999998571
 21
5.928345862231477
 31
0.0
  0
LINE
  5
191C2
330
191BA
100
AcDbEntity
  8
0
  6
CONTINUOUS
100
AcDbLine
 10
-0.0000000000000003
 20
3.833826653152718
 30
0.0
 11
1.420999999998571
 21
5.25482665315129
 31
0.0
  0
LINE
  5
191C3
330
191BA
100
AcDbEntity
  8
0
  6
CONTINUOUS
100
AcDbLine
 10
-0.0000000000000002
 20
3.160307444072532
 30
0.0
 11
1.420999999998571
 21
4.581307444071103
 31
0.0
  0
LINE
  5
191C4
330
191BA
100
AcDbEntity
  8
0
  6
CONTINUOUS
100
AcDbLine
 10
-0.0000000000000001
 20
2.486788234992345
 30
0.0
 11
1.420999999998571
 21
3.907788234990917
 31
0.0
  0
LINE
  5
191C5
330
191BA
100
AcDbEntity
  8
0
  6
CONTINUOUS
100
AcDbLine
 10
-0.0000000000000006
 20
1.813269025912159
 30
0.0
 11
1.420999999998571
 21
3.234269025910731
 31
0.0
  0
LINE
  5
191C6
330
191BA
100
AcDbEntity
  8
0
  6
CONTINUOUS
100
AcDbLine
 10
0.0
 20
1.139749816831973
 30
0.0
 11
1.420999999998571
 21
2.560749816830544
 31
0.0
  0
LINE
  5
191C7
330
191BA
100
AcDbEntity
  8
0
  6
CONTINUOUS
100
AcDbLine
 10
0.0000000000000002
 20
0.466230607751787
 30
0.0
 11
1.420999999998571
 21
1.887230607750358
 31
0.0
  0
LINE
  5
191C8
330
191BA
100
AcDbEntity
  8
0
  6
CONTINUOUS
100
AcDbLine
 10
0.2072886013284003
 20
-0.0000000000000009
 30
0.0
 11
1.420999999998571
 21
1.213711398670171
 31
0.0
  0
LINE
  5
191C9
330
191BA
100
AcDbEntity
  8
0
  6
CONTINUOUS
100
AcDbLine
 10
0.8808078104085864
 20
-0.0000000000000009
 30
0.0
 11
1.420999999998571
 21
0.5401921895899839
 31
0.0
  0
LINE
  5
191CA
330
191BA
100
AcDbEntity
  8
0
  6
CONTINUOUS
100
AcDbLine
 10
0.0581249075061505
 20
-0.0000000000000009
 30
0.0
 11
-0.0000000000000002
 21
0.0581249075061496
 31
0.0
  0
LINE
  5
191CB
330
191BA
100
AcDbEntity
  8
0
  6
CONTINUOUS
100
AcDbLine
 10
0.7316441165863372
 20
-0.0000000000000009
 30
0.0
 11
-0.0000000000000002
 21
0.7316441165863363
 31
0.0
  0
LINE
  5
191CC
330
191BA
100
AcDbEntity
  8
0
  6
CONTINUOUS
100
AcDbLine
 10
1.405163325666523
 20
-0.0000000000000009
 30
0.0
 11
-0.0000000000000002
 21
1.405163325666523
 31
0.0
  0
LINE
  5
191CD
330
191BA
100
AcDbEntity
  8
0
  6
CONTINUOUS
100
AcDbLine
 10
1.420999999998572
 20
0.6576825347481381
 30
0.0
 11
-0.0000000000000001
 21
2.07868253474671
 31
0.0
  0
LINE
  5
191CE
330
191BA
100
AcDbEntity
  8
0
  6
CONTINUOUS
100
AcDbLine
 10
1.420999999998571
 20
1.331201743828324
 30
0.0
 11
-0.0000000000000001
 21
2.752201743826896
 31
0.0
  0
LINE
  5
191CF
330
191BA
100
AcDbEntity
  8
0
  6
CONTINUOUS
100
AcDbLine
 10
1.420999999998571
 20
2.004720952908511
 30
0.0
 11
-0.0000000000000002
 21
3.425720952907082
 31
0.0
  0
LINE
  5
191D0
330
191BA
100
AcDbEntity
  8
0
  6
CONTINUOUS
100
AcDbLine
 10
1.420999999998571
 20
2.678240161988697
 30
0.0
 11
-0.0000000000000001
 21
4.099240161987269
 31
0.0
  0
LINE
  5
191D1
330
191BA
100
AcDbEntity
  8
0
  6
CONTINUOUS
100
AcDbLine
 10
1.420999999998572
 20
3.351759371068884
 30
0.0
 11
0.0
 21
4.772759371067455
 31
0.0
  0
LINE
  5
191D2
330
191BA
100
AcDbEntity
  8
0
  6
CONTINUOUS
100
AcDbLine
 10
1.420999999998571
 20
4.02527858014907
 30
0.0
 11
-0.0000000000000003
 21
5.446278580147642
 31
0.0
  0
LINE
  5
191D3
330
191BA
100
AcDbEntity
  8
0
  6
CONTINUOUS
100
AcDbLine
 10
1.420999999998571
 20
4.698797789229257
 30
0.0
 11
0.0
 21
6.119797789227828
 31
0.0
  0
LINE
  5
191D4
330
191BA
100
AcDbEntity
  8
0
  6
CONTINUOUS
100
AcDbLine
 10
1.420999999998571
 20
5.372316998309444
 30
0.0
 11
-0.0000000000000001
 21
6.793316998308015
 31
0.0
  0
LINE
  5
191D5
330
191BA
100
AcDbEntity
  8
0
  6
CONTINUOUS
100
AcDbLine
 10
1.420999999998572
 20
6.045836207389629
 30
0.0
 11
-0.0000000000000004
 21
7.466836207388202
 31
0.0
  0
LINE
  5
191D6
330
191BA
100
AcDbEntity
  8
0
  6
CONTINUOUS
100
AcDbLine
 10
1.420999999998571
 20
6.719355416469816
 30
0.0
 11
0.0
 21
8.140355416468388
 31
0.0
  0
LINE
  5
191D7
330
191BA
100
AcDbEntity
  8
0
  6
CONTINUOUS
100
AcDbLine
 10
1.420999999998571
 20
7.392874625550003
 30
0.0
 11
0.0507746255573185
 21
8.763099999991255
 31
0.0
  0
LINE
  5
191D8
330
191BA
100
AcDbEntity
  8
0
  6
CONTINUOUS
100
AcDbLine
 10
1.420999999998571
 20
8.06639383463019
 30
0.0
 11
0.7242938346375052
 21
8.763099999991255
 31
0.0
  0
LINE
  5
191D9
330
191BA
100
AcDbEntity
  8
0
  6
CONTINUOUS
100
AcDbLine
 10
1.420999999998571
 20
8.739913043710375
 30
0.0
 11
1.397813043717691
 21
8.763099999991255
 31
0.0
  0
ENDBLK
  5
191E5
330
191BA
100
AcDbEntity
  8
0
100
AcDbBlockEnd
  0
ENDSEC
  0
SECTION
  2
ENTITIES
  0
TEXT
  5
10E83
330
18
100
AcDbEntity
  8
1TEXT
100
AcDbText
 10
-580.2438649229356
 20
-1347.683967674933
 30
0.0
 40
8.0
  1
KC-068-XC90
100
AcDbText
  0
ARC
  5
16533
330
18
100
AcDbEntity
  8
01
100
AcDbCircle
 10
-451.699464273612
 20
-1423.618998770019
 30
0.0
 40
0.5
100
AcDbArc
 50
0.0
 51
64.59999999999852
  0
ARC
  5
16535
102
{ACAD_REACTORS
102
}
330
18
100
AcDbEntity
  8
01
100
AcDbCircle
 10
-451.6994642736119
 20
-1405.50168623724
 30
0.0
 40
0.5
100
AcDbArc
 50
270.0
 51
0.0
  0
ARC
  5
16536
102
{ACAD_REACTORS
102
}
330
18
100
AcDbEntity
  8
01
100
AcDbCircle
 10
-451.699464273612
 20
-1424.50168623724
 30
0.0
 40
0.5
100
AcDbArc
 50
270.0
 51
0.0
  0
ARC
  5
16537
102
{ACAD_REACTORS
102
}
330
18
100
AcDbEntity
  8
01
100
AcDbCircle
 10
-451.6994642736119
 20
-1401.50168623724
 30
0.0
 40
0.5
100
AcDbArc
 50
0.0
 51
90.0
  0
LINE
  5
16538
330
18
100
AcDbEntity
  8
1CENTER
100
AcDbLine
 10
-601.199464273612
 20
-1406.296049746434
 30
0.0
 11
-601.199464273612
 21
-1413.652090519739
 31
0.0
  0
LINE
  5
16539
102
{ACAD_REACTORS
102
}
330
18
100
AcDbEntity
  8
01
100
AcDbLine
 10
-469.7322212294885
 20
-1414.50168623724
 30
0.0
 11
-506.1474929387579
 21
-1414.50168623724
 31
0.0
  0
LINE
  5
1653B
102
{ACAD_REACTORS
102
}
330
18
100
AcDbEntity
  8
01
100
AcDbLine
 10
-451.6994642736119
 20
-1406.00168623724
 30
0.0
 11
-1350.699464273612
 21
-1406.00168623724
 31
0.0
  0
LINE
  5
1653C
102
{ACAD_REACTORS
102
}
330
18
100
AcDbEntity
  8
01
100
AcDbLine
 10
-451.4845218000412
 20
-1423.166330972044
 30
0.0
 11
-469.7254505031715
 21
-1414.504901214468
 31
0.0
  0
LINE
  5
1653E
102
{ACAD_REACTORS
102
}
330
18
100
AcDbEntity
  8
01
100
AcDbLine
 10
-451.6994642736119
 20
-1401.00168623724
 30
0.0
 11
-1350.699464273612
 21
-1401.00168623724
 31
0.0
  0
LINE
  5
16540
102
{ACAD_REACTORS
102
}
330
18
100
AcDbEntity
  8
01
100
AcDbLine
 10
-451.699464273612
 20
-1425.00168623724
 30
0.0
 11
-511.9317149281404
 21
-1425.00168623724
 31
0.0
  0
LINE
  5
16542
330
18
100
AcDbEntity
  8
1CENTER
100
AcDbLine
 10
-596.5925869455075
 20
-1410.25168623724
 30
0.0
 11
-606.1785342465989
 21
-1410.25168623724
 31
0.0
  0
CIRCLE
  5
16543
330
18
100
AcDbEntity
  8
01
100
AcDbCircle
 10
-601.199464273612
 20
-1410.25168623724
 30
0.0
 40
4.1
  0
CIRCLE
  5
16544
330
18
100
AcDbEntity
  8
01
100
AcDbCircle
 10
-601.199464273612
 20
-1410.25168623724
 30
0.0
 40
2.25
  0
SPLINE
  5
16545
102
{ACAD_REACTORS
102
}
330
18
100
AcDbEntity
  8
1HATCH
100
AcDbSpline
210
0.0
220
0.0
230
1.0
 70
     8
 71
     3
 72
    10
 73
     6
 74
     0
 42
0.0000000001
 43
0.0000000001
 40
9.214618759056727
 40
9.214618759056727
 40
9.214618759056727
 40
9.214618759056727
 40
14.26909755530842
 40
24.67351392284626
 40
38.11101331208485
 40
38.11101331208485
 40
38.11101331208485
 40
38.11101331208485
 10
-511.7521385409818
 20
-1401.00168623724
 30
0.0
 10
-512.6718270340668
 20
-1402.276857677004
 30
0.0
 10
-513.9237656368699
 20
-1406.214873508335
 30
0.0
 10
-502.4455352290045
 20
-1413.912043188966
 30
0.0
 10
-508.0425160469567
 20
-1420.981959269432
 30
0.0
 10
-511.9317149281413
 20
-1425.00168623724
 30
0.0
  0
LINE
  5
16547
330
18
100
AcDbEntity
  8
1CENTER
100
AcDbLine
 10
-1001.199464273612
 20
-1413.946425869612
 30
0.0
 11
-1001.199464273612
 21
-1406.726653610698
 31
0.0
  0
LINE
  5
16548
330
18
100
AcDbEntity
  8
1CENTER
100
AcDbLine
 10
-996.2117814312599
 20
-1410.25168623724
 30
0.0
 11
-1005.964782785022
 21
-1410.25168623724
 31
0.0
  0
CIRCLE
  5
16549
330
18
100
AcDbEntity
  8
01
100
AcDbCircle
 10
-1001.199464273612
 20
-1410.25168623724
 30
0.0
 40
4.1
  0
CIRCLE
  5
1654A
330
18
100
AcDbEntity
  8
01
100
AcDbCircle
 10
-1001.199464273612
 20
-1410.25168623724
 30
0.0
 40
2.25
  0
ARC
  5
1654E
330
18
100
AcDbEntity
  8
01
100
AcDbCircle
 10
-1350.699464273612
 20
-1401.50168623724
 30
0.0
 40
0.5
100
AcDbArc
 50
90.0
 51
180.0
  0
ARC
  5
16555
330
18
100
AcDbEntity
  8
01
100
AcDbCircle
 10
-1350.699464273612
 20
-1405.50168623724
 30
0.0
 40
0.5
100
AcDbArc
 50
180.0
 51
270.0
  0
LINE
  5
16556
330
18
100
AcDbEntity
  8
01
100
AcDbLine
 10
-506.147492938758
 20
-1414.50168623724
 30
0.0
 11
-1332.666707317736
 21
-1414.50168623724
 31
0.0
  0
LINE
  5
16557
330
18
100
AcDbEntity
  8
01
100
AcDbLine
 10
-511.9317149281414
 20
-1425.00168623724
 30
0.0
 11
-1350.699464273612
 21
-1425.00168623724
 31
0.0
  0
ARC
  5
16558
330
18
100
AcDbEntity
  8
01
100
AcDbCircle
 10
-1350.699464273612
 20
-1424.50168623724
 30
0.0
 40
0.5
100
AcDbArc
 50
180.0
 51
270.0
  0
LINE
  5
16559
330
18
100
AcDbEntity
  8
1CENTER
100
AcDbLine
 10
-1201.199464273612
 20
-1413.946425869612
 30
0.0
 11
-1201.199464273612
 21
-1406.726653610698
 31
0.0
  0
LINE
  5
1655A
330
18
100
AcDbEntity
  8
1CENTER
100
AcDbLine
 10
-1196.21178143126
 20
-1410.25168623724
 30
0.0
 11
-1205.964782785022
 21
-1410.25168623724
 31
0.0
  0
CIRCLE
  5
1655B
330
18
100
AcDbEntity
  8
01
100
AcDbCircle
 10
-1201.199464273612
 20
-1410.25168623724
 30
0.0
 40
4.1
  0
CIRCLE
  5
1655C
330
18
100
AcDbEntity
  8
01
100
AcDbCircle
 10
-1201.199464273612
 20
-1410.25168623724
 30
0.0
 40
2.25
  0
LINE
  5
16569
330
18
100
AcDbEntity
  8
01
100
AcDbLine
 10
-1351.199464273612
 20
-1424.50168623724
 30
0.0
 11
-1351.199464273612
 21
-1401.50168623724
 31
0.0
  0
LINE
  5
1656A
102
{ACAD_REACTORS
102
}
330
18
100
AcDbEntity
  8
01
100
AcDbLine
 10
-451.1994642736119
 20
-1401.50168623724
 30
0.0
 11
-451.199464273612
 21
-1424.50168623724
 31
0.0
  0
LINE
  5
1656D
330
18
100
AcDbEntity
  8
01
100
AcDbLine
 10
-451.199464273612
 20
-1463.866051408029
 30
0.0
 11
-451.199464273612
 21
-1496.366051408029
 31
0.0
  0
ARC
  5
16570
330
18
100
AcDbEntity
  8
01
100
AcDbCircle
 10
-452.699464273612
 20
-1463.866051408029
 30
0.0
 40
1.5
100
AcDbArc
 50
0.0
 51
90.0
  0
ARC
  5
16573
330
18
100
AcDbEntity
  8
01
100
AcDbCircle
 10
-451.699464273612
 20
-1496.366051408029
 30
0.0
 40
0.5
100
AcDbArc
 50
270.0
 51
0.0
  0
LINE
  5
16574
330
18
100
AcDbEntity
  8
01
100
AcDbLine
 10
-452.699464273612
 20
-1462.366051408029
 30
0.0
 11
-1349.699464273612
 21
-1462.366051408029
 31
0.0
  0
ARC
  5
1657B
330
18
100
AcDbEntity
  8
01
100
AcDbCircle
 10
-1349.699464273612
 20
-1463.866051408029
 30
0.0
 40
1.5
100
AcDbArc
 50
90.0
 51
180.0
  0
LINE
  5
1657E
330
18
100
AcDbEntity
  8
01
100
AcDbLine
 10
-451.699464273612
 20
-1496.866051408029
 30
0.0
 11
-1350.699464273612
 21
-1496.866051408029
 31
0.0
  0
ARC
  5
16581
330
18
100
AcDbEntity
  8
01
100
AcDbCircle
 10
-1350.699464273612
 20
-1496.366051408029
 30
0.0
 40
0.5
100
AcDbArc
 50
180.0
 51
270.0
  0
LINE
  5
165B8
102
{ACAD_REACTORS
102
}
330
18
100
AcDbEntity
  8
01
100
AcDbLine
 10
-457.1994642736123
 20
-1420.452676771152
 30
0.0
 11
-457.1994642736121
 21
-1424.00168623724
 31
0.0
  0
LINE
  5
165B9
102
{ACAD_REACTORS
102
}
330
18
100
AcDbEntity
  8
01
100
AcDbLine
 10
-451.1994642736121
 20
-1424.00168623724
 30
0.0
 11
-457.1994642736121
 21
-1424.00168623724
 31
0.0
  0
LINE
  5
165BA
102
{ACAD_REACTORS
102
}
330
18
100
AcDbEntity
  8
01
100
AcDbLine
 10
-457.1994642736121
 20
-1421.60168623724
 30
0.0
 11
-476.199464273612
 21
-1421.60168623724
 31
0.0
  0
LINE
  5
165BB
102
{ACAD_REACTORS
102
}
330
18
100
AcDbEntity
  8
01
100
AcDbLine
 10
-476.1994642736118
 20
-1417.00168623724
 30
0.0
 11
-476.8494642736118
 21
-1417.65168623724
 31
0.0
  0
LINE
  5
165BC
330
18
100
AcDbEntity
  8
01
100
AcDbLine
 10
-476.8494642736118
 20
-1417.651429133456
 30
0.0
 11
-476.8494642736118
 21
-1420.951429133456
 31
0.0
  0
LINE
  5
165BD
102
{ACAD_REACTORS
102
}
330
18
100
AcDbEntity
  8
01
100
AcDbLine
 10
-476.8494642736118
 20
-1420.95168623724
 30
0.0
 11
-476.199464273612
 21
-1421.60168623724
 31
0.0
  0
LINE
  5
165BE
102
{ACAD_REACTORS
102
}
330
18
100
AcDbEntity
  8
01
100
AcDbLine
 10
-476.1994642736118
 20
-1417.00168623724
 30
0.0
 11
-464.4677749172444
 21
-1417.00168623724
 31
0.0
  0
LINE
  5
165BF
102
{ACAD_REACTORS
102
}
330
18
100
AcDbEntity
  8
1HATCH
100
AcDbLine
 10
-491.1994535693094
 20
-1421.301438173607
 30
0.0
 11
-491.1994535693094
 21
-1417.301438173695
 31
0.0
  0
LINE
  5
165C0
102
{ACAD_REACTORS
102
}
330
18
100
AcDbEntity
  8
01
100
AcDbLine
 10
-496.1994535693095
 20
-1420.951438173607
 30
0.0
 11
-496.1994535693094
 21
-1417.651438173694
 31
0.0
  0
LINE
  5
165C1
102
{ACAD_REACTORS
102
}
330
18
100
AcDbEntity
  8
1HATCH
100
AcDbLine
 10
-476.4992162100665
 20
-1417.301438173695
 30
0.0
 11
-491.1994535693094
 21
-1417.301438173695
 31
0.0
  0
LINE
  5
165C2
102
{ACAD_REACTORS
102
}
330
18
100
AcDbEntity
  8
01
100
AcDbLine
 10
-476.8494642736118
 20
-1417.651438173694
 30
0.0
 11
-496.1994535693094
 21
-1417.651438173694
 31
0.0
  0
LINE
  5
165C3
102
{ACAD_REACTORS
102
}
330
18
100
AcDbEntity
  8
1HATCH
100
AcDbLine
 10
-476.4997123372444
 20
-1421.301438173607
 30
0.0
 11
-491.1994535693094
 21
-1421.301438173607
 31
0.0
  0
LINE
  5
165C4
102
{ACAD_REACTORS
102
}
330
18
100
AcDbEntity
  8
01
100
AcDbLine
 10
-476.8494642736118
 20
-1420.951438173607
 30
0.0
 11
-496.1994535693095
 21
-1420.951438173607
 31
0.0
  0
LINE
  5
165C5
330
18
100
AcDbEntity
  8
1CENTER
100
AcDbLine
 10
-498.8808862706547
 20
-1419.30168623724
 30
0.0
 11
-444.258024423094
 21
-1419.30168623724
 31
0.0
  0
ARC
  5
165C6
330
18
100
AcDbEntity
  8
01
100
AcDbCircle
 10
-1350.699464273612
 20
-1423.618998770019
 30
0.0
 40
0.5
100
AcDbArc
 50
115.3999999999997
 51
180.0
  0
LINE
  5
165D5
330
18
100
AcDbEntity
  8
01
100
AcDbLine
 10
-1350.914406747183
 20
-1423.166330972044
 30
0.0
 11
-1332.666707317735
 21
-1414.50168623724
 31
0.0
  0
LINE
  5
165E1
330
18
100
AcDbEntity
  8
01
100
AcDbLine
 10
-401.6001300521032
 20
-1462.866051408029
 30
0.0
 11
-401.6001300520973
 21
-1489.366051408029
 31
0.0
  0
ARC
  5
165E2
330
18
100
AcDbEntity
  8
01
100
AcDbCircle
 10
-401.1001300521032
 20
-1462.866051408029
 30
0.0
 40
0.5
100
AcDbArc
 50
90.0
 51
180.0
  0
LINE
  5
165E4
330
18
100
AcDbEntity
  8
01
100
AcDbLine
 10
-396.6001300521054
 20
-1462.866051408029
 30
0.0
 11
-396.6001300520977
 21
-1496.86605140803
 31
0.0
  0
ARC
  5
165E6
330
18
100
AcDbEntity
  8
01
100
AcDbCircle
 10
-397.1001300521054
 20
-1462.866051408029
 30
0.0
 40
0.5
100
AcDbArc
 50
0.0
 51
90.0
  0
LINE
  5
165E8
330
18
100
AcDbEntity
  8
01
100
AcDbLine
 10
-401.1001300521032
 20
-1462.366051408029
 30
0.0
 11
-397.1001300521054
 21
-1462.366051408029
 31
0.0
  0
LINE
  5
165EB
330
18
100
AcDbEntity
  8
01
100
AcDbLine
 10
-410.1001300520977
 20
-1462.866051408029
 30
0.0
 11
-410.1001300520977
 21
-1489.366051408029
 31
0.0
  0
ARC
  5
165EC
330
18
100
AcDbEntity
  8
01
100
AcDbCircle
 10
-410.6001300520977
 20
-1462.866051408029
 30
0.0
 40
0.5
100
AcDbArc
 50
0.0
 51
90.0
  0
LINE
  5
165EE
330
18
100
AcDbEntity
  8
01
100
AcDbLine
 10
-420.1001300520977
 20
-1462.366051408029
 30
0.0
 11
-410.6001300520977
 21
-1462.366051408029
 31
0.0
  0
LINE
  5
165F1
330
18
100
AcDbEntity
  8
1CENTER
100
AcDbLine
 10
-421.9872351958675
 20
-1475.866051408029
 30
0.0
 11
-408.6657471276671
 21
-1475.866051408028
 31
0.0
  0
LINE
  5
165F2
330
18
100
AcDbEntity
  8
01
100
AcDbLine
 10
-420.6001300520977
 20
-1462.866051408029
 30
0.0
 11
-420.6001300520977
 21
-1496.866051408029
 31
0.0
  0
ARC
  5
165F4
330
18
100
AcDbEntity
  8
01
100
AcDbCircle
 10
-420.1001300520977
 20
-1462.866051408029
 30
0.0
 40
0.5
100
AcDbArc
 50
90.0
 51
180.0
  0
LINE
  5
165F6
330
18
100
AcDbEntity
  8
1CENTER
100
AcDbLine
 10
-405.8501300520977
 20
-1485.017644927169
 30
0.0
 11
-405.8501300520977
 21
-1505.178370070603
 31
0.0
  0
LINE
  5
165F7
330
18
100
AcDbEntity
  8
1CENTER
100
AcDbLine
 10
-414.9001300520977
 20
-1471.968811409368
 30
0.0
 11
-414.9001300520977
 21
-1479.596150278246
 31
0.0
  0
ARC
  5
16600
330
18
100
AcDbEntity
  8
01
100
AcDbCircle
 10
-415.1001300520977
 20
-1475.866051408029
 30
0.0
 40
4.5
100
AcDbArc
 50
102.2003771182331
 51
257.7996228817669
  0
LINE
  5
16601
330
18
100
AcDbEntity
  8
01
100
AcDbLine
 10
-418.9001300520974
 20
-1462.866051408029
 30
0.0
 11
-418.9001300520977
 21
-1473.45565724939
 31
0.0
  0
LINE
  5
16602
330
18
100
AcDbEntity
  8
01
100
AcDbLine
 10
-418.9001300520974
 20
-1478.276445566668
 30
0.0
 11
-418.9001300520977
 21
-1489.366051408029
 31
0.0
  0
LINE
  5
16603
330
18
100
AcDbEntity
  8
01
100
AcDbLine
 10
-416.0511205860096
 20
-1471.467686143023
 30
0.0
 11
-416.0511205860096
 21
-1473.874765192829
 31
0.0
  0
LINE
  5
16604
330
18
100
AcDbEntity
  8
01
100
AcDbLine
 10
-416.0511205860096
 20
-1477.857337623229
 30
0.0
 11
-416.0511205860096
 21
-1480.264416673035
 31
0.0
  0
CIRCLE
  5
16605
330
18
100
AcDbEntity
  8
01
100
AcDbCircle
 10
-414.9001300520977
 20
-1475.866051408029
 30
0.0
 40
2.300000000000011
  0
CIRCLE
  5
16606
330
18
100
AcDbEntity
  8
01
100
AcDbCircle
 10
-414.9001300520977
 20
-1475.866051408029
 30
0.0
 40
1.649999999999977
  0
CIRCLE
  5
16607
330
18
100
AcDbEntity
  8
1HATCH
100
AcDbCircle
 10
-414.9001300520977
 20
-1475.866051408029
 30
0.0
 40
2.000248063545314
  0
ARC
  5
1661C
330
18
100
AcDbEntity
  8
01
100
AcDbCircle
 10
-419.4001300520974
 20
-1462.866051408029
 30
0.0
 40
0.5
100
AcDbArc
 50
0.0
 51
90.0
  0
LINE
  5
16652
330
18
100
AcDbEntity
  8
1CENTER
100
AcDbLine
 10
-455.3494642736119
 20
-1419.727201678588
 30
0.0
 11
-455.3494642736119
 21
-1415.97179846361
 31
0.0
  0
CIRCLE
  5
16653
102
{ACAD_REACTORS
102
}
330
18
100
AcDbEntity
  8
01
100
AcDbCircle
 10
-455.3494642754977
 20
-1417.901686236344
 30
0.0
 40
1.5
  0
LINE
  5
16654
330
18
100
AcDbEntity
  8
1CENTER
100
AcDbLine
 10
-457.201875731787
 20
-1417.901686241193
 30
0.0
 11
-453.4616989094564
 21
-1417.901686241193
 31
0.0
  0
LINE
  5
16BB7
330
18
100
AcDbEntity
  8
01
100
AcDbLine
 10
-1351.199464273612
 20
-1463.866051408029
 30
0.0
 11
-1351.199464273612
 21
-1496.366051408029
 31
0.0
  0
LINE
  5
16BBF
330
18
100
AcDbEntity
  8
1CENTER
100
AcDbLine
 10
-601.199464273612
 20
-1485.485890786706
 30
0.0
 11
-601.199464273612
 21
-1504.375333854617
 31
0.0
  0
LINE
  5
16BC1
330
18
100
AcDbEntity
  8
1CENTER
100
AcDbLine
 10
-1201.199464273612
 20
-1485.485890786706
 30
0.0
 11
-1201.199464273612
 21
-1504.375333854617
 31
0.0
  0
LINE
  5
16EA6
330
18
100
AcDbEntity
  8
01
100
AcDbLine
 10
-1349.549464271372
 20
-1413.151686236176
 30
0.0
 11
-1334.047393681328
 21
-1413.151686236176
 31
0.0
  0
LINE
  5
16EA7
330
18
100
AcDbEntity
  8
01
100
AcDbLine
 10
-1349.549464271372
 20
-1422.151686236176
 30
0.0
 11
-1349.011226939196
 21
-1422.151686236176
 31
0.0
  0
ARC
  5
16EA8
330
18
100
AcDbEntity
  8
01
100
AcDbCircle
 10
-1349.011226939196
 20
-1421.151686236176
 30
0.0
 40
1.0
100
AcDbArc
 50
270.0
 51
295.4000000000052
  0
LINE
  5
16EA9
330
18
100
AcDbEntity
  8
01
100
AcDbLine
 10
-1350.049464271372
 20
-1413.651686236176
 30
0.0
 11
-1350.049464271372
 21
-1421.651686236176
 31
0.0
  0
ARC
  5
16EAA
330
18
100
AcDbEntity
  8
01
100
AcDbCircle
 10
-1349.549464271372
 20
-1421.651686236176
 30
0.0
 40
0.5
100
AcDbArc
 50
180.0
 51
270.0
  0
ARC
  5
16EAB
330
18
100
AcDbEntity
  8
01
100
AcDbCircle
 10
-1349.549464271372
 20
-1413.651686236176
 30
0.0
 40
0.5
100
AcDbArc
 50
90.0
 51
180.0
  0
LINE
  5
16EAC
330
18
100
AcDbEntity
  8
01
100
AcDbLine
 10
-1348.582291805793
 20
-1422.05502152904
 30
0.0
 11
-1333.639905304595
 21
-1414.959854764396
 31
0.0
  0
ARC
  5
16EAD
330
18
100
AcDbEntity
  8
01
100
AcDbCircle
 10
-1334.047393681328
 20
-1414.101686236176
 30
0.0
 40
0.95
100
AcDbArc
 50
295.4000000000052
 51
90.0
  0
LINE
  5
171DD
102
{ACAD_REACTORS
102
}
330
18
100
AcDbEntity
  8
01
100
AcDbLine
 10
-452.8494642758515
 20
-1413.151686236176
 30
0.0
 11
-468.3515348658964
 21
-1413.151686236176
 31
0.0
  0
LINE
  5
171DE
102
{ACAD_REACTORS
102
}
330
18
100
AcDbEntity
  8
01
100
AcDbLine
 10
-452.8494642758517
 20
-1422.151686236176
 30
0.0
 11
-453.3877016080282
 21
-1422.151686236176
 31
0.0
  0
ARC
  5
171DF
102
{ACAD_REACTORS
102
}
330
18
100
AcDbEntity
  8
01
100
AcDbCircle
 10
-453.387701608028
 20
-1421.151686236176
 30
0.0
 40
1.0
100
AcDbArc
 50
244.5999999999949
 51
270.0
  0
LINE
  5
171E0
102
{ACAD_REACTORS
102
}
330
18
100
AcDbEntity
  8
01
100
AcDbLine
 10
-452.3494642758515
 20
-1413.651686236176
 30
0.0
 11
-452.3494642758517
 21
-1421.651686236176
 31
0.0
  0
ARC
  5
171E1
102
{ACAD_REACTORS
102
}
330
18
100
AcDbEntity
  8
01
100
AcDbCircle
 10
-452.8494642758517
 20
-1421.651686236176
 30
0.0
 40
0.5
100
AcDbArc
 50
270.0
 51
0.000000000000007
  0
ARC
  5
171E2
102
{ACAD_REACTORS
102
}
330
18
100
AcDbEntity
  8
01
100
AcDbCircle
 10
-452.8494642758515
 20
-1413.651686236176
 30
0.0
 40
0.5
100
AcDbArc
 50
0.000000000000007
 51
90.0
  0
LINE
  5
171E3
102
{ACAD_REACTORS
102
}
330
18
100
AcDbEntity
  8
01
100
AcDbLine
 10
-453.8166367414312
 20
-1422.05502152904
 30
0.0
 11
-468.7590232426294
 21
-1414.959854764396
 31
0.0
  0
ARC
  5
171E4
102
{ACAD_REACTORS
102
}
330
18
100
AcDbEntity
  8
01
100
AcDbCircle
 10
-468.3515348658964
 20
-1414.101686236176
 30
0.0
 40
0.95
100
AcDbArc
 50
90.0
 51
244.5999999999949
  0
ARC
  5
171E5
102
{ACAD_REACTORS
102
}
330
18
100
AcDbEntity
  8
01
100
AcDbCircle
 10
-455.3494642736118
 20
-1417.901686241193
 30
0.0
 40
1.8
100
AcDbArc
 50
244.5999999999997
 51
64.59999999999968
  0
LINE
  5
171E6
102
{ACAD_REACTORS
102
}
330
18
100
AcDbEntity
  8
01
100
AcDbLine
 10
-454.5773810334861
 20
-1416.275682714039
 30
0.0
 11
-459.2294582585459
 21
-1414.066714038845
 31
0.0
  0
LINE
  5
171E7
102
{ACAD_REACTORS
102
}
330
18
100
AcDbEntity
  8
01
100
AcDbLine
 10
-456.1215475137375
 20
-1419.527689768347
 30
0.0
 11
-460.7737242757548
 21
-1417.31867382953
 31
0.0
  0
ARC
  5
171E8
102
{ACAD_REACTORS
102
}
330
18
100
AcDbEntity
  8
01
100
AcDbCircle
 10
-460.0016410337435
 20
-1415.692670299318
 30
0.0
 40
1.8
100
AcDbArc
 50
64.59628629372898
 51
244.5999999867991
  0
LINE
  5
1725D
330
18
100
AcDbEntity
  8
01
  6
BYBLOCK
100
AcDbLine
 10
-486.586162481884
 20
-1421.301415428341
 30
0.0
 11
-457.1994619851015
 21
-1421.301639566058
 31
0.0
  0
LINE
  5
1725E
330
18
100
AcDbEntity
  8
1HIDDEN
100
AcDbLine
 10
-452.2361383079067
 20
-1423.301680782321
 30
0.0
 11
-454.2361655631619
 21
-1421.301639566058
 31
0.0
  0
LINE
  5
1725F
330
18
100
AcDbEntity
  8
01
  6
BYBLOCK
100
AcDbLine
 10
-486.9361219030945
 20
-1420.951450895037
 30
0.0
 11
-486.586162481884
 21
-1421.301415428341
 31
0.0
  0
LINE
  5
17260
330
18
100
AcDbEntity
  8
1HIDDEN
100
AcDbLine
 10
-452.2361383079067
 20
-1423.301680782321
 30
0.0
 11
-451.9361383079189
 21
-1423.301683574475
 31
0.0
  0
LINE
  5
17261
330
18
100
AcDbEntity
  8
01
  6
BYBLOCK
100
AcDbLine
 10
-486.9360988678252
 20
-1417.651450895107
 30
0.0
 11
-486.9361219030945
 21
-1420.951450895037
 31
0.0
  0
LINE
  5
17262
330
18
100
AcDbEntity
  8
1HIDDEN
100
AcDbLine
 10
-451.9360824648413
 20
-1415.301683574648
 30
0.0
 11
-451.9361383079189
 21
-1423.301683574475
 31
0.0
  0
LINE
  5
17263
330
18
100
AcDbEntity
  8
01
  6
BYBLOCK
100
AcDbLine
 10
-486.9360988678252
 20
-1417.651450895107
 30
0.0
 11
-486.5860582885153
 21
-1417.301415429002
 31
0.0
  0
LINE
  5
17264
330
18
100
AcDbEntity
  8
1HIDDEN
100
AcDbLine
 10
-452.2360824648292
 20
-1415.301680782495
 30
0.0
 11
-451.9360824648413
 21
-1415.301683574648
 31
0.0
  0
LINE
  5
17265
330
18
100
AcDbEntity
  8
01
  6
BYBLOCK
100
AcDbLine
 10
-486.5860582885153
 20
-1417.301415429002
 30
0.0
 11
-463.9518558947636
 21
-1417.301588064224
 31
0.0
  0
LINE
  5
17266
330
18
100
AcDbEntity
  8
1HIDDEN
100
AcDbLine
 10
-452.2360824648292
 20
-1415.301680782495
 30
0.0
 11
-454.2360130135643
 21
-1417.301588064224
 31
0.0
  0
LINE
  5
17267
330
18
100
AcDbEntity
  8
1HATCH
100
AcDbLine
 10
-486.9361219028053
 20
-1420.951412866624
 30
0.0
 11
-457.1994593231084
 21
-1420.951639034248
 31
0.0
  0
LINE
  5
17268
330
18
100
AcDbEntity
  8
1HATCH
100
AcDbLine
 10
-486.9360608391337
 20
-1417.651412866971
 30
0.0
 11
-463.1878458283892
 21
-1417.651593488413
 31
0.0
  0
LINE
  5
1726A
330
18
100
AcDbEntity
  8
1HIDDEN
100
AcDbLine
 10
-486.5860964247007
 20
-1417.30145356463
 30
0.0
 11
-486.5861243462394
 21
-1421.301453564542
 31
0.0
  0
LINE
  5
1726B
330
18
100
AcDbEntity
  8
1HIDDEN
100
AcDbLine
 10
-452.2360824648292
 20
-1415.301680782495
 30
0.0
 11
-452.2361383079067
 21
-1423.301680782321
 31
0.0
  0
LINE
  5
1726C
330
18
100
AcDbEntity
  8
1HIDDEN
100
AcDbLine
 10
-454.586143775932
 20
-1420.951658910297
 30
0.0
 11
-454.2361429615453
 21
-1421.301662167832
 31
0.0
  0
LINE
  5
1726D
330
18
100
AcDbEntity
  8
1HIDDEN
100
AcDbLine
 10
-454.5860879327527
 20
-1417.651658910674
 30
0.0
 11
-454.236087118381
 21
-1417.301662168179
 31
0.0
  0
LINE
  5
1727A
330
18
100
AcDbEntity
  8
1HATCH
100
AcDbLine
 10
-463.9606946638183
 20
-1417.301588064224
 30
0.0
 11
-454.2360130135643
 21
-1417.301588064224
 31
0.0
  0
LINE
  5
1727B
330
18
100
AcDbEntity
  8
1HATCH
100
AcDbLine
 10
-457.1994619851015
 20
-1421.301639566058
 30
0.0
 11
-454.2361655631619
 21
-1421.301639566058
 31
0.0
  0
LINE
  5
17E71
330
18
100
AcDbEntity
  8
1CENTER
100
AcDbLine
 10
-801.199464273612
 20
-1485.985890786706
 30
0.0
 11
-801.199464273612
 21
-1504.875333854617
 31
0.0
  0
LINE
  5
17E72
330
18
100
AcDbEntity
  8
1CENTER
100
AcDbLine
 10
-1001.199464273612
 20
-1485.485890786706
 30
0.0
 11
-1001.199464273612
 21
-1504.375333854617
 31
0.0
  0
LINE
  5
17F0E
330
18
100
AcDbEntity
  8
1CENTER
100
AcDbLine
 10
-801.199464273612
 20
-1413.946425869612
 30
0.0
 11
-801.199464273612
 21
-1406.726653610698
 31
0.0
  0
LINE
  5
17F0F
330
18
100
AcDbEntity
  8
1CENTER
100
AcDbLine
 10
-796.2117814312599
 20
-1410.25168623724
 30
0.0
 11
-805.9647827850224
 21
-1410.25168623724
 31
0.0
  0
CIRCLE
  5
17F10
330
18
100
AcDbEntity
  8
01
100
AcDbCircle
 10
-801.199464273612
 20
-1410.25168623724
 30
0.0
 40
4.1
  0
CIRCLE
  5
17F11
330
18
100
AcDbEntity
  8
01
100
AcDbCircle
 10
-801.199464273612
 20
-1410.25168623724
 30
0.0
 40
2.25
  0
LINE
  5
18355
330
18
100
AcDbEntity
  8
01
100
AcDbLine
 10
-396.6001300520977
 20
-1496.866051408029
 30
0.0
 11
-381.3088288240186
 21
-1496.866051408029
 31
0.0
  0
LINE
  5
18357
330
18
100
AcDbEntity
  8
01
100
AcDbLine
 10
-404.3501765879955
 20
-1509.866051408029
 30
0.0
 11
-381.3088288240186
 21
-1509.866051408029
 31
0.0
  0
LINE
  5
18358
330
18
100
AcDbEntity
  8
01
100
AcDbLine
 10
-381.3088288240186
 20
-1518.866051408029
 30
0.0
 11
-437.3663404486781
 21
-1518.866051408029
 31
0.0
  0
LINE
  5
18359
330
18
100
AcDbEntity
  8
01
100
AcDbLine
 10
-409.1001300520977
 20
-1490.366051408029
 30
0.0
 11
-402.6001300520975
 21
-1490.366051408029
 31
0.0
  0
ARC
  5
1835A
330
18
100
AcDbEntity
  8
01
100
AcDbCircle
 10
-409.1001300520977
 20
-1489.366051408029
 30
0.0
 40
1.0
100
AcDbArc
 50
180.0
 51
270.0
  0
ARC
  5
1835B
330
18
100
AcDbEntity
  8
01
100
AcDbCircle
 10
-402.6001300520975
 20
-1489.366051408029
 30
0.0
 40
1.0
100
AcDbArc
 50
270.0
 51
0.0
  0
LINE
  5
18361
330
18
100
AcDbEntity
  8
01
100
AcDbLine
 10
-420.6001300520977
 20
-1496.866051408029
 30
0.0
 11
-396.6001300520977
 21
-1496.86605140803
 31
0.0
  0
LINE
  5
18365
330
18
100
AcDbEntity
  8
01
100
AcDbLine
 10
-418.9001300520977
 20
-1489.366051408029
 30
0.0
 11
-410.1001300520977
 21
-1489.366051408029
 31
0.0
  0
LINE
  5
1836B
330
18
100
AcDbEntity
  8
01
100
AcDbLine
 10
-409.9501300520976
 20
-1493.866051408029
 30
0.0
 11
-401.7501300520976
 21
-1493.86605140803
 31
0.0
  0
LINE
  5
1836C
330
18
100
AcDbEntity
  8
01
100
AcDbLine
 10
-401.7501300520976
 20
-1489.892834095672
 30
0.0
 11
-401.7501300520976
 21
-1493.86605140803
 31
0.0
  0
LINE
  5
1836D
330
18
100
AcDbEntity
  8
01
100
AcDbLine
 10
-409.9501300520976
 20
-1489.892834095672
 30
0.0
 11
-409.9501300520976
 21
-1493.866051408029
 31
0.0
  0
LINE
  5
1836E
330
18
100
AcDbEntity
  8
01
100
AcDbLine
 10
-403.2501300520976
 20
-1493.86605140803
 30
0.0
 11
-403.2501300520976
 21
-1496.86605140803
 31
0.0
  0
LINE
  5
1836F
330
18
100
AcDbEntity
  8
01
100
AcDbLine
 10
-408.4501300520976
 20
-1493.866051408029
 30
0.0
 11
-408.4501300520976
 21
-1496.866051408029
 31
0.0
  0
SPLINE
  5
18370
330
18
100
AcDbEntity
  8
1HATCH
100
AcDbSpline
210
0.0
220
0.0
230
1.0
 70
  1064
 71
     3
 72
    11
 73
     7
 74
     5
 42
0.000000001
 43
0.0000000001
 44
0.0000000001
 40
0.0
 40
0.0
 40
0.0
 40
0.0
 40
2.501079190662371
 40
4.319193875640291
 40
6.106825588866899
 40
7.557794874777501
 40
7.557794874777501
 40
7.557794874777501
 40
7.557794874777501
 10
-396.3695070610595
 20
-1489.287960409584
 30
0.0
 10
-397.0468694969964
 20
-1488.270009123591
 30
0.0
 10
-398.2166284137911
 20
-1486.51207639736
 30
0.0
 10
-399.1507714734662
 20
-1489.859570848779
 30
0.0
 10
-400.8642136926193
 20
-1488.177837518849
 30
0.0
 10
-401.7489256986672
 20
-1487.696270873607
 30
0.0
 10
-402.145297449307
 20
-1487.480517709957
 30
0.0
 11
-396.3695070610595
 21
-1489.287960409584
 31
0.0
 11
-398.2308987467343
 21
-1487.617446084454
 31
0.0
 11
-399.3258364775254
 21
-1489.068877231089
 31
0.0
 11
-400.9134937305023
 21
-1488.247310685273
 31
0.0
 11
-402.145297449307
 21
-1487.480517709957
 31
0.0
  0
SPLINE
  5
18371
330
18
100
AcDbEntity
  8
1HATCH
100
AcDbSpline
210
0.0
220
0.0
230
1.0
 70
  1064
 71
     3
 72
    13
 73
     9
 74
     7
 42
0.000000001
 43
0.0000000001
 44
0.0000000001
 40
0.0
 40
0.0
 40
0.0
 40
0.0
 40
0.7678894331538098
 40
1.858937793257807
 40
2.63914835260462
 40
6.201771791597037
 40
8.205936309958014
 40
13.76940497451373
 40
13.76940497451373
 40
13.76940497451373
 40
13.76940497451373
 10
-410.0108908547488
 20
-1489.595160972122
 30
0.0
 10
-410.269280066683
 20
-1489.594585873286
 30
0.0
 10
-410.8947991202032
 20
-1489.593193650767
 30
0.0
 10
-411.7032206888411
 20
-1490.098926883828
 30
0.0
 10
-412.655407550306
 20
-1491.58684706224
 30
0.0
 10
-414.3356248912674
 20
-1493.87129822121
 30
0.0
 10
-418.2805865669359
 20
-1491.249500163641
 30
0.0
 10
-418.7391654774222
 20
-1494.893723736309
 30
0.0
 10
-419.0762972248324
 20
-1497.572833989557
 30
0.0
 11
-410.0108908547488
 21
-1489.595160972122
 31
0.0
 11
-410.7764874318716
 21
-1489.6544573687
 31
0.0
 11
-411.7150458464105
 21
-1490.210779781141
 31
0.0
 11
-412.1803857836524
 21
-1490.837028341797
 31
0.0
 11
-414.9527278286303
 21
-1493.074528141508
 31
0.0
 11
-416.8630809434605
 21
-1492.468536067867
 31
0.0
 11
-419.0762972248324
 21
-1497.572833989557
 31
0.0
  0
LINE
  5
1837B
330
18
100
AcDbEntity
  8
01
100
AcDbLine
 10
-420.6001300520977
 20
-1496.866051408029
 30
0.0
 11
-437.2855602081054
 21
-1496.866051408029
 31
0.0
  0
LINE
  5
1837C
330
18
100
AcDbEntity
  8
01
100
AcDbLine
 10
-407.3501765879956
 20
-1509.866051408029
 30
0.0
 11
-437.3663404486781
 21
-1509.866051408029
 31
0.0
  0
LINE
  5
18389
330
18
100
AcDbEntity
  8
01
100
AcDbLine
 10
-403.9751300520976
 20
-1525.541056236136
 30
0.0
 11
-403.9751300520976
 21
-1494.591046347268
 31
0.0
  0
LINE
  5
1838A
330
18
100
AcDbEntity
  8
01
100
AcDbLine
 10
-401.8501300520976
 20
-1492.466061180534
 30
0.0
 11
-403.9751300520976
 21
-1494.591046347268
 31
0.0
  0
LINE
  5
1838B
330
18
100
AcDbEntity
  8
01
100
AcDbLine
 10
-405.8501300520976
 20
-1532.166051873462
 30
0.0
 11
-403.9751300520976
 21
-1525.541056236136
 31
0.0
  0
LINE
  5
1838C
330
18
100
AcDbEntity
  8
01
100
AcDbLine
 10
-401.8501300520976
 20
-1492.466061180534
 30
0.0
 11
-401.8501300520976
 21
-1492.166061180533
 31
0.0
  0
LINE
  5
1838D
330
18
100
AcDbEntity
  8
01
100
AcDbLine
 10
-405.8501300520976
 20
-1532.166051873462
 30
0.0
 11
-407.7251300520976
 21
-1525.541047510655
 31
0.0
  0
LINE
  5
1838E
330
18
100
AcDbEntity
  8
01
100
AcDbLine
 10
-401.8501300520976
 20
-1492.166061180533
 30
0.0
 11
-409.8501300520976
 21
-1492.166042566174
 31
0.0
  0
LINE
  5
1838F
330
18
100
AcDbEntity
  8
01
100
AcDbLine
 10
-407.7251300520976
 20
-1525.541047510655
 30
0.0
 11
-407.7251300520976
 21
-1494.591067288515
 31
0.0
  0
LINE
  5
18390
330
18
100
AcDbEntity
  8
01
100
AcDbLine
 10
-409.8501300520976
 20
-1492.466042566175
 30
0.0
 11
-409.8501300520976
 21
-1492.166042566174
 31
0.0
  0
LINE
  5
18391
330
18
100
AcDbEntity
  8
01
100
AcDbLine
 10
-409.8501300520976
 20
-1492.466042566175
 30
0.0
 11
-407.7251300520976
 21
-1494.591067288515
 31
0.0
  0
LINE
  5
18392
330
18
100
AcDbEntity
  8
1CENTER
100
AcDbLine
 10
-405.8501300520976
 20
-1532.166051873462
 30
0.0
 11
-405.8501300520976
 21
-1489.332918826087
 31
0.0
  0
LINE
  5
18393
330
18
100
AcDbEntity
  8
01
100
AcDbLine
 10
-403.3501300520976
 20
-1513.291057690383
 30
0.0
 11
-408.3501300520976
 21
-1514.291046056411
 31
0.0
  0
LINE
  5
18394
330
18
100
AcDbEntity
  8
01
100
AcDbLine
 10
-408.3501300520976
 20
-1514.291046056411
 30
0.0
 11
-407.7251300520976
 21
-1514.416047510657
 31
0.0
  0
LINE
  5
18395
330
18
100
AcDbEntity
  8
01
100
AcDbLine
 10
-404.5012732986085
 20
-1527.400094482932
 30
0.0
 11
-403.916150229671
 21
-1527.54105637337
 31
0.0
  0
LINE
  5
18396
330
18
100
AcDbEntity
  8
01
100
AcDbLine
 10
-406.9350859758257
 20
-1530.541049348928
 30
0.0
 11
-406.1997402570224
 21
-1530.930761669244
 31
0.0
  0
LINE
  5
18397
330
18
100
AcDbEntity
  8
01
100
AcDbLine
 10
-405.0536319155202
 20
-1529.351760310814
 30
0.0
 11
-404.4821671147312
 21
-1529.541055056365
 31
0.0
  0
LINE
  5
18398
330
18
100
AcDbEntity
  8
01
100
AcDbLine
 10
-407.5011036063341
 20
-1528.541048031921
 30
0.0
 11
-406.8114167765799
 21
-1528.769503210206
 31
0.0
  0
LINE
  5
18399
330
18
100
AcDbEntity
  8
01
100
AcDbLine
 10
-404.4821671147312
 20
-1529.541055056365
 30
0.0
 11
-406.9350859758257
 21
-1530.541049348928
 31
0.0
  0
LINE
  5
1839A
330
18
100
AcDbEntity
  8
01
100
AcDbLine
 10
-403.916150229671
 20
-1527.54105637337
 30
0.0
 11
-407.5011036063341
 21
-1528.541048031921
 31
0.0
  0
LINE
  5
1839B
330
18
100
AcDbEntity
  8
01
100
AcDbLine
 10
-403.3501300520976
 20
-1515.291057690383
 30
0.0
 11
-408.3501300520976
 21
-1516.291046056411
 31
0.0
  0
LINE
  5
1839C
330
18
100
AcDbEntity
  8
01
100
AcDbLine
 10
-403.3501300520976
 20
-1517.291057690383
 30
0.0
 11
-408.3501300520976
 21
-1518.291046056411
 31
0.0
  0
LINE
  5
1839D
330
18
100
AcDbEntity
  8
01
100
AcDbLine
 10
-403.9751300520976
 20
-1517.166056236136
 30
0.0
 11
-403.3501300520976
 21
-1517.291057690383
 31
0.0
  0
LINE
  5
1839E
330
18
100
AcDbEntity
  8
01
100
AcDbLine
 10
-408.3501300520976
 20
-1518.291046056411
 30
0.0
 11
-407.7251300520976
 21
-1518.416047510657
 31
0.0
  0
LINE
  5
1839F
330
18
100
AcDbEntity
  8
01
100
AcDbLine
 10
-408.3501300520976
 20
-1516.291046056411
 30
0.0
 11
-407.7251300520976
 21
-1516.416047510657
 31
0.0
  0
LINE
  5
183A0
330
18
100
AcDbEntity
  8
01
100
AcDbLine
 10
-408.0671212368426
 20
-1526.541046714914
 30
0.0
 11
-407.3963790677536
 21
-1526.702635086951
 31
0.0
  0
LINE
  5
183A1
330
18
100
AcDbEntity
  8
01
100
AcDbLine
 10
-403.3501300520976
 20
-1525.541057690383
 30
0.0
 11
-408.0671212368426
 21
-1526.541046714914
 31
0.0
  0
LINE
  5
183A2
330
18
100
AcDbEntity
  8
01
100
AcDbLine
 10
-403.9751300520976
 20
-1525.416056236136
 30
0.0
 11
-403.3501300520976
 21
-1525.541057690383
 31
0.0
  0
LINE
  5
183A3
330
18
100
AcDbEntity
  8
01
100
AcDbLine
 10
-403.9751300520976
 20
-1515.166056236136
 30
0.0
 11
-403.3501300520976
 21
-1515.291057690383
 31
0.0
  0
LINE
  5
183A4
330
18
100
AcDbEntity
  8
01
100
AcDbLine
 10
-403.3501300520976
 20
-1509.291057690383
 30
0.0
 11
-408.3501300520976
 21
-1510.291046056411
 31
0.0
  0
LINE
  5
183A5
330
18
100
AcDbEntity
  8
01
100
AcDbLine
 10
-403.3501300520976
 20
-1511.291057690383
 30
0.0
 11
-408.3501300520976
 21
-1512.291046056411
 31
0.0
  0
LINE
  5
183A6
330
18
100
AcDbEntity
  8
01
100
AcDbLine
 10
-403.9751300520976
 20
-1513.166056236136
 30
0.0
 11
-403.3501300520976
 21
-1513.291057690383
 31
0.0
  0
LINE
  5
183A7
330
18
100
AcDbEntity
  8
01
100
AcDbLine
 10
-403.9751300520976
 20
-1511.166056236136
 30
0.0
 11
-403.3501300520976
 21
-1511.291057690383
 31
0.0
  0
LINE
  5
183A8
330
18
100
AcDbEntity
  8
01
100
AcDbLine
 10
-408.3501300520976
 20
-1512.291046056411
 30
0.0
 11
-407.7251300520976
 21
-1512.416047510657
 31
0.0
  0
LINE
  5
183A9
330
18
100
AcDbEntity
  8
01
100
AcDbLine
 10
-408.3501300520976
 20
-1510.291046056411
 30
0.0
 11
-407.7251300520976
 21
-1510.416047510657
 31
0.0
  0
LINE
  5
183AA
330
18
100
AcDbEntity
  8
01
100
AcDbLine
 10
-403.9751300520976
 20
-1509.166056236136
 30
0.0
 11
-403.3501300520976
 21
-1509.291057690383
 31
0.0
  0
LINE
  5
183AB
330
18
100
AcDbEntity
  8
01
100
AcDbLine
 10
-408.3501300520976
 20
-1520.291046056411
 30
0.0
 11
-407.7251300520976
 21
-1520.416047510657
 31
0.0
  0
LINE
  5
183AC
330
18
100
AcDbEntity
  8
01
100
AcDbLine
 10
-403.3501300520976
 20
-1519.291057690383
 30
0.0
 11
-408.3501300520976
 21
-1520.291046056411
 31
0.0
  0
LINE
  5
183AD
330
18
100
AcDbEntity
  8
01
100
AcDbLine
 10
-403.9751300520976
 20
-1519.166056236136
 30
0.0
 11
-403.3501300520976
 21
-1519.291057690383
 31
0.0
  0
LINE
  5
183AE
330
18
100
AcDbEntity
  8
01
100
AcDbLine
 10
-403.3501300520976
 20
-1521.291057690383
 30
0.0
 11
-408.3501300520976
 21
-1522.291046056411
 31
0.0
  0
LINE
  5
183AF
330
18
100
AcDbEntity
  8
01
100
AcDbLine
 10
-408.3501300520976
 20
-1522.291046056411
 30
0.0
 11
-407.7251300520976
 21
-1522.416047510657
 31
0.0
  0
LINE
  5
183B0
330
18
100
AcDbEntity
  8
01
100
AcDbLine
 10
-403.9751300520976
 20
-1521.166056236136
 30
0.0
 11
-403.3501300520976
 21
-1521.291057690383
 31
0.0
  0
LINE
  5
183B1
330
18
100
AcDbEntity
  8
01
100
AcDbLine
 10
-408.3501300520976
 20
-1524.291046056411
 30
0.0
 11
-407.7251300520976
 21
-1524.416047510657
 31
0.0
  0
LINE
  5
183B2
330
18
100
AcDbEntity
  8
01
100
AcDbLine
 10
-403.3501300520976
 20
-1523.291057690383
 30
0.0
 11
-408.3501300520976
 21
-1524.291046056411
 31
0.0
  0
LINE
  5
183B3
330
18
100
AcDbEntity
  8
01
100
AcDbLine
 10
-403.9751300520976
 20
-1523.166056236136
 30
0.0
 11
-403.3501300520976
 21
-1523.291057690383
 31
0.0
  0
LINE
  5
183B4
330
18
100
AcDbEntity
  8
01
100
AcDbLine
 10
-403.3501300520976
 20
-1497.291057690372
 30
0.0
 11
-408.3501300520976
 21
-1498.2910460564
 31
0.0
  0
LINE
  5
183B5
330
18
100
AcDbEntity
  8
01
100
AcDbLine
 10
-403.3501300520976
 20
-1501.291057690383
 30
0.0
 11
-408.3501300520976
 21
-1502.291046056405
 31
0.0
  0
LINE
  5
183B6
330
18
100
AcDbEntity
  8
01
100
AcDbLine
 10
-403.9751300520976
 20
-1495.166056236125
 30
0.0
 11
-403.3501300520976
 21
-1495.291057690372
 31
0.0
  0
LINE
  5
183B7
330
18
100
AcDbEntity
  8
01
100
AcDbLine
 10
-408.3501300520976
 20
-1496.2910460564
 30
0.0
 11
-407.7251300520976
 21
-1496.416047510646
 31
0.0
  0
LINE
  5
183B8
330
18
100
AcDbEntity
  8
01
100
AcDbLine
 10
-408.3501300520976
 20
-1498.2910460564
 30
0.0
 11
-407.7251300520976
 21
-1498.416047510646
 31
0.0
  0
LINE
  5
183B9
330
18
100
AcDbEntity
  8
01
100
AcDbLine
 10
-403.9751300520976
 20
-1497.166056236125
 30
0.0
 11
-403.3501300520976
 21
-1497.291057690372
 31
0.0
  0
LINE
  5
183BA
330
18
100
AcDbEntity
  8
01
100
AcDbLine
 10
-403.3501300520976
 20
-1495.291057690372
 30
0.0
 11
-408.3501300520976
 21
-1496.2910460564
 31
0.0
  0
LINE
  5
183BB
330
18
100
AcDbEntity
  8
01
100
AcDbLine
 10
-403.3501300520976
 20
-1499.291057690377
 30
0.0
 11
-408.3501300520976
 21
-1500.2910460564
 31
0.0
  0
LINE
  5
183BC
330
18
100
AcDbEntity
  8
01
100
AcDbLine
 10
-403.3501300520976
 20
-1505.291057690383
 30
0.0
 11
-408.3501300520976
 21
-1506.291046056405
 31
0.0
  0
LINE
  5
183BD
330
18
100
AcDbEntity
  8
01
100
AcDbLine
 10
-403.3501300520976
 20
-1507.291057690383
 30
0.0
 11
-408.3501300520976
 21
-1508.291046056411
 31
0.0
  0
LINE
  5
183BE
330
18
100
AcDbEntity
  8
01
100
AcDbLine
 10
-403.9751300520976
 20
-1507.166056236136
 30
0.0
 11
-403.3501300520976
 21
-1507.291057690383
 31
0.0
  0
LINE
  5
183BF
330
18
100
AcDbEntity
  8
01
100
AcDbLine
 10
-408.3501300520976
 20
-1506.291046056405
 30
0.0
 11
-407.7251300520976
 21
-1506.416047510653
 31
0.0
  0
LINE
  5
183C0
330
18
100
AcDbEntity
  8
01
100
AcDbLine
 10
-408.3501300520976
 20
-1508.291046056411
 30
0.0
 11
-407.7251300520976
 21
-1508.416047510657
 31
0.0
  0
LINE
  5
183C1
330
18
100
AcDbEntity
  8
01
100
AcDbLine
 10
-408.3501300520976
 20
-1502.291046056405
 30
0.0
 11
-407.7251300520976
 21
-1502.416047510653
 31
0.0
  0
LINE
  5
183C2
330
18
100
AcDbEntity
  8
01
100
AcDbLine
 10
-403.9751300520976
 20
-1503.166056236136
 30
0.0
 11
-403.3501300520976
 21
-1503.291057690382
 31
0.0
  0
LINE
  5
183C3
330
18
100
AcDbEntity
  8
01
100
AcDbLine
 10
-408.3501300520976
 20
-1504.291046056405
 30
0.0
 11
-407.7251300520976
 21
-1504.416047510653
 31
0.0
  0
LINE
  5
183C4
330
18
100
AcDbEntity
  8
01
100
AcDbLine
 10
-403.3501300520976
 20
-1503.291057690382
 30
0.0
 11
-408.3501300520976
 21
-1504.291046056405
 31
0.0
  0
LINE
  5
183C5
330
18
100
AcDbEntity
  8
01
100
AcDbLine
 10
-403.9751300520976
 20
-1505.166056236136
 30
0.0
 11
-403.3501300520976
 21
-1505.291057690383
 31
0.0
  0
LINE
  5
183C6
330
18
100
AcDbEntity
  8
01
100
AcDbLine
 10
-408.3501300520976
 20
-1500.2910460564
 30
0.0
 11
-407.7251300520976
 21
-1500.416047510647
 31
0.0
  0
LINE
  5
183C7
330
18
100
AcDbEntity
  8
01
100
AcDbLine
 10
-403.9751300520976
 20
-1501.166056236136
 30
0.0
 11
-403.3501300520976
 21
-1501.291057690383
 31
0.0
  0
LINE
  5
183C8
330
18
100
AcDbEntity
  8
01
100
AcDbLine
 10
-403.9751300520976
 20
-1499.16605623613
 30
0.0
 11
-403.3501300520976
 21
-1499.291057690377
 31
0.0
  0
LINE
  5
183C9
330
18
100
AcDbEntity
  8
01
100
AcDbLine
 10
-401.8501300520976
 20
-1492.466061180534
 30
0.0
 11
-409.8501300520976
 21
-1492.466042566175
 31
0.0
  0
LINE
  5
183CA
330
18
100
AcDbEntity
  8
01
100
AcDbLine
 10
-408.5501300520977
 20
-1496.866051408029
 30
0.0
 11
-408.5501300520977
 21
-1509.866051408029
 31
0.0
  0
LINE
  5
183CB
330
18
100
AcDbEntity
  8
01
100
AcDbLine
 10
-403.1501300520977
 20
-1496.866051408029
 30
0.0
 11
-403.1501300520977
 21
-1509.866051408029
 31
0.0
  0
LINE
  5
18E36
330
18
100
AcDbEntity
  8
1DIM
100
AcDbLine
 10
-479.1719648656126
 20
-1423.463136384273
 30
0.0
 11
-476.2355576901054
 21
-1446.433712323691
 31
0.0
  0
LINE
  5
18E37
330
18
100
AcDbEntity
  8
1DIM
100
AcDbLine
 10
-476.2355576901054
 20
-1446.433712323691
 30
0.0
 11
-406.4188910234387
 21
-1446.433712323691
 31
0.0
  0
TEXT
  5
18E38
330
18
100
AcDbEntity
  8
1DIM
  6
CONTINUOUS
100
AcDbText
 10
-473.5355576901054
 20
-1445.733712323691
 30
0.0
 40
3.5
  1
M4×35六角穴付き皿キャップネジ
100
AcDbText
  0
LINE
  5
18E3A
330
18
100
AcDbEntity
  8
1DIM
100
AcDbLine
 10
-530.1412356131265
 20
-1399.422554557258
 30
0.0
 11
-537.3998115795791
 21
-1390.083394552438
 31
0.0
  0
LINE
  5
18E3B
330
18
100
AcDbEntity
  8
1DIM
100
AcDbLine
 10
-537.3998115795791
 20
-1390.083394552438
 30
0.0
 11
-581.1664782462458
 21
-1390.083394552438
 31
0.0
  0
TEXT
  5
18E3C
330
18
100
AcDbEntity
  8
1DIM
  6
CONTINUOUS
100
AcDbText
 10
-581.3998115795793
 20
-1383.550061219104
 30
0.0
 40
3.5
  1
材質：アルミ押出形材
100
AcDbText
  0
TEXT
  5
18E3D
330
18
100
AcDbEntity
  8
1DIM
  6
CONTINUOUS
100
AcDbText
 10
-572.9998115795792
 20
-1389.383394552437
 30
0.0
 40
3.5
  1
仕上げ：クローム
100
AcDbText
  0
LINE
  5
18E3F
330
18
100
AcDbEntity
  8
1DIM
100
AcDbLine
 10
-454.1665425610951
 20
-1412.187520655767
 30
0.0
 11
-430.5054594892953
 21
-1399.168154389606
 31
0.0
  0
LINE
  5
18E40
330
18
100
AcDbEntity
  8
1DIM
100
AcDbLine
 10
-430.5054594892953
 20
-1399.168154389606
 30
0.0
 11
-383.2387928226286
 21
-1399.168154389606
 31
0.0
  0
TEXT
  5
18E41
330
18
100
AcDbEntity
  8
1DIM
  6
CONTINUOUS
100
AcDbText
 10
-428.0387928226287
 20
-1392.634821056272
 30
0.0
 40
3.5
  1
材質：亜鉛ダイキャスト
100
AcDbText
  0
TEXT
  5
18E42
330
18
100
AcDbEntity
  8
1DIM
  6
CONTINUOUS
100
AcDbText
 10
-427.922126155962
 20
-1398.468154389606
 30
0.0
 40
3.5
  1
仕上げ：クローム
100
AcDbText
  0
LINE
  5
18E43
330
18
100
AcDbEntity
  8
1HATCH
  6
CONTINUOUS
100
AcDbLine
 10
-512.8380991659105
 20
-1403.922301785579
 30
0.0
 11
-509.9174836175714
 21
-1401.00168623724
 31
0.0
1001
ACAD
1010
0.0
1020
0.0
1030
0.0
  0
LINE
  5
18E44
330
18
100
AcDbEntity
  8
1HATCH
  6
CONTINUOUS
100
AcDbLine
 10
-512.3417497732632
 20
-1405.671016423199
 30
0.0
 11
-507.6724195873041
 21
-1401.00168623724
 31
0.0
1001
ACAD
1010
0.0
1020
0.0
1030
0.0
  0
LINE
  5
18E45
330
18
100
AcDbEntity
  8
1HATCH
  6
CONTINUOUS
100
AcDbLine
 10
-511.4398138373222
 20
-1407.014144517525
 30
0.0
 11
-510.4273555570368
 21
-1406.00168623724
 31
0.0
1001
ACAD
1010
0.0
1020
0.0
1030
0.0
  0
LINE
  5
18E46
330
18
100
AcDbEntity
  8
1HATCH
  6
CONTINUOUS
100
AcDbLine
 10
-510.4273555570368
 20
-1406.00168623724
 30
0.0
 11
-505.4273555570368
 21
-1401.00168623724
 31
0.0
1001
ACAD
1010
0.0
1020
0.0
1030
0.0
  0
LINE
  5
18E47
330
18
100
AcDbEntity
  8
1HATCH
  6
CONTINUOUS
100
AcDbLine
 10
-510.4353559244283
 20
-1408.254750634899
 30
0.0
 11
-508.1822915267695
 21
-1406.00168623724
 31
0.0
1001
ACAD
1010
0.0
1020
0.0
1030
0.0
  0
LINE
  5
18E48
330
18
100
AcDbEntity
  8
1HATCH
  6
CONTINUOUS
100
AcDbLine
 10
-509.3657337838427
 20
-1409.43019252458
 30
0.0
 11
-505.9372274965023
 21
-1406.00168623724
 31
0.0
1001
ACAD
1010
0.0
1020
0.0
1030
0.0
  0
LINE
  5
18E49
330
18
100
AcDbEntity
  8
1HATCH
  6
CONTINUOUS
100
AcDbLine
 10
-508.1822915267695
 20
-1406.00168623724
 30
0.0
 11
-503.1822915267695
 21
-1401.00168623724
 31
0.0
1001
ACAD
1010
0.0
1020
0.0
1030
0.0
  0
LINE
  5
18E4A
330
18
100
AcDbEntity
  8
1HATCH
  6
CONTINUOUS
100
AcDbLine
 10
-505.9372274965023
 20
-1406.00168623724
 30
0.0
 11
-500.9372274965023
 21
-1401.00168623724
 31
0.0
1001
ACAD
1010
0.0
1020
0.0
1030
0.0
  0
LINE
  5
18E4B
330
18
100
AcDbEntity
  8
1HATCH
  6
CONTINUOUS
100
AcDbLine
 10
-508.3214920182446
 20
-1410.63101478925
 30
0.0
 11
-503.6921634662349
 21
-1406.00168623724
 31
0.0
1001
ACAD
1010
0.0
1020
0.0
1030
0.0
  0
LINE
  5
18E4C
330
18
100
AcDbEntity
  8
1HATCH
  6
CONTINUOUS
100
AcDbLine
 10
-503.6921634662349
 20
-1406.00168623724
 30
0.0
 11
-498.6921634662349
 21
-1401.00168623724
 31
0.0
1001
ACAD
1010
0.0
1020
0.0
1030
0.0
  0
LINE
  5
18E4D
330
18
100
AcDbEntity
  8
1HATCH
  6
CONTINUOUS
100
AcDbLine
 10
-507.3226426083964
 20
-1411.877229409669
 30
0.0
 11
-501.4470994359677
 21
-1406.00168623724
 31
0.0
1001
ACAD
1010
0.0
1020
0.0
1030
0.0
  0
LINE
  5
18E4E
330
18
100
AcDbEntity
  8
1HATCH
  6
CONTINUOUS
100
AcDbLine
 10
-501.4470994359677
 20
-1406.00168623724
 30
0.0
 11
-496.4470994359677
 21
-1401.00168623724
 31
0.0
1001
ACAD
1010
0.0
1020
0.0
1030
0.0
  0
LINE
  5
18E4F
330
18
100
AcDbEntity
  8
1HATCH
  6
CONTINUOUS
100
AcDbLine
 10
-506.5018930571779
 20
-1413.301543888718
 30
0.0
 11
-499.2020354057004
 21
-1406.00168623724
 31
0.0
1001
ACAD
1010
0.0
1020
0.0
1030
0.0
  0
LINE
  5
18E50
330
18
100
AcDbEntity
  8
1HATCH
  6
CONTINUOUS
100
AcDbLine
 10
-499.2020354057004
 20
-1406.00168623724
 30
0.0
 11
-494.2020354057004
 21
-1401.00168623724
 31
0.0
1001
ACAD
1010
0.0
1020
0.0
1030
0.0
  0
LINE
  5
18E51
330
18
100
AcDbEntity
  8
1HATCH
  6
CONTINUOUS
100
AcDbLine
 10
-506.1209797975514
 20
-1415.165694659358
 30
0.0
 11
-496.9569713754331
 21
-1406.00168623724
 31
0.0
1001
ACAD
1010
0.0
1020
0.0
1030
0.0
  0
LINE
  5
18E52
330
18
100
AcDbEntity
  8
1HATCH
  6
CONTINUOUS
100
AcDbLine
 10
-496.9569713754331
 20
-1406.00168623724
 30
0.0
 11
-491.9569713754331
 21
-1401.00168623724
 31
0.0
1001
ACAD
1010
0.0
1020
0.0
1030
0.0
  0
LINE
  5
18E53
330
18
100
AcDbEntity
  8
1HATCH
  6
CONTINUOUS
100
AcDbLine
 10
-506.6711006536657
 20
-1417.96087954574
 30
0.0
 11
-494.7119073451658
 21
-1406.00168623724
 31
0.0
1001
ACAD
1010
0.0
1020
0.0
1030
0.0
  0
LINE
  5
18E54
330
18
100
AcDbEntity
  8
1HATCH
  6
CONTINUOUS
100
AcDbLine
 10
-494.7119073451658
 20
-1406.00168623724
 30
0.0
 11
-489.7119073451658
 21
-1401.00168623724
 31
0.0
1001
ACAD
1010
0.0
1020
0.0
1030
0.0
  0
LINE
  5
18E55
330
18
100
AcDbEntity
  8
1HATCH
  6
CONTINUOUS
100
AcDbLine
 10
-511.4668433148985
 20
-1425.00168623724
 30
0.0
 11
-492.4668433148985
 21
-1406.00168623724
 31
0.0
1001
ACAD
1010
0.0
1020
0.0
1030
0.0
  0
LINE
  5
18E56
330
18
100
AcDbEntity
  8
1HATCH
  6
CONTINUOUS
100
AcDbLine
 10
-509.2217792846312
 20
-1425.00168623724
 30
0.0
 11
-490.2217792846312
 21
-1406.00168623724
 31
0.0
1001
ACAD
1010
0.0
1020
0.0
1030
0.0
  0
LINE
  5
18E57
330
18
100
AcDbEntity
  8
1HATCH
  6
CONTINUOUS
100
AcDbLine
 10
-506.9767152543639
 20
-1425.00168623724
 30
0.0
 11
-487.9767152543639
 21
-1406.00168623724
 31
0.0
1001
ACAD
1010
0.0
1020
0.0
1030
0.0
  0
LINE
  5
18E58
330
18
100
AcDbEntity
  8
1HATCH
  6
CONTINUOUS
100
AcDbLine
 10
-504.7316512240967
 20
-1425.00168623724
 30
0.0
 11
-485.7316512240967
 21
-1406.00168623724
 31
0.0
1001
ACAD
1010
0.0
1020
0.0
1030
0.0
  0
LINE
  5
18E59
330
18
100
AcDbEntity
  8
1HATCH
  6
CONTINUOUS
100
AcDbLine
 10
-492.4668433148985
 20
-1406.00168623724
 30
0.0
 11
-487.4668433148985
 21
-1401.00168623724
 31
0.0
1001
ACAD
1010
0.0
1020
0.0
1030
0.0
  0
LINE
  5
18E5A
330
18
100
AcDbEntity
  8
1HATCH
  6
CONTINUOUS
100
AcDbLine
 10
-490.2217792846312
 20
-1406.00168623724
 30
0.0
 11
-485.2217792846312
 21
-1401.00168623724
 31
0.0
1001
ACAD
1010
0.0
1020
0.0
1030
0.0
  0
LINE
  5
18E5B
330
18
100
AcDbEntity
  8
1HATCH
  6
CONTINUOUS
100
AcDbLine
 10
-487.9767152543639
 20
-1406.00168623724
 30
0.0
 11
-482.9767152543639
 21
-1401.00168623724
 31
0.0
1001
ACAD
1010
0.0
1020
0.0
1030
0.0
  0
LINE
  5
18E5C
330
18
100
AcDbEntity
  8
1HATCH
  6
CONTINUOUS
100
AcDbLine
 10
-485.7316512240967
 20
-1406.00168623724
 30
0.0
 11
-480.7316512240967
 21
-1401.00168623724
 31
0.0
1001
ACAD
1010
0.0
1020
0.0
1030
0.0
  0
LINE
  5
18E5D
330
18
100
AcDbEntity
  8
1HATCH
  6
CONTINUOUS
100
AcDbLine
 10
-502.4865871938293
 20
-1425.00168623724
 30
0.0
 11
-496.1994535693094
 21
-1418.71455261272
 31
0.0
1001
ACAD
1010
0.0
1020
0.0
1030
0.0
  0
LINE
  5
18E5E
330
18
100
AcDbEntity
  8
1HATCH
  6
CONTINUOUS
100
AcDbLine
 10
-495.1363391302839
 20
-1417.651438173694
 30
0.0
 11
-483.4865871938293
 21
-1406.00168623724
 31
0.0
1001
ACAD
1010
0.0
1020
0.0
1030
0.0
  0
LINE
  5
18E5F
330
18
100
AcDbEntity
  8
1HATCH
  6
CONTINUOUS
100
AcDbLine
 10
-483.4865871938293
 20
-1406.00168623724
 30
0.0
 11
-478.4865871938293
 21
-1401.00168623724
 31
0.0
1001
ACAD
1010
0.0
1020
0.0
1030
0.0
  0
LINE
  5
18E60
330
18
100
AcDbEntity
  8
1HATCH
  6
CONTINUOUS
100
AcDbLine
 10
-500.2415231635621
 20
-1425.00168623724
 30
0.0
 11
-496.1912750999295
 21
-1420.951438173607
 31
0.0
1001
ACAD
1010
0.0
1020
0.0
1030
0.0
  0
LINE
  5
18E61
330
18
100
AcDbEntity
  8
1HATCH
  6
CONTINUOUS
100
AcDbLine
 10
-492.8912751000166
 20
-1417.651438173694
 30
0.0
 11
-481.2415231635621
 21
-1406.00168623724
 31
0.0
1001
ACAD
1010
0.0
1020
0.0
1030
0.0
  0
LINE
  5
18E62
330
18
100
AcDbEntity
  8
1HATCH
  6
CONTINUOUS
100
AcDbLine
 10
-481.2415231635621
 20
-1406.00168623724
 30
0.0
 11
-476.2415231635621
 21
-1401.00168623724
 31
0.0
1001
ACAD
1010
0.0
1020
0.0
1030
0.0
  0
LINE
  5
18E63
330
18
100
AcDbEntity
  8
1HATCH
  6
CONTINUOUS
100
AcDbLine
 10
-497.9964591332948
 20
-1425.00168623724
 30
0.0
 11
-493.9462110696622
 21
-1420.951438173607
 31
0.0
1001
ACAD
1010
0.0
1020
0.0
1030
0.0
  0
LINE
  5
18E64
330
18
100
AcDbEntity
  8
1HATCH
  6
CONTINUOUS
100
AcDbLine
 10
-495.7513951030275
 20
-1425.00168623724
 30
0.0
 11
-491.7011470393949
 21
-1420.951438173607
 31
0.0
1001
ACAD
1010
0.0
1020
0.0
1030
0.0
  0
LINE
  5
18E65
330
18
100
AcDbEntity
  8
1HATCH
  6
CONTINUOUS
100
AcDbLine
 10
-490.2962110697494
 20
-1417.301438173695
 30
0.0
 11
-478.9964591332948
 21
-1406.00168623724
 31
0.0
1001
ACAD
1010
0.0
1020
0.0
1030
0.0
  0
LINE
  5
18E66
330
18
100
AcDbEntity
  8
1HATCH
  6
CONTINUOUS
100
AcDbLine
 10
-488.0511470394821
 20
-1417.301438173695
 30
0.0
 11
-476.7513951030275
 21
-1406.00168623724
 31
0.0
1001
ACAD
1010
0.0
1020
0.0
1030
0.0
  0
LINE
  5
18E67
330
18
100
AcDbEntity
  8
1HATCH
  6
CONTINUOUS
100
AcDbLine
 10
-478.9964591332948
 20
-1406.00168623724
 30
0.0
 11
-473.9964591332948
 21
-1401.00168623724
 31
0.0
1001
ACAD
1010
0.0
1020
0.0
1030
0.0
  0
LINE
  5
18E68
330
18
100
AcDbEntity
  8
1HATCH
  6
CONTINUOUS
100
AcDbLine
 10
-476.7513951030275
 20
-1406.00168623724
 30
0.0
 11
-471.7513951030275
 21
-1401.00168623724
 31
0.0
1001
ACAD
1010
0.0
1020
0.0
1030
0.0
  0
LINE
  5
18E69
330
18
100
AcDbEntity
  8
1HATCH
  6
CONTINUOUS
100
AcDbLine
 10
-493.5063310727602
 20
-1425.00168623724
 30
0.0
 11
-489.8060830091275
 21
-1421.301438173607
 31
0.0
1001
ACAD
1010
0.0
1020
0.0
1030
0.0
  0
LINE
  5
18E6A
330
18
100
AcDbEntity
  8
1HATCH
  6
CONTINUOUS
100
AcDbLine
 10
-491.2612670424929
 20
-1425.00168623724
 30
0.0
 11
-487.5610189788603
 21
-1421.301438173607
 31
0.0
1001
ACAD
1010
0.0
1020
0.0
1030
0.0
  0
LINE
  5
18E6B
330
18
100
AcDbEntity
  8
1HATCH
  6
CONTINUOUS
100
AcDbLine
 10
-489.0162030122256
 20
-1425.00168623724
 30
0.0
 11
-485.3159549485929
 21
-1421.301438173607
 31
0.0
1001
ACAD
1010
0.0
1020
0.0
1030
0.0
  0
LINE
  5
18E6C
330
18
100
AcDbEntity
  8
1HATCH
  6
CONTINUOUS
100
AcDbLine
 10
-486.7711389819584
 20
-1425.00168623724
 30
0.0
 11
-483.0708909183257
 21
-1421.301438173607
 31
0.0
1001
ACAD
1010
0.0
1020
0.0
1030
0.0
  0
LINE
  5
18E6D
330
18
100
AcDbEntity
  8
1HATCH
  6
CONTINUOUS
100
AcDbLine
 10
-484.526074951691
 20
-1425.00168623724
 30
0.0
 11
-480.8258268880584
 21
-1421.301438173607
 31
0.0
1001
ACAD
1010
0.0
1020
0.0
1030
0.0
  0
LINE
  5
18E6E
330
18
100
AcDbEntity
  8
1HATCH
  6
CONTINUOUS
100
AcDbLine
 10
-485.8060830092148
 20
-1417.301438173695
 30
0.0
 11
-474.5063310727602
 21
-1406.00168623724
 31
0.0
1001
ACAD
1010
0.0
1020
0.0
1030
0.0
  0
LINE
  5
18E6F
330
18
100
AcDbEntity
  8
1HATCH
  6
CONTINUOUS
100
AcDbLine
 10
-483.5610189789476
 20
-1417.301438173695
 30
0.0
 11
-472.2612670424929
 21
-1406.00168623724
 31
0.0
1001
ACAD
1010
0.0
1020
0.0
1030
0.0
  0
LINE
  5
18E70
330
18
100
AcDbEntity
  8
1HATCH
  6
CONTINUOUS
100
AcDbLine
 10
-481.3159549486803
 20
-1417.301438173695
 30
0.0
 11
-470.0162030122256
 21
-1406.00168623724
 31
0.0
1001
ACAD
1010
0.0
1020
0.0
1030
0.0
  0
LINE
  5
18E71
330
18
100
AcDbEntity
  8
1HATCH
  6
CONTINUOUS
100
AcDbLine
 10
-479.070890918413
 20
-1417.301438173695
 30
0.0
 11
-467.7711389819584
 21
-1406.00168623724
 31
0.0
1001
ACAD
1010
0.0
1020
0.0
1030
0.0
  0
LINE
  5
18E72
330
18
100
AcDbEntity
  8
1HATCH
  6
CONTINUOUS
100
AcDbLine
 10
-476.8258268881457
 20
-1417.301438173695
 30
0.0
 11
-465.526074951691
 21
-1406.00168623724
 31
0.0
1001
ACAD
1010
0.0
1020
0.0
1030
0.0
  0
LINE
  5
18E73
330
18
100
AcDbEntity
  8
1HATCH
  6
CONTINUOUS
100
AcDbLine
 10
-474.5063310727602
 20
-1406.00168623724
 30
0.0
 11
-469.5063310727602
 21
-1401.00168623724
 31
0.0
1001
ACAD
1010
0.0
1020
0.0
1030
0.0
  0
LINE
  5
18E74
330
18
100
AcDbEntity
  8
1HATCH
  6
CONTINUOUS
100
AcDbLine
 10
-472.2612670424929
 20
-1406.00168623724
 30
0.0
 11
-467.2612670424929
 21
-1401.00168623724
 31
0.0
1001
ACAD
1010
0.0
1020
0.0
1030
0.0
  0
LINE
  5
18E75
330
18
100
AcDbEntity
  8
1HATCH
  6
CONTINUOUS
100
AcDbLine
 10
-470.0162030122256
 20
-1406.00168623724
 30
0.0
 11
-465.0162030122256
 21
-1401.00168623724
 31
0.0
1001
ACAD
1010
0.0
1020
0.0
1030
0.0
  0
LINE
  5
18E76
330
18
100
AcDbEntity
  8
1HATCH
  6
CONTINUOUS
100
AcDbLine
 10
-467.7711389819584
 20
-1406.00168623724
 30
0.0
 11
-462.7711389819584
 21
-1401.00168623724
 31
0.0
1001
ACAD
1010
0.0
1020
0.0
1030
0.0
  0
LINE
  5
18E77
330
18
100
AcDbEntity
  8
1HATCH
  6
CONTINUOUS
100
AcDbLine
 10
-465.526074951691
 20
-1406.00168623724
 30
0.0
 11
-460.526074951691
 21
-1401.00168623724
 31
0.0
1001
ACAD
1010
0.0
1020
0.0
1030
0.0
  0
LINE
  5
18E78
330
18
100
AcDbEntity
  8
1HATCH
  6
CONTINUOUS
100
AcDbLine
 10
-482.2810109214238
 20
-1425.00168623724
 30
0.0
 11
-478.5807628577911
 21
-1421.301438173607
 31
0.0
1001
ACAD
1010
0.0
1020
0.0
1030
0.0
  0
LINE
  5
18E79
330
18
100
AcDbEntity
  8
1HATCH
  6
CONTINUOUS
100
AcDbLine
 10
-474.2810109214236
 20
-1417.00168623724
 30
0.0
 11
-463.2810109214238
 21
-1406.00168623724
 31
0.0
1001
ACAD
1010
0.0
1020
0.0
1030
0.0
  0
LINE
  5
18E7A
330
18
100
AcDbEntity
  8
1HATCH
  6
CONTINUOUS
100
AcDbLine
 10
-463.2810109214238
 20
-1406.00168623724
 30
0.0
 11
-458.2810109214238
 21
-1401.00168623724
 31
0.0
1001
ACAD
1010
0.0
1020
0.0
1030
0.0
  0
LINE
  5
18E7B
330
18
100
AcDbEntity
  8
1HATCH
  6
CONTINUOUS
100
AcDbLine
 10
-480.0359468911565
 20
-1425.00168623724
 30
0.0
 11
-476.4177055823841
 21
-1421.383444928467
 31
0.0
1001
ACAD
1010
0.0
1020
0.0
1030
0.0
  0
LINE
  5
18E7C
330
18
100
AcDbEntity
  8
1HATCH
  6
CONTINUOUS
100
AcDbLine
 10
-472.0359468911564
 20
-1417.00168623724
 30
0.0
 11
-461.0359468911565
 21
-1406.00168623724
 31
0.0
1001
ACAD
1010
0.0
1020
0.0
1030
0.0
  0
LINE
  5
18E7D
330
18
100
AcDbEntity
  8
1HATCH
  6
CONTINUOUS
100
AcDbLine
 10
-461.0359468911565
 20
-1406.00168623724
 30
0.0
 11
-456.0359468911565
 21
-1401.00168623724
 31
0.0
1001
ACAD
1010
0.0
1020
0.0
1030
0.0
  0
LINE
  5
18E7E
330
18
100
AcDbEntity
  8
1HATCH
  6
CONTINUOUS
100
AcDbLine
 10
-477.7908828608892
 20
-1425.00168623724
 30
0.0
 11
-474.3908828608891
 21
-1421.60168623724
 31
0.0
1001
ACAD
1010
0.0
1020
0.0
1030
0.0
  0
LINE
  5
18E7F
330
18
100
AcDbEntity
  8
1HATCH
  6
CONTINUOUS
100
AcDbLine
 10
-469.7908828608892
 20
-1417.00168623724
 30
0.0
 11
-458.7908828608892
 21
-1406.00168623724
 31
0.0
1001
ACAD
1010
0.0
1020
0.0
1030
0.0
  0
LINE
  5
18E80
330
18
100
AcDbEntity
  8
1HATCH
  6
CONTINUOUS
100
AcDbLine
 10
-458.7908828608892
 20
-1406.00168623724
 30
0.0
 11
-453.7908828608892
 21
-1401.00168623724
 31
0.0
1001
ACAD
1010
0.0
1020
0.0
1030
0.0
  0
LINE
  5
18E81
330
18
100
AcDbEntity
  8
1HATCH
  6
CONTINUOUS
100
AcDbLine
 10
-475.5458188306219
 20
-1425.00168623724
 30
0.0
 11
-472.1458188306218
 21
-1421.60168623724
 31
0.0
1001
ACAD
1010
0.0
1020
0.0
1030
0.0
  0
LINE
  5
18E82
330
18
100
AcDbEntity
  8
1HATCH
  6
CONTINUOUS
100
AcDbLine
 10
-467.5458188306219
 20
-1417.00168623724
 30
0.0
 11
-456.5458188306219
 21
-1406.00168623724
 31
0.0
1001
ACAD
1010
0.0
1020
0.0
1030
0.0
  0
LINE
  5
18E83
330
18
100
AcDbEntity
  8
1HATCH
  6
CONTINUOUS
100
AcDbLine
 10
-456.5458188306219
 20
-1406.00168623724
 30
0.0
 11
-451.5908205389752
 21
-1401.046687945593
 31
0.0
1001
ACAD
1010
0.0
1020
0.0
1030
0.0
  0
LINE
  5
18E84
330
18
100
AcDbEntity
  8
1HATCH
  6
CONTINUOUS
100
AcDbLine
 10
-473.3007548003546
 20
-1425.00168623724
 30
0.0
 11
-469.9007548003545
 21
-1421.60168623724
 31
0.0
1001
ACAD
1010
0.0
1020
0.0
1030
0.0
  0
LINE
  5
18E85
330
18
100
AcDbEntity
  8
1HATCH
  6
CONTINUOUS
100
AcDbLine
 10
-465.3007548003546
 20
-1417.00168623724
 30
0.0
 11
-454.3007548003546
 21
-1406.00168623724
 31
0.0
1001
ACAD
1010
0.0
1020
0.0
1030
0.0
  0
LINE
  5
18E86
330
18
100
AcDbEntity
  8
1HATCH
  6
CONTINUOUS
100
AcDbLine
 10
-454.3007548003546
 20
-1406.00168623724
 30
0.0
 11
-451.1994642736119
 21
-1402.900395710497
 31
0.0
1001
ACAD
1010
0.0
1020
0.0
1030
0.0
  0
LINE
  5
18E87
330
18
100
AcDbEntity
  8
1HATCH
  6
CONTINUOUS
100
AcDbLine
 10
-471.0556907700873
 20
-1425.00168623724
 30
0.0
 11
-467.6556907700872
 21
-1421.60168623724
 31
0.0
1001
ACAD
1010
0.0
1020
0.0
1030
0.0
  0
LINE
  5
18E88
330
18
100
AcDbEntity
  8
1HATCH
  6
CONTINUOUS
100
AcDbLine
 10
-463.5102996055154
 20
-1417.456295072668
 30
0.0
 11
-452.0556907700873
 21
-1406.00168623724
 31
0.0
1001
ACAD
1010
0.0
1020
0.0
1030
0.0
  0
LINE
  5
18E89
330
18
100
AcDbEntity
  8
1HATCH
  6
CONTINUOUS
100
AcDbLine
 10
-452.0556907700873
 20
-1406.00168623724
 30
0.0
 11
-451.1994642736119
 21
-1405.145459740764
 31
0.0
1001
ACAD
1010
0.0
1020
0.0
1030
0.0
  0
LINE
  5
18E8A
330
18
100
AcDbEntity
  8
1HATCH
  6
CONTINUOUS
100
AcDbLine
 10
-468.81062673982
 20
-1425.00168623724
 30
0.0
 11
-465.4106267398199
 21
-1421.60168623724
 31
0.0
1001
ACAD
1010
0.0
1020
0.0
1030
0.0
  0
LINE
  5
18E8B
330
18
100
AcDbEntity
  8
1HATCH
  6
CONTINUOUS
100
AcDbLine
 10
-466.5655627095528
 20
-1425.00168623724
 30
0.0
 11
-463.1655627095527
 21
-1421.60168623724
 31
0.0
1001
ACAD
1010
0.0
1020
0.0
1030
0.0
  0
LINE
  5
18E8C
330
18
100
AcDbEntity
  8
1HATCH
  6
CONTINUOUS
100
AcDbLine
 10
-464.3204986792854
 20
-1425.00168623724
 30
0.0
 11
-460.9204986792854
 21
-1421.60168623724
 31
0.0
1001
ACAD
1010
0.0
1020
0.0
1030
0.0
  0
LINE
  5
18E8D
330
18
100
AcDbEntity
  8
1HATCH
  6
CONTINUOUS
100
AcDbLine
 10
-462.0754346490182
 20
-1425.00168623724
 30
0.0
 11
-458.6754346490181
 21
-1421.60168623724
 31
0.0
1001
ACAD
1010
0.0
1020
0.0
1030
0.0
  0
LINE
  5
18E8E
330
18
100
AcDbEntity
  8
1HATCH
  6
CONTINUOUS
100
AcDbLine
 10
-461.9880154083877
 20
-1418.179074905808
 30
0.0
 11
-451.1994642736119
 21
-1407.390523771032
 31
0.0
1001
ACAD
1010
0.0
1020
0.0
1030
0.0
  0
LINE
  5
18E8F
330
18
100
AcDbEntity
  8
1HATCH
  6
CONTINUOUS
100
AcDbLine
 10
-460.46573121126
 20
-1418.901854738947
 30
0.0
 11
-451.1994642736119
 21
-1409.635587801299
 31
0.0
1001
ACAD
1010
0.0
1020
0.0
1030
0.0
  0
LINE
  5
18E90
330
18
100
AcDbEntity
  8
1HATCH
  6
CONTINUOUS
100
AcDbLine
 10
-458.9434470141323
 20
-1419.624634572087
 30
0.0
 11
-451.1994642736119
 21
-1411.880651831566
 31
0.0
1001
ACAD
1010
0.0
1020
0.0
1030
0.0
  0
LINE
  5
18E91
330
18
100
AcDbEntity
  8
1HATCH
  6
CONTINUOUS
100
AcDbLine
 10
-457.4211628170047
 20
-1420.347414405226
 30
0.0
 11
-451.1994642736119
 21
-1414.125715861834
 31
0.0
1001
ACAD
1010
0.0
1020
0.0
1030
0.0
  0
LINE
  5
18E92
330
18
100
AcDbEntity
  8
1HATCH
  6
CONTINUOUS
100
AcDbLine
 10
-459.8303706187509
 20
-1425.00168623724
 30
0.0
 11
-451.199464273612
 21
-1416.370779892101
 31
0.0
1001
ACAD
1010
0.0
1020
0.0
1030
0.0
  0
LINE
  5
18E93
330
18
100
AcDbEntity
  8
1HATCH
  6
CONTINUOUS
100
AcDbLine
 10
-457.5853065884836
 20
-1425.00168623724
 30
0.0
 11
-451.199464273612
 21
-1418.615843922368
 31
0.0
1001
ACAD
1010
0.0
1020
0.0
1030
0.0
  0
LINE
  5
18E94
330
18
100
AcDbEntity
  8
1HATCH
  6
CONTINUOUS
100
AcDbLine
 10
-455.3402425582163
 20
-1425.00168623724
 30
0.0
 11
-451.199464273612
 21
-1420.860907952636
 31
0.0
1001
ACAD
1010
0.0
1020
0.0
1030
0.0
  0
LINE
  5
18E95
330
18
100
AcDbEntity
  8
1HATCH
  6
CONTINUOUS
100
AcDbLine
 10
-453.095178527949
 20
-1425.00168623724
 30
0.0
 11
-451.199464273612
 21
-1423.105971982903
 31
0.0
1001
ACAD
1010
0.0
1020
0.0
1030
0.0
  0
LINE
  5
18E97
330
18
100
AcDbEntity
  8
1DIM
100
AcDbLine
 10
-452.7208465769671
 20
-1420.014510212347
 30
0.0
 11
-433.2335788377567
 21
-1438.86800676683
 31
0.0
  0
LINE
  5
18E98
330
18
100
AcDbEntity
  8
1DIM
100
AcDbLine
 10
-433.2335788377567
 20
-1438.86800676683
 30
0.0
 11
-402.1835788377567
 21
-1438.86800676683
 31
0.0
  0
TEXT
  5
18E99
330
18
100
AcDbEntity
  8
1DIM
  6
CONTINUOUS
100
AcDbText
 10
-430.7669121710901
 20
-1438.16800676683
 30
0.0
 40
3.5
  1
スプリングピン
100
AcDbText
  0
LINE
  5
18E9A
330
18
100
AcDbEntity
  8
1HATCH
  6
CONTINUOUS
100
AcDbLine
 10
-469.2199566050969
 20
-1414.391913347625
 30
0.0
 11
-467.9797294936481
 21
-1413.151686236176
 31
0.0
1001
ACAD
1010
0.0
1020
0.0
1030
0.0
  0
LINE
  5
18E9B
330
18
100
AcDbEntity
  8
1HATCH
  6
CONTINUOUS
100
AcDbLine
 10
-467.9343958609844
 20
-1415.35141663378
 30
0.0
 11
-465.7346654633808
 21
-1413.151686236176
 31
0.0
1001
ACAD
1010
0.0
1020
0.0
1030
0.0
  0
LINE
  5
18E9C
330
18
100
AcDbEntity
  8
1HATCH
  6
CONTINUOUS
100
AcDbLine
 10
-466.4121481751586
 20
-1416.074232978222
 30
0.0
 11
-463.4896014331135
 21
-1413.151686236176
 31
0.0
1001
ACAD
1010
0.0
1020
0.0
1030
0.0
  0
LINE
  5
18E9D
330
18
100
AcDbEntity
  8
1HATCH
  6
CONTINUOUS
100
AcDbLine
 10
-464.8899004893327
 20
-1416.797049322663
 30
0.0
 11
-461.2445374028462
 21
-1413.151686236176
 31
0.0
1001
ACAD
1010
0.0
1020
0.0
1030
0.0
  0
LINE
  5
18E9E
330
18
100
AcDbEntity
  8
1HATCH
  6
CONTINUOUS
100
AcDbLine
 10
-463.3676528035068
 20
-1417.519865667104
 30
0.0
 11
-461.7553617442325
 21
-1415.90757460783
 31
0.0
1001
ACAD
1010
0.0
1020
0.0
1030
0.0
  0
LINE
  5
18E9F
330
18
100
AcDbEntity
  8
1HATCH
  6
CONTINUOUS
100
AcDbLine
 10
-459.7898021896431
 20
-1413.942015053241
 30
0.0
 11
-458.9994733725789
 21
-1413.151686236176
 31
0.0
1001
ACAD
1010
0.0
1020
0.0
1030
0.0
  0
LINE
  5
18EA0
330
18
100
AcDbEntity
  8
1HATCH
  6
CONTINUOUS
100
AcDbLine
 10
-461.8454051176809
 20
-1418.242682011546
 30
0.0
 11
-460.856290030577
 21
-1417.253566924442
 31
0.0
1001
ACAD
1010
0.0
1020
0.0
1030
0.0
  0
LINE
  5
18EA1
330
18
100
AcDbEntity
  8
1HATCH
  6
CONTINUOUS
100
AcDbLine
 10
-458.1716984362527
 20
-1414.568975330117
 30
0.0
 11
-456.7544093423116
 21
-1413.151686236176
 31
0.0
1001
ACAD
1010
0.0
1020
0.0
1030
0.0
  0
LINE
  5
18EA2
330
18
100
AcDbEntity
  8
1HATCH
  6
CONTINUOUS
100
AcDbLine
 10
-460.3231574318551
 20
-1418.965498355987
 30
0.0
 11
-459.3516048543248
 21
-1417.993945778457
 31
0.0
1001
ACAD
1010
0.0
1020
0.0
1030
0.0
  0
LINE
  5
18EA3
330
18
100
AcDbEntity
  8
1HATCH
  6
CONTINUOUS
100
AcDbLine
 10
-456.6494507503753
 20
-1415.291791674507
 30
0.0
 11
-454.5093453120443
 21
-1413.151686236176
 31
0.0
1001
ACAD
1010
0.0
1020
0.0
1030
0.0
  0
LINE
  5
18EA4
330
18
100
AcDbEntity
  8
1HATCH
  6
CONTINUOUS
100
AcDbLine
 10
-458.8009097460292
 20
-1419.688314700428
 30
0.0
 11
-457.829357168499
 21
-1418.716762122898
 31
0.0
1001
ACAD
1010
0.0
1020
0.0
1030
0.0
  0
LINE
  5
18EA5
330
18
100
AcDbEntity
  8
1HATCH
  6
CONTINUOUS
100
AcDbLine
 10
-456.7891370641623
 20
-1417.676542018562
 30
0.0
 11
-455.5746084932805
 21
-1416.46201344768
 31
0.0
1001
ACAD
1010
0.0
1020
0.0
1030
0.0
  0
LINE
  5
18EA6
330
18
100
AcDbEntity
  8
1HATCH
  6
CONTINUOUS
100
AcDbLine
 10
-455.127203064498
 20
-1416.014608018897
 30
0.0
 11
-452.4709613639355
 21
-1413.358366318335
 31
0.0
1001
ACAD
1010
0.0
1020
0.0
1030
0.0
  0
LINE
  5
18EA7
330
18
100
AcDbEntity
  8
1HATCH
  6
CONTINUOUS
100
AcDbLine
 10
-457.2786620602033
 20
-1420.41113104487
 30
0.0
 11
-456.3071094826731
 21
-1419.43957846734
 31
0.0
1001
ACAD
1010
0.0
1020
0.0
1030
0.0
  0
LINE
  5
18EA8
330
18
100
AcDbEntity
  8
1HATCH
  6
CONTINUOUS
100
AcDbLine
 10
-456.0748505777805
 20
-1419.207319562447
 30
0.0
 11
-454.043830949395
 21
-1417.176299934062
 31
0.0
1001
ACAD
1010
0.0
1020
0.0
1030
0.0
  0
LINE
  5
18EA9
330
18
100
AcDbEntity
  8
1HATCH
  6
CONTINUOUS
100
AcDbLine
 10
-453.8469206039414
 20
-1416.979389588608
 30
0.0
 11
-452.3494642758515
 21
-1415.481933260518
 31
0.0
1001
ACAD
1010
0.0
1020
0.0
1030
0.0
  0
LINE
  5
18EAA
330
18
100
AcDbEntity
  8
1HATCH
  6
CONTINUOUS
100
AcDbLine
 10
-455.7564143743774
 20
-1421.133947389311
 30
0.0
 11
-452.3494642758516
 21
-1417.726997290785
 31
0.0
1001
ACAD
1010
0.0
1020
0.0
1030
0.0
  0
LINE
  5
18EAB
330
18
100
AcDbEntity
  8
1HATCH
  6
CONTINUOUS
100
AcDbLine
 10
-454.2341666885515
 20
-1421.856763733753
 30
0.0
 11
-452.3494642758516
 21
-1419.972061321053
 31
0.0
1001
ACAD
1010
0.0
1020
0.0
1030
0.0
  0
LINE
  5
18EAC
330
18
100
AcDbEntity
  8
1TEXT2
100
AcDbLine
 10
-1351.199464273612
 20
-1496.366051408029
 30
0.0
 11
-1351.199464273612
 21
-1574.644616094246
 31
0.0
1001
ACAD
1000
DSTYLE
1002
{
1070
    40
1040
5.0
1002
}
  0
LINE
  5
18EAD
330
18
100
AcDbEntity
  8
1TEXT2
100
AcDbLine
 10
-451.199464273612
 20
-1496.366051408029
 30
0.0
 11
-451.199464273612
 21
-1574.644616094246
 31
0.0
1001
ACAD
1000
DSTYLE
1002
{
1070
    40
1040
5.0
1002
}
  0
LINE
  5
18EAE
330
18
100
AcDbEntity
  8
1TEXT2
100
AcDbLine
 10
-1341.199464273612
 20
-1569.644616094246
 30
0.0
 11
-461.199464273612
 21
-1569.644616094246
 31
0.0
1001
ACAD
1000
DSTYLE
1002
{
1070
    40
1040
5.0
1002
}
  0
LINE
  5
18EB2
330
18
100
AcDbEntity
  8
1TEXT2
100
AcDbLine
 10
-451.199464273612
 20
-1496.366051408029
 30
0.0
 11
-451.199464273612
 21
-1532.2385904852
 31
0.0
1001
ACAD
1000
DSTYLE
1002
{
1070
    40
1040
5.0
1002
}
  0
LINE
  5
18EB3
330
18
100
AcDbEntity
  8
1TEXT2
100
AcDbLine
 10
-601.199464273612
 20
-1496.866051408029
 30
0.0
 11
-601.199464273612
 21
-1532.2385904852
 31
0.0
1001
ACAD
1000
DSTYLE
1002
{
1070
    40
1040
5.0
1002
}
  0
LINE
  5
18EB4
330
18
100
AcDbEntity
  8
1TEXT2
100
AcDbLine
 10
-461.199464273612
 20
-1527.2385904852
 30
0.0
 11
-591.199464273612
 21
-1527.2385904852
 31
0.0
1001
ACAD
1000
DSTYLE
1002
{
1070
    40
1040
5.0
1002
}
  0
LINE
  5
18EB8
330
18
100
AcDbEntity
  8
1TEXT2
100
AcDbLine
 10
-601.199464273612
 20
-1496.866051408029
 30
0.0
 11
-601.199464273612
 21
-1532.2385904852
 31
0.0
1001
ACAD
1000
DSTYLE
1002
{
1070
    40
1040
5.0
1002
}
  0
LINE
  5
18EB9
330
18
100
AcDbEntity
  8
1TEXT2
100
AcDbLine
 10
-801.199464273612
 20
-1504.875333854617
 30
0.0
 11
-801.199464273612
 21
-1532.2385904852
 31
0.0
1001
ACAD
1000
DSTYLE
1002
{
1070
    40
1040
5.0
1002
}
  0
LINE
  5
18EBA
330
18
100
AcDbEntity
  8
1TEXT2
100
AcDbLine
 10
-611.199464273612
 20
-1527.2385904852
 30
0.0
 11
-791.199464273612
 21
-1527.2385904852
 31
0.0
1001
ACAD
1000
DSTYLE
1002
{
1070
    40
1040
5.0
1002
}
  0
LINE
  5
18EBE
330
18
100
AcDbEntity
  8
1TEXT2
100
AcDbLine
 10
-1351.199464273612
 20
-1496.366051408029
 30
0.0
 11
-1351.199464273612
 21
-1532.2385904852
 31
0.0
1001
ACAD
1000
DSTYLE
1002
{
1070
    40
1040
5.0
1002
}
  0
LINE
  5
18EBF
330
18
100
AcDbEntity
  8
1TEXT2
100
AcDbLine
 10
-1201.199464273612
 20
-1504.375333854617
 30
0.0
 11
-1201.199464273612
 21
-1532.2385904852
 31
0.0
1001
ACAD
1000
DSTYLE
1002
{
1070
    40
1040
5.0
1002
}
  0
LINE
  5
18EC0
330
18
100
AcDbEntity
  8
1TEXT2
100
AcDbLine
 10
-1341.199464273612
 20
-1527.2385904852
 30
0.0
 11
-1211.199464273612
 21
-1527.2385904852
 31
0.0
1001
ACAD
1000
DSTYLE
1002
{
1070
    40
1040
5.0
1002
}
  0
LINE
  5
18EC4
330
18
100
AcDbEntity
  8
1TEXT2
100
AcDbLine
 10
-1201.199464273612
 20
-1504.375333854617
 30
0.0
 11
-1201.199464273612
 21
-1531.7385904852
 31
0.0
1001
ACAD
1000
DSTYLE
1002
{
1070
    40
1040
5.0
1002
}
  0
LINE
  5
18EC5
330
18
100
AcDbEntity
  8
1TEXT2
100
AcDbLine
 10
-1001.199464273612
 20
-1504.375333854617
 30
0.0
 11
-1001.199464273612
 21
-1531.7385904852
 31
0.0
1001
ACAD
1000
DSTYLE
1002
{
1070
    40
1040
5.0
1002
}
  0
LINE
  5
18EC6
330
18
100
AcDbEntity
  8
1TEXT2
100
AcDbLine
 10
-1191.199464273612
 20
-1526.7385904852
 30
0.0
 11
-1011.199464273612
 21
-1526.7385904852
 31
0.0
1001
ACAD
1000
DSTYLE
1002
{
1070
    40
1040
5.0
1002
}
  0
LINE
  5
18ECA
330
18
100
AcDbEntity
  8
1DIM
100
AcDbLine
 10
-451.199464273612
 20
-1424.50168623724
 30
0.0
 11
-451.199464273612
 21
-1430.773945223453
 31
0.0
  0
LINE
  5
18ECB
330
18
100
AcDbEntity
  8
1DIM
100
AcDbLine
 10
-401.199464273612
 20
-1424.50168623724
 30
0.0
 11
-401.199464273612
 21
-1430.773945223453
 31
0.0
  0
LINE
  5
18ECC
330
18
100
AcDbEntity
  8
1DIM
100
AcDbLine
 10
-449.199464273612
 20
-1429.773945223453
 30
0.0
 11
-403.199464273612
 21
-1429.773945223453
 31
0.0
  0
TEXT
  5
18ED0
330
18
100
AcDbEntity
  8
1DIM
  6
CONTINUOUS
100
AcDbText
 10
-398.7830020688571
 20
-1424.75575052435
 30
0.0
 40
3.5
  1
製品の取り付けのため
100
AcDbText
  0
TEXT
  5
18ED1
330
18
100
AcDbEntity
  8
1DIM
  6
CONTINUOUS
100
AcDbText
 10
-398.5496687355237
 20
-1430.593944968795
 30
0.0
 40
3.5
  1
側面より50ミリ以上の空間が必要
100
AcDbText
  0
LINE
  5
18ED3
330
18
100
AcDbEntity
  8
1DIM
100
AcDbLine
 10
-397.9195147057297
 20
-1520.621541222354
 30
0.0
 11
-387.2849720858715
 21
-1532.579524975074
 31
0.0
  0
LINE
  5
18ED4
330
18
100
AcDbEntity
  8
1DIM
100
AcDbLine
 10
-387.2849720858715
 20
-1532.579524975074
 30
0.0
 11
-343.1349720858715
 21
-1532.579524975074
 31
0.0
  0
TEXT
  5
18ED5
330
18
100
AcDbEntity
  8
1DIM
  6
CONTINUOUS
100
AcDbText
 10
-385.1683054192048
 20
-1531.879524975074
 30
0.0
 40
3.5
  1
コンパネ等9mm以上
100
AcDbText
  0
LINE
  5
18ED6
330
18
100
AcDbEntity
  8
1DIM
100
AcDbLine
 10
-405.8501300520976
 20
-1526.826965868041
 30
0.0
 11
-405.8501300520976
 21
-1549.735790981144
 31
0.0
1001
ACAD
1000
DSTYLE
1002
{
1070
    45
1040
0.5
1002
}
  0
LINE
  5
18ED7
330
18
100
AcDbEntity
  8
1DIM
100
AcDbLine
 10
-420.6001300520977
 20
-1496.866051408029
 30
0.0
 11
-420.6001300520977
 21
-1549.735790981144
 31
0.0
1001
ACAD
1000
DSTYLE
1002
{
1070
    45
1040
0.5
1002
}
  0
LINE
  5
18ED8
330
18
100
AcDbEntity
  8
1DIM
100
AcDbLine
 10
-407.8501300520976
 20
-1548.735790981144
 30
0.0
 11
-418.6001300520977
 21
-1548.735790981144
 31
0.0
1001
ACAD
1000
DSTYLE
1002
{
1070
    45
1040
0.5
1002
}
  0
LINE
  5
18EDC
330
18
100
AcDbEntity
  8
1DIM
100
AcDbLine
 10
-401.199464273612
 20
-1424.50168623724
 30
0.0
 11
-401.199464273612
 21
-1402.497298987657
 31
0.0
  0
LINE
  5
18EDD
330
18
100
AcDbEntity
  8
1HATCH
  6
CONTINUOUS
100
AcDbLine
 10
-437.2855602081054
 20
-1498.994629128088
 30
0.0
 11
-435.5424218718541
 21
-1497.251490791837
 31
0.0
1001
ACAD
1010
0.0
1020
0.0
1030
0.0
  0
LINE
  5
18EDE
330
18
100
AcDbEntity
  8
1HATCH
  6
CONTINUOUS
100
AcDbLine
 10
-435.156982488046
 20
-1496.866051408029
 30
0.0
 11
-435.156982488046
 21
-1496.866051408029
 31
0.0
1001
ACAD
1010
0.0
1020
0.0
1030
0.0
  0
LINE
  5
18EDF
330
18
100
AcDbEntity
  8
1HATCH
  6
CONTINUOUS
100
AcDbLine
 10
-437.2855602081054
 20
-1501.239693158355
 30
0.0
 11
-436.3843208832044
 21
-1500.338453833454
 31
0.0
1001
ACAD
1010
0.0
1020
0.0
1030
0.0
  0
LINE
  5
18EE0
330
18
100
AcDbEntity
  8
1HATCH
  6
CONTINUOUS
100
AcDbLine
 10
-435.8230548756376
 20
-1499.777187825887
 30
0.0
 11
-435.8230548756376
 21
-1499.777187825887
 31
0.0
1001
ACAD
1010
0.0
1020
0.0
1030
0.0
  0
LINE
  5
18EE1
330
18
100
AcDbEntity
  8
1HATCH
  6
CONTINUOUS
100
AcDbLine
 10
-435.2617888680708
 20
-1499.215921818321
 30
0.0
 11
-432.9119184577788
 21
-1496.866051408029
 31
0.0
1001
ACAD
1010
0.0
1020
0.0
1030
0.0
  0
LINE
  5
18EE2
330
18
100
AcDbEntity
  8
1HATCH
  6
CONTINUOUS
100
AcDbLine
 10
-432.9119184577788
 20
-1496.866051408029
 30
0.0
 11
-432.9119184577788
 21
-1496.866051408029
 31
0.0
1001
ACAD
1010
0.0
1020
0.0
1030
0.0
  0
LINE
  5
18EE3
330
18
100
AcDbEntity
  8
1HATCH
  6
CONTINUOUS
100
AcDbLine
 10
-437.2855602081054
 20
-1503.484757188623
 30
0.0
 11
-437.2262198945545
 21
-1503.425416875072
 31
0.0
1001
ACAD
1010
0.0
1020
0.0
1030
0.0
  0
LINE
  5
18EE4
330
18
100
AcDbEntity
  8
1HATCH
  6
CONTINUOUS
100
AcDbLine
 10
-436.6649538869877
 20
-1502.864150867505
 30
0.0
 11
-436.6649538869877
 21
-1502.864150867505
 31
0.0
1001
ACAD
1010
0.0
1020
0.0
1030
0.0
  0
LINE
  5
18EE5
330
18
100
AcDbEntity
  8
1HATCH
  6
CONTINUOUS
100
AcDbLine
 10
-436.1036878794209
 20
-1502.302884859938
 30
0.0
 11
-433.2973578415867
 21
-1499.496554822104
 31
0.0
1001
ACAD
1010
0.0
1020
0.0
1030
0.0
  0
LINE
  5
18EE6
330
18
100
AcDbEntity
  8
1HATCH
  6
CONTINUOUS
100
AcDbLine
 10
-432.7360918340199
 20
-1498.935288814537
 30
0.0
 11
-432.7360918340199
 21
-1498.935288814537
 31
0.0
1001
ACAD
1010
0.0
1020
0.0
1030
0.0
  0
LINE
  5
18EE7
330
18
100
AcDbEntity
  8
1HATCH
  6
CONTINUOUS
100
AcDbLine
 10
-432.1748258264531
 20
-1498.37402280697
 30
0.0
 11
-430.6668544275115
 21
-1496.866051408029
 31
0.0
1001
ACAD
1010
0.0
1020
0.0
1030
0.0
  0
LINE
  5
18EE8
330
18
100
AcDbEntity
  8
1HATCH
  6
CONTINUOUS
100
AcDbLine
 10
-430.6668544275115
 20
-1496.866051408029
 30
0.0
 11
-430.6668544275115
 21
-1496.866051408029
 31
0.0
1001
ACAD
1010
0.0
1020
0.0
1030
0.0
  0
LINE
  5
18EE9
330
18
100
AcDbEntity
  8
1HATCH
  6
CONTINUOUS
100
AcDbLine
 10
-436.9455868907712
 20
-1505.389847901556
 30
0.0
 11
-434.139256852937
 21
-1502.583517863721
 31
0.0
1001
ACAD
1010
0.0
1020
0.0
1030
0.0
  0
LINE
  5
18EEA
330
18
100
AcDbEntity
  8
1HATCH
  6
CONTINUOUS
100
AcDbLine
 10
-433.5779908453702
 20
-1502.022251856155
 30
0.0
 11
-433.5779908453702
 21
-1502.022251856155
 31
0.0
1001
ACAD
1010
0.0
1020
0.0
1030
0.0
  0
LINE
  5
18EEB
330
18
100
AcDbEntity
  8
1HATCH
  6
CONTINUOUS
100
AcDbLine
 10
-433.0167248378034
 20
-1501.460985848588
 30
0.0
 11
-430.2103947999693
 21
-1498.654655810754
 31
0.0
1001
ACAD
1010
0.0
1020
0.0
1030
0.0
  0
LINE
  5
18EEC
330
18
100
AcDbEntity
  8
1HATCH
  6
CONTINUOUS
100
AcDbLine
 10
-429.6491287924025
 20
-1498.093389803187
 30
0.0
 11
-429.6491287924025
 21
-1498.093389803187
 31
0.0
1001
ACAD
1010
0.0
1020
0.0
1030
0.0
  0
LINE
  5
18EED
330
18
100
AcDbEntity
  8
1HATCH
  6
CONTINUOUS
100
AcDbLine
 10
-429.0878627848356
 20
-1497.53212379562
 30
0.0
 11
-428.4217903972443
 21
-1496.866051408029
 31
0.0
1001
ACAD
1010
0.0
1020
0.0
1030
0.0
  0
LINE
  5
18EEE
330
18
100
AcDbEntity
  8
1HATCH
  6
CONTINUOUS
100
AcDbLine
 10
-428.4217903972443
 20
-1496.866051408029
 30
0.0
 11
-428.4217903972443
 21
-1496.866051408029
 31
0.0
1001
ACAD
1010
0.0
1020
0.0
1030
0.0
  0
LINE
  5
18EEF
330
18
100
AcDbEntity
  8
1HATCH
  6
CONTINUOUS
100
AcDbLine
 10
-437.2855602081054
 20
-1507.974885249157
 30
0.0
 11
-434.9811558642873
 21
-1505.670480905339
 31
0.0
1001
ACAD
1010
0.0
1020
0.0
1030
0.0
  0
LINE
  5
18EF0
330
18
100
AcDbEntity
  8
1HATCH
  6
CONTINUOUS
100
AcDbLine
 10
-434.4198898567205
 20
-1505.109214897772
 30
0.0
 11
-434.4198898567205
 21
-1505.109214897772
 31
0.0
1001
ACAD
1010
0.0
1020
0.0
1030
0.0
  0
LINE
  5
18EF1
330
18
100
AcDbEntity
  8
1HATCH
  6
CONTINUOUS
100
AcDbLine
 10
-433.8586238491537
 20
-1504.547948890205
 30
0.0
 11
-431.0522938113195
 21
-1501.741618852371
 31
0.0
1001
ACAD
1010
0.0
1020
0.0
1030
0.0
  0
LINE
  5
18EF2
330
18
100
AcDbEntity
  8
1HATCH
  6
CONTINUOUS
100
AcDbLine
 10
-430.4910278037527
 20
-1501.180352844804
 30
0.0
 11
-430.4910278037527
 21
-1501.180352844804
 31
0.0
1001
ACAD
1010
0.0
1020
0.0
1030
0.0
  0
LINE
  5
18EF3
330
18
100
AcDbEntity
  8
1HATCH
  6
CONTINUOUS
100
AcDbLine
 10
-429.9297617961859
 20
-1500.619086837238
 30
0.0
 11
-427.1234317583518
 21
-1497.812756799404
 31
0.0
1001
ACAD
1010
0.0
1020
0.0
1030
0.0
  0
LINE
  5
18EF4
330
18
100
AcDbEntity
  8
1HATCH
  6
CONTINUOUS
100
AcDbLine
 10
-426.562165750785
 20
-1497.251490791837
 30
0.0
 11
-426.562165750785
 21
-1497.251490791837
 31
0.0
1001
ACAD
1010
0.0
1020
0.0
1030
0.0
  0
LINE
  5
18EF5
330
18
100
AcDbEntity
  8
1HATCH
  6
CONTINUOUS
100
AcDbLine
 10
-436.9316623367102
 20
-1509.866051408029
 30
0.0
 11
-435.8230548756375
 21
-1508.757443946957
 31
0.0
1001
ACAD
1010
0.0
1020
0.0
1030
0.0
  0
LINE
  5
18EF6
330
18
100
AcDbEntity
  8
1HATCH
  6
CONTINUOUS
100
AcDbLine
 10
-435.2617888680707
 20
-1508.19617793939
 30
0.0
 11
-435.2617888680707
 21
-1508.19617793939
 31
0.0
1001
ACAD
1010
0.0
1020
0.0
1030
0.0
  0
LINE
  5
18EF7
330
18
100
AcDbEntity
  8
1HATCH
  6
CONTINUOUS
100
AcDbLine
 10
-434.7005228605039
 20
-1507.634911931823
 30
0.0
 11
-431.8941928226698
 21
-1504.828581893989
 31
0.0
1001
ACAD
1010
0.0
1020
0.0
1030
0.0
  0
LINE
  5
18EF8
330
18
100
AcDbEntity
  8
1HATCH
  6
CONTINUOUS
100
AcDbLine
 10
-431.332926815103
 20
-1504.267315886422
 30
0.0
 11
-431.332926815103
 21
-1504.267315886422
 31
0.0
1001
ACAD
1010
0.0
1020
0.0
1030
0.0
  0
LINE
  5
18EF9
330
18
100
AcDbEntity
  8
1HATCH
  6
CONTINUOUS
100
AcDbLine
 10
-430.7716608075361
 20
-1503.706049878855
 30
0.0
 11
-427.9653307697021
 21
-1500.899719841021
 31
0.0
1001
ACAD
1010
0.0
1020
0.0
1030
0.0
  0
LINE
  5
18EFA
330
18
100
AcDbEntity
  8
1HATCH
  6
CONTINUOUS
100
AcDbLine
 10
-427.4040647621352
 20
-1500.338453833454
 30
0.0
 11
-427.4040647621352
 21
-1500.338453833454
 31
0.0
1001
ACAD
1010
0.0
1020
0.0
1030
0.0
  0
LINE
  5
18EFB
330
18
100
AcDbEntity
  8
1HATCH
  6
CONTINUOUS
100
AcDbLine
 10
-426.8427987545684
 20
-1499.777187825887
 30
0.0
 11
-424.0364687167343
 21
-1496.970857788053
 31
0.0
1001
ACAD
1010
0.0
1020
0.0
1030
0.0
  0
LINE
  5
18EFC
330
18
100
AcDbEntity
  8
1HATCH
  6
CONTINUOUS
100
AcDbLine
 10
-423.9316623367097
 20
-1496.866051408029
 30
0.0
 11
-423.9316623367097
 21
-1496.866051408029
 31
0.0
1001
ACAD
1010
0.0
1020
0.0
1030
0.0
  0
LINE
  5
18EFD
330
18
100
AcDbEntity
  8
1HATCH
  6
CONTINUOUS
100
AcDbLine
 10
-434.6865983064429
 20
-1509.866051408029
 30
0.0
 11
-432.73609183402
 21
-1507.915544935606
 31
0.0
1001
ACAD
1010
0.0
1020
0.0
1030
0.0
  0
LINE
  5
18EFE
330
18
100
AcDbEntity
  8
1HATCH
  6
CONTINUOUS
100
AcDbLine
 10
-432.1748258264532
 20
-1507.35427892804
 30
0.0
 11
-432.1748258264532
 21
-1507.35427892804
 31
0.0
1001
ACAD
1010
0.0
1020
0.0
1030
0.0
  0
LINE
  5
18EFF
330
18
100
AcDbEntity
  8
1HATCH
  6
CONTINUOUS
100
AcDbLine
 10
-431.6135598188864
 20
-1506.793012920473
 30
0.0
 11
-428.8072297810523
 21
-1503.986682882639
 31
0.0
1001
ACAD
1010
0.0
1020
0.0
1030
0.0
  0
LINE
  5
18F00
330
18
100
AcDbEntity
  8
1HATCH
  6
CONTINUOUS
100
AcDbLine
 10
-428.2459637734855
 20
-1503.425416875072
 30
0.0
 11
-428.2459637734855
 21
-1503.425416875072
 31
0.0
1001
ACAD
1010
0.0
1020
0.0
1030
0.0
  0
LINE
  5
18F01
330
18
100
AcDbEntity
  8
1HATCH
  6
CONTINUOUS
100
AcDbLine
 10
-427.6846977659187
 20
-1502.864150867505
 30
0.0
 11
-424.8783677280845
 21
-1500.057820829671
 31
0.0
1001
ACAD
1010
0.0
1020
0.0
1030
0.0
  0
LINE
  5
18F02
330
18
100
AcDbEntity
  8
1HATCH
  6
CONTINUOUS
100
AcDbLine
 10
-424.3171017205177
 20
-1499.496554822104
 30
0.0
 11
-424.3171017205177
 21
-1499.496554822104
 31
0.0
1001
ACAD
1010
0.0
1020
0.0
1030
0.0
  0
LINE
  5
18F03
330
18
100
AcDbEntity
  8
1HATCH
  6
CONTINUOUS
100
AcDbLine
 10
-423.7558357129509
 20
-1498.935288814537
 30
0.0
 11
-421.6865983064425
 21
-1496.866051408029
 31
0.0
1001
ACAD
1010
0.0
1020
0.0
1030
0.0
  0
LINE
  5
18F04
330
18
100
AcDbEntity
  8
1HATCH
  6
CONTINUOUS
100
AcDbLine
 10
-421.6865983064425
 20
-1496.866051408029
 30
0.0
 11
-421.6865983064425
 21
-1496.866051408029
 31
0.0
1001
ACAD
1010
0.0
1020
0.0
1030
0.0
  0
LINE
  5
18F05
330
18
100
AcDbEntity
  8
1HATCH
  6
CONTINUOUS
100
AcDbLine
 10
-432.4415342761757
 20
-1509.866051408029
 30
0.0
 11
-429.6491287924024
 21
-1507.073645924256
 31
0.0
1001
ACAD
1010
0.0
1020
0.0
1030
0.0
  0
LINE
  5
18F06
330
18
100
AcDbEntity
  8
1HATCH
  6
CONTINUOUS
100
AcDbLine
 10
-429.0878627848356
 20
-1506.512379916689
 30
0.0
 11
-429.0878627848356
 21
-1506.512379916689
 31
0.0
1001
ACAD
1010
0.0
1020
0.0
1030
0.0
  0
LINE
  5
18F07
330
18
100
AcDbEntity
  8
1HATCH
  6
CONTINUOUS
100
AcDbLine
 10
-428.5265967772688
 20
-1505.951113909122
 30
0.0
 11
-425.7202667394346
 21
-1503.144783871288
 31
0.0
1001
ACAD
1010
0.0
1020
0.0
1030
0.0
  0
LINE
  5
18F08
330
18
100
AcDbEntity
  8
1HATCH
  6
CONTINUOUS
100
AcDbLine
 10
-425.1590007318678
 20
-1502.583517863721
 30
0.0
 11
-425.1590007318678
 21
-1502.583517863721
 31
0.0
1001
ACAD
1010
0.0
1020
0.0
1030
0.0
  0
LINE
  5
18F09
330
18
100
AcDbEntity
  8
1HATCH
  6
CONTINUOUS
100
AcDbLine
 10
-424.597734724301
 20
-1502.022251856155
 30
0.0
 11
-421.7914046864669
 21
-1499.215921818321
 31
0.0
1001
ACAD
1010
0.0
1020
0.0
1030
0.0
  0
LINE
  5
18F0A
330
18
100
AcDbEntity
  8
1HATCH
  6
CONTINUOUS
100
AcDbLine
 10
-421.2301386789001
 20
-1498.654655810754
 30
0.0
 11
-421.2301386789001
 21
-1498.654655810754
 31
0.0
1001
ACAD
1010
0.0
1020
0.0
1030
0.0
  0
LINE
  5
18F0B
330
18
100
AcDbEntity
  8
1HATCH
  6
CONTINUOUS
100
AcDbLine
 10
-420.6688726713332
 20
-1498.093389803187
 30
0.0
 11
-419.4415342761752
 21
-1496.866051408029
 31
0.0
1001
ACAD
1010
0.0
1020
0.0
1030
0.0
  0
LINE
  5
18F0C
330
18
100
AcDbEntity
  8
1HATCH
  6
CONTINUOUS
100
AcDbLine
 10
-419.4415342761752
 20
-1496.866051408029
 30
0.0
 11
-419.4415342761752
 21
-1496.866051408029
 31
0.0
1001
ACAD
1010
0.0
1020
0.0
1030
0.0
  0
LINE
  5
18F0D
330
18
100
AcDbEntity
  8
1HATCH
  6
CONTINUOUS
100
AcDbLine
 10
-429.9297617961859
 20
-1509.599342958307
 30
0.0
 11
-429.9297617961859
 21
-1509.599342958307
 31
0.0
1001
ACAD
1010
0.0
1020
0.0
1030
0.0
  0
LINE
  5
18F0E
330
18
100
AcDbEntity
  8
1HATCH
  6
CONTINUOUS
100
AcDbLine
 10
-429.368495788619
 20
-1509.03807695074
 30
0.0
 11
-426.5621657507849
 21
-1506.231746912906
 31
0.0
1001
ACAD
1010
0.0
1020
0.0
1030
0.0
  0
LINE
  5
18F0F
330
18
100
AcDbEntity
  8
1HATCH
  6
CONTINUOUS
100
AcDbLine
 10
-426.0008997432181
 20
-1505.670480905339
 30
0.0
 11
-426.0008997432181
 21
-1505.670480905339
 31
0.0
1001
ACAD
1010
0.0
1020
0.0
1030
0.0
  0
LINE
  5
18F10
330
18
100
AcDbEntity
  8
1HATCH
  6
CONTINUOUS
100
AcDbLine
 10
-425.4396337356513
 20
-1505.109214897772
 30
0.0
 11
-422.6333036978172
 21
-1502.302884859938
 31
0.0
1001
ACAD
1010
0.0
1020
0.0
1030
0.0
  0
LINE
  5
18F11
330
18
100
AcDbEntity
  8
1HATCH
  6
CONTINUOUS
100
AcDbLine
 10
-422.0720376902503
 20
-1501.741618852371
 30
0.0
 11
-422.0720376902503
 21
-1501.741618852371
 31
0.0
1001
ACAD
1010
0.0
1020
0.0
1030
0.0
  0
LINE
  5
18F12
330
18
100
AcDbEntity
  8
1HATCH
  6
CONTINUOUS
100
AcDbLine
 10
-421.5107716826835
 20
-1501.180352844804
 30
0.0
 11
-418.7044416448494
 21
-1498.37402280697
 31
0.0
1001
ACAD
1010
0.0
1020
0.0
1030
0.0
  0
LINE
  5
18F13
330
18
100
AcDbEntity
  8
1HATCH
  6
CONTINUOUS
100
AcDbLine
 10
-418.1431756372826
 20
-1497.812756799404
 30
0.0
 11
-418.1431756372826
 21
-1497.812756799404
 31
0.0
1001
ACAD
1010
0.0
1020
0.0
1030
0.0
  0
LINE
  5
18F14
330
18
100
AcDbEntity
  8
1HATCH
  6
CONTINUOUS
100
AcDbLine
 10
-417.5819096297158
 20
-1497.251490791837
 30
0.0
 11
-417.196470245908
 21
-1496.866051408029
 31
0.0
1001
ACAD
1010
0.0
1020
0.0
1030
0.0
  0
LINE
  5
18F15
330
18
100
AcDbEntity
  8
1HATCH
  6
CONTINUOUS
100
AcDbLine
 10
-417.196470245908
 20
-1496.866051408029
 30
0.0
 11
-417.196470245908
 21
-1496.866051408029
 31
0.0
1001
ACAD
1010
0.0
1020
0.0
1030
0.0
  0
LINE
  5
18F16
330
18
100
AcDbEntity
  8
1HATCH
  6
CONTINUOUS
100
AcDbLine
 10
-427.9514062156411
 20
-1509.866051408029
 30
0.0
 11
-427.4040647621352
 21
-1509.318709954523
 31
0.0
1001
ACAD
1010
0.0
1020
0.0
1030
0.0
  0
LINE
  5
18F17
330
18
100
AcDbEntity
  8
1HATCH
  6
CONTINUOUS
100
AcDbLine
 10
-426.8427987545683
 20
-1508.757443946957
 30
0.0
 11
-426.8427987545683
 21
-1508.757443946957
 31
0.0
1001
ACAD
1010
0.0
1020
0.0
1030
0.0
  0
LINE
  5
18F18
330
18
100
AcDbEntity
  8
1HATCH
  6
CONTINUOUS
100
AcDbLine
 10
-426.2815327470015
 20
-1508.19617793939
 30
0.0
 11
-423.4752027091674
 21
-1505.389847901556
 31
0.0
1001
ACAD
1010
0.0
1020
0.0
1030
0.0
  0
LINE
  5
18F19
330
18
100
AcDbEntity
  8
1HATCH
  6
CONTINUOUS
100
AcDbLine
 10
-422.9139367016006
 20
-1504.828581893989
 30
0.0
 11
-422.9139367016006
 21
-1504.828581893989
 31
0.0
1001
ACAD
1010
0.0
1020
0.0
1030
0.0
  0
LINE
  5
18F1A
330
18
100
AcDbEntity
  8
1HATCH
  6
CONTINUOUS
100
AcDbLine
 10
-422.3526706940337
 20
-1504.267315886422
 30
0.0
 11
-419.5463406561997
 21
-1501.460985848588
 31
0.0
1001
ACAD
1010
0.0
1020
0.0
1030
0.0
  0
LINE
  5
18F1B
330
18
100
AcDbEntity
  8
1HATCH
  6
CONTINUOUS
100
AcDbLine
 10
-418.9850746486329
 20
-1500.899719841021
 30
0.0
 11
-418.9850746486329
 21
-1500.899719841021
 31
0.0
1001
ACAD
1010
0.0
1020
0.0
1030
0.0
  0
LINE
  5
18F1C
330
18
100
AcDbEntity
  8
1HATCH
  6
CONTINUOUS
100
AcDbLine
 10
-418.423808641066
 20
-1500.338453833454
 30
0.0
 11
-415.6174786032319
 21
-1497.53212379562
 31
0.0
1001
ACAD
1010
0.0
1020
0.0
1030
0.0
  0
LINE
  5
18F1D
330
18
100
AcDbEntity
  8
1HATCH
  6
CONTINUOUS
100
AcDbLine
 10
-415.0562125956651
 20
-1496.970857788053
 30
0.0
 11
-415.0562125956651
 21
-1496.970857788053
 31
0.0
1001
ACAD
1010
0.0
1020
0.0
1030
0.0
  0
LINE
  5
18F1E
330
18
100
AcDbEntity
  8
1HATCH
  6
CONTINUOUS
100
AcDbLine
 10
-425.7063421853738
 20
-1509.866051408029
 30
0.0
 11
-424.3171017205177
 21
-1508.476810943173
 31
0.0
1001
ACAD
1010
0.0
1020
0.0
1030
0.0
  0
LINE
  5
18F1F
330
18
100
AcDbEntity
  8
1HATCH
  6
CONTINUOUS
100
AcDbLine
 10
-423.7558357129509
 20
-1507.915544935606
 30
0.0
 11
-423.7558357129509
 21
-1507.915544935606
 31
0.0
1001
ACAD
1010
0.0
1020
0.0
1030
0.0
  0
LINE
  5
18F20
330
18
100
AcDbEntity
  8
1HATCH
  6
CONTINUOUS
100
AcDbLine
 10
-423.194569705384
 20
-1507.35427892804
 30
0.0
 11
-420.38823966755
 21
-1504.547948890205
 31
0.0
1001
ACAD
1010
0.0
1020
0.0
1030
0.0
  0
LINE
  5
18F21
330
18
100
AcDbEntity
  8
1HATCH
  6
CONTINUOUS
100
AcDbLine
 10
-419.8269736599831
 20
-1503.986682882639
 30
0.0
 11
-419.8269736599831
 21
-1503.986682882639
 31
0.0
1001
ACAD
1010
0.0
1020
0.0
1030
0.0
  0
LINE
  5
18F22
330
18
100
AcDbEntity
  8
1HATCH
  6
CONTINUOUS
100
AcDbLine
 10
-419.2657076524163
 20
-1503.425416875072
 30
0.0
 11
-416.4593776145822
 21
-1500.619086837238
 31
0.0
1001
ACAD
1010
0.0
1020
0.0
1030
0.0
  0
LINE
  5
18F23
330
18
100
AcDbEntity
  8
1HATCH
  6
CONTINUOUS
100
AcDbLine
 10
-415.8981116070154
 20
-1500.057820829671
 30
0.0
 11
-415.8981116070154
 21
-1500.057820829671
 31
0.0
1001
ACAD
1010
0.0
1020
0.0
1030
0.0
  0
LINE
  5
18F24
330
18
100
AcDbEntity
  8
1HATCH
  6
CONTINUOUS
100
AcDbLine
 10
-415.3368455994486
 20
-1499.496554822104
 30
0.0
 11
-412.7063421853736
 21
-1496.866051408029
 31
0.0
1001
ACAD
1010
0.0
1020
0.0
1030
0.0
  0
LINE
  5
18F25
330
18
100
AcDbEntity
  8
1HATCH
  6
CONTINUOUS
100
AcDbLine
 10
-412.7063421853736
 20
-1496.866051408029
 30
0.0
 11
-412.7063421853736
 21
-1496.866051408029
 31
0.0
1001
ACAD
1010
0.0
1020
0.0
1030
0.0
  0
LINE
  5
18F26
330
18
100
AcDbEntity
  8
1HATCH
  6
CONTINUOUS
100
AcDbLine
 10
-423.4612781551065
 20
-1509.866051408029
 30
0.0
 11
-421.2301386789002
 21
-1507.634911931823
 31
0.0
1001
ACAD
1010
0.0
1020
0.0
1030
0.0
  0
LINE
  5
18F27
330
18
100
AcDbEntity
  8
1HATCH
  6
CONTINUOUS
100
AcDbLine
 10
-420.6688726713334
 20
-1507.073645924256
 30
0.0
 11
-420.6688726713334
 21
-1507.073645924256
 31
0.0
1001
ACAD
1010
0.0
1020
0.0
1030
0.0
  0
LINE
  5
18F28
330
18
100
AcDbEntity
  8
1HATCH
  6
CONTINUOUS
100
AcDbLine
 10
-420.1076066637665
 20
-1506.512379916689
 30
0.0
 11
-417.3012766259325
 21
-1503.706049878855
 31
0.0
1001
ACAD
1010
0.0
1020
0.0
1030
0.0
  0
LINE
  5
18F29
330
18
100
AcDbEntity
  8
1HATCH
  6
CONTINUOUS
100
AcDbLine
 10
-416.7400106183656
 20
-1503.144783871288
 30
0.0
 11
-416.7400106183656
 21
-1503.144783871288
 31
0.0
1001
ACAD
1010
0.0
1020
0.0
1030
0.0
  0
LINE
  5
18F2A
330
18
100
AcDbEntity
  8
1HATCH
  6
CONTINUOUS
100
AcDbLine
 10
-416.1787446107988
 20
-1502.583517863722
 30
0.0
 11
-413.3724145729647
 21
-1499.777187825887
 31
0.0
1001
ACAD
1010
0.0
1020
0.0
1030
0.0
  0
LINE
  5
18F2B
330
18
100
AcDbEntity
  8
1HATCH
  6
CONTINUOUS
100
AcDbLine
 10
-412.8111485653978
 20
-1499.215921818321
 30
0.0
 11
-412.8111485653978
 21
-1499.215921818321
 31
0.0
1001
ACAD
1010
0.0
1020
0.0
1030
0.0
  0
LINE
  5
18F2C
330
18
100
AcDbEntity
  8
1HATCH
  6
CONTINUOUS
100
AcDbLine
 10
-412.249882557831
 20
-1498.654655810754
 30
0.0
 11
-410.4612781551064
 21
-1496.866051408029
 31
0.0
1001
ACAD
1010
0.0
1020
0.0
1030
0.0
  0
LINE
  5
18F2D
330
18
100
AcDbEntity
  8
1HATCH
  6
CONTINUOUS
100
AcDbLine
 10
-410.4612781551064
 20
-1496.866051408029
 30
0.0
 11
-410.4612781551064
 21
-1496.866051408029
 31
0.0
1001
ACAD
1010
0.0
1020
0.0
1030
0.0
  0
LINE
  5
18F2E
330
18
100
AcDbEntity
  8
1HATCH
  6
CONTINUOUS
100
AcDbLine
 10
-420.9495056751168
 20
-1509.599342958307
 30
0.0
 11
-418.1431756372827
 21
-1506.793012920473
 31
0.0
1001
ACAD
1010
0.0
1020
0.0
1030
0.0
  0
LINE
  5
18F2F
330
18
100
AcDbEntity
  8
1HATCH
  6
CONTINUOUS
100
AcDbLine
 10
-417.5819096297159
 20
-1506.231746912906
 30
0.0
 11
-417.5819096297159
 21
-1506.231746912906
 31
0.0
1001
ACAD
1010
0.0
1020
0.0
1030
0.0
  0
LINE
  5
18F30
330
18
100
AcDbEntity
  8
1HATCH
  6
CONTINUOUS
100
AcDbLine
 10
-417.0206436221491
 20
-1505.670480905339
 30
0.0
 11
-414.2143135843149
 21
-1502.864150867505
 31
0.0
1001
ACAD
1010
0.0
1020
0.0
1030
0.0
  0
LINE
  5
18F31
330
18
100
AcDbEntity
  8
1HATCH
  6
CONTINUOUS
100
AcDbLine
 10
-413.6530475767481
 20
-1502.302884859938
 30
0.0
 11
-413.6530475767481
 21
-1502.302884859938
 31
0.0
1001
ACAD
1010
0.0
1020
0.0
1030
0.0
  0
LINE
  5
18F32
330
18
100
AcDbEntity
  8
1HATCH
  6
CONTINUOUS
100
AcDbLine
 10
-413.0917815691813
 20
-1501.741618852371
 30
0.0
 11
-410.2854515313472
 21
-1498.935288814537
 31
0.0
1001
ACAD
1010
0.0
1020
0.0
1030
0.0
  0
LINE
  5
18F33
330
18
100
AcDbEntity
  8
1HATCH
  6
CONTINUOUS
100
AcDbLine
 10
-409.7241855237804
 20
-1498.374022806971
 30
0.0
 11
-409.7241855237804
 21
-1498.374022806971
 31
0.0
1001
ACAD
1010
0.0
1020
0.0
1030
0.0
  0
LINE
  5
18F34
330
18
100
AcDbEntity
  8
1HATCH
  6
CONTINUOUS
100
AcDbLine
 10
-409.1629195162135
 20
-1497.812756799404
 30
0.0
 11
-408.5501300520977
 21
-1497.199967335288
 31
0.0
1001
ACAD
1010
0.0
1020
0.0
1030
0.0
  0
LINE
  5
18F35
330
18
100
AcDbEntity
  8
1HATCH
  6
CONTINUOUS
100
AcDbLine
 10
-408.5501300520977
 20
-1497.199967335288
 30
0.0
 11
-408.5501300520977
 21
-1497.199967335288
 31
0.0
1001
ACAD
1010
0.0
1020
0.0
1030
0.0
  0
LINE
  5
18F36
330
18
100
AcDbEntity
  8
1HATCH
  6
CONTINUOUS
100
AcDbLine
 10
-418.423808641066
 20
-1509.318709954523
 30
0.0
 11
-418.423808641066
 21
-1509.318709954523
 31
0.0
1001
ACAD
1010
0.0
1020
0.0
1030
0.0
  0
LINE
  5
18F37
330
18
100
AcDbEntity
  8
1HATCH
  6
CONTINUOUS
100
AcDbLine
 10
-417.8625426334992
 20
-1508.757443946957
 30
0.0
 11
-415.056212595665
 21
-1505.951113909122
 31
0.0
1001
ACAD
1010
0.0
1020
0.0
1030
0.0
  0
LINE
  5
18F38
330
18
100
AcDbEntity
  8
1HATCH
  6
CONTINUOUS
100
AcDbLine
 10
-414.4949465880982
 20
-1505.389847901556
 30
0.0
 11
-414.4949465880982
 21
-1505.389847901556
 31
0.0
1001
ACAD
1010
0.0
1020
0.0
1030
0.0
  0
LINE
  5
18F39
330
18
100
AcDbEntity
  8
1HATCH
  6
CONTINUOUS
100
AcDbLine
 10
-413.9336805805314
 20
-1504.828581893989
 30
0.0
 11
-411.1273505426973
 21
-1502.022251856155
 31
0.0
1001
ACAD
1010
0.0
1020
0.0
1030
0.0
  0
LINE
  5
18F3A
330
18
100
AcDbEntity
  8
1HATCH
  6
CONTINUOUS
100
AcDbLine
 10
-410.5660845351305
 20
-1501.460985848588
 30
0.0
 11
-410.5660845351305
 21
-1501.460985848588
 31
0.0
1001
ACAD
1010
0.0
1020
0.0
1030
0.0
  0
LINE
  5
18F3B
330
18
100
AcDbEntity
  8
1HATCH
  6
CONTINUOUS
100
AcDbLine
 10
-410.0048185275637
 20
-1500.899719841021
 30
0.0
 11
-408.5501300520977
 21
-1499.445031365555
 31
0.0
1001
ACAD
1010
0.0
1020
0.0
1030
0.0
  0
LINE
  5
18F3C
330
18
100
AcDbEntity
  8
1HATCH
  6
CONTINUOUS
100
AcDbLine
 10
-408.5501300520977
 20
-1499.445031365555
 30
0.0
 11
-408.5501300520977
 21
-1499.445031365555
 31
0.0
1001
ACAD
1010
0.0
1020
0.0
1030
0.0
  0
LINE
  5
18F3D
330
18
100
AcDbEntity
  8
1HATCH
  6
CONTINUOUS
100
AcDbLine
 10
-416.7260860643046
 20
-1509.866051408029
 30
0.0
 11
-415.8981116070153
 21
-1509.03807695074
 31
0.0
1001
ACAD
1010
0.0
1020
0.0
1030
0.0
  0
LINE
  5
18F3E
330
18
100
AcDbEntity
  8
1HATCH
  6
CONTINUOUS
100
AcDbLine
 10
-415.3368455994485
 20
-1508.476810943173
 30
0.0
 11
-415.3368455994485
 21
-1508.476810943173
 31
0.0
1001
ACAD
1010
0.0
1020
0.0
1030
0.0
  0
LINE
  5
18F3F
330
18
100
AcDbEntity
  8
1HATCH
  6
CONTINUOUS
100
AcDbLine
 10
-414.7755795918817
 20
-1507.915544935606
 30
0.0
 11
-411.9692495540476
 21
-1505.109214897772
 31
0.0
1001
ACAD
1010
0.0
1020
0.0
1030
0.0
  0
LINE
  5
18F40
330
18
100
AcDbEntity
  8
1HATCH
  6
CONTINUOUS
100
AcDbLine
 10
-411.4079835464808
 20
-1504.547948890205
 30
0.0
 11
-411.4079835464808
 21
-1504.547948890205
 31
0.0
1001
ACAD
1010
0.0
1020
0.0
1030
0.0
  0
LINE
  5
18F41
330
18
100
AcDbEntity
  8
1HATCH
  6
CONTINUOUS
100
AcDbLine
 10
-410.8467175389139
 20
-1503.986682882639
 30
0.0
 11
-408.5501300520977
 21
-1501.690095395822
 31
0.0
1001
ACAD
1010
0.0
1020
0.0
1030
0.0
  0
LINE
  5
18F42
330
18
100
AcDbEntity
  8
1HATCH
  6
CONTINUOUS
100
AcDbLine
 10
-408.5501300520977
 20
-1501.690095395822
 30
0.0
 11
-408.5501300520977
 21
-1501.690095395822
 31
0.0
1001
ACAD
1010
0.0
1020
0.0
1030
0.0
  0
LINE
  5
18F43
330
18
100
AcDbEntity
  8
1HATCH
  6
CONTINUOUS
100
AcDbLine
 10
-414.4810220340373
 20
-1509.866051408029
 30
0.0
 11
-412.8111485653978
 21
-1508.19617793939
 31
0.0
1001
ACAD
1010
0.0
1020
0.0
1030
0.0
  0
LINE
  5
18F44
330
18
100
AcDbEntity
  8
1HATCH
  6
CONTINUOUS
100
AcDbLine
 10
-412.249882557831
 20
-1507.634911931823
 30
0.0
 11
-412.249882557831
 21
-1507.634911931823
 31
0.0
1001
ACAD
1010
0.0
1020
0.0
1030
0.0
  0
LINE
  5
18F45
330
18
100
AcDbEntity
  8
1HATCH
  6
CONTINUOUS
100
AcDbLine
 10
-411.6886165502642
 20
-1507.073645924256
 30
0.0
 11
-408.8822865124301
 21
-1504.267315886422
 31
0.0
1001
ACAD
1010
0.0
1020
0.0
1030
0.0
  0
LINE
  5
18F46
330
18
100
AcDbEntity
  8
1HATCH
  6
CONTINUOUS
100
AcDbLine
 10
-408.5501300520977
 20
-1503.93515942609
 30
0.0
 11
-408.5501300520977
 21
-1503.93515942609
 31
0.0
1001
ACAD
1010
0.0
1020
0.0
1030
0.0
  0
LINE
  5
18F47
330
18
100
AcDbEntity
  8
1HATCH
  6
CONTINUOUS
100
AcDbLine
 10
-412.2359580037701
 20
-1509.866051408029
 30
0.0
 11
-409.7241855237804
 21
-1507.35427892804
 31
0.0
1001
ACAD
1010
0.0
1020
0.0
1030
0.0
  0
LINE
  5
18F48
330
18
100
AcDbEntity
  8
1HATCH
  6
CONTINUOUS
100
AcDbLine
 10
-409.1629195162135
 20
-1506.793012920473
 30
0.0
 11
-409.1629195162135
 21
-1506.793012920473
 31
0.0
1001
ACAD
1010
0.0
1020
0.0
1030
0.0
  0
LINE
  5
18F49
330
18
100
AcDbEntity
  8
1HATCH
  6
CONTINUOUS
100
AcDbLine
 10
-408.6016535086467
 20
-1506.231746912906
 30
0.0
 11
-408.5501300520977
 21
-1506.180223456357
 31
0.0
1001
ACAD
1010
0.0
1020
0.0
1030
0.0
  0
LINE
  5
18F4A
330
18
100
AcDbEntity
  8
1HATCH
  6
CONTINUOUS
100
AcDbLine
 10
-408.5501300520977
 20
-1506.180223456357
 30
0.0
 11
-408.5501300520977
 21
-1506.180223456357
 31
0.0
1001
ACAD
1010
0.0
1020
0.0
1030
0.0
  0
LINE
  5
18F4B
330
18
100
AcDbEntity
  8
1HATCH
  6
CONTINUOUS
100
AcDbLine
 10
-409.443552519997
 20
-1509.318709954523
 30
0.0
 11
-408.5501300520977
 21
-1508.425287486624
 31
0.0
1001
ACAD
1010
0.0
1020
0.0
1030
0.0
  0
LINE
  5
18F4C
330
18
100
AcDbEntity
  8
1HATCH
  6
CONTINUOUS
100
AcDbLine
 10
-408.5501300520977
 20
-1508.425287486624
 30
0.0
 11
-408.5501300520977
 21
-1508.425287486624
 31
0.0
1001
ACAD
1010
0.0
1020
0.0
1030
0.0
  0
LINE
  5
18F4D
330
18
100
AcDbEntity
  8
1HATCH
  6
CONTINUOUS
100
AcDbLine
 10
-403.1501300520977
 20
-1498.53515942609
 30
0.0
 11
-401.4810220340373
 21
-1496.866051408029
 31
0.0
1001
ACAD
1010
0.0
1020
0.0
1030
0.0
  0
LINE
  5
18F4E
330
18
100
AcDbEntity
  8
1HATCH
  6
CONTINUOUS
100
AcDbLine
 10
-401.4810220340373
 20
-1496.866051408029
 30
0.0
 11
-401.4810220340373
 21
-1496.866051408029
 31
0.0
1001
ACAD
1010
0.0
1020
0.0
1030
0.0
  0
LINE
  5
18F4F
330
18
100
AcDbEntity
  8
1HATCH
  6
CONTINUOUS
100
AcDbLine
 10
-403.1501300520977
 20
-1500.780223456357
 30
0.0
 11
-401.8664614178448
 21
-1499.496554822104
 31
0.0
1001
ACAD
1010
0.0
1020
0.0
1030
0.0
  0
LINE
  5
18F50
330
18
100
AcDbEntity
  8
1HATCH
  6
CONTINUOUS
100
AcDbLine
 10
-401.305195410278
 20
-1498.935288814537
 30
0.0
 11
-401.305195410278
 21
-1498.935288814537
 31
0.0
1001
ACAD
1010
0.0
1020
0.0
1030
0.0
  0
LINE
  5
18F51
330
18
100
AcDbEntity
  8
1HATCH
  6
CONTINUOUS
100
AcDbLine
 10
-400.7439294027112
 20
-1498.374022806971
 30
0.0
 11
-399.2359580037701
 21
-1496.866051408029
 31
0.0
1001
ACAD
1010
0.0
1020
0.0
1030
0.0
  0
LINE
  5
18F52
330
18
100
AcDbEntity
  8
1HATCH
  6
CONTINUOUS
100
AcDbLine
 10
-399.2359580037701
 20
-1496.866051408029
 30
0.0
 11
-399.2359580037701
 21
-1496.866051408029
 31
0.0
1001
ACAD
1010
0.0
1020
0.0
1030
0.0
  0
LINE
  5
18F53
330
18
100
AcDbEntity
  8
1HATCH
  6
CONTINUOUS
100
AcDbLine
 10
-403.1501300520977
 20
-1503.025287486624
 30
0.0
 11
-402.7083604291951
 21
-1502.583517863722
 31
0.0
1001
ACAD
1010
0.0
1020
0.0
1030
0.0
  0
LINE
  5
18F54
330
18
100
AcDbEntity
  8
1HATCH
  6
CONTINUOUS
100
AcDbLine
 10
-402.1470944216283
 20
-1502.022251856155
 30
0.0
 11
-402.1470944216283
 21
-1502.022251856155
 31
0.0
1001
ACAD
1010
0.0
1020
0.0
1030
0.0
  0
LINE
  5
18F55
330
18
100
AcDbEntity
  8
1HATCH
  6
CONTINUOUS
100
AcDbLine
 10
-401.5858284140614
 20
-1501.460985848588
 30
0.0
 11
-398.7794983762274
 21
-1498.654655810754
 31
0.0
1001
ACAD
1010
0.0
1020
0.0
1030
0.0
  0
LINE
  5
18F56
330
18
100
AcDbEntity
  8
1HATCH
  6
CONTINUOUS
100
AcDbLine
 10
-398.2182323686606
 20
-1498.093389803187
 30
0.0
 11
-398.2182323686606
 21
-1498.093389803187
 31
0.0
1001
ACAD
1010
0.0
1020
0.0
1030
0.0
  0
LINE
  5
18F57
330
18
100
AcDbEntity
  8
1HATCH
  6
CONTINUOUS
100
AcDbLine
 10
-397.6569663610937
 20
-1497.53212379562
 30
0.0
 11
-396.9908939735028
 21
-1496.866051408029
 31
0.0
1001
ACAD
1010
0.0
1020
0.0
1030
0.0
  0
LINE
  5
18F58
330
18
100
AcDbEntity
  8
1HATCH
  6
CONTINUOUS
100
AcDbLine
 10
-396.9908939735028
 20
-1496.866051408029
 30
0.0
 11
-396.9908939735028
 21
-1496.866051408029
 31
0.0
1001
ACAD
1010
0.0
1020
0.0
1030
0.0
  0
LINE
  5
18F59
330
18
100
AcDbEntity
  8
1HATCH
  6
CONTINUOUS
100
AcDbLine
 10
-402.9889934329784
 20
-1505.109214897772
 30
0.0
 11
-402.9889934329784
 21
-1505.109214897772
 31
0.0
1001
ACAD
1010
0.0
1020
0.0
1030
0.0
  0
LINE
  5
18F5A
330
18
100
AcDbEntity
  8
1HATCH
  6
CONTINUOUS
100
AcDbLine
 10
-402.4277274254115
 20
-1504.547948890205
 30
0.0
 11
-399.6213973875775
 21
-1501.741618852371
 31
0.0
1001
ACAD
1010
0.0
1020
0.0
1030
0.0
  0
LINE
  5
18F5B
330
18
100
AcDbEntity
  8
1HATCH
  6
CONTINUOUS
100
AcDbLine
 10
-399.0601313800106
 20
-1501.180352844804
 30
0.0
 11
-399.0601313800106
 21
-1501.180352844804
 31
0.0
1001
ACAD
1010
0.0
1020
0.0
1030
0.0
  0
LINE
  5
18F5C
330
18
100
AcDbEntity
  8
1HATCH
  6
CONTINUOUS
100
AcDbLine
 10
-398.4988653724438
 20
-1500.619086837238
 30
0.0
 11
-395.6925353346097
 21
-1497.812756799404
 31
0.0
1001
ACAD
1010
0.0
1020
0.0
1030
0.0
  0
LINE
  5
18F5D
330
18
100
AcDbEntity
  8
1HATCH
  6
CONTINUOUS
100
AcDbLine
 10
-395.1312693270429
 20
-1497.251490791837
 30
0.0
 11
-395.1312693270429
 21
-1497.251490791837
 31
0.0
1001
ACAD
1010
0.0
1020
0.0
1030
0.0
  0
LINE
  5
18F5E
330
18
100
AcDbEntity
  8
1HATCH
  6
CONTINUOUS
100
AcDbLine
 10
-403.1501300520977
 20
-1507.515415547159
 30
0.0
 11
-400.4632963989277
 21
-1504.828581893989
 31
0.0
1001
ACAD
1010
0.0
1020
0.0
1030
0.0
  0
LINE
  5
18F5F
330
18
100
AcDbEntity
  8
1HATCH
  6
CONTINUOUS
100
AcDbLine
 10
-399.9020303913609
 20
-1504.267315886422
 30
0.0
 11
-399.9020303913609
 21
-1504.267315886422
 31
0.0
1001
ACAD
1010
0.0
1020
0.0
1030
0.0
  0
LINE
  5
18F60
330
18
100
AcDbEntity
  8
1HATCH
  6
CONTINUOUS
100
AcDbLine
 10
-399.3407643837941
 20
-1503.706049878855
 30
0.0
 11
-396.5344343459599
 21
-1500.899719841021
 31
0.0
1001
ACAD
1010
0.0
1020
0.0
1030
0.0
  0
LINE
  5
18F61
330
18
100
AcDbEntity
  8
1HATCH
  6
CONTINUOUS
100
AcDbLine
 10
-395.9731683383931
 20
-1500.338453833454
 30
0.0
 11
-395.9731683383931
 21
-1500.338453833454
 31
0.0
1001
ACAD
1010
0.0
1020
0.0
1030
0.0
  0
LINE
  5
18F62
330
18
100
AcDbEntity
  8
1HATCH
  6
CONTINUOUS
100
AcDbLine
 10
-395.4119023308263
 20
-1499.777187825887
 30
0.0
 11
-392.6055722929922
 21
-1496.970857788053
 31
0.0
1001
ACAD
1010
0.0
1020
0.0
1030
0.0
  0
LINE
  5
18F63
330
18
100
AcDbEntity
  8
1HATCH
  6
CONTINUOUS
100
AcDbLine
 10
-392.5007659129681
 20
-1496.866051408029
 30
0.0
 11
-392.5007659129681
 21
-1496.866051408029
 31
0.0
1001
ACAD
1010
0.0
1020
0.0
1030
0.0
  0
LINE
  5
18F64
330
18
100
AcDbEntity
  8
1HATCH
  6
CONTINUOUS
100
AcDbLine
 10
-403.1501300520977
 20
-1509.760479577426
 30
0.0
 11
-401.305195410278
 21
-1507.915544935606
 31
0.0
1001
ACAD
1010
0.0
1020
0.0
1030
0.0
  0
LINE
  5
18F65
330
18
100
AcDbEntity
  8
1HATCH
  6
CONTINUOUS
100
AcDbLine
 10
-400.7439294027112
 20
-1507.35427892804
 30
0.0
 11
-400.7439294027112
 21
-1507.35427892804
 31
0.0
1001
ACAD
1010
0.0
1020
0.0
1030
0.0
  0
LINE
  5
18F66
330
18
100
AcDbEntity
  8
1HATCH
  6
CONTINUOUS
100
AcDbLine
 10
-400.1826633951443
 20
-1506.793012920473
 30
0.0
 11
-397.3763333573102
 21
-1503.986682882639
 31
0.0
1001
ACAD
1010
0.0
1020
0.0
1030
0.0
  0
LINE
  5
18F67
330
18
100
AcDbEntity
  8
1HATCH
  6
CONTINUOUS
100
AcDbLine
 10
-396.8150673497434
 20
-1503.425416875072
 30
0.0
 11
-396.8150673497434
 21
-1503.425416875072
 31
0.0
1001
ACAD
1010
0.0
1020
0.0
1030
0.0
  0
LINE
  5
18F68
330
18
100
AcDbEntity
  8
1HATCH
  6
CONTINUOUS
100
AcDbLine
 10
-396.2538013421766
 20
-1502.864150867505
 30
0.0
 11
-393.4474713043425
 21
-1500.057820829671
 31
0.0
1001
ACAD
1010
0.0
1020
0.0
1030
0.0
  0
LINE
  5
18F69
330
18
100
AcDbEntity
  8
1HATCH
  6
CONTINUOUS
100
AcDbLine
 10
-392.8862052967756
 20
-1499.496554822104
 30
0.0
 11
-392.8862052967756
 21
-1499.496554822104
 31
0.0
1001
ACAD
1010
0.0
1020
0.0
1030
0.0
  0
LINE
  5
18F6A
330
18
100
AcDbEntity
  8
1HATCH
  6
CONTINUOUS
100
AcDbLine
 10
-392.3249392892088
 20
-1498.935288814537
 30
0.0
 11
-390.2557018827008
 21
-1496.866051408029
 31
0.0
1001
ACAD
1010
0.0
1020
0.0
1030
0.0
  0
LINE
  5
18F6B
330
18
100
AcDbEntity
  8
1HATCH
  6
CONTINUOUS
100
AcDbLine
 10
-390.2557018827008
 20
-1496.866051408029
 30
0.0
 11
-390.2557018827008
 21
-1496.866051408029
 31
0.0
1001
ACAD
1010
0.0
1020
0.0
1030
0.0
  0
LINE
  5
18F6C
330
18
100
AcDbEntity
  8
1HATCH
  6
CONTINUOUS
100
AcDbLine
 10
-401.0106378524336
 20
-1509.866051408029
 30
0.0
 11
-398.2182323686605
 21
-1507.073645924256
 31
0.0
1001
ACAD
1010
0.0
1020
0.0
1030
0.0
  0
LINE
  5
18F6D
330
18
100
AcDbEntity
  8
1HATCH
  6
CONTINUOUS
100
AcDbLine
 10
-397.6569663610937
 20
-1506.512379916689
 30
0.0
 11
-397.6569663610937
 21
-1506.512379916689
 31
0.0
1001
ACAD
1010
0.0
1020
0.0
1030
0.0
  0
LINE
  5
18F6E
330
18
100
AcDbEntity
  8
1HATCH
  6
CONTINUOUS
100
AcDbLine
 10
-397.0957003535269
 20
-1505.951113909123
 30
0.0
 11
-394.2893703156927
 21
-1503.144783871288
 31
0.0
1001
ACAD
1010
0.0
1020
0.0
1030
0.0
  0
LINE
  5
18F6F
330
18
100
AcDbEntity
  8
1HATCH
  6
CONTINUOUS
100
AcDbLine
 10
-393.7281043081259
 20
-1502.583517863722
 30
0.0
 11
-393.7281043081259
 21
-1502.583517863722
 31
0.0
1001
ACAD
1010
0.0
1020
0.0
1030
0.0
  0
LINE
  5
18F70
330
18
100
AcDbEntity
  8
1HATCH
  6
CONTINUOUS
100
AcDbLine
 10
-393.1668383005591
 20
-1502.022251856155
 30
0.0
 11
-390.360508262725
 21
-1499.215921818321
 31
0.0
1001
ACAD
1010
0.0
1020
0.0
1030
0.0
  0
LINE
  5
18F71
330
18
100
AcDbEntity
  8
1HATCH
  6
CONTINUOUS
100
AcDbLine
 10
-389.7992422551582
 20
-1498.654655810754
 30
0.0
 11
-389.7992422551582
 21
-1498.654655810754
 31
0.0
1001
ACAD
1010
0.0
1020
0.0
1030
0.0
  0
LINE
  5
18F72
330
18
100
AcDbEntity
  8
1HATCH
  6
CONTINUOUS
100
AcDbLine
 10
-389.2379762475913
 20
-1498.093389803187
 30
0.0
 11
-388.0106378524335
 21
-1496.866051408029
 31
0.0
1001
ACAD
1010
0.0
1020
0.0
1030
0.0
  0
LINE
  5
18F73
330
18
100
AcDbEntity
  8
1HATCH
  6
CONTINUOUS
100
AcDbLine
 10
-388.0106378524335
 20
-1496.866051408029
 30
0.0
 11
-388.0106378524335
 21
-1496.866051408029
 31
0.0
1001
ACAD
1010
0.0
1020
0.0
1030
0.0
  0
LINE
  5
18F74
330
18
100
AcDbEntity
  8
1HATCH
  6
CONTINUOUS
100
AcDbLine
 10
-398.4988653724439
 20
-1509.599342958307
 30
0.0
 11
-398.4988653724439
 21
-1509.599342958307
 31
0.0
1001
ACAD
1010
0.0
1020
0.0
1030
0.0
  0
LINE
  5
18F75
330
18
100
AcDbEntity
  8
1HATCH
  6
CONTINUOUS
100
AcDbLine
 10
-397.9375993648771
 20
-1509.03807695074
 30
0.0
 11
-395.131269327043
 21
-1506.231746912906
 31
0.0
1001
ACAD
1010
0.0
1020
0.0
1030
0.0
  0
LINE
  5
18F76
330
18
100
AcDbEntity
  8
1HATCH
  6
CONTINUOUS
100
AcDbLine
 10
-394.5700033194762
 20
-1505.670480905339
 30
0.0
 11
-394.5700033194762
 21
-1505.670480905339
 31
0.0
1001
ACAD
1010
0.0
1020
0.0
1030
0.0
  0
LINE
  5
18F77
330
18
100
AcDbEntity
  8
1HATCH
  6
CONTINUOUS
100
AcDbLine
 10
-394.0087373119093
 20
-1505.109214897772
 30
0.0
 11
-391.2024072740753
 21
-1502.302884859938
 31
0.0
1001
ACAD
1010
0.0
1020
0.0
1030
0.0
  0
LINE
  5
18F78
330
18
100
AcDbEntity
  8
1HATCH
  6
CONTINUOUS
100
AcDbLine
 10
-390.6411412665084
 20
-1501.741618852371
 30
0.0
 11
-390.6411412665084
 21
-1501.741618852371
 31
0.0
1001
ACAD
1010
0.0
1020
0.0
1030
0.0
  0
LINE
  5
18F79
330
18
100
AcDbEntity
  8
1HATCH
  6
CONTINUOUS
100
AcDbLine
 10
-390.0798752589416
 20
-1501.180352844804
 30
0.0
 11
-387.2735452211075
 21
-1498.374022806971
 31
0.0
1001
ACAD
1010
0.0
1020
0.0
1030
0.0
  0
LINE
  5
18F7A
330
18
100
AcDbEntity
  8
1HATCH
  6
CONTINUOUS
100
AcDbLine
 10
-386.7122792135407
 20
-1497.812756799404
 30
0.0
 11
-386.7122792135407
 21
-1497.812756799404
 31
0.0
1001
ACAD
1010
0.0
1020
0.0
1030
0.0
  0
LINE
  5
18F7B
330
18
100
AcDbEntity
  8
1HATCH
  6
CONTINUOUS
100
AcDbLine
 10
-386.1510132059739
 20
-1497.251490791837
 30
0.0
 11
-385.7655738221662
 21
-1496.866051408029
 31
0.0
1001
ACAD
1010
0.0
1020
0.0
1030
0.0
  0
LINE
  5
18F7C
330
18
100
AcDbEntity
  8
1HATCH
  6
CONTINUOUS
100
AcDbLine
 10
-385.7655738221662
 20
-1496.866051408029
 30
0.0
 11
-385.7655738221662
 21
-1496.866051408029
 31
0.0
1001
ACAD
1010
0.0
1020
0.0
1030
0.0
  0
LINE
  5
18F7D
330
18
100
AcDbEntity
  8
1HATCH
  6
CONTINUOUS
100
AcDbLine
 10
-396.520509791899
 20
-1509.866051408029
 30
0.0
 11
-395.9731683383931
 21
-1509.318709954523
 31
0.0
1001
ACAD
1010
0.0
1020
0.0
1030
0.0
  0
LINE
  5
18F7E
330
18
100
AcDbEntity
  8
1HATCH
  6
CONTINUOUS
100
AcDbLine
 10
-395.4119023308263
 20
-1508.757443946957
 30
0.0
 11
-395.4119023308263
 21
-1508.757443946957
 31
0.0
1001
ACAD
1010
0.0
1020
0.0
1030
0.0
  0
LINE
  5
18F7F
330
18
100
AcDbEntity
  8
1HATCH
  6
CONTINUOUS
100
AcDbLine
 10
-394.8506363232595
 20
-1508.19617793939
 30
0.0
 11
-392.0443062854254
 21
-1505.389847901556
 31
0.0
1001
ACAD
1010
0.0
1020
0.0
1030
0.0
  0
LINE
  5
18F80
330
18
100
AcDbEntity
  8
1HATCH
  6
CONTINUOUS
100
AcDbLine
 10
-391.4830402778585
 20
-1504.828581893989
 30
0.0
 11
-391.4830402778585
 21
-1504.828581893989
 31
0.0
1001
ACAD
1010
0.0
1020
0.0
1030
0.0
  0
LINE
  5
18F81
330
18
100
AcDbEntity
  8
1HATCH
  6
CONTINUOUS
100
AcDbLine
 10
-390.9217742702917
 20
-1504.267315886422
 30
0.0
 11
-388.1154442324576
 21
-1501.460985848588
 31
0.0
1001
ACAD
1010
0.0
1020
0.0
1030
0.0
  0
LINE
  5
18F82
330
18
100
AcDbEntity
  8
1HATCH
  6
CONTINUOUS
100
AcDbLine
 10
-387.5541782248908
 20
-1500.899719841021
 30
0.0
 11
-387.5541782248908
 21
-1500.899719841021
 31
0.0
1001
ACAD
1010
0.0
1020
0.0
1030
0.0
  0
LINE
  5
18F83
330
18
100
AcDbEntity
  8
1HATCH
  6
CONTINUOUS
100
AcDbLine
 10
-386.992912217324
 20
-1500.338453833454
 30
0.0
 11
-384.1865821794898
 21
-1497.53212379562
 31
0.0
1001
ACAD
1010
0.0
1020
0.0
1030
0.0
  0
LINE
  5
18F84
330
18
100
AcDbEntity
  8
1HATCH
  6
CONTINUOUS
100
AcDbLine
 10
-383.625316171923
 20
-1496.970857788053
 30
0.0
 11
-383.625316171923
 21
-1496.970857788053
 31
0.0
1001
ACAD
1010
0.0
1020
0.0
1030
0.0
  0
LINE
  5
18F85
330
18
100
AcDbEntity
  8
1HATCH
  6
CONTINUOUS
100
AcDbLine
 10
-394.2754457616318
 20
-1509.866051408029
 30
0.0
 11
-392.8862052967756
 21
-1508.476810943173
 31
0.0
1001
ACAD
1010
0.0
1020
0.0
1030
0.0
  0
LINE
  5
18F86
330
18
100
AcDbEntity
  8
1HATCH
  6
CONTINUOUS
100
AcDbLine
 10
-392.3249392892088
 20
-1507.915544935606
 30
0.0
 11
-392.3249392892088
 21
-1507.915544935606
 31
0.0
1001
ACAD
1010
0.0
1020
0.0
1030
0.0
  0
LINE
  5
18F87
330
18
100
AcDbEntity
  8
1HATCH
  6
CONTINUOUS
100
AcDbLine
 10
-391.763673281642
 20
-1507.35427892804
 30
0.0
 11
-388.9573432438079
 21
-1504.547948890205
 31
0.0
1001
ACAD
1010
0.0
1020
0.0
1030
0.0
  0
LINE
  5
18F88
330
18
100
AcDbEntity
  8
1HATCH
  6
CONTINUOUS
100
AcDbLine
 10
-388.3960772362411
 20
-1503.986682882639
 30
0.0
 11
-388.3960772362411
 21
-1503.986682882639
 31
0.0
1001
ACAD
1010
0.0
1020
0.0
1030
0.0
  0
LINE
  5
18F89
330
18
100
AcDbEntity
  8
1HATCH
  6
CONTINUOUS
100
AcDbLine
 10
-387.8348112286742
 20
-1503.425416875072
 30
0.0
 11
-385.0284811908401
 21
-1500.619086837238
 31
0.0
1001
ACAD
1010
0.0
1020
0.0
1030
0.0
  0
LINE
  5
18F8A
330
18
100
AcDbEntity
  8
1HATCH
  6
CONTINUOUS
100
AcDbLine
 10
-384.4672151832733
 20
-1500.057820829671
 30
0.0
 11
-384.4672151832733
 21
-1500.057820829671
 31
0.0
1001
ACAD
1010
0.0
1020
0.0
1030
0.0
  0
LINE
  5
18F8B
330
18
100
AcDbEntity
  8
1HATCH
  6
CONTINUOUS
100
AcDbLine
 10
-383.9059491757065
 20
-1499.496554822104
 30
0.0
 11
-381.3088288240186
 21
-1496.899434470416
 31
0.0
1001
ACAD
1010
0.0
1020
0.0
1030
0.0
  0
LINE
  5
18F8C
330
18
100
AcDbEntity
  8
1HATCH
  6
CONTINUOUS
100
AcDbLine
 10
-381.3088288240186
 20
-1496.899434470416
 30
0.0
 11
-381.3088288240186
 21
-1496.899434470416
 31
0.0
1001
ACAD
1010
0.0
1020
0.0
1030
0.0
  0
LINE
  5
18F8D
330
18
100
AcDbEntity
  8
1HATCH
  6
CONTINUOUS
100
AcDbLine
 10
-392.0303817313645
 20
-1509.866051408029
 30
0.0
 11
-389.7992422551581
 21
-1507.634911931823
 31
0.0
1001
ACAD
1010
0.0
1020
0.0
1030
0.0
  0
LINE
  5
18F8E
330
18
100
AcDbEntity
  8
1HATCH
  6
CONTINUOUS
100
AcDbLine
 10
-389.2379762475913
 20
-1507.073645924256
 30
0.0
 11
-389.2379762475913
 21
-1507.073645924256
 31
0.0
1001
ACAD
1010
0.0
1020
0.0
1030
0.0
  0
LINE
  5
18F8F
330
18
100
AcDbEntity
  8
1HATCH
  6
CONTINUOUS
100
AcDbLine
 10
-388.6767102400245
 20
-1506.512379916689
 30
0.0
 11
-385.8703802021904
 21
-1503.706049878855
 31
0.0
1001
ACAD
1010
0.0
1020
0.0
1030
0.0
  0
LINE
  5
18F90
330
18
100
AcDbEntity
  8
1HATCH
  6
CONTINUOUS
100
AcDbLine
 10
-385.3091141946235
 20
-1503.144783871288
 30
0.0
 11
-385.3091141946235
 21
-1503.144783871288
 31
0.0
1001
ACAD
1010
0.0
1020
0.0
1030
0.0
  0
LINE
  5
18F91
330
18
100
AcDbEntity
  8
1HATCH
  6
CONTINUOUS
100
AcDbLine
 10
-384.7478481870567
 20
-1502.583517863722
 30
0.0
 11
-381.9415181492226
 21
-1499.777187825887
 31
0.0
1001
ACAD
1010
0.0
1020
0.0
1030
0.0
  0
LINE
  5
18F92
330
18
100
AcDbEntity
  8
1HATCH
  6
CONTINUOUS
100
AcDbLine
 10
-381.3802521416558
 20
-1499.215921818321
 30
0.0
 11
-381.3802521416558
 21
-1499.215921818321
 31
0.0
1001
ACAD
1010
0.0
1020
0.0
1030
0.0
  0
LINE
  5
18F93
330
18
100
AcDbEntity
  8
1HATCH
  6
CONTINUOUS
100
AcDbLine
 10
-389.5186092513748
 20
-1509.599342958307
 30
0.0
 11
-386.7122792135406
 21
-1506.793012920473
 31
0.0
1001
ACAD
1010
0.0
1020
0.0
1030
0.0
  0
LINE
  5
18F94
330
18
100
AcDbEntity
  8
1HATCH
  6
CONTINUOUS
100
AcDbLine
 10
-386.1510132059738
 20
-1506.231746912906
 30
0.0
 11
-386.1510132059738
 21
-1506.231746912906
 31
0.0
1001
ACAD
1010
0.0
1020
0.0
1030
0.0
  0
LINE
  5
18F95
330
18
100
AcDbEntity
  8
1HATCH
  6
CONTINUOUS
100
AcDbLine
 10
-385.589747198407
 20
-1505.670480905339
 30
0.0
 11
-382.7834171605729
 21
-1502.864150867505
 31
0.0
1001
ACAD
1010
0.0
1020
0.0
1030
0.0
  0
LINE
  5
18F96
330
18
100
AcDbEntity
  8
1HATCH
  6
CONTINUOUS
100
AcDbLine
 10
-382.2221511530061
 20
-1502.302884859938
 30
0.0
 11
-382.2221511530061
 21
-1502.302884859938
 31
0.0
1001
ACAD
1010
0.0
1020
0.0
1030
0.0
  0
LINE
  5
18F97
330
18
100
AcDbEntity
  8
1HATCH
  6
CONTINUOUS
100
AcDbLine
 10
-381.6608851454392
 20
-1501.741618852371
 30
0.0
 11
-381.3088288240186
 21
-1501.389562530951
 31
0.0
1001
ACAD
1010
0.0
1020
0.0
1030
0.0
  0
LINE
  5
18F98
330
18
100
AcDbEntity
  8
1HATCH
  6
CONTINUOUS
100
AcDbLine
 10
-381.3088288240186
 20
-1501.389562530951
 30
0.0
 11
-381.3088288240186
 21
-1501.389562530951
 31
0.0
1001
ACAD
1010
0.0
1020
0.0
1030
0.0
  0
LINE
  5
18F99
330
18
100
AcDbEntity
  8
1HATCH
  6
CONTINUOUS
100
AcDbLine
 10
-386.9929122173241
 20
-1509.318709954523
 30
0.0
 11
-386.9929122173241
 21
-1509.318709954523
 31
0.0
1001
ACAD
1010
0.0
1020
0.0
1030
0.0
  0
LINE
  5
18F9A
330
18
100
AcDbEntity
  8
1HATCH
  6
CONTINUOUS
100
AcDbLine
 10
-386.4316462097573
 20
-1508.757443946957
 30
0.0
 11
-383.6253161719231
 21
-1505.951113909123
 31
0.0
1001
ACAD
1010
0.0
1020
0.0
1030
0.0
  0
LINE
  5
18F9B
330
18
100
AcDbEntity
  8
1HATCH
  6
CONTINUOUS
100
AcDbLine
 10
-383.0640501643563
 20
-1505.389847901556
 30
0.0
 11
-383.0640501643563
 21
-1505.389847901556
 31
0.0
1001
ACAD
1010
0.0
1020
0.0
1030
0.0
  0
LINE
  5
18F9C
330
18
100
AcDbEntity
  8
1HATCH
  6
CONTINUOUS
100
AcDbLine
 10
-382.5027841567895
 20
-1504.828581893989
 30
0.0
 11
-381.3088288240186
 21
-1503.634626561218
 31
0.0
1001
ACAD
1010
0.0
1020
0.0
1030
0.0
  0
LINE
  5
18F9D
330
18
100
AcDbEntity
  8
1HATCH
  6
CONTINUOUS
100
AcDbLine
 10
-381.3088288240186
 20
-1503.634626561218
 30
0.0
 11
-381.3088288240186
 21
-1503.634626561218
 31
0.0
1001
ACAD
1010
0.0
1020
0.0
1030
0.0
  0
LINE
  5
18F9E
330
18
100
AcDbEntity
  8
1HATCH
  6
CONTINUOUS
100
AcDbLine
 10
-385.2951896405626
 20
-1509.866051408029
 30
0.0
 11
-384.4672151832733
 21
-1509.03807695074
 31
0.0
1001
ACAD
1010
0.0
1020
0.0
1030
0.0
  0
LINE
  5
18F9F
330
18
100
AcDbEntity
  8
1HATCH
  6
CONTINUOUS
100
AcDbLine
 10
-383.9059491757064
 20
-1508.476810943173
 30
0.0
 11
-383.9059491757064
 21
-1508.476810943173
 31
0.0
1001
ACAD
1010
0.0
1020
0.0
1030
0.0
  0
LINE
  5
18FA0
330
18
100
AcDbEntity
  8
1HATCH
  6
CONTINUOUS
100
AcDbLine
 10
-383.3446831681396
 20
-1507.915544935606
 30
0.0
 11
-381.3088288240186
 21
-1505.879690591485
 31
0.0
1001
ACAD
1010
0.0
1020
0.0
1030
0.0
  0
LINE
  5
18FA1
330
18
100
AcDbEntity
  8
1HATCH
  6
CONTINUOUS
100
AcDbLine
 10
-381.3088288240186
 20
-1505.879690591485
 30
0.0
 11
-381.3088288240186
 21
-1505.879690591485
 31
0.0
1001
ACAD
1010
0.0
1020
0.0
1030
0.0
  0
LINE
  5
18FA2
330
18
100
AcDbEntity
  8
1HATCH
  6
CONTINUOUS
100
AcDbLine
 10
-383.0501256102953
 20
-1509.866051408029
 30
0.0
 11
-381.3802521416558
 21
-1508.19617793939
 31
0.0
1001
ACAD
1010
0.0
1020
0.0
1030
0.0
  0
LINE
  5
18FA3
330
18
100
AcDbEntity
  8
1HATCH
  6
CONTINUOUS
100
AcDbLine
 10
-381.3088288240186
 20
-1508.124754621753
 30
0.0
 11
-381.3088288240186
 21
-1508.124754621753
 31
0.0
1001
ACAD
1010
0.0
1020
0.0
1030
0.0
  0
LINE
  5
18FA4
330
18
100
AcDbEntity
  8
1HATCH
  6
CONTINUOUS
100
AcDbLine
 10
-436.3785015583339
 20
-1518.866051408029
 30
0.0
 11
-437.3575528928629
 21
-1517.8870000735
 31
0.0
1001
ACAD
1010
0.0
1020
0.0
1030
0.0
  0
LINE
  5
18FA5
330
18
100
AcDbEntity
  8
1HATCH
  6
CONTINUOUS
100
AcDbLine
 10
-434.1334375280666
 20
-1518.866051408029
 30
0.0
 11
-437.3375813917737
 21
-1515.661907544322
 31
0.0
1001
ACAD
1010
0.0
1020
0.0
1030
0.0
  0
LINE
  5
18FA6
330
18
100
AcDbEntity
  8
1HATCH
  6
CONTINUOUS
100
AcDbLine
 10
-431.8883734977993
 20
-1518.866051408029
 30
0.0
 11
-437.3176098906844
 21
-1513.436815015144
 31
0.0
1001
ACAD
1010
0.0
1020
0.0
1030
0.0
  0
LINE
  5
18FA7
330
18
100
AcDbEntity
  8
1HATCH
  6
CONTINUOUS
100
AcDbLine
 10
-429.643309467532
 20
-1518.866051408029
 30
0.0
 11
-437.2976383895951
 21
-1511.211722485966
 31
0.0
1001
ACAD
1010
0.0
1020
0.0
1030
0.0
  0
LINE
  5
18FA8
330
18
100
AcDbEntity
  8
1HATCH
  6
CONTINUOUS
100
AcDbLine
 10
-427.3982454372647
 20
-1518.866051408029
 30
0.0
 11
-436.3982454372647
 21
-1509.866051408029
 31
0.0
1001
ACAD
1010
0.0
1020
0.0
1030
0.0
  0
LINE
  5
18FA9
330
18
100
AcDbEntity
  8
1HATCH
  6
CONTINUOUS
100
AcDbLine
 10
-425.1531814069974
 20
-1518.866051408029
 30
0.0
 11
-434.1531814069975
 21
-1509.866051408029
 31
0.0
1001
ACAD
1010
0.0
1020
0.0
1030
0.0
  0
LINE
  5
18FAA
330
18
100
AcDbEntity
  8
1HATCH
  6
CONTINUOUS
100
AcDbLine
 10
-422.9081173767302
 20
-1518.866051408029
 30
0.0
 11
-431.9081173767302
 21
-1509.866051408029
 31
0.0
1001
ACAD
1010
0.0
1020
0.0
1030
0.0
  0
LINE
  5
18FAB
330
18
100
AcDbEntity
  8
1HATCH
  6
CONTINUOUS
100
AcDbLine
 10
-420.6630533464628
 20
-1518.866051408029
 30
0.0
 11
-429.6630533464629
 21
-1509.866051408029
 31
0.0
1001
ACAD
1010
0.0
1020
0.0
1030
0.0
  0
LINE
  5
18FAC
330
18
100
AcDbEntity
  8
1HATCH
  6
CONTINUOUS
100
AcDbLine
 10
-418.4179893161956
 20
-1518.866051408029
 30
0.0
 11
-427.4179893161956
 21
-1509.866051408029
 31
0.0
1001
ACAD
1010
0.0
1020
0.0
1030
0.0
  0
LINE
  5
18FAD
330
18
100
AcDbEntity
  8
1HATCH
  6
CONTINUOUS
100
AcDbLine
 10
-416.1729252859283
 20
-1518.866051408029
 30
0.0
 11
-425.1729252859284
 21
-1509.866051408029
 31
0.0
1001
ACAD
1010
0.0
1020
0.0
1030
0.0
  0
LINE
  5
18FAE
330
18
100
AcDbEntity
  8
1HATCH
  6
CONTINUOUS
100
AcDbLine
 10
-413.927861255661
 20
-1518.866051408029
 30
0.0
 11
-422.9278612556611
 21
-1509.866051408029
 31
0.0
1001
ACAD
1010
0.0
1020
0.0
1030
0.0
  0
LINE
  5
18FAF
330
18
100
AcDbEntity
  8
1HATCH
  6
CONTINUOUS
100
AcDbLine
 10
-411.6827972253937
 20
-1518.866051408029
 30
0.0
 11
-420.6827972253939
 21
-1509.866051408029
 31
0.0
1001
ACAD
1010
0.0
1020
0.0
1030
0.0
  0
LINE
  5
18FB0
330
18
100
AcDbEntity
  8
1HATCH
  6
CONTINUOUS
100
AcDbLine
 10
-409.4377331951264
 20
-1518.866051408029
 30
0.0
 11
-418.4377331951266
 21
-1509.866051408029
 31
0.0
1001
ACAD
1010
0.0
1020
0.0
1030
0.0
  0
LINE
  5
18FB1
330
18
100
AcDbEntity
  8
1HATCH
  6
CONTINUOUS
100
AcDbLine
 10
-407.2939281402885
 20
-1518.7647924326
 30
0.0
 11
-416.1926691648593
 21
-1509.866051408029
 31
0.0
1001
ACAD
1010
0.0
1020
0.0
1030
0.0
  0
LINE
  5
18FB2
330
18
100
AcDbEntity
  8
1HATCH
  6
CONTINUOUS
100
AcDbLine
 10
-407.3501765879957
 20
-1516.463479954625
 30
0.0
 11
-407.5969675159561
 21
-1516.216689026665
 31
0.0
1001
ACAD
1010
0.0
1020
0.0
1030
0.0
  0
LINE
  5
18FB3
330
18
100
AcDbEntity
  8
1HATCH
  6
CONTINUOUS
100
AcDbLine
 10
-407.6813707036267
 20
-1516.132285838994
 30
0.0
 11
-413.947605134592
 21
-1509.866051408029
 31
0.0
1001
ACAD
1010
0.0
1020
0.0
1030
0.0
  0
LINE
  5
18FB4
330
18
100
AcDbEntity
  8
1HATCH
  6
CONTINUOUS
100
AcDbLine
 10
-402.7025411043246
 20
-1518.866051408029
 30
0.0
 11
-404.3501765879955
 21
-1517.218415924358
 31
0.0
1001
ACAD
1010
0.0
1020
0.0
1030
0.0
  0
LINE
  5
18FB5
330
18
100
AcDbEntity
  8
1HATCH
  6
CONTINUOUS
100
AcDbLine
 10
-407.3501765879955
 20
-1514.218415924358
 30
0.0
 11
-411.7025411043248
 21
-1509.866051408029
 31
0.0
1001
ACAD
1010
0.0
1020
0.0
1030
0.0
  0
LINE
  5
18FB6
330
18
100
AcDbEntity
  8
1HATCH
  6
CONTINUOUS
100
AcDbLine
 10
-400.4574770740573
 20
-1518.866051408029
 30
0.0
 11
-403.9395900645528
 21
-1515.383938417534
 31
0.0
1001
ACAD
1010
0.0
1020
0.0
1030
0.0
  0
LINE
  5
18FB7
330
18
100
AcDbEntity
  8
1HATCH
  6
CONTINUOUS
100
AcDbLine
 10
-403.9842969328611
 20
-1515.339231549226
 30
0.0
 11
-404.3501765879955
 21
-1514.973351894091
 31
0.0
1001
ACAD
1010
0.0
1020
0.0
1030
0.0
  0
LINE
  5
18FB8
330
18
100
AcDbEntity
  8
1HATCH
  6
CONTINUOUS
100
AcDbLine
 10
-407.3501765879955
 20
-1511.973351894091
 30
0.0
 11
-409.4574770740575
 21
-1509.866051408029
 31
0.0
1001
ACAD
1010
0.0
1020
0.0
1030
0.0
  0
LINE
  5
18FB9
330
18
100
AcDbEntity
  8
1HATCH
  6
CONTINUOUS
100
AcDbLine
 10
-398.21241304379
 20
-1518.866051408029
 30
0.0
 11
-404.3501765879955
 21
-1512.728287863824
 31
0.0
1001
ACAD
1010
0.0
1020
0.0
1030
0.0
  0
LINE
  5
18FBA
330
18
100
AcDbEntity
  8
1HATCH
  6
CONTINUOUS
100
AcDbLine
 10
-395.9673490135227
 20
-1518.866051408029
 30
0.0
 11
-404.197817181475
 21
-1510.635583240077
 31
0.0
1001
ACAD
1010
0.0
1020
0.0
1030
0.0
  0
LINE
  5
18FBB
330
18
100
AcDbEntity
  8
1HATCH
  6
CONTINUOUS
100
AcDbLine
 10
-393.7222849832554
 20
-1518.866051408029
 30
0.0
 11
-402.7222849832556
 21
-1509.866051408029
 31
0.0
1001
ACAD
1010
0.0
1020
0.0
1030
0.0
  0
LINE
  5
18FBC
330
18
100
AcDbEntity
  8
1HATCH
  6
CONTINUOUS
100
AcDbLine
 10
-391.4772209529881
 20
-1518.866051408029
 30
0.0
 11
-400.4772209529883
 21
-1509.866051408029
 31
0.0
1001
ACAD
1010
0.0
1020
0.0
1030
0.0
  0
LINE
  5
18FBD
330
18
100
AcDbEntity
  8
1HATCH
  6
CONTINUOUS
100
AcDbLine
 10
-389.2321569227208
 20
-1518.866051408029
 30
0.0
 11
-398.232156922721
 21
-1509.866051408029
 31
0.0
1001
ACAD
1010
0.0
1020
0.0
1030
0.0
  0
LINE
  5
18FBE
330
18
100
AcDbEntity
  8
1HATCH
  6
CONTINUOUS
100
AcDbLine
 10
-386.9870928924535
 20
-1518.866051408029
 30
0.0
 11
-395.9870928924537
 21
-1509.866051408029
 31
0.0
1001
ACAD
1010
0.0
1020
0.0
1030
0.0
  0
LINE
  5
18FBF
330
18
100
AcDbEntity
  8
1HATCH
  6
CONTINUOUS
100
AcDbLine
 10
-384.7420288621863
 20
-1518.866051408029
 30
0.0
 11
-393.7420288621864
 21
-1509.866051408029
 31
0.0
1001
ACAD
1010
0.0
1020
0.0
1030
0.0
  0
LINE
  5
18FC0
330
18
100
AcDbEntity
  8
1HATCH
  6
CONTINUOUS
100
AcDbLine
 10
-382.4969648319189
 20
-1518.866051408029
 30
0.0
 11
-391.4969648319191
 21
-1509.866051408029
 31
0.0
1001
ACAD
1010
0.0
1020
0.0
1030
0.0
  0
LINE
  5
18FC1
330
18
100
AcDbEntity
  8
1HATCH
  6
CONTINUOUS
100
AcDbLine
 10
-381.3088288240186
 20
-1517.809123385662
 30
0.0
 11
-389.2519008016517
 21
-1509.866051408029
 31
0.0
1001
ACAD
1010
0.0
1020
0.0
1030
0.0
  0
LINE
  5
18FC2
330
18
100
AcDbEntity
  8
1HATCH
  6
CONTINUOUS
100
AcDbLine
 10
-381.3088288240186
 20
-1515.564059355395
 30
0.0
 11
-387.0068367713844
 21
-1509.866051408029
 31
0.0
1001
ACAD
1010
0.0
1020
0.0
1030
0.0
  0
LINE
  5
18FC3
330
18
100
AcDbEntity
  8
1HATCH
  6
CONTINUOUS
100
AcDbLine
 10
-381.3088288240185
 20
-1513.318995325128
 30
0.0
 11
-384.7617727411172
 21
-1509.866051408029
 31
0.0
1001
ACAD
1010
0.0
1020
0.0
1030
0.0
  0
LINE
  5
18FC4
330
18
100
AcDbEntity
  8
1HATCH
  6
CONTINUOUS
100
AcDbLine
 10
-381.3088288240185
 20
-1511.073931294861
 30
0.0
 11
-382.5167087108499
 21
-1509.866051408029
 31
0.0
1001
ACAD
1010
0.0
1020
0.0
1030
0.0
  0
LINE
  5
18FC5
330
18
100
AcDbEntity
  8
1HATCH
  6
CONTINUOUS
100
AcDbLine
 10
-398.8373533562347
 20
-1488.513433278376
 30
0.0
 11
-396.4001300521006
 21
-1490.95065658251
 31
0.0
1001
ACAD
1010
0.0
1020
0.0
1030
0.0
  0
LINE
  5
18FC6
330
18
100
AcDbEntity
  8
1HATCH
  6
CONTINUOUS
100
AcDbLine
 10
-401.4001300520992
 20
-1488.195720612779
 30
0.0
 11
-396.4001300521001
 21
-1493.195720612778
 31
0.0
1001
ACAD
1010
0.0
1020
0.0
1030
0.0
  0
LINE
  5
18FC7
330
18
100
AcDbEntity
  8
1HATCH
  6
CONTINUOUS
100
AcDbLine
 10
-401.7349737767649
 20
-1490.10594091838
 30
0.0
 11
-396.4001300520996
 21
-1495.440784643046
 31
0.0
1001
ACAD
1010
0.0
1020
0.0
1030
0.0
  0
LINE
  5
18FC8
330
18
100
AcDbEntity
  8
1HATCH
  6
CONTINUOUS
100
AcDbLine
 10
-401.7501300520976
 20
-1492.335848673315
 30
0.0
 11
-397.219927317383
 21
-1496.86605140803
 31
0.0
1001
ACAD
1010
0.0
1020
0.0
1030
0.0
  0
LINE
  5
18FC9
330
18
100
AcDbEntity
  8
1HATCH
  6
CONTINUOUS
100
AcDbLine
 10
-402.4649913476503
 20
-1493.86605140803
 30
0.0
 11
-399.4649913476504
 21
-1496.86605140803
 31
0.0
1001
ACAD
1010
0.0
1020
0.0
1030
0.0
  0
LINE
  5
18FCA
330
18
100
AcDbEntity
  8
1HATCH
  6
CONTINUOUS
100
AcDbLine
 10
-403.2501300520976
 20
-1495.32597673385
 30
0.0
 11
-401.7100553779177
 21
-1496.866051408029
 31
0.0
1001
ACAD
1010
0.0
1020
0.0
1030
0.0
  0
LINE
  5
18FCB
330
18
100
AcDbEntity
  8
1HATCH
  6
CONTINUOUS
100
AcDbLine
 10
-411.0516445543947
 20
-1489.76952626182
 30
0.0
 11
-409.9501300520976
 21
-1490.871040764117
 31
0.0
1001
ACAD
1010
0.0
1020
0.0
1030
0.0
  0
LINE
  5
18FCC
330
18
100
AcDbEntity
  8
1HATCH
  6
CONTINUOUS
100
AcDbLine
 10
-412.2005480883543
 20
-1490.865686758127
 30
0.0
 11
-409.9501300520976
 21
-1493.116104794384
 31
0.0
1001
ACAD
1010
0.0
1020
0.0
1030
0.0
  0
LINE
  5
18FCD
330
18
100
AcDbEntity
  8
1HATCH
  6
CONTINUOUS
100
AcDbLine
 10
-409.2001834384526
 20
-1493.866051408029
 30
0.0
 11
-408.4501300520976
 21
-1494.616104794384
 31
0.0
1001
ACAD
1010
0.0
1020
0.0
1030
0.0
  0
LINE
  5
18FCE
330
18
100
AcDbEntity
  8
1HATCH
  6
CONTINUOUS
100
AcDbLine
 10
-413.1802794105954
 20
-1492.131019466153
 30
0.0
 11
-408.4501300520976
 21
-1496.861168824651
 31
0.0
1001
ACAD
1010
0.0
1020
0.0
1030
0.0
  0
LINE
  5
18FCF
330
18
100
AcDbEntity
  8
1HATCH
  6
CONTINUOUS
100
AcDbLine
 10
-414.5187279211015
 20
-1493.037634985915
 30
0.0
 11
-410.690311498987
 21
-1496.866051408029
 31
0.0
1001
ACAD
1010
0.0
1020
0.0
1030
0.0
  0
LINE
  5
18FD0
330
18
100
AcDbEntity
  8
1HATCH
  6
CONTINUOUS
100
AcDbLine
 10
-417.3113336069069
 20
-1492.490093330377
 30
0.0
 11
-412.9353755292544
 21
-1496.866051408029
 31
0.0
1001
ACAD
1010
0.0
1020
0.0
1030
0.0
  0
LINE
  5
18FD1
330
18
100
AcDbEntity
  8
1HATCH
  6
CONTINUOUS
100
AcDbLine
 10
-418.3412161281481
 20
-1493.705274839403
 30
0.0
 11
-415.1804395595218
 21
-1496.866051408029
 31
0.0
1001
ACAD
1010
0.0
1020
0.0
1030
0.0
  0
LINE
  5
18FD2
330
18
100
AcDbEntity
  8
1HATCH
  6
CONTINUOUS
100
AcDbLine
 10
-418.7783239970836
 20
-1495.513231000735
 30
0.0
 11
-417.4255035897892
 21
-1496.866051408029
 31
0.0
1001
ACAD
1010
0.0
1020
0.0
1030
0.0
  0
TEXT
  5
18FD3
330
18
100
AcDbEntity
  8
1DIM
  6
CONTINUOUS
100
AcDbText
 10
-391.5247545848578
 20
-1472.080007224704
 30
0.0
 40
3.5
  1
φ4×40十字穴付皿タッピン
100
AcDbText
1001
ACADANNOTATIVE
1000
AnnotativeData
1002
{
1070
     1
1070
     0
1002
}
  0
LINE
  5
18FD5
330
18
100
AcDbEntity
  8
1DIM
100
AcDbLine
 10
-404.2880898532532
 20
-1491.102342092133
 30
0.0
 11
-393.2914212515245
 21
-1472.780007224704
 31
0.0
  0
LINE
  5
18FD6
330
18
100
AcDbEntity
  8
1DIM
100
AcDbLine
 10
-393.2914212515245
 20
-1472.780007224704
 30
0.0
 11
-336.1414212515244
 21
-1472.780007224704
 31
0.0
  0
TEXT
  5
18FD7
330
18
100
AcDbEntity
  8
1DIM
  6
CONTINUOUS
100
AcDbText
 10
-375.4512249075948
 20
-1491.200751435184
 30
0.0
 40
3.5
  1
カウンター下穴φ6
100
AcDbText
1001
ACADANNOTATIVE
1000
AnnotativeData
1002
{
1070
     1
1070
     0
1002
}
  0
LINE
  5
18FD9
330
18
100
AcDbEntity
  8
1DIM
100
AcDbLine
 10
-401.803486733698
 20
-1501.93228432125
 30
0.0
 11
-377.6845582409282
 21
-1491.900751435184
 31
0.0
  0
LINE
  5
18FDA
330
18
100
AcDbEntity
  8
1DIM
100
AcDbLine
 10
-377.6845582409282
 20
-1491.900751435184
 30
0.0
 11
-339.0178915742615
 21
-1491.900751435184
 31
0.0
  0
LINE
  5
18FDB
330
18
100
AcDbEntity
  8
1DIM
100
AcDbLine
 10
-407.7251300520976
 20
-1496.866051408029
 30
0.0
 11
-441.1106421450093
 21
-1496.866051408029
 31
0.0
1001
ACAD
1000
DSTYLE
1002
{
1070
    45
1040
0.5
1002
}
  0
LINE
  5
18FDC
330
18
100
AcDbEntity
  8
1DIM
100
AcDbLine
 10
-405.8501300520976
 20
-1532.166051873462
 30
0.0
 11
-441.1106421450093
 21
-1532.166051873462
 31
0.0
1001
ACAD
1000
DSTYLE
1002
{
1070
    45
1040
0.5
1002
}
  0
LINE
  5
18FDD
330
18
100
AcDbEntity
  8
1DIM
100
AcDbLine
 10
-440.1106421450093
 20
-1498.866051408029
 30
0.0
 11
-440.1106421450093
 21
-1530.166051873462
 31
0.0
1001
ACAD
1000
DSTYLE
1002
{
1070
    45
1040
0.5
1002
}
  0
LINE
  5
18FE1
330
18
100
AcDbEntity
  8
1DIM
100
AcDbLine
 10
-409.8501300520976
 20
-1492.166042566174
 30
0.0
 11
-446.7925989303909
 21
-1492.166042566174
 31
0.0
1001
ACAD
1000
DSTYLE
1002
{
1070
    45
1040
0.5
1002
}
  0
LINE
  5
18FE2
330
18
100
AcDbEntity
  8
1DIM
100
AcDbLine
 10
-405.8501300520976
 20
-1532.166051873462
 30
0.0
 11
-446.7925989303909
 21
-1532.166051873462
 31
0.0
1001
ACAD
1000
DSTYLE
1002
{
1070
    45
1040
0.5
1002
}
  0
LINE
  5
18FE3
330
18
100
AcDbEntity
  8
1DIM
100
AcDbLine
 10
-445.7925989303909
 20
-1494.166042566174
 30
0.0
 11
-445.7925989303909
 21
-1530.166051873462
 31
0.0
1001
ACAD
1000
DSTYLE
1002
{
1070
    45
1040
0.5
1002
}
  0
LINE
  5
18FE7
330
18
100
AcDbEntity
  8
1DIM
100
AcDbLine
 10
-420.6001300520977
 20
-1496.866051408029
 30
0.0
 11
-420.6001300520977
 21
-1558.918896014564
 31
0.0
1001
ACAD
1000
DSTYLE
1002
{
1070
    45
1040
0.5
1002
}
  0
LINE
  5
18FE8
330
18
100
AcDbEntity
  8
1DIM
100
AcDbLine
 10
-396.6001300520977
 20
-1496.86605140803
 30
0.0
 11
-396.6001300520977
 21
-1558.918896014564
 31
0.0
1001
ACAD
1000
DSTYLE
1002
{
1070
    45
1040
0.5
1002
}
  0
LINE
  5
18FE9
330
18
100
AcDbEntity
  8
1DIM
100
AcDbLine
 10
-418.6001300520977
 20
-1557.918896014564
 30
0.0
 11
-398.6001300520977
 21
-1557.918896014564
 31
0.0
1001
ACAD
1000
DSTYLE
1002
{
1070
    45
1040
0.5
1002
}
  0
LINE
  5
18FED
330
18
100
AcDbEntity
  8
0
  6
BYBLOCK
100
AcDbLine
 10
-479.7035375300347
 20
-1423.531089133487
 30
0.0
 11
-479.4255679804942
 21
-1421.479280174735
 31
0.0
  0
LINE
  5
18FEE
330
18
100
AcDbEntity
  8
0
  6
BYBLOCK
100
AcDbLine
 10
-479.4255679804942
 20
-1421.479280174735
 30
0.0
 11
-478.6403922011904
 21
-1423.395183635059
 31
0.0
  0
LINE
  5
18FEF
330
18
100
AcDbEntity
  8
0
  6
BYBLOCK
100
AcDbLine
 10
-479.4255679804942
 20
-1421.479280174735
 30
0.0
 11
-479.1719648656126
 21
-1423.463136384273
 31
0.0
  0
LINE
  5
18FF0
330
18
100
AcDbEntity
  8
0
  6
BYBLOCK
100
AcDbLine
 10
-529.7181085585721
 20
-1399.093692018512
 30
0.0
 11
-528.9139038986831
 21
-1401.00168623724
 31
0.0
  0
LINE
  5
18FF1
330
18
100
AcDbEntity
  8
0
  6
BYBLOCK
100
AcDbLine
 10
-528.9139038986831
 20
-1401.00168623724
 30
0.0
 11
-530.5643626676809
 21
-1399.751417096005
 31
0.0
  0
LINE
  5
18FF2
330
18
100
AcDbEntity
  8
0
  6
BYBLOCK
100
AcDbLine
 10
-528.9139038986831
 20
-1401.00168623724
 30
0.0
 11
-530.1412356131265
 21
-1399.422554557258
 31
0.0
  0
LINE
  5
18FF3
330
18
100
AcDbEntity
  8
0
  6
BYBLOCK
100
AcDbLine
 10
-453.9081951747985
 20
-1412.657034981087
 30
0.0
 11
-455.9187938939677
 21
-1413.151686236176
 31
0.0
  0
LINE
  5
18FF4
330
18
100
AcDbEntity
  8
0
  6
BYBLOCK
100
AcDbLine
 10
-455.9187938939677
 20
-1413.151686236176
 30
0.0
 11
-454.4248899473917
 21
-1411.718006330447
 31
0.0
  0
LINE
  5
18FF5
330
18
100
AcDbEntity
  8
0
  6
BYBLOCK
100
AcDbLine
 10
-455.9187938939677
 20
-1413.151686236176
 30
0.0
 11
-454.1665425610951
 21
-1412.187520655767
 31
0.0
  0
LINE
  5
18FF6
330
18
100
AcDbEntity
  8
0
  6
BYBLOCK
100
AcDbLine
 10
-453.0934692327902
 20
-1420.399658794136
 30
0.0
 11
-454.1582406657078
 21
-1418.623863516147
 31
0.0
  0
LINE
  5
18FF7
330
18
100
AcDbEntity
  8
0
  6
BYBLOCK
100
AcDbLine
 10
-454.1582406657078
 20
-1418.623863516147
 30
0.0
 11
-452.348223921144
 21
-1419.629361630558
 31
0.0
  0
LINE
  5
18FF8
330
18
100
AcDbEntity
  8
0
  6
BYBLOCK
100
AcDbLine
 10
-454.1582406657078
 20
-1418.623863516147
 30
0.0
 11
-452.7208465769671
 21
-1420.014510212347
 31
0.0
  0
LINE
  5
18FF9
330
18
100
AcDbEntity
  8
0
  6
BYBLOCK
100
AcDbLine
 10
-1341.199464273612
 20
-1572.324107994246
 30
0.0
 11
-1351.199464273612
 21
-1569.644616094246
 31
0.0
  0
LINE
  5
18FFA
330
18
100
AcDbEntity
  8
0
  6
BYBLOCK
100
AcDbLine
 10
-1351.199464273612
 20
-1569.644616094246
 30
0.0
 11
-1341.199464273612
 21
-1566.965124194246
 31
0.0
  0
LINE
  5
18FFB
330
18
100
AcDbEntity
  8
0
  6
BYBLOCK
100
AcDbLine
 10
-1351.199464273612
 20
-1569.644616094246
 30
0.0
 11
-1341.199464273612
 21
-1569.644616094246
 31
0.0
  0
LINE
  5
18FFC
330
18
100
AcDbEntity
  8
0
  6
BYBLOCK
100
AcDbLine
 10
-461.199464273612
 20
-1566.965124194246
 30
0.0
 11
-451.199464273612
 21
-1569.644616094246
 31
0.0
  0
LINE
  5
18FFD
330
18
100
AcDbEntity
  8
0
  6
BYBLOCK
100
AcDbLine
 10
-451.199464273612
 20
-1569.644616094246
 30
0.0
 11
-461.199464273612
 21
-1572.324107994246
 31
0.0
  0
LINE
  5
18FFE
330
18
100
AcDbEntity
  8
0
  6
BYBLOCK
100
AcDbLine
 10
-451.199464273612
 20
-1569.644616094246
 30
0.0
 11
-461.199464273612
 21
-1569.644616094246
 31
0.0
  0
TEXT
  5
18FFF
330
18
100
AcDbEntity
  8
1TEXT2
  6
CONTINUOUS
100
AcDbText
 10
-921.9888161254638
 20
-1566.144616094246
 30
0.0
 40
17.5
  1
900
100
AcDbText
1001
ACAD
1000
DSTYLE
1002
{
1070
    40
1040
5.0
1002
}
  0
LINE
  5
19000
330
18
100
AcDbEntity
  8
0
  6
BYBLOCK
100
AcDbLine
 10
-461.199464273612
 20
-1524.5590985852
 30
0.0
 11
-451.199464273612
 21
-1527.2385904852
 31
0.0
  0
LINE
  5
19001
330
18
100
AcDbEntity
  8
0
  6
BYBLOCK
100
AcDbLine
 10
-451.199464273612
 20
-1527.2385904852
 30
0.0
 11
-461.199464273612
 21
-1529.9180823852
 31
0.0
  0
LINE
  5
19002
330
18
100
AcDbEntity
  8
0
  6
BYBLOCK
100
AcDbLine
 10
-451.199464273612
 20
-1527.2385904852
 30
0.0
 11
-461.199464273612
 21
-1527.2385904852
 31
0.0
  0
LINE
  5
19003
330
18
100
AcDbEntity
  8
0
  6
BYBLOCK
100
AcDbLine
 10
-591.199464273612
 20
-1529.9180823852
 30
0.0
 11
-601.199464273612
 21
-1527.2385904852
 31
0.0
  0
LINE
  5
19004
330
18
100
AcDbEntity
  8
0
  6
BYBLOCK
100
AcDbLine
 10
-601.199464273612
 20
-1527.2385904852
 30
0.0
 11
-591.199464273612
 21
-1524.5590985852
 31
0.0
  0
LINE
  5
19005
330
18
100
AcDbEntity
  8
0
  6
BYBLOCK
100
AcDbLine
 10
-601.199464273612
 20
-1527.2385904852
 30
0.0
 11
-591.199464273612
 21
-1527.2385904852
 31
0.0
  0
TEXT
  5
19006
330
18
100
AcDbEntity
  8
1TEXT2
  6
CONTINUOUS
100
AcDbText
 10
-547.0055915598117
 20
-1523.7385904852
 30
0.0
 40
17.5
  1
150
100
AcDbText
1001
ACAD
1000
DSTYLE
1002
{
1070
    40
1040
5.0
1002
}
  0
LINE
  5
19007
330
18
100
AcDbEntity
  8
0
  6
BYBLOCK
100
AcDbLine
 10
-611.199464273612
 20
-1524.5590985852
 30
0.0
 11
-601.199464273612
 21
-1527.2385904852
 31
0.0
  0
LINE
  5
19008
330
18
100
AcDbEntity
  8
0
  6
BYBLOCK
100
AcDbLine
 10
-601.199464273612
 20
-1527.2385904852
 30
0.0
 11
-611.199464273612
 21
-1529.9180823852
 31
0.0
  0
LINE
  5
19009
330
18
100
AcDbEntity
  8
0
  6
BYBLOCK
100
AcDbLine
 10
-601.199464273612
 20
-1527.2385904852
 30
0.0
 11
-611.199464273612
 21
-1527.2385904852
 31
0.0
  0
LINE
  5
1900A
330
18
100
AcDbEntity
  8
0
  6
BYBLOCK
100
AcDbLine
 10
-791.199464273612
 20
-1529.9180823852
 30
0.0
 11
-801.199464273612
 21
-1527.2385904852
 31
0.0
  0
LINE
  5
1900B
330
18
100
AcDbEntity
  8
0
  6
BYBLOCK
100
AcDbLine
 10
-801.199464273612
 20
-1527.2385904852
 30
0.0
 11
-791.199464273612
 21
-1524.5590985852
 31
0.0
  0
LINE
  5
1900C
330
18
100
AcDbEntity
  8
0
  6
BYBLOCK
100
AcDbLine
 10
-801.199464273612
 20
-1527.2385904852
 30
0.0
 11
-791.199464273612
 21
-1527.2385904852
 31
0.0
  0
TEXT
  5
1900D
330
18
100
AcDbEntity
  8
1TEXT2
  6
CONTINUOUS
100
AcDbText
 10
-721.980714273612
 20
-1523.7385904852
 30
0.0
 40
17.5
  1
200
100
AcDbText
1001
ACAD
1000
DSTYLE
1002
{
1070
    40
1040
5.0
1002
}
  0
LINE
  5
1900E
330
18
100
AcDbEntity
  8
0
  6
BYBLOCK
100
AcDbLine
 10
-1341.199464273612
 20
-1529.9180823852
 30
0.0
 11
-1351.199464273612
 21
-1527.2385904852
 31
0.0
  0
LINE
  5
1900F
330
18
100
AcDbEntity
  8
0
  6
BYBLOCK
100
AcDbLine
 10
-1351.199464273612
 20
-1527.2385904852
 30
0.0
 11
-1341.199464273612
 21
-1524.5590985852
 31
0.0
  0
LINE
  5
19010
330
18
100
AcDbEntity
  8
0
  6
BYBLOCK
100
AcDbLine
 10
-1351.199464273612
 20
-1527.2385904852
 30
0.0
 11
-1341.199464273612
 21
-1527.2385904852
 31
0.0
  0
LINE
  5
19011
330
18
100
AcDbEntity
  8
0
  6
BYBLOCK
100
AcDbLine
 10
-1211.199464273612
 20
-1524.5590985852
 30
0.0
 11
-1201.199464273612
 21
-1527.2385904852
 31
0.0
  0
LINE
  5
19012
330
18
100
AcDbEntity
  8
0
  6
BYBLOCK
100
AcDbLine
 10
-1201.199464273612
 20
-1527.2385904852
 30
0.0
 11
-1211.199464273612
 21
-1529.9180823852
 31
0.0
  0
LINE
  5
19013
330
18
100
AcDbEntity
  8
0
  6
BYBLOCK
100
AcDbLine
 10
-1201.199464273612
 20
-1527.2385904852
 30
0.0
 11
-1211.199464273612
 21
-1527.2385904852
 31
0.0
  0
TEXT
  5
19014
330
18
100
AcDbEntity
  8
1TEXT2
  6
CONTINUOUS
100
AcDbText
 10
-1295.583144829168
 20
-1523.7385904852
 30
0.0
 40
17.5
  1
150
100
AcDbText
1001
ACAD
1000
DSTYLE
1002
{
1070
    40
1040
5.0
1002
}
  0
LINE
  5
19015
330
18
100
AcDbEntity
  8
0
  6
BYBLOCK
100
AcDbLine
 10
-1191.199464273612
 20
-1529.4180823852
 30
0.0
 11
-1201.199464273612
 21
-1526.7385904852
 31
0.0
  0
LINE
  5
19016
330
18
100
AcDbEntity
  8
0
  6
BYBLOCK
100
AcDbLine
 10
-1201.199464273612
 20
-1526.7385904852
 30
0.0
 11
-1191.199464273612
 21
-1524.0590985852
 31
0.0
  0
LINE
  5
19017
330
18
100
AcDbEntity
  8
0
  6
BYBLOCK
100
AcDbLine
 10
-1201.199464273612
 20
-1526.7385904852
 30
0.0
 11
-1191.199464273612
 21
-1526.7385904852
 31
0.0
  0
LINE
  5
19018
330
18
100
AcDbEntity
  8
0
  6
BYBLOCK
100
AcDbLine
 10
-1011.199464273612
 20
-1524.0590985852
 30
0.0
 11
-1001.199464273612
 21
-1526.7385904852
 31
0.0
  0
LINE
  5
19019
330
18
100
AcDbEntity
  8
0
  6
BYBLOCK
100
AcDbLine
 10
-1001.199464273612
 20
-1526.7385904852
 30
0.0
 11
-1011.199464273612
 21
-1529.4180823852
 31
0.0
  0
LINE
  5
1901A
330
18
100
AcDbEntity
  8
0
  6
BYBLOCK
100
AcDbLine
 10
-1001.199464273612
 20
-1526.7385904852
 30
0.0
 11
-1011.199464273612
 21
-1526.7385904852
 31
0.0
  0
TEXT
  5
1901B
330
18
100
AcDbEntity
  8
1TEXT2
  6
CONTINUOUS
100
AcDbText
 10
-1121.980714273612
 20
-1523.2385904852
 30
0.0
 40
17.5
  1
200
100
AcDbText
1001
ACAD
1000
DSTYLE
1002
{
1070
    40
1040
5.0
1002
}
  0
LINE
  5
1901C
330
18
100
AcDbEntity
  8
0
  6
BYBLOCK
100
AcDbLine
 10
-449.199464273612
 20
-1430.309843603453
 30
0.0
 11
-451.199464273612
 21
-1429.773945223453
 31
0.0
  0
LINE
  5
1901D
330
18
100
AcDbEntity
  8
0
  6
BYBLOCK
100
AcDbLine
 10
-451.199464273612
 20
-1429.773945223453
 30
0.0
 11
-449.199464273612
 21
-1429.238046843453
 31
0.0
  0
LINE
  5
1901E
330
18
100
AcDbEntity
  8
0
  6
BYBLOCK
100
AcDbLine
 10
-451.199464273612
 20
-1429.773945223453
 30
0.0
 11
-449.199464273612
 21
-1429.773945223453
 31
0.0
  0
LINE
  5
1901F
330
18
100
AcDbEntity
  8
0
  6
BYBLOCK
100
AcDbLine
 10
-403.199464273612
 20
-1429.238046843453
 30
0.0
 11
-401.199464273612
 21
-1429.773945223453
 31
0.0
  0
LINE
  5
19020
330
18
100
AcDbEntity
  8
0
  6
BYBLOCK
100
AcDbLine
 10
-401.199464273612
 20
-1429.773945223453
 30
0.0
 11
-403.199464273612
 21
-1430.309843603453
 31
0.0
  0
LINE
  5
19021
330
18
100
AcDbEntity
  8
0
  6
BYBLOCK
100
AcDbLine
 10
-401.199464273612
 20
-1429.773945223453
 30
0.0
 11
-403.199464273612
 21
-1429.773945223453
 31
0.0
  0
TEXT
  5
19022
330
18
100
AcDbEntity
  8
1DIM
  6
CONTINUOUS
100
AcDbText
 10
-428.9095337180564
 20
-1429.073945223453
 30
0.0
 40
3.5
  1
50
100
AcDbText
  0
LINE
  5
19023
330
18
100
AcDbEntity
  8
0
  6
BYBLOCK
100
AcDbLine
 10
-398.3199632740771
 20
-1520.97767043738
 30
0.0
 11
-399.2486070423258
 21
-1519.127046805904
 31
0.0
  0
LINE
  5
19024
330
18
100
AcDbEntity
  8
0
  6
BYBLOCK
100
AcDbLine
 10
-399.2486070423258
 20
-1519.127046805904
 30
0.0
 11
-397.5190661373823
 21
-1520.265412007328
 31
0.0
  0
LINE
  5
19025
330
18
100
AcDbEntity
  8
0
  6
BYBLOCK
100
AcDbLine
 10
-399.2486070423258
 20
-1519.127046805904
 30
0.0
 11
-397.9195147057297
 21
-1520.621541222354
 31
0.0
  0
LINE
  5
19026
330
18
100
AcDbEntity
  8
0
  6
BYBLOCK
100
AcDbLine
 10
-407.8501300520976
 20
-1548.199892601144
 30
0.0
 11
-405.8501300520976
 21
-1548.735790981144
 31
0.0
  0
LINE
  5
19027
330
18
100
AcDbEntity
  8
0
  6
BYBLOCK
100
AcDbLine
 10
-405.8501300520976
 20
-1548.735790981144
 30
0.0
 11
-407.8501300520976
 21
-1549.271689361143
 31
0.0
  0
LINE
  5
19028
330
18
100
AcDbEntity
  8
0
  6
BYBLOCK
100
AcDbLine
 10
-405.8501300520976
 20
-1548.735790981144
 30
0.0
 11
-407.8501300520976
 21
-1548.735790981144
 31
0.0
  0
LINE
  5
19029
330
18
100
AcDbEntity
  8
0
  6
BYBLOCK
100
AcDbLine
 10
-418.6001300520977
 20
-1549.271689361143
 30
0.0
 11
-420.6001300520977
 21
-1548.735790981144
 31
0.0
  0
LINE
  5
1902A
330
18
100
AcDbEntity
  8
0
  6
BYBLOCK
100
AcDbLine
 10
-420.6001300520977
 20
-1548.735790981144
 30
0.0
 11
-418.6001300520977
 21
-1548.199892601144
 31
0.0
  0
LINE
  5
1902B
330
18
100
AcDbEntity
  8
0
  6
BYBLOCK
100
AcDbLine
 10
-420.6001300520977
 20
-1548.735790981144
 30
0.0
 11
-418.6001300520977
 21
-1548.735790981144
 31
0.0
  0
TEXT
  5
1902C
330
18
100
AcDbEntity
  8
1DIM
  6
CONTINUOUS
100
AcDbText
 10
-415.558463385431
 20
-1548.035790981143
 30
0.0
 40
3.5
  1
15
100
AcDbText
1001
ACAD
1000
DSTYLE
1002
{
1070
    45
1040
0.5
1002
}
  0
LINE
  5
1902D
330
18
100
AcDbEntity
  8
0
  6
BYBLOCK
100
AcDbLine
 10
-403.8285969409266
 20
-1491.378119787403
 30
0.0
 11
-405.317306232932
 21
-1492.817193002213
 31
0.0
  0
LINE
  5
1902E
330
18
100
AcDbEntity
  8
0
  6
BYBLOCK
100
AcDbLine
 10
-405.317306232932
 20
-1492.817193002213
 30
0.0
 11
-404.7475827655798
 21
-1490.826564396864
 31
0.0
  0
LINE
  5
1902F
330
18
100
AcDbEntity
  8
0
  6
BYBLOCK
100
AcDbLine
 10
-405.317306232932
 20
-1492.817193002213
 30
0.0
 11
-404.2880898532532
 21
-1491.102342092133
 31
0.0
  0
LINE
  5
19030
330
18
100
AcDbEntity
  8
0
  6
BYBLOCK
100
AcDbLine
 10
-401.5976870235291
 20
-1502.427090902634
 30
0.0
 11
-403.6501300520977
 21
-1502.700339302751
 31
0.0
  0
LINE
  5
19031
330
18
100
AcDbEntity
  8
0
  6
BYBLOCK
100
AcDbLine
 10
-403.6501300520977
 20
-1502.700339302751
 30
0.0
 11
-402.0092864438669
 21
-1501.437477739865
 31
0.0
  0
LINE
  5
19032
330
18
100
AcDbEntity
  8
0
  6
BYBLOCK
100
AcDbLine
 10
-403.6501300520977
 20
-1502.700339302751
 30
0.0
 11
-401.803486733698
 21
-1501.93228432125
 31
0.0
  0
LINE
  5
19033
330
18
100
AcDbEntity
  8
0
  6
BYBLOCK
100
AcDbLine
 10
-440.6465405250093
 20
-1498.866051408029
 30
0.0
 11
-440.1106421450093
 21
-1496.866051408029
 31
0.0
  0
LINE
  5
19034
330
18
100
AcDbEntity
  8
0
  6
BYBLOCK
100
AcDbLine
 10
-440.1106421450093
 20
-1496.866051408029
 30
0.0
 11
-439.5747437650093
 21
-1498.866051408029
 31
0.0
  0
LINE
  5
19035
330
18
100
AcDbEntity
  8
0
  6
BYBLOCK
100
AcDbLine
 10
-440.1106421450093
 20
-1496.866051408029
 30
0.0
 11
-440.1106421450093
 21
-1498.866051408029
 31
0.0
  0
LINE
  5
19036
330
18
100
AcDbEntity
  8
0
  6
BYBLOCK
100
AcDbLine
 10
-439.5747437650093
 20
-1530.166051873462
 30
0.0
 11
-440.1106421450093
 21
-1532.166051873462
 31
0.0
  0
LINE
  5
19037
330
18
100
AcDbEntity
  8
0
  6
BYBLOCK
100
AcDbLine
 10
-440.1106421450093
 20
-1532.166051873462
 30
0.0
 11
-440.6465405250093
 21
-1530.166051873462
 31
0.0
  0
LINE
  5
19038
330
18
100
AcDbEntity
  8
0
  6
BYBLOCK
100
AcDbLine
 10
-440.1106421450093
 20
-1532.166051873462
 30
0.0
 11
-440.1106421450093
 21
-1530.166051873462
 31
0.0
  0
TEXT
  5
19039
330
18
100
AcDbEntity
  8
1DIM
  6
CONTINUOUS
100
AcDbText
 10
-440.8106421450091
 20
-1519.778204418524
 30
0.0
 40
3.5
  1
35.5
 50
90.0
100
AcDbText
1001
ACAD
1000
DSTYLE
1002
{
1070
    45
1040
0.5
1002
}
  0
LINE
  5
1903A
330
18
100
AcDbEntity
  8
0
  6
BYBLOCK
100
AcDbLine
 10
-446.3284973103909
 20
-1494.166042566174
 30
0.0
 11
-445.7925989303909
 21
-1492.166042566174
 31
0.0
  0
LINE
  5
1903B
330
18
100
AcDbEntity
  8
0
  6
BYBLOCK
100
AcDbLine
 10
-445.7925989303909
 20
-1492.166042566174
 30
0.0
 11
-445.2567005503909
 21
-1494.166042566174
 31
0.0
  0
LINE
  5
1903C
330
18
100
AcDbEntity
  8
0
  6
BYBLOCK
100
AcDbLine
 10
-445.7925989303909
 20
-1492.166042566174
 30
0.0
 11
-445.7925989303909
 21
-1494.166042566174
 31
0.0
  0
LINE
  5
1903D
330
18
100
AcDbEntity
  8
0
  6
BYBLOCK
100
AcDbLine
 10
-445.2567005503909
 20
-1530.166051873462
 30
0.0
 11
-445.7925989303909
 21
-1532.166051873462
 31
0.0
  0
LINE
  5
1903E
330
18
100
AcDbEntity
  8
0
  6
BYBLOCK
100
AcDbLine
 10
-445.7925989303909
 20
-1532.166051873462
 30
0.0
 11
-446.3284973103909
 21
-1530.166051873462
 31
0.0
  0
LINE
  5
1903F
330
18
100
AcDbEntity
  8
0
  6
BYBLOCK
100
AcDbLine
 10
-445.7925989303909
 20
-1532.166051873462
 30
0.0
 11
-445.7925989303909
 21
-1530.166051873462
 31
0.0
  0
TEXT
  5
19040
330
18
100
AcDbEntity
  8
1DIM
  6
CONTINUOUS
100
AcDbText
 10
-446.4925989303908
 20
-1514.863963886485
 30
0.0
 40
3.5
  1
40
 50
90.0
100
AcDbText
1001
ACAD
1000
DSTYLE
1002
{
1070
    45
1040
0.5
1002
}
  0
LINE
  5
19041
330
18
100
AcDbEntity
  8
0
  6
BYBLOCK
100
AcDbLine
 10
-418.6001300520977
 20
-1558.454794394564
 30
0.0
 11
-420.6001300520977
 21
-1557.918896014564
 31
0.0
  0
LINE
  5
19042
330
18
100
AcDbEntity
  8
0
  6
BYBLOCK
100
AcDbLine
 10
-420.6001300520977
 20
-1557.918896014564
 30
0.0
 11
-418.6001300520977
 21
-1557.382997634564
 31
0.0
  0
LINE
  5
19043
330
18
100
AcDbEntity
  8
0
  6
BYBLOCK
100
AcDbLine
 10
-420.6001300520977
 20
-1557.918896014564
 30
0.0
 11
-418.6001300520977
 21
-1557.918896014564
 31
0.0
  0
LINE
  5
19044
330
18
100
AcDbEntity
  8
0
  6
BYBLOCK
100
AcDbLine
 10
-398.6001300520977
 20
-1557.382997634564
 30
0.0
 11
-396.6001300520977
 21
-1557.918896014564
 31
0.0
  0
LINE
  5
19045
330
18
100
AcDbEntity
  8
0
  6
BYBLOCK
100
AcDbLine
 10
-396.6001300520977
 20
-1557.918896014564
 30
0.0
 11
-398.6001300520977
 21
-1558.454794394564
 31
0.0
  0
LINE
  5
19046
330
18
100
AcDbEntity
  8
0
  6
BYBLOCK
100
AcDbLine
 10
-396.6001300520977
 20
-1557.918896014564
 30
0.0
 11
-398.6001300520977
 21
-1557.918896014564
 31
0.0
  0
TEXT
  5
19047
330
18
100
AcDbEntity
  8
1DIM
  6
CONTINUOUS
100
AcDbText
 10
-411.5167967187644
 20
-1557.218896014564
 30
0.0
 40
3.5
  1
24
100
AcDbText
1001
ACAD
1000
DSTYLE
1002
{
1070
    45
1040
0.5
1002
}
  0
VIEWPORT
  5
57
330
15
100
AcDbEntity
 67
     1
  8
0
100
AcDbViewport
 68
     1
 10
0.0
 20
0.0
 30
0.0
 40
475.3404255319149
 41
297.0
 68
     1
 69
     1
1001
ACAD
1000
MVIEW
1002
{
1070
    16
1010
0.0
1020
0.0
1030
0.0
1010
0.0
1020
0.0
1030
1.0
1040
0.0
1040
297.0
1040
-5.503893869787134
1040
24.07876886286567
1040
50.0
1040
0.0
1040
0.0
1070
    16
1070
  1000
1070
     0
1070
     1
1070
     0
1070
     0
1070
     0
1070
     0
1040
0.0
1040
0.0
1040
0.0
1040
10.0
1040
10.0
1040
10.0
1040
10.0
1070
     0
1002
{
1002
}
1002
}
  0
ENDSEC
  0
SECTION
  2
OBJECTS
  0
DICTIONARY
  5
C
330
0
100
AcDbDictionary
  3
ACAD_COLOR
350
2D0
  3
ACAD_GROUP
350
D
  3
ACAD_LAYOUT
350
2D1
  3
ACAD_MATERIAL
350
2CF
  3
ACAD_MLEADERSTYLE
350
160A3
  3
ACAD_MLINESTYLE
350
1B
  3
ACAD_PLOTSETTINGS
350
2D2
  3
ACAD_SCALELIST
350
16081
  3
ACAD_VISUALSTYLE
350
16070
  3
ACDBHEADERROUNDTRIPXREC
350
19048
  3
ACDBVARIABLEDICTIONARY
350
37
  3
CONTENTDICTIONARY
350
D8
  3
DRAWINGVARIABLESDICT
350
20
  3
DWGPROPS
350
1904B
1001
ACAD
1000
TREAT_AS_HARD
1070
     0
  0
DICTIONARY
  5
14E5F
330
2
100
AcDbDictionary
  3
ACAD_LAYERSTATES
360
14E60
1001
ACAD
1000
TREAT_AS_HARD
1070
     1
  0
DICTIONARY
  5
160B4
330
E
100
AcDbDictionary
  3
ADSK_XREC_LAYER_RECONCILED
360
160B5
1001
ACAD
1000
TREAT_AS_HARD
1070
     1
  0
DICTIONARY
  5
160B6
330
29
100
AcDbDictionary
  3
ADSK_XREC_LAYER_RECONCILED
360
160B7
1001
ACAD
1000
TREAT_AS_HARD
1070
     1
  0
DICTIONARY
  5
160B8
330
31
100
AcDbDictionary
  3
ADSK_XREC_LAYER_RECONCILED
360
160B9
1001
ACAD
1000
TREAT_AS_HARD
1070
     1
  0
DICTIONARY
  5
160C2
330
101
100
AcDbDictionary
  3
ADSK_XREC_LAYER_RECONCILED
360
160C3
1001
ACAD
1000
TREAT_AS_HARD
1070
     1
  0
DICTIONARY
  5
160C4
330
102
100
AcDbDictionary
  3
ADSK_XREC_LAYER_RECONCILED
360
160C5
1001
ACAD
1000
TREAT_AS_HARD
1070
     1
  0
DICTIONARY
  5
160CA
330
25F
100
AcDbDictionary
  3
ADSK_XREC_LAYER_RECONCILED
360
160CB
1001
ACAD
1000
TREAT_AS_HARD
1070
     1
  0
DICTIONARY
  5
160E6
330
26D
100
AcDbDictionary
  3
ADSK_XREC_LAYER_RECONCILED
360
160E7
1001
ACAD
1000
TREAT_AS_HARD
1070
     1
  0
DICTIONARY
  5
160FC
330
6DD
100
AcDbDictionary
  3
ADSK_XREC_LAYER_RECONCILED
360
160FD
1001
ACAD
1000
TREAT_AS_HARD
1070
     1
  0
DICTIONARY
  5
160FE
330
6DE
100
AcDbDictionary
  3
ADSK_XREC_LAYER_RECONCILED
360
160FF
1001
ACAD
1000
TREAT_AS_HARD
1070
     1
  0
DICTIONARY
  5
16100
330
6DF
100
AcDbDictionary
  3
ADSK_XREC_LAYER_RECONCILED
360
16101
1001
ACAD
1000
TREAT_AS_HARD
1070
     1
  0
DICTIONARY
  5
16102
330
6E0
100
AcDbDictionary
  3
ADSK_XREC_LAYER_RECONCILED
360
16103
1001
ACAD
1000
TREAT_AS_HARD
1070
     1
  0
DICTIONARY
  5
6E9
330
18
100
AcDbDictionary
  3
ACAD_SORTENTS
360
6EA
1001
ACAD
1000
TREAT_AS_HARD
1070
     1
  0
DICTIONARY
  5
59B
330
15
100
AcDbDictionary
  3
ACAD_SORTENTS
360
59C
1001
ACAD
1000
TREAT_AS_HARD
1070
     1
  0
DICTIONARY
  5
2D0
102
{ACAD_REACTORS
330
C
102
}
330
C
100
AcDbDictionary
1001
ACAD
1000
TREAT_AS_HARD
1070
     0
  0
DICTIONARY
  5
D
102
{ACAD_REACTORS
330
C
102
}
330
C
100
AcDbDictionary
1001
ACAD
1000
TREAT_AS_HARD
1070
     0
  0
DICTIONARY
  5
2D1
102
{ACAD_REACTORS
330
C
102
}
330
C
100
AcDbDictionary
1001
ACAD
1000
TREAT_AS_HARD
1070
     0
  0
DICTIONARY
  5
2CF
102
{ACAD_REACTORS
330
C
102
}
330
C
100
AcDbDictionary
  3
BYBLOCK
350
16060
  3
BYLAYER
350
16058
  3
GLOBAL
350
16068
1001
ACAD
1000
TREAT_AS_HARD
1070
     0
  0
DICTIONARY
  5
160A3
102
{ACAD_REACTORS
330
C
102
}
330
C
100
AcDbDictionary
  3
STANDARD
350
160A4
1001
ACAD
1000
TREAT_AS_HARD
1070
     0
  0
DICTIONARY
  5
1B
102
{ACAD_REACTORS
330
C
102
}
330
C
100
AcDbDictionary
  3
STANDARD
350
1C
1001
ACAD
1000
TREAT_AS_HARD
1070
     0
  0
DICTIONARY
  5
2D2
102
{ACAD_REACTORS
330
C
102
}
330
C
100
AcDbDictionary
1001
ACAD
1000
TREAT_AS_HARD
1070
     0
  0
DICTIONARY
  5
16081
102
{ACAD_REACTORS
330
C
102
}
330
C
100
AcDbDictionary
  3
A0
350
16082
  3
A1
350
16083
  3
A2
350
16084
  3
A3
350
16085
  3
A4
350
16086
  3
A5
350
16087
  3
A6
350
16088
  3
A7
350
16089
  3
A8
350
1608A
  3
A9
350
1608B
  3
B0
350
1608C
  3
B1
350
1608D
  3
B2
350
1608E
  3
B3
350
1608F
  3
B4
350
16090
  3
B5
350
16091
  3
B6
350
16092
  3
B7
350
16093
  3
B8
350
16094
  3
B9
350
16095
  3
C0
350
16096
  3
C1
350
16097
  3
C2
350
16098
  3
C3
350
16099
  3
C4
350
1609A
  3
C5
350
1609B
  3
C6
350
1609C
  3
C7
350
1609D
  3
C8
350
1609E
  3
C9
350
1609F
  3
D0
350
160A0
  3
D1
350
160A1
  3
D2
350
160A2
1001
ACAD
1000
TREAT_AS_HARD
1070
     0
  0
DICTIONARY
  5
16070
102
{ACAD_REACTORS
330
C
102
}
330
C
100
AcDbDictionary
  3
2DWIREFRAME
350
16076
  3
3D_HIDDEN
350
16078
  3
3DWIREFRAME
350
16077
  3
BASIC
350
16075
  3
BRIGHTEN
350
1607C
  3
COLORCHANGE
350
16080
  3
CONCEPTUAL
350
16079
  3
DIM
350
1607B
  3
EDGECOLOROFF
350
1823F
  3
FACEPATTERN
350
1607F
  3
FLAT
350
16071
  3
FLATWITHEDGES
350
16072
  3
GOURAUD
350
16073
  3
GOURAUDWITHEDGES
350
16074
  3
HIDDEN
350
1823C
  3
JITTEROFF
350
1823D
  3
LINEPATTERN
350
1607E
  3
MODELING
350
18245
  3
OVERHANGOFF
350
1823E
  3
REALISTIC
350
1607A
  3
SHADED
350
18244
  3
SHADED_WITH_EDGES
350
18243
  3
SHADES_OF_GRAY
350
18240
  3
SKETCHY
350
18241
  3
THICKEN
350
1607D
  3
WIREFRAME
350
1823B
  3
X-RAY
350
18242
1001
ACAD
1000
TREAT_AS_HARD
1070
     0
  0
DICTIONARY
  5
19048
102
{ACAD_REACTORS
330
C
102
}
330
C
100
AcDbDictionary
  3
COLORDICT
350
19049
  3
MATERIALDICT
350
1904A
1001
ACAD
1000
TREAT_AS_HARD
1070
     0
  0
DICTIONARY
  5
37
102
{ACAD_REACTORS
330
C
102
}
330
C
100
AcDbDictionary
  3
CANNOSCALE
350
183E9
  3
CMLEADERSTYLE
350
16144
  3
CTABLESTYLE
350
4F1
  3
DIMADEC
350
38
  3
DIMASSOC
350
408
  3
HIDETEXT
350
1891
  3
INDEXCTL
350
16147
  3
INTERSECTIONCOLOR
350
1895
  3
INTERSECTIONDISPLAY
350
1894
  3
LAYERNOTIFY
350
17442
  3
MSLTSCALE
350
1842D
  3
OBSCOLOR
350
1892
  3
OBSLTYPE
350
1893
  3
PROJECTNAME
350
409
  3
SORTENTS
350
16146
  3
XCLIPFRAME
350
183EA
1001
ACAD
1000
TREAT_AS_HARD
1070
     0
  0
DICTIONARY
  5
D8
102
{ACAD_REACTORS
330
C
102
}
330
C
100
AcDbDictionary
1001
CONTENTTABDATA
1070
    11
1000
Child
1000
D:\ACLT\TABset\CHILDREN.dwg
1070
     0
1070
     0
1070
     1
1000
PK
1000
D:\ACLT\TABset\PK.dwg
1070
     0
1070
     0
1070
     1
1000
Lev1
1000
D:\ACLT\TABset\Lever01.dwg
1070
     0
1070
     0
1070
     1
1000
Lev2
1000
D:\ACLT\TABset\Lever02.dwg
1070
     0
1070
     0
1070
     1
1000
L3
1000
D:\Aclt\TABset\Lever03.dwg
1070
     0
1070
     0
1070
     1
1000
Form
1000
D:\ACLT\FORMAT
1070
     1
1070
     0
1070
     1
1000
Jnt
1000
D:\ACLT\TABset\JOINTPARTS.dwg
1070
     0
1070
     0
1070
     1
1000
ISO
1000
D:\ACLT\TABset\Isome01.dwg
1070
     0
1070
     0
1070
     1
1000
R
1000
D:\ACLT\TABset\REGION.dwg
1070
     0
1070
     0
1070
     1
1000
std
1000
D:\ACLT\TABset\std_sym_all.dwg
1070
     0
1070
     0
1070
     1
1000
丸
1000
D:\Aclt\TABset\MARU.dwg
1070
     0
1070
     0
1070
     1
1001
CONTENTCURRENTTAB
1070
     0
1001
ACAD
1000
TREAT_AS_HARD
1070
     0
  0
DICTIONARY
  5
20
102
{ACAD_REACTORS
330
C
102
}
330
C
100
AcDbDictionary
1001
DRAWINGVARIABLESXDATA
1000
POLARANG
1000
0.261799387799149410000000
1000
POLARMODE
1000
1
1000
POLARSTYLE
1000
1
1001
ACAD
1000
TREAT_AS_HARD
1070
     0
  0
XRECORD
  5
1904B
102
{ACAD_REACTORS
330
C
102
}
330
C
100
AcDbXrecord
  1
DWGPROPS COOKIE
  2

  3

  4

  6

  7

  8
3684
  9

300
=
301
=
302
=
303
=
304
=
305
=
306
=
307
=
308
=
309
=
 40
0.0
 41
2453033.357663484
 42
2459646.19188794
  1

 90
        0
  0
DICTIONARY
  5
14E60
102
{ACAD_REACTORS
330
14E5F
102
}
330
14E5F
100
AcDbDictionary
1001
ACAD
1000
TREAT_AS_HARD
1070
     0
  0
ACAD_PROXY_OBJECT
  5
160B5
102
{ACAD_REACTORS
330
160B4
102
}
330
160B4
100
AcDbZombieObject
 90
      499
 91
      515
 93
       34
310
40C8804040
  0
ACAD_PROXY_OBJECT
  5
160B7
102
{ACAD_REACTORS
330
160B6
102
}
330
160B6
100
AcDbZombieObject
 90
      499
 91
      515
 93
       34
310
40C8804040
  0
ACAD_PROXY_OBJECT
  5
160B9
102
{ACAD_REACTORS
330
160B8
102
}
330
160B8
100
AcDbZombieObject
 90
      499
 91
      515
 93
       34
310
40C8804040
  0
ACAD_PROXY_OBJECT
  5
160C3
102
{ACAD_REACTORS
330
160C2
102
}
330
160C2
100
AcDbZombieObject
 90
      499
 91
      515
 93
       34
310
40C8804040
  0
ACAD_PROXY_OBJECT
  5
160C5
102
{ACAD_REACTORS
330
160C4
102
}
330
160C4
100
AcDbZombieObject
 90
      499
 91
      515
 93
       34
310
40C8804040
  0
ACAD_PROXY_OBJECT
  5
160CB
102
{ACAD_REACTORS
330
160CA
102
}
330
160CA
100
AcDbZombieObject
 90
      499
 91
      515
 93
       34
310
40C8804040
  0
ACAD_PROXY_OBJECT
  5
160E7
102
{ACAD_REACTORS
330
160E6
102
}
330
160E6
100
AcDbZombieObject
 90
      499
 91
      515
 93
       34
310
40C8804040
  0
ACAD_PROXY_OBJECT
  5
160FD
102
{ACAD_REACTORS
330
160FC
102
}
330
160FC
100
AcDbZombieObject
 90
      499
 91
      515
 93
       34
310
40C8804040
  0
ACAD_PROXY_OBJECT
  5
160FF
102
{ACAD_REACTORS
330
160FE
102
}
330
160FE
100
AcDbZombieObject
 90
      499
 91
      515
 93
       34
310
40C8804040
  0
ACAD_PROXY_OBJECT
  5
16101
102
{ACAD_REACTORS
330
16100
102
}
330
16100
100
AcDbZombieObject
 90
      499
 91
      515
 93
       34
310
40C8804040
  0
ACAD_PROXY_OBJECT
  5
16103
102
{ACAD_REACTORS
330
16102
102
}
330
16102
100
AcDbZombieObject
 90
      499
 91
      515
 93
       34
310
40C8804040
  0
SORTENTSTABLE
  5
6EA
102
{ACAD_REACTORS
330
6E9
102
}
330
6E9
100
AcDbSortentsTable
330
18
331
0
  5
99AB
331
0
  5
AB53
331
0
  5
AB54
331
0
  5
ECB5
331
0
  5
ED39
331
0
  5
ED3B
331
0
  5
ED3C
331
0
  5
ED3D
331
0
  5
ED3E
331
0
  5
ED41
331
0
  5
ED43
331
0
  5
ED44
331
0
  5
ED46
331
0
  5
ED47
331
10E83
  5
1109D
331
0
  5
15D1C
331
0
  5
15D1D
331
0
  5
16028
331
0
  5
16029
331
0
  5
1602D
331
0
  5
1602E
331
0
  5
1655C
331
16533
  5
16569
331
16535
  5
17268
331
16536
  5
1726A
331
16537
  5
1726B
331
16538
  5
1726C
331
16539
  5
1726D
331
1653B
  5
1727A
331
1653C
  5
1727B
331
1653E
  5
1727D
331
16540
  5
1729D
331
16542
  5
172AA
331
16543
  5
17416
331
16544
  5
17417
331
16545
  5
17448
331
16547
  5
1800E
331
16548
  5
18013
331
16549
  5
18027
331
1654A
  5
18104
331
1654E
  5
18355
331
16555
  5
18357
331
16556
  5
18358
331
16557
  5
18359
331
16558
  5
1835A
331
16559
  5
1835B
331
1655A
  5
18361
331
1655B
  5
18365
331
1655C
  5
1836B
331
16569
  5
1836C
331
1656A
  5
1836D
331
1656D
  5
1836E
331
16570
  5
18370
331
16573
  5
18371
331
16574
  5
1837B
331
1657B
  5
1837C
331
1657E
  5
18389
331
16581
  5
1838A
331
165B8
  5
1838B
331
165B9
  5
1838C
331
165BA
  5
1838D
331
165BB
  5
1838E
331
165BC
  5
1838F
331
165BD
  5
18390
331
165BE
  5
18391
331
165BF
  5
18392
331
165C0
  5
18393
331
165C1
  5
18394
331
165C2
  5
18395
331
165C3
  5
18396
331
165C4
  5
18397
331
165C5
  5
18398
331
165C6
  5
18399
331
165D5
  5
1839A
331
165E1
  5
1839B
331
165E2
  5
1839C
331
165E4
  5
1839D
331
165E6
  5
1839E
331
165E8
  5
1839F
331
165EB
  5
183A0
331
165EC
  5
183A1
331
165EE
  5
183A2
331
165F1
  5
183A3
331
165F2
  5
183A4
331
165F4
  5
183A5
331
165F6
  5
183A6
331
165F7
  5
183A7
331
16600
  5
183A8
331
16601
  5
183A9
331
16602
  5
183AA
331
16603
  5
183AB
331
16604
  5
183AC
331
16605
  5
183AD
331
16606
  5
183AE
331
16607
  5
183AF
331
1661C
  5
183B0
331
16652
  5
183B1
331
16653
  5
183C5
331
16654
  5
183C6
331
16BB7
  5
1836F
331
16BBF
  5
183C7
331
16BC1
  5
183C9
331
0
  5
16538
331
0
  5
16EAC
331
0
  5
16EAD
331
16EA6
  5
18E3A
331
16EA7
  5
18E3B
331
16EA8
  5
18E3C
331
16EA9
  5
18E3D
331
16EAA
  5
18E3E
331
16EAB
  5
18E3F
331
16EAC
  5
18E40
331
16EAD
  5
18E41
331
171DD
  5
18E42
331
171DE
  5
18E43
331
171DF
  5
18E44
331
171E0
  5
18E45
331
171E1
  5
18E46
331
171E2
  5
18E47
331
171E3
  5
18E48
331
171E4
  5
18E49
331
171E5
  5
18E4A
331
171E6
  5
18E4B
331
171E7
  5
18E4C
331
171E8
  5
18E4D
331
0
  5
16A5A
331
1725D
  5
18E4E
331
1725E
  5
18E4F
331
1725F
  5
18E50
331
17260
  5
18E51
331
17261
  5
18E52
331
17262
  5
18E53
331
17263
  5
18E54
331
17264
  5
18E55
331
17265
  5
18E56
331
17266
  5
18E5A
331
17267
  5
18E5B
331
17268
  5
18E5C
331
1726A
  5
18E60
331
1726B
  5
18E61
331
1726C
  5
18E62
331
1726D
  5
18E66
331
1727A
  5
18E67
331
1727B
  5
18E68
331
0
  5
17449
331
0
  5
178F7
331
0
  5
178F8
331
17E71
  5
183C8
331
17E72
  5
183CA
331
0
  5
17F10
331
0
  5
17F11
331
17F0E
  5
18EA8
331
17F0F
  5
18EA9
331
17F10
  5
18EAA
331
17F11
  5
18EAB
331
0
  5
18120
331
0
  5
18121
331
18355
  5
18F90
331
18357
  5
18FB4
331
18358
  5
18FB5
331
18359
  5
18FB6
331
1835A
  5
18FB7
331
1835B
  5
18FB8
331
18361
  5
18FB9
331
18365
  5
18FBA
331
1836B
  5
18FC9
331
1836C
  5
18FCA
331
1836D
  5
18FCB
331
1836E
  5
18FCC
331
1836F
  5
18FCD
331
18370
  5
18FCE
331
18371
  5
18FCF
331
1837B
  5
18FD0
331
1837C
  5
18FD1
331
18389
  5
18FE1
331
1838A
  5
18FE2
331
1838B
  5
18FE3
331
1838C
  5
18FE7
331
1838D
  5
18FE8
331
1838E
  5
18FE9
331
1838F
  5
18FED
331
18390
  5
18FEE
331
18391
  5
18FEF
331
18392
  5
18FF0
331
18393
  5
18FF1
331
18394
  5
18FF2
331
18395
  5
18FF3
331
18396
  5
18FF4
331
18397
  5
18FF5
331
18398
  5
18FF6
331
18399
  5
18FF7
331
1839A
  5
18FF8
331
1839B
  5
18FF9
331
1839C
  5
18FFA
331
1839D
  5
18FFB
331
1839E
  5
18FFC
331
1839F
  5
18FFD
331
183A0
  5
18FFE
331
183A1
  5
18FFF
331
183A2
  5
19000
331
183A3
  5
19001
331
183A4
  5
19002
331
183A5
  5
19003
331
183A6
  5
19004
331
183A7
  5
19005
331
183A8
  5
19006
331
183A9
  5
19007
331
183AA
  5
19008
331
183AB
  5
19009
331
183AC
  5
1900A
331
183AD
  5
1900B
331
183AE
  5
1900C
331
183AF
  5
1900D
331
183B0
  5
1900E
331
183B1
  5
1900F
331
183B2
  5
19010
331
183B3
  5
19011
331
183B4
  5
19012
331
183B5
  5
19013
331
183B6
  5
19014
331
183B7
  5
19015
331
183B8
  5
19016
331
183B9
  5
19017
331
183BA
  5
19018
331
183BB
  5
19019
331
183BC
  5
1901A
331
183BD
  5
1901B
331
183BE
  5
1901C
331
183BF
  5
1901D
331
183C0
  5
1901E
331
183C1
  5
1901F
331
183C2
  5
19020
331
183C3
  5
19021
331
183C4
  5
19022
331
183C5
  5
19023
331
183C6
  5
19024
331
183C7
  5
19025
331
183C8
  5
19026
331
183C9
  5
19027
331
183CA
  5
19028
331
183CB
  5
19029
331
0
  5
16034
331
18E36
  5
1653C
331
18E37
  5
1653E
331
18E38
  5
1653F
331
0
  5
1653B
331
18E3A
  5
16547
331
18E3B
  5
16548
331
18E3C
  5
1654A
331
18E3D
  5
1654B
331
0
  5
16543
331
18E3F
  5
16558
331
18E40
  5
16559
331
18E41
  5
1655A
331
18E42
  5
1655B
331
18E43
  5
1656A
331
18E44
  5
1656D
331
18E45
  5
1656F
331
18E46
  5
16570
331
18E47
  5
16572
331
18E48
  5
16576
331
18E49
  5
1657A
331
18E4A
  5
16586
331
18E4B
  5
16599
331
18E4C
  5
165BE
331
18E4D
  5
165BF
331
18E4E
  5
165C0
331
18E4F
  5
165C1
331
18E50
  5
165C2
331
18E51
  5
165C3
331
18E52
  5
165C4
331
18E53
  5
165C5
331
18E54
  5
165C6
331
18E55
  5
165C7
331
18E56
  5
165C8
331
18E57
  5
165C9
331
18E58
  5
165CA
331
18E59
  5
165CB
331
18E5A
  5
165CC
331
18E5B
  5
165E4
331
18E5C
  5
165E6
331
18E5D
  5
165E8
331
18E5E
  5
165EA
331
18E5F
  5
165EB
331
18E60
  5
165F1
331
18E61
  5
165F2
331
18E62
  5
165F4
331
18E63
  5
165F6
331
18E64
  5
165F7
331
18E65
  5
165F9
331
18E66
  5
165FA
331
18E67
  5
165FB
331
18E68
  5
165FD
331
18E69
  5
165FE
331
18E6A
  5
165FF
331
18E6B
  5
16600
331
18E6C
  5
16601
331
18E6D
  5
1664E
331
18E6E
  5
16651
331
18E6F
  5
16652
331
18E70
  5
16653
331
18E71
  5
16654
331
18E72
  5
16A52
331
18E73
  5
16A56
331
18E74
  5
16A57
331
18E75
  5
16A58
331
18E76
  5
16A59
331
18E77
  5
16A5B
331
18E78
  5
16BBF
331
18E79
  5
16EA8
331
18E7A
  5
16EA9
331
18E7B
  5
16EAA
331
18E7C
  5
16EAB
331
18E7D
  5
16EB5
331
18E7E
  5
16EB7
331
18E7F
  5
171DF
331
18E80
  5
171E0
331
18E81
  5
171E1
331
18E82
  5
171E2
331
18E83
  5
171E3
331
18E84
  5
171E4
331
18E85
  5
171E5
331
18E86
  5
171E6
331
18E87
  5
171E7
331
18E88
  5
171E8
331
18E89
  5
171E9
331
18E8A
  5
17206
331
18E8B
  5
1725D
331
18E8C
  5
1725E
331
18E8D
  5
1725F
331
18E8E
  5
17260
331
18E8F
  5
17261
331
18E90
  5
17262
331
18E91
  5
17263
331
18E92
  5
17264
331
18E93
  5
17265
331
18E94
  5
17266
331
18E95
  5
17267
331
0
  5
183C1
331
18E97
  5
18E37
331
18E98
  5
18E38
331
18E99
  5
18E39
331
18E9A
  5
183B2
331
18E9B
  5
183B3
331
18E9C
  5
183B4
331
18E9D
  5
183B5
331
18E9E
  5
183B6
331
18E9F
  5
183B7
331
18EA0
  5
183B8
331
18EA1
  5
183B9
331
18EA2
  5
183BA
331
18EA3
  5
183BB
331
18EA4
  5
183BC
331
18EA5
  5
183BD
331
18EA6
  5
183BE
331
18EA7
  5
183BF
331
18EA8
  5
183C0
331
18EA9
  5
183C2
331
18EAA
  5
183C3
331
18EAB
  5
183C4
331
18EAC
  5
18E6C
331
18EAD
  5
18E6D
331
18EAE
  5
18E6E
331
0
  5
18E57
331
0
  5
18E58
331
0
  5
18E59
331
18EB2
  5
18E7C
331
18EB3
  5
18E7D
331
18EB4
  5
18E7F
331
0
  5
18E5D
331
0
  5
18E5E
331
0
  5
18E5F
331
18EB8
  5
18E8A
331
18EB9
  5
18E8B
331
18EBA
  5
18E8C
331
0
  5
18E63
331
0
  5
18E64
331
0
  5
18E65
331
18EBE
  5
18E94
331
18EBF
  5
18E95
331
18EC0
  5
18E96
331
0
  5
18E69
331
0
  5
18E6A
331
0
  5
18E6B
331
18EC4
  5
18E9E
331
18EC5
  5
18E9F
331
18EC6
  5
18EA0
331
0
  5
18E6F
331
0
  5
18E70
331
0
  5
18E71
331
18ECA
  5
18EAC
331
18ECB
  5
18EAD
331
18ECC
  5
18EAE
331
0
  5
18E79
331
0
  5
18E7A
331
0
  5
18E7B
331
18ED0
  5
18EB6
331
18ED1
  5
18EB7
331
0
  5
18E7E
331
18ED3
  5
18EBB
331
18ED4
  5
18EBC
331
18ED5
  5
18EBD
331
18ED6
  5
18EBE
331
18ED7
  5
18EBF
331
18ED8
  5
18EC0
331
0
  5
18E85
331
0
  5
18E86
331
0
  5
18E87
331
18EDC
  5
18EC8
331
18EDD
  5
18EC9
331
18EDE
  5
18ECA
331
18EDF
  5
18ECB
331
18EE0
  5
18ECC
331
18EE1
  5
18ECD
331
18EE2
  5
18ECE
331
18EE3
  5
18ECF
331
18EE4
  5
18ED0
331
18EE5
  5
18ED1
331
18EE6
  5
18ED2
331
18EE7
  5
18ED3
331
18EE8
  5
18ED4
331
18EE9
  5
18ED5
331
18EEA
  5
18ED6
331
18EEB
  5
18ED7
331
18EEC
  5
18ED8
331
18EED
  5
18ED9
331
18EEE
  5
18EDA
331
18EEF
  5
18EDB
331
18EF0
  5
18EDC
331
18EF1
  5
18EDD
331
18EF2
  5
18EDE
331
18EF3
  5
18EDF
331
18EF4
  5
18EE0
331
18EF5
  5
18EE1
331
18EF6
  5
18EE2
331
18EF7
  5
18EE3
331
18EF8
  5
18EE4
331
18EF9
  5
18EE5
331
18EFA
  5
18EE6
331
18EFB
  5
18EE7
331
18EFC
  5
18EE8
331
18EFD
  5
18EE9
331
18EFE
  5
18EEA
331
18EFF
  5
18EEB
331
18F00
  5
18EEC
331
18F01
  5
18EED
331
18F02
  5
18EEE
331
18F03
  5
18EEF
331
18F04
  5
18EF0
331
18F05
  5
18EF1
331
18F06
  5
18EF2
331
18F07
  5
18EF3
331
18F08
  5
18EF4
331
18F09
  5
18EF5
331
18F0A
  5
18EF6
331
18F0B
  5
18EF7
331
18F0C
  5
18EF8
331
18F0D
  5
18EF9
331
18F0E
  5
18EFA
331
18F0F
  5
18EFB
331
18F10
  5
18EFC
331
18F11
  5
18EFD
331
18F12
  5
18EFE
331
18F13
  5
18EFF
331
18F14
  5
18F00
331
18F15
  5
18F01
331
18F16
  5
18F02
331
18F17
  5
18F03
331
18F18
  5
18F04
331
18F19
  5
18F05
331
18F1A
  5
18F06
331
18F1B
  5
18F07
331
18F1C
  5
18F08
331
18F1D
  5
18F09
331
18F1E
  5
18F0A
331
18F1F
  5
18F0B
331
18F20
  5
18F0C
331
18F21
  5
18F0D
331
18F22
  5
18F0E
331
18F23
  5
18F0F
331
18F24
  5
18F10
331
18F25
  5
18F11
331
18F26
  5
18F12
331
18F27
  5
18F13
331
18F28
  5
18F14
331
18F29
  5
18F15
331
18F2A
  5
18F16
331
18F2B
  5
18F17
331
18F2C
  5
18F18
331
18F2D
  5
18F19
331
18F2E
  5
18F1A
331
18F2F
  5
18F1B
331
18F30
  5
18F1C
331
18F31
  5
18F1D
331
18F32
  5
18F1E
331
18F33
  5
18F1F
331
18F34
  5
18F20
331
18F35
  5
18F21
331
18F36
  5
18F22
331
18F37
  5
18F23
331
18F38
  5
18F24
331
18F39
  5
18F25
331
18F3A
  5
18F26
331
18F3B
  5
18F27
331
18F3C
  5
18F28
331
18F3D
  5
18F29
331
18F3E
  5
18F2A
331
18F3F
  5
18F2B
331
18F40
  5
18F2C
331
18F41
  5
18F2D
331
18F42
  5
18F2E
331
18F43
  5
18F2F
331
18F44
  5
18F30
331
18F45
  5
18F31
331
18F46
  5
18F32
331
18F47
  5
18F33
331
18F48
  5
18F34
331
18F49
  5
18F35
331
18F4A
  5
18F36
331
18F4B
  5
18F37
331
18F4C
  5
18F38
331
18F4D
  5
18F39
331
18F4E
  5
18F3A
331
18F4F
  5
18F3B
331
18F50
  5
18F3C
331
18F51
  5
18F3D
331
18F52
  5
18F3E
331
18F53
  5
18F3F
331
18F54
  5
18F40
331
18F55
  5
18F41
331
18F56
  5
18F42
331
18F57
  5
18F43
331
18F58
  5
18F44
331
18F59
  5
18F45
331
18F5A
  5
18F46
331
18F5B
  5
18F47
331
18F5C
  5
18F48
331
18F5D
  5
18F49
331
18F5E
  5
18F4A
331
18F5F
  5
18F4B
331
18F60
  5
18F4C
331
18F61
  5
18F4D
331
18F62
  5
18F4E
331
18F63
  5
18F4F
331
18F64
  5
18F50
331
18F65
  5
18F51
331
18F66
  5
18F52
331
18F67
  5
18F53
331
18F68
  5
18F54
331
18F69
  5
18F55
331
18F6A
  5
18F56
331
18F6B
  5
18F57
331
18F6C
  5
18F58
331
18F6D
  5
18F59
331
18F6E
  5
18F5A
331
18F6F
  5
18F5B
331
18F70
  5
18F5C
331
18F71
  5
18F5D
331
18F72
  5
18F5E
331
18F73
  5
18F5F
331
18F74
  5
18F60
331
18F75
  5
18F61
331
18F76
  5
18F62
331
18F77
  5
18F63
331
18F78
  5
18F64
331
18F79
  5
18F65
331
18F7A
  5
18F66
331
18F7B
  5
18F67
331
18F7C
  5
18F68
331
18F7D
  5
18F69
331
18F7E
  5
18F6A
331
18F7F
  5
18F6B
331
18F80
  5
18F6C
331
18F81
  5
18F6D
331
18F82
  5
18F6E
331
18F83
  5
18F6F
331
18F84
  5
18F70
331
18F85
  5
18F71
331
18F86
  5
18F72
331
18F87
  5
18F73
331
18F88
  5
18F74
331
18F89
  5
18F75
331
18F8A
  5
18F76
331
18F8B
  5
18F77
331
18F8C
  5
18F78
331
18F8D
  5
18F79
331
18F8E
  5
18F7A
331
18F8F
  5
18F7B
331
18F90
  5
18F7C
331
18F91
  5
18F7D
331
18F92
  5
18F7E
331
18F93
  5
18F7F
331
18F94
  5
18F80
331
18F95
  5
18F81
331
18F96
  5
18F82
331
18F97
  5
18F83
331
18F98
  5
18F84
331
18F99
  5
18F85
331
18F9A
  5
18F86
331
18F9B
  5
18F87
331
18F9C
  5
18F88
331
18F9D
  5
18F89
331
18F9E
  5
18F8A
331
18F9F
  5
18F8B
331
18FA0
  5
18F8C
331
18FA1
  5
18F8D
331
18FA2
  5
18F8E
331
18FA3
  5
18F8F
331
18FA4
  5
18F92
331
18FA5
  5
18F93
331
18FA6
  5
18F94
331
18FA7
  5
18F96
331
18FA8
  5
18F97
331
18FA9
  5
18F98
331
18FAA
  5
18F99
331
18FAB
  5
18F9A
331
18FAC
  5
18F9B
331
18FAD
  5
18F9C
331
18FAE
  5
18F9D
331
18FAF
  5
18F9E
331
18FB0
  5
18F9F
331
18FB1
  5
18FA0
331
18FB2
  5
18FA1
331
18FB3
  5
18FA2
331
18FB4
  5
18FA3
331
18FB5
  5
18FA4
331
18FB6
  5
18FA5
331
18FB7
  5
18FA6
331
18FB8
  5
18FA7
331
18FB9
  5
18FA8
331
18FBA
  5
18FA9
331
18FBB
  5
18FAA
331
18FBC
  5
18FAB
331
18FBD
  5
18FAC
331
18FBE
  5
18FAD
331
18FBF
  5
18FAE
331
18FC0
  5
18FAF
331
18FC1
  5
18FB0
331
18FC2
  5
18FB1
331
18FC3
  5
18FB2
331
18FC4
  5
18FB3
331
18FC5
  5
18FBB
331
18FC6
  5
18FBC
331
18FC7
  5
18FBD
331
18FC8
  5
18FBE
331
18FC9
  5
18FBF
331
18FCA
  5
18FC0
331
18FCB
  5
18FC1
331
18FCC
  5
18FC2
331
18FCD
  5
18FC3
331
18FCE
  5
18FC4
331
18FCF
  5
18FC5
331
18FD0
  5
18FC6
331
18FD1
  5
18FC7
331
18FD2
  5
18FC8
331
18FD3
  5
18FD2
331
0
  5
18F91
331
18FD5
  5
18FD6
331
18FD6
  5
18FD7
331
18FD7
  5
18FD8
331
0
  5
18F95
331
18FD9
  5
18FDC
331
18FDA
  5
18FDD
331
18FDB
  5
1902A
331
18FDC
  5
1902B
331
18FDD
  5
1902C
331
18FE1
  5
19034
331
18FE2
  5
19035
331
18FE3
  5
19036
331
18FE7
  5
1903E
331
18FE8
  5
1903F
331
18FE9
  5
19040
331
18FED
  5
16536
331
18FEE
  5
16539
331
18FEF
  5
1653A
331
18FF0
  5
16541
331
18FF1
  5
16545
331
18FF2
  5
16546
331
18FF3
  5
1654C
331
18FF4
  5
1654D
331
18FF5
  5
16556
331
18FF6
  5
183CB
331
18FF7
  5
18E35
331
18FF8
  5
18E36
331
18FF9
  5
18E72
331
18FFA
  5
18E73
331
18FFB
  5
18E74
331
18FFC
  5
18E75
331
18FFD
  5
18E76
331
18FFE
  5
18E77
331
18FFF
  5
18E78
331
19000
  5
18E80
331
19001
  5
18E81
331
19002
  5
18E82
331
19003
  5
18E83
331
19004
  5
18E84
331
19005
  5
18E88
331
19006
  5
18E89
331
19007
  5
18E8D
331
19008
  5
18E8E
331
19009
  5
18E8F
331
1900A
  5
18E90
331
1900B
  5
18E91
331
1900C
  5
18E92
331
1900D
  5
18E93
331
1900E
  5
18E97
331
1900F
  5
18E98
331
19010
  5
18E99
331
19011
  5
18E9A
331
19012
  5
18E9B
331
19013
  5
18E9C
331
19014
  5
18E9D
331
19015
  5
18EA1
331
19016
  5
18EA2
331
19017
  5
18EA3
331
19018
  5
18EA4
331
19019
  5
18EA5
331
1901A
  5
18EA6
331
1901B
  5
18EA7
331
1901C
  5
18EAF
331
1901D
  5
18EB0
331
1901E
  5
18EB1
331
1901F
  5
18EB2
331
19020
  5
18EB3
331
19021
  5
18EB4
331
19022
  5
18EB5
331
19023
  5
18EB8
331
19024
  5
18EB9
331
19025
  5
18EBA
331
19026
  5
18EC1
331
19027
  5
18EC2
331
19028
  5
18EC3
331
19029
  5
18EC4
331
1902A
  5
18EC5
331
1902B
  5
18EC6
331
1902C
  5
18EC7
331
1902D
  5
18FD3
331
1902E
  5
18FD4
331
1902F
  5
18FD5
331
19030
  5
18FD9
331
19031
  5
18FDA
331
19032
  5
18FDB
331
19033
  5
1902D
331
19034
  5
1902E
331
19035
  5
1902F
331
19036
  5
19030
331
19037
  5
19031
331
19038
  5
19032
331
19039
  5
19033
331
1903A
  5
19037
331
1903B
  5
19038
331
1903C
  5
19039
331
1903D
  5
1903A
331
1903E
  5
1903B
331
1903F
  5
1903C
331
19040
  5
1903D
  0
SORTENTSTABLE
  5
59C
102
{ACAD_REACTORS
330
59B
102
}
330
59B
100
AcDbSortentsTable
330
15
331
57
  5
57
331
0
  5
70
  0
MATERIAL
  5
16060
102
{ACAD_REACTORS
330
2CF
102
}
102
{ACAD_XDICTIONARY
360
191E6
102
}
330
2CF
100
AcDbMaterial
  1
BYBLOCK
 72
     0
 73
     2
 43
0.0208333333333333
 43
0.0
 43
0.0
 43
0.0
 43
0.0
 43
0.0208333333333333
 43
0.0
 43
0.0
 43
0.0
 43
0.0
 43
1.0
 43
0.0
 43
0.0
 43
0.0
 43
0.0
 43
1.0
 77
     0
 78
     2
 47
0.0208333333333333
 47
0.0
 47
0.0
 47
0.0
 47
0.0
 47
0.0208333333333333
 47
0.0
 47
0.0
 47
0.0
 47
0.0
 47
1.0
 47
0.0
 47
0.0
 47
0.0
 47
0.0
 47
1.0
171
     0
172
     2
 49
0.0208333333333333
 49
0.0
 49
0.0
 49
0.0
 49
0.0
 49
0.0208333333333333
 49
0.0
 49
0.0
 49
0.0
 49
0.0
 49
1.0
 49
0.0
 49
0.0
 49
0.0
 49
0.0
 49
1.0
175
     0
176
     2
142
0.0208333333333333
142
0.0
142
0.0
142
0.0
142
0.0
142
0.0208333333333333
142
0.0
142
0.0
142
0.0
142
0.0
142
1.0
142
0.0
142
0.0
142
0.0
142
0.0
142
1.0
179
     0
270
     2
144
0.0208333333333333
144
0.0
144
0.0
144
0.0
144
0.0
144
0.0208333333333333
144
0.0
144
0.0
144
0.0
144
0.0
144
1.0
144
0.0
144
0.0
144
0.0
144
0.0
144
1.0
274
     2
147
0.0208333333333333
147
0.0
147
0.0
147
0.0
147
0.0
147
0.0208333333333333
147
0.0
147
0.0
147
0.0
147
0.0
147
1.0
147
0.0
147
0.0
147
0.0
147
0.0
147
1.0
  0
MATERIAL
  5
16058
102
{ACAD_REACTORS
330
2CF
102
}
102
{ACAD_XDICTIONARY
360
191E8
102
}
330
2CF
100
AcDbMaterial
  1
BYLAYER
 72
     0
 73
     2
 43
0.0208333333333333
 43
0.0
 43
0.0
 43
0.0
 43
0.0
 43
0.0208333333333333
 43
0.0
 43
0.0
 43
0.0
 43
0.0
 43
1.0
 43
0.0
 43
0.0
 43
0.0
 43
0.0
 43
1.0
 77
     0
 78
     2
 47
0.0208333333333333
 47
0.0
 47
0.0
 47
0.0
 47
0.0
 47
0.0208333333333333
 47
0.0
 47
0.0
 47
0.0
 47
0.0
 47
1.0
 47
0.0
 47
0.0
 47
0.0
 47
0.0
 47
1.0
171
     0
172
     2
 49
0.0208333333333333
 49
0.0
 49
0.0
 49
0.0
 49
0.0
 49
0.0208333333333333
 49
0.0
 49
0.0
 49
0.0
 49
0.0
 49
1.0
 49
0.0
 49
0.0
 49
0.0
 49
0.0
 49
1.0
175
     0
176
     2
142
0.0208333333333333
142
0.0
142
0.0
142
0.0
142
0.0
142
0.0208333333333333
142
0.0
142
0.0
142
0.0
142
0.0
142
1.0
142
0.0
142
0.0
142
0.0
142
0.0
142
1.0
179
     0
270
     2
144
0.0208333333333333
144
0.0
144
0.0
144
0.0
144
0.0
144
0.0208333333333333
144
0.0
144
0.0
144
0.0
144
0.0
144
1.0
144
0.0
144
0.0
144
0.0
144
0.0
144
1.0
274
     2
147
0.0208333333333333
147
0.0
147
0.0
147
0.0
147
0.0
147
0.0208333333333333
147
0.0
147
0.0
147
0.0
147
0.0
147
1.0
147
0.0
147
0.0
147
0.0
147
0.0
147
1.0
  0
MATERIAL
  5
16068
102
{ACAD_REACTORS
330
2CF
102
}
102
{ACAD_XDICTIONARY
360
191EA
102
}
330
2CF
100
AcDbMaterial
  1
GLOBAL
 72
     0
 73
     2
 43
0.0208333333333333
 43
0.0
 43
0.0
 43
0.0
 43
0.0
 43
0.0208333333333333
 43
0.0
 43
0.0
 43
0.0
 43
0.0
 43
1.0
 43
0.0
 43
0.0
 43
0.0
 43
0.0
 43
1.0
 77
     0
 78
     2
 47
0.0208333333333333
 47
0.0
 47
0.0
 47
0.0
 47
0.0
 47
0.0208333333333333
 47
0.0
 47
0.0
 47
0.0
 47
0.0
 47
1.0
 47
0.0
 47
0.0
 47
0.0
 47
0.0
 47
1.0
171
     0
172
     2
 49
0.0208333333333333
 49
0.0
 49
0.0
 49
0.0
 49
0.0
 49
0.0208333333333333
 49
0.0
 49
0.0
 49
0.0
 49
0.0
 49
1.0
 49
0.0
 49
0.0
 49
0.0
 49
0.0
 49
1.0
175
     0
176
     2
142
0.0208333333333333
142
0.0
142
0.0
142
0.0
142
0.0
142
0.0208333333333333
142
0.0
142
0.0
142
0.0
142
0.0
142
1.0
142
0.0
142
0.0
142
0.0
142
0.0
142
1.0
179
     0
270
     2
144
0.0208333333333333
144
0.0
144
0.0
144
0.0
144
0.0
144
0.0208333333333333
144
0.0
144
0.0
144
0.0
144
0.0
144
1.0
144
0.0
144
0.0
144
0.0
144
0.0
144
1.0
274
     2
147
0.0208333333333333
147
0.0
147
0.0
147
0.0
147
0.0
147
0.0208333333333333
147
0.0
147
0.0
147
0.0
147
0.0
147
1.0
147
0.0
147
0.0
147
0.0
147
0.0
147
1.0
  0
ACAD_PROXY_OBJECT
  5
160A4
102
{ACAD_REACTORS
330
160A3
102
}
330
160A3
100
AcDbZombieObject
 90
      499
 91
      512
 93
      610
310
40901902A4063FBFFFFFE000000000000002040AD7A3703D0AD73F4214DD185B99185C990000000000000104090141901A00000000000004100000000000000041025764000000000000300FC0
340
12
340
0
340
F
340
0
 94
        0
1001
ACAD_MLEADERVER
1070
     2
  0
MLINESTYLE
  5
1C
102
{ACAD_REACTORS
330
1B
102
}
330
1B
100
AcDbMlineStyle
  2
STANDARD
 70
     0
  3

 62
   256
 51
90.0
 52
90.0
 71
     2
 49
0.5
 62
   256
  6
BYLAYER
 49
-0.5
 62
   256
  6
BYLAYER
  0
ACAD_PROXY_OBJECT
  5
16082
102
{ACAD_REACTORS
330
16081
102
}
330
16081
100
AcDbZombieObject
 90
      499
 91
      511
 93
       41
310
903313A31580
  0
ACAD_PROXY_OBJECT
  5
16083
102
{ACAD_REACTORS
330
16081
102
}
330
16081
100
AcDbZombieObject
 90
      499
 91
      511
 93
      105
310
903313A324000000000000004000
  0
ACAD_PROXY_OBJECT
  5
16084
102
{ACAD_REACTORS
330
16081
102
}
330
16081
100
AcDbZombieObject
 90
      499
 91
      511
 93
      105
310
903313A344000000000000104000
  0
ACAD_PROXY_OBJECT
  5
16085
102
{ACAD_REACTORS
330
16081
102
}
330
16081
100
AcDbZombieObject
 90
      499
 91
      511
 93
      105
310
903313A354000000000000144000
  0
ACAD_PROXY_OBJECT
  5
16086
102
{ACAD_REACTORS
330
16081
102
}
330
16081
100
AcDbZombieObject
 90
      499
 91
      511
 93
      105
310
903313A384000000000000204000
  0
ACAD_PROXY_OBJECT
  5
16087
102
{ACAD_REACTORS
330
16081
102
}
330
16081
100
AcDbZombieObject
 90
      499
 91
      511
 93
      113
310
904313A31304000000000000244000
  0
ACAD_PROXY_OBJECT
  5
16088
102
{ACAD_REACTORS
330
16081
102
}
330
16081
100
AcDbZombieObject
 90
      499
 91
      511
 93
      113
310
904313A31364000000000000304000
  0
ACAD_PROXY_OBJECT
  5
16089
102
{ACAD_REACTORS
330
16081
102
}
330
16081
100
AcDbZombieObject
 90
      499
 91
      511
 93
      113
310
904313A32304000000000000344000
  0
ACAD_PROXY_OBJECT
  5
1608A
102
{ACAD_REACTORS
330
16081
102
}
330
16081
100
AcDbZombieObject
 90
      499
 91
      511
 93
      113
310
904313A333040000000000003E4000
  0
ACAD_PROXY_OBJECT
  5
1608B
102
{ACAD_REACTORS
330
16081
102
}
330
16081
100
AcDbZombieObject
 90
      499
 91
      511
 93
      113
310
904313A34304000000000000444000
  0
ACAD_PROXY_OBJECT
  5
1608C
102
{ACAD_REACTORS
330
16081
102
}
330
16081
100
AcDbZombieObject
 90
      499
 91
      511
 93
      113
310
904313A35304000000000000494000
  0
ACAD_PROXY_OBJECT
  5
1608D
102
{ACAD_REACTORS
330
16081
102
}
330
16081
100
AcDbZombieObject
 90
      499
 91
      511
 93
      121
310
905313A3130304000000000000594000
  0
ACAD_PROXY_OBJECT
  5
1608E
102
{ACAD_REACTORS
330
16081
102
}
330
16081
100
AcDbZombieObject
 90
      499
 91
      511
 93
      105
310
903323A310000000000000010100
  0
ACAD_PROXY_OBJECT
  5
1608F
102
{ACAD_REACTORS
330
16081
102
}
330
16081
100
AcDbZombieObject
 90
      499
 91
      511
 93
      105
310
903343A310000000000000410100
  0
ACAD_PROXY_OBJECT
  5
16090
102
{ACAD_REACTORS
330
16081
102
}
330
16081
100
AcDbZombieObject
 90
      499
 91
      511
 93
      105
310
903383A310000000000000810100
  0
ACAD_PROXY_OBJECT
  5
16091
102
{ACAD_REACTORS
330
16081
102
}
330
16081
100
AcDbZombieObject
 90
      499
 91
      511
 93
      113
310
90431303A310000000000000910100
  0
ACAD_PROXY_OBJECT
  5
16092
102
{ACAD_REACTORS
330
16081
102
}
330
16081
100
AcDbZombieObject
 90
      499
 91
      511
 93
      121
310
9053130303A310000000000001650100
  0
ACAD_PROXY_OBJECT
  5
16093
102
{ACAD_REACTORS
330
16081
102
}
330
16081
100
AcDbZombieObject
 90
      499
 91
      511
 93
      257
310
90E312F31323822203D2031272D3022000000000000200FC000000000000284000
  0
ACAD_PROXY_OBJECT
  5
16094
102
{ACAD_REACTORS
330
16081
102
}
330
16081
100
AcDbZombieObject
 90
      499
 91
      511
 93
      249
310
90D312F363422203D2031272D3022000000000000240FC000000000000284000
  0
ACAD_PROXY_OBJECT
  5
16095
102
{ACAD_REACTORS
330
16081
102
}
330
16081
100
AcDbZombieObject
 90
      499
 91
      511
 93
      249
310
90D312F333222203D2031272D3022000000000000280FC000000000000284000
  0
ACAD_PROXY_OBJECT
  5
16096
102
{ACAD_REACTORS
330
16081
102
}
330
16081
100
AcDbZombieObject
 90
      499
 91
      511
 93
      249
310
90D312F313622203D2031272D30220000000000002C0FC000000000000284000
  0
ACAD_PROXY_OBJECT
  5
16097
102
{ACAD_REACTORS
330
16081
102
}
330
16081
100
AcDbZombieObject
 90
      499
 91
      511
 93
      249
310
90D332F333222203D2031272D30220000000000002E0FC000000000000284000
  0
ACAD_PROXY_OBJECT
  5
16098
102
{ACAD_REACTORS
330
16081
102
}
330
16081
100
AcDbZombieObject
 90
      499
 91
      511
 93
      241
310
90C312F3822203D2031272D3022000000000000300FC000000000000284000
  0
ACAD_PROXY_OBJECT
  5
16099
102
{ACAD_REACTORS
330
16081
102
}
330
16081
100
AcDbZombieObject
 90
      499
 91
      511
 93
      249
310
90D332F313622203D2031272D3022000000000000320FC000000000000284000
  0
ACAD_PROXY_OBJECT
  5
1609A
102
{ACAD_REACTORS
330
16081
102
}
330
16081
100
AcDbZombieObject
 90
      499
 91
      511
 93
      241
310
90C312F3422203D2031272D3022000000000000340FC000000000000284000
  0
ACAD_PROXY_OBJECT
  5
1609B
102
{ACAD_REACTORS
330
16081
102
}
330
16081
100
AcDbZombieObject
 90
      499
 91
      511
 93
      241
310
90C332F3822203D2031272D3022000000000000360FC000000000000284000
  0
ACAD_PROXY_OBJECT
  5
1609C
102
{ACAD_REACTORS
330
16081
102
}
330
16081
100
AcDbZombieObject
 90
      499
 91
      511
 93
      241
310
90C312F3222203D2031272D3022000000000000380FC000000000000284000
  0
ACAD_PROXY_OBJECT
  5
1609D
102
{ACAD_REACTORS
330
16081
102
}
330
16081
100
AcDbZombieObject
 90
      499
 91
      511
 93
      241
310
90C332F3422203D2031272D30220000000000003A0FC000000000000284000
  0
ACAD_PROXY_OBJECT
  5
1609E
102
{ACAD_REACTORS
330
16081
102
}
330
16081
100
AcDbZombieObject
 90
      499
 91
      511
 93
      161
310
90A3122203D2031272D30224000000000000284000
  0
ACAD_PROXY_OBJECT
  5
1609F
102
{ACAD_REACTORS
330
16081
102
}
330
16081
100
AcDbZombieObject
 90
      499
 91
      511
 93
      257
310
90E312D312F3222203D2031272D30220000000000003E0FC000000000000284000
  0
ACAD_PROXY_OBJECT
  5
160A0
102
{ACAD_REACTORS
330
16081
102
}
330
16081
100
AcDbZombieObject
 90
      499
 91
      511
 93
      225
310
90A3322203D2031272D302200000000000002100000000000000284000
  0
ACAD_PROXY_OBJECT
  5
160A1
102
{ACAD_REACTORS
330
16081
102
}
330
16081
100
AcDbZombieObject
 90
      499
 91
      511
 93
      225
310
90A3622203D2031272D302200000000000006100000000000000284000
  0
ACAD_PROXY_OBJECT
  5
160A2
102
{ACAD_REACTORS
330
16081
102
}
330
16081
100
AcDbZombieObject
 90
      499
 91
      511
 93
      249
310
90D31272D3022203D2031272D30220000000000000A100000000000000284000
  0
ACAD_PROXY_OBJECT
  5
16076
102
{ACAD_REACTORS
330
16070
102
}
330
16070
100
AcDbZombieObject
 90
      499
 91
      510
 93
      436
310
42CC9915DA5C99599C985B595049028333333333333E3BF0000000000000FB0107901411070040501600405405064090741402480A0340
1001
ACAD
1000
AcDbSavedByObjectVersion
1070
     0
  0
ACAD_PROXY_OBJECT
  5
16078
102
{ACAD_REACTORS
330
16070
102
}
330
16070
100
AcDbZombieObject
 90
      499
 91
      510
 93
      500
310
424CD108121A5919195B90640502408333333333333E3BF0000000000000FB01079024090700405020000000000001110200405405064090740C02480A0340
1001
ACAD
1000
AcDbSavedByObjectVersion
1070
     0
  0
ACAD_PROXY_OBJECT
  5
16077
102
{ACAD_REACTORS
330
16070
102
}
330
16070
100
AcDbZombieObject
 90
      499
 91
      510
 93
      436
310
42CCD915DA5C99599C985B595059028333333333333E3BF0000000000000FB0107901411070040501600405405064090741402480A0340
1001
ACAD
1000
AcDbSavedByObjectVersion
1070
     0
  0
ACAD_PROXY_OBJECT
  5
16075
102
{ACAD_REACTORS
330
16070
102
}
330
16070
100
AcDbZombieObject
 90
      499
 91
      510
 93
      388
310
4150985CDA58D07406404333333333333E3BF0000000000000FB0107A41107004050150841D405064090741402480A0350
1001
ACAD
1000
AcDbSavedByObjectVersion
1070
     0
  0
ACAD_PROXY_OBJECT
  5
1607C
102
{ACAD_REACTORS
330
16070
102
}
330
16070
100
AcDbZombieObject
 90
      499
 91
      510
 93
      428
310
42109C9A59DA1D195B90C409028333333333333E3BF0000000000000FB010790141107004050150841D405064090741402480A029950
1001
ACAD
1000
AcDbSavedByObjectVersion
1070
     0
  0
ACAD_PROXY_OBJECT
  5
16080
102
{ACAD_REACTORS
330
16070
102
}
330
16070
100
AcDbZombieObject
 90
      499
 91
      510
 93
      452
310
42D0DBDB1BDC90DA185B99D95104090240C333333333333E3BF0000000000000FB0108901411070040501508421405064090741402480A0350
1001
ACAD
1000
AcDbSavedByObjectVersion
1070
     0
  0
ACAD_PROXY_OBJECT
  5
16079
102
{ACAD_REACTORS
330
16070
102
}
330
16070
100
AcDbZombieObject
 90
      499
 91
      510
 93
      500
310
4290DBDB98D95C1D1D585B10940D028333333333333E3BF0000000000000FB0107902409070040501000000000000111010841D405064090740C02480A0340
1001
ACAD
1000
AcDbSavedByObjectVersion
1070
     0
  0
ACAD_PROXY_OBJECT
  5
1607B
102
{ACAD_REACTORS
330
16070
102
}
330
16070
100
AcDbZombieObject
 90
      499
 91
      510
 93
      412
310
40D11A5B50B409028333333333333E3BF0000000000000FB010790141107004050150841D405064090741402480A02677FFFFFD0
1001
ACAD
1000
AcDbSavedByObjectVersion
1070
     0
  0
ACAD_PROXY_OBJECT
  5
1823F
102
{ACAD_REACTORS
330
16070
102
}
330
16070
100
AcDbZombieObject
 90
      499
 91
      510
 93
      452
310
43115919D950DBDB1BDC93D999916409028333333333333E33F0000000000000F9010790141107004050150841D405064090741402480A0350
1001
ACAD
1000
AcDbSavedByObjectVersion
1070
     0
  0
ACAD_PROXY_OBJECT
  5
1607F
102
{ACAD_REACTORS
330
16070
102
}
330
16070
100
AcDbZombieObject
 90
      499
 91
      510
 93
      444
310
42D19858D95C185D1D195C9B90F409028333333333333E3BF0000000000000FB010790141107004050150841D405064090741402480A0350
1001
ACAD
1000
AcDbSavedByObjectVersion
1070
     0
  0
ACAD_PROXY_OBJECT
  5
16071
102
{ACAD_REACTORS
330
16070
102
}
330
16070
100
AcDbZombieObject
 90
      499
 91
      510
 93
      388
310
41119B185D240901404333333333333E3BF0000000000000F9010740A41107004050150841D405064090741402480A1B50
1001
ACAD
1000
AcDbSavedByObjectVersion
1070
     0
  0
ACAD_PROXY_OBJECT
  5
16072
102
{ACAD_REACTORS
330
16070
102
}
330
16070
100
AcDbZombieObject
 90
      499
 91
      510
 93
      476
310
43519B185D15DA5D1A115919D95CD0140901404333333333333E3BF0000000000000F9010740901411070040501600405405064090741402480A1B50
1001
ACAD
1000
AcDbSavedByObjectVersion
1070
     0
  0
ACAD_PROXY_OBJECT
  5
16073
102
{ACAD_REACTORS
330
16070
102
}
330
16070
100
AcDbZombieObject
 90
      499
 91
      510
 93
      412
310
41D1DBDD5C985D5910240902404333333333333E3BF0000000000000F9010740A411070040501641D405064090741402480A1B50
1001
ACAD
1000
AcDbSavedByObjectVersion
1070
     0
  0
ACAD_PROXY_OBJECT
  5
16074
102
{ACAD_REACTORS
330
16070
102
}
330
16070
100
AcDbZombieObject
 90
      499
 91
      510
 93
      500
310
4411DBDD5C985D5915DA5D1A115919D95CD0340902404333333333333E3BF0000000000000F9010740901411070040501600405405064090741402480A1B50
1001
ACAD
1000
AcDbSavedByObjectVersion
1070
     0
  0
ACAD_PROXY_OBJECT
  5
1823C
102
{ACAD_REACTORS
330
16070
102
}
330
16070
100
AcDbZombieObject
 90
      499
 91
      510
 93
      476
310
41921A5919195B90640502408333333333333E33F0000000000000F901079024090700405020000000000001110200405405064090740C02480A0340
1001
ACAD
1000
AcDbSavedByObjectVersion
1070
     0
  0
ACAD_PROXY_OBJECT
  5
1823D
102
{ACAD_REACTORS
330
16070
102
}
330
16070
100
AcDbZombieObject
 90
      499
 91
      510
 93
      428
310
42529A5D1D195C93D999914409028333333333333E33F0000000000000F9010790141107004050150A41D405064090741402480A0350
1001
ACAD
1000
AcDbSavedByObjectVersion
1070
     0
  0
ACAD_PROXY_OBJECT
  5
1607E
102
{ACAD_REACTORS
330
16070
102
}
330
16070
100
AcDbZombieObject
 90
      499
 91
      510
 93
      444
310
42D31A5B995C185D1D195C9B90E409028333333333333E3BF0000000000000FB010790141107004050750841D405064090741402483A0350
1001
ACAD
1000
AcDbSavedByObjectVersion
1070
     0
  0
ACAD_PROXY_OBJECT
  5
18245
102
{ACAD_REACTORS
330
16070
102
}
330
16070
100
AcDbZombieObject
 90
      499
 91
      510
 93
      484
310
42135BD9195B1A5B99D0A409038333333333333E33F0000000000000F901074090290700405010000000000201990108421405064090741402480A1B40
1001
ACAD
1000
AcDbSavedByObjectVersion
1070
     0
  0
ACAD_PROXY_OBJECT
  5
1823E
102
{ACAD_REACTORS
330
16070
102
}
330
16070
100
AcDbZombieObject
 90
      499
 91
      510
 93
      444
310
42D3DD995C9A185B99D3D999915409028333333333333E33F0000000000000F9010790141107004050150941D405064090741402480A0350
1001
ACAD
1000
AcDbSavedByObjectVersion
1070
     0
  0
ACAD_PROXY_OBJECT
  5
1607A
102
{ACAD_REACTORS
330
16070
102
}
330
16070
100
AcDbZombieObject
 90
      499
 91
      510
 93
      420
310
425499585B1A5CDD1A58D08409028333333333333E3BF0000000000000FB01079019070040501508421405064090741402480A1B40
1001
ACAD
1000
AcDbSavedByObjectVersion
1070
     0
  0
ACAD_PROXY_OBJECT
  5
18244
102
{ACAD_REACTORS
330
16070
102
}
330
16070
100
AcDbZombieObject
 90
      499
 91
      510
 93
      420
310
4194DA1859195911B40902404333333333333E33F0000000000000F9010740A41107004050150800405405064090840C02480A0B40
1001
ACAD
1000
AcDbSavedByObjectVersion
1070
     0
  0
ACAD_PROXY_OBJECT
  5
18243
102
{ACAD_REACTORS
330
16070
102
}
330
16070
100
AcDbZombieObject
 90
      499
 91
      510
 93
      516
310
4454DA18591959081DDA5D1A08195919D95CD1A40902404333333333333E33F0000000000000F901074090142907004050250800405405064090740C02480A0B40
1001
ACAD
1000
AcDbSavedByObjectVersion
1070
     0
  0
ACAD_PROXY_OBJECT
  5
18240
102
{ACAD_REACTORS
330
16070
102
}
330
16070
100
AcDbZombieObject
 90
      499
 91
      510
 93
      532
310
4394DA1859195CC81BD98811DC985E5174090240C333333333333E33F0000000000000F901079024090741D01000000000000111010841D405064090740C02480A0340
1001
ACAD
1000
AcDbSavedByObjectVersion
1070
     0
  0
ACAD_PROXY_OBJECT
  5
18241
102
{ACAD_REACTORS
330
16070
102
}
330
16070
100
AcDbZombieObject
 90
      499
 91
      510
 93
      476
310
41D4DAD95D18DA1E51840502408333333333333E33F0000000000000F901079024090741D01000000000000111010B41D405064090741802480A0340
1001
ACAD
1000
AcDbSavedByObjectVersion
1070
     0
  0
ACAD_PROXY_OBJECT
  5
1607D
102
{ACAD_REACTORS
330
16070
102
}
330
16070
100
AcDbZombieObject
 90
      499
 91
      510
 93
      412
310
41D51A1A58DAD95B90D409028333333333333E3BF0000000000000FB010790141107004050150C41D405064090741402480A0350
1001
ACAD
1000
AcDbSavedByObjectVersion
1070
     0
  0
ACAD_PROXY_OBJECT
  5
1823B
102
{ACAD_REACTORS
330
16070
102
}
330
16070
100
AcDbZombieObject
 90
      499
 91
      510
 93
      420
310
4255DA5C99599C985B595059028333333333333E33F0000000000000F90107901411070040501600405405064090740C02480A0340
1001
ACAD
1000
AcDbSavedByObjectVersion
1070
     0
  0
ACAD_PROXY_OBJECT
  5
18242
102
{ACAD_REACTORS
330
16070
102
}
330
16070
100
AcDbZombieObject
 90
      499
 91
      510
 93
      404
310
41560B54985E51940902404000000000000E03F0000000000000F9010740501907004050150841D405064090740C02480A1B40
1001
ACAD
1000
AcDbSavedByObjectVersion
1070
     0
  0
XRECORD
  5
19049
102
{ACAD_REACTORS
330
19048
102
}
330
19048
100
AcDbXrecord
340
2D0
  0
XRECORD
  5
1904A
102
{ACAD_REACTORS
330
19048
102
}
330
19048
100
AcDbXrecord
340
2CF
  0
DICTIONARYVAR
  5
183E9
102
{ACAD_REACTORS
330
37
102
}
330
37
100
DictionaryVariables
280
     0
  1
1:1
  0
DICTIONARYVAR
  5
16144
102
{ACAD_REACTORS
330
37
102
}
330
37
100
DictionaryVariables
280
     0
  1
Standard
  0
DICTIONARYVAR
  5
4F1
102
{ACAD_REACTORS
330
37
102
}
330
37
100
DictionaryVariables
280
     0
  1
Standard
  0
DICTIONARYVAR
  5
38
102
{ACAD_REACTORS
330
37
102
}
330
37
100
DictionaryVariables
280
     0
  1
-1
  0
DICTIONARYVAR
  5
408
102
{ACAD_REACTORS
330
37
102
}
330
37
100
DictionaryVariables
280
     0
  1
2
  0
DICTIONARYVAR
  5
1891
102
{ACAD_REACTORS
330
37
102
}
330
37
100
DictionaryVariables
280
     0
  1
1
  0
DICTIONARYVAR
  5
16147
102
{ACAD_REACTORS
330
37
102
}
330
37
100
DictionaryVariables
280
     0
  1
0
  0
DICTIONARYVAR
  5
1895
102
{ACAD_REACTORS
330
37
102
}
330
37
100
DictionaryVariables
280
     0
  1
8
  0
DICTIONARYVAR
  5
1894
102
{ACAD_REACTORS
330
37
102
}
330
37
100
DictionaryVariables
280
     0
  1
1
  0
DICTIONARYVAR
  5
17442
102
{ACAD_REACTORS
330
37
102
}
330
37
100
DictionaryVariables
280
     0
  1
0
  0
DICTIONARYVAR
  5
1842D
102
{ACAD_REACTORS
330
37
102
}
330
37
100
DictionaryVariables
280
     0
  1
0
  0
DICTIONARYVAR
  5
1892
102
{ACAD_REACTORS
330
37
102
}
330
37
100
DictionaryVariables
280
     0
  1
8
  0
DICTIONARYVAR
  5
1893
102
{ACAD_REACTORS
330
37
102
}
330
37
100
DictionaryVariables
280
     0
  1
2
  0
DICTIONARYVAR
  5
409
102
{ACAD_REACTORS
330
37
102
}
330
37
100
DictionaryVariables
280
     0
  1

  0
DICTIONARYVAR
  5
16146
102
{ACAD_REACTORS
330
37
102
}
330
37
100
DictionaryVariables
280
     0
  1
127
  0
DICTIONARYVAR
  5
183EA
102
{ACAD_REACTORS
330
37
102
}
330
37
100
DictionaryVariables
280
     0
  1
2
  0
DICTIONARY
  5
191E6
330
16060
100
AcDbDictionary
  3
ACAD_XREC_ROUNDTRIP
360
191E7
1001
ACAD
1000
TREAT_AS_HARD
1070
     1
  0
DICTIONARY
  5
191E8
330
16058
100
AcDbDictionary
  3
ACAD_XREC_ROUNDTRIP
360
191E9
1001
ACAD
1000
TREAT_AS_HARD
1070
     1
  0
DICTIONARY
  5
191EA
330
16068
100
AcDbDictionary
  3
ACAD_XREC_ROUNDTRIP
360
191EB
1001
ACAD
1000
TREAT_AS_HARD
1070
     1
  0
XRECORD
  5
191E7
102
{ACAD_REACTORS
330
191E6
102
}
330
191E6
100
AcDbXrecord
102
MATERIAL
148
0.0
149
0.0
149
0.0
 93
        0
 94
      127
282
     0
 72
     0
 77
     0
171
     0
175
     0
179
     0
273
     0
  0
XRECORD
  5
191E9
102
{ACAD_REACTORS
330
191E8
102
}
330
191E8
100
AcDbXrecord
102
MATERIAL
148
0.0
149
0.0
149
0.0
 93
        0
 94
      127
282
     0
 72
     0
 77
     0
171
     0
175
     0
179
     0
273
     0
  0
XRECORD
  5
191EB
102
{ACAD_REACTORS
330
191EA
102
}
330
191EA
100
AcDbXrecord
102
MATERIAL
148
0.0
149
0.0
149
0.0
 93
        0
 94
      127
282
     0
 72
     0
 77
     0
171
     0
175
     0
179
     0
273
     0
  0
ENDSEC
  0
EOF
