  0
SECTION
  2
HEADER
  9
$ACADVER
  1
AC1009
  9
$INSBASE
 10
0.0
 20
0.0
 30
0.0
  9
$EXTMIN
 10
-465.15775898646348
 20
13.990694335186159
 30
0.0
  9
$EXTMAX
 10
667.39203655162487
 20
577.85452081631445
 30
0.0
  9
$LIMMIN
 10
0.0
 20
0.0
  9
$LIMMAX
 10
420.0
 20
297.0
  9
$ORTHOMODE
 70
     0
  9
$REGENMODE
 70
     1
  9
$FILLMODE
 70
     1
  9
$QTEXTMODE
 70
     0
  9
$MIRRTEXT
 70
     1
  9
$DRAGMODE
 70
     2
  9
$LTSCALE
 40
0.5
  9
$OSMODE
 70
  2175
  9
$ATTMODE
 70
     1
  9
$TEXTSIZE
 40
12.0
  9
$TRACEWID
 40
1.0
  9
$TEXTSTYLE
  7
STANDARD
  9
$CLAYER
  8
1TEXT
  9
$CELTYPE
  6
BYLAYER
  9
$CECOLOR
 62
   256
  9
$DIMSCALE
 40
3.0
  9
$DIMASZ
 40
2.0
  9
$DIMEXO
 40
0.0
  9
$DIMDLI
 40
7.0
  9
$DIMRND
 40
0.0
  9
$DIMDLE
 40
0.0
  9
$DIMEXE
 40
1.0
  9
$DIMTP
 40
0.0
  9
$DIMTM
 40
0.0
  9
$DIMTXT
 40
3.5
  9
$DIMCEN
 40
0.0
  9
$DIMTSZ
 40
0.0
  9
$DIMTOL
 70
     0
  9
$DIMLIM
 70
     0
  9
$DIMTIH
 70
     0
  9
$DIMTOH
 70
     0
  9
$DIMSE1
 70
     0
  9
$DIMSE2
 70
     0
  9
$DIMTAD
 70
     1
  9
$DIMZIN
 70
     8
  9
$DIMBLK
  1

  9
$DIMASO
 70
     1
  9
$DIMSHO
 70
     1
  9
$DIMPOST
  1
 
  9
$DIMAPOST
  1

  9
$DIMALT
 70
     0
  9
$DIMALTD
 70
     2
  9
$DIMALTF
 40
25.399999999999999
  9
$DIMLFAC
 40
1.0
  9
$DIMTOFL
 70
     1
  9
$DIMTVP
 40
0.0
  9
$DIMTIX
 70
     0
  9
$DIMSOXD
 70
     0
  9
$DIMSAH
 70
     1
  9
$DIMBLK1
  1
OPEN30
  9
$DIMBLK2
  1
OPEN30
  9
$DIMSTYLE
  2
NEWX10
  9
$DIMCLRD
 70
   256
  9
$DIMCLRE
 70
   256
  9
$DIMCLRT
 70
   201
  9
$DIMTFAC
 40
0.7
  9
$DIMGAP
 40
0.7
  9
$LUNITS
 70
     2
  9
$LUPREC
 70
     4
  9
$SKETCHINC
 40
1.0
  9
$FILLETRAD
 40
5.0
  9
$AUNITS
 70
     0
  9
$AUPREC
 70
     2
  9
$MENU
  1
acad
  9
$ELEVATION
 40
0.0
  9
$PELEVATION
 40
0.0
  9
$THICKNESS
 40
0.0
  9
$LIMCHECK
 70
     0
  9
$BLIPMODE
 70
     0
  9
$CHAMFERA
 40
1.0
  9
$CHAMFERB
 40
1.0
  9
$SKPOLY
 70
     0
  9
$TDCREATE
 40
2451318.621352917
  9
$TDUPDATE
 40
2455743.4610195952
  9
$TDINDWG
 40
10.872550706
  9
$TDUSRTIMER
 40
10.872550706
  9
$USRTIMER
 70
     1
  9
$ANGBASE
 50
0.0
  9
$ANGDIR
 70
     0
  9
$PDMODE
 70
     0
  9
$PDSIZE
 40
0.0
  9
$PLINEWID
 40
0.0
  9
$COORDS
 70
     2
  9
$SPLFRAME
 70
     0
  9
$SPLINETYPE
 70
     6
  9
$SPLINESEGS
 70
     8
  9
$ATTDIA
 70
     0
  9
$ATTREQ
 70
     1
  9
$HANDLING
 70
     1
  9
$HANDSEED
  5
2AB6B
  9
$SURFTAB1
 70
     6
  9
$SURFTAB2
 70
     6
  9
$SURFTYPE
 70
     6
  9
$SURFU
 70
     6
  9
$SURFV
 70
     6
  9
$UCSNAME
  2

  9
$UCSORG
 10
0.0
 20
0.0
 30
0.0
  9
$UCSXDIR
 10
1.0
 20
0.0
 30
0.0
  9
$UCSYDIR
 10
0.0
 20
1.0
 30
0.0
  9
$PUCSNAME
  2

  9
$PUCSORG
 10
0.0
 20
0.0
 30
0.0
  9
$PUCSXDIR
 10
1.0
 20
0.0
 30
0.0
  9
$PUCSYDIR
 10
0.0
 20
1.0
 30
0.0
  9
$USERI1
 70
     0
  9
$USERI2
 70
     0
  9
$USERI3
 70
     0
  9
$USERI4
 70
     0
  9
$USERI5
 70
     0
  9
$USERR1
 40
0.0
  9
$USERR2
 40
0.0
  9
$USERR3
 40
0.0
  9
$USERR4
 40
0.0
  9
$USERR5
 40
0.0
  9
$WORLDVIEW
 70
     1
  9
$SHADEDGE
 70
     3
  9
$SHADEDIF
 70
    70
  9
$TILEMODE
 70
     1
  9
$MAXACTVP
 70
    48
  9
$PLIMCHECK
 70
     0
  9
$PEXTMIN
 10
1.0000000000000000E+020
 20
1.0000000000000000E+020
 30
1.0000000000000000E+020
  9
$PEXTMAX
 10
-1.0000000000000000E+020
 20
-1.0000000000000000E+020
 30
-1.0000000000000000E+020
  9
$PLIMMIN
 10
0.0
 20
0.0
  9
$PLIMMAX
 10
420.0
 20
297.0
  9
$UNITMODE
 70
     0
  9
$VISRETAIN
 70
     1
  9
$PLINEGEN
 70
     0
  9
$PSLTSCALE
 70
     1
  0
ENDSEC
  0
SECTION
  2
TABLES
  0
TABLE
  2
VPORT
 70
     1
  0
VPORT
  2
*ACTIVE
 70
     0
 10
0.0
 20
0.0
 11
1.0
 21
1.0
 12
101.1171414195036
 22
295.9150197534583
 13
0.0
 23
0.0
 14
10.0
 24
10.0
 15
10.0
 25
10.0
 16
0.0
 26
0.0
 36
1.0
 17
0.0
 27
0.0
 37
0.0
 40
848.65822574035121
 41
1.4123581336696089
 42
50.0
 43
0.0
 44
0.0
 50
0.0
 51
0.0
 71
     0
 72
   100
 73
     1
 74
     1
 75
     0
 76
     0
 77
     0
 78
     0
  0
ENDTAB
  0
TABLE
  2
LTYPE
 70
    12
  0
LTYPE
  2
CONTINUOUS
 70
     0
  3
Solid line
 72
    65
 73
     0
 40
0.0
  0
LTYPE
  2
XREF1|CENTER2
 70
    48
  3
Center (.5x) ___ _ ___ _ ___ _ ___ _ ___ _ ___
 72
    65
 73
     4
 40
28.574999999999999
 49
19.050000000000001
 49
-3.1749999999999989
 49
3.1749999999999989
 49
-3.1749999999999989
  0
LTYPE
  2
A3WAKUDAKE|CENTER2
 70
    48
  3
Center (.5x) ___ _ ___ _ ___ _ ___ _ ___ _ ___
 72
    65
 73
     4
 40
28.574999999999999
 49
19.050000000000001
 49
-3.1749999999999989
 49
3.1749999999999989
 49
-3.1749999999999989
  0
ENDTAB
  0
TABLE
  2
LAYER
 70
    36
  0
LAYER
  2
0
 70
     0
 62
     7
  6
CONTINUOUS
  0
LAYER
  2
1TEXT
 70
     0
 62
     7
  6
CONTINUOUS
  0
LAYER
  2
A3WAKUDAKE|THICK
 70
    48
 62
     7
  6
CONTINUOUS
  0
LAYER
  2
A3WAKUDAKE|POINT
 70
    48
 62
     7
  6
CONTINUOUS
  0
LAYER
  2
A3WAKUDAKE|1CENTER
 70
    48
 62
     7
  6
A3WAKUDAKE|CENTER2
  0
LAYER
  2
A3WAKUDAKE|0-6
 70
    48
 62
     7
  6
CONTINUOUS
  0
LAYER
  2
01
 70
     0
 62
     1
  6
CONTINUOUS
  0
LAYER
  2
A3WAKUDAKE|1DIM
 70
    48
 62
     7
  6
CONTINUOUS
  0
LAYER
  2
XREF1|1CENTER
 70
    48
 62
     7
  6
XREF1|CENTER2
  0
ENDTAB
  0
TABLE
  2
STYLE
 70
     4
  0
STYLE
  2
STANDARD
 70
     0
 40
0.0
 41
1.0
 50
0.0
 71
     0
 42
12.0
  3
romans.shx
  4
extfont.shx
  0
ENDTAB
  0
TABLE
  2
VIEW
 70
     0
  0
ENDTAB
  0
TABLE
  2
UCS
 70
     0
  0
ENDTAB
  0
TABLE
  2
APPID
 70
    14
  0
APPID
  2
ACAD
 70
     0
  0
APPID
  2
DRAWINGVARIABLESXDATA
 70
     0
  0
APPID
  2
CONTENTTABDATA
 70
     0
  0
APPID
  2
CONTENTCURRENTTAB
 70
     0
  0
APPID
  2
CONTENTBLOCKDESCRIPTION
 70
     0
  0
APPID
  2
CONTENTBLOCKICON
 70
     0
  0
APPID
  2
CONTENTLONGBLOCKNAME
 70
     0
  0
APPID
  2
ACAD_PSEXT
 70
     0
  0
APPID
  2
ACAD_DIMASSOC_CALC_DIMLFAC
 70
     0
  0
APPID
  2
ACAD_DIMASSOC_DIMLFAC
 70
     0
  0
APPID
  2
ACAD_DIMASSOC_OVERRIDDEN_D
 70
     0
  0
APPID
  2
ACAD_MLEADERVER
 70
     0
  0
APPID
  2
ACAD_DSTYLE_DIMRADIAL_EXTENSION
 70
     0
  0
APPID
  2
ACADANNOTATIVE
 70
     0
  0
ENDTAB
  0
TABLE
  2
DIMSTYLE
 70
     5
  0
DIMSTYLE
  2
NEWX10
 70
     0
  3
 
  4

  5

  6
OPEN30
  7
OPEN30
 40
1.0
 41
2.0
 42
0.0
 43
7.0
 44
1.0
 45
0.0
 46
0.0
 47
0.0
 48
0.0
140
3.5
141
0.0
142
0.0
143
25.399999999999999
144
1.0
145
0.0
146
0.7
147
0.7
 71
     0
 72
     0
 73
     0
 74
     0
 75
     0
 76
     0
 77
     1
 78
     8
170
     0
171
     2
172
     1
173
     1
174
     0
175
     0
176
   256
177
   256
178
   201
  0
ENDTAB
  0
ENDSEC
  0
SECTION
  2
BLOCKS
  0
BLOCK
  8
0
  2
$MODEL_SPACE
 70
     0
 10
0.0
 20
0.0
 30
0.0
  3
$MODEL_SPACE
  1

  0
ENDBLK
  5
1A
  8
0
  0
BLOCK
 67
     1
  8
0
  2
$PAPER_SPACE
 70
     0
 10
0.0
 20
0.0
 30
0.0
  3
$PAPER_SPACE
  1

  0
ENDBLK
  5
17
 67
     1
  8
0
  0
BLOCK
  8
0
  2
_OPEN30
 70
     0
 10
0.0
 20
0.0
 30
0.0
  3
_OPEN30
  1

  0
LINE
  5
44
  8
0
  6
BYBLOCK
 62
     0
 10
-1.0
 20
0.26794919
 30
0.0
 11
0.0
 21
0.0
 31
0.0
  0
LINE
  5
45
  8
0
  6
BYBLOCK
 62
     0
 10
0.0
 20
0.0
 30
0.0
 11
-1.0
 21
-0.26794919
 31
0.0
  0
LINE
  5
46
  8
0
  6
BYBLOCK
 62
     0
 10
0.0
 20
0.0
 30
0.0
 11
-1.0
 21
0.0
 31
0.0
  0
ENDBLK
  5
47
  8
0
  0
BLOCK
  8
0
  2
XREF1
 70
    36
 10
0.0
 20
0.0
 30
0.0
  3
XREF1
  1
D:\ACLT\FORMAT\KAWAJUN(9)図面用.dwg
  0
ENDBLK
  5
5D
  8
0
  0
BLOCK
  8
0
  2
A3WAKUDAKE
 70
    36
 10
0.0
 20
0.0
 30
0.0
  3
A3WAKUDAKE
  1
D:\ACLT\FORMAT\A3WAKUdake.dwg
  0
ENDBLK
  5
292D2
  8
0
  0
BLOCK
  8
0
  2
*U18
 70
     1
 10
0.0
 20
0.0
 30
0.0
  3
*U18
  1

  0
TEXT
  5
2AB38
  8
1TEXT
 62
   201
 10
635.7422410135415
 20
203.3967341666694
 30
0.0
 40
10.5
  1
306.5
 50
90.0
  0
ENDBLK
  5
2AB3A
  8
0
  0
BLOCK
  8
0
  2
*U19
 70
     1
 10
0.0
 20
0.0
 30
0.0
  3
*U19
  1

  0
TEXT
  5
2AB3C
  8
1TEXT
 62
   201
 10
615.74224101354162
 20
170.69673416666879
 30
0.0
 40
10.5
  1
ガラスH寸法=300
 50
90.0
  0
ENDBLK
  5
2AB3E
  8
0
  0
BLOCK
  8
0
  2
*U20
 70
     1
 10
0.0
 20
0.0
 30
0.0
  3
*U20
  1

  0
TEXT
  5
2AB40
  8
1TEXT
 62
   201
 10
580.44224101354166
 20
413.37340014018457
 30
0.0
 40
10.5
  1
8
  0
ENDBLK
  5
2AB42
  8
0
  0
BLOCK
  8
0
  2
*U21
 70
     1
 10
0.0
 20
0.0
 30
0.0
  3
*U21
  1

  0
TEXT
  5
2AB44
  8
1TEXT
 62
   201
 10
556.59224101353652
 20
19.090694335186161
 30
0.0
 40
10.5
  1
24
  0
ENDBLK
  5
2AB46
  8
0
  0
BLOCK
  8
0
  2
*U22
 70
     1
 10
0.0
 20
0.0
 30
0.0
  3
*U22
  1

  0
TEXT
  5
2AB48
  8
1TEXT
 62
   201
 10
19.842241013536519
 20
19.090694335186161
 30
0.0
 40
10.5
  1
900
  0
ENDBLK
  5
2AB4A
  8
0
  0
BLOCK
  8
0
  2
*U23
 70
     1
 10
0.0
 20
0.0
 30
0.0
  3
*U23
  1

  0
TEXT
  5
2AB4C
  8
1TEXT
 62
   201
 10
499.84224101353652
 20
494.05833703693122
 30
0.0
 40
10.5
  1
50
  0
ENDBLK
  5
2AB4E
  8
0
  0
BLOCK
  8
0
  2
*U24
 70
     1
 10
0.0
 20
0.0
 30
0.0
  3
*U24
  1

  0
TEXT
  5
2AB50
  8
1TEXT
 62
   201
 10
-450.15775898646342
 20
494.05833703693128
 30
0.0
 40
10.5
  1
50
  0
ENDBLK
  5
2AB52
  8
0
  0
BLOCK
  8
0
  2
*U25
 70
     1
 10
0.0
 20
0.0
 30
0.0
  3
*U25
  1

  0
TEXT
  5
2AB54
  8
1TEXT
 62
   201
 10
219.84224101353649
 20
53.065218446318092
 30
0.0
 40
10.5
  1
200
  0
ENDBLK
  5
2AB56
  8
0
  0
BLOCK
  8
0
  2
*U26
 70
     1
 10
0.0
 20
0.0
 30
0.0
  3
*U26
  1

  0
TEXT
  5
2AB58
  8
1TEXT
 62
   201
 10
-180.15775898646351
 20
55.139528011598003
 30
0.0
 40
10.5
  1
200
  0
ENDBLK
  5
2AB5A
  8
0
  0
BLOCK
  8
0
  2
*U27
 70
     1
 10
0.0
 20
0.0
 30
0.0
  3
*U27
  1

  0
TEXT
  5
2AB5C
  8
1TEXT
 62
   201
 10
394.09224101353652
 20
53.065218446317978
 30
0.0
 40
10.5
  1
150
  0
ENDBLK
  5
2AB5E
  8
0
  0
BLOCK
  8
0
  2
*U28
 70
     1
 10
0.0
 20
0.0
 30
0.0
  3
*U28
  1

  0
TEXT
  5
2AB60
  8
1TEXT
 62
   201
 10
-355.90775898646348
 20
55.139528011598117
 30
0.0
 40
10.5
  1
150
  0
ENDBLK
  5
2AB62
  8
0
  0
BLOCK
  8
0
  2
*U29
 70
     1
 10
0.0
 20
0.0
 30
0.0
  3
*U29
  1

  0
TEXT
  5
2AB64
  8
1TEXT
 62
   201
 10
-17.15004816522805
 20
413.37340014018457
 30
0.0
 40
10.5
  1
ガラスW寸法=900
  0
ENDBLK
  5
2AB66
  8
0
  0
BLOCK
  8
0
  2
*U30
 70
     1
 10
0.0
 20
0.0
 30
0.0
  3
*U30
  1

  0
TEXT
  5
2AB68
  8
1TEXT
 62
   201
 10
589.94224101353655
 20
53.065218446317978
 30
0.0
 40
10.5
  1
15
  0
ENDBLK
  5
2AB6A
  8
0
  0
ENDSEC
  0
SECTION
  2
ENTITIES
  0
ARC
  5
29934
  8
01
 10
484.34224101353681
 20
502.23059602314441
 30
0.0
 40
0.5
 50
270.0
 51
0.0
  0
LINE
  5
29935
  8
01
 10
484.84224101353669
 20
509.23059602314453
 30
0.0
 11
484.84224101353669
 21
502.23059602314441
 31
0.0
  0
ARC
  5
29936
  8
01
 10
484.34224101353681
 20
509.23059602314453
 30
0.0
 40
0.5
 50
0.0
 51
90.0
  0
ARC
  5
29937
  8
01
 10
-414.65775898646342
 20
502.23059602314441
 30
0.0
 40
0.5
 50
180.0
 51
270.0
  0
LINE
  5
29938
  8
01
 10
-415.15775898646331
 20
509.23059602314453
 30
0.0
 11
-415.15775898646331
 21
502.23059602314441
 31
0.0
  0
ARC
  5
29939
  8
01
 10
-414.65775898646342
 20
509.23059602314453
 30
0.0
 40
0.5
 50
90.0
 51
180.0
  0
LINE
  5
2993A
  8
01
 10
484.84224101353652
 20
374.14673416666892
 30
0.0
 11
484.84224101353652
 21
84.146734166668907
 31
0.0
  0
LINE
  5
2993C
  8
01
 10
484.84224101353652
 20
105.64673416666891
 30
0.0
 11
484.84224101353652
 21
72.646734166668921
 31
0.0
  0
ARC
  5
2993D
  8
01
 10
483.34224101353652
 20
105.64673416666891
 30
0.0
 40
1.5
 50
0.0
 51
90.0
  0
LINE
  5
2993E
  8
01
 10
-415.15775898646342
 20
374.14673416666898
 30
0.0
 11
-415.15775898646342
 21
84.146734166669276
 31
0.0
  0
LINE
  5
2993F
  8
01
 10
-415.15775898646342
 20
105.6467341666696
 30
0.0
 11
-415.15775898646342
 21
72.646734166669603
 31
0.0
  0
ARC
  5
29940
  8
01
 10
-410.15775898646348
 20
374.14673416666898
 30
0.0
 40
5.0
 50
90.0
 51
180.0
  0
ARC
  5
29941
  8
01
 10
479.84224101353669
 20
374.14673416666892
 30
0.0
 40
5.0
 50
0.0
 51
90.0
  0
LINE
  5
29946
  8
01
 10
370.77590573383799
 20
295.36148505957721
 30
0.0
 11
299.74985238580939
 21
224.33543171154869
 31
0.0
  0
LINE
  5
29951
  8
01
 10
-395.15775898646331
 20
328.14673416666852
 30
0.0
 11
-395.15775898646331
 21
357.14673416666892
 31
0.0
  0
LINE
  5
29952
  8
01
 10
-320.15775898646331
 20
357.14673416666892
 30
0.0
 11
-320.15775898646331
 21
328.14673416666892
 31
0.0
  0
LINE
  5
29953
  8
01
 10
-390.57879810963499
 20
333.91749472603118
 30
0.0
 11
-334.31434882229269
 21
333.91749472603118
 31
0.0
  0
LINE
  5
29954
  8
01
 10
-322.15775898646331
 20
326.14673416666892
 30
0.0
 11
-393.15775898646319
 21
326.14673416666852
 31
0.0
  0
LINE
  5
29955
  8
01
 10
-390.57879810963499
 20
329.81983538921992
 30
0.0
 11
-328.8473433359527
 21
329.81983538921992
 31
0.0
  0
ARC
  5
29956
  8
01
 10
-393.15775898646319
 20
328.14673416666852
 30
0.0
 40
2.0
 50
180.0
 51
270.0
  0
ARC
  5
29957
  8
01
 10
-322.15775898646331
 20
328.14673416666892
 30
0.0
 40
2.0
 50
270.0
 51
0.0
  0
LINE
  5
29958
  8
01
 10
-390.57879810963499
 20
338.01515406284261
 30
0.0
 11
-344.33718138897763
 21
338.01515406284261
 31
0.0
  0
LINE
  5
29959
  8
01
 10
-393.15775898646319
 20
359.14673416666892
 30
0.0
 11
-322.15775898646331
 21
359.14673416666892
 31
0.0
  0
LINE
  5
2995A
  8
01
 10
-390.57879810963499
 20
349.39753460566823
 30
0.0
 11
-329.30292171401061
 21
349.39753460566823
 31
0.0
  0
LINE
  5
2995B
  8
01
 10
-390.57879810963499
 20
341.20221593204542
 30
0.0
 11
-328.8473433359527
 21
341.20221593204542
 31
0.0
  0
LINE
  5
2995C
  8
01
 10
-392.43875083646572
 20
351.81116080560832
 30
0.0
 11
-323.39572098985133
 21
351.81116080560832
 31
0.0
  0
LINE
  5
2995D
  8
01
 10
-392.44138129661451
 20
351.78453476356339
 30
0.0
 11
-323.39094719180002
 21
351.78453476356339
 31
0.0
  0
LINE
  5
2995E
  8
01
 10
-323.39094719180002
 20
351.75629901301232
 30
0.0
 11
-392.44636076850338
 21
351.75629901301232
 31
0.0
  0
ARC
  5
2995F
  8
01
 10
-393.15775898646319
 20
357.14673416666892
 30
0.0
 40
2.0
 50
90.0
 51
180.0
  0
TEXT
  5
29960
  8
01
 10
-361.87978658063588
 20
353.74706942238248
 30
0.0
 40
3.0
  1
ご注意
  0
LINE
  5
29961
  8
01
 10
-362.57411981081941
 20
353.61322770054488
 30
0.0
 11
-366.38906642375917
 21
353.61322770054488
 31
0.0
  0
LINE
  5
29962
  8
01
 10
-364.48159311728932
 20
356.91706838143227
 30
0.0
 11
-362.57411981081941
 21
353.61322770054488
 31
0.0
  0
LINE
  5
29963
  8
01
 10
-364.48159311728932
 20
356.91706838143227
 30
0.0
 11
-366.38906642375917
 21
353.61322770054488
 31
0.0
  0
TEXT
  5
29964
  8
01
 10
-364.89830996473802
 20
353.91757809008141
 30
0.0
 40
2.0
  1
!
  0
LINE
  5
29965
  8
01
 10
-390.57879810963499
 20
345.29987526885679
 30
0.0
 11
-361.64936542905571
 21
345.29987526885679
 31
0.0
  0
ARC
  5
29966
  8
01
 10
-322.15775898646331
 20
357.14673416666892
 30
0.0
 40
2.0
 50
0.0
 51
90.0
  0
LINE
  5
29968
  8
01
 10
484.34224101353681
 20
509.73059602314441
 30
0.0
 11
-399.1669563830705
 21
509.7305960231451
 31
0.0
  0
LINE
  5
2996B
  8
01
 10
484.34224101353681
 20
501.73059602314441
 30
0.0
 11
-414.65775898646342
 21
501.73059602314453
 31
0.0
  0
LINE
  5
29972
  8
01
 10
-415.15775898646342
 20
72.646734166669916
 30
0.0
 11
484.84224101353652
 21
72.646734166668892
 31
0.0
  0
LINE
  5
29973
  8
01
 10
-413.65775898646342
 20
107.1467341666697
 30
0.0
 11
483.34224101353652
 21
107.14673416666891
 31
0.0
  0
ARC
  5
29974
  8
01
 10
-413.65775898646342
 20
105.6467341666696
 30
0.0
 40
1.5
 50
90.0
 51
180.0
  0
LINE
  5
29976
  8
01
 10
-410.15775898646348
 20
379.14673416666921
 30
0.0
 11
479.84224101353669
 21
379.14673416666921
 31
0.0
  0
LINE
  5
29979
  8
01
 10
484.84224101353669
 20
502.23059602314441
 30
0.0
 11
-415.15775898646342
 21
502.23059602314441
 31
0.0
  0
LINE
  5
2997C
  8
01
 10
484.84224101353681
 20
509.23059602314453
 30
0.0
 11
-415.15775898646342
 21
509.23059602314453
 31
0.0
  0
ARC
  5
2997E
  8
01
 10
-414.65775898646331
 20
519.74790855592414
 30
0.0
 40
0.5
 50
180.0
 51
244.60000000000019
  0
ARC
  5
2997F
  8
01
 10
-414.65775898646342
 20
501.23059602314498
 30
0.0
 40
0.5
 50
90.0
 51
180.0
  0
ARC
  5
29980
  8
01
 10
-414.65775898646331
 20
520.63059602314502
 30
0.0
 40
0.5
 50
90.0
 51
180.0
  0
ARC
  5
29981
  8
01
 10
-414.65775898646348
 20
497.23059602314498
 30
0.0
 40
0.5
 50
180.0
 51
270.0
  0
LINE
  5
29982
  8
01
 10
-396.62500203058698
 20
510.63059602314507
 30
0.0
 11
466.30690283653081
 21
510.63059602314399
 31
0.0
  0
LINE
  5
29983
  8
01
 10
-414.87270146003408
 20
519.29524075794893
 30
0.0
 11
-396.62500203058681
 21
510.63059602314502
 31
0.0
  0
LINE
  5
29984
  8
01
 10
-414.65775898646348
 20
496.73059602314498
 30
0.0
 11
484.34224101353652
 21
496.73059602314493
 31
0.0
  0
LINE
  5
29985
  8
01
 10
-414.65775898646331
 20
521.13059602314513
 30
0.0
 11
484.34224101353652
 21
521.13059602314479
 31
0.0
  0
ARC
  5
29986
  8
01
 10
484.34224101353652
 20
497.23059602314441
 30
0.0
 40
0.5
 50
270.0
 51
0.0
  0
LINE
  5
29987
  8
01
 10
403.6716661114101
 20
501.73059602314441
 30
0.0
 11
459.34224101353652
 21
501.73059602314441
 31
0.0
  0
ARC
  5
29988
  8
01
 10
484.34224101353652
 20
501.23059602314453
 30
0.0
 40
0.5
 50
0.0
 51
90.0
  0
ARC
  5
29989
  8
01
 10
484.34224101353652
 20
520.63059602314445
 30
0.0
 40
0.5
 50
0.0
 51
90.0
  0
ARC
  5
2998A
  8
01
 10
484.34224101353652
 20
519.7479085559238
 30
0.0
 40
0.5
 50
295.4000000000039
 51
359.99999999998698
  0
LINE
  5
2998B
  8
01
 10
484.55670858023808
 20
519.2962409094921
 30
0.0
 11
466.30215405996353
 21
510.62834113824528
 31
0.0
  0
LINE
  5
2998C
  8
01
 10
484.84224101353652
 20
520.63059602314445
 30
0.0
 11
484.84224101353652
 21
518.9305960231394
 31
0.0
  0
LINE
  5
2998D
  8
01
 10
484.84224101353652
 20
501.23059602314453
 30
0.0
 11
484.84224101353652
 21
497.23059602314441
 31
0.0
  0
LINE
  5
2998E
  8
01
 10
-415.15775898646342
 20
497.23059602314498
 30
0.0
 11
-415.15775898646342
 21
501.23059602314498
 31
0.0
  0
LINE
  5
2998F
  8
01
 10
-415.15775898646331
 20
518.93059602314474
 30
0.0
 11
-415.15775898646331
 21
520.63059602314502
 31
0.0
  0
LINE
  5
29990
  8
01
 10
-415.56695638307059
 20
518.93059602314474
 30
0.0
 11
-414.3301211651517
 21
518.93059602314486
 31
0.0
  0
LINE
  5
29991
  8
01
 10
-415.56695638307059
 20
517.93059602314474
 30
0.0
 11
-414.55548089814852
 21
517.93059602314474
 31
0.0
  0
ARC
  5
29992
  8
01
 10
-414.3301211651517
 20
517.93059602314497
 30
0.0
 40
1.0
 50
64.600000000003647
 51
90.000000000006509
  0
LINE
  5
29993
  8
01
 10
-415.56695638307031
 20
509.73059602314493
 30
0.0
 11
-415.56695638307059
 21
518.93059602314474
 31
0.0
  0
LINE
  5
29994
  8
01
 10
-398.73802124966721
 20
511.6339313160093
 30
0.0
 11
-413.90118603174858
 21
518.83393131600815
 31
0.0
  0
LINE
  5
29995
  8
01
 10
-401.1711637914899
 20
511.68226366957759
 30
0.0
 11
-414.12654576474529
 21
517.83393131600815
 31
0.0
  0
ARC
  5
29996
  8
01
 10
-414.5554808981484
 20
516.93059602314474
 30
0.0
 40
1.0
 50
64.600000000003647
 51
90.000000000006509
  0
ARC
  5
29997
  8
01
 10
-401.38563135819129
 20
511.23059602314601
 30
0.0
 40
0.5
 50
270.00000000000648
 51
64.600000000003647
  0
ARC
  5
29998
  8
01
 10
-399.1669563830705
 20
510.73059602314612
 30
0.0
 40
1.0
 50
270.00000000000648
 51
64.600000000003647
  0
LINE
  5
29999
  8
01
 10
-399.16695638307033
 20
509.73059602314612
 30
0.0
 11
-415.56695638307031
 21
509.73059602314493
 31
0.0
  0
LINE
  5
2999A
  8
01
 10
-401.38563135819129
 20
510.73059602314601
 30
0.0
 11
-415.56695638307042
 21
510.73059602314493
 31
0.0
  0
LINE
  5
2999B
  8
01
 10
485.25143841014398
 20
518.9305960231394
 30
0.0
 11
484.0146031922252
 21
518.93059602313974
 31
0.0
  0
LINE
  5
2999C
  8
01
 10
485.25143841014381
 20
517.93059602313951
 30
0.0
 11
484.23996292522168
 21
517.93059602313951
 31
0.0
  0
ARC
  5
2999D
  8
01
 10
484.01460319222508
 20
517.93059602313974
 30
0.0
 40
1.0
 50
89.999999999990223
 51
115.39999999999669
  0
LINE
  5
2999E
  8
01
 10
485.25143841014358
 20
509.7305960231397
 30
0.0
 11
485.25143841014398
 21
518.9305960231394
 31
0.0
  0
LINE
  5
2999F
  8
01
 10
468.42250327674049
 20
511.63393131600441
 30
0.0
 11
483.58566805882208
 21
518.83393131600292
 31
0.0
  0
LINE
  5
299A0
  8
01
 10
470.85564581856318
 20
511.68226366957259
 30
0.0
 11
483.81102779181862
 21
517.83393131600292
 31
0.0
  0
ARC
  5
299A1
  8
01
 10
484.23996292522162
 20
516.93059602313963
 30
0.0
 40
1.0
 50
89.999999999990223
 51
115.39999999999669
  0
ARC
  5
299A2
  8
01
 10
471.07011338526462
 20
511.230596023141
 30
0.0
 40
0.5
 50
115.39999999999669
 51
269.99999999999022
  0
ARC
  5
299A3
  8
01
 10
468.85143841014371
 20
510.73059602314117
 30
0.0
 40
1.0
 50
115.39999999999669
 51
269.99999999999022
  0
LINE
  5
299A4
  8
01
 10
468.8514384101436
 20
509.73059602314129
 30
0.0
 11
485.25143841014358
 21
509.7305960231397
 31
0.0
  0
LINE
  5
299A5
  8
01
 10
471.07011338526462
 20
510.73059602314112
 30
0.0
 11
485.25143841014369
 21
510.73059602313958
 31
0.0
  0
LINE
  5
2A2E4
  8
01
 10
-265.15775898646348
 20
83.43711311413324
 30
0.0
 11
-265.15775898646348
 21
61.339149724985759
 31
0.0
  0
LINE
  5
2A2E5
  8
01
 10
334.84224101353652
 20
83.437113114133467
 30
0.0
 11
334.84224101353652
 21
61.33914972498598
 31
0.0
  0
LINE
  5
2A48B
  8
01
 10
418.57276746804808
 20
329.01621117005629
 30
0.0
 11
261.41842966258253
 21
171.86187336459091
 31
0.0
  0
LINE
  5
2A48C
  8
01
 10
384.91804135756888
 20
281.21934943584631
 30
0.0
 11
313.89198800954028
 21
210.1932960878178
 31
0.0
  0
LINE
  5
2A579
  8
01
 10
-4.5575215563862912
 20
482.29423170760248
 30
0.0
 11
-4.5575215563862912
 21
472.31070282753399
 31
0.0
  0
LINE
  5
2A68E
  8
01
 10
567.34224101353641
 20
79.146734166669233
 30
0.0
 11
560.84224101353618
 21
79.146734166669177
 31
0.0
  0
ARC
  5
2A68F
  8
01
 10
567.34224101353641
 20
80.146734166669233
 30
0.0
 40
1.0
 50
270.0
 51
0.0000000000004071
  0
ARC
  5
2A690
  8
01
 10
560.84224101353618
 20
80.146734166669177
 30
0.0
 40
1.0
 50
180.0000000000004
 51
270.0
  0
LINE
  5
2A691
  8
01
 10
559.84224101354175
 20
106.6467341666694
 30
0.0
 11
559.84224101353595
 21
80.146734166669177
 31
0.0
  0
ARC
  5
2A692
  8
01
 10
559.34224101354175
 20
106.6467341666696
 30
0.0
 40
0.5
 50
0.0000000000004071
 51
90.0
  0
LINE
  5
2A693
  8
01
 10
554.84224101354403
 20
106.6467341666696
 30
0.0
 11
554.84224101353652
 21
72.646734166668921
 31
0.0
  0
ARC
  5
2A694
  8
01
 10
555.34224101354403
 20
106.6467341666696
 30
0.0
 40
0.5
 50
90.0
 51
180.0000000000004
  0
LINE
  5
2A695
  8
01
 10
559.34224101354175
 20
107.1467341666696
 30
0.0
 11
555.34224101354403
 21
107.1467341666696
 31
0.0
  0
LINE
  5
2A696
  8
01
 10
578.84224101353652
 20
72.646734166669745
 30
0.0
 11
554.84224101353652
 21
72.646734166668921
 31
0.0
  0
ARC
  5
2A697
  8
01
 10
568.34224101354175
 20
106.6467341666697
 30
0.0
 40
0.5
 50
90.0
 51
180.0000000000004
  0
LINE
  5
2A698
  8
01
 10
578.34224101353618
 20
107.1467341666697
 30
0.0
 11
568.34224101354175
 21
107.1467341666699
 31
0.0
  0
LINE
  5
2A699
  8
01
 10
577.14224101353636
 20
80.146734166669745
 30
0.0
 11
567.84224101354175
 21
80.146734166669916
 31
0.0
  0
LINE
  5
2A69A
  8
01
 10
578.84224101353618
 20
106.6467341666697
 30
0.0
 11
578.84224101353652
 21
72.646734166669745
 31
0.0
  0
ARC
  5
2A69B
  8
01
 10
578.34224101353618
 20
106.6467341666697
 30
0.0
 40
0.5
 50
0.0000000000004071
 51
90.0
  0
LINE
  5
2A69C
  8
01
 10
564.09224101353641
 20
83.437113114133339
 30
0.0
 11
564.09224101353652
 21
61.339149724985873
 31
0.0
  0
ARC
  5
2A69D
  8
01
 10
573.3422410135363
 20
93.646734166669717
 30
0.0
 40
4.5
 50
327.61246146690422
 51
32.38753853310407
  0
LINE
  5
2A69E
  8
01
 10
577.14224101353602
 20
106.6467341666697
 30
0.0
 11
577.14224101353636
 21
96.057128325309094
 31
0.0
  0
LINE
  5
2A69F
  8
01
 10
577.14224101353614
 20
91.236340008030467
 30
0.0
 11
577.14224101353636
 21
80.146734166669745
 31
0.0
  0
ARC
  5
2A6A0
  8
01
 10
577.64224101353602
 20
106.6467341666697
 30
0.0
 40
0.5
 50
90.0
 51
180.0000000000004
  0
LINE
  5
2A6A1
  8
01
 10
559.84224101354175
 20
106.6467341666694
 30
0.0
 11
559.84224101354175
 21
378.64673416666921
 31
0.0
  0
LINE
  5
2A6A2
  8
01
 10
567.84224101354175
 20
79.280708762887912
 30
0.0
 11
567.84224101354175
 21
378.64673416666921
 31
0.0
  0
ARC
  5
2A6A3
  8
01
 10
567.34224101354175
 20
378.64673416666921
 30
0.0
 40
0.5
 50
0.0
 51
90.0
  0
LINE
  5
2A6A4
  8
01
 10
576.8422410135372
 20
107.1465102868689
 30
0.0
 11
576.84224101353743
 21
95.127300230732445
 31
0.0
  0
LINE
  5
2A6A5
  8
01
 10
576.8422410135372
 20
92.126865751315066
 30
0.0
 11
576.8422410135372
 21
80.146734166669745
 31
0.0
  0
CIRCLE
  5
2A6A6
  8
01
 10
573.14224101353636
 20
93.646734166669845
 30
0.0
 40
4.0
  0
LINE
  5
2A6A8
  8
01
 10
573.14224101353636
 20
97.646734166669845
 30
0.0
 11
576.84224101353743
 21
97.646734166669887
 31
0.0
  0
LINE
  5
2A6A9
  8
01
 10
573.14224101353636
 20
89.646734166669845
 30
0.0
 11
576.8422410135372
 21
89.646734166669816
 31
0.0
  0
LINE
  5
2A6AA
  8
01
 10
560.34224101354175
 20
379.14673416666921
 30
0.0
 11
567.34224101354175
 21
379.14673416666921
 31
0.0
  0
ARC
  5
2A6AB
  8
01
 10
560.34224101354175
 20
378.64673416666921
 30
0.0
 40
0.5
 50
90.0
 51
180.0
  0
LINE
  5
2A74E
  8
01
 10
-65.157758986463477
 20
83.43711311413324
 30
0.0
 11
-65.157758986463477
 21
61.339149724985759
 31
0.0
  0
LINE
  5
2A74F
  8
01
 10
134.84224101353649
 20
83.437113114133467
 30
0.0
 11
134.84224101353649
 21
61.33914972498598
 31
0.0
  0
LINE
  5
2A8CD
  8
01
 10
534.84224101353664
 20
520.23059602314402
 30
0.0
 11
534.84224101353652
 21
497.23059602314402
 31
0.0
  0
LINE
  5
2A8F7
  8
01
 10
-465.15775898646348
 20
520.23059602314402
 30
0.0
 11
-465.15775898646342
 21
497.23059602314402
 31
0.0
  0
LINE
  5
2AA5C
  8
01
 10
578.84224101353652
 20
72.646734166669077
 30
0.0
 11
578.84224101353652
 21
47.965218446317969
 31
0.0
  0
LINE
  5
2AA5D
  8
01
 10
564.09224101353652
 20
61.339149724985873
 30
0.0
 11
564.09224101353652
 21
47.965218446317969
 31
0.0
  0
LINE
  5
2AA5E
  8
01
 10
558.09224101353641
 20
50.965218446317976
 30
0.0
 11
552.09224101353652
 21
50.965218446317976
 31
0.0
  0
LINE
  5
2AA5F
  8
01
 10
584.84224101353652
 20
50.965218446317976
 30
0.0
 11
610.54224101353645
 21
50.965218446317976
 31
0.0
  0
LINE
  5
2AA60
  8
01
 10
564.09224101353652
 20
50.965218446317976
 30
0.0
 11
578.84224101353652
 21
50.965218446317976
 31
0.0
  0
LINE
  5
2AA64
  8
01
 10
-415.15775898646342
 20
497.23059602314441
 30
0.0
 11
-415.15775898646342
 21
488.95833703693131
 31
0.0
  0
LINE
  5
2AA65
  8
01
 10
-465.15775898646342
 20
497.23059602314402
 30
0.0
 11
-465.15775898646342
 21
488.95833703693131
 31
0.0
  0
LINE
  5
2AA66
  8
01
 10
-421.15775898646342
 20
491.9583370369312
 30
0.0
 11
-459.15775898646342
 21
491.9583370369312
 31
0.0
  0
TEXT
  5
2AA6A
  8
01
 10
537.49203655162466
 20
526.13833729158966
 30
0.0
 40
10.5
  1
製品の取り付けのため
  0
TEXT
  5
2AA6B
  8
01
 10
537.49203655162466
 20
508.63833729158972
 30
0.0
 40
10.5
  1
側面より50ミリ以上の
  0
TEXT
  5
2AA6C
  8
01
 10
537.49203655162466
 20
491.13833729158972
 30
0.0
 40
10.5
  1
空間が必要
  0
LINE
  5
2AA6D
  8
01
 10
484.84224101353652
 20
497.23059602314441
 30
0.0
 11
484.84224101353652
 21
488.9583370369312
 31
0.0
  0
LINE
  5
2AA6E
  8
01
 10
534.84224101353652
 20
497.23059602314402
 30
0.0
 11
534.84224101353652
 21
488.9583370369312
 31
0.0
  0
LINE
  5
2AA6F
  8
01
 10
490.84224101353652
 20
491.9583370369312
 30
0.0
 11
528.84224101353652
 21
491.9583370369312
 31
0.0
  0
LINE
  5
2AA73
  8
01
 10
484.84224101353652
 20
72.646734166668921
 30
0.0
 11
484.84224101353652
 21
13.990694335186159
 31
0.0
  0
LINE
  5
2AA74
  8
01
 10
-415.15775898646342
 20
72.646734166669759
 30
0.0
 11
-415.15775898646342
 21
13.990694335186159
 31
0.0
  0
LINE
  5
2AA75
  8
01
 10
478.84224101353652
 20
16.990694335186159
 30
0.0
 11
-409.15775898646342
 21
16.990694335186159
 31
0.0
  0
LINE
  5
2AA79
  8
01
 10
134.84224101353649
 20
61.33914972498598
 30
0.0
 11
134.84224101353649
 21
47.96521844631809
 31
0.0
  0
LINE
  5
2AA7A
  8
01
 10
334.84224101353652
 20
61.33914972498598
 30
0.0
 11
334.84224101353652
 21
47.96521844631809
 31
0.0
  0
LINE
  5
2AA7B
  8
01
 10
140.84224101353649
 20
50.96521844631809
 30
0.0
 11
328.84224101353652
 21
50.96521844631809
 31
0.0
  0
LINE
  5
2AA7F
  8
01
 10
554.84224101353652
 20
72.646734166668921
 30
0.0
 11
554.84224101353652
 21
13.990694335186159
 31
0.0
  0
LINE
  5
2AA80
  8
01
 10
578.84224101353652
 20
72.646734166669077
 30
0.0
 11
578.84224101353652
 21
13.990694335186159
 31
0.0
  0
LINE
  5
2AA81
  8
01
 10
560.84224101353652
 20
16.990694335186159
 30
0.0
 11
572.84224101353641
 21
16.990694335186159
 31
0.0
  0
LINE
  5
2AA85
  8
01
 10
559.84224101354175
 20
378.64673416666909
 30
0.0
 11
559.84224101354175
 21
414.27340014018449
 31
0.0
  0
LINE
  5
2AA86
  8
01
 10
567.84224101354175
 20
378.64673416666909
 30
0.0
 11
567.84224101354175
 21
414.27340014018449
 31
0.0
  0
LINE
  5
2AA87
  8
01
 10
553.84224101354175
 20
411.27340014018449
 30
0.0
 11
547.84224101354175
 21
411.27340014018449
 31
0.0
  0
LINE
  5
2AA88
  8
01
 10
573.84224101354175
 20
411.27340014018449
 30
0.0
 11
591.04224101354168
 21
411.27340014018449
 31
0.0
  0
LINE
  5
2AA89
  8
01
 10
559.84224101354175
 20
411.27340014018449
 30
0.0
 11
567.84224101354175
 21
411.27340014018449
 31
0.0
  0
LINE
  5
2AA8D
  8
01
 10
572.42055317704921
 20
94.896734166669916
 30
0.0
 11
571.69886534056207
 21
93.646734166669972
 31
0.0
  0
LINE
  5
2AA8E
  8
01
 10
571.69886534056207
 20
93.646734166669972
 30
0.0
 11
572.4205531770491
 21
92.396734166669916
 31
0.0
  0
LINE
  5
2AA8F
  8
01
 10
572.4205531770491
 20
92.396734166669916
 30
0.0
 11
573.86392885002306
 21
92.396734166669773
 31
0.0
  0
LINE
  5
2AA90
  8
01
 10
573.86392885002306
 20
92.396734166669773
 30
0.0
 11
574.58561668651021
 21
93.646734166669717
 31
0.0
  0
LINE
  5
2AA91
  8
01
 10
574.58561668651021
 20
93.646734166669717
 30
0.0
 11
573.8639288500234
 21
94.896734166669773
 31
0.0
  0
LINE
  5
2AA92
  8
01
 10
573.8639288500234
 20
94.896734166669773
 30
0.0
 11
572.42055317704921
 21
94.896734166669916
 31
0.0
  0
LINE
  5
2AA93
  8
01
 10
567.34224101354175
 20
79.146734166668693
 30
0.0
 11
620.84224101354164
 21
79.146734166668679
 31
0.0
  0
LINE
  5
2AA94
  8
01
 10
567.34224101354175
 20
379.14673416666892
 30
0.0
 11
620.84224101354175
 21
379.14673416666892
 31
0.0
  0
LINE
  5
2AA95
  8
01
 10
617.84224101354164
 20
85.146734166668679
 30
0.0
 11
617.84224101354175
 21
373.14673416666892
 31
0.0
  0
LINE
  5
2AA99
  8
01
 10
578.84224101353652
 20
72.646734166669745
 30
0.0
 11
640.84224101354164
 21
72.646734166669731
 31
0.0
  0
LINE
  5
2AA9A
  8
01
 10
567.34224101354175
 20
379.14673416666892
 30
0.0
 11
640.84224101354175
 21
379.14673416666881
 31
0.0
  0
LINE
  5
2AA9B
  8
01
 10
637.84224101354164
 20
78.646734166669731
 30
0.0
 11
637.84224101354175
 21
373.14673416666892
 31
0.0
  0
LINE
  5
2AA9F
  8
01
  6
BYBLOCK
 10
-7.558552484386289
 20
482.29423170760248
 30
0.0
 11
-4.5575215563862912
 21
493.49423170760241
 31
0.0
  0
LINE
  5
2AAA0
  8
01
  6
BYBLOCK
 10
-4.5575215563862912
 20
493.49423170760241
 30
0.0
 11
-1.5564906283862949
 21
482.29423170760248
 31
0.0
  0
LINE
  5
2AAA1
  8
01
  6
BYBLOCK
 10
-4.5575215563862912
 20
493.49423170760241
 30
0.0
 11
-4.5575215563862921
 21
482.29423170760248
 31
0.0
  0
TEXT
  5
2AAA2
  8
01
 10
4.0344506613791049
 20
474.50686379337031
 30
0.0
 40
12.0
  1
キッチン側
  0
TEXT
  5
2AAA3
  8
01
 10
303.54245213755019
 20
567.35452081631456
 30
0.0
 40
10.5
  1
材質：アルミ押出形材
  0
TEXT
  5
2AAA4
  8
01
 10
303.54245213755019
 20
549.85452081631445
 30
0.0
 40
10.5
  1
仕上：クローム
  0
SOLID
  5
2AAA5
  8
01
 10
258.79287471641209
 20
523.3652870101356
 30
0.0
 11
253.1886425615649
 21
521.00042296445008
 31
0.0
 12
257.72296031484672
 22
525.05504532815701
 32
0.0
 13
257.72296031484672
 23
525.05504532815701
 33
0.0
1001
ACAD
1000
DSTYLE
1002
{
1070
    40
1040
3.0
1002
}
  0
TEXT
  5
2AAA7
  8
01
 10
324.59375913811027
 20
432.46110387141738
 30
0.0
 40
10.5
  1
材質：強化ガラス
  0
SOLID
  5
2AAA8
  8
01
 10
289.48801440821433
 20
383.8446828831382
 30
0.0
 11
285.5242318644045
 21
379.23074444126559
 31
0.0
 12
287.77734342469842
 22
384.88083190048877
 32
0.0
 13
287.77734342469842
 23
384.88083190048877
 33
0.0
1001
ACAD
1000
DSTYLE
1002
{
1070
    40
1040
3.0
1002
}
  0
TEXT
  5
2AAAA
  8
01
 10
524.09561465375953
 20
566.56557961599935
 30
0.0
 40
10.5
  1
材質：亜鉛ダイキャスト
  0
TEXT
  5
2AAAB
  8
01
 10
524.09561465375953
 20
549.06557961599947
 30
0.0
 40
10.5
  1
仕上：クローム
  0
SOLID
  5
2AAAC
  8
01
 10
490.01835175014719
 20
518.43640090307167
 30
0.0
 11
485.14344206209529
 21
514.79837183043674
 31
0.0
 12
488.57494179750591
 22
519.82080247364877
 32
0.0
 13
488.57494179750591
 23
519.82080247364877
 33
0.0
1001
ACAD
1000
DSTYLE
1002
{
1070
    40
1040
3.0
1002
}
  0
LINE
  5
2AAAE
  8
01
 10
-265.15775898646348
 20
61.339149724985759
 30
0.0
 11
-265.15775898646348
 21
50.039528011598009
 31
0.0
  0
LINE
  5
2AAAF
  8
01
 10
-65.157758986463477
 20
61.339149724985759
 30
0.0
 11
-65.157758986463477
 21
50.039528011598009
 31
0.0
  0
LINE
  5
2AAB0
  8
01
 10
-259.15775898646348
 20
53.039528011598009
 30
0.0
 11
-71.157758986463463
 21
53.039528011598009
 31
0.0
  0
LINE
  5
2AAB4
  8
01
 10
334.84224101353652
 20
61.33914972498598
 30
0.0
 11
334.84224101353652
 21
47.965218446317969
 31
0.0
  0
LINE
  5
2AAB5
  8
01
 10
484.84224101353652
 20
72.646734166668921
 30
0.0
 11
484.84224101353652
 21
47.965218446317969
 31
0.0
  0
LINE
  5
2AAB6
  8
01
 10
340.84224101353652
 20
50.965218446317976
 30
0.0
 11
478.84224101353652
 21
50.965218446317976
 31
0.0
  0
LINE
  5
2AABA
  8
01
 10
-415.15775898646342
 20
72.646734166669603
 30
0.0
 11
-415.15775898646342
 21
50.039528011598122
 31
0.0
  0
LINE
  5
2AABB
  8
01
 10
-265.15775898646348
 20
61.339149724985759
 30
0.0
 11
-265.15775898646348
 21
50.039528011598122
 31
0.0
  0
LINE
  5
2AABC
  8
01
 10
-409.15775898646342
 20
53.039528011598122
 30
0.0
 11
-271.15775898646348
 21
53.039528011598122
 31
0.0
  0
LINE
  5
2AAC0
  8
01
 10
-415.15775898646342
 20
374.14673416666898
 30
0.0
 11
-415.15775898646342
 21
414.27340014018449
 31
0.0
  0
LINE
  5
2AAC1
  8
01
 10
484.84224101353652
 20
374.14673416666892
 30
0.0
 11
484.84224101353652
 21
414.27340014018449
 31
0.0
  0
LINE
  5
2AAC2
  8
01
 10
-409.15775898646342
 20
411.27340014018449
 30
0.0
 11
478.84224101353652
 21
411.27340014018449
 31
0.0
  0
TEXT
  5
2AAC6
  8
01
 10
-430.08497607368832
 20
554.97776327493955
 30
0.0
 40
20.0
  1
KC-068-S4C
  0
TEXT
  5
2AAC7
  8
01
 10
-17.15004816522805
 20
413.37340014018457
 30
0.0
 40
10.5
  1
ガラスW寸法=900
  0
LINE
  5
2AAC8
  8
01
  6
BYBLOCK
 10
478.84224101353652
 20
412.88109528018452
 30
0.0
 11
484.84224101353652
 21
411.27340014018449
 31
0.0
  0
LINE
  5
2AAC9
  8
01
  6
BYBLOCK
 10
484.84224101353652
 20
411.27340014018449
 30
0.0
 11
478.84224101353652
 21
409.66570500018452
 31
0.0
  0
LINE
  5
2AACA
  8
01
  6
BYBLOCK
 10
484.84224101353652
 20
411.27340014018449
 30
0.0
 11
478.84224101353652
 21
411.27340014018449
 31
0.0
  0
LINE
  5
2AACB
  8
01
  6
BYBLOCK
 10
-409.15775898646342
 20
409.66570500018452
 30
0.0
 11
-415.15775898646342
 21
411.27340014018449
 31
0.0
  0
LINE
  5
2AACC
  8
01
  6
BYBLOCK
 10
-415.15775898646342
 20
411.27340014018449
 30
0.0
 11
-409.15775898646342
 21
412.88109528018452
 31
0.0
  0
LINE
  5
2AACD
  8
01
  6
BYBLOCK
 10
-415.15775898646342
 20
411.27340014018449
 30
0.0
 11
-409.15775898646342
 21
411.27340014018449
 31
0.0
  0
TEXT
  5
2AACE
  8
01
 10
-355.90775898646348
 20
55.139528011598117
 30
0.0
 40
10.5
  1
150
  0
LINE
  5
2AACF
  8
01
  6
BYBLOCK
 10
-271.15775898646348
 20
54.647223151598119
 30
0.0
 11
-265.15775898646348
 21
53.039528011598122
 31
0.0
  0
LINE
  5
2AAD0
  8
01
  6
BYBLOCK
 10
-265.15775898646348
 20
53.039528011598122
 30
0.0
 11
-271.15775898646348
 21
51.431832871598118
 31
0.0
  0
LINE
  5
2AAD1
  8
01
  6
BYBLOCK
 10
-265.15775898646348
 20
53.039528011598122
 30
0.0
 11
-271.15775898646348
 21
53.039528011598122
 31
0.0
  0
LINE
  5
2AAD2
  8
01
  6
BYBLOCK
 10
-409.15775898646342
 20
51.431832871598111
 30
0.0
 11
-415.15775898646342
 21
53.039528011598122
 31
0.0
  0
LINE
  5
2AAD3
  8
01
  6
BYBLOCK
 10
-415.15775898646342
 20
53.039528011598122
 30
0.0
 11
-409.15775898646342
 21
54.647223151598119
 31
0.0
  0
LINE
  5
2AAD4
  8
01
  6
BYBLOCK
 10
-415.15775898646342
 20
53.039528011598122
 30
0.0
 11
-409.15775898646342
 21
53.039528011598122
 31
0.0
  0
TEXT
  5
2AAD5
  8
01
 10
394.09224101353652
 20
53.065218446317978
 30
0.0
 40
10.5
  1
150
  0
LINE
  5
2AAD6
  8
01
  6
BYBLOCK
 10
478.84224101353652
 20
52.572913586317974
 30
0.0
 11
484.84224101353652
 21
50.965218446317976
 31
0.0
  0
LINE
  5
2AAD7
  8
01
  6
BYBLOCK
 10
484.84224101353652
 20
50.965218446317976
 30
0.0
 11
478.84224101353652
 21
49.357523306317979
 31
0.0
  0
LINE
  5
2AAD8
  8
01
  6
BYBLOCK
 10
484.84224101353652
 20
50.965218446317976
 30
0.0
 11
478.84224101353652
 21
50.965218446317976
 31
0.0
  0
LINE
  5
2AAD9
  8
01
  6
BYBLOCK
 10
340.84224101353652
 20
49.357523306317972
 30
0.0
 11
334.84224101353652
 21
50.965218446317976
 31
0.0
  0
LINE
  5
2AADA
  8
01
  6
BYBLOCK
 10
334.84224101353652
 20
50.965218446317976
 30
0.0
 11
340.84224101353652
 21
52.572913586317974
 31
0.0
  0
LINE
  5
2AADB
  8
01
  6
BYBLOCK
 10
334.84224101353652
 20
50.965218446317976
 30
0.0
 11
340.84224101353652
 21
50.965218446317976
 31
0.0
  0
TEXT
  5
2AADC
  8
01
 10
-180.15775898646351
 20
55.139528011598003
 30
0.0
 40
10.5
  1
200
  0
LINE
  5
2AADD
  8
01
  6
BYBLOCK
 10
-71.157758986463463
 20
54.647223151597998
 30
0.0
 11
-65.157758986463477
 21
53.039528011598009
 31
0.0
  0
LINE
  5
2AADE
  8
01
  6
BYBLOCK
 10
-65.157758986463477
 20
53.039528011598009
 30
0.0
 11
-71.157758986463463
 21
51.431832871598012
 31
0.0
  0
LINE
  5
2AADF
  8
01
  6
BYBLOCK
 10
-65.157758986463477
 20
53.039528011598009
 30
0.0
 11
-71.157758986463463
 21
53.039528011598009
 31
0.0
  0
LINE
  5
2AAE0
  8
01
  6
BYBLOCK
 10
-259.15775898646348
 20
51.431832871597997
 30
0.0
 11
-265.15775898646348
 21
53.039528011598009
 31
0.0
  0
LINE
  5
2AAE1
  8
01
  6
BYBLOCK
 10
-265.15775898646348
 20
53.039528011598009
 30
0.0
 11
-259.15775898646348
 21
54.647223151597998
 31
0.0
  0
LINE
  5
2AAE2
  8
01
  6
BYBLOCK
 10
-265.15775898646348
 20
53.039528011598009
 30
0.0
 11
-259.15775898646348
 21
53.039528011598009
 31
0.0
  0
LINE
  5
2AAE3
  8
01
 10
489.29664677382658
 20
519.12860168836028
 30
0.0
 11
515.99561465375939
 21
546.96557961599945
 31
0.0
1001
ACAD
1000
DSTYLE
1002
{
1070
    40
1040
3.0
1002
}
  0
LINE
  5
2AAE4
  8
01
 10
515.99561465375939
 20
546.96557961599945
 30
0.0
 11
657.79561465375934
 21
546.96557961599945
 31
0.0
1001
ACAD
1000
DSTYLE
1002
{
1070
    40
1040
3.0
1002
}
  0
LINE
  5
2AAE5
  8
01
 10
288.63267891645631
 20
384.36275739181349
 30
0.0
 11
316.49375913811019
 21
430.36110387141741
 31
0.0
1001
ACAD
1000
DSTYLE
1002
{
1070
    40
1040
3.0
1002
}
  0
LINE
  5
2AAE6
  8
01
 10
316.49375913811019
 20
430.36110387141741
 30
0.0
 11
421.19375913811018
 21
430.36110387141741
 31
0.0
1001
ACAD
1000
DSTYLE
1002
{
1070
    40
1040
3.0
1002
}
  0
LINE
  5
2AAE7
  8
01
 10
258.2579175156294
 20
524.21016616914631
 30
0.0
 11
295.44245213755022
 21
547.75452081631454
 31
0.0
1001
ACAD
1000
DSTYLE
1002
{
1070
    40
1040
3.0
1002
}
  0
LINE
  5
2AAE8
  8
01
 10
295.44245213755022
 20
547.75452081631454
 30
0.0
 11
426.74245213755012
 21
547.75452081631454
 31
0.0
1001
ACAD
1000
DSTYLE
1002
{
1070
    40
1040
3.0
1002
}
  0
TEXT
  5
2AAE9
  8
01
 10
635.7422410135415
 20
203.3967341666694
 30
0.0
 40
10.5
  1
306.5
 50
90.0
  0
LINE
  5
2AAEA
  8
01
  6
BYBLOCK
 10
636.23454587354172
 20
373.14673416666892
 30
0.0
 11
637.84224101354175
 21
379.14673416666892
 31
0.0
  0
LINE
  5
2AAEB
  8
01
  6
BYBLOCK
 10
637.84224101354175
 20
379.14673416666892
 30
0.0
 11
639.44993615354178
 21
373.14673416666892
 31
0.0
  0
LINE
  5
2AAEC
  8
01
  6
BYBLOCK
 10
637.84224101354175
 20
379.14673416666892
 30
0.0
 11
637.84224101354175
 21
373.14673416666892
 31
0.0
  0
LINE
  5
2AAED
  8
01
  6
BYBLOCK
 10
639.44993615354156
 20
78.646734166669731
 30
0.0
 11
637.84224101354164
 21
72.646734166669731
 31
0.0
  0
LINE
  5
2AAEE
  8
01
  6
BYBLOCK
 10
637.84224101354164
 20
72.646734166669731
 30
0.0
 11
636.23454587354161
 21
78.646734166669731
 31
0.0
  0
LINE
  5
2AAEF
  8
01
  6
BYBLOCK
 10
637.84224101354164
 20
72.646734166669731
 30
0.0
 11
637.84224101354164
 21
78.646734166669731
 31
0.0
  0
TEXT
  5
2AAF0
  8
01
 10
615.74224101354162
 20
170.69673416666879
 30
0.0
 40
10.5
  1
ガラスH寸法=300
 50
90.0
  0
LINE
  5
2AAF1
  8
01
  6
BYBLOCK
 10
616.23454587354161
 20
373.14673416666892
 30
0.0
 11
617.84224101354175
 21
379.14673416666892
 31
0.0
  0
LINE
  5
2AAF2
  8
01
  6
BYBLOCK
 10
617.84224101354175
 20
379.14673416666892
 30
0.0
 11
619.44993615354178
 21
373.14673416666892
 31
0.0
  0
LINE
  5
2AAF3
  8
01
  6
BYBLOCK
 10
617.84224101354175
 20
379.14673416666892
 30
0.0
 11
617.84224101354175
 21
373.14673416666892
 31
0.0
  0
LINE
  5
2AAF4
  8
01
  6
BYBLOCK
 10
619.44993615354167
 20
85.146734166668679
 30
0.0
 11
617.84224101354164
 21
79.146734166668679
 31
0.0
  0
LINE
  5
2AAF5
  8
01
  6
BYBLOCK
 10
617.84224101354164
 20
79.146734166668679
 30
0.0
 11
616.23454587354161
 21
85.146734166668679
 31
0.0
  0
LINE
  5
2AAF6
  8
01
  6
BYBLOCK
 10
617.84224101354164
 20
79.146734166668679
 30
0.0
 11
617.84224101354164
 21
85.146734166668679
 31
0.0
  0
TEXT
  5
2AAF7
  8
01
 10
580.44224101354166
 20
413.37340014018457
 30
0.0
 40
10.5
  1
8
  0
LINE
  5
2AAF8
  8
01
  6
BYBLOCK
 10
573.84224101354175
 20
409.66570500018452
 30
0.0
 11
567.84224101354175
 21
411.27340014018449
 31
0.0
  0
LINE
  5
2AAF9
  8
01
  6
BYBLOCK
 10
567.84224101354175
 20
411.27340014018449
 30
0.0
 11
573.84224101354175
 21
412.88109528018452
 31
0.0
  0
LINE
  5
2AAFA
  8
01
  6
BYBLOCK
 10
567.84224101354175
 20
411.27340014018449
 30
0.0
 11
573.84224101354175
 21
411.27340014018449
 31
0.0
  0
LINE
  5
2AAFB
  8
01
  6
BYBLOCK
 10
553.84224101354175
 20
412.88109528018452
 30
0.0
 11
559.84224101354175
 21
411.27340014018449
 31
0.0
  0
LINE
  5
2AAFC
  8
01
  6
BYBLOCK
 10
559.84224101354175
 20
411.27340014018449
 30
0.0
 11
553.84224101354175
 21
409.66570500018452
 31
0.0
  0
LINE
  5
2AAFD
  8
01
  6
BYBLOCK
 10
559.84224101354175
 20
411.27340014018449
 30
0.0
 11
553.84224101354175
 21
411.27340014018449
 31
0.0
  0
TEXT
  5
2AAFE
  8
01
 10
556.59224101353652
 20
19.090694335186161
 30
0.0
 40
10.5
  1
24
  0
LINE
  5
2AAFF
  8
01
  6
BYBLOCK
 10
572.84224101353641
 20
18.59838947518616
 30
0.0
 11
578.84224101353652
 21
16.990694335186159
 31
0.0
  0
LINE
  5
2AB00
  8
01
  6
BYBLOCK
 10
578.84224101353652
 20
16.990694335186159
 30
0.0
 11
572.84224101353641
 21
15.38299919518616
 31
0.0
  0
LINE
  5
2AB01
  8
01
  6
BYBLOCK
 10
578.84224101353652
 20
16.990694335186159
 30
0.0
 11
572.84224101353641
 21
16.990694335186159
 31
0.0
  0
LINE
  5
2AB02
  8
01
  6
BYBLOCK
 10
560.84224101353652
 20
15.38299919518616
 30
0.0
 11
554.84224101353652
 21
16.990694335186159
 31
0.0
  0
LINE
  5
2AB03
  8
01
  6
BYBLOCK
 10
554.84224101353652
 20
16.990694335186159
 30
0.0
 11
560.84224101353652
 21
18.59838947518616
 31
0.0
  0
LINE
  5
2AB04
  8
01
  6
BYBLOCK
 10
554.84224101353652
 20
16.990694335186159
 30
0.0
 11
560.84224101353652
 21
16.990694335186159
 31
0.0
  0
TEXT
  5
2AB05
  8
01
 10
219.84224101353649
 20
53.065218446318092
 30
0.0
 40
10.5
  1
200
  0
LINE
  5
2AB06
  8
01
  6
BYBLOCK
 10
328.84224101353652
 20
52.572913586318087
 30
0.0
 11
334.84224101353652
 21
50.96521844631809
 31
0.0
  0
LINE
  5
2AB07
  8
01
  6
BYBLOCK
 10
334.84224101353652
 20
50.96521844631809
 30
0.0
 11
328.84224101353652
 21
49.357523306318093
 31
0.0
  0
LINE
  5
2AB08
  8
01
  6
BYBLOCK
 10
334.84224101353652
 20
50.96521844631809
 30
0.0
 11
328.84224101353652
 21
50.96521844631809
 31
0.0
  0
LINE
  5
2AB09
  8
01
  6
BYBLOCK
 10
140.84224101353649
 20
49.357523306318079
 30
0.0
 11
134.84224101353649
 21
50.96521844631809
 31
0.0
  0
LINE
  5
2AB0A
  8
01
  6
BYBLOCK
 10
134.84224101353649
 20
50.96521844631809
 30
0.0
 11
140.84224101353649
 21
52.572913586318087
 31
0.0
  0
LINE
  5
2AB0B
  8
01
  6
BYBLOCK
 10
134.84224101353649
 20
50.96521844631809
 30
0.0
 11
140.84224101353649
 21
50.96521844631809
 31
0.0
  0
TEXT
  5
2AB0C
  8
01
 10
19.842241013536519
 20
19.090694335186161
 30
0.0
 40
10.5
  1
900
  0
LINE
  5
2AB0D
  8
01
  6
BYBLOCK
 10
-409.15775898646342
 20
15.38299919518616
 30
0.0
 11
-415.15775898646342
 21
16.990694335186159
 31
0.0
  0
LINE
  5
2AB0E
  8
01
  6
BYBLOCK
 10
-415.15775898646342
 20
16.990694335186159
 30
0.0
 11
-409.15775898646342
 21
18.59838947518616
 31
0.0
  0
LINE
  5
2AB0F
  8
01
  6
BYBLOCK
 10
-415.15775898646342
 20
16.990694335186159
 30
0.0
 11
-409.15775898646342
 21
16.990694335186159
 31
0.0
  0
LINE
  5
2AB10
  8
01
  6
BYBLOCK
 10
478.84224101353652
 20
18.59838947518616
 30
0.0
 11
484.84224101353652
 21
16.990694335186159
 31
0.0
  0
LINE
  5
2AB11
  8
01
  6
BYBLOCK
 10
484.84224101353652
 20
16.990694335186159
 30
0.0
 11
478.84224101353652
 21
15.38299919518616
 31
0.0
  0
LINE
  5
2AB12
  8
01
  6
BYBLOCK
 10
484.84224101353652
 20
16.990694335186159
 30
0.0
 11
478.84224101353652
 21
16.990694335186159
 31
0.0
  0
TEXT
  5
2AB13
  8
01
 10
499.84224101353652
 20
494.05833703693122
 30
0.0
 40
10.5
  1
50
  0
LINE
  5
2AB14
  8
01
  6
BYBLOCK
 10
528.84224101353652
 20
493.56603217693117
 30
0.0
 11
534.84224101353652
 21
491.9583370369312
 31
0.0
  0
LINE
  5
2AB15
  8
01
  6
BYBLOCK
 10
534.84224101353652
 20
491.9583370369312
 30
0.0
 11
528.84224101353652
 21
490.35064189693122
 31
0.0
  0
LINE
  5
2AB16
  8
01
  6
BYBLOCK
 10
534.84224101353652
 20
491.9583370369312
 30
0.0
 11
528.84224101353652
 21
491.9583370369312
 31
0.0
  0
LINE
  5
2AB17
  8
01
  6
BYBLOCK
 10
490.84224101353652
 20
490.35064189693122
 30
0.0
 11
484.84224101353652
 21
491.9583370369312
 31
0.0
  0
LINE
  5
2AB18
  8
01
  6
BYBLOCK
 10
484.84224101353652
 20
491.9583370369312
 30
0.0
 11
490.84224101353652
 21
493.56603217693117
 31
0.0
  0
LINE
  5
2AB19
  8
01
  6
BYBLOCK
 10
484.84224101353652
 20
491.9583370369312
 30
0.0
 11
490.84224101353652
 21
491.9583370369312
 31
0.0
  0
TEXT
  5
2AB1A
  8
01
 10
-450.15775898646342
 20
494.05833703693128
 30
0.0
 40
10.5
  1
50
  0
LINE
  5
2AB1B
  8
01
  6
BYBLOCK
 10
-459.15775898646342
 20
490.35064189693122
 30
0.0
 11
-465.15775898646342
 21
491.9583370369312
 31
0.0
  0
LINE
  5
2AB1C
  8
01
  6
BYBLOCK
 10
-465.15775898646342
 20
491.9583370369312
 30
0.0
 11
-459.15775898646342
 21
493.56603217693117
 31
0.0
  0
LINE
  5
2AB1D
  8
01
  6
BYBLOCK
 10
-465.15775898646342
 20
491.9583370369312
 30
0.0
 11
-459.15775898646342
 21
491.9583370369312
 31
0.0
  0
LINE
  5
2AB1E
  8
01
  6
BYBLOCK
 10
-421.15775898646342
 20
493.56603217693117
 30
0.0
 11
-415.15775898646342
 21
491.9583370369312
 31
0.0
  0
LINE
  5
2AB1F
  8
01
  6
BYBLOCK
 10
-415.15775898646342
 20
491.9583370369312
 30
0.0
 11
-421.15775898646342
 21
490.35064189693122
 31
0.0
  0
LINE
  5
2AB20
  8
01
  6
BYBLOCK
 10
-415.15775898646342
 20
491.9583370369312
 30
0.0
 11
-421.15775898646342
 21
491.9583370369312
 31
0.0
  0
TEXT
  5
2AB21
  8
01
 10
589.94224101353655
 20
53.065218446317978
 30
0.0
 40
10.5
  1
15
  0
LINE
  5
2AB22
  8
01
  6
BYBLOCK
 10
584.84224101353652
 20
49.357523306317972
 30
0.0
 11
578.84224101353652
 21
50.965218446317976
 31
0.0
  0
LINE
  5
2AB23
  8
01
  6
BYBLOCK
 10
578.84224101353652
 20
50.965218446317976
 30
0.0
 11
584.84224101353652
 21
52.572913586317974
 31
0.0
  0
LINE
  5
2AB24
  8
01
  6
BYBLOCK
 10
578.84224101353652
 20
50.965218446317976
 30
0.0
 11
584.84224101353652
 21
50.965218446317976
 31
0.0
  0
LINE
  5
2AB25
  8
01
  6
BYBLOCK
 10
558.09224101353641
 20
52.572913586317974
 30
0.0
 11
564.09224101353652
 21
50.965218446317976
 31
0.0
  0
LINE
  5
2AB26
  8
01
  6
BYBLOCK
 10
564.09224101353652
 20
50.965218446317976
 30
0.0
 11
558.09224101353641
 21
49.357523306317979
 31
0.0
  0
LINE
  5
2AB27
  8
01
  6
BYBLOCK
 10
564.09224101353652
 20
50.965218446317976
 30
0.0
 11
558.09224101353641
 21
50.965218446317976
 31
0.0
  0
VIEWPORT
  5
57
 67
     1
  8
0
 10
-12.71992488646128
 20
10.089164235928759
 30
0.0
 40
405.34199234641852
 41
286.996607080991
 68
     1
 69
     1
1001
ACAD
1000
MVIEW
1002
{
1070
    16
1010
0.0
1020
0.0
1030
0.0
1010
0.0
1020
0.0
1030
1.0
1040
0.0
1040
286.996607080991
1040
-12.71992488646128
1040
10.089164235928759
1040
50.0
1040
0.0
1040
0.0
1070
     0
1070
   100
1070
     1
1070
     1
1070
     0
1070
     0
1070
     0
1070
     1
1040
0.0
1040
0.0
1040
0.0
1040
10.0
1040
10.0
1040
10.0
1040
10.0
1070
     0
1002
{
1002
}
1002
}
  0
ENDSEC
  0
EOF
