  0
SECTION
  2
HEADER
  9
$ACADVER
  1
AC1009
  9
$DWGCODEPAGE
  3
ansi_932
  9
$INSBASE
 10
0.0
 20
0.0
 30
0.0
  9
$EXTMIN
 10
764.4136356489751
 20
-420.2833653704238
 30
0.0
  9
$EXTMAX
 10
1125.814593145261
 20
-180.1332354119526
 30
0.0
  9
$LIMMIN
 10
0.0
 20
0.0
  9
$LIMMAX
 10
420.0
 20
297.0
  9
$ORTHOMODE
 70
     0
  9
$REGENMODE
 70
     1
  9
$FILLMODE
 70
     1
  9
$QTEXTMODE
 70
     0
  9
$MIRRTEXT
 70
     0
  9
$DRAGMODE
 70
     2
  9
$LTSCALE
 40
0.5
  9
$OSMODE
 70
 14591
  9
$ATTMODE
 70
     1
  9
$TEXTSIZE
 40
5.2
  9
$TRACEWID
 40
1.0
  9
$TEXTSTYLE
  7
STANDARD
  9
$CLAYER
  8
1TEXT
  9
$CELTYPE
  6
BYLAYER
  9
$CECOLOR
 62
   256
  9
$DIMSCALE
 40
1.3
  9
$DIMASZ
 40
2.0
  9
$DIMEXO
 40
0.0
  9
$DIMDLI
 40
7.0
  9
$DIMRND
 40
0.0
  9
$DIMDLE
 40
0.0
  9
$DIMEXE
 40
1.0
  9
$DIMTP
 40
0.0
  9
$DIMTM
 40
0.0
  9
$DIMTXT
 40
3.5
  9
$DIMCEN
 40
0.0
  9
$DIMTSZ
 40
0.0
  9
$DIMTOL
 70
     0
  9
$DIMLIM
 70
     0
  9
$DIMTIH
 70
     0
  9
$DIMTOH
 70
     0
  9
$DIMSE1
 70
     0
  9
$DIMSE2
 70
     0
  9
$DIMTAD
 70
     1
  9
$DIMZIN
 70
     8
  9
$DIMBLK
  1

  9
$DIMASO
 70
     1
  9
$DIMSHO
 70
     1
  9
$DIMPOST
  1
 
  9
$DIMAPOST
  1

  9
$DIMALT
 70
     0
  9
$DIMALTD
 70
     2
  9
$DIMALTF
 40
25.4
  9
$DIMLFAC
 40
1.0
  9
$DIMTOFL
 70
     1
  9
$DIMTVP
 40
0.0
  9
$DIMTIX
 70
     0
  9
$DIMSOXD
 70
     0
  9
$DIMSAH
 70
     1
  9
$DIMBLK1
  1
OPEN30
  9
$DIMBLK2
  1
OPEN30
  9
$DIMSTYLE
  2
NEWX10
  9
$DIMCLRD
 70
   256
  9
$DIMCLRE
 70
   256
  9
$DIMCLRT
 70
   201
  9
$DIMTFAC
 40
0.7
  9
$DIMGAP
 40
0.7
  9
$LUNITS
 70
     2
  9
$LUPREC
 70
     4
  9
$SKETCHINC
 40
1.0
  9
$FILLETRAD
 40
0.0
  9
$AUNITS
 70
     0
  9
$AUPREC
 70
     2
  9
$MENU
  1
acad
  9
$ELEVATION
 40
0.0
  9
$PELEVATION
 40
0.0
  9
$THICKNESS
 40
0.0
  9
$LIMCHECK
 70
     0
  9
$CHAMFERA
 40
1.0
  9
$CHAMFERB
 40
1.0
  9
$SKPOLY
 70
     0
  9
$TDCREATE
 40
2453033.732663484
  9
$TDUPDATE
 40
2459713.699785081
  9
$TDINDWG
 40
2.4085340162
  9
$TDUSRTIMER
 40
2.4085340162
  9
$USRTIMER
 70
     1
  9
$ANGBASE
 50
0.0
  9
$ANGDIR
 70
     0
  9
$PDMODE
 70
     0
  9
$PDSIZE
 40
0.0
  9
$PLINEWID
 40
0.0
  9
$COORDS
 70
     2
  9
$SPLFRAME
 70
     0
  9
$SPLINETYPE
 70
     6
  9
$SPLINESEGS
 70
     8
  9
$ATTDIA
 70
     0
  9
$ATTREQ
 70
     1
  9
$HANDLING
 70
     1
  9
$HANDSEED
  5
20A1E
  9
$SURFTAB1
 70
     6
  9
$SURFTAB2
 70
     6
  9
$SURFTYPE
 70
     6
  9
$SURFU
 70
     6
  9
$SURFV
 70
     6
  9
$UCSNAME
  2

  9
$UCSORG
 10
0.0
 20
0.0
 30
0.0
  9
$UCSXDIR
 10
1.0
 20
0.0
 30
0.0
  9
$UCSYDIR
 10
0.0
 20
1.0
 30
0.0
  9
$PUCSNAME
  2

  9
$PUCSORG
 10
0.0
 20
0.0
 30
0.0
  9
$PUCSXDIR
 10
1.0
 20
0.0
 30
0.0
  9
$PUCSYDIR
 10
0.0
 20
1.0
 30
0.0
  9
$USERI1
 70
     0
  9
$USERI2
 70
     0
  9
$USERI3
 70
     0
  9
$USERI4
 70
     0
  9
$USERI5
 70
     0
  9
$USERR1
 40
0.0
  9
$USERR2
 40
0.0
  9
$USERR3
 40
0.0
  9
$USERR4
 40
0.0
  9
$USERR5
 40
0.0
  9
$WORLDVIEW
 70
     1
  9
$SHADEDGE
 70
     3
  9
$SHADEDIF
 70
    70
  9
$TILEMODE
 70
     1
  9
$MAXACTVP
 70
    48
  9
$PLIMCHECK
 70
     0
  9
$PEXTMIN
 10
1.000000000000000E+20
 20
1.000000000000000E+20
 30
1.000000000000000E+20
  9
$PEXTMAX
 10
-1.000000000000000E+20
 20
-1.000000000000000E+20
 30
-1.000000000000000E+20
  9
$PLIMMIN
 10
0.0
 20
0.0
  9
$PLIMMAX
 10
420.0
 20
297.0
  9
$UNITMODE
 70
     0
  9
$VISRETAIN
 70
     1
  9
$PLINEGEN
 70
     0
  9
$PSLTSCALE
 70
     1
  0
ENDSEC
  0
SECTION
  2
TABLES
  0
TABLE
  2
VPORT
 70
     1
  0
VPORT
  2
*ACTIVE
 70
     0
 10
0.0
 20
0.0
 11
1.0
 21
1.0
 12
945.1141143971179
 22
-300.2083003911882
 13
0.0
 23
0.0
 14
10.0
 24
10.0
 15
10.0
 25
10.0
 16
0.0
 26
0.0
 36
1.0
 17
0.0
 27
0.0
 37
0.0
 40
257.8454026922533
 41
1.866585067319461
 42
50.0
 43
0.0
 44
0.0
 50
0.0
 51
0.0
 71
     0
 72
   100
 73
     1
 74
     1
 75
     0
 76
     0
 77
     0
 78
     0
  0
ENDTAB
  0
TABLE
  2
LTYPE
 70
    18
  0
LTYPE
  2
CONTINUOUS
 70
     0
  3
Solid line
 72
    65
 73
     0
 40
0.0
  0
LTYPE
  2
CENTER2
 70
     0
  3
Center (.5x) ___ _ ___ _ ___ _ ___ _ ___ _ ___
 72
    65
 73
     4
 40
28.575
 49
19.05
 49
-3.175
 49
3.175
 49
-3.175
  0
LTYPE
  2
HIDDEN
 70
     0
  3
Hidden __ __ __ __ __ __ __ __ __ __ __ __ __ _
 72
    65
 73
     2
 40
9.524999999999999
 49
6.35
 49
-3.175
  0
LTYPE
  2
PHANTOM2
 70
     0
  3
Phantom (0.5x) ___ _ _ ___ _ _ ___ _ _ ___ _ _
 72
    65
 73
     6
 40
31.75
 49
15.875
 49
-3.175
 49
3.175
 49
-3.175
 49
3.175
 49
-3.175
  0
ENDTAB
  0
TABLE
  2
LAYER
 70
    44
  0
LAYER
  2
0
 70
     0
 62
     7
  6
CONTINUOUS
  0
LAYER
  2
1CENTER
 70
     0
 62
     7
  6
CENTER2
  0
LAYER
  2
1TEXT
 70
     0
 62
     7
  6
CONTINUOUS
  0
LAYER
  2
1DIM
 70
     0
 62
     7
  6
CONTINUOUS
  0
LAYER
  2
1HIDDEN
 70
     0
 62
     7
  6
HIDDEN
  0
LAYER
  2
1PHANTOM
 70
     0
 62
     7
  6
PHANTOM2
  0
LAYER
  2
01
 70
     0
 62
     1
  6
CONTINUOUS
  0
LAYER
  2
1HATCH
 70
     0
 62
     7
  6
CONTINUOUS
  0
ENDTAB
  0
TABLE
  2
STYLE
 70
    24
  0
STYLE
  2
STANDARD
 70
     0
 40
0.0
 41
1.0
 50
0.0
 71
     0
 42
5.2
  3
txt.shx
  4
extfont.shx
  0
ENDTAB
  0
TABLE
  2
VIEW
 70
     0
  0
ENDTAB
  0
TABLE
  2
UCS
 70
     0
  0
ENDTAB
  0
TABLE
  2
APPID
 70
    13
  0
APPID
  2
ACAD
 70
     0
  0
APPID
  2
DRAWINGVARIABLESXDATA
 70
     0
  0
APPID
  2
CONTENTTABDATA
 70
     0
  0
APPID
  2
CONTENTCURRENTTAB
 70
     0
  0
APPID
  2
CONTENTBLOCKDESCRIPTION
 70
     0
  0
APPID
  2
CONTENTBLOCKICON
 70
     0
  0
APPID
  2
CONTENTLONGBLOCKNAME
 70
     0
  0
APPID
  2
ACAD_PSEXT
 70
     0
  0
APPID
  2
ACAD_DSTYLE_DIMTEXT_FILL
 70
     0
  0
APPID
  2
ACAD_MLEADERVER
 70
     0
  0
APPID
  2
ACAD_DSTYLE_DIMRADIAL_EXTE
 70
     0
  0
APPID
  2
ACADANNOTATIVE
 70
     0
  0
APPID
  2
ACAD_EXEMPT_FROM_CAD_STAND
 70
     0
  0
ENDTAB
  0
TABLE
  2
DIMSTYLE
 70
    10
  0
DIMSTYLE
  2
NEWX10
 70
     0
  3
 
  4

  5

  6
OPEN30
  7
OPEN30
 40
1.0
 41
2.0
 42
0.0
 43
7.0
 44
1.0
 45
0.0
 46
0.0
 47
0.0
 48
0.0
140
3.5
141
0.0
142
0.0
143
25.4
144
1.0
145
0.0
146
0.7
147
0.7
 71
     0
 72
     0
 73
     0
 74
     0
 75
     0
 76
     0
 77
     1
 78
     8
170
     0
171
     2
172
     1
173
     1
174
     0
175
     0
176
   256
177
   256
178
   201
  0
ENDTAB
  0
ENDSEC
  0
SECTION
  2
BLOCKS
  0
BLOCK
  8
0
  2
$MODEL_SPACE
 70
     0
 10
0.0
 20
0.0
 30
0.0
  3
$MODEL_SPACE
  1

  0
ENDBLK
  5
1A
  8
0
  0
BLOCK
 67
     1
  8
0
  2
$PAPER_SPACE
 70
     0
 10
0.0
 20
0.0
 30
0.0
  3
$PAPER_SPACE
  1

  0
ENDBLK
  5
17
 67
     1
  8
0
  0
BLOCK
  8
0
  2
_OPEN30
 70
     0
 10
0.0
 20
0.0
 30
0.0
  3
_OPEN30
  1

  0
LINE
  5
44
  8
0
  6
BYBLOCK
 62
     0
 10
-1.0
 20
0.26794919
 30
0.0
 11
0.0
 21
0.0
 31
0.0
  0
LINE
  5
45
  8
0
  6
BYBLOCK
 62
     0
 10
0.0
 20
0.0
 30
0.0
 11
-1.0
 21
-0.26794919
 31
0.0
  0
LINE
  5
46
  8
0
  6
BYBLOCK
 62
     0
 10
0.0
 20
0.0
 30
0.0
 11
-1.0
 21
0.0
 31
0.0
  0
ENDBLK
  5
47
  8
0
  0
ENDSEC
  0
SECTION
  2
ENTITIES
  0
TEXT
  5
1DB93
  8
1TEXT
 10
801.4428103785596
 20
-233.843772680426
 30
0.0
 40
4.0
  1
表面処理：Lアングル
 41
0.7
 72
     1
 11
817.7761437118929
 21
-233.843772680426
 31
0.0
  0
LINE
  5
1DB94
  8
1DIM
 10
765.3761437118928
 20
-228.343772680426
 30
0.0
 11
870.3761437118928
 21
-228.343772680426
 31
0.0
  0
LINE
  5
1DB95
  8
1DIM
 10
765.3761437118928
 20
-242.343772680426
 30
0.0
 11
870.3761437118928
 21
-242.343772680426
 31
0.0
  0
LINE
  5
1DB96
  8
1DIM
 10
765.3761437118928
 20
-235.343772680426
 30
0.0
 11
870.3761437118928
 21
-235.343772680426
 31
0.0
  0
LINE
  5
1DB97
  8
1DIM
 10
835.3761437118928
 20
-228.343772680426
 30
0.0
 11
835.3761437118922
 21
-249.343772680426
 31
0.0
  0
TEXT
  5
1DB98
  8
1TEXT
 10
845.9094770452263
 20
-233.843772680426
 30
0.0
 40
4.0
  1
コード
 72
     1
 11
852.7761437118929
 21
-233.843772680426
 31
0.0
  0
LINE
  5
1DB99
  8
1DIM
 10
800.3761437118928
 20
-249.343772680426
 30
0.0
 11
800.3761437118928
 21
-228.343772680426
 31
0.0
  0
LINE
  5
1DB9A
  8
1DIM
 10
870.3761437118925
 20
-249.343772680426
 30
0.0
 11
870.3761437118928
 21
-228.343772680426
 31
0.0
  0
TEXT
  5
1DB9B
  8
1TEXT
 10
764.6638099881693
 20
-223.343772680426
 30
0.0
 40
8.0
  1
KC-077-X
  0
TEXT
  5
1DB9C
  8
1TEXT
 10
813.4428103785596
 20
-240.6790613399503
 30
0.0
 40
4.0
  1
鏡面
 72
     1
 11
817.7761437118929
 21
-240.6790613399503
 31
0.0
  0
TEXT
  5
1DB9D
  8
1TEXT
 10
838.3261437118931
 20
-241.0581296640753
 30
0.0
 40
4.0
  1
KC-077-XC
 41
0.85
 72
     1
 11
852.7761437118932
 21
-241.0581296640753
 31
0.0
  0
LINE
  5
1DB9E
  8
1DIM
 10
765.3761437118928
 20
-249.343772680426
 30
0.0
 11
870.3761437118928
 21
-249.343772680426
 31
0.0
  0
TEXT
  5
1DB9F
  8
1TEXT
 10
806.2428103785596
 20
-247.6790613399503
 30
0.0
 40
4.0
  1
ヘアライン
 72
     1
 11
817.7761437118929
 21
-247.6790613399503
 31
0.0
  0
TEXT
  5
1DBA0
  8
1TEXT
 10
838.3261437118931
 20
-248.0581296640753
 30
0.0
 40
4.0
  1
KC-077-XN
 41
0.85
 72
     1
 11
852.7761437118932
 21
-248.0581296640753
 31
0.0
  0
TEXT
  5
1E03E
  8
1TEXT
 10
766.3094770452262
 20
-233.843772680426
 30
0.0
 40
4.0
  1
表面処理：本体
 72
     1
 11
782.7761437118929
 21
-233.843772680426
 31
0.0
  0
LINE
  5
1E03F
  8
1DIM
 10
765.3761437118928
 20
-249.343772680426
 30
0.0
 11
765.3761437118928
 21
-228.343772680426
 31
0.0
  0
TEXT
  5
1E040
  8
1TEXT
 10
773.3094770452262
 20
-240.6790613399503
 30
0.0
 40
4.0
  1
クローム
 72
     1
 11
782.7761437118929
 21
-240.6790613399503
 31
0.0
  0
TEXT
  5
1E041
  8
1TEXT
 10
766.2428103785596
 20
-247.6790613399503
 30
0.0
 40
4.0
  1
サテンニッケル
 72
     1
 11
782.7761437118929
 21
-247.6790613399503
 31
0.0
  0
LINE
  5
1E173
  8
01
 10
768.4136356489751
 20
-331.6140857461529
 30
0.0
 11
980.4136356489759
 21
-331.6140857461599
 31
0.0
  0
LINE
  5
1E174
  8
01
 10
791.4136356489752
 20
-325.6140857461531
 30
0.0
 11
957.4136356489754
 21
-325.6140857461594
 31
0.0
  0
ARC
  5
1E175
  8
01
 10
957.4136356489756
 20
-320.6140857461592
 30
0.0
 40
5.0
 50
270.0
 51
0.0
  0
ARC
  5
1E176
  8
01
 10
980.4136356489759
 20
-327.6140857461599
 30
0.0
 40
4.0
 50
270.0
 51
0.0
  0
LINE
  5
1E177
  8
01
 10
984.4136356489759
 20
-327.6140857461599
 30
0.0
 11
984.4136356489756
 21
-296.6140857461597
 31
0.0
  0
LINE
  5
1E178
  8
01
 10
962.4136356489756
 20
-320.6140857461592
 30
0.0
 11
962.4136356489756
 21
-296.6140857461594
 31
0.0
  0
LINE
  5
1E179
  8
01
 10
983.4136356489755
 20
-364.0642833965328
 30
0.0
 11
765.4136356489753
 21
-364.0642833965328
 31
0.0
  0
ARC
  5
1E17A
  8
01
 10
983.4136356489755
 20
-365.0642833965328
 30
0.0
 40
1.0
 50
0.0
 51
90.0
  0
LINE
  5
1E17B
  8
01
 10
983.4136356489757
 20
-383.0642833965328
 30
0.0
 11
765.4136356489751
 21
-383.0642833965328
 31
0.0
  0
ARC
  5
1E17C
  8
01
 10
983.4136356489757
 20
-382.0642833965328
 30
0.0
 40
1.0
 50
270.0
 51
0.0
  0
LINE
  5
1E17D
  8
01
 10
984.4136356489755
 20
-365.0642833965328
 30
0.0
 11
984.4136356489761
 21
-406.0642833965326
 31
0.0
  0
LINE
  5
1E17E
  8
01
 10
983.413635648976
 20
-407.0642833965326
 30
0.0
 11
963.4136356489757
 21
-407.0642833965319
 31
0.0
  0
ARC
  5
1E17F
  8
01
 10
983.4136356489761
 20
-406.0642833965326
 30
0.0
 40
1.0
 50
270.0
 51
0.0
  0
LINE
  5
1E180
  8
01
 10
962.4136356489755
 20
-383.0642833965326
 30
0.0
 11
962.4136356489757
 21
-406.0642833965319
 31
0.0
  0
ARC
  5
1E181
  8
01
 10
963.4136356489757
 20
-406.0642833965319
 30
0.0
 40
1.0
 50
180.0
 51
270.0
  0
ARC
  5
1E182
  8
01
 10
791.4136356489754
 20
-320.6140857461592
 30
0.0
 40
5.0
 50
180.0
 51
270.0
  0
ARC
  5
1E183
  8
01
 10
768.4136356489752
 20
-327.6140857461599
 30
0.0
 40
4.0
 50
180.0
 51
270.0
  0
LINE
  5
1E184
  8
01
 10
764.4136356489752
 20
-327.6140857461599
 30
0.0
 11
764.4136356489754
 21
-296.6140857461597
 31
0.0
  0
LINE
  5
1E185
  8
01
 10
786.4136356489754
 20
-320.6140857461592
 30
0.0
 11
786.4136356489754
 21
-296.6140857461594
 31
0.0
  0
LINE
  5
1E186
  8
01
 10
764.4136356489754
 20
-296.6140857461597
 30
0.0
 11
766.4136356489748
 21
-296.6140857461594
 31
0.0
  0
LINE
  5
1E187
  8
01
 10
784.4136356489748
 20
-296.6140857461594
 30
0.0
 11
786.4136356489754
 21
-296.6140857461594
 31
0.0
  0
LINE
  5
1E188
  8
01
 10
764.4136356489755
 20
-365.0642833965328
 30
0.0
 11
764.4136356489751
 21
-406.0642833965328
 31
0.0
  0
LINE
  5
1E189
  8
01
 10
765.4136356489751
 20
-407.0642833965328
 30
0.0
 11
785.4136356489753
 21
-407.0642833965326
 31
0.0
  0
ARC
  5
1E18A
  8
01
 10
765.4136356489751
 20
-406.0642833965328
 30
0.0
 40
1.0
 50
180.0
 51
270.0
  0
LINE
  5
1E18B
  8
01
 10
786.4136356489755
 20
-383.0642833965328
 30
0.0
 11
786.4136356489753
 21
-406.0642833965326
 31
0.0
  0
ARC
  5
1E18C
  8
01
 10
785.4136356489753
 20
-406.0642833965326
 30
0.0
 40
1.0
 50
270.0
 51
0.0
  0
ARC
  5
1E18D
  8
01
 10
765.4136356489753
 20
-365.0642833965328
 30
0.0
 40
1.0
 50
90.0
 51
180.0
  0
ARC
  5
1E18E
  8
01
 10
765.4136356489751
 20
-382.0642833965328
 30
0.0
 40
1.0
 50
180.0
 51
270.0
  0
LINE
  5
1E203
  8
01
 10
1071.03490418289
 20
-365.0642833965335
 30
0.0
 11
1071.034904182889
 21
-407.3642833965328
 31
0.0
  0
ARC
  5
1E205
  8
01
 10
1070.034904182891
 20
-365.364283396533
 30
0.0
 40
1.0
 50
0.0
 51
90.0
  0
LINE
  5
1E207
  8
01
 10
1071.834904182891
 20
-371.6142833965333
 30
0.0
 11
1071.834904182891
 21
-405.1142833965328
 31
0.0
  0
LINE
  5
1E208
  8
01
 10
1068.034904182891
 20
-386.364283396533
 30
0.0
 11
1068.03490418289
 21
-406.3642833965328
 31
0.0
  0
ARC
  5
1E209
  8
01
 10
1069.03490418289
 20
-406.3642833965328
 30
0.0
 40
1.0
 50
180.0
 51
270.0
  0
ARC
  5
1E20A
  8
01
 10
1037.03490418289
 20
-382.3642833965326
 30
0.0
 40
1.0
 50
180.0
 51
270.0
  0
LINE
  5
1E20B
  8
01
 10
1069.03490418289
 20
-407.3642833965328
 30
0.0
 11
1071.034904182889
 21
-407.3642833965328
 31
0.0
  0
LINE
  5
1E20D
  8
01
 10
1071.034904182889
 20
-405.1142833965328
 30
0.0
 11
1071.834904182891
 21
-405.1142833965328
 31
0.0
  0
LINE
  5
1E20E
  8
01
 10
1037.03490418289
 20
-364.3642833965328
 30
0.0
 11
1070.034904182891
 21
-364.364283396533
 31
0.0
  0
ARC
  5
1E210
  8
01
 10
1037.03490418289
 20
-365.3642833965328
 30
0.0
 40
1.0
 50
90.0
 51
180.0
  0
LINE
  5
1E211
  8
01
 10
1037.03490418289
 20
-383.3642833965326
 30
0.0
 11
1065.034904182891
 21
-383.3642833965332
 31
0.0
  0
ARC
  5
1E213
  8
01
 10
1065.034904182891
 20
-386.364283396533
 30
0.0
 40
3.0
 50
0.0
 51
90.0
  0
LINE
  5
1E218
  8
1PHANTOM
 10
1063.53490418289
 20
-378.3642833965326
 30
0.0
 11
1048.53490418289
 21
-378.3642833965333
 31
0.0
  0
LINE
  5
1E219
  8
1PHANTOM
 10
1048.53490418289
 20
-378.3642833965328
 30
0.0
 11
1048.53490418289
 21
-383.3642833965328
 31
0.0
  0
LINE
  5
1E21A
  8
1PHANTOM
 10
1063.53490418289
 20
-378.3642833965326
 30
0.0
 11
1063.53490418289
 21
-383.3642833965328
 31
0.0
  0
LINE
  5
1E229
  8
01
 10
1071.03490418289
 20
-371.6142833965333
 30
0.0
 11
1071.834904182891
 21
-371.6142833965333
 31
0.0
  0
LINE
  5
1E22A
  8
01
 10
984.4136356489756
 20
-296.6140857461597
 30
0.0
 11
982.4136356489759
 21
-296.6140857461597
 31
0.0
  0
LINE
  5
1E22B
  8
01
 10
964.4136356489759
 20
-296.6140857461592
 30
0.0
 11
962.4136356489756
 21
-296.6140857461592
 31
0.0
  0
LINE
  5
1E22F
  8
01
 10
982.4136356489757
 20
-325.1940857461594
 30
0.0
 11
982.413635648976
 21
-277.2440857461589
 31
0.0
  0
LINE
  5
1E230
  8
01
 10
964.4136356489755
 20
-325.1940857461594
 30
0.0
 11
964.4136356489761
 21
-277.2440857461589
 31
0.0
  0
ARC
  5
1E231
  8
01
 10
967.4136356489755
 20
-325.1940857461594
 30
0.0
 40
3.0
 50
180.0
 51
270.0
  0
LINE
  5
1E232
  8
01
 10
982.413635648976
 20
-277.2440857461592
 30
0.0
 11
964.413635648976
 21
-277.2440857461592
 31
0.0
  0
LINE
  5
1E233
  8
01
 10
979.4136356489757
 20
-328.1940857461594
 30
0.0
 11
967.4136356489755
 21
-328.1940857461594
 31
0.0
  0
ARC
  5
1E234
  8
01
 10
979.4136356489757
 20
-325.1940857461594
 30
0.0
 40
3.0
 50
270.0
 51
0.0
  0
LINE
  5
1E235
  8
01
 10
1036.03490418289
 20
-365.3642833965328
 30
0.0
 11
1036.03490418289
 21
-382.3642833965326
 31
0.0
  0
LINE
  5
1E237
  8
01
  6
BYBLOCK
 10
1039.455120464057
 20
-362.0642833965333
 30
0.0
 11
1088.334059836476
 21
-362.0642833965333
 31
0.0
  0
LINE
  5
1E238
  8
01
  6
BYBLOCK
 10
1039.455120464057
 20
-364.0642833965333
 30
0.0
 11
1088.334059836476
 21
-364.0642833965335
 31
0.0
  0
LINE
  5
1E239
  8
01
  6
BYBLOCK
 10
1090.332841490514
 20
-364.1340823899379
 30
0.0
 11
1088.834641946507
 21
-407.0369040004746
 31
0.0
  0
ARC
  5
1E23A
  8
01
  6
BYBLOCK
 10
1088.334059836476
 20
-364.064283396533
 30
0.0
 40
2.0
 50
357.9999999999962
 51
90.0
  0
LINE
  5
1E23B
  8
01
  6
BYBLOCK
 10
1088.334059836476
 20
-364.0642833965337
 30
0.0
 11
1086.835860292469
 21
-406.9671050070692
 31
0.0
  0
LINE
  5
1E23C
  8
01
  6
BYBLOCK
 10
1086.834904182891
 20
-406.9670716189869
 30
0.0
 11
1088.834641946507
 21
-407.0369040004746
 31
0.0
  0
LINE
  5
1E23D
  8
01
  6
BYBLOCK
 10
1039.455120464057
 20
-362.0642833965335
 30
0.0
 11
1039.455120464057
 21
-364.064283396533
 31
0.0
  0
LINE
  5
1E24C
  8
01
 10
766.4136356489748
 20
-325.1940857461594
 30
0.0
 11
766.4136356489746
 21
-277.2440857461589
 31
0.0
  0
LINE
  5
1E24D
  8
01
 10
784.4136356489751
 20
-325.1940857461594
 30
0.0
 11
784.4136356489745
 21
-277.2440857461589
 31
0.0
  0
ARC
  5
1E24E
  8
01
 10
781.4136356489751
 20
-325.1940857461594
 30
0.0
 40
3.0
 50
270.0
 51
0.0
  0
LINE
  5
1E24F
  8
01
 10
766.4136356489746
 20
-277.2440857461592
 30
0.0
 11
784.4136356489746
 21
-277.2440857461592
 31
0.0
  0
LINE
  5
1E250
  8
01
 10
769.4136356489748
 20
-328.1940857461594
 30
0.0
 11
781.4136356489751
 21
-328.1940857461594
 31
0.0
  0
ARC
  5
1E251
  8
01
 10
769.4136356489748
 20
-325.1940857461594
 30
0.0
 40
3.0
 50
180.0
 51
270.0
  0
LINE
  5
1E255
  8
01
 10
982.4136356489757
 20
-361.7642833965332
 30
0.0
 11
964.4136356489756
 21
-361.7642833965332
 31
0.0
  0
LINE
  5
1E256
  8
01
 10
982.4136356489757
 20
-364.0642833965328
 30
0.0
 11
982.4136356489757
 21
-361.7642833965332
 31
0.0
  0
LINE
  5
1E257
  8
01
 10
964.4136356489755
 20
-364.0642833965328
 30
0.0
 11
964.4136356489756
 21
-361.7642833965332
 31
0.0
  0
LINE
  5
1E258
  8
01
 10
766.4136356489751
 20
-361.7642833965332
 30
0.0
 11
784.4136356489752
 21
-361.7642833965332
 31
0.0
  0
LINE
  5
1E259
  8
01
 10
766.4136356489751
 20
-364.0642833965328
 30
0.0
 11
766.4136356489751
 21
-361.7642833965332
 31
0.0
  0
LINE
  5
1E25A
  8
01
 10
784.4136356489753
 20
-364.0642833965328
 30
0.0
 11
784.4136356489752
 21
-361.7642833965332
 31
0.0
  0
LINE
  5
1E2DA
  8
01
 10
1071.83490418289
 20
-364.0642833965335
 30
0.0
 11
1071.834904182891
 21
-420.2833653704238
 31
0.0
  0
LINE
  5
1E6AF
  8
01
 10
1086.834904182891
 20
-375.0642833965335
 30
0.0
 11
1086.834904182891
 21
-420.2833653704237
 31
0.0
  0
LINE
  5
1E70F
  8
1PHANTOM
 10
1045.455120464057
 20
-362.0642833965333
 30
0.0
 11
1094.334059836476
 21
-362.0642833965333
 31
0.0
  0
LINE
  5
1E710
  8
1PHANTOM
 10
1045.455120464057
 20
-364.0642833965333
 30
0.0
 11
1094.334059836476
 21
-364.0642833965335
 31
0.0
  0
LINE
  5
1E711
  8
1PHANTOM
 10
1096.332841490514
 20
-364.1340823899379
 30
0.0
 11
1094.834641946507
 21
-407.0369040004746
 31
0.0
  0
ARC
  5
1E712
  8
1PHANTOM
 10
1094.334059836476
 20
-364.064283396533
 30
0.0
 40
2.0
 50
357.9999999999962
 51
90.0
  0
LINE
  5
1E713
  8
1PHANTOM
 10
1094.334059836476
 20
-364.0642833965337
 30
0.0
 11
1092.835860292469
 21
-406.9671050070692
 31
0.0
  0
LINE
  5
1E714
  8
1PHANTOM
 10
1092.834904182891
 20
-406.9670716189869
 30
0.0
 11
1094.834641946507
 21
-407.0369040004746
 31
0.0
  0
LINE
  5
1E716
  8
1PHANTOM
 10
1092.83490418289
 20
-364.0642833965334
 30
0.0
 11
1092.834904182891
 21
-420.2833653704237
 31
0.0
  0
LINE
  5
1E79B
  8
1CENTER
 10
1058.834904182891
 20
-369.138403030099
 30
0.0
 11
1058.834904182891
 21
-384.0149740432441
 31
0.0
  0
LINE
  5
1E7D1
  8
01
 10
1071.834904182891
 20
-288.8048804129964
 30
0.0
 11
1071.834904182891
 21
-322.3048804129959
 31
0.0
  0
LINE
  5
1E7E3
  8
01
  6
BYBLOCK
 10
1038.408135562959
 20
-279.5548804129964
 30
0.0
 11
1087.287074935377
 21
-279.5548804129964
 31
0.0
  0
LINE
  5
1E7E4
  8
01
  6
BYBLOCK
 10
1038.408135562959
 20
-281.5548804129964
 30
0.0
 11
1087.287074935378
 21
-281.5548804129966
 31
0.0
  0
LINE
  5
1E7E5
  8
01
  6
BYBLOCK
 10
1089.285856589416
 20
-281.6246794064011
 30
0.0
 11
1088.834641946484
 21
-294.5457762063642
 31
0.0
  0
ARC
  5
1E7E6
  8
01
  6
BYBLOCK
 10
1087.287074935377
 20
-281.5548804129962
 30
0.0
 40
2.0
 50
357.9999999999964
 51
90.0
  0
LINE
  5
1E7E7
  8
01
  6
BYBLOCK
 10
1087.287074935378
 20
-281.5548804129969
 30
0.0
 11
1086.835860292446
 21
-294.4759772129588
 31
0.0
  0
LINE
  5
1E7E9
  8
01
  6
BYBLOCK
 10
1038.408135562959
 20
-279.5548804129966
 30
0.0
 11
1038.408135562959
 21
-281.5548804129962
 31
0.0
  0
LINE
  5
1E7EA
  8
01
 10
1071.83490418289
 20
-281.5548804129966
 30
0.0
 11
1071.834904182891
 21
-337.7739623868869
 31
0.0
  0
LINE
  5
1E7EB
  8
01
 10
1086.83490418289
 20
-281.5548804129966
 30
0.0
 11
1086.834904182891
 21
-337.7739623868869
 31
0.0
  0
LINE
  5
1E7EF
  8
1PHANTOM
 10
1044.408135562959
 20
-279.5548804129964
 30
0.0
 11
1093.287074935377
 21
-279.5548804129964
 31
0.0
  0
LINE
  5
1E7F0
  8
1PHANTOM
 10
1044.408135562959
 20
-281.5548804129964
 30
0.0
 11
1093.287074935378
 21
-281.5548804129966
 31
0.0
  0
LINE
  5
1E7F1
  8
1PHANTOM
 10
1095.285856589416
 20
-281.6246794064011
 30
0.0
 11
1094.834641946484
 21
-294.5457762063648
 31
0.0
  0
ARC
  5
1E7F2
  8
1PHANTOM
 10
1093.287074935377
 20
-281.5548804129962
 30
0.0
 40
2.0
 50
357.9999999999964
 51
90.0
  0
LINE
  5
1E7F3
  8
1PHANTOM
 10
1093.287074935378
 20
-281.5548804129969
 30
0.0
 11
1092.835860292446
 21
-294.4759772129593
 31
0.0
  0
LINE
  5
1E7F5
  8
1PHANTOM
 10
1044.408135562959
 20
-279.5548804129966
 30
0.0
 11
1044.408135562959
 21
-281.5548804129962
 31
0.0
  0
LINE
  5
1E7F6
  8
1PHANTOM
 10
1092.83490418289
 20
-281.5548804129966
 30
0.0
 11
1092.834904182891
 21
-337.7739623868869
 31
0.0
  0
LINE
  5
1E87F
  8
1PHANTOM
 10
1092.834904182874
 20
-294.4759438248774
 30
0.0
 11
1094.834641946491
 21
-294.5457762063651
 31
0.0
  0
LINE
  5
1E889
  8
01
  6
BYBLOCK
 10
1086.83490418289
 20
-294.4759438248774
 30
0.0
 11
1088.834641946507
 21
-294.5457762063651
 31
0.0
  0
LINE
  5
1E903
  8
01
  6
BYBLOCK
 10
1039.455120464057
 20
-197.0454774294595
 30
0.0
 11
1088.334059836476
 21
-197.0454774294595
 31
0.0
  0
LINE
  5
1E904
  8
01
  6
BYBLOCK
 10
1039.455120464057
 20
-199.0454774294595
 30
0.0
 11
1088.334059836476
 21
-199.0454774294598
 31
0.0
  0
LINE
  5
1E905
  8
01
  6
BYBLOCK
 10
1090.332841490514
 20
-199.1152764228642
 30
0.0
 11
1088.834641946507
 21
-242.0180980334009
 31
0.0
  0
ARC
  5
1E906
  8
01
  6
BYBLOCK
 10
1088.334059836476
 20
-199.0454774294593
 30
0.0
 40
2.0
 50
357.9999999999964
 51
90.0
  0
LINE
  5
1E907
  8
01
  6
BYBLOCK
 10
1088.334059836476
 20
-199.04547742946
 30
0.0
 11
1086.835860292469
 21
-241.9482990399955
 31
0.0
  0
LINE
  5
1E908
  8
01
  6
BYBLOCK
 10
1086.834904182891
 20
-241.9482656519132
 30
0.0
 11
1088.834641946507
 21
-242.0180980334009
 31
0.0
  0
LINE
  5
1E909
  8
01
  6
BYBLOCK
 10
1039.455120464057
 20
-197.0454774294598
 30
0.0
 11
1039.455120464057
 21
-199.0454774294593
 31
0.0
  0
LINE
  5
1E90A
  8
01
 10
1071.83490418289
 20
-219.0454774294597
 30
0.0
 11
1071.834904182891
 21
-255.2645594033501
 31
0.0
  0
LINE
  5
1E90B
  8
01
 10
1086.83490418289
 20
-199.0454774294597
 30
0.0
 11
1086.834904182891
 21
-255.5356425265295
 31
0.0
  0
LINE
  5
1E90F
  8
1PHANTOM
 10
1045.455120464057
 20
-197.0454774294595
 30
0.0
 11
1094.334059836476
 21
-197.0454774294595
 31
0.0
  0
LINE
  5
1E910
  8
1PHANTOM
 10
1045.455120464057
 20
-199.0454774294595
 30
0.0
 11
1094.334059836476
 21
-199.0454774294598
 31
0.0
  0
LINE
  5
1E911
  8
1PHANTOM
 10
1096.332841490514
 20
-199.1152764228642
 30
0.0
 11
1094.834641946507
 21
-242.0180980334009
 31
0.0
  0
ARC
  5
1E912
  8
1PHANTOM
 10
1094.334059836476
 20
-199.0454774294593
 30
0.0
 40
2.0
 50
357.9999999999964
 51
90.0
  0
LINE
  5
1E913
  8
1PHANTOM
 10
1094.334059836476
 20
-199.04547742946
 30
0.0
 11
1092.835860292469
 21
-241.9482990399955
 31
0.0
  0
LINE
  5
1E914
  8
1PHANTOM
 10
1092.834904182891
 20
-241.9482656519132
 30
0.0
 11
1094.834641946507
 21
-242.0180980334009
 31
0.0
  0
LINE
  5
1E915
  8
1PHANTOM
 10
1045.455120464057
 20
-197.0454774294598
 30
0.0
 11
1045.455120464057
 21
-199.0454774294593
 31
0.0
  0
LINE
  5
1E916
  8
1PHANTOM
 10
1092.83490418289
 20
-199.0454774294597
 30
0.0
 11
1092.834904182891
 21
-255.5356425265295
 31
0.0
  0
LINE
  5
1E99F
  8
01
 10
1082.83490418289
 20
-199.0454774294597
 30
0.0
 11
1082.834904182891
 21
-229.0454774294597
 31
0.0
  0
LINE
  5
1E9A0
  8
01
 10
1074.83490418289
 20
-221.0454774294597
 30
0.0
 11
1074.83490418289
 21
-229.0454774294597
 31
0.0
  0
ARC
  5
1E9A4
  8
01
 10
1078.834904182891
 20
-229.0454774294597
 30
0.0
 40
4.000000000000227
 50
180.0000000000004
 51
0.0000000000004071
  0
LINE
  5
1E9A5
  8
01
 10
1072.83490418289
 20
-219.0454774294597
 30
0.0
 11
1071.83490418289
 21
-219.0454774294597
 31
0.0
  0
ARC
  5
1E9A6
  8
01
 10
1072.83490418289
 20
-221.0454774294597
 30
0.0
 40
2.0
 50
0.0
 51
90.0
  0
LINE
  5
1EA1F
  8
01
 10
1070.927932737863
 20
-199.5954774294553
 30
0.0
 11
1082.334904182891
 21
-199.5954774294605
 31
0.0
  0
ARC
  5
1EA20
  8
01
 10
1082.33490418289
 20
-200.0954774294595
 30
0.0
 40
0.5
 50
0.0
 51
90.0
  0
LINE
  5
1EA21
  8
01
 10
1082.83490418289
 20
-200.0954774294595
 30
0.0
 11
1082.83490418289
 21
-204.3454774294598
 31
0.0
  0
LINE
  5
1EA2A
  8
01
 10
1071.03490418289
 20
-204.3454774294596
 30
0.0
 11
1082.83490418289
 21
-204.3454774294598
 31
0.0
  0
LINE
  5
1EA2B
  8
01
 10
1071.03490418289
 20
-204.8454774294596
 30
0.0
 11
1074.134904182891
 21
-204.8454774294595
 31
0.0
  0
LINE
  5
1EA2E
  8
01
  6
BYBLOCK
 10
1074.63490418289
 20
-204.3454774294598
 30
0.0
 11
1074.134904182891
 21
-204.8454774294595
 31
0.0
  0
LINE
  5
1F0C2
  8
01
 10
1075.83490418289
 20
-364.0642833965335
 30
0.0
 11
1086.834904182891
 21
-375.0642833965335
 31
0.0
  0
LINE
  5
1F18C
  8
1HIDDEN
 10
1101.83490418289
 20
-266.7222638565874
 30
0.0
 11
1101.83490418289
 21
-281.5548804129961
 31
0.0
  0
LINE
  5
1F18D
  8
1HIDDEN
 10
1102.83490418289
 20
-266.7222638565874
 30
0.0
 11
1102.834904182891
 21
-281.5548804129961
 31
0.0
  0
ARC
  5
1F190
  8
1HIDDEN
 10
1086.83490418289
 20
-281.5548804129962
 30
0.0
 40
15.0
 50
270.0
 51
0.000000000000229
  0
ARC
  5
1F191
  8
1HIDDEN
 10
1086.83490418289
 20
-281.5548804129962
 30
0.0
 40
16.0
 50
282.1531974690082
 51
0.000000000000229
  0
LINE
  5
1F192
  8
1HIDDEN
 10
1087.83490418289
 20
-300.1290560340029
 30
0.0
 11
1087.83490418289
 21
-306.5548804129962
 31
0.0
  0
LINE
  5
1F194
  8
1HIDDEN
 10
1086.83490418289
 20
-306.5548804129962
 30
0.0
 11
1087.83490418289
 21
-306.5548804129962
 31
0.0
  0
ARC
  5
1F195
  8
1HIDDEN
 10
1090.83490418289
 20
-300.1290560340029
 30
0.0
 40
3.0
 50
102.1531974690061
 51
180.0
  0
ARC
  5
1F19F
  8
1HIDDEN
 10
1086.83490418289
 20
-266.7222638565873
 30
0.0
 40
15.0
 50
0.0
 51
36.37387249073718
  0
ARC
  5
1F1A0
  8
1HIDDEN
 10
1086.83490418289
 20
-266.7222638565873
 30
0.0
 40
16.0
 50
0.0
 51
33.77865819867421
  0
LINE
  5
2028F
  8
1PHANTOM
 10
1056.834904182891
 20
-378.3642833965331
 30
0.0
 11
1056.834904182891
 21
-379.1642833965329
 31
0.0
  0
LINE
  5
20291
  8
1PHANTOM
 10
1056.834904182891
 20
-379.1642833965329
 30
0.0
 11
1048.83490418289
 21
-379.1642833965333
 31
0.0
  0
LINE
  5
20292
  8
1PHANTOM
 10
1049.334904182891
 20
-380.1642833965331
 30
0.0
 11
1049.334904182891
 21
-379.1642833965333
 31
0.0
  0
LINE
  5
20293
  8
1PHANTOM
 10
1056.334904182891
 20
-380.1642833965331
 30
0.0
 11
1056.334904182891
 21
-379.1642833965329
 31
0.0
  0
LINE
  5
20294
  8
1PHANTOM
 10
1052.834904182891
 20
-380.1642833965331
 30
0.0
 11
1053.41225445208
 21
-379.1642833965331
 31
0.0
  0
ARC
  5
20308
  8
01
 10
1047.084904182891
 20
-364.3642833965333
 30
0.0
 40
0.3
 50
90.0
 51
179.9999999999023
  0
ARC
  5
20309
  8
01
 10
1070.034904182891
 20
-365.0642833965334
 30
0.0
 40
1.0
 50
359.9999999999968
 51
90.0
  0
LINE
  5
203B0
  8
1PHANTOM
 10
1045.455120464057
 20
-362.0642833965337
 30
0.0
 11
1045.455120464057
 21
-364.0642833965333
 31
0.0
  0
ARC
  5
203B1
  8
01
 10
1070.034904182891
 20
-282.8548804129962
 30
0.0
 40
1.0
 50
0.0
 51
90.0
  0
LINE
  5
203B2
  8
01
 10
1071.834904182891
 20
-289.1048804129964
 30
0.0
 11
1071.834904182891
 21
-322.604880412996
 31
0.0
  0
LINE
  5
203B3
  8
01
 10
1068.034904182891
 20
-303.8548804129962
 30
0.0
 11
1068.03490418289
 21
-323.854880412996
 31
0.0
  0
ARC
  5
203B4
  8
01
 10
1069.03490418289
 20
-323.854880412996
 30
0.0
 40
1.0
 50
180.0
 51
270.0
  0
ARC
  5
203B5
  8
01
 10
1037.03490418289
 20
-299.8548804129957
 30
0.0
 40
1.0
 50
180.0
 51
270.0
  0
LINE
  5
203B6
  8
01
 10
1069.03490418289
 20
-324.854880412996
 30
0.0
 11
1071.034904182889
 21
-324.854880412996
 31
0.0
  0
LINE
  5
203B7
  8
01
 10
1071.034904182889
 20
-322.6048804129959
 30
0.0
 11
1071.834904182891
 21
-322.604880412996
 31
0.0
  0
LINE
  5
203B8
  8
01
 10
1037.03490418289
 20
-281.854880412996
 30
0.0
 11
1070.034904182891
 21
-281.8548804129962
 31
0.0
  0
ARC
  5
203B9
  8
01
 10
1037.03490418289
 20
-282.854880412996
 30
0.0
 40
1.0
 50
90.0
 51
180.0
  0
LINE
  5
203BA
  8
01
 10
1037.03490418289
 20
-300.8548804129957
 30
0.0
 11
1065.034904182891
 21
-300.8548804129963
 31
0.0
  0
ARC
  5
203BB
  8
01
 10
1065.034904182891
 20
-303.8548804129962
 30
0.0
 40
3.0
 50
0.0
 51
90.0
  0
LINE
  5
203BC
  8
1PHANTOM
 10
1063.53490418289
 20
-295.8548804129957
 30
0.0
 11
1048.53490418289
 21
-295.8548804129964
 31
0.0
  0
LINE
  5
203BD
  8
1PHANTOM
 10
1056.834904182891
 20
-296.6548804129961
 30
0.0
 11
1048.83490418289
 21
-296.6548804129964
 31
0.0
  0
LINE
  5
203BE
  8
1PHANTOM
 10
1048.53490418289
 20
-295.854880412996
 30
0.0
 11
1048.53490418289
 21
-300.854880412996
 31
0.0
  0
LINE
  5
203BF
  8
1PHANTOM
 10
1063.53490418289
 20
-295.8548804129957
 30
0.0
 11
1063.53490418289
 21
-300.854880412996
 31
0.0
  0
LINE
  5
203C0
  8
01
 10
1071.03490418289
 20
-289.1048804129964
 30
0.0
 11
1071.834904182891
 21
-289.1048804129964
 31
0.0
  0
LINE
  5
203C1
  8
01
 10
1036.03490418289
 20
-282.854880412996
 30
0.0
 11
1036.03490418289
 21
-299.8548804129957
 31
0.0
  0
LINE
  5
203C5
  8
1CENTER
 10
1058.834904182891
 20
-286.6290000465621
 30
0.0
 11
1058.834904182891
 21
-301.5055710597073
 31
0.0
  0
LINE
  5
203CA
  8
1PHANTOM
 10
1056.834904182891
 20
-295.8548804129962
 30
0.0
 11
1056.834904182891
 21
-296.6548804129961
 31
0.0
  0
LINE
  5
203CB
  8
1PHANTOM
 10
1049.334904182891
 20
-297.6548804129962
 30
0.0
 11
1049.334904182891
 21
-296.6548804129964
 31
0.0
  0
LINE
  5
203CC
  8
1PHANTOM
 10
1056.334904182891
 20
-297.6548804129962
 30
0.0
 11
1056.334904182891
 21
-296.6548804129961
 31
0.0
  0
LINE
  5
203CD
  8
1PHANTOM
 10
1052.834904182891
 20
-297.6548804129962
 30
0.0
 11
1053.41225445208
 21
-296.6548804129962
 31
0.0
  0
ARC
  5
203CE
  8
01
 10
1047.084904182891
 20
-281.8548804129965
 30
0.0
 40
0.3
 50
90.0
 51
179.9999999999023
  0
ARC
  5
203CF
  8
01
 10
1070.034904182891
 20
-282.5548804129966
 30
0.0
 40
1.0
 50
359.9999999999968
 51
90.0
  0
LINE
  5
20471
  8
01
 10
1071.034904182889
 20
-324.854880412996
 30
0.0
 11
1071.034904182891
 21
-282.8548804129962
 31
0.0
  0
LINE
  5
20476
  8
01
 10
1071.03490418289
 20
-200.0454774294597
 30
0.0
 11
1071.034904182889
 21
-242.3454774294591
 31
0.0
  0
ARC
  5
20477
  8
01
 10
1070.034904182891
 20
-200.3454774294593
 30
0.0
 40
1.0
 50
0.0
 51
90.0
  0
LINE
  5
20478
  8
01
 10
1071.834904182891
 20
-206.5954774294595
 30
0.0
 11
1071.834904182891
 21
-240.0954774294591
 31
0.0
  0
LINE
  5
20479
  8
01
 10
1068.034904182891
 20
-221.3454774294593
 30
0.0
 11
1068.03490418289
 21
-241.3454774294591
 31
0.0
  0
ARC
  5
2047A
  8
01
 10
1069.03490418289
 20
-241.3454774294591
 30
0.0
 40
1.0
 50
180.0
 51
270.0
  0
ARC
  5
2047B
  8
01
 10
1037.03490418289
 20
-217.3454774294588
 30
0.0
 40
1.0
 50
180.0
 51
270.0
  0
LINE
  5
2047C
  8
01
 10
1069.03490418289
 20
-242.3454774294591
 30
0.0
 11
1071.034904182889
 21
-242.3454774294591
 31
0.0
  0
LINE
  5
2047D
  8
01
 10
1071.034904182889
 20
-240.095477429459
 30
0.0
 11
1071.834904182891
 21
-240.0954774294591
 31
0.0
  0
LINE
  5
2047E
  8
01
 10
1037.03490418289
 20
-199.3454774294591
 30
0.0
 11
1070.034904182891
 21
-199.3454774294593
 31
0.0
  0
ARC
  5
2047F
  8
01
 10
1037.03490418289
 20
-200.3454774294591
 30
0.0
 40
1.0
 50
90.0
 51
180.0
  0
LINE
  5
20480
  8
01
 10
1037.03490418289
 20
-218.3454774294588
 30
0.0
 11
1065.034904182891
 21
-218.3454774294594
 31
0.0
  0
ARC
  5
20481
  8
01
 10
1065.034904182891
 20
-221.3454774294593
 30
0.0
 40
3.0
 50
0.0
 51
90.0
  0
LINE
  5
20482
  8
1PHANTOM
 10
1063.53490418289
 20
-213.3454774294588
 30
0.0
 11
1048.53490418289
 21
-213.3454774294595
 31
0.0
  0
LINE
  5
20483
  8
1PHANTOM
 10
1056.834904182891
 20
-214.1454774294592
 30
0.0
 11
1048.83490418289
 21
-214.1454774294595
 31
0.0
  0
LINE
  5
20484
  8
1PHANTOM
 10
1048.53490418289
 20
-213.3454774294591
 30
0.0
 11
1048.53490418289
 21
-218.3454774294591
 31
0.0
  0
LINE
  5
20485
  8
1PHANTOM
 10
1063.53490418289
 20
-213.3454774294588
 30
0.0
 11
1063.53490418289
 21
-218.3454774294591
 31
0.0
  0
LINE
  5
20486
  8
01
 10
1071.03490418289
 20
-206.5954774294595
 30
0.0
 11
1071.834904182891
 21
-206.5954774294595
 31
0.0
  0
LINE
  5
20487
  8
01
 10
1036.03490418289
 20
-200.3454774294591
 30
0.0
 11
1036.03490418289
 21
-217.3454774294588
 31
0.0
  0
LINE
  5
2048B
  8
1CENTER
 10
1058.834904182891
 20
-204.1195970630252
 30
0.0
 11
1058.834904182891
 21
-218.9961680761704
 31
0.0
  0
LINE
  5
20490
  8
1PHANTOM
 10
1056.834904182891
 20
-213.3454774294594
 30
0.0
 11
1056.834904182891
 21
-214.1454774294592
 31
0.0
  0
LINE
  5
20491
  8
1PHANTOM
 10
1049.334904182891
 20
-215.1454774294594
 30
0.0
 11
1049.334904182891
 21
-214.1454774294595
 31
0.0
  0
LINE
  5
20492
  8
1PHANTOM
 10
1056.334904182891
 20
-215.1454774294594
 30
0.0
 11
1056.334904182891
 21
-214.1454774294592
 31
0.0
  0
LINE
  5
20493
  8
1PHANTOM
 10
1052.834904182891
 20
-215.1454774294594
 30
0.0
 11
1053.41225445208
 21
-214.1454774294594
 31
0.0
  0
ARC
  5
20494
  8
01
 10
1047.084904182891
 20
-199.3454774294596
 30
0.0
 40
0.3
 50
90.0
 51
179.9999999999023
  0
ARC
  5
20495
  8
01
 10
1070.034904182891
 20
-200.0454774294597
 30
0.0
 40
1.0
 50
359.9999999999968
 51
90.0
  0
LINE
  5
20533
  8
01
  6
BYBLOCK
 10
1087.834364422967
 20
-199.0280276811087
 30
0.0
 11
1086.834904182891
 21
-227.6488242621364
 31
0.0
  0
LINE
  5
20535
  8
01
  6
BYBLOCK
 10
1087.834364422964
 20
-364.0468336481825
 30
0.0
 11
1086.834904182888
 21
-392.6676302292101
 31
0.0
  0
LINE
  5
206AC
  8
01
 10
766.4136356489751
 20
-363.7642833965328
 30
0.0
 11
784.4136356489753
 21
-363.7642833965328
 31
0.0
  0
LINE
  5
206AD
  8
01
 10
964.4136356489755
 20
-363.7642833965328
 30
0.0
 11
982.4136356489757
 21
-363.7642833965328
 31
0.0
  0
LINE
  5
2073B
  8
1PHANTOM
 10
1048.83490418289
 20
-379.1642833965333
 30
0.0
 11
1048.83490418289
 21
-378.3642833965333
 31
0.0
  0
LINE
  5
20830
  8
1DIM
 10
984.4136356489755
 20
-365.0642833965328
 30
0.0
 11
984.4136356489755
 21
-357.830515793908
 31
0.0
  0
LINE
  5
20831
  8
1DIM
 10
764.4136356489753
 20
-365.0642833965328
 30
0.0
 11
764.4136356489753
 21
-357.830515793908
 31
0.0
  0
LINE
  5
20832
  8
1DIM
 10
982.4136356489755
 20
-358.830515793908
 30
0.0
 11
766.4136356489753
 21
-358.830515793908
 31
0.0
  0
LINE
  5
20836
  8
1DIM
 10
983.413635648976
 20
-407.0642833965326
 30
0.0
 11
994.3998890381732
 21
-407.0642833965326
 31
0.0
1001
ACAD
1000
DSTYLE
1002
{
1070
    45
1040
0.5
1002
}
  0
LINE
  5
20837
  8
1DIM
 10
982.4136356489757
 20
-361.7642833965332
 30
0.0
 11
994.3998890381732
 21
-361.7642833965332
 31
0.0
1001
ACAD
1000
DSTYLE
1002
{
1070
    45
1040
0.5
1002
}
  0
LINE
  5
20838
  8
1DIM
 10
993.3998890381732
 20
-405.0642833965326
 30
0.0
 11
993.3998890381732
 21
-363.7642833965332
 31
0.0
1001
ACAD
1000
DSTYLE
1002
{
1070
    45
1040
0.5
1002
}
  0
LINE
  5
2083C
  8
1DIM
 10
962.4136356489756
 20
-296.3140857461592
 30
0.0
 11
962.4136356489756
 21
-263.9277224645257
 31
0.0
  0
LINE
  5
2083D
  8
1DIM
 10
984.4136356489756
 20
-296.3140857461592
 30
0.0
 11
984.4136356489756
 21
-263.9277224645257
 31
0.0
  0
LINE
  5
2083E
  8
1DIM
 10
964.4136356489756
 20
-264.9277224645257
 30
0.0
 11
982.4136356489756
 21
-264.9277224645257
 31
0.0
  0
SOLID
  5
20842
  8
1DIM
 10
964.1941671242338
 20
-282.3859860947355
 30
0.0
 11
965.0615362484752
 21
-284.2186840822457
 31
0.0
 12
963.6466634052706
 22
-282.7663597559765
 32
0.0
 13
963.6466634052706
 23
-282.7663597559765
 33
0.0
  0
LINE
  5
20843
  8
1DIM
 10
963.9204152647523
 20
-282.576172925356
 30
0.0
 11
955.2902829929737
 21
-270.1540995921834
 31
0.0
  0
LINE
  5
20844
  8
1DIM
 10
955.2902829929737
 20
-270.1540995921834
 30
0.0
 11
915.6069496596403
 21
-270.1540995921834
 31
0.0
  0
TEXT
  5
20845
  8
1DIM
  6
CONTINUOUS
 10
920.0402829929737
 20
-263.6207662588501
 30
0.0
 40
3.5
  1
材質：ステンレス
  0
TEXT
  5
20846
  8
1DIM
  6
CONTINUOUS
 10
915.4902829929737
 20
-269.4540995921834
 30
0.0
 40
3.5
  1
仕上げ：各種仕上げ
  0
SOLID
  5
20847
  8
1DIM
 10
785.0276013829313
 20
-293.4203328700174
 30
0.0
 11
784.2042759438018
 21
-295.2732350078523
 31
0.0
 12
784.3821560712481
 22
-293.2534652755881
 32
0.0
 13
784.3821560712481
 23
-293.2534652755881
 33
0.0
  0
LINE
  5
20848
  8
1DIM
 10
784.7048787270896
 20
-293.3368990728027
 30
0.0
 11
787.8404064385511
 21
-281.2086505177901
 31
0.0
  0
LINE
  5
20849
  8
1DIM
 10
787.8404064385511
 20
-281.2086505177901
 30
0.0
 11
827.5237397718845
 21
-281.2086505177901
 31
0.0
  0
TEXT
  5
2084A
  8
1DIM
  6
CONTINUOUS
 10
790.3070731052178
 20
-274.6753171844568
 30
0.0
 40
3.5
  1
材質：ステンレス
  0
TEXT
  5
2084B
  8
1DIM
  6
CONTINUOUS
 10
790.4237397718845
 20
-280.5086505177901
 30
0.0
 40
3.5
  1
仕上げ：各種仕上げ
  0
LINE
  5
2084C
  8
1DIM
 10
1039.455120464057
 20
-364.0642833965333
 30
0.0
 11
1024.7248295351
 21
-364.0642833965333
 31
0.0
  0
LINE
  5
2084D
  8
1DIM
 10
1039.455120464057
 20
-362.0642833965333
 30
0.0
 11
1024.7248295351
 21
-362.0642833965333
 31
0.0
  0
LINE
  5
2084E
  8
1DIM
 10
1025.7248295351
 20
-366.0642833965333
 30
0.0
 11
1025.7248295351
 21
-368.0642833965333
 31
0.0
  0
LINE
  5
2084F
  8
1DIM
 10
1025.7248295351
 20
-360.0642833965333
 30
0.0
 11
1025.7248295351
 21
-354.3309500631999
 31
0.0
  0
LINE
  5
20850
  8
1DIM
 10
1025.7248295351
 20
-364.0642833965333
 30
0.0
 11
1025.7248295351
 21
-362.0642833965333
 31
0.0
  0
LINE
  5
20854
  8
1DIM
 10
1037.33490418289
 20
-383.3642833965326
 30
0.0
 11
1024.7248295351
 21
-383.3642833965326
 31
0.0
1001
ACAD
1000
DSTYLE
1002
{
1070
    45
1040
0.5
1002
}
  0
LINE
  5
20855
  8
1DIM
 10
1039.455120464057
 20
-364.0642833965333
 30
0.0
 11
1024.7248295351
 21
-364.0642833965333
 31
0.0
1001
ACAD
1000
DSTYLE
1002
{
1070
    45
1040
0.5
1002
}
  0
LINE
  5
20856
  8
1DIM
 10
1025.7248295351
 20
-381.3642833965326
 30
0.0
 11
1025.7248295351
 21
-366.0642833965333
 31
0.0
1001
ACAD
1000
DSTYLE
1002
{
1070
    45
1040
0.5
1002
}
  0
LINE
  5
2085A
  8
1DIM
 10
957.4136356489754
 20
-325.6140857461594
 30
0.0
 11
994.3998890381732
 21
-325.6140857461594
 31
0.0
  0
LINE
  5
2085B
  8
1DIM
 10
980.4136356489759
 20
-331.6140857461599
 30
0.0
 11
994.3998890381732
 21
-331.6140857461599
 31
0.0
  0
LINE
  5
2085C
  8
1DIM
 10
993.3998890381732
 20
-327.6140857461594
 30
0.0
 11
993.3998890381732
 21
-329.6140857461599
 31
0.0
  0
LINE
  5
20860
  8
1DIM
 10
1071.834904182891
 20
-404.8142833965328
 30
0.0
 11
1071.834904182891
 21
-420.2833653704238
 31
0.0
1001
ACAD
1000
DSTYLE
1002
{
1070
    45
1040
0.5
1002
}
  0
LINE
  5
20861
  8
1DIM
 10
1036.03490418289
 20
-382.3642833965326
 30
0.0
 11
1036.03490418289
 21
-420.2833653704238
 31
0.0
1001
ACAD
1000
DSTYLE
1002
{
1070
    45
1040
0.5
1002
}
  0
LINE
  5
20862
  8
1DIM
 10
1069.834904182891
 20
-419.2833653704238
 30
0.0
 11
1038.03490418289
 21
-419.2833653704238
 31
0.0
1001
ACAD
1000
DSTYLE
1002
{
1070
    45
1040
0.5
1002
}
  0
LINE
  5
20866
  8
1DIM
 10
1086.834904182891
 20
-406.9670716189868
 30
0.0
 11
1118.496644046724
 21
-408.0727239384793
 31
0.0
1001
ACAD
1000
DSTYLE
1002
{
1070
    45
1040
0.5
1002
}
  0
LINE
  5
20867
  8
1DIM
 10
1088.334059836476
 20
-364.0642833965335
 30
0.0
 11
1119.994843590731
 21
-365.1699023279438
 31
0.0
1001
ACAD
1000
DSTYLE
1002
{
1070
    45
1040
0.5
1002
}
  0
LINE
  5
20868
  8
1DIM
 10
1117.56705221311
 20
-406.0390427877385
 30
0.0
 11
1118.925653770307
 21
-367.1337844852795
 31
0.0
1001
ACAD
1000
DSTYLE
1002
{
1070
    45
1040
0.5
1002
}
  0
LINE
  5
2086C
  8
1DIM
 10
1086.834904182891
 20
-419.2833653704238
 30
0.0
 11
1086.834904182891
 21
-418.2833653704238
 31
0.0
  0
LINE
  5
2086D
  8
1DIM
 10
1071.834904182891
 20
-419.2833653704238
 30
0.0
 11
1071.834904182891
 21
-418.2833653704238
 31
0.0
  0
LINE
  5
2086E
  8
1DIM
 10
1073.834904182891
 20
-419.2833653704238
 30
0.0
 11
1084.834904182891
 21
-419.2833653704238
 31
0.0
  0
LINE
  5
2086F
  8
1DIM
 10
1086.834904182891
 20
-419.2833653704238
 30
0.0
 11
1125.814593145261
 21
-419.2833653704238
 31
0.0
  0
LINE
  5
20873
  8
1DIM
 10
1071.834904182891
 20
-405.1142833965328
 30
0.0
 11
1071.834904182891
 21
-413.4633815453747
 31
0.0
  0
LINE
  5
20874
  8
1DIM
 10
1052.834904182891
 20
-384.0149740432441
 30
0.0
 11
1052.834904182891
 21
-413.4633815453747
 31
0.0
  0
LINE
  5
20875
  8
1DIM
 10
1069.834904182891
 20
-412.4633815453747
 30
0.0
 11
1054.834904182891
 21
-412.4633815453747
 31
0.0
  0
LINE
  5
20879
  8
1DIM
 10
1086.835860292446
 20
-294.4759772129588
 30
0.0
 11
1122.420136247932
 21
-295.7186075111309
 31
0.0
1001
ACAD
1000
DSTYLE
1002
{
1070
    45
1040
0.5
1002
}
  0
LINE
  5
2087A
  8
1DIM
 10
1087.287074935378
 20
-281.5548804129967
 30
0.0
 11
1122.871350890864
 21
-282.7975107111688
 31
0.0
1001
ACAD
1000
DSTYLE
1002
{
1070
    45
1040
0.5
1002
}
  0
LINE
  5
2087B
  8
1DIM
 10
1121.490544414318
 20
-293.6849263603902
 30
0.0
 11
1121.80216107044
 21
-284.7613928685045
 31
0.0
1001
ACAD
1000
DSTYLE
1002
{
1070
    45
1040
0.5
1002
}
  0
LINE
  5
2087F
  8
1DIM
 10
1086.834904182891
 20
-241.9482656519131
 30
0.0
 11
1114.67198480335
 21
-242.9203579275833
 31
0.0
1001
ACAD
1000
DSTYLE
1002
{
1070
    45
1040
0.5
1002
}
  0
LINE
  5
20880
  8
1DIM
 10
1088.334059836476
 20
-199.0454774294599
 30
0.0
 11
1116.170184347357
 21
-200.0175363170478
 31
0.0
1001
ACAD
1000
DSTYLE
1002
{
1070
    45
1040
0.5
1002
}
  0
LINE
  5
20881
  8
1DIM
 10
1113.742392969736
 20
-240.8866767768426
 30
0.0
 11
1115.100994526933
 21
-201.9814184743834
 31
0.0
1001
ACAD
1000
DSTYLE
1002
{
1070
    45
1040
0.5
1002
}
  0
LINE
  5
20885
  8
1DIM
 10
1036.03490418289
 20
-365.3642833965328
 30
0.0
 11
1036.03490418289
 21
-358.0690906512223
 31
0.0
1001
ACAD
1000
DSTYLE
1002
{
1070
    45
1040
0.5
1002
}
  0
LINE
  5
20886
  8
1DIM
 10
1090.334059836476
 20
-364.064283396533
 30
0.0
 11
1090.334059836476
 21
-358.0690906512223
 31
0.0
1001
ACAD
1000
DSTYLE
1002
{
1070
    45
1040
0.5
1002
}
  0
LINE
  5
20887
  8
1DIM
 10
1038.03490418289
 20
-359.0690906512223
 30
0.0
 11
1088.334059836476
 21
-359.0690906512223
 31
0.0
1001
ACAD
1000
DSTYLE
1002
{
1070
    45
1040
0.5
1002
}
  0
LINE
  5
2088B
  8
1DIM
 10
1036.03490418289
 20
-365.3642833965328
 30
0.0
 11
1036.03490418289
 21
-351.8393640760332
 31
0.0
1001
ACAD
1000
DSTYLE
1002
{
1070
    45
1040
0.5
1002
}
  0
LINE
  5
2088C
  8
1DIM
 10
1096.332841490514
 20
-364.1340823899382
 30
0.0
 11
1096.332841490514
 21
-351.8393640760332
 31
0.0
1001
ACAD
1000
DSTYLE
1002
{
1070
    45
1040
0.5
1002
}
  0
LINE
  5
2088D
  8
1DIM
 10
1038.03490418289
 20
-352.8393640760332
 30
0.0
 11
1094.332841490514
 21
-352.8393640760332
 31
0.0
1001
ACAD
1000
DSTYLE
1002
{
1070
    45
1040
0.5
1002
}
  0
LINE
  5
20891
  8
1DIM
 10
1086.834904182891
 20
-336.7739623868869
 30
0.0
 11
1086.834904182891
 21
-335.7739623868869
 31
0.0
  0
LINE
  5
20892
  8
1DIM
 10
1071.834904182891
 20
-336.7739623868869
 30
0.0
 11
1071.834904182891
 21
-335.7739623868869
 31
0.0
  0
LINE
  5
20893
  8
1DIM
 10
1073.834904182891
 20
-336.7739623868869
 30
0.0
 11
1084.834904182891
 21
-336.7739623868869
 31
0.0
  0
LINE
  5
20894
  8
1DIM
 10
1086.834904182891
 20
-336.7739623868869
 30
0.0
 11
1125.814593145261
 21
-336.7739623868869
 31
0.0
  0
LINE
  5
20898
  8
1DIM
 10
1086.834904182891
 20
-254.2645594033501
 30
0.0
 11
1086.834904182891
 21
-253.2645594033501
 31
0.0
  0
LINE
  5
20899
  8
1DIM
 10
1071.834904182891
 20
-254.2645594033501
 30
0.0
 11
1071.834904182891
 21
-253.2645594033501
 31
0.0
  0
LINE
  5
2089A
  8
1DIM
 10
1073.834904182891
 20
-254.2645594033501
 30
0.0
 11
1084.834904182891
 21
-254.2645594033501
 31
0.0
  0
LINE
  5
2089B
  8
1DIM
 10
1086.834904182891
 20
-254.2645594033501
 30
0.0
 11
1125.814593145261
 21
-254.2645594033501
 31
0.0
  0
TEXT
  5
2089F
  8
1DIM
  6
CONTINUOUS
 10
999.5446064029693
 20
-183.6332354119526
 30
0.0
 40
3.5
  1
J型仕様
  0
TEXT
  5
208A0
  8
1DIM
  6
CONTINUOUS
 10
998.9612730696359
 20
-266.1426383954894
 30
0.0
 40
3.5
  1
インナーレール仕様
  0
TEXT
  5
208A1
  8
1DIM
  6
CONTINUOUS
 10
999.5446064029693
 20
-348.6520413790263
 30
0.0
 40
3.5
  1
逆テーパー仕様
  0
LINE
  5
208A2
  8
1DIM
 10
1086.83490418289
 20
-281.5548804129966
 30
0.0
 11
1105.699458064948
 21
-292.4463356749451
 31
0.0
  0
LINE
  5
208A3
  8
1DIM
 10
1086.83490418289
 20
-296.5548804129962
 30
0.0
 11
1105.699458064948
 21
-307.4463356749446
 31
0.0
  0
LINE
  5
208A4
  8
1DIM
 10
1104.699458064948
 20
-293.8689854057554
 30
0.0
 11
1104.699458064948
 21
-304.868985405755
 31
0.0
  0
LINE
  5
208A5
  8
1DIM
 10
1104.699458064948
 20
-306.868985405755
 30
0.0
 11
1104.699458064948
 21
-326.9023187390883
 31
0.0
  0
LINE
  5
208A9
  8
1DIM
 10
1072.83490418289
 20
-219.0454774294597
 30
0.0
 11
1105.699458064948
 21
-219.0454774294598
 31
0.0
  0
LINE
  5
208AA
  8
1DIM
 10
1086.83490418289
 20
-199.0454774294597
 30
0.0
 11
1105.699458064948
 21
-199.0454774294597
 31
0.0
  0
LINE
  5
208AB
  8
1DIM
 10
1104.699458064948
 20
-201.0454774294597
 30
0.0
 11
1104.699458064948
 21
-217.0454774294598
 31
0.0
  0
LINE
  5
208AC
  8
1DIM
 10
1104.699458064948
 20
-219.0454774294598
 30
0.0
 11
1104.699458064948
 21
-243.3788107627931
 31
0.0
  0
LINE
  5
208B0
  8
1DIM
 10
1086.834904182891
 20
-375.0642833965335
 30
0.0
 11
1105.699458064948
 21
-375.0642833965335
 31
0.0
  0
LINE
  5
208B1
  8
1DIM
 10
1075.83490418289
 20
-364.0642833965335
 30
0.0
 11
1105.699458064948
 21
-364.0642833965335
 31
0.0
  0
LINE
  5
208B2
  8
1DIM
 10
1104.699458064948
 20
-366.0642833965335
 30
0.0
 11
1104.699458064948
 21
-373.0642833965335
 31
0.0
  0
LINE
  5
208B3
  8
1DIM
 10
1104.699458064948
 20
-375.0642833965335
 30
0.0
 11
1104.699458064948
 21
-391.5976167298668
 31
0.0
  0
SOLID
  5
208B7
  8
1DIM
 10
950.8133239295385
 20
-365.1512566650806
 30
0.0
 11
951.6806930537799
 21
-366.9839546525907
 31
0.0
 12
950.2658202105753
 22
-365.5316303263215
 32
0.0
 13
950.2658202105753
 23
-365.5316303263215
 33
0.0
  0
LINE
  5
208B8
  8
1DIM
 10
950.5395720700569
 20
-365.341443495701
 30
0.0
 11
941.9094397982784
 21
-352.9193701625284
 31
0.0
  0
LINE
  5
208B9
  8
1DIM
 10
941.9094397982784
 20
-352.9193701625284
 30
0.0
 11
894.6427731316118
 21
-352.9193701625284
 31
0.0
  0
TEXT
  5
208BA
  8
1DIM
  6
CONTINUOUS
 10
894.4094397982783
 20
-346.3860368291951
 30
0.0
 40
3.5
  1
材質：亜鉛ダイキャスト
  0
TEXT
  5
208BB
  8
1DIM
  6
CONTINUOUS
 10
902.3427731316117
 20
-352.2193701625284
 30
0.0
 40
3.5
  1
仕上げ：各種メッキ
  0
LINE
  5
208BD
  8
1HATCH
 10
1054.484904182891
 20
-370.1642833965331
 30
0.0
 11
1054.484904182891
 21
-380.1642833965331
 31
0.0
  0
LINE
  5
208BE
  8
1HATCH
 10
1051.184904182891
 20
-370.1642833965331
 30
0.0
 11
1051.18490418289
 21
-380.1642833965331
 31
0.0
  0
LINE
  5
208BF
  8
1CENTER
 10
1052.834904182891
 20
-369.138403030099
 30
0.0
 11
1052.834904182891
 21
-384.0149740432441
 31
0.0
  0
LINE
  5
208C0
  8
1HATCH
 10
1054.834904182891
 20
-370.5142833965331
 30
0.0
 11
1050.834904182891
 21
-370.5142833965331
 31
0.0
  0
LINE
  5
208C1
  8
0
 10
1054.834904182891
 20
-380.1642833965331
 30
0.0
 11
1050.834904182891
 21
-380.1642833965331
 31
0.0
  0
LINE
  5
208C2
  8
1DIM
 10
1038.408135562959
 20
-281.5548804129962
 30
0.0
 11
1024.7248295351
 21
-281.5548804129962
 31
0.0
  0
LINE
  5
208C3
  8
1DIM
 10
1038.408135562959
 20
-279.5548804129966
 30
0.0
 11
1024.7248295351
 21
-279.5548804129966
 31
0.0
  0
LINE
  5
208C4
  8
1DIM
 10
1025.7248295351
 20
-283.5548804129962
 30
0.0
 11
1025.7248295351
 21
-285.5548804129962
 31
0.0
  0
LINE
  5
208C5
  8
1DIM
 10
1025.7248295351
 20
-277.5548804129966
 30
0.0
 11
1025.7248295351
 21
-271.8215470796633
 31
0.0
  0
LINE
  5
208C6
  8
1DIM
 10
1025.7248295351
 20
-281.5548804129962
 30
0.0
 11
1025.7248295351
 21
-279.5548804129966
 31
0.0
  0
LINE
  5
208CA
  8
1DIM
 10
1037.33490418289
 20
-300.8548804129957
 30
0.0
 11
1024.7248295351
 21
-300.8548804129957
 31
0.0
1001
ACAD
1000
DSTYLE
1002
{
1070
    45
1040
0.5
1002
}
  0
LINE
  5
208CB
  8
1DIM
 10
1038.408135562959
 20
-281.5548804129962
 30
0.0
 11
1024.7248295351
 21
-281.5548804129962
 31
0.0
1001
ACAD
1000
DSTYLE
1002
{
1070
    45
1040
0.5
1002
}
  0
LINE
  5
208CC
  8
1DIM
 10
1025.7248295351
 20
-298.8548804129957
 30
0.0
 11
1025.7248295351
 21
-283.5548804129962
 31
0.0
1001
ACAD
1000
DSTYLE
1002
{
1070
    45
1040
0.5
1002
}
  0
LINE
  5
208D0
  8
1DIM
 10
1071.834904182891
 20
-322.3048804129959
 30
0.0
 11
1071.834904182891
 21
-337.7739623868869
 31
0.0
1001
ACAD
1000
DSTYLE
1002
{
1070
    45
1040
0.5
1002
}
  0
LINE
  5
208D1
  8
1DIM
 10
1036.03490418289
 20
-299.8548804129956
 30
0.0
 11
1036.03490418289
 21
-337.7739623868869
 31
0.0
1001
ACAD
1000
DSTYLE
1002
{
1070
    45
1040
0.5
1002
}
  0
LINE
  5
208D2
  8
1DIM
 10
1069.834904182891
 20
-336.7739623868869
 30
0.0
 11
1038.03490418289
 21
-336.7739623868869
 31
0.0
1001
ACAD
1000
DSTYLE
1002
{
1070
    45
1040
0.5
1002
}
  0
LINE
  5
208D6
  8
1DIM
 10
1071.834904182891
 20
-322.604880412996
 30
0.0
 11
1071.834904182891
 21
-330.9539785618379
 31
0.0
  0
LINE
  5
208D7
  8
1DIM
 10
1052.834904182891
 20
-301.5055710597073
 30
0.0
 11
1052.834904182891
 21
-330.9539785618379
 31
0.0
  0
LINE
  5
208D8
  8
1DIM
 10
1069.834904182891
 20
-329.9539785618379
 30
0.0
 11
1054.834904182891
 21
-329.9539785618379
 31
0.0
  0
LINE
  5
208DC
  8
1DIM
 10
1036.03490418289
 20
-282.854880412996
 30
0.0
 11
1036.03490418289
 21
-275.5596876676854
 31
0.0
1001
ACAD
1000
DSTYLE
1002
{
1070
    45
1040
0.5
1002
}
  0
LINE
  5
208DD
  8
1DIM
 10
1090.334059836476
 20
-281.5548804129962
 30
0.0
 11
1090.334059836476
 21
-275.5596876676854
 31
0.0
1001
ACAD
1000
DSTYLE
1002
{
1070
    45
1040
0.5
1002
}
  0
LINE
  5
208DE
  8
1DIM
 10
1038.03490418289
 20
-276.5596876676854
 30
0.0
 11
1088.334059836476
 21
-276.5596876676854
 31
0.0
1001
ACAD
1000
DSTYLE
1002
{
1070
    45
1040
0.5
1002
}
  0
LINE
  5
208E2
  8
1DIM
 10
1036.03490418289
 20
-282.854880412996
 30
0.0
 11
1036.03490418289
 21
-269.3299610924964
 31
0.0
1001
ACAD
1000
DSTYLE
1002
{
1070
    45
1040
0.5
1002
}
  0
LINE
  5
208E3
  8
1DIM
 10
1096.332841490514
 20
-281.6246794064013
 30
0.0
 11
1096.332841490514
 21
-269.3299610924964
 31
0.0
1001
ACAD
1000
DSTYLE
1002
{
1070
    45
1040
0.5
1002
}
  0
LINE
  5
208E4
  8
1DIM
 10
1038.03490418289
 20
-270.3299610924964
 30
0.0
 11
1094.332841490514
 21
-270.3299610924964
 31
0.0
1001
ACAD
1000
DSTYLE
1002
{
1070
    45
1040
0.5
1002
}
  0
LINE
  5
208E9
  8
1HATCH
 10
1054.484904182891
 20
-287.6548804129962
 30
0.0
 11
1054.484904182891
 21
-297.6548804129962
 31
0.0
  0
LINE
  5
208EA
  8
1HATCH
 10
1051.184904182891
 20
-287.6548804129962
 30
0.0
 11
1051.18490418289
 21
-297.6548804129962
 31
0.0
  0
LINE
  5
208EB
  8
1CENTER
 10
1052.834904182891
 20
-286.6290000465621
 30
0.0
 11
1052.834904182891
 21
-301.5055710597073
 31
0.0
  0
LINE
  5
208EC
  8
1HATCH
 10
1054.834904182891
 20
-288.0048804129963
 30
0.0
 11
1050.834904182891
 21
-288.0048804129963
 31
0.0
  0
LINE
  5
208ED
  8
0
 10
1054.834904182891
 20
-297.6548804129962
 30
0.0
 11
1050.834904182891
 21
-297.6548804129962
 31
0.0
  0
LINE
  5
208EE
  8
1DIM
 10
1039.455120464057
 20
-199.0454774294595
 30
0.0
 11
1024.7248295351
 21
-199.0454774294595
 31
0.0
  0
LINE
  5
208EF
  8
1DIM
 10
1039.455120464057
 20
-197.0454774294595
 30
0.0
 11
1024.7248295351
 21
-197.0454774294595
 31
0.0
  0
LINE
  5
208F0
  8
1DIM
 10
1025.7248295351
 20
-201.0454774294595
 30
0.0
 11
1025.7248295351
 21
-203.0454774294595
 31
0.0
  0
LINE
  5
208F1
  8
1DIM
 10
1025.7248295351
 20
-195.0454774294595
 30
0.0
 11
1025.7248295351
 21
-189.3121440961262
 31
0.0
  0
LINE
  5
208F2
  8
1DIM
 10
1025.7248295351
 20
-199.0454774294595
 30
0.0
 11
1025.7248295351
 21
-197.0454774294595
 31
0.0
  0
LINE
  5
208F6
  8
1DIM
 10
1037.33490418289
 20
-218.3454774294588
 30
0.0
 11
1024.7248295351
 21
-218.3454774294588
 31
0.0
1001
ACAD
1000
DSTYLE
1002
{
1070
    45
1040
0.5
1002
}
  0
LINE
  5
208F7
  8
1DIM
 10
1039.455120464057
 20
-199.0454774294595
 30
0.0
 11
1024.7248295351
 21
-199.0454774294595
 31
0.0
1001
ACAD
1000
DSTYLE
1002
{
1070
    45
1040
0.5
1002
}
  0
LINE
  5
208F8
  8
1DIM
 10
1025.7248295351
 20
-216.3454774294588
 30
0.0
 11
1025.7248295351
 21
-201.0454774294595
 31
0.0
1001
ACAD
1000
DSTYLE
1002
{
1070
    45
1040
0.5
1002
}
  0
LINE
  5
208FC
  8
1DIM
 10
1071.834904182891
 20
-239.7954774294591
 30
0.0
 11
1071.834904182891
 21
-255.26455940335
 31
0.0
1001
ACAD
1000
DSTYLE
1002
{
1070
    45
1040
0.5
1002
}
  0
LINE
  5
208FD
  8
1DIM
 10
1036.03490418289
 20
-217.3454774294588
 30
0.0
 11
1036.03490418289
 21
-255.26455940335
 31
0.0
1001
ACAD
1000
DSTYLE
1002
{
1070
    45
1040
0.5
1002
}
  0
LINE
  5
208FE
  8
1DIM
 10
1069.834904182891
 20
-254.26455940335
 30
0.0
 11
1038.03490418289
 21
-254.26455940335
 31
0.0
1001
ACAD
1000
DSTYLE
1002
{
1070
    45
1040
0.5
1002
}
  0
LINE
  5
20902
  8
1DIM
 10
1071.834904182891
 20
-240.0954774294591
 30
0.0
 11
1071.834904182891
 21
-248.444575578301
 31
0.0
  0
LINE
  5
20903
  8
1DIM
 10
1052.834904182891
 20
-218.9961680761704
 30
0.0
 11
1052.834904182891
 21
-248.444575578301
 31
0.0
  0
LINE
  5
20904
  8
1DIM
 10
1069.834904182891
 20
-247.444575578301
 30
0.0
 11
1054.834904182891
 21
-247.444575578301
 31
0.0
  0
LINE
  5
20908
  8
1DIM
 10
1036.03490418289
 20
-200.3454774294591
 30
0.0
 11
1036.03490418289
 21
-193.0502846841485
 31
0.0
1001
ACAD
1000
DSTYLE
1002
{
1070
    45
1040
0.5
1002
}
  0
LINE
  5
20909
  8
1DIM
 10
1090.334059836476
 20
-199.0454774294593
 30
0.0
 11
1090.334059836476
 21
-193.0502846841485
 31
0.0
1001
ACAD
1000
DSTYLE
1002
{
1070
    45
1040
0.5
1002
}
  0
LINE
  5
2090A
  8
1DIM
 10
1038.03490418289
 20
-194.0502846841485
 30
0.0
 11
1088.334059836476
 21
-194.0502846841485
 31
0.0
1001
ACAD
1000
DSTYLE
1002
{
1070
    45
1040
0.5
1002
}
  0
LINE
  5
2090E
  8
1DIM
 10
1036.03490418289
 20
-200.3454774294591
 30
0.0
 11
1036.03490418289
 21
-186.8205581089595
 31
0.0
1001
ACAD
1000
DSTYLE
1002
{
1070
    45
1040
0.5
1002
}
  0
LINE
  5
2090F
  8
1DIM
 10
1096.332841490514
 20
-199.1152764228644
 30
0.0
 11
1096.332841490514
 21
-186.8205581089595
 31
0.0
1001
ACAD
1000
DSTYLE
1002
{
1070
    45
1040
0.5
1002
}
  0
LINE
  5
20910
  8
1DIM
 10
1038.03490418289
 20
-187.8205581089595
 30
0.0
 11
1094.332841490514
 21
-187.8205581089595
 31
0.0
1001
ACAD
1000
DSTYLE
1002
{
1070
    45
1040
0.5
1002
}
  0
LINE
  5
20915
  8
1HATCH
 10
1054.484904182891
 20
-205.1454774294594
 30
0.0
 11
1054.484904182891
 21
-215.1454774294594
 31
0.0
  0
LINE
  5
20916
  8
1HATCH
 10
1051.184904182891
 20
-205.1454774294594
 30
0.0
 11
1051.18490418289
 21
-215.1454774294594
 31
0.0
  0
LINE
  5
20917
  8
1CENTER
 10
1052.834904182891
 20
-204.1195970630252
 30
0.0
 11
1052.834904182891
 21
-218.9961680761704
 31
0.0
  0
LINE
  5
20918
  8
1HATCH
 10
1054.834904182891
 20
-205.4954774294594
 30
0.0
 11
1050.834904182891
 21
-205.4954774294594
 31
0.0
  0
LINE
  5
20919
  8
0
 10
1054.834904182891
 20
-215.1454774294593
 30
0.0
 11
1050.834904182891
 21
-215.1454774294594
 31
0.0
  0
TEXT
  5
2091A
  8
1DIM
  6
CONTINUOUS
 10
765.9631791015391
 20
-256.1079508161548
 30
0.0
 40
3.5
  1
※防虫パッキンに当たり、扉が閉まりきらない場合があります。
  0
LINE
  5
2091B
  8
0
  6
BYBLOCK
 10
982.4136356489755
 20
-358.294617413908
 30
0.0
 11
984.4136356489755
 21
-358.830515793908
 31
0.0
  0
LINE
  5
2091C
  8
0
  6
BYBLOCK
 10
984.4136356489755
 20
-358.830515793908
 30
0.0
 11
982.4136356489755
 21
-359.366414173908
 31
0.0
  0
LINE
  5
2091D
  8
0
  6
BYBLOCK
 10
984.4136356489755
 20
-358.830515793908
 30
0.0
 11
982.4136356489755
 21
-358.830515793908
 31
0.0
  0
LINE
  5
2091E
  8
0
  6
BYBLOCK
 10
766.4136356489753
 20
-359.366414173908
 30
0.0
 11
764.4136356489753
 21
-358.830515793908
 31
0.0
  0
LINE
  5
2091F
  8
0
  6
BYBLOCK
 10
764.4136356489753
 20
-358.830515793908
 30
0.0
 11
766.4136356489753
 21
-358.294617413908
 31
0.0
  0
LINE
  5
20920
  8
0
  6
BYBLOCK
 10
764.4136356489753
 20
-358.830515793908
 30
0.0
 11
766.4136356489753
 21
-358.830515793908
 31
0.0
  0
TEXT
  5
20921
  8
1DIM
  6
CONTINUOUS
 10
869.9657189823088
 20
-358.130515793908
 30
0.0
 40
3.5
  1
220
  0
LINE
  5
20922
  8
0
  6
BYBLOCK
 10
993.9357874181733
 20
-405.0642833965326
 30
0.0
 11
993.3998890381732
 21
-407.0642833965326
 31
0.0
  0
LINE
  5
20923
  8
0
  6
BYBLOCK
 10
993.3998890381732
 20
-407.0642833965326
 30
0.0
 11
992.8639906581732
 21
-405.0642833965326
 31
0.0
  0
LINE
  5
20924
  8
0
  6
BYBLOCK
 10
993.3998890381732
 20
-407.0642833965326
 30
0.0
 11
993.3998890381732
 21
-405.0642833965326
 31
0.0
  0
LINE
  5
20925
  8
0
  6
BYBLOCK
 10
992.8639906581732
 20
-363.7642833965332
 30
0.0
 11
993.3998890381732
 21
-361.7642833965332
 31
0.0
  0
LINE
  5
20926
  8
0
  6
BYBLOCK
 10
993.3998890381732
 20
-361.7642833965332
 30
0.0
 11
993.9357874181733
 21
-363.7642833965332
 31
0.0
  0
LINE
  5
20927
  8
0
  6
BYBLOCK
 10
993.3998890381732
 20
-361.7642833965332
 30
0.0
 11
993.3998890381732
 21
-363.7642833965332
 31
0.0
  0
TEXT
  5
20928
  8
1DIM
  6
CONTINUOUS
 10
992.6998890381733
 20
-389.6764361743105
 30
0.0
 40
3.5
  1
45.5
 50
90.0
1001
ACAD
1000
DSTYLE
1002
{
1070
    45
1040
0.5
1002
}
  0
LINE
  5
20929
  8
0
  6
BYBLOCK
 10
964.4136356489756
 20
-265.4636208445257
 30
0.0
 11
962.4136356489756
 21
-264.9277224645257
 31
0.0
  0
LINE
  5
2092A
  8
0
  6
BYBLOCK
 10
962.4136356489756
 20
-264.9277224645257
 30
0.0
 11
964.4136356489756
 21
-264.3918240845257
 31
0.0
  0
LINE
  5
2092B
  8
0
  6
BYBLOCK
 10
962.4136356489756
 20
-264.9277224645257
 30
0.0
 11
964.4136356489756
 21
-264.9277224645257
 31
0.0
  0
LINE
  5
2092C
  8
0
  6
BYBLOCK
 10
982.4136356489756
 20
-264.3918240845257
 30
0.0
 11
984.4136356489756
 21
-264.9277224645257
 31
0.0
  0
LINE
  5
2092D
  8
0
  6
BYBLOCK
 10
984.4136356489756
 20
-264.9277224645257
 30
0.0
 11
982.4136356489756
 21
-265.4636208445257
 31
0.0
  0
LINE
  5
2092E
  8
0
  6
BYBLOCK
 10
984.4136356489756
 20
-264.9277224645257
 30
0.0
 11
982.4136356489756
 21
-264.9277224645257
 31
0.0
  0
TEXT
  5
2092F
  8
1DIM
  6
CONTINUOUS
 10
970.496968982309
 20
-264.2277224645257
 30
0.0
 40
3.5
  1
22
  0
LINE
  5
20930
  8
0
  6
BYBLOCK
 10
1025.1889311551
 20
-366.0642833965333
 30
0.0
 11
1025.7248295351
 21
-364.0642833965333
 31
0.0
  0
LINE
  5
20931
  8
0
  6
BYBLOCK
 10
1025.7248295351
 20
-364.0642833965333
 30
0.0
 11
1026.2607279151
 21
-366.0642833965333
 31
0.0
  0
LINE
  5
20932
  8
0
  6
BYBLOCK
 10
1025.7248295351
 20
-364.0642833965333
 30
0.0
 11
1025.7248295351
 21
-366.0642833965333
 31
0.0
  0
LINE
  5
20933
  8
0
  6
BYBLOCK
 10
1026.2607279151
 20
-360.0642833965333
 30
0.0
 11
1025.7248295351
 21
-362.0642833965333
 31
0.0
  0
LINE
  5
20934
  8
0
  6
BYBLOCK
 10
1025.7248295351
 20
-362.0642833965333
 30
0.0
 11
1025.1889311551
 21
-360.0642833965333
 31
0.0
  0
LINE
  5
20935
  8
0
  6
BYBLOCK
 10
1025.7248295351
 20
-362.0642833965333
 30
0.0
 11
1025.7248295351
 21
-360.0642833965333
 31
0.0
  0
TEXT
  5
20936
  8
1DIM
  6
CONTINUOUS
 10
1025.0248295351
 20
-357.3642833965331
 30
0.0
 40
3.5
  1
2
 50
90.0
  0
LINE
  5
20937
  8
0
  6
BYBLOCK
 10
1026.2607279151
 20
-381.3642833965326
 30
0.0
 11
1025.7248295351
 21
-383.3642833965326
 31
0.0
  0
LINE
  5
20938
  8
0
  6
BYBLOCK
 10
1025.7248295351
 20
-383.3642833965326
 30
0.0
 11
1025.1889311551
 21
-381.3642833965326
 31
0.0
  0
LINE
  5
20939
  8
0
  6
BYBLOCK
 10
1025.7248295351
 20
-383.3642833965326
 30
0.0
 11
1025.7248295351
 21
-381.3642833965326
 31
0.0
  0
LINE
  5
2093A
  8
0
  6
BYBLOCK
 10
1025.1889311551
 20
-366.0642833965333
 30
0.0
 11
1025.7248295351
 21
-364.0642833965333
 31
0.0
  0
LINE
  5
2093B
  8
0
  6
BYBLOCK
 10
1025.7248295351
 20
-364.0642833965333
 30
0.0
 11
1026.2607279151
 21
-366.0642833965333
 31
0.0
  0
LINE
  5
2093C
  8
0
  6
BYBLOCK
 10
1025.7248295351
 20
-364.0642833965333
 30
0.0
 11
1025.7248295351
 21
-366.0642833965333
 31
0.0
  0
TEXT
  5
2093D
  8
1DIM
  6
CONTINUOUS
 10
1025.0248295351
 20
-378.3817602483845
 30
0.0
 40
3.5
  1
19.5
 50
90.0
1001
ACAD
1000
DSTYLE
1002
{
1070
    45
1040
0.5
1002
}
  0
LINE
  5
2093E
  8
0
  6
BYBLOCK
 10
992.8639906581732
 20
-327.6140857461594
 30
0.0
 11
993.3998890381732
 21
-325.6140857461594
 31
0.0
  0
LINE
  5
2093F
  8
0
  6
BYBLOCK
 10
993.3998890381732
 20
-325.6140857461594
 30
0.0
 11
993.9357874181733
 21
-327.6140857461594
 31
0.0
  0
LINE
  5
20940
  8
0
  6
BYBLOCK
 10
993.3998890381732
 20
-325.6140857461594
 30
0.0
 11
993.3998890381732
 21
-327.6140857461594
 31
0.0
  0
LINE
  5
20941
  8
0
  6
BYBLOCK
 10
993.9357874181733
 20
-329.6140857461599
 30
0.0
 11
993.3998890381732
 21
-331.6140857461599
 31
0.0
  0
LINE
  5
20942
  8
0
  6
BYBLOCK
 10
993.3998890381732
 20
-331.6140857461599
 30
0.0
 11
992.8639906581732
 21
-329.6140857461599
 31
0.0
  0
LINE
  5
20943
  8
0
  6
BYBLOCK
 10
993.3998890381732
 20
-331.6140857461599
 30
0.0
 11
993.3998890381732
 21
-329.6140857461599
 31
0.0
  0
TEXT
  5
20944
  8
1DIM
  6
CONTINUOUS
 10
992.6998890381733
 20
-329.7807524128262
 30
0.0
 40
3.5
  1
6
 50
90.0
  0
LINE
  5
20945
  8
0
  6
BYBLOCK
 10
1069.834904182891
 20
-418.7474669904238
 30
0.0
 11
1071.834904182891
 21
-419.2833653704238
 31
0.0
  0
LINE
  5
20946
  8
0
  6
BYBLOCK
 10
1071.834904182891
 20
-419.2833653704238
 30
0.0
 11
1069.834904182891
 21
-419.8192637504238
 31
0.0
  0
LINE
  5
20947
  8
0
  6
BYBLOCK
 10
1071.834904182891
 20
-419.2833653704238
 30
0.0
 11
1069.834904182891
 21
-419.2833653704238
 31
0.0
  0
LINE
  5
20948
  8
0
  6
BYBLOCK
 10
1038.03490418289
 20
-419.8192637504238
 30
0.0
 11
1036.03490418289
 21
-419.2833653704238
 31
0.0
  0
LINE
  5
20949
  8
0
  6
BYBLOCK
 10
1036.03490418289
 20
-419.2833653704238
 30
0.0
 11
1038.03490418289
 21
-418.7474669904238
 31
0.0
  0
LINE
  5
2094A
  8
0
  6
BYBLOCK
 10
1036.03490418289
 20
-419.2833653704238
 30
0.0
 11
1038.03490418289
 21
-419.2833653704238
 31
0.0
  0
TEXT
  5
2094B
  8
1DIM
  6
CONTINUOUS
 10
1051.018237516224
 20
-418.5833653704238
 30
0.0
 40
3.5
  1
36
1001
ACAD
1000
DSTYLE
1002
{
1070
    45
1040
0.5
1002
}
  0
LINE
  5
2094C
  8
0
  6
BYBLOCK
 10
1118.102624138297
 20
-406.0577453714843
 30
0.0
 11
1117.497253219705
 21
-408.0378244417768
 31
0.0
  0
LINE
  5
2094D
  8
0
  6
BYBLOCK
 10
1117.497253219705
 20
-408.0378244417768
 30
0.0
 11
1117.031480287924
 21
-406.0203402039929
 31
0.0
  0
LINE
  5
2094E
  8
0
  6
BYBLOCK
 10
1117.497253219705
 20
-408.0378244417768
 30
0.0
 11
1117.56705221311
 21
-406.0390427877386
 31
0.0
  0
LINE
  5
2094F
  8
0
  6
BYBLOCK
 10
1118.390081845121
 20
-367.1150819015338
 30
0.0
 11
1118.995452763712
 21
-365.1350028312413
 31
0.0
  0
LINE
  5
20950
  8
0
  6
BYBLOCK
 10
1118.995452763712
 20
-365.1350028312413
 30
0.0
 11
1119.461225695494
 21
-367.1524870690251
 31
0.0
  0
LINE
  5
20951
  8
0
  6
BYBLOCK
 10
1118.995452763712
 20
-365.1350028312413
 30
0.0
 11
1118.925653770307
 21
-367.1337844852794
 31
0.0
  0
TEXT
  5
20952
  8
1DIM
  6
CONTINUOUS
 10
1117.44498921408
 20
-389.4768739009564
 30
0.0
 40
3.5
  1
43
 50
88.00000000000034
1001
ACAD
1000
DSTYLE
1002
{
1070
    45
1040
0.5
1002
}
  0
LINE
  5
20953
  8
0
  6
BYBLOCK
 10
1073.834904182891
 20
-419.8192637504238
 30
0.0
 11
1071.834904182891
 21
-419.2833653704238
 31
0.0
  0
LINE
  5
20954
  8
0
  6
BYBLOCK
 10
1071.834904182891
 20
-419.2833653704238
 30
0.0
 11
1073.834904182891
 21
-418.7474669904238
 31
0.0
  0
LINE
  5
20955
  8
0
  6
BYBLOCK
 10
1071.834904182891
 20
-419.2833653704238
 30
0.0
 11
1073.834904182891
 21
-419.2833653704238
 31
0.0
  0
LINE
  5
20956
  8
0
  6
BYBLOCK
 10
1084.834904182891
 20
-418.7474669904238
 30
0.0
 11
1086.834904182891
 21
-419.2833653704238
 31
0.0
  0
LINE
  5
20957
  8
0
  6
BYBLOCK
 10
1086.834904182891
 20
-419.2833653704238
 30
0.0
 11
1084.834904182891
 21
-419.8192637504238
 31
0.0
  0
LINE
  5
20958
  8
0
  6
BYBLOCK
 10
1086.834904182891
 20
-419.2833653704238
 30
0.0
 11
1084.834904182891
 21
-419.2833653704238
 31
0.0
  0
TEXT
  5
20959
  8
1DIM
  6
CONTINUOUS
 10
1098.81910703415
 20
-418.5833653704237
 30
0.0
 40
3.5
  1
板厚15 ~21
  0
LINE
  5
2095A
  8
0
  6
BYBLOCK
 10
1069.834904182891
 20
-411.9274831653747
 30
0.0
 11
1071.834904182891
 21
-412.4633815453747
 31
0.0
  0
LINE
  5
2095B
  8
0
  6
BYBLOCK
 10
1071.834904182891
 20
-412.4633815453747
 30
0.0
 11
1069.834904182891
 21
-412.9992799253747
 31
0.0
  0
LINE
  5
2095C
  8
0
  6
BYBLOCK
 10
1071.834904182891
 20
-412.4633815453747
 30
0.0
 11
1069.834904182891
 21
-412.4633815453747
 31
0.0
  0
LINE
  5
2095D
  8
0
  6
BYBLOCK
 10
1054.834904182891
 20
-412.9992799253747
 30
0.0
 11
1052.834904182891
 21
-412.4633815453747
 31
0.0
  0
LINE
  5
2095E
  8
0
  6
BYBLOCK
 10
1052.834904182891
 20
-412.4633815453747
 30
0.0
 11
1054.834904182891
 21
-411.9274831653747
 31
0.0
  0
LINE
  5
2095F
  8
0
  6
BYBLOCK
 10
1052.834904182891
 20
-412.4633815453747
 30
0.0
 11
1054.834904182891
 21
-412.4633815453747
 31
0.0
  0
TEXT
  5
20960
  8
1DIM
  6
CONTINUOUS
 10
1055.321941219928
 20
-411.7633815453747
 30
0.0
 40
3.5
  1
15~19
  0
LINE
  5
20961
  8
0
  6
BYBLOCK
 10
1122.026116339505
 20
-293.7036289441359
 30
0.0
 11
1121.420745420913
 21
-295.6837080144284
 31
0.0
  0
LINE
  5
20962
  8
0
  6
BYBLOCK
 10
1121.420745420913
 20
-295.6837080144284
 30
0.0
 11
1120.954972489132
 21
-293.6662237766445
 31
0.0
  0
LINE
  5
20963
  8
0
  6
BYBLOCK
 10
1121.420745420913
 20
-295.6837080144284
 30
0.0
 11
1121.490544414318
 21
-293.6849263603902
 31
0.0
  0
LINE
  5
20964
  8
0
  6
BYBLOCK
 10
1121.266589145254
 20
-284.7426902847588
 30
0.0
 11
1121.871960063845
 21
-282.7626112144663
 31
0.0
  0
LINE
  5
20965
  8
0
  6
BYBLOCK
 10
1121.871960063845
 20
-282.7626112144663
 30
0.0
 11
1122.337732995627
 21
-284.7800954522502
 31
0.0
  0
LINE
  5
20966
  8
0
  6
BYBLOCK
 10
1121.871960063845
 20
-282.7626112144663
 30
0.0
 11
1121.80216107044
 21
-284.7613928685045
 31
0.0
  0
TEXT
  5
20967
  8
1DIM
  6
CONTINUOUS
 10
1120.865347004493
 20
-291.5306418964665
 30
0.0
 40
3.5
  1
13
 50
88.00000000000034
1001
ACAD
1000
DSTYLE
1002
{
1070
    45
1040
0.5
1002
}
  0
LINE
  5
20968
  8
0
  6
BYBLOCK
 10
1114.277964894922
 20
-240.9053793605883
 30
0.0
 11
1113.672593976331
 21
-242.8854584308808
 31
0.0
  0
LINE
  5
20969
  8
0
  6
BYBLOCK
 10
1113.672593976331
 20
-242.8854584308808
 30
0.0
 11
1113.20682104455
 21
-240.8679741930969
 31
0.0
  0
LINE
  5
2096A
  8
0
  6
BYBLOCK
 10
1113.672593976331
 20
-242.8854584308808
 30
0.0
 11
1113.742392969736
 21
-240.8866767768426
 31
0.0
  0
LINE
  5
2096B
  8
0
  6
BYBLOCK
 10
1114.565422601746
 20
-201.9627158906378
 30
0.0
 11
1115.170793520338
 21
-199.9826368203453
 31
0.0
  0
LINE
  5
2096C
  8
0
  6
BYBLOCK
 10
1115.170793520338
 20
-199.9826368203453
 30
0.0
 11
1115.636566452119
 21
-202.0001210581291
 31
0.0
  0
LINE
  5
2096D
  8
0
  6
BYBLOCK
 10
1115.170793520338
 20
-199.9826368203453
 30
0.0
 11
1115.100994526933
 21
-201.9814184743835
 31
0.0
  0
TEXT
  5
2096E
  8
1DIM
  6
CONTINUOUS
 10
1113.620329970705
 20
-224.3245078900604
 30
0.0
 40
3.5
  1
43
 50
88.00000000000034
1001
ACAD
1000
DSTYLE
1002
{
1070
    45
1040
0.5
1002
}
  0
LINE
  5
2096F
  8
0
  6
BYBLOCK
 10
1038.03490418289
 20
-359.6049890312223
 30
0.0
 11
1036.03490418289
 21
-359.0690906512223
 31
0.0
  0
LINE
  5
20970
  8
0
  6
BYBLOCK
 10
1036.03490418289
 20
-359.0690906512223
 30
0.0
 11
1038.03490418289
 21
-358.5331922712223
 31
0.0
  0
LINE
  5
20971
  8
0
  6
BYBLOCK
 10
1036.03490418289
 20
-359.0690906512223
 30
0.0
 11
1038.03490418289
 21
-359.0690906512223
 31
0.0
  0
LINE
  5
20972
  8
0
  6
BYBLOCK
 10
1088.334059836476
 20
-358.5331922712223
 30
0.0
 11
1090.334059836476
 21
-359.0690906512223
 31
0.0
  0
LINE
  5
20973
  8
0
  6
BYBLOCK
 10
1090.334059836476
 20
-359.0690906512223
 30
0.0
 11
1088.334059836476
 21
-359.6049890312223
 31
0.0
  0
LINE
  5
20974
  8
0
  6
BYBLOCK
 10
1090.334059836476
 20
-359.0690906512223
 30
0.0
 11
1088.334059836476
 21
-359.0690906512223
 31
0.0
  0
TEXT
  5
20975
  8
1DIM
  6
CONTINUOUS
 10
1057.922329231905
 20
-358.3690906512223
 30
0.0
 40
3.5
  1
54.5
1001
ACAD
1000
DSTYLE
1002
{
1070
    45
1040
0.5
1002
}
  0
LINE
  5
20976
  8
0
  6
BYBLOCK
 10
1038.03490418289
 20
-353.3752624560332
 30
0.0
 11
1036.03490418289
 21
-352.8393640760332
 31
0.0
  0
LINE
  5
20977
  8
0
  6
BYBLOCK
 10
1036.03490418289
 20
-352.8393640760332
 30
0.0
 11
1038.03490418289
 21
-352.3034656960332
 31
0.0
  0
LINE
  5
20978
  8
0
  6
BYBLOCK
 10
1036.03490418289
 20
-352.8393640760332
 30
0.0
 11
1038.03490418289
 21
-352.8393640760332
 31
0.0
  0
LINE
  5
20979
  8
0
  6
BYBLOCK
 10
1094.332841490514
 20
-352.3034656960332
 30
0.0
 11
1096.332841490514
 21
-352.8393640760332
 31
0.0
  0
LINE
  5
2097A
  8
0
  6
BYBLOCK
 10
1096.332841490514
 20
-352.8393640760332
 30
0.0
 11
1094.332841490514
 21
-353.3752624560332
 31
0.0
  0
LINE
  5
2097B
  8
0
  6
BYBLOCK
 10
1096.332841490514
 20
-352.8393640760332
 30
0.0
 11
1094.332841490514
 21
-352.8393640760332
 31
0.0
  0
TEXT
  5
2097C
  8
1DIM
  6
CONTINUOUS
 10
1061.213386725591
 20
-352.1393640760332
 30
0.0
 40
3.5
  1
60.5
1001
ACAD
1000
DSTYLE
1002
{
1070
    45
1040
0.5
1002
}
  0
LINE
  5
2097D
  8
0
  6
BYBLOCK
 10
1073.834904182891
 20
-337.3098607668869
 30
0.0
 11
1071.834904182891
 21
-336.7739623868869
 31
0.0
  0
LINE
  5
2097E
  8
0
  6
BYBLOCK
 10
1071.834904182891
 20
-336.7739623868869
 30
0.0
 11
1073.834904182891
 21
-336.2380640068869
 31
0.0
  0
LINE
  5
2097F
  8
0
  6
BYBLOCK
 10
1071.834904182891
 20
-336.7739623868869
 30
0.0
 11
1073.834904182891
 21
-336.7739623868869
 31
0.0
  0
LINE
  5
20980
  8
0
  6
BYBLOCK
 10
1084.834904182891
 20
-336.2380640068869
 30
0.0
 11
1086.834904182891
 21
-336.7739623868869
 31
0.0
  0
LINE
  5
20981
  8
0
  6
BYBLOCK
 10
1086.834904182891
 20
-336.7739623868869
 30
0.0
 11
1084.834904182891
 21
-337.3098607668869
 31
0.0
  0
LINE
  5
20982
  8
0
  6
BYBLOCK
 10
1086.834904182891
 20
-336.7739623868869
 30
0.0
 11
1084.834904182891
 21
-336.7739623868869
 31
0.0
  0
TEXT
  5
20983
  8
1DIM
  6
CONTINUOUS
 10
1098.81910703415
 20
-336.0739623868869
 30
0.0
 40
3.5
  1
板厚15 ~21
  0
LINE
  5
20984
  8
0
  6
BYBLOCK
 10
1073.834904182891
 20
-254.8004577833501
 30
0.0
 11
1071.834904182891
 21
-254.2645594033501
 31
0.0
  0
LINE
  5
20985
  8
0
  6
BYBLOCK
 10
1071.834904182891
 20
-254.2645594033501
 30
0.0
 11
1073.834904182891
 21
-253.7286610233501
 31
0.0
  0
LINE
  5
20986
  8
0
  6
BYBLOCK
 10
1071.834904182891
 20
-254.2645594033501
 30
0.0
 11
1073.834904182891
 21
-254.2645594033501
 31
0.0
  0
LINE
  5
20987
  8
0
  6
BYBLOCK
 10
1084.834904182891
 20
-253.7286610233501
 30
0.0
 11
1086.834904182891
 21
-254.2645594033501
 31
0.0
  0
LINE
  5
20988
  8
0
  6
BYBLOCK
 10
1086.834904182891
 20
-254.2645594033501
 30
0.0
 11
1084.834904182891
 21
-254.8004577833501
 31
0.0
  0
LINE
  5
20989
  8
0
  6
BYBLOCK
 10
1086.834904182891
 20
-254.2645594033501
 30
0.0
 11
1084.834904182891
 21
-254.2645594033501
 31
0.0
  0
TEXT
  5
2098A
  8
1DIM
  6
CONTINUOUS
 10
1098.81910703415
 20
-253.5645594033501
 30
0.0
 40
3.5
  1
板厚15 ~21
  0
LINE
  5
2098B
  8
0
  6
BYBLOCK
 10
1104.163559684948
 20
-293.8689854057554
 30
0.0
 11
1104.699458064948
 21
-291.8689854057554
 31
0.0
  0
LINE
  5
2098C
  8
0
  6
BYBLOCK
 10
1104.699458064948
 20
-291.8689854057554
 30
0.0
 11
1105.235356444948
 21
-293.8689854057554
 31
0.0
  0
LINE
  5
2098D
  8
0
  6
BYBLOCK
 10
1104.699458064948
 20
-291.8689854057554
 30
0.0
 11
1104.699458064948
 21
-293.8689854057554
 31
0.0
  0
LINE
  5
2098E
  8
0
  6
BYBLOCK
 10
1105.235356444948
 20
-304.868985405755
 30
0.0
 11
1104.699458064948
 21
-306.868985405755
 31
0.0
  0
LINE
  5
2098F
  8
0
  6
BYBLOCK
 10
1104.699458064948
 20
-306.868985405755
 30
0.0
 11
1104.163559684948
 21
-304.868985405755
 31
0.0
  0
LINE
  5
20990
  8
0
  6
BYBLOCK
 10
1104.699458064948
 20
-306.868985405755
 30
0.0
 11
1104.699458064948
 21
-304.868985405755
 31
0.0
  0
TEXT
  5
20991
  8
1DIM
  6
CONTINUOUS
 10
1103.999458064948
 20
-325.7144715168658
 30
0.0
 40
3.5
  1
15 以上
 50
90.0
  0
LINE
  5
20992
  8
0
  6
BYBLOCK
 10
1104.163559684948
 20
-201.0454774294597
 30
0.0
 11
1104.699458064948
 21
-199.0454774294597
 31
0.0
  0
LINE
  5
20993
  8
0
  6
BYBLOCK
 10
1104.699458064948
 20
-199.0454774294597
 30
0.0
 11
1105.235356444948
 21
-201.0454774294597
 31
0.0
  0
LINE
  5
20994
  8
0
  6
BYBLOCK
 10
1104.699458064948
 20
-199.0454774294597
 30
0.0
 11
1104.699458064948
 21
-201.0454774294597
 31
0.0
  0
LINE
  5
20995
  8
0
  6
BYBLOCK
 10
1105.235356444948
 20
-217.0454774294598
 30
0.0
 11
1104.699458064948
 21
-219.0454774294598
 31
0.0
  0
LINE
  5
20996
  8
0
  6
BYBLOCK
 10
1104.699458064948
 20
-219.0454774294598
 30
0.0
 11
1104.163559684948
 21
-217.0454774294598
 31
0.0
  0
LINE
  5
20997
  8
0
  6
BYBLOCK
 10
1104.699458064948
 20
-219.0454774294598
 30
0.0
 11
1104.699458064948
 21
-217.0454774294598
 31
0.0
  0
TEXT
  5
20998
  8
1DIM
  6
CONTINUOUS
 10
1103.999458064948
 20
-242.9576302072373
 30
0.0
 40
3.5
  1
30～6以内
 50
90.0
  0
LINE
  5
20999
  8
0
  6
BYBLOCK
 10
1104.163559684948
 20
-366.0642833965335
 30
0.0
 11
1104.699458064948
 21
-364.0642833965335
 31
0.0
  0
LINE
  5
2099A
  8
0
  6
BYBLOCK
 10
1104.699458064948
 20
-364.0642833965335
 30
0.0
 11
1105.235356444948
 21
-366.0642833965335
 31
0.0
  0
LINE
  5
2099B
  8
0
  6
BYBLOCK
 10
1104.699458064948
 20
-364.0642833965335
 30
0.0
 11
1104.699458064948
 21
-366.0642833965335
 31
0.0
  0
LINE
  5
2099C
  8
0
  6
BYBLOCK
 10
1105.235356444948
 20
-373.0642833965335
 30
0.0
 11
1104.699458064948
 21
-375.0642833965335
 31
0.0
  0
LINE
  5
2099D
  8
0
  6
BYBLOCK
 10
1104.699458064948
 20
-375.0642833965335
 30
0.0
 11
1104.163559684948
 21
-373.0642833965335
 31
0.0
  0
LINE
  5
2099E
  8
0
  6
BYBLOCK
 10
1104.699458064948
 20
-375.0642833965335
 30
0.0
 11
1104.699458064948
 21
-373.0642833965335
 31
0.0
  0
TEXT
  5
2099F
  8
1DIM
  6
CONTINUOUS
 10
1103.999458064948
 20
-391.1097695076444
 30
0.0
 40
3.5
  1
16以下
 50
90.0
  0
LINE
  5
209A0
  8
0
 10
1054.834904182891
 20
-380.1642833965331
 30
0.0
 11
1054.834904182891
 21
-370.5142833965331
 31
0.0
  0
LINE
  5
209A1
  8
0
 10
1054.834904182891
 20
-370.5142833965331
 30
0.0
 11
1054.484904182891
 21
-370.1642833965331
 31
0.0
  0
LINE
  5
209A2
  8
0
 10
1054.484904182891
 20
-370.1642833965331
 30
0.0
 11
1051.184904182891
 21
-370.1642833965331
 31
0.0
  0
LINE
  5
209A3
  8
0
 10
1051.184904182891
 20
-370.1642833965331
 30
0.0
 11
1050.834904182891
 21
-370.5142833965331
 31
0.0
  0
LINE
  5
209A4
  8
0
 10
1050.834904182891
 20
-370.5142833965331
 30
0.0
 11
1050.834904182891
 21
-380.1642833965332
 31
0.0
  0
LINE
  5
209A5
  8
0
 10
1050.834904182891
 20
-380.1642833965332
 30
0.0
 11
1049.334904182891
 21
-380.1642833965331
 31
0.0
  0
LINE
  5
209A6
  8
0
 10
1049.334904182891
 20
-380.1642833965331
 30
0.0
 11
1049.334904182891
 21
-380.7642833965331
 31
0.0
  0
ARC
  5
209A7
  8
0
 10
1051.334904182891
 20
-380.7642833965331
 30
0.0
 40
2.0
 50
180.0
 51
270.0
  0
LINE
  5
209A8
  8
0
 10
1051.334904182891
 20
-382.7642833965331
 30
0.0
 11
1054.334904182891
 21
-382.7642833965331
 31
0.0
  0
ARC
  5
209A9
  8
0
 10
1054.334904182891
 20
-380.7642833965331
 30
0.0
 40
2.0
 50
270.0
 51
0.0000000000016284
  0
LINE
  5
209AA
  8
0
 10
1056.334904182891
 20
-380.7642833965331
 30
0.0
 11
1056.334904182891
 21
-380.1642833965331
 31
0.0
  0
LINE
  5
209AB
  8
0
 10
1056.334904182891
 20
-380.1642833965331
 30
0.0
 11
1054.834904182891
 21
-380.1642833965331
 31
0.0
  0
LINE
  5
209AC
  8
0
  6
BYBLOCK
 10
1025.1889311551
 20
-283.5548804129962
 30
0.0
 11
1025.7248295351
 21
-281.5548804129962
 31
0.0
  0
LINE
  5
209AD
  8
0
  6
BYBLOCK
 10
1025.7248295351
 20
-281.5548804129962
 30
0.0
 11
1026.2607279151
 21
-283.5548804129962
 31
0.0
  0
LINE
  5
209AE
  8
0
  6
BYBLOCK
 10
1025.7248295351
 20
-281.5548804129962
 30
0.0
 11
1025.7248295351
 21
-283.5548804129962
 31
0.0
  0
LINE
  5
209AF
  8
0
  6
BYBLOCK
 10
1026.2607279151
 20
-277.5548804129966
 30
0.0
 11
1025.7248295351
 21
-279.5548804129966
 31
0.0
  0
LINE
  5
209B0
  8
0
  6
BYBLOCK
 10
1025.7248295351
 20
-279.5548804129966
 30
0.0
 11
1025.1889311551
 21
-277.5548804129966
 31
0.0
  0
LINE
  5
209B1
  8
0
  6
BYBLOCK
 10
1025.7248295351
 20
-279.5548804129966
 30
0.0
 11
1025.7248295351
 21
-277.5548804129966
 31
0.0
  0
TEXT
  5
209B2
  8
1DIM
  6
CONTINUOUS
 10
1025.0248295351
 20
-274.8548804129963
 30
0.0
 40
3.5
  1
2
 50
90.0
  0
LINE
  5
209B3
  8
0
  6
BYBLOCK
 10
1026.2607279151
 20
-298.8548804129957
 30
0.0
 11
1025.7248295351
 21
-300.8548804129957
 31
0.0
  0
LINE
  5
209B4
  8
0
  6
BYBLOCK
 10
1025.7248295351
 20
-300.8548804129957
 30
0.0
 11
1025.1889311551
 21
-298.8548804129957
 31
0.0
  0
LINE
  5
209B5
  8
0
  6
BYBLOCK
 10
1025.7248295351
 20
-300.8548804129957
 30
0.0
 11
1025.7248295351
 21
-298.8548804129957
 31
0.0
  0
LINE
  5
209B6
  8
0
  6
BYBLOCK
 10
1025.1889311551
 20
-283.5548804129962
 30
0.0
 11
1025.7248295351
 21
-281.5548804129962
 31
0.0
  0
LINE
  5
209B7
  8
0
  6
BYBLOCK
 10
1025.7248295351
 20
-281.5548804129962
 30
0.0
 11
1026.2607279151
 21
-283.5548804129962
 31
0.0
  0
LINE
  5
209B8
  8
0
  6
BYBLOCK
 10
1025.7248295351
 20
-281.5548804129962
 30
0.0
 11
1025.7248295351
 21
-283.5548804129962
 31
0.0
  0
TEXT
  5
209B9
  8
1DIM
  6
CONTINUOUS
 10
1025.0248295351
 20
-295.8723572648477
 30
0.0
 40
3.5
  1
19.5
 50
90.0
1001
ACAD
1000
DSTYLE
1002
{
1070
    45
1040
0.5
1002
}
  0
LINE
  5
209BA
  8
0
  6
BYBLOCK
 10
1069.834904182891
 20
-336.2380640068869
 30
0.0
 11
1071.834904182891
 21
-336.7739623868869
 31
0.0
  0
LINE
  5
209BB
  8
0
  6
BYBLOCK
 10
1071.834904182891
 20
-336.7739623868869
 30
0.0
 11
1069.834904182891
 21
-337.3098607668869
 31
0.0
  0
LINE
  5
209BC
  8
0
  6
BYBLOCK
 10
1071.834904182891
 20
-336.7739623868869
 30
0.0
 11
1069.834904182891
 21
-336.7739623868869
 31
0.0
  0
LINE
  5
209BD
  8
0
  6
BYBLOCK
 10
1038.03490418289
 20
-337.3098607668869
 30
0.0
 11
1036.03490418289
 21
-336.7739623868869
 31
0.0
  0
LINE
  5
209BE
  8
0
  6
BYBLOCK
 10
1036.03490418289
 20
-336.7739623868869
 30
0.0
 11
1038.03490418289
 21
-336.2380640068869
 31
0.0
  0
LINE
  5
209BF
  8
0
  6
BYBLOCK
 10
1036.03490418289
 20
-336.7739623868869
 30
0.0
 11
1038.03490418289
 21
-336.7739623868869
 31
0.0
  0
TEXT
  5
209C0
  8
1DIM
  6
CONTINUOUS
 10
1051.018237516224
 20
-336.0739623868869
 30
0.0
 40
3.5
  1
36
1001
ACAD
1000
DSTYLE
1002
{
1070
    45
1040
0.5
1002
}
  0
LINE
  5
209C1
  8
0
  6
BYBLOCK
 10
1069.834904182891
 20
-329.4180801818379
 30
0.0
 11
1071.834904182891
 21
-329.9539785618379
 31
0.0
  0
LINE
  5
209C2
  8
0
  6
BYBLOCK
 10
1071.834904182891
 20
-329.9539785618379
 30
0.0
 11
1069.834904182891
 21
-330.4898769418378
 31
0.0
  0
LINE
  5
209C3
  8
0
  6
BYBLOCK
 10
1071.834904182891
 20
-329.9539785618379
 30
0.0
 11
1069.834904182891
 21
-329.9539785618379
 31
0.0
  0
LINE
  5
209C4
  8
0
  6
BYBLOCK
 10
1054.834904182891
 20
-330.4898769418378
 30
0.0
 11
1052.834904182891
 21
-329.9539785618379
 31
0.0
  0
LINE
  5
209C5
  8
0
  6
BYBLOCK
 10
1052.834904182891
 20
-329.9539785618379
 30
0.0
 11
1054.834904182891
 21
-329.4180801818379
 31
0.0
  0
LINE
  5
209C6
  8
0
  6
BYBLOCK
 10
1052.834904182891
 20
-329.9539785618379
 30
0.0
 11
1054.834904182891
 21
-329.9539785618379
 31
0.0
  0
TEXT
  5
209C7
  8
1DIM
  6
CONTINUOUS
 10
1055.321941219928
 20
-329.2539785618378
 30
0.0
 40
3.5
  1
15~19
  0
LINE
  5
209C8
  8
0
  6
BYBLOCK
 10
1038.03490418289
 20
-277.0955860476854
 30
0.0
 11
1036.03490418289
 21
-276.5596876676854
 31
0.0
  0
LINE
  5
209C9
  8
0
  6
BYBLOCK
 10
1036.03490418289
 20
-276.5596876676854
 30
0.0
 11
1038.03490418289
 21
-276.0237892876854
 31
0.0
  0
LINE
  5
209CA
  8
0
  6
BYBLOCK
 10
1036.03490418289
 20
-276.5596876676854
 30
0.0
 11
1038.03490418289
 21
-276.5596876676854
 31
0.0
  0
LINE
  5
209CB
  8
0
  6
BYBLOCK
 10
1088.334059836476
 20
-276.0237892876854
 30
0.0
 11
1090.334059836476
 21
-276.5596876676854
 31
0.0
  0
LINE
  5
209CC
  8
0
  6
BYBLOCK
 10
1090.334059836476
 20
-276.5596876676854
 30
0.0
 11
1088.334059836476
 21
-277.0955860476854
 31
0.0
  0
LINE
  5
209CD
  8
0
  6
BYBLOCK
 10
1090.334059836476
 20
-276.5596876676854
 30
0.0
 11
1088.334059836476
 21
-276.5596876676854
 31
0.0
  0
TEXT
  5
209CE
  8
1DIM
  6
CONTINUOUS
 10
1057.922329231905
 20
-275.8596876676854
 30
0.0
 40
3.5
  1
54.5
1001
ACAD
1000
DSTYLE
1002
{
1070
    45
1040
0.5
1002
}
  0
LINE
  5
209CF
  8
0
  6
BYBLOCK
 10
1038.03490418289
 20
-270.8658594724964
 30
0.0
 11
1036.03490418289
 21
-270.3299610924964
 31
0.0
  0
LINE
  5
209D0
  8
0
  6
BYBLOCK
 10
1036.03490418289
 20
-270.3299610924964
 30
0.0
 11
1038.03490418289
 21
-269.7940627124964
 31
0.0
  0
LINE
  5
209D1
  8
0
  6
BYBLOCK
 10
1036.03490418289
 20
-270.3299610924964
 30
0.0
 11
1038.03490418289
 21
-270.3299610924964
 31
0.0
  0
LINE
  5
209D2
  8
0
  6
BYBLOCK
 10
1094.332841490514
 20
-269.7940627124964
 30
0.0
 11
1096.332841490514
 21
-270.3299610924964
 31
0.0
  0
LINE
  5
209D3
  8
0
  6
BYBLOCK
 10
1096.332841490514
 20
-270.3299610924964
 30
0.0
 11
1094.332841490514
 21
-270.8658594724964
 31
0.0
  0
LINE
  5
209D4
  8
0
  6
BYBLOCK
 10
1096.332841490514
 20
-270.3299610924964
 30
0.0
 11
1094.332841490514
 21
-270.3299610924964
 31
0.0
  0
TEXT
  5
209D5
  8
1DIM
  6
CONTINUOUS
 10
1061.213386725591
 20
-269.6299610924963
 30
0.0
 40
3.5
  1
60.5
1001
ACAD
1000
DSTYLE
1002
{
1070
    45
1040
0.5
1002
}
  0
LINE
  5
209D6
  8
0
 10
1054.834904182891
 20
-297.6548804129962
 30
0.0
 11
1054.834904182891
 21
-288.0048804129963
 31
0.0
  0
LINE
  5
209D7
  8
0
 10
1054.834904182891
 20
-288.0048804129963
 30
0.0
 11
1054.484904182891
 21
-287.6548804129962
 31
0.0
  0
LINE
  5
209D8
  8
0
 10
1054.484904182891
 20
-287.6548804129962
 30
0.0
 11
1051.184904182891
 21
-287.6548804129962
 31
0.0
  0
LINE
  5
209D9
  8
0
 10
1051.184904182891
 20
-287.6548804129962
 30
0.0
 11
1050.834904182891
 21
-288.0048804129963
 31
0.0
  0
LINE
  5
209DA
  8
0
 10
1050.834904182891
 20
-288.0048804129963
 30
0.0
 11
1050.834904182891
 21
-297.6548804129963
 31
0.0
  0
LINE
  5
209DB
  8
0
 10
1050.834904182891
 20
-297.6548804129963
 30
0.0
 11
1049.334904182891
 21
-297.6548804129962
 31
0.0
  0
LINE
  5
209DC
  8
0
 10
1049.334904182891
 20
-297.6548804129962
 30
0.0
 11
1049.334904182891
 21
-298.2548804129962
 31
0.0
  0
ARC
  5
209DD
  8
0
 10
1051.334904182891
 20
-298.2548804129962
 30
0.0
 40
2.0
 50
180.0
 51
270.0
  0
LINE
  5
209DE
  8
0
 10
1051.334904182891
 20
-300.2548804129962
 30
0.0
 11
1054.334904182891
 21
-300.2548804129963
 31
0.0
  0
ARC
  5
209DF
  8
0
 10
1054.334904182891
 20
-298.2548804129963
 30
0.0
 40
2.0
 50
270.0
 51
0.0000000000016284
  0
LINE
  5
209E0
  8
0
 10
1056.334904182891
 20
-298.2548804129962
 30
0.0
 11
1056.334904182891
 21
-297.6548804129962
 31
0.0
  0
LINE
  5
209E1
  8
0
 10
1056.334904182891
 20
-297.6548804129962
 30
0.0
 11
1054.834904182891
 21
-297.6548804129962
 31
0.0
  0
LINE
  5
209E2
  8
0
  6
BYBLOCK
 10
1025.1889311551
 20
-201.0454774294595
 30
0.0
 11
1025.7248295351
 21
-199.0454774294595
 31
0.0
  0
LINE
  5
209E3
  8
0
  6
BYBLOCK
 10
1025.7248295351
 20
-199.0454774294595
 30
0.0
 11
1026.2607279151
 21
-201.0454774294595
 31
0.0
  0
LINE
  5
209E4
  8
0
  6
BYBLOCK
 10
1025.7248295351
 20
-199.0454774294595
 30
0.0
 11
1025.7248295351
 21
-201.0454774294595
 31
0.0
  0
LINE
  5
209E5
  8
0
  6
BYBLOCK
 10
1026.2607279151
 20
-195.0454774294595
 30
0.0
 11
1025.7248295351
 21
-197.0454774294595
 31
0.0
  0
LINE
  5
209E6
  8
0
  6
BYBLOCK
 10
1025.7248295351
 20
-197.0454774294595
 30
0.0
 11
1025.1889311551
 21
-195.0454774294595
 31
0.0
  0
LINE
  5
209E7
  8
0
  6
BYBLOCK
 10
1025.7248295351
 20
-197.0454774294595
 30
0.0
 11
1025.7248295351
 21
-195.0454774294595
 31
0.0
  0
TEXT
  5
209E8
  8
1DIM
  6
CONTINUOUS
 10
1025.0248295351
 20
-192.3454774294593
 30
0.0
 40
3.5
  1
2
 50
90.0
  0
LINE
  5
209E9
  8
0
  6
BYBLOCK
 10
1026.2607279151
 20
-216.3454774294588
 30
0.0
 11
1025.7248295351
 21
-218.3454774294588
 31
0.0
  0
LINE
  5
209EA
  8
0
  6
BYBLOCK
 10
1025.7248295351
 20
-218.3454774294588
 30
0.0
 11
1025.1889311551
 21
-216.3454774294588
 31
0.0
  0
LINE
  5
209EB
  8
0
  6
BYBLOCK
 10
1025.7248295351
 20
-218.3454774294588
 30
0.0
 11
1025.7248295351
 21
-216.3454774294588
 31
0.0
  0
LINE
  5
209EC
  8
0
  6
BYBLOCK
 10
1025.1889311551
 20
-201.0454774294595
 30
0.0
 11
1025.7248295351
 21
-199.0454774294595
 31
0.0
  0
LINE
  5
209ED
  8
0
  6
BYBLOCK
 10
1025.7248295351
 20
-199.0454774294595
 30
0.0
 11
1026.2607279151
 21
-201.0454774294595
 31
0.0
  0
LINE
  5
209EE
  8
0
  6
BYBLOCK
 10
1025.7248295351
 20
-199.0454774294595
 30
0.0
 11
1025.7248295351
 21
-201.0454774294595
 31
0.0
  0
TEXT
  5
209EF
  8
1DIM
  6
CONTINUOUS
 10
1025.0248295351
 20
-213.3629542813109
 30
0.0
 40
3.5
  1
19.5
 50
90.0
1001
ACAD
1000
DSTYLE
1002
{
1070
    45
1040
0.5
1002
}
  0
LINE
  5
209F0
  8
0
  6
BYBLOCK
 10
1069.834904182891
 20
-253.72866102335
 30
0.0
 11
1071.834904182891
 21
-254.26455940335
 31
0.0
  0
LINE
  5
209F1
  8
0
  6
BYBLOCK
 10
1071.834904182891
 20
-254.26455940335
 30
0.0
 11
1069.834904182891
 21
-254.80045778335
 31
0.0
  0
LINE
  5
209F2
  8
0
  6
BYBLOCK
 10
1071.834904182891
 20
-254.26455940335
 30
0.0
 11
1069.834904182891
 21
-254.26455940335
 31
0.0
  0
LINE
  5
209F3
  8
0
  6
BYBLOCK
 10
1038.03490418289
 20
-254.80045778335
 30
0.0
 11
1036.03490418289
 21
-254.26455940335
 31
0.0
  0
LINE
  5
209F4
  8
0
  6
BYBLOCK
 10
1036.03490418289
 20
-254.26455940335
 30
0.0
 11
1038.03490418289
 21
-253.72866102335
 31
0.0
  0
LINE
  5
209F5
  8
0
  6
BYBLOCK
 10
1036.03490418289
 20
-254.26455940335
 30
0.0
 11
1038.03490418289
 21
-254.26455940335
 31
0.0
  0
TEXT
  5
209F6
  8
1DIM
  6
CONTINUOUS
 10
1051.018237516224
 20
-253.56455940335
 30
0.0
 40
3.5
  1
36
1001
ACAD
1000
DSTYLE
1002
{
1070
    45
1040
0.5
1002
}
  0
LINE
  5
209F7
  8
0
  6
BYBLOCK
 10
1069.834904182891
 20
-246.908677198301
 30
0.0
 11
1071.834904182891
 21
-247.444575578301
 31
0.0
  0
LINE
  5
209F8
  8
0
  6
BYBLOCK
 10
1071.834904182891
 20
-247.444575578301
 30
0.0
 11
1069.834904182891
 21
-247.980473958301
 31
0.0
  0
LINE
  5
209F9
  8
0
  6
BYBLOCK
 10
1071.834904182891
 20
-247.444575578301
 30
0.0
 11
1069.834904182891
 21
-247.444575578301
 31
0.0
  0
LINE
  5
209FA
  8
0
  6
BYBLOCK
 10
1054.834904182891
 20
-247.980473958301
 30
0.0
 11
1052.834904182891
 21
-247.444575578301
 31
0.0
  0
LINE
  5
209FB
  8
0
  6
BYBLOCK
 10
1052.834904182891
 20
-247.444575578301
 30
0.0
 11
1054.834904182891
 21
-246.908677198301
 31
0.0
  0
LINE
  5
209FC
  8
0
  6
BYBLOCK
 10
1052.834904182891
 20
-247.444575578301
 30
0.0
 11
1054.834904182891
 21
-247.444575578301
 31
0.0
  0
TEXT
  5
209FD
  8
1DIM
  6
CONTINUOUS
 10
1055.321941219928
 20
-246.744575578301
 30
0.0
 40
3.5
  1
15~19
  0
LINE
  5
209FE
  8
0
  6
BYBLOCK
 10
1038.03490418289
 20
-194.5861830641485
 30
0.0
 11
1036.03490418289
 21
-194.0502846841485
 31
0.0
  0
LINE
  5
209FF
  8
0
  6
BYBLOCK
 10
1036.03490418289
 20
-194.0502846841485
 30
0.0
 11
1038.03490418289
 21
-193.5143863041485
 31
0.0
  0
LINE
  5
20A00
  8
0
  6
BYBLOCK
 10
1036.03490418289
 20
-194.0502846841485
 30
0.0
 11
1038.03490418289
 21
-194.0502846841485
 31
0.0
  0
LINE
  5
20A01
  8
0
  6
BYBLOCK
 10
1088.334059836476
 20
-193.5143863041485
 30
0.0
 11
1090.334059836476
 21
-194.0502846841485
 31
0.0
  0
LINE
  5
20A02
  8
0
  6
BYBLOCK
 10
1090.334059836476
 20
-194.0502846841485
 30
0.0
 11
1088.334059836476
 21
-194.5861830641485
 31
0.0
  0
LINE
  5
20A03
  8
0
  6
BYBLOCK
 10
1090.334059836476
 20
-194.0502846841485
 30
0.0
 11
1088.334059836476
 21
-194.0502846841485
 31
0.0
  0
TEXT
  5
20A04
  8
1DIM
  6
CONTINUOUS
 10
1057.922329231905
 20
-193.3502846841486
 30
0.0
 40
3.5
  1
54.5
1001
ACAD
1000
DSTYLE
1002
{
1070
    45
1040
0.5
1002
}
  0
LINE
  5
20A05
  8
0
  6
BYBLOCK
 10
1038.03490418289
 20
-188.3564564889595
 30
0.0
 11
1036.03490418289
 21
-187.8205581089595
 31
0.0
  0
LINE
  5
20A06
  8
0
  6
BYBLOCK
 10
1036.03490418289
 20
-187.8205581089595
 30
0.0
 11
1038.03490418289
 21
-187.2846597289595
 31
0.0
  0
LINE
  5
20A07
  8
0
  6
BYBLOCK
 10
1036.03490418289
 20
-187.8205581089595
 30
0.0
 11
1038.03490418289
 21
-187.8205581089595
 31
0.0
  0
LINE
  5
20A08
  8
0
  6
BYBLOCK
 10
1094.332841490514
 20
-187.2846597289595
 30
0.0
 11
1096.332841490514
 21
-187.8205581089595
 31
0.0
  0
LINE
  5
20A09
  8
0
  6
BYBLOCK
 10
1096.332841490514
 20
-187.8205581089595
 30
0.0
 11
1094.332841490514
 21
-188.3564564889595
 31
0.0
  0
LINE
  5
20A0A
  8
0
  6
BYBLOCK
 10
1096.332841490514
 20
-187.8205581089595
 30
0.0
 11
1094.332841490514
 21
-187.8205581089595
 31
0.0
  0
TEXT
  5
20A0B
  8
1DIM
  6
CONTINUOUS
 10
1061.213386725591
 20
-187.1205581089595
 30
0.0
 40
3.5
  1
60.5
1001
ACAD
1000
DSTYLE
1002
{
1070
    45
1040
0.5
1002
}
  0
LINE
  5
20A0C
  8
0
 10
1054.834904182891
 20
-215.1454774294593
 30
0.0
 11
1054.834904182891
 21
-205.4954774294594
 31
0.0
  0
LINE
  5
20A0D
  8
0
 10
1054.834904182891
 20
-205.4954774294594
 30
0.0
 11
1054.484904182891
 21
-205.1454774294594
 31
0.0
  0
LINE
  5
20A0E
  8
0
 10
1054.484904182891
 20
-205.1454774294594
 30
0.0
 11
1051.184904182891
 21
-205.1454774294594
 31
0.0
  0
LINE
  5
20A0F
  8
0
 10
1051.184904182891
 20
-205.1454774294594
 30
0.0
 11
1050.834904182891
 21
-205.4954774294594
 31
0.0
  0
LINE
  5
20A10
  8
0
 10
1050.834904182891
 20
-205.4954774294594
 30
0.0
 11
1050.834904182891
 21
-215.1454774294594
 31
0.0
  0
LINE
  5
20A11
  8
0
 10
1050.834904182891
 20
-215.1454774294594
 30
0.0
 11
1049.334904182891
 21
-215.1454774294594
 31
0.0
  0
LINE
  5
20A12
  8
0
 10
1049.334904182891
 20
-215.1454774294594
 30
0.0
 11
1049.334904182891
 21
-215.7454774294594
 31
0.0
  0
ARC
  5
20A13
  8
0
 10
1051.334904182891
 20
-215.7454774294594
 30
0.0
 40
2.0
 50
180.0
 51
270.0
  0
LINE
  5
20A14
  8
0
 10
1051.334904182891
 20
-217.7454774294594
 30
0.0
 11
1054.334904182891
 21
-217.7454774294594
 31
0.0
  0
ARC
  5
20A15
  8
0
 10
1054.334904182891
 20
-215.7454774294594
 30
0.0
 40
2.0
 50
270.0
 51
0.0000000000016284
  0
LINE
  5
20A16
  8
0
 10
1056.334904182891
 20
-215.7454774294593
 30
0.0
 11
1056.334904182891
 21
-215.1454774294594
 31
0.0
  0
LINE
  5
20A17
  8
0
 10
1056.334904182891
 20
-215.1454774294594
 30
0.0
 11
1054.834904182891
 21
-215.1454774294593
 31
0.0
  0
VIEWPORT
  5
57
 67
     1
  8
0
 10
0.0
 20
0.0
 30
0.0
 40
554.3757649938801
 41
297.0000000000001
 68
     1
 69
     1
1001
ACAD
1000
MVIEW
1002
{
1070
    16
1010
0.0
1020
0.0
1030
0.0
1010
0.0
1020
0.0
1030
1.0
1040
0.0
1040
297.0000000000001
1040
-4.272048862584541
1040
18.33904653606844
1040
50.0
1040
0.0
1040
0.0
1070
     0
1070
   100
1070
     0
1070
     1
1070
     0
1070
     0
1070
     0
1070
     0
1040
0.0
1040
0.0
1040
0.0
1040
10.0
1040
10.0
1040
10.0
1040
10.0
1070
     0
1002
{
1002
}
1002
}
  0
ENDSEC
  0
EOF
