  0
SECTION
  2
HEADER
  9
$ACADVER
  1
AC1009
  9
$INSBASE
 10
0.0
 20
0.0
 30
0.0
  9
$EXTMIN
 10
1050.7399036450211
 20
-863.36509765417304
 30
0.0
  9
$EXTMAX
 10
2179.5720957593498
 20
-191.80983630952909
 30
0.0
  9
$LIMMIN
 10
0.0
 20
0.0
  9
$LIMMAX
 10
420.0
 20
297.0
  9
$ORTHOMODE
 70
     0
  9
$REGENMODE
 70
     1
  9
$FILLMODE
 70
     1
  9
$QTEXTMODE
 70
     0
  9
$MIRRTEXT
 70
     0
  9
$DRAGMODE
 70
     2
  9
$LTSCALE
 40
0.5
  9
$OSMODE
 70
    63
  9
$ATTMODE
 70
     1
  9
$TEXTSIZE
 40
4.0
  9
$TRACEWID
 40
1.0
  9
$TEXTSTYLE
  7
STANDARD
  9
$CLAYER
  8
1TEXT
  9
$CELTYPE
  6
BYLAYER
  9
$CECOLOR
 62
   256
  9
$DIMSCALE
 40
3.0
  9
$DIMASZ
 40
2.0
  9
$DIMEXO
 40
0.0
  9
$DIMDLI
 40
7.0
  9
$DIMRND
 40
0.0
  9
$DIMDLE
 40
0.0
  9
$DIMEXE
 40
1.0
  9
$DIMTP
 40
0.0
  9
$DIMTM
 40
0.0
  9
$DIMTXT
 40
3.5
  9
$DIMCEN
 40
0.0
  9
$DIMTSZ
 40
0.0
  9
$DIMTOL
 70
     0
  9
$DIMLIM
 70
     0
  9
$DIMTIH
 70
     0
  9
$DIMTOH
 70
     0
  9
$DIMSE1
 70
     0
  9
$DIMSE2
 70
     0
  9
$DIMTAD
 70
     1
  9
$DIMZIN
 70
     8
  9
$DIMBLK
  1

  9
$DIMASO
 70
     1
  9
$DIMSHO
 70
     1
  9
$DIMPOST
  1
 
  9
$DIMAPOST
  1

  9
$DIMALT
 70
     0
  9
$DIMALTD
 70
     2
  9
$DIMALTF
 40
25.399999999999999
  9
$DIMLFAC
 40
1.0
  9
$DIMTOFL
 70
     1
  9
$DIMTVP
 40
0.0
  9
$DIMTIX
 70
     0
  9
$DIMSOXD
 70
     0
  9
$DIMSAH
 70
     1
  9
$DIMBLK1
  1
OPEN30
  9
$DIMBLK2
  1
OPEN30
  9
$DIMSTYLE
  2
NEWX10
  9
$DIMCLRD
 70
   256
  9
$DIMCLRE
 70
   256
  9
$DIMCLRT
 70
   201
  9
$DIMTFAC
 40
0.7
  9
$DIMGAP
 40
0.7
  9
$LUNITS
 70
     2
  9
$LUPREC
 70
     4
  9
$SKETCHINC
 40
1.0
  9
$FILLETRAD
 40
0.0
  9
$AUNITS
 70
     0
  9
$AUPREC
 70
     2
  9
$MENU
  1
acad
  9
$ELEVATION
 40
0.0
  9
$PELEVATION
 40
0.0
  9
$THICKNESS
 40
0.0
  9
$LIMCHECK
 70
     0
  9
$BLIPMODE
 70
     0
  9
$CHAMFERA
 40
1.0
  9
$CHAMFERB
 40
1.0
  9
$SKPOLY
 70
     0
  9
$TDCREATE
 40
2453033.7326634838
  9
$TDUPDATE
 40
2456962.7818936231
  9
$TDINDWG
 40
2.6211951851999999
  9
$TDUSRTIMER
 40
2.6211951851999999
  9
$USRTIMER
 70
     1
  9
$ANGBASE
 50
0.0
  9
$ANGDIR
 70
     0
  9
$PDMODE
 70
     0
  9
$PDSIZE
 40
0.0
  9
$PLINEWID
 40
0.0
  9
$COORDS
 70
     0
  9
$SPLFRAME
 70
     0
  9
$SPLINETYPE
 70
     6
  9
$SPLINESEGS
 70
     8
  9
$ATTDIA
 70
     0
  9
$ATTREQ
 70
     1
  9
$HANDLING
 70
     1
  9
$HANDSEED
  5
22992
  9
$SURFTAB1
 70
     6
  9
$SURFTAB2
 70
     6
  9
$SURFTYPE
 70
     6
  9
$SURFU
 70
     6
  9
$SURFV
 70
     6
  9
$UCSNAME
  2

  9
$UCSORG
 10
0.0
 20
0.0
 30
0.0
  9
$UCSXDIR
 10
1.0
 20
0.0
 30
0.0
  9
$UCSYDIR
 10
0.0
 20
1.0
 30
0.0
  9
$PUCSNAME
  2

  9
$PUCSORG
 10
0.0
 20
0.0
 30
0.0
  9
$PUCSXDIR
 10
1.0
 20
0.0
 30
0.0
  9
$PUCSYDIR
 10
0.0
 20
1.0
 30
0.0
  9
$USERI1
 70
     0
  9
$USERI2
 70
     0
  9
$USERI3
 70
     0
  9
$USERI4
 70
     0
  9
$USERI5
 70
     0
  9
$USERR1
 40
0.0
  9
$USERR2
 40
0.0
  9
$USERR3
 40
0.0
  9
$USERR4
 40
0.0
  9
$USERR5
 40
0.0
  9
$WORLDVIEW
 70
     1
  9
$SHADEDGE
 70
     3
  9
$SHADEDIF
 70
    70
  9
$TILEMODE
 70
     1
  9
$MAXACTVP
 70
    48
  9
$PLIMCHECK
 70
     0
  9
$PEXTMIN
 10
1.0000000000000000E+020
 20
1.0000000000000000E+020
 30
1.0000000000000000E+020
  9
$PEXTMAX
 10
-1.0000000000000000E+020
 20
-1.0000000000000000E+020
 30
-1.0000000000000000E+020
  9
$PLIMMIN
 10
0.0
 20
0.0
  9
$PLIMMAX
 10
420.0
 20
297.0
  9
$UNITMODE
 70
     0
  9
$VISRETAIN
 70
     1
  9
$PLINEGEN
 70
     0
  9
$PSLTSCALE
 70
     1
  0
ENDSEC
  0
SECTION
  2
TABLES
  0
TABLE
  2
VPORT
 70
     1
  0
VPORT
  2
*ACTIVE
 70
     0
 10
0.0
 20
0.0
 11
1.0
 21
1.0
 12
1615.1734770089861
 22
-527.56638522172545
 13
0.0
 23
0.0
 14
10.0
 24
10.0
 15
10.0
 25
10.0
 16
0.0
 26
0.0
 36
1.0
 17
0.0
 27
0.0
 37
0.0
 40
712.23064641387793
 41
2.1771217712177111
 42
50.0
 43
0.0
 44
0.0
 50
0.0
 51
0.0
 71
     0
 72
   100
 73
     1
 74
     1
 75
     0
 76
     0
 77
     0
 78
     0
  0
ENDTAB
  0
TABLE
  2
LTYPE
 70
    18
  0
LTYPE
  2
CONTINUOUS
 70
     0
  3
Solid line
 72
    65
 73
     0
 40
0.0
  0
LTYPE
  2
CENTER2
 70
     0
  3
Center (.5x) ___ _ ___ _ ___ _ ___ _ ___ _ ___
 72
    65
 73
     4
 40
28.574999999999999
 49
19.050000000000001
 49
-3.1749999999999989
 49
3.1749999999999989
 49
-3.1749999999999989
  0
LTYPE
  2
PHANTOM2
 70
     0
  3
Phantom (.5x) ___ _ _ ___ _ _ ___ _ _ ___ _ _
 72
    65
 73
     6
 40
31.75
 49
15.875
 49
-3.1749999999999989
 49
3.1749999999999989
 49
-3.1749999999999989
 49
3.1749999999999989
 49
-3.1749999999999989
  0
ENDTAB
  0
TABLE
  2
LAYER
 70
    44
  0
LAYER
  2
0
 70
     0
 62
     7
  6
CONTINUOUS
  0
LAYER
  2
1CENTER
 70
     0
 62
     7
  6
CENTER2
  0
LAYER
  2
1TEXT
 70
     0
 62
     7
  6
CONTINUOUS
  0
LAYER
  2
1DIM
 70
     0
 62
     7
  6
CONTINUOUS
  0
LAYER
  2
1PHANTOM
 70
     0
 62
     7
  6
PHANTOM2
  0
LAYER
  2
01
 70
     0
 62
     1
  6
CONTINUOUS
  0
LAYER
  2
1HATCH
 70
     0
 62
     7
  6
CONTINUOUS
  0
ENDTAB
  0
TABLE
  2
STYLE
 70
    24
  0
STYLE
  2
STANDARD
 70
     0
 40
0.0
 41
1.0
 50
0.0
 71
     0
 42
4.0
  3
txt.shx
  4
extfont.shx
  0
ENDTAB
  0
TABLE
  2
VIEW
 70
     5
  0
ENDTAB
  0
TABLE
  2
UCS
 70
     0
  0
ENDTAB
  0
TABLE
  2
APPID
 70
    16
  0
APPID
  2
ACAD
 70
     0
  0
APPID
  2
DRAWINGVARIABLESXDATA
 70
     0
  0
APPID
  2
CONTENTTABDATA
 70
     0
  0
APPID
  2
CONTENTCURRENTTAB
 70
     0
  0
APPID
  2
CONTENTBLOCKDESCRIPTION
 70
     0
  0
APPID
  2
CONTENTBLOCKICON
 70
     0
  0
APPID
  2
CONTENTLONGBLOCKNAME
 70
     0
  0
APPID
  2
ACAD_PSEXT
 70
     0
  0
APPID
  2
ACAD_DSTYLE_DIMTEXT_FILL
 70
     0
  0
APPID
  2
ACAD_MLEADERVER
 70
     0
  0
APPID
  2
ACAD_DSTYLE_DIMRADIAL_EXTENSION
 70
     0
  0
APPID
  2
ACADANNOTATIVE
 70
     0
  0
APPID
  2
ACAD_EXEMPT_FROM_CAD_STANDARDS
 70
     0
  0
APPID
  2
ACLAYERTOOLS
 70
     0
  0
APPID
  2
GENIUS_GENODEF_13
 70
     0
  0
APPID
  2
GENIUS_GENOBJ-N-FIL_13
 70
     0
  0
ENDTAB
  0
TABLE
  2
DIMSTYLE
 70
    10
  0
DIMSTYLE
  2
NEWX10
 70
     0
  3
 
  4

  5

  6
OPEN30
  7
OPEN30
 40
1.0
 41
2.0
 42
0.0
 43
7.0
 44
1.0
 45
0.0
 46
0.0
 47
0.0
 48
0.0
140
3.5
141
0.0
142
0.0
143
25.399999999999999
144
1.0
145
0.0
146
0.7
147
0.7
 71
     0
 72
     0
 73
     0
 74
     0
 75
     0
 76
     0
 77
     1
 78
     8
170
     0
171
     2
172
     1
173
     1
174
     0
175
     0
176
   256
177
   256
178
   201
  0
ENDTAB
  0
ENDSEC
  0
SECTION
  2
BLOCKS
  0
BLOCK
  8
0
  2
$MODEL_SPACE
 70
     0
 10
0.0
 20
0.0
 30
0.0
  3
$MODEL_SPACE
  1

  0
ENDBLK
  5
1A
  8
0
  0
BLOCK
 67
     1
  8
0
  2
$PAPER_SPACE
 70
     0
 10
0.0
 20
0.0
 30
0.0
  3
$PAPER_SPACE
  1

  0
ENDBLK
  5
17
 67
     1
  8
0
  0
BLOCK
  8
0
  2
_OPEN30
 70
     0
 10
0.0
 20
0.0
 30
0.0
  3
_OPEN30
  1

  0
LINE
  5
44
  8
0
  6
BYBLOCK
 62
     0
 10
-1.0
 20
0.26794919
 30
0.0
 11
0.0
 21
0.0
 31
0.0
  0
LINE
  5
45
  8
0
  6
BYBLOCK
 62
     0
 10
0.0
 20
0.0
 30
0.0
 11
-1.0
 21
-0.26794919
 31
0.0
  0
LINE
  5
46
  8
0
  6
BYBLOCK
 62
     0
 10
0.0
 20
0.0
 30
0.0
 11
-1.0
 21
0.0
 31
0.0
  0
ENDBLK
  5
47
  8
0
  0
BLOCK
  8
0
  2
*U38
 70
     1
 10
0.0
 20
0.0
 30
0.0
  3
*U38
  1

  0
TEXT
  5
2298B
  8
1DIM
 62
   201
 10
1512.6149036450211
 20
-429.70080018050101
 30
0.0
 40
10.5
  1
950
  0
ENDBLK
  5
2298D
  8
0
  0
BLOCK
  8
0
  2
*U39
 70
     1
 10
0.0
 20
0.0
 30
0.0
  3
*U39
  1

  0
TEXT
  5
2298F
  8
1DIM
 62
   201
 10
2090.9596360959449
 20
-311.87032922464482
 30
0.0
 40
10.5
  1
112
 50
90.0
  0
ENDBLK
  5
22991
  8
0
  0
ENDSEC
  0
SECTION
  2
ENTITIES
  0
LINE
  5
2007B
  8
01
 10
1955.739903645022
 20
-755.36173421639705
 30
0.0
 11
1955.739903645022
 21
-455.361734216397
 31
0.0
  0
LINE
  5
2007F
  8
01
 10
2000.739903645022
 20
-755.36173421639705
 30
0.0
 11
2000.739903645022
 21
-455.861734216397
 31
0.0
  0
LINE
  5
20080
  8
01
 10
1999.7399036450211
 20
-454.86173421639711
 30
0.0
 11
1956.2399036450211
 21
-454.86173421639711
 31
0.0
  0
ARC
  5
20081
  8
01
 10
1956.2399036450211
 20
-455.361734216397
 30
0.0
 40
0.5
 50
90.0
 51
180.0
  0
ARC
  5
20082
  8
01
 10
1999.7399036450211
 20
-455.861734216397
 30
0.0
 40
1.0
 50
0.0
 51
90.0
  0
LINE
  5
20096
  8
01
 10
1998.2399036450211
 20
-323.23883800096428
 30
0.0
 11
1999.2399036450211
 21
-323.23883800096428
 31
0.0
  0
ARC
  5
20097
  8
01
 10
1999.2399036450211
 20
-321.73883800096428
 30
0.0
 40
1.5
 50
270.0
 51
0.0
  0
LINE
  5
20098
  8
01
 10
1998.2399036450199
 20
-295.23883800096428
 30
0.0
 11
1999.2399036450211
 21
-295.23883800096428
 31
0.0
  0
LINE
  5
20099
  8
01
 10
1956.2399036450211
 20
-300.98883800096428
 30
0.0
 11
1957.106735763128
 21
-300.98883800096428
 31
0.0
  0
ARC
  5
2009A
  8
01
 10
1956.2399036450211
 20
-301.48883800096428
 30
0.0
 40
0.5
 50
90.0
 51
180.0
  0
LINE
  5
2009B
  8
01
 10
1956.2399036450211
 20
-317.48883800096428
 30
0.0
 11
1957.106735763128
 21
-317.48883800096428
 31
0.0
  0
LINE
  5
2009C
  8
01
 10
2000.739903645022
 20
-321.73883800096428
 30
0.0
 11
2000.739903645022
 21
-296.73883800096428
 31
0.0
  0
ARC
  5
2009D
  8
01
 10
1999.2399036450211
 20
-296.73883800096428
 30
0.0
 40
1.5
 50
0.0
 51
90.0
  0
LINE
  5
2009E
  8
01
 10
1955.739903645022
 20
-316.98883800096428
 30
0.0
 11
1955.739903645022
 21
-301.48883800096428
 31
0.0
  0
ARC
  5
2009F
  8
01
 10
1956.2399036450211
 20
-316.98883800096428
 30
0.0
 40
0.5
 50
180.0
 51
270.0
  0
ARC
  5
200A0
  8
01
 10
1957.106735763128
 20
-467.48883800096422
 30
0.0
 40
150.0
 50
74.084396659944915
 51
90.0
  0
ARC
  5
200A1
  8
01
 10
1957.106735763128
 20
-150.98883800096419
 30
0.0
 40
150.0
 50
270.0
 51
285.91560334005499
  0
LINE
  5
200AA
  8
1CENTER
 10
1964.794439510732
 20
-687.36173421639705
 30
0.0
 11
1952.583802521646
 21
-687.36173421639705
 31
0.0
  0
LINE
  5
200AE
  8
01
 10
2168.0307945312702
 20
-454.86173421639609
 30
0.0
 11
2142.0307945312711
 21
-454.86173421639711
 31
0.0
  0
LINE
  5
200AF
  8
01
 10
2141.0307945312711
 20
-455.861734216397
 30
0.0
 11
2141.0307945312711
 21
-755.36173421639705
 31
0.0
  0
ARC
  5
200B0
  8
01
 10
2142.0307945312711
 20
-455.861734216397
 30
0.0
 40
1.0
 50
90.0
 51
180.0
  0
LINE
  5
200B1
  8
01
 10
2169.0307945312711
 20
-455.86173421639609
 30
0.0
 11
2169.0307945312711
 21
-755.36173421639705
 31
0.0
  0
ARC
  5
200B2
  8
01
 10
2168.0307945312702
 20
-455.86173421639609
 30
0.0
 40
1.0
 50
0.0
 51
90.0
  0
LINE
  5
200B3
  8
01
 10
2169.0307945312711
 20
-755.36173421639705
 30
0.0
 11
2141.0307945312711
 21
-755.36173421639705
 31
0.0
  0
LINE
  5
200B4
  8
01
 10
1955.739903645022
 20
-755.36173421639523
 30
0.0
 11
2000.739903645022
 21
-755.36173421639614
 31
0.0
  0
LINE
  5
200B5
  8
1PHANTOM
 10
1963.4899036450261
 20
-740.36173421639614
 30
0.0
 11
1997.2399036450081
 21
-740.36173421639614
 31
0.0
  0
LINE
  5
200B8
  8
1PHANTOM
 10
1958.7399036450211
 20
-677.36173421639614
 30
0.0
 11
1998.739903645022
 21
-677.36173421639614
 31
0.0
  0
LINE
  5
200B9
  8
1PHANTOM
 10
1998.739903645022
 20
-755.36173421639614
 30
0.0
 11
1998.739903645022
 21
-677.36173421639614
 31
0.0
  0
LINE
  5
200BA
  8
1PHANTOM
 10
1997.2399036450081
 20
-740.36173421639614
 30
0.0
 11
1997.2399036450081
 21
-677.36173421639614
 31
0.0
  0
LINE
  5
200BB
  8
1PHANTOM
 10
1963.4899036450261
 20
-740.36173421639614
 30
0.0
 11
1963.4899036450261
 21
-677.36173421639614
 31
0.0
  0
LINE
  5
200C6
  8
01
 10
1050.7399036450211
 20
-755.36173421639705
 30
0.0
 11
1095.7399036450211
 21
-755.36173421639705
 31
0.0
  0
LINE
  5
200C8
  8
01
 10
1095.7399036450211
 20
-755.36173421639705
 30
0.0
 11
1095.7399036450211
 21
-455.361734216397
 31
0.0
  0
LINE
  5
200CC
  8
01
 10
1050.7399036450211
 20
-755.36173421639705
 30
0.0
 11
1050.7399036450211
 21
-455.861734216397
 31
0.0
  0
LINE
  5
200CD
  8
01
 10
1051.7399036450211
 20
-454.86173421639711
 30
0.0
 11
1095.2399036450211
 21
-454.86173421639711
 31
0.0
  0
ARC
  5
200CE
  8
01
 10
1095.2399036450211
 20
-455.361734216397
 30
0.0
 40
0.5
 50
0.0
 51
90.0
  0
ARC
  5
200CF
  8
01
 10
1051.7399036450211
 20
-455.861734216397
 30
0.0
 40
1.0
 50
90.0
 51
180.0
  0
LINE
  5
200E3
  8
01
 10
1053.2399036450211
 20
-323.23883800096428
 30
0.0
 11
1052.2399036450211
 21
-323.23883800096428
 31
0.0
  0
ARC
  5
200E4
  8
01
 10
1052.2399036450211
 20
-321.73883800096428
 30
0.0
 40
1.5
 50
180.0
 51
270.0
  0
LINE
  5
200E5
  8
01
 10
1053.2399036450231
 20
-295.23883800096428
 30
0.0
 11
1052.2399036450211
 21
-295.23883800096428
 31
0.0
  0
LINE
  5
200E6
  8
01
 10
1095.2399036450211
 20
-300.98883800096428
 30
0.0
 11
1094.3730715269151
 21
-300.98883800096428
 31
0.0
  0
ARC
  5
200E7
  8
01
 10
1095.2399036450211
 20
-301.48883800096428
 30
0.0
 40
0.5
 50
0.0
 51
90.0
  0
LINE
  5
200E8
  8
01
 10
1095.2399036450211
 20
-317.48883800096428
 30
0.0
 11
1094.3730715269151
 21
-317.48883800096428
 31
0.0
  0
LINE
  5
200E9
  8
01
 10
1050.7399036450211
 20
-321.73883800096428
 30
0.0
 11
1050.7399036450211
 21
-296.73883800096428
 31
0.0
  0
ARC
  5
200EA
  8
01
 10
1052.2399036450211
 20
-296.73883800096428
 30
0.0
 40
1.5
 50
90.0
 51
180.0
  0
LINE
  5
200EB
  8
01
 10
1095.7399036450211
 20
-316.98883800096428
 30
0.0
 11
1095.7399036450211
 21
-301.48883800096428
 31
0.0
  0
ARC
  5
200EC
  8
01
 10
1095.2399036450211
 20
-316.98883800096428
 30
0.0
 40
0.5
 50
270.0
 51
0.0
  0
ARC
  5
200ED
  8
01
 10
1094.3730715269151
 20
-467.48883800096422
 30
0.0
 40
150.0
 50
90.0
 51
105.915603340055
  0
ARC
  5
200EE
  8
01
 10
1094.3730715269151
 20
-150.98883800096419
 30
0.0
 40
150.0
 50
254.08439665994501
 51
270.0
  0
LINE
  5
200F7
  8
1CENTER
 10
1086.660297493579
 20
-687.36173421639705
 30
0.0
 11
1098.896004768397
 21
-687.36173421639705
 31
0.0
  0
LINE
  5
200F8
  8
1PHANTOM
 10
1092.7399036450211
 20
-677.36173421639614
 30
0.0
 11
1092.7399036450211
 21
-755.36173421639705
 31
0.0
  0
LINE
  5
200FA
  8
01
 10
1955.739903645022
 20
-755.36173421639705
 30
0.0
 11
1095.7399036450211
 21
-755.36173421639705
 31
0.0
  0
LINE
  5
200FE
  8
01
 10
1095.7399036450211
 20
-455.36173421639609
 30
0.0
 11
1955.739903645022
 21
-455.361734216397
 31
0.0
  0
LINE
  5
20106
  8
1PHANTOM
 10
1087.989903645017
 20
-740.36173421639614
 30
0.0
 11
1054.2399036450349
 21
-740.36173421639614
 31
0.0
  0
LINE
  5
20109
  8
1PHANTOM
 10
1092.7399036450211
 20
-677.36173421639614
 30
0.0
 11
1052.7399036450211
 21
-677.36173421639614
 31
0.0
  0
LINE
  5
2010A
  8
1PHANTOM
 10
1052.7399036450211
 20
-755.36173421639614
 30
0.0
 11
1052.7399036450211
 21
-677.36173421639614
 31
0.0
  0
LINE
  5
2010B
  8
1PHANTOM
 10
1054.2399036450349
 20
-740.36173421639614
 30
0.0
 11
1054.2399036450349
 21
-677.36173421639614
 31
0.0
  0
LINE
  5
2011B
  8
01
 10
1095.7399036450211
 20
-301.48883800096428
 30
0.0
 11
1955.739903645022
 21
-301.48883800096331
 31
0.0
  0
LINE
  5
2011C
  8
01
 10
1095.7399036450211
 20
-316.98883800096428
 30
0.0
 11
1955.739903645022
 21
-316.98883800096428
 31
0.0
  0
LINE
  5
202A2
  8
1PHANTOM
 10
1958.7399036450211
 20
-677.36173421639614
 30
0.0
 11
1958.739903645022
 21
-755.36173421639535
 31
0.0
  0
LINE
  5
202A3
  8
1PHANTOM
 10
1087.989903645017
 20
-740.36173421639614
 30
0.0
 11
1087.989903645017
 21
-677.36173421639614
 31
0.0
  0
LINE
  5
2045A
  8
1PHANTOM
 10
1061.9899036450211
 20
-765.179599802442
 30
0.0
 11
1056.9899036450211
 21
-766.179599802442
 31
0.0
  0
LINE
  5
2045B
  8
1CENTER
 10
1059.4899036450211
 20
-800.25942484082998
 30
0.0
 11
1059.4899036450211
 21
-734.07878146625012
 31
0.0
  0
LINE
  5
2045D
  8
1PHANTOM
 10
1061.8061705860571
 20
-793.21634641423475
 30
0.0
 11
1061.0561705860571
 21
-793.06634641423489
 31
0.0
  0
LINE
  5
2045E
  8
1PHANTOM
 10
1061.8061705860571
 20
-793.21634641423475
 30
0.0
 11
1057.409266104966
 21
-794.09572731045296
 31
0.0
  0
LINE
  5
2045F
  8
1PHANTOM
 10
1060.673684045538
 20
-797.44284372233858
 30
0.0
 11
1059.9236840455389
 21
-797.29284372233849
 31
0.0
  0
LINE
  5
20460
  8
1PHANTOM
 10
1059.176546958078
 20
-798.04227113983075
 30
0.0
 11
1058.426546958078
 21
-797.89227113983077
 31
0.0
  0
LINE
  5
20461
  8
1PHANTOM
 10
1060.673684045538
 20
-797.44284372233858
 30
0.0
 11
1058.426546958078
 21
-797.89227113983077
 31
0.0
  0
LINE
  5
20462
  8
1PHANTOM
 10
1061.239927315798
 20
-795.32959506828672
 30
0.0
 11
1060.489927315798
 21
-795.17959506828674
 31
0.0
  0
LINE
  5
20463
  8
1PHANTOM
 10
1058.667906531522
 20
-796.1439992251419
 30
0.0
 11
1057.917906531522
 21
-795.99399922514192
 31
0.0
  0
LINE
  5
20464
  8
1PHANTOM
 10
1058.1592661049669
 20
-794.24572731045305
 30
0.0
 11
1057.409266104966
 21
-794.09572731045296
 31
0.0
  0
LINE
  5
20465
  8
1PHANTOM
 10
1061.239927315798
 20
-795.32959506828672
 30
0.0
 11
1057.917906531522
 21
-795.99399922514192
 31
0.0
  0
LINE
  5
20466
  8
1PHANTOM
 10
1061.9899036450211
 20
-769.179599802442
 30
0.0
 11
1061.2399036450211
 21
-769.02959980244202
 31
0.0
  0
LINE
  5
20467
  8
1PHANTOM
 10
1061.9899036450211
 20
-767.17959980244189
 30
0.0
 11
1061.2399036450211
 21
-767.02959980244202
 31
0.0
  0
LINE
  5
20468
  8
1PHANTOM
 10
1061.9899036450211
 20
-773.179599802442
 30
0.0
 11
1061.2399036450211
 21
-773.02959980244202
 31
0.0
  0
LINE
  5
20469
  8
1PHANTOM
 10
1061.9899036450211
 20
-771.17959980244189
 30
0.0
 11
1061.2399036450211
 21
-771.02959980244202
 31
0.0
  0
LINE
  5
2046A
  8
1PHANTOM
 10
1061.9899036450211
 20
-775.17959980244189
 30
0.0
 11
1061.2399036450211
 21
-775.02959980244202
 31
0.0
  0
LINE
  5
2046B
  8
1PHANTOM
 10
1061.9899036450211
 20
-777.179599802442
 30
0.0
 11
1061.2399036450211
 21
-777.02959980244202
 31
0.0
  0
LINE
  5
2046C
  8
1PHANTOM
 10
1061.9899036450211
 20
-767.17959980244189
 30
0.0
 11
1056.9899036450211
 21
-768.179599802442
 31
0.0
  0
LINE
  5
2046D
  8
1PHANTOM
 10
1061.9899036450211
 20
-769.179599802442
 30
0.0
 11
1056.9899036450211
 21
-770.179599802442
 31
0.0
  0
LINE
  5
2046E
  8
1PHANTOM
 10
1061.9899036450211
 20
-771.17959980244189
 30
0.0
 11
1056.9899036450211
 21
-772.17959980244189
 31
0.0
  0
LINE
  5
2046F
  8
1PHANTOM
 10
1061.9899036450211
 20
-773.179599802442
 30
0.0
 11
1056.9899036450211
 21
-774.179599802442
 31
0.0
  0
LINE
  5
20470
  8
1PHANTOM
 10
1061.9899036450211
 20
-775.17959980244189
 30
0.0
 11
1056.9899036450211
 21
-776.17959980244189
 31
0.0
  0
LINE
  5
20471
  8
1PHANTOM
 10
1061.9899036450211
 20
-791.179599802442
 30
0.0
 11
1061.2399036450211
 21
-791.02959980244202
 31
0.0
  0
LINE
  5
20472
  8
1PHANTOM
 10
1061.9899036450211
 20
-779.179599802442
 30
0.0
 11
1061.2399036450211
 21
-779.02959980244191
 31
0.0
  0
LINE
  5
20473
  8
1PHANTOM
 10
1061.9899036450211
 20
-779.179599802442
 30
0.0
 11
1056.9899036450211
 21
-780.17959980244189
 31
0.0
  0
LINE
  5
20474
  8
1PHANTOM
 10
1061.9899036450211
 20
-791.179599802442
 30
0.0
 11
1056.9899036450211
 21
-792.17959980244189
 31
0.0
  0
LINE
  5
20475
  8
1PHANTOM
 10
1061.9899036450211
 20
-777.179599802442
 30
0.0
 11
1056.9899036450211
 21
-778.179599802442
 31
0.0
  0
LINE
  5
20476
  8
1PHANTOM
 10
1057.7399036450211
 20
-774.32959980244209
 30
0.0
 11
1056.9899036450211
 21
-774.179599802442
 31
0.0
  0
LINE
  5
20477
  8
1PHANTOM
 10
1057.7399036450211
 20
-780.32959980244198
 30
0.0
 11
1056.9899036450211
 21
-780.17959980244189
 31
0.0
  0
LINE
  5
20478
  8
1PHANTOM
 10
1057.7399036450211
 20
-792.32959980244198
 30
0.0
 11
1056.9899036450211
 21
-792.17959980244189
 31
0.0
  0
LINE
  5
20479
  8
1PHANTOM
 10
1057.7399036450211
 20
-776.32959980244198
 30
0.0
 11
1056.9899036450211
 21
-776.17959980244189
 31
0.0
  0
LINE
  5
2047A
  8
1PHANTOM
 10
1057.7399036450211
 20
-778.32959980244209
 30
0.0
 11
1056.9899036450211
 21
-778.179599802442
 31
0.0
  0
LINE
  5
2047B
  8
1PHANTOM
 10
1057.7399036450211
 20
-770.32959980244209
 30
0.0
 11
1056.9899036450211
 21
-770.179599802442
 31
0.0
  0
LINE
  5
2047C
  8
1PHANTOM
 10
1057.7399036450211
 20
-772.32959980244198
 30
0.0
 11
1056.9899036450211
 21
-772.17959980244189
 31
0.0
  0
LINE
  5
2047D
  8
1PHANTOM
 10
1057.7399036450211
 20
-768.32959980244198
 30
0.0
 11
1056.9899036450211
 21
-768.179599802442
 31
0.0
  0
LINE
  5
2047E
  8
1PHANTOM
 10
1057.7399036450211
 20
-766.32959980244209
 30
0.0
 11
1056.9899036450211
 21
-766.179599802442
 31
0.0
  0
LINE
  5
2047F
  8
1PHANTOM
 10
1061.9899036450211
 20
-749.179599802442
 30
0.0
 11
1056.9899036450211
 21
-750.17959980244189
 31
0.0
  0
LINE
  5
20480
  8
1PHANTOM
 10
1061.9899036450211
 20
-761.179599802442
 30
0.0
 11
1061.2399036450211
 21
-761.02959980244202
 31
0.0
  0
LINE
  5
20481
  8
1PHANTOM
 10
1061.9899036450211
 20
-763.17959980244189
 30
0.0
 11
1061.2399036450211
 21
-763.02959980244202
 31
0.0
  0
LINE
  5
20482
  8
1PHANTOM
 10
1061.9899036450211
 20
-765.179599802442
 30
0.0
 11
1061.2399036450211
 21
-765.02959980244202
 31
0.0
  0
LINE
  5
20483
  8
1PHANTOM
 10
1061.9899036450211
 20
-759.17959980244189
 30
0.0
 11
1061.2399036450211
 21
-759.02959980244202
 31
0.0
  0
LINE
  5
20484
  8
1PHANTOM
 10
1061.9899036450211
 20
-757.179599802442
 30
0.0
 11
1061.2399036450211
 21
-757.02959980244202
 31
0.0
  0
LINE
  5
20485
  8
1PHANTOM
 10
1061.9899036450211
 20
-753.179599802442
 30
0.0
 11
1061.2399036450211
 21
-753.02959980244202
 31
0.0
  0
LINE
  5
20486
  8
1PHANTOM
 10
1061.9899036450211
 20
-755.17959980244189
 30
0.0
 11
1061.2399036450211
 21
-755.02959980244202
 31
0.0
  0
LINE
  5
20487
  8
1PHANTOM
 10
1061.9899036450211
 20
-751.17959980244189
 30
0.0
 11
1061.2399036450211
 21
-751.02959980244202
 31
0.0
  0
LINE
  5
20488
  8
1PHANTOM
 10
1061.9899036450211
 20
-761.179599802442
 30
0.0
 11
1056.9899036450211
 21
-762.179599802442
 31
0.0
  0
LINE
  5
20489
  8
1PHANTOM
 10
1061.9899036450211
 20
-763.17959980244189
 30
0.0
 11
1056.9899036450211
 21
-764.179599802442
 31
0.0
  0
LINE
  5
2048A
  8
1PHANTOM
 10
1061.9899036450211
 20
-759.17959980244189
 30
0.0
 11
1056.9899036450211
 21
-760.179599802442
 31
0.0
  0
LINE
  5
2048B
  8
1PHANTOM
 10
1061.9899036450211
 20
-757.179599802442
 30
0.0
 11
1056.9899036450211
 21
-758.179599802442
 31
0.0
  0
LINE
  5
2048C
  8
1PHANTOM
 10
1061.9899036450211
 20
-755.17959980244189
 30
0.0
 11
1056.9899036450211
 21
-756.179599802442
 31
0.0
  0
LINE
  5
2048D
  8
1PHANTOM
 10
1061.9899036450211
 20
-753.179599802442
 30
0.0
 11
1056.9899036450211
 21
-754.179599802442
 31
0.0
  0
LINE
  5
2048E
  8
1PHANTOM
 10
1061.9899036450211
 20
-751.17959980244189
 30
0.0
 11
1056.9899036450211
 21
-752.179599802442
 31
0.0
  0
LINE
  5
2048F
  8
1PHANTOM
 10
1057.7399036450211
 20
-762.32959980244209
 30
0.0
 11
1056.9899036450211
 21
-762.179599802442
 31
0.0
  0
LINE
  5
20490
  8
1PHANTOM
 10
1057.7399036450211
 20
-764.32959980244198
 30
0.0
 11
1056.9899036450211
 21
-764.179599802442
 31
0.0
  0
LINE
  5
20491
  8
1PHANTOM
 10
1057.7399036450211
 20
-760.32959980244209
 30
0.0
 11
1056.9899036450211
 21
-760.179599802442
 31
0.0
  0
LINE
  5
20492
  8
1PHANTOM
 10
1057.7399036450211
 20
-758.32959980244209
 30
0.0
 11
1056.9899036450211
 21
-758.179599802442
 31
0.0
  0
LINE
  5
20493
  8
1PHANTOM
 10
1057.7399036450211
 20
-756.32959980244209
 30
0.0
 11
1056.9899036450211
 21
-756.179599802442
 31
0.0
  0
LINE
  5
20494
  8
1PHANTOM
 10
1057.7399036450211
 20
-754.32959980244198
 30
0.0
 11
1056.9899036450211
 21
-754.179599802442
 31
0.0
  0
LINE
  5
20495
  8
1PHANTOM
 10
1057.7399036450211
 20
-752.32959980244209
 30
0.0
 11
1056.9899036450211
 21
-752.179599802442
 31
0.0
  0
LINE
  5
20496
  8
1PHANTOM
 10
1057.7399036450211
 20
-750.32959980244198
 30
0.0
 11
1056.9899036450211
 21
-750.17959980244189
 31
0.0
  0
LINE
  5
20497
  8
1PHANTOM
 10
1061.9899036450211
 20
-747.17959980244189
 30
0.0
 11
1061.2399036450211
 21
-747.02959980244202
 31
0.0
  0
LINE
  5
20498
  8
1PHANTOM
 10
1061.9899036450211
 20
-745.179599802442
 30
0.0
 11
1061.2399036450211
 21
-745.02959980244202
 31
0.0
  0
LINE
  5
20499
  8
1PHANTOM
 10
1061.9899036450211
 20
-749.179599802442
 30
0.0
 11
1061.2399036450211
 21
-749.02959980244202
 31
0.0
  0
LINE
  5
2049A
  8
1PHANTOM
 10
1061.9899036450211
 20
-743.17959980244189
 30
0.0
 11
1061.2399036450211
 21
-743.02959980244202
 31
0.0
  0
LINE
  5
2049B
  8
1PHANTOM
 10
1061.9899036450211
 20
-741.179599802442
 30
0.0
 11
1061.2399036450211
 21
-741.02959980244202
 31
0.0
  0
LINE
  5
2049C
  8
1PHANTOM
 10
1061.9899036450211
 20
-739.179599802442
 30
0.0
 11
1061.2399036450211
 21
-739.02959980244202
 31
0.0
  0
LINE
  5
2049D
  8
1PHANTOM
 10
1061.9899036450211
 20
-745.179599802442
 30
0.0
 11
1056.9899036450211
 21
-746.17959980244189
 31
0.0
  0
LINE
  5
2049E
  8
1PHANTOM
 10
1061.9899036450211
 20
-747.17959980244189
 30
0.0
 11
1056.9899036450211
 21
-748.179599802442
 31
0.0
  0
LINE
  5
2049F
  8
1PHANTOM
 10
1061.9899036450211
 20
-743.17959980244189
 30
0.0
 11
1056.9899036450211
 21
-744.179599802442
 31
0.0
  0
LINE
  5
204A0
  8
1PHANTOM
 10
1061.9899036450211
 20
-739.179599802442
 30
0.0
 11
1056.9899036450211
 21
-740.179599802442
 31
0.0
  0
LINE
  5
204A1
  8
1PHANTOM
 10
1061.9899036450211
 20
-741.179599802442
 30
0.0
 11
1056.9899036450211
 21
-742.17959980244189
 31
0.0
  0
LINE
  5
204A2
  8
1PHANTOM
 10
1057.7399036450211
 20
-746.32959980244198
 30
0.0
 11
1056.9899036450211
 21
-746.17959980244189
 31
0.0
  0
LINE
  5
204A3
  8
1PHANTOM
 10
1057.7399036450211
 20
-748.32959980244209
 30
0.0
 11
1056.9899036450211
 21
-748.179599802442
 31
0.0
  0
LINE
  5
204A4
  8
1PHANTOM
 10
1057.7399036450211
 20
-744.32959980244209
 30
0.0
 11
1056.9899036450211
 21
-744.179599802442
 31
0.0
  0
LINE
  5
204A5
  8
1PHANTOM
 10
1057.7399036450211
 20
-742.32959980244198
 30
0.0
 11
1056.9899036450211
 21
-742.17959980244189
 31
0.0
  0
LINE
  5
204A6
  8
1PHANTOM
 10
1057.7399036450211
 20
-740.32959980244209
 30
0.0
 11
1056.9899036450211
 21
-740.179599802442
 31
0.0
  0
LINE
  5
204A7
  8
1PHANTOM
 10
1054.9899036450211
 20
-739.06173421639608
 30
0.0
 11
1063.9899036450211
 21
-739.06173421639608
 31
0.0
  0
LINE
  5
204A8
  8
1PHANTOM
 10
1061.2399036450211
 20
-792.53064530315078
 30
0.0
 11
1061.2399036450211
 21
-739.06173421639608
 31
0.0
  0
LINE
  5
204AA
  8
1PHANTOM
 10
1059.4899036450211
 20
-799.06173421639619
 30
0.0
 11
1061.2399036450211
 21
-792.53064530315078
 31
0.0
  0
LINE
  5
204AB
  8
1PHANTOM
 10
1063.9899036450211
 20
-739.06173421639608
 30
0.0
 11
1063.9899036450211
 21
-738.26173421639635
 31
0.0
  0
LINE
  5
204AC
  8
1PHANTOM
 10
1059.4899036450211
 20
-799.06173421639619
 30
0.0
 11
1057.7399036450211
 21
-792.53064530315055
 31
0.0
  0
ARC
  5
204AD
  8
1PHANTOM
 10
1061.4899036450211
 20
-738.26173421639623
 30
0.0
 40
2.5
 50
359.99999999999733
 51
90.0
  0
LINE
  5
204AE
  8
1PHANTOM
 10
1057.7399036450211
 20
-792.53064530315055
 30
0.0
 11
1057.7399036450211
 21
-739.06173421639608
 31
0.0
  0
LINE
  5
204AF
  8
1PHANTOM
 10
1057.4899036450211
 20
-735.76173421639612
 30
0.0
 11
1061.4899036450211
 21
-735.76173421639623
 31
0.0
  0
LINE
  5
204B0
  8
1PHANTOM
 10
1054.9899036450211
 20
-740.36173421639614
 30
0.0
 11
1063.9899036450211
 21
-740.36173421639614
 31
0.0
  0
ARC
  5
204B1
  8
1PHANTOM
 10
1057.4899036450211
 20
-738.26173421639601
 30
0.0
 40
2.5
 50
90.0
 51
180.0
  0
LINE
  5
204B2
  8
1PHANTOM
 10
1054.9899036450211
 20
-739.06173421639608
 30
0.0
 11
1054.9899036450211
 21
-738.26173421639601
 31
0.0
  0
LINE
  5
204B3
  8
1PHANTOM
 10
1061.9899036450211
 20
-783.179599802442
 30
0.0
 11
1061.2399036450211
 21
-783.02959980244202
 31
0.0
  0
LINE
  5
204B4
  8
1PHANTOM
 10
1061.9899036450211
 20
-781.179599802442
 30
0.0
 11
1061.2399036450211
 21
-781.02959980244202
 31
0.0
  0
LINE
  5
204B5
  8
1PHANTOM
 10
1061.9899036450211
 20
-785.179599802442
 30
0.0
 11
1061.2399036450211
 21
-785.02959980244202
 31
0.0
  0
LINE
  5
204B6
  8
1PHANTOM
 10
1061.9899036450211
 20
-787.179599802442
 30
0.0
 11
1061.2399036450211
 21
-787.02959980244202
 31
0.0
  0
LINE
  5
204B7
  8
1PHANTOM
 10
1061.9899036450211
 20
-781.179599802442
 30
0.0
 11
1056.9899036450211
 21
-782.179599802442
 31
0.0
  0
LINE
  5
204B8
  8
1PHANTOM
 10
1061.9899036450211
 20
-783.179599802442
 30
0.0
 11
1056.9899036450211
 21
-784.17959980244189
 31
0.0
  0
LINE
  5
204B9
  8
1PHANTOM
 10
1061.9899036450211
 20
-785.179599802442
 30
0.0
 11
1056.9899036450211
 21
-786.179599802442
 31
0.0
  0
LINE
  5
204BA
  8
1PHANTOM
 10
1061.9899036450211
 20
-789.179599802442
 30
0.0
 11
1061.2399036450211
 21
-789.02959980244202
 31
0.0
  0
LINE
  5
204BB
  8
1PHANTOM
 10
1061.9899036450211
 20
-789.179599802442
 30
0.0
 11
1056.9899036450211
 21
-790.179599802442
 31
0.0
  0
LINE
  5
204BC
  8
1PHANTOM
 10
1061.9899036450211
 20
-787.179599802442
 30
0.0
 11
1056.9899036450211
 21
-788.17959980244189
 31
0.0
  0
LINE
  5
204BD
  8
1PHANTOM
 10
1057.7399036450211
 20
-784.32959980244198
 30
0.0
 11
1056.9899036450211
 21
-784.17959980244189
 31
0.0
  0
LINE
  5
204BE
  8
1PHANTOM
 10
1057.7399036450211
 20
-790.32959980244209
 30
0.0
 11
1056.9899036450211
 21
-790.179599802442
 31
0.0
  0
LINE
  5
204BF
  8
1PHANTOM
 10
1057.7399036450211
 20
-786.32959980244209
 30
0.0
 11
1056.9899036450211
 21
-786.179599802442
 31
0.0
  0
LINE
  5
204C0
  8
1PHANTOM
 10
1057.7399036450211
 20
-788.32959980244198
 30
0.0
 11
1056.9899036450211
 21
-788.17959980244189
 31
0.0
  0
LINE
  5
204C1
  8
1PHANTOM
 10
1057.7399036450211
 20
-782.32959980244209
 30
0.0
 11
1056.9899036450211
 21
-782.179599802442
 31
0.0
  0
LINE
  5
204C2
  8
1PHANTOM
 10
1054.9899036450211
 20
-739.06173421639608
 30
0.0
 11
1054.9899036450211
 21
-740.36173421639614
 31
0.0
  0
LINE
  5
204C3
  8
1PHANTOM
 10
1063.9899036450211
 20
-739.06173421639608
 30
0.0
 11
1063.9899036450211
 21
-740.36173421639614
 31
0.0
  0
LINE
  5
204C5
  8
1PHANTOM
 10
1085.9899036450211
 20
-765.179599802442
 30
0.0
 11
1080.9899036450211
 21
-766.179599802442
 31
0.0
  0
LINE
  5
204C6
  8
1CENTER
 10
1083.4899036450211
 20
-800.25942484082998
 30
0.0
 11
1083.4899036450211
 21
-734.07878146625012
 31
0.0
  0
LINE
  5
204C7
  8
1PHANTOM
 10
1085.2399036450211
 20
-792.53064530315078
 30
0.0
 11
1085.2399036450211
 21
-739.06173421639608
 31
0.0
  0
LINE
  5
204C8
  8
1PHANTOM
 10
1083.4899036450211
 20
-799.06173421639619
 30
0.0
 11
1085.2399036450211
 21
-792.53064530315078
 31
0.0
  0
LINE
  5
204C9
  8
1PHANTOM
 10
1087.9899036450211
 20
-739.06173421639608
 30
0.0
 11
1087.9899036450211
 21
-738.26173421639635
 31
0.0
  0
LINE
  5
204CA
  8
1PHANTOM
 10
1083.4899036450211
 20
-799.06173421639619
 30
0.0
 11
1081.7399036450211
 21
-792.53064530315055
 31
0.0
  0
ARC
  5
204CB
  8
1PHANTOM
 10
1085.4899036450211
 20
-738.26173421639623
 30
0.0
 40
2.5
 50
359.99999999999733
 51
90.0
  0
LINE
  5
204CC
  8
1PHANTOM
 10
1081.7399036450211
 20
-792.53064530315055
 30
0.0
 11
1081.7399036450211
 21
-739.06173421639608
 31
0.0
  0
LINE
  5
204CD
  8
1PHANTOM
 10
1081.4899036450211
 20
-735.76173421639612
 30
0.0
 11
1085.4899036450211
 21
-735.76173421639623
 31
0.0
  0
LINE
  5
204CE
  8
1PHANTOM
 10
1078.9899036450211
 20
-740.36173421639614
 30
0.0
 11
1087.9899036450211
 21
-740.36173421639614
 31
0.0
  0
ARC
  5
204CF
  8
1PHANTOM
 10
1081.4899036450211
 20
-738.26173421639601
 30
0.0
 40
2.5
 50
90.0
 51
180.0
  0
LINE
  5
204D0
  8
1PHANTOM
 10
1078.9899036450211
 20
-739.06173421639608
 30
0.0
 11
1078.9899036450211
 21
-738.26173421639601
 31
0.0
  0
LINE
  5
204D1
  8
1PHANTOM
 10
1085.8061705860571
 20
-793.21634641423475
 30
0.0
 11
1085.0561705860571
 21
-793.06634641423489
 31
0.0
  0
LINE
  5
204D2
  8
1PHANTOM
 10
1085.8061705860571
 20
-793.21634641423475
 30
0.0
 11
1081.4092661049669
 21
-794.09572731045296
 31
0.0
  0
LINE
  5
204D3
  8
1PHANTOM
 10
1084.673684045538
 20
-797.44284372233858
 30
0.0
 11
1083.923684045538
 21
-797.29284372233849
 31
0.0
  0
LINE
  5
204D4
  8
1PHANTOM
 10
1083.176546958078
 20
-798.04227113983075
 30
0.0
 11
1082.426546958078
 21
-797.89227113983077
 31
0.0
  0
LINE
  5
204D5
  8
1PHANTOM
 10
1084.673684045538
 20
-797.44284372233858
 30
0.0
 11
1082.426546958078
 21
-797.89227113983077
 31
0.0
  0
LINE
  5
204D6
  8
1PHANTOM
 10
1085.239927315798
 20
-795.32959506828672
 30
0.0
 11
1084.489927315798
 21
-795.17959506828674
 31
0.0
  0
LINE
  5
204D7
  8
1PHANTOM
 10
1082.667906531522
 20
-796.1439992251419
 30
0.0
 11
1081.917906531522
 21
-795.99399922514192
 31
0.0
  0
LINE
  5
204D8
  8
1PHANTOM
 10
1082.1592661049669
 20
-794.24572731045305
 30
0.0
 11
1081.4092661049669
 21
-794.09572731045296
 31
0.0
  0
LINE
  5
204D9
  8
1PHANTOM
 10
1085.239927315798
 20
-795.32959506828672
 30
0.0
 11
1081.917906531522
 21
-795.99399922514192
 31
0.0
  0
LINE
  5
204DA
  8
1PHANTOM
 10
1085.9899036450211
 20
-769.179599802442
 30
0.0
 11
1085.2399036450211
 21
-769.02959980244202
 31
0.0
  0
LINE
  5
204DB
  8
1PHANTOM
 10
1085.9899036450211
 20
-767.17959980244189
 30
0.0
 11
1085.2399036450211
 21
-767.02959980244202
 31
0.0
  0
LINE
  5
204DC
  8
1PHANTOM
 10
1085.9899036450211
 20
-773.179599802442
 30
0.0
 11
1085.2399036450211
 21
-773.02959980244202
 31
0.0
  0
LINE
  5
204DD
  8
1PHANTOM
 10
1085.9899036450211
 20
-771.17959980244189
 30
0.0
 11
1085.2399036450211
 21
-771.02959980244202
 31
0.0
  0
LINE
  5
204DE
  8
1PHANTOM
 10
1085.9899036450211
 20
-775.17959980244189
 30
0.0
 11
1085.2399036450211
 21
-775.02959980244202
 31
0.0
  0
LINE
  5
204DF
  8
1PHANTOM
 10
1085.9899036450211
 20
-777.179599802442
 30
0.0
 11
1085.2399036450211
 21
-777.02959980244202
 31
0.0
  0
LINE
  5
204E0
  8
1PHANTOM
 10
1085.9899036450211
 20
-767.17959980244189
 30
0.0
 11
1080.9899036450211
 21
-768.179599802442
 31
0.0
  0
LINE
  5
204E1
  8
1PHANTOM
 10
1085.9899036450211
 20
-769.179599802442
 30
0.0
 11
1080.9899036450211
 21
-770.179599802442
 31
0.0
  0
LINE
  5
204E2
  8
1PHANTOM
 10
1085.9899036450211
 20
-771.17959980244189
 30
0.0
 11
1080.9899036450211
 21
-772.17959980244189
 31
0.0
  0
LINE
  5
204E3
  8
1PHANTOM
 10
1085.9899036450211
 20
-773.179599802442
 30
0.0
 11
1080.9899036450211
 21
-774.179599802442
 31
0.0
  0
LINE
  5
204E4
  8
1PHANTOM
 10
1085.9899036450211
 20
-775.17959980244189
 30
0.0
 11
1080.9899036450211
 21
-776.17959980244189
 31
0.0
  0
LINE
  5
204E5
  8
1PHANTOM
 10
1085.9899036450211
 20
-791.179599802442
 30
0.0
 11
1085.2399036450211
 21
-791.02959980244202
 31
0.0
  0
LINE
  5
204E6
  8
1PHANTOM
 10
1085.9899036450211
 20
-779.179599802442
 30
0.0
 11
1085.2399036450211
 21
-779.02959980244191
 31
0.0
  0
LINE
  5
204E7
  8
1PHANTOM
 10
1085.9899036450211
 20
-779.179599802442
 30
0.0
 11
1080.9899036450211
 21
-780.17959980244189
 31
0.0
  0
LINE
  5
204E8
  8
1PHANTOM
 10
1085.9899036450211
 20
-791.179599802442
 30
0.0
 11
1080.9899036450211
 21
-792.17959980244189
 31
0.0
  0
LINE
  5
204E9
  8
1PHANTOM
 10
1085.9899036450211
 20
-777.179599802442
 30
0.0
 11
1080.9899036450211
 21
-778.179599802442
 31
0.0
  0
LINE
  5
204EA
  8
1PHANTOM
 10
1081.7399036450211
 20
-774.32959980244209
 30
0.0
 11
1080.9899036450211
 21
-774.179599802442
 31
0.0
  0
LINE
  5
204EB
  8
1PHANTOM
 10
1081.7399036450211
 20
-780.32959980244198
 30
0.0
 11
1080.9899036450211
 21
-780.17959980244189
 31
0.0
  0
LINE
  5
204EC
  8
1PHANTOM
 10
1081.7399036450211
 20
-792.32959980244198
 30
0.0
 11
1080.9899036450211
 21
-792.17959980244189
 31
0.0
  0
LINE
  5
204ED
  8
1PHANTOM
 10
1081.7399036450211
 20
-776.32959980244198
 30
0.0
 11
1080.9899036450211
 21
-776.17959980244189
 31
0.0
  0
LINE
  5
204EE
  8
1PHANTOM
 10
1081.7399036450211
 20
-778.32959980244209
 30
0.0
 11
1080.9899036450211
 21
-778.179599802442
 31
0.0
  0
LINE
  5
204EF
  8
1PHANTOM
 10
1081.7399036450211
 20
-770.32959980244209
 30
0.0
 11
1080.9899036450211
 21
-770.179599802442
 31
0.0
  0
LINE
  5
204F0
  8
1PHANTOM
 10
1081.7399036450211
 20
-772.32959980244198
 30
0.0
 11
1080.9899036450211
 21
-772.17959980244189
 31
0.0
  0
LINE
  5
204F1
  8
1PHANTOM
 10
1081.7399036450211
 20
-768.32959980244198
 30
0.0
 11
1080.9899036450211
 21
-768.179599802442
 31
0.0
  0
LINE
  5
204F2
  8
1PHANTOM
 10
1081.7399036450211
 20
-766.32959980244209
 30
0.0
 11
1080.9899036450211
 21
-766.179599802442
 31
0.0
  0
LINE
  5
204F3
  8
1PHANTOM
 10
1085.9899036450211
 20
-749.179599802442
 30
0.0
 11
1080.9899036450211
 21
-750.17959980244189
 31
0.0
  0
LINE
  5
204F4
  8
1PHANTOM
 10
1085.9899036450211
 20
-761.179599802442
 30
0.0
 11
1085.2399036450211
 21
-761.02959980244202
 31
0.0
  0
LINE
  5
204F5
  8
1PHANTOM
 10
1085.9899036450211
 20
-763.17959980244189
 30
0.0
 11
1085.2399036450211
 21
-763.02959980244202
 31
0.0
  0
LINE
  5
204F6
  8
1PHANTOM
 10
1085.9899036450211
 20
-765.179599802442
 30
0.0
 11
1085.2399036450211
 21
-765.02959980244202
 31
0.0
  0
LINE
  5
204F7
  8
1PHANTOM
 10
1085.9899036450211
 20
-759.17959980244189
 30
0.0
 11
1085.2399036450211
 21
-759.02959980244202
 31
0.0
  0
LINE
  5
204F8
  8
1PHANTOM
 10
1085.9899036450211
 20
-757.179599802442
 30
0.0
 11
1085.2399036450211
 21
-757.02959980244202
 31
0.0
  0
LINE
  5
204F9
  8
1PHANTOM
 10
1085.9899036450211
 20
-753.179599802442
 30
0.0
 11
1085.2399036450211
 21
-753.02959980244202
 31
0.0
  0
LINE
  5
204FA
  8
1PHANTOM
 10
1085.9899036450211
 20
-755.17959980244189
 30
0.0
 11
1085.2399036450211
 21
-755.02959980244202
 31
0.0
  0
LINE
  5
204FB
  8
1PHANTOM
 10
1085.9899036450211
 20
-751.17959980244189
 30
0.0
 11
1085.2399036450211
 21
-751.02959980244202
 31
0.0
  0
LINE
  5
204FC
  8
1PHANTOM
 10
1085.9899036450211
 20
-761.179599802442
 30
0.0
 11
1080.9899036450211
 21
-762.179599802442
 31
0.0
  0
LINE
  5
204FD
  8
1PHANTOM
 10
1085.9899036450211
 20
-763.17959980244189
 30
0.0
 11
1080.9899036450211
 21
-764.179599802442
 31
0.0
  0
LINE
  5
204FE
  8
1PHANTOM
 10
1085.9899036450211
 20
-759.17959980244189
 30
0.0
 11
1080.9899036450211
 21
-760.179599802442
 31
0.0
  0
LINE
  5
204FF
  8
1PHANTOM
 10
1085.9899036450211
 20
-757.179599802442
 30
0.0
 11
1080.9899036450211
 21
-758.179599802442
 31
0.0
  0
LINE
  5
20500
  8
1PHANTOM
 10
1085.9899036450211
 20
-755.17959980244189
 30
0.0
 11
1080.9899036450211
 21
-756.179599802442
 31
0.0
  0
LINE
  5
20501
  8
1PHANTOM
 10
1085.9899036450211
 20
-753.179599802442
 30
0.0
 11
1080.9899036450211
 21
-754.179599802442
 31
0.0
  0
LINE
  5
20502
  8
1PHANTOM
 10
1085.9899036450211
 20
-751.17959980244189
 30
0.0
 11
1080.9899036450211
 21
-752.179599802442
 31
0.0
  0
LINE
  5
20503
  8
1PHANTOM
 10
1081.7399036450211
 20
-762.32959980244209
 30
0.0
 11
1080.9899036450211
 21
-762.179599802442
 31
0.0
  0
LINE
  5
20504
  8
1PHANTOM
 10
1081.7399036450211
 20
-764.32959980244198
 30
0.0
 11
1080.9899036450211
 21
-764.179599802442
 31
0.0
  0
LINE
  5
20505
  8
1PHANTOM
 10
1081.7399036450211
 20
-760.32959980244209
 30
0.0
 11
1080.9899036450211
 21
-760.179599802442
 31
0.0
  0
LINE
  5
20506
  8
1PHANTOM
 10
1081.7399036450211
 20
-758.32959980244209
 30
0.0
 11
1080.9899036450211
 21
-758.179599802442
 31
0.0
  0
LINE
  5
20507
  8
1PHANTOM
 10
1081.7399036450211
 20
-756.32959980244209
 30
0.0
 11
1080.9899036450211
 21
-756.179599802442
 31
0.0
  0
LINE
  5
20508
  8
1PHANTOM
 10
1081.7399036450211
 20
-754.32959980244198
 30
0.0
 11
1080.9899036450211
 21
-754.179599802442
 31
0.0
  0
LINE
  5
20509
  8
1PHANTOM
 10
1081.7399036450211
 20
-752.32959980244209
 30
0.0
 11
1080.9899036450211
 21
-752.179599802442
 31
0.0
  0
LINE
  5
2050A
  8
1PHANTOM
 10
1081.7399036450211
 20
-750.32959980244198
 30
0.0
 11
1080.9899036450211
 21
-750.17959980244189
 31
0.0
  0
LINE
  5
2050B
  8
1PHANTOM
 10
1085.9899036450211
 20
-747.17959980244189
 30
0.0
 11
1085.2399036450211
 21
-747.02959980244202
 31
0.0
  0
LINE
  5
2050C
  8
1PHANTOM
 10
1085.9899036450211
 20
-745.179599802442
 30
0.0
 11
1085.2399036450211
 21
-745.02959980244202
 31
0.0
  0
LINE
  5
2050D
  8
1PHANTOM
 10
1085.9899036450211
 20
-749.179599802442
 30
0.0
 11
1085.2399036450211
 21
-749.02959980244202
 31
0.0
  0
LINE
  5
2050E
  8
1PHANTOM
 10
1085.9899036450211
 20
-743.17959980244189
 30
0.0
 11
1085.2399036450211
 21
-743.02959980244202
 31
0.0
  0
LINE
  5
2050F
  8
1PHANTOM
 10
1085.9899036450211
 20
-741.179599802442
 30
0.0
 11
1085.2399036450211
 21
-741.02959980244202
 31
0.0
  0
LINE
  5
20510
  8
1PHANTOM
 10
1085.9899036450211
 20
-739.179599802442
 30
0.0
 11
1085.2399036450211
 21
-739.02959980244202
 31
0.0
  0
LINE
  5
20511
  8
1PHANTOM
 10
1085.9899036450211
 20
-745.179599802442
 30
0.0
 11
1080.9899036450211
 21
-746.17959980244189
 31
0.0
  0
LINE
  5
20512
  8
1PHANTOM
 10
1085.9899036450211
 20
-747.17959980244189
 30
0.0
 11
1080.9899036450211
 21
-748.179599802442
 31
0.0
  0
LINE
  5
20513
  8
1PHANTOM
 10
1085.9899036450211
 20
-743.17959980244189
 30
0.0
 11
1080.9899036450211
 21
-744.179599802442
 31
0.0
  0
LINE
  5
20514
  8
1PHANTOM
 10
1085.9899036450211
 20
-739.179599802442
 30
0.0
 11
1080.9899036450211
 21
-740.179599802442
 31
0.0
  0
LINE
  5
20515
  8
1PHANTOM
 10
1085.9899036450211
 20
-741.179599802442
 30
0.0
 11
1080.9899036450211
 21
-742.17959980244189
 31
0.0
  0
LINE
  5
20516
  8
1PHANTOM
 10
1081.7399036450211
 20
-746.32959980244198
 30
0.0
 11
1080.9899036450211
 21
-746.17959980244189
 31
0.0
  0
LINE
  5
20517
  8
1PHANTOM
 10
1081.7399036450211
 20
-748.32959980244209
 30
0.0
 11
1080.9899036450211
 21
-748.179599802442
 31
0.0
  0
LINE
  5
20518
  8
1PHANTOM
 10
1081.7399036450211
 20
-744.32959980244209
 30
0.0
 11
1080.9899036450211
 21
-744.179599802442
 31
0.0
  0
LINE
  5
20519
  8
1PHANTOM
 10
1081.7399036450211
 20
-742.32959980244198
 30
0.0
 11
1080.9899036450211
 21
-742.17959980244189
 31
0.0
  0
LINE
  5
2051A
  8
1PHANTOM
 10
1081.7399036450211
 20
-740.32959980244209
 30
0.0
 11
1080.9899036450211
 21
-740.179599802442
 31
0.0
  0
LINE
  5
2051B
  8
1PHANTOM
 10
1078.9899036450211
 20
-739.06173421639608
 30
0.0
 11
1087.9899036450211
 21
-739.06173421639608
 31
0.0
  0
LINE
  5
2051C
  8
1PHANTOM
 10
1085.9899036450211
 20
-783.179599802442
 30
0.0
 11
1085.2399036450211
 21
-783.02959980244202
 31
0.0
  0
LINE
  5
2051D
  8
1PHANTOM
 10
1085.9899036450211
 20
-781.179599802442
 30
0.0
 11
1085.2399036450211
 21
-781.02959980244202
 31
0.0
  0
LINE
  5
2051E
  8
1PHANTOM
 10
1085.9899036450211
 20
-785.179599802442
 30
0.0
 11
1085.2399036450211
 21
-785.02959980244202
 31
0.0
  0
LINE
  5
2051F
  8
1PHANTOM
 10
1085.9899036450211
 20
-787.179599802442
 30
0.0
 11
1085.2399036450211
 21
-787.02959980244202
 31
0.0
  0
LINE
  5
20520
  8
1PHANTOM
 10
1085.9899036450211
 20
-781.179599802442
 30
0.0
 11
1080.9899036450211
 21
-782.179599802442
 31
0.0
  0
LINE
  5
20521
  8
1PHANTOM
 10
1085.9899036450211
 20
-783.179599802442
 30
0.0
 11
1080.9899036450211
 21
-784.17959980244189
 31
0.0
  0
LINE
  5
20522
  8
1PHANTOM
 10
1085.9899036450211
 20
-785.179599802442
 30
0.0
 11
1080.9899036450211
 21
-786.179599802442
 31
0.0
  0
LINE
  5
20523
  8
1PHANTOM
 10
1085.9899036450211
 20
-789.179599802442
 30
0.0
 11
1085.2399036450211
 21
-789.02959980244202
 31
0.0
  0
LINE
  5
20524
  8
1PHANTOM
 10
1085.9899036450211
 20
-789.179599802442
 30
0.0
 11
1080.9899036450211
 21
-790.179599802442
 31
0.0
  0
LINE
  5
20525
  8
1PHANTOM
 10
1085.9899036450211
 20
-787.179599802442
 30
0.0
 11
1080.9899036450211
 21
-788.17959980244189
 31
0.0
  0
LINE
  5
20526
  8
1PHANTOM
 10
1081.7399036450211
 20
-784.32959980244198
 30
0.0
 11
1080.9899036450211
 21
-784.17959980244189
 31
0.0
  0
LINE
  5
20527
  8
1PHANTOM
 10
1081.7399036450211
 20
-790.32959980244209
 30
0.0
 11
1080.9899036450211
 21
-790.179599802442
 31
0.0
  0
LINE
  5
20528
  8
1PHANTOM
 10
1081.7399036450211
 20
-786.32959980244209
 30
0.0
 11
1080.9899036450211
 21
-786.179599802442
 31
0.0
  0
LINE
  5
20529
  8
1PHANTOM
 10
1081.7399036450211
 20
-788.32959980244198
 30
0.0
 11
1080.9899036450211
 21
-788.17959980244189
 31
0.0
  0
LINE
  5
2052A
  8
1PHANTOM
 10
1081.7399036450211
 20
-782.32959980244209
 30
0.0
 11
1080.9899036450211
 21
-782.179599802442
 31
0.0
  0
LINE
  5
2052B
  8
1PHANTOM
 10
1078.9899036450211
 20
-739.06173421639608
 30
0.0
 11
1078.9899036450211
 21
-740.36173421639614
 31
0.0
  0
LINE
  5
2052C
  8
1PHANTOM
 10
1087.9899036450211
 20
-739.06173421639608
 30
0.0
 11
1087.9899036450211
 21
-740.36173421639614
 31
0.0
  0
LINE
  5
2052E
  8
1PHANTOM
 10
1970.4899036450211
 20
-765.179599802442
 30
0.0
 11
1965.4899036450211
 21
-766.179599802442
 31
0.0
  0
LINE
  5
2052F
  8
1CENTER
 10
1967.9899036450211
 20
-800.25942484082998
 30
0.0
 11
1967.9899036450211
 21
-734.07878146625012
 31
0.0
  0
LINE
  5
20530
  8
1PHANTOM
 10
1969.7399036450211
 20
-792.53064530315078
 30
0.0
 11
1969.7399036450211
 21
-739.06173421639608
 31
0.0
  0
LINE
  5
20531
  8
1PHANTOM
 10
1967.9899036450211
 20
-799.06173421639619
 30
0.0
 11
1969.7399036450211
 21
-792.53064530315078
 31
0.0
  0
LINE
  5
20532
  8
1PHANTOM
 10
1972.4899036450211
 20
-739.06173421639608
 30
0.0
 11
1972.4899036450211
 21
-738.26173421639635
 31
0.0
  0
LINE
  5
20533
  8
1PHANTOM
 10
1967.9899036450211
 20
-799.06173421639619
 30
0.0
 11
1966.2399036450211
 21
-792.53064530315055
 31
0.0
  0
ARC
  5
20534
  8
1PHANTOM
 10
1969.9899036450211
 20
-738.26173421639623
 30
0.0
 40
2.5
 50
359.99999999999733
 51
90.0
  0
LINE
  5
20535
  8
1PHANTOM
 10
1966.2399036450211
 20
-792.53064530315055
 30
0.0
 11
1966.2399036450211
 21
-739.06173421639608
 31
0.0
  0
LINE
  5
20536
  8
1PHANTOM
 10
1965.9899036450211
 20
-735.76173421639612
 30
0.0
 11
1969.9899036450211
 21
-735.76173421639623
 31
0.0
  0
LINE
  5
20537
  8
1PHANTOM
 10
1963.4899036450211
 20
-740.36173421639614
 30
0.0
 11
1972.4899036450211
 21
-740.36173421639614
 31
0.0
  0
ARC
  5
20538
  8
1PHANTOM
 10
1965.9899036450211
 20
-738.26173421639601
 30
0.0
 40
2.5
 50
90.0
 51
180.0
  0
LINE
  5
20539
  8
1PHANTOM
 10
1963.4899036450211
 20
-739.06173421639608
 30
0.0
 11
1963.4899036450211
 21
-738.26173421639601
 31
0.0
  0
LINE
  5
2053A
  8
1PHANTOM
 10
1970.3061705860571
 20
-793.21634641423475
 30
0.0
 11
1969.5561705860571
 21
-793.06634641423489
 31
0.0
  0
LINE
  5
2053B
  8
1PHANTOM
 10
1970.3061705860571
 20
-793.21634641423475
 30
0.0
 11
1965.909266104966
 21
-794.09572731045296
 31
0.0
  0
LINE
  5
2053C
  8
1PHANTOM
 10
1969.1736840455389
 20
-797.44284372233858
 30
0.0
 11
1968.4236840455389
 21
-797.29284372233849
 31
0.0
  0
LINE
  5
2053D
  8
1PHANTOM
 10
1967.676546958078
 20
-798.04227113983075
 30
0.0
 11
1966.926546958078
 21
-797.89227113983077
 31
0.0
  0
LINE
  5
2053E
  8
1PHANTOM
 10
1969.1736840455389
 20
-797.44284372233858
 30
0.0
 11
1966.926546958078
 21
-797.89227113983077
 31
0.0
  0
LINE
  5
2053F
  8
1PHANTOM
 10
1969.739927315798
 20
-795.32959506828672
 30
0.0
 11
1968.989927315798
 21
-795.17959506828674
 31
0.0
  0
LINE
  5
20540
  8
1PHANTOM
 10
1967.167906531522
 20
-796.1439992251419
 30
0.0
 11
1966.417906531522
 21
-795.99399922514192
 31
0.0
  0
LINE
  5
20541
  8
1PHANTOM
 10
1966.659266104966
 20
-794.24572731045305
 30
0.0
 11
1965.909266104966
 21
-794.09572731045296
 31
0.0
  0
LINE
  5
20542
  8
1PHANTOM
 10
1969.739927315798
 20
-795.32959506828672
 30
0.0
 11
1966.417906531522
 21
-795.99399922514192
 31
0.0
  0
LINE
  5
20543
  8
1PHANTOM
 10
1970.4899036450211
 20
-769.179599802442
 30
0.0
 11
1969.7399036450211
 21
-769.02959980244202
 31
0.0
  0
LINE
  5
20544
  8
1PHANTOM
 10
1970.4899036450211
 20
-767.17959980244189
 30
0.0
 11
1969.7399036450211
 21
-767.02959980244202
 31
0.0
  0
LINE
  5
20545
  8
1PHANTOM
 10
1970.4899036450211
 20
-773.179599802442
 30
0.0
 11
1969.7399036450211
 21
-773.02959980244202
 31
0.0
  0
LINE
  5
20546
  8
1PHANTOM
 10
1970.4899036450211
 20
-771.17959980244189
 30
0.0
 11
1969.7399036450211
 21
-771.02959980244202
 31
0.0
  0
LINE
  5
20547
  8
1PHANTOM
 10
1970.4899036450211
 20
-775.17959980244189
 30
0.0
 11
1969.7399036450211
 21
-775.02959980244202
 31
0.0
  0
LINE
  5
20548
  8
1PHANTOM
 10
1970.4899036450211
 20
-777.179599802442
 30
0.0
 11
1969.7399036450211
 21
-777.02959980244202
 31
0.0
  0
LINE
  5
20549
  8
1PHANTOM
 10
1970.4899036450211
 20
-767.17959980244189
 30
0.0
 11
1965.4899036450211
 21
-768.179599802442
 31
0.0
  0
LINE
  5
2054A
  8
1PHANTOM
 10
1970.4899036450211
 20
-769.179599802442
 30
0.0
 11
1965.4899036450211
 21
-770.179599802442
 31
0.0
  0
LINE
  5
2054B
  8
1PHANTOM
 10
1970.4899036450211
 20
-771.17959980244189
 30
0.0
 11
1965.4899036450211
 21
-772.17959980244189
 31
0.0
  0
LINE
  5
2054C
  8
1PHANTOM
 10
1970.4899036450211
 20
-773.179599802442
 30
0.0
 11
1965.4899036450211
 21
-774.179599802442
 31
0.0
  0
LINE
  5
2054D
  8
1PHANTOM
 10
1970.4899036450211
 20
-775.17959980244189
 30
0.0
 11
1965.4899036450211
 21
-776.17959980244189
 31
0.0
  0
LINE
  5
2054E
  8
1PHANTOM
 10
1970.4899036450211
 20
-791.179599802442
 30
0.0
 11
1969.7399036450211
 21
-791.02959980244202
 31
0.0
  0
LINE
  5
2054F
  8
1PHANTOM
 10
1970.4899036450211
 20
-779.179599802442
 30
0.0
 11
1969.7399036450211
 21
-779.02959980244191
 31
0.0
  0
LINE
  5
20550
  8
1PHANTOM
 10
1970.4899036450211
 20
-779.179599802442
 30
0.0
 11
1965.4899036450211
 21
-780.17959980244189
 31
0.0
  0
LINE
  5
20551
  8
1PHANTOM
 10
1970.4899036450211
 20
-791.179599802442
 30
0.0
 11
1965.4899036450211
 21
-792.17959980244189
 31
0.0
  0
LINE
  5
20552
  8
1PHANTOM
 10
1970.4899036450211
 20
-777.179599802442
 30
0.0
 11
1965.4899036450211
 21
-778.179599802442
 31
0.0
  0
LINE
  5
20553
  8
1PHANTOM
 10
1966.2399036450211
 20
-774.32959980244209
 30
0.0
 11
1965.4899036450211
 21
-774.179599802442
 31
0.0
  0
LINE
  5
20554
  8
1PHANTOM
 10
1966.2399036450211
 20
-780.32959980244198
 30
0.0
 11
1965.4899036450211
 21
-780.17959980244189
 31
0.0
  0
LINE
  5
20555
  8
1PHANTOM
 10
1966.2399036450211
 20
-792.32959980244198
 30
0.0
 11
1965.4899036450211
 21
-792.17959980244189
 31
0.0
  0
LINE
  5
20556
  8
1PHANTOM
 10
1966.2399036450211
 20
-776.32959980244198
 30
0.0
 11
1965.4899036450211
 21
-776.17959980244189
 31
0.0
  0
LINE
  5
20557
  8
1PHANTOM
 10
1966.2399036450211
 20
-778.32959980244209
 30
0.0
 11
1965.4899036450211
 21
-778.179599802442
 31
0.0
  0
LINE
  5
20558
  8
1PHANTOM
 10
1966.2399036450211
 20
-770.32959980244209
 30
0.0
 11
1965.4899036450211
 21
-770.179599802442
 31
0.0
  0
LINE
  5
20559
  8
1PHANTOM
 10
1966.2399036450211
 20
-772.32959980244198
 30
0.0
 11
1965.4899036450211
 21
-772.17959980244189
 31
0.0
  0
LINE
  5
2055A
  8
1PHANTOM
 10
1966.2399036450211
 20
-768.32959980244198
 30
0.0
 11
1965.4899036450211
 21
-768.179599802442
 31
0.0
  0
LINE
  5
2055B
  8
1PHANTOM
 10
1966.2399036450211
 20
-766.32959980244209
 30
0.0
 11
1965.4899036450211
 21
-766.179599802442
 31
0.0
  0
LINE
  5
2055C
  8
1PHANTOM
 10
1970.4899036450211
 20
-749.179599802442
 30
0.0
 11
1965.4899036450211
 21
-750.17959980244189
 31
0.0
  0
LINE
  5
2055D
  8
1PHANTOM
 10
1970.4899036450211
 20
-761.179599802442
 30
0.0
 11
1969.7399036450211
 21
-761.02959980244202
 31
0.0
  0
LINE
  5
2055E
  8
1PHANTOM
 10
1970.4899036450211
 20
-763.17959980244189
 30
0.0
 11
1969.7399036450211
 21
-763.02959980244202
 31
0.0
  0
LINE
  5
2055F
  8
1PHANTOM
 10
1970.4899036450211
 20
-765.179599802442
 30
0.0
 11
1969.7399036450211
 21
-765.02959980244202
 31
0.0
  0
LINE
  5
20560
  8
1PHANTOM
 10
1970.4899036450211
 20
-759.17959980244189
 30
0.0
 11
1969.7399036450211
 21
-759.02959980244202
 31
0.0
  0
LINE
  5
20561
  8
1PHANTOM
 10
1970.4899036450211
 20
-757.179599802442
 30
0.0
 11
1969.7399036450211
 21
-757.02959980244202
 31
0.0
  0
LINE
  5
20562
  8
1PHANTOM
 10
1970.4899036450211
 20
-753.179599802442
 30
0.0
 11
1969.7399036450211
 21
-753.02959980244202
 31
0.0
  0
LINE
  5
20563
  8
1PHANTOM
 10
1970.4899036450211
 20
-755.17959980244189
 30
0.0
 11
1969.7399036450211
 21
-755.02959980244202
 31
0.0
  0
LINE
  5
20564
  8
1PHANTOM
 10
1970.4899036450211
 20
-751.17959980244189
 30
0.0
 11
1969.7399036450211
 21
-751.02959980244202
 31
0.0
  0
LINE
  5
20565
  8
1PHANTOM
 10
1970.4899036450211
 20
-761.179599802442
 30
0.0
 11
1965.4899036450211
 21
-762.179599802442
 31
0.0
  0
LINE
  5
20566
  8
1PHANTOM
 10
1970.4899036450211
 20
-763.17959980244189
 30
0.0
 11
1965.4899036450211
 21
-764.179599802442
 31
0.0
  0
LINE
  5
20567
  8
1PHANTOM
 10
1970.4899036450211
 20
-759.17959980244189
 30
0.0
 11
1965.4899036450211
 21
-760.179599802442
 31
0.0
  0
LINE
  5
20568
  8
1PHANTOM
 10
1970.4899036450211
 20
-757.179599802442
 30
0.0
 11
1965.4899036450211
 21
-758.179599802442
 31
0.0
  0
LINE
  5
20569
  8
1PHANTOM
 10
1970.4899036450211
 20
-755.17959980244189
 30
0.0
 11
1965.4899036450211
 21
-756.179599802442
 31
0.0
  0
LINE
  5
2056A
  8
1PHANTOM
 10
1970.4899036450211
 20
-753.179599802442
 30
0.0
 11
1965.4899036450211
 21
-754.179599802442
 31
0.0
  0
LINE
  5
2056B
  8
1PHANTOM
 10
1970.4899036450211
 20
-751.17959980244189
 30
0.0
 11
1965.4899036450211
 21
-752.179599802442
 31
0.0
  0
LINE
  5
2056C
  8
1PHANTOM
 10
1966.2399036450211
 20
-762.32959980244209
 30
0.0
 11
1965.4899036450211
 21
-762.179599802442
 31
0.0
  0
LINE
  5
2056D
  8
1PHANTOM
 10
1966.2399036450211
 20
-764.32959980244198
 30
0.0
 11
1965.4899036450211
 21
-764.179599802442
 31
0.0
  0
LINE
  5
2056E
  8
1PHANTOM
 10
1966.2399036450211
 20
-760.32959980244209
 30
0.0
 11
1965.4899036450211
 21
-760.179599802442
 31
0.0
  0
LINE
  5
2056F
  8
1PHANTOM
 10
1966.2399036450211
 20
-758.32959980244209
 30
0.0
 11
1965.4899036450211
 21
-758.179599802442
 31
0.0
  0
LINE
  5
20570
  8
1PHANTOM
 10
1966.2399036450211
 20
-756.32959980244209
 30
0.0
 11
1965.4899036450211
 21
-756.179599802442
 31
0.0
  0
LINE
  5
20571
  8
1PHANTOM
 10
1966.2399036450211
 20
-754.32959980244198
 30
0.0
 11
1965.4899036450211
 21
-754.179599802442
 31
0.0
  0
LINE
  5
20572
  8
1PHANTOM
 10
1966.2399036450211
 20
-752.32959980244209
 30
0.0
 11
1965.4899036450211
 21
-752.179599802442
 31
0.0
  0
LINE
  5
20573
  8
1PHANTOM
 10
1966.2399036450211
 20
-750.32959980244198
 30
0.0
 11
1965.4899036450211
 21
-750.17959980244189
 31
0.0
  0
LINE
  5
20574
  8
1PHANTOM
 10
1970.4899036450211
 20
-747.17959980244189
 30
0.0
 11
1969.7399036450211
 21
-747.02959980244202
 31
0.0
  0
LINE
  5
20575
  8
1PHANTOM
 10
1970.4899036450211
 20
-745.179599802442
 30
0.0
 11
1969.7399036450211
 21
-745.02959980244202
 31
0.0
  0
LINE
  5
20576
  8
1PHANTOM
 10
1970.4899036450211
 20
-749.179599802442
 30
0.0
 11
1969.7399036450211
 21
-749.02959980244202
 31
0.0
  0
LINE
  5
20577
  8
1PHANTOM
 10
1970.4899036450211
 20
-743.17959980244189
 30
0.0
 11
1969.7399036450211
 21
-743.02959980244202
 31
0.0
  0
LINE
  5
20578
  8
1PHANTOM
 10
1970.4899036450211
 20
-741.179599802442
 30
0.0
 11
1969.7399036450211
 21
-741.02959980244202
 31
0.0
  0
LINE
  5
20579
  8
1PHANTOM
 10
1970.4899036450211
 20
-739.179599802442
 30
0.0
 11
1969.7399036450211
 21
-739.02959980244202
 31
0.0
  0
LINE
  5
2057A
  8
1PHANTOM
 10
1970.4899036450211
 20
-745.179599802442
 30
0.0
 11
1965.4899036450211
 21
-746.17959980244189
 31
0.0
  0
LINE
  5
2057B
  8
1PHANTOM
 10
1970.4899036450211
 20
-747.17959980244189
 30
0.0
 11
1965.4899036450211
 21
-748.179599802442
 31
0.0
  0
LINE
  5
2057C
  8
1PHANTOM
 10
1970.4899036450211
 20
-743.17959980244189
 30
0.0
 11
1965.4899036450211
 21
-744.179599802442
 31
0.0
  0
LINE
  5
2057D
  8
1PHANTOM
 10
1970.4899036450211
 20
-739.179599802442
 30
0.0
 11
1965.4899036450211
 21
-740.179599802442
 31
0.0
  0
LINE
  5
2057E
  8
1PHANTOM
 10
1970.4899036450211
 20
-741.179599802442
 30
0.0
 11
1965.4899036450211
 21
-742.17959980244189
 31
0.0
  0
LINE
  5
2057F
  8
1PHANTOM
 10
1966.2399036450211
 20
-746.32959980244198
 30
0.0
 11
1965.4899036450211
 21
-746.17959980244189
 31
0.0
  0
LINE
  5
20580
  8
1PHANTOM
 10
1966.2399036450211
 20
-748.32959980244209
 30
0.0
 11
1965.4899036450211
 21
-748.179599802442
 31
0.0
  0
LINE
  5
20581
  8
1PHANTOM
 10
1966.2399036450211
 20
-744.32959980244209
 30
0.0
 11
1965.4899036450211
 21
-744.179599802442
 31
0.0
  0
LINE
  5
20582
  8
1PHANTOM
 10
1966.2399036450211
 20
-742.32959980244198
 30
0.0
 11
1965.4899036450211
 21
-742.17959980244189
 31
0.0
  0
LINE
  5
20583
  8
1PHANTOM
 10
1966.2399036450211
 20
-740.32959980244209
 30
0.0
 11
1965.4899036450211
 21
-740.179599802442
 31
0.0
  0
LINE
  5
20584
  8
1PHANTOM
 10
1963.4899036450211
 20
-739.06173421639608
 30
0.0
 11
1972.4899036450211
 21
-739.06173421639608
 31
0.0
  0
LINE
  5
20585
  8
1PHANTOM
 10
1970.4899036450211
 20
-783.179599802442
 30
0.0
 11
1969.7399036450211
 21
-783.02959980244202
 31
0.0
  0
LINE
  5
20586
  8
1PHANTOM
 10
1970.4899036450211
 20
-781.179599802442
 30
0.0
 11
1969.7399036450211
 21
-781.02959980244202
 31
0.0
  0
LINE
  5
20587
  8
1PHANTOM
 10
1970.4899036450211
 20
-785.179599802442
 30
0.0
 11
1969.7399036450211
 21
-785.02959980244202
 31
0.0
  0
LINE
  5
20588
  8
1PHANTOM
 10
1970.4899036450211
 20
-787.179599802442
 30
0.0
 11
1969.7399036450211
 21
-787.02959980244202
 31
0.0
  0
LINE
  5
20589
  8
1PHANTOM
 10
1970.4899036450211
 20
-781.179599802442
 30
0.0
 11
1965.4899036450211
 21
-782.179599802442
 31
0.0
  0
LINE
  5
2058A
  8
1PHANTOM
 10
1970.4899036450211
 20
-783.179599802442
 30
0.0
 11
1965.4899036450211
 21
-784.17959980244189
 31
0.0
  0
LINE
  5
2058B
  8
1PHANTOM
 10
1970.4899036450211
 20
-785.179599802442
 30
0.0
 11
1965.4899036450211
 21
-786.179599802442
 31
0.0
  0
LINE
  5
2058C
  8
1PHANTOM
 10
1970.4899036450211
 20
-789.179599802442
 30
0.0
 11
1969.7399036450211
 21
-789.02959980244202
 31
0.0
  0
LINE
  5
2058D
  8
1PHANTOM
 10
1970.4899036450211
 20
-789.179599802442
 30
0.0
 11
1965.4899036450211
 21
-790.179599802442
 31
0.0
  0
LINE
  5
2058E
  8
1PHANTOM
 10
1970.4899036450211
 20
-787.179599802442
 30
0.0
 11
1965.4899036450211
 21
-788.17959980244189
 31
0.0
  0
LINE
  5
2058F
  8
1PHANTOM
 10
1966.2399036450211
 20
-784.32959980244198
 30
0.0
 11
1965.4899036450211
 21
-784.17959980244189
 31
0.0
  0
LINE
  5
20590
  8
1PHANTOM
 10
1966.2399036450211
 20
-790.32959980244209
 30
0.0
 11
1965.4899036450211
 21
-790.179599802442
 31
0.0
  0
LINE
  5
20591
  8
1PHANTOM
 10
1966.2399036450211
 20
-786.32959980244209
 30
0.0
 11
1965.4899036450211
 21
-786.179599802442
 31
0.0
  0
LINE
  5
20592
  8
1PHANTOM
 10
1966.2399036450211
 20
-788.32959980244198
 30
0.0
 11
1965.4899036450211
 21
-788.17959980244189
 31
0.0
  0
LINE
  5
20593
  8
1PHANTOM
 10
1966.2399036450211
 20
-782.32959980244209
 30
0.0
 11
1965.4899036450211
 21
-782.179599802442
 31
0.0
  0
LINE
  5
20594
  8
1PHANTOM
 10
1963.4899036450211
 20
-739.06173421639608
 30
0.0
 11
1963.4899036450211
 21
-740.36173421639614
 31
0.0
  0
LINE
  5
20595
  8
1PHANTOM
 10
1972.4899036450211
 20
-739.06173421639608
 30
0.0
 11
1972.4899036450211
 21
-740.36173421639614
 31
0.0
  0
LINE
  5
20596
  8
1PHANTOM
 10
2157.5307945312711
 20
-765.179599802442
 30
0.0
 11
2152.5307945312711
 21
-766.179599802442
 31
0.0
  0
LINE
  5
20597
  8
1CENTER
 10
2155.0307945312702
 20
-800.25942484082998
 30
0.0
 11
2155.0307945312702
 21
-734.07878146625012
 31
0.0
  0
LINE
  5
20598
  8
1PHANTOM
 10
2156.7807945312711
 20
-792.53064530315078
 30
0.0
 11
2156.7807945312711
 21
-739.06173421639608
 31
0.0
  0
LINE
  5
20599
  8
1PHANTOM
 10
2155.0307945312702
 20
-799.06173421639619
 30
0.0
 11
2156.7807945312711
 21
-792.53064530315078
 31
0.0
  0
LINE
  5
2059A
  8
1PHANTOM
 10
2159.5307945312711
 20
-739.06173421639608
 30
0.0
 11
2159.5307945312711
 21
-738.26173421639635
 31
0.0
  0
LINE
  5
2059B
  8
1PHANTOM
 10
2155.0307945312702
 20
-799.06173421639619
 30
0.0
 11
2153.2807945312711
 21
-792.53064530315055
 31
0.0
  0
ARC
  5
2059C
  8
1PHANTOM
 10
2157.0307945312711
 20
-738.26173421639623
 30
0.0
 40
2.5
 50
359.99999999999733
 51
90.0
  0
LINE
  5
2059D
  8
1PHANTOM
 10
2153.2807945312711
 20
-792.53064530315055
 30
0.0
 11
2153.2807945312711
 21
-739.06173421639608
 31
0.0
  0
LINE
  5
2059E
  8
1PHANTOM
 10
2153.0307945312711
 20
-735.76173421639612
 30
0.0
 11
2157.0307945312711
 21
-735.76173421639623
 31
0.0
  0
LINE
  5
2059F
  8
1PHANTOM
 10
2150.5307945312711
 20
-740.36173421639614
 30
0.0
 11
2159.5307945312711
 21
-740.36173421639614
 31
0.0
  0
ARC
  5
205A0
  8
1PHANTOM
 10
2153.0307945312711
 20
-738.26173421639601
 30
0.0
 40
2.5
 50
90.0
 51
180.0
  0
LINE
  5
205A1
  8
1PHANTOM
 10
2150.5307945312711
 20
-739.06173421639608
 30
0.0
 11
2150.5307945312711
 21
-738.26173421639601
 31
0.0
  0
LINE
  5
205A2
  8
1PHANTOM
 10
2157.347061472306
 20
-793.21634641423475
 30
0.0
 11
2156.597061472306
 21
-793.06634641423489
 31
0.0
  0
LINE
  5
205A3
  8
1PHANTOM
 10
2157.347061472306
 20
-793.21634641423475
 30
0.0
 11
2152.9501569912159
 21
-794.09572731045296
 31
0.0
  0
LINE
  5
205A4
  8
1PHANTOM
 10
2156.2145749317879
 20
-797.44284372233858
 30
0.0
 11
2155.4645749317879
 21
-797.29284372233849
 31
0.0
  0
LINE
  5
205A5
  8
1PHANTOM
 10
2154.7174378443269
 20
-798.04227113983075
 30
0.0
 11
2153.9674378443269
 21
-797.89227113983077
 31
0.0
  0
LINE
  5
205A6
  8
1PHANTOM
 10
2156.2145749317879
 20
-797.44284372233858
 30
0.0
 11
2153.9674378443269
 21
-797.89227113983077
 31
0.0
  0
LINE
  5
205A7
  8
1PHANTOM
 10
2156.7808182020472
 20
-795.32959506828672
 30
0.0
 11
2156.0308182020472
 21
-795.17959506828674
 31
0.0
  0
LINE
  5
205A8
  8
1PHANTOM
 10
2154.2087974177712
 20
-796.1439992251419
 30
0.0
 11
2153.4587974177712
 21
-795.99399922514192
 31
0.0
  0
LINE
  5
205A9
  8
1PHANTOM
 10
2153.7001569912159
 20
-794.24572731045305
 30
0.0
 11
2152.9501569912159
 21
-794.09572731045296
 31
0.0
  0
LINE
  5
205AA
  8
1PHANTOM
 10
2156.7808182020472
 20
-795.32959506828672
 30
0.0
 11
2153.4587974177712
 21
-795.99399922514192
 31
0.0
  0
LINE
  5
205AB
  8
1PHANTOM
 10
2157.5307945312711
 20
-769.179599802442
 30
0.0
 11
2156.7807945312711
 21
-769.02959980244202
 31
0.0
  0
LINE
  5
205AC
  8
1PHANTOM
 10
2157.5307945312711
 20
-767.17959980244189
 30
0.0
 11
2156.7807945312711
 21
-767.02959980244202
 31
0.0
  0
LINE
  5
205AD
  8
1PHANTOM
 10
2157.5307945312711
 20
-773.179599802442
 30
0.0
 11
2156.7807945312711
 21
-773.02959980244202
 31
0.0
  0
LINE
  5
205AE
  8
1PHANTOM
 10
2157.5307945312711
 20
-771.17959980244189
 30
0.0
 11
2156.7807945312711
 21
-771.02959980244202
 31
0.0
  0
LINE
  5
205AF
  8
1PHANTOM
 10
2157.5307945312711
 20
-775.17959980244189
 30
0.0
 11
2156.7807945312711
 21
-775.02959980244202
 31
0.0
  0
LINE
  5
205B0
  8
1PHANTOM
 10
2157.5307945312711
 20
-777.179599802442
 30
0.0
 11
2156.7807945312711
 21
-777.02959980244202
 31
0.0
  0
LINE
  5
205B1
  8
1PHANTOM
 10
2157.5307945312711
 20
-767.17959980244189
 30
0.0
 11
2152.5307945312711
 21
-768.179599802442
 31
0.0
  0
LINE
  5
205B2
  8
1PHANTOM
 10
2157.5307945312711
 20
-769.179599802442
 30
0.0
 11
2152.5307945312711
 21
-770.179599802442
 31
0.0
  0
LINE
  5
205B3
  8
1PHANTOM
 10
2157.5307945312711
 20
-771.17959980244189
 30
0.0
 11
2152.5307945312711
 21
-772.17959980244189
 31
0.0
  0
LINE
  5
205B4
  8
1PHANTOM
 10
2157.5307945312711
 20
-773.179599802442
 30
0.0
 11
2152.5307945312711
 21
-774.179599802442
 31
0.0
  0
LINE
  5
205B5
  8
1PHANTOM
 10
2157.5307945312711
 20
-775.17959980244189
 30
0.0
 11
2152.5307945312711
 21
-776.17959980244189
 31
0.0
  0
LINE
  5
205B6
  8
1PHANTOM
 10
2157.5307945312711
 20
-791.179599802442
 30
0.0
 11
2156.7807945312711
 21
-791.02959980244202
 31
0.0
  0
LINE
  5
205B7
  8
1PHANTOM
 10
2157.5307945312711
 20
-779.179599802442
 30
0.0
 11
2156.7807945312711
 21
-779.02959980244191
 31
0.0
  0
LINE
  5
205B8
  8
1PHANTOM
 10
2157.5307945312711
 20
-779.179599802442
 30
0.0
 11
2152.5307945312711
 21
-780.17959980244189
 31
0.0
  0
LINE
  5
205B9
  8
1PHANTOM
 10
2157.5307945312711
 20
-791.179599802442
 30
0.0
 11
2152.5307945312711
 21
-792.17959980244189
 31
0.0
  0
LINE
  5
205BA
  8
1PHANTOM
 10
2157.5307945312711
 20
-777.179599802442
 30
0.0
 11
2152.5307945312711
 21
-778.179599802442
 31
0.0
  0
LINE
  5
205BB
  8
1PHANTOM
 10
2153.2807945312711
 20
-774.32959980244209
 30
0.0
 11
2152.5307945312711
 21
-774.179599802442
 31
0.0
  0
LINE
  5
205BC
  8
1PHANTOM
 10
2153.2807945312711
 20
-780.32959980244198
 30
0.0
 11
2152.5307945312711
 21
-780.17959980244189
 31
0.0
  0
LINE
  5
205BD
  8
1PHANTOM
 10
2153.2807945312711
 20
-792.32959980244198
 30
0.0
 11
2152.5307945312711
 21
-792.17959980244189
 31
0.0
  0
LINE
  5
205BE
  8
1PHANTOM
 10
2153.2807945312711
 20
-776.32959980244198
 30
0.0
 11
2152.5307945312711
 21
-776.17959980244189
 31
0.0
  0
LINE
  5
205BF
  8
1PHANTOM
 10
2153.2807945312711
 20
-778.32959980244209
 30
0.0
 11
2152.5307945312711
 21
-778.179599802442
 31
0.0
  0
LINE
  5
205C0
  8
1PHANTOM
 10
2153.2807945312711
 20
-770.32959980244209
 30
0.0
 11
2152.5307945312711
 21
-770.179599802442
 31
0.0
  0
LINE
  5
205C1
  8
1PHANTOM
 10
2153.2807945312711
 20
-772.32959980244198
 30
0.0
 11
2152.5307945312711
 21
-772.17959980244189
 31
0.0
  0
LINE
  5
205C2
  8
1PHANTOM
 10
2153.2807945312711
 20
-768.32959980244198
 30
0.0
 11
2152.5307945312711
 21
-768.179599802442
 31
0.0
  0
LINE
  5
205C3
  8
1PHANTOM
 10
2153.2807945312711
 20
-766.32959980244209
 30
0.0
 11
2152.5307945312711
 21
-766.179599802442
 31
0.0
  0
LINE
  5
205C4
  8
1PHANTOM
 10
2157.5307945312711
 20
-749.179599802442
 30
0.0
 11
2152.5307945312711
 21
-750.17959980244189
 31
0.0
  0
LINE
  5
205C5
  8
1PHANTOM
 10
2157.5307945312711
 20
-761.179599802442
 30
0.0
 11
2156.7807945312711
 21
-761.02959980244202
 31
0.0
  0
LINE
  5
205C6
  8
1PHANTOM
 10
2157.5307945312711
 20
-763.17959980244189
 30
0.0
 11
2156.7807945312711
 21
-763.02959980244202
 31
0.0
  0
LINE
  5
205C7
  8
1PHANTOM
 10
2157.5307945312711
 20
-765.179599802442
 30
0.0
 11
2156.7807945312711
 21
-765.02959980244202
 31
0.0
  0
LINE
  5
205C8
  8
1PHANTOM
 10
2157.5307945312711
 20
-759.17959980244189
 30
0.0
 11
2156.7807945312711
 21
-759.02959980244202
 31
0.0
  0
LINE
  5
205C9
  8
1PHANTOM
 10
2157.5307945312711
 20
-757.179599802442
 30
0.0
 11
2156.7807945312711
 21
-757.02959980244202
 31
0.0
  0
LINE
  5
205CA
  8
1PHANTOM
 10
2157.5307945312711
 20
-753.179599802442
 30
0.0
 11
2156.7807945312711
 21
-753.02959980244202
 31
0.0
  0
LINE
  5
205CB
  8
1PHANTOM
 10
2157.5307945312711
 20
-755.17959980244189
 30
0.0
 11
2156.7807945312711
 21
-755.02959980244202
 31
0.0
  0
LINE
  5
205CC
  8
1PHANTOM
 10
2157.5307945312711
 20
-751.17959980244189
 30
0.0
 11
2156.7807945312711
 21
-751.02959980244202
 31
0.0
  0
LINE
  5
205CD
  8
1PHANTOM
 10
2157.5307945312711
 20
-761.179599802442
 30
0.0
 11
2152.5307945312711
 21
-762.179599802442
 31
0.0
  0
LINE
  5
205CE
  8
1PHANTOM
 10
2157.5307945312711
 20
-763.17959980244189
 30
0.0
 11
2152.5307945312711
 21
-764.179599802442
 31
0.0
  0
LINE
  5
205CF
  8
1PHANTOM
 10
2157.5307945312711
 20
-759.17959980244189
 30
0.0
 11
2152.5307945312711
 21
-760.179599802442
 31
0.0
  0
LINE
  5
205D0
  8
1PHANTOM
 10
2157.5307945312711
 20
-757.179599802442
 30
0.0
 11
2152.5307945312711
 21
-758.179599802442
 31
0.0
  0
LINE
  5
205D1
  8
1PHANTOM
 10
2157.5307945312711
 20
-755.17959980244189
 30
0.0
 11
2152.5307945312711
 21
-756.179599802442
 31
0.0
  0
LINE
  5
205D2
  8
1PHANTOM
 10
2157.5307945312711
 20
-753.179599802442
 30
0.0
 11
2152.5307945312711
 21
-754.179599802442
 31
0.0
  0
LINE
  5
205D3
  8
1PHANTOM
 10
2157.5307945312711
 20
-751.17959980244189
 30
0.0
 11
2152.5307945312711
 21
-752.179599802442
 31
0.0
  0
LINE
  5
205D4
  8
1PHANTOM
 10
2153.2807945312711
 20
-762.32959980244209
 30
0.0
 11
2152.5307945312711
 21
-762.179599802442
 31
0.0
  0
LINE
  5
205D5
  8
1PHANTOM
 10
2153.2807945312711
 20
-764.32959980244198
 30
0.0
 11
2152.5307945312711
 21
-764.179599802442
 31
0.0
  0
LINE
  5
205D6
  8
1PHANTOM
 10
2153.2807945312711
 20
-760.32959980244209
 30
0.0
 11
2152.5307945312711
 21
-760.179599802442
 31
0.0
  0
LINE
  5
205D7
  8
1PHANTOM
 10
2153.2807945312711
 20
-758.32959980244209
 30
0.0
 11
2152.5307945312711
 21
-758.179599802442
 31
0.0
  0
LINE
  5
205D8
  8
1PHANTOM
 10
2153.2807945312711
 20
-756.32959980244209
 30
0.0
 11
2152.5307945312711
 21
-756.179599802442
 31
0.0
  0
LINE
  5
205D9
  8
1PHANTOM
 10
2153.2807945312711
 20
-754.32959980244198
 30
0.0
 11
2152.5307945312711
 21
-754.179599802442
 31
0.0
  0
LINE
  5
205DA
  8
1PHANTOM
 10
2153.2807945312711
 20
-752.32959980244209
 30
0.0
 11
2152.5307945312711
 21
-752.179599802442
 31
0.0
  0
LINE
  5
205DB
  8
1PHANTOM
 10
2153.2807945312711
 20
-750.32959980244198
 30
0.0
 11
2152.5307945312711
 21
-750.17959980244189
 31
0.0
  0
LINE
  5
205DC
  8
1PHANTOM
 10
2157.5307945312711
 20
-747.17959980244189
 30
0.0
 11
2156.7807945312711
 21
-747.02959980244202
 31
0.0
  0
LINE
  5
205DD
  8
1PHANTOM
 10
2157.5307945312711
 20
-745.179599802442
 30
0.0
 11
2156.7807945312711
 21
-745.02959980244202
 31
0.0
  0
LINE
  5
205DE
  8
1PHANTOM
 10
2157.5307945312711
 20
-749.179599802442
 30
0.0
 11
2156.7807945312711
 21
-749.02959980244202
 31
0.0
  0
LINE
  5
205DF
  8
1PHANTOM
 10
2157.5307945312711
 20
-743.17959980244189
 30
0.0
 11
2156.7807945312711
 21
-743.02959980244202
 31
0.0
  0
LINE
  5
205E0
  8
1PHANTOM
 10
2157.5307945312711
 20
-741.179599802442
 30
0.0
 11
2156.7807945312711
 21
-741.02959980244202
 31
0.0
  0
LINE
  5
205E1
  8
1PHANTOM
 10
2157.5307945312711
 20
-739.179599802442
 30
0.0
 11
2156.7807945312711
 21
-739.02959980244202
 31
0.0
  0
LINE
  5
205E2
  8
1PHANTOM
 10
2157.5307945312711
 20
-745.179599802442
 30
0.0
 11
2152.5307945312711
 21
-746.17959980244189
 31
0.0
  0
LINE
  5
205E3
  8
1PHANTOM
 10
2157.5307945312711
 20
-747.17959980244189
 30
0.0
 11
2152.5307945312711
 21
-748.179599802442
 31
0.0
  0
LINE
  5
205E4
  8
1PHANTOM
 10
2157.5307945312711
 20
-743.17959980244189
 30
0.0
 11
2152.5307945312711
 21
-744.179599802442
 31
0.0
  0
LINE
  5
205E5
  8
1PHANTOM
 10
2157.5307945312711
 20
-739.179599802442
 30
0.0
 11
2152.5307945312711
 21
-740.179599802442
 31
0.0
  0
LINE
  5
205E6
  8
1PHANTOM
 10
2157.5307945312711
 20
-741.179599802442
 30
0.0
 11
2152.5307945312711
 21
-742.17959980244189
 31
0.0
  0
LINE
  5
205E7
  8
1PHANTOM
 10
2153.2807945312711
 20
-746.32959980244198
 30
0.0
 11
2152.5307945312711
 21
-746.17959980244189
 31
0.0
  0
LINE
  5
205E8
  8
1PHANTOM
 10
2153.2807945312711
 20
-748.32959980244209
 30
0.0
 11
2152.5307945312711
 21
-748.179599802442
 31
0.0
  0
LINE
  5
205E9
  8
1PHANTOM
 10
2153.2807945312711
 20
-744.32959980244209
 30
0.0
 11
2152.5307945312711
 21
-744.179599802442
 31
0.0
  0
LINE
  5
205EA
  8
1PHANTOM
 10
2153.2807945312711
 20
-742.32959980244198
 30
0.0
 11
2152.5307945312711
 21
-742.17959980244189
 31
0.0
  0
LINE
  5
205EB
  8
1PHANTOM
 10
2153.2807945312711
 20
-740.32959980244209
 30
0.0
 11
2152.5307945312711
 21
-740.179599802442
 31
0.0
  0
LINE
  5
205EC
  8
1PHANTOM
 10
2150.5307945312711
 20
-739.06173421639608
 30
0.0
 11
2159.5307945312711
 21
-739.06173421639608
 31
0.0
  0
LINE
  5
205ED
  8
1PHANTOM
 10
2157.5307945312711
 20
-783.179599802442
 30
0.0
 11
2156.7807945312711
 21
-783.02959980244202
 31
0.0
  0
LINE
  5
205EE
  8
1PHANTOM
 10
2157.5307945312711
 20
-781.179599802442
 30
0.0
 11
2156.7807945312711
 21
-781.02959980244202
 31
0.0
  0
LINE
  5
205EF
  8
1PHANTOM
 10
2157.5307945312711
 20
-785.179599802442
 30
0.0
 11
2156.7807945312711
 21
-785.02959980244202
 31
0.0
  0
LINE
  5
205F0
  8
1PHANTOM
 10
2157.5307945312711
 20
-787.179599802442
 30
0.0
 11
2156.7807945312711
 21
-787.02959980244202
 31
0.0
  0
LINE
  5
205F1
  8
1PHANTOM
 10
2157.5307945312711
 20
-781.179599802442
 30
0.0
 11
2152.5307945312711
 21
-782.179599802442
 31
0.0
  0
LINE
  5
205F2
  8
1PHANTOM
 10
2157.5307945312711
 20
-783.179599802442
 30
0.0
 11
2152.5307945312711
 21
-784.17959980244189
 31
0.0
  0
LINE
  5
205F3
  8
1PHANTOM
 10
2157.5307945312711
 20
-785.179599802442
 30
0.0
 11
2152.5307945312711
 21
-786.179599802442
 31
0.0
  0
LINE
  5
205F4
  8
1PHANTOM
 10
2157.5307945312711
 20
-789.179599802442
 30
0.0
 11
2156.7807945312711
 21
-789.02959980244202
 31
0.0
  0
LINE
  5
205F5
  8
1PHANTOM
 10
2157.5307945312711
 20
-789.179599802442
 30
0.0
 11
2152.5307945312711
 21
-790.179599802442
 31
0.0
  0
LINE
  5
205F6
  8
1PHANTOM
 10
2157.5307945312711
 20
-787.179599802442
 30
0.0
 11
2152.5307945312711
 21
-788.17959980244189
 31
0.0
  0
LINE
  5
205F7
  8
1PHANTOM
 10
2153.2807945312711
 20
-784.32959980244198
 30
0.0
 11
2152.5307945312711
 21
-784.17959980244189
 31
0.0
  0
LINE
  5
205F8
  8
1PHANTOM
 10
2153.2807945312711
 20
-790.32959980244209
 30
0.0
 11
2152.5307945312711
 21
-790.179599802442
 31
0.0
  0
LINE
  5
205F9
  8
1PHANTOM
 10
2153.2807945312711
 20
-786.32959980244209
 30
0.0
 11
2152.5307945312711
 21
-786.179599802442
 31
0.0
  0
LINE
  5
205FA
  8
1PHANTOM
 10
2153.2807945312711
 20
-788.32959980244198
 30
0.0
 11
2152.5307945312711
 21
-788.17959980244189
 31
0.0
  0
LINE
  5
205FB
  8
1PHANTOM
 10
2153.2807945312711
 20
-782.32959980244209
 30
0.0
 11
2152.5307945312711
 21
-782.179599802442
 31
0.0
  0
LINE
  5
205FC
  8
1PHANTOM
 10
2150.5307945312711
 20
-739.06173421639608
 30
0.0
 11
2150.5307945312711
 21
-740.36173421639614
 31
0.0
  0
LINE
  5
205FD
  8
1PHANTOM
 10
2159.5307945312711
 20
-739.06173421639608
 30
0.0
 11
2159.5307945312711
 21
-740.36173421639614
 31
0.0
  0
LINE
  5
21713
  8
1PHANTOM
 10
2154.0307945312711
 20
-530.61173421639501
 30
0.0
 11
2151.5307945312711
 21
-530.61173421639501
 31
0.0
  0
ARC
  5
21714
  8
1PHANTOM
 10
2151.5307945312711
 20
-529.61173421639501
 30
0.0
 40
1.0
 50
180.0
 51
270.0
  0
LINE
  5
21715
  8
1PHANTOM
 10
2154.5307945312711
 20
-532.86173421639489
 30
0.0
 11
2152.7807945312711
 21
-532.86173421639489
 31
0.0
  0
LINE
  5
21716
  8
1PHANTOM
 10
2152.2807945312711
 20
-532.86173421639489
 30
0.0
 11
2150.0307945312729
 21
-532.86173421639489
 31
0.0
  0
ARC
  5
21717
  8
1PHANTOM
 10
2154.5307945312711
 20
-533.86173421639489
 30
0.0
 40
1.0
 50
359.99999999997402
 51
90.0
  0
LINE
  5
21718
  8
1PHANTOM
 10
2157.5307945312711
 20
-535.36173421639501
 30
0.0
 11
2155.5307945312711
 21
-535.36173421639501
 31
0.0
  0
LINE
  5
21719
  8
1PHANTOM
 10
2146.5307945312711
 20
-525.86185000144417
 30
0.0
 11
2146.5307945312711
 21
-543.90935622038955
 31
0.0
  0
ARC
  5
2171A
  8
1PHANTOM
 10
2147.0307945312711
 20
-525.86185000144417
 30
0.0
 40
0.5
 50
90.0
 51
180.0
  0
LINE
  5
2171B
  8
1PHANTOM
 10
2150.5307945312711
 20
-525.86185000144417
 30
0.0
 11
2150.5307945312711
 21
-529.61173421639501
 31
0.0
  0
LINE
  5
2171C
  8
1PHANTOM
 10
2154.5307945312711
 20
-544.86185000144417
 30
0.0
 11
2151.5307945312711
 21
-544.86185000144474
 31
0.0
  0
LINE
  5
2171D
  8
1PHANTOM
 10
2154.5307945312729
 20
-542.36185000144417
 30
0.0
 11
2152.7807945312711
 21
-542.36185000144417
 31
0.0
  0
LINE
  5
2171E
  8
1PHANTOM
 10
2152.2807945312711
 20
-542.36185000144417
 30
0.0
 11
2150.0307945312711
 21
-542.36185000144417
 31
0.0
  0
ARC
  5
2171F
  8
1PHANTOM
 10
2154.5307945312729
 20
-541.36185000144417
 30
0.0
 40
1.0
 50
270.0
 51
0.0
  0
LINE
  5
21720
  8
1PHANTOM
 10
2157.530794531272
 20
-539.86185000144428
 30
0.0
 11
2155.5307945312711
 21
-539.86185000144474
 31
0.0
  0
ARC
  5
21721
  8
1PHANTOM
 10
2150.0307945312711
 20
-525.86185000144417
 30
0.0
 40
0.5
 50
0.0
 51
90.0
  0
LINE
  5
21722
  8
1PHANTOM
 10
2150.0307945312711
 20
-525.36185000144417
 30
0.0
 11
2147.0307945312711
 21
-525.36185000144417
 31
0.0
  0
LINE
  5
21723
  8
1PHANTOM
 10
2147.5307945312711
 20
-455.36173421639501
 30
0.0
 11
2162.5307945312711
 21
-455.36173421639501
 31
0.0
  0
ARC
  5
21724
  8
1PHANTOM
 10
2162.5307945312711
 20
-456.36173421639592
 30
0.0
 40
1.0
 50
0.0
 51
90.0
  0
LINE
  5
21725
  8
1PHANTOM
 10
2161.5307945312702
 20
-462.36173421639592
 30
0.0
 11
2163.0307945312711
 21
-462.36173421639592
 31
0.0
  0
LINE
  5
21726
  8
1PHANTOM
 10
2158.0307945312688
 20
-457.3617342163958
 30
0.0
 11
2161.5307945312702
 21
-457.3617342163958
 31
0.0
  0
LINE
  5
21727
  8
1PHANTOM
 10
2155.0307945312711
 20
-687.67508064731715
 30
0.0
 11
2155.0307945312711
 21
-545.36185000144417
 31
0.0
  0
ARC
  5
21728
  8
1PHANTOM
 10
2154.5307945312711
 20
-545.36185000144417
 30
0.0
 40
0.5
 50
0.0
 51
90.0
  0
ARC
  5
21729
  8
1PHANTOM
 10
2154.0307945312711
 20
-529.61173421639501
 30
0.0
 40
1.0
 50
270.0
 51
0.0
  0
LINE
  5
2172A
  8
1PHANTOM
 10
2157.5307945312752
 20
-687.67508064731624
 30
0.0
 11
2157.5307945312729
 21
-539.86185000144428
 31
0.0
  0
LINE
  5
2172B
  8
1PHANTOM
 10
2155.5307945312729
 20
-541.36185000144417
 30
0.0
 11
2155.5307945312729
 21
-540.36185000144417
 31
0.0
  0
LINE
  5
2172C
  8
1PHANTOM
 10
2157.5307945312711
 20
-535.36173421639501
 30
0.0
 11
2157.5307945312711
 21
-523.04838778547366
 31
0.0
  0
LINE
  5
2172D
  8
1PHANTOM
 10
2155.5307945312711
 20
-534.86173421639501
 30
0.0
 11
2155.5307945312711
 21
-533.86173421639489
 31
0.0
  0
LINE
  5
2172E
  8
1PHANTOM
 10
2161.5307945312702
 20
-462.36173421639643
 30
0.0
 11
2161.5307945312702
 21
-457.3617342163958
 31
0.0
  0
LINE
  5
2172F
  8
1PHANTOM
 10
2163.5307945312711
 20
-461.8617342163958
 30
0.0
 11
2163.5307945312711
 21
-456.36173421639592
 31
0.0
  0
ARC
  5
21730
  8
1PHANTOM
 10
2163.0307945312711
 20
-461.8617342163958
 30
0.0
 40
0.5
 50
270.0
 51
0.0
  0
LINE
  5
21731
  8
1PHANTOM
 10
2146.5307945312711
 20
-465.36173421639683
 30
0.0
 11
2146.5307945312711
 21
-456.36173421639501
 31
0.0
  0
ARC
  5
21732
  8
1PHANTOM
 10
2147.5307945312711
 20
-456.36173421639501
 30
0.0
 40
1.0
 50
90.0
 51
180.0
  0
ARC
  5
21733
  8
1PHANTOM
 10
1955.030794531267
 20
-523.04838778547366
 30
0.0
 40
200.0
 50
0.0
 51
16.76418128160838
  0
ARC
  5
21734
  8
1PHANTOM
 10
2147.530794531272
 20
-465.21457414675177
 30
0.0
 40
1.0
 50
180.0
 51
196.72212802818771
  0
ARC
  5
21735
  8
1PHANTOM
 10
1955.030794531267
 20
-523.04838778547366
 30
0.0
 40
202.5
 50
0.0
 51
12.829317378832901
  0
ARC
  5
21736
  8
1PHANTOM
 10
2153.4505927854439
 20
-477.8617342163954
 30
0.0
 40
1.0
 50
90.0
 51
192.82931737883271
  0
LINE
  5
21737
  8
1PHANTOM
 10
2155.0307945312688
 20
-476.86173421639592
 30
0.0
 11
2153.4505927854439
 21
-476.86173421639592
 31
0.0
  0
LINE
  5
21738
  8
1PHANTOM
 10
2158.0307945312688
 20
-457.3617342163958
 30
0.0
 11
2158.0307945312688
 21
-462.36173421639592
 31
0.0
  0
ARC
  5
21739
  8
1PHANTOM
 10
2152.5307945312711
 20
-532.86173421639489
 30
0.0
 40
0.25
 50
180.0000000000521
 51
0.0
  0
ARC
  5
2173A
  8
1PHANTOM
 10
2152.5307945312711
 20
-542.36185000144417
 30
0.0
 40
0.25
 50
0.0
 51
180.0
  0
ARC
  5
2173B
  8
1PHANTOM
 10
2155.5307945312711
 20
-535.11173421639489
 30
0.0
 40
0.25
 50
90.0
 51
270.0
  0
ARC
  5
2173C
  8
1PHANTOM
 10
2155.5307945312711
 20
-540.11185000144417
 30
0.0
 40
0.25
 50
89.999999999895778
 51
270.00000000010419
  0
ARC
  5
2173D
  8
1PHANTOM
 10
2155.0307945312688
 20
-473.86173421639592
 30
0.0
 40
3.0
 50
270.0
 51
0.0
  0
LINE
  5
2173E
  8
1PHANTOM
 10
2158.0307945312688
 20
-473.86173421639592
 30
0.0
 11
2158.0307945312688
 21
-470.86173421639592
 31
0.0
  0
ARC
  5
2173F
  8
1PHANTOM
 10
2150.0307945312729
 20
-533.86173421639489
 30
0.0
 40
1.0
 50
90.0
 51
180.00000000002601
  0
ARC
  5
21740
  8
1PHANTOM
 10
2150.0307945312711
 20
-541.36185000144417
 30
0.0
 40
1.0
 50
180.0
 51
270.0
  0
LINE
  5
21741
  8
1PHANTOM
 10
2149.0307945312711
 20
-541.36185000144417
 30
0.0
 11
2149.0307945312711
 21
-540.36185000144417
 31
0.0
  0
LINE
  5
21742
  8
1PHANTOM
 10
2149.0307945312729
 20
-534.86173421639501
 30
0.0
 11
2149.0307945312729
 21
-533.86173421639489
 31
0.0
  0
ARC
  5
21743
  8
1PHANTOM
 10
2149.0307945312729
 20
-535.11173421639489
 30
0.0
 40
0.25
 50
270.0
 51
90.0
  0
ARC
  5
21744
  8
1PHANTOM
 10
2149.0307945312729
 20
-540.11185000144417
 30
0.0
 40
0.25
 50
269.99999999989581
 51
90.000000000104208
  0
LINE
  5
21745
  8
1PHANTOM
 10
2146.5307945312711
 20
-755.36173421639683
 30
0.0
 11
2163.5307945312702
 21
-755.36173421639717
 31
0.0
  0
LINE
  5
21746
  8
1PHANTOM
 10
2161.5307945312702
 20
-748.36173421639501
 30
0.0
 11
2163.0307945312711
 21
-748.36173421639501
 31
0.0
  0
LINE
  5
21747
  8
1PHANTOM
 10
2158.0307945312688
 20
-753.36173421639501
 30
0.0
 11
2161.5307945312702
 21
-753.36173421639501
 31
0.0
  0
LINE
  5
21748
  8
1PHANTOM
 10
2161.5307945312702
 20
-748.36173421639455
 30
0.0
 11
2161.5307945312702
 21
-753.36173421639501
 31
0.0
  0
LINE
  5
21749
  8
1PHANTOM
 10
2163.5307945312711
 20
-748.86173421639501
 30
0.0
 11
2163.5307945312711
 21
-755.36173421639683
 31
0.0
  0
ARC
  5
2174A
  8
1PHANTOM
 10
2163.0307945312711
 20
-748.86173421639501
 30
0.0
 40
0.5
 50
0.0
 51
90.0
  0
LINE
  5
2174B
  8
1PHANTOM
 10
2146.5307945312711
 20
-745.36173421639398
 30
0.0
 11
2146.5307945312711
 21
-755.36173421639683
 31
0.0
  0
LINE
  5
2174C
  8
1PHANTOM
 10
2149.0307945312711
 20
-746.86173421639501
 30
0.0
 11
2149.0307945312711
 21
-748.11173421639489
 31
0.0
  0
LINE
  5
2174D
  8
1PHANTOM
 10
2149.0307945312711
 20
-748.61173421639501
 30
0.0
 11
2149.0307945312711
 21
-751.11173421639501
 31
0.0
  0
ARC
  5
2174E
  8
1PHANTOM
 10
2150.0307945312711
 20
-746.86173421639501
 30
0.0
 40
1.0
 50
90.0
 51
180.0
  0
ARC
  5
2174F
  8
1PHANTOM
 10
1955.030794531267
 20
-687.67508064731715
 30
0.0
 40
200.0
 50
343.23581871839161
 51
0.0
  0
ARC
  5
21750
  8
1PHANTOM
 10
2147.5307945312711
 20
-745.50889428604034
 30
0.0
 40
1.0
 50
163.2778719718122
 51
180.0
  0
ARC
  5
21751
  8
1PHANTOM
 10
1955.030794531267
 20
-687.67508064731715
 30
0.0
 40
202.5
 50
347.17068262116697
 51
0.0
  0
ARC
  5
21752
  8
1PHANTOM
 10
2153.4505927854439
 20
-732.86173421639455
 30
0.0
 40
1.0
 50
167.170682621167
 51
270.0
  0
ARC
  5
21753
  8
1PHANTOM
 10
2155.0307945312688
 20
-752.36173421639501
 30
0.0
 40
1.0
 50
270.0
 51
0.0
  0
LINE
  5
21754
  8
1PHANTOM
 10
2155.0307945312688
 20
-753.36173421639501
 30
0.0
 11
2152.7807945312711
 21
-753.36173421639501
 31
0.0
  0
LINE
  5
21755
  8
1PHANTOM
 10
2152.2807945312711
 20
-753.36173421639501
 30
0.0
 11
2150.0307945312711
 21
-753.36173421639501
 31
0.0
  0
LINE
  5
21756
  8
1PHANTOM
 10
2155.0307945312688
 20
-735.86173421639501
 30
0.0
 11
2153.7807945312711
 21
-735.86173421639501
 31
0.0
  0
LINE
  5
21757
  8
1PHANTOM
 10
2153.2807945312711
 20
-735.86173421639501
 30
0.0
 11
2152.0307945312711
 21
-735.86173421639501
 31
0.0
  0
LINE
  5
21758
  8
1PHANTOM
 10
2155.0307945312688
 20
-733.86173421639489
 30
0.0
 11
2153.4505927854439
 21
-733.86173421639489
 31
0.0
  0
LINE
  5
21759
  8
1PHANTOM
 10
2158.0307945312688
 20
-753.36173421639501
 30
0.0
 11
2158.0307945312688
 21
-748.36173421639592
 31
0.0
  0
LINE
  5
2175A
  8
1PHANTOM
 10
2156.0307945312702
 20
-752.36173421639501
 30
0.0
 11
2156.0307945312702
 21
-751.61173421639489
 31
0.0
  0
LINE
  5
2175B
  8
1PHANTOM
 10
2156.0307945312702
 20
-751.11173421639501
 30
0.0
 11
2156.0307945312702
 21
-748.36173421639592
 31
0.0
  0
LINE
  5
2175C
  8
1PHANTOM
 10
2156.0307945312702
 20
-748.36173421639501
 30
0.0
 11
2158.0307945312688
 21
-748.36173421639455
 31
0.0
  0
ARC
  5
2175D
  8
1PHANTOM
 10
2156.0307945312702
 20
-751.36173421639501
 30
0.0
 40
0.25
 50
90.0
 51
270.0
  0
ARC
  5
2175E
  8
1PHANTOM
 10
2152.5307945312711
 20
-753.36173421639501
 30
0.0
 40
0.25
 50
0.0
 51
180.0
  0
LINE
  5
2175F
  8
1PHANTOM
 10
2149.0307945312711
 20
-752.36173421639501
 30
0.0
 11
2149.0307945312711
 21
-751.61173421639489
 31
0.0
  0
ARC
  5
21760
  8
1PHANTOM
 10
2150.0307945312711
 20
-752.36173421639501
 30
0.0
 40
1.0
 50
180.0
 51
270.0
  0
ARC
  5
21761
  8
1PHANTOM
 10
2149.0307945312711
 20
-751.36173421639501
 30
0.0
 40
0.25
 50
270.0
 51
90.0
  0
LINE
  5
21762
  8
1PHANTOM
 10
2151.0307945312711
 20
-736.86173421639501
 30
0.0
 11
2151.0307945312711
 21
-737.61173421639501
 31
0.0
  0
ARC
  5
21763
  8
1PHANTOM
 10
2152.0307945312711
 20
-736.86173421639501
 30
0.0
 40
1.0
 50
90.0
 51
180.0
  0
ARC
  5
21764
  8
1PHANTOM
 10
2151.0307945312711
 20
-737.86173421639489
 30
0.0
 40
0.25
 50
270.0
 51
90.0
  0
LINE
  5
21765
  8
1PHANTOM
 10
2156.0307945312702
 20
-736.86173421639501
 30
0.0
 11
2156.0307945312702
 21
-737.61173421639501
 31
0.0
  0
ARC
  5
21766
  8
1PHANTOM
 10
2155.0307945312688
 20
-736.86173421639501
 30
0.0
 40
1.0
 50
0.0
 51
90.0
  0
ARC
  5
21767
  8
1PHANTOM
 10
2155.0307945312688
 20
-736.86173421639501
 30
0.0
 40
3.0
 50
0.0
 51
90.0
  0
LINE
  5
21768
  8
1PHANTOM
 10
2156.0307945312702
 20
-738.11173421639501
 30
0.0
 11
2156.0307945312702
 21
-739.86173421639501
 31
0.0
  0
LINE
  5
21769
  8
1PHANTOM
 10
2158.0307945312688
 20
-736.86173421639501
 30
0.0
 11
2158.0307945312688
 21
-739.86173421639501
 31
0.0
  0
ARC
  5
2176A
  8
1PHANTOM
 10
2156.0307945312702
 20
-737.86173421639489
 30
0.0
 40
0.25
 50
90.0
 51
270.0
  0
LINE
  5
2176B
  8
1PHANTOM
 10
2156.0307945312702
 20
-739.86173421639501
 30
0.0
 11
2158.0307945312688
 21
-739.86173421639535
 31
0.0
  0
ARC
  5
2176C
  8
1PHANTOM
 10
2153.5307945312711
 20
-735.86173421639501
 30
0.0
 40
0.25
 50
180.0
 51
0.0
  0
LINE
  5
2176D
  8
1PHANTOM
 10
2151.0307945312711
 20
-738.11173421639501
 30
0.0
 11
2151.0307945312711
 21
-742.61173421639501
 31
0.0
  0
LINE
  5
2176E
  8
1PHANTOM
 10
2151.0307945312711
 20
-743.11173421639501
 30
0.0
 11
2151.0307945312711
 21
-744.86173421639501
 31
0.0
  0
ARC
  5
2176F
  8
1PHANTOM
 10
2150.0307945312711
 20
-744.86173421639501
 30
0.0
 40
1.0
 50
270.0
 51
0.0
  0
ARC
  5
21770
  8
1PHANTOM
 10
2151.0307945312711
 20
-742.86173421639501
 30
0.0
 40
0.25
 50
270.0
 51
90.0
  0
ARC
  5
21771
  8
1PHANTOM
 10
2149.0307945312711
 20
-748.36173421639501
 30
0.0
 40
0.25
 50
270.0
 51
90.0
  0
LINE
  5
21772
  8
1PHANTOM
 10
2149.0307945312729
 20
-539.86185000144428
 30
0.0
 11
2149.0307945312729
 21
-535.36173421639535
 31
0.0
  0
LINE
  5
21773
  8
1PHANTOM
 10
2149.0307945312711
 20
-463.86173421639592
 30
0.0
 11
2149.0307945312711
 21
-462.61173421639592
 31
0.0
  0
LINE
  5
21774
  8
1PHANTOM
 10
2149.0307945312711
 20
-462.11173421639592
 30
0.0
 11
2149.0307945312711
 21
-459.6117342163958
 31
0.0
  0
ARC
  5
21775
  8
1PHANTOM
 10
2150.0307945312711
 20
-463.86173421639592
 30
0.0
 40
1.0
 50
180.0
 51
270.0
  0
ARC
  5
21776
  8
1PHANTOM
 10
2155.0307945312688
 20
-458.36173421639592
 30
0.0
 40
1.0
 50
0.0
 51
90.0
  0
LINE
  5
21777
  8
1PHANTOM
 10
2155.0307945312688
 20
-457.3617342163958
 30
0.0
 11
2152.7807945312711
 21
-457.3617342163958
 31
0.0
  0
LINE
  5
21778
  8
1PHANTOM
 10
2152.2807945312711
 20
-457.3617342163958
 30
0.0
 11
2150.0307945312711
 21
-457.3617342163958
 31
0.0
  0
LINE
  5
21779
  8
1PHANTOM
 10
2155.0307945312688
 20
-474.86173421639592
 30
0.0
 11
2153.7807945312711
 21
-474.86173421639592
 31
0.0
  0
LINE
  5
2177A
  8
1PHANTOM
 10
2153.2807945312711
 20
-474.86173421639592
 30
0.0
 11
2152.0307945312711
 21
-474.86173421639592
 31
0.0
  0
LINE
  5
2177B
  8
1PHANTOM
 10
2156.0307945312702
 20
-458.36173421639592
 30
0.0
 11
2156.0307945312702
 21
-459.11173421639592
 31
0.0
  0
LINE
  5
2177C
  8
1PHANTOM
 10
2156.0307945312702
 20
-459.6117342163958
 30
0.0
 11
2156.0307945312702
 21
-462.36173421639643
 31
0.0
  0
LINE
  5
2177D
  8
1PHANTOM
 10
2156.0307945312702
 20
-462.36173421639592
 30
0.0
 11
2158.0307945312688
 21
-462.3617342163954
 31
0.0
  0
ARC
  5
2177E
  8
1PHANTOM
 10
2156.0307945312702
 20
-459.36173421639592
 30
0.0
 40
0.25
 50
90.0
 51
270.0
  0
ARC
  5
2177F
  8
1PHANTOM
 10
2152.5307945312711
 20
-457.3617342163958
 30
0.0
 40
0.25
 50
180.0
 51
0.0
  0
LINE
  5
21780
  8
1PHANTOM
 10
2149.0307945312711
 20
-458.36173421639592
 30
0.0
 11
2149.0307945312711
 21
-459.11173421639592
 31
0.0
  0
ARC
  5
21781
  8
1PHANTOM
 10
2150.0307945312711
 20
-458.36173421639592
 30
0.0
 40
1.0
 50
90.0
 51
180.0
  0
ARC
  5
21782
  8
1PHANTOM
 10
2149.0307945312711
 20
-459.36173421639592
 30
0.0
 40
0.25
 50
270.0
 51
90.0
  0
LINE
  5
21783
  8
1PHANTOM
 10
2151.0307945312711
 20
-473.86173421639592
 30
0.0
 11
2151.0307945312711
 21
-473.11173421639592
 31
0.0
  0
ARC
  5
21784
  8
1PHANTOM
 10
2152.0307945312711
 20
-473.86173421639592
 30
0.0
 40
1.0
 50
180.0
 51
270.0
  0
ARC
  5
21785
  8
1PHANTOM
 10
2151.0307945312711
 20
-472.86173421639592
 30
0.0
 40
0.25
 50
270.0
 51
90.0
  0
LINE
  5
21786
  8
1PHANTOM
 10
2156.0307945312702
 20
-473.86173421639592
 30
0.0
 11
2156.0307945312702
 21
-473.11173421639592
 31
0.0
  0
ARC
  5
21787
  8
1PHANTOM
 10
2155.0307945312688
 20
-473.86173421639592
 30
0.0
 40
1.0
 50
270.0
 51
0.0
  0
LINE
  5
21788
  8
1PHANTOM
 10
2156.0307945312702
 20
-472.6117342163958
 30
0.0
 11
2156.0307945312702
 21
-470.86173421639592
 31
0.0
  0
ARC
  5
21789
  8
1PHANTOM
 10
2156.0307945312702
 20
-472.86173421639592
 30
0.0
 40
0.25
 50
90.0
 51
270.0
  0
LINE
  5
2178A
  8
1PHANTOM
 10
2156.0307945312702
 20
-470.86173421639592
 30
0.0
 11
2158.0307945312688
 21
-470.86173421639592
 31
0.0
  0
ARC
  5
2178B
  8
1PHANTOM
 10
2153.5307945312711
 20
-474.86173421639592
 30
0.0
 40
0.25
 50
0.0
 51
180.0
  0
LINE
  5
2178C
  8
1PHANTOM
 10
2151.0307945312711
 20
-472.6117342163958
 30
0.0
 11
2151.0307945312711
 21
-468.1117342163958
 31
0.0
  0
LINE
  5
2178D
  8
1PHANTOM
 10
2151.0307945312711
 20
-467.61173421639592
 30
0.0
 11
2151.0307945312711
 21
-465.8617342163958
 31
0.0
  0
ARC
  5
2178E
  8
1PHANTOM
 10
2150.0307945312711
 20
-465.8617342163958
 30
0.0
 40
1.0
 50
0.0
 51
90.0
  0
ARC
  5
2178F
  8
1PHANTOM
 10
2151.0307945312711
 20
-467.86173421639592
 30
0.0
 40
0.25
 50
270.0
 51
90.0
  0
ARC
  5
21790
  8
1PHANTOM
 10
2149.0307945312711
 20
-462.36173421639592
 30
0.0
 40
0.25
 50
270.0
 51
90.0
  0
LINE
  5
21791
  8
1PHANTOM
 10
2155.0307945312711
 20
-523.04838778547366
 30
0.0
 11
2155.0307945312711
 21
-529.61173421639501
 31
0.0
  0
LINE
  5
21792
  8
1PHANTOM
 10
2151.5307945312711
 20
-544.86185000144417
 30
0.0
 11
2146.9810426717609
 21
-544.40687481549435
 31
0.0
  0
ARC
  5
21793
  8
1PHANTOM
 10
2147.0307945312711
 20
-543.90935622038955
 30
0.0
 40
0.5
 50
180.0
 51
264.28940686252878
  0
LINE
  5
21796
  8
01
 10
1955.739903645022
 20
-525.36185000144417
 30
0.0
 11
1095.7399036450211
 21
-525.36185000144417
 31
0.0
  0
LINE
  5
21797
  8
01
 10
1955.739903645022
 20
-544.36185000144428
 30
0.0
 11
1095.7399036450211
 21
-544.36185000144428
 31
0.0
  0
LINE
  5
21798
  8
01
 10
1955.739903645022
 20
-544.86185000144474
 30
0.0
 11
1095.7399036450211
 21
-544.86185000144485
 31
0.0
  0
LINE
  5
21799
  8
01
 10
1955.739903645022
 20
-745.36173421639398
 30
0.0
 11
1095.7399036450211
 21
-745.36173421639398
 31
0.0
  0
LINE
  5
2179A
  8
01
 10
1955.739903645022
 20
-465.36173421639671
 30
0.0
 11
1095.7399036450211
 21
-465.36173421639683
 31
0.0
  0
ARC
  5
21A5A
  8
1PHANTOM
 10
2150.0307945312711
 20
-525.86185000144417
 30
0.0
 40
0.5
 50
0.0
 51
90.0
  0
ARC
  5
21C5B
  8
1PHANTOM
 10
2150.0307945312711
 20
-525.86185000144405
 30
0.0
 40
0.5
 50
0.0
 51
90.0
  0
ARC
  5
21D45
  8
1PHANTOM
 10
2150.0307945312711
 20
-525.86185000144405
 30
0.0
 40
0.5
 50
0.0
 51
90.0
  0
LINE
  5
22178
  8
1CENTER
 10
1055.9149036450201
 20
-309.23883800096382
 30
0.0
 11
1063.06490364502
 21
-309.23883800096382
 31
0.0
  0
LINE
  5
22179
  8
1CENTER
 10
1059.4899036450199
 20
-312.81383800096393
 30
0.0
 11
1059.4899036450199
 21
-305.66383800096378
 31
0.0
  0
LINE
  5
2217A
  8
1CENTER
 10
1079.9149036450201
 20
-309.23883800096382
 30
0.0
 11
1087.06490364502
 21
-309.23883800096382
 31
0.0
  0
LINE
  5
2217B
  8
1CENTER
 10
1083.4899036450199
 20
-312.81383800096393
 30
0.0
 11
1083.4899036450199
 21
-305.66383800096378
 31
0.0
  0
LINE
  5
2217C
  8
1CENTER
 10
1995.5649036450229
 20
-309.23883800096382
 30
0.0
 11
1988.4149036450231
 21
-309.23883800096382
 31
0.0
  0
LINE
  5
2217D
  8
1CENTER
 10
1991.9899036450231
 20
-312.81383800096393
 30
0.0
 11
1991.9899036450231
 21
-305.66383800096378
 31
0.0
  0
LINE
  5
2217E
  8
1CENTER
 10
1971.5649036450229
 20
-309.23883800096382
 30
0.0
 11
1964.4149036450231
 21
-309.23883800096382
 31
0.0
  0
LINE
  5
2217F
  8
1CENTER
 10
1967.9899036450231
 20
-312.81383800096393
 30
0.0
 11
1967.9899036450231
 21
-305.66383800096378
 31
0.0
  0
LINE
  5
223ED
  8
01
 10
2156.5307479953731
 20
-768.36173421639705
 30
0.0
 11
2179.5720957593498
 21
-768.36173421639705
 31
0.0
  0
LINE
  5
223EE
  8
01
 10
2152.3307945312708
 20
-755.36173421639705
 30
0.0
 11
2152.3307945312708
 21
-768.36173421639705
 31
0.0
  0
LINE
  5
223EF
  8
01
 10
2157.73079453127
 20
-755.36173421639705
 30
0.0
 11
2157.73079453127
 21
-768.36173421639705
 31
0.0
  0
LINE
  5
223F0
  8
01
 10
2179.5720957593498
 20
-777.36173421639705
 30
0.0
 11
2123.5145841346898
 21
-777.36173421639705
 31
0.0
  0
LINE
  5
223F2
  8
01
 10
2153.5307479953731
 20
-768.36173421639705
 30
0.0
 11
2123.5145841346898
 21
-768.36173421639705
 31
0.0
  0
LINE
  5
223F3
  8
01
 10
2179.5720957593498
 20
-755.36173421639705
 30
0.0
 11
2123.5145841346898
 21
-755.36173421639705
 31
0.0
  0
LINE
  5
22503
  8
1PHANTOM
 10
1994.4899036450211
 20
-765.179599802442
 30
0.0
 11
1989.4899036450211
 21
-766.179599802442
 31
0.0
  0
LINE
  5
22504
  8
1CENTER
 10
1991.9899036450211
 20
-800.25942484082998
 30
0.0
 11
1991.9899036450211
 21
-734.07878146625012
 31
0.0
  0
LINE
  5
22505
  8
1PHANTOM
 10
1993.7399036450211
 20
-792.53064530315078
 30
0.0
 11
1993.7399036450211
 21
-739.06173421639608
 31
0.0
  0
LINE
  5
22506
  8
1PHANTOM
 10
1991.9899036450211
 20
-799.06173421639619
 30
0.0
 11
1993.7399036450211
 21
-792.53064530315078
 31
0.0
  0
LINE
  5
22507
  8
1PHANTOM
 10
1996.4899036450211
 20
-739.06173421639608
 30
0.0
 11
1996.4899036450211
 21
-738.26173421639635
 31
0.0
  0
LINE
  5
22508
  8
1PHANTOM
 10
1991.9899036450211
 20
-799.06173421639619
 30
0.0
 11
1990.2399036450211
 21
-792.53064530315055
 31
0.0
  0
ARC
  5
22509
  8
1PHANTOM
 10
1993.9899036450211
 20
-738.26173421639623
 30
0.0
 40
2.5
 50
359.99999999999733
 51
90.0
  0
LINE
  5
2250A
  8
1PHANTOM
 10
1990.2399036450211
 20
-792.53064530315055
 30
0.0
 11
1990.2399036450211
 21
-739.06173421639608
 31
0.0
  0
LINE
  5
2250B
  8
1PHANTOM
 10
1989.9899036450211
 20
-735.76173421639612
 30
0.0
 11
1993.9899036450211
 21
-735.76173421639623
 31
0.0
  0
LINE
  5
2250C
  8
1PHANTOM
 10
1987.4899036450211
 20
-740.36173421639614
 30
0.0
 11
1996.4899036450211
 21
-740.36173421639614
 31
0.0
  0
ARC
  5
2250D
  8
1PHANTOM
 10
1989.9899036450211
 20
-738.26173421639601
 30
0.0
 40
2.5
 50
90.0
 51
180.0
  0
LINE
  5
2250E
  8
1PHANTOM
 10
1987.4899036450211
 20
-739.06173421639608
 30
0.0
 11
1987.4899036450211
 21
-738.26173421639601
 31
0.0
  0
LINE
  5
2250F
  8
1PHANTOM
 10
1994.3061705860571
 20
-793.21634641423475
 30
0.0
 11
1993.5561705860571
 21
-793.06634641423489
 31
0.0
  0
LINE
  5
22510
  8
1PHANTOM
 10
1994.3061705860571
 20
-793.21634641423475
 30
0.0
 11
1989.9092661049669
 21
-794.09572731045296
 31
0.0
  0
LINE
  5
22511
  8
1PHANTOM
 10
1993.173684045538
 20
-797.44284372233858
 30
0.0
 11
1992.4236840455389
 21
-797.29284372233849
 31
0.0
  0
LINE
  5
22512
  8
1PHANTOM
 10
1991.676546958078
 20
-798.04227113983075
 30
0.0
 11
1990.926546958078
 21
-797.89227113983077
 31
0.0
  0
LINE
  5
22513
  8
1PHANTOM
 10
1993.173684045538
 20
-797.44284372233858
 30
0.0
 11
1990.926546958078
 21
-797.89227113983077
 31
0.0
  0
LINE
  5
22514
  8
1PHANTOM
 10
1993.739927315798
 20
-795.32959506828672
 30
0.0
 11
1992.989927315798
 21
-795.17959506828674
 31
0.0
  0
LINE
  5
22515
  8
1PHANTOM
 10
1991.167906531522
 20
-796.1439992251419
 30
0.0
 11
1990.417906531522
 21
-795.99399922514192
 31
0.0
  0
LINE
  5
22516
  8
1PHANTOM
 10
1990.6592661049669
 20
-794.24572731045305
 30
0.0
 11
1989.9092661049669
 21
-794.09572731045296
 31
0.0
  0
LINE
  5
22517
  8
1PHANTOM
 10
1993.739927315798
 20
-795.32959506828672
 30
0.0
 11
1990.417906531522
 21
-795.99399922514192
 31
0.0
  0
LINE
  5
22518
  8
1PHANTOM
 10
1994.4899036450211
 20
-769.179599802442
 30
0.0
 11
1993.7399036450211
 21
-769.02959980244202
 31
0.0
  0
LINE
  5
22519
  8
1PHANTOM
 10
1994.4899036450211
 20
-767.17959980244189
 30
0.0
 11
1993.7399036450211
 21
-767.02959980244202
 31
0.0
  0
LINE
  5
2251A
  8
1PHANTOM
 10
1994.4899036450211
 20
-773.179599802442
 30
0.0
 11
1993.7399036450211
 21
-773.02959980244202
 31
0.0
  0
LINE
  5
2251B
  8
1PHANTOM
 10
1994.4899036450211
 20
-771.17959980244189
 30
0.0
 11
1993.7399036450211
 21
-771.02959980244202
 31
0.0
  0
LINE
  5
2251C
  8
1PHANTOM
 10
1994.4899036450211
 20
-775.17959980244189
 30
0.0
 11
1993.7399036450211
 21
-775.02959980244202
 31
0.0
  0
LINE
  5
2251D
  8
1PHANTOM
 10
1994.4899036450211
 20
-777.179599802442
 30
0.0
 11
1993.7399036450211
 21
-777.02959980244202
 31
0.0
  0
LINE
  5
2251E
  8
1PHANTOM
 10
1994.4899036450211
 20
-767.17959980244189
 30
0.0
 11
1989.4899036450211
 21
-768.179599802442
 31
0.0
  0
LINE
  5
2251F
  8
1PHANTOM
 10
1994.4899036450211
 20
-769.179599802442
 30
0.0
 11
1989.4899036450211
 21
-770.179599802442
 31
0.0
  0
LINE
  5
22520
  8
1PHANTOM
 10
1994.4899036450211
 20
-771.17959980244189
 30
0.0
 11
1989.4899036450211
 21
-772.17959980244189
 31
0.0
  0
LINE
  5
22521
  8
1PHANTOM
 10
1994.4899036450211
 20
-773.179599802442
 30
0.0
 11
1989.4899036450211
 21
-774.179599802442
 31
0.0
  0
LINE
  5
22522
  8
1PHANTOM
 10
1994.4899036450211
 20
-775.17959980244189
 30
0.0
 11
1989.4899036450211
 21
-776.17959980244189
 31
0.0
  0
LINE
  5
22523
  8
1PHANTOM
 10
1994.4899036450211
 20
-791.179599802442
 30
0.0
 11
1993.7399036450211
 21
-791.02959980244202
 31
0.0
  0
LINE
  5
22524
  8
1PHANTOM
 10
1994.4899036450211
 20
-779.179599802442
 30
0.0
 11
1993.7399036450211
 21
-779.02959980244191
 31
0.0
  0
LINE
  5
22525
  8
1PHANTOM
 10
1994.4899036450211
 20
-779.179599802442
 30
0.0
 11
1989.4899036450211
 21
-780.17959980244189
 31
0.0
  0
LINE
  5
22526
  8
1PHANTOM
 10
1994.4899036450211
 20
-791.179599802442
 30
0.0
 11
1989.4899036450211
 21
-792.17959980244189
 31
0.0
  0
LINE
  5
22527
  8
1PHANTOM
 10
1994.4899036450211
 20
-777.179599802442
 30
0.0
 11
1989.4899036450211
 21
-778.179599802442
 31
0.0
  0
LINE
  5
22528
  8
1PHANTOM
 10
1990.2399036450211
 20
-774.32959980244209
 30
0.0
 11
1989.4899036450211
 21
-774.179599802442
 31
0.0
  0
LINE
  5
22529
  8
1PHANTOM
 10
1990.2399036450211
 20
-780.32959980244198
 30
0.0
 11
1989.4899036450211
 21
-780.17959980244189
 31
0.0
  0
LINE
  5
2252A
  8
1PHANTOM
 10
1990.2399036450211
 20
-792.32959980244198
 30
0.0
 11
1989.4899036450211
 21
-792.17959980244189
 31
0.0
  0
LINE
  5
2252B
  8
1PHANTOM
 10
1990.2399036450211
 20
-776.32959980244198
 30
0.0
 11
1989.4899036450211
 21
-776.17959980244189
 31
0.0
  0
LINE
  5
2252C
  8
1PHANTOM
 10
1990.2399036450211
 20
-778.32959980244209
 30
0.0
 11
1989.4899036450211
 21
-778.179599802442
 31
0.0
  0
LINE
  5
2252D
  8
1PHANTOM
 10
1990.2399036450211
 20
-770.32959980244209
 30
0.0
 11
1989.4899036450211
 21
-770.179599802442
 31
0.0
  0
LINE
  5
2252E
  8
1PHANTOM
 10
1990.2399036450211
 20
-772.32959980244198
 30
0.0
 11
1989.4899036450211
 21
-772.17959980244189
 31
0.0
  0
LINE
  5
2252F
  8
1PHANTOM
 10
1990.2399036450211
 20
-768.32959980244198
 30
0.0
 11
1989.4899036450211
 21
-768.179599802442
 31
0.0
  0
LINE
  5
22530
  8
1PHANTOM
 10
1990.2399036450211
 20
-766.32959980244209
 30
0.0
 11
1989.4899036450211
 21
-766.179599802442
 31
0.0
  0
LINE
  5
22531
  8
1PHANTOM
 10
1994.4899036450211
 20
-749.179599802442
 30
0.0
 11
1989.4899036450211
 21
-750.17959980244189
 31
0.0
  0
LINE
  5
22532
  8
1PHANTOM
 10
1994.4899036450211
 20
-761.179599802442
 30
0.0
 11
1993.7399036450211
 21
-761.02959980244202
 31
0.0
  0
LINE
  5
22533
  8
1PHANTOM
 10
1994.4899036450211
 20
-763.17959980244189
 30
0.0
 11
1993.7399036450211
 21
-763.02959980244202
 31
0.0
  0
LINE
  5
22534
  8
1PHANTOM
 10
1994.4899036450211
 20
-765.179599802442
 30
0.0
 11
1993.7399036450211
 21
-765.02959980244202
 31
0.0
  0
LINE
  5
22535
  8
1PHANTOM
 10
1994.4899036450211
 20
-759.17959980244189
 30
0.0
 11
1993.7399036450211
 21
-759.02959980244202
 31
0.0
  0
LINE
  5
22536
  8
1PHANTOM
 10
1994.4899036450211
 20
-757.179599802442
 30
0.0
 11
1993.7399036450211
 21
-757.02959980244202
 31
0.0
  0
LINE
  5
22537
  8
1PHANTOM
 10
1994.4899036450211
 20
-753.179599802442
 30
0.0
 11
1993.7399036450211
 21
-753.02959980244202
 31
0.0
  0
LINE
  5
22538
  8
1PHANTOM
 10
1994.4899036450211
 20
-755.17959980244189
 30
0.0
 11
1993.7399036450211
 21
-755.02959980244202
 31
0.0
  0
LINE
  5
22539
  8
1PHANTOM
 10
1994.4899036450211
 20
-751.17959980244189
 30
0.0
 11
1993.7399036450211
 21
-751.02959980244202
 31
0.0
  0
LINE
  5
2253A
  8
1PHANTOM
 10
1994.4899036450211
 20
-761.179599802442
 30
0.0
 11
1989.4899036450211
 21
-762.179599802442
 31
0.0
  0
LINE
  5
2253B
  8
1PHANTOM
 10
1994.4899036450211
 20
-763.17959980244189
 30
0.0
 11
1989.4899036450211
 21
-764.179599802442
 31
0.0
  0
LINE
  5
2253C
  8
1PHANTOM
 10
1994.4899036450211
 20
-759.17959980244189
 30
0.0
 11
1989.4899036450211
 21
-760.179599802442
 31
0.0
  0
LINE
  5
2253D
  8
1PHANTOM
 10
1994.4899036450211
 20
-757.179599802442
 30
0.0
 11
1989.4899036450211
 21
-758.179599802442
 31
0.0
  0
LINE
  5
2253E
  8
1PHANTOM
 10
1994.4899036450211
 20
-755.17959980244189
 30
0.0
 11
1989.4899036450211
 21
-756.179599802442
 31
0.0
  0
LINE
  5
2253F
  8
1PHANTOM
 10
1994.4899036450211
 20
-753.179599802442
 30
0.0
 11
1989.4899036450211
 21
-754.179599802442
 31
0.0
  0
LINE
  5
22540
  8
1PHANTOM
 10
1994.4899036450211
 20
-751.17959980244189
 30
0.0
 11
1989.4899036450211
 21
-752.179599802442
 31
0.0
  0
LINE
  5
22541
  8
1PHANTOM
 10
1990.2399036450211
 20
-762.32959980244209
 30
0.0
 11
1989.4899036450211
 21
-762.179599802442
 31
0.0
  0
LINE
  5
22542
  8
1PHANTOM
 10
1990.2399036450211
 20
-764.32959980244198
 30
0.0
 11
1989.4899036450211
 21
-764.179599802442
 31
0.0
  0
LINE
  5
22543
  8
1PHANTOM
 10
1990.2399036450211
 20
-760.32959980244209
 30
0.0
 11
1989.4899036450211
 21
-760.179599802442
 31
0.0
  0
LINE
  5
22544
  8
1PHANTOM
 10
1990.2399036450211
 20
-758.32959980244209
 30
0.0
 11
1989.4899036450211
 21
-758.179599802442
 31
0.0
  0
LINE
  5
22545
  8
1PHANTOM
 10
1990.2399036450211
 20
-756.32959980244209
 30
0.0
 11
1989.4899036450211
 21
-756.179599802442
 31
0.0
  0
LINE
  5
22546
  8
1PHANTOM
 10
1990.2399036450211
 20
-754.32959980244198
 30
0.0
 11
1989.4899036450211
 21
-754.179599802442
 31
0.0
  0
LINE
  5
22547
  8
1PHANTOM
 10
1990.2399036450211
 20
-752.32959980244209
 30
0.0
 11
1989.4899036450211
 21
-752.179599802442
 31
0.0
  0
LINE
  5
22548
  8
1PHANTOM
 10
1990.2399036450211
 20
-750.32959980244198
 30
0.0
 11
1989.4899036450211
 21
-750.17959980244189
 31
0.0
  0
LINE
  5
22549
  8
1PHANTOM
 10
1994.4899036450211
 20
-747.17959980244189
 30
0.0
 11
1993.7399036450211
 21
-747.02959980244202
 31
0.0
  0
LINE
  5
2254A
  8
1PHANTOM
 10
1994.4899036450211
 20
-745.179599802442
 30
0.0
 11
1993.7399036450211
 21
-745.02959980244202
 31
0.0
  0
LINE
  5
2254B
  8
1PHANTOM
 10
1994.4899036450211
 20
-749.179599802442
 30
0.0
 11
1993.7399036450211
 21
-749.02959980244202
 31
0.0
  0
LINE
  5
2254C
  8
1PHANTOM
 10
1994.4899036450211
 20
-743.17959980244189
 30
0.0
 11
1993.7399036450211
 21
-743.02959980244202
 31
0.0
  0
LINE
  5
2254D
  8
1PHANTOM
 10
1994.4899036450211
 20
-741.179599802442
 30
0.0
 11
1993.7399036450211
 21
-741.02959980244202
 31
0.0
  0
LINE
  5
2254E
  8
1PHANTOM
 10
1994.4899036450211
 20
-739.179599802442
 30
0.0
 11
1993.7399036450211
 21
-739.02959980244202
 31
0.0
  0
LINE
  5
2254F
  8
1PHANTOM
 10
1994.4899036450211
 20
-745.179599802442
 30
0.0
 11
1989.4899036450211
 21
-746.17959980244189
 31
0.0
  0
LINE
  5
22550
  8
1PHANTOM
 10
1994.4899036450211
 20
-747.17959980244189
 30
0.0
 11
1989.4899036450211
 21
-748.179599802442
 31
0.0
  0
LINE
  5
22551
  8
1PHANTOM
 10
1994.4899036450211
 20
-743.17959980244189
 30
0.0
 11
1989.4899036450211
 21
-744.179599802442
 31
0.0
  0
LINE
  5
22552
  8
1PHANTOM
 10
1994.4899036450211
 20
-739.179599802442
 30
0.0
 11
1989.4899036450211
 21
-740.179599802442
 31
0.0
  0
LINE
  5
22553
  8
1PHANTOM
 10
1994.4899036450211
 20
-741.179599802442
 30
0.0
 11
1989.4899036450211
 21
-742.17959980244189
 31
0.0
  0
LINE
  5
22554
  8
1PHANTOM
 10
1990.2399036450211
 20
-746.32959980244198
 30
0.0
 11
1989.4899036450211
 21
-746.17959980244189
 31
0.0
  0
LINE
  5
22555
  8
1PHANTOM
 10
1990.2399036450211
 20
-748.32959980244209
 30
0.0
 11
1989.4899036450211
 21
-748.179599802442
 31
0.0
  0
LINE
  5
22556
  8
1PHANTOM
 10
1990.2399036450211
 20
-744.32959980244209
 30
0.0
 11
1989.4899036450211
 21
-744.179599802442
 31
0.0
  0
LINE
  5
22557
  8
1PHANTOM
 10
1990.2399036450211
 20
-742.32959980244198
 30
0.0
 11
1989.4899036450211
 21
-742.17959980244189
 31
0.0
  0
LINE
  5
22558
  8
1PHANTOM
 10
1990.2399036450211
 20
-740.32959980244209
 30
0.0
 11
1989.4899036450211
 21
-740.179599802442
 31
0.0
  0
LINE
  5
22559
  8
1PHANTOM
 10
1987.4899036450211
 20
-739.06173421639608
 30
0.0
 11
1996.4899036450211
 21
-739.06173421639608
 31
0.0
  0
LINE
  5
2255A
  8
1PHANTOM
 10
1994.4899036450211
 20
-783.179599802442
 30
0.0
 11
1993.7399036450211
 21
-783.02959980244202
 31
0.0
  0
LINE
  5
2255B
  8
1PHANTOM
 10
1994.4899036450211
 20
-781.179599802442
 30
0.0
 11
1993.7399036450211
 21
-781.02959980244202
 31
0.0
  0
LINE
  5
2255C
  8
1PHANTOM
 10
1994.4899036450211
 20
-785.179599802442
 30
0.0
 11
1993.7399036450211
 21
-785.02959980244202
 31
0.0
  0
LINE
  5
2255D
  8
1PHANTOM
 10
1994.4899036450211
 20
-787.179599802442
 30
0.0
 11
1993.7399036450211
 21
-787.02959980244202
 31
0.0
  0
LINE
  5
2255E
  8
1PHANTOM
 10
1994.4899036450211
 20
-781.179599802442
 30
0.0
 11
1989.4899036450211
 21
-782.179599802442
 31
0.0
  0
LINE
  5
2255F
  8
1PHANTOM
 10
1994.4899036450211
 20
-783.179599802442
 30
0.0
 11
1989.4899036450211
 21
-784.17959980244189
 31
0.0
  0
LINE
  5
22560
  8
1PHANTOM
 10
1994.4899036450211
 20
-785.179599802442
 30
0.0
 11
1989.4899036450211
 21
-786.179599802442
 31
0.0
  0
LINE
  5
22561
  8
1PHANTOM
 10
1994.4899036450211
 20
-789.179599802442
 30
0.0
 11
1993.7399036450211
 21
-789.02959980244202
 31
0.0
  0
LINE
  5
22562
  8
1PHANTOM
 10
1994.4899036450211
 20
-789.179599802442
 30
0.0
 11
1989.4899036450211
 21
-790.179599802442
 31
0.0
  0
LINE
  5
22563
  8
1PHANTOM
 10
1994.4899036450211
 20
-787.179599802442
 30
0.0
 11
1989.4899036450211
 21
-788.17959980244189
 31
0.0
  0
LINE
  5
22564
  8
1PHANTOM
 10
1990.2399036450211
 20
-784.32959980244198
 30
0.0
 11
1989.4899036450211
 21
-784.17959980244189
 31
0.0
  0
LINE
  5
22565
  8
1PHANTOM
 10
1990.2399036450211
 20
-790.32959980244209
 30
0.0
 11
1989.4899036450211
 21
-790.179599802442
 31
0.0
  0
LINE
  5
22566
  8
1PHANTOM
 10
1990.2399036450211
 20
-786.32959980244209
 30
0.0
 11
1989.4899036450211
 21
-786.179599802442
 31
0.0
  0
LINE
  5
22567
  8
1PHANTOM
 10
1990.2399036450211
 20
-788.32959980244198
 30
0.0
 11
1989.4899036450211
 21
-788.17959980244189
 31
0.0
  0
LINE
  5
22568
  8
1PHANTOM
 10
1990.2399036450211
 20
-782.32959980244209
 30
0.0
 11
1989.4899036450211
 21
-782.179599802442
 31
0.0
  0
LINE
  5
22569
  8
1PHANTOM
 10
1987.4899036450211
 20
-739.06173421639608
 30
0.0
 11
1987.4899036450211
 21
-740.36173421639614
 31
0.0
  0
LINE
  5
2256A
  8
1PHANTOM
 10
1996.4899036450211
 20
-739.06173421639608
 30
0.0
 11
1996.4899036450211
 21
-740.36173421639614
 31
0.0
  0
LINE
  5
225D1
  8
1PHANTOM
 10
2161.5307945312702
 20
-753.36173421639501
 30
0.0
 11
2161.5307945312702
 21
-457.3617342163958
 31
0.0
  0
LINE
  5
225D2
  8
1PHANTOM
 10
2158.5307945312688
 20
-753.36173421639501
 30
0.0
 11
2158.5307945312688
 21
-457.3617342163958
 31
0.0
  0
TEXT
  5
2261B
  8
1TEXT
 10
1057.9148701763991
 20
-247.30983630952909
 30
0.0
 40
12.0
  1
表面処理:KC108脚部
 41
0.7
 72
     1
 11
1107.3348701763989
 21
-247.30983630952909
 31
0.0
  0
LINE
  5
2261C
  8
1DIM
 10
1055.134870176398
 20
-230.80983630952909
 30
0.0
 11
1265.134870176398
 21
-230.80983630952909
 31
0.0
  0
LINE
  5
2261D
  8
1DIM
 10
1055.134870176398
 20
-272.80983630952909
 30
0.0
 11
1265.134870176398
 21
-272.80983630952909
 31
0.0
  0
LINE
  5
2261E
  8
1DIM
 10
1055.134870176398
 20
-251.80983630952909
 30
0.0
 11
1265.134870176398
 21
-251.80983630952909
 31
0.0
  0
LINE
  5
2261F
  8
1DIM
 10
1160.134870176398
 20
-230.80983630952909
 30
0.0
 11
1160.1348701763959
 21
-272.80983630952909
 31
0.0
  0
LINE
  5
22621
  8
1DIM
 10
1055.134870176398
 20
-272.80983630952909
 30
0.0
 11
1055.134870176398
 21
-230.80983630952909
 31
0.0
  0
LINE
  5
22622
  8
1DIM
 10
1265.134870176397
 20
-272.80983630952909
 30
0.0
 11
1265.134870176398
 21
-230.80983630952909
 31
0.0
  0
TEXT
  5
22623
  8
1TEXT
 10
1055.134870176398
 20
-215.80983630952909
 30
0.0
 40
24.0
  1
KC-108-SC
  0
TEXT
  5
22624
  8
1TEXT
 10
1079.3348701763989
 20
-267.81570228810199
 30
0.0
 40
12.0
  1
クローム
 72
     1
 11
1107.3348701763989
 21
-267.81570228810199
 31
0.0
  0
LINE
  5
22655
  8
1DIM
 10
1265.134870176398
 20
-230.80983630952909
 30
0.0
 11
1475.134870176398
 21
-230.80983630952909
 31
0.0
  0
LINE
  5
22656
  8
1DIM
 10
1265.134870176398
 20
-272.80983630952909
 30
0.0
 11
1475.134870176398
 21
-272.80983630952909
 31
0.0
  0
LINE
  5
22657
  8
1DIM
 10
1265.134870176398
 20
-251.80983630952909
 30
0.0
 11
1475.134870176398
 21
-251.80983630952909
 31
0.0
  0
LINE
  5
22658
  8
1DIM
 10
1370.134870176398
 20
-230.80983630952909
 30
0.0
 11
1370.1348701763959
 21
-272.80983630952909
 31
0.0
  0
LINE
  5
2265A
  8
1DIM
 10
1265.134870176398
 20
-272.80983630952909
 30
0.0
 11
1265.134870176398
 21
-230.80983630952909
 31
0.0
  0
TEXT
  5
2265C
  8
1TEXT
 10
1297.3348701763989
 20
-267.81570228810199
 30
0.0
 40
12.0
  1
乳白色
 72
     1
 11
1317.3348701763989
 21
-267.81570228810199
 31
0.0
  0
TEXT
  5
22668
  8
1TEXT
 10
1165.5848701763989
 20
-247.30983630952909
 30
0.0
 40
12.0
  1
表面処理:KC108アルミ板
 41
0.55
 72
     1
 11
1212.3348701763989
 21
-247.30983630952909
 31
0.0
  0
TEXT
  5
22669
  8
1TEXT
 10
1270.5848701763989
 20
-247.30983630952909
 30
0.0
 40
12.0
  1
表面処理:KC108ガラス板
 41
0.55
 72
     1
 11
1317.3348701763989
 21
-247.30983630952909
 31
0.0
  0
TEXT
  5
2266A
  8
1TEXT
 10
1161.9348701763979
 20
-267.81570228810199
 30
0.0
 40
12.0
  1
ブラストシルバー
 41
0.9
 72
     1
 11
1212.3348701763989
 21
-267.81570228810199
 31
0.0
  0
TEXT
  5
2266E
  8
1TEXT
 10
1401.9348701764
 20
-247.30983630952909
 30
0.0
 40
12.0
  1
コード
 72
     1
 11
1422.3348701764
 21
-247.30983630952909
 31
0.0
  0
LINE
  5
2266F
  8
1DIM
 10
1475.134870176398
 20
-272.80983630952909
 30
0.0
 11
1475.1348701763991
 21
-230.80983630952909
 31
0.0
  0
TEXT
  5
22670
  8
1TEXT
 10
1381.034870176401
 20
-268.95290726047688
 30
0.0
 40
12.0
  1
KC-108S-1SC
 41
0.7
 72
     1
 11
1422.334870176401
 21
-268.95290726047688
 31
0.0
  0
LINE
  5
227DE
  8
1DIM
 10
1955.739903645022
 20
-301.48883800096331
 30
0.0
 11
2034.0602879393341
 21
-301.48883800096331
 31
0.0
  0
LINE
  5
227E1
  8
1DIM
 10
1955.739903645022
 20
-316.98883800096428
 30
0.0
 11
2034.0602879393341
 21
-316.98883800096428
 31
0.0
  0
LINE
  5
227E2
  8
1DIM
 10
2031.0602879393341
 20
-295.48883800096343
 30
0.0
 11
2031.0602879393341
 21
-289.48883800096343
 31
0.0
  0
LINE
  5
227E3
  8
1DIM
 10
2031.0602879393341
 20
-322.98883800096428
 30
0.0
 11
2031.0602879393341
 21
-363.68883800096432
 31
0.0
  0
LINE
  5
227E4
  8
1DIM
 10
2031.0602879393341
 20
-301.48883800096331
 30
0.0
 11
2031.0602879393341
 21
-316.98883800096428
 31
0.0
  0
TEXT
  5
227E8
  8
1HATCH
 10
1843.5188110909451
 20
-262.0945580303374
 30
0.0
 40
10.5
  1
材質：ガラス
  0
TEXT
  5
227E9
  8
1HATCH
 10
1843.5188110909451
 20
-279.59455803033728
 30
0.0
 40
10.5
  1
仕上げ：乳白色
  0
SOLID
  5
227EA
  8
1HATCH
 10
1823.3041981988199
 20
-296.61413541008761
 30
0.0
 11
1818.542369406392
 21
-300.39897180702837
 31
0.0
 12
1821.8192875407619
 22
-295.27434425562137
 32
0.0
 13
1821.8192875407619
 23
-295.27434425562137
 33
0.0
1001
ACAD
1000
DSTYLE
1002
{
1070
    40
1040
3.0
1002
}
  0
TEXT
  5
227EC
  8
1HATCH
 10
1423.832587277647
 20
-395.95968732808831
 30
0.0
 40
10.5
  1
材質：アルミ
  0
TEXT
  5
227ED
  8
1HATCH
 10
1423.832587277647
 20
-413.45968732808831
 30
0.0
 40
10.5
  1
仕上げ：ブラストシルバー
  0
SOLID
  5
227EE
  8
1HATCH
 10
1397.393808334841
 20
-456.32737994201358
 30
0.0
 11
1393.908003886778
 21
-461.31227385762122
 31
0.0
 12
1395.588664121776
 22
-455.46630249483673
 32
0.0
 13
1395.588664121776
 23
-455.46630249483673
 33
0.0
1001
ACAD
1000
DSTYLE
1002
{
1070
    40
1040
3.0
1002
}
  0
TEXT
  5
227F0
  8
1HATCH
 10
1088.5946350633119
 20
-395.95968732808831
 30
0.0
 40
10.5
  1
材質：亜鉛ダイキャスト
  0
TEXT
  5
227F1
  8
1HATCH
 10
1088.5946350633119
 20
-413.45968732808831
 30
0.0
 40
10.5
  1
仕上げ：クローム
  0
SOLID
  5
227F2
  8
1HATCH
 10
1066.556968534619
 20
-458.08303972836211
 30
0.0
 11
1063.6181933787591
 21
-463.40878855677153
 31
0.0
 12
1064.670845933196
 22
-457.41780177664612
 32
0.0
 13
1064.670845933196
 23
-457.41780177664612
 33
0.0
1001
ACAD
1000
DSTYLE
1002
{
1070
    40
1040
3.0
1002
}
  0
LINE
  5
227F4
  8
1HATCH
 10
2123.8305726328549
 20
-767.81189835141311
 30
0.0
 11
2123.5145841346898
 21
-767.49590985324835
 31
0.0
1001
ACAD
1010
0.0
1020
0.0
1030
0.0
  0
LINE
  5
227F5
  8
1HATCH
 10
2126.625472528106
 20
-768.36173421639694
 30
0.0
 11
2124.1112056366378
 21
-765.84746732492943
 31
0.0
1001
ACAD
1010
0.0
1020
0.0
1030
0.0
  0
LINE
  5
227F7
  8
1HATCH
 10
2128.8705365583728
 20
-768.36173421639694
 30
0.0
 11
2127.198168678256
 21
-766.68936633627936
 31
0.0
1001
ACAD
1010
0.0
1020
0.0
1030
0.0
  0
LINE
  5
227F9
  8
1HATCH
 10
2126.0756366631222
 20
-765.56683432114585
 30
0.0
 11
2123.5145841346898
 21
-763.00578179271395
 31
0.0
1001
ACAD
1010
0.0
1020
0.0
1030
0.0
  0
LINE
  5
227FA
  8
1HATCH
 10
2131.115600588641
 20
-768.36173421639694
 30
0.0
 11
2130.2851317198738
 21
-767.5312653476301
 31
0.0
1001
ACAD
1010
0.0
1020
0.0
1030
0.0
  0
LINE
  5
227FC
  8
1HATCH
 10
2129.1625997047399
 20
-766.40873333249635
 30
0.0
 11
2126.356269666906
 21
-763.60240329466239
 31
0.0
1001
ACAD
1010
0.0
1020
0.0
1030
0.0
  0
LINE
  5
227FE
  8
1HATCH
 10
2125.233737651773
 20
-762.47987127952865
 30
0.0
 11
2123.5145841346912
 21
-760.76071776244669
 31
0.0
1001
ACAD
1010
0.0
1020
0.0
1030
0.0
  0
LINE
  5
22800
  8
1HATCH
 10
2132.2495627463582
 20
-767.25063234384618
 30
0.0
 11
2129.4432327085242
 21
-764.44430230601222
 31
0.0
1001
ACAD
1010
0.0
1020
0.0
1030
0.0
  0
LINE
  5
22802
  8
1HATCH
 10
2128.3207006933899
 20
-763.32177029087859
 30
0.0
 11
2125.5143706555559
 21
-760.51544025304452
 31
0.0
1001
ACAD
1010
0.0
1020
0.0
1030
0.0
  0
LINE
  5
22804
  8
1HATCH
 10
2124.391838640423
 20
-759.39290823791089
 30
0.0
 11
2123.5145841346921
 21
-758.51565373217943
 31
0.0
1001
ACAD
1010
0.0
1020
0.0
1030
0.0
  0
LINE
  5
22805
  8
1HATCH
 10
2135.336525787975
 20
-768.09253135519646
 30
0.0
 11
2132.530195750141
 21
-765.28620131736238
 31
0.0
1001
ACAD
1010
0.0
1020
0.0
1030
0.0
  0
LINE
  5
22807
  8
1HATCH
 10
2131.4076637350081
 20
-764.16366930222875
 30
0.0
 11
2128.6013336971741
 21
-761.3573392643948
 31
0.0
1001
ACAD
1010
0.0
1020
0.0
1030
0.0
  0
LINE
  5
22809
  8
1HATCH
 10
2127.4788016820398
 20
-760.23480724926117
 30
0.0
 11
2124.6724716442059
 21
-757.42847721142698
 31
0.0
1001
ACAD
1010
0.0
1020
0.0
1030
0.0
  0
LINE
  5
2280B
  8
1HATCH
 10
2123.5499396290729
 20
-756.30594519629335
 30
0.0
 11
2123.5145841346921
 21
-756.27058970191229
 31
0.0
1001
ACAD
1010
0.0
1020
0.0
1030
0.0
  0
LINE
  5
2280C
  8
1HATCH
 10
2137.8507926794432
 20
-768.36173421639705
 30
0.0
 11
2135.6171587917579
 21
-766.12810032871243
 31
0.0
1001
ACAD
1010
0.0
1020
0.0
1030
0.0
  0
LINE
  5
2280E
  8
1HATCH
 10
2134.494626776625
 20
-765.00556831357869
 30
0.0
 11
2131.688296738791
 21
-762.19923827574473
 31
0.0
1001
ACAD
1010
0.0
1020
0.0
1030
0.0
  0
LINE
  5
22810
  8
1HATCH
 10
2130.5657647236571
 20
-761.0767062606111
 30
0.0
 11
2127.7594346858241
 21
-758.27037622277703
 31
0.0
1001
ACAD
1010
0.0
1020
0.0
1030
0.0
  0
LINE
  5
22812
  8
1HATCH
 10
2126.6369026706911
 20
-757.1478442076434
 30
0.0
 11
2124.8507926794441
 21
-755.36173421639717
 31
0.0
1001
ACAD
1010
0.0
1020
0.0
1030
0.0
  0
LINE
  5
22813
  8
1HATCH
 10
2140.09585670971
 20
-768.36173421639717
 30
0.0
 11
2138.7041218333752
 21
-766.96999934006283
 31
0.0
1001
ACAD
1010
0.0
1020
0.0
1030
0.0
  0
LINE
  5
22815
  8
1HATCH
 10
2137.5815898182432
 20
-765.84746732492908
 30
0.0
 11
2134.7752597804092
 21
-763.04113728709513
 31
0.0
1001
ACAD
1010
0.0
1020
0.0
1030
0.0
  0
LINE
  5
22817
  8
1HATCH
 10
2133.6527277652749
 20
-761.9186052719615
 30
0.0
 11
2130.8463977274409
 21
-759.11227523412742
 31
0.0
1001
ACAD
1010
0.0
1020
0.0
1030
0.0
  0
LINE
  5
22819
  8
1HATCH
 10
2129.7238657123071
 20
-757.98974321899368
 30
0.0
 11
2127.0958567097109
 21
-755.36173421639705
 31
0.0
1001
ACAD
1010
0.0
1020
0.0
1030
0.0
  0
LINE
  5
2281A
  8
1HATCH
 10
2142.3409207399768
 20
-768.36173421639705
 30
0.0
 11
2141.791084874993
 21
-767.81189835141311
 31
0.0
1001
ACAD
1010
0.0
1020
0.0
1030
0.0
  0
LINE
  5
2281C
  8
1HATCH
 10
2140.66855285986
 20
-766.68936633627936
 30
0.0
 11
2137.8622228220261
 21
-763.8830362984454
 31
0.0
1001
ACAD
1010
0.0
1020
0.0
1030
0.0
  0
LINE
  5
2281E
  8
1HATCH
 10
2136.7396908068922
 20
-762.76050428331166
 30
0.0
 11
2133.9333607690592
 21
-759.9541742454777
 31
0.0
1001
ACAD
1010
0.0
1020
0.0
1030
0.0
  0
LINE
  5
22820
  8
1HATCH
 10
2132.8108287539262
 20
-758.83164223034396
 30
0.0
 11
2130.0044987160909
 21
-756.02531219251
 31
0.0
1001
ACAD
1010
0.0
1020
0.0
1030
0.0
  0
LINE
  5
22823
  8
1HATCH
 10
2143.7555159014778
 20
-767.53126534762953
 30
0.0
 11
2140.9491858636438
 21
-764.72493530979546
 31
0.0
1001
ACAD
1010
0.0
1020
0.0
1030
0.0
  0
LINE
  5
22825
  8
1HATCH
 10
2139.82665384851
 20
-763.60240329466183
 30
0.0
 11
2137.020323810676
 21
-760.79607325682775
 31
0.0
1001
ACAD
1010
0.0
1020
0.0
1030
0.0
  0
LINE
  5
22827
  8
1HATCH
 10
2135.8977917955422
 20
-759.67354124169412
 30
0.0
 11
2133.0914617577091
 21
-756.86721120386005
 31
0.0
1001
ACAD
1010
0.0
1020
0.0
1030
0.0
  0
LINE
  5
22829
  8
1HATCH
 10
2131.9689297425748
 20
-755.74467918872642
 30
0.0
 11
2131.5859847702459
 21
-755.36173421639717
 31
0.0
1001
ACAD
1010
0.0
1020
0.0
1030
0.0
  0
LINE
  5
2282A
  8
1HATCH
 10
2146.8310488005118
 20
-768.36173421639705
 30
0.0
 11
2144.0361489052611
 21
-765.56683432114585
 31
0.0
1001
ACAD
1010
0.0
1020
0.0
1030
0.0
  0
LINE
  5
2282C
  8
1HATCH
 10
2142.9136168901268
 20
-764.44430230601222
 30
0.0
 11
2140.1072868522929
 21
-761.63797226817815
 31
0.0
1001
ACAD
1010
0.0
1020
0.0
1030
0.0
  0
LINE
  5
2282E
  8
1HATCH
 10
2138.9847548371599
 20
-760.51544025304452
 30
0.0
 11
2136.178424799326
 21
-757.70911021521044
 31
0.0
1001
ACAD
1010
0.0
1020
0.0
1030
0.0
  0
LINE
  5
22830
  8
1HATCH
 10
2135.055892784193
 20
-756.58657820007681
 30
0.0
 11
2133.8310488005131
 21
-755.36173421639717
 31
0.0
1001
ACAD
1010
0.0
1020
0.0
1030
0.0
  0
LINE
  5
22831
  8
1HATCH
 10
2149.0761128307799
 20
-768.36173421639717
 30
0.0
 11
2147.123111946878
 21
-766.40873333249613
 31
0.0
1001
ACAD
1010
0.0
1020
0.0
1030
0.0
  0
LINE
  5
22833
  8
1HATCH
 10
2146.0005799317451
 20
-765.28620131736238
 30
0.0
 11
2143.1942498939111
 21
-762.47987127952842
 31
0.0
1001
ACAD
1010
0.0
1020
0.0
1030
0.0
  0
LINE
  5
22835
  8
1HATCH
 10
2142.0717178787781
 20
-761.3573392643948
 30
0.0
 11
2139.2653878409442
 21
-758.55100922656072
 31
0.0
1001
ACAD
1010
0.0
1020
0.0
1030
0.0
  0
LINE
  5
22837
  8
1HATCH
 10
2138.1428558258099
 20
-757.42847721142698
 30
0.0
 11
2136.0761128307799
 21
-755.36173421639705
 31
0.0
1001
ACAD
1010
0.0
1020
0.0
1030
0.0
  0
LINE
  5
22838
  8
1HATCH
 10
2151.3211768610458
 20
-768.36173421639694
 30
0.0
 11
2150.2100749884962
 21
-767.25063234384618
 31
0.0
1001
ACAD
1010
0.0
1020
0.0
1030
0.0
  0
LINE
  5
2283A
  8
1HATCH
 10
2149.0875429733619
 20
-766.12810032871255
 30
0.0
 11
2146.2812129355279
 21
-763.32177029087859
 31
0.0
1001
ACAD
1010
0.0
1020
0.0
1030
0.0
  0
LINE
  5
2283C
  8
1HATCH
 10
2145.158680920395
 20
-762.19923827574485
 30
0.0
 11
2142.352350882561
 21
-759.39290823791089
 31
0.0
1001
ACAD
1010
0.0
1020
0.0
1030
0.0
  0
LINE
  5
2283E
  8
1HATCH
 10
2141.2298188674281
 20
-758.27037622277714
 30
0.0
 11
2138.4234888295941
 21
-755.46404618494307
 31
0.0
1001
ACAD
1010
0.0
1020
0.0
1030
0.0
  0
LINE
  5
2283F
  8
1HATCH
 10
2152.1745060149801
 20
-766.96999934006294
 30
0.0
 11
2149.3681759771462
 21
-764.16366930222875
 31
0.0
1001
ACAD
1010
0.0
1020
0.0
1030
0.0
  0
LINE
  5
22841
  8
1HATCH
 10
2148.2456439620119
 20
-763.04113728709524
 30
0.0
 11
2145.4393139241779
 21
-760.23480724926117
 31
0.0
1001
ACAD
1010
0.0
1020
0.0
1030
0.0
  0
LINE
  5
22843
  8
1HATCH
 10
2144.3167819090449
 20
-759.11227523412754
 30
0.0
 11
2141.510451871211
 21
-756.30594519629335
 31
0.0
1001
ACAD
1010
0.0
1020
0.0
1030
0.0
  0
LINE
  5
22846
  8
1HATCH
 10
2151.3326070036292
 20
-763.8830362984454
 30
0.0
 11
2148.5262769657961
 21
-761.07670626061133
 31
0.0
1001
ACAD
1010
0.0
1020
0.0
1030
0.0
  0
LINE
  5
22848
  8
1HATCH
 10
2147.4037449506618
 20
-759.9541742454777
 30
0.0
 11
2144.5974149128278
 21
-757.14784420764363
 31
0.0
1001
ACAD
1010
0.0
1020
0.0
1030
0.0
  0
LINE
  5
2284A
  8
1HATCH
 10
2143.4748828976949
 20
-756.02531219251
 30
0.0
 11
2142.8113049215822
 21
-755.36173421639705
 31
0.0
1001
ACAD
1010
0.0
1020
0.0
1030
0.0
  0
LINE
  5
2284B
  8
1HATCH
 10
2158.0563689518481
 20
-768.36173421639705
 30
0.0
 11
2157.73079453127
 21
-768.036159795819
 31
0.0
1001
ACAD
1010
0.0
1020
0.0
1030
0.0
  0
LINE
  5
2284C
  8
1HATCH
 10
2152.3307945312708
 20
-762.63615979581959
 30
0.0
 11
2151.6132400074121
 21
-761.91860527196127
 31
0.0
1001
ACAD
1010
0.0
1020
0.0
1030
0.0
  0
LINE
  5
2284E
  8
1HATCH
 10
2150.4907079922791
 20
-760.79607325682775
 30
0.0
 11
2147.6843779544452
 21
-757.98974321899368
 31
0.0
1001
ACAD
1010
0.0
1020
0.0
1030
0.0
  0
LINE
  5
22850
  8
1HATCH
 10
2146.5618459393122
 20
-756.86721120386005
 30
0.0
 11
2145.0563689518481
 21
-755.36173421639671
 31
0.0
1001
ACAD
1010
0.0
1020
0.0
1030
0.0
  0
LINE
  5
22851
  8
1HATCH
 10
2160.3014329821149
 20
-768.36173421639694
 30
0.0
 11
2158.6290651019981
 21
-766.68936633627936
 31
0.0
1001
ACAD
1010
0.0
1020
0.0
1030
0.0
  0
LINE
  5
22853
  8
1HATCH
 10
2152.3307945312708
 20
-760.39109576555245
 30
0.0
 11
2150.7713409960629
 21
-758.83164223034385
 31
0.0
1001
ACAD
1010
0.0
1020
0.0
1030
0.0
  0
LINE
  5
22855
  8
1HATCH
 10
2149.6488089809291
 20
-757.70911021521022
 30
0.0
 11
2147.3014329821158
 21
-755.36173421639683
 31
0.0
1001
ACAD
1010
0.0
1020
0.0
1030
0.0
  0
LINE
  5
22856
  8
1HATCH
 10
2162.546497012383
 20
-768.36173421639694
 30
0.0
 11
2161.7160281436149
 21
-767.53126534762976
 31
0.0
1001
ACAD
1010
0.0
1020
0.0
1030
0.0
  0
LINE
  5
22858
  8
1HATCH
 10
2160.593496128482
 20
-766.40873333249613
 30
0.0
 11
2157.787166090648
 21
-763.60240329466205
 31
0.0
1001
ACAD
1010
0.0
1020
0.0
1030
0.0
  0
LINE
  5
22859
  8
1HATCH
 10
2152.3307945312708
 20
-758.14603173528519
 30
0.0
 11
2149.929441984712
 21
-755.74467918872642
 31
0.0
1001
ACAD
1010
0.0
1020
0.0
1030
0.0
  0
LINE
  5
2285B
  8
1HATCH
 10
2163.6804591701002
 20
-767.25063234384675
 30
0.0
 11
2160.8741291322658
 21
-764.44430230601267
 31
0.0
1001
ACAD
1010
0.0
1020
0.0
1030
0.0
  0
LINE
  5
2285D
  8
1HATCH
 10
2159.7515971171329
 20
-763.32177029087904
 30
0.0
 11
2157.7307945312709
 21
-761.30096770501791
 31
0.0
1001
ACAD
1010
0.0
1020
0.0
1030
0.0
  0
LINE
  5
2285E
  8
1HATCH
 10
2151.8938730111959
 20
-755.46404618494296
 30
0.0
 11
2151.7915610426498
 21
-755.36173421639694
 31
0.0
1001
ACAD
1010
0.0
1020
0.0
1030
0.0
  0
LINE
  5
2285F
  8
1HATCH
 10
2166.7674222117171
 20
-768.09253135519646
 30
0.0
 11
2163.9610921738831
 21
-765.28620131736238
 31
0.0
1001
ACAD
1010
0.0
1020
0.0
1030
0.0
  0
LINE
  5
22861
  8
1HATCH
 10
2162.8385601587502
 20
-764.16366930222875
 30
0.0
 11
2160.0322301209162
 21
-761.3573392643948
 31
0.0
1001
ACAD
1010
0.0
1020
0.0
1030
0.0
  0
LINE
  5
22863
  8
1HATCH
 10
2158.9096981057819
 20
-760.23480724926117
 30
0.0
 11
2157.7307945312709
 21
-759.05590367475031
 31
0.0
1001
ACAD
1010
0.0
1020
0.0
1030
0.0
  0
LINE
  5
22864
  8
1HATCH
 10
2169.2816891031839
 20
-768.36173421639683
 30
0.0
 11
2167.0480552155
 21
-766.12810032871266
 31
0.0
1001
ACAD
1010
0.0
1020
0.0
1030
0.0
  0
LINE
  5
22866
  8
1HATCH
 10
2165.925523200367
 20
-765.00556831357915
 30
0.0
 11
2163.1191931625331
 21
-762.19923827574507
 31
0.0
1001
ACAD
1010
0.0
1020
0.0
1030
0.0
  0
LINE
  5
22868
  8
1HATCH
 10
2161.9966611474001
 20
-761.07670626061145
 30
0.0
 11
2159.1903311095662
 21
-758.27037622277726
 31
0.0
1001
ACAD
1010
0.0
1020
0.0
1030
0.0
  0
LINE
  5
2286A
  8
1HATCH
 10
2158.0677990944318
 20
-757.14784420764374
 30
0.0
 11
2157.7307945312709
 21
-756.81083964448271
 31
0.0
1001
ACAD
1010
0.0
1020
0.0
1030
0.0
  0
LINE
  5
2286B
  8
1HATCH
 10
2171.5267531334521
 20
-768.36173421639683
 30
0.0
 11
2170.1350182571182
 21
-766.96999934006283
 31
0.0
1001
ACAD
1010
0.0
1020
0.0
1030
0.0
  0
LINE
  5
2286D
  8
1HATCH
 10
2169.0124862419839
 20
-765.84746732492908
 30
0.0
 11
2166.2061562041499
 21
-763.04113728709513
 31
0.0
1001
ACAD
1010
0.0
1020
0.0
1030
0.0
  0
LINE
  5
2286F
  8
1HATCH
 10
2165.083624189017
 20
-761.9186052719615
 30
0.0
 11
2162.277294151183
 21
-759.11227523412742
 31
0.0
1001
ACAD
1010
0.0
1020
0.0
1030
0.0
  0
LINE
  5
22871
  8
1HATCH
 10
2161.1547621360501
 20
-757.98974321899368
 30
0.0
 11
2158.526753133453
 21
-755.36173421639671
 31
0.0
1001
ACAD
1010
0.0
1020
0.0
1030
0.0
  0
LINE
  5
22872
  8
1HATCH
 10
2173.7718171637189
 20
-768.36173421639683
 30
0.0
 11
2173.221981298735
 21
-767.81189835141299
 31
0.0
1001
ACAD
1010
0.0
1020
0.0
1030
0.0
  0
LINE
  5
22874
  8
1HATCH
 10
2172.0994492836021
 20
-766.68936633627925
 30
0.0
 11
2169.2931192457681
 21
-763.88303629844518
 31
0.0
1001
ACAD
1010
0.0
1020
0.0
1030
0.0
  0
LINE
  5
22876
  8
1HATCH
 10
2168.1705872306338
 20
-762.76050428331155
 30
0.0
 11
2165.3642571927999
 21
-759.95417424547759
 31
0.0
1001
ACAD
1010
0.0
1020
0.0
1030
0.0
  0
LINE
  5
22878
  8
1HATCH
 10
2164.2417251776669
 20
-758.83164223034396
 30
0.0
 11
2161.435395139833
 21
-756.02531219250977
 31
0.0
1001
ACAD
1010
0.0
1020
0.0
1030
0.0
  0
LINE
  5
2287B
  8
1HATCH
 10
2175.186412325219
 20
-767.53126534762976
 30
0.0
 11
2172.3800822873859
 21
-764.72493530979557
 31
0.0
1001
ACAD
1010
0.0
1020
0.0
1030
0.0
  0
LINE
  5
2287D
  8
1HATCH
 10
2171.257550272252
 20
-763.60240329466205
 30
0.0
 11
2168.4512202344181
 21
-760.79607325682798
 31
0.0
1001
ACAD
1010
0.0
1020
0.0
1030
0.0
  0
LINE
  5
2287F
  8
1HATCH
 10
2167.3286882192851
 20
-759.67354124169435
 30
0.0
 11
2164.5223581814512
 21
-756.86721120386017
 31
0.0
1001
ACAD
1010
0.0
1020
0.0
1030
0.0
  0
LINE
  5
22881
  8
1HATCH
 10
2163.3998261663169
 20
-755.74467918872665
 30
0.0
 11
2163.016881193987
 21
-755.36173421639694
 31
0.0
1001
ACAD
1010
0.0
1020
0.0
1030
0.0
  0
LINE
  5
22882
  8
1HATCH
 10
2178.2619452242539
 20
-768.36173421639705
 30
0.0
 11
2175.4670453290032
 21
-765.56683432114573
 31
0.0
1001
ACAD
1010
0.0
1020
0.0
1030
0.0
  0
LINE
  5
22884
  8
1HATCH
 10
2174.3445133138689
 20
-764.44430230601199
 30
0.0
 11
2171.5381832760349
 21
-761.63797226817803
 31
0.0
1001
ACAD
1010
0.0
1020
0.0
1030
0.0
  0
LINE
  5
22886
  8
1HATCH
 10
2170.4156512609011
 20
-760.5154402530444
 30
0.0
 11
2167.609321223068
 21
-757.70911021521033
 31
0.0
1001
ACAD
1010
0.0
1020
0.0
1030
0.0
  0
LINE
  5
22888
  8
1HATCH
 10
2166.4867892079342
 20
-756.58657820007659
 30
0.0
 11
2165.2619452242539
 21
-755.36173421639694
 31
0.0
1001
ACAD
1010
0.0
1020
0.0
1030
0.0
  0
LINE
  5
22889
  8
1HATCH
 10
2179.5720957593498
 20
-767.42682072122568
 30
0.0
 11
2178.5540083706201
 21
-766.40873333249613
 31
0.0
1001
ACAD
1010
0.0
1020
0.0
1030
0.0
  0
LINE
  5
2288B
  8
1HATCH
 10
2177.4314763554862
 20
-765.28620131736238
 30
0.0
 11
2174.6251463176532
 21
-762.47987127952842
 31
0.0
1001
ACAD
1010
0.0
1020
0.0
1030
0.0
  0
LINE
  5
2288D
  8
1HATCH
 10
2173.5026143025202
 20
-761.3573392643948
 30
0.0
 11
2170.6962842646849
 21
-758.55100922656072
 31
0.0
1001
ACAD
1010
0.0
1020
0.0
1030
0.0
  0
LINE
  5
2288F
  8
1HATCH
 10
2169.5737522495519
 20
-757.42847721142698
 30
0.0
 11
2167.507009254522
 21
-755.36173421639694
 31
0.0
1001
ACAD
1010
0.0
1020
0.0
1030
0.0
  0
LINE
  5
22890
  8
1HATCH
 10
2179.5720957593498
 20
-765.18175669095854
 30
0.0
 11
2177.71210935927
 21
-763.32177029087836
 31
0.0
1001
ACAD
1010
0.0
1020
0.0
1030
0.0
  0
LINE
  5
22892
  8
1HATCH
 10
2176.5895773441371
 20
-762.19923827574485
 30
0.0
 11
2173.7832473063031
 21
-759.39290823791077
 31
0.0
1001
ACAD
1010
0.0
1020
0.0
1030
0.0
  0
LINE
  5
22894
  8
1HATCH
 10
2172.6607152911688
 20
-758.27037622277714
 30
0.0
 11
2169.8543852533348
 21
-755.46404618494296
 31
0.0
1001
ACAD
1010
0.0
1020
0.0
1030
0.0
  0
LINE
  5
22895
  8
1HATCH
 10
2179.5720957593498
 20
-762.93669266069128
 30
0.0
 11
2176.87021034792
 21
-760.23480724926094
 31
0.0
1001
ACAD
1010
0.0
1020
0.0
1030
0.0
  0
LINE
  5
22897
  8
1HATCH
 10
2175.747678332787
 20
-759.11227523412731
 30
0.0
 11
2172.9413482949531
 21
-756.30594519629324
 31
0.0
1001
ACAD
1010
0.0
1020
0.0
1030
0.0
  0
LINE
  5
2289A
  8
1HATCH
 10
2178.834641374403
 20
-759.95417424547725
 30
0.0
 11
2176.028311336569
 21
-757.14784420764329
 31
0.0
1001
ACAD
1010
0.0
1020
0.0
1030
0.0
  0
LINE
  5
2289C
  8
1HATCH
 10
2174.9057793214361
 20
-756.02531219250966
 30
0.0
 11
2174.2422013453229
 21
-755.36173421639683
 31
0.0
1001
ACAD
1010
0.0
1020
0.0
1030
0.0
  0
LINE
  5
2289D
  8
1HATCH
 10
2179.5720957593498
 20
-758.44656460015665
 30
0.0
 11
2179.1152743781872
 21
-757.98974321899368
 31
0.0
1001
ACAD
1010
0.0
1020
0.0
1030
0.0
  0
LINE
  5
2289F
  8
1HATCH
 10
2177.9927423630538
 20
-756.86721120386005
 30
0.0
 11
2176.4872653755901
 21
-755.36173421639705
 31
0.0
1001
ACAD
1010
0.0
1020
0.0
1030
0.0
  0
LINE
  5
228A0
  8
1HATCH
 10
2179.5720957593498
 20
-756.20150056988939
 30
0.0
 11
2178.7323294058569
 21
-755.36173421639683
 31
0.0
1001
ACAD
1010
0.0
1020
0.0
1030
0.0
  0
TEXT
  5
228A1
  8
1DIM
 10
2006.21632886612
 20
-798.01938614009703
 30
0.0
 40
10.5
  1
カウンター下穴\U+03C66
  0
SOLID
  5
228A2
  8
1DIM
 10
2148.1767855540352
 20
-767.40319535914216
 30
0.0
 11
2152.7933007791539
 21
-763.44241422706273
 31
0.0
 12
2149.710904582013
 22
-768.68634726285245
 32
0.0
 13
2149.710904582013
 23
-768.68634726285245
 33
0.0
1001
ACAD
1000
DSTYLE
1002
{
1070
    40
1040
3.0
1002
}
  0
TEXT
  5
228A4
  8
1DIM
 10
2009.4859228070659
 20
-841.02861803204416
 30
0.0
 40
10.5
  1
コンパネ等9mm以上
  0
SOLID
  5
228A5
  8
1DIM
 10
2143.9113584235211
 20
-783.74323313165405
 30
0.0
 11
2145.9352005835931
 21
-778.007026814661
 31
0.0
 12
2145.8811465349818
 22
-784.08954916643484
 32
0.0
 13
2145.8811465349818
 23
-784.08954916643484
 33
0.0
1001
ACAD
1000
DSTYLE
1002
{
1070
    40
1040
3.0
1002
}
  0
LINE
  5
228A7
  8
1DIM
 10
1991.9899036450211
 20
-800.25942484082998
 30
0.0
 11
1991.9899036450211
 21
-828.03875986928858
 31
0.0
  0
LINE
  5
228A8
  8
1DIM
 10
2000.739903645022
 20
-755.36173421639705
 30
0.0
 11
2000.739903645022
 21
-828.03875986928858
 31
0.0
  0
LINE
  5
228A9
  8
1DIM
 10
1985.9899036450211
 20
-825.0387598692887
 30
0.0
 11
1979.9899036450211
 21
-825.0387598692887
 31
0.0
  0
LINE
  5
228AA
  8
1DIM
 10
2006.7399036450211
 20
-825.0387598692887
 30
0.0
 11
2023.439903645022
 21
-825.0387598692887
 31
0.0
  0
LINE
  5
228AB
  8
1DIM
 10
1991.9899036450211
 20
-825.0387598692887
 30
0.0
 11
2000.739903645022
 21
-825.0387598692887
 31
0.0
  0
LINE
  5
228AF
  8
1DIM
 10
1967.9899036450211
 20
-800.25942484082998
 30
0.0
 11
1967.9899036450211
 21
-828.03875986928858
 31
0.0
  0
LINE
  5
228B0
  8
1DIM
 10
1991.9899036450211
 20
-800.25942484082998
 30
0.0
 11
1991.9899036450211
 21
-828.03875986928858
 31
0.0
  0
LINE
  5
228B1
  8
1DIM
 10
1985.9899036450211
 20
-825.0387598692887
 30
0.0
 11
1973.9899036450211
 21
-825.0387598692887
 31
0.0
  0
LINE
  5
228B2
  8
1DIM
 10
1967.9899036450211
 20
-825.0387598692887
 30
0.0
 11
1930.289903645021
 21
-825.0387598692887
 31
0.0
  0
LINE
  5
228B6
  8
1DIM
 10
1083.4899036450211
 20
-800.25942484082998
 30
0.0
 11
1083.4899036450211
 21
-828.03875986928858
 31
0.0
  0
LINE
  5
228B7
  8
1DIM
 10
1967.9899036450211
 20
-800.25942484082998
 30
0.0
 11
1967.9899036450211
 21
-828.03875986928858
 31
0.0
  0
LINE
  5
228B8
  8
1DIM
 10
1089.4899036450211
 20
-825.0387598692887
 30
0.0
 11
1961.989903645022
 21
-825.0387598692887
 31
0.0
  0
LINE
  5
228BC
  8
1DIM
 10
1059.4899036450211
 20
-800.25942484082998
 30
0.0
 11
1059.4899036450211
 21
-828.03875986928858
 31
0.0
  0
LINE
  5
228BD
  8
1DIM
 10
1083.4899036450211
 20
-800.25942484082998
 30
0.0
 11
1083.4899036450211
 21
-828.03875986928858
 31
0.0
  0
LINE
  5
228BE
  8
1DIM
 10
1065.4899036450211
 20
-825.0387598692887
 30
0.0
 11
1077.4899036450211
 21
-825.0387598692887
 31
0.0
  0
LINE
  5
228BF
  8
1DIM
 10
1083.4899036450211
 20
-825.0387598692887
 30
0.0
 11
1121.1899036450211
 21
-825.0387598692887
 31
0.0
  0
LINE
  5
228C3
  8
1DIM
 10
1050.7399036450211
 20
-755.36173421639705
 30
0.0
 11
1050.7399036450211
 21
-863.36509765417304
 31
0.0
  0
LINE
  5
228C4
  8
1DIM
 10
2000.739903645022
 20
-755.36173421639705
 30
0.0
 11
2000.739903645022
 21
-863.36509765417304
 31
0.0
  0
LINE
  5
228C5
  8
1DIM
 10
1056.7399036450211
 20
-860.36509765417316
 30
0.0
 11
1994.7399036450211
 21
-860.36509765417316
 31
0.0
  0
LINE
  5
228C9
  8
1HATCH
 10
2123.5145841346898
 20
-770.37295087984444
 30
0.0
 11
2125.5258007981379
 21
-768.36173421639705
 31
0.0
1001
ACAD
1010
0.0
1020
0.0
1030
0.0
  0
LINE
  5
228CA
  8
1HATCH
 10
2123.5145841346898
 20
-772.6180149101117
 30
0.0
 11
2127.7708648284051
 21
-768.36173421639694
 31
0.0
1001
ACAD
1010
0.0
1020
0.0
1030
0.0
  0
LINE
  5
228CB
  8
1HATCH
 10
2123.5145841346898
 20
-774.86307894037895
 30
0.0
 11
2130.0159288586719
 21
-768.36173421639705
 31
0.0
1001
ACAD
1010
0.0
1020
0.0
1030
0.0
  0
LINE
  5
228CC
  8
1HATCH
 10
2123.5145841346898
 20
-777.10814297064633
 30
0.0
 11
2132.2609928889392
 21
-768.36173421639694
 31
0.0
1001
ACAD
1010
0.0
1020
0.0
1030
0.0
  0
LINE
  5
228CD
  8
1HATCH
 10
2125.5060569192069
 20
-777.36173421639705
 30
0.0
 11
2134.5060569192069
 21
-768.36173421639705
 31
0.0
1001
ACAD
1010
0.0
1020
0.0
1030
0.0
  0
LINE
  5
228CE
  8
1HATCH
 10
2127.7511209494742
 20
-777.36173421639705
 30
0.0
 11
2136.7511209494742
 21
-768.36173421639694
 31
0.0
1001
ACAD
1010
0.0
1020
0.0
1030
0.0
  0
LINE
  5
228CF
  8
1HATCH
 10
2129.996184979741
 20
-777.36173421639705
 30
0.0
 11
2138.9961849797419
 21
-768.36173421639705
 31
0.0
1001
ACAD
1010
0.0
1020
0.0
1030
0.0
  0
LINE
  5
228D0
  8
1HATCH
 10
2132.2412490100091
 20
-777.36173421639705
 30
0.0
 11
2141.2412490100091
 21
-768.36173421639694
 31
0.0
1001
ACAD
1010
0.0
1020
0.0
1030
0.0
  0
LINE
  5
228D1
  8
1HATCH
 10
2134.4863130402759
 20
-777.36173421639705
 30
0.0
 11
2143.4863130402759
 21
-768.36173421639705
 31
0.0
1001
ACAD
1010
0.0
1020
0.0
1030
0.0
  0
LINE
  5
228D2
  8
1HATCH
 10
2136.7313770705432
 20
-777.36173421639705
 30
0.0
 11
2145.7313770705432
 21
-768.36173421639694
 31
0.0
1001
ACAD
1010
0.0
1020
0.0
1030
0.0
  0
LINE
  5
228D3
  8
1HATCH
 10
2138.97644110081
 20
-777.36173421639705
 30
0.0
 11
2147.9764411008109
 21
-768.36173421639671
 31
0.0
1001
ACAD
1010
0.0
1020
0.0
1030
0.0
  0
LINE
  5
228D4
  8
1HATCH
 10
2141.2215051310782
 20
-777.36173421639705
 30
0.0
 11
2150.2215051310782
 21
-768.36173421639683
 31
0.0
1001
ACAD
1010
0.0
1020
0.0
1030
0.0
  0
LINE
  5
228D5
  8
1HATCH
 10
2143.466569161345
 20
-777.36173421639705
 30
0.0
 11
2152.4665691613459
 21
-768.36173421639671
 31
0.0
1001
ACAD
1010
0.0
1020
0.0
1030
0.0
  0
LINE
  5
228D6
  8
1HATCH
 10
2145.7116331916118
 20
-777.36173421639705
 30
0.0
 11
2152.8332720931849
 21
-770.24009531482454
 31
0.0
1001
ACAD
1010
0.0
1020
0.0
1030
0.0
  0
LINE
  5
228D7
  8
1HATCH
 10
2152.984510874142
 20
-770.08885653386756
 30
0.0
 11
2153.2807945312711
 21
-769.79257287673875
 31
0.0
1001
ACAD
1010
0.0
1020
0.0
1030
0.0
  0
LINE
  5
228D8
  8
1HATCH
 10
2147.956697221879
 20
-777.36173421639728
 30
0.0
 11
2153.037492118408
 21
-772.28093931986928
 31
0.0
1001
ACAD
1010
0.0
1020
0.0
1030
0.0
  0
LINE
  5
228D9
  8
1HATCH
 10
2156.7807945312711
 20
-768.53763690700623
 30
0.0
 11
2156.9566972218799
 21
-768.36173421639694
 31
0.0
1001
ACAD
1010
0.0
1020
0.0
1030
0.0
  0
LINE
  5
228DA
  8
1HATCH
 10
2150.2017612521472
 20
-777.36173421639728
 30
0.0
 11
2153.2417121436301
 21
-774.32178332491401
 31
0.0
1001
ACAD
1010
0.0
1020
0.0
1030
0.0
  0
LINE
  5
228DB
  8
1HATCH
 10
2156.7807945312711
 20
-770.78270093727326
 30
0.0
 11
2159.2017612521472
 21
-768.36173421639705
 31
0.0
1001
ACAD
1010
0.0
1020
0.0
1030
0.0
  0
LINE
  5
228DC
  8
1HATCH
 10
2152.446825282414
 20
-777.36173421639728
 30
0.0
 11
2153.2807945312711
 21
-776.52776496754063
 31
0.0
1001
ACAD
1010
0.0
1020
0.0
1030
0.0
  0
LINE
  5
228DD
  8
1HATCH
 10
2156.7807945312702
 20
-773.02776496754075
 30
0.0
 11
2161.4468252824149
 21
-768.36173421639694
 31
0.0
1001
ACAD
1010
0.0
1020
0.0
1030
0.0
  0
LINE
  5
228DE
  8
1HATCH
 10
2156.983485527408
 20
-775.07013800166965
 30
0.0
 11
2163.6918893126822
 21
-768.36173421639705
 31
0.0
1001
ACAD
1010
0.0
1020
0.0
1030
0.0
  0
LINE
  5
228DF
  8
1HATCH
 10
2156.936953342949
 20
-777.36173421639705
 30
0.0
 11
2157.0161610633122
 21
-777.2825264960336
 31
0.0
1001
ACAD
1010
0.0
1020
0.0
1030
0.0
  0
LINE
  5
228E0
  8
1HATCH
 10
2157.187705552632
 20
-777.11098200671415
 30
0.0
 11
2165.936953342949
 21
-768.36173421639694
 31
0.0
1001
ACAD
1010
0.0
1020
0.0
1030
0.0
  0
LINE
  5
228E1
  8
1HATCH
 10
2159.1820173732171
 20
-777.36173421639705
 30
0.0
 11
2168.1820173732158
 21
-768.36173421639705
 31
0.0
1001
ACAD
1010
0.0
1020
0.0
1030
0.0
  0
LINE
  5
228E2
  8
1HATCH
 10
2161.427081403484
 20
-777.36173421639705
 30
0.0
 11
2170.427081403484
 21
-768.36173421639694
 31
0.0
1001
ACAD
1010
0.0
1020
0.0
1030
0.0
  0
LINE
  5
228E3
  8
1HATCH
 10
2163.6721454337512
 20
-777.36173421639705
 30
0.0
 11
2172.6721454337512
 21
-768.36173421639705
 31
0.0
1001
ACAD
1010
0.0
1020
0.0
1030
0.0
  0
LINE
  5
228E4
  8
1HATCH
 10
2165.917209464018
 20
-777.36173421639705
 30
0.0
 11
2174.917209464018
 21
-768.36173421639683
 31
0.0
1001
ACAD
1010
0.0
1020
0.0
1030
0.0
  0
LINE
  5
228E5
  8
1HATCH
 10
2168.1622734942848
 20
-777.36173421639705
 30
0.0
 11
2177.1622734942862
 21
-768.36173421639671
 31
0.0
1001
ACAD
1010
0.0
1020
0.0
1030
0.0
  0
LINE
  5
228E6
  8
1HATCH
 10
2170.407337524553
 20
-777.36173421639705
 30
0.0
 11
2179.407337524553
 21
-768.36173421639683
 31
0.0
1001
ACAD
1010
0.0
1020
0.0
1030
0.0
  0
LINE
  5
228E7
  8
1HATCH
 10
2172.6524015548198
 20
-777.36173421639705
 30
0.0
 11
2179.5720957593498
 21
-770.44204001186711
 31
0.0
1001
ACAD
1010
0.0
1020
0.0
1030
0.0
  0
LINE
  5
228E8
  8
1HATCH
 10
2174.897465585087
 20
-777.36173421639705
 30
0.0
 11
2179.5720957593498
 21
-772.68710404213425
 31
0.0
1001
ACAD
1010
0.0
1020
0.0
1030
0.0
  0
LINE
  5
228E9
  8
1HATCH
 10
2177.1425296153552
 20
-777.36173421639705
 30
0.0
 11
2179.5720957593498
 21
-774.93216807240162
 31
0.0
1001
ACAD
1010
0.0
1020
0.0
1030
0.0
  0
LINE
  5
228EA
  8
1HATCH
 10
2179.387593645622
 20
-777.36173421639705
 30
0.0
 11
2179.5720957593498
 21
-777.17723210266877
 31
0.0
1001
ACAD
1010
0.0
1020
0.0
1030
0.0
  0
LINE
  5
228EB
  8
1DIM
 10
1999.2399036450211
 20
-323.23883800096428
 30
0.0
 11
2065.3083834095669
 21
-323.23883800096428
 31
0.0
  0
LINE
  5
228EC
  8
1DIM
 10
1999.2399036450211
 20
-295.23883800096428
 30
0.0
 11
2065.3083834095669
 21
-295.23883800096428
 31
0.0
  0
LINE
  5
228ED
  8
1DIM
 10
2062.3083834095669
 20
-317.23883800096428
 30
0.0
 11
2062.3083834095669
 21
-301.23883800096428
 31
0.0
  0
LINE
  5
228F1
  8
1DIM
 10
2000.739903645022
 20
-755.36173421639705
 30
0.0
 11
2033.605954522194
 21
-755.36173421639705
 31
0.0
  0
LINE
  5
228F2
  8
1DIM
 10
1999.7399036450211
 20
-454.86173421639711
 30
0.0
 11
2033.605954522194
 21
-454.86173421639711
 31
0.0
  0
LINE
  5
228F3
  8
1DIM
 10
2030.605954522194
 20
-749.36173421639705
 30
0.0
 11
2030.605954522194
 21
-460.861734216397
 31
0.0
  0
TEXT
  5
228F7
  8
1DIM
 10
2028.505954522195
 20
-624.3617342163966
 30
0.0
 40
10.5
  1
300.5
 50
90.0
  0
LINE
  5
228F8
  8
0
  6
BYBLOCK
 10
2028.998259382194
 20
-460.861734216397
 30
0.0
 11
2030.605954522194
 21
-454.86173421639711
 31
0.0
  0
LINE
  5
228F9
  8
0
  6
BYBLOCK
 10
2030.605954522194
 20
-454.86173421639711
 30
0.0
 11
2032.213649662194
 21
-460.861734216397
 31
0.0
  0
LINE
  5
228FA
  8
0
  6
BYBLOCK
 10
2030.605954522194
 20
-454.86173421639711
 30
0.0
 11
2030.605954522194
 21
-460.861734216397
 31
0.0
  0
LINE
  5
228FB
  8
0
  6
BYBLOCK
 10
2032.213649662194
 20
-749.36173421639705
 30
0.0
 11
2030.605954522194
 21
-755.36173421639705
 31
0.0
  0
LINE
  5
228FC
  8
0
  6
BYBLOCK
 10
2030.605954522194
 20
-755.36173421639705
 30
0.0
 11
2028.998259382194
 21
-749.36173421639705
 31
0.0
  0
LINE
  5
228FD
  8
0
  6
BYBLOCK
 10
2030.605954522194
 20
-755.36173421639705
 30
0.0
 11
2030.605954522194
 21
-749.36173421639705
 31
0.0
  0
TEXT
  5
228FE
  8
1DIM
 10
2060.208383409567
 20
-317.98883800096388
 30
0.0
 40
10.5
  1
28
 50
90.0
  0
LINE
  5
228FF
  8
0
  6
BYBLOCK
 10
2060.7006882695669
 20
-301.23883800096428
 30
0.0
 11
2062.3083834095669
 21
-295.23883800096428
 31
0.0
  0
LINE
  5
22900
  8
0
  6
BYBLOCK
 10
2062.3083834095669
 20
-295.23883800096428
 30
0.0
 11
2063.9160785495669
 21
-301.23883800096428
 31
0.0
  0
LINE
  5
22901
  8
0
  6
BYBLOCK
 10
2062.3083834095669
 20
-295.23883800096428
 30
0.0
 11
2062.3083834095669
 21
-301.23883800096428
 31
0.0
  0
LINE
  5
22902
  8
0
  6
BYBLOCK
 10
2063.9160785495669
 20
-317.23883800096428
 30
0.0
 11
2062.3083834095669
 21
-323.23883800096428
 31
0.0
  0
LINE
  5
22903
  8
0
  6
BYBLOCK
 10
2062.3083834095669
 20
-323.23883800096428
 30
0.0
 11
2060.7006882695669
 21
-317.23883800096428
 31
0.0
  0
LINE
  5
22904
  8
0
  6
BYBLOCK
 10
2062.3083834095669
 20
-323.23883800096428
 30
0.0
 11
2062.3083834095669
 21
-317.23883800096428
 31
0.0
  0
TEXT
  5
22905
  8
1DIM
 10
1512.6149036450211
 20
-858.26509765417302
 30
0.0
 40
10.5
  1
950
  0
LINE
  5
22906
  8
0
  6
BYBLOCK
 10
1994.7399036450211
 20
-858.75740251417301
 30
0.0
 11
2000.739903645022
 21
-860.36509765417316
 31
0.0
  0
LINE
  5
22907
  8
0
  6
BYBLOCK
 10
2000.739903645022
 20
-860.36509765417316
 30
0.0
 11
1994.7399036450211
 21
-861.97279279417307
 31
0.0
  0
LINE
  5
22908
  8
0
  6
BYBLOCK
 10
2000.739903645022
 20
-860.36509765417316
 30
0.0
 11
1994.7399036450211
 21
-860.36509765417316
 31
0.0
  0
LINE
  5
22909
  8
0
  6
BYBLOCK
 10
1056.7399036450211
 20
-861.97279279417307
 30
0.0
 11
1050.7399036450211
 21
-860.36509765417316
 31
0.0
  0
LINE
  5
2290A
  8
0
  6
BYBLOCK
 10
1050.7399036450211
 20
-860.36509765417316
 30
0.0
 11
1056.7399036450211
 21
-858.75740251417301
 31
0.0
  0
LINE
  5
2290B
  8
0
  6
BYBLOCK
 10
1050.7399036450211
 20
-860.36509765417316
 30
0.0
 11
1056.7399036450211
 21
-860.36509765417316
 31
0.0
  0
TEXT
  5
2290C
  8
1DIM
 10
1091.339903645021
 20
-822.93875986928856
 30
0.0
 40
10.5
  1
P24
  0
LINE
  5
2290D
  8
0
  6
BYBLOCK
 10
1077.4899036450211
 20
-823.43106472928855
 30
0.0
 11
1083.4899036450211
 21
-825.0387598692887
 31
0.0
  0
LINE
  5
2290E
  8
0
  6
BYBLOCK
 10
1083.4899036450211
 20
-825.0387598692887
 30
0.0
 11
1077.4899036450211
 21
-826.64645500928873
 31
0.0
  0
LINE
  5
2290F
  8
0
  6
BYBLOCK
 10
1083.4899036450211
 20
-825.0387598692887
 30
0.0
 11
1077.4899036450211
 21
-825.0387598692887
 31
0.0
  0
LINE
  5
22910
  8
0
  6
BYBLOCK
 10
1065.4899036450211
 20
-826.64645500928873
 30
0.0
 11
1059.4899036450211
 21
-825.0387598692887
 31
0.0
  0
LINE
  5
22911
  8
0
  6
BYBLOCK
 10
1059.4899036450211
 20
-825.0387598692887
 30
0.0
 11
1065.4899036450211
 21
-823.43106472928855
 31
0.0
  0
LINE
  5
22912
  8
0
  6
BYBLOCK
 10
1059.4899036450211
 20
-825.0387598692887
 30
0.0
 11
1065.4899036450211
 21
-825.0387598692887
 31
0.0
  0
TEXT
  5
22913
  8
1DIM
 10
1499.4899036450211
 20
-822.93875986928856
 30
0.0
 40
10.5
  1
P884.5
  0
LINE
  5
22914
  8
0
  6
BYBLOCK
 10
1961.989903645022
 20
-823.43106472928855
 30
0.0
 11
1967.9899036450211
 21
-825.0387598692887
 31
0.0
  0
LINE
  5
22915
  8
0
  6
BYBLOCK
 10
1967.9899036450211
 20
-825.0387598692887
 30
0.0
 11
1961.989903645022
 21
-826.64645500928873
 31
0.0
  0
LINE
  5
22916
  8
0
  6
BYBLOCK
 10
1967.9899036450211
 20
-825.0387598692887
 30
0.0
 11
1961.989903645022
 21
-825.0387598692887
 31
0.0
  0
LINE
  5
22917
  8
0
  6
BYBLOCK
 10
1089.4899036450211
 20
-826.64645500928873
 30
0.0
 11
1083.4899036450211
 21
-825.0387598692887
 31
0.0
  0
LINE
  5
22918
  8
0
  6
BYBLOCK
 10
1083.4899036450211
 20
-825.0387598692887
 30
0.0
 11
1089.4899036450211
 21
-823.43106472928855
 31
0.0
  0
LINE
  5
22919
  8
0
  6
BYBLOCK
 10
1083.4899036450211
 20
-825.0387598692887
 30
0.0
 11
1089.4899036450211
 21
-825.0387598692887
 31
0.0
  0
TEXT
  5
2291A
  8
1DIM
 10
1932.1399036450221
 20
-822.93875986928856
 30
0.0
 40
10.5
  1
P24
  0
LINE
  5
2291B
  8
0
  6
BYBLOCK
 10
1973.9899036450211
 20
-826.64645500928873
 30
0.0
 11
1967.9899036450211
 21
-825.0387598692887
 31
0.0
  0
LINE
  5
2291C
  8
0
  6
BYBLOCK
 10
1967.9899036450211
 20
-825.0387598692887
 30
0.0
 11
1973.9899036450211
 21
-823.43106472928855
 31
0.0
  0
LINE
  5
2291D
  8
0
  6
BYBLOCK
 10
1967.9899036450211
 20
-825.0387598692887
 30
0.0
 11
1973.9899036450211
 21
-825.0387598692887
 31
0.0
  0
LINE
  5
2291E
  8
0
  6
BYBLOCK
 10
1985.9899036450211
 20
-823.43106472928855
 30
0.0
 11
1991.9899036450211
 21
-825.0387598692887
 31
0.0
  0
LINE
  5
2291F
  8
0
  6
BYBLOCK
 10
1991.9899036450211
 20
-825.0387598692887
 30
0.0
 11
1985.9899036450211
 21
-826.64645500928873
 31
0.0
  0
LINE
  5
22920
  8
0
  6
BYBLOCK
 10
1991.9899036450211
 20
-825.0387598692887
 30
0.0
 11
1985.9899036450211
 21
-825.0387598692887
 31
0.0
  0
TEXT
  5
22921
  8
1DIM
 10
2014.589903645021
 20
-822.93875986928856
 30
0.0
 40
10.5
  1
9
  0
LINE
  5
22922
  8
0
  6
BYBLOCK
 10
2006.7399036450211
 20
-826.64645500928873
 30
0.0
 11
2000.739903645022
 21
-825.0387598692887
 31
0.0
  0
LINE
  5
22923
  8
0
  6
BYBLOCK
 10
2000.739903645022
 20
-825.0387598692887
 30
0.0
 11
2006.7399036450211
 21
-823.43106472928855
 31
0.0
  0
LINE
  5
22924
  8
0
  6
BYBLOCK
 10
2000.739903645022
 20
-825.0387598692887
 30
0.0
 11
2006.7399036450211
 21
-825.0387598692887
 31
0.0
  0
LINE
  5
22925
  8
0
  6
BYBLOCK
 10
1985.9899036450211
 20
-823.43106472928855
 30
0.0
 11
1991.9899036450211
 21
-825.0387598692887
 31
0.0
  0
LINE
  5
22926
  8
0
  6
BYBLOCK
 10
1991.9899036450211
 20
-825.0387598692887
 30
0.0
 11
1985.9899036450211
 21
-826.64645500928873
 31
0.0
  0
LINE
  5
22927
  8
0
  6
BYBLOCK
 10
1991.9899036450211
 20
-825.0387598692887
 30
0.0
 11
1985.9899036450211
 21
-825.0387598692887
 31
0.0
  0
LINE
  5
22928
  8
1DIM
 10
2144.896252479251
 20
-783.91639114904444
 30
0.0
 11
2134.4859228070659
 21
-843.12861803204407
 31
0.0
1001
ACAD
1000
DSTYLE
1002
{
1070
    40
1040
3.0
1002
}
  0
LINE
  5
22929
  8
1DIM
 10
2134.4859228070659
 20
-843.12861803204407
 30
0.0
 11
2126.385922807066
 21
-843.12861803204407
 31
0.0
1001
ACAD
1000
DSTYLE
1002
{
1070
    40
1040
3.0
1002
}
  0
LINE
  5
2292A
  8
1DIM
 10
2148.9438450680241
 20
-768.04477131099725
 30
0.0
 11
2122.1163288661201
 21
-800.11938614009705
 31
0.0
1001
ACAD
1000
DSTYLE
1002
{
1070
    40
1040
3.0
1002
}
  0
LINE
  5
2292B
  8
1DIM
 10
2122.1163288661201
 20
-800.11938614009705
 30
0.0
 11
2114.0163288661201
 21
-800.11938614009705
 31
0.0
1001
ACAD
1000
DSTYLE
1002
{
1070
    40
1040
3.0
1002
}
  0
LINE
  5
2292C
  8
1HATCH
 10
1065.613907233907
 20
-457.750420752504
 30
0.0
 11
1080.494635063312
 21
-415.55968732808827
 31
0.0
1001
ACAD
1000
DSTYLE
1002
{
1070
    40
1040
3.0
1002
}
  0
LINE
  5
2292D
  8
1HATCH
 10
1080.494635063312
 20
-415.55968732808827
 30
0.0
 11
1088.5946350633119
 21
-415.55968732808827
 31
0.0
1001
ACAD
1000
DSTYLE
1002
{
1070
    40
1040
3.0
1002
}
  0
LINE
  5
2292E
  8
1HATCH
 10
1396.491236228308
 20
-455.8968412184251
 30
0.0
 11
1415.7325872776471
 21
-415.55968732808827
 31
0.0
1001
ACAD
1000
DSTYLE
1002
{
1070
    40
1040
3.0
1002
}
  0
LINE
  5
2292F
  8
1HATCH
 10
1415.7325872776471
 20
-415.55968732808827
 30
0.0
 11
1423.832587277647
 21
-415.55968732808827
 31
0.0
1001
ACAD
1000
DSTYLE
1002
{
1070
    40
1040
3.0
1002
}
  0
LINE
  5
22930
  8
1HATCH
 10
1822.5617428697899
 20
-295.94423983285452
 30
0.0
 11
1835.4188110909449
 21
-281.69455803033742
 31
0.0
1001
ACAD
1000
DSTYLE
1002
{
1070
    40
1040
3.0
1002
}
  0
LINE
  5
22931
  8
1HATCH
 10
1835.4188110909449
 20
-281.69455803033742
 30
0.0
 11
1843.5188110909451
 21
-281.69455803033742
 31
0.0
1001
ACAD
1000
DSTYLE
1002
{
1070
    40
1040
3.0
1002
}
  0
TEXT
  5
22932
  8
1DIM
 10
2028.960287939334
 20
-360.33883800096402
 30
0.0
 40
10.5
  1
15.5
 50
90.0
  0
LINE
  5
22933
  8
0
  6
BYBLOCK
 10
2029.4525927993341
 20
-322.98883800096428
 30
0.0
 11
2031.0602879393341
 21
-316.98883800096428
 31
0.0
  0
LINE
  5
22934
  8
0
  6
BYBLOCK
 10
2031.0602879393341
 20
-316.98883800096428
 30
0.0
 11
2032.6679830793339
 21
-322.98883800096428
 31
0.0
  0
LINE
  5
22935
  8
0
  6
BYBLOCK
 10
2031.0602879393341
 20
-316.98883800096428
 30
0.0
 11
2031.0602879393341
 21
-322.98883800096428
 31
0.0
  0
LINE
  5
22936
  8
0
  6
BYBLOCK
 10
2032.6679830793339
 20
-295.48883800096343
 30
0.0
 11
2031.0602879393341
 21
-301.48883800096331
 31
0.0
  0
LINE
  5
22937
  8
0
  6
BYBLOCK
 10
2031.0602879393341
 20
-301.48883800096331
 30
0.0
 11
2029.4525927993341
 21
-295.48883800096343
 31
0.0
  0
LINE
  5
22938
  8
0
  6
BYBLOCK
 10
2031.0602879393341
 20
-301.48883800096331
 30
0.0
 11
2031.0602879393341
 21
-295.48883800096343
 31
0.0
  0
VIEWPORT
  5
57
 67
     1
  8
0
 10
84.038254629564904
 20
10.09248672500371
 30
0.0
 40
615.58886097183665
 41
282.75352766672512
 68
     1
 69
     1
1001
ACAD
1000
MVIEW
1002
{
1070
    16
1010
0.0
1020
0.0
1030
0.0
1010
0.0
1020
0.0
1030
1.0
1040
0.0
1040
282.75352766672512
1040
84.038254629564904
1040
10.09248672500371
1040
50.0
1040
0.0
1040
0.0
1070
     0
1070
   100
1070
     1
1070
     1
1070
     0
1070
     0
1070
     0
1070
     0
1040
0.0
1040
0.0
1040
0.0
1040
10.0
1040
10.0
1040
10.0
1040
10.0
1070
     0
1002
{
1002
}
1002
}
  0
ENDSEC
  0
EOF
