  0
SECTION
  2
HEADER
  9
$ACADVER
  1
AC1009
  9
$INSBASE
 10
0.0
 20
0.0
 30
0.0
  9
$EXTMIN
 10
992.10431036603291
 20
-1025.6659762311369
 30
0.0
  9
$EXTMAX
 10
2107.5535244930288
 20
-374.45354258412669
 30
0.0
  9
$LIMMIN
 10
0.0
 20
0.0
  9
$LIMMAX
 10
420.0
 20
297.0
  9
$ORTHOMODE
 70
     0
  9
$REGENMODE
 70
     1
  9
$FILLMODE
 70
     1
  9
$QTEXTMODE
 70
     0
  9
$MIRRTEXT
 70
     0
  9
$DRAGMODE
 70
     2
  9
$LTSCALE
 40
0.5
  9
$OSMODE
 70
  2079
  9
$ATTMODE
 70
     1
  9
$TEXTSIZE
 40
4.0
  9
$TRACEWID
 40
1.0
  9
$TEXTSTYLE
  7
STANDARD
  9
$CLAYER
  8
1TEXT
  9
$CELTYPE
  6
BYLAYER
  9
$CECOLOR
 62
   256
  9
$DIMSCALE
 40
3.0
  9
$DIMASZ
 40
2.0
  9
$DIMEXO
 40
0.0
  9
$DIMDLI
 40
7.0
  9
$DIMRND
 40
0.0
  9
$DIMDLE
 40
0.0
  9
$DIMEXE
 40
1.0
  9
$DIMTP
 40
0.0
  9
$DIMTM
 40
0.0
  9
$DIMTXT
 40
3.5
  9
$DIMCEN
 40
0.0
  9
$DIMTSZ
 40
0.0
  9
$DIMTOL
 70
     0
  9
$DIMLIM
 70
     0
  9
$DIMTIH
 70
     0
  9
$DIMTOH
 70
     0
  9
$DIMSE1
 70
     0
  9
$DIMSE2
 70
     0
  9
$DIMTAD
 70
     1
  9
$DIMZIN
 70
     8
  9
$DIMBLK
  1

  9
$DIMASO
 70
     1
  9
$DIMSHO
 70
     1
  9
$DIMPOST
  1
 
  9
$DIMAPOST
  1

  9
$DIMALT
 70
     0
  9
$DIMALTD
 70
     2
  9
$DIMALTF
 40
25.399999999999999
  9
$DIMLFAC
 40
1.0
  9
$DIMTOFL
 70
     1
  9
$DIMTVP
 40
0.0
  9
$DIMTIX
 70
     0
  9
$DIMSOXD
 70
     0
  9
$DIMSAH
 70
     1
  9
$DIMBLK1
  1
OPEN30
  9
$DIMBLK2
  1
OPEN30
  9
$DIMSTYLE
  2
NEWX10
  9
$DIMCLRD
 70
   256
  9
$DIMCLRE
 70
   256
  9
$DIMCLRT
 70
   201
  9
$DIMTFAC
 40
0.7
  9
$DIMGAP
 40
0.7
  9
$LUNITS
 70
     2
  9
$LUPREC
 70
     4
  9
$SKETCHINC
 40
1.0
  9
$FILLETRAD
 40
0.0
  9
$AUNITS
 70
     0
  9
$AUPREC
 70
     2
  9
$MENU
  1
acad
  9
$ELEVATION
 40
0.0
  9
$PELEVATION
 40
0.0
  9
$THICKNESS
 40
0.0
  9
$LIMCHECK
 70
     0
  9
$BLIPMODE
 70
     0
  9
$CHAMFERA
 40
1.0
  9
$CHAMFERB
 40
1.0
  9
$SKPOLY
 70
     0
  9
$TDCREATE
 40
2453033.7326634838
  9
$TDUPDATE
 40
2457058.617464364
  9
$TDINDWG
 40
2.6539946527999998
  9
$TDUSRTIMER
 40
2.6539946527999998
  9
$USRTIMER
 70
     1
  9
$ANGBASE
 50
0.0
  9
$ANGDIR
 70
     0
  9
$PDMODE
 70
     0
  9
$PDSIZE
 40
0.0
  9
$PLINEWID
 40
0.0
  9
$COORDS
 70
     0
  9
$SPLFRAME
 70
     0
  9
$SPLINETYPE
 70
     6
  9
$SPLINESEGS
 70
     8
  9
$ATTDIA
 70
     0
  9
$ATTREQ
 70
     1
  9
$HANDLING
 70
     1
  9
$HANDSEED
  5
21827
  9
$SURFTAB1
 70
     6
  9
$SURFTAB2
 70
     6
  9
$SURFTYPE
 70
     6
  9
$SURFU
 70
     6
  9
$SURFV
 70
     6
  9
$UCSNAME
  2

  9
$UCSORG
 10
0.0
 20
0.0
 30
0.0
  9
$UCSXDIR
 10
1.0
 20
0.0
 30
0.0
  9
$UCSYDIR
 10
0.0
 20
1.0
 30
0.0
  9
$PUCSNAME
  2

  9
$PUCSORG
 10
0.0
 20
0.0
 30
0.0
  9
$PUCSXDIR
 10
1.0
 20
0.0
 30
0.0
  9
$PUCSYDIR
 10
0.0
 20
1.0
 30
0.0
  9
$USERI1
 70
     0
  9
$USERI2
 70
     0
  9
$USERI3
 70
     0
  9
$USERI4
 70
     0
  9
$USERI5
 70
     0
  9
$USERR1
 40
0.0
  9
$USERR2
 40
0.0
  9
$USERR3
 40
0.0
  9
$USERR4
 40
0.0
  9
$USERR5
 40
0.0
  9
$WORLDVIEW
 70
     1
  9
$SHADEDGE
 70
     3
  9
$SHADEDIF
 70
    70
  9
$TILEMODE
 70
     1
  9
$MAXACTVP
 70
    48
  9
$PLIMCHECK
 70
     0
  9
$PEXTMIN
 10
1.0000000000000000E+020
 20
1.0000000000000000E+020
 30
1.0000000000000000E+020
  9
$PEXTMAX
 10
-1.0000000000000000E+020
 20
-1.0000000000000000E+020
 30
-1.0000000000000000E+020
  9
$PLIMMIN
 10
0.0
 20
0.0
  9
$PLIMMAX
 10
420.0
 20
297.0
  9
$UNITMODE
 70
     0
  9
$VISRETAIN
 70
     1
  9
$PLINEGEN
 70
     0
  9
$PSLTSCALE
 70
     1
  0
ENDSEC
  0
SECTION
  2
TABLES
  0
TABLE
  2
VPORT
 70
     1
  0
VPORT
  2
*ACTIVE
 70
     0
 10
0.0
 20
0.0
 11
1.0
 21
1.0
 12
1549.7662853557069
 22
-700.06523204862026
 13
0.0
 23
0.0
 14
10.0
 24
10.0
 15
10.0
 25
10.0
 16
0.0
 26
0.0
 36
1.0
 17
0.0
 27
0.0
 37
0.0
 40
690.6384463231916
 41
2.2014833127317668
 42
50.0
 43
0.0
 44
0.0
 50
0.0
 51
0.0
 71
     0
 72
   100
 73
     1
 74
     1
 75
     0
 76
     0
 77
     0
 78
     0
  0
ENDTAB
  0
TABLE
  2
LTYPE
 70
    19
  0
LTYPE
  2
CONTINUOUS
 70
     0
  3
Solid line
 72
    65
 73
     0
 40
0.0
  0
LTYPE
  2
CENTER2
 70
     0
  3
Center (.5x) ___ _ ___ _ ___ _ ___ _ ___ _ ___
 72
    65
 73
     4
 40
28.574999999999999
 49
19.050000000000001
 49
-3.1749999999999989
 49
3.1749999999999989
 49
-3.1749999999999989
  0
LTYPE
  2
HIDDEN
 70
     0
  3
Hidden __ __ __ __ __ __ __ __ __ __ __ __ __ _
 72
    65
 73
     2
 40
9.5249999999999986
 49
6.3499999999999988
 49
-3.1749999999999989
  0
LTYPE
  2
PHANTOM2
 70
     0
  3
Phantom (.5x) ___ _ _ ___ _ _ ___ _ _ ___ _ _
 72
    65
 73
     6
 40
31.75
 49
15.875
 49
-3.1749999999999989
 49
3.1749999999999989
 49
-3.1749999999999989
 49
3.1749999999999989
 49
-3.1749999999999989
  0
ENDTAB
  0
TABLE
  2
LAYER
 70
    44
  0
LAYER
  2
0
 70
     0
 62
     7
  6
CONTINUOUS
  0
LAYER
  2
1CENTER
 70
     0
 62
     7
  6
CENTER2
  0
LAYER
  2
1TEXT
 70
     0
 62
     7
  6
CONTINUOUS
  0
LAYER
  2
1DIM
 70
     0
 62
     7
  6
CONTINUOUS
  0
LAYER
  2
1HIDDEN
 70
     0
 62
     7
  6
HIDDEN
  0
LAYER
  2
1PHANTOM
 70
     0
 62
     7
  6
PHANTOM2
  0
LAYER
  2
01
 70
     0
 62
     1
  6
CONTINUOUS
  0
LAYER
  2
1HATCH
 70
     0
 62
     7
  6
CONTINUOUS
  0
ENDTAB
  0
TABLE
  2
STYLE
 70
    25
  0
STYLE
  2
STANDARD
 70
     0
 40
0.0
 41
1.0
 50
0.0
 71
     0
 42
4.0
  3
txt.shx
  4
extfont.shx
  0
ENDTAB
  0
TABLE
  2
VIEW
 70
     7
  0
ENDTAB
  0
TABLE
  2
UCS
 70
     0
  0
ENDTAB
  0
TABLE
  2
APPID
 70
    13
  0
APPID
  2
ACAD
 70
     0
  0
APPID
  2
DRAWINGVARIABLESXDATA
 70
     0
  0
APPID
  2
CONTENTTABDATA
 70
     0
  0
APPID
  2
CONTENTCURRENTTAB
 70
     0
  0
APPID
  2
CONTENTBLOCKDESCRIPTION
 70
     0
  0
APPID
  2
CONTENTBLOCKICON
 70
     0
  0
APPID
  2
CONTENTLONGBLOCKNAME
 70
     0
  0
APPID
  2
ACAD_PSEXT
 70
     0
  0
APPID
  2
ACAD_DSTYLE_DIMTEXT_FILL
 70
     0
  0
APPID
  2
ACAD_MLEADERVER
 70
     0
  0
APPID
  2
ACAD_DSTYLE_DIMRADIAL_EXTENSION
 70
     0
  0
APPID
  2
ACADANNOTATIVE
 70
     0
  0
APPID
  2
ACAD_EXEMPT_FROM_CAD_STANDARDS
 70
     0
  0
ENDTAB
  0
TABLE
  2
DIMSTYLE
 70
    10
  0
DIMSTYLE
  2
NEWX10
 70
     0
  3
 
  4

  5

  6
OPEN30
  7
OPEN30
 40
1.0
 41
2.0
 42
0.0
 43
7.0
 44
1.0
 45
0.0
 46
0.0
 47
0.0
 48
0.0
140
3.5
141
0.0
142
0.0
143
25.399999999999999
144
1.0
145
0.0
146
0.7
147
0.7
 71
     0
 72
     0
 73
     0
 74
     0
 75
     0
 76
     0
 77
     1
 78
     8
170
     0
171
     2
172
     1
173
     1
174
     0
175
     0
176
   256
177
   256
178
   201
  0
ENDTAB
  0
ENDSEC
  0
SECTION
  2
BLOCKS
  0
BLOCK
  8
0
  2
$MODEL_SPACE
 70
     0
 10
0.0
 20
0.0
 30
0.0
  3
$MODEL_SPACE
  1

  0
ENDBLK
  5
1A
  8
0
  0
BLOCK
 67
     1
  8
0
  2
$PAPER_SPACE
 70
     0
 10
0.0
 20
0.0
 30
0.0
  3
$PAPER_SPACE
  1

  0
ENDBLK
  5
17
 67
     1
  8
0
  0
BLOCK
  8
0
  2
_OPEN30
 70
     0
 10
0.0
 20
0.0
 30
0.0
  3
_OPEN30
  1

  0
LINE
  5
44
  8
0
  6
BYBLOCK
 62
     0
 10
-1.0
 20
0.26794919
 30
0.0
 11
0.0
 21
0.0
 31
0.0
  0
LINE
  5
45
  8
0
  6
BYBLOCK
 62
     0
 10
0.0
 20
0.0
 30
0.0
 11
-1.0
 21
-0.26794919
 31
0.0
  0
LINE
  5
46
  8
0
  6
BYBLOCK
 62
     0
 10
0.0
 20
0.0
 30
0.0
 11
-1.0
 21
0.0
 31
0.0
  0
ENDBLK
  5
47
  8
0
  0
BLOCK
  8
0
  2
*U49
 70
     1
 10
0.0
 20
0.0
 30
0.0
  3
*U49
  1

  0
TEXT
  5
21814
  8
1DIM
 62
   201
 10
836.04427233138108
 20
174.9665578833623
 30
0.0
 40
10.5
  1
35
 50
90.0
  0
ENDBLK
  5
21816
  8
0
  0
BLOCK
  8
0
  2
*U50
 70
     1
 10
0.0
 20
0.0
 30
0.0
  3
*U50
  1

  0
TEXT
  5
21818
  8
1DIM
 62
   201
 10
422.64746158253922
 20
146.2723097856065
 30
0.0
 40
10.5
  1
718
  0
ENDBLK
  5
2181A
  8
0
  0
BLOCK
  8
0
  2
*U51
 70
     1
 10
0.0
 20
0.0
 30
0.0
  3
*U51
  1

  0
TEXT
  5
2181C
  8
1DIM
 62
   201
 10
815.5065686285833
 20
161.17623222060851
 30
0.0
 40
10.5
  1
\U+22056.5
 50
295.70960443650409
  0
ENDBLK
  5
2181E
  8
0
  0
BLOCK
  8
0
  2
*U52
 70
     1
 10
0.0
 20
0.0
 30
0.0
  3
*U52
  1

  0
TEXT
  5
21820
  8
1HATCH
 62
   201
 10
1077.9169015347991
 20
-663.43308822945198
 30
0.0
 40
10.5
  1
R10
 50
297.83255169843
  0
ENDBLK
  5
21822
  8
0
  0
BLOCK
  8
0
  2
*U53
 70
     1
 10
0.0
 20
0.0
 30
0.0
  3
*U53
  1

  0
TEXT
  5
21824
  8
1DIM
 62
   201
 10
1824.7902570240069
 20
-899.48544533837673
 30
0.0
 40
10.5
  1
\U+22056.5 （ガラス穴寸法）
 50
34.706044508715742
  0
ENDBLK
  5
21826
  8
0
  0
ENDSEC
  0
SECTION
  2
ENTITIES
  0
LINE
  5
1FE2A
  8
01
 10
1048.6534534157361
 20
-948.90868915145404
 30
0.0
 11
1848.6534534157361
 21
-948.90868915145381
 31
0.0
  0
LINE
  5
1FE2D
  8
01
 10
1068.1534534157361
 20
-648.90868915145381
 30
0.0
 11
1829.1534534157361
 21
-648.90868915145381
 31
0.0
  0
LINE
  5
1FE2F
  8
01
 10
1834.1534534157361
 20
-890.40868915145393
 30
0.0
 11
1834.1534534157361
 21
-653.90868915145393
 31
0.0
  0
LINE
  5
1FE33
  8
01
 10
1063.1534534157361
 20
-890.40868915145393
 30
0.0
 11
1063.1534534157361
 21
-653.90868915145393
 31
0.0
  0
LINE
  5
1FE35
  8
01
 10
1949.543191445189
 20
-648.90868915145381
 30
0.0
 11
1954.543191445189
 21
-648.90868915145381
 31
0.0
  0
LINE
  5
1FE36
  8
01
 10
1954.543191445189
 20
-648.90868915145381
 30
0.0
 11
1954.543191445189
 21
-890.40868915145393
 31
0.0
  0
LINE
  5
1FE38
  8
01
 10
1949.543191445189
 20
-648.90868915145381
 30
0.0
 11
1949.543191445189
 21
-890.40868915145393
 31
0.0
  0
LINE
  5
1FE46
  8
01
 10
1965.293191445189
 20
-891.40868915145393
 30
0.0
 11
1965.293191445189
 21
-948.90868915145347
 31
0.0
  0
LINE
  5
1FE4A
  8
01
 10
1938.793191445189
 20
-948.90868915145347
 30
0.0
 11
1965.293191445189
 21
-948.90868915145347
 31
0.0
  0
LINE
  5
2007C
  8
01
 10
1791.1534534157361
 20
-890.40868915145393
 30
0.0
 11
1847.6534534157361
 21
-890.40868915145393
 31
0.0
  0
LINE
  5
2007E
  8
01
 10
1939.793191445189
 20
-890.40868915145393
 30
0.0
 11
1964.293191445189
 21
-890.40868915145393
 31
0.0
  0
LINE
  5
2007F
  8
01
 10
1938.793191445189
 20
-891.40868915145393
 30
0.0
 11
1938.793191445189
 21
-948.90868915145347
 31
0.0
  0
LINE
  5
200BC
  8
01
 10
1848.6534534157361
 20
-948.90868915145381
 30
0.0
 11
1848.6534534157361
 21
-891.40868915145393
 31
0.0
  0
LINE
  5
200BD
  8
01
 10
1790.153453415737
 20
-948.90868915145381
 30
0.0
 11
1790.153453415737
 21
-891.40868915145393
 31
0.0
  0
LINE
  5
200EB
  8
01
 10
1106.1534534157361
 20
-890.40868915145393
 30
0.0
 11
1049.6534534157361
 21
-890.40868915145393
 31
0.0
  0
LINE
  5
200EC
  8
01
 10
1048.6534534157361
 20
-948.90868915145381
 30
0.0
 11
1048.6534534157361
 21
-891.40868915145393
 31
0.0
  0
LINE
  5
200ED
  8
01
 10
1107.1534534157361
 20
-948.90868915145381
 30
0.0
 11
1107.1534534157361
 21
-891.40868915145393
 31
0.0
  0
LINE
  5
206B0
  8
01
 10
1834.1534534157361
 20
-517.76804729707987
 30
0.0
 11
1834.1534534157361
 21
-512.76804729707987
 31
0.0
  0
ARC
  5
207E6
  8
01
 10
1791.1534534157361
 20
-891.40868915145393
 30
0.0
 40
1.0
 50
90.0
 51
180.0000000000002
  0
ARC
  5
207E7
  8
01
 10
1847.6534534157361
 20
-891.40868915145393
 30
0.0
 40
1.0
 50
0.0
 51
90.0
  0
ARC
  5
207E8
  8
01
 10
1939.793191445189
 20
-891.40868915145393
 30
0.0
 40
1.0
 50
90.0
 51
180.0000000000002
  0
ARC
  5
207E9
  8
01
 10
1964.293191445189
 20
-891.40868915145393
 30
0.0
 40
1.0
 50
0.0000000000002036
 51
90.0
  0
ARC
  5
207EA
  8
01
 10
1049.6534534157361
 20
-891.40868915145393
 30
0.0
 40
1.0
 50
90.0
 51
180.0
  0
ARC
  5
207EB
  8
01
 10
1106.1534534157361
 20
-891.40868915145393
 30
0.0
 40
1.0
 50
359.99999999999977
 51
90.0
  0
TEXT
  5
208EF
  8
1TEXT
 10
1896.836966593936
 20
-429.95354258412658
 30
0.0
 40
12.0
  1
表面処理
 72
     1
 11
1924.0369665939361
 21
-429.95354258412658
 31
0.0
  0
LINE
  5
208F0
  8
1DIM
 10
1871.8369665939349
 20
-413.45354258412658
 30
0.0
 11
2081.8369665939358
 21
-413.45354258412658
 31
0.0
  0
LINE
  5
208F1
  8
1DIM
 10
1871.8369665939349
 20
-455.45354258412658
 30
0.0
 11
2081.8369665939358
 21
-455.45354258412658
 31
0.0
  0
LINE
  5
208F2
  8
1DIM
 10
1871.8369665939349
 20
-434.45354258412658
 30
0.0
 11
2081.8369665939358
 21
-434.45354258412658
 31
0.0
  0
LINE
  5
208F3
  8
1DIM
 10
1976.8369665939349
 20
-413.45354258412658
 30
0.0
 11
1976.836966593934
 21
-455.45354258412658
 31
0.0
  0
TEXT
  5
208F4
  8
1TEXT
 10
2008.636966593936
 20
-429.95354258412658
 30
0.0
 40
12.0
  1
コード
 72
     1
 11
2029.0369665939361
 21
-429.95354258412658
 31
0.0
  0
LINE
  5
208F5
  8
1DIM
 10
1871.8369665939349
 20
-455.45354258412658
 30
0.0
 11
1871.8369665939349
 21
-413.45354258412658
 31
0.0
  0
LINE
  5
208F6
  8
1DIM
 10
2081.8369665939358
 20
-455.45354258412658
 30
0.0
 11
2081.8369665939358
 21
-413.45354258412658
 31
0.0
  0
TEXT
  5
208F7
  8
1TEXT
 10
1896.0369665939361
 20
-450.45940856269942
 30
0.0
 40
12.0
  1
クローム
 72
     1
 11
1924.0369665939361
 21
-450.45940856269942
 31
0.0
  0
TEXT
  5
208F8
  8
1TEXT
 10
1983.136966593936
 20
-451.59661353507443
 30
0.0
 40
12.0
  1
KC-128-S1C
 41
0.85
 72
     1
 11
2029.0369665939361
 21
-451.59661353507443
 31
0.0
  0
TEXT
  5
20B04
  8
1TEXT
 10
1871.8369665939349
 20
-398.45354258412669
 30
0.0
 40
24.0
  1
KC-128-S1C
  0
LINE
  5
20CBF
  8
01
 10
1834.9034534157361
 20
-518.26804729707965
 30
0.0
 11
1790.1534534157361
 21
-518.26804729707976
 31
0.0
  0
LINE
  5
20CC0
  8
01
 10
1834.9034534157361
 20
-512.26804729707965
 30
0.0
 11
1790.1534534157361
 21
-512.26804729707965
 31
0.0
  0
LINE
  5
20CC1
  8
01
 10
1847.6534534157361
 20
-502.01804729707959
 30
0.0
 11
1791.1534534157361
 21
-502.01804729707959
 31
0.0
  0
ARC
  5
20CC2
  8
01
 10
1791.1534534157361
 20
-503.01804729707959
 30
0.0
 40
1.0
 50
90.0
 51
180.0
  0
LINE
  5
20CC3
  8
01
 10
1847.6534534157361
 20
-528.51804729707965
 30
0.0
 11
1791.1534534157361
 21
-528.51804729707965
 31
0.0
  0
ARC
  5
20CC4
  8
01
 10
1847.6534534157361
 20
-527.51804729707965
 30
0.0
 40
1.0
 50
270.0
 51
0.0
  0
LINE
  5
20CC5
  8
01
 10
1848.6534534157361
 20
-527.51804729707965
 30
0.0
 11
1848.6534534157361
 21
-503.01804729707959
 31
0.0
  0
ARC
  5
20CC6
  8
01
 10
1847.6534534157361
 20
-503.01804729707959
 30
0.0
 40
1.0
 50
0.0
 51
90.0
  0
LINE
  5
20CC7
  8
01
 10
1790.1534534157361
 20
-527.51804729707953
 30
0.0
 11
1790.1534534157361
 21
-518.01804729707976
 31
0.0
  0
LINE
  5
20CC8
  8
01
 10
1790.1534534157361
 20
-512.26804729707965
 30
0.0
 11
1790.1534534157361
 21
-503.01804729707959
 31
0.0
  0
ARC
  5
20CC9
  8
01
 10
1791.1534534157361
 20
-527.51804729707953
 30
0.0
 40
1.0
 50
180.0
 51
270.0
  0
LINE
  5
20CCA
  8
1CENTER
 10
1835.4534534157351
 20
-508.26804729707919
 30
0.0
 11
1845.8534534157361
 21
-508.26804729707919
 31
0.0
  0
LINE
  5
20CCB
  8
1CENTER
 10
1840.6534534157361
 20
-513.4680472970789
 30
0.0
 11
1840.6534534157361
 21
-503.06804729707932
 31
0.0
  0
LINE
  5
20CCC
  8
1CENTER
 10
1793.453453415736
 20
-508.26804729707919
 30
0.0
 11
1803.8534534157361
 21
-508.26804729707919
 31
0.0
  0
LINE
  5
20CCD
  8
1CENTER
 10
1798.6534534157361
 20
-513.4680472970789
 30
0.0
 11
1798.6534534157361
 21
-503.06804729707932
 31
0.0
  0
LINE
  5
20CCE
  8
1CENTER
 10
1814.4534534157351
 20
-522.26804729707999
 30
0.0
 11
1824.8534534157361
 21
-522.26804729707999
 31
0.0
  0
LINE
  5
20CCF
  8
1CENTER
 10
1819.6534534157349
 20
-517.06804729707983
 30
0.0
 11
1819.6534534157349
 21
-527.46804729707992
 31
0.0
  0
ARC
  5
20CD0
  8
1PHANTOM
 10
1799.6534534157361
 20
-508.26804729707959
 30
0.0
 40
2.25
 50
270.0
 51
90.0
  0
ARC
  5
20CD1
  8
1PHANTOM
 10
1839.6534534157361
 20
-508.26804729707919
 30
0.0
 40
2.25
 50
90.0
 51
270.0
  0
ARC
  5
20CD2
  8
1PHANTOM
 10
1820.6534534157361
 20
-522.26804729707999
 30
0.0
 40
2.25
 50
270.0
 51
90.0
  0
ARC
  5
20CD3
  8
1PHANTOM
 10
1797.6534534157361
 20
-508.26804729707959
 30
0.0
 40
2.25
 50
90.0
 51
270.0
  0
LINE
  5
20CD4
  8
1PHANTOM
 10
1797.6534534157361
 20
-506.01804729707959
 30
0.0
 11
1799.6534534157361
 21
-506.01804729707959
 31
0.0
  0
LINE
  5
20CD5
  8
1PHANTOM
 10
1797.6534534157361
 20
-510.51804729707959
 30
0.0
 11
1799.6534534157361
 21
-510.51804729707959
 31
0.0
  0
ARC
  5
20CD6
  8
1PHANTOM
 10
1841.6534534157361
 20
-508.26804729707919
 30
0.0
 40
2.25
 50
270.0
 51
90.0
  0
LINE
  5
20CD7
  8
1PHANTOM
 10
1839.6534534157361
 20
-506.01804729707919
 30
0.0
 11
1841.6534534157361
 21
-506.01804729707919
 31
0.0
  0
LINE
  5
20CD8
  8
1PHANTOM
 10
1839.6534534157361
 20
-510.51804729707919
 30
0.0
 11
1841.6534534157361
 21
-510.51804729707919
 31
0.0
  0
ARC
  5
20CD9
  8
1PHANTOM
 10
1818.6534534157361
 20
-522.26804729707999
 30
0.0
 40
2.25
 50
90.0
 51
270.0
  0
LINE
  5
20CDA
  8
1PHANTOM
 10
1818.6534534157361
 20
-520.01804729707999
 30
0.0
 11
1820.6534534157361
 21
-520.01804729707999
 31
0.0
  0
LINE
  5
20CDB
  8
1PHANTOM
 10
1818.6534534157361
 20
-524.51804729707999
 30
0.0
 11
1820.6534534157361
 21
-524.51804729707999
 31
0.0
  0
LINE
  5
20CDD
  8
01
 10
1063.153453415737
 20
-517.76804729707976
 30
0.0
 11
1834.1534534157361
 21
-517.76804729707965
 31
0.0
  0
LINE
  5
20CDE
  8
01
 10
1063.153453415737
 20
-512.76804729707965
 30
0.0
 11
1834.1534534157361
 21
-512.76804729707965
 31
0.0
  0
LINE
  5
20CE9
  8
01
 10
1063.153453415737
 20
-512.76804729707965
 30
0.0
 11
1063.153453415737
 21
-517.76804729707976
 31
0.0
  0
LINE
  5
20CEB
  8
01
 10
1062.403453415737
 20
-512.26804729707976
 30
0.0
 11
1107.153453415737
 21
-512.26804729707976
 31
0.0
  0
LINE
  5
20CEC
  8
01
 10
1062.403453415737
 20
-518.26804729707987
 30
0.0
 11
1107.153453415737
 21
-518.26804729707987
 31
0.0
  0
LINE
  5
20CED
  8
01
 10
1049.653453415737
 20
-528.51804729707987
 30
0.0
 11
1106.153453415737
 21
-528.51804729707987
 31
0.0
  0
ARC
  5
20CEE
  8
01
 10
1106.153453415737
 20
-527.51804729707999
 30
0.0
 40
1.0
 50
270.0
 51
0.0
  0
LINE
  5
20CEF
  8
01
 10
1049.653453415737
 20
-502.01804729707999
 30
0.0
 11
1106.153453415737
 21
-502.01804729707999
 31
0.0
  0
ARC
  5
20CF0
  8
01
 10
1049.653453415737
 20
-503.01804729707987
 30
0.0
 40
1.0
 50
90.0
 51
180.0
  0
LINE
  5
20CF1
  8
01
 10
1048.653453415737
 20
-503.01804729707987
 30
0.0
 11
1048.653453415737
 21
-527.51804729707999
 31
0.0
  0
ARC
  5
20CF2
  8
01
 10
1049.653453415737
 20
-527.51804729707999
 30
0.0
 40
1.0
 50
180.0
 51
270.0
  0
LINE
  5
20CF3
  8
01
 10
1107.153453415737
 20
-503.01804729707999
 30
0.0
 11
1107.153453415737
 21
-512.51804729707965
 31
0.0
  0
LINE
  5
20CF4
  8
01
 10
1107.153453415737
 20
-518.26804729707987
 30
0.0
 11
1107.153453415737
 21
-527.51804729707999
 31
0.0
  0
ARC
  5
20CF5
  8
01
 10
1106.153453415737
 20
-503.01804729707999
 30
0.0
 40
1.0
 50
0.0
 51
90.0
  0
LINE
  5
20CF6
  8
1CENTER
 10
1061.8534534157379
 20
-522.26804729708044
 30
0.0
 11
1051.4534534157369
 21
-522.26804729708044
 31
0.0
  0
LINE
  5
20CF7
  8
1CENTER
 10
1056.653453415737
 20
-517.06804729708062
 30
0.0
 11
1056.653453415737
 21
-527.46804729708026
 31
0.0
  0
LINE
  5
20CF8
  8
1CENTER
 10
1103.8534534157379
 20
-522.26804729708044
 30
0.0
 11
1093.4534534157369
 21
-522.26804729708044
 31
0.0
  0
LINE
  5
20CF9
  8
1CENTER
 10
1098.653453415737
 20
-517.06804729708062
 30
0.0
 11
1098.653453415737
 21
-527.46804729708026
 31
0.0
  0
LINE
  5
20CFA
  8
1CENTER
 10
1082.8534534157379
 20
-508.26804729707948
 30
0.0
 11
1072.4534534157369
 21
-508.26804729707948
 31
0.0
  0
LINE
  5
20CFB
  8
1CENTER
 10
1077.653453415737
 20
-513.46804729707969
 30
0.0
 11
1077.653453415737
 21
-503.06804729707972
 31
0.0
  0
ARC
  5
20CFC
  8
1PHANTOM
 10
1097.653453415737
 20
-522.26804729707987
 30
0.0
 40
2.25
 50
90.0
 51
270.0
  0
ARC
  5
20CFD
  8
1PHANTOM
 10
1057.6534534157381
 20
-522.26804729708044
 30
0.0
 40
2.25
 50
270.0
 51
90.0
  0
ARC
  5
20CFE
  8
1PHANTOM
 10
1076.653453415737
 20
-508.26804729707948
 30
0.0
 40
2.25
 50
90.0
 51
270.0
  0
ARC
  5
20CFF
  8
1PHANTOM
 10
1099.653453415737
 20
-522.26804729707987
 30
0.0
 40
2.25
 50
270.0
 51
90.0
  0
LINE
  5
20D00
  8
1PHANTOM
 10
1099.653453415737
 20
-524.51804729707987
 30
0.0
 11
1097.653453415737
 21
-524.51804729707987
 31
0.0
  0
LINE
  5
20D01
  8
1PHANTOM
 10
1099.653453415737
 20
-520.01804729707987
 30
0.0
 11
1097.653453415737
 21
-520.01804729707987
 31
0.0
  0
ARC
  5
20D02
  8
1PHANTOM
 10
1055.6534534157381
 20
-522.26804729708044
 30
0.0
 40
2.25
 50
90.0
 51
270.0
  0
LINE
  5
20D03
  8
1PHANTOM
 10
1057.6534534157381
 20
-524.51804729708044
 30
0.0
 11
1055.6534534157381
 21
-524.51804729708044
 31
0.0
  0
LINE
  5
20D04
  8
1PHANTOM
 10
1057.6534534157381
 20
-520.01804729708044
 30
0.0
 11
1055.6534534157381
 21
-520.01804729708044
 31
0.0
  0
ARC
  5
20D05
  8
1PHANTOM
 10
1078.653453415737
 20
-508.26804729707948
 30
0.0
 40
2.25
 50
270.0
 51
90.0
  0
LINE
  5
20D06
  8
1PHANTOM
 10
1078.653453415737
 20
-510.51804729707948
 30
0.0
 11
1076.653453415737
 21
-510.51804729707948
 31
0.0
  0
LINE
  5
20D07
  8
1PHANTOM
 10
1078.653453415737
 20
-506.01804729707948
 30
0.0
 11
1076.653453415737
 21
-506.01804729707948
 31
0.0
  0
LINE
  5
20D35
  8
01
 10
1834.9034534157361
 20
-518.26804729707965
 30
0.0
 11
1834.9034534157361
 21
-512.26804729707965
 31
0.0
  0
LINE
  5
20D36
  8
01
 10
1062.403453415737
 20
-512.26804729707999
 30
0.0
 11
1062.403453415737
 21
-518.26804729707987
 31
0.0
  0
LINE
  5
20D3B
  8
01
 10
1965.293191445189
 20
-948.90868915145347
 30
0.0
 11
1938.793191445189
 21
-948.90868915145347
 31
0.0
  0
CIRCLE
  5
20D3D
  8
01
 10
1952.043191445189
 20
-923.90868915145347
 30
0.0
 40
2.7499999999995448
  0
CIRCLE
  5
20D3E
  8
01
 10
1952.043191445189
 20
-923.90868915145347
 30
0.0
 40
4.25
  0
LINE
  5
20D40
  8
1PHANTOM
 10
1945.0431914451881
 20
-982.90868915139924
 30
0.0
 11
1943.5431914451881
 21
-977.60868566115357
 31
0.0
  0
LINE
  5
20D41
  8
1PHANTOM
 10
1945.0431914451881
 20
-982.90868915139924
 30
0.0
 11
1946.5431914451881
 21
-977.60869264153825
 31
0.0
  0
LINE
  5
20D42
  8
1PHANTOM
 10
1943.5431914451881
 20
-977.60868566115357
 30
0.0
 11
1943.5431914451881
 21
-927.90868566126107
 31
0.0
  0
LINE
  5
20D43
  8
1PHANTOM
 10
1946.5431914451881
 20
-977.60869264153825
 30
0.0
 11
1946.5431914451881
 21
-927.90869264164519
 31
0.0
  0
LINE
  5
20D44
  8
1PHANTOM
 10
1943.5431914451881
 20
-927.90868566126107
 30
0.0
 11
1941.5432379810859
 21
-927.90868100777982
 31
0.0
  0
LINE
  5
20D45
  8
1PHANTOM
 10
1948.5432379810859
 20
-927.90869729534359
 30
0.0
 11
1946.5431914451881
 21
-927.90869264164564
 31
0.0
  0
LINE
  5
20D46
  8
1PHANTOM
 10
1941.5432379810859
 20
-927.90868100777982
 30
0.0
 11
1941.5432379810859
 21
-926.80868449796901
 31
0.0
  0
LINE
  5
20D47
  8
1PHANTOM
 10
1948.5432379810859
 20
-927.90869729534359
 30
0.0
 11
1948.5432379810859
 21
-926.80869380514832
 31
0.0
  0
ARC
  5
20D48
  8
1PHANTOM
 10
1943.0432379810859
 20
-926.80868449796901
 30
0.0
 40
1.5
 50
89.999866684461907
 51
180.0
  0
ARC
  5
20D49
  8
1PHANTOM
 10
1947.0432379810859
 20
-926.80869380514832
 30
0.0
 40
1.5
 50
0.0
 51
89.999866684461907
  0
LINE
  5
20D4A
  8
1PHANTOM
 10
1947.043241471278
 20
-925.30869380515242
 30
0.0
 11
1943.0432414712791
 21
-925.30868449797299
 31
0.0
  0
LINE
  5
20D4B
  8
1PHANTOM
 10
1946.137561795081
 20
-980.80869169772131
 30
0.0
 11
1944.1752267062061
 21
-981.60868713177251
 31
0.0
  0
LINE
  5
20D4C
  8
1CENTER
 10
1945.0432379810859
 20
-975.86960374270745
 30
0.0
 11
1945.0432379810859
 21
-924.42130550584363
 31
0.0
  0
LINE
  5
20D4D
  8
1PHANTOM
 10
1944.1752267062061
 20
-981.60868713177251
 30
0.0
 11
1944.7635032812479
 21
-981.92045698802428
 31
0.0
  0
LINE
  5
20D4E
  8
1PHANTOM
 10
1947.0431914451881
 20
-948.40869380493143
 30
0.0
 11
1943.0431914451881
 21
-949.2086844977498
 31
0.0
  0
LINE
  5
20D4F
  8
1PHANTOM
 10
1947.0431914451881
 20
-959.60869380493557
 30
0.0
 11
1943.0431914451881
 21
-960.40868449775826
 31
0.0
  0
LINE
  5
20D50
  8
1PHANTOM
 10
1947.0431914451881
 20
-961.20869380493605
 30
0.0
 11
1943.0431914451881
 21
-962.00868449775874
 31
0.0
  0
LINE
  5
20D51
  8
1PHANTOM
 10
1946.5431914451881
 20
-961.10869264153871
 30
0.0
 11
1947.0431914451881
 21
-961.20869380493605
 31
0.0
  0
LINE
  5
20D52
  8
1PHANTOM
 10
1946.5431914451881
 20
-962.70869264153851
 30
0.0
 11
1947.0431914451881
 21
-962.80869380493596
 31
0.0
  0
LINE
  5
20D53
  8
1PHANTOM
 10
1943.0431914451881
 20
-962.00868449775874
 30
0.0
 11
1943.5431914451881
 21
-962.1086856611555
 31
0.0
  0
LINE
  5
20D54
  8
1PHANTOM
 10
1943.0431914451881
 20
-960.40868449775826
 30
0.0
 11
1943.5431914451881
 21
-960.5086856611556
 31
0.0
  0
LINE
  5
20D55
  8
1PHANTOM
 10
1946.5431914451881
 20
-964.30869264153853
 30
0.0
 11
1947.0431914451881
 21
-964.40869380493575
 31
0.0
  0
LINE
  5
20D56
  8
1PHANTOM
 10
1943.0431914451881
 20
-963.60868449775853
 30
0.0
 11
1943.5431914451881
 21
-963.70868566115576
 31
0.0
  0
LINE
  5
20D57
  8
1PHANTOM
 10
1947.0431914451881
 20
-962.80869380493596
 30
0.0
 11
1943.0431914451881
 21
-963.60868449775853
 31
0.0
  0
LINE
  5
20D58
  8
1PHANTOM
 10
1947.0431914451881
 20
-977.60869380493557
 30
0.0
 11
1943.2695984973921
 21
-978.40868502456124
 31
0.0
  0
LINE
  5
20D59
  8
1PHANTOM
 10
1947.0431914451881
 20
-966.00869380493577
 30
0.0
 11
1943.0431914451881
 21
-966.80868449775835
 31
0.0
  0
LINE
  5
20D5A
  8
1PHANTOM
 10
1946.59037530313
 20
-979.20869275132543
 30
0.0
 11
1943.7224126017991
 21
-980.00868607816665
 31
0.0
  0
LINE
  5
20D5B
  8
1PHANTOM
 10
1945.68038995445
 20
-980.65725590128125
 30
0.0
 11
1946.137561795081
 21
-980.80869169772131
 31
0.0
  0
LINE
  5
20D5C
  8
1PHANTOM
 10
1946.5431914451881
 20
-977.5086926415388
 30
0.0
 11
1947.0431914451881
 21
-977.60869380493557
 31
0.0
  0
LINE
  5
20D5D
  8
1PHANTOM
 10
1946.5431914451881
 20
-965.90869264153889
 30
0.0
 11
1947.0431914451881
 21
-966.00869380493577
 31
0.0
  0
LINE
  5
20D5E
  8
1PHANTOM
 10
1946.1222768479799
 20
-979.09592323897539
 30
0.0
 11
1946.59037530313
 21
-979.20869275132543
 31
0.0
  0
LINE
  5
20D5F
  8
1PHANTOM
 10
1943.2695984973921
 20
-978.40868502456124
 30
0.0
 11
1943.8061922326631
 21
-978.53795572219076
 31
0.0
  0
LINE
  5
20D60
  8
1PHANTOM
 10
1943.0431914451881
 20
-965.20868449775855
 30
0.0
 11
1943.5431914451881
 21
-965.30868566115532
 31
0.0
  0
LINE
  5
20D61
  8
1PHANTOM
 10
1943.0431914451881
 20
-966.80868449775835
 30
0.0
 11
1943.5431914451881
 21
-966.90868566115557
 31
0.0
  0
LINE
  5
20D62
  8
1PHANTOM
 10
1943.7224126017991
 20
-980.00868607816665
 30
0.0
 11
1944.274162065602
 21
-980.19145022079465
 31
0.0
  0
LINE
  5
20D63
  8
1PHANTOM
 10
1947.0431914451881
 20
-964.40869380493575
 30
0.0
 11
1943.0431914451881
 21
-965.20868449775855
 31
0.0
  0
LINE
  5
20D64
  8
1PHANTOM
 10
1947.0431914451881
 20
-950.00869380493123
 30
0.0
 11
1943.0431914451881
 21
-950.8086844977496
 31
0.0
  0
LINE
  5
20D65
  8
1PHANTOM
 10
1946.5431914451881
 20
-949.90869264153389
 30
0.0
 11
1947.0431914451881
 21
-950.00869380493123
 31
0.0
  0
LINE
  5
20D66
  8
1PHANTOM
 10
1946.5431914451881
 20
-951.50869264153368
 30
0.0
 11
1947.0431914451881
 21
-951.60869380493159
 31
0.0
  0
LINE
  5
20D67
  8
1PHANTOM
 10
1943.0431914451881
 20
-949.2086844977498
 30
0.0
 11
1943.5431914451881
 21
-949.30868566114759
 31
0.0
  0
LINE
  5
20D68
  8
1PHANTOM
 10
1943.0431914451881
 20
-950.8086844977496
 30
0.0
 11
1943.5431914451881
 21
-950.9086856611475
 31
0.0
  0
LINE
  5
20D69
  8
1PHANTOM
 10
1946.5431914451881
 20
-953.10869264153814
 30
0.0
 11
1947.0431914451881
 21
-953.20869380493605
 31
0.0
  0
LINE
  5
20D6A
  8
1PHANTOM
 10
1943.0431914451881
 20
-952.40868449774962
 30
0.0
 11
1943.5431914451881
 21
-952.50868566114752
 31
0.0
  0
LINE
  5
20D6B
  8
1PHANTOM
 10
1947.0431914451881
 20
-951.60869380493159
 30
0.0
 11
1943.0431914451881
 21
-952.40868449774962
 31
0.0
  0
LINE
  5
20D6C
  8
1PHANTOM
 10
1947.0431914451881
 20
-954.80869380493596
 30
0.0
 11
1943.0431914451881
 21
-955.60868449775398
 31
0.0
  0
LINE
  5
20D6D
  8
1PHANTOM
 10
1947.0431914451881
 20
-958.00869380493577
 30
0.0
 11
1943.0431914451881
 21
-958.80868449775835
 31
0.0
  0
LINE
  5
20D6E
  8
1PHANTOM
 10
1947.0431914451881
 20
-956.40869380493575
 30
0.0
 11
1943.0431914451881
 21
-957.20868449775435
 31
0.0
  0
LINE
  5
20D6F
  8
1PHANTOM
 10
1946.5431914451881
 20
-956.30869264153796
 30
0.0
 11
1947.0431914451881
 21
-956.40869380493575
 31
0.0
  0
LINE
  5
20D70
  8
1PHANTOM
 10
1946.5431914451881
 20
-954.70869264153805
 30
0.0
 11
1947.0431914451881
 21
-954.80869380493596
 31
0.0
  0
LINE
  5
20D71
  8
1PHANTOM
 10
1946.5431914451881
 20
-957.90869264153798
 30
0.0
 11
1947.0431914451881
 21
-958.00869380493577
 31
0.0
  0
LINE
  5
20D72
  8
1PHANTOM
 10
1946.5431914451881
 20
-959.50869264153891
 30
0.0
 11
1947.0431914451881
 21
-959.60869380493557
 31
0.0
  0
LINE
  5
20D73
  8
1PHANTOM
 10
1943.0431914451881
 20
-955.60868449775398
 30
0.0
 11
1943.5431914451881
 21
-955.70868566115166
 31
0.0
  0
LINE
  5
20D74
  8
1PHANTOM
 10
1943.0431914451881
 20
-954.00868449775396
 30
0.0
 11
1943.5431914451881
 21
-954.10868566115187
 31
0.0
  0
LINE
  5
20D75
  8
1PHANTOM
 10
1943.0431914451881
 20
-958.80868449775835
 30
0.0
 11
1943.5431914451881
 21
-958.90868566115557
 31
0.0
  0
LINE
  5
20D76
  8
1PHANTOM
 10
1943.0431914451881
 20
-957.20868449775435
 30
0.0
 11
1943.5431914451881
 21
-957.30868566115169
 31
0.0
  0
LINE
  5
20D77
  8
1PHANTOM
 10
1947.0431914451881
 20
-953.20869380493605
 30
0.0
 11
1943.0431914451881
 21
-954.00868449775396
 31
0.0
  0
LINE
  5
20D78
  8
1PHANTOM
 10
1943.5431914451881
 20
-927.90868566126107
 30
0.0
 11
1946.5431914451881
 21
-927.90869264164564
 31
0.0
  0
LINE
  5
20D79
  8
1PHANTOM
 10
1946.5431914451881
 20
-948.30869264153387
 30
0.0
 11
1947.0431914451881
 21
-948.40869380493143
 31
0.0
  0
LINE
  5
20D7A
  8
1PHANTOM
 10
1947.0431914451881
 20
-930.80869380492686
 30
0.0
 11
1943.0431914451881
 21
-931.60868449774534
 31
0.0
  0
LINE
  5
20D7B
  8
1PHANTOM
 10
1947.0431914451881
 20
-942.00869380493123
 30
0.0
 11
1943.0431914451881
 21
-942.80868449775392
 31
0.0
  0
LINE
  5
20D7C
  8
1PHANTOM
 10
1947.0431914451881
 20
-943.60869380493148
 30
0.0
 11
1943.0431914451881
 21
-944.40868449775417
 31
0.0
  0
LINE
  5
20D7D
  8
1PHANTOM
 10
1946.5431914451881
 20
-943.50869264153425
 30
0.0
 11
1947.0431914451881
 21
-943.60869380493148
 31
0.0
  0
LINE
  5
20D7E
  8
1PHANTOM
 10
1946.5431914451881
 20
-945.10869264153405
 30
0.0
 11
1947.0431914451881
 21
-945.2086938049315
 31
0.0
  0
LINE
  5
20D7F
  8
1PHANTOM
 10
1943.0431914451881
 20
-944.40868449775417
 30
0.0
 11
1943.5431914451881
 21
-944.50868566115105
 31
0.0
  0
LINE
  5
20D80
  8
1PHANTOM
 10
1943.0431914451881
 20
-942.80868449775392
 30
0.0
 11
1943.5431914451881
 21
-942.90868566115125
 31
0.0
  0
LINE
  5
20D81
  8
1PHANTOM
 10
1946.5431914451881
 20
-946.70869264153396
 30
0.0
 11
1947.0431914451881
 21
-946.80869380493141
 31
0.0
  0
LINE
  5
20D82
  8
1PHANTOM
 10
1943.0431914451881
 20
-946.00868449775396
 30
0.0
 11
1943.5431914451881
 21
-946.10868566115141
 31
0.0
  0
LINE
  5
20D83
  8
1PHANTOM
 10
1947.0431914451881
 20
-945.2086938049315
 30
0.0
 11
1943.0431914451881
 21
-946.00868449775396
 31
0.0
  0
LINE
  5
20D84
  8
1PHANTOM
 10
1943.0431914451881
 20
-947.60868449775398
 30
0.0
 11
1943.5431914451881
 21
-947.70868566115075
 31
0.0
  0
LINE
  5
20D85
  8
1PHANTOM
 10
1947.0431914451881
 20
-946.80869380493141
 30
0.0
 11
1943.0431914451881
 21
-947.60868449775398
 31
0.0
  0
LINE
  5
20D86
  8
1PHANTOM
 10
1947.0431914451881
 20
-932.40869380492666
 30
0.0
 11
1943.0431914451881
 21
-933.20868449774514
 31
0.0
  0
LINE
  5
20D87
  8
1PHANTOM
 10
1946.5431914451881
 20
-932.30869264152943
 30
0.0
 11
1947.0431914451881
 21
-932.40869380492666
 31
0.0
  0
LINE
  5
20D88
  8
1PHANTOM
 10
1946.5431914451881
 20
-933.90869264152923
 30
0.0
 11
1947.0431914451881
 21
-934.00869380492713
 31
0.0
  0
LINE
  5
20D89
  8
1PHANTOM
 10
1943.0431914451881
 20
-931.60868449774534
 30
0.0
 11
1943.5431914451881
 21
-931.70868566114325
 31
0.0
  0
LINE
  5
20D8A
  8
1PHANTOM
 10
1943.0431914451881
 20
-933.20868449774514
 30
0.0
 11
1943.5431914451881
 21
-933.30868566114304
 31
0.0
  0
LINE
  5
20D8B
  8
1PHANTOM
 10
1946.5431914451881
 20
-935.50869264153368
 30
0.0
 11
1947.0431914451881
 21
-935.60869380493148
 31
0.0
  0
LINE
  5
20D8C
  8
1PHANTOM
 10
1943.0431914451881
 20
-934.80868449774505
 30
0.0
 11
1943.5431914451881
 21
-934.90868566114295
 31
0.0
  0
LINE
  5
20D8D
  8
1PHANTOM
 10
1947.0431914451881
 20
-934.00869380492713
 30
0.0
 11
1943.0431914451881
 21
-934.80868449774505
 31
0.0
  0
LINE
  5
20D8E
  8
1PHANTOM
 10
1947.0431914451881
 20
-937.2086938049315
 30
0.0
 11
1943.0431914451881
 21
-938.00868449774964
 31
0.0
  0
LINE
  5
20D8F
  8
1PHANTOM
 10
1947.0431914451881
 20
-940.40869380493143
 30
0.0
 11
1943.0431914451881
 21
-941.20868449775389
 31
0.0
  0
LINE
  5
20D90
  8
1PHANTOM
 10
1947.0431914451881
 20
-938.80869380493141
 30
0.0
 11
1943.0431914451881
 21
-939.60868449774989
 31
0.0
  0
LINE
  5
20D91
  8
1PHANTOM
 10
1946.5431914451881
 20
-938.7086926415335
 30
0.0
 11
1947.0431914451881
 21
-938.80869380493141
 31
0.0
  0
LINE
  5
20D92
  8
1PHANTOM
 10
1946.5431914451881
 20
-937.10869264153371
 30
0.0
 11
1947.0431914451881
 21
-937.2086938049315
 31
0.0
  0
LINE
  5
20D93
  8
1PHANTOM
 10
1946.5431914451881
 20
-940.30869264153353
 30
0.0
 11
1947.0431914451881
 21
-940.40869380493143
 31
0.0
  0
LINE
  5
20D94
  8
1PHANTOM
 10
1946.5431914451881
 20
-941.90869264153434
 30
0.0
 11
1947.0431914451881
 21
-942.00869380493123
 31
0.0
  0
LINE
  5
20D95
  8
1PHANTOM
 10
1943.0431914451881
 20
-938.00868449774964
 30
0.0
 11
1943.5431914451881
 21
-938.10868566114732
 31
0.0
  0
LINE
  5
20D96
  8
1PHANTOM
 10
1943.0431914451881
 20
-936.40868449774962
 30
0.0
 11
1943.5431914451881
 21
-936.50868566114741
 31
0.0
  0
LINE
  5
20D97
  8
1PHANTOM
 10
1943.0431914451881
 20
-941.20868449775389
 30
0.0
 11
1943.5431914451881
 21
-941.30868566115123
 31
0.0
  0
LINE
  5
20D98
  8
1PHANTOM
 10
1943.0431914451881
 20
-939.60868449774989
 30
0.0
 11
1943.5431914451881
 21
-939.70868566114734
 31
0.0
  0
LINE
  5
20D99
  8
1PHANTOM
 10
1947.0431914451881
 20
-935.60869380493148
 30
0.0
 11
1943.0431914451881
 21
-936.40868449774962
 31
0.0
  0
LINE
  5
20D9A
  8
1PHANTOM
 10
1946.5431914451881
 20
-930.70869264152941
 30
0.0
 11
1947.0431914451881
 21
-930.80869380492686
 31
0.0
  0
LINE
  5
20D9B
  8
1PHANTOM
 10
1947.0431914451881
 20
-929.20869380492695
 30
0.0
 11
1943.0431914451881
 21
-930.00868449774555
 31
0.0
  0
LINE
  5
20D9C
  8
1PHANTOM
 10
1943.0431914451881
 20
-930.00868449774555
 30
0.0
 11
1943.5431914451881
 21
-930.10868566114323
 31
0.0
  0
LINE
  5
20D9D
  8
1PHANTOM
 10
1946.5431914451881
 20
-929.10869264152961
 30
0.0
 11
1947.0431914451881
 21
-929.20869380492695
 31
0.0
  0
LINE
  5
20D9E
  8
1PHANTOM
 10
1941.5432379810859
 20
-927.90868100777982
 30
0.0
 11
1941.5432379810859
 21
-928.90868915145336
 31
0.0
  0
LINE
  5
20D9F
  8
1PHANTOM
 10
1948.5432379810859
 20
-927.90869729534359
 30
0.0
 11
1948.5432379810859
 21
-928.90868915145336
 31
0.0
  0
LINE
  5
20DA0
  8
1PHANTOM
 10
1948.5432379810859
 20
-928.90868915145336
 30
0.0
 11
1941.5432379810859
 21
-928.90868915145336
 31
0.0
  0
LINE
  5
20DA1
  8
1PHANTOM
 10
1945.0431914451881
 20
-927.90868915145336
 30
0.0
 11
1944.465841175999
 21
-928.90868915145336
 31
0.0
  0
LINE
  5
20DA2
  8
1PHANTOM
 10
1959.043191445189
 20
-982.90868915139924
 30
0.0
 11
1957.543191445189
 21
-977.60868566115357
 31
0.0
  0
LINE
  5
20DA3
  8
1PHANTOM
 10
1959.043191445189
 20
-982.90868915139924
 30
0.0
 11
1960.543191445189
 21
-977.60869264153825
 31
0.0
  0
LINE
  5
20DA4
  8
1PHANTOM
 10
1957.543191445189
 20
-977.60868566115357
 30
0.0
 11
1957.543191445189
 21
-927.90868566126107
 31
0.0
  0
LINE
  5
20DA5
  8
1PHANTOM
 10
1960.543191445189
 20
-977.60869264153825
 30
0.0
 11
1960.543191445189
 21
-927.90869264164519
 31
0.0
  0
LINE
  5
20DA6
  8
1PHANTOM
 10
1957.543191445189
 20
-927.90868566126107
 30
0.0
 11
1955.543237981087
 21
-927.90868100777982
 31
0.0
  0
LINE
  5
20DA7
  8
1PHANTOM
 10
1962.543237981087
 20
-927.90869729534359
 30
0.0
 11
1960.543191445189
 21
-927.90869264164564
 31
0.0
  0
LINE
  5
20DA8
  8
1PHANTOM
 10
1955.543237981087
 20
-927.90868100777982
 30
0.0
 11
1955.543237981087
 21
-926.80868449796901
 31
0.0
  0
LINE
  5
20DA9
  8
1PHANTOM
 10
1962.543237981087
 20
-927.90869729534359
 30
0.0
 11
1962.543237981087
 21
-926.80869380514832
 31
0.0
  0
ARC
  5
20DAA
  8
1PHANTOM
 10
1957.043237981087
 20
-926.80868449796901
 30
0.0
 40
1.5
 50
89.999866684461907
 51
180.0
  0
ARC
  5
20DAB
  8
1PHANTOM
 10
1961.043237981087
 20
-926.80869380514832
 30
0.0
 40
1.5
 50
0.0
 51
89.999866684461907
  0
LINE
  5
20DAC
  8
1PHANTOM
 10
1961.04324147128
 20
-925.30869380515242
 30
0.0
 11
1957.0432414712791
 21
-925.30868449797299
 31
0.0
  0
LINE
  5
20DAD
  8
1PHANTOM
 10
1960.1375617950821
 20
-980.80869169772131
 30
0.0
 11
1958.175226706207
 21
-981.60868713177251
 31
0.0
  0
LINE
  5
20DAE
  8
1CENTER
 10
1959.043237981087
 20
-975.86960374270745
 30
0.0
 11
1959.043237981087
 21
-924.42130550584363
 31
0.0
  0
LINE
  5
20DAF
  8
1PHANTOM
 10
1958.175226706207
 20
-981.60868713177251
 30
0.0
 11
1958.7635032812491
 21
-981.92045698802428
 31
0.0
  0
LINE
  5
20DB0
  8
1PHANTOM
 10
1961.043191445189
 20
-948.40869380493143
 30
0.0
 11
1957.043191445189
 21
-949.2086844977498
 31
0.0
  0
LINE
  5
20DB1
  8
1PHANTOM
 10
1961.043191445189
 20
-959.60869380493557
 30
0.0
 11
1957.043191445189
 21
-960.40868449775826
 31
0.0
  0
LINE
  5
20DB2
  8
1PHANTOM
 10
1961.043191445189
 20
-961.20869380493605
 30
0.0
 11
1957.043191445189
 21
-962.00868449775874
 31
0.0
  0
LINE
  5
20DB3
  8
1PHANTOM
 10
1960.543191445189
 20
-961.10869264153871
 30
0.0
 11
1961.043191445189
 21
-961.20869380493605
 31
0.0
  0
LINE
  5
20DB4
  8
1PHANTOM
 10
1960.543191445189
 20
-962.70869264153851
 30
0.0
 11
1961.043191445189
 21
-962.80869380493596
 31
0.0
  0
LINE
  5
20DB5
  8
1PHANTOM
 10
1957.043191445189
 20
-962.00868449775874
 30
0.0
 11
1957.543191445189
 21
-962.1086856611555
 31
0.0
  0
LINE
  5
20DB6
  8
1PHANTOM
 10
1957.043191445189
 20
-960.40868449775826
 30
0.0
 11
1957.543191445189
 21
-960.5086856611556
 31
0.0
  0
LINE
  5
20DB7
  8
1PHANTOM
 10
1960.543191445189
 20
-964.30869264153853
 30
0.0
 11
1961.043191445189
 21
-964.40869380493575
 31
0.0
  0
LINE
  5
20DB8
  8
1PHANTOM
 10
1957.043191445189
 20
-963.60868449775853
 30
0.0
 11
1957.543191445189
 21
-963.70868566115576
 31
0.0
  0
LINE
  5
20DB9
  8
1PHANTOM
 10
1961.043191445189
 20
-962.80869380493596
 30
0.0
 11
1957.043191445189
 21
-963.60868449775853
 31
0.0
  0
LINE
  5
20DBA
  8
1PHANTOM
 10
1961.043191445189
 20
-977.60869380493557
 30
0.0
 11
1957.269598497393
 21
-978.40868502456124
 31
0.0
  0
LINE
  5
20DBB
  8
1PHANTOM
 10
1961.043191445189
 20
-966.00869380493577
 30
0.0
 11
1957.043191445189
 21
-966.80868449775835
 31
0.0
  0
LINE
  5
20DBC
  8
1PHANTOM
 10
1960.59037530313
 20
-979.20869275132543
 30
0.0
 11
1957.7224126018
 21
-980.00868607816665
 31
0.0
  0
LINE
  5
20DBD
  8
1PHANTOM
 10
1959.6803899544509
 20
-980.65725590128125
 30
0.0
 11
1960.1375617950821
 21
-980.80869169772131
 31
0.0
  0
LINE
  5
20DBE
  8
1PHANTOM
 10
1960.543191445189
 20
-977.5086926415388
 30
0.0
 11
1961.043191445189
 21
-977.60869380493557
 31
0.0
  0
LINE
  5
20DBF
  8
1PHANTOM
 10
1960.543191445189
 20
-965.90869264153889
 30
0.0
 11
1961.043191445189
 21
-966.00869380493577
 31
0.0
  0
LINE
  5
20DC0
  8
1PHANTOM
 10
1960.1222768479811
 20
-979.09592323897539
 30
0.0
 11
1960.59037530313
 21
-979.20869275132543
 31
0.0
  0
LINE
  5
20DC1
  8
1PHANTOM
 10
1957.269598497393
 20
-978.40868502456124
 30
0.0
 11
1957.806192232664
 21
-978.53795572219076
 31
0.0
  0
LINE
  5
20DC2
  8
1PHANTOM
 10
1957.043191445189
 20
-965.20868449775855
 30
0.0
 11
1957.543191445189
 21
-965.30868566115532
 31
0.0
  0
LINE
  5
20DC3
  8
1PHANTOM
 10
1957.043191445189
 20
-966.80868449775835
 30
0.0
 11
1957.543191445189
 21
-966.90868566115557
 31
0.0
  0
LINE
  5
20DC4
  8
1PHANTOM
 10
1957.7224126018
 20
-980.00868607816665
 30
0.0
 11
1958.2741620656029
 21
-980.19145022079465
 31
0.0
  0
LINE
  5
20DC5
  8
1PHANTOM
 10
1961.043191445189
 20
-964.40869380493575
 30
0.0
 11
1957.043191445189
 21
-965.20868449775855
 31
0.0
  0
LINE
  5
20DC6
  8
1PHANTOM
 10
1961.043191445189
 20
-950.00869380493123
 30
0.0
 11
1957.043191445189
 21
-950.8086844977496
 31
0.0
  0
LINE
  5
20DC7
  8
1PHANTOM
 10
1960.543191445189
 20
-949.90869264153389
 30
0.0
 11
1961.043191445189
 21
-950.00869380493123
 31
0.0
  0
LINE
  5
20DC8
  8
1PHANTOM
 10
1960.543191445189
 20
-951.50869264153368
 30
0.0
 11
1961.043191445189
 21
-951.60869380493159
 31
0.0
  0
LINE
  5
20DC9
  8
1PHANTOM
 10
1957.043191445189
 20
-949.2086844977498
 30
0.0
 11
1957.543191445189
 21
-949.30868566114759
 31
0.0
  0
LINE
  5
20DCA
  8
1PHANTOM
 10
1957.043191445189
 20
-950.8086844977496
 30
0.0
 11
1957.543191445189
 21
-950.9086856611475
 31
0.0
  0
LINE
  5
20DCB
  8
1PHANTOM
 10
1960.543191445189
 20
-953.10869264153814
 30
0.0
 11
1961.043191445189
 21
-953.20869380493605
 31
0.0
  0
LINE
  5
20DCC
  8
1PHANTOM
 10
1957.043191445189
 20
-952.40868449774962
 30
0.0
 11
1957.543191445189
 21
-952.50868566114752
 31
0.0
  0
LINE
  5
20DCD
  8
1PHANTOM
 10
1961.043191445189
 20
-951.60869380493159
 30
0.0
 11
1957.043191445189
 21
-952.40868449774962
 31
0.0
  0
LINE
  5
20DCE
  8
1PHANTOM
 10
1961.043191445189
 20
-954.80869380493596
 30
0.0
 11
1957.043191445189
 21
-955.60868449775398
 31
0.0
  0
LINE
  5
20DCF
  8
1PHANTOM
 10
1961.043191445189
 20
-958.00869380493577
 30
0.0
 11
1957.043191445189
 21
-958.80868449775835
 31
0.0
  0
LINE
  5
20DD0
  8
1PHANTOM
 10
1961.043191445189
 20
-956.40869380493575
 30
0.0
 11
1957.043191445189
 21
-957.20868449775435
 31
0.0
  0
LINE
  5
20DD1
  8
1PHANTOM
 10
1960.543191445189
 20
-956.30869264153796
 30
0.0
 11
1961.043191445189
 21
-956.40869380493575
 31
0.0
  0
LINE
  5
20DD2
  8
1PHANTOM
 10
1960.543191445189
 20
-954.70869264153805
 30
0.0
 11
1961.043191445189
 21
-954.80869380493596
 31
0.0
  0
LINE
  5
20DD3
  8
1PHANTOM
 10
1960.543191445189
 20
-957.90869264153798
 30
0.0
 11
1961.043191445189
 21
-958.00869380493577
 31
0.0
  0
LINE
  5
20DD4
  8
1PHANTOM
 10
1960.543191445189
 20
-959.50869264153891
 30
0.0
 11
1961.043191445189
 21
-959.60869380493557
 31
0.0
  0
LINE
  5
20DD5
  8
1PHANTOM
 10
1957.043191445189
 20
-955.60868449775398
 30
0.0
 11
1957.543191445189
 21
-955.70868566115166
 31
0.0
  0
LINE
  5
20DD6
  8
1PHANTOM
 10
1957.043191445189
 20
-954.00868449775396
 30
0.0
 11
1957.543191445189
 21
-954.10868566115187
 31
0.0
  0
LINE
  5
20DD7
  8
1PHANTOM
 10
1957.043191445189
 20
-958.80868449775835
 30
0.0
 11
1957.543191445189
 21
-958.90868566115557
 31
0.0
  0
LINE
  5
20DD8
  8
1PHANTOM
 10
1957.043191445189
 20
-957.20868449775435
 30
0.0
 11
1957.543191445189
 21
-957.30868566115169
 31
0.0
  0
LINE
  5
20DD9
  8
1PHANTOM
 10
1961.043191445189
 20
-953.20869380493605
 30
0.0
 11
1957.043191445189
 21
-954.00868449775396
 31
0.0
  0
LINE
  5
20DDA
  8
1PHANTOM
 10
1957.543191445189
 20
-927.90868566126107
 30
0.0
 11
1960.543191445189
 21
-927.90869264164564
 31
0.0
  0
LINE
  5
20DDB
  8
1PHANTOM
 10
1960.543191445189
 20
-948.30869264153387
 30
0.0
 11
1961.043191445189
 21
-948.40869380493143
 31
0.0
  0
LINE
  5
20DDC
  8
1PHANTOM
 10
1961.043191445189
 20
-930.80869380492686
 30
0.0
 11
1957.043191445189
 21
-931.60868449774534
 31
0.0
  0
LINE
  5
20DDD
  8
1PHANTOM
 10
1961.043191445189
 20
-942.00869380493123
 30
0.0
 11
1957.043191445189
 21
-942.80868449775392
 31
0.0
  0
LINE
  5
20DDE
  8
1PHANTOM
 10
1961.043191445189
 20
-943.60869380493148
 30
0.0
 11
1957.043191445189
 21
-944.40868449775417
 31
0.0
  0
LINE
  5
20DDF
  8
1PHANTOM
 10
1960.543191445189
 20
-943.50869264153425
 30
0.0
 11
1961.043191445189
 21
-943.60869380493148
 31
0.0
  0
LINE
  5
20DE0
  8
1PHANTOM
 10
1960.543191445189
 20
-945.10869264153405
 30
0.0
 11
1961.043191445189
 21
-945.2086938049315
 31
0.0
  0
LINE
  5
20DE1
  8
1PHANTOM
 10
1957.043191445189
 20
-944.40868449775417
 30
0.0
 11
1957.543191445189
 21
-944.50868566115105
 31
0.0
  0
LINE
  5
20DE2
  8
1PHANTOM
 10
1957.043191445189
 20
-942.80868449775392
 30
0.0
 11
1957.543191445189
 21
-942.90868566115125
 31
0.0
  0
LINE
  5
20DE3
  8
1PHANTOM
 10
1960.543191445189
 20
-946.70869264153396
 30
0.0
 11
1961.043191445189
 21
-946.80869380493141
 31
0.0
  0
LINE
  5
20DE4
  8
1PHANTOM
 10
1957.043191445189
 20
-946.00868449775396
 30
0.0
 11
1957.543191445189
 21
-946.10868566115141
 31
0.0
  0
LINE
  5
20DE5
  8
1PHANTOM
 10
1961.043191445189
 20
-945.2086938049315
 30
0.0
 11
1957.043191445189
 21
-946.00868449775396
 31
0.0
  0
LINE
  5
20DE6
  8
1PHANTOM
 10
1957.043191445189
 20
-947.60868449775398
 30
0.0
 11
1957.543191445189
 21
-947.70868566115075
 31
0.0
  0
LINE
  5
20DE7
  8
1PHANTOM
 10
1961.043191445189
 20
-946.80869380493141
 30
0.0
 11
1957.043191445189
 21
-947.60868449775398
 31
0.0
  0
LINE
  5
20DE8
  8
1PHANTOM
 10
1961.043191445189
 20
-932.40869380492666
 30
0.0
 11
1957.043191445189
 21
-933.20868449774514
 31
0.0
  0
LINE
  5
20DE9
  8
1PHANTOM
 10
1960.543191445189
 20
-932.30869264152943
 30
0.0
 11
1961.043191445189
 21
-932.40869380492666
 31
0.0
  0
LINE
  5
20DEA
  8
1PHANTOM
 10
1960.543191445189
 20
-933.90869264152923
 30
0.0
 11
1961.043191445189
 21
-934.00869380492713
 31
0.0
  0
LINE
  5
20DEB
  8
1PHANTOM
 10
1957.043191445189
 20
-931.60868449774534
 30
0.0
 11
1957.543191445189
 21
-931.70868566114325
 31
0.0
  0
LINE
  5
20DEC
  8
1PHANTOM
 10
1957.043191445189
 20
-933.20868449774514
 30
0.0
 11
1957.543191445189
 21
-933.30868566114304
 31
0.0
  0
LINE
  5
20DED
  8
1PHANTOM
 10
1960.543191445189
 20
-935.50869264153368
 30
0.0
 11
1961.043191445189
 21
-935.60869380493148
 31
0.0
  0
LINE
  5
20DEE
  8
1PHANTOM
 10
1957.043191445189
 20
-934.80868449774505
 30
0.0
 11
1957.543191445189
 21
-934.90868566114295
 31
0.0
  0
LINE
  5
20DEF
  8
1PHANTOM
 10
1961.043191445189
 20
-934.00869380492713
 30
0.0
 11
1957.043191445189
 21
-934.80868449774505
 31
0.0
  0
LINE
  5
20DF0
  8
1PHANTOM
 10
1961.043191445189
 20
-937.2086938049315
 30
0.0
 11
1957.043191445189
 21
-938.00868449774964
 31
0.0
  0
LINE
  5
20DF1
  8
1PHANTOM
 10
1961.043191445189
 20
-940.40869380493143
 30
0.0
 11
1957.043191445189
 21
-941.20868449775389
 31
0.0
  0
LINE
  5
20DF2
  8
1PHANTOM
 10
1961.043191445189
 20
-938.80869380493141
 30
0.0
 11
1957.043191445189
 21
-939.60868449774989
 31
0.0
  0
LINE
  5
20DF3
  8
1PHANTOM
 10
1960.543191445189
 20
-938.7086926415335
 30
0.0
 11
1961.043191445189
 21
-938.80869380493141
 31
0.0
  0
LINE
  5
20DF4
  8
1PHANTOM
 10
1960.543191445189
 20
-937.10869264153371
 30
0.0
 11
1961.043191445189
 21
-937.2086938049315
 31
0.0
  0
LINE
  5
20DF5
  8
1PHANTOM
 10
1960.543191445189
 20
-940.30869264153353
 30
0.0
 11
1961.043191445189
 21
-940.40869380493143
 31
0.0
  0
LINE
  5
20DF6
  8
1PHANTOM
 10
1960.543191445189
 20
-941.90869264153434
 30
0.0
 11
1961.043191445189
 21
-942.00869380493123
 31
0.0
  0
LINE
  5
20DF7
  8
1PHANTOM
 10
1957.043191445189
 20
-938.00868449774964
 30
0.0
 11
1957.543191445189
 21
-938.10868566114732
 31
0.0
  0
LINE
  5
20DF8
  8
1PHANTOM
 10
1957.043191445189
 20
-936.40868449774962
 30
0.0
 11
1957.543191445189
 21
-936.50868566114741
 31
0.0
  0
LINE
  5
20DF9
  8
1PHANTOM
 10
1957.043191445189
 20
-941.20868449775389
 30
0.0
 11
1957.543191445189
 21
-941.30868566115123
 31
0.0
  0
LINE
  5
20DFA
  8
1PHANTOM
 10
1957.043191445189
 20
-939.60868449774989
 30
0.0
 11
1957.543191445189
 21
-939.70868566114734
 31
0.0
  0
LINE
  5
20DFB
  8
1PHANTOM
 10
1961.043191445189
 20
-935.60869380493148
 30
0.0
 11
1957.043191445189
 21
-936.40868449774962
 31
0.0
  0
LINE
  5
20DFC
  8
1PHANTOM
 10
1960.543191445189
 20
-930.70869264152941
 30
0.0
 11
1961.043191445189
 21
-930.80869380492686
 31
0.0
  0
LINE
  5
20DFD
  8
1PHANTOM
 10
1961.043191445189
 20
-929.20869380492695
 30
0.0
 11
1957.043191445189
 21
-930.00868449774555
 31
0.0
  0
LINE
  5
20DFE
  8
1PHANTOM
 10
1957.043191445189
 20
-930.00868449774555
 30
0.0
 11
1957.543191445189
 21
-930.10868566114323
 31
0.0
  0
LINE
  5
20DFF
  8
1PHANTOM
 10
1960.543191445189
 20
-929.10869264152961
 30
0.0
 11
1961.043191445189
 21
-929.20869380492695
 31
0.0
  0
LINE
  5
20E00
  8
1PHANTOM
 10
1955.543237981087
 20
-927.90868100777982
 30
0.0
 11
1955.543237981087
 21
-928.90868915145336
 31
0.0
  0
LINE
  5
20E01
  8
1PHANTOM
 10
1962.543237981087
 20
-927.90869729534359
 30
0.0
 11
1962.543237981087
 21
-928.90868915145336
 31
0.0
  0
LINE
  5
20E02
  8
1PHANTOM
 10
1962.543237981087
 20
-928.90868915145336
 30
0.0
 11
1955.543237981087
 21
-928.90868915145336
 31
0.0
  0
LINE
  5
20E03
  8
1PHANTOM
 10
1959.043191445189
 20
-927.90868915145336
 30
0.0
 11
1958.465841175999
 21
-928.90868915145336
 31
0.0
  0
LINE
  5
20E04
  8
01
 10
1980.0315571372321
 20
-973.90868915145381
 30
0.0
 11
1923.974045512572
 21
-973.90868915145381
 31
0.0
  0
LINE
  5
20E06
  8
01
 10
1980.0315571372321
 20
-948.90868915145347
 30
0.0
 11
1923.974045512572
 21
-948.90868915145347
 31
0.0
  0
LINE
  5
20E07
  8
01
 10
1980.0315571372321
 20
-961.90868915145393
 30
0.0
 11
1960.543191445189
 21
-961.90868915145415
 31
0.0
  0
LINE
  5
20E08
  8
01
 10
1957.543191445189
 20
-961.90868915145393
 30
0.0
 11
1946.5431914451881
 21
-961.90868915145393
 31
0.0
  0
LINE
  5
20E09
  8
01
 10
1943.5431914451881
 20
-961.90868915145393
 30
0.0
 11
1923.974045512572
 21
-961.90868915145393
 31
0.0
  0
LINE
  5
20E0C
  8
01
 10
1942.8432379810861
 20
-948.90868915145347
 30
0.0
 11
1942.8432379810861
 21
-961.90868915145336
 31
0.0
  0
LINE
  5
20E0D
  8
01
 10
1947.2432379810859
 20
-948.90868915145347
 30
0.0
 11
1947.2432379810859
 21
-961.90868915145336
 31
0.0
  0
LINE
  5
20E0E
  8
01
 10
1956.843237981087
 20
-948.90868915145347
 30
0.0
 11
1956.843237981087
 21
-961.90868915145336
 31
0.0
  0
LINE
  5
20E0F
  8
01
 10
1961.2432379810871
 20
-948.90868915145347
 30
0.0
 11
1961.2432379810871
 21
-961.90868915145336
 31
0.0
  0
LINE
  5
20E5D
  8
1CENTER
 10
1819.6534534157349
 20
-942.17126364261765
 30
0.0
 11
1819.6534534157349
 21
-954.7672512689478
 31
0.0
  0
LINE
  5
20E5E
  8
1CENTER
 10
1798.6534534157361
 20
-942.17126364261765
 30
0.0
 11
1798.6534534157361
 21
-954.7672512689478
 31
0.0
  0
LINE
  5
20E5F
  8
1CENTER
 10
1840.6534534157361
 20
-942.17126364261765
 30
0.0
 11
1840.6534534157361
 21
-954.7672512689478
 31
0.0
  0
LINE
  5
20E60
  8
1CENTER
 10
1077.653453415737
 20
-942.17126364261765
 30
0.0
 11
1077.653453415737
 21
-954.7672512689478
 31
0.0
  0
LINE
  5
20E61
  8
1CENTER
 10
1098.653453415737
 20
-942.17126364261765
 30
0.0
 11
1098.653453415737
 21
-954.7672512689478
 31
0.0
  0
LINE
  5
20E62
  8
1CENTER
 10
1056.653453415737
 20
-942.17126364261765
 30
0.0
 11
1056.653453415737
 21
-954.7672512689478
 31
0.0
  0
LINE
  5
211C3
  8
1PHANTOM
 10
1898.6534534157361
 20
-502.01804729708061
 30
0.0
 11
1898.6534534157361
 21
-528.51804729708056
 31
0.0
  0
LINE
  5
211ED
  8
1PHANTOM
 10
998.65345341573686
 20
-502.01804729708061
 30
0.0
 11
998.65345341573754
 21
-528.51804729708056
 31
0.0
  0
LINE
  5
21272
  8
1PHANTOM
 10
1947.0431914451881
 20
-969.20869380493968
 30
0.0
 11
1943.0431914451881
 21
-970.00868449776215
 31
0.0
  0
LINE
  5
21273
  8
1PHANTOM
 10
1947.0431914451881
 20
-970.80869380494005
 30
0.0
 11
1943.0431914451881
 21
-971.60868449776262
 31
0.0
  0
LINE
  5
21274
  8
1PHANTOM
 10
1946.5431914451881
 20
-970.7086926415426
 30
0.0
 11
1947.0431914451881
 21
-970.80869380494005
 31
0.0
  0
LINE
  5
21275
  8
1PHANTOM
 10
1946.5431914451881
 20
-972.30869264154262
 30
0.0
 11
1947.0431914451881
 21
-972.40869380493984
 31
0.0
  0
LINE
  5
21276
  8
1PHANTOM
 10
1943.0431914451881
 20
-971.60868449776262
 30
0.0
 11
1943.5431914451881
 21
-971.70868566115951
 31
0.0
  0
LINE
  5
21277
  8
1PHANTOM
 10
1943.0431914451881
 20
-970.00868449776215
 30
0.0
 11
1943.5431914451881
 21
-970.10868566115948
 31
0.0
  0
LINE
  5
21278
  8
1PHANTOM
 10
1946.5431914451881
 20
-973.90869264154242
 30
0.0
 11
1947.0431914451881
 21
-974.00869380493987
 31
0.0
  0
LINE
  5
21279
  8
1PHANTOM
 10
1943.0431914451881
 20
-973.20868449776265
 30
0.0
 11
1943.5431914451881
 21
-973.30868566115987
 31
0.0
  0
LINE
  5
2127A
  8
1PHANTOM
 10
1947.0431914451881
 20
-972.40869380493984
 30
0.0
 11
1943.0431914451881
 21
-973.20868449776265
 31
0.0
  0
LINE
  5
2127B
  8
1PHANTOM
 10
1947.0431914451881
 20
-975.60869380493966
 30
0.0
 11
1943.0431914451881
 21
-976.40868449776235
 31
0.0
  0
LINE
  5
2127C
  8
1PHANTOM
 10
1946.5431914451881
 20
-975.50869264154278
 30
0.0
 11
1947.0431914451881
 21
-975.60869380493966
 31
0.0
  0
LINE
  5
2127D
  8
1PHANTOM
 10
1943.0431914451881
 20
-974.80868449776244
 30
0.0
 11
1943.5431914451881
 21
-974.90868566115944
 31
0.0
  0
LINE
  5
2127E
  8
1PHANTOM
 10
1943.0431914451881
 20
-976.40868449776235
 30
0.0
 11
1943.5431914451881
 21
-976.50868566115969
 31
0.0
  0
LINE
  5
2127F
  8
1PHANTOM
 10
1947.0431914451881
 20
-974.00869380493987
 30
0.0
 11
1943.0431914451881
 21
-974.80868449776244
 31
0.0
  0
LINE
  5
21280
  8
1PHANTOM
 10
1947.0431914451881
 20
-967.60869380493966
 30
0.0
 11
1943.0431914451881
 21
-968.40868449776235
 31
0.0
  0
LINE
  5
21281
  8
1PHANTOM
 10
1946.5431914451881
 20
-967.50869264154187
 30
0.0
 11
1947.0431914451881
 21
-967.60869380493966
 31
0.0
  0
LINE
  5
21282
  8
1PHANTOM
 10
1946.5431914451881
 20
-969.1086926415428
 30
0.0
 11
1947.0431914451881
 21
-969.20869380493968
 31
0.0
  0
LINE
  5
21283
  8
1PHANTOM
 10
1943.0431914451881
 20
-968.40868449776235
 30
0.0
 11
1943.5431914451881
 21
-968.50868566115969
 31
0.0
  0
LINE
  5
21284
  8
1PHANTOM
 10
1961.043191445189
 20
-969.20869380493968
 30
0.0
 11
1957.043191445189
 21
-970.00868449776215
 31
0.0
  0
LINE
  5
21285
  8
1PHANTOM
 10
1961.043191445189
 20
-970.80869380494005
 30
0.0
 11
1957.043191445189
 21
-971.60868449776262
 31
0.0
  0
LINE
  5
21286
  8
1PHANTOM
 10
1960.543191445189
 20
-970.7086926415426
 30
0.0
 11
1961.043191445189
 21
-970.80869380494005
 31
0.0
  0
LINE
  5
21287
  8
1PHANTOM
 10
1960.543191445189
 20
-972.30869264154262
 30
0.0
 11
1961.043191445189
 21
-972.40869380493984
 31
0.0
  0
LINE
  5
21288
  8
1PHANTOM
 10
1957.043191445189
 20
-971.60868449776262
 30
0.0
 11
1957.543191445189
 21
-971.70868566115951
 31
0.0
  0
LINE
  5
21289
  8
1PHANTOM
 10
1957.043191445189
 20
-970.00868449776215
 30
0.0
 11
1957.543191445189
 21
-970.10868566115948
 31
0.0
  0
LINE
  5
2128A
  8
1PHANTOM
 10
1960.543191445189
 20
-973.90869264154242
 30
0.0
 11
1961.043191445189
 21
-974.00869380493987
 31
0.0
  0
LINE
  5
2128B
  8
1PHANTOM
 10
1957.043191445189
 20
-973.20868449776265
 30
0.0
 11
1957.543191445189
 21
-973.30868566115987
 31
0.0
  0
LINE
  5
2128C
  8
1PHANTOM
 10
1961.043191445189
 20
-972.40869380493984
 30
0.0
 11
1957.043191445189
 21
-973.20868449776265
 31
0.0
  0
LINE
  5
2128D
  8
1PHANTOM
 10
1961.043191445189
 20
-975.60869380493966
 30
0.0
 11
1957.043191445189
 21
-976.40868449776235
 31
0.0
  0
LINE
  5
2128E
  8
1PHANTOM
 10
1960.543191445189
 20
-975.50869264154278
 30
0.0
 11
1961.043191445189
 21
-975.60869380493966
 31
0.0
  0
LINE
  5
2128F
  8
1PHANTOM
 10
1957.043191445189
 20
-974.80868449776244
 30
0.0
 11
1957.543191445189
 21
-974.90868566115944
 31
0.0
  0
LINE
  5
21290
  8
1PHANTOM
 10
1957.043191445189
 20
-976.40868449776235
 30
0.0
 11
1957.543191445189
 21
-976.50868566115969
 31
0.0
  0
LINE
  5
21291
  8
1PHANTOM
 10
1961.043191445189
 20
-974.00869380493987
 30
0.0
 11
1957.043191445189
 21
-974.80868449776244
 31
0.0
  0
LINE
  5
21292
  8
1PHANTOM
 10
1961.043191445189
 20
-967.60869380493966
 30
0.0
 11
1957.043191445189
 21
-968.40868449776235
 31
0.0
  0
LINE
  5
21293
  8
1PHANTOM
 10
1960.543191445189
 20
-967.50869264154187
 30
0.0
 11
1961.043191445189
 21
-967.60869380493966
 31
0.0
  0
LINE
  5
21294
  8
1PHANTOM
 10
1960.543191445189
 20
-969.1086926415428
 30
0.0
 11
1961.043191445189
 21
-969.20869380493968
 31
0.0
  0
LINE
  5
21295
  8
1PHANTOM
 10
1957.043191445189
 20
-968.40868449776235
 30
0.0
 11
1957.543191445189
 21
-968.50868566115969
 31
0.0
  0
LINE
  5
213CB
  8
1CENTER
 10
1084.4534534157351
 20
-913.90868915145757
 30
0.0
 11
1094.853453415735
 21
-913.90868915145757
 31
0.0
  0
LINE
  5
213CC
  8
1CENTER
 10
1089.6534534157349
 20
-919.10868915145738
 30
0.0
 11
1089.6534534157349
 21
-908.70868915145775
 31
0.0
  0
LINE
  5
213CD
  8
1CENTER
 10
1802.453453415736
 20
-913.90868915145757
 30
0.0
 11
1812.853453415737
 21
-913.90868915145757
 31
0.0
  0
LINE
  5
213CE
  8
1CENTER
 10
1807.653453415737
 20
-919.10868915145738
 30
0.0
 11
1807.653453415737
 21
-908.70868915145775
 31
0.0
  0
CIRCLE
  5
213D1
  8
1HIDDEN
 10
1807.653453415737
 20
-913.90868915145757
 30
0.0
 40
3.25
  0
CIRCLE
  5
213D2
  8
1HIDDEN
 10
1089.6534534157349
 20
-913.90868915145757
 30
0.0
 40
3.25
  0
ARC
  5
2141A
  8
01
 10
1829.1534534157361
 20
-653.90868915145393
 30
0.0
 40
5.0
 50
0.0
 51
90.0
  0
ARC
  5
2141B
  8
01
 10
1068.1534534157361
 20
-653.90868915145393
 30
0.0
 40
5.0
 50
90.0
 51
180.0
  0
LINE
  5
215F3
  8
1DIM
 10
1092.740738154271
 20
-922.62827474615187
 30
0.0
 11
1094.743301227915
 21
-928.28422215892704
 31
0.0
  0
LINE
  5
215F6
  8
1DIM
 10
1086.5661686772009
 20
-905.18910355676314
 30
0.0
 11
992.10431036603291
 21
-638.39535800513045
 31
0.0
  0
LINE
  5
215F7
  8
1DIM
 10
1090.7381750806269
 20
-916.97232733337694
 30
0.0
 11
1088.5687317508459
 21
-910.84505096953797
 31
0.0
  0
LINE
  5
215FB
  8
1DIM
 10
1089.6534534157349
 20
-919.10868915145738
 30
0.0
 11
1089.6534534157349
 21
-973.95293724921123
 31
0.0
  0
LINE
  5
215FC
  8
1DIM
 10
1807.653453415737
 20
-919.10868915145738
 30
0.0
 11
1807.653453415737
 21
-973.95293724921123
 31
0.0
  0
LINE
  5
215FD
  8
1DIM
 10
1095.6534534157349
 20
-970.95293724921135
 30
0.0
 11
1801.653453415737
 21
-970.95293724921135
 31
0.0
  0
LINE
  5
21601
  8
1DIM
 10
1848.6534534157361
 20
-948.90868915145381
 30
0.0
 11
1879.89425353402
 21
-948.90868915145381
 31
0.0
  0
LINE
  5
21602
  8
1DIM
 10
1812.853453415737
 20
-913.90868915145757
 30
0.0
 11
1879.89425353402
 21
-913.90868915145757
 31
0.0
  0
LINE
  5
21603
  8
1DIM
 10
1876.89425353402
 20
-942.90868915145404
 30
0.0
 11
1876.89425353402
 21
-919.90868915145745
 31
0.0
  0
LINE
  5
21607
  8
1HATCH
 10
1923.974045512572
 20
-963.17829741115986
 30
0.0
 11
1925.243653772279
 21
-961.90868915145393
 31
0.0
1001
ACAD
1010
0.0
1020
0.0
1030
0.0
  0
LINE
  5
21608
  8
1HATCH
 10
1923.974045512572
 20
-965.42336144142712
 30
0.0
 11
1927.488717802546
 21
-961.90868915145393
 31
0.0
1001
ACAD
1010
0.0
1020
0.0
1030
0.0
  0
LINE
  5
21609
  8
1HATCH
 10
1923.974045512572
 20
-967.66842547169472
 30
0.0
 11
1929.7337818328131
 21
-961.90868915145415
 31
0.0
1001
ACAD
1010
0.0
1020
0.0
1030
0.0
  0
LINE
  5
2160A
  8
1HATCH
 10
1923.974045512572
 20
-969.91348950196198
 30
0.0
 11
1931.978845863081
 21
-961.90868915145393
 31
0.0
1001
ACAD
1010
0.0
1020
0.0
1030
0.0
  0
LINE
  5
2160B
  8
1HATCH
 10
1923.974045512572
 20
-972.15855353222923
 30
0.0
 11
1934.223909893348
 21
-961.90868915145393
 31
0.0
1001
ACAD
1010
0.0
1020
0.0
1030
0.0
  0
LINE
  5
2160C
  8
1HATCH
 10
1924.4689739236151
 20
-973.90868915145381
 30
0.0
 11
1936.4689739236151
 21
-961.90868915145415
 31
0.0
1001
ACAD
1010
0.0
1020
0.0
1030
0.0
  0
LINE
  5
2160D
  8
1HATCH
 10
1926.714037953883
 20
-973.9086891514537
 30
0.0
 11
1938.7140379538821
 21
-961.90868915145393
 31
0.0
1001
ACAD
1010
0.0
1020
0.0
1030
0.0
  0
LINE
  5
2160E
  8
1HATCH
 10
1928.95910198415
 20
-973.90868915145381
 30
0.0
 11
1940.95910198415
 21
-961.90868915145415
 31
0.0
1001
ACAD
1010
0.0
1020
0.0
1030
0.0
  0
LINE
  5
2160F
  8
1HATCH
 10
1931.2041660144171
 20
-973.9086891514537
 30
0.0
 11
1943.09400736576
 21
-962.01884780011108
 31
0.0
1001
ACAD
1010
0.0
1020
0.0
1030
0.0
  0
LINE
  5
21610
  8
1HATCH
 10
1943.1194152521471
 20
-961.99343991372371
 30
0.0
 11
1943.2041660144171
 21
-961.90868915145393
 31
0.0
1001
ACAD
1010
0.0
1020
0.0
1030
0.0
  0
LINE
  5
21611
  8
1HATCH
 10
1933.449230044685
 20
-973.90868915145381
 30
0.0
 11
1943.5431914451881
 21
-963.81472775094994
 31
0.0
1001
ACAD
1010
0.0
1020
0.0
1030
0.0
  0
LINE
  5
21612
  8
1HATCH
 10
1935.694294074952
 20
-973.9086891514537
 30
0.0
 11
1943.5431914451881
 21
-966.0597917812172
 31
0.0
1001
ACAD
1010
0.0
1020
0.0
1030
0.0
  0
LINE
  5
21613
  8
1HATCH
 10
1946.835773494272
 20
-962.76720973213355
 30
0.0
 11
1947.694294074952
 21
-961.90868915145393
 31
0.0
1001
ACAD
1010
0.0
1020
0.0
1030
0.0
  0
LINE
  5
21614
  8
1HATCH
 10
1946.5431914451881
 20
-963.05979178121743
 30
0.0
 11
1946.73206482045
 21
-962.87091840595565
 31
0.0
1001
ACAD
1010
0.0
1020
0.0
1030
0.0
  0
LINE
  5
21615
  8
1HATCH
 10
1937.9393581052191
 20
-973.90868915145381
 30
0.0
 11
1943.373333566479
 21
-968.47471369019343
 31
0.0
1001
ACAD
1010
0.0
1020
0.0
1030
0.0
  0
LINE
  5
21616
  8
1HATCH
 10
1946.5431914451881
 20
-965.30485581148446
 30
0.0
 11
1949.9393581052191
 21
-961.90868915145393
 31
0.0
1001
ACAD
1010
0.0
1020
0.0
1030
0.0
  0
LINE
  5
21617
  8
1HATCH
 10
1943.5384041470179
 20
-968.30964310965453
 30
0.0
 11
1943.5431914451881
 21
-968.30485581148434
 31
0.0
1001
ACAD
1010
0.0
1020
0.0
1030
0.0
  0
LINE
  5
21618
  8
1HATCH
 10
1940.1844221354861
 20
-973.9086891514537
 30
0.0
 11
1943.5431914451881
 21
-970.54991984175194
 31
0.0
1001
ACAD
1010
0.0
1020
0.0
1030
0.0
  0
LINE
  5
21619
  8
1HATCH
 10
1946.5775473787471
 20
-967.5155639081928
 30
0.0
 11
1952.1844221354861
 21
-961.90868915145393
 31
0.0
1001
ACAD
1010
0.0
1020
0.0
1030
0.0
  0
LINE
  5
2161A
  8
1HATCH
 10
1942.4294861657529
 20
-973.90868915145381
 30
0.0
 11
1943.1151074509571
 21
-973.22306786624995
 31
0.0
1001
ACAD
1010
0.0
1020
0.0
1030
0.0
  0
LINE
  5
2161B
  8
1HATCH
 10
1946.5431914451881
 20
-969.79498387201909
 30
0.0
 11
1954.4294861657529
 21
-961.90868915145393
 31
0.0
1001
ACAD
1010
0.0
1020
0.0
1030
0.0
  0
LINE
  5
2161C
  8
1HATCH
 10
1943.151065349258
 20
-973.18710996794869
 30
0.0
 11
1943.5431914451881
 21
-972.7949838720192
 31
0.0
1001
ACAD
1010
0.0
1020
0.0
1030
0.0
  0
LINE
  5
2161D
  8
1HATCH
 10
1946.5431914451881
 20
-972.04004790228612
 30
0.0
 11
1956.6745501960199
 21
-961.90868915145393
 31
0.0
1001
ACAD
1010
0.0
1020
0.0
1030
0.0
  0
LINE
  5
2161E
  8
1HATCH
 10
1946.9196142262881
 20
-973.9086891514537
 30
0.0
 11
1957.190214022442
 21
-963.63808935530028
 31
0.0
1001
ACAD
1010
0.0
1020
0.0
1030
0.0
  0
LINE
  5
2161F
  8
1HATCH
 10
1957.2637250972609
 20
-963.56457828048019
 30
0.0
 11
1957.543191445189
 21
-963.2851119325527
 31
0.0
1001
ACAD
1010
0.0
1020
0.0
1030
0.0
  0
LINE
  5
21620
  8
1HATCH
 10
1949.1646782565549
 20
-973.9086891514537
 30
0.0
 11
1957.543191445189
 21
-965.53017596281995
 31
0.0
1001
ACAD
1010
0.0
1020
0.0
1030
0.0
  0
LINE
  5
21621
  8
1HATCH
 10
1960.543191445189
 20
-962.53017596281995
 30
0.0
 11
1961.1646782565549
 21
-961.90868915145393
 31
0.0
1001
ACAD
1010
0.0
1020
0.0
1030
0.0
  0
LINE
  5
21622
  8
1HATCH
 10
1951.4097422868219
 20
-973.90868915145381
 30
0.0
 11
1957.543191445189
 21
-967.77523999308755
 31
0.0
1001
ACAD
1010
0.0
1020
0.0
1030
0.0
  0
LINE
  5
21623
  8
1HATCH
 10
1960.9319801509539
 20
-964.38645128732298
 30
0.0
 11
1963.4097422868219
 21
-961.90868915145415
 31
0.0
1001
ACAD
1010
0.0
1020
0.0
1030
0.0
  0
LINE
  5
21624
  8
1HATCH
 10
1960.543191445189
 20
-964.77523999308755
 30
0.0
 11
1960.8763746655641
 21
-964.44205677271236
 31
0.0
1001
ACAD
1010
0.0
1020
0.0
1030
0.0
  0
LINE
  5
21625
  8
1HATCH
 10
1953.654806317089
 20
-973.90868915145404
 30
0.0
 11
1957.4695402231609
 21
-970.09395524538274
 31
0.0
1001
ACAD
1010
0.0
1020
0.0
1030
0.0
  0
LINE
  5
21626
  8
1HATCH
 10
1960.543191445189
 20
-967.02030402335481
 30
0.0
 11
1965.6548063170901
 21
-961.90868915145427
 31
0.0
1001
ACAD
1010
0.0
1020
0.0
1030
0.0
  0
LINE
  5
21627
  8
1HATCH
 10
1955.8998703473569
 20
-973.90868915145415
 30
0.0
 11
1957.543191445189
 21
-972.26536805362196
 31
0.0
1001
ACAD
1010
0.0
1020
0.0
1030
0.0
  0
LINE
  5
21628
  8
1HATCH
 10
1960.6737540354279
 20
-969.13480546338269
 30
0.0
 11
1967.8998703473569
 21
-961.90868915145415
 31
0.0
1001
ACAD
1010
0.0
1020
0.0
1030
0.0
  0
LINE
  5
21629
  8
1HATCH
 10
1960.543191445189
 20
-971.5104320838891
 30
0.0
 11
1970.1449343776239
 21
-961.90868915145415
 31
0.0
1001
ACAD
1010
0.0
1020
0.0
1030
0.0
  0
LINE
  5
2162A
  8
1HATCH
 10
1960.543191445189
 20
-973.75549611415647
 30
0.0
 11
1972.3899984078921
 21
-961.90868915145393
 31
0.0
1001
ACAD
1010
0.0
1020
0.0
1030
0.0
  0
LINE
  5
2162B
  8
1HATCH
 10
1962.6350624381589
 20
-973.90868915145381
 30
0.0
 11
1974.6350624381589
 21
-961.90868915145393
 31
0.0
1001
ACAD
1010
0.0
1020
0.0
1030
0.0
  0
LINE
  5
2162C
  8
1HATCH
 10
1964.8801264684259
 20
-973.9086891514537
 30
0.0
 11
1976.8801264684259
 21
-961.90868915145393
 31
0.0
1001
ACAD
1010
0.0
1020
0.0
1030
0.0
  0
LINE
  5
2162D
  8
1HATCH
 10
1967.1251904986941
 20
-973.90868915145381
 30
0.0
 11
1979.1251904986941
 21
-961.9086891514537
 31
0.0
1001
ACAD
1010
0.0
1020
0.0
1030
0.0
  0
LINE
  5
2162E
  8
1HATCH
 10
1969.3702545289609
 20
-973.9086891514537
 30
0.0
 11
1980.0315571372321
 21
-963.24738654318276
 31
0.0
1001
ACAD
1010
0.0
1020
0.0
1030
0.0
  0
LINE
  5
2162F
  8
1HATCH
 10
1971.6153185592279
 20
-973.90868915145381
 30
0.0
 11
1980.0315571372321
 21
-965.49245057345001
 31
0.0
1001
ACAD
1010
0.0
1020
0.0
1030
0.0
  0
LINE
  5
21630
  8
1HATCH
 10
1973.860382589495
 20
-973.9086891514537
 30
0.0
 11
1980.0315571372321
 21
-967.73751460371727
 31
0.0
1001
ACAD
1010
0.0
1020
0.0
1030
0.0
  0
LINE
  5
21631
  8
1HATCH
 10
1976.1054466197629
 20
-973.90868915145381
 30
0.0
 11
1980.0315571372321
 21
-969.98257863398453
 31
0.0
1001
ACAD
1010
0.0
1020
0.0
1030
0.0
  0
LINE
  5
21632
  8
1HATCH
 10
1978.3505106500299
 20
-973.90868915145381
 30
0.0
 11
1980.0315571372321
 21
-972.22764266425168
 31
0.0
1001
ACAD
1010
0.0
1020
0.0
1030
0.0
  0
LINE
  5
21633
  8
1DIM
 10
1819.6534534157349
 20
-517.06804729707983
 30
0.0
 11
1819.6534534157349
 21
-441.63095826309569
 31
0.0
  0
LINE
  5
21634
  8
1DIM
 10
1848.6534534157361
 20
-503.01804729707959
 30
0.0
 11
1848.6534534157361
 21
-441.63095826309569
 31
0.0
  0
LINE
  5
21635
  8
1DIM
 10
1825.6534534157361
 20
-444.63095826309569
 30
0.0
 11
1842.6534534157361
 21
-444.63095826309569
 31
0.0
  0
LINE
  5
21639
  8
1DIM
 10
1048.653453415737
 20
-527.51804729707965
 30
0.0
 11
1048.653453415737
 21
-565.37885694685599
 31
0.0
  0
LINE
  5
2163A
  8
1DIM
 10
998.65345341573754
 20
-528.51804729708056
 30
0.0
 11
998.65345341573754
 21
-565.37885694685599
 31
0.0
  0
LINE
  5
2163B
  8
1DIM
 10
1042.653453415737
 20
-562.3788569468561
 30
0.0
 11
1004.653453415737
 21
-562.3788569468561
 31
0.0
  0
TEXT
  5
2163F
  8
1DIM
 10
1901.3032489538241
 20
-498.61030602863428
 30
0.0
 40
10.5
  1
製品の取り付けのため
  0
TEXT
  5
21640
  8
1DIM
 10
1901.3032489538241
 20
-516.11030602863434
 30
0.0
 40
10.5
  1
側面より50ミリ以上の
  0
TEXT
  5
21641
  8
1DIM
 10
1901.3032489538241
 20
-533.61030602863434
 30
0.0
 40
10.5
  1
空間が必要
  0
LINE
  5
21642
  8
1DIM
 10
1848.6534534157361
 20
-527.51804729707965
 30
0.0
 11
1848.6534534157361
 21
-565.37885694685599
 31
0.0
  0
LINE
  5
21643
  8
1DIM
 10
1898.6534534157361
 20
-528.51804729708056
 30
0.0
 11
1898.6534534157361
 21
-565.37885694685599
 31
0.0
  0
LINE
  5
21644
  8
1DIM
 10
1854.6534534157361
 20
-562.3788569468561
 30
0.0
 11
1892.6534534157361
 21
-562.3788569468561
 31
0.0
  0
TEXT
  5
21648
  8
1DIM
 10
1996.2535244930291
 20
-982.60689069600437
 30
0.0
 40
10.5
  1
コンパネ12mm以上
  0
SOLID
  5
21649
  8
1DIM
 10
1978.953601976707
 20
-972.78388775047597
 30
0.0
 11
1976.043510091939
 21
-967.44241181004463
 31
0.0
 12
1980.5286702879409
 22
-971.55134573701434
 32
0.0
 13
1980.5286702879409
 23
-971.55134573701434
 33
0.0
1001
ACAD
1000
DSTYLE
1002
{
1070
    40
1040
3.0
1002
}
  0
TEXT
  5
2164B
  8
1DIM
 10
1981.609314542882
 20
-928.97261733853497
 30
0.0
 40
10.5
  1
カウンター下穴\U+03C65
  0
SOLID
  5
2164C
  8
1DIM
 10
1965.2135272938469
 20
-946.68246715322607
 30
0.0
 11
1960.9555480121071
 21
-951.02638386930994
 31
0.0
 12
1963.574528397726
 22
-945.53630720866624
 32
0.0
 13
1963.574528397726
 23
-945.53630720866624
 33
0.0
1001
ACAD
1000
DSTYLE
1002
{
1070
    40
1040
3.0
1002
}
  0
LINE
  5
2164E
  8
1DIM
 10
1824.8534534157361
 20
-522.26804729707999
 30
0.0
 11
1876.2364926177199
 21
-522.26804729707999
 31
0.0
  0
LINE
  5
2164F
  8
1DIM
 10
1845.8534534157361
 20
-508.26804729707919
 30
0.0
 11
1876.2364926177211
 21
-508.26804729707919
 31
0.0
  0
LINE
  5
21650
  8
1DIM
 10
1873.2364926177211
 20
-528.2680472970801
 30
0.0
 11
1873.2364926177211
 21
-534.26804729707999
 31
0.0
  0
LINE
  5
21651
  8
1DIM
 10
1873.2364926177211
 20
-502.26804729707908
 30
0.0
 11
1873.2364926177211
 21
-464.56804729707909
 31
0.0
  0
LINE
  5
21652
  8
1DIM
 10
1873.2364926177211
 20
-522.26804729707999
 30
0.0
 11
1873.2364926177211
 21
-508.26804729707919
 31
0.0
  0
LINE
  5
21656
  8
1DIM
 10
1798.6534534157361
 20
-513.4680472970789
 30
0.0
 11
1798.6534534157361
 21
-565.37885694685599
 31
0.0
  0
LINE
  5
21657
  8
1DIM
 10
1840.6534534157361
 20
-513.4680472970789
 30
0.0
 11
1840.6534534157361
 21
-565.37885694685599
 31
0.0
  0
LINE
  5
21658
  8
1DIM
 10
1804.6534534157361
 20
-562.3788569468561
 30
0.0
 11
1834.6534534157361
 21
-562.3788569468561
 31
0.0
  0
LINE
  5
2165C
  8
1DIM
 10
1056.653453415737
 20
-527.46804729708026
 30
0.0
 11
1056.653453415737
 21
-565.37885694685599
 31
0.0
  0
LINE
  5
2165D
  8
1DIM
 10
1098.653453415737
 20
-527.46804729708026
 30
0.0
 11
1098.653453415737
 21
-565.37885694685599
 31
0.0
  0
LINE
  5
2165E
  8
1DIM
 10
1062.653453415737
 20
-562.3788569468561
 30
0.0
 11
1092.653453415737
 21
-562.3788569468561
 31
0.0
  0
LINE
  5
21662
  8
1HATCH
 10
1925.291158136122
 20
-961.90868915145393
 30
0.0
 11
1923.974045512573
 21
-960.59157652790498
 31
0.0
1001
ACAD
1010
0.0
1020
0.0
1030
0.0
  0
LINE
  5
21663
  8
1HATCH
 10
1927.5362221663891
 20
-961.90868915145415
 30
0.0
 11
1925.953671961767
 21
-960.32613894683163
 31
0.0
1001
ACAD
1010
0.0
1020
0.0
1030
0.0
  0
LINE
  5
21665
  8
1HATCH
 10
1924.8311399466329
 20
-959.203606931698
 30
0.0
 11
1923.974045512573
 21
-958.34651249763783
 31
0.0
1001
ACAD
1010
0.0
1020
0.0
1030
0.0
  0
LINE
  5
21666
  8
1HATCH
 10
1929.7812861966561
 20
-961.90868915145393
 30
0.0
 11
1929.0406350033841
 21
-961.16803795818214
 31
0.0
1001
ACAD
1010
0.0
1020
0.0
1030
0.0
  0
LINE
  5
21668
  8
1HATCH
 10
1927.9181029882509
 20
-960.04550594304851
 30
0.0
 11
1925.111772950416
 21
-957.23917590521455
 31
0.0
1001
ACAD
1010
0.0
1020
0.0
1030
0.0
  0
LINE
  5
2166A
  8
1HATCH
 10
1923.9892409352831
 20
-956.11664389008092
 30
0.0
 11
1923.974045512572
 21
-956.10144846737069
 31
0.0
1001
ACAD
1010
0.0
1020
0.0
1030
0.0
  0
LINE
  5
2166C
  8
1HATCH
 10
1931.005066029868
 20
-960.88740495439856
 30
0.0
 11
1928.198735992034
 21
-958.0810749165646
 31
0.0
1001
ACAD
1010
0.0
1020
0.0
1030
0.0
  0
LINE
  5
2166E
  8
1HATCH
 10
1927.0762039768999
 20
-956.95854290143097
 30
0.0
 11
1924.269873939066
 21
-954.1522128635969
 31
0.0
1001
ACAD
1010
0.0
1020
0.0
1030
0.0
  0
LINE
  5
2166F
  8
1HATCH
 10
1934.092029071486
 20
-961.72930396574884
 30
0.0
 11
1931.285699033652
 21
-958.92297392791465
 31
0.0
1001
ACAD
1010
0.0
1020
0.0
1030
0.0
  0
LINE
  5
21671
  8
1HATCH
 10
1930.1631670185179
 20
-957.80044191278114
 30
0.0
 11
1927.356836980684
 21
-954.99411187494707
 31
0.0
1001
ACAD
1010
0.0
1020
0.0
1030
0.0
  0
LINE
  5
21673
  8
1HATCH
 10
1926.2343049655501
 20
-953.87157985981355
 30
0.0
 11
1923.974045512572
 21
-951.61132040683549
 31
0.0
1001
ACAD
1010
0.0
1020
0.0
1030
0.0
  0
LINE
  5
21674
  8
1HATCH
 10
1936.5164782874581
 20
-961.90868915145427
 30
0.0
 11
1934.37266207527
 21
-959.76487293926482
 31
0.0
1001
ACAD
1010
0.0
1020
0.0
1030
0.0
  0
LINE
  5
21676
  8
1HATCH
 10
1933.2501300601359
 20
-958.64234092413119
 30
0.0
 11
1930.443800022301
 21
-955.83601088629723
 31
0.0
1001
ACAD
1010
0.0
1020
0.0
1030
0.0
  0
LINE
  5
21678
  8
1HATCH
 10
1929.321268007167
 20
-954.7134788711636
 30
0.0
 11
1926.514937969333
 21
-951.90714883332953
 31
0.0
1001
ACAD
1010
0.0
1020
0.0
1030
0.0
  0
LINE
  5
2167A
  8
1HATCH
 10
1925.3924059542001
 20
-950.7846168181959
 30
0.0
 11
1923.974045512572
 21
-949.36625637656812
 31
0.0
1001
ACAD
1010
0.0
1020
0.0
1030
0.0
  0
LINE
  5
2167B
  8
1HATCH
 10
1938.761542317726
 20
-961.90868915145393
 30
0.0
 11
1937.4596251168859
 21
-960.6067719506151
 31
0.0
1001
ACAD
1010
0.0
1020
0.0
1030
0.0
  0
LINE
  5
2167D
  8
1HATCH
 10
1936.337093101753
 20
-959.48423993548147
 30
0.0
 11
1933.530763063919
 21
-956.67790989764728
 31
0.0
1001
ACAD
1010
0.0
1020
0.0
1030
0.0
  0
LINE
  5
2167F
  8
1HATCH
 10
1932.408231048785
 20
-955.55537788251365
 30
0.0
 11
1929.601901010951
 21
-952.74904784467969
 31
0.0
1001
ACAD
1010
0.0
1020
0.0
1030
0.0
  0
LINE
  5
21681
  8
1HATCH
 10
1928.4793689958169
 20
-951.62651582954595
 30
0.0
 11
1925.761542317724
 21
-948.90868915145325
 31
0.0
1001
ACAD
1010
0.0
1020
0.0
1030
0.0
  0
LINE
  5
21682
  8
1HATCH
 10
1941.0066063479931
 20
-961.90868915145393
 30
0.0
 11
1940.5465881585051
 21
-961.44867096196583
 31
0.0
1001
ACAD
1010
0.0
1020
0.0
1030
0.0
  0
LINE
  5
21684
  8
1HATCH
 10
1939.424056143371
 20
-960.3261389468322
 30
0.0
 11
1936.617726105537
 21
-957.51980890899813
 31
0.0
1001
ACAD
1010
0.0
1020
0.0
1030
0.0
  0
LINE
  5
21686
  8
1HATCH
 10
1935.4951940904029
 20
-956.3972768938645
 30
0.0
 11
1932.6888640525681
 21
-953.59094685603031
 31
0.0
1001
ACAD
1010
0.0
1020
0.0
1030
0.0
  0
LINE
  5
21688
  8
1HATCH
 10
1931.5663320374349
 20
-952.46841484089668
 30
0.0
 11
1928.7600019996
 21
-949.66208480306273
 31
0.0
1001
ACAD
1010
0.0
1020
0.0
1030
0.0
  0
LINE
  5
2168A
  8
1HATCH
 10
1942.5110191849881
 20
-961.16803795818191
 30
0.0
 11
1939.7046891471541
 21
-958.36170792034795
 31
0.0
1001
ACAD
1010
0.0
1020
0.0
1030
0.0
  0
LINE
  5
2168C
  8
1HATCH
 10
1938.58215713202
 20
-957.23917590521432
 30
0.0
 11
1935.7758270941861
 21
-954.43284586738025
 31
0.0
1001
ACAD
1010
0.0
1020
0.0
1030
0.0
  0
LINE
  5
2168E
  8
1HATCH
 10
1934.653295079052
 20
-953.31031385224662
 30
0.0
 11
1931.846965041218
 21
-950.50398381441255
 31
0.0
1001
ACAD
1010
0.0
1020
0.0
1030
0.0
  0
LINE
  5
21690
  8
1HATCH
 10
1930.7244330260839
 20
-949.38145179927881
 30
0.0
 11
1930.251670378259
 21
-948.90868915145347
 31
0.0
1001
ACAD
1010
0.0
1020
0.0
1030
0.0
  0
LINE
  5
21691
  8
1HATCH
 10
1942.8432379810861
 20
-959.25519272401243
 30
0.0
 11
1942.7916521887721
 21
-959.203606931698
 31
0.0
1001
ACAD
1010
0.0
1020
0.0
1030
0.0
  0
LINE
  5
21693
  8
1HATCH
 10
1941.669120173638
 20
-958.08107491656438
 30
0.0
 11
1938.8627901358029
 21
-955.27474487873042
 31
0.0
1001
ACAD
1010
0.0
1020
0.0
1030
0.0
  0
LINE
  5
21695
  8
1HATCH
 10
1937.74025812067
 20
-954.15221286359679
 30
0.0
 11
1934.933928082836
 21
-951.34588282576271
 31
0.0
1001
ACAD
1010
0.0
1020
0.0
1030
0.0
  0
LINE
  5
21697
  8
1HATCH
 10
1933.811396067701
 20
-950.22335081062909
 30
0.0
 11
1932.496734408526
 21
-948.90868915145325
 31
0.0
1001
ACAD
1010
0.0
1020
0.0
1030
0.0
  0
LINE
  5
21698
  8
1HATCH
 10
1947.7417984387951
 20
-961.90868915145415
 30
0.0
 11
1947.2432379810859
 21
-961.41012869374561
 31
0.0
1001
ACAD
1010
0.0
1020
0.0
1030
0.0
  0
LINE
  5
21699
  8
1HATCH
 10
1942.8432379810861
 20
-957.01012869374517
 30
0.0
 11
1941.9497531774209
 21
-956.11664389008047
 31
0.0
1001
ACAD
1010
0.0
1020
0.0
1030
0.0
  0
LINE
  5
2169B
  8
1HATCH
 10
1940.827221162288
 20
-954.99411187494695
 30
0.0
 11
1938.020891124454
 21
-952.18778183711288
 31
0.0
1001
ACAD
1010
0.0
1020
0.0
1030
0.0
  0
LINE
  5
2169D
  8
1HATCH
 10
1936.8983591093199
 20
-951.06524982197925
 30
0.0
 11
1934.7417984387939
 21
-948.90868915145347
 31
0.0
1001
ACAD
1010
0.0
1020
0.0
1030
0.0
  0
LINE
  5
2169E
  8
1HATCH
 10
1949.9868624690621
 20
-961.90868915145393
 30
0.0
 11
1948.965578272007
 21
-960.88740495439845
 31
0.0
1001
ACAD
1010
0.0
1020
0.0
1030
0.0
  0
LINE
  5
216A0
  8
1HATCH
 10
1947.843046256872
 20
-959.76487293926482
 30
0.0
 11
1947.243237981085
 21
-959.16506466347766
 31
0.0
1001
ACAD
1010
0.0
1020
0.0
1030
0.0
  0
LINE
  5
216A1
  8
1HATCH
 10
1942.8432379810861
 20
-954.76506466347757
 30
0.0
 11
1941.1078541660711
 21
-953.02968084846304
 31
0.0
1001
ACAD
1010
0.0
1020
0.0
1030
0.0
  0
LINE
  5
216A3
  8
1HATCH
 10
1939.985322150937
 20
-951.90714883332942
 30
0.0
 11
1937.178992113103
 21
-949.10081879549534
 31
0.0
1001
ACAD
1010
0.0
1020
0.0
1030
0.0
  0
LINE
  5
216A4
  8
1HATCH
 10
1952.2319264993289
 20
-961.90868915145415
 30
0.0
 11
1952.052541313624
 21
-961.72930396574907
 31
0.0
1001
ACAD
1010
0.0
1020
0.0
1030
0.0
  0
LINE
  5
216A6
  8
1HATCH
 10
1950.9300092984911
 20
-960.60677195061555
 30
0.0
 11
1948.123679260656
 21
-957.80044191278125
 31
0.0
1001
ACAD
1010
0.0
1020
0.0
1030
0.0
  0
LINE
  5
216A8
  8
1HATCH
 10
1942.8432379810861
 20
-952.52000063321043
 30
0.0
 11
1940.265955154721
 21
-949.94271780684562
 31
0.0
1001
ACAD
1010
0.0
1020
0.0
1030
0.0
  0
LINE
  5
216AA
  8
1HATCH
 10
1954.0169723401079
 20
-961.44867096196526
 30
0.0
 11
1951.210642302274
 21
-958.64234092413119
 31
0.0
1001
ACAD
1010
0.0
1020
0.0
1030
0.0
  0
LINE
  5
216AC
  8
1HATCH
 10
1950.0881102871399
 20
-957.51980890899756
 30
0.0
 11
1947.2817802493059
 21
-954.7134788711636
 31
0.0
1001
ACAD
1010
0.0
1020
0.0
1030
0.0
  0
LINE
  5
216AE
  8
1HATCH
 10
1942.230386181204
 20
-949.66208480306227
 30
0.0
 11
1941.4769905295959
 21
-948.90868915145325
 31
0.0
1001
ACAD
1010
0.0
1020
0.0
1030
0.0
  0
LINE
  5
216AF
  8
1HATCH
 10
1956.7220545598641
 20
-961.90868915145393
 30
0.0
 11
1954.297605343892
 21
-959.48423993548147
 31
0.0
1001
ACAD
1010
0.0
1020
0.0
1030
0.0
  0
LINE
  5
216B1
  8
1HATCH
 10
1953.1750733287579
 20
-958.36170792034795
 30
0.0
 11
1950.368743290923
 21
-955.55537788251388
 31
0.0
1001
ACAD
1010
0.0
1020
0.0
1030
0.0
  0
LINE
  5
216B3
  8
1HATCH
 10
1949.2462112757889
 20
-954.43284586738025
 30
0.0
 11
1947.243237981085
 21
-952.42987257267623
 31
0.0
1001
ACAD
1010
0.0
1020
0.0
1030
0.0
  0
LINE
  5
216B5
  8
1HATCH
 10
1956.262036370375
 20
-959.20360693169823
 30
0.0
 11
1953.455706332541
 21
-956.39727689386416
 31
0.0
1001
ACAD
1010
0.0
1020
0.0
1030
0.0
  0
LINE
  5
216B7
  8
1HATCH
 10
1952.3331743174069
 20
-955.27474487873064
 30
0.0
 11
1949.526844279573
 21
-952.46841484089634
 31
0.0
1001
ACAD
1010
0.0
1020
0.0
1030
0.0
  0
LINE
  5
216B9
  8
1HATCH
 10
1948.40431226444
 20
-951.34588282576271
 30
0.0
 11
1947.2432379810859
 21
-950.18480854240909
 31
0.0
1001
ACAD
1010
0.0
1020
0.0
1030
0.0
  0
LINE
  5
216BA
  8
1HATCH
 10
1956.843237981087
 20
-957.53974451214242
 30
0.0
 11
1956.542669374159
 21
-957.2391759052141
 31
0.0
1001
ACAD
1010
0.0
1020
0.0
1030
0.0
  0
LINE
  5
216BC
  8
1HATCH
 10
1955.4201373590249
 20
-956.11664389008047
 30
0.0
 11
1952.6138073211901
 21
-953.31031385224651
 31
0.0
1001
ACAD
1010
0.0
1020
0.0
1030
0.0
  0
LINE
  5
216BE
  8
1HATCH
 10
1951.4912753060571
 20
-952.18778183711288
 30
0.0
 11
1948.6849452682229
 21
-949.38145179927881
 31
0.0
1001
ACAD
1010
0.0
1020
0.0
1030
0.0
  0
LINE
  5
216C0
  8
1HATCH
 10
1962.43596245361
 20
-960.88740495439845
 30
0.0
 11
1961.2432379810871
 21
-959.69468048187514
 31
0.0
1001
ACAD
1010
0.0
1020
0.0
1030
0.0
  0
LINE
  5
216C1
  8
1HATCH
 10
1956.843237981087
 20
-955.29468048187505
 30
0.0
 11
1955.700770362808
 21
-954.15221286359656
 31
0.0
1001
ACAD
1010
0.0
1020
0.0
1030
0.0
  0
LINE
  5
216C3
  8
1HATCH
 10
1954.5782383476751
 20
-953.02968084846304
 30
0.0
 11
1951.77190830984
 21
-950.22335081062886
 31
0.0
1001
ACAD
1010
0.0
1020
0.0
1030
0.0
  0
LINE
  5
216C5
  8
1HATCH
 10
1950.6493762947059
 20
-949.10081879549534
 30
0.0
 11
1950.457246650664
 21
-948.90868915145313
 31
0.0
1001
ACAD
1010
0.0
1020
0.0
1030
0.0
  0
LINE
  5
216C6
  8
1HATCH
 10
1965.522925495228
 20
-961.72930396574884
 30
0.0
 11
1962.7165954573941
 21
-958.92297392791454
 31
0.0
1001
ACAD
1010
0.0
1020
0.0
1030
0.0
  0
LINE
  5
216C8
  8
1HATCH
 10
1961.59406344226
 20
-957.80044191278091
 30
0.0
 11
1961.2432379810859
 21
-957.44961645160765
 31
0.0
1001
ACAD
1010
0.0
1020
0.0
1030
0.0
  0
LINE
  5
216C9
  8
1HATCH
 10
1956.843237981087
 20
-953.04961645160779
 30
0.0
 11
1954.8588713514589
 21
-951.06524982197925
 31
0.0
1001
ACAD
1010
0.0
1020
0.0
1030
0.0
  0
LINE
  5
216CB
  8
1HATCH
 10
1953.736339336325
 20
-949.94271780684562
 30
0.0
 11
1952.702310680932
 21
-948.90868915145325
 31
0.0
1001
ACAD
1010
0.0
1020
0.0
1030
0.0
  0
LINE
  5
216CC
  8
1HATCH
 10
1967.9473747111999
 20
-961.90868915145393
 30
0.0
 11
1965.8035584990109
 21
-959.76487293926482
 31
0.0
1001
ACAD
1010
0.0
1020
0.0
1030
0.0
  0
LINE
  5
216CE
  8
1HATCH
 10
1964.681026483878
 20
-958.64234092413119
 30
0.0
 11
1961.8746964460429
 21
-955.83601088629723
 31
0.0
1001
ACAD
1010
0.0
1020
0.0
1030
0.0
  0
LINE
  5
216D0
  8
1HATCH
 10
1956.8233023779419
 20
-950.7846168181959
 30
0.0
 11
1954.9473747111999
 21
-948.9086891514537
 31
0.0
1001
ACAD
1010
0.0
1020
0.0
1030
0.0
  0
LINE
  5
216D1
  8
1HATCH
 10
1970.1924387414681
 20
-961.90868915145427
 30
0.0
 11
1968.8905215406289
 21
-960.6067719506151
 31
0.0
1001
ACAD
1010
0.0
1020
0.0
1030
0.0
  0
LINE
  5
216D3
  8
1HATCH
 10
1967.7679895254951
 20
-959.48423993548147
 30
0.0
 11
1964.9616594876611
 21
-956.67790989764751
 31
0.0
1001
ACAD
1010
0.0
1020
0.0
1030
0.0
  0
LINE
  5
216D5
  8
1HATCH
 10
1963.839127472527
 20
-955.55537788251388
 30
0.0
 11
1961.2432379810859
 21
-952.95948839107336
 31
0.0
1001
ACAD
1010
0.0
1020
0.0
1030
0.0
  0
LINE
  5
216D6
  8
1HATCH
 10
1972.4375027717349
 20
-961.90868915145393
 30
0.0
 11
1971.977484582246
 21
-961.44867096196526
 31
0.0
1001
ACAD
1010
0.0
1020
0.0
1030
0.0
  0
LINE
  5
216D8
  8
1HATCH
 10
1970.8549525671131
 20
-960.32613894683163
 30
0.0
 11
1968.048622529278
 21
-957.51980890899756
 31
0.0
1001
ACAD
1010
0.0
1020
0.0
1030
0.0
  0
LINE
  5
216DA
  8
1HATCH
 10
1966.9260905141441
 20
-956.39727689386382
 30
0.0
 11
1964.1197604763099
 21
-953.59094685602975
 31
0.0
1001
ACAD
1010
0.0
1020
0.0
1030
0.0
  0
LINE
  5
216DC
  8
1HATCH
 10
1962.9972284611761
 20
-952.46841484089623
 30
0.0
 11
1961.2432379810859
 21
-950.71442436080599
 31
0.0
1001
ACAD
1010
0.0
1020
0.0
1030
0.0
  0
LINE
  5
216DE
  8
1HATCH
 10
1973.9419156087299
 20
-961.16803795818225
 30
0.0
 11
1971.135585570896
 21
-958.36170792034829
 31
0.0
1001
ACAD
1010
0.0
1020
0.0
1030
0.0
  0
LINE
  5
216E0
  8
1HATCH
 10
1970.0130535557621
 20
-957.23917590521467
 30
0.0
 11
1967.2067235179279
 21
-954.43284586738059
 31
0.0
1001
ACAD
1010
0.0
1020
0.0
1030
0.0
  0
LINE
  5
216E2
  8
1HATCH
 10
1966.0841915027941
 20
-953.31031385224696
 30
0.0
 11
1963.2778614649601
 21
-950.50398381441278
 31
0.0
1001
ACAD
1010
0.0
1020
0.0
1030
0.0
  0
LINE
  5
216E4
  8
1HATCH
 10
1962.155329449826
 20
-949.38145179927915
 30
0.0
 11
1961.682566802001
 21
-948.90868915145381
 31
0.0
1001
ACAD
1010
0.0
1020
0.0
1030
0.0
  0
LINE
  5
216E5
  8
1HATCH
 10
1976.927630832269
 20
-961.9086891514537
 30
0.0
 11
1974.222548612513
 21
-959.203606931698
 31
0.0
1001
ACAD
1010
0.0
1020
0.0
1030
0.0
  0
LINE
  5
216E7
  8
1HATCH
 10
1973.1000165973801
 20
-958.08107491656438
 30
0.0
 11
1970.2936865595459
 21
-955.27474487873042
 31
0.0
1001
ACAD
1010
0.0
1020
0.0
1030
0.0
  0
LINE
  5
216E9
  8
1HATCH
 10
1969.171154544412
 20
-954.15221286359679
 30
0.0
 11
1966.364824506577
 21
-951.34588282576271
 31
0.0
1001
ACAD
1010
0.0
1020
0.0
1030
0.0
  0
LINE
  5
216EB
  8
1HATCH
 10
1965.242292491444
 20
-950.22335081062909
 30
0.0
 11
1963.9276308322681
 21
-948.9086891514537
 31
0.0
1001
ACAD
1010
0.0
1020
0.0
1030
0.0
  0
LINE
  5
216EC
  8
1HATCH
 10
1979.1726948625369
 20
-961.90868915145393
 30
0.0
 11
1977.309511654131
 21
-960.04550594304828
 31
0.0
1001
ACAD
1010
0.0
1020
0.0
1030
0.0
  0
LINE
  5
216EE
  8
1HATCH
 10
1976.1869796389969
 20
-958.92297392791465
 30
0.0
 11
1973.380649601163
 21
-956.1166438900807
 31
0.0
1001
ACAD
1010
0.0
1020
0.0
1030
0.0
  0
LINE
  5
216F0
  8
1HATCH
 10
1972.2581175860289
 20
-954.99411187494707
 30
0.0
 11
1969.4517875481949
 21
-952.18778183711299
 31
0.0
1001
ACAD
1010
0.0
1020
0.0
1030
0.0
  0
LINE
  5
216F2
  8
1HATCH
 10
1968.3292555330611
 20
-951.06524982197936
 30
0.0
 11
1966.1726948625351
 21
-948.90868915145347
 31
0.0
1001
ACAD
1010
0.0
1020
0.0
1030
0.0
  0
LINE
  5
216F4
  8
1HATCH
 10
1979.2739426806149
 20
-959.76487293926482
 30
0.0
 11
1976.467612642781
 21
-956.95854290143075
 31
0.0
1001
ACAD
1010
0.0
1020
0.0
1030
0.0
  0
LINE
  5
216F6
  8
1HATCH
 10
1975.3450806276469
 20
-955.83601088629723
 30
0.0
 11
1972.538750589812
 21
-953.02968084846316
 31
0.0
1001
ACAD
1010
0.0
1020
0.0
1030
0.0
  0
LINE
  5
216F8
  8
1HATCH
 10
1971.4162185746791
 20
-951.90714883332953
 30
0.0
 11
1968.609888536844
 21
-949.10081879549546
 31
0.0
1001
ACAD
1010
0.0
1020
0.0
1030
0.0
  0
LINE
  5
216F9
  8
1HATCH
 10
1980.0315571372321
 20
-958.27742336561494
 30
0.0
 11
1979.554575684399
 21
-957.80044191278114
 31
0.0
1001
ACAD
1010
0.0
1020
0.0
1030
0.0
  0
LINE
  5
216FB
  8
1HATCH
 10
1978.4320436692651
 20
-956.67790989764751
 30
0.0
 11
1975.6257136314309
 21
-953.87157985981355
 31
0.0
1001
ACAD
1010
0.0
1020
0.0
1030
0.0
  0
LINE
  5
216FD
  8
1HATCH
 10
1974.5031816162971
 20
-952.74904784467981
 30
0.0
 11
1971.696851578462
 21
-949.94271780684562
 31
0.0
1001
ACAD
1010
0.0
1020
0.0
1030
0.0
  0
LINE
  5
216FF
  8
1HATCH
 10
1980.0315571372321
 20
-956.03235933534734
 30
0.0
 11
1978.712676673048
 21
-954.7134788711636
 31
0.0
1001
ACAD
1010
0.0
1020
0.0
1030
0.0
  0
LINE
  5
21701
  8
1HATCH
 10
1977.5901446579139
 20
-953.59094685602997
 30
0.0
 11
1974.78381462008
 21
-950.7846168181959
 31
0.0
1001
ACAD
1010
0.0
1020
0.0
1030
0.0
  0
LINE
  5
21703
  8
1HATCH
 10
1973.6612826049461
 20
-949.66208480306227
 30
0.0
 11
1972.9078869533371
 21
-948.90868915145347
 31
0.0
1001
ACAD
1010
0.0
1020
0.0
1030
0.0
  0
LINE
  5
21704
  8
1HATCH
 10
1980.0315571372321
 20
-953.78729530508008
 30
0.0
 11
1977.870777661698
 21
-951.62651582954595
 31
0.0
1001
ACAD
1010
0.0
1020
0.0
1030
0.0
  0
LINE
  5
21706
  8
1HATCH
 10
1976.7482456465641
 20
-950.50398381441244
 30
0.0
 11
1975.152950983605
 21
-948.90868915145313
 31
0.0
1001
ACAD
1010
0.0
1020
0.0
1030
0.0
  0
LINE
  5
21707
  8
1HATCH
 10
1979.8352086881821
 20
-951.34588282576271
 30
0.0
 11
1977.398015013873
 21
-948.90868915145381
 31
0.0
1001
ACAD
1010
0.0
1020
0.0
1030
0.0
  0
LINE
  5
21708
  8
1DIM
 10
1077.653453415737
 20
-503.06804729707972
 30
0.0
 11
1077.653453415737
 21
-441.63095826309569
 31
0.0
  0
LINE
  5
21709
  8
1DIM
 10
1819.6534534157349
 20
-517.06804729707994
 30
0.0
 11
1819.6534534157349
 21
-441.63095826309569
 31
0.0
  0
LINE
  5
2170A
  8
1DIM
 10
1083.653453415737
 20
-444.63095826309569
 30
0.0
 11
1813.6534534157361
 21
-444.63095826309569
 31
0.0
  0
LINE
  5
2170E
  8
1DIM
 10
1048.6534534157361
 20
-891.40868915145393
 30
0.0
 11
1048.6534534157361
 21
-590.80143513163353
 31
0.0
  0
LINE
  5
2170F
  8
1DIM
 10
1848.6534534157361
 20
-890.40868915145393
 30
0.0
 11
1848.6534534157361
 21
-590.80143513163353
 31
0.0
  0
LINE
  5
21710
  8
1DIM
 10
1054.6534534157361
 20
-593.80143513163353
 30
0.0
 11
1842.6534534157361
 21
-593.80143513163353
 31
0.0
  0
TEXT
  5
21714
  8
1DIM
 10
1427.4569600702671
 20
-1006.065976231137
 30
0.0
 40
10.5
  1
材質：強化ガラス
  0
TEXT
  5
21715
  8
1DIM
 10
1451.9569600702671
 20
-1023.565976231137
 30
0.0
 40
10.5
  1
仕上げ：透明
  0
SOLID
  5
21716
  8
1DIM
 10
1596.589316361662
 20
-937.50556692933174
 30
0.0
 11
1600.975817059358
 21
-933.29147015432682
 31
0.0
 12
1598.193158596674
 22
-938.70042678939535
 32
0.0
 13
1598.193158596674
 23
-938.70042678939535
 33
0.0
1001
ACAD
1000
DSTYLE
1002
{
1070
    40
1040
3.0
1002
}
  0
LINE
  5
21718
  8
1DIM
 10
1954.543191445189
 20
-648.90868915145381
 30
0.0
 11
1954.543191445189
 21
-620.57936686380071
 31
0.0
  0
LINE
  5
21719
  8
1DIM
 10
1949.543191445189
 20
-648.90868915145381
 30
0.0
 11
1949.543191445189
 21
-620.57936686380071
 31
0.0
  0
LINE
  5
2171A
  8
1DIM
 10
1960.543191445189
 20
-623.57936686380071
 30
0.0
 11
1966.543191445189
 21
-623.57936686380071
 31
0.0
  0
LINE
  5
2171B
  8
1DIM
 10
1943.543191445189
 20
-623.57936686380071
 30
0.0
 11
1926.3431914451889
 21
-623.57936686380071
 31
0.0
  0
LINE
  5
2171C
  8
1DIM
 10
1954.543191445189
 20
-623.57936686380071
 30
0.0
 11
1949.543191445189
 21
-623.57936686380071
 31
0.0
  0
TEXT
  5
21720
  8
1DIM
 10
1600.3867754930379
 20
-1006.065976231137
 30
0.0
 40
10.5
  1
材質：亜鉛ダイキャスト
  0
TEXT
  5
21721
  8
1DIM
 10
1636.786775493038
 20
-1023.565976231137
 30
0.0
 40
10.5
  1
仕上げ：クローム
  0
SOLID
  5
21722
  8
1DIM
 10
1789.1867640584719
 20
-951.08299852957157
 30
0.0
 11
1793.2829089851821
 21
-946.58615555484039
 31
0.0
 12
1790.866612857126
 22
-952.16840537203257
 32
0.0
 13
1790.866612857126
 23
-952.16840537203257
 33
0.0
1001
ACAD
1000
DSTYLE
1002
{
1070
    40
1040
3.0
1002
}
  0
LINE
  5
21724
  8
1DIM
 10
1938.793191445189
 20
-948.90868915145438
 30
0.0
 11
1938.793191445189
 21
-1020.36318744785
 31
0.0
  0
LINE
  5
21725
  8
1DIM
 10
1965.293191445189
 20
-948.90868915145347
 30
0.0
 11
1965.293191445189
 21
-1020.36318744785
 31
0.0
  0
LINE
  5
21726
  8
1DIM
 10
1944.793191445189
 20
-1017.36318744785
 30
0.0
 11
1959.293191445189
 21
-1017.36318744785
 31
0.0
  0
LINE
  5
21727
  8
1DIM
 10
1965.293191445189
 20
-1017.36318744785
 30
0.0
 11
2007.493191445189
 21
-1017.36318744785
 31
0.0
  0
LINE
  5
2172B
  8
1DIM
 10
1848.6534534157361
 20
-948.90868915145381
 30
0.0
 11
1848.6534534157361
 21
-1020.36318744785
 31
0.0
  0
LINE
  5
2172C
  8
1DIM
 10
1790.153453415737
 20
-948.90868915145381
 30
0.0
 11
1790.153453415737
 21
-1020.36318744785
 31
0.0
  0
LINE
  5
2172D
  8
1DIM
 10
1842.6534534157361
 20
-1017.36318744785
 30
0.0
 11
1796.153453415737
 21
-1017.36318744785
 31
0.0
  0
LINE
  5
21731
  8
1DIM
 10
1848.6534534157361
 20
-948.90868915145381
 30
0.0
 11
1901.761041157519
 21
-948.90868915145381
 31
0.0
  0
LINE
  5
21732
  8
1DIM
 10
1848.6534534157361
 20
-890.40868915145393
 30
0.0
 11
1901.761041157519
 21
-890.40868915145393
 31
0.0
  0
LINE
  5
21733
  8
1DIM
 10
1898.761041157519
 20
-942.90868915145404
 30
0.0
 11
1898.761041157519
 21
-896.40868915145381
 31
0.0
  0
LINE
  5
21737
  8
1DIM
 10
1848.6534534157361
 20
-948.90868915145381
 30
0.0
 11
1920.2278656302151
 21
-948.90868915145381
 31
0.0
  0
LINE
  5
21738
  8
1DIM
 10
1829.1534534157361
 20
-648.90868915145381
 30
0.0
 11
1920.2278656302151
 21
-648.90868915145381
 31
0.0
  0
LINE
  5
21739
  8
1DIM
 10
1917.2278656302151
 20
-942.90868915145404
 30
0.0
 11
1917.2278656302151
 21
-654.90868915145393
 31
0.0
  0
LINE
  5
2173D
  8
1DIM
 10
1063.1534534157361
 20
-653.90868915145393
 30
0.0
 11
1063.1534534157361
 21
-620.57936686380071
 31
0.0
  0
LINE
  5
2173E
  8
1DIM
 10
1834.1534534157361
 20
-653.90868915145393
 30
0.0
 11
1834.1534534157361
 21
-620.57936686380071
 31
0.0
  0
LINE
  5
2173F
  8
1DIM
 10
1069.1534534157361
 20
-623.57936686380071
 30
0.0
 11
1828.1534534157361
 21
-623.57936686380071
 31
0.0
  0
TEXT
  5
21743
  8
1DIM
 10
1436.4034534157361
 20
-621.47936686380069
 30
0.0
 40
10.5
  1
771
  0
LINE
  5
21744
  8
0
  6
BYBLOCK
 10
1828.1534534157361
 20
-621.97167172380057
 30
0.0
 11
1834.1534534157361
 21
-623.57936686380071
 31
0.0
  0
LINE
  5
21745
  8
0
  6
BYBLOCK
 10
1834.1534534157361
 20
-623.57936686380071
 30
0.0
 11
1828.1534534157361
 21
-625.18706200380075
 31
0.0
  0
LINE
  5
21746
  8
0
  6
BYBLOCK
 10
1834.1534534157361
 20
-623.57936686380071
 30
0.0
 11
1828.1534534157361
 21
-623.57936686380071
 31
0.0
  0
LINE
  5
21747
  8
0
  6
BYBLOCK
 10
1069.1534534157361
 20
-625.18706200380075
 30
0.0
 11
1063.1534534157361
 21
-623.57936686380071
 31
0.0
  0
LINE
  5
21748
  8
0
  6
BYBLOCK
 10
1063.1534534157361
 20
-623.57936686380071
 30
0.0
 11
1069.1534534157361
 21
-621.97167172380057
 31
0.0
  0
LINE
  5
21749
  8
0
  6
BYBLOCK
 10
1063.1534534157361
 20
-623.57936686380071
 30
0.0
 11
1069.1534534157361
 21
-623.57936686380071
 31
0.0
  0
TEXT
  5
2174A
  8
1DIM
 10
1915.127865630215
 20
-811.15868915145347
 30
0.0
 40
10.5
  1
300
 50
90.0
  0
LINE
  5
2174B
  8
0
  6
BYBLOCK
 10
1915.6201704902151
 20
-654.90868915145393
 30
0.0
 11
1917.2278656302151
 21
-648.90868915145381
 31
0.0
  0
LINE
  5
2174C
  8
0
  6
BYBLOCK
 10
1917.2278656302151
 20
-648.90868915145381
 30
0.0
 11
1918.8355607702149
 21
-654.90868915145393
 31
0.0
  0
LINE
  5
2174D
  8
0
  6
BYBLOCK
 10
1917.2278656302151
 20
-648.90868915145381
 30
0.0
 11
1917.2278656302151
 21
-654.90868915145393
 31
0.0
  0
LINE
  5
2174E
  8
0
  6
BYBLOCK
 10
1918.8355607702149
 20
-942.90868915145404
 30
0.0
 11
1917.2278656302151
 21
-948.90868915145381
 31
0.0
  0
LINE
  5
2174F
  8
0
  6
BYBLOCK
 10
1917.2278656302151
 20
-948.90868915145381
 30
0.0
 11
1915.6201704902151
 21
-942.90868915145404
 31
0.0
  0
LINE
  5
21750
  8
0
  6
BYBLOCK
 10
1917.2278656302151
 20
-948.90868915145381
 30
0.0
 11
1917.2278656302151
 21
-942.90868915145404
 31
0.0
  0
TEXT
  5
21751
  8
1DIM
 10
1896.6610411575191
 20
-935.40868915145347
 30
0.0
 40
10.5
  1
58.5
 50
90.0
  0
LINE
  5
21752
  8
0
  6
BYBLOCK
 10
1897.153346017519
 20
-896.40868915145381
 30
0.0
 11
1898.761041157519
 21
-890.40868915145393
 31
0.0
  0
LINE
  5
21753
  8
0
  6
BYBLOCK
 10
1898.761041157519
 20
-890.40868915145393
 30
0.0
 11
1900.368736297519
 21
-896.40868915145381
 31
0.0
  0
LINE
  5
21754
  8
0
  6
BYBLOCK
 10
1898.761041157519
 20
-890.40868915145393
 30
0.0
 11
1898.761041157519
 21
-896.40868915145381
 31
0.0
  0
LINE
  5
21755
  8
0
  6
BYBLOCK
 10
1900.368736297519
 20
-942.90868915145404
 30
0.0
 11
1898.761041157519
 21
-948.90868915145381
 31
0.0
  0
LINE
  5
21756
  8
0
  6
BYBLOCK
 10
1898.761041157519
 20
-948.90868915145381
 30
0.0
 11
1897.153346017519
 21
-942.90868915145404
 31
0.0
  0
LINE
  5
21757
  8
0
  6
BYBLOCK
 10
1898.761041157519
 20
-948.90868915145381
 30
0.0
 11
1898.761041157519
 21
-942.90868915145404
 31
0.0
  0
TEXT
  5
21758
  8
1DIM
 10
1803.653453415737
 20
-1015.26318744785
 30
0.0
 40
10.5
  1
58.5
  0
LINE
  5
21759
  8
0
  6
BYBLOCK
 10
1796.153453415737
 20
-1018.97088258785
 30
0.0
 11
1790.153453415737
 21
-1017.36318744785
 31
0.0
  0
LINE
  5
2175A
  8
0
  6
BYBLOCK
 10
1790.153453415737
 20
-1017.36318744785
 30
0.0
 11
1796.153453415737
 21
-1015.75549230785
 31
0.0
  0
LINE
  5
2175B
  8
0
  6
BYBLOCK
 10
1790.153453415737
 20
-1017.36318744785
 30
0.0
 11
1796.153453415737
 21
-1017.36318744785
 31
0.0
  0
LINE
  5
2175C
  8
0
  6
BYBLOCK
 10
1842.6534534157361
 20
-1015.75549230785
 30
0.0
 11
1848.6534534157361
 21
-1017.36318744785
 31
0.0
  0
LINE
  5
2175D
  8
0
  6
BYBLOCK
 10
1848.6534534157361
 20
-1017.36318744785
 30
0.0
 11
1842.6534534157361
 21
-1018.97088258785
 31
0.0
  0
LINE
  5
2175E
  8
0
  6
BYBLOCK
 10
1848.6534534157361
 20
-1017.36318744785
 30
0.0
 11
1842.6534534157361
 21
-1017.36318744785
 31
0.0
  0
TEXT
  5
2175F
  8
1DIM
 10
1973.6431914451889
 20
-1015.26318744785
 30
0.0
 40
10.5
  1
26.5
  0
LINE
  5
21760
  8
0
  6
BYBLOCK
 10
1959.293191445189
 20
-1015.75549230785
 30
0.0
 11
1965.293191445189
 21
-1017.36318744785
 31
0.0
  0
LINE
  5
21761
  8
0
  6
BYBLOCK
 10
1965.293191445189
 20
-1017.36318744785
 30
0.0
 11
1959.293191445189
 21
-1018.97088258785
 31
0.0
  0
LINE
  5
21762
  8
0
  6
BYBLOCK
 10
1965.293191445189
 20
-1017.36318744785
 30
0.0
 11
1959.293191445189
 21
-1017.36318744785
 31
0.0
  0
LINE
  5
21763
  8
0
  6
BYBLOCK
 10
1944.793191445189
 20
-1018.97088258785
 30
0.0
 11
1938.793191445189
 21
-1017.36318744785
 31
0.0
  0
LINE
  5
21764
  8
0
  6
BYBLOCK
 10
1938.793191445189
 20
-1017.36318744785
 30
0.0
 11
1944.793191445189
 21
-1015.75549230785
 31
0.0
  0
LINE
  5
21765
  8
0
  6
BYBLOCK
 10
1938.793191445189
 20
-1017.36318744785
 30
0.0
 11
1944.793191445189
 21
-1017.36318744785
 31
0.0
  0
LINE
  5
21766
  8
1DIM
 10
1790.0266884577991
 20
-951.62570195080207
 30
0.0
 11
1742.1867754930381
 21
-1025.6659762311369
 31
0.0
1001
ACAD
1000
DSTYLE
1002
{
1070
    40
1040
3.0
1002
}
  0
LINE
  5
21767
  8
1DIM
 10
1742.1867754930381
 20
-1025.6659762311369
 30
0.0
 11
1734.086775493038
 21
-1025.6659762311369
 31
0.0
1001
ACAD
1000
DSTYLE
1002
{
1070
    40
1040
3.0
1002
}
  0
TEXT
  5
21768
  8
1DIM
 10
1928.44319144519
 20
-621.47936686380069
 30
0.0
 40
10.5
  1
5
  0
LINE
  5
21769
  8
0
  6
BYBLOCK
 10
1943.543191445189
 20
-621.97167172380057
 30
0.0
 11
1949.543191445189
 21
-623.57936686380071
 31
0.0
  0
LINE
  5
2176A
  8
0
  6
BYBLOCK
 10
1949.543191445189
 20
-623.57936686380071
 30
0.0
 11
1943.543191445189
 21
-625.18706200380075
 31
0.0
  0
LINE
  5
2176B
  8
0
  6
BYBLOCK
 10
1949.543191445189
 20
-623.57936686380071
 30
0.0
 11
1943.543191445189
 21
-623.57936686380071
 31
0.0
  0
LINE
  5
2176C
  8
0
  6
BYBLOCK
 10
1960.543191445189
 20
-625.18706200380075
 30
0.0
 11
1954.543191445189
 21
-623.57936686380071
 31
0.0
  0
LINE
  5
2176D
  8
0
  6
BYBLOCK
 10
1954.543191445189
 20
-623.57936686380071
 30
0.0
 11
1960.543191445189
 21
-621.97167172380057
 31
0.0
  0
LINE
  5
2176E
  8
0
  6
BYBLOCK
 10
1954.543191445189
 20
-623.57936686380071
 30
0.0
 11
1960.543191445189
 21
-623.57936686380071
 31
0.0
  0
LINE
  5
2176F
  8
1DIM
 10
1597.391237479168
 20
-938.10299685936354
 30
0.0
 11
1532.1569600702669
 21
-1025.6659762311369
 31
0.0
1001
ACAD
1000
DSTYLE
1002
{
1070
    40
1040
3.0
1002
}
  0
LINE
  5
21770
  8
1DIM
 10
1532.1569600702669
 20
-1025.6659762311369
 30
0.0
 11
1524.056960070267
 21
-1025.6659762311369
 31
0.0
1001
ACAD
1000
DSTYLE
1002
{
1070
    40
1040
3.0
1002
}
  0
TEXT
  5
21771
  8
1DIM
 10
1436.4034534157361
 20
-591.7014351316335
 30
0.0
 40
10.5
  1
800
  0
LINE
  5
21772
  8
0
  6
BYBLOCK
 10
1842.6534534157361
 20
-592.19373999163349
 30
0.0
 11
1848.6534534157361
 21
-593.80143513163353
 31
0.0
  0
LINE
  5
21773
  8
0
  6
BYBLOCK
 10
1848.6534534157361
 20
-593.80143513163353
 30
0.0
 11
1842.6534534157361
 21
-595.40913027163344
 31
0.0
  0
LINE
  5
21774
  8
0
  6
BYBLOCK
 10
1848.6534534157361
 20
-593.80143513163353
 30
0.0
 11
1842.6534534157361
 21
-593.80143513163353
 31
0.0
  0
LINE
  5
21775
  8
0
  6
BYBLOCK
 10
1054.6534534157361
 20
-595.40913027163344
 30
0.0
 11
1048.6534534157361
 21
-593.80143513163353
 31
0.0
  0
LINE
  5
21776
  8
0
  6
BYBLOCK
 10
1048.6534534157361
 20
-593.80143513163353
 30
0.0
 11
1054.6534534157361
 21
-592.19373999163349
 31
0.0
  0
LINE
  5
21777
  8
0
  6
BYBLOCK
 10
1048.6534534157361
 20
-593.80143513163353
 30
0.0
 11
1054.6534534157361
 21
-593.80143513163353
 31
0.0
  0
TEXT
  5
21778
  8
1DIM
 10
1429.4034534157361
 20
-442.53095826309573
 30
0.0
 40
10.5
  1
P742
  0
LINE
  5
21779
  8
0
  6
BYBLOCK
 10
1813.6534534157361
 20
-443.02326312309572
 30
0.0
 11
1819.6534534157349
 21
-444.63095826309569
 31
0.0
  0
LINE
  5
2177A
  8
0
  6
BYBLOCK
 10
1819.6534534157349
 20
-444.63095826309569
 30
0.0
 11
1813.6534534157361
 21
-446.23865340309573
 31
0.0
  0
LINE
  5
2177B
  8
0
  6
BYBLOCK
 10
1819.6534534157349
 20
-444.63095826309569
 30
0.0
 11
1813.6534534157361
 21
-444.63095826309569
 31
0.0
  0
LINE
  5
2177C
  8
0
  6
BYBLOCK
 10
1083.653453415737
 20
-446.23865340309573
 30
0.0
 11
1077.653453415737
 21
-444.63095826309569
 31
0.0
  0
LINE
  5
2177D
  8
0
  6
BYBLOCK
 10
1077.653453415737
 20
-444.63095826309569
 30
0.0
 11
1083.653453415737
 21
-443.02326312309572
 31
0.0
  0
LINE
  5
2177E
  8
0
  6
BYBLOCK
 10
1077.653453415737
 20
-444.63095826309569
 30
0.0
 11
1083.653453415737
 21
-444.63095826309569
 31
0.0
  0
TEXT
  5
2177F
  8
1DIM
 10
1063.6534534157381
 20
-560.27885694685597
 30
0.0
 40
10.5
  1
P42
  0
LINE
  5
21780
  8
0
  6
BYBLOCK
 10
1092.653453415737
 20
-560.77116180685596
 30
0.0
 11
1098.653453415737
 21
-562.3788569468561
 31
0.0
  0
LINE
  5
21781
  8
0
  6
BYBLOCK
 10
1098.653453415737
 20
-562.3788569468561
 30
0.0
 11
1092.653453415737
 21
-563.98655208685614
 31
0.0
  0
LINE
  5
21782
  8
0
  6
BYBLOCK
 10
1098.653453415737
 20
-562.3788569468561
 30
0.0
 11
1092.653453415737
 21
-562.3788569468561
 31
0.0
  0
LINE
  5
21783
  8
0
  6
BYBLOCK
 10
1062.653453415737
 20
-563.98655208685614
 30
0.0
 11
1056.653453415737
 21
-562.3788569468561
 31
0.0
  0
LINE
  5
21784
  8
0
  6
BYBLOCK
 10
1056.653453415737
 20
-562.3788569468561
 30
0.0
 11
1062.653453415737
 21
-560.77116180685596
 31
0.0
  0
LINE
  5
21785
  8
0
  6
BYBLOCK
 10
1056.653453415737
 20
-562.3788569468561
 30
0.0
 11
1062.653453415737
 21
-562.3788569468561
 31
0.0
  0
TEXT
  5
21786
  8
1DIM
 10
1805.6534534157361
 20
-560.27885694685597
 30
0.0
 40
10.5
  1
P42
  0
LINE
  5
21787
  8
0
  6
BYBLOCK
 10
1834.6534534157361
 20
-560.77116180685596
 30
0.0
 11
1840.6534534157361
 21
-562.3788569468561
 31
0.0
  0
LINE
  5
21788
  8
0
  6
BYBLOCK
 10
1840.6534534157361
 20
-562.3788569468561
 30
0.0
 11
1834.6534534157361
 21
-563.98655208685614
 31
0.0
  0
LINE
  5
21789
  8
0
  6
BYBLOCK
 10
1840.6534534157361
 20
-562.3788569468561
 30
0.0
 11
1834.6534534157361
 21
-562.3788569468561
 31
0.0
  0
LINE
  5
2178A
  8
0
  6
BYBLOCK
 10
1804.6534534157361
 20
-563.98655208685614
 30
0.0
 11
1798.6534534157361
 21
-562.3788569468561
 31
0.0
  0
LINE
  5
2178B
  8
0
  6
BYBLOCK
 10
1798.6534534157361
 20
-562.3788569468561
 30
0.0
 11
1804.6534534157361
 21
-560.77116180685596
 31
0.0
  0
LINE
  5
2178C
  8
0
  6
BYBLOCK
 10
1798.6534534157361
 20
-562.3788569468561
 30
0.0
 11
1804.6534534157361
 21
-562.3788569468561
 31
0.0
  0
TEXT
  5
2178D
  8
1DIM
 10
1871.1364926177209
 20
-492.66804729707877
 30
0.0
 40
10.5
  1
P14
 50
90.0
  0
LINE
  5
2178E
  8
0
  6
BYBLOCK
 10
1874.8441877577211
 20
-502.26804729707908
 30
0.0
 11
1873.2364926177211
 21
-508.26804729707919
 31
0.0
  0
LINE
  5
2178F
  8
0
  6
BYBLOCK
 10
1873.2364926177211
 20
-508.26804729707919
 30
0.0
 11
1871.628797477721
 21
-502.26804729707908
 31
0.0
  0
LINE
  5
21790
  8
0
  6
BYBLOCK
 10
1873.2364926177211
 20
-508.26804729707919
 30
0.0
 11
1873.2364926177211
 21
-502.26804729707908
 31
0.0
  0
LINE
  5
21791
  8
0
  6
BYBLOCK
 10
1871.6287974777199
 20
-528.2680472970801
 30
0.0
 11
1873.2364926177211
 21
-522.26804729707999
 31
0.0
  0
LINE
  5
21792
  8
0
  6
BYBLOCK
 10
1873.2364926177211
 20
-522.26804729707999
 30
0.0
 11
1874.8441877577211
 21
-528.2680472970801
 31
0.0
  0
LINE
  5
21793
  8
0
  6
BYBLOCK
 10
1873.2364926177211
 20
-522.26804729707999
 30
0.0
 11
1873.2364926177211
 21
-528.2680472970801
 31
0.0
  0
LINE
  5
21794
  8
1DIM
 10
1964.3940278457869
 20
-946.10938718094633
 30
0.0
 11
1974.9093145428819
 21
-931.07261733853488
 31
0.0
1001
ACAD
1000
DSTYLE
1002
{
1070
    40
1040
3.0
1002
}
  0
LINE
  5
21795
  8
1DIM
 10
1974.9093145428819
 20
-931.07261733853488
 30
0.0
 11
1983.0093145428821
 21
-931.07261733853488
 31
0.0
1001
ACAD
1000
DSTYLE
1002
{
1070
    40
1040
3.0
1002
}
  0
LINE
  5
21796
  8
1DIM
 10
1979.7411361323241
 20
-972.16761674374516
 30
0.0
 11
1989.55352449303
 21
-984.70689069600439
 31
0.0
1001
ACAD
1000
DSTYLE
1002
{
1070
    40
1040
3.0
1002
}
  0
LINE
  5
21797
  8
1DIM
 10
1989.55352449303
 20
-984.70689069600439
 30
0.0
 11
1997.6535244930301
 21
-984.70689069600439
 31
0.0
1001
ACAD
1000
DSTYLE
1002
{
1070
    40
1040
3.0
1002
}
  0
TEXT
  5
21798
  8
1DIM
 10
1865.7784534157361
 20
-560.27885694685597
 30
0.0
 40
10.5
  1
50
  0
LINE
  5
21799
  8
0
  6
BYBLOCK
 10
1892.6534534157361
 20
-560.77116180685596
 30
0.0
 11
1898.6534534157361
 21
-562.3788569468561
 31
0.0
  0
LINE
  5
2179A
  8
0
  6
BYBLOCK
 10
1898.6534534157361
 20
-562.3788569468561
 30
0.0
 11
1892.6534534157361
 21
-563.98655208685614
 31
0.0
  0
LINE
  5
2179B
  8
0
  6
BYBLOCK
 10
1898.6534534157361
 20
-562.3788569468561
 30
0.0
 11
1892.6534534157361
 21
-562.3788569468561
 31
0.0
  0
LINE
  5
2179C
  8
0
  6
BYBLOCK
 10
1854.6534534157361
 20
-563.98655208685614
 30
0.0
 11
1848.6534534157361
 21
-562.3788569468561
 31
0.0
  0
LINE
  5
2179D
  8
0
  6
BYBLOCK
 10
1848.6534534157361
 20
-562.3788569468561
 30
0.0
 11
1854.6534534157361
 21
-560.77116180685596
 31
0.0
  0
LINE
  5
2179E
  8
0
  6
BYBLOCK
 10
1848.6534534157361
 20
-562.3788569468561
 30
0.0
 11
1854.6534534157361
 21
-562.3788569468561
 31
0.0
  0
TEXT
  5
2179F
  8
1DIM
 10
1015.778453415737
 20
-560.27885694685597
 30
0.0
 40
10.5
  1
50
  0
LINE
  5
217A0
  8
0
  6
BYBLOCK
 10
1004.653453415737
 20
-563.98655208685614
 30
0.0
 11
998.65345341573754
 21
-562.3788569468561
 31
0.0
  0
LINE
  5
217A1
  8
0
  6
BYBLOCK
 10
998.65345341573754
 20
-562.3788569468561
 30
0.0
 11
1004.653453415737
 21
-560.77116180685596
 31
0.0
  0
LINE
  5
217A2
  8
0
  6
BYBLOCK
 10
998.65345341573754
 20
-562.3788569468561
 30
0.0
 11
1004.653453415737
 21
-562.3788569468561
 31
0.0
  0
LINE
  5
217A3
  8
0
  6
BYBLOCK
 10
1042.653453415737
 20
-560.77116180685596
 30
0.0
 11
1048.653453415737
 21
-562.3788569468561
 31
0.0
  0
LINE
  5
217A4
  8
0
  6
BYBLOCK
 10
1048.653453415737
 20
-562.3788569468561
 30
0.0
 11
1042.653453415737
 21
-563.98655208685614
 31
0.0
  0
LINE
  5
217A5
  8
0
  6
BYBLOCK
 10
1048.653453415737
 20
-562.3788569468561
 30
0.0
 11
1042.653453415737
 21
-562.3788569468561
 31
0.0
  0
TEXT
  5
217A6
  8
1DIM
 10
1825.4034534157361
 20
-442.53095826309573
 30
0.0
 40
10.5
  1
29
  0
LINE
  5
217A7
  8
0
  6
BYBLOCK
 10
1842.6534534157361
 20
-443.02326312309572
 30
0.0
 11
1848.6534534157361
 21
-444.63095826309569
 31
0.0
  0
LINE
  5
217A8
  8
0
  6
BYBLOCK
 10
1848.6534534157361
 20
-444.63095826309569
 30
0.0
 11
1842.6534534157361
 21
-446.23865340309573
 31
0.0
  0
LINE
  5
217A9
  8
0
  6
BYBLOCK
 10
1848.6534534157361
 20
-444.63095826309569
 30
0.0
 11
1842.6534534157361
 21
-444.63095826309569
 31
0.0
  0
LINE
  5
217AA
  8
0
  6
BYBLOCK
 10
1825.6534534157361
 20
-446.23865340309573
 30
0.0
 11
1819.6534534157349
 21
-444.63095826309569
 31
0.0
  0
LINE
  5
217AB
  8
0
  6
BYBLOCK
 10
1819.6534534157349
 20
-444.63095826309569
 30
0.0
 11
1825.6534534157361
 21
-443.02326312309572
 31
0.0
  0
LINE
  5
217AC
  8
0
  6
BYBLOCK
 10
1819.6534534157349
 20
-444.63095826309569
 30
0.0
 11
1825.6534534157361
 21
-444.63095826309569
 31
0.0
  0
TEXT
  5
217AD
  8
1DIM
 10
1874.7942535340201
 20
-940.15868915145541
 30
0.0
 40
10.5
  1
35
 50
90.0
  0
LINE
  5
217AE
  8
0
  6
BYBLOCK
 10
1875.2865583940199
 20
-919.90868915145745
 30
0.0
 11
1876.89425353402
 21
-913.90868915145757
 31
0.0
  0
LINE
  5
217AF
  8
0
  6
BYBLOCK
 10
1876.89425353402
 20
-913.90868915145757
 30
0.0
 11
1878.50194867402
 21
-919.90868915145745
 31
0.0
  0
LINE
  5
217B0
  8
0
  6
BYBLOCK
 10
1876.89425353402
 20
-913.90868915145757
 30
0.0
 11
1876.89425353402
 21
-919.90868915145745
 31
0.0
  0
LINE
  5
217B1
  8
0
  6
BYBLOCK
 10
1878.50194867402
 20
-942.90868915145404
 30
0.0
 11
1876.89425353402
 21
-948.90868915145381
 31
0.0
  0
LINE
  5
217B2
  8
0
  6
BYBLOCK
 10
1876.89425353402
 20
-948.90868915145381
 30
0.0
 11
1875.2865583940199
 21
-942.90868915145404
 31
0.0
  0
LINE
  5
217B3
  8
0
  6
BYBLOCK
 10
1876.89425353402
 20
-948.90868915145381
 30
0.0
 11
1876.89425353402
 21
-942.90868915145404
 31
0.0
  0
TEXT
  5
217B4
  8
1DIM
 10
1436.4034534157361
 20
-968.85293724921121
 30
0.0
 40
10.5
  1
718
  0
LINE
  5
217B5
  8
0
  6
BYBLOCK
 10
1801.653453415737
 20
-969.3452421092112
 30
0.0
 11
1807.653453415737
 21
-970.95293724921135
 31
0.0
  0
LINE
  5
217B6
  8
0
  6
BYBLOCK
 10
1807.653453415737
 20
-970.95293724921135
 30
0.0
 11
1801.653453415737
 21
-972.56063238921126
 31
0.0
  0
LINE
  5
217B7
  8
0
  6
BYBLOCK
 10
1807.653453415737
 20
-970.95293724921135
 30
0.0
 11
1801.653453415737
 21
-970.95293724921135
 31
0.0
  0
LINE
  5
217B8
  8
0
  6
BYBLOCK
 10
1095.6534534157349
 20
-972.56063238921126
 30
0.0
 11
1089.6534534157349
 21
-970.95293724921135
 31
0.0
  0
LINE
  5
217B9
  8
0
  6
BYBLOCK
 10
1089.6534534157349
 20
-970.95293724921135
 30
0.0
 11
1095.6534534157349
 21
-969.3452421092112
 31
0.0
  0
LINE
  5
217BA
  8
0
  6
BYBLOCK
 10
1089.6534534157349
 20
-970.95293724921135
 30
0.0
 11
1095.6534534157349
 21
-970.95293724921135
 31
0.0
  0
TEXT
  5
217BB
  8
1DIM
 10
996.43690357204207
 20
-644.34019913936379
 30
0.0
 40
10.5
  1
\U+22056.5 （ガラス穴寸法）
 50
289.49718295651752
  0
LINE
  5
217BC
  8
0
  6
BYBLOCK
 10
1088.0816752051369
 20
-904.65251840325618
 30
0.0
 11
1088.5687317508459
 21
-910.84505096953797
 31
0.0
  0
LINE
  5
217BD
  8
0
  6
BYBLOCK
 10
1088.5687317508459
 20
-910.84505096953797
 30
0.0
 11
1085.0506621492659
 21
-905.72568871026988
 31
0.0
  0
LINE
  5
217BE
  8
0
  6
BYBLOCK
 10
1088.5687317508459
 20
-910.84505096953797
 30
0.0
 11
1086.5661686772009
 21
-905.18910355676314
 31
0.0
  0
LINE
  5
217BF
  8
0
  6
BYBLOCK
 10
1091.2252316263359
 20
-923.16485989965895
 30
0.0
 11
1090.7381750806269
 21
-916.97232733337694
 31
0.0
  0
LINE
  5
217C0
  8
0
  6
BYBLOCK
 10
1090.7381750806269
 20
-916.97232733337694
 30
0.0
 11
1094.2562446822069
 21
-922.09168959264503
 31
0.0
  0
LINE
  5
217C1
  8
0
  6
BYBLOCK
 10
1090.7381750806269
 20
-916.97232733337694
 30
0.0
 11
1092.740738154271
 21
-922.62827474615187
 31
0.0
  0
VIEWPORT
  5
57
 67
     1
  8
0
 10
-8.9651425562825011
 20
10.09248672500371
 30
0.0
 40
622.50506956472691
 41
282.76619948223703
 68
     1
 69
     1
1001
ACAD
1000
MVIEW
1002
{
1070
    16
1010
0.0
1020
0.0
1030
0.0
1010
0.0
1020
0.0
1030
1.0
1040
0.0
1040
282.76619948223703
1040
-8.9651425562825011
1040
10.09248672500371
1040
50.0
1040
0.0
1040
0.0
1070
     0
1070
   100
1070
     1
1070
     1
1070
     0
1070
     0
1070
     0
1070
     0
1040
0.0
1040
0.0
1040
0.0
1040
10.0
1040
10.0
1040
10.0
1040
10.0
1070
     0
1002
{
1002
}
1002
}
  0
ENDSEC
  0
EOF
