  0
SECTION
  2
HEADER
  9
$ACADVER
  1
AC1012
  9
$DWGCODEPAGE
  3
ansi_932
  9
$INSBASE
 10
0.0
 20
0.0
 30
0.0
  9
$EXTMIN
 10
1790.153453415736
 20
-992.3581256565767
 30
0.0
  9
$EXTMAX
 10
2014.64601481219
 20
-819.8041708459598
 30
0.0
  9
$LIMMIN
 10
0.0
 20
0.0
  9
$LIMMAX
 10
420.0
 20
297.0
  9
$ORTHOMODE
 70
     0
  9
$REGENMODE
 70
     1
  9
$FILLMODE
 70
     1
  9
$QTEXTMODE
 70
     0
  9
$MIRRTEXT
 70
     0
  9
$DRAGMODE
 70
     2
  9
$LTSCALE
 40
0.5
  9
$OSMODE
 70
 14463
  9
$ATTMODE
 70
     1
  9
$TEXTSIZE
 40
4.0
  9
$TRACEWID
 40
1.0
  9
$TEXTSTYLE
  7
STANDARD
  9
$CLAYER
  8
1TEXT
  9
$CELTYPE
  6
BYLAYER
  9
$CECOLOR
 62
   256
  9
$CELTSCALE
 40
1.0
  9
$DELOBJ
 70
     1
  9
$DISPSILH
 70
     0
  9
$DIMSCALE
 40
1.0
  9
$DIMASZ
 40
2.0
  9
$DIMEXO
 40
0.0
  9
$DIMDLI
 40
7.0
  9
$DIMRND
 40
0.0
  9
$DIMDLE
 40
0.0
  9
$DIMEXE
 40
1.0
  9
$DIMTP
 40
0.0
  9
$DIMTM
 40
0.0
  9
$DIMTXT
 40
3.5
  9
$DIMCEN
 40
0.0
  9
$DIMTSZ
 40
0.0
  9
$DIMTOL
 70
     0
  9
$DIMLIM
 70
     0
  9
$DIMTIH
 70
     0
  9
$DIMTOH
 70
     0
  9
$DIMSE1
 70
     0
  9
$DIMSE2
 70
     0
  9
$DIMTAD
 70
     1
  9
$DIMZIN
 70
     8
  9
$DIMBLK
  1

  9
$DIMASO
 70
     1
  9
$DIMSHO
 70
     1
  9
$DIMPOST
  1
 
  9
$DIMAPOST
  1

  9
$DIMALT
 70
     0
  9
$DIMALTD
 70
     2
  9
$DIMALTF
 40
25.4
  9
$DIMLFAC
 40
1.0
  9
$DIMTOFL
 70
     1
  9
$DIMTVP
 40
0.0
  9
$DIMTIX
 70
     0
  9
$DIMSOXD
 70
     0
  9
$DIMSAH
 70
     1
  9
$DIMBLK1
  1
OPEN30
  9
$DIMBLK2
  1
OPEN30
  9
$DIMSTYLE
  2
NEWX10
  9
$DIMCLRD
 70
   256
  9
$DIMCLRE
 70
   256
  9
$DIMCLRT
 70
   201
  9
$DIMTFAC
 40
0.7
  9
$DIMGAP
 40
0.7
  9
$DIMJUST
 70
     0
  9
$DIMSD1
 70
     0
  9
$DIMSD2
 70
     0
  9
$DIMTOLJ
 70
     1
  9
$DIMTZIN
 70
     8
  9
$DIMALTZ
 70
     0
  9
$DIMALTTZ
 70
     0
  9
$DIMFIT
 70
     2
  9
$DIMUPT
 70
     0
  9
$DIMUNIT
 70
     2
  9
$DIMDEC
 70
     2
  9
$DIMTDEC
 70
     4
  9
$DIMALTU
 70
     2
  9
$DIMALTTD
 70
     2
  9
$DIMTXSTY
  7
STANDARD
  9
$DIMAUNIT
 70
     0
  9
$LUNITS
 70
     2
  9
$LUPREC
 70
     4
  9
$SKETCHINC
 40
1.0
  9
$FILLETRAD
 40
0.0
  9
$AUNITS
 70
     0
  9
$AUPREC
 70
     2
  9
$MENU
  1
acad
  9
$ELEVATION
 40
0.0
  9
$PELEVATION
 40
0.0
  9
$THICKNESS
 40
0.0
  9
$LIMCHECK
 70
     0
  9
$CHAMFERA
 40
1.0
  9
$CHAMFERB
 40
1.0
  9
$CHAMFERC
 40
20.0
  9
$CHAMFERD
 40
0.0
  9
$SKPOLY
 70
     0
  9
$TDCREATE
 40
2453033.732663484
  9
$TDUPDATE
 40
2459646.547556713
  9
$TDINDWG
 40
2.7536019444
  9
$TDUSRTIMER
 40
2.7536019444
  9
$USRTIMER
 70
     1
  9
$ANGBASE
 50
0.0
  9
$ANGDIR
 70
     0
  9
$PDMODE
 70
     0
  9
$PDSIZE
 40
0.0
  9
$PLINEWID
 40
0.0
  9
$COORDS
 70
     2
  9
$SPLFRAME
 70
     0
  9
$SPLINETYPE
 70
     6
  9
$SPLINESEGS
 70
     8
  9
$ATTDIA
 70
     0
  9
$ATTREQ
 70
     1
  9
$HANDLING
 70
     1
  9
$HANDSEED
  5
23396
  9
$SURFTAB1
 70
     6
  9
$SURFTAB2
 70
     6
  9
$SURFTYPE
 70
     6
  9
$SURFU
 70
     6
  9
$SURFV
 70
     6
  9
$UCSNAME
  2

  9
$UCSORG
 10
0.0
 20
0.0
 30
0.0
  9
$UCSXDIR
 10
1.0
 20
0.0
 30
0.0
  9
$UCSYDIR
 10
0.0
 20
1.0
 30
0.0
  9
$PUCSNAME
  2

  9
$PUCSORG
 10
0.0
 20
0.0
 30
0.0
  9
$PUCSXDIR
 10
1.0
 20
0.0
 30
0.0
  9
$PUCSYDIR
 10
0.0
 20
1.0
 30
0.0
  9
$USERI1
 70
     0
  9
$USERI2
 70
     0
  9
$USERI3
 70
     0
  9
$USERI4
 70
     0
  9
$USERI5
 70
     0
  9
$USERR1
 40
0.0
  9
$USERR2
 40
0.0
  9
$USERR3
 40
0.0
  9
$USERR4
 40
0.0
  9
$USERR5
 40
0.0
  9
$WORLDVIEW
 70
     1
  9
$SHADEDGE
 70
     3
  9
$SHADEDIF
 70
    70
  9
$TILEMODE
 70
     1
  9
$MAXACTVP
 70
    48
  9
$PINSBASE
 10
0.0
 20
0.0
 30
0.0
  9
$PLIMCHECK
 70
     0
  9
$PEXTMIN
 10
1.000000000000000E+20
 20
1.000000000000000E+20
 30
1.000000000000000E+20
  9
$PEXTMAX
 10
-1.000000000000000E+20
 20
-1.000000000000000E+20
 30
-1.000000000000000E+20
  9
$PLIMMIN
 10
0.0
 20
0.0
  9
$PLIMMAX
 10
420.0
 20
297.0
  9
$UNITMODE
 70
     0
  9
$VISRETAIN
 70
     1
  9
$PLINEGEN
 70
     0
  9
$PSLTSCALE
 70
     1
  9
$TREEDEPTH
 70
  3020
  9
$PICKSTYLE
 70
     1
  9
$CMLSTYLE
  2
STANDARD
  9
$CMLJUST
 70
     0
  9
$CMLSCALE
 40
20.0
  9
$SAVEIMAGES
 70
     1
  0
ENDSEC
  0
SECTION
  2
CLASSES
  0
CLASS
  1
DICTIONARYVAR
  2
AcDbDictionaryVar
  3
ObjectDBX Classes
 90
        0
280
     0
281
     0
  0
CLASS
  1
IDBUFFER
  2
AcDbIdBuffer
  3
ObjectDBX Classes
 90
    32768
280
     0
281
     0
  0
CLASS
  1
LWPOLYLINE
  2
AcDbPolyline
  3
ObjectDBX Classes
 90
    32768
280
     0
281
     1
  0
CLASS
  1
ACDBDICTIONARYWDFLT
  2
AcDbDictionaryWithDefault
  3
ObjectDBX Classes
 90
    32768
280
     0
281
     0
  0
CLASS
  1
ACDBPLACEHOLDER
  2
AcDbPlaceHolder
  3
ObjectDBX Classes
 90
        0
280
     0
281
     0
  0
CLASS
  1
LAYOUT
  2
AcDbLayout
  3
ObjectDBX Classes
 90
        0
280
     0
281
     0
  0
CLASS
  1
TABLESTYLE
  2
AcDbTableStyle
  3
ObjectDBX Classes
 90
     4095
280
     0
281
     0
  0
CLASS
  1
SORTENTSTABLE
  2
AcDbSortentsTable
  3
ObjectDBX Classes
 90
    32768
280
     0
281
     0
  0
CLASS
  1
DIMASSOC
  2
AcDbDimAssoc
  3
"AcDbDimAssoc|Product Desc:     AcDim ARX App For Dimension|Company:          Autodesk, Inc.|WEB Address:      www.autodesk.com"
 90
        0
280
     0
281
     0
  0
CLASS
  1
MATERIAL
  2
AcDbMaterial
  3
ObjectDBX Classes
 90
     1153
280
     0
281
     0
  0
CLASS
  1
VISUALSTYLE
  2
AcDbVisualStyle
  3
ObjectDBX Classes
 90
     4095
280
     0
281
     0
  0
CLASS
  1
SCALE
  2
AcDbScale
  3
ObjectDBX Classes
 90
     1153
280
     0
281
     0
  0
CLASS
  1
MLEADERSTYLE
  2
AcDbMLeaderStyle
  3
ACDB_MLEADERSTYLE_CLASS
 90
     4095
280
     0
281
     0
  0
CLASS
  1
CELLSTYLEMAP
  2
AcDbCellStyleMap
  3
ObjectDBX Classes
 90
     1152
280
     0
281
     0
  0
CLASS
  1
EXACXREFPANELOBJECT
  2
ExAcXREFPanelObject
  3
EXAC_ESW
 90
   -31743
280
     1
281
     0
  0
CLASS
  1
NPOCOLLECTION
  2
AcDbImpNonPersistentObjectsCollection
  3
ObjectDBX Classes
 90
   -31615
280
     1
281
     0
  0
CLASS
  1
AEC_REFEDIT_STATUS_TRACKER
  2
AecDbRefEditStatusTracker
  3
AecArchBase60|Product Desc: Autodesk Architectural Desktop 2007 |Company: Autodesk,Inc. |WEB Address: www.autodesk.com
 90
   -32639
280
     1
281
     0
  0
CLASS
  1
SUN
  2
AcDbSun
  3
SCENEOE
 90
     1153
280
     0
281
     0
  0
CLASS
  1
XRECORD
  2
AcDbXrecord
  3
ObjectDBX Classes
 90
    32768
280
     0
281
     0
  0
CLASS
  1
HATCH
  2
AcDbHatch
  3
ObjectDBX Classes
 90
    32768
280
     0
281
     1
  0
ENDSEC
  0
SECTION
  2
TABLES
  0
TABLE
  2
VPORT
  5
8
330
0
100
AcDbSymbolTable
 70
     1
  0
VPORT
  5
19DC2
330
8
100
AcDbSymbolTableRecord
100
AcDbViewportTableRecord
  2
*ACTIVE
 70
     0
 10
0.0
 20
0.0
 11
1.0
 21
1.0
 12
1902.399734113963
 22
-906.0811482512682
 13
0.0
 23
0.0
 14
10.0
 24
10.0
 15
10.0
 25
10.0
 16
0.0
 26
0.0
 36
1.0
 17
0.0
 27
0.0
 37
0.0
 40
185.2684567440308
 41
1.600472813238771
 42
50.0
 43
0.0
 44
0.0
 50
0.0
 51
0.0
 71
    16
 72
   100
 73
     1
 74
     1
 75
     0
 76
     0
 77
     0
 78
     0
  0
ENDTAB
  0
TABLE
  2
LTYPE
  5
5
330
0
100
AcDbSymbolTable
 70
     3
  0
LTYPE
  5
12
330
5
100
AcDbSymbolTableRecord
100
AcDbLinetypeTableRecord
  2
BYBLOCK
 70
     0
  3

 72
    65
 73
     0
 40
0.0
  0
LTYPE
  5
13
330
5
100
AcDbSymbolTableRecord
100
AcDbLinetypeTableRecord
  2
BYLAYER
 70
     0
  3

 72
    65
 73
     0
 40
0.0
  0
LTYPE
  5
14
330
5
100
AcDbSymbolTableRecord
100
AcDbLinetypeTableRecord
  2
CONTINUOUS
 70
     0
  3
Solid line
 72
    65
 73
     0
 40
0.0
  0
LTYPE
  5
26
330
5
100
AcDbSymbolTableRecord
100
AcDbLinetypeTableRecord
  2
CENTER2
 70
     0
  3
Center (.5x) ___ _ ___ _ ___ _ ___ _ ___ _ ___
 72
    65
 73
     4
 40
28.575
 49
19.05
 74
     0
 49
-3.175
 74
     0
 49
3.175
 74
     0
 49
-3.175
 74
     0
  0
LTYPE
  5
100
330
5
100
AcDbSymbolTableRecord
100
AcDbLinetypeTableRecord
  2
PHANTOM2
 70
     0
  3
Phantom (0.5x) ___ _ _ ___ _ _ ___ _ _ ___ _ _
 72
    65
 73
     6
 40
31.75
 49
15.875
 74
     0
 49
-3.175
 74
     0
 49
3.175
 74
     0
 49
-3.175
 74
     0
 49
3.175
 74
     0
 49
-3.175
 74
     0
  0
ENDTAB
  0
TABLE
  2
LAYER
  5
2
102
{ACAD_XDICTIONARY
360
18FE8
102
}
330
0
100
AcDbSymbolTable
 70
     7
  0
LAYER
  5
E
102
{ACAD_XDICTIONARY
360
1A20A
102
}
330
2
100
AcDbSymbolTableRecord
100
AcDbLayerTableRecord
  2
0
 70
     0
 62
     7
  6
CONTINUOUS
  0
LAYER
  5
29
102
{ACAD_XDICTIONARY
360
1A20C
102
}
330
2
100
AcDbSymbolTableRecord
100
AcDbLayerTableRecord
  2
1CENTER
 70
     0
 62
     7
  6
CENTER2
  0
LAYER
  5
31
102
{ACAD_XDICTIONARY
360
1A20E
102
}
330
2
100
AcDbSymbolTableRecord
100
AcDbLayerTableRecord
  2
1TEXT
 70
     0
 62
     7
  6
CONTINUOUS
  0
LAYER
  5
101
102
{ACAD_XDICTIONARY
360
1A218
102
}
330
2
100
AcDbSymbolTableRecord
100
AcDbLayerTableRecord
  2
1DIM
 70
     0
 62
     7
  6
CONTINUOUS
  0
LAYER
  5
103
102
{ACAD_XDICTIONARY
360
1A21C
102
}
330
2
100
AcDbSymbolTableRecord
100
AcDbLayerTableRecord
  2
1PHANTOM
 70
     0
 62
     7
  6
PHANTOM2
  0
LAYER
  5
25F
102
{ACAD_XDICTIONARY
360
1A220
102
}
330
2
100
AcDbSymbolTableRecord
100
AcDbLayerTableRecord
  2
01
 70
     0
 62
     1
  6
CONTINUOUS
  0
LAYER
  5
26D
102
{ACAD_XDICTIONARY
360
1A23C
102
}
330
2
100
AcDbSymbolTableRecord
100
AcDbLayerTableRecord
  2
1HATCH
 70
     0
 62
     7
  6
CONTINUOUS
  0
ENDTAB
  0
TABLE
  2
STYLE
  5
3
330
0
100
AcDbSymbolTable
 70
     1
  0
STYLE
  5
F
330
3
100
AcDbSymbolTableRecord
100
AcDbTextStyleTableRecord
  2
STANDARD
 70
     0
 40
0.0
 41
1.0
 50
0.0
 71
     0
 42
4.0
  3
txt.shx
  4
extfont.shx
  0
ENDTAB
  0
TABLE
  2
VIEW
  5
6
330
0
100
AcDbSymbolTable
 70
     0
  0
ENDTAB
  0
TABLE
  2
UCS
  5
7
330
0
100
AcDbSymbolTable
 70
     0
  0
ENDTAB
  0
TABLE
  2
APPID
  5
9
330
0
100
AcDbSymbolTable
 70
    16
  0
APPID
  5
10
330
9
100
AcDbSymbolTableRecord
100
AcDbRegAppTableRecord
  2
ACAD
 70
     0
  0
APPID
  5
21
330
9
100
AcDbSymbolTableRecord
100
AcDbRegAppTableRecord
  2
DRAWINGVARIABLESXDATA
 70
     0
  0
APPID
  5
64
330
9
100
AcDbSymbolTableRecord
100
AcDbRegAppTableRecord
  2
CONTENTTABDATA
 70
     0
  0
APPID
  5
65
330
9
100
AcDbSymbolTableRecord
100
AcDbRegAppTableRecord
  2
CONTENTCURRENTTAB
 70
     0
  0
APPID
  5
66
330
9
100
AcDbSymbolTableRecord
100
AcDbRegAppTableRecord
  2
CONTENTBLOCKDESCRIPTION
 70
     0
  0
APPID
  5
67
330
9
100
AcDbSymbolTableRecord
100
AcDbRegAppTableRecord
  2
CONTENTBLOCKICON
 70
     0
  0
APPID
  5
68
330
9
100
AcDbSymbolTableRecord
100
AcDbRegAppTableRecord
  2
CONTENTLONGBLOCKNAME
 70
     0
  0
APPID
  5
5A9
330
9
100
AcDbSymbolTableRecord
100
AcDbRegAppTableRecord
  2
ACAD_PSEXT
 70
     0
  0
APPID
  5
18AC
330
9
100
AcDbSymbolTableRecord
100
AcDbRegAppTableRecord
  2
ACAD_DSTYLE_DIMTEXT_FILL
 70
     0
  0
APPID
  5
19E1A
330
9
100
AcDbSymbolTableRecord
100
AcDbRegAppTableRecord
  2
ACAD_MLEADERVER
 70
     0
  0
APPID
  5
1A2FA
330
9
100
AcDbSymbolTableRecord
100
AcDbRegAppTableRecord
  2
ACAD_DSTYLE_DIMRADIAL_EXTE
 70
     0
  0
APPID
  5
1DBC1
330
9
100
AcDbSymbolTableRecord
100
AcDbRegAppTableRecord
  2
ACADANNOTATIVE
 70
     0
  0
APPID
  5
1E991
330
9
100
AcDbSymbolTableRecord
100
AcDbRegAppTableRecord
  2
ACAD_EXEMPT_FROM_CAD_STAND
 70
     0
  0
APPID
  5
2282E
330
9
100
AcDbSymbolTableRecord
100
AcDbRegAppTableRecord
  2
ACDBBLOCKREPETAG
 70
     0
  0
APPID
  5
2282F
330
9
100
AcDbSymbolTableRecord
100
AcDbRegAppTableRecord
  2
ACLAYERTOOLS
 70
     0
  0
APPID
  5
22830
330
9
100
AcDbSymbolTableRecord
100
AcDbRegAppTableRecord
  2
ACAD_NAV_VCDISPLAY
 70
     0
  0
ENDTAB
  0
TABLE
  2
DIMSTYLE
  5
A
330
0
100
AcDbSymbolTable
 70
     1
  0
DIMSTYLE
105
48
330
A
100
AcDbSymbolTableRecord
100
AcDbDimStyleTableRecord
  2
NEWX10
 70
     0
  3
 
  4

  5

  6
OPEN30
  7
OPEN30
 40
1.0
 41
2.0
 42
0.0
 43
7.0
 44
1.0
 45
0.0
 46
0.0
 47
0.0
 48
0.0
140
3.5
141
0.0
142
0.0
143
25.4
144
1.0
145
0.0
146
0.7
147
0.7
 71
     0
 72
     0
 73
     0
 74
     0
 75
     0
 76
     0
 77
     1
 78
     8
170
     0
171
     2
172
     1
173
     1
174
     0
175
     0
176
   256
177
   256
178
   201
179
     2
270
     2
271
     2
272
     4
273
     2
274
     2
340
F
275
     0
280
     0
281
     0
282
     0
283
     1
284
     8
285
     0
286
     0
287
     2
288
     0
  0
ENDTAB
  0
TABLE
  2
BLOCK_RECORD
  5
1
330
0
100
AcDbSymbolTable
 70
     8
  0
BLOCK_RECORD
  5
18
102
{ACAD_XDICTIONARY
360
6E9
102
}
330
1
100
AcDbSymbolTableRecord
100
AcDbBlockTableRecord
  2
*MODEL_SPACE
  0
BLOCK_RECORD
  5
15
102
{ACAD_XDICTIONARY
360
59B
102
}
330
1
100
AcDbSymbolTableRecord
100
AcDbBlockTableRecord
  2
*PAPER_SPACE
  0
BLOCK_RECORD
  5
42
330
1
100
AcDbSymbolTableRecord
100
AcDbBlockTableRecord
  2
_OPEN30
  0
BLOCK_RECORD
  5
2287F
330
1
100
AcDbSymbolTableRecord
100
AcDbBlockTableRecord
  2
A3WAKUKAWAJUN2017_HYOUDAI_
  0
BLOCK_RECORD
  5
231F6
330
1
100
AcDbSymbolTableRecord
100
AcDbBlockTableRecord
  2
*X266
  0
BLOCK_RECORD
  5
23244
330
1
100
AcDbSymbolTableRecord
100
AcDbBlockTableRecord
  2
*X267
  0
BLOCK_RECORD
  5
23296
330
1
100
AcDbSymbolTableRecord
100
AcDbBlockTableRecord
  2
*X268
  0
BLOCK_RECORD
  5
232E7
330
1
100
AcDbSymbolTableRecord
100
AcDbBlockTableRecord
  2
*X269
  0
BLOCK_RECORD
  5
23324
330
1
100
AcDbSymbolTableRecord
100
AcDbBlockTableRecord
  2
*X270
  0
BLOCK_RECORD
  5
23364
330
1
100
AcDbSymbolTableRecord
100
AcDbBlockTableRecord
  2
*X271
  0
ENDTAB
  0
ENDSEC
  0
SECTION
  2
BLOCKS
  0
BLOCK
  5
19
330
18
100
AcDbEntity
  8
0
100
AcDbBlockBegin
  2
*MODEL_SPACE
 70
     0
 10
0.0
 20
0.0
 30
0.0
  3
*MODEL_SPACE
  1

  0
ENDBLK
  5
1A
330
18
100
AcDbEntity
  8
0
100
AcDbBlockEnd
  0
BLOCK
  5
16
330
15
100
AcDbEntity
 67
     1
  8
0
100
AcDbBlockBegin
  2
*PAPER_SPACE
 70
     0
 10
0.0
 20
0.0
 30
0.0
  3
*PAPER_SPACE
  1

  0
ENDBLK
  5
17
330
15
100
AcDbEntity
 67
     1
  8
0
100
AcDbBlockEnd
  0
BLOCK
  5
43
330
42
100
AcDbEntity
  8
0
100
AcDbBlockBegin
  2
_OPEN30
 70
     0
 10
0.0
 20
0.0
 30
0.0
  3
_OPEN30
  1

  0
LINE
  5
44
330
42
100
AcDbEntity
  8
0
  6
BYBLOCK
 62
     0
100
AcDbLine
 10
-1.0
 20
0.26794919
 30
0.0
 11
0.0
 21
0.0
 31
0.0
  0
LINE
  5
45
330
42
100
AcDbEntity
  8
0
  6
BYBLOCK
 62
     0
100
AcDbLine
 10
0.0
 20
0.0
 30
0.0
 11
-1.0
 21
-0.26794919
 31
0.0
  0
LINE
  5
46
330
42
100
AcDbEntity
  8
0
  6
BYBLOCK
 62
     0
100
AcDbLine
 10
0.0
 20
0.0
 30
0.0
 11
-1.0
 21
0.0
 31
0.0
  0
ENDBLK
  5
47
330
42
100
AcDbEntity
  8
0
100
AcDbBlockEnd
  0
BLOCK
  5
22F91
330
2287F
100
AcDbEntity
  8
0
100
AcDbBlockBegin
  2
A3WAKUKAWAJUN2017_HYOUDAI_
 70
     0
 10
0.0
 20
0.0
 30
0.0
  3
A3WAKUKAWAJUN2017_HYOUDAI_
  1

  0
LINE
  5
22881
330
2287F
100
AcDbEntity
  8
0
100
AcDbLine
 10
13.26299999998673
 20
-0.0001000000000317
 30
0.0
 11
9.236999999990758
 21
8.999899999990987
 31
0.0
1001
ACAD
1000
ASC_BOUNDS
1002
{
1070
    19
1005
228C2
1002
}
  0
LINE
  5
22882
330
2287F
100
AcDbEntity
  8
0
100
AcDbLine
 10
5.657999999994331
 20
0.9999999999989768
 30
0.0
 11
9.236999999990758
 21
8.999999999991019
 31
0.0
1001
ACAD
1000
ASC_BOUNDS
1002
{
1070
    19
1005
228C2
1002
}
  0
LINE
  5
22883
330
2287F
100
AcDbEntity
  8
0
100
AcDbLine
 10
18.59199999998134
 20
-0.2368999999997641
 30
0.0
 11
16.46099999998353
 21
5.432899999994561
 31
0.0
1001
ACAD
1000
ASC_BOUNDS
1002
{
1070
    19
1005
228C3
1002
}
  0
LINE
  5
22884
330
2287F
100
AcDbEntity
  8
0
100
AcDbLine
 10
18.59199999998134
 20
-0.2368999999997641
 30
0.0
 11
22.38199999997767
 21
8.763099999991255
 31
0.0
1001
ACAD
1000
ASC_BOUNDS
1002
{
1070
    19
1005
228C3
1002
}
  0
LINE
  5
22885
330
2287F
100
AcDbEntity
  8
0
100
AcDbLine
 10
14.32899999998563
 20
-0.2368999999997641
 30
0.0
 11
16.46099999998353
 21
5.432899999994561
 31
0.0
1001
ACAD
1000
ASC_BOUNDS
1002
{
1070
    19
1005
228C3
1002
}
  0
LINE
  5
22886
330
2287F
100
AcDbEntity
  8
0
100
AcDbLine
 10
14.32899999998563
 20
-0.2368999999997641
 30
0.0
 11
10.53899999998941
 21
8.763099999991255
 31
0.0
1001
ACAD
1000
ASC_BOUNDS
1002
{
1070
    19
1005
228C3
1002
}
  0
LINE
  5
22887
330
2287F
100
AcDbEntity
  8
0
100
AcDbLine
 10
19.53899999998043
 20
-0.0001000000000317
 30
0.0
 11
23.56599999997638
 21
8.999899999990987
 31
0.0
1001
ACAD
1000
ASC_BOUNDS
1002
{
1070
    19
1005
228C4
1002
}
  0
LINE
  5
22888
330
2287F
100
AcDbEntity
  8
0
100
AcDbLine
 10
26.97358892824991
 20
1.383099999991202
 30
0.0
 11
23.56599999997638
 21
8.999899999990987
 31
0.0
1001
ACAD
1000
ASC_BOUNDS
1002
{
1070
    19
1005
228C4
1002
}
  0
LINE
  5
22889
330
2287F
100
AcDbEntity
  8
0
100
AcDbLine
 10
5.657999999994331
 20
0.9999999999989768
 30
0.0
 11
3.181999999996833
 21
4.668599999995308
 31
0.0
1001
ACAD
1000
ASC_BOUNDS
1002
{
1070
    19
1005
228C2
1002
}
  0
LINE
  5
2288A
330
2287F
100
AcDbEntity
  8
0
100
AcDbLine
 10
4.617999999995391
 20
-0.0001000000000317
 30
0.0
 11
1.420999999998571
 21
4.736799999995242
 31
0.0
1001
ACAD
1000
ASC_BOUNDS
1002
{
1070
    19
1005
228C2
1002
}
  0
LINE
  5
2288B
330
2287F
100
AcDbEntity
  8
0
100
AcDbLine
 10
1.420999999998571
 20
8.763099999991255
 30
0.0
 11
1.420999999998571
 21
0.0
 31
0.0
1001
ACAD
1000
ASC_BOUNDS
1002
{
1070
    19
1005
228C7
1002
}
  0
LINE
  5
2288C
330
2287F
100
AcDbEntity
  8
0
100
AcDbLine
 10
0.0
 20
8.763099999991255
 30
0.0
 11
0.0
 21
0.0
 31
0.0
1001
ACAD
1000
ASC_BOUNDS
1002
{
1070
    19
1005
228C7
1002
}
  0
LINE
  5
2288D
330
2287F
100
AcDbEntity
  8
0
100
AcDbLine
 10
6.766999999993232
 20
-0.0001000000000317
 30
0.0
 11
7.826999999992154
 21
2.368399999997621
 31
0.0
1001
ACAD
1000
ASC_BOUNDS
1002
{
1070
    19
1005
228C2
1002
}
  0
LINE
  5
2288E
330
2287F
100
AcDbEntity
  8
0
100
AcDbLine
 10
0.0
 20
0.0
 30
0.0
 11
1.420999999998571
 21
0.0
 31
0.0
1001
ACAD
1000
ASC_BOUNDS
1002
{
1070
    19
1005
228C7
1002
}
  0
LINE
  5
2288F
330
2287F
100
AcDbEntity
  8
0
100
AcDbLine
 10
4.617999999995391
 20
0.0
 30
0.0
 11
6.766999999993232
 21
0.0
 31
0.0
1001
ACAD
1000
ASC_BOUNDS
1002
{
1070
    19
1005
228C2
1002
}
  0
LINE
  5
22890
330
2287F
100
AcDbEntity
  8
0
100
AcDbLine
 10
11.70599999998831
 20
-0.0001000000000317
 30
0.0
 11
10.64699999998936
 21
2.368399999997621
 31
0.0
1001
ACAD
1000
ASC_BOUNDS
1002
{
1070
    19
1005
228C2
1002
}
  0
LINE
  5
22891
330
2287F
100
AcDbEntity
  8
0
100
AcDbLine
 10
7.826999999992154
 20
2.368399999997621
 30
0.0
 11
10.64699999998936
 21
2.368399999997621
 31
0.0
1001
ACAD
1000
ASC_BOUNDS
1002
{
1070
    19
1005
228C2
1002
}
  0
LINE
  5
22892
330
2287F
100
AcDbEntity
  8
0
100
AcDbLine
 10
11.70599999998831
 20
0.0
 30
0.0
 11
13.26299999998673
 21
0.0
 31
0.0
1001
ACAD
1000
ASC_BOUNDS
1002
{
1070
    19
1005
228C2
1002
}
  0
LINE
  5
22893
330
2287F
100
AcDbEntity
  8
0
100
AcDbLine
 10
22.15599999997789
 20
2.368399999997621
 30
0.0
 11
24.97599999997499
 21
2.368399999997621
 31
0.0
1001
ACAD
1000
ASC_BOUNDS
1002
{
1070
    19
1005
228C4
1002
}
  0
LINE
  5
22894
330
2287F
100
AcDbEntity
  8
0
100
AcDbLine
 10
19.53899999998043
 20
0.0
 30
0.0
 11
21.09599999997886
 21
0.0
 31
0.0
1001
ACAD
1000
ASC_BOUNDS
1002
{
1070
    19
1005
228C4
1002
}
  0
LINE
  5
22895
330
2287F
100
AcDbEntity
  8
0
100
AcDbLine
 10
21.09599999997886
 20
-0.0001000000000317
 30
0.0
 11
22.15599999997789
 21
2.368399999997621
 31
0.0
1001
ACAD
1000
ASC_BOUNDS
1002
{
1070
    19
1005
228C4
1002
}
  0
LINE
  5
22896
330
2287F
100
AcDbEntity
  8
0
100
AcDbLine
 10
26.02015566812236
 20
0.0330999999912365
 30
0.0
 11
24.97599999997499
 21
2.368399999997621
 31
0.0
1001
ACAD
1000
ASC_BOUNDS
1002
{
1070
    19
1005
228C4
1002
}
  0
LINE
  5
22897
330
2287F
100
AcDbEntity
  8
0
100
AcDbLine
 10
14.32399999998563
 20
3.315799999996671
 30
0.0
 11
16.46099999998353
 21
8.999899999990987
 31
0.0
1001
ACAD
1000
ASC_BOUNDS
1002
{
1070
    19
1005
228C3
1002
}
  0
LINE
  5
22898
330
2287F
100
AcDbEntity
  8
0
100
AcDbLine
 10
6.432999999993513
 20
8.763099999991255
 30
0.0
 11
3.181999999996833
 21
4.668599999995308
 31
0.0
1001
ACAD
1000
ASC_BOUNDS
1002
{
1070
    19
1005
228C2
1002
}
  0
LINE
  5
22899
330
2287F
100
AcDbEntity
  8
0
100
AcDbLine
 10
4.617999999995391
 20
8.763099999991255
 30
0.0
 11
1.420999999998571
 21
4.736799999995242
 31
0.0
1001
ACAD
1000
ASC_BOUNDS
1002
{
1070
    19
1005
228C2
1002
}
  0
LINE
  5
2289A
330
2287F
100
AcDbEntity
  8
0
100
AcDbLine
 10
0.0
 20
8.763099999991255
 30
0.0
 11
1.420999999998571
 21
8.763099999991255
 31
0.0
1001
ACAD
1000
ASC_BOUNDS
1002
{
1070
    19
1005
228C7
1002
}
  0
LINE
  5
2289B
330
2287F
100
AcDbEntity
  8
0
100
AcDbLine
 10
4.617999999995391
 20
8.763099999991255
 30
0.0
 11
6.432999999993513
 21
8.763099999991255
 31
0.0
1001
ACAD
1000
ASC_BOUNDS
1002
{
1070
    19
1005
228C2
1002
}
  0
LINE
  5
2289C
330
2287F
100
AcDbEntity
  8
0
100
AcDbLine
 10
14.32399999998563
 20
3.315799999996671
 30
0.0
 11
12.02999999998792
 21
8.763099999991255
 31
0.0
1001
ACAD
1000
ASC_BOUNDS
1002
{
1070
    19
1005
228C3
1002
}
  0
LINE
  5
2289D
330
2287F
100
AcDbEntity
  8
0
100
AcDbLine
 10
10.06399999998996
 20
3.670999999996297
 30
0.0
 11
9.236999999990758
 21
5.5200999999945
 31
0.0
1001
ACAD
1000
ASC_BOUNDS
1002
{
1070
    19
1005
228C2
1002
}
  0
LINE
  5
2289E
330
2287F
100
AcDbEntity
  8
0
100
AcDbLine
 10
8.409999999991555
 20
3.670999999996297
 30
0.0
 11
9.236999999990758
 21
5.5200999999945
 31
0.0
1001
ACAD
1000
ASC_BOUNDS
1002
{
1070
    19
1005
228C2
1002
}
  0
LINE
  5
2289F
330
2287F
100
AcDbEntity
  8
0
100
AcDbLine
 10
8.409999999991555
 20
3.670999999996297
 30
0.0
 11
10.06399999998996
 21
3.670999999996297
 31
0.0
1001
ACAD
1000
ASC_BOUNDS
1002
{
1070
    19
1005
228C2
1002
}
  0
LINE
  5
228A0
330
2287F
100
AcDbEntity
  8
0
100
AcDbLine
 10
10.53899999998941
 20
8.763099999991255
 30
0.0
 11
12.02999999998792
 21
8.763099999991255
 31
0.0
1001
ACAD
1000
ASC_BOUNDS
1002
{
1070
    19
1005
228C3
1002
}
  0
LINE
  5
228A1
330
2287F
100
AcDbEntity
  8
0
100
AcDbLine
 10
22.7389999999773
 20
3.670999999996297
 30
0.0
 11
23.56599999997638
 21
5.5200999999945
 31
0.0
1001
ACAD
1000
ASC_BOUNDS
1002
{
1070
    19
1005
228C4
1002
}
  0
LINE
  5
228A2
330
2287F
100
AcDbEntity
  8
0
100
AcDbLine
 10
22.7389999999773
 20
3.670999999996297
 30
0.0
 11
24.39299999997559
 21
3.670999999996297
 31
0.0
1001
ACAD
1000
ASC_BOUNDS
1002
{
1070
    19
1005
228C4
1002
}
  0
LINE
  5
228A3
330
2287F
100
AcDbEntity
  8
0
100
AcDbLine
 10
18.59799999998143
 20
3.315799999996671
 30
0.0
 11
20.89099999997916
 21
8.763099999991255
 31
0.0
1001
ACAD
1000
ASC_BOUNDS
1002
{
1070
    19
1005
228C3
1002
}
  0
LINE
  5
228A4
330
2287F
100
AcDbEntity
  8
0
100
AcDbLine
 10
18.59799999998143
 20
3.315799999996671
 30
0.0
 11
16.46099999998353
 21
8.999899999990987
 31
0.0
1001
ACAD
1000
ASC_BOUNDS
1002
{
1070
    19
1005
228C3
1002
}
  0
LINE
  5
228A5
330
2287F
100
AcDbEntity
  8
0
100
AcDbLine
 10
20.89099999997916
 20
8.763099999991255
 30
0.0
 11
22.38199999997767
 21
8.763099999991255
 31
0.0
1001
ACAD
1000
ASC_BOUNDS
1002
{
1070
    19
1005
228C3
1002
}
  0
LINE
  5
228A6
330
2287F
100
AcDbEntity
  8
0
100
AcDbLine
 10
24.39299999997559
 20
3.670999999996297
 30
0.0
 11
23.56599999997638
 21
5.5200999999945
 31
0.0
1001
ACAD
1000
ASC_BOUNDS
1002
{
1070
    19
1005
228C4
1002
}
  0
LINE
  5
228A7
330
2287F
100
AcDbEntity
  8
0
100
AcDbLine
 10
44.99999999995498
 20
-0.2368999999997641
 30
0.0
 11
40.02599999995994
 21
5.341799999994635
 31
0.0
1001
ACAD
1000
ASC_BOUNDS
1002
{
1070
    19
1005
228C6
1002
}
  0
LINE
  5
228A8
330
2287F
100
AcDbEntity
  8
0
100
AcDbLine
 10
40.02599999995994
 20
5.341799999994635
 30
0.0
 11
40.02599999995994
 21
0.0
 31
0.0
1001
ACAD
1000
ASC_BOUNDS
1002
{
1070
    19
1005
228C6
1002
}
  0
LINE
  5
228A9
330
2287F
100
AcDbEntity
  8
0
100
AcDbLine
 10
38.60499999996136
 20
8.999999999991019
 30
0.0
 11
38.60499999996136
 21
0.0
 31
0.0
1001
ACAD
1000
ASC_BOUNDS
1002
{
1070
    19
1005
228C6
1002
}
  0
LINE
  5
228AA
330
2287F
100
AcDbEntity
  8
0
100
AcDbLine
 10
44.99999999995498
 20
8.763099999991255
 30
0.0
 11
44.99999999995498
 21
-0.2368999999997641
 31
0.0
1001
ACAD
1000
ASC_BOUNDS
1002
{
1070
    19
1005
228C6
1002
}
  0
LINE
  5
228AB
330
2287F
100
AcDbEntity
  8
0
100
AcDbLine
 10
38.60499999996136
 20
0.0
 30
0.0
 11
40.02599999995994
 21
0.0
 31
0.0
1001
ACAD
1000
ASC_BOUNDS
1002
{
1070
    19
1005
228C6
1002
}
  0
LINE
  5
228AC
330
2287F
100
AcDbEntity
  8
0
100
AcDbLine
 10
43.57899999995641
 20
3.421199999996588
 30
0.0
 11
38.60499999996136
 21
8.999899999990987
 31
0.0
1001
ACAD
1000
ASC_BOUNDS
1002
{
1070
    19
1005
228C6
1002
}
  0
LINE
  5
228AD
330
2287F
100
AcDbEntity
  8
0
100
AcDbLine
 10
43.57899999995641
 20
8.763099999991255
 30
0.0
 11
43.57899999995641
 21
3.421199999996588
 31
0.0
1001
ACAD
1000
ASC_BOUNDS
1002
{
1070
    19
1005
228C6
1002
}
  0
LINE
  5
228AE
330
2287F
100
AcDbEntity
  8
0
100
AcDbLine
 10
43.57899999995641
 20
8.763099999991255
 30
0.0
 11
44.99999999995498
 21
8.763099999991255
 31
0.0
1001
ACAD
1000
ASC_BOUNDS
1002
{
1070
    19
1005
228C6
1002
}
  0
LINE
  5
228AF
330
2287F
100
AcDbEntity
  8
0
100
AcDbLine
 10
37.67199999996831
 20
8.763099999991255
 30
0.0
 11
36.23199999996837
 21
8.763099999991255
 31
0.0
  0
LINE
  5
228B0
330
2287F
100
AcDbEntity
  8
0
100
AcDbLine
 10
31.64199999996833
 20
8.763099999991255
 30
0.0
 11
31.64199999996833
 21
2.481619422925121
 31
0.0
  0
LINE
  5
228B1
330
2287F
100
AcDbEntity
  8
0
100
AcDbLine
 10
37.67199999996831
 20
8.763099999991255
 30
0.0
 11
37.67199999996831
 21
2.481619422925121
 31
0.0
  0
LINE
  5
228B2
330
2287F
100
AcDbEntity
  8
0
100
AcDbLine
 10
36.23199999996837
 20
8.763099999991255
 30
0.0
 11
36.23199999996837
 21
2.481619422925064
 31
0.0
  0
LINE
  5
228B3
330
2287F
100
AcDbEntity
  8
0
100
AcDbLine
 10
33.08199999996839
 20
8.763099999991255
 30
0.0
 11
33.08199999996839
 21
2.481619422925121
 31
0.0
  0
ARC
  5
228B4
330
2287F
100
AcDbEntity
  8
0
100
AcDbCircle
 10
34.65699999996832
 20
3.183099999991214
 30
0.0
 40
3.420000000000007
100
AcDbArc
 50
240.0000000000255
 51
299.9999999999766
  0
ARC
  5
228B5
330
2287F
100
AcDbEntity
  8
0
100
AcDbCircle
 10
34.65699999996832
 20
3.183099999991214
 30
0.0
 40
1.97999999999999
100
AcDbArc
 50
240.000000000026
 51
299.9999999999703
  0
LINE
  5
228B6
330
2287F
100
AcDbEntity
  8
0
100
AcDbLine
 10
33.08199999996828
 20
8.763099999991255
 30
0.0
 11
31.64199999996833
 21
8.763099999991255
 31
0.0
  0
ARC
  5
228B7
330
2287F
100
AcDbEntity
  8
0
100
AcDbCircle
 10
35.06199999996829
 20
2.481619422925064
 30
0.0
 40
1.17
100
AcDbArc
 50
299.9999999999699
 51
0.0
  0
ARC
  5
228B8
330
2287F
100
AcDbEntity
  8
0
100
AcDbCircle
 10
34.25199999996835
 20
2.481619422925121
 30
0.0
 40
1.17
100
AcDbArc
 50
180.0
 51
240.0000000000238
  0
ARC
  5
228B9
330
2287F
100
AcDbEntity
  8
0
100
AcDbCircle
 10
35.06199999996841
 20
2.481619422925121
 30
0.0
 40
2.61
100
AcDbArc
 50
299.9999999999756
 51
0.0
  0
ARC
  5
228BA
330
2287F
100
AcDbEntity
  8
0
100
AcDbCircle
 10
34.25199999996835
 20
2.481619422925121
 30
0.0
 40
2.61
100
AcDbArc
 50
180.0
 51
240.0000000000244
  0
LINE
  5
228BB
330
2287F
100
AcDbEntity
  8
0
100
AcDbLine
 10
29.30199999996933
 20
8.763099999991255
 30
0.0
 11
30.74199999996927
 21
8.763099999991255
 31
0.0
1001
ACAD
1000
ASC_BOUNDS
1002
{
1070
    19
1005
228C4
1002
}
  0
LINE
  5
228BC
330
2287F
100
AcDbEntity
  8
0
100
AcDbLine
 10
30.74199999996927
 20
8.763099999991255
 30
0.0
 11
30.74199999996927
 21
2.373099999991211
 31
0.0
1001
ACAD
1000
ASC_BOUNDS
1002
{
1070
    19
1005
228C4
1002
}
  0
LINE
  5
228BD
330
2287F
100
AcDbEntity
  8
0
100
AcDbLine
 10
26.02015566812236
 20
0.0330999999912365
 30
0.0
 11
28.40199999996923
 21
0.0330999999912365
 31
0.0
1001
ACAD
1000
ASC_BOUNDS
1002
{
1070
    19
1005
228C4
1002
}
  0
LINE
  5
228BE
330
2287F
100
AcDbEntity
  8
0
100
AcDbLine
 10
29.30199999996933
 20
8.763099999991255
 30
0.0
 11
29.30199999996933
 21
2.283099999991236
 31
0.0
1001
ACAD
1000
ASC_BOUNDS
1002
{
1070
    19
1005
228C4
1002
}
  0
LINE
  5
228BF
330
2287F
100
AcDbEntity
  8
0
100
AcDbLine
 10
26.97358892824991
 20
1.383099999991202
 30
0.0
 11
28.40199999996923
 21
1.383099999991202
 31
0.0
1001
ACAD
1000
ASC_BOUNDS
1002
{
1070
    19
1005
228C4
1002
}
  0
ARC
  5
228C0
330
2287F
100
AcDbEntity
  8
0
100
AcDbCircle
 10
28.40199999996923
 20
2.283099999991236
 30
0.0
 40
0.9
100
AcDbArc
 50
270.0
 51
0.0
1001
ACAD
1000
ASC_BOUNDS
1002
{
1070
    19
1005
228C4
1002
}
  0
ARC
  5
228C1
330
2287F
100
AcDbEntity
  8
0
100
AcDbCircle
 10
28.40199999996923
 20
2.373099999991211
 30
0.0
 40
2.34
100
AcDbArc
 50
270.0
 51
0.0
1001
ACAD
1000
ASC_BOUNDS
1002
{
1070
    19
1005
228C4
1002
}
  0
INSERT
  5
228C2
330
2287F
100
AcDbEntity
  8
0
100
AcDbBlockReference
  2
*X266
 10
0.0
 20
0.0
 30
0.0
1001
ACAD
1000
HATCH
1002
{
1070
    19
1000
ANSI37
1040
0.15
1040
0.0
1000
ASC_BOUNDS
1070
     2
1070
     2
1070
    12
1005
22881
1005
22882
1005
22889
1005
22898
1005
2289B
1005
22899
1005
2288A
1005
2288F
1005
2288D
1005
22891
1005
22890
1005
22892
1070
     2
1070
     3
1005
2289D
1005
2289F
1005
2289E
1000
ASC_SEEDPOINT
1011
3.614004224891801
1021
2.996669441146025
1031
0.0
1000
R14_HATCH_DATA
1000
228C2
1011
1.0
1021
0.0
1031
0.0
1011
0.0
1021
1.0
1031
0.0
1011
0.0
1021
0.0
1031
1.0
1040
0.0
1010
0.0
1020
0.0
1030
1.0
1000
ANSI37
1070
     0
1070
     1
1071
        2
1071
        7
1070
     0
1070
     1
1071
       17
1040
13.26299999998673
1040
-0.0001000000000317
1040
9.236999999990758
1040
8.999899999990987
1040
9.236999999990758
1040
8.999999999991019
1040
5.657999999994331
1040
0.9999999999989768
1040
3.181999999996833
1040
4.668599999995308
1040
6.432999999993513
1040
8.763099999991255
1040
4.617999999995391
1040
8.763099999991255
1040
1.420999999998571
1040
4.736799999995242
1040
4.617999999995391
1040
-0.0001000000000317
1040
4.617999999995391
1040
0.0
1040
6.766999999993232
1040
0.0
1040
6.766999999993232
1040
-0.0001000000000317
1040
7.826999999992154
1040
2.368399999997621
1040
10.64699999998936
1040
2.368399999997621
1040
11.70599999998831
1040
-0.0001000000000317
1040
11.70599999998831
1040
0.0
1040
13.26299999998673
1040
0.0
1071
       12
1005
22881
1005
22882
1005
22889
1005
22898
1005
2289B
1005
22899
1005
2288A
1005
2288F
1005
2288D
1005
22891
1005
22890
1005
22892
1071
       22
1070
     0
1070
     1
1071
        3
1040
9.236999999990758
1040
5.5200999999945
1040
10.06399999998996
1040
3.670999999996297
1040
8.409999999991555
1040
3.670999999996297
1071
        3
1005
2289D
1005
2289F
1005
2289E
1070
     0
1070
     1
1040
0.0
1040
0.15
1070
     0
1070
     2
1040
0.7853981633974483
1040
49.29960901727088
1040
-10.17736998311392
1040
-0.3367596045400932
1040
0.3367596045400932
1070
     0
1040
2.356194490192345
1040
49.29960901727088
1040
-10.17736998311392
1040
-0.3367596045400932
1040
-0.3367596045400932
1070
     0
1040
0.0110235143455945
1071
        2
1040
3.614004224891801
1040
2.996669441146025
1040
0.0
1040
3.614004224891801
1040
2.996669441146025
1040
0.0
1002
}
  0
INSERT
  5
228C3
330
2287F
100
AcDbEntity
  8
0
100
AcDbBlockReference
  2
*X267
 10
0.0
 20
0.0
 30
0.0
1001
ACAD
1000
HATCH
1002
{
1070
    19
1000
ANSI37
1040
0.15
1040
0.0
1000
ASC_BOUNDS
1070
     1
1070
     2
1070
    10
1005
22883
1005
22884
1005
228A5
1005
228A3
1005
228A4
1005
22897
1005
2289C
1005
228A0
1005
22886
1005
22885
1000
ASC_SEEDPOINT
1011
14.73245321214324
1021
2.798246178283421
1031
0.0
1000
R14_HATCH_DATA
1000
228C3
1011
1.0
1021
0.0
1031
0.0
1011
0.0
1021
1.0
1031
0.0
1011
0.0
1021
0.0
1031
1.0
1040
0.0
1010
0.0
1020
0.0
1030
1.0
1000
ANSI37
1070
     0
1070
     1
1071
        1
1071
        7
1070
     0
1070
     1
1071
       10
1040
16.46099999998353
1040
5.432899999994561
1040
18.59199999998134
1040
-0.2368999999997641
1040
22.38199999997767
1040
8.763099999991255
1040
20.89099999997916
1040
8.763099999991255
1040
18.59799999998143
1040
3.315799999996671
1040
16.46099999998353
1040
8.999899999990987
1040
14.32399999998563
1040
3.315799999996671
1040
12.02999999998792
1040
8.763099999991255
1040
10.53899999998941
1040
8.763099999991255
1040
14.32899999998563
1040
-0.2368999999997641
1071
       10
1005
22883
1005
22884
1005
228A5
1005
228A3
1005
228A4
1005
22897
1005
2289C
1005
228A0
1005
22886
1005
22885
1070
     0
1070
     1
1040
0.0
1040
0.15
1070
     0
1070
     2
1040
0.7853981633974483
1040
49.29960901727088
1040
-10.17736998311392
1040
-0.3367596045400932
1040
0.3367596045400932
1070
     0
1040
2.356194490192345
1040
49.29960901727088
1040
-10.17736998311392
1040
-0.3367596045400932
1040
-0.3367596045400932
1070
     0
1040
0.0110235143455945
1071
        1
1040
14.73245321214324
1040
2.798246178283421
1040
0.0
1002
}
  0
INSERT
  5
228C4
330
2287F
100
AcDbEntity
  8
0
100
AcDbBlockReference
  2
*X268
 10
0.0
 20
0.0
 30
0.0
1001
ACAD
1000
HATCH
1002
{
1070
    19
1000
ANSI37
1040
0.15
1040
0.0
1000
ASC_BOUNDS
1070
     2
1070
     2
1070
    13
1005
22887
1005
22894
1005
22895
1005
22893
1005
22896
1005
228BD
1005
228C1
1005
228BC
1005
228BB
1005
228BE
1005
228C0
1005
228BF
1005
22888
1070
     2
1070
     3
1005
228A1
1005
228A6
1005
228A2
1000
ASC_SEEDPOINT
1011
21.97929957367762
1021
3.294304244259308
1031
0.0
1000
R14_HATCH_DATA
1000
228C4
1011
1.0
1021
0.0
1031
0.0
1011
0.0
1021
1.0
1031
0.0
1011
0.0
1021
0.0
1031
1.0
1040
0.0
1010
0.0
1020
0.0
1030
1.0
1000
ANSI37
1070
     0
1070
     1
1071
        2
1071
        7
1070
     1
1070
     1
1071
       15
1040
23.56599999997638
1040
8.999899999990987
1040
0.0
1040
19.53899999998043
1040
-0.0001000000000317
1040
0.0
1040
19.53899999998043
1040
0.0
1040
0.0
1040
21.09599999997886
1040
0.0
1040
0.0
1040
21.09599999997886
1040
-0.0001000000000317
1040
0.0
1040
22.15599999997789
1040
2.368399999997621
1040
0.0
1040
24.97599999997499
1040
2.368399999997621
1040
0.0
1040
26.02015566812236
1040
0.0330999999912365
1040
0.0
1040
28.40199999996923
1040
0.0330999999912365
1040
0.414213562373095
1040
30.74199999996923
1040
2.373099999991211
1040
0.0
1040
30.74199999996927
1040
8.763099999991255
1040
0.0
1040
29.30199999996933
1040
8.763099999991255
1040
0.0
1040
29.30199999996933
1040
2.283099999991236
1040
-0.414213562373095
1040
28.40199999996923
1040
1.383099999991237
1040
0.0
1040
26.97358892824991
1040
1.383099999991202
1040
0.0
1071
       13
1005
22887
1005
22894
1005
22895
1005
22893
1005
22896
1005
228BD
1005
228C1
1005
228BC
1005
228BB
1005
228BE
1005
228C0
1005
228BF
1005
22888
1071
       22
1070
     0
1070
     1
1071
        3
1040
22.7389999999773
1040
3.670999999996297
1040
23.56599999997638
1040
5.5200999999945
1040
24.39299999997559
1040
3.670999999996297
1071
        3
1005
228A1
1005
228A6
1005
228A2
1070
     0
1070
     1
1040
0.0
1040
0.15
1070
     0
1070
     2
1040
0.7853981633974483
1040
49.29960901727088
1040
-10.17736998311392
1040
-0.3367596045400932
1040
0.3367596045400932
1070
     0
1040
2.356194490192345
1040
49.29960901727088
1040
-10.17736998311392
1040
-0.3367596045400932
1040
-0.3367596045400932
1070
     0
1040
0.0110235143455945
1071
        2
1040
21.97929957367762
1040
3.294304244259308
1040
0.0
1040
21.97929957367762
1040
3.294304244259308
1040
0.0
1002
}
  0
INSERT
  5
228C5
330
2287F
100
AcDbEntity
  8
0
100
AcDbBlockReference
  2
*X269
 10
0.0
 20
0.0
 30
0.0
1001
ACAD
1000
HATCH
1002
{
1070
    19
1000
ANSI37
1040
0.15
1040
0.0
1000
R14_HATCH_DATA
1000
228C5
1011
1.0
1021
0.0
1031
0.0
1011
0.0
1021
1.0
1031
0.0
1011
0.0
1021
0.0
1031
1.0
1040
0.0
1010
0.0
1020
0.0
1030
1.0
1000
ANSI37
1070
     0
1070
     1
1071
        1
1071
        7
1070
     1
1070
     1
1071
       12
1040
31.64199999996833
1040
2.481619422925121
1040
0.2679491924310942
1040
32.94699999997067
1040
0.2212931190493919
1040
0.2679491924301353
1040
36.36699999995983
1040
0.2212931190459813
1040
0.2679491924321411
1040
37.67199999996831
1040
2.481619422928361
1040
0.0
1040
37.67199999996831
1040
8.763099999991255
1040
0.0
1040
36.23199999996837
1040
8.763099999991255
1040
0.0
1040
36.23199999996837
1040
2.481619422925064
1040
-0.2679491924310291
1040
35.64699999996708
1040
1.468369700498386
1040
-0.267949192430519
1040
33.66699999997093
1040
1.468369700497703
1040
-0.267949192431809
1040
33.08199999996839
1040
2.481619422926997
1040
0.0
1040
33.08199999996839
1040
8.763099999991255
1040
0.0
1040
31.64199999996833
1040
8.763099999991255
1040
0.0
1071
        0
1070
     0
1070
     1
1040
0.0
1040
0.15
1070
     0
1070
     2
1040
0.7853981633974483
1040
49.29960901727088
1040
-10.17736998311392
1040
-0.3367596045400932
1040
0.3367596045400932
1070
     0
1040
2.356194490192345
1040
49.29960901727088
1040
-10.17736998311392
1040
-0.3367596045400932
1040
-0.3367596045400932
1070
     0
1040
0.0110235143455945
1071
        1
1040
32.30357378967278
1040
3.988785755459219
1040
0.0
1002
}
  0
INSERT
  5
228C6
330
2287F
100
AcDbEntity
  8
0
100
AcDbBlockReference
  2
*X270
 10
0.0
 20
0.0
 30
0.0
1001
ACAD
1000
HATCH
1002
{
1070
    19
1000
ANSI37
1040
0.15
1040
0.0
1000
ASC_BOUNDS
1070
     1
1070
     2
1070
     8
1005
228A7
1005
228AA
1005
228AE
1005
228AD
1005
228AC
1005
228A9
1005
228AB
1005
228A8
1000
ASC_SEEDPOINT
1011
39.74896370716704
1021
4.484843821435049
1031
0.0
1000
R14_HATCH_DATA
1000
228C6
1011
1.0
1021
0.0
1031
0.0
1011
0.0
1021
1.0
1031
0.0
1011
0.0
1021
0.0
1031
1.0
1040
0.0
1010
0.0
1020
0.0
1030
1.0
1000
ANSI37
1070
     0
1070
     1
1071
        1
1071
        7
1070
     0
1070
     1
1071
        9
1040
40.02599999995994
1040
5.341799999994635
1040
44.99999999995498
1040
-0.2368999999997641
1040
44.99999999995498
1040
8.763099999991255
1040
43.57899999995641
1040
8.763099999991255
1040
43.57899999995641
1040
3.421199999996588
1040
38.60499999996136
1040
8.999899999990987
1040
38.60499999996136
1040
8.999999999991019
1040
38.60499999996136
1040
0.0
1040
40.02599999995994
1040
0.0
1071
        8
1005
228A7
1005
228AA
1005
228AE
1005
228AD
1005
228AC
1005
228A9
1005
228AB
1005
228A8
1070
     0
1070
     1
1040
0.0
1040
0.15
1070
     0
1070
     2
1040
0.7853981633974483
1040
49.29960901727088
1040
-10.17736998311392
1040
-0.3367596045400932
1040
0.3367596045400932
1070
     0
1040
2.356194490192345
1040
49.29960901727088
1040
-10.17736998311392
1040
-0.3367596045400932
1040
-0.3367596045400932
1070
     0
1040
0.0110235143455945
1071
        1
1040
39.74896370716704
1040
4.484843821435049
1040
0.0
1002
}
  0
INSERT
  5
228C7
330
2287F
100
AcDbEntity
  8
0
100
AcDbBlockReference
  2
*X271
 10
0.0
 20
0.0
 30
0.0
1001
ACAD
1000
HATCH
1002
{
1070
    19
1000
ANSI37
1040
0.15
1040
0.0
1000
ASC_BOUNDS
1070
     1
1070
     2
1070
     4
1005
2288B
1005
2289A
1005
2288C
1005
2288E
1000
ASC_SEEDPOINT
1011
1.079051535452663
1021
4.148538732891836
1031
0.0
1000
R14_HATCH_DATA
1000
228C7
1011
1.0
1021
0.0
1031
0.0
1011
0.0
1021
1.0
1031
0.0
1011
0.0
1021
0.0
1031
1.0
1040
0.0
1010
0.0
1020
0.0
1030
1.0
1000
ANSI37
1070
     0
1070
     1
1071
        1
1071
        7
1070
     0
1070
     1
1071
        4
1040
1.420999999998571
1040
0.0
1040
1.420999999998571
1040
8.763099999991255
1040
0.0
1040
8.763099999991255
1040
0.0
1040
0.0
1071
        4
1005
2288B
1005
2289A
1005
2288C
1005
2288E
1070
     0
1070
     1
1040
0.0
1040
0.15
1070
     0
1070
     2
1040
0.7853981633974483
1040
49.29960901727088
1040
-10.17736998311392
1040
-0.3367596045400932
1040
0.3367596045400932
1070
     0
1040
2.356194490192345
1040
49.29960901727088
1040
-10.17736998311392
1040
-0.3367596045400932
1040
-0.3367596045400932
1070
     0
1040
0.0053004257112761
1071
        1
1040
1.079051535452663
1040
4.148538732891836
1040
0.0
1002
}
  0
ENDBLK
  5
22F92
330
2287F
100
AcDbEntity
  8
0
100
AcDbBlockEnd
  0
BLOCK
  5
23384
330
231F6
100
AcDbEntity
  8
0
100
AcDbBlockBegin
  2
*X266
 70
     1
 10
0.0
 20
0.0
 30
0.0
  3
*X266
  1

  0
LINE
  5
231F7
330
231F6
100
AcDbEntity
  8
0
  6
CONTINUOUS
100
AcDbLine
 10
3.418023043697893
 20
7.251849696850613
 30
0.0
 11
4.929273346838536
 21
8.763099999991255
 31
0.0
  0
LINE
  5
231F8
330
231F6
100
AcDbEntity
  8
0
  6
CONTINUOUS
100
AcDbLine
 10
1.483656411257782
 20
4.643963855330318
 30
0.0
 11
5.60279255591872
 21
8.763099999991255
 31
0.0
  0
LINE
  5
231F9
330
231F6
100
AcDbEntity
  8
0
  6
CONTINUOUS
100
AcDbLine
 10
1.755053947328235
 20
4.241842182320584
 30
0.0
 11
6.276311764998907
 21
8.763099999991255
 31
0.0
  0
LINE
  5
231FA
330
231F6
100
AcDbEntity
  8
0
  6
CONTINUOUS
100
AcDbLine
 10
2.026451483398688
 20
3.839720509310849
 30
0.0
 11
4.441040904851878
 21
6.254309930764039
 31
0.0
  0
LINE
  5
231FB
330
231F6
100
AcDbEntity
  8
0
  6
CONTINUOUS
100
AcDbLine
 10
2.297849019469139
 20
3.437598836301114
 30
0.0
 11
3.321765168359338
 21
4.461514985191313
 31
0.0
  0
LINE
  5
231FC
330
231F6
100
AcDbEntity
  8
0
  6
CONTINUOUS
100
AcDbLine
 10
2.569246555539591
 20
3.03547716329138
 30
0.0
 11
3.593163397972743
 21
4.059394005724531
 31
0.0
  0
LINE
  5
231FD
330
231F6
100
AcDbEntity
  8
0
  6
CONTINUOUS
100
AcDbLine
 10
2.840644091610043
 20
2.633355490281646
 30
0.0
 11
3.864561627586149
 21
3.657273026257751
 31
0.0
  0
LINE
  5
231FE
330
231F6
100
AcDbEntity
  8
0
  6
CONTINUOUS
100
AcDbLine
 10
3.112041627680496
 20
2.231233817271911
 30
0.0
 11
4.135959857199554
 21
3.25515204679097
 31
0.0
  0
LINE
  5
231FF
330
231F6
100
AcDbEntity
  8
0
  6
CONTINUOUS
100
AcDbLine
 10
3.383439163750948
 20
1.829112144262177
 30
0.0
 11
4.40735808681296
 21
2.853031067324189
 31
0.0
  0
LINE
  5
23200
330
231F6
100
AcDbEntity
  8
0
  6
CONTINUOUS
100
AcDbLine
 10
3.654836699821399
 20
1.426990471252442
 30
0.0
 11
4.678756316426365
 21
2.450910087857407
 31
0.0
  0
LINE
  5
23201
330
231F6
100
AcDbEntity
  8
0
  6
CONTINUOUS
100
AcDbLine
 10
3.926234235891853
 20
1.024868798242709
 30
0.0
 11
4.95015454603977
 21
2.048789108390626
 31
0.0
  0
LINE
  5
23202
330
231F6
100
AcDbEntity
  8
0
  6
CONTINUOUS
100
AcDbLine
 10
4.197631771962304
 20
0.6227471252329737
 30
0.0
 11
5.221552775653176
 21
1.646668128923846
 31
0.0
  0
LINE
  5
23203
330
231F6
100
AcDbEntity
  8
0
  6
CONTINUOUS
100
AcDbLine
 10
8.715877546767851
 20
7.835069736359266
 30
0.0
 11
9.435953450375058
 21
8.555145639966472
 31
0.0
  0
LINE
  5
23204
330
231F6
100
AcDbEntity
  8
0
  6
CONTINUOUS
100
AcDbLine
 10
8.170620868422267
 20
6.616293848933497
 30
0.0
 11
9.644120833743461
 21
8.08979381425469
 31
0.0
  0
LINE
  5
23205
330
231F6
100
AcDbEntity
  8
0
  6
CONTINUOUS
100
AcDbLine
 10
7.625364190076684
 20
5.397517961507727
 30
0.0
 11
9.852288217111864
 21
7.624441988542907
 31
0.0
  0
LINE
  5
23206
330
231F6
100
AcDbEntity
  8
0
  6
CONTINUOUS
100
AcDbLine
 10
7.080107511731101
 20
4.178742074081957
 30
0.0
 11
10.06045560048027
 21
7.159090162831124
 31
0.0
  0
LINE
  5
23207
330
231F6
100
AcDbEntity
  8
0
  6
CONTINUOUS
100
AcDbLine
 10
6.534850833385518
 20
2.959966186656187
 30
0.0
 11
10.26862298384867
 21
6.693738337119342
 31
0.0
  0
LINE
  5
23208
330
231F6
100
AcDbEntity
  8
0
  6
CONTINUOUS
100
AcDbLine
 10
4.469029308032756
 20
0.2206254522232385
 30
0.0
 11
5.492951005266582
 21
1.244547149457064
 31
0.0
  0
LINE
  5
23209
330
231F6
100
AcDbEntity
  8
0
  6
CONTINUOUS
100
AcDbLine
 10
5.989594155039935
 20
1.741190299230417
 30
0.0
 11
8.806950407233131
 21
4.558546551423613
 31
0.0
  0
LINE
  5
2320A
330
231F6
100
AcDbEntity
  8
0
  6
CONTINUOUS
100
AcDbLine
 10
9.401251593263643
 20
5.152847737454126
 30
0.0
 11
10.47679036721708
 21
6.228386511407559
 31
0.0
  0
LINE
  5
2320B
330
231F6
100
AcDbEntity
  8
0
  6
CONTINUOUS
100
AcDbLine
 10
4.921837203428691
 20
-0.0000858614610131
 30
0.0
 11
8.592923064886001
 21
3.670999999996297
 31
0.0
  0
LINE
  5
2320C
330
231F6
100
AcDbEntity
  8
0
  6
CONTINUOUS
100
AcDbLine
 10
9.609390446785305
 20
4.6874673818956
 30
0.0
 11
10.68495775058548
 21
5.763034685695775
 31
0.0
  0
LINE
  5
2320D
330
231F6
100
AcDbEntity
  8
0
  6
CONTINUOUS
100
AcDbLine
 10
5.595387755019432
 20
-0.0000545189504582
 30
0.0
 11
7.716137258923768
 21
2.120694984953879
 31
0.0
  0
LINE
  5
2320E
330
231F6
100
AcDbEntity
  8
0
  6
CONTINUOUS
100
AcDbLine
 10
6.268938306610172
 20
-0.000023176439905
 30
0.0
 11
7.170485805526503
 21
0.9015243224764267
 31
0.0
  0
LINE
  5
2320F
330
231F6
100
AcDbEntity
  8
0
  6
CONTINUOUS
100
AcDbLine
 10
7.963842273967511
 20
2.368399999997621
 30
0.0
 11
9.266442273966188
 21
3.670999999996297
 31
0.0
  0
LINE
  5
23210
330
231F6
100
AcDbEntity
  8
0
  6
CONTINUOUS
100
AcDbLine
 10
8.637361483047696
 20
2.368399999997621
 30
0.0
 11
9.939961483046375
 21
3.670999999996297
 31
0.0
  0
LINE
  5
23211
330
231F6
100
AcDbEntity
  8
0
  6
CONTINUOUS
100
AcDbLine
 10
9.817529300306965
 20
4.222087026337075
 30
0.0
 11
10.89312513395388
 21
5.297682859983993
 31
0.0
  0
LINE
  5
23212
330
231F6
100
AcDbEntity
  8
0
  6
CONTINUOUS
100
AcDbLine
 10
10.02566815382863
 20
3.756706670778549
 30
0.0
 11
11.10129251732229
 21
4.832331034272211
 31
0.0
  0
LINE
  5
23213
330
231F6
100
AcDbEntity
  8
0
  6
CONTINUOUS
100
AcDbLine
 10
9.310880692127883
 20
2.368399999997621
 30
0.0
 11
11.30945990069069
 21
4.366979208560428
 31
0.0
  0
LINE
  5
23214
330
231F6
100
AcDbEntity
  8
0
  6
CONTINUOUS
100
AcDbLine
 10
9.98439990120807
 20
2.36839999999762
 30
0.0
 11
11.5176272840591
 21
3.901627382848645
 31
0.0
  0
LINE
  5
23215
330
231F6
100
AcDbEntity
  8
0
  6
CONTINUOUS
100
AcDbLine
 10
10.65037369446246
 20
2.36085458417182
 30
0.0
 11
11.7257946674275
 21
3.436275557136862
 31
0.0
  0
LINE
  5
23216
330
231F6
100
AcDbEntity
  8
0
  6
CONTINUOUS
100
AcDbLine
 10
10.85847197087848
 20
1.895433651507656
 30
0.0
 11
11.9339620507959
 21
2.97092373142508
 31
0.0
  0
LINE
  5
23217
330
231F6
100
AcDbEntity
  8
0
  6
CONTINUOUS
100
AcDbLine
 10
11.0665702472945
 20
1.430012718843491
 30
0.0
 11
12.14212943416431
 21
2.505571905713296
 31
0.0
  0
LINE
  5
23218
330
231F6
100
AcDbEntity
  8
0
  6
CONTINUOUS
100
AcDbLine
 10
11.27466852371052
 20
0.9645917861793256
 30
0.0
 11
12.35029681753271
 21
2.040220080001513
 31
0.0
  0
LINE
  5
23219
330
231F6
100
AcDbEntity
  8
0
  6
CONTINUOUS
100
AcDbLine
 10
11.48276680012654
 20
0.4991708535151611
 30
0.0
 11
12.55846420090111
 21
1.57486825428973
 31
0.0
  0
LINE
  5
2321A
330
231F6
100
AcDbEntity
  8
0
  6
CONTINUOUS
100
AcDbLine
 10
11.69086507654257
 20
0.0337499208509957
 30
0.0
 11
12.76663158426952
 21
1.109516428577947
 31
0.0
  0
LINE
  5
2321B
330
231F6
100
AcDbEntity
  8
0
  6
CONTINUOUS
100
AcDbLine
 10
12.33057447873954
 20
-0.0000598860322123
 30
0.0
 11
12.97479896763792
 21
0.6441646028661663
 31
0.0
  0
LINE
  5
2321C
330
231F6
100
AcDbEntity
  8
0
  6
CONTINUOUS
100
AcDbLine
 10
13.00413694809395
 20
-0.0000166257579952
 30
0.0
 11
13.18296635100632
 21
0.1788127771543824
 31
0.0
  0
LINE
  5
2321D
330
231F6
100
AcDbEntity
  8
0
  6
CONTINUOUS
100
AcDbLine
 10
4.772852165289667
 20
-0.000092794222212
 30
0.0
 11
4.296495091028902
 21
0.4762642800385528
 31
0.0
  0
LINE
  5
2321E
330
231F6
100
AcDbEntity
  8
0
  6
CONTINUOUS
100
AcDbLine
 10
5.446340034776103
 20
-0.0000614546284616
 30
0.0
 11
2.898195908335625
 21
2.548082671812017
 31
0.0
  0
LINE
  5
2321F
330
231F6
100
AcDbEntity
  8
0
  6
CONTINUOUS
100
AcDbLine
 10
6.119827904262539
 20
-0.0000301150347113
 30
0.0
 11
1.499896725642348
 21
4.61990106358548
 31
0.0
  0
LINE
  5
23220
330
231F6
100
AcDbEntity
  8
0
  6
CONTINUOUS
100
AcDbLine
 10
6.775136745476159
 20
0.0181802528318542
 30
0.0
 11
5.699826040202669
 21
1.093490958105344
 31
0.0
  0
LINE
  5
23221
330
231F6
100
AcDbEntity
  8
0
  6
CONTINUOUS
100
AcDbLine
 10
6.983376846288489
 20
0.4834593610997118
 30
0.0
 11
5.908008617934405
 21
1.558827589453796
 31
0.0
  0
LINE
  5
23222
330
231F6
100
AcDbEntity
  8
0
  6
CONTINUOUS
100
AcDbLine
 10
5.377063484962296
 20
1.416253513345719
 30
0.0
 11
1.702276957014131
 21
5.091040041293883
 31
0.0
  0
LINE
  5
23223
330
231F6
100
AcDbEntity
  8
0
  6
CONTINUOUS
100
AcDbLine
 10
3.978745891735324
 20
3.488090315652877
 30
0.0
 11
2.000373521109399
 21
5.466462686278803
 31
0.0
  0
LINE
  5
23224
330
231F6
100
AcDbEntity
  8
0
  6
CONTINUOUS
100
AcDbLine
 10
7.191616947100819
 20
0.948738469367568
 30
0.0
 11
6.11619119566614
 21
2.024164220802247
 31
0.0
  0
LINE
  5
23225
330
231F6
100
AcDbEntity
  8
0
  6
CONTINUOUS
100
AcDbLine
 10
7.399857047913149
 20
1.414017577635424
 30
0.0
 11
6.324373773397875
 21
2.489500852150698
 31
0.0
  0
LINE
  5
23226
330
231F6
100
AcDbEntity
  8
0
  6
CONTINUOUS
100
AcDbLine
 10
7.608097148725479
 20
1.879296685903281
 30
0.0
 11
6.53255635112961
 21
2.95483748349915
 31
0.0
  0
LINE
  5
23227
330
231F6
100
AcDbEntity
  8
0
  6
CONTINUOUS
100
AcDbLine
 10
7.816337249537808
 20
2.344575794171138
 30
0.0
 11
6.740738928861345
 21
3.420174114847601
 31
0.0
  0
LINE
  5
23228
330
231F6
100
AcDbEntity
  8
0
  6
CONTINUOUS
100
AcDbLine
 10
3.310241080789734
 20
4.830114335678653
 30
0.0
 11
2.298470085204666
 21
5.84188533126372
 31
0.0
  0
LINE
  5
23229
330
231F6
100
AcDbEntity
  8
0
  6
CONTINUOUS
100
AcDbLine
 10
3.60832983563551
 20
5.205544789913063
 30
0.0
 11
2.596566649299935
 21
6.217307976248638
 31
0.0
  0
LINE
  5
2322A
330
231F6
100
AcDbEntity
  8
0
  6
CONTINUOUS
100
AcDbLine
 10
3.906418590481286
 20
5.580975244147473
 30
0.0
 11
2.894663213395203
 21
6.592730621233557
 31
0.0
  0
LINE
  5
2322B
330
231F6
100
AcDbEntity
  8
0
  6
CONTINUOUS
100
AcDbLine
 10
4.204507345327062
 20
5.956405698381884
 30
0.0
 11
3.192759777490472
 21
6.968153266218474
 31
0.0
  0
LINE
  5
2322C
330
231F6
100
AcDbEntity
  8
0
  6
CONTINUOUS
100
AcDbLine
 10
8.466032252791512
 20
2.368399999997621
 30
0.0
 11
6.948921506593081
 21
3.885510746196053
 31
0.0
  0
LINE
  5
2322D
330
231F6
100
AcDbEntity
  8
0
  6
CONTINUOUS
100
AcDbLine
 10
9.139551461871699
 20
2.36839999999762
 30
0.0
 11
7.157104084324816
 21
4.350847377544504
 31
0.0
  0
LINE
  5
2322E
330
231F6
100
AcDbEntity
  8
0
  6
CONTINUOUS
100
AcDbLine
 10
4.502596100172839
 20
6.331836152616295
 30
0.0
 11
3.49085634158574
 21
7.343575911203393
 31
0.0
  0
LINE
  5
2322F
330
231F6
100
AcDbEntity
  8
0
  6
CONTINUOUS
100
AcDbLine
 10
4.800684855018615
 20
6.707266606850705
 30
0.0
 11
3.788952905681008
 21
7.718998556188312
 31
0.0
  0
LINE
  5
23230
330
231F6
100
AcDbEntity
  8
0
  6
CONTINUOUS
100
AcDbLine
 10
12.18154012887317
 20
-0.0000694579236642
 30
0.0
 11
11.32140332908496
 21
0.8600673418645499
 31
0.0
  0
LINE
  5
23231
330
231F6
100
AcDbEntity
  8
0
  6
CONTINUOUS
100
AcDbLine
 10
12.85501608323566
 20
-0.0000262032059659
 30
0.0
 11
10.77672456435345
 21
2.078265315676246
 31
0.0
  0
LINE
  5
23232
330
231F6
100
AcDbEntity
  8
0
  6
CONTINUOUS
100
AcDbLine
 10
9.813070670951886
 20
2.36839999999762
 30
0.0
 11
8.51047067095321
 21
3.670999999996297
 31
0.0
  0
LINE
  5
23233
330
231F6
100
AcDbEntity
  8
0
  6
CONTINUOUS
100
AcDbLine
 10
10.48658988003207
 20
2.36839999999762
 30
0.0
 11
9.183989880033396
 21
3.670999999996297
 31
0.0
  0
LINE
  5
23234
330
231F6
100
AcDbEntity
  8
0
  6
CONTINUOUS
100
AcDbLine
 10
8.441048632286794
 20
3.740422038662712
 30
0.0
 11
7.365286662056551
 21
4.816184008892956
 31
0.0
  0
LINE
  5
23235
330
231F6
100
AcDbEntity
  8
0
  6
CONTINUOUS
100
AcDbLine
 10
8.649187485808454
 20
4.205802394221237
 30
0.0
 11
7.573469239788285
 21
5.281520640241407
 31
0.0
  0
LINE
  5
23236
330
231F6
100
AcDbEntity
  8
0
  6
CONTINUOUS
100
AcDbLine
 10
5.098773609864391
 20
7.082697061085115
 30
0.0
 11
4.087049469776277
 21
8.09442120117323
 31
0.0
  0
LINE
  5
23237
330
231F6
100
AcDbEntity
  8
0
  6
CONTINUOUS
100
AcDbLine
 10
5.396862364710167
 20
7.458127515319526
 30
0.0
 11
4.385146033871544
 21
8.469843846158149
 31
0.0
  0
LINE
  5
23238
330
231F6
100
AcDbEntity
  8
0
  6
CONTINUOUS
100
AcDbLine
 10
13.04801363231285
 20
0.4804954567970334
 30
0.0
 11
9.85750908911358
 21
3.670999999996297
 31
0.0
  0
LINE
  5
23239
330
231F6
100
AcDbEntity
  8
0
  6
CONTINUOUS
100
AcDbLine
 10
8.857326339330116
 20
4.671182749779763
 30
0.0
 11
7.781651817520021
 21
5.746857271589858
 31
0.0
  0
LINE
  5
2323A
330
231F6
100
AcDbEntity
  8
0
  6
CONTINUOUS
100
AcDbLine
 10
5.694951119555943
 20
7.833557969553937
 30
0.0
 11
4.765409089118624
 21
8.763099999991255
 31
0.0
  0
LINE
  5
2323B
330
231F6
100
AcDbEntity
  8
0
  6
CONTINUOUS
100
AcDbLine
 10
12.50286117236978
 20
1.699167125820288
 30
0.0
 11
9.68611877250287
 21
4.515909525687196
 31
0.0
  0
LINE
  5
2323C
330
231F6
100
AcDbEntity
  8
0
  6
CONTINUOUS
100
AcDbLine
 10
9.065465192851777
 20
5.136563105338288
 30
0.0
 11
7.989834395251757
 21
6.21219390293831
 31
0.0
  0
LINE
  5
2323D
330
231F6
100
AcDbEntity
  8
0
  6
CONTINUOUS
100
AcDbLine
 10
5.993039874401719
 20
8.208988423788346
 30
0.0
 11
5.43892829819881
 21
8.763099999991255
 31
0.0
  0
LINE
  5
2323E
330
231F6
100
AcDbEntity
  8
0
  6
CONTINUOUS
100
AcDbLine
 10
11.95770871242671
 20
2.917838794843543
 30
0.0
 11
8.19801697298349
 21
6.677530534286761
 31
0.0
  0
LINE
  5
2323F
330
231F6
100
AcDbEntity
  8
0
  6
CONTINUOUS
100
AcDbLine
 10
6.291128629247495
 20
8.584418878022756
 30
0.0
 11
6.112447507278997
 21
8.763099999991255
 31
0.0
  0
LINE
  5
23240
330
231F6
100
AcDbEntity
  8
0
  6
CONTINUOUS
100
AcDbLine
 10
11.41255625248364
 20
4.136510463866797
 30
0.0
 11
8.406199550715227
 21
7.142867165635211
 31
0.0
  0
LINE
  5
23241
330
231F6
100
AcDbEntity
  8
0
  6
CONTINUOUS
100
AcDbLine
 10
10.86740379254057
 20
5.355182132890051
 30
0.0
 11
8.614382128446962
 21
7.608203796983664
 31
0.0
  0
LINE
  5
23242
330
231F6
100
AcDbEntity
  8
0
  6
CONTINUOUS
100
AcDbLine
 10
10.3222513325975
 20
6.573853801913305
 30
0.0
 11
8.822564706178696
 21
8.073540428332114
 31
0.0
  0
LINE
  5
23243
330
231F6
100
AcDbEntity
  8
0
  6
CONTINUOUS
100
AcDbLine
 10
9.777098872654436
 20
7.792525470936562
 30
0.0
 11
9.030747283910433
 21
8.538877059680566
 31
0.0
  0
ENDBLK
  5
23385
330
231F6
100
AcDbEntity
  8
0
100
AcDbBlockEnd
  0
BLOCK
  5
23386
330
23244
100
AcDbEntity
  8
0
100
AcDbBlockBegin
  2
*X267
 70
     1
 10
0.0
 20
0.0
 30
0.0
  3
*X267
  1

  0
LINE
  5
23245
330
23244
100
AcDbEntity
  8
0
  6
CONTINUOUS
100
AcDbLine
 10
10.67292308101235
 20
8.445076852443387
 30
0.0
 11
10.99094622856022
 21
8.763099999991255
 31
0.0
  0
LINE
  5
23246
330
23244
100
AcDbEntity
  8
0
  6
CONTINUOUS
100
AcDbLine
 10
10.87250383178748
 20
7.971138394138331
 30
0.0
 11
11.6644654376404
 21
8.763099999991255
 31
0.0
  0
LINE
  5
23247
330
23244
100
AcDbEntity
  8
0
  6
CONTINUOUS
100
AcDbLine
 10
11.07208458256261
 20
7.497199935833273
 30
0.0
 11
12.12126590876355
 21
8.546381262034211
 31
0.0
  0
LINE
  5
23248
330
23244
100
AcDbEntity
  8
0
  6
CONTINUOUS
100
AcDbLine
 10
11.27166533333774
 20
7.023261477528216
 30
0.0
 11
12.32085164573666
 21
8.072447789927136
 31
0.0
  0
LINE
  5
23249
330
23244
100
AcDbEntity
  8
0
  6
CONTINUOUS
100
AcDbLine
 10
11.47124608411287
 20
6.549323019223158
 30
0.0
 11
12.52043738270977
 21
7.59851431782006
 31
0.0
  0
LINE
  5
2324A
330
23244
100
AcDbEntity
  8
0
  6
CONTINUOUS
100
AcDbLine
 10
11.670826834888
 20
6.075384560918101
 30
0.0
 11
12.72002311968288
 21
7.124580845712984
 31
0.0
  0
LINE
  5
2324B
330
23244
100
AcDbEntity
  8
0
  6
CONTINUOUS
100
AcDbLine
 10
11.87040758566313
 20
5.601446102613043
 30
0.0
 11
12.91960885665599
 21
6.650647373605907
 31
0.0
  0
LINE
  5
2324C
330
23244
100
AcDbEntity
  8
0
  6
CONTINUOUS
100
AcDbLine
 10
12.06998833643825
 20
5.127507644307986
 30
0.0
 11
13.1191945936291
 21
6.176713901498832
 31
0.0
  0
LINE
  5
2324D
330
23244
100
AcDbEntity
  8
0
  6
CONTINUOUS
100
AcDbLine
 10
12.26956908721338
 20
4.65356918600293
 30
0.0
 11
13.31878033060221
 21
5.702780429391757
 31
0.0
  0
LINE
  5
2324E
330
23244
100
AcDbEntity
  8
0
  6
CONTINUOUS
100
AcDbLine
 10
12.46914983798851
 20
4.179630727697873
 30
0.0
 11
13.51836606757532
 21
5.228846957284683
 31
0.0
  0
LINE
  5
2324F
330
23244
100
AcDbEntity
  8
0
  6
CONTINUOUS
100
AcDbLine
 10
12.66873058876364
 20
3.705692269392816
 30
0.0
 11
13.71795180454843
 21
4.754913485177607
 31
0.0
  0
LINE
  5
23250
330
23244
100
AcDbEntity
  8
0
  6
CONTINUOUS
100
AcDbLine
 10
12.86831133953877
 20
3.231753811087759
 30
0.0
 11
13.91753754152154
 21
4.280980013070531
 31
0.0
  0
LINE
  5
23251
330
23244
100
AcDbEntity
  8
0
  6
CONTINUOUS
100
AcDbLine
 10
13.0678920903139
 20
2.757815352782702
 30
0.0
 11
14.11712327849465
 21
3.807046540963456
 31
0.0
  0
LINE
  5
23252
330
23244
100
AcDbEntity
  8
0
  6
CONTINUOUS
100
AcDbLine
 10
13.26747284108903
 20
2.283876894477644
 30
0.0
 11
14.31670901546777
 21
3.333113068856379
 31
0.0
  0
LINE
  5
23253
330
23244
100
AcDbEntity
  8
0
  6
CONTINUOUS
100
AcDbLine
 10
16.36767838827179
 20
8.751678487061342
 30
0.0
 11
16.50332410898388
 21
8.887324207773432
 31
0.0
  0
LINE
  5
23254
330
23244
100
AcDbEntity
  8
0
  6
CONTINUOUS
100
AcDbLine
 10
15.96190732182191
 20
7.67238821153127
 30
0.0
 11
16.68735328004734
 21
8.397834169756699
 31
0.0
  0
LINE
  5
23255
330
23244
100
AcDbEntity
  8
0
  6
CONTINUOUS
100
AcDbLine
 10
15.55613625537202
 20
6.593097936001196
 30
0.0
 11
16.87138245111079
 21
7.908344131739965
 31
0.0
  0
LINE
  5
23256
330
23244
100
AcDbEntity
  8
0
  6
CONTINUOUS
100
AcDbLine
 10
15.15036518892213
 20
5.513807660471122
 30
0.0
 11
17.05541162217424
 21
7.418854093723231
 31
0.0
  0
LINE
  5
23257
330
23244
100
AcDbEntity
  8
0
  6
CONTINUOUS
100
AcDbLine
 10
14.74459412247225
 20
4.434517384941048
 30
0.0
 11
17.2394407932377
 21
6.929364055706499
 31
0.0
  0
LINE
  5
23258
330
23244
100
AcDbEntity
  8
0
  6
CONTINUOUS
100
AcDbLine
 10
14.33882305602236
 20
3.355227109410975
 30
0.0
 11
17.42346996430115
 21
6.439874017689766
 31
0.0
  0
LINE
  5
23259
330
23244
100
AcDbEntity
  8
0
  6
CONTINUOUS
100
AcDbLine
 10
13.46705359186416
 20
1.809938436172586
 30
0.0
 11
16.0819338255367
 21
4.424818669845129
 31
0.0
  0
LINE
  5
2325A
330
23244
100
AcDbEntity
  8
0
  6
CONTINUOUS
100
AcDbLine
 10
16.63283254238972
 20
4.975717386698149
 30
0.0
 11
17.60749913536461
 21
5.950383979673033
 31
0.0
  0
LINE
  5
2325B
330
23244
100
AcDbEntity
  8
0
  6
CONTINUOUS
100
AcDbLine
 10
13.66663434263929
 20
1.335999977867529
 30
0.0
 11
15.67604797733754
 21
3.345413612565779
 31
0.0
  0
LINE
  5
2325C
330
23244
100
AcDbEntity
  8
0
  6
CONTINUOUS
100
AcDbLine
 10
13.86621509341442
 20
0.8620615195624723
 30
0.0
 11
15.27016212913838
 21
2.26600855528643
 31
0.0
  0
LINE
  5
2325D
330
23244
100
AcDbEntity
  8
0
  6
CONTINUOUS
100
AcDbLine
 10
16.81682257348267
 20
4.486188208710908
 30
0.0
 11
17.79152830642806
 21
5.460893941656299
 31
0.0
  0
LINE
  5
2325E
330
23244
100
AcDbEntity
  8
0
  6
CONTINUOUS
100
AcDbLine
 10
17.00081260457561
 20
3.996659030723667
 30
0.0
 11
17.97555747749151
 21
4.971403903639565
 31
0.0
  0
LINE
  5
2325F
330
23244
100
AcDbEntity
  8
0
  6
CONTINUOUS
100
AcDbLine
 10
20.74362343514722
 20
8.412989070375462
 30
0.0
 11
21.09373436476302
 21
8.763099999991256
 31
0.0
  0
LINE
  5
23260
330
23244
100
AcDbEntity
  8
0
  6
CONTINUOUS
100
AcDbLine
 10
20.25401257174777
 20
7.249858997895826
 30
0.0
 11
21.7672535738432
 21
8.763099999991255
 31
0.0
  0
LINE
  5
23261
330
23244
100
AcDbEntity
  8
0
  6
CONTINUOUS
100
AcDbLine
 10
14.06579584418955
 20
0.3881230612574149
 30
0.0
 11
14.86427628093921
 21
1.186603498007082
 31
0.0
  0
LINE
  5
23262
330
23244
100
AcDbEntity
  8
0
  6
CONTINUOUS
100
AcDbLine
 10
14.26537659496467
 20
-0.0858153970476412
 30
0.0
 11
14.45839043274005
 21
0.1071984407277329
 31
0.0
  0
LINE
  5
23263
330
23244
100
AcDbEntity
  8
0
  6
CONTINUOUS
100
AcDbLine
 10
17.18480263566856
 20
3.507129852736426
 30
0.0
 11
18.15958664855496
 21
4.481913865622833
 31
0.0
  0
LINE
  5
23264
330
23244
100
AcDbEntity
  8
0
  6
CONTINUOUS
100
AcDbLine
 10
17.3687926667615
 20
3.017600674749186
 30
0.0
 11
18.34361581961842
 21
3.9924238276061
 31
0.0
  0
LINE
  5
23265
330
23244
100
AcDbEntity
  8
0
  6
CONTINUOUS
100
AcDbLine
 10
19.76440170834832
 20
6.086728925416191
 30
0.0
 11
22.33924590259489
 21
8.661573119662755
 31
0.0
  0
LINE
  5
23266
330
23244
100
AcDbEntity
  8
0
  6
CONTINUOUS
100
AcDbLine
 10
19.27479084494887
 20
4.923598852936555
 30
0.0
 11
21.84929622842713
 21
7.498104236414807
 31
0.0
  0
LINE
  5
23267
330
23244
100
AcDbEntity
  8
0
  6
CONTINUOUS
100
AcDbLine
 10
17.55278269785445
 20
2.528071496761945
 30
0.0
 11
18.52764499068187
 21
3.502933789589366
 31
0.0
  0
LINE
  5
23268
330
23244
100
AcDbEntity
  8
0
  6
CONTINUOUS
100
AcDbLine
 10
18.78517998154942
 20
3.760468780456919
 30
0.0
 11
21.35934655425936
 21
6.33463535316686
 31
0.0
  0
LINE
  5
23269
330
23244
100
AcDbEntity
  8
0
  6
CONTINUOUS
100
AcDbLine
 10
17.73677272894739
 20
2.038542318774704
 30
0.0
 11
20.8693968800916
 21
5.171166469918914
 31
0.0
  0
LINE
  5
2326A
330
23244
100
AcDbEntity
  8
0
  6
CONTINUOUS
100
AcDbLine
 10
17.92076276004034
 20
1.549013140787464
 30
0.0
 11
20.37944720592384
 21
4.007697586670968
 31
0.0
  0
LINE
  5
2326B
330
23244
100
AcDbEntity
  8
0
  6
CONTINUOUS
100
AcDbLine
 10
18.10475279113329
 20
1.059483962800223
 30
0.0
 11
19.88949753175608
 21
2.84422870342302
 31
0.0
  0
LINE
  5
2326C
330
23244
100
AcDbEntity
  8
0
  6
CONTINUOUS
100
AcDbLine
 10
18.28874282222623
 20
0.5699547848129822
 30
0.0
 11
19.39954785758832
 21
1.680759820175074
 31
0.0
  0
LINE
  5
2326D
330
23244
100
AcDbEntity
  8
0
  6
CONTINUOUS
100
AcDbLine
 10
18.47273285331918
 20
0.0804256068257416
 30
0.0
 11
18.90959818342056
 21
0.517290936927127
 31
0.0
  0
LINE
  5
2326E
330
23244
100
AcDbEntity
  8
0
  6
CONTINUOUS
100
AcDbLine
 10
14.3590401358224
 20
-0.1570118376323384
 30
0.0
 11
14.24903296539946
 21
-0.0470046672093929
 31
0.0
  0
LINE
  5
2326F
330
23244
100
AcDbEntity
  8
0
  6
CONTINUOUS
100
AcDbLine
 10
14.54309291258661
 20
0.332454594683643
 30
0.0
 11
13.75908329123172
 21
1.116464216038529
 31
0.0
  0
LINE
  5
23270
330
23244
100
AcDbEntity
  8
0
  6
CONTINUOUS
100
AcDbLine
 10
14.72714568935081
 20
0.8219210269996244
 30
0.0
 11
13.26913361706399
 21
2.27993309928645
 31
0.0
  0
LINE
  5
23271
330
23244
100
AcDbEntity
  8
0
  6
CONTINUOUS
100
AcDbLine
 10
14.91119846611502
 20
1.311387459315606
 30
0.0
 11
12.77918394289625
 21
3.443401982534371
 31
0.0
  0
LINE
  5
23272
330
23244
100
AcDbEntity
  8
0
  6
CONTINUOUS
100
AcDbLine
 10
15.09525124287922
 20
1.800853891631587
 30
0.0
 11
12.28923426872852
 21
4.606870865782293
 31
0.0
  0
LINE
  5
23273
330
23244
100
AcDbEntity
  8
0
  6
CONTINUOUS
100
AcDbLine
 10
15.27930401964343
 20
2.290320323947569
 30
0.0
 11
11.79928459456078
 21
5.770339749030213
 31
0.0
  0
LINE
  5
23274
330
23244
100
AcDbEntity
  8
0
  6
CONTINUOUS
100
AcDbLine
 10
15.46335679640763
 20
2.77978675626355
 30
0.0
 11
14.48885470994921
 21
3.754288842721972
 31
0.0
  0
LINE
  5
23275
330
23244
100
AcDbEntity
  8
0
  6
CONTINUOUS
100
AcDbLine
 10
13.88507249233704
 20
4.358071060334137
 30
0.0
 11
11.30933492039305
 21
6.933808632278135
 31
0.0
  0
LINE
  5
23276
330
23244
100
AcDbEntity
  8
0
  6
CONTINUOUS
100
AcDbLine
 10
18.75840522805855
 20
0.1582575336928151
 30
0.0
 11
18.25383727664818
 21
0.6628254851031863
 31
0.0
  0
LINE
  5
23277
330
23244
100
AcDbEntity
  8
0
  6
CONTINUOUS
100
AcDbLine
 10
15.64740957317184
 20
3.269253188579531
 30
0.0
 11
14.67288388101266
 21
4.243778880738705
 31
0.0
  0
LINE
  5
23278
330
23244
100
AcDbEntity
  8
0
  6
CONTINUOUS
100
AcDbLine
 10
13.39509276772158
 20
5.521569994029786
 30
0.0
 11
10.81938524622531
 21
8.097277515526056
 31
0.0
  0
LINE
  5
23279
330
23244
100
AcDbEntity
  8
0
  6
CONTINUOUS
100
AcDbLine
 10
18.95798597883369
 20
0.6321959919978686
 30
0.0
 11
17.84825644852853
 21
1.741925522303024
 31
0.0
  0
LINE
  5
2327A
330
23244
100
AcDbEntity
  8
0
  6
CONTINUOUS
100
AcDbLine
 10
19.15756672960882
 20
1.106134450302922
 30
0.0
 11
17.44267562040888
 21
2.821025559502861
 31
0.0
  0
LINE
  5
2327B
330
23244
100
AcDbEntity
  8
0
  6
CONTINUOUS
100
AcDbLine
 10
15.83146234993604
 20
3.758719620895513
 30
0.0
 11
14.85691305207612
 21
4.733268918755439
 31
0.0
  0
LINE
  5
2327C
330
23244
100
AcDbEntity
  8
0
  6
CONTINUOUS
100
AcDbLine
 10
16.01551512670025
 20
4.248186053211494
 30
0.0
 11
15.04094222313957
 21
5.222758956772172
 31
0.0
  0
LINE
  5
2327D
330
23244
100
AcDbEntity
  8
0
  6
CONTINUOUS
100
AcDbLine
 10
12.90511304310612
 20
6.685068927725435
 30
0.0
 11
10.8270819708403
 21
8.763099999991255
 31
0.0
  0
LINE
  5
2327E
330
23244
100
AcDbEntity
  8
0
  6
CONTINUOUS
100
AcDbLine
 10
12.41513331849066
 20
7.848567861421083
 30
0.0
 11
11.50060117992049
 21
8.763099999991255
 31
0.0
  0
LINE
  5
2327F
330
23244
100
AcDbEntity
  8
0
  6
CONTINUOUS
100
AcDbLine
 10
19.35714748038395
 20
1.580072908607975
 30
0.0
 11
17.03709479228923
 21
3.900125596702697
 31
0.0
  0
LINE
  5
23280
330
23244
100
AcDbEntity
  8
0
  6
CONTINUOUS
100
AcDbLine
 10
19.55672823115909
 20
2.054011366913028
 30
0.0
 11
16.63151396416958
 21
4.979225633902534
 31
0.0
  0
LINE
  5
23281
330
23244
100
AcDbEntity
  8
0
  6
CONTINUOUS
100
AcDbLine
 10
16.19956790346445
 20
4.737652485527476
 30
0.0
 11
15.22497139420302
 21
5.712248994788904
 31
0.0
  0
LINE
  5
23282
330
23244
100
AcDbEntity
  8
0
  6
CONTINUOUS
100
AcDbLine
 10
16.38362068022866
 20
5.227118917843457
 30
0.0
 11
15.40900056526648
 21
6.201739032805637
 31
0.0
  0
LINE
  5
23283
330
23244
100
AcDbEntity
  8
0
  6
CONTINUOUS
100
AcDbLine
 10
19.75630898193422
 20
2.527949825218081
 30
0.0
 11
18.70774536448286
 21
3.576513442669441
 31
0.0
  0
LINE
  5
23284
330
23244
100
AcDbEntity
  8
0
  6
CONTINUOUS
100
AcDbLine
 10
19.95588973270936
 20
3.001888283523134
 30
0.0
 11
18.90726987211446
 21
4.050508144118028
 31
0.0
  0
LINE
  5
23285
330
23244
100
AcDbEntity
  8
0
  6
CONTINUOUS
100
AcDbLine
 10
20.15547048348449
 20
3.475826741828186
 30
0.0
 11
19.10679437974606
 21
4.524502845566614
 31
0.0
  0
LINE
  5
23286
330
23244
100
AcDbEntity
  8
0
  6
CONTINUOUS
100
AcDbLine
 10
20.35505123425962
 20
3.94976520013324
 30
0.0
 11
19.30631888737766
 21
4.998497547015201
 31
0.0
  0
LINE
  5
23287
330
23244
100
AcDbEntity
  8
0
  6
CONTINUOUS
100
AcDbLine
 10
20.55463198503475
 20
4.423703658438292
 30
0.0
 11
19.50584339500926
 21
5.472492248463787
 31
0.0
  0
LINE
  5
23288
330
23244
100
AcDbEntity
  8
0
  6
CONTINUOUS
100
AcDbLine
 10
18.37481191085755
 20
3.909446896294752
 30
0.0
 11
15.59302973632993
 21
6.691229070822371
 31
0.0
  0
LINE
  5
23289
330
23244
100
AcDbEntity
  8
0
  6
CONTINUOUS
100
AcDbLine
 10
17.96904084440766
 20
4.988737171824825
 30
0.0
 11
15.77705890739338
 21
7.180719108839104
 31
0.0
  0
LINE
  5
2328A
330
23244
100
AcDbEntity
  8
0
  6
CONTINUOUS
100
AcDbLine
 10
17.56326977795777
 20
6.068027447354899
 30
0.0
 11
15.96108807845684
 21
7.670209146855838
 31
0.0
  0
LINE
  5
2328B
330
23244
100
AcDbEntity
  8
0
  6
CONTINUOUS
100
AcDbLine
 10
17.15749871150789
 20
7.147317722884972
 30
0.0
 11
16.14511724952029
 21
8.15969918487257
 31
0.0
  0
LINE
  5
2328C
330
23244
100
AcDbEntity
  8
0
  6
CONTINUOUS
100
AcDbLine
 10
16.751727645058
 20
8.226607998415046
 30
0.0
 11
16.32914642058374
 21
8.649189222889303
 31
0.0
  0
LINE
  5
2328D
330
23244
100
AcDbEntity
  8
0
  6
CONTINUOUS
100
AcDbLine
 10
20.75421273580989
 20
4.897642116743345
 30
0.0
 11
19.70536790264086
 21
5.946486949912374
 31
0.0
  0
LINE
  5
2328E
330
23244
100
AcDbEntity
  8
0
  6
CONTINUOUS
100
AcDbLine
 10
20.95379348658502
 20
5.371580575048398
 30
0.0
 11
19.90489241027246
 21
6.42048165136096
 31
0.0
  0
LINE
  5
2328F
330
23244
100
AcDbEntity
  8
0
  6
CONTINUOUS
100
AcDbLine
 10
21.15337423736015
 20
5.845519033353452
 30
0.0
 11
20.10441691790406
 21
6.894476352809547
 31
0.0
  0
LINE
  5
23290
330
23244
100
AcDbEntity
  8
0
  6
CONTINUOUS
100
AcDbLine
 10
21.35295498813529
 20
6.319457491658505
 30
0.0
 11
20.30394142553566
 21
7.368471054258134
 31
0.0
  0
LINE
  5
23291
330
23244
100
AcDbEntity
  8
0
  6
CONTINUOUS
100
AcDbLine
 10
21.55253573891042
 20
6.793395949963558
 30
0.0
 11
20.50346593316726
 21
7.842465755706721
 31
0.0
  0
LINE
  5
23292
330
23244
100
AcDbEntity
  8
0
  6
CONTINUOUS
100
AcDbLine
 10
21.75211648968556
 20
7.267334408268612
 30
0.0
 11
20.70299044079886
 21
8.316460457155308
 31
0.0
  0
LINE
  5
23293
330
23244
100
AcDbEntity
  8
0
  6
CONTINUOUS
100
AcDbLine
 10
21.95169724046069
 20
7.741272866573663
 30
0.0
 11
20.9298701070431
 21
8.763099999991256
 31
0.0
  0
LINE
  5
23294
330
23244
100
AcDbEntity
  8
0
  6
CONTINUOUS
100
AcDbLine
 10
22.15127799123582
 20
8.215211324878716
 30
0.0
 11
21.60338931612328
 21
8.763099999991256
 31
0.0
  0
LINE
  5
23295
330
23244
100
AcDbEntity
  8
0
  6
CONTINUOUS
100
AcDbLine
 10
22.35085874201096
 20
8.689149783183769
 30
0.0
 11
22.27690852520347
 21
8.763099999991255
 31
0.0
  0
ENDBLK
  5
23387
330
23244
100
AcDbEntity
  8
0
100
AcDbBlockEnd
  0
BLOCK
  5
23388
330
23296
100
AcDbEntity
  8
0
100
AcDbBlockBegin
  2
*X268
 70
     1
 10
0.0
 20
0.0
 30
0.0
  3
*X268
  1

  0
LINE
  5
23297
330
23296
100
AcDbEntity
  8
0
  6
CONTINUOUS
100
AcDbLine
 10
23.19462913593892
 20
8.169917934846424
 30
0.0
 11
23.70775465517246
 21
8.683043454079957
 31
0.0
  0
LINE
  5
23298
330
23296
100
AcDbEntity
  8
0
  6
CONTINUOUS
100
AcDbLine
 10
22.64923161835078
 20
6.951001208178088
 30
0.0
 11
23.9159364069932
 21
8.217705996820516
 31
0.0
  0
LINE
  5
23299
330
23296
100
AcDbEntity
  8
0
  6
CONTINUOUS
100
AcDbLine
 10
22.10383410076263
 20
5.732084481509751
 30
0.0
 11
24.12411815881395
 21
7.752368539561078
 31
0.0
  0
LINE
  5
2329A
330
23296
100
AcDbEntity
  8
0
  6
CONTINUOUS
100
AcDbLine
 10
21.55843658317447
 20
4.513167754841414
 30
0.0
 11
24.3322999106347
 21
7.287031082301639
 31
0.0
  0
LINE
  5
2329B
330
23296
100
AcDbEntity
  8
0
  6
CONTINUOUS
100
AcDbLine
 10
21.01303906558632
 20
3.294251028173077
 30
0.0
 11
24.54048166245544
 21
6.821693625042199
 31
0.0
  0
LINE
  5
2329C
330
23296
100
AcDbEntity
  8
0
  6
CONTINUOUS
100
AcDbLine
 10
20.46764154799817
 20
2.075334301504738
 30
0.0
 11
23.28571549467848
 21
4.89340824818505
 31
0.0
  0
LINE
  5
2329D
330
23296
100
AcDbEntity
  8
0
  6
CONTINUOUS
100
AcDbLine
 10
19.92224403041002
 20
0.8564175748364002
 30
0.0
 11
22.74075865492779
 21
3.674932199354171
 31
0.0
  0
LINE
  5
2329E
330
23296
100
AcDbEntity
  8
0
  6
CONTINUOUS
100
AcDbLine
 10
23.67305085490148
 20
5.280743608408048
 30
0.0
 11
24.74866341427619
 21
6.356356167782759
 31
0.0
  0
LINE
  5
2329F
330
23296
100
AcDbEntity
  8
0
  6
CONTINUOUS
100
AcDbLine
 10
23.88118970842314
 20
4.815363252849522
 30
0.0
 11
24.95684516609694
 21
5.89101871052332
 31
0.0
  0
LINE
  5
232A0
330
23296
100
AcDbEntity
  8
0
  6
CONTINUOUS
100
AcDbLine
 10
19.73925852647308
 20
-0.0000871381807288
 30
0.0
 11
23.4103456646501
 21
3.670999999996297
 31
0.0
  0
LINE
  5
232A1
330
23296
100
AcDbEntity
  8
0
  6
CONTINUOUS
100
AcDbLine
 10
24.0893285619448
 20
4.349982897290997
 30
0.0
 11
25.16502691791769
 21
5.42568125326388
 31
0.0
  0
LINE
  5
232A2
330
23296
100
AcDbEntity
  8
0
  6
CONTINUOUS
100
AcDbLine
 10
20.41282099582748
 20
-0.0000438779065108
 30
0.0
 11
21.64944178675636
 21
1.236576913022366
 31
0.0
  0
LINE
  5
232A3
330
23296
100
AcDbEntity
  8
0
  6
CONTINUOUS
100
AcDbLine
 10
22.78126487373161
 20
2.36839999999762
 30
0.0
 11
24.08386487373029
 21
3.670999999996297
 31
0.0
  0
LINE
  5
232A4
330
23296
100
AcDbEntity
  8
0
  6
CONTINUOUS
100
AcDbLine
 10
24.29746741546646
 20
3.884602541732471
 30
0.0
 11
25.37320866973843
 21
4.960343796004441
 31
0.0
  0
LINE
  5
232A5
330
23296
100
AcDbEntity
  8
0
  6
CONTINUOUS
100
AcDbLine
 10
21.08638346518189
 20
-0.0000006176322938
 30
0.0
 11
21.10379033335899
 21
0.0174062505448083
 31
0.0
  0
LINE
  5
232A6
330
23296
100
AcDbEntity
  8
0
  6
CONTINUOUS
100
AcDbLine
 10
23.4547840828118
 20
2.36839999999762
 30
0.0
 11
25.58139042155918
 21
4.495006338745002
 31
0.0
  0
LINE
  5
232A7
330
23296
100
AcDbEntity
  8
0
  6
CONTINUOUS
100
AcDbLine
 10
29.30199999996933
 20
8.215615917155148
 30
0.0
 11
29.84948408280543
 21
8.763099999991255
 31
0.0
  0
LINE
  5
232A8
330
23296
100
AcDbEntity
  8
0
  6
CONTINUOUS
100
AcDbLine
 10
24.12830329189199
 20
2.36839999999762
 30
0.0
 11
25.78957217337993
 21
4.029668881485562
 31
0.0
  0
LINE
  5
232A9
330
23296
100
AcDbEntity
  8
0
  6
CONTINUOUS
100
AcDbLine
 10
29.30199999996933
 20
7.54209670807496
 30
0.0
 11
30.52300329188562
 21
8.763099999991255
 31
0.0
  0
LINE
  5
232AA
330
23296
100
AcDbEntity
  8
0
  6
CONTINUOUS
100
AcDbLine
 10
24.80182250097217
 20
2.36839999999762
 30
0.0
 11
25.99775392520067
 21
3.564331424226122
 31
0.0
  0
LINE
  5
232AB
330
23296
100
AcDbEntity
  8
0
  6
CONTINUOUS
100
AcDbLine
 10
29.30199999996933
 20
6.868577498994774
 30
0.0
 11
30.74199999996926
 21
8.308577498994712
 31
0.0
  0
LINE
  5
232AC
330
23296
100
AcDbEntity
  8
0
  6
CONTINUOUS
100
AcDbLine
 10
25.13028238392013
 20
2.023340673865392
 30
0.0
 11
26.20593567702142
 21
3.098993966966683
 31
0.0
  0
LINE
  5
232AD
330
23296
100
AcDbEntity
  8
0
  6
CONTINUOUS
100
AcDbLine
 10
25.33838066033617
 20
1.557919741201244
 30
0.0
 11
26.41411742884217
 21
2.633656509707244
 31
0.0
  0
LINE
  5
232AE
330
23296
100
AcDbEntity
  8
0
  6
CONTINUOUS
100
AcDbLine
 10
25.54647893675221
 20
1.092498808537098
 30
0.0
 11
26.62229918066291
 21
2.168319052447804
 31
0.0
  0
LINE
  5
232AF
330
23296
100
AcDbEntity
  8
0
  6
CONTINUOUS
100
AcDbLine
 10
25.75457721316825
 20
0.62707787587295
 30
0.0
 11
26.83048093248366
 21
1.702981595188365
 31
0.0
  0
LINE
  5
232B0
330
23296
100
AcDbEntity
  8
0
  6
CONTINUOUS
100
AcDbLine
 10
29.30199999996933
 20
6.195058289914587
 30
0.0
 11
30.74199999996926
 21
7.635058289914522
 31
0.0
  0
LINE
  5
232B1
330
23296
100
AcDbEntity
  8
0
  6
CONTINUOUS
100
AcDbLine
 10
29.30199999996933
 20
5.521539080834401
 30
0.0
 11
30.74199999996926
 21
6.961539080834331
 31
0.0
  0
LINE
  5
232B2
330
23296
100
AcDbEntity
  8
0
  6
CONTINUOUS
100
AcDbLine
 10
29.30199999996933
 20
4.848019871754214
 30
0.0
 11
30.74199999996925
 21
6.288019871754143
 31
0.0
  0
LINE
  5
232B3
330
23296
100
AcDbEntity
  8
0
  6
CONTINUOUS
100
AcDbLine
 10
29.30199999996933
 20
4.174500662674028
 30
0.0
 11
30.74199999996925
 21
5.614500662673953
 31
0.0
  0
LINE
  5
232B4
330
23296
100
AcDbEntity
  8
0
  6
CONTINUOUS
100
AcDbLine
 10
25.96267548958429
 20
0.1616569432088024
 30
0.0
 11
27.18411854636669
 21
1.383099999991207
 31
0.0
  0
LINE
  5
232B5
330
23296
100
AcDbEntity
  8
0
  6
CONTINUOUS
100
AcDbLine
 10
29.30199999996933
 20
3.500981453593841
 30
0.0
 11
30.74199999996925
 21
4.940981453593762
 31
0.0
  0
LINE
  5
232B6
330
23296
100
AcDbEntity
  8
0
  6
CONTINUOUS
100
AcDbLine
 10
26.50763775544691
 20
0.0330999999912356
 30
0.0
 11
27.85763775544689
 21
1.383099999991223
 31
0.0
  0
LINE
  5
232B7
330
23296
100
AcDbEntity
  8
0
  6
CONTINUOUS
100
AcDbLine
 10
29.30199999996933
 20
2.827462244513656
 30
0.0
 11
30.74199999996925
 21
4.267462244513574
 31
0.0
  0
LINE
  5
232B8
330
23296
100
AcDbEntity
  8
0
  6
CONTINUOUS
100
AcDbLine
 10
27.18115696452709
 20
0.0330999999912356
 30
0.0
 11
28.6224847300034
 21
1.474427765467545
 31
0.0
  0
LINE
  5
232B9
330
23296
100
AcDbEntity
  8
0
  6
CONTINUOUS
100
AcDbLine
 10
29.21067223449293
 20
2.062615269957069
 30
0.0
 11
30.74199999996924
 21
3.593943035433383
 31
0.0
  0
LINE
  5
232BA
330
23296
100
AcDbEntity
  8
0
  6
CONTINUOUS
100
AcDbLine
 10
27.85467617360728
 20
0.0330999999912356
 30
0.0
 11
30.74199999996924
 21
2.920423826353195
 31
0.0
  0
LINE
  5
232BB
330
23296
100
AcDbEntity
  8
0
  6
CONTINUOUS
100
AcDbLine
 10
28.57438609860264
 20
0.0792907159064073
 30
0.0
 11
30.69580928405405
 21
2.200713901357819
 31
0.0
  0
LINE
  5
232BC
330
23296
100
AcDbEntity
  8
0
  6
CONTINUOUS
100
AcDbLine
 10
29.49443044814297
 20
0.3258158563665496
 30
0.0
 11
30.44928414359389
 21
1.280669551817477
 31
0.0
  0
LINE
  5
232BD
330
23296
100
AcDbEntity
  8
0
  6
CONTINUOUS
100
AcDbLine
 10
19.59027867740337
 20
-0.0000967065718083
 30
0.0
 11
19.55485265190471
 21
0.035329318926844
 31
0.0
  0
LINE
  5
232BE
330
23296
100
AcDbEntity
  8
0
  6
CONTINUOUS
100
AcDbLine
 10
20.26375463176586
 20
-0.0000534518541091
 30
0.0
 11
19.76305575737534
 21
0.5006454225364014
 31
0.0
  0
LINE
  5
232BF
330
23296
100
AcDbEntity
  8
0
  6
CONTINUOUS
100
AcDbLine
 10
20.93723058612834
 20
-0.0000101971364099
 30
0.0
 11
19.97125886284597
 21
0.965961526145958
 31
0.0
  0
LINE
  5
232C0
330
23296
100
AcDbEntity
  8
0
  6
CONTINUOUS
100
AcDbLine
 10
21.25514828313686
 20
0.355591314935257
 30
0.0
 11
20.1794619683166
 21
1.431277629755512
 31
0.0
  0
LINE
  5
232C1
330
23296
100
AcDbEntity
  8
0
  6
CONTINUOUS
100
AcDbLine
 10
21.46338838394921
 20
0.8208704232030986
 30
0.0
 11
20.38766507378723
 21
1.896593733365069
 31
0.0
  0
LINE
  5
232C2
330
23296
100
AcDbEntity
  8
0
  6
CONTINUOUS
100
AcDbLine
 10
21.67162848476155
 20
1.28614953147094
 30
0.0
 11
20.59586817925786
 21
2.361909836974626
 31
0.0
  0
LINE
  5
232C3
330
23296
100
AcDbEntity
  8
0
  6
CONTINUOUS
100
AcDbLine
 10
21.8798685855739
 20
1.751428639738782
 30
0.0
 11
20.80407128472849
 21
2.827225940584183
 31
0.0
  0
LINE
  5
232C4
330
23296
100
AcDbEntity
  8
0
  6
CONTINUOUS
100
AcDbLine
 10
22.08810868638624
 20
2.216707748006623
 30
0.0
 11
21.01227439019912
 21
3.292542044193739
 31
0.0
  0
LINE
  5
232C5
330
23296
100
AcDbEntity
  8
0
  6
CONTINUOUS
100
AcDbLine
 10
22.60993564347543
 20
2.36839999999762
 30
0.0
 11
21.22047749566975
 21
3.757858147803296
 31
0.0
  0
LINE
  5
232C6
330
23296
100
AcDbEntity
  8
0
  6
CONTINUOUS
100
AcDbLine
 10
23.28345485255561
 20
2.36839999999762
 30
0.0
 11
21.42868060114038
 21
4.223174251412853
 31
0.0
  0
LINE
  5
232C7
330
23296
100
AcDbEntity
  8
0
  6
CONTINUOUS
100
AcDbLine
 10
26.29227406164219
 20
0.0330999999912356
 30
0.0
 11
25.80009199592872
 21
0.5252820657046957
 31
0.0
  0
LINE
  5
232C8
330
23296
100
AcDbEntity
  8
0
  6
CONTINUOUS
100
AcDbLine
 10
23.9569740616358
 20
2.36839999999762
 30
0.0
 11
21.63688370661101
 21
4.688490355022409
 31
0.0
  0
LINE
  5
232C9
330
23296
100
AcDbEntity
  8
0
  6
CONTINUOUS
100
AcDbLine
 10
26.96579327072237
 20
0.0330999999912356
 30
0.0
 11
25.2554132311971
 21
1.743480039516508
 31
0.0
  0
LINE
  5
232CA
330
23296
100
AcDbEntity
  8
0
  6
CONTINUOUS
100
AcDbLine
 10
24.63049327071599
 20
2.36839999999762
 30
0.0
 11
23.32789327071731
 21
3.670999999996297
 31
0.0
  0
LINE
  5
232CB
330
23296
100
AcDbEntity
  8
0
  6
CONTINUOUS
100
AcDbLine
 10
22.92098674744635
 20
4.077906523267254
 30
0.0
 11
21.84508681208164
 21
5.153806458631966
 31
0.0
  0
LINE
  5
232CC
330
23296
100
AcDbEntity
  8
0
  6
CONTINUOUS
100
AcDbLine
 10
27.63931247980256
 20
0.0330999999912356
 30
0.0
 11
24.0014124797975
 21
3.670999999996297
 31
0.0
  0
LINE
  5
232CD
330
23296
100
AcDbEntity
  8
0
  6
CONTINUOUS
100
AcDbLine
 10
23.129125600968
 20
4.5432868788258
 30
0.0
 11
22.05328991755227
 21
5.619122562241522
 31
0.0
  0
LINE
  5
232CE
330
23296
100
AcDbEntity
  8
0
  6
CONTINUOUS
100
AcDbLine
 10
28.31283168888275
 20
0.0330999999912356
 30
0.0
 11
24.16488385994816
 21
4.181047828925828
 31
0.0
  0
LINE
  5
232CF
330
23296
100
AcDbEntity
  8
0
  6
CONTINUOUS
100
AcDbLine
 10
23.33726445448964
 20
5.008667234384345
 30
0.0
 11
22.2614930230229
 21
6.084438665851079
 31
0.0
  0
LINE
  5
232D0
330
23296
100
AcDbEntity
  8
0
  6
CONTINUOUS
100
AcDbLine
 10
28.86286302309502
 20
0.1565878748591523
 30
0.0
 11
27.63635089796295
 21
1.383099999991217
 31
0.0
  0
LINE
  5
232D1
330
23296
100
AcDbEntity
  8
0
  6
CONTINUOUS
100
AcDbLine
 10
26.43704649509776
 20
2.582404402856405
 30
0.0
 11
23.61992702019732
 21
5.399523877756844
 31
0.0
  0
LINE
  5
232D2
330
23296
100
AcDbEntity
  8
0
  6
CONTINUOUS
100
AcDbLine
 10
23.54540330801128
 20
5.47404758994289
 30
0.0
 11
22.46969612849353
 21
6.549754769460635
 31
0.0
  0
LINE
  5
232D3
330
23296
100
AcDbEntity
  8
0
  6
CONTINUOUS
100
AcDbLine
 10
29.39405087596853
 20
0.2989192310658284
 30
0.0
 11
28.30987010704312
 21
1.383099999991234
 31
0.0
  0
LINE
  5
232D4
330
23296
100
AcDbEntity
  8
0
  6
CONTINUOUS
100
AcDbLine
 10
25.89179548232307
 20
3.801174624711282
 30
0.0
 11
22.67789923396416
 21
7.015070873070191
 31
0.0
  0
LINE
  5
232D5
330
23296
100
AcDbEntity
  8
0
  6
CONTINUOUS
100
AcDbLine
 10
29.79594438047407
 20
0.570544935640473
 30
0.0
 11
28.81310432793121
 21
1.553384988183336
 31
0.0
  0
LINE
  5
232D6
330
23296
100
AcDbEntity
  8
0
  6
CONTINUOUS
100
AcDbLine
 10
25.34654446954838
 20
5.01994484656616
 30
0.0
 11
22.88610233943479
 21
7.480386976679748
 31
0.0
  0
LINE
  5
232D7
330
23296
100
AcDbEntity
  8
0
  6
CONTINUOUS
100
AcDbLine
 10
30.13270398501416
 20
0.9073045401805646
 30
0.0
 11
29.14234640337737
 21
1.897662121817355
 31
0.0
  0
LINE
  5
232D8
330
23296
100
AcDbEntity
  8
0
  6
CONTINUOUS
100
AcDbLine
 10
24.80129345677369
 20
6.238715068421037
 30
0.0
 11
23.09430544490542
 21
7.945703080289305
 31
0.0
  0
LINE
  5
232D9
330
23296
100
AcDbEntity
  8
0
  6
CONTINUOUS
100
AcDbLine
 10
30.44581292956759
 20
1.26771480470732
 30
0.0
 11
29.30199999996933
 21
2.411527734305588
 31
0.0
  0
LINE
  5
232DA
330
23296
100
AcDbEntity
  8
0
  6
CONTINUOUS
100
AcDbLine
 10
30.58814428577427
 20
1.798902657580827
 30
0.0
 11
29.30199999996933
 21
3.085046943385775
 31
0.0
  0
LINE
  5
232DB
330
23296
100
AcDbEntity
  8
0
  6
CONTINUOUS
100
AcDbLine
 10
24.256042443999
 20
7.457485290275915
 30
0.0
 11
23.30250855037605
 21
8.411019183898862
 31
0.0
  0
LINE
  5
232DC
330
23296
100
AcDbEntity
  8
0
  6
CONTINUOUS
100
AcDbLine
 10
23.71079143122431
 20
8.676255512130794
 30
0.0
 11
23.51071165584668
 21
8.876335287508418
 31
0.0
  0
LINE
  5
232DD
330
23296
100
AcDbEntity
  8
0
  6
CONTINUOUS
100
AcDbLine
 10
30.73047564198095
 20
2.330090510454333
 30
0.0
 11
29.30199999996933
 21
3.758566152465961
 31
0.0
  0
LINE
  5
232DE
330
23296
100
AcDbEntity
  8
0
  6
CONTINUOUS
100
AcDbLine
 10
30.74199999996924
 20
2.992085361546236
 30
0.0
 11
29.30199999996933
 21
4.432085361546148
 31
0.0
  0
LINE
  5
232DF
330
23296
100
AcDbEntity
  8
0
  6
CONTINUOUS
100
AcDbLine
 10
30.74199999996924
 20
3.665604570626419
 30
0.0
 11
29.30199999996933
 21
5.105604570626333
 31
0.0
  0
LINE
  5
232E0
330
23296
100
AcDbEntity
  8
0
  6
CONTINUOUS
100
AcDbLine
 10
30.74199999996925
 20
4.339123779706602
 30
0.0
 11
29.30199999996933
 21
5.77912377970652
 31
0.0
  0
LINE
  5
232E1
330
23296
100
AcDbEntity
  8
0
  6
CONTINUOUS
100
AcDbLine
 10
30.74199999996925
 20
5.012642988786785
 30
0.0
 11
29.30199999996933
 21
6.452642988786707
 31
0.0
  0
LINE
  5
232E2
330
23296
100
AcDbEntity
  8
0
  6
CONTINUOUS
100
AcDbLine
 10
30.74199999996925
 20
5.68616219786697
 30
0.0
 11
29.30199999996933
 21
7.126162197866894
 31
0.0
  0
LINE
  5
232E3
330
23296
100
AcDbEntity
  8
0
  6
CONTINUOUS
100
AcDbLine
 10
30.74199999996925
 20
6.359681406947153
 30
0.0
 11
29.30199999996933
 21
7.799681406947081
 31
0.0
  0
LINE
  5
232E4
330
23296
100
AcDbEntity
  8
0
  6
CONTINUOUS
100
AcDbLine
 10
30.74199999996926
 20
7.033200616027337
 30
0.0
 11
29.30199999996933
 21
8.473200616027269
 31
0.0
  0
LINE
  5
232E5
330
23296
100
AcDbEntity
  8
0
  6
CONTINUOUS
100
AcDbLine
 10
30.74199999996926
 20
7.706719825107518
 30
0.0
 11
29.68561982508552
 21
8.763099999991255
 31
0.0
  0
LINE
  5
232E6
330
23296
100
AcDbEntity
  8
0
  6
CONTINUOUS
100
AcDbLine
 10
30.74199999996926
 20
8.380239034187703
 30
0.0
 11
30.35913903416571
 21
8.763099999991255
 31
0.0
  0
ENDBLK
  5
23389
330
23296
100
AcDbEntity
  8
0
100
AcDbBlockEnd
  0
BLOCK
  5
2338A
330
232E7
100
AcDbEntity
  8
0
100
AcDbBlockBegin
  2
*X269
 70
     1
 10
0.0
 20
0.0
 30
0.0
  3
*X269
  1

  0
LINE
  5
232E8
330
232E7
100
AcDbEntity
  8
0
  6
CONTINUOUS
100
AcDbLine
 10
31.64199999996833
 20
8.5350582899136
 30
0.0
 11
31.87004171004599
 21
8.763099999991255
 31
0.0
  0
LINE
  5
232E9
330
232E7
100
AcDbEntity
  8
0
  6
CONTINUOUS
100
AcDbLine
 10
31.64199999996833
 20
7.861539080833413
 30
0.0
 11
32.54356091912618
 21
8.763099999991255
 31
0.0
  0
LINE
  5
232EA
330
232E7
100
AcDbEntity
  8
0
  6
CONTINUOUS
100
AcDbLine
 10
31.64199999996833
 20
7.188019871753227
 30
0.0
 11
33.08199999996839
 21
8.628019871753281
 31
0.0
  0
LINE
  5
232EB
330
232E7
100
AcDbEntity
  8
0
  6
CONTINUOUS
100
AcDbLine
 10
31.64199999996833
 20
6.514500662673041
 30
0.0
 11
33.08199999996839
 21
7.954500662673095
 31
0.0
  0
LINE
  5
232EC
330
232E7
100
AcDbEntity
  8
0
  6
CONTINUOUS
100
AcDbLine
 10
31.64199999996833
 20
5.840981453592855
 30
0.0
 11
33.08199999996839
 21
7.28098145359291
 31
0.0
  0
LINE
  5
232ED
330
232E7
100
AcDbEntity
  8
0
  6
CONTINUOUS
100
AcDbLine
 10
31.64199999996833
 20
5.167462244512668
 30
0.0
 11
33.08199999996839
 21
6.607462244512723
 31
0.0
  0
LINE
  5
232EE
330
232E7
100
AcDbEntity
  8
0
  6
CONTINUOUS
100
AcDbLine
 10
31.64199999996833
 20
4.493943035432482
 30
0.0
 11
33.08199999996839
 21
5.933943035432536
 31
0.0
  0
LINE
  5
232EF
330
232E7
100
AcDbEntity
  8
0
  6
CONTINUOUS
100
AcDbLine
 10
31.64199999996833
 20
3.820423826352294
 30
0.0
 11
33.08199999996839
 21
5.260423826352349
 31
0.0
  0
LINE
  5
232F0
330
232E7
100
AcDbEntity
  8
0
  6
CONTINUOUS
100
AcDbLine
 10
31.64199999996833
 20
3.146904617272108
 30
0.0
 11
33.08199999996839
 21
4.586904617272163
 31
0.0
  0
LINE
  5
232F1
330
232E7
100
AcDbEntity
  8
0
  6
CONTINUOUS
100
AcDbLine
 10
36.23199999996837
 20
8.410423826352327
 30
0.0
 11
36.58467617360729
 21
8.763099999991255
 31
0.0
  0
LINE
  5
232F2
330
232E7
100
AcDbEntity
  8
0
  6
CONTINUOUS
100
AcDbLine
 10
36.23199999996837
 20
7.73690461727214
 30
0.0
 11
37.25819538268748
 21
8.763099999991255
 31
0.0
  0
LINE
  5
232F3
330
232E7
100
AcDbEntity
  8
0
  6
CONTINUOUS
100
AcDbLine
 10
31.64323424774199
 20
2.474619655965573
 30
0.0
 11
33.08199999996839
 21
3.913385408191976
 31
0.0
  0
LINE
  5
232F4
330
232E7
100
AcDbEntity
  8
0
  6
CONTINUOUS
100
AcDbLine
 10
31.74419223861915
 20
1.902058437762552
 30
0.0
 11
33.08199999996839
 21
3.239866199111789
 31
0.0
  0
LINE
  5
232F5
330
232E7
100
AcDbEntity
  8
0
  6
CONTINUOUS
100
AcDbLine
 10
36.23199999996837
 20
7.063385408191953
 30
0.0
 11
37.67199999996831
 21
8.503385408191894
 31
0.0
  0
LINE
  5
232F6
330
232E7
100
AcDbEntity
  8
0
  6
CONTINUOUS
100
AcDbLine
 10
36.23199999996837
 20
6.389866199111767
 30
0.0
 11
37.67199999996831
 21
7.829866199111708
 31
0.0
  0
LINE
  5
232F7
330
232E7
100
AcDbEntity
  8
0
  6
CONTINUOUS
100
AcDbLine
 10
31.91111233414976
 20
1.39545932421297
 30
0.0
 11
33.08199999996839
 21
2.566346990031603
 31
0.0
  0
LINE
  5
232F8
330
232E7
100
AcDbEntity
  8
0
  6
CONTINUOUS
100
AcDbLine
 10
36.23199999996837
 20
5.71634699003158
 30
0.0
 11
37.67199999996831
 21
7.156346990031522
 31
0.0
  0
LINE
  5
232F9
330
232E7
100
AcDbEntity
  8
0
  6
CONTINUOUS
100
AcDbLine
 10
32.1576374746103
 20
0.9684652555933289
 30
0.0
 11
33.20642631446081
 21
2.017254095443838
 31
0.0
  0
LINE
  5
232FA
330
232E7
100
AcDbEntity
  8
0
  6
CONTINUOUS
100
AcDbLine
 10
36.23199999996837
 20
5.042827780951393
 30
0.0
 11
37.67199999996831
 21
6.482827780951334
 31
0.0
  0
LINE
  5
232FB
330
232E7
100
AcDbEntity
  8
0
  6
CONTINUOUS
100
AcDbLine
 10
32.47774023927325
 20
0.6150488111760914
 30
0.0
 11
33.49903056428258
 21
1.636339136185419
 31
0.0
  0
LINE
  5
232FC
330
232E7
100
AcDbEntity
  8
0
  6
CONTINUOUS
100
AcDbLine
 10
36.23199999996837
 20
4.369308571871207
 30
0.0
 11
37.67199999996831
 21
5.809308571871148
 31
0.0
  0
LINE
  5
232FD
330
232E7
100
AcDbEntity
  8
0
  6
CONTINUOUS
100
AcDbLine
 10
32.84396249154443
 20
0.3077518543670883
 30
0.0
 11
33.93324121824649
 21
1.397030581069146
 31
0.0
  0
LINE
  5
232FE
330
232E7
100
AcDbEntity
  8
0
  6
CONTINUOUS
100
AcDbLine
 10
36.23199999996837
 20
3.695789362791021
 30
0.0
 11
37.67199999996831
 21
5.135789362790963
 31
0.0
  0
LINE
  5
232FF
330
232E7
100
AcDbEntity
  8
0
  6
CONTINUOUS
100
AcDbLine
 10
33.30186329036846
 20
0.0921334441109263
 30
0.0
 11
34.46442907112041
 21
1.254699224862875
 31
0.0
  0
LINE
  5
23300
330
232E7
100
AcDbEntity
  8
0
  6
CONTINUOUS
100
AcDbLine
 10
36.23199999996837
 20
3.022270153710834
 30
0.0
 11
37.67199999996831
 21
4.462270153710776
 31
0.0
  0
LINE
  5
23301
330
232E7
100
AcDbEntity
  8
0
  6
CONTINUOUS
100
AcDbLine
 10
33.79565647746294
 20
-0.0875925778747773
 30
0.0
 11
35.24350171668284
 21
1.360252661345124
 31
0.0
  0
LINE
  5
23302
330
232E7
100
AcDbEntity
  8
0
  6
CONTINUOUS
100
AcDbLine
 10
36.18336676155003
 20
2.300117706212308
 30
0.0
 11
37.67199999996831
 21
3.788750944630589
 31
0.0
  0
LINE
  5
23303
330
232E7
100
AcDbEntity
  8
0
  6
CONTINUOUS
100
AcDbLine
 10
34.37182574910968
 20
-0.184942515308224
 30
0.0
 11
37.67199999996831
 21
3.115231735550402
 31
0.0
  0
LINE
  5
23304
330
232E7
100
AcDbEntity
  8
0
  6
CONTINUOUS
100
AcDbLine
 10
35.0453449581892
 20
-0.1849425153088955
 30
0.0
 11
37.66345697088136
 21
2.433169497383271
 31
0.0
  0
LINE
  5
23305
330
232E7
100
AcDbEntity
  8
0
  6
CONTINUOUS
100
AcDbLine
 10
35.98667157609191
 20
0.0828648935136398
 30
0.0
 11
37.51927401744566
 21
1.615467334867382
 31
0.0
  0
LINE
  5
23306
330
232E7
100
AcDbEntity
  8
0
  6
CONTINUOUS
100
AcDbLine
 10
32.27747408544484
 20
0.7830920669904482
 30
0.0
 11
32.24716210471949
 21
0.8134040477157893
 31
0.0
  0
LINE
  5
23307
330
232E7
100
AcDbEntity
  8
0
  6
CONTINUOUS
100
AcDbLine
 10
33.83656881101902
 20
-0.1024834495035494
 30
0.0
 11
31.72538911593758
 21
2.008696245577891
 31
0.0
  0
LINE
  5
23308
330
232E7
100
AcDbEntity
  8
0
  6
CONTINUOUS
100
AcDbLine
 10
34.5925470859041
 20
-0.1849425153084434
 30
0.0
 11
31.64199999996833
 21
2.765604570627322
 31
0.0
  0
LINE
  5
23309
330
232E7
100
AcDbEntity
  8
0
  6
CONTINUOUS
100
AcDbLine
 10
35.26201302775981
 20
-0.1808892480839752
 30
0.0
 11
31.64199999996833
 21
3.439123779707508
 31
0.0
  0
LINE
  5
2330A
330
232E7
100
AcDbEntity
  8
0
  6
CONTINUOUS
100
AcDbLine
 10
35.75580621485512
 20
-0.0011632260990879
 30
0.0
 11
34.51294304365551
 21
1.241699945100514
 31
0.0
  0
LINE
  5
2330B
330
232E7
100
AcDbEntity
  8
0
  6
CONTINUOUS
100
AcDbLine
 10
33.08199999996839
 20
2.672642988787641
 30
0.0
 11
31.64199999996833
 21
4.112642988787695
 31
0.0
  0
LINE
  5
2330C
330
232E7
100
AcDbEntity
  8
0
  6
CONTINUOUS
100
AcDbLine
 10
36.24959940195042
 20
0.1785627958857976
 30
0.0
 11
35.10501653033629
 21
1.323145667499924
 31
0.0
  0
LINE
  5
2330D
330
232E7
100
AcDbEntity
  8
0
  6
CONTINUOUS
100
AcDbLine
 10
33.08199999996839
 20
3.346162197867827
 30
0.0
 11
31.64199999996833
 21
4.786162197867881
 31
0.0
  0
LINE
  5
2330E
330
232E7
100
AcDbEntity
  8
0
  6
CONTINUOUS
100
AcDbLine
 10
36.64615197150552
 20
0.4555294354108876
 30
0.0
 11
35.6362043832099
 21
1.465477023706505
 31
0.0
  0
LINE
  5
2330F
330
232E7
100
AcDbEntity
  8
0
  6
CONTINUOUS
100
AcDbLine
 10
33.08199999996839
 20
4.019681406948013
 30
0.0
 11
31.64199999996833
 21
5.459681406948068
 31
0.0
  0
LINE
  5
23310
330
232E7
100
AcDbEntity
  8
0
  6
CONTINUOUS
100
AcDbLine
 10
37.0123742237774
 20
0.7628263922191891
 30
0.0
 11
35.97691545773309
 21
1.798285158263504
 31
0.0
  0
LINE
  5
23311
330
232E7
100
AcDbEntity
  8
0
  6
CONTINUOUS
100
AcDbLine
 10
33.08199999996839
 20
4.6932006160282
 30
0.0
 11
31.64199999996833
 21
6.133200616028255
 31
0.0
  0
LINE
  5
23312
330
232E7
100
AcDbEntity
  8
0
  6
CONTINUOUS
100
AcDbLine
 10
37.27491524157143
 20
1.173804583505349
 30
0.0
 11
36.17602012811361
 21
2.272699696963169
 31
0.0
  0
LINE
  5
23313
330
232E7
100
AcDbEntity
  8
0
  6
CONTINUOUS
100
AcDbLine
 10
33.08199999996839
 20
5.366719825108387
 30
0.0
 11
31.64199999996833
 21
6.806719825108441
 31
0.0
  0
LINE
  5
23314
330
232E7
100
AcDbEntity
  8
0
  6
CONTINUOUS
100
AcDbLine
 10
37.51739996707661
 20
1.604839067080355
 30
0.0
 11
36.23199999996837
 21
2.890239034188595
 31
0.0
  0
LINE
  5
23315
330
232E7
100
AcDbEntity
  8
0
  6
CONTINUOUS
100
AcDbLine
 10
37.6183579579535
 20
2.177400285283649
 30
0.0
 11
36.23199999996837
 21
3.563758243268782
 31
0.0
  0
LINE
  5
23316
330
232E7
100
AcDbEntity
  8
0
  6
CONTINUOUS
100
AcDbLine
 10
33.08199999996839
 20
6.040239034188573
 30
0.0
 11
31.64199999996833
 21
7.480239034188628
 31
0.0
  0
LINE
  5
23317
330
232E7
100
AcDbEntity
  8
0
  6
CONTINUOUS
100
AcDbLine
 10
33.08199999996839
 20
6.713758243268759
 30
0.0
 11
31.64199999996833
 21
8.153758243268815
 31
0.0
  0
LINE
  5
23318
330
232E7
100
AcDbEntity
  8
0
  6
CONTINUOUS
100
AcDbLine
 10
37.67199999996831
 20
2.797277452349027
 30
0.0
 11
36.23199999996837
 21
4.237277452348969
 31
0.0
  0
LINE
  5
23319
330
232E7
100
AcDbEntity
  8
0
  6
CONTINUOUS
100
AcDbLine
 10
37.67199999996831
 20
3.470796661429214
 30
0.0
 11
36.23199999996837
 21
4.910796661429155
 31
0.0
  0
LINE
  5
2331A
330
232E7
100
AcDbEntity
  8
0
  6
CONTINUOUS
100
AcDbLine
 10
37.67199999996831
 20
4.1443158705094
 30
0.0
 11
36.23199999996837
 21
5.584315870509341
 31
0.0
  0
LINE
  5
2331B
330
232E7
100
AcDbEntity
  8
0
  6
CONTINUOUS
100
AcDbLine
 10
33.08199999996839
 20
7.387277452348946
 30
0.0
 11
31.70617745232608
 21
8.763099999991255
 31
0.0
  0
LINE
  5
2331C
330
232E7
100
AcDbEntity
  8
0
  6
CONTINUOUS
100
AcDbLine
 10
33.08199999996839
 20
8.060796661429134
 30
0.0
 11
32.37969666140626
 21
8.763099999991255
 31
0.0
  0
LINE
  5
2331D
330
232E7
100
AcDbEntity
  8
0
  6
CONTINUOUS
100
AcDbLine
 10
33.08199999996839
 20
8.734315870509318
 30
0.0
 11
33.05321587048645
 21
8.763099999991255
 31
0.0
  0
LINE
  5
2331E
330
232E7
100
AcDbEntity
  8
0
  6
CONTINUOUS
100
AcDbLine
 10
37.67199999996831
 20
4.817835079589586
 30
0.0
 11
36.23199999996837
 21
6.257835079589528
 31
0.0
  0
LINE
  5
2331F
330
232E7
100
AcDbEntity
  8
0
  6
CONTINUOUS
100
AcDbLine
 10
37.67199999996831
 20
5.491354288669772
 30
0.0
 11
36.23199999996837
 21
6.931354288669715
 31
0.0
  0
LINE
  5
23320
330
232E7
100
AcDbEntity
  8
0
  6
CONTINUOUS
100
AcDbLine
 10
37.67199999996831
 20
6.164873497749959
 30
0.0
 11
36.23199999996837
 21
7.6048734977499
 31
0.0
  0
LINE
  5
23321
330
232E7
100
AcDbEntity
  8
0
  6
CONTINUOUS
100
AcDbLine
 10
37.67199999996831
 20
6.838392706830145
 30
0.0
 11
36.23199999996837
 21
8.278392706830086
 31
0.0
  0
LINE
  5
23322
330
232E7
100
AcDbEntity
  8
0
  6
CONTINUOUS
100
AcDbLine
 10
37.67199999996831
 20
7.511911915910333
 30
0.0
 11
36.42081191588738
 21
8.763099999991255
 31
0.0
  0
LINE
  5
23323
330
232E7
100
AcDbEntity
  8
0
  6
CONTINUOUS
100
AcDbLine
 10
37.67199999996831
 20
8.185431124990519
 30
0.0
 11
37.09433112496757
 21
8.763099999991255
 31
0.0
  0
ENDBLK
  5
2338B
330
232E7
100
AcDbEntity
  8
0
100
AcDbBlockEnd
  0
BLOCK
  5
2338C
330
23324
100
AcDbEntity
  8
0
100
AcDbBlockBegin
  2
*X270
 70
     1
 10
0.0
 20
0.0
 30
0.0
  3
*X270
  1

  0
LINE
  5
23325
330
23324
100
AcDbEntity
  8
0
  6
CONTINUOUS
100
AcDbLine
 10
38.60499999996136
 20
8.762866199104765
 30
0.0
 11
38.71672554182345
 21
8.874591740966855
 31
0.0
  0
LINE
  5
23326
330
23324
100
AcDbEntity
  8
0
  6
CONTINUOUS
100
AcDbLine
 10
38.60499999996136
 20
8.089346990024577
 30
0.0
 11
39.03418785440363
 21
8.518534844466847
 31
0.0
  0
LINE
  5
23327
330
23324
100
AcDbEntity
  8
0
  6
CONTINUOUS
100
AcDbLine
 10
38.60499999996136
 20
7.41582778094439
 30
0.0
 11
39.35165016698382
 21
8.16247794796684
 31
0.0
  0
LINE
  5
23328
330
23324
100
AcDbEntity
  8
0
  6
CONTINUOUS
100
AcDbLine
 10
38.60499999996136
 20
6.742308571864204
 30
0.0
 11
39.66911247956399
 21
7.806421051466834
 31
0.0
  0
LINE
  5
23329
330
23324
100
AcDbEntity
  8
0
  6
CONTINUOUS
100
AcDbLine
 10
38.60499999996136
 20
6.068789362784018
 30
0.0
 11
39.98657479214418
 21
7.450364154966827
 31
0.0
  0
LINE
  5
2332A
330
23324
100
AcDbEntity
  8
0
  6
CONTINUOUS
100
AcDbLine
 10
38.60499999996136
 20
5.395270153703832
 30
0.0
 11
40.30403710472435
 21
7.09430725846682
 31
0.0
  0
LINE
  5
2332B
330
23324
100
AcDbEntity
  8
0
  6
CONTINUOUS
100
AcDbLine
 10
38.60499999996136
 20
4.721750944623645
 30
0.0
 11
40.62149941730453
 21
6.738250361966813
 31
0.0
  0
LINE
  5
2332C
330
23324
100
AcDbEntity
  8
0
  6
CONTINUOUS
100
AcDbLine
 10
38.60499999996136
 20
4.048231735543458
 30
0.0
 11
40.93896172988471
 21
6.382193465466806
 31
0.0
  0
LINE
  5
2332D
330
23324
100
AcDbEntity
  8
0
  6
CONTINUOUS
100
AcDbLine
 10
38.60499999996136
 20
3.374712526463272
 30
0.0
 11
40.02599999995994
 21
4.795712526461843
 31
0.0
  0
LINE
  5
2332E
330
23324
100
AcDbEntity
  8
0
  6
CONTINUOUS
100
AcDbLine
 10
38.60499999996136
 20
2.701193317383085
 30
0.0
 11
40.02599999995994
 21
4.122193317381657
 31
0.0
  0
LINE
  5
2332F
330
23324
100
AcDbEntity
  8
0
  6
CONTINUOUS
100
AcDbLine
 10
40.28339754687704
 20
5.053110073378947
 30
0.0
 11
41.25642404246489
 21
6.026136568966799
 31
0.0
  0
LINE
  5
23330
330
23324
100
AcDbEntity
  8
0
  6
CONTINUOUS
100
AcDbLine
 10
40.60085985945722
 20
4.697053176878939
 30
0.0
 11
41.57388635504507
 21
5.670079672466793
 31
0.0
  0
LINE
  5
23331
330
23324
100
AcDbEntity
  8
0
  6
CONTINUOUS
100
AcDbLine
 10
43.57899999995641
 20
8.348712526458318
 30
0.0
 11
43.99338747348935
 21
8.763099999991255
 31
0.0
  0
LINE
  5
23332
330
23324
100
AcDbEntity
  8
0
  6
CONTINUOUS
100
AcDbLine
 10
43.57899999995641
 20
7.675193317378131
 30
0.0
 11
44.66690668256953
 21
8.763099999991255
 31
0.0
  0
LINE
  5
23333
330
23324
100
AcDbEntity
  8
0
  6
CONTINUOUS
100
AcDbLine
 10
38.60499999996136
 20
2.027674108302898
 30
0.0
 11
40.02599999995994
 21
3.44867410830147
 31
0.0
  0
LINE
  5
23334
330
23324
100
AcDbEntity
  8
0
  6
CONTINUOUS
100
AcDbLine
 10
38.60499999996136
 20
1.354154899222712
 30
0.0
 11
40.02599999995994
 21
2.775154899221284
 31
0.0
  0
LINE
  5
23335
330
23324
100
AcDbEntity
  8
0
  6
CONTINUOUS
100
AcDbLine
 10
38.60499999996136
 20
0.6806356901425255
 30
0.0
 11
40.02599999995994
 21
2.101635690141098
 31
0.0
  0
LINE
  5
23336
330
23324
100
AcDbEntity
  8
0
  6
CONTINUOUS
100
AcDbLine
 10
38.60499999996136
 20
0.0071164810623383
 30
0.0
 11
40.02599999995994
 21
1.428116481060911
 31
0.0
  0
LINE
  5
23337
330
23324
100
AcDbEntity
  8
0
  6
CONTINUOUS
100
AcDbLine
 10
40.9183221720374
 20
4.340996280378933
 30
0.0
 11
41.89134866762525
 21
5.314022775966786
 31
0.0
  0
LINE
  5
23338
330
23324
100
AcDbEntity
  8
0
  6
CONTINUOUS
100
AcDbLine
 10
41.23578448461758
 20
3.984939383878926
 30
0.0
 11
42.20881098020543
 21
4.957965879466778
 31
0.0
  0
LINE
  5
23339
330
23324
100
AcDbEntity
  8
0
  6
CONTINUOUS
100
AcDbLine
 10
41.55324679719776
 20
3.628882487378919
 30
0.0
 11
42.52627329278561
 21
4.601908982966772
 31
0.0
  0
LINE
  5
2333A
330
23324
100
AcDbEntity
  8
0
  6
CONTINUOUS
100
AcDbLine
 10
41.87070910977793
 20
3.272825590878912
 30
0.0
 11
42.84373560536579
 21
4.245852086466765
 31
0.0
  0
LINE
  5
2333B
330
23324
100
AcDbEntity
  8
0
  6
CONTINUOUS
100
AcDbLine
 10
43.57899999995641
 20
7.001674108297943
 30
0.0
 11
44.99999999995498
 21
8.422674108296516
 31
0.0
  0
LINE
  5
2333C
330
23324
100
AcDbEntity
  8
0
  6
CONTINUOUS
100
AcDbLine
 10
43.57899999995641
 20
6.328154899217758
 30
0.0
 11
44.99999999995498
 21
7.749154899216329
 31
0.0
  0
LINE
  5
2333D
330
23324
100
AcDbEntity
  8
0
  6
CONTINUOUS
100
AcDbLine
 10
43.57899999995641
 20
5.654635690137571
 30
0.0
 11
44.99999999995498
 21
7.075635690136142
 31
0.0
  0
LINE
  5
2333E
330
23324
100
AcDbEntity
  8
0
  6
CONTINUOUS
100
AcDbLine
 10
43.57899999995641
 20
4.981116481057384
 30
0.0
 11
44.99999999995498
 21
6.402116481055955
 31
0.0
  0
LINE
  5
2333F
330
23324
100
AcDbEntity
  8
0
  6
CONTINUOUS
100
AcDbLine
 10
39.27140272797921
 20
-0.0000000000000009
 30
0.0
 11
40.02599999995994
 21
0.7545972719807246
 31
0.0
  0
LINE
  5
23340
330
23324
100
AcDbEntity
  8
0
  6
CONTINUOUS
100
AcDbLine
 10
39.9449219370594
 20
-0.0000000000000009
 30
0.0
 11
40.02599999995994
 21
0.0810780629005379
 31
0.0
  0
LINE
  5
23341
330
23324
100
AcDbEntity
  8
0
  6
CONTINUOUS
100
AcDbLine
 10
42.18817142235812
 20
2.916768694378905
 30
0.0
 11
43.16119791794597
 21
3.889795189966758
 31
0.0
  0
LINE
  5
23342
330
23324
100
AcDbEntity
  8
0
  6
CONTINUOUS
100
AcDbLine
 10
42.50563373493829
 20
2.560711797878898
 30
0.0
 11
43.47866023052615
 21
3.533738293466751
 31
0.0
  0
LINE
  5
23343
330
23324
100
AcDbEntity
  8
0
  6
CONTINUOUS
100
AcDbLine
 10
43.57899999995641
 20
4.307597271977198
 30
0.0
 11
44.99999999995498
 21
5.728597271975769
 31
0.0
  0
LINE
  5
23344
330
23324
100
AcDbEntity
  8
0
  6
CONTINUOUS
100
AcDbLine
 10
43.57899999995641
 20
3.634078062897011
 30
0.0
 11
44.99999999995498
 21
5.055078062895582
 31
0.0
  0
LINE
  5
23345
330
23324
100
AcDbEntity
  8
0
  6
CONTINUOUS
100
AcDbLine
 10
42.82309604751848
 20
2.204654901378891
 30
0.0
 11
44.99999999995498
 21
4.381558853815395
 31
0.0
  0
LINE
  5
23346
330
23324
100
AcDbEntity
  8
0
  6
CONTINUOUS
100
AcDbLine
 10
43.14055836009865
 20
1.848598004878885
 30
0.0
 11
44.99999999995498
 21
3.70803964473521
 31
0.0
  0
LINE
  5
23347
330
23324
100
AcDbEntity
  8
0
  6
CONTINUOUS
100
AcDbLine
 10
43.45802067267883
 20
1.492541108378878
 30
0.0
 11
44.99999999995498
 21
3.034520435655023
 31
0.0
  0
LINE
  5
23348
330
23324
100
AcDbEntity
  8
0
  6
CONTINUOUS
100
AcDbLine
 10
43.77548298525902
 20
1.136484211878871
 30
0.0
 11
44.99999999995498
 21
2.361001226574837
 31
0.0
  0
LINE
  5
23349
330
23324
100
AcDbEntity
  8
0
  6
CONTINUOUS
100
AcDbLine
 10
44.09294529783919
 20
0.7804273153788639
 30
0.0
 11
44.99999999995498
 21
1.687482017494649
 31
0.0
  0
LINE
  5
2334A
330
23324
100
AcDbEntity
  8
0
  6
CONTINUOUS
100
AcDbLine
 10
44.41040761041938
 20
0.4243704188788566
 30
0.0
 11
44.99999999995498
 21
1.013962808414463
 31
0.0
  0
LINE
  5
2334B
330
23324
100
AcDbEntity
  8
0
  6
CONTINUOUS
100
AcDbLine
 10
44.72786992299955
 20
0.0683135223788494
 30
0.0
 11
44.99999999995498
 21
0.340443599334276
 31
0.0
  0
LINE
  5
2334C
330
23324
100
AcDbEntity
  8
0
  6
CONTINUOUS
100
AcDbLine
 10
39.12223903415696
 20
-0.0000000000000009
 30
0.0
 11
38.60499999996136
 21
0.5172390341955961
 31
0.0
  0
LINE
  5
2334D
330
23324
100
AcDbEntity
  8
0
  6
CONTINUOUS
100
AcDbLine
 10
39.79575824323715
 20
-0.0000000000000009
 30
0.0
 11
38.60499999996136
 21
1.190758243275783
 31
0.0
  0
LINE
  5
2334E
330
23324
100
AcDbEntity
  8
0
  6
CONTINUOUS
100
AcDbLine
 10
40.02599999995994
 20
0.443277452357397
 30
0.0
 11
38.60499999996136
 21
1.864277452355969
 31
0.0
  0
LINE
  5
2334F
330
23324
100
AcDbEntity
  8
0
  6
CONTINUOUS
100
AcDbLine
 10
40.02599999995994
 20
1.116796661437583
 30
0.0
 11
38.60499999996136
 21
2.537796661436155
 31
0.0
  0
LINE
  5
23350
330
23324
100
AcDbEntity
  8
0
  6
CONTINUOUS
100
AcDbLine
 10
40.02599999995994
 20
1.79031587051777
 30
0.0
 11
38.60499999996136
 21
3.211315870516341
 31
0.0
  0
LINE
  5
23351
330
23324
100
AcDbEntity
  8
0
  6
CONTINUOUS
100
AcDbLine
 10
40.02599999995994
 20
2.463835079597956
 30
0.0
 11
38.60499999996136
 21
3.884835079596527
 31
0.0
  0
LINE
  5
23352
330
23324
100
AcDbEntity
  8
0
  6
CONTINUOUS
100
AcDbLine
 10
40.02599999995994
 20
3.137354288678143
 30
0.0
 11
38.60499999996136
 21
4.558354288676714
 31
0.0
  0
LINE
  5
23353
330
23324
100
AcDbEntity
  8
0
  6
CONTINUOUS
100
AcDbLine
 10
40.02599999995994
 20
3.810873497758329
 30
0.0
 11
38.60499999996136
 21
5.2318734977569
 31
0.0
  0
LINE
  5
23354
330
23324
100
AcDbEntity
  8
0
  6
CONTINUOUS
100
AcDbLine
 10
40.02599999995994
 20
4.484392706838515
 30
0.0
 11
38.60499999996136
 21
5.905392706837086
 31
0.0
  0
LINE
  5
23355
330
23324
100
AcDbEntity
  8
0
  6
CONTINUOUS
100
AcDbLine
 10
44.99999999995498
 20
0.183911915923658
 30
0.0
 11
41.53858364506288
 21
3.64532827081576
 31
0.0
  0
LINE
  5
23356
330
23324
100
AcDbEntity
  8
0
  6
CONTINUOUS
100
AcDbLine
 10
40.02599999995994
 20
5.157911915918703
 30
0.0
 11
38.60499999996136
 21
6.578911915917274
 31
0.0
  0
LINE
  5
23357
330
23324
100
AcDbEntity
  8
0
  6
CONTINUOUS
100
AcDbLine
 10
44.99999999995498
 20
0.8574311250038447
 30
0.0
 11
38.60499999996136
 21
7.25243112499746
 31
0.0
  0
LINE
  5
23358
330
23324
100
AcDbEntity
  8
0
  6
CONTINUOUS
100
AcDbLine
 10
44.99999999995498
 20
1.530950334084031
 30
0.0
 11
38.60499999996136
 21
7.925950334077647
 31
0.0
  0
LINE
  5
23359
330
23324
100
AcDbEntity
  8
0
  6
CONTINUOUS
100
AcDbLine
 10
44.99999999995498
 20
2.204469543164218
 30
0.0
 11
43.57899999995641
 21
3.625469543162789
 31
0.0
  0
LINE
  5
2335A
330
23324
100
AcDbEntity
  8
0
  6
CONTINUOUS
100
AcDbLine
 10
41.89876730984767
 20
5.305702233271528
 30
0.0
 11
38.60499999996136
 21
8.599469543157834
 31
0.0
  0
LINE
  5
2335B
330
23324
100
AcDbEntity
  8
0
  6
CONTINUOUS
100
AcDbLine
 10
44.99999999995498
 20
2.877988752244405
 30
0.0
 11
43.57899999995641
 21
4.298988752242975
 31
0.0
  0
LINE
  5
2335C
330
23324
100
AcDbEntity
  8
0
  6
CONTINUOUS
100
AcDbLine
 10
44.99999999995498
 20
3.551507961324591
 30
0.0
 11
43.57899999995641
 21
4.972507961323163
 31
0.0
  0
LINE
  5
2335D
330
23324
100
AcDbEntity
  8
0
  6
CONTINUOUS
100
AcDbLine
 10
44.99999999995498
 20
4.225027170404777
 30
0.0
 11
43.57899999995641
 21
5.646027170403348
 31
0.0
  0
LINE
  5
2335E
330
23324
100
AcDbEntity
  8
0
  6
CONTINUOUS
100
AcDbLine
 10
44.99999999995498
 20
4.898546379484964
 30
0.0
 11
43.57899999995641
 21
6.319546379483535
 31
0.0
  0
LINE
  5
2335F
330
23324
100
AcDbEntity
  8
0
  6
CONTINUOUS
100
AcDbLine
 10
44.99999999995498
 20
5.572065588565151
 30
0.0
 11
43.57899999995641
 21
6.993065588563722
 31
0.0
  0
LINE
  5
23360
330
23324
100
AcDbEntity
  8
0
  6
CONTINUOUS
100
AcDbLine
 10
44.99999999995498
 20
6.245584797645336
 30
0.0
 11
43.57899999995641
 21
7.666584797643908
 31
0.0
  0
LINE
  5
23361
330
23324
100
AcDbEntity
  8
0
  6
CONTINUOUS
100
AcDbLine
 10
44.99999999995498
 20
6.919104006725522
 30
0.0
 11
43.57899999995641
 21
8.340104006724093
 31
0.0
  0
LINE
  5
23362
330
23324
100
AcDbEntity
  8
0
  6
CONTINUOUS
100
AcDbLine
 10
44.99999999995498
 20
7.592623215805709
 30
0.0
 11
43.82952321576943
 21
8.763099999991255
 31
0.0
  0
LINE
  5
23363
330
23324
100
AcDbEntity
  8
0
  6
CONTINUOUS
100
AcDbLine
 10
44.99999999995498
 20
8.266142424885896
 30
0.0
 11
44.50304242484962
 21
8.763099999991255
 31
0.0
  0
ENDBLK
  5
2338D
330
23324
100
AcDbEntity
  8
0
100
AcDbBlockEnd
  0
BLOCK
  5
2338E
330
23364
100
AcDbEntity
  8
0
100
AcDbBlockBegin
  2
*X271
 70
     1
 10
0.0
 20
0.0
 30
0.0
  3
*X271
  1

  0
LINE
  5
23365
330
23364
100
AcDbEntity
  8
0
  6
CONTINUOUS
100
AcDbLine
 10
0.0
 20
8.548461116714023
 30
0.0
 11
0.2146388832772324
 21
8.763099999991255
 31
0.0
  0
LINE
  5
23366
330
23364
100
AcDbEntity
  8
0
  6
CONTINUOUS
100
AcDbLine
 10
-0.0000000000000002
 20
7.874941907633837
 30
0.0
 11
0.8881580923574184
 21
8.763099999991255
 31
0.0
  0
LINE
  5
23367
330
23364
100
AcDbEntity
  8
0
  6
CONTINUOUS
100
AcDbLine
 10
0.0
 20
7.20142269855365
 30
0.0
 11
1.420999999998572
 21
8.622422698552223
 31
0.0
  0
LINE
  5
23368
330
23364
100
AcDbEntity
  8
0
  6
CONTINUOUS
100
AcDbLine
 10
-0.0000000000000001
 20
6.527903489473465
 30
0.0
 11
1.420999999998571
 21
7.948903489472036
 31
0.0
  0
LINE
  5
23369
330
23364
100
AcDbEntity
  8
0
  6
CONTINUOUS
100
AcDbLine
 10
-0.0000000000000002
 20
5.854384280393278
 30
0.0
 11
1.420999999998571
 21
7.275384280391849
 31
0.0
  0
LINE
  5
2336A
330
23364
100
AcDbEntity
  8
0
  6
CONTINUOUS
100
AcDbLine
 10
-0.0000000000000002
 20
5.180865071313091
 30
0.0
 11
1.420999999998571
 21
6.601865071311663
 31
0.0
  0
LINE
  5
2336B
330
23364
100
AcDbEntity
  8
0
  6
CONTINUOUS
100
AcDbLine
 10
0.0
 20
4.507345862232905
 30
0.0
 11
1.420999999998571
 21
5.928345862231477
 31
0.0
  0
LINE
  5
2336C
330
23364
100
AcDbEntity
  8
0
  6
CONTINUOUS
100
AcDbLine
 10
-0.0000000000000003
 20
3.833826653152718
 30
0.0
 11
1.420999999998571
 21
5.25482665315129
 31
0.0
  0
LINE
  5
2336D
330
23364
100
AcDbEntity
  8
0
  6
CONTINUOUS
100
AcDbLine
 10
-0.0000000000000002
 20
3.160307444072532
 30
0.0
 11
1.420999999998571
 21
4.581307444071103
 31
0.0
  0
LINE
  5
2336E
330
23364
100
AcDbEntity
  8
0
  6
CONTINUOUS
100
AcDbLine
 10
-0.0000000000000001
 20
2.486788234992345
 30
0.0
 11
1.420999999998571
 21
3.907788234990917
 31
0.0
  0
LINE
  5
2336F
330
23364
100
AcDbEntity
  8
0
  6
CONTINUOUS
100
AcDbLine
 10
-0.0000000000000006
 20
1.813269025912159
 30
0.0
 11
1.420999999998571
 21
3.234269025910731
 31
0.0
  0
LINE
  5
23370
330
23364
100
AcDbEntity
  8
0
  6
CONTINUOUS
100
AcDbLine
 10
0.0
 20
1.139749816831973
 30
0.0
 11
1.420999999998571
 21
2.560749816830544
 31
0.0
  0
LINE
  5
23371
330
23364
100
AcDbEntity
  8
0
  6
CONTINUOUS
100
AcDbLine
 10
0.0000000000000002
 20
0.466230607751787
 30
0.0
 11
1.420999999998571
 21
1.887230607750358
 31
0.0
  0
LINE
  5
23372
330
23364
100
AcDbEntity
  8
0
  6
CONTINUOUS
100
AcDbLine
 10
0.2072886013284003
 20
-0.0000000000000009
 30
0.0
 11
1.420999999998571
 21
1.213711398670171
 31
0.0
  0
LINE
  5
23373
330
23364
100
AcDbEntity
  8
0
  6
CONTINUOUS
100
AcDbLine
 10
0.8808078104085864
 20
-0.0000000000000009
 30
0.0
 11
1.420999999998571
 21
0.5401921895899839
 31
0.0
  0
LINE
  5
23374
330
23364
100
AcDbEntity
  8
0
  6
CONTINUOUS
100
AcDbLine
 10
0.0581249075061505
 20
-0.0000000000000009
 30
0.0
 11
-0.0000000000000002
 21
0.0581249075061496
 31
0.0
  0
LINE
  5
23375
330
23364
100
AcDbEntity
  8
0
  6
CONTINUOUS
100
AcDbLine
 10
0.7316441165863372
 20
-0.0000000000000009
 30
0.0
 11
-0.0000000000000002
 21
0.7316441165863363
 31
0.0
  0
LINE
  5
23376
330
23364
100
AcDbEntity
  8
0
  6
CONTINUOUS
100
AcDbLine
 10
1.405163325666523
 20
-0.0000000000000009
 30
0.0
 11
-0.0000000000000002
 21
1.405163325666523
 31
0.0
  0
LINE
  5
23377
330
23364
100
AcDbEntity
  8
0
  6
CONTINUOUS
100
AcDbLine
 10
1.420999999998572
 20
0.6576825347481381
 30
0.0
 11
-0.0000000000000001
 21
2.07868253474671
 31
0.0
  0
LINE
  5
23378
330
23364
100
AcDbEntity
  8
0
  6
CONTINUOUS
100
AcDbLine
 10
1.420999999998571
 20
1.331201743828324
 30
0.0
 11
-0.0000000000000001
 21
2.752201743826896
 31
0.0
  0
LINE
  5
23379
330
23364
100
AcDbEntity
  8
0
  6
CONTINUOUS
100
AcDbLine
 10
1.420999999998571
 20
2.004720952908511
 30
0.0
 11
-0.0000000000000002
 21
3.425720952907082
 31
0.0
  0
LINE
  5
2337A
330
23364
100
AcDbEntity
  8
0
  6
CONTINUOUS
100
AcDbLine
 10
1.420999999998571
 20
2.678240161988697
 30
0.0
 11
-0.0000000000000001
 21
4.099240161987269
 31
0.0
  0
LINE
  5
2337B
330
23364
100
AcDbEntity
  8
0
  6
CONTINUOUS
100
AcDbLine
 10
1.420999999998572
 20
3.351759371068884
 30
0.0
 11
0.0
 21
4.772759371067455
 31
0.0
  0
LINE
  5
2337C
330
23364
100
AcDbEntity
  8
0
  6
CONTINUOUS
100
AcDbLine
 10
1.420999999998571
 20
4.02527858014907
 30
0.0
 11
-0.0000000000000003
 21
5.446278580147642
 31
0.0
  0
LINE
  5
2337D
330
23364
100
AcDbEntity
  8
0
  6
CONTINUOUS
100
AcDbLine
 10
1.420999999998571
 20
4.698797789229257
 30
0.0
 11
0.0
 21
6.119797789227828
 31
0.0
  0
LINE
  5
2337E
330
23364
100
AcDbEntity
  8
0
  6
CONTINUOUS
100
AcDbLine
 10
1.420999999998571
 20
5.372316998309444
 30
0.0
 11
-0.0000000000000001
 21
6.793316998308015
 31
0.0
  0
LINE
  5
2337F
330
23364
100
AcDbEntity
  8
0
  6
CONTINUOUS
100
AcDbLine
 10
1.420999999998572
 20
6.045836207389629
 30
0.0
 11
-0.0000000000000004
 21
7.466836207388202
 31
0.0
  0
LINE
  5
23380
330
23364
100
AcDbEntity
  8
0
  6
CONTINUOUS
100
AcDbLine
 10
1.420999999998571
 20
6.719355416469816
 30
0.0
 11
0.0
 21
8.140355416468388
 31
0.0
  0
LINE
  5
23381
330
23364
100
AcDbEntity
  8
0
  6
CONTINUOUS
100
AcDbLine
 10
1.420999999998571
 20
7.392874625550003
 30
0.0
 11
0.0507746255573185
 21
8.763099999991255
 31
0.0
  0
LINE
  5
23382
330
23364
100
AcDbEntity
  8
0
  6
CONTINUOUS
100
AcDbLine
 10
1.420999999998571
 20
8.06639383463019
 30
0.0
 11
0.7242938346375052
 21
8.763099999991255
 31
0.0
  0
LINE
  5
23383
330
23364
100
AcDbEntity
  8
0
  6
CONTINUOUS
100
AcDbLine
 10
1.420999999998571
 20
8.739913043710375
 30
0.0
 11
1.397813043717691
 21
8.763099999991255
 31
0.0
  0
ENDBLK
  5
2338F
330
23364
100
AcDbEntity
  8
0
100
AcDbBlockEnd
  0
ENDSEC
  0
SECTION
  2
ENTITIES
  0
LINE
  5
2007C
330
18
100
AcDbEntity
  8
01
100
AcDbLine
 10
1791.153453415737
 20
-890.4086891514539
 30
0.0
 11
1847.653453415737
 21
-890.4086891514539
 31
0.0
  0
LINE
  5
200BC
330
18
100
AcDbEntity
  8
01
100
AcDbLine
 10
1848.653453415737
 20
-948.9086891514539
 30
0.0
 11
1848.653453415737
 21
-891.4086891514539
 31
0.0
  0
LINE
  5
200BD
330
18
100
AcDbEntity
  8
01
100
AcDbLine
 10
1790.153453415737
 20
-948.9086891514539
 30
0.0
 11
1790.153453415737
 21
-891.4086891514539
 31
0.0
  0
ARC
  5
207E6
330
18
100
AcDbEntity
  8
01
100
AcDbCircle
 10
1791.153453415737
 20
-891.4086891514539
 30
0.0
 40
1.0
100
AcDbArc
 50
90.0
 51
180.0000000000002
  0
ARC
  5
207E7
330
18
100
AcDbEntity
  8
01
100
AcDbCircle
 10
1847.653453415737
 20
-891.4086891514539
 30
0.0
 40
1.0
100
AcDbArc
 50
0.0
 51
90.0
  0
LINE
  5
20B9D
330
18
100
AcDbEntity
  8
01
100
AcDbLine
 10
1790.153453415737
 20
-948.9086891514539
 30
0.0
 11
1848.653453415737
 21
-948.9086891514539
 31
0.0
  0
TEXT
  5
20C30
330
18
100
AcDbEntity
  8
1TEXT
100
AcDbText
 10
1924.257138136408
 20
-838.3041708459598
 30
0.0
 40
4.0
  1
表面処理：
 72
     1
 11
1935.057138136408
 21
-838.3041708459598
 31
0.0
100
AcDbText
  0
TEXT
  5
20C31
330
18
100
AcDbEntity
  8
1TEXT
100
AcDbText
 10
1925.590471469741
 20
-845.2820658659441
 30
0.0
 40
4.0
  1
クローム
 72
     1
 11
1935.057138136408
 21
-845.2820658659441
 31
0.0
100
AcDbText
  0
LINE
  5
20C32
330
18
100
AcDbEntity
  8
1DIM
100
AcDbLine
 10
1917.657138136407
 20
-832.8041708459598
 30
0.0
 11
1987.657138136407
 21
-832.8041708459598
 31
0.0
  0
LINE
  5
20C33
330
18
100
AcDbEntity
  8
1DIM
100
AcDbLine
 10
1917.657138136407
 20
-846.8041708459598
 30
0.0
 11
1987.657138136407
 21
-846.8041708459598
 31
0.0
  0
LINE
  5
20C34
330
18
100
AcDbEntity
  8
1DIM
100
AcDbLine
 10
1917.657138136407
 20
-839.8041708459598
 30
0.0
 11
1987.657138136407
 21
-839.8041708459598
 31
0.0
  0
LINE
  5
20C35
330
18
100
AcDbEntity
  8
1DIM
100
AcDbLine
 10
1952.657138136407
 20
-832.8041708459598
 30
0.0
 11
1952.657138136407
 21
-846.8041708459598
 31
0.0
  0
TEXT
  5
20C36
330
18
100
AcDbEntity
  8
1TEXT
100
AcDbText
 10
1955.057138136408
 20
-845.5185278296092
 30
0.0
 40
4.0
  1
KC-128-XC
 41
0.9
 72
     1
 11
1970.057138136408
 21
-845.5185278296092
 31
0.0
100
AcDbText
  0
TEXT
  5
20C37
330
18
100
AcDbEntity
  8
1TEXT
100
AcDbText
 10
1963.190471469741
 20
-838.3041708459598
 30
0.0
 40
4.0
  1
コード
 72
     1
 11
1970.057138136408
 21
-838.3041708459598
 31
0.0
100
AcDbText
  0
LINE
  5
20C38
330
18
100
AcDbEntity
  8
1DIM
100
AcDbLine
 10
1917.657138136407
 20
-846.8041708459598
 30
0.0
 11
1917.657138136407
 21
-832.8041708459598
 31
0.0
  0
LINE
  5
20C39
330
18
100
AcDbEntity
  8
1DIM
100
AcDbLine
 10
1987.657138136407
 20
-846.8041708459598
 30
0.0
 11
1987.657138136407
 21
-832.8041708459598
 31
0.0
  0
TEXT
  5
20C3A
330
18
100
AcDbEntity
  8
1TEXT
100
AcDbText
 10
1917.657138136407
 20
-827.8041708459598
 30
0.0
 40
8.0
  1
KC-128-XC
100
AcDbText
  0
LINE
  5
21B51
330
18
100
AcDbEntity
  8
01
100
AcDbLine
 10
1965.043191445188
 20
-948.9086891514546
 30
0.0
 11
1938.543191445189
 21
-948.9086891514546
 31
0.0
  0
LINE
  5
21B53
330
18
100
AcDbEntity
  8
01
100
AcDbLine
 10
1938.543191445189
 20
-891.4086891514546
 30
0.0
 11
1938.543191445189
 21
-948.9086891514546
 31
0.0
  0
LINE
  5
21B56
330
18
100
AcDbEntity
  8
01
100
AcDbLine
 10
1965.043191445188
 20
-891.4086891514546
 30
0.0
 11
1965.043191445188
 21
-948.9086891514546
 31
0.0
  0
ARC
  5
21B57
330
18
100
AcDbEntity
  8
01
100
AcDbCircle
 10
1964.043191445188
 20
-891.4086891514546
 30
0.0
 40
1.0
100
AcDbArc
 50
0.0
 51
90.0
  0
LINE
  5
21B58
330
18
100
AcDbEntity
  8
1CENTER
100
AcDbLine
 10
1951.793191445188
 20
-886.227282310819
 30
0.0
 11
1951.793191445188
 21
-951.7960166019986
 31
0.0
  0
LINE
  5
21B59
330
18
100
AcDbEntity
  8
01
100
AcDbLine
 10
1939.543191445189
 20
-890.4086891514546
 30
0.0
 11
1964.043191445188
 21
-890.4086891514546
 31
0.0
  0
ARC
  5
21B5A
330
18
100
AcDbEntity
  8
01
100
AcDbCircle
 10
1939.543191445189
 20
-891.4086891514546
 30
0.0
 40
1.0
100
AcDbArc
 50
90.0
 51
180.0
  0
LINE
  5
21B5D
330
18
100
AcDbEntity
  8
1CENTER
100
AcDbLine
 10
1956.793191445188
 20
-923.9086891514546
 30
0.0
 11
1946.793191445188
 21
-923.9086891514546
 31
0.0
  0
CIRCLE
  5
21B5E
330
18
100
AcDbEntity
  8
01
100
AcDbCircle
 10
1951.793191445188
 20
-923.9086891514546
 30
0.0
 40
2.749999999999545
  0
CIRCLE
  5
21B5F
330
18
100
AcDbEntity
  8
01
100
AcDbCircle
 10
1951.793191445188
 20
-923.9086891514546
 30
0.0
 40
4.25
  0
LINE
  5
21BD3
330
18
100
AcDbEntity
  8
01
100
AcDbLine
 10
1834.903453415736
 20
-839.0588829495329
 30
0.0
 11
1790.153453415736
 21
-839.058882949533
 31
0.0
  0
LINE
  5
21BD4
330
18
100
AcDbEntity
  8
01
100
AcDbLine
 10
1834.903453415736
 20
-833.0588829495329
 30
0.0
 11
1790.153453415736
 21
-833.0588829495329
 31
0.0
  0
LINE
  5
21BD5
330
18
100
AcDbEntity
  8
01
100
AcDbLine
 10
1847.653453415736
 20
-822.8088829495329
 30
0.0
 11
1791.153453415736
 21
-822.8088829495329
 31
0.0
  0
ARC
  5
21BD6
330
18
100
AcDbEntity
  8
01
100
AcDbCircle
 10
1791.153453415736
 20
-823.8088829495329
 30
0.0
 40
1.0
100
AcDbArc
 50
90.0
 51
180.0
  0
LINE
  5
21BD7
330
18
100
AcDbEntity
  8
01
100
AcDbLine
 10
1847.653453415736
 20
-849.3088829495329
 30
0.0
 11
1791.153453415736
 21
-849.3088829495329
 31
0.0
  0
ARC
  5
21BD8
330
18
100
AcDbEntity
  8
01
100
AcDbCircle
 10
1847.653453415736
 20
-848.3088829495329
 30
0.0
 40
1.0
100
AcDbArc
 50
270.0
 51
0.0
  0
LINE
  5
21BD9
330
18
100
AcDbEntity
  8
01
100
AcDbLine
 10
1848.653453415736
 20
-848.3088829495329
 30
0.0
 11
1848.653453415736
 21
-823.8088829495329
 31
0.0
  0
ARC
  5
21BDA
330
18
100
AcDbEntity
  8
01
100
AcDbCircle
 10
1847.653453415736
 20
-823.8088829495329
 30
0.0
 40
1.0
100
AcDbArc
 50
0.0
 51
90.0
  0
LINE
  5
21BDB
330
18
100
AcDbEntity
  8
01
100
AcDbLine
 10
1790.153453415736
 20
-848.3088829495327
 30
0.0
 11
1790.153453415736
 21
-838.8088829495331
 31
0.0
  0
LINE
  5
21BDC
330
18
100
AcDbEntity
  8
01
100
AcDbLine
 10
1790.153453415736
 20
-833.0588829495329
 30
0.0
 11
1790.153453415736
 21
-823.8088829495329
 31
0.0
  0
ARC
  5
21BDD
330
18
100
AcDbEntity
  8
01
100
AcDbCircle
 10
1791.153453415736
 20
-848.3088829495327
 30
0.0
 40
1.0
100
AcDbArc
 50
180.0
 51
270.0
  0
LINE
  5
21BDE
330
18
100
AcDbEntity
  8
1CENTER
100
AcDbLine
 10
1835.453453415736
 20
-829.0588829495324
 30
0.0
 11
1845.853453415736
 21
-829.0588829495324
 31
0.0
  0
LINE
  5
21BDF
330
18
100
AcDbEntity
  8
1CENTER
100
AcDbLine
 10
1840.653453415736
 20
-834.2588829495322
 30
0.0
 11
1840.653453415736
 21
-823.8588829495326
 31
0.0
  0
LINE
  5
21BE0
330
18
100
AcDbEntity
  8
1CENTER
100
AcDbLine
 10
1793.453453415736
 20
-829.0588829495324
 30
0.0
 11
1803.853453415736
 21
-829.0588829495324
 31
0.0
  0
LINE
  5
21BE1
330
18
100
AcDbEntity
  8
1CENTER
100
AcDbLine
 10
1798.653453415736
 20
-834.2588829495322
 30
0.0
 11
1798.653453415736
 21
-823.8588829495326
 31
0.0
  0
LINE
  5
21BE2
330
18
100
AcDbEntity
  8
1CENTER
100
AcDbLine
 10
1814.453453415736
 20
-843.0588829495333
 30
0.0
 11
1824.853453415736
 21
-843.0588829495333
 31
0.0
  0
LINE
  5
21BE3
330
18
100
AcDbEntity
  8
1CENTER
100
AcDbLine
 10
1819.653453415736
 20
-837.858882949533
 30
0.0
 11
1819.653453415736
 21
-848.2588829495331
 31
0.0
  0
ARC
  5
21BE4
330
18
100
AcDbEntity
  8
1PHANTOM
100
AcDbCircle
 10
1799.653453415736
 20
-829.0588829495329
 30
0.0
 40
2.25
100
AcDbArc
 50
270.0
 51
90.0
  0
ARC
  5
21BE5
330
18
100
AcDbEntity
  8
1PHANTOM
100
AcDbCircle
 10
1839.653453415736
 20
-829.0588829495324
 30
0.0
 40
2.25
100
AcDbArc
 50
90.0
 51
270.0
  0
ARC
  5
21BE6
330
18
100
AcDbEntity
  8
1PHANTOM
100
AcDbCircle
 10
1820.653453415736
 20
-843.0588829495333
 30
0.0
 40
2.25
100
AcDbArc
 50
270.0
 51
90.0
  0
ARC
  5
21BE7
330
18
100
AcDbEntity
  8
1PHANTOM
100
AcDbCircle
 10
1797.653453415736
 20
-829.0588829495329
 30
0.0
 40
2.25
100
AcDbArc
 50
90.0
 51
270.0
  0
LINE
  5
21BE8
330
18
100
AcDbEntity
  8
1PHANTOM
100
AcDbLine
 10
1797.653453415736
 20
-826.8088829495329
 30
0.0
 11
1799.653453415736
 21
-826.8088829495329
 31
0.0
  0
LINE
  5
21BE9
330
18
100
AcDbEntity
  8
1PHANTOM
100
AcDbLine
 10
1797.653453415736
 20
-831.3088829495329
 30
0.0
 11
1799.653453415736
 21
-831.3088829495329
 31
0.0
  0
ARC
  5
21BEA
330
18
100
AcDbEntity
  8
1PHANTOM
100
AcDbCircle
 10
1841.653453415736
 20
-829.0588829495324
 30
0.0
 40
2.25
100
AcDbArc
 50
270.0
 51
90.0
  0
LINE
  5
21BEB
330
18
100
AcDbEntity
  8
1PHANTOM
100
AcDbLine
 10
1839.653453415736
 20
-826.8088829495324
 30
0.0
 11
1841.653453415736
 21
-826.8088829495324
 31
0.0
  0
LINE
  5
21BEC
330
18
100
AcDbEntity
  8
1PHANTOM
100
AcDbLine
 10
1839.653453415736
 20
-831.3088829495324
 30
0.0
 11
1841.653453415736
 21
-831.3088829495324
 31
0.0
  0
ARC
  5
21BED
330
18
100
AcDbEntity
  8
1PHANTOM
100
AcDbCircle
 10
1818.653453415736
 20
-843.0588829495333
 30
0.0
 40
2.25
100
AcDbArc
 50
90.0
 51
270.0
  0
LINE
  5
21BEE
330
18
100
AcDbEntity
  8
1PHANTOM
100
AcDbLine
 10
1818.653453415736
 20
-840.8088829495333
 30
0.0
 11
1820.653453415736
 21
-840.8088829495333
 31
0.0
  0
LINE
  5
21BEF
330
18
100
AcDbEntity
  8
1PHANTOM
100
AcDbLine
 10
1818.653453415736
 20
-845.3088829495333
 30
0.0
 11
1820.653453415736
 21
-845.3088829495333
 31
0.0
  0
LINE
  5
21C59
330
18
100
AcDbEntity
  8
1PHANTOM
100
AcDbLine
 10
1944.793191445188
 20
-982.9086891514005
 30
0.0
 11
1943.293191445188
 21
-977.6086856611548
 31
0.0
  0
LINE
  5
21C5A
330
18
100
AcDbEntity
  8
1PHANTOM
100
AcDbLine
 10
1944.793191445188
 20
-982.9086891514005
 30
0.0
 11
1946.293191445188
 21
-977.6086926415394
 31
0.0
  0
LINE
  5
21C5B
330
18
100
AcDbEntity
  8
1PHANTOM
100
AcDbLine
 10
1943.293191445188
 20
-977.6086856611546
 30
0.0
 11
1943.293191445188
 21
-927.9086856612623
 31
0.0
  0
LINE
  5
21C5C
330
18
100
AcDbEntity
  8
1PHANTOM
100
AcDbLine
 10
1946.293191445188
 20
-977.6086926415386
 30
0.0
 11
1946.293191445187
 21
-927.9086926416464
 31
0.0
  0
LINE
  5
21C5D
330
18
100
AcDbEntity
  8
1PHANTOM
100
AcDbLine
 10
1943.293191445188
 20
-927.9086856612623
 30
0.0
 11
1941.293237981086
 21
-927.9086810077808
 31
0.0
  0
LINE
  5
21C5E
330
18
100
AcDbEntity
  8
1PHANTOM
100
AcDbLine
 10
1948.293237981086
 20
-927.9086972953448
 30
0.0
 11
1946.293191445188
 21
-927.9086926416469
 31
0.0
  0
LINE
  5
21C5F
330
18
100
AcDbEntity
  8
1PHANTOM
100
AcDbLine
 10
1941.293237981086
 20
-927.9086810077808
 30
0.0
 11
1941.293237981086
 21
-926.80868449797
 31
0.0
  0
LINE
  5
21C60
330
18
100
AcDbEntity
  8
1PHANTOM
100
AcDbLine
 10
1948.293237981086
 20
-927.9086972953448
 30
0.0
 11
1948.293237981086
 21
-926.8086938051495
 31
0.0
  0
ARC
  5
21C61
330
18
100
AcDbEntity
  8
1PHANTOM
100
AcDbCircle
 10
1942.793237981086
 20
-926.80868449797
 30
0.0
 40
1.5
100
AcDbArc
 50
89.9998666844619
 51
180.0
  0
ARC
  5
21C62
330
18
100
AcDbEntity
  8
1PHANTOM
100
AcDbCircle
 10
1946.793237981086
 20
-926.8086938051495
 30
0.0
 40
1.5
100
AcDbArc
 50
0.0
 51
89.9998666844619
  0
LINE
  5
21C63
330
18
100
AcDbEntity
  8
1PHANTOM
100
AcDbLine
 10
1946.793241471278
 20
-925.3086938051536
 30
0.0
 11
1942.793241471278
 21
-925.3086844979741
 31
0.0
  0
LINE
  5
21C64
330
18
100
AcDbEntity
  8
1PHANTOM
100
AcDbLine
 10
1945.887561795081
 20
-980.8086916977225
 30
0.0
 11
1943.925226706206
 21
-981.6086871317736
 31
0.0
  0
LINE
  5
21C65
330
18
100
AcDbEntity
  8
1CENTER
100
AcDbLine
 10
1944.793237981086
 20
-975.8696037427087
 30
0.0
 11
1944.793237981086
 21
-924.4213055058447
 31
0.0
  0
LINE
  5
21C66
330
18
100
AcDbEntity
  8
1PHANTOM
100
AcDbLine
 10
1943.925226706206
 20
-981.6086871317736
 30
0.0
 11
1944.513503281248
 21
-981.9204569880255
 31
0.0
  0
LINE
  5
21C67
330
18
100
AcDbEntity
  8
1PHANTOM
100
AcDbLine
 10
1946.793191445188
 20
-948.4086938049325
 30
0.0
 11
1942.793191445188
 21
-949.2086844977509
 31
0.0
  0
LINE
  5
21C68
330
18
100
AcDbEntity
  8
1PHANTOM
100
AcDbLine
 10
1946.793191445188
 20
-959.6086938049368
 30
0.0
 11
1942.793191445188
 21
-960.4086844977594
 31
0.0
  0
LINE
  5
21C69
330
18
100
AcDbEntity
  8
1PHANTOM
100
AcDbLine
 10
1946.793191445188
 20
-961.2086938049372
 30
0.0
 11
1942.793191445188
 21
-962.0086844977598
 31
0.0
  0
LINE
  5
21C6A
330
18
100
AcDbEntity
  8
1PHANTOM
100
AcDbLine
 10
1946.293191445188
 20
-961.1086926415398
 30
0.0
 11
1946.793191445188
 21
-961.2086938049372
 31
0.0
  0
LINE
  5
21C6B
330
18
100
AcDbEntity
  8
1PHANTOM
100
AcDbLine
 10
1946.293191445188
 20
-962.7086926415398
 30
0.0
 11
1946.793191445188
 21
-962.8086938049371
 31
0.0
  0
LINE
  5
21C6C
330
18
100
AcDbEntity
  8
1PHANTOM
100
AcDbLine
 10
1942.793191445188
 20
-962.0086844977598
 30
0.0
 11
1943.293191445188
 21
-962.1086856611566
 31
0.0
  0
LINE
  5
21C6D
330
18
100
AcDbEntity
  8
1PHANTOM
100
AcDbLine
 10
1942.793191445188
 20
-960.4086844977594
 30
0.0
 11
1943.293191445188
 21
-960.5086856611567
 31
0.0
  0
LINE
  5
21C6E
330
18
100
AcDbEntity
  8
1PHANTOM
100
AcDbLine
 10
1946.293191445188
 20
-964.3086926415397
 30
0.0
 11
1946.793191445188
 21
-964.408693804937
 31
0.0
  0
LINE
  5
21C6F
330
18
100
AcDbEntity
  8
1PHANTOM
100
AcDbLine
 10
1942.793191445188
 20
-963.6086844977597
 30
0.0
 11
1943.293191445188
 21
-963.708685661157
 31
0.0
  0
LINE
  5
21C70
330
18
100
AcDbEntity
  8
1PHANTOM
100
AcDbLine
 10
1946.793191445188
 20
-962.8086938049371
 30
0.0
 11
1942.793191445188
 21
-963.6086844977597
 31
0.0
  0
LINE
  5
21C71
330
18
100
AcDbEntity
  8
1PHANTOM
100
AcDbLine
 10
1946.793191445188
 20
-977.6086938049368
 30
0.0
 11
1943.019598497392
 21
-978.4086850245624
 31
0.0
  0
LINE
  5
21C72
330
18
100
AcDbEntity
  8
1PHANTOM
100
AcDbLine
 10
1946.793191445188
 20
-966.0086938049369
 30
0.0
 11
1942.793191445188
 21
-966.8086844977595
 31
0.0
  0
LINE
  5
21C73
330
18
100
AcDbEntity
  8
1PHANTOM
100
AcDbLine
 10
1946.340375303129
 20
-979.2086927513267
 30
0.0
 11
1943.472412601799
 21
-980.0086860781678
 31
0.0
  0
LINE
  5
21C74
330
18
100
AcDbEntity
  8
1PHANTOM
100
AcDbLine
 10
1945.43038995445
 20
-980.6572559012823
 30
0.0
 11
1945.887561795081
 21
-980.8086916977225
 31
0.0
  0
LINE
  5
21C75
330
18
100
AcDbEntity
  8
1PHANTOM
100
AcDbLine
 10
1946.293191445188
 20
-977.5086926415399
 30
0.0
 11
1946.793191445188
 21
-977.6086938049368
 31
0.0
  0
LINE
  5
21C76
330
18
100
AcDbEntity
  8
1PHANTOM
100
AcDbLine
 10
1946.293191445188
 20
-965.90869264154
 30
0.0
 11
1946.793191445188
 21
-966.0086938049369
 31
0.0
  0
LINE
  5
21C77
330
18
100
AcDbEntity
  8
1PHANTOM
100
AcDbLine
 10
1945.872276847979
 20
-979.0959232389766
 30
0.0
 11
1946.340375303129
 21
-979.2086927513267
 31
0.0
  0
LINE
  5
21C78
330
18
100
AcDbEntity
  8
1PHANTOM
100
AcDbLine
 10
1943.019598497392
 20
-978.4086850245624
 30
0.0
 11
1943.556192232663
 21
-978.537955722192
 31
0.0
  0
LINE
  5
21C79
330
18
100
AcDbEntity
  8
1PHANTOM
100
AcDbLine
 10
1942.793191445188
 20
-965.2086844977596
 30
0.0
 11
1943.293191445188
 21
-965.3086856611565
 31
0.0
  0
LINE
  5
21C7A
330
18
100
AcDbEntity
  8
1PHANTOM
100
AcDbLine
 10
1942.793191445188
 20
-966.8086844977595
 30
0.0
 11
1943.293191445188
 21
-966.9086856611568
 31
0.0
  0
LINE
  5
21C7B
330
18
100
AcDbEntity
  8
1PHANTOM
100
AcDbLine
 10
1943.472412601799
 20
-980.0086860781678
 30
0.0
 11
1944.024162065602
 21
-980.1914502207958
 31
0.0
  0
LINE
  5
21C7C
330
18
100
AcDbEntity
  8
1PHANTOM
100
AcDbLine
 10
1946.793191445188
 20
-964.408693804937
 30
0.0
 11
1942.793191445188
 21
-965.2086844977596
 31
0.0
  0
LINE
  5
21C7D
330
18
100
AcDbEntity
  8
1PHANTOM
100
AcDbLine
 10
1946.793191445188
 20
-950.0086938049324
 30
0.0
 11
1942.793191445188
 21
-950.8086844977508
 31
0.0
  0
LINE
  5
21C7E
330
18
100
AcDbEntity
  8
1PHANTOM
100
AcDbLine
 10
1946.293191445188
 20
-949.908692641535
 30
0.0
 11
1946.793191445188
 21
-950.0086938049324
 31
0.0
  0
LINE
  5
21C7F
330
18
100
AcDbEntity
  8
1PHANTOM
100
AcDbLine
 10
1946.293191445188
 20
-951.5086926415349
 30
0.0
 11
1946.793191445188
 21
-951.6086938049327
 31
0.0
  0
LINE
  5
21C80
330
18
100
AcDbEntity
  8
1PHANTOM
100
AcDbLine
 10
1942.793191445188
 20
-949.2086844977509
 30
0.0
 11
1943.293191445188
 21
-949.3086856611487
 31
0.0
  0
LINE
  5
21C81
330
18
100
AcDbEntity
  8
1PHANTOM
100
AcDbLine
 10
1942.793191445188
 20
-950.8086844977508
 30
0.0
 11
1943.293191445188
 21
-950.9086856611486
 31
0.0
  0
LINE
  5
21C82
330
18
100
AcDbEntity
  8
1PHANTOM
100
AcDbLine
 10
1946.293191445188
 20
-953.1086926415394
 30
0.0
 11
1946.793191445188
 21
-953.2086938049372
 31
0.0
  0
LINE
  5
21C83
330
18
100
AcDbEntity
  8
1PHANTOM
100
AcDbLine
 10
1942.793191445188
 20
-952.4086844977508
 30
0.0
 11
1943.293191445188
 21
-952.5086856611485
 31
0.0
  0
LINE
  5
21C84
330
18
100
AcDbEntity
  8
1PHANTOM
100
AcDbLine
 10
1946.793191445188
 20
-951.6086938049327
 30
0.0
 11
1942.793191445188
 21
-952.4086844977508
 31
0.0
  0
LINE
  5
21C85
330
18
100
AcDbEntity
  8
1PHANTOM
100
AcDbLine
 10
1946.793191445188
 20
-954.8086938049371
 30
0.0
 11
1942.793191445188
 21
-955.6086844977551
 31
0.0
  0
LINE
  5
21C86
330
18
100
AcDbEntity
  8
1PHANTOM
100
AcDbLine
 10
1946.793191445188
 20
-958.0086938049369
 30
0.0
 11
1942.793191445188
 21
-958.8086844977595
 31
0.0
  0
LINE
  5
21C87
330
18
100
AcDbEntity
  8
1PHANTOM
100
AcDbLine
 10
1946.793191445188
 20
-956.408693804937
 30
0.0
 11
1942.793191445188
 21
-957.2086844977555
 31
0.0
  0
LINE
  5
21C88
330
18
100
AcDbEntity
  8
1PHANTOM
100
AcDbLine
 10
1946.293191445188
 20
-956.3086926415392
 30
0.0
 11
1946.793191445188
 21
-956.408693804937
 31
0.0
  0
LINE
  5
21C89
330
18
100
AcDbEntity
  8
1PHANTOM
100
AcDbLine
 10
1946.293191445188
 20
-954.7086926415393
 30
0.0
 11
1946.793191445188
 21
-954.8086938049371
 31
0.0
  0
LINE
  5
21C8A
330
18
100
AcDbEntity
  8
1PHANTOM
100
AcDbLine
 10
1946.293191445188
 20
-957.9086926415391
 30
0.0
 11
1946.793191445188
 21
-958.0086938049369
 31
0.0
  0
LINE
  5
21C8B
330
18
100
AcDbEntity
  8
1PHANTOM
100
AcDbLine
 10
1946.293191445188
 20
-959.5086926415399
 30
0.0
 11
1946.793191445188
 21
-959.6086938049368
 31
0.0
  0
LINE
  5
21C8C
330
18
100
AcDbEntity
  8
1PHANTOM
100
AcDbLine
 10
1942.793191445188
 20
-955.6086844977551
 30
0.0
 11
1943.293191445188
 21
-955.7086856611529
 31
0.0
  0
LINE
  5
21C8D
330
18
100
AcDbEntity
  8
1PHANTOM
100
AcDbLine
 10
1942.793191445188
 20
-954.0086844977552
 30
0.0
 11
1943.293191445188
 21
-954.108685661153
 31
0.0
  0
LINE
  5
21C8E
330
18
100
AcDbEntity
  8
1PHANTOM
100
AcDbLine
 10
1942.793191445188
 20
-958.8086844977595
 30
0.0
 11
1943.293191445188
 21
-958.9086856611568
 31
0.0
  0
LINE
  5
21C8F
330
18
100
AcDbEntity
  8
1PHANTOM
100
AcDbLine
 10
1942.793191445188
 20
-957.2086844977555
 30
0.0
 11
1943.293191445188
 21
-957.3086856611528
 31
0.0
  0
LINE
  5
21C90
330
18
100
AcDbEntity
  8
1PHANTOM
100
AcDbLine
 10
1946.793191445188
 20
-953.2086938049372
 30
0.0
 11
1942.793191445188
 21
-954.0086844977552
 31
0.0
  0
LINE
  5
21C91
330
18
100
AcDbEntity
  8
1PHANTOM
100
AcDbLine
 10
1943.293191445188
 20
-927.9086856612623
 30
0.0
 11
1946.293191445188
 21
-927.9086926416469
 31
0.0
  0
LINE
  5
21C92
330
18
100
AcDbEntity
  8
1PHANTOM
100
AcDbLine
 10
1946.293191445188
 20
-948.3086926415351
 30
0.0
 11
1946.793191445188
 21
-948.4086938049325
 31
0.0
  0
LINE
  5
21C93
330
18
100
AcDbEntity
  8
1PHANTOM
100
AcDbLine
 10
1946.793191445188
 20
-930.808693804928
 30
0.0
 11
1942.793191445188
 21
-931.6086844977465
 31
0.0
  0
LINE
  5
21C94
330
18
100
AcDbEntity
  8
1PHANTOM
100
AcDbLine
 10
1946.793191445188
 20
-942.0086938049324
 30
0.0
 11
1942.793191445188
 21
-942.8086844977549
 31
0.0
  0
LINE
  5
21C95
330
18
100
AcDbEntity
  8
1PHANTOM
100
AcDbLine
 10
1946.793191445188
 20
-943.6086938049327
 30
0.0
 11
1942.793191445188
 21
-944.4086844977553
 31
0.0
  0
LINE
  5
21C96
330
18
100
AcDbEntity
  8
1PHANTOM
100
AcDbLine
 10
1946.293191445188
 20
-943.5086926415354
 30
0.0
 11
1946.793191445188
 21
-943.6086938049327
 31
0.0
  0
LINE
  5
21C97
330
18
100
AcDbEntity
  8
1PHANTOM
100
AcDbLine
 10
1946.293191445188
 20
-945.1086926415353
 30
0.0
 11
1946.793191445188
 21
-945.2086938049326
 31
0.0
  0
LINE
  5
21C98
330
18
100
AcDbEntity
  8
1PHANTOM
100
AcDbLine
 10
1942.793191445188
 20
-944.4086844977553
 30
0.0
 11
1943.293191445188
 21
-944.5086856611522
 31
0.0
  0
LINE
  5
21C99
330
18
100
AcDbEntity
  8
1PHANTOM
100
AcDbLine
 10
1942.793191445188
 20
-942.8086844977549
 30
0.0
 11
1943.293191445188
 21
-942.9086856611523
 31
0.0
  0
LINE
  5
21C9A
330
18
100
AcDbEntity
  8
1PHANTOM
100
AcDbLine
 10
1946.293191445188
 20
-946.7086926415352
 30
0.0
 11
1946.793191445188
 21
-946.8086938049325
 31
0.0
  0
LINE
  5
21C9B
330
18
100
AcDbEntity
  8
1PHANTOM
100
AcDbLine
 10
1942.793191445188
 20
-946.0086844977552
 30
0.0
 11
1943.293191445188
 21
-946.1086856611525
 31
0.0
  0
LINE
  5
21C9C
330
18
100
AcDbEntity
  8
1PHANTOM
100
AcDbLine
 10
1946.793191445188
 20
-945.2086938049326
 30
0.0
 11
1942.793191445188
 21
-946.0086844977552
 31
0.0
  0
LINE
  5
21C9D
330
18
100
AcDbEntity
  8
1PHANTOM
100
AcDbLine
 10
1942.793191445188
 20
-947.6086844977551
 30
0.0
 11
1943.293191445188
 21
-947.708685661152
 31
0.0
  0
LINE
  5
21C9E
330
18
100
AcDbEntity
  8
1PHANTOM
100
AcDbLine
 10
1946.793191445188
 20
-946.8086938049325
 30
0.0
 11
1942.793191445188
 21
-947.6086844977551
 31
0.0
  0
LINE
  5
21C9F
330
18
100
AcDbEntity
  8
1PHANTOM
100
AcDbLine
 10
1946.793191445188
 20
-932.4086938049279
 30
0.0
 11
1942.793191445188
 21
-933.2086844977464
 31
0.0
  0
LINE
  5
21CA0
330
18
100
AcDbEntity
  8
1PHANTOM
100
AcDbLine
 10
1946.293191445188
 20
-932.3086926415306
 30
0.0
 11
1946.793191445188
 21
-932.4086938049279
 31
0.0
  0
LINE
  5
21CA1
330
18
100
AcDbEntity
  8
1PHANTOM
100
AcDbLine
 10
1946.293191445188
 20
-933.9086926415305
 30
0.0
 11
1946.793191445188
 21
-934.0086938049283
 31
0.0
  0
LINE
  5
21CA2
330
18
100
AcDbEntity
  8
1PHANTOM
100
AcDbLine
 10
1942.793191445188
 20
-931.6086844977465
 30
0.0
 11
1943.293191445188
 21
-931.7086856611443
 31
0.0
  0
LINE
  5
21CA3
330
18
100
AcDbEntity
  8
1PHANTOM
100
AcDbLine
 10
1942.793191445188
 20
-933.2086844977464
 30
0.0
 11
1943.293191445188
 21
-933.3086856611442
 31
0.0
  0
LINE
  5
21CA4
330
18
100
AcDbEntity
  8
1PHANTOM
100
AcDbLine
 10
1946.293191445188
 20
-935.5086926415349
 30
0.0
 11
1946.793191445188
 21
-935.6086938049327
 31
0.0
  0
LINE
  5
21CA5
330
18
100
AcDbEntity
  8
1PHANTOM
100
AcDbLine
 10
1942.793191445188
 20
-934.8086844977463
 30
0.0
 11
1943.293191445188
 21
-934.9086856611441
 31
0.0
  0
LINE
  5
21CA6
330
18
100
AcDbEntity
  8
1PHANTOM
100
AcDbLine
 10
1946.793191445188
 20
-934.0086938049283
 30
0.0
 11
1942.793191445188
 21
-934.8086844977463
 31
0.0
  0
LINE
  5
21CA7
330
18
100
AcDbEntity
  8
1PHANTOM
100
AcDbLine
 10
1946.793191445188
 20
-937.2086938049326
 30
0.0
 11
1942.793191445188
 21
-938.0086844977507
 31
0.0
  0
LINE
  5
21CA8
330
18
100
AcDbEntity
  8
1PHANTOM
100
AcDbLine
 10
1946.793191445188
 20
-940.4086938049325
 30
0.0
 11
1942.793191445188
 21
-941.208684497755
 31
0.0
  0
LINE
  5
21CA9
330
18
100
AcDbEntity
  8
1PHANTOM
100
AcDbLine
 10
1946.793191445188
 20
-938.8086938049325
 30
0.0
 11
1942.793191445188
 21
-939.608684497751
 31
0.0
  0
LINE
  5
21CAA
330
18
100
AcDbEntity
  8
1PHANTOM
100
AcDbLine
 10
1946.293191445188
 20
-938.7086926415348
 30
0.0
 11
1946.793191445188
 21
-938.8086938049325
 31
0.0
  0
LINE
  5
21CAB
330
18
100
AcDbEntity
  8
1PHANTOM
100
AcDbLine
 10
1946.293191445188
 20
-937.1086926415348
 30
0.0
 11
1946.793191445188
 21
-937.2086938049326
 31
0.0
  0
LINE
  5
21CAC
330
18
100
AcDbEntity
  8
1PHANTOM
100
AcDbLine
 10
1946.293191445188
 20
-940.3086926415347
 30
0.0
 11
1946.793191445188
 21
-940.4086938049325
 31
0.0
  0
LINE
  5
21CAD
330
18
100
AcDbEntity
  8
1PHANTOM
100
AcDbLine
 10
1946.293191445188
 20
-941.9086926415355
 30
0.0
 11
1946.793191445188
 21
-942.0086938049324
 31
0.0
  0
LINE
  5
21CAE
330
18
100
AcDbEntity
  8
1PHANTOM
100
AcDbLine
 10
1942.793191445188
 20
-938.0086844977507
 30
0.0
 11
1943.293191445188
 21
-938.1086856611485
 31
0.0
  0
LINE
  5
21CAF
330
18
100
AcDbEntity
  8
1PHANTOM
100
AcDbLine
 10
1942.793191445188
 20
-936.4086844977508
 30
0.0
 11
1943.293191445188
 21
-936.5086856611485
 31
0.0
  0
LINE
  5
21CB0
330
18
100
AcDbEntity
  8
1PHANTOM
100
AcDbLine
 10
1942.793191445188
 20
-941.208684497755
 30
0.0
 11
1943.293191445188
 21
-941.3086856611524
 31
0.0
  0
LINE
  5
21CB1
330
18
100
AcDbEntity
  8
1PHANTOM
100
AcDbLine
 10
1942.793191445188
 20
-939.608684497751
 30
0.0
 11
1943.293191445188
 21
-939.7086856611484
 31
0.0
  0
LINE
  5
21CB2
330
18
100
AcDbEntity
  8
1PHANTOM
100
AcDbLine
 10
1946.793191445188
 20
-935.6086938049327
 30
0.0
 11
1942.793191445188
 21
-936.4086844977508
 31
0.0
  0
LINE
  5
21CB3
330
18
100
AcDbEntity
  8
1PHANTOM
100
AcDbLine
 10
1946.293191445188
 20
-930.7086926415307
 30
0.0
 11
1946.793191445188
 21
-930.808693804928
 31
0.0
  0
LINE
  5
21CB4
330
18
100
AcDbEntity
  8
1PHANTOM
100
AcDbLine
 10
1946.793191445188
 20
-929.2086938049281
 30
0.0
 11
1942.793191445188
 21
-930.0086844977466
 31
0.0
  0
LINE
  5
21CB5
330
18
100
AcDbEntity
  8
1PHANTOM
100
AcDbLine
 10
1942.793191445188
 20
-930.0086844977466
 30
0.0
 11
1943.293191445188
 21
-930.1086856611444
 31
0.0
  0
LINE
  5
21CB6
330
18
100
AcDbEntity
  8
1PHANTOM
100
AcDbLine
 10
1946.293191445188
 20
-929.1086926415308
 30
0.0
 11
1946.793191445188
 21
-929.2086938049281
 31
0.0
  0
LINE
  5
21CB9
330
18
100
AcDbEntity
  8
1PHANTOM
100
AcDbLine
 10
1941.293237981086
 20
-927.9086810077808
 30
0.0
 11
1941.293237981086
 21
-928.9086891514546
 31
0.0
  0
LINE
  5
21CBA
330
18
100
AcDbEntity
  8
1PHANTOM
100
AcDbLine
 10
1948.293237981086
 20
-927.9086972953448
 30
0.0
 11
1948.293237981086
 21
-928.9086891514546
 31
0.0
  0
LINE
  5
21CBB
330
18
100
AcDbEntity
  8
1PHANTOM
100
AcDbLine
 10
1948.293237981086
 20
-928.9086891514546
 30
0.0
 11
1941.293237981086
 21
-928.9086891514546
 31
0.0
  0
LINE
  5
21CBC
330
18
100
AcDbEntity
  8
1PHANTOM
100
AcDbLine
 10
1944.793191445188
 20
-927.9086891514546
 30
0.0
 11
1944.215841175998
 21
-928.9086891514546
 31
0.0
  0
LINE
  5
21CBE
330
18
100
AcDbEntity
  8
1PHANTOM
100
AcDbLine
 10
1958.793191445189
 20
-982.9086891514005
 30
0.0
 11
1957.293191445189
 21
-977.6086856611548
 31
0.0
  0
LINE
  5
21CBF
330
18
100
AcDbEntity
  8
1PHANTOM
100
AcDbLine
 10
1958.793191445189
 20
-982.9086891514005
 30
0.0
 11
1960.293191445189
 21
-977.6086926415394
 31
0.0
  0
LINE
  5
21CC0
330
18
100
AcDbEntity
  8
1PHANTOM
100
AcDbLine
 10
1957.293191445189
 20
-977.6086856611546
 30
0.0
 11
1957.293191445189
 21
-927.9086856612623
 31
0.0
  0
LINE
  5
21CC1
330
18
100
AcDbEntity
  8
1PHANTOM
100
AcDbLine
 10
1960.293191445189
 20
-977.6086926415394
 30
0.0
 11
1960.293191445188
 21
-927.9086926416464
 31
0.0
  0
LINE
  5
21CC2
330
18
100
AcDbEntity
  8
1PHANTOM
100
AcDbLine
 10
1957.293191445189
 20
-927.9086856612623
 30
0.0
 11
1955.293237981087
 21
-927.9086810077808
 31
0.0
  0
LINE
  5
21CC3
330
18
100
AcDbEntity
  8
1PHANTOM
100
AcDbLine
 10
1962.293237981087
 20
-927.9086972953448
 30
0.0
 11
1960.293191445189
 21
-927.9086926416469
 31
0.0
  0
LINE
  5
21CC4
330
18
100
AcDbEntity
  8
1PHANTOM
100
AcDbLine
 10
1955.293237981087
 20
-927.9086810077808
 30
0.0
 11
1955.293237981087
 21
-926.80868449797
 31
0.0
  0
LINE
  5
21CC5
330
18
100
AcDbEntity
  8
1PHANTOM
100
AcDbLine
 10
1962.293237981087
 20
-927.9086972953448
 30
0.0
 11
1962.293237981087
 21
-926.8086938051495
 31
0.0
  0
ARC
  5
21CC6
330
18
100
AcDbEntity
  8
1PHANTOM
100
AcDbCircle
 10
1956.793237981087
 20
-926.80868449797
 30
0.0
 40
1.5
100
AcDbArc
 50
89.9998666844619
 51
180.0
  0
ARC
  5
21CC7
330
18
100
AcDbEntity
  8
1PHANTOM
100
AcDbCircle
 10
1960.793237981087
 20
-926.8086938051495
 30
0.0
 40
1.5
100
AcDbArc
 50
0.0
 51
89.9998666844619
  0
LINE
  5
21CC8
330
18
100
AcDbEntity
  8
1PHANTOM
100
AcDbLine
 10
1960.793241471279
 20
-925.3086938051536
 30
0.0
 11
1956.793241471279
 21
-925.3086844979741
 31
0.0
  0
LINE
  5
21CC9
330
18
100
AcDbEntity
  8
1PHANTOM
100
AcDbLine
 10
1959.887561795082
 20
-980.8086916977225
 30
0.0
 11
1957.925226706207
 21
-981.6086871317736
 31
0.0
  0
LINE
  5
21CCA
330
18
100
AcDbEntity
  8
1CENTER
100
AcDbLine
 10
1958.793237981087
 20
-975.8696037427087
 30
0.0
 11
1958.793237981087
 21
-924.4213055058447
 31
0.0
  0
LINE
  5
21CCB
330
18
100
AcDbEntity
  8
1PHANTOM
100
AcDbLine
 10
1957.925226706207
 20
-981.6086871317736
 30
0.0
 11
1958.513503281249
 21
-981.9204569880255
 31
0.0
  0
LINE
  5
21CCC
330
18
100
AcDbEntity
  8
1PHANTOM
100
AcDbLine
 10
1960.793191445189
 20
-948.4086938049325
 30
0.0
 11
1956.793191445189
 21
-949.2086844977509
 31
0.0
  0
LINE
  5
21CCD
330
18
100
AcDbEntity
  8
1PHANTOM
100
AcDbLine
 10
1960.793191445189
 20
-959.6086938049368
 30
0.0
 11
1956.793191445189
 21
-960.4086844977594
 31
0.0
  0
LINE
  5
21CCE
330
18
100
AcDbEntity
  8
1PHANTOM
100
AcDbLine
 10
1960.793191445189
 20
-961.2086938049372
 30
0.0
 11
1956.793191445189
 21
-962.0086844977598
 31
0.0
  0
LINE
  5
21CCF
330
18
100
AcDbEntity
  8
1PHANTOM
100
AcDbLine
 10
1960.293191445189
 20
-961.1086926415398
 30
0.0
 11
1960.793191445189
 21
-961.2086938049372
 31
0.0
  0
LINE
  5
21CD0
330
18
100
AcDbEntity
  8
1PHANTOM
100
AcDbLine
 10
1960.293191445189
 20
-962.7086926415398
 30
0.0
 11
1960.793191445189
 21
-962.8086938049371
 31
0.0
  0
LINE
  5
21CD1
330
18
100
AcDbEntity
  8
1PHANTOM
100
AcDbLine
 10
1956.793191445189
 20
-962.0086844977598
 30
0.0
 11
1957.293191445189
 21
-962.1086856611566
 31
0.0
  0
LINE
  5
21CD2
330
18
100
AcDbEntity
  8
1PHANTOM
100
AcDbLine
 10
1956.793191445189
 20
-960.4086844977594
 30
0.0
 11
1957.293191445189
 21
-960.5086856611567
 31
0.0
  0
LINE
  5
21CD3
330
18
100
AcDbEntity
  8
1PHANTOM
100
AcDbLine
 10
1960.293191445189
 20
-964.3086926415397
 30
0.0
 11
1960.793191445189
 21
-964.408693804937
 31
0.0
  0
LINE
  5
21CD4
330
18
100
AcDbEntity
  8
1PHANTOM
100
AcDbLine
 10
1956.793191445189
 20
-963.6086844977597
 30
0.0
 11
1957.293191445189
 21
-963.708685661157
 31
0.0
  0
LINE
  5
21CD5
330
18
100
AcDbEntity
  8
1PHANTOM
100
AcDbLine
 10
1960.793191445189
 20
-962.8086938049371
 30
0.0
 11
1956.793191445189
 21
-963.6086844977597
 31
0.0
  0
LINE
  5
21CD6
330
18
100
AcDbEntity
  8
1PHANTOM
100
AcDbLine
 10
1960.793191445189
 20
-977.6086938049368
 30
0.0
 11
1957.019598497393
 21
-978.4086850245624
 31
0.0
  0
LINE
  5
21CD7
330
18
100
AcDbEntity
  8
1PHANTOM
100
AcDbLine
 10
1960.793191445189
 20
-966.0086938049369
 30
0.0
 11
1956.793191445189
 21
-966.8086844977595
 31
0.0
  0
LINE
  5
21CD8
330
18
100
AcDbEntity
  8
1PHANTOM
100
AcDbLine
 10
1960.34037530313
 20
-979.2086927513267
 30
0.0
 11
1957.4724126018
 21
-980.0086860781678
 31
0.0
  0
LINE
  5
21CD9
330
18
100
AcDbEntity
  8
1PHANTOM
100
AcDbLine
 10
1959.430389954451
 20
-980.6572559012823
 30
0.0
 11
1959.887561795082
 21
-980.8086916977225
 31
0.0
  0
LINE
  5
21CDA
330
18
100
AcDbEntity
  8
1PHANTOM
100
AcDbLine
 10
1960.293191445189
 20
-977.5086926415399
 30
0.0
 11
1960.793191445189
 21
-977.6086938049368
 31
0.0
  0
LINE
  5
21CDB
330
18
100
AcDbEntity
  8
1PHANTOM
100
AcDbLine
 10
1960.293191445189
 20
-965.90869264154
 30
0.0
 11
1960.793191445189
 21
-966.0086938049369
 31
0.0
  0
LINE
  5
21CDC
330
18
100
AcDbEntity
  8
1PHANTOM
100
AcDbLine
 10
1959.87227684798
 20
-979.0959232389766
 30
0.0
 11
1960.34037530313
 21
-979.2086927513267
 31
0.0
  0
LINE
  5
21CDD
330
18
100
AcDbEntity
  8
1PHANTOM
100
AcDbLine
 10
1957.019598497393
 20
-978.4086850245624
 30
0.0
 11
1957.556192232664
 21
-978.537955722192
 31
0.0
  0
LINE
  5
21CDE
330
18
100
AcDbEntity
  8
1PHANTOM
100
AcDbLine
 10
1956.793191445189
 20
-965.2086844977596
 30
0.0
 11
1957.293191445189
 21
-965.3086856611565
 31
0.0
  0
LINE
  5
21CDF
330
18
100
AcDbEntity
  8
1PHANTOM
100
AcDbLine
 10
1956.793191445189
 20
-966.8086844977595
 30
0.0
 11
1957.293191445189
 21
-966.9086856611568
 31
0.0
  0
LINE
  5
21CE0
330
18
100
AcDbEntity
  8
1PHANTOM
100
AcDbLine
 10
1957.4724126018
 20
-980.0086860781678
 30
0.0
 11
1958.024162065603
 21
-980.1914502207958
 31
0.0
  0
LINE
  5
21CE1
330
18
100
AcDbEntity
  8
1PHANTOM
100
AcDbLine
 10
1960.793191445189
 20
-964.408693804937
 30
0.0
 11
1956.793191445189
 21
-965.2086844977596
 31
0.0
  0
LINE
  5
21CE2
330
18
100
AcDbEntity
  8
1PHANTOM
100
AcDbLine
 10
1960.793191445189
 20
-950.0086938049324
 30
0.0
 11
1956.793191445189
 21
-950.8086844977508
 31
0.0
  0
LINE
  5
21CE3
330
18
100
AcDbEntity
  8
1PHANTOM
100
AcDbLine
 10
1960.293191445189
 20
-949.908692641535
 30
0.0
 11
1960.793191445189
 21
-950.0086938049324
 31
0.0
  0
LINE
  5
21CE4
330
18
100
AcDbEntity
  8
1PHANTOM
100
AcDbLine
 10
1960.293191445189
 20
-951.5086926415349
 30
0.0
 11
1960.793191445189
 21
-951.6086938049327
 31
0.0
  0
LINE
  5
21CE5
330
18
100
AcDbEntity
  8
1PHANTOM
100
AcDbLine
 10
1956.793191445189
 20
-949.2086844977509
 30
0.0
 11
1957.293191445189
 21
-949.3086856611487
 31
0.0
  0
LINE
  5
21CE6
330
18
100
AcDbEntity
  8
1PHANTOM
100
AcDbLine
 10
1956.793191445189
 20
-950.8086844977508
 30
0.0
 11
1957.293191445189
 21
-950.9086856611486
 31
0.0
  0
LINE
  5
21CE7
330
18
100
AcDbEntity
  8
1PHANTOM
100
AcDbLine
 10
1960.293191445189
 20
-953.1086926415394
 30
0.0
 11
1960.793191445189
 21
-953.2086938049372
 31
0.0
  0
LINE
  5
21CE8
330
18
100
AcDbEntity
  8
1PHANTOM
100
AcDbLine
 10
1956.793191445189
 20
-952.4086844977508
 30
0.0
 11
1957.293191445189
 21
-952.5086856611485
 31
0.0
  0
LINE
  5
21CE9
330
18
100
AcDbEntity
  8
1PHANTOM
100
AcDbLine
 10
1960.793191445189
 20
-951.6086938049327
 30
0.0
 11
1956.793191445189
 21
-952.4086844977508
 31
0.0
  0
LINE
  5
21CEA
330
18
100
AcDbEntity
  8
1PHANTOM
100
AcDbLine
 10
1960.793191445189
 20
-954.8086938049371
 30
0.0
 11
1956.793191445189
 21
-955.6086844977551
 31
0.0
  0
LINE
  5
21CEB
330
18
100
AcDbEntity
  8
1PHANTOM
100
AcDbLine
 10
1960.793191445189
 20
-958.0086938049369
 30
0.0
 11
1956.793191445189
 21
-958.8086844977595
 31
0.0
  0
LINE
  5
21CEC
330
18
100
AcDbEntity
  8
1PHANTOM
100
AcDbLine
 10
1960.793191445189
 20
-956.408693804937
 30
0.0
 11
1956.793191445189
 21
-957.2086844977555
 31
0.0
  0
LINE
  5
21CED
330
18
100
AcDbEntity
  8
1PHANTOM
100
AcDbLine
 10
1960.293191445189
 20
-956.3086926415392
 30
0.0
 11
1960.793191445189
 21
-956.408693804937
 31
0.0
  0
LINE
  5
21CEE
330
18
100
AcDbEntity
  8
1PHANTOM
100
AcDbLine
 10
1960.293191445189
 20
-954.7086926415393
 30
0.0
 11
1960.793191445189
 21
-954.8086938049371
 31
0.0
  0
LINE
  5
21CEF
330
18
100
AcDbEntity
  8
1PHANTOM
100
AcDbLine
 10
1960.293191445189
 20
-957.9086926415391
 30
0.0
 11
1960.793191445189
 21
-958.0086938049369
 31
0.0
  0
LINE
  5
21CF0
330
18
100
AcDbEntity
  8
1PHANTOM
100
AcDbLine
 10
1960.293191445189
 20
-959.5086926415399
 30
0.0
 11
1960.793191445189
 21
-959.6086938049368
 31
0.0
  0
LINE
  5
21CF1
330
18
100
AcDbEntity
  8
1PHANTOM
100
AcDbLine
 10
1956.793191445189
 20
-955.6086844977551
 30
0.0
 11
1957.293191445189
 21
-955.7086856611529
 31
0.0
  0
LINE
  5
21CF2
330
18
100
AcDbEntity
  8
1PHANTOM
100
AcDbLine
 10
1956.793191445189
 20
-954.0086844977552
 30
0.0
 11
1957.293191445189
 21
-954.108685661153
 31
0.0
  0
LINE
  5
21CF3
330
18
100
AcDbEntity
  8
1PHANTOM
100
AcDbLine
 10
1956.793191445189
 20
-958.8086844977595
 30
0.0
 11
1957.293191445189
 21
-958.9086856611568
 31
0.0
  0
LINE
  5
21CF4
330
18
100
AcDbEntity
  8
1PHANTOM
100
AcDbLine
 10
1956.793191445189
 20
-957.2086844977555
 30
0.0
 11
1957.293191445189
 21
-957.3086856611528
 31
0.0
  0
LINE
  5
21CF5
330
18
100
AcDbEntity
  8
1PHANTOM
100
AcDbLine
 10
1960.793191445189
 20
-953.2086938049372
 30
0.0
 11
1956.793191445189
 21
-954.0086844977552
 31
0.0
  0
LINE
  5
21CF6
330
18
100
AcDbEntity
  8
1PHANTOM
100
AcDbLine
 10
1957.293191445189
 20
-927.9086856612623
 30
0.0
 11
1960.293191445189
 21
-927.9086926416469
 31
0.0
  0
LINE
  5
21CF7
330
18
100
AcDbEntity
  8
1PHANTOM
100
AcDbLine
 10
1960.293191445189
 20
-948.3086926415351
 30
0.0
 11
1960.793191445189
 21
-948.4086938049325
 31
0.0
  0
LINE
  5
21CF8
330
18
100
AcDbEntity
  8
1PHANTOM
100
AcDbLine
 10
1960.793191445189
 20
-930.808693804928
 30
0.0
 11
1956.793191445189
 21
-931.6086844977465
 31
0.0
  0
LINE
  5
21CF9
330
18
100
AcDbEntity
  8
1PHANTOM
100
AcDbLine
 10
1960.793191445189
 20
-942.0086938049324
 30
0.0
 11
1956.793191445189
 21
-942.8086844977549
 31
0.0
  0
LINE
  5
21CFA
330
18
100
AcDbEntity
  8
1PHANTOM
100
AcDbLine
 10
1960.793191445189
 20
-943.6086938049327
 30
0.0
 11
1956.793191445189
 21
-944.4086844977553
 31
0.0
  0
LINE
  5
21CFB
330
18
100
AcDbEntity
  8
1PHANTOM
100
AcDbLine
 10
1960.293191445189
 20
-943.5086926415354
 30
0.0
 11
1960.793191445189
 21
-943.6086938049327
 31
0.0
  0
LINE
  5
21CFC
330
18
100
AcDbEntity
  8
1PHANTOM
100
AcDbLine
 10
1960.293191445189
 20
-945.1086926415353
 30
0.0
 11
1960.793191445189
 21
-945.2086938049326
 31
0.0
  0
LINE
  5
21CFD
330
18
100
AcDbEntity
  8
1PHANTOM
100
AcDbLine
 10
1956.793191445189
 20
-944.4086844977553
 30
0.0
 11
1957.293191445189
 21
-944.5086856611522
 31
0.0
  0
LINE
  5
21CFE
330
18
100
AcDbEntity
  8
1PHANTOM
100
AcDbLine
 10
1956.793191445189
 20
-942.8086844977549
 30
0.0
 11
1957.293191445189
 21
-942.9086856611523
 31
0.0
  0
LINE
  5
21CFF
330
18
100
AcDbEntity
  8
1PHANTOM
100
AcDbLine
 10
1960.293191445189
 20
-946.7086926415352
 30
0.0
 11
1960.793191445189
 21
-946.8086938049325
 31
0.0
  0
LINE
  5
21D00
330
18
100
AcDbEntity
  8
1PHANTOM
100
AcDbLine
 10
1956.793191445189
 20
-946.0086844977552
 30
0.0
 11
1957.293191445189
 21
-946.1086856611525
 31
0.0
  0
LINE
  5
21D01
330
18
100
AcDbEntity
  8
1PHANTOM
100
AcDbLine
 10
1960.793191445189
 20
-945.2086938049326
 30
0.0
 11
1956.793191445189
 21
-946.0086844977552
 31
0.0
  0
LINE
  5
21D02
330
18
100
AcDbEntity
  8
1PHANTOM
100
AcDbLine
 10
1956.793191445189
 20
-947.6086844977551
 30
0.0
 11
1957.293191445189
 21
-947.708685661152
 31
0.0
  0
LINE
  5
21D03
330
18
100
AcDbEntity
  8
1PHANTOM
100
AcDbLine
 10
1960.793191445189
 20
-946.8086938049325
 30
0.0
 11
1956.793191445189
 21
-947.6086844977551
 31
0.0
  0
LINE
  5
21D04
330
18
100
AcDbEntity
  8
1PHANTOM
100
AcDbLine
 10
1960.793191445189
 20
-932.4086938049279
 30
0.0
 11
1956.793191445189
 21
-933.2086844977464
 31
0.0
  0
LINE
  5
21D05
330
18
100
AcDbEntity
  8
1PHANTOM
100
AcDbLine
 10
1960.293191445189
 20
-932.3086926415306
 30
0.0
 11
1960.793191445189
 21
-932.4086938049279
 31
0.0
  0
LINE
  5
21D06
330
18
100
AcDbEntity
  8
1PHANTOM
100
AcDbLine
 10
1960.293191445189
 20
-933.9086926415305
 30
0.0
 11
1960.793191445189
 21
-934.0086938049283
 31
0.0
  0
LINE
  5
21D07
330
18
100
AcDbEntity
  8
1PHANTOM
100
AcDbLine
 10
1956.793191445189
 20
-931.6086844977465
 30
0.0
 11
1957.293191445189
 21
-931.7086856611443
 31
0.0
  0
LINE
  5
21D08
330
18
100
AcDbEntity
  8
1PHANTOM
100
AcDbLine
 10
1956.793191445189
 20
-933.2086844977464
 30
0.0
 11
1957.293191445189
 21
-933.3086856611442
 31
0.0
  0
LINE
  5
21D09
330
18
100
AcDbEntity
  8
1PHANTOM
100
AcDbLine
 10
1960.293191445189
 20
-935.5086926415349
 30
0.0
 11
1960.793191445189
 21
-935.6086938049327
 31
0.0
  0
LINE
  5
21D0A
330
18
100
AcDbEntity
  8
1PHANTOM
100
AcDbLine
 10
1956.793191445189
 20
-934.8086844977463
 30
0.0
 11
1957.293191445189
 21
-934.9086856611441
 31
0.0
  0
LINE
  5
21D0B
330
18
100
AcDbEntity
  8
1PHANTOM
100
AcDbLine
 10
1960.793191445189
 20
-934.0086938049283
 30
0.0
 11
1956.793191445189
 21
-934.8086844977463
 31
0.0
  0
LINE
  5
21D0C
330
18
100
AcDbEntity
  8
1PHANTOM
100
AcDbLine
 10
1960.793191445189
 20
-937.2086938049326
 30
0.0
 11
1956.793191445189
 21
-938.0086844977507
 31
0.0
  0
LINE
  5
21D0D
330
18
100
AcDbEntity
  8
1PHANTOM
100
AcDbLine
 10
1960.793191445189
 20
-940.4086938049325
 30
0.0
 11
1956.793191445189
 21
-941.208684497755
 31
0.0
  0
LINE
  5
21D0E
330
18
100
AcDbEntity
  8
1PHANTOM
100
AcDbLine
 10
1960.793191445189
 20
-938.8086938049325
 30
0.0
 11
1956.793191445189
 21
-939.608684497751
 31
0.0
  0
LINE
  5
21D0F
330
18
100
AcDbEntity
  8
1PHANTOM
100
AcDbLine
 10
1960.293191445189
 20
-938.7086926415348
 30
0.0
 11
1960.793191445189
 21
-938.8086938049325
 31
0.0
  0
LINE
  5
21D10
330
18
100
AcDbEntity
  8
1PHANTOM
100
AcDbLine
 10
1960.293191445189
 20
-937.1086926415348
 30
0.0
 11
1960.793191445189
 21
-937.2086938049326
 31
0.0
  0
LINE
  5
21D11
330
18
100
AcDbEntity
  8
1PHANTOM
100
AcDbLine
 10
1960.293191445189
 20
-940.3086926415347
 30
0.0
 11
1960.793191445189
 21
-940.4086938049325
 31
0.0
  0
LINE
  5
21D12
330
18
100
AcDbEntity
  8
1PHANTOM
100
AcDbLine
 10
1960.293191445189
 20
-941.9086926415355
 30
0.0
 11
1960.793191445189
 21
-942.0086938049324
 31
0.0
  0
LINE
  5
21D13
330
18
100
AcDbEntity
  8
1PHANTOM
100
AcDbLine
 10
1956.793191445189
 20
-938.0086844977507
 30
0.0
 11
1957.293191445189
 21
-938.1086856611485
 31
0.0
  0
LINE
  5
21D14
330
18
100
AcDbEntity
  8
1PHANTOM
100
AcDbLine
 10
1956.793191445189
 20
-936.4086844977508
 30
0.0
 11
1957.293191445189
 21
-936.5086856611485
 31
0.0
  0
LINE
  5
21D15
330
18
100
AcDbEntity
  8
1PHANTOM
100
AcDbLine
 10
1956.793191445189
 20
-941.208684497755
 30
0.0
 11
1957.293191445189
 21
-941.3086856611524
 31
0.0
  0
LINE
  5
21D16
330
18
100
AcDbEntity
  8
1PHANTOM
100
AcDbLine
 10
1956.793191445189
 20
-939.608684497751
 30
0.0
 11
1957.293191445189
 21
-939.7086856611484
 31
0.0
  0
LINE
  5
21D17
330
18
100
AcDbEntity
  8
1PHANTOM
100
AcDbLine
 10
1960.793191445189
 20
-935.6086938049327
 30
0.0
 11
1956.793191445189
 21
-936.4086844977508
 31
0.0
  0
LINE
  5
21D18
330
18
100
AcDbEntity
  8
1PHANTOM
100
AcDbLine
 10
1960.293191445189
 20
-930.7086926415307
 30
0.0
 11
1960.793191445189
 21
-930.808693804928
 31
0.0
  0
LINE
  5
21D19
330
18
100
AcDbEntity
  8
1PHANTOM
100
AcDbLine
 10
1960.793191445189
 20
-929.2086938049281
 30
0.0
 11
1956.793191445189
 21
-930.0086844977466
 31
0.0
  0
LINE
  5
21D1A
330
18
100
AcDbEntity
  8
1PHANTOM
100
AcDbLine
 10
1956.793191445189
 20
-930.0086844977466
 30
0.0
 11
1957.293191445189
 21
-930.1086856611444
 31
0.0
  0
LINE
  5
21D1B
330
18
100
AcDbEntity
  8
1PHANTOM
100
AcDbLine
 10
1960.293191445189
 20
-929.1086926415308
 30
0.0
 11
1960.793191445189
 21
-929.2086938049281
 31
0.0
  0
LINE
  5
21D1C
330
18
100
AcDbEntity
  8
1PHANTOM
100
AcDbLine
 10
1955.293237981087
 20
-927.9086810077808
 30
0.0
 11
1955.293237981087
 21
-928.9086891514546
 31
0.0
  0
LINE
  5
21D1D
330
18
100
AcDbEntity
  8
1PHANTOM
100
AcDbLine
 10
1962.293237981087
 20
-927.9086972953448
 30
0.0
 11
1962.293237981087
 21
-928.9086891514546
 31
0.0
  0
LINE
  5
21D1E
330
18
100
AcDbEntity
  8
1PHANTOM
100
AcDbLine
 10
1962.293237981087
 20
-928.9086891514546
 30
0.0
 11
1955.293237981087
 21
-928.9086891514546
 31
0.0
  0
LINE
  5
21D1F
330
18
100
AcDbEntity
  8
1PHANTOM
100
AcDbLine
 10
1958.793191445189
 20
-927.9086891514546
 30
0.0
 11
1958.215841175999
 21
-928.9086891514546
 31
0.0
  0
LINE
  5
21D22
330
18
100
AcDbEntity
  8
01
100
AcDbLine
 10
1979.781557137232
 20
-973.9086891514551
 30
0.0
 11
1923.724045512572
 21
-973.9086891514551
 31
0.0
  0
LINE
  5
21D23
330
18
100
AcDbEntity
  8
01
100
AcDbLine
 10
1979.781557137232
 20
-948.9086891514546
 30
0.0
 11
1923.724045512572
 21
-948.9086891514546
 31
0.0
  0
LINE
  5
21D24
330
18
100
AcDbEntity
  8
01
100
AcDbLine
 10
1979.781557137232
 20
-961.9086891514551
 30
0.0
 11
1960.293191445189
 21
-961.9086891514553
 31
0.0
  0
LINE
  5
21D27
330
18
100
AcDbEntity
  8
01
100
AcDbLine
 10
1943.293191445188
 20
-961.9086891514552
 30
0.0
 11
1923.724045512572
 21
-961.9086891514551
 31
0.0
  0
LINE
  5
21D28
330
18
100
AcDbEntity
  8
01
100
AcDbLine
 10
1957.293191445189
 20
-961.9086891514552
 30
0.0
 11
1946.293191445188
 21
-961.9086891514552
 31
0.0
  0
LINE
  5
21D29
330
18
100
AcDbEntity
  8
01
100
AcDbLine
 10
1942.593237981086
 20
-948.9086891514546
 30
0.0
 11
1942.593237981086
 21
-961.9086891514546
 31
0.0
  0
LINE
  5
21D2A
330
18
100
AcDbEntity
  8
01
100
AcDbLine
 10
1946.993237981086
 20
-948.9086891514546
 30
0.0
 11
1946.993237981086
 21
-961.9086891514546
 31
0.0
  0
LINE
  5
21D2B
330
18
100
AcDbEntity
  8
01
100
AcDbLine
 10
1956.593237981087
 20
-948.9086891514546
 30
0.0
 11
1956.593237981087
 21
-961.9086891514546
 31
0.0
  0
LINE
  5
21D2C
330
18
100
AcDbEntity
  8
01
100
AcDbLine
 10
1960.993237981087
 20
-948.9086891514546
 30
0.0
 11
1960.993237981087
 21
-961.9086891514546
 31
0.0
  0
LINE
  5
21DAC
330
18
100
AcDbEntity
  8
1CENTER
100
AcDbLine
 10
1819.653453415736
 20
-942.1712636426178
 30
0.0
 11
1819.653453415736
 21
-954.7672512689478
 31
0.0
  0
LINE
  5
21DAD
330
18
100
AcDbEntity
  8
1CENTER
100
AcDbLine
 10
1798.653453415736
 20
-942.1712636426178
 30
0.0
 11
1798.653453415736
 21
-954.7672512689478
 31
0.0
  0
LINE
  5
21DAE
330
18
100
AcDbEntity
  8
1CENTER
100
AcDbLine
 10
1840.653453415736
 20
-942.1712636426178
 30
0.0
 11
1840.653453415736
 21
-954.7672512689478
 31
0.0
  0
LINE
  5
21EA1
330
18
100
AcDbEntity
  8
01
100
AcDbLine
 10
1834.903453415736
 20
-839.0588829495329
 30
0.0
 11
1834.903453415736
 21
-833.0588829495329
 31
0.0
  0
LINE
  5
21EE9
330
18
100
AcDbEntity
  8
1PHANTOM
100
AcDbLine
 10
1946.793191445188
 20
-972.4086938049411
 30
0.0
 11
1942.793191445188
 21
-973.2086844977637
 31
0.0
  0
LINE
  5
21EEA
330
18
100
AcDbEntity
  8
1PHANTOM
100
AcDbLine
 10
1946.793191445188
 20
-974.0086938049415
 30
0.0
 11
1942.793191445188
 21
-974.808684497764
 31
0.0
  0
LINE
  5
21EEB
330
18
100
AcDbEntity
  8
1PHANTOM
100
AcDbLine
 10
1946.293191445188
 20
-973.9086926415441
 30
0.0
 11
1946.793191445188
 21
-974.0086938049415
 31
0.0
  0
LINE
  5
21EEC
330
18
100
AcDbEntity
  8
1PHANTOM
100
AcDbLine
 10
1946.293191445188
 20
-975.508692641544
 30
0.0
 11
1946.793191445188
 21
-975.6086938049414
 31
0.0
  0
LINE
  5
21EED
330
18
100
AcDbEntity
  8
1PHANTOM
100
AcDbLine
 10
1942.793191445188
 20
-974.808684497764
 30
0.0
 11
1943.293191445188
 21
-974.9086856611609
 31
0.0
  0
LINE
  5
21EEE
330
18
100
AcDbEntity
  8
1PHANTOM
100
AcDbLine
 10
1942.793191445188
 20
-973.2086844977637
 30
0.0
 11
1943.293191445188
 21
-973.308685661161
 31
0.0
  0
LINE
  5
21EF0
330
18
100
AcDbEntity
  8
1PHANTOM
100
AcDbLine
 10
1942.793191445188
 20
-976.4086844977639
 30
0.0
 11
1943.293191445188
 21
-976.5086856611613
 31
0.0
  0
LINE
  5
21EF1
330
18
100
AcDbEntity
  8
1PHANTOM
100
AcDbLine
 10
1946.793191445188
 20
-975.6086938049414
 30
0.0
 11
1942.793191445188
 21
-976.4086844977639
 31
0.0
  0
LINE
  5
21EF7
330
18
100
AcDbEntity
  8
1PHANTOM
100
AcDbLine
 10
1946.793191445188
 20
-967.6086938049414
 30
0.0
 11
1942.793191445188
 21
-968.4086844977594
 31
0.0
  0
LINE
  5
21EF8
330
18
100
AcDbEntity
  8
1PHANTOM
100
AcDbLine
 10
1946.793191445188
 20
-970.8086938049412
 30
0.0
 11
1942.793191445188
 21
-971.6086844977638
 31
0.0
  0
LINE
  5
21EF9
330
18
100
AcDbEntity
  8
1PHANTOM
100
AcDbLine
 10
1946.793191445188
 20
-969.2086938049413
 30
0.0
 11
1942.793191445188
 21
-970.0086844977598
 31
0.0
  0
LINE
  5
21EFA
330
18
100
AcDbEntity
  8
1PHANTOM
100
AcDbLine
 10
1946.293191445188
 20
-969.1086926415435
 30
0.0
 11
1946.793191445188
 21
-969.2086938049413
 31
0.0
  0
LINE
  5
21EFB
330
18
100
AcDbEntity
  8
1PHANTOM
100
AcDbLine
 10
1946.293191445188
 20
-967.5086926415436
 30
0.0
 11
1946.793191445188
 21
-967.6086938049414
 31
0.0
  0
LINE
  5
21EFC
330
18
100
AcDbEntity
  8
1PHANTOM
100
AcDbLine
 10
1946.293191445188
 20
-970.7086926415434
 30
0.0
 11
1946.793191445188
 21
-970.8086938049412
 31
0.0
  0
LINE
  5
21EFD
330
18
100
AcDbEntity
  8
1PHANTOM
100
AcDbLine
 10
1946.293191445188
 20
-972.3086926415442
 30
0.0
 11
1946.793191445188
 21
-972.4086938049411
 31
0.0
  0
LINE
  5
21EFE
330
18
100
AcDbEntity
  8
1PHANTOM
100
AcDbLine
 10
1942.793191445188
 20
-968.4086844977594
 30
0.0
 11
1943.293191445188
 21
-968.5086856611572
 31
0.0
  0
LINE
  5
21EFF
330
18
100
AcDbEntity
  8
1PHANTOM
100
AcDbLine
 10
1942.793191445188
 20
-971.6086844977638
 30
0.0
 11
1943.293191445188
 21
-971.7086856611611
 31
0.0
  0
LINE
  5
21F00
330
18
100
AcDbEntity
  8
1PHANTOM
100
AcDbLine
 10
1942.793191445188
 20
-970.0086844977598
 30
0.0
 11
1943.293191445188
 21
-970.1086856611571
 31
0.0
  0
LINE
  5
21F01
330
18
100
AcDbEntity
  8
1PHANTOM
100
AcDbLine
 10
1960.793191445189
 20
-972.4086938049411
 30
0.0
 11
1956.793191445189
 21
-973.2086844977637
 31
0.0
  0
LINE
  5
21F02
330
18
100
AcDbEntity
  8
1PHANTOM
100
AcDbLine
 10
1960.793191445189
 20
-974.0086938049415
 30
0.0
 11
1956.793191445189
 21
-974.808684497764
 31
0.0
  0
LINE
  5
21F03
330
18
100
AcDbEntity
  8
1PHANTOM
100
AcDbLine
 10
1960.293191445189
 20
-973.9086926415441
 30
0.0
 11
1960.793191445189
 21
-974.0086938049415
 31
0.0
  0
LINE
  5
21F04
330
18
100
AcDbEntity
  8
1PHANTOM
100
AcDbLine
 10
1960.293191445189
 20
-975.508692641544
 30
0.0
 11
1960.793191445189
 21
-975.6086938049414
 31
0.0
  0
LINE
  5
21F05
330
18
100
AcDbEntity
  8
1PHANTOM
100
AcDbLine
 10
1956.793191445189
 20
-974.808684497764
 30
0.0
 11
1957.293191445189
 21
-974.9086856611609
 31
0.0
  0
LINE
  5
21F06
330
18
100
AcDbEntity
  8
1PHANTOM
100
AcDbLine
 10
1956.793191445189
 20
-973.2086844977637
 30
0.0
 11
1957.293191445189
 21
-973.308685661161
 31
0.0
  0
LINE
  5
21F08
330
18
100
AcDbEntity
  8
1PHANTOM
100
AcDbLine
 10
1956.793191445189
 20
-976.4086844977639
 30
0.0
 11
1957.293191445189
 21
-976.5086856611613
 31
0.0
  0
LINE
  5
21F09
330
18
100
AcDbEntity
  8
1PHANTOM
100
AcDbLine
 10
1960.793191445189
 20
-975.6086938049414
 30
0.0
 11
1956.793191445189
 21
-976.4086844977639
 31
0.0
  0
LINE
  5
21F0F
330
18
100
AcDbEntity
  8
1PHANTOM
100
AcDbLine
 10
1960.793191445189
 20
-967.6086938049414
 30
0.0
 11
1956.793191445189
 21
-968.4086844977594
 31
0.0
  0
LINE
  5
21F10
330
18
100
AcDbEntity
  8
1PHANTOM
100
AcDbLine
 10
1960.793191445189
 20
-970.8086938049412
 30
0.0
 11
1956.793191445189
 21
-971.6086844977638
 31
0.0
  0
LINE
  5
21F11
330
18
100
AcDbEntity
  8
1PHANTOM
100
AcDbLine
 10
1960.793191445189
 20
-969.2086938049413
 30
0.0
 11
1956.793191445189
 21
-970.0086844977598
 31
0.0
  0
LINE
  5
21F12
330
18
100
AcDbEntity
  8
1PHANTOM
100
AcDbLine
 10
1960.293191445189
 20
-969.1086926415435
 30
0.0
 11
1960.793191445189
 21
-969.2086938049413
 31
0.0
  0
LINE
  5
21F13
330
18
100
AcDbEntity
  8
1PHANTOM
100
AcDbLine
 10
1960.293191445189
 20
-967.5086926415436
 30
0.0
 11
1960.793191445189
 21
-967.6086938049414
 31
0.0
  0
LINE
  5
21F14
330
18
100
AcDbEntity
  8
1PHANTOM
100
AcDbLine
 10
1960.293191445189
 20
-970.7086926415434
 30
0.0
 11
1960.793191445189
 21
-970.8086938049412
 31
0.0
  0
LINE
  5
21F15
330
18
100
AcDbEntity
  8
1PHANTOM
100
AcDbLine
 10
1960.293191445189
 20
-972.3086926415442
 30
0.0
 11
1960.793191445189
 21
-972.4086938049411
 31
0.0
  0
LINE
  5
21F16
330
18
100
AcDbEntity
  8
1PHANTOM
100
AcDbLine
 10
1956.793191445189
 20
-968.4086844977594
 30
0.0
 11
1957.293191445189
 21
-968.5086856611572
 31
0.0
  0
LINE
  5
21F17
330
18
100
AcDbEntity
  8
1PHANTOM
100
AcDbLine
 10
1956.793191445189
 20
-971.6086844977638
 30
0.0
 11
1957.293191445189
 21
-971.7086856611611
 31
0.0
  0
LINE
  5
21F18
330
18
100
AcDbEntity
  8
1PHANTOM
100
AcDbLine
 10
1956.793191445189
 20
-970.0086844977598
 30
0.0
 11
1957.293191445189
 21
-970.1086856611571
 31
0.0
  0
TEXT
  5
23071
330
18
100
AcDbEntity
  8
01
  6
CONTINUOUS
100
AcDbText
 10
1878.450461545362
 20
-881.5848390499731
 30
0.0
 40
3.5
  1
材質：亜鉛ダイキャスト
100
AcDbText
  0
TEXT
  5
23072
330
18
100
AcDbEntity
  8
01
  6
CONTINUOUS
100
AcDbText
 10
1890.350461545363
 20
-887.4181723833065
 30
0.0
 40
3.5
  1
仕上げ：クローム
100
AcDbText
  0
LINE
  5
23073
330
18
100
AcDbEntity
  8
1DIM
100
AcDbLine
 10
1848.653453415737
 20
-948.9086891514539
 30
0.0
 11
1867.328928704594
 21
-948.9086891514539
 31
0.0
1001
ACAD
1000
DSTYLE
1002
{
1070
    40
1040
1.0
1002
}
  0
LINE
  5
23074
330
18
100
AcDbEntity
  8
1DIM
100
AcDbLine
 10
1848.653453415736
 20
-890.4086891514539
 30
0.0
 11
1867.328928704594
 21
-890.4086891514539
 31
0.0
1001
ACAD
1000
DSTYLE
1002
{
1070
    40
1040
1.0
1002
}
  0
LINE
  5
23075
330
18
100
AcDbEntity
  8
1DIM
100
AcDbLine
 10
1866.328928704594
 20
-946.9086891514539
 30
0.0
 11
1866.328928704594
 21
-892.4086891514539
 31
0.0
1001
ACAD
1000
DSTYLE
1002
{
1070
    40
1040
1.0
1002
}
  0
LINE
  5
23079
330
18
100
AcDbEntity
  8
1DIM
100
AcDbLine
 10
1848.653453415737
 20
-948.9086891514539
 30
0.0
 11
1848.653453415737
 21
-992.3581256565767
 31
0.0
1001
ACAD
1000
DSTYLE
1002
{
1070
    40
1040
1.0
1002
}
  0
LINE
  5
2307A
330
18
100
AcDbEntity
  8
1DIM
100
AcDbLine
 10
1790.153453415737
 20
-948.9086891514539
 30
0.0
 11
1790.153453415737
 21
-992.3581256565767
 31
0.0
1001
ACAD
1000
DSTYLE
1002
{
1070
    40
1040
1.0
1002
}
  0
LINE
  5
2307B
330
18
100
AcDbEntity
  8
1DIM
100
AcDbLine
 10
1846.653453415737
 20
-991.3581256565767
 30
0.0
 11
1792.153453415737
 21
-991.3581256565767
 31
0.0
1001
ACAD
1000
DSTYLE
1002
{
1070
    40
1040
1.0
1002
}
  0
LINE
  5
2307F
330
18
100
AcDbEntity
  8
1DIM
100
AcDbLine
 10
1938.543191445189
 20
-948.9086891514546
 30
0.0
 11
1938.543191445189
 21
-992.3581256565767
 31
0.0
1001
ACAD
1000
DSTYLE
1002
{
1070
    40
1040
1.0
1002
}
  0
LINE
  5
23080
330
18
100
AcDbEntity
  8
1DIM
100
AcDbLine
 10
1965.043191445188
 20
-948.9086891514546
 30
0.0
 11
1965.043191445188
 21
-992.3581256565767
 31
0.0
1001
ACAD
1000
DSTYLE
1002
{
1070
    40
1040
1.0
1002
}
  0
LINE
  5
23081
330
18
100
AcDbEntity
  8
1DIM
100
AcDbLine
 10
1940.543191445189
 20
-991.3581256565767
 30
0.0
 11
1963.043191445188
 21
-991.3581256565767
 31
0.0
1001
ACAD
1000
DSTYLE
1002
{
1070
    40
1040
1.0
1002
}
  0
LINE
  5
23085
330
18
100
AcDbEntity
  8
1DIM
100
AcDbLine
 10
1819.653453415736
 20
-848.2588829495331
 30
0.0
 11
1819.653453415736
 21
-865.7492524234931
 31
0.0
1001
ACAD
1000
DSTYLE
1002
{
1070
    40
1040
1.0
1002
}
  0
LINE
  5
23086
330
18
100
AcDbEntity
  8
1DIM
100
AcDbLine
 10
1798.653453415736
 20
-834.2588829495324
 30
0.0
 11
1798.653453415736
 21
-865.7492524234931
 31
0.0
1001
ACAD
1000
DSTYLE
1002
{
1070
    40
1040
1.0
1002
}
  0
LINE
  5
23087
330
18
100
AcDbEntity
  8
1DIM
100
AcDbLine
 10
1817.653453415736
 20
-864.7492524234931
 30
0.0
 11
1800.653453415736
 21
-864.7492524234931
 31
0.0
1001
ACAD
1000
DSTYLE
1002
{
1070
    40
1040
1.0
1002
}
  0
LINE
  5
2308B
330
18
100
AcDbEntity
  8
1DIM
100
AcDbLine
 10
1819.653453415736
 20
-848.2588829495331
 30
0.0
 11
1819.653453415736
 21
-865.7492524234931
 31
0.0
1001
ACAD
1000
DSTYLE
1002
{
1070
    40
1040
1.0
1002
}
  0
LINE
  5
2308C
330
18
100
AcDbEntity
  8
1DIM
100
AcDbLine
 10
1840.653453415736
 20
-834.2588829495322
 30
0.0
 11
1840.653453415736
 21
-865.7492524234931
 31
0.0
1001
ACAD
1000
DSTYLE
1002
{
1070
    40
1040
1.0
1002
}
  0
LINE
  5
2308D
330
18
100
AcDbEntity
  8
1DIM
100
AcDbLine
 10
1821.653453415736
 20
-864.7492524234931
 30
0.0
 11
1838.653453415736
 21
-864.7492524234931
 31
0.0
1001
ACAD
1000
DSTYLE
1002
{
1070
    40
1040
1.0
1002
}
  0
SOLID
  5
23091
330
18
100
AcDbEntity
  8
1DIM
100
AcDbTrace
 10
1942.103823483394
 20
-904.0282998344933
 30
0.0
 11
1943.366419492921
 21
-905.6147935873446
 31
0.0
 12
1941.657533401903
 22
-904.5235468512509
 32
0.0
 13
1941.657533401903
 23
-904.5235468512509
 33
0.0
  0
LINE
  5
23092
330
18
100
AcDbEntity
  8
1DIM
100
AcDbLine
 10
1941.880678442648
 20
-904.2759233428721
 30
0.0
 11
1923.950461545362
 21
-888.1181723833065
 31
0.0
  0
SOLID
  5
23093
330
18
100
AcDbEntity
  8
1DIM
100
AcDbTrace
 10
1958.210595879427
 20
-972.3220546942086
 30
0.0
 11
1956.659596622069
 21
-971.0161020094661
 31
0.0
 12
1958.55031030381
 22
-971.7484358710254
 32
0.0
 13
1958.55031030381
 23
-971.7484358710254
 33
0.0
  0
LINE
  5
23094
330
18
100
AcDbEntity
  8
1DIM
100
AcDbLine
 10
1958.380453091618
 20
-972.035245282617
 30
0.0
 11
1971.362681478857
 21
-979.7237137664679
 31
0.0
  0
LINE
  5
23095
330
18
100
AcDbEntity
  8
1DIM
100
AcDbLine
 10
1971.362681478857
 20
-979.7237137664679
 30
0.0
 11
2014.64601481219
 21
-979.7237137664679
 31
0.0
  0
TEXT
  5
23096
330
18
100
AcDbEntity
  8
1DIM
  6
CONTINUOUS
100
AcDbText
 10
1973.479348145524
 20
-979.0237137664678
 30
0.0
 40
3.5
  1
コンパネ12mm以上
100
AcDbText
  0
LINE
  5
23097
330
18
100
AcDbEntity
  8
1HATCH
  6
CONTINUOUS
100
AcDbLine
 10
1925.041158136122
 20
-961.9086891514551
 30
0.0
 11
1923.724045512572
 21
-960.5915765279058
 31
0.0
1001
ACAD
1010
0.0
1020
0.0
1030
0.0
  0
LINE
  5
23098
330
18
100
AcDbEntity
  8
1HATCH
  6
CONTINUOUS
100
AcDbLine
 10
1923.724045512572
 20
-960.5915765279058
 30
0.0
 11
1923.724045512572
 21
-960.5915765279058
 31
0.0
1001
ACAD
1010
0.0
1020
0.0
1030
0.0
  0
LINE
  5
23099
330
18
100
AcDbEntity
  8
1HATCH
  6
CONTINUOUS
100
AcDbLine
 10
1927.286222166389
 20
-961.9086891514551
 30
0.0
 11
1925.703671961767
 21
-960.3261389468329
 31
0.0
1001
ACAD
1010
0.0
1020
0.0
1030
0.0
  0
LINE
  5
2309A
330
18
100
AcDbEntity
  8
1HATCH
  6
CONTINUOUS
100
AcDbLine
 10
1925.1424059542
 20
-959.7648729392661
 30
0.0
 11
1925.1424059542
 21
-959.7648729392661
 31
0.0
1001
ACAD
1010
0.0
1020
0.0
1030
0.0
  0
LINE
  5
2309B
330
18
100
AcDbEntity
  8
1HATCH
  6
CONTINUOUS
100
AcDbLine
 10
1924.581139946633
 20
-959.2036069316991
 30
0.0
 11
1923.724045512572
 21
-958.3465124976384
 31
0.0
1001
ACAD
1010
0.0
1020
0.0
1030
0.0
  0
LINE
  5
2309C
330
18
100
AcDbEntity
  8
1HATCH
  6
CONTINUOUS
100
AcDbLine
 10
1923.724045512572
 20
-958.3465124976384
 30
0.0
 11
1923.724045512572
 21
-958.3465124976384
 31
0.0
1001
ACAD
1010
0.0
1020
0.0
1030
0.0
  0
LINE
  5
2309D
330
18
100
AcDbEntity
  8
1HATCH
  6
CONTINUOUS
100
AcDbLine
 10
1929.531286196656
 20
-961.9086891514551
 30
0.0
 11
1928.790635003384
 21
-961.168037958183
 31
0.0
1001
ACAD
1010
0.0
1020
0.0
1030
0.0
  0
LINE
  5
2309E
330
18
100
AcDbEntity
  8
1HATCH
  6
CONTINUOUS
100
AcDbLine
 10
1928.229368995817
 20
-960.6067719506162
 30
0.0
 11
1928.229368995817
 21
-960.6067719506162
 31
0.0
1001
ACAD
1010
0.0
1020
0.0
1030
0.0
  0
LINE
  5
2309F
330
18
100
AcDbEntity
  8
1HATCH
  6
CONTINUOUS
100
AcDbLine
 10
1927.668102988251
 20
-960.0455059430494
 30
0.0
 11
1924.861772950416
 21
-957.2391759052153
 31
0.0
1001
ACAD
1010
0.0
1020
0.0
1030
0.0
  0
LINE
  5
230A0
330
18
100
AcDbEntity
  8
1HATCH
  6
CONTINUOUS
100
AcDbLine
 10
1924.30050694285
 20
-956.6779098976485
 30
0.0
 11
1924.30050694285
 21
-956.6779098976485
 31
0.0
1001
ACAD
1010
0.0
1020
0.0
1030
0.0
  0
LINE
  5
230A1
330
18
100
AcDbEntity
  8
1HATCH
  6
CONTINUOUS
100
AcDbLine
 10
1923.739240935283
 20
-956.1166438900817
 30
0.0
 11
1923.724045512572
 21
-956.1014484673711
 31
0.0
1001
ACAD
1010
0.0
1020
0.0
1030
0.0
  0
LINE
  5
230A2
330
18
100
AcDbEntity
  8
1HATCH
  6
CONTINUOUS
100
AcDbLine
 10
1923.724045512572
 20
-956.1014484673711
 30
0.0
 11
1923.724045512572
 21
-956.1014484673711
 31
0.0
1001
ACAD
1010
0.0
1020
0.0
1030
0.0
  0
LINE
  5
230A3
330
18
100
AcDbEntity
  8
1HATCH
  6
CONTINUOUS
100
AcDbLine
 10
1931.316332037435
 20
-961.4486709619665
 30
0.0
 11
1931.316332037435
 21
-961.4486709619665
 31
0.0
1001
ACAD
1010
0.0
1020
0.0
1030
0.0
  0
LINE
  5
230A4
330
18
100
AcDbEntity
  8
1HATCH
  6
CONTINUOUS
100
AcDbLine
 10
1930.755066029868
 20
-960.8874049543997
 30
0.0
 11
1927.948735992034
 21
-958.0810749165656
 31
0.0
1001
ACAD
1010
0.0
1020
0.0
1030
0.0
  0
LINE
  5
230A5
330
18
100
AcDbEntity
  8
1HATCH
  6
CONTINUOUS
100
AcDbLine
 10
1927.387469984467
 20
-957.5198089089988
 30
0.0
 11
1927.387469984467
 21
-957.5198089089988
 31
0.0
1001
ACAD
1010
0.0
1020
0.0
1030
0.0
  0
LINE
  5
230A6
330
18
100
AcDbEntity
  8
1HATCH
  6
CONTINUOUS
100
AcDbLine
 10
1926.8262039769
 20
-956.958542901432
 30
0.0
 11
1924.019873939066
 21
-954.1522128635978
 31
0.0
1001
ACAD
1010
0.0
1020
0.0
1030
0.0
  0
LINE
  5
230A7
330
18
100
AcDbEntity
  8
1HATCH
  6
CONTINUOUS
100
AcDbLine
 10
1923.724045512572
 20
-953.8563844371039
 30
0.0
 11
1923.724045512572
 21
-953.8563844371039
 31
0.0
1001
ACAD
1010
0.0
1020
0.0
1030
0.0
  0
LINE
  5
230A8
330
18
100
AcDbEntity
  8
1HATCH
  6
CONTINUOUS
100
AcDbLine
 10
1933.842029071486
 20
-961.72930396575
 30
0.0
 11
1931.035699033652
 21
-958.9229739279159
 31
0.0
1001
ACAD
1010
0.0
1020
0.0
1030
0.0
  0
LINE
  5
230A9
330
18
100
AcDbEntity
  8
1HATCH
  6
CONTINUOUS
100
AcDbLine
 10
1930.474433026085
 20
-958.3617079203491
 30
0.0
 11
1930.474433026085
 21
-958.3617079203491
 31
0.0
1001
ACAD
1010
0.0
1020
0.0
1030
0.0
  0
LINE
  5
230AA
330
18
100
AcDbEntity
  8
1HATCH
  6
CONTINUOUS
100
AcDbLine
 10
1929.913167018518
 20
-957.8004419127823
 30
0.0
 11
1927.106836980684
 21
-954.9941118749481
 31
0.0
1001
ACAD
1010
0.0
1020
0.0
1030
0.0
  0
LINE
  5
230AB
330
18
100
AcDbEntity
  8
1HATCH
  6
CONTINUOUS
100
AcDbLine
 10
1926.545570973117
 20
-954.4328458673813
 30
0.0
 11
1926.545570973117
 21
-954.4328458673813
 31
0.0
1001
ACAD
1010
0.0
1020
0.0
1030
0.0
  0
LINE
  5
230AC
330
18
100
AcDbEntity
  8
1HATCH
  6
CONTINUOUS
100
AcDbLine
 10
1925.98430496555
 20
-953.8715798598145
 30
0.0
 11
1923.724045512572
 21
-951.6113204068366
 31
0.0
1001
ACAD
1010
0.0
1020
0.0
1030
0.0
  0
LINE
  5
230AD
330
18
100
AcDbEntity
  8
1HATCH
  6
CONTINUOUS
100
AcDbLine
 10
1923.724045512572
 20
-951.6113204068366
 30
0.0
 11
1923.724045512572
 21
-951.6113204068366
 31
0.0
1001
ACAD
1010
0.0
1020
0.0
1030
0.0
  0
LINE
  5
230AE
330
18
100
AcDbEntity
  8
1HATCH
  6
CONTINUOUS
100
AcDbLine
 10
1936.266478287458
 20
-961.9086891514552
 30
0.0
 11
1934.122662075269
 21
-959.764872939266
 31
0.0
1001
ACAD
1010
0.0
1020
0.0
1030
0.0
  0
LINE
  5
230AF
330
18
100
AcDbEntity
  8
1HATCH
  6
CONTINUOUS
100
AcDbLine
 10
1933.561396067702
 20
-959.2036069316991
 30
0.0
 11
1933.561396067702
 21
-959.2036069316991
 31
0.0
1001
ACAD
1010
0.0
1020
0.0
1030
0.0
  0
LINE
  5
230B0
330
18
100
AcDbEntity
  8
1HATCH
  6
CONTINUOUS
100
AcDbLine
 10
1933.000130060135
 20
-958.6423409241323
 30
0.0
 11
1930.193800022301
 21
-955.8360108862983
 31
0.0
1001
ACAD
1010
0.0
1020
0.0
1030
0.0
  0
LINE
  5
230B1
330
18
100
AcDbEntity
  8
1HATCH
  6
CONTINUOUS
100
AcDbLine
 10
1929.632534014734
 20
-955.2747448787314
 30
0.0
 11
1929.632534014734
 21
-955.2747448787314
 31
0.0
1001
ACAD
1010
0.0
1020
0.0
1030
0.0
  0
LINE
  5
230B2
330
18
100
AcDbEntity
  8
1HATCH
  6
CONTINUOUS
100
AcDbLine
 10
1929.071268007168
 20
-954.7134788711646
 30
0.0
 11
1926.264937969333
 21
-951.9071488333304
 31
0.0
1001
ACAD
1010
0.0
1020
0.0
1030
0.0
  0
LINE
  5
230B3
330
18
100
AcDbEntity
  8
1HATCH
  6
CONTINUOUS
100
AcDbLine
 10
1925.703671961767
 20
-951.3458828257636
 30
0.0
 11
1925.703671961767
 21
-951.3458828257636
 31
0.0
1001
ACAD
1010
0.0
1020
0.0
1030
0.0
  0
LINE
  5
230B4
330
18
100
AcDbEntity
  8
1HATCH
  6
CONTINUOUS
100
AcDbLine
 10
1925.1424059542
 20
-950.7846168181968
 30
0.0
 11
1923.724045512572
 21
-949.3662563765693
 31
0.0
1001
ACAD
1010
0.0
1020
0.0
1030
0.0
  0
LINE
  5
230B5
330
18
100
AcDbEntity
  8
1HATCH
  6
CONTINUOUS
100
AcDbLine
 10
1923.724045512572
 20
-949.3662563765693
 30
0.0
 11
1923.724045512572
 21
-949.3662563765693
 31
0.0
1001
ACAD
1010
0.0
1020
0.0
1030
0.0
  0
LINE
  5
230B6
330
18
100
AcDbEntity
  8
1HATCH
  6
CONTINUOUS
100
AcDbLine
 10
1938.511542317725
 20
-961.9086891514552
 30
0.0
 11
1937.209625116887
 21
-960.6067719506162
 31
0.0
1001
ACAD
1010
0.0
1020
0.0
1030
0.0
  0
LINE
  5
230B7
330
18
100
AcDbEntity
  8
1HATCH
  6
CONTINUOUS
100
AcDbLine
 10
1936.64835910932
 20
-960.0455059430494
 30
0.0
 11
1936.64835910932
 21
-960.0455059430494
 31
0.0
1001
ACAD
1010
0.0
1020
0.0
1030
0.0
  0
LINE
  5
230B8
330
18
100
AcDbEntity
  8
1HATCH
  6
CONTINUOUS
100
AcDbLine
 10
1936.087093101753
 20
-959.4842399354826
 30
0.0
 11
1933.280763063919
 21
-956.6779098976485
 31
0.0
1001
ACAD
1010
0.0
1020
0.0
1030
0.0
  0
LINE
  5
230B9
330
18
100
AcDbEntity
  8
1HATCH
  6
CONTINUOUS
100
AcDbLine
 10
1932.719497056352
 20
-956.1166438900817
 30
0.0
 11
1932.719497056352
 21
-956.1166438900817
 31
0.0
1001
ACAD
1010
0.0
1020
0.0
1030
0.0
  0
LINE
  5
230BA
330
18
100
AcDbEntity
  8
1HATCH
  6
CONTINUOUS
100
AcDbLine
 10
1932.158231048785
 20
-955.5553778825149
 30
0.0
 11
1929.351901010951
 21
-952.7490478446807
 31
0.0
1001
ACAD
1010
0.0
1020
0.0
1030
0.0
  0
LINE
  5
230BB
330
18
100
AcDbEntity
  8
1HATCH
  6
CONTINUOUS
100
AcDbLine
 10
1928.790635003384
 20
-952.1877818371139
 30
0.0
 11
1928.790635003384
 21
-952.1877818371139
 31
0.0
1001
ACAD
1010
0.0
1020
0.0
1030
0.0
  0
LINE
  5
230BC
330
18
100
AcDbEntity
  8
1HATCH
  6
CONTINUOUS
100
AcDbLine
 10
1928.229368995817
 20
-951.6265158295471
 30
0.0
 11
1925.511542317725
 21
-948.9086891514546
 31
0.0
1001
ACAD
1010
0.0
1020
0.0
1030
0.0
  0
LINE
  5
230BD
330
18
100
AcDbEntity
  8
1HATCH
  6
CONTINUOUS
100
AcDbLine
 10
1925.511542317725
 20
-948.9086891514546
 30
0.0
 11
1925.511542317725
 21
-948.9086891514546
 31
0.0
1001
ACAD
1010
0.0
1020
0.0
1030
0.0
  0
LINE
  5
230BE
330
18
100
AcDbEntity
  8
1HATCH
  6
CONTINUOUS
100
AcDbLine
 10
1940.756606347993
 20
-961.9086891514552
 30
0.0
 11
1940.296588158504
 21
-961.4486709619665
 31
0.0
1001
ACAD
1010
0.0
1020
0.0
1030
0.0
  0
LINE
  5
230BF
330
18
100
AcDbEntity
  8
1HATCH
  6
CONTINUOUS
100
AcDbLine
 10
1939.735322150937
 20
-960.8874049543997
 30
0.0
 11
1939.735322150937
 21
-960.8874049543997
 31
0.0
1001
ACAD
1010
0.0
1020
0.0
1030
0.0
  0
LINE
  5
230C0
330
18
100
AcDbEntity
  8
1HATCH
  6
CONTINUOUS
100
AcDbLine
 10
1939.174056143371
 20
-960.3261389468329
 30
0.0
 11
1936.367726105536
 21
-957.5198089089988
 31
0.0
1001
ACAD
1010
0.0
1020
0.0
1030
0.0
  0
LINE
  5
230C1
330
18
100
AcDbEntity
  8
1HATCH
  6
CONTINUOUS
100
AcDbLine
 10
1935.806460097969
 20
-956.958542901432
 30
0.0
 11
1935.806460097969
 21
-956.958542901432
 31
0.0
1001
ACAD
1010
0.0
1020
0.0
1030
0.0
  0
LINE
  5
230C2
330
18
100
AcDbEntity
  8
1HATCH
  6
CONTINUOUS
100
AcDbLine
 10
1935.245194090403
 20
-956.3972768938652
 30
0.0
 11
1932.438864052569
 21
-953.590946856031
 31
0.0
1001
ACAD
1010
0.0
1020
0.0
1030
0.0
  0
LINE
  5
230C3
330
18
100
AcDbEntity
  8
1HATCH
  6
CONTINUOUS
100
AcDbLine
 10
1931.877598045002
 20
-953.0296808484642
 30
0.0
 11
1931.877598045002
 21
-953.0296808484642
 31
0.0
1001
ACAD
1010
0.0
1020
0.0
1030
0.0
  0
LINE
  5
230C4
330
18
100
AcDbEntity
  8
1HATCH
  6
CONTINUOUS
100
AcDbLine
 10
1931.316332037435
 20
-952.4684148408974
 30
0.0
 11
1928.510001999601
 21
-949.6620848030633
 31
0.0
1001
ACAD
1010
0.0
1020
0.0
1030
0.0
  0
LINE
  5
230C5
330
18
100
AcDbEntity
  8
1HATCH
  6
CONTINUOUS
100
AcDbLine
 10
1927.948735992034
 20
-949.1008187954965
 30
0.0
 11
1927.948735992034
 21
-949.1008187954965
 31
0.0
1001
ACAD
1010
0.0
1020
0.0
1030
0.0
  0
LINE
  5
230C6
330
18
100
AcDbEntity
  8
1HATCH
  6
CONTINUOUS
100
AcDbLine
 10
1942.261019184988
 20
-961.1680379581832
 30
0.0
 11
1939.454689147154
 21
-958.3617079203491
 31
0.0
1001
ACAD
1010
0.0
1020
0.0
1030
0.0
  0
LINE
  5
230C7
330
18
100
AcDbEntity
  8
1HATCH
  6
CONTINUOUS
100
AcDbLine
 10
1938.893423139587
 20
-957.8004419127822
 30
0.0
 11
1938.893423139587
 21
-957.8004419127822
 31
0.0
1001
ACAD
1010
0.0
1020
0.0
1030
0.0
  0
LINE
  5
230C8
330
18
100
AcDbEntity
  8
1HATCH
  6
CONTINUOUS
100
AcDbLine
 10
1938.33215713202
 20
-957.2391759052153
 30
0.0
 11
1935.525827094186
 21
-954.4328458673813
 31
0.0
1001
ACAD
1010
0.0
1020
0.0
1030
0.0
  0
LINE
  5
230C9
330
18
100
AcDbEntity
  8
1HATCH
  6
CONTINUOUS
100
AcDbLine
 10
1934.964561086619
 20
-953.8715798598145
 30
0.0
 11
1934.964561086619
 21
-953.8715798598145
 31
0.0
1001
ACAD
1010
0.0
1020
0.0
1030
0.0
  0
LINE
  5
230CA
330
18
100
AcDbEntity
  8
1HATCH
  6
CONTINUOUS
100
AcDbLine
 10
1934.403295079052
 20
-953.3103138522476
 30
0.0
 11
1931.596965041218
 21
-950.5039838144136
 31
0.0
1001
ACAD
1010
0.0
1020
0.0
1030
0.0
  0
LINE
  5
230CB
330
18
100
AcDbEntity
  8
1HATCH
  6
CONTINUOUS
100
AcDbLine
 10
1931.035699033652
 20
-949.9427178068468
 30
0.0
 11
1931.035699033652
 21
-949.9427178068468
 31
0.0
1001
ACAD
1010
0.0
1020
0.0
1030
0.0
  0
LINE
  5
230CC
330
18
100
AcDbEntity
  8
1HATCH
  6
CONTINUOUS
100
AcDbLine
 10
1930.474433026085
 20
-949.3814517992798
 30
0.0
 11
1930.001670378259
 21
-948.9086891514546
 31
0.0
1001
ACAD
1010
0.0
1020
0.0
1030
0.0
  0
LINE
  5
230CD
330
18
100
AcDbEntity
  8
1HATCH
  6
CONTINUOUS
100
AcDbLine
 10
1930.001670378259
 20
-948.9086891514546
 30
0.0
 11
1930.001670378259
 21
-948.9086891514546
 31
0.0
1001
ACAD
1010
0.0
1020
0.0
1030
0.0
  0
LINE
  5
230CE
330
18
100
AcDbEntity
  8
1HATCH
  6
CONTINUOUS
100
AcDbLine
 10
1942.593237981086
 20
-959.2551927240135
 30
0.0
 11
1942.541652188771
 21
-959.2036069316994
 31
0.0
1001
ACAD
1010
0.0
1020
0.0
1030
0.0
  0
LINE
  5
230CF
330
18
100
AcDbEntity
  8
1HATCH
  6
CONTINUOUS
100
AcDbLine
 10
1941.980386181205
 20
-958.6423409241324
 30
0.0
 11
1941.980386181205
 21
-958.6423409241324
 31
0.0
1001
ACAD
1010
0.0
1020
0.0
1030
0.0
  0
LINE
  5
230D0
330
18
100
AcDbEntity
  8
1HATCH
  6
CONTINUOUS
100
AcDbLine
 10
1941.419120173638
 20
-958.0810749165656
 30
0.0
 11
1938.612790135804
 21
-955.2747448787316
 31
0.0
1001
ACAD
1010
0.0
1020
0.0
1030
0.0
  0
LINE
  5
230D1
330
18
100
AcDbEntity
  8
1HATCH
  6
CONTINUOUS
100
AcDbLine
 10
1938.051524128237
 20
-954.7134788711647
 30
0.0
 11
1938.051524128237
 21
-954.7134788711647
 31
0.0
1001
ACAD
1010
0.0
1020
0.0
1030
0.0
  0
LINE
  5
230D2
330
18
100
AcDbEntity
  8
1HATCH
  6
CONTINUOUS
100
AcDbLine
 10
1937.49025812067
 20
-954.1522128635979
 30
0.0
 11
1934.683928082836
 21
-951.3458828257639
 31
0.0
1001
ACAD
1010
0.0
1020
0.0
1030
0.0
  0
LINE
  5
230D3
330
18
100
AcDbEntity
  8
1HATCH
  6
CONTINUOUS
100
AcDbLine
 10
1934.122662075269
 20
-950.784616818197
 30
0.0
 11
1934.122662075269
 21
-950.784616818197
 31
0.0
1001
ACAD
1010
0.0
1020
0.0
1030
0.0
  0
LINE
  5
230D4
330
18
100
AcDbEntity
  8
1HATCH
  6
CONTINUOUS
100
AcDbLine
 10
1933.561396067702
 20
-950.2233508106302
 30
0.0
 11
1932.246734408527
 21
-948.9086891514546
 31
0.0
1001
ACAD
1010
0.0
1020
0.0
1030
0.0
  0
LINE
  5
230D5
330
18
100
AcDbEntity
  8
1HATCH
  6
CONTINUOUS
100
AcDbLine
 10
1932.246734408527
 20
-948.9086891514546
 30
0.0
 11
1932.246734408527
 21
-948.9086891514546
 31
0.0
1001
ACAD
1010
0.0
1020
0.0
1030
0.0
  0
LINE
  5
230D6
330
18
100
AcDbEntity
  8
1HATCH
  6
CONTINUOUS
100
AcDbLine
 10
1947.491798438795
 20
-961.9086891514552
 30
0.0
 11
1946.993237981086
 21
-961.4101286937463
 31
0.0
1001
ACAD
1010
0.0
1020
0.0
1030
0.0
  0
LINE
  5
230D7
330
18
100
AcDbEntity
  8
1HATCH
  6
CONTINUOUS
100
AcDbLine
 10
1946.993237981086
 20
-961.4101286937463
 30
0.0
 11
1946.993237981086
 21
-961.4101286937463
 31
0.0
1001
ACAD
1010
0.0
1020
0.0
1030
0.0
  0
LINE
  5
230D8
330
18
100
AcDbEntity
  8
1HATCH
  6
CONTINUOUS
100
AcDbLine
 10
1949.736862469062
 20
-961.9086891514552
 30
0.0
 11
1948.715578272006
 21
-960.8874049543997
 31
0.0
1001
ACAD
1010
0.0
1020
0.0
1030
0.0
  0
LINE
  5
230D9
330
18
100
AcDbEntity
  8
1HATCH
  6
CONTINUOUS
100
AcDbLine
 10
1948.15431226444
 20
-960.3261389468329
 30
0.0
 11
1948.15431226444
 21
-960.3261389468329
 31
0.0
1001
ACAD
1010
0.0
1020
0.0
1030
0.0
  0
LINE
  5
230DA
330
18
100
AcDbEntity
  8
1HATCH
  6
CONTINUOUS
100
AcDbLine
 10
1947.593046256873
 20
-959.7648729392661
 30
0.0
 11
1946.993237981086
 21
-959.165064663479
 31
0.0
1001
ACAD
1010
0.0
1020
0.0
1030
0.0
  0
LINE
  5
230DB
330
18
100
AcDbEntity
  8
1HATCH
  6
CONTINUOUS
100
AcDbLine
 10
1946.993237981086
 20
-959.165064663479
 30
0.0
 11
1946.993237981086
 21
-959.165064663479
 31
0.0
1001
ACAD
1010
0.0
1020
0.0
1030
0.0
  0
LINE
  5
230DC
330
18
100
AcDbEntity
  8
1HATCH
  6
CONTINUOUS
100
AcDbLine
 10
1951.981926499329
 20
-961.9086891514552
 30
0.0
 11
1951.802541313624
 21
-961.72930396575
 31
0.0
1001
ACAD
1010
0.0
1020
0.0
1030
0.0
  0
LINE
  5
230DD
330
18
100
AcDbEntity
  8
1HATCH
  6
CONTINUOUS
100
AcDbLine
 10
1951.241275306057
 20
-961.1680379581832
 30
0.0
 11
1951.241275306057
 21
-961.1680379581832
 31
0.0
1001
ACAD
1010
0.0
1020
0.0
1030
0.0
  0
LINE
  5
230DE
330
18
100
AcDbEntity
  8
1HATCH
  6
CONTINUOUS
100
AcDbLine
 10
1950.68000929849
 20
-960.6067719506163
 30
0.0
 11
1947.873679260656
 21
-957.8004419127822
 31
0.0
1001
ACAD
1010
0.0
1020
0.0
1030
0.0
  0
LINE
  5
230DF
330
18
100
AcDbEntity
  8
1HATCH
  6
CONTINUOUS
100
AcDbLine
 10
1947.312413253089
 20
-957.2391759052153
 30
0.0
 11
1947.312413253089
 21
-957.2391759052153
 31
0.0
1001
ACAD
1010
0.0
1020
0.0
1030
0.0
  0
LINE
  5
230E0
330
18
100
AcDbEntity
  8
1HATCH
  6
CONTINUOUS
100
AcDbLine
 10
1953.766972340108
 20
-961.4486709619666
 30
0.0
 11
1950.960642302274
 21
-958.6423409241324
 31
0.0
1001
ACAD
1010
0.0
1020
0.0
1030
0.0
  0
LINE
  5
230E1
330
18
100
AcDbEntity
  8
1HATCH
  6
CONTINUOUS
100
AcDbLine
 10
1950.399376294707
 20
-958.0810749165656
 30
0.0
 11
1950.399376294707
 21
-958.0810749165656
 31
0.0
1001
ACAD
1010
0.0
1020
0.0
1030
0.0
  0
LINE
  5
230E2
330
18
100
AcDbEntity
  8
1HATCH
  6
CONTINUOUS
100
AcDbLine
 10
1949.83811028714
 20
-957.5198089089988
 30
0.0
 11
1947.031780249306
 21
-954.7134788711647
 31
0.0
1001
ACAD
1010
0.0
1020
0.0
1030
0.0
  0
LINE
  5
230E3
330
18
100
AcDbEntity
  8
1HATCH
  6
CONTINUOUS
100
AcDbLine
 10
1946.993237981086
 20
-954.6749366029444
 30
0.0
 11
1946.993237981086
 21
-954.6749366029444
 31
0.0
1001
ACAD
1010
0.0
1020
0.0
1030
0.0
  0
LINE
  5
230E4
330
18
100
AcDbEntity
  8
1HATCH
  6
CONTINUOUS
100
AcDbLine
 10
1942.593237981086
 20
-957.0101286937462
 30
0.0
 11
1941.699753177421
 21
-956.1166438900816
 31
0.0
1001
ACAD
1010
0.0
1020
0.0
1030
0.0
  0
LINE
  5
230E5
330
18
100
AcDbEntity
  8
1HATCH
  6
CONTINUOUS
100
AcDbLine
 10
1941.138487169854
 20
-955.5553778825148
 30
0.0
 11
1941.138487169854
 21
-955.5553778825148
 31
0.0
1001
ACAD
1010
0.0
1020
0.0
1030
0.0
  0
LINE
  5
230E6
330
18
100
AcDbEntity
  8
1HATCH
  6
CONTINUOUS
100
AcDbLine
 10
1940.577221162287
 20
-954.994111874948
 30
0.0
 11
1937.770891124453
 21
-952.1877818371139
 31
0.0
1001
ACAD
1010
0.0
1020
0.0
1030
0.0
  0
LINE
  5
230E7
330
18
100
AcDbEntity
  8
1HATCH
  6
CONTINUOUS
100
AcDbLine
 10
1937.209625116886
 20
-951.626515829547
 30
0.0
 11
1937.209625116886
 21
-951.626515829547
 31
0.0
1001
ACAD
1010
0.0
1020
0.0
1030
0.0
  0
LINE
  5
230E8
330
18
100
AcDbEntity
  8
1HATCH
  6
CONTINUOUS
100
AcDbLine
 10
1936.64835910932
 20
-951.0652498219802
 30
0.0
 11
1934.491798438794
 21
-948.9086891514546
 31
0.0
1001
ACAD
1010
0.0
1020
0.0
1030
0.0
  0
LINE
  5
230E9
330
18
100
AcDbEntity
  8
1HATCH
  6
CONTINUOUS
100
AcDbLine
 10
1934.491798438794
 20
-948.9086891514546
 30
0.0
 11
1934.491798438794
 21
-948.9086891514546
 31
0.0
1001
ACAD
1010
0.0
1020
0.0
1030
0.0
  0
LINE
  5
230EA
330
18
100
AcDbEntity
  8
1HATCH
  6
CONTINUOUS
100
AcDbLine
 10
1942.593237981086
 20
-954.7650646634789
 30
0.0
 11
1940.857854166071
 21
-953.0296808484642
 31
0.0
1001
ACAD
1010
0.0
1020
0.0
1030
0.0
  0
LINE
  5
230EB
330
18
100
AcDbEntity
  8
1HATCH
  6
CONTINUOUS
100
AcDbLine
 10
1940.296588158504
 20
-952.4684148408974
 30
0.0
 11
1940.296588158504
 21
-952.4684148408974
 31
0.0
1001
ACAD
1010
0.0
1020
0.0
1030
0.0
  0
LINE
  5
230EC
330
18
100
AcDbEntity
  8
1HATCH
  6
CONTINUOUS
100
AcDbLine
 10
1939.735322150937
 20
-951.9071488333304
 30
0.0
 11
1936.928992113103
 21
-949.1008187954964
 31
0.0
1001
ACAD
1010
0.0
1020
0.0
1030
0.0
  0
LINE
  5
230ED
330
18
100
AcDbEntity
  8
1HATCH
  6
CONTINUOUS
100
AcDbLine
 10
1936.736862469061
 20
-948.9086891514546
 30
0.0
 11
1936.736862469061
 21
-948.9086891514546
 31
0.0
1001
ACAD
1010
0.0
1020
0.0
1030
0.0
  0
LINE
  5
230EE
330
18
100
AcDbEntity
  8
1HATCH
  6
CONTINUOUS
100
AcDbLine
 10
1942.593237981086
 20
-952.5200006332117
 30
0.0
 11
1940.015955154721
 21
-949.9427178068466
 31
0.0
1001
ACAD
1010
0.0
1020
0.0
1030
0.0
  0
LINE
  5
230EF
330
18
100
AcDbEntity
  8
1HATCH
  6
CONTINUOUS
100
AcDbLine
 10
1939.454689147154
 20
-949.3814517992798
 30
0.0
 11
1939.454689147154
 21
-949.3814517992798
 31
0.0
1001
ACAD
1010
0.0
1020
0.0
1030
0.0
  0
LINE
  5
230F0
330
18
100
AcDbEntity
  8
1HATCH
  6
CONTINUOUS
100
AcDbLine
 10
1942.541652188771
 20
-950.2233508106301
 30
0.0
 11
1942.541652188771
 21
-950.2233508106301
 31
0.0
1001
ACAD
1010
0.0
1020
0.0
1030
0.0
  0
LINE
  5
230F1
330
18
100
AcDbEntity
  8
1HATCH
  6
CONTINUOUS
100
AcDbLine
 10
1941.980386181204
 20
-949.6620848030633
 30
0.0
 11
1941.226990529596
 21
-948.9086891514546
 31
0.0
1001
ACAD
1010
0.0
1020
0.0
1030
0.0
  0
LINE
  5
230F2
330
18
100
AcDbEntity
  8
1HATCH
  6
CONTINUOUS
100
AcDbLine
 10
1941.226990529596
 20
-948.9086891514546
 30
0.0
 11
1941.226990529596
 21
-948.9086891514546
 31
0.0
1001
ACAD
1010
0.0
1020
0.0
1030
0.0
  0
LINE
  5
230F3
330
18
100
AcDbEntity
  8
1HATCH
  6
CONTINUOUS
100
AcDbLine
 10
1956.472054559864
 20
-961.9086891514552
 30
0.0
 11
1954.047605343891
 21
-959.4842399354827
 31
0.0
1001
ACAD
1010
0.0
1020
0.0
1030
0.0
  0
LINE
  5
230F4
330
18
100
AcDbEntity
  8
1HATCH
  6
CONTINUOUS
100
AcDbLine
 10
1953.486339336324
 20
-958.9229739279158
 30
0.0
 11
1953.486339336324
 21
-958.9229739279158
 31
0.0
1001
ACAD
1010
0.0
1020
0.0
1030
0.0
  0
LINE
  5
230F5
330
18
100
AcDbEntity
  8
1HATCH
  6
CONTINUOUS
100
AcDbLine
 10
1952.925073328758
 20
-958.361707920349
 30
0.0
 11
1950.118743290923
 21
-955.5553778825149
 31
0.0
1001
ACAD
1010
0.0
1020
0.0
1030
0.0
  0
LINE
  5
230F6
330
18
100
AcDbEntity
  8
1HATCH
  6
CONTINUOUS
100
AcDbLine
 10
1949.557477283357
 20
-954.9941118749481
 30
0.0
 11
1949.557477283357
 21
-954.9941118749481
 31
0.0
1001
ACAD
1010
0.0
1020
0.0
1030
0.0
  0
LINE
  5
230F7
330
18
100
AcDbEntity
  8
1HATCH
  6
CONTINUOUS
100
AcDbLine
 10
1948.99621127579
 20
-954.4328458673813
 30
0.0
 11
1946.993237981086
 21
-952.4298725726771
 31
0.0
1001
ACAD
1010
0.0
1020
0.0
1030
0.0
  0
LINE
  5
230F8
330
18
100
AcDbEntity
  8
1HATCH
  6
CONTINUOUS
100
AcDbLine
 10
1946.993237981086
 20
-952.4298725726771
 30
0.0
 11
1946.993237981086
 21
-952.4298725726771
 31
0.0
1001
ACAD
1010
0.0
1020
0.0
1030
0.0
  0
LINE
  5
230F9
330
18
100
AcDbEntity
  8
1HATCH
  6
CONTINUOUS
100
AcDbLine
 10
1956.573302377942
 20
-959.764872939266
 30
0.0
 11
1956.573302377942
 21
-959.764872939266
 31
0.0
1001
ACAD
1010
0.0
1020
0.0
1030
0.0
  0
LINE
  5
230FA
330
18
100
AcDbEntity
  8
1HATCH
  6
CONTINUOUS
100
AcDbLine
 10
1956.012036370375
 20
-959.2036069316991
 30
0.0
 11
1953.205706332541
 21
-956.3972768938651
 31
0.0
1001
ACAD
1010
0.0
1020
0.0
1030
0.0
  0
LINE
  5
230FB
330
18
100
AcDbEntity
  8
1HATCH
  6
CONTINUOUS
100
AcDbLine
 10
1952.644440324974
 20
-955.8360108862981
 30
0.0
 11
1952.644440324974
 21
-955.8360108862981
 31
0.0
1001
ACAD
1010
0.0
1020
0.0
1030
0.0
  0
LINE
  5
230FC
330
18
100
AcDbEntity
  8
1HATCH
  6
CONTINUOUS
100
AcDbLine
 10
1952.083174317407
 20
-955.2747448787313
 30
0.0
 11
1949.276844279573
 21
-952.4684148408973
 31
0.0
1001
ACAD
1010
0.0
1020
0.0
1030
0.0
  0
LINE
  5
230FD
330
18
100
AcDbEntity
  8
1HATCH
  6
CONTINUOUS
100
AcDbLine
 10
1948.715578272006
 20
-951.9071488333304
 30
0.0
 11
1948.715578272006
 21
-951.9071488333304
 31
0.0
1001
ACAD
1010
0.0
1020
0.0
1030
0.0
  0
LINE
  5
230FE
330
18
100
AcDbEntity
  8
1HATCH
  6
CONTINUOUS
100
AcDbLine
 10
1948.15431226444
 20
-951.3458828257636
 30
0.0
 11
1946.993237981086
 21
-950.1848085424099
 31
0.0
1001
ACAD
1010
0.0
1020
0.0
1030
0.0
  0
LINE
  5
230FF
330
18
100
AcDbEntity
  8
1HATCH
  6
CONTINUOUS
100
AcDbLine
 10
1946.993237981086
 20
-950.1848085424099
 30
0.0
 11
1946.993237981086
 21
-950.1848085424099
 31
0.0
1001
ACAD
1010
0.0
1020
0.0
1030
0.0
  0
LINE
  5
23100
330
18
100
AcDbEntity
  8
1HATCH
  6
CONTINUOUS
100
AcDbLine
 10
1956.593237981087
 20
-957.5397445121434
 30
0.0
 11
1956.292669374159
 21
-957.2391759052153
 31
0.0
1001
ACAD
1010
0.0
1020
0.0
1030
0.0
  0
LINE
  5
23101
330
18
100
AcDbEntity
  8
1HATCH
  6
CONTINUOUS
100
AcDbLine
 10
1955.731403366592
 20
-956.6779098976485
 30
0.0
 11
1955.731403366592
 21
-956.6779098976485
 31
0.0
1001
ACAD
1010
0.0
1020
0.0
1030
0.0
  0
LINE
  5
23102
330
18
100
AcDbEntity
  8
1HATCH
  6
CONTINUOUS
100
AcDbLine
 10
1955.170137359025
 20
-956.1166438900816
 30
0.0
 11
1952.363807321191
 21
-953.3103138522475
 31
0.0
1001
ACAD
1010
0.0
1020
0.0
1030
0.0
  0
LINE
  5
23103
330
18
100
AcDbEntity
  8
1HATCH
  6
CONTINUOUS
100
AcDbLine
 10
1951.802541313624
 20
-952.7490478446807
 30
0.0
 11
1951.802541313624
 21
-952.7490478446807
 31
0.0
1001
ACAD
1010
0.0
1020
0.0
1030
0.0
  0
LINE
  5
23104
330
18
100
AcDbEntity
  8
1HATCH
  6
CONTINUOUS
100
AcDbLine
 10
1951.241275306057
 20
-952.1877818371139
 30
0.0
 11
1948.434945268223
 21
-949.3814517992798
 31
0.0
1001
ACAD
1010
0.0
1020
0.0
1030
0.0
  0
LINE
  5
23105
330
18
100
AcDbEntity
  8
1HATCH
  6
CONTINUOUS
100
AcDbLine
 10
1947.962182620398
 20
-948.9086891514546
 30
0.0
 11
1947.962182620398
 21
-948.9086891514546
 31
0.0
1001
ACAD
1010
0.0
1020
0.0
1030
0.0
  0
LINE
  5
23106
330
18
100
AcDbEntity
  8
1HATCH
  6
CONTINUOUS
100
AcDbLine
 10
1962.747228461177
 20
-961.4486709619665
 30
0.0
 11
1962.747228461177
 21
-961.4486709619665
 31
0.0
1001
ACAD
1010
0.0
1020
0.0
1030
0.0
  0
LINE
  5
23107
330
18
100
AcDbEntity
  8
1HATCH
  6
CONTINUOUS
100
AcDbLine
 10
1962.18596245361
 20
-960.8874049543997
 30
0.0
 11
1960.993237981087
 21
-959.6946804818762
 31
0.0
1001
ACAD
1010
0.0
1020
0.0
1030
0.0
  0
LINE
  5
23108
330
18
100
AcDbEntity
  8
1HATCH
  6
CONTINUOUS
100
AcDbLine
 10
1960.993237981087
 20
-959.6946804818762
 30
0.0
 11
1960.993237981087
 21
-959.6946804818762
 31
0.0
1001
ACAD
1010
0.0
1020
0.0
1030
0.0
  0
LINE
  5
23109
330
18
100
AcDbEntity
  8
1HATCH
  6
CONTINUOUS
100
AcDbLine
 10
1965.272925495228
 20
-961.72930396575
 30
0.0
 11
1962.466595457394
 21
-958.9229739279158
 31
0.0
1001
ACAD
1010
0.0
1020
0.0
1030
0.0
  0
LINE
  5
2310A
330
18
100
AcDbEntity
  8
1HATCH
  6
CONTINUOUS
100
AcDbLine
 10
1961.905329449827
 20
-958.361707920349
 30
0.0
 11
1961.905329449827
 21
-958.361707920349
 31
0.0
1001
ACAD
1010
0.0
1020
0.0
1030
0.0
  0
LINE
  5
2310B
330
18
100
AcDbEntity
  8
1HATCH
  6
CONTINUOUS
100
AcDbLine
 10
1961.34406344226
 20
-957.8004419127822
 30
0.0
 11
1960.993237981087
 21
-957.4496164516089
 31
0.0
1001
ACAD
1010
0.0
1020
0.0
1030
0.0
  0
LINE
  5
2310C
330
18
100
AcDbEntity
  8
1HATCH
  6
CONTINUOUS
100
AcDbLine
 10
1960.993237981087
 20
-957.4496164516089
 30
0.0
 11
1960.993237981087
 21
-957.4496164516089
 31
0.0
1001
ACAD
1010
0.0
1020
0.0
1030
0.0
  0
LINE
  5
2310D
330
18
100
AcDbEntity
  8
1HATCH
  6
CONTINUOUS
100
AcDbLine
 10
1967.6973747112
 20
-961.9086891514552
 30
0.0
 11
1965.553558499011
 21
-959.7648729392661
 31
0.0
1001
ACAD
1010
0.0
1020
0.0
1030
0.0
  0
LINE
  5
2310E
330
18
100
AcDbEntity
  8
1HATCH
  6
CONTINUOUS
100
AcDbLine
 10
1964.992292491444
 20
-959.2036069316993
 30
0.0
 11
1964.992292491444
 21
-959.2036069316993
 31
0.0
1001
ACAD
1010
0.0
1020
0.0
1030
0.0
  0
LINE
  5
2310F
330
18
100
AcDbEntity
  8
1HATCH
  6
CONTINUOUS
100
AcDbLine
 10
1964.431026483878
 20
-958.6423409241324
 30
0.0
 11
1961.624696446043
 21
-955.8360108862984
 31
0.0
1001
ACAD
1010
0.0
1020
0.0
1030
0.0
  0
LINE
  5
23110
330
18
100
AcDbEntity
  8
1HATCH
  6
CONTINUOUS
100
AcDbLine
 10
1961.063430438476
 20
-955.2747448787316
 30
0.0
 11
1961.063430438476
 21
-955.2747448787316
 31
0.0
1001
ACAD
1010
0.0
1020
0.0
1030
0.0
  0
LINE
  5
23111
330
18
100
AcDbEntity
  8
1HATCH
  6
CONTINUOUS
100
AcDbLine
 10
1956.593237981087
 20
-955.2946804818761
 30
0.0
 11
1955.450770362808
 21
-954.1522128635978
 31
0.0
1001
ACAD
1010
0.0
1020
0.0
1030
0.0
  0
LINE
  5
23112
330
18
100
AcDbEntity
  8
1HATCH
  6
CONTINUOUS
100
AcDbLine
 10
1954.889504355241
 20
-953.590946856031
 30
0.0
 11
1954.889504355241
 21
-953.590946856031
 31
0.0
1001
ACAD
1010
0.0
1020
0.0
1030
0.0
  0
LINE
  5
23113
330
18
100
AcDbEntity
  8
1HATCH
  6
CONTINUOUS
100
AcDbLine
 10
1954.328238347675
 20
-953.0296808484642
 30
0.0
 11
1951.52190830984
 21
-950.2233508106301
 31
0.0
1001
ACAD
1010
0.0
1020
0.0
1030
0.0
  0
LINE
  5
23114
330
18
100
AcDbEntity
  8
1HATCH
  6
CONTINUOUS
100
AcDbLine
 10
1950.960642302274
 20
-949.6620848030633
 30
0.0
 11
1950.960642302274
 21
-949.6620848030633
 31
0.0
1001
ACAD
1010
0.0
1020
0.0
1030
0.0
  0
LINE
  5
23115
330
18
100
AcDbEntity
  8
1HATCH
  6
CONTINUOUS
100
AcDbLine
 10
1950.399376294707
 20
-949.1008187954965
 30
0.0
 11
1950.207246650665
 21
-948.9086891514546
 31
0.0
1001
ACAD
1010
0.0
1020
0.0
1030
0.0
  0
LINE
  5
23116
330
18
100
AcDbEntity
  8
1HATCH
  6
CONTINUOUS
100
AcDbLine
 10
1950.207246650665
 20
-948.9086891514546
 30
0.0
 11
1950.207246650665
 21
-948.9086891514546
 31
0.0
1001
ACAD
1010
0.0
1020
0.0
1030
0.0
  0
LINE
  5
23117
330
18
100
AcDbEntity
  8
1HATCH
  6
CONTINUOUS
100
AcDbLine
 10
1956.593237981087
 20
-953.0496164516088
 30
0.0
 11
1954.608871351458
 21
-951.0652498219804
 31
0.0
1001
ACAD
1010
0.0
1020
0.0
1030
0.0
  0
LINE
  5
23118
330
18
100
AcDbEntity
  8
1HATCH
  6
CONTINUOUS
100
AcDbLine
 10
1954.047605343891
 20
-950.5039838144136
 30
0.0
 11
1954.047605343891
 21
-950.5039838144136
 31
0.0
1001
ACAD
1010
0.0
1020
0.0
1030
0.0
  0
LINE
  5
23119
330
18
100
AcDbEntity
  8
1HATCH
  6
CONTINUOUS
100
AcDbLine
 10
1953.486339336324
 20
-949.9427178068468
 30
0.0
 11
1952.452310680932
 21
-948.9086891514546
 31
0.0
1001
ACAD
1010
0.0
1020
0.0
1030
0.0
  0
LINE
  5
2311A
330
18
100
AcDbEntity
  8
1HATCH
  6
CONTINUOUS
100
AcDbLine
 10
1952.452310680932
 20
-948.9086891514546
 30
0.0
 11
1952.452310680932
 21
-948.9086891514546
 31
0.0
1001
ACAD
1010
0.0
1020
0.0
1030
0.0
  0
LINE
  5
2311B
330
18
100
AcDbEntity
  8
1HATCH
  6
CONTINUOUS
100
AcDbLine
 10
1956.573302377942
 20
-950.7846168181969
 30
0.0
 11
1954.6973747112
 21
-948.9086891514546
 31
0.0
1001
ACAD
1010
0.0
1020
0.0
1030
0.0
  0
LINE
  5
2311C
330
18
100
AcDbEntity
  8
1HATCH
  6
CONTINUOUS
100
AcDbLine
 10
1954.6973747112
 20
-948.9086891514546
 30
0.0
 11
1954.6973747112
 21
-948.9086891514546
 31
0.0
1001
ACAD
1010
0.0
1020
0.0
1030
0.0
  0
LINE
  5
2311D
330
18
100
AcDbEntity
  8
1HATCH
  6
CONTINUOUS
100
AcDbLine
 10
1969.942438741467
 20
-961.9086891514552
 30
0.0
 11
1968.640521540628
 21
-960.6067719506162
 31
0.0
1001
ACAD
1010
0.0
1020
0.0
1030
0.0
  0
LINE
  5
2311E
330
18
100
AcDbEntity
  8
1HATCH
  6
CONTINUOUS
100
AcDbLine
 10
1968.079255533062
 20
-960.0455059430494
 30
0.0
 11
1968.079255533062
 21
-960.0455059430494
 31
0.0
1001
ACAD
1010
0.0
1020
0.0
1030
0.0
  0
LINE
  5
2311F
330
18
100
AcDbEntity
  8
1HATCH
  6
CONTINUOUS
100
AcDbLine
 10
1967.517989525495
 20
-959.4842399354826
 30
0.0
 11
1964.711659487661
 21
-956.6779098976484
 31
0.0
1001
ACAD
1010
0.0
1020
0.0
1030
0.0
  0
LINE
  5
23120
330
18
100
AcDbEntity
  8
1HATCH
  6
CONTINUOUS
100
AcDbLine
 10
1964.150393480094
 20
-956.1166438900816
 30
0.0
 11
1964.150393480094
 21
-956.1166438900816
 31
0.0
1001
ACAD
1010
0.0
1020
0.0
1030
0.0
  0
LINE
  5
23121
330
18
100
AcDbEntity
  8
1HATCH
  6
CONTINUOUS
100
AcDbLine
 10
1963.589127472527
 20
-955.5553778825148
 30
0.0
 11
1960.993237981087
 21
-952.9594883910743
 31
0.0
1001
ACAD
1010
0.0
1020
0.0
1030
0.0
  0
LINE
  5
23122
330
18
100
AcDbEntity
  8
1HATCH
  6
CONTINUOUS
100
AcDbLine
 10
1960.993237981087
 20
-952.9594883910743
 30
0.0
 11
1960.993237981087
 21
-952.9594883910743
 31
0.0
1001
ACAD
1010
0.0
1020
0.0
1030
0.0
  0
LINE
  5
23123
330
18
100
AcDbEntity
  8
1HATCH
  6
CONTINUOUS
100
AcDbLine
 10
1972.187502771735
 20
-961.9086891514552
 30
0.0
 11
1971.727484582246
 21
-961.4486709619665
 31
0.0
1001
ACAD
1010
0.0
1020
0.0
1030
0.0
  0
LINE
  5
23124
330
18
100
AcDbEntity
  8
1HATCH
  6
CONTINUOUS
100
AcDbLine
 10
1971.166218574679
 20
-960.8874049543997
 30
0.0
 11
1971.166218574679
 21
-960.8874049543997
 31
0.0
1001
ACAD
1010
0.0
1020
0.0
1030
0.0
  0
LINE
  5
23125
330
18
100
AcDbEntity
  8
1HATCH
  6
CONTINUOUS
100
AcDbLine
 10
1970.604952567112
 20
-960.3261389468328
 30
0.0
 11
1967.798622529278
 21
-957.5198089089987
 31
0.0
1001
ACAD
1010
0.0
1020
0.0
1030
0.0
  0
LINE
  5
23126
330
18
100
AcDbEntity
  8
1HATCH
  6
CONTINUOUS
100
AcDbLine
 10
1967.237356521711
 20
-956.9585429014319
 30
0.0
 11
1967.237356521711
 21
-956.9585429014319
 31
0.0
1001
ACAD
1010
0.0
1020
0.0
1030
0.0
  0
LINE
  5
23127
330
18
100
AcDbEntity
  8
1HATCH
  6
CONTINUOUS
100
AcDbLine
 10
1966.676090514145
 20
-956.3972768938651
 30
0.0
 11
1963.869760476311
 21
-953.590946856031
 31
0.0
1001
ACAD
1010
0.0
1020
0.0
1030
0.0
  0
LINE
  5
23128
330
18
100
AcDbEntity
  8
1HATCH
  6
CONTINUOUS
100
AcDbLine
 10
1963.308494468744
 20
-953.0296808484642
 30
0.0
 11
1963.308494468744
 21
-953.0296808484642
 31
0.0
1001
ACAD
1010
0.0
1020
0.0
1030
0.0
  0
LINE
  5
23129
330
18
100
AcDbEntity
  8
1HATCH
  6
CONTINUOUS
100
AcDbLine
 10
1962.747228461177
 20
-952.4684148408974
 30
0.0
 11
1960.993237981087
 21
-950.714424360807
 31
0.0
1001
ACAD
1010
0.0
1020
0.0
1030
0.0
  0
LINE
  5
2312A
330
18
100
AcDbEntity
  8
1HATCH
  6
CONTINUOUS
100
AcDbLine
 10
1960.993237981087
 20
-950.714424360807
 30
0.0
 11
1960.993237981087
 21
-950.714424360807
 31
0.0
1001
ACAD
1010
0.0
1020
0.0
1030
0.0
  0
LINE
  5
2312B
330
18
100
AcDbEntity
  8
1HATCH
  6
CONTINUOUS
100
AcDbLine
 10
1974.253181616297
 20
-961.7293039657499
 30
0.0
 11
1974.253181616297
 21
-961.7293039657499
 31
0.0
1001
ACAD
1010
0.0
1020
0.0
1030
0.0
  0
LINE
  5
2312C
330
18
100
AcDbEntity
  8
1HATCH
  6
CONTINUOUS
100
AcDbLine
 10
1973.69191560873
 20
-961.168037958183
 30
0.0
 11
1970.885585570896
 21
-958.361707920349
 31
0.0
1001
ACAD
1010
0.0
1020
0.0
1030
0.0
  0
LINE
  5
2312D
330
18
100
AcDbEntity
  8
1HATCH
  6
CONTINUOUS
100
AcDbLine
 10
1970.324319563329
 20
-957.8004419127822
 30
0.0
 11
1970.324319563329
 21
-957.8004419127822
 31
0.0
1001
ACAD
1010
0.0
1020
0.0
1030
0.0
  0
LINE
  5
2312E
330
18
100
AcDbEntity
  8
1HATCH
  6
CONTINUOUS
100
AcDbLine
 10
1969.763053555762
 20
-957.2391759052153
 30
0.0
 11
1966.956723517928
 21
-954.4328458673813
 31
0.0
1001
ACAD
1010
0.0
1020
0.0
1030
0.0
  0
LINE
  5
2312F
330
18
100
AcDbEntity
  8
1HATCH
  6
CONTINUOUS
100
AcDbLine
 10
1966.395457510361
 20
-953.8715798598143
 30
0.0
 11
1966.395457510361
 21
-953.8715798598143
 31
0.0
1001
ACAD
1010
0.0
1020
0.0
1030
0.0
  0
LINE
  5
23130
330
18
100
AcDbEntity
  8
1HATCH
  6
CONTINUOUS
100
AcDbLine
 10
1965.834191502795
 20
-953.3103138522475
 30
0.0
 11
1963.02786146496
 21
-950.5039838144135
 31
0.0
1001
ACAD
1010
0.0
1020
0.0
1030
0.0
  0
LINE
  5
23131
330
18
100
AcDbEntity
  8
1HATCH
  6
CONTINUOUS
100
AcDbLine
 10
1962.466595457394
 20
-949.9427178068466
 30
0.0
 11
1962.466595457394
 21
-949.9427178068466
 31
0.0
1001
ACAD
1010
0.0
1020
0.0
1030
0.0
  0
LINE
  5
23132
330
18
100
AcDbEntity
  8
1HATCH
  6
CONTINUOUS
100
AcDbLine
 10
1961.905329449827
 20
-949.3814517992798
 30
0.0
 11
1961.432566802001
 21
-948.9086891514546
 31
0.0
1001
ACAD
1010
0.0
1020
0.0
1030
0.0
  0
LINE
  5
23133
330
18
100
AcDbEntity
  8
1HATCH
  6
CONTINUOUS
100
AcDbLine
 10
1961.432566802001
 20
-948.9086891514546
 30
0.0
 11
1961.432566802001
 21
-948.9086891514546
 31
0.0
1001
ACAD
1010
0.0
1020
0.0
1030
0.0
  0
LINE
  5
23134
330
18
100
AcDbEntity
  8
1HATCH
  6
CONTINUOUS
100
AcDbLine
 10
1976.677630832269
 20
-961.9086891514551
 30
0.0
 11
1973.972548612513
 21
-959.2036069316993
 31
0.0
1001
ACAD
1010
0.0
1020
0.0
1030
0.0
  0
LINE
  5
23135
330
18
100
AcDbEntity
  8
1HATCH
  6
CONTINUOUS
100
AcDbLine
 10
1973.411282604947
 20
-958.6423409241324
 30
0.0
 11
1973.411282604947
 21
-958.6423409241324
 31
0.0
1001
ACAD
1010
0.0
1020
0.0
1030
0.0
  0
LINE
  5
23136
330
18
100
AcDbEntity
  8
1HATCH
  6
CONTINUOUS
100
AcDbLine
 10
1972.85001659738
 20
-958.0810749165656
 30
0.0
 11
1970.043686559546
 21
-955.2747448787316
 31
0.0
1001
ACAD
1010
0.0
1020
0.0
1030
0.0
  0
LINE
  5
23137
330
18
100
AcDbEntity
  8
1HATCH
  6
CONTINUOUS
100
AcDbLine
 10
1969.482420551979
 20
-954.7134788711646
 30
0.0
 11
1969.482420551979
 21
-954.7134788711646
 31
0.0
1001
ACAD
1010
0.0
1020
0.0
1030
0.0
  0
LINE
  5
23138
330
18
100
AcDbEntity
  8
1HATCH
  6
CONTINUOUS
100
AcDbLine
 10
1968.921154544412
 20
-954.1522128635978
 30
0.0
 11
1966.114824506578
 21
-951.3458828257637
 31
0.0
1001
ACAD
1010
0.0
1020
0.0
1030
0.0
  0
LINE
  5
23139
330
18
100
AcDbEntity
  8
1HATCH
  6
CONTINUOUS
100
AcDbLine
 10
1965.553558499011
 20
-950.7846168181969
 30
0.0
 11
1965.553558499011
 21
-950.7846168181969
 31
0.0
1001
ACAD
1010
0.0
1020
0.0
1030
0.0
  0
LINE
  5
2313A
330
18
100
AcDbEntity
  8
1HATCH
  6
CONTINUOUS
100
AcDbLine
 10
1964.992292491444
 20
-950.2233508106301
 30
0.0
 11
1963.677630832269
 21
-948.9086891514546
 31
0.0
1001
ACAD
1010
0.0
1020
0.0
1030
0.0
  0
LINE
  5
2313B
330
18
100
AcDbEntity
  8
1HATCH
  6
CONTINUOUS
100
AcDbLine
 10
1963.677630832269
 20
-948.9086891514546
 30
0.0
 11
1963.677630832269
 21
-948.9086891514546
 31
0.0
1001
ACAD
1010
0.0
1020
0.0
1030
0.0
  0
LINE
  5
2313C
330
18
100
AcDbEntity
  8
1HATCH
  6
CONTINUOUS
100
AcDbLine
 10
1978.922694862536
 20
-961.9086891514551
 30
0.0
 11
1977.059511654131
 21
-960.0455059430495
 31
0.0
1001
ACAD
1010
0.0
1020
0.0
1030
0.0
  0
LINE
  5
2313D
330
18
100
AcDbEntity
  8
1HATCH
  6
CONTINUOUS
100
AcDbLine
 10
1976.498245646564
 20
-959.4842399354827
 30
0.0
 11
1976.498245646564
 21
-959.4842399354827
 31
0.0
1001
ACAD
1010
0.0
1020
0.0
1030
0.0
  0
LINE
  5
2313E
330
18
100
AcDbEntity
  8
1HATCH
  6
CONTINUOUS
100
AcDbLine
 10
1975.936979638997
 20
-958.9229739279159
 30
0.0
 11
1973.130649601163
 21
-956.1166438900817
 31
0.0
1001
ACAD
1010
0.0
1020
0.0
1030
0.0
  0
LINE
  5
2313F
330
18
100
AcDbEntity
  8
1HATCH
  6
CONTINUOUS
100
AcDbLine
 10
1972.569383593596
 20
-955.5553778825149
 30
0.0
 11
1972.569383593596
 21
-955.5553778825149
 31
0.0
1001
ACAD
1010
0.0
1020
0.0
1030
0.0
  0
LINE
  5
23140
330
18
100
AcDbEntity
  8
1HATCH
  6
CONTINUOUS
100
AcDbLine
 10
1972.00811758603
 20
-954.9941118749481
 30
0.0
 11
1969.201787548195
 21
-952.187781837114
 31
0.0
1001
ACAD
1010
0.0
1020
0.0
1030
0.0
  0
LINE
  5
23141
330
18
100
AcDbEntity
  8
1HATCH
  6
CONTINUOUS
100
AcDbLine
 10
1968.640521540629
 20
-951.6265158295472
 30
0.0
 11
1968.640521540629
 21
-951.6265158295472
 31
0.0
1001
ACAD
1010
0.0
1020
0.0
1030
0.0
  0
LINE
  5
23142
330
18
100
AcDbEntity
  8
1HATCH
  6
CONTINUOUS
100
AcDbLine
 10
1968.079255533062
 20
-951.0652498219804
 30
0.0
 11
1965.922694862536
 21
-948.9086891514546
 31
0.0
1001
ACAD
1010
0.0
1020
0.0
1030
0.0
  0
LINE
  5
23143
330
18
100
AcDbEntity
  8
1HATCH
  6
CONTINUOUS
100
AcDbLine
 10
1965.922694862536
 20
-948.9086891514546
 30
0.0
 11
1965.922694862536
 21
-948.9086891514546
 31
0.0
1001
ACAD
1010
0.0
1020
0.0
1030
0.0
  0
LINE
  5
23144
330
18
100
AcDbEntity
  8
1HATCH
  6
CONTINUOUS
100
AcDbLine
 10
1979.585208688182
 20
-960.3261389468328
 30
0.0
 11
1979.585208688182
 21
-960.3261389468328
 31
0.0
1001
ACAD
1010
0.0
1020
0.0
1030
0.0
  0
LINE
  5
23145
330
18
100
AcDbEntity
  8
1HATCH
  6
CONTINUOUS
100
AcDbLine
 10
1979.023942680615
 20
-959.764872939266
 30
0.0
 11
1976.217612642781
 21
-956.9585429014319
 31
0.0
1001
ACAD
1010
0.0
1020
0.0
1030
0.0
  0
LINE
  5
23146
330
18
100
AcDbEntity
  8
1HATCH
  6
CONTINUOUS
100
AcDbLine
 10
1975.656346635214
 20
-956.3972768938651
 30
0.0
 11
1975.656346635214
 21
-956.3972768938651
 31
0.0
1001
ACAD
1010
0.0
1020
0.0
1030
0.0
  0
LINE
  5
23147
330
18
100
AcDbEntity
  8
1HATCH
  6
CONTINUOUS
100
AcDbLine
 10
1975.095080627647
 20
-955.8360108862983
 30
0.0
 11
1972.288750589813
 21
-953.0296808484641
 31
0.0
1001
ACAD
1010
0.0
1020
0.0
1030
0.0
  0
LINE
  5
23148
330
18
100
AcDbEntity
  8
1HATCH
  6
CONTINUOUS
100
AcDbLine
 10
1971.727484582246
 20
-952.4684148408973
 30
0.0
 11
1971.727484582246
 21
-952.4684148408973
 31
0.0
1001
ACAD
1010
0.0
1020
0.0
1030
0.0
  0
LINE
  5
23149
330
18
100
AcDbEntity
  8
1HATCH
  6
CONTINUOUS
100
AcDbLine
 10
1971.166218574679
 20
-951.9071488333304
 30
0.0
 11
1968.359888536845
 21
-949.1008187954964
 31
0.0
1001
ACAD
1010
0.0
1020
0.0
1030
0.0
  0
LINE
  5
2314A
330
18
100
AcDbEntity
  8
1HATCH
  6
CONTINUOUS
100
AcDbLine
 10
1968.167758892803
 20
-948.9086891514546
 30
0.0
 11
1968.167758892803
 21
-948.9086891514546
 31
0.0
1001
ACAD
1010
0.0
1020
0.0
1030
0.0
  0
LINE
  5
2314B
330
18
100
AcDbEntity
  8
1HATCH
  6
CONTINUOUS
100
AcDbLine
 10
1979.781557137232
 20
-958.2774233656158
 30
0.0
 11
1979.304575684398
 21
-957.8004419127822
 31
0.0
1001
ACAD
1010
0.0
1020
0.0
1030
0.0
  0
LINE
  5
2314C
330
18
100
AcDbEntity
  8
1HATCH
  6
CONTINUOUS
100
AcDbLine
 10
1978.743309676831
 20
-957.2391759052153
 30
0.0
 11
1978.743309676831
 21
-957.2391759052153
 31
0.0
1001
ACAD
1010
0.0
1020
0.0
1030
0.0
  0
LINE
  5
2314D
330
18
100
AcDbEntity
  8
1HATCH
  6
CONTINUOUS
100
AcDbLine
 10
1978.182043669264
 20
-956.6779098976485
 30
0.0
 11
1975.37571363143
 21
-953.8715798598143
 31
0.0
1001
ACAD
1010
0.0
1020
0.0
1030
0.0
  0
LINE
  5
2314E
330
18
100
AcDbEntity
  8
1HATCH
  6
CONTINUOUS
100
AcDbLine
 10
1974.814447623864
 20
-953.3103138522475
 30
0.0
 11
1974.814447623864
 21
-953.3103138522475
 31
0.0
1001
ACAD
1010
0.0
1020
0.0
1030
0.0
  0
LINE
  5
2314F
330
18
100
AcDbEntity
  8
1HATCH
  6
CONTINUOUS
100
AcDbLine
 10
1974.253181616297
 20
-952.7490478446807
 30
0.0
 11
1971.446851578463
 21
-949.9427178068466
 31
0.0
1001
ACAD
1010
0.0
1020
0.0
1030
0.0
  0
LINE
  5
23150
330
18
100
AcDbEntity
  8
1HATCH
  6
CONTINUOUS
100
AcDbLine
 10
1970.885585570896
 20
-949.3814517992798
 30
0.0
 11
1970.885585570896
 21
-949.3814517992798
 31
0.0
1001
ACAD
1010
0.0
1020
0.0
1030
0.0
  0
LINE
  5
23151
330
18
100
AcDbEntity
  8
1HATCH
  6
CONTINUOUS
100
AcDbLine
 10
1979.781557137232
 20
-956.0323593353486
 30
0.0
 11
1978.462676673048
 21
-954.7134788711646
 31
0.0
1001
ACAD
1010
0.0
1020
0.0
1030
0.0
  0
LINE
  5
23152
330
18
100
AcDbEntity
  8
1HATCH
  6
CONTINUOUS
100
AcDbLine
 10
1977.901410665481
 20
-954.1522128635978
 30
0.0
 11
1977.901410665481
 21
-954.1522128635978
 31
0.0
1001
ACAD
1010
0.0
1020
0.0
1030
0.0
  0
LINE
  5
23153
330
18
100
AcDbEntity
  8
1HATCH
  6
CONTINUOUS
100
AcDbLine
 10
1977.340144657914
 20
-953.590946856031
 30
0.0
 11
1974.53381462008
 21
-950.7846168181969
 31
0.0
1001
ACAD
1010
0.0
1020
0.0
1030
0.0
  0
LINE
  5
23154
330
18
100
AcDbEntity
  8
1HATCH
  6
CONTINUOUS
100
AcDbLine
 10
1973.972548612513
 20
-950.2233508106301
 30
0.0
 11
1973.972548612513
 21
-950.2233508106301
 31
0.0
1001
ACAD
1010
0.0
1020
0.0
1030
0.0
  0
LINE
  5
23155
330
18
100
AcDbEntity
  8
1HATCH
  6
CONTINUOUS
100
AcDbLine
 10
1973.411282604947
 20
-949.6620848030633
 30
0.0
 11
1972.657886953338
 21
-948.9086891514546
 31
0.0
1001
ACAD
1010
0.0
1020
0.0
1030
0.0
  0
LINE
  5
23156
330
18
100
AcDbEntity
  8
1HATCH
  6
CONTINUOUS
100
AcDbLine
 10
1972.657886953338
 20
-948.9086891514546
 30
0.0
 11
1972.657886953338
 21
-948.9086891514546
 31
0.0
1001
ACAD
1010
0.0
1020
0.0
1030
0.0
  0
LINE
  5
23157
330
18
100
AcDbEntity
  8
1HATCH
  6
CONTINUOUS
100
AcDbLine
 10
1979.781557137232
 20
-953.7872953050812
 30
0.0
 11
1977.620777661698
 21
-951.6265158295471
 31
0.0
1001
ACAD
1010
0.0
1020
0.0
1030
0.0
  0
LINE
  5
23158
330
18
100
AcDbEntity
  8
1HATCH
  6
CONTINUOUS
100
AcDbLine
 10
1977.059511654131
 20
-951.0652498219803
 30
0.0
 11
1977.059511654131
 21
-951.0652498219803
 31
0.0
1001
ACAD
1010
0.0
1020
0.0
1030
0.0
  0
LINE
  5
23159
330
18
100
AcDbEntity
  8
1HATCH
  6
CONTINUOUS
100
AcDbLine
 10
1976.498245646564
 20
-950.5039838144135
 30
0.0
 11
1974.902950983605
 21
-948.9086891514546
 31
0.0
1001
ACAD
1010
0.0
1020
0.0
1030
0.0
  0
LINE
  5
2315A
330
18
100
AcDbEntity
  8
1HATCH
  6
CONTINUOUS
100
AcDbLine
 10
1974.902950983605
 20
-948.9086891514546
 30
0.0
 11
1974.902950983605
 21
-948.9086891514546
 31
0.0
1001
ACAD
1010
0.0
1020
0.0
1030
0.0
  0
LINE
  5
2315B
330
18
100
AcDbEntity
  8
1HATCH
  6
CONTINUOUS
100
AcDbLine
 10
1979.585208688182
 20
-951.3458828257637
 30
0.0
 11
1977.148015013873
 21
-948.9086891514546
 31
0.0
1001
ACAD
1010
0.0
1020
0.0
1030
0.0
  0
LINE
  5
2315C
330
18
100
AcDbEntity
  8
1HATCH
  6
CONTINUOUS
100
AcDbLine
 10
1977.148015013873
 20
-948.9086891514546
 30
0.0
 11
1977.148015013873
 21
-948.9086891514546
 31
0.0
1001
ACAD
1010
0.0
1020
0.0
1030
0.0
  0
LINE
  5
2315D
330
18
100
AcDbEntity
  8
1HATCH
  6
CONTINUOUS
100
AcDbLine
 10
1979.39307904414
 20
-948.9086891514546
 30
0.0
 11
1979.39307904414
 21
-948.9086891514546
 31
0.0
1001
ACAD
1010
0.0
1020
0.0
1030
0.0
  0
SOLID
  5
2315E
330
18
100
AcDbEntity
  8
1DIM
100
AcDbTrace
 10
1962.691888363033
 20
-953.0816222085875
 30
0.0
 11
1960.96587297611
 21
-954.1455686335621
 31
0.0
 12
1962.253526528613
 22
-952.5793440520166
 32
0.0
 13
1962.253526528613
 23
-952.5793440520166
 33
0.0
  0
LINE
  5
2315F
330
18
100
AcDbEntity
  8
1DIM
100
AcDbLine
 10
1962.472707445823
 20
-952.830483130302
 30
0.0
 11
1971.941460706916
 21
-944.5666556177939
 31
0.0
  0
LINE
  5
23160
330
18
100
AcDbEntity
  8
1DIM
100
AcDbLine
 10
1971.941460706916
 20
-944.5666556177939
 30
0.0
 11
2010.608127373583
 21
-944.5666556177939
 31
0.0
  0
TEXT
  5
23161
330
18
100
AcDbEntity
  8
1DIM
  6
CONTINUOUS
100
AcDbText
 10
1974.174794040249
 20
-943.8666556177939
 30
0.0
 40
3.5
  1
カウンター下穴φ5
100
AcDbText
  0
LINE
  5
23162
330
18
100
AcDbEntity
  8
1DIM
100
AcDbLine
 10
1824.853453415736
 20
-843.0588829495333
 30
0.0
 11
1867.328928704594
 21
-843.0588829495333
 31
0.0
  0
LINE
  5
23163
330
18
100
AcDbEntity
  8
1DIM
100
AcDbLine
 10
1845.853453415736
 20
-829.0588829495324
 30
0.0
 11
1867.328928704594
 21
-829.0588829495324
 31
0.0
  0
LINE
  5
23164
330
18
100
AcDbEntity
  8
1DIM
100
AcDbLine
 10
1866.328928704594
 20
-841.0588829495333
 30
0.0
 11
1866.328928704594
 21
-831.0588829495324
 31
0.0
  0
LINE
  5
23168
330
18
100
AcDbEntity
  8
1DIM
100
AcDbLine
 10
1840.653453415736
 20
-834.2588829495322
 30
0.0
 11
1840.653453415736
 21
-865.7492524234931
 31
0.0
  0
LINE
  5
23169
330
18
100
AcDbEntity
  8
1DIM
100
AcDbLine
 10
1848.653453415736
 20
-848.3088829495329
 30
0.0
 11
1848.653453415736
 21
-865.7492524234931
 31
0.0
  0
LINE
  5
2316A
330
18
100
AcDbEntity
  8
1DIM
100
AcDbLine
 10
1842.653453415736
 20
-864.7492524234931
 30
0.0
 11
1846.653453415736
 21
-864.7492524234931
 31
0.0
  0
LINE
  5
2316E
330
18
100
AcDbEntity
  8
1HATCH
  6
CONTINUOUS
100
AcDbLine
 10
1923.724045512572
 20
-963.4282974111607
 30
0.0
 11
1925.243653772278
 21
-961.9086891514551
 31
0.0
1001
ACAD
1010
0.0
1020
0.0
1030
0.0
  0
LINE
  5
2316F
330
18
100
AcDbEntity
  8
1HATCH
  6
CONTINUOUS
100
AcDbLine
 10
1923.724045512572
 20
-965.6733614414279
 30
0.0
 11
1927.488717802545
 21
-961.9086891514551
 31
0.0
1001
ACAD
1010
0.0
1020
0.0
1030
0.0
  0
LINE
  5
23170
330
18
100
AcDbEntity
  8
1HATCH
  6
CONTINUOUS
100
AcDbLine
 10
1923.724045512572
 20
-967.9184254716952
 30
0.0
 11
1929.733781832812
 21
-961.9086891514551
 31
0.0
1001
ACAD
1010
0.0
1020
0.0
1030
0.0
  0
LINE
  5
23171
330
18
100
AcDbEntity
  8
1HATCH
  6
CONTINUOUS
100
AcDbLine
 10
1923.724045512572
 20
-970.1634895019625
 30
0.0
 11
1931.97884586308
 21
-961.9086891514551
 31
0.0
1001
ACAD
1010
0.0
1020
0.0
1030
0.0
  0
LINE
  5
23172
330
18
100
AcDbEntity
  8
1HATCH
  6
CONTINUOUS
100
AcDbLine
 10
1923.724045512572
 20
-972.4085535322298
 30
0.0
 11
1934.223909893347
 21
-961.9086891514552
 31
0.0
1001
ACAD
1010
0.0
1020
0.0
1030
0.0
  0
LINE
  5
23173
330
18
100
AcDbEntity
  8
1HATCH
  6
CONTINUOUS
100
AcDbLine
 10
1924.468973923614
 20
-973.9086891514551
 30
0.0
 11
1936.468973923614
 21
-961.9086891514552
 31
0.0
1001
ACAD
1010
0.0
1020
0.0
1030
0.0
  0
LINE
  5
23174
330
18
100
AcDbEntity
  8
1HATCH
  6
CONTINUOUS
100
AcDbLine
 10
1926.714037953882
 20
-973.9086891514551
 30
0.0
 11
1938.714037953881
 21
-961.9086891514552
 31
0.0
1001
ACAD
1010
0.0
1020
0.0
1030
0.0
  0
LINE
  5
23175
330
18
100
AcDbEntity
  8
1HATCH
  6
CONTINUOUS
100
AcDbLine
 10
1928.959101984149
 20
-973.9086891514551
 30
0.0
 11
1940.959101984149
 21
-961.9086891514552
 31
0.0
1001
ACAD
1010
0.0
1020
0.0
1030
0.0
  0
LINE
  5
23176
330
18
100
AcDbEntity
  8
1HATCH
  6
CONTINUOUS
100
AcDbLine
 10
1931.204166014416
 20
-973.9086891514551
 30
0.0
 11
1943.052340295136
 21
-962.0605148707352
 31
0.0
1001
ACAD
1010
0.0
1020
0.0
1030
0.0
  0
LINE
  5
23177
330
18
100
AcDbEntity
  8
1HATCH
  6
CONTINUOUS
100
AcDbLine
 10
1943.181914343245
 20
-961.9309408226267
 30
0.0
 11
1943.204166014416
 21
-961.9086891514552
 31
0.0
1001
ACAD
1010
0.0
1020
0.0
1030
0.0
  0
LINE
  5
23178
330
18
100
AcDbEntity
  8
1HATCH
  6
CONTINUOUS
100
AcDbLine
 10
1933.449230044683
 20
-973.9086891514551
 30
0.0
 11
1943.293191445188
 21
-964.0647277509504
 31
0.0
1001
ACAD
1010
0.0
1020
0.0
1030
0.0
  0
LINE
  5
23179
330
18
100
AcDbEntity
  8
1HATCH
  6
CONTINUOUS
100
AcDbLine
 10
1935.694294074951
 20
-973.9086891514551
 30
0.0
 11
1942.794114179614
 21
-966.8088690467918
 31
0.0
1001
ACAD
1010
0.0
1020
0.0
1030
0.0
  0
LINE
  5
2317A
330
18
100
AcDbEntity
  8
1HATCH
  6
CONTINUOUS
100
AcDbLine
 10
1942.794575545485
 20
-966.8084076809205
 30
0.0
 11
1943.293191445188
 21
-966.3097917812178
 31
0.0
1001
ACAD
1010
0.0
1020
0.0
1030
0.0
  0
LINE
  5
2317B
330
18
100
AcDbEntity
  8
1HATCH
  6
CONTINUOUS
100
AcDbLine
 10
1946.293191445188
 20
-963.309791781218
 30
0.0
 11
1947.694294074951
 21
-961.9086891514552
 31
0.0
1001
ACAD
1010
0.0
1020
0.0
1030
0.0
  0
LINE
  5
2317C
330
18
100
AcDbEntity
  8
1HATCH
  6
CONTINUOUS
100
AcDbLine
 10
1937.939358105218
 20
-973.9086891514551
 30
0.0
 11
1943.293191445188
 21
-968.554855811485
 31
0.0
1001
ACAD
1010
0.0
1020
0.0
1030
0.0
  0
LINE
  5
2317D
330
18
100
AcDbEntity
  8
1HATCH
  6
CONTINUOUS
100
AcDbLine
 10
1946.293191445188
 20
-965.5548558114853
 30
0.0
 11
1949.939358105218
 21
-961.9086891514552
 31
0.0
1001
ACAD
1010
0.0
1020
0.0
1030
0.0
  0
LINE
  5
2317E
330
18
100
AcDbEntity
  8
1HATCH
  6
CONTINUOUS
100
AcDbLine
 10
1940.184422135485
 20
-973.9086891514551
 30
0.0
 11
1943.293191445188
 21
-970.7999198417523
 31
0.0
1001
ACAD
1010
0.0
1020
0.0
1030
0.0
  0
LINE
  5
2317F
330
18
100
AcDbEntity
  8
1HATCH
  6
CONTINUOUS
100
AcDbLine
 10
1946.293191445188
 20
-967.7999198417525
 30
0.0
 11
1946.407225113783
 21
-967.6858861731577
 31
0.0
1001
ACAD
1010
0.0
1020
0.0
1030
0.0
  0
LINE
  5
23180
330
18
100
AcDbEntity
  8
1HATCH
  6
CONTINUOUS
100
AcDbLine
 10
1946.535880308123
 20
-967.5572309788179
 30
0.0
 11
1952.184422135485
 21
-961.9086891514552
 31
0.0
1001
ACAD
1010
0.0
1020
0.0
1030
0.0
  0
LINE
  5
23181
330
18
100
AcDbEntity
  8
1HATCH
  6
CONTINUOUS
100
AcDbLine
 10
1942.429486165753
 20
-973.9086891514551
 30
0.0
 11
1943.073440380333
 21
-973.2647349368744
 31
0.0
1001
ACAD
1010
0.0
1020
0.0
1030
0.0
  0
LINE
  5
23182
330
18
100
AcDbEntity
  8
1HATCH
  6
CONTINUOUS
100
AcDbLine
 10
1943.213564440356
 20
-973.1246108768515
 30
0.0
 11
1943.293191445188
 21
-973.0449838720195
 31
0.0
1001
ACAD
1010
0.0
1020
0.0
1030
0.0
  0
LINE
  5
23183
330
18
100
AcDbEntity
  8
1HATCH
  6
CONTINUOUS
100
AcDbLine
 10
1946.293191445188
 20
-970.0449838720197
 30
0.0
 11
1954.429486165752
 21
-961.9086891514552
 31
0.0
1001
ACAD
1010
0.0
1020
0.0
1030
0.0
  0
LINE
  5
23184
330
18
100
AcDbEntity
  8
1HATCH
  6
CONTINUOUS
100
AcDbLine
 10
1946.293191445188
 20
-972.2900479022869
 30
0.0
 11
1956.67455019602
 21
-961.9086891514552
 31
0.0
1001
ACAD
1010
0.0
1020
0.0
1030
0.0
  0
LINE
  5
23185
330
18
100
AcDbEntity
  8
1HATCH
  6
CONTINUOUS
100
AcDbLine
 10
1946.919614226287
 20
-973.9086891514551
 30
0.0
 11
1957.148546951817
 21
-963.6797564259247
 31
0.0
1001
ACAD
1010
0.0
1020
0.0
1030
0.0
  0
LINE
  5
23186
330
18
100
AcDbEntity
  8
1HATCH
  6
CONTINUOUS
100
AcDbLine
 10
1949.164678256554
 20
-973.9086891514551
 30
0.0
 11
1957.293191445189
 21
-965.7801759628207
 31
0.0
1001
ACAD
1010
0.0
1020
0.0
1030
0.0
  0
LINE
  5
23187
330
18
100
AcDbEntity
  8
1HATCH
  6
CONTINUOUS
100
AcDbLine
 10
1960.352760764085
 20
-962.7206066439246
 30
0.0
 11
1961.164678256554
 21
-961.9086891514553
 31
0.0
1001
ACAD
1010
0.0
1020
0.0
1030
0.0
  0
LINE
  5
23188
330
18
100
AcDbEntity
  8
1HATCH
  6
CONTINUOUS
100
AcDbLine
 10
1951.409742286822
 20
-973.9086891514551
 30
0.0
 11
1956.890320836296
 21
-968.4281106019811
 31
0.0
1001
ACAD
1010
0.0
1020
0.0
1030
0.0
  0
LINE
  5
23189
330
18
100
AcDbEntity
  8
1HATCH
  6
CONTINUOUS
100
AcDbLine
 10
1956.9388853906
 20
-968.3795460476772
 30
0.0
 11
1957.293191445189
 21
-968.025239993088
 31
0.0
1001
ACAD
1010
0.0
1020
0.0
1030
0.0
  0
LINE
  5
2318A
330
18
100
AcDbEntity
  8
1HATCH
  6
CONTINUOUS
100
AcDbLine
 10
1960.293191445189
 20
-965.0252399930882
 30
0.0
 11
1963.409742286821
 21
-961.9086891514553
 31
0.0
1001
ACAD
1010
0.0
1020
0.0
1030
0.0
  0
LINE
  5
2318B
330
18
100
AcDbEntity
  8
1HATCH
  6
CONTINUOUS
100
AcDbLine
 10
1953.654806317089
 20
-973.9086891514551
 30
0.0
 11
1957.293191445189
 21
-970.2703040233554
 31
0.0
1001
ACAD
1010
0.0
1020
0.0
1030
0.0
  0
LINE
  5
2318C
330
18
100
AcDbEntity
  8
1HATCH
  6
CONTINUOUS
100
AcDbLine
 10
1960.293191445189
 20
-967.2703040233554
 30
0.0
 11
1965.654806317089
 21
-961.9086891514552
 31
0.0
1001
ACAD
1010
0.0
1020
0.0
1030
0.0
  0
LINE
  5
2318D
330
18
100
AcDbEntity
  8
1HATCH
  6
CONTINUOUS
100
AcDbLine
 10
1955.899870347356
 20
-973.9086891514551
 30
0.0
 11
1957.293191445189
 21
-972.5153680536226
 31
0.0
1001
ACAD
1010
0.0
1020
0.0
1030
0.0
  0
LINE
  5
2318E
330
18
100
AcDbEntity
  8
1HATCH
  6
CONTINUOUS
100
AcDbLine
 10
1960.293191445189
 20
-969.5153680536226
 30
0.0
 11
1960.551534958897
 21
-969.2570245399145
 31
0.0
1001
ACAD
1010
0.0
1020
0.0
1030
0.0
  0
LINE
  5
2318F
330
18
100
AcDbEntity
  8
1HATCH
  6
CONTINUOUS
100
AcDbLine
 10
1960.632086964804
 20
-969.1764725340072
 30
0.0
 11
1967.899870347356
 21
-961.9086891514552
 31
0.0
1001
ACAD
1010
0.0
1020
0.0
1030
0.0
  0
LINE
  5
23190
330
18
100
AcDbEntity
  8
1HATCH
  6
CONTINUOUS
100
AcDbLine
 10
1960.293191445189
 20
-971.7604320838899
 30
0.0
 11
1970.144934377623
 21
-961.9086891514552
 31
0.0
1001
ACAD
1010
0.0
1020
0.0
1030
0.0
  0
LINE
  5
23191
330
18
100
AcDbEntity
  8
1HATCH
  6
CONTINUOUS
100
AcDbLine
 10
1960.389998407891
 20
-973.9086891514551
 30
0.0
 11
1972.389998407891
 21
-961.9086891514552
 31
0.0
1001
ACAD
1010
0.0
1020
0.0
1030
0.0
  0
LINE
  5
23192
330
18
100
AcDbEntity
  8
1HATCH
  6
CONTINUOUS
100
AcDbLine
 10
1962.635062438158
 20
-973.9086891514551
 30
0.0
 11
1974.635062438158
 21
-961.9086891514552
 31
0.0
1001
ACAD
1010
0.0
1020
0.0
1030
0.0
  0
LINE
  5
23193
330
18
100
AcDbEntity
  8
1HATCH
  6
CONTINUOUS
100
AcDbLine
 10
1964.880126468425
 20
-973.9086891514551
 30
0.0
 11
1976.880126468425
 21
-961.9086891514551
 31
0.0
1001
ACAD
1010
0.0
1020
0.0
1030
0.0
  0
LINE
  5
23194
330
18
100
AcDbEntity
  8
1HATCH
  6
CONTINUOUS
100
AcDbLine
 10
1967.125190498693
 20
-973.9086891514551
 30
0.0
 11
1979.125190498693
 21
-961.9086891514551
 31
0.0
1001
ACAD
1010
0.0
1020
0.0
1030
0.0
  0
LINE
  5
23195
330
18
100
AcDbEntity
  8
1HATCH
  6
CONTINUOUS
100
AcDbLine
 10
1969.37025452896
 20
-973.9086891514551
 30
0.0
 11
1979.781557137232
 21
-963.4973865431833
 31
0.0
1001
ACAD
1010
0.0
1020
0.0
1030
0.0
  0
LINE
  5
23196
330
18
100
AcDbEntity
  8
1HATCH
  6
CONTINUOUS
100
AcDbLine
 10
1971.615318559227
 20
-973.9086891514551
 30
0.0
 11
1979.781557137232
 21
-965.7424505734506
 31
0.0
1001
ACAD
1010
0.0
1020
0.0
1030
0.0
  0
LINE
  5
23197
330
18
100
AcDbEntity
  8
1HATCH
  6
CONTINUOUS
100
AcDbLine
 10
1973.860382589495
 20
-973.9086891514551
 30
0.0
 11
1979.781557137232
 21
-967.9875146037178
 31
0.0
1001
ACAD
1010
0.0
1020
0.0
1030
0.0
  0
LINE
  5
23198
330
18
100
AcDbEntity
  8
1HATCH
  6
CONTINUOUS
100
AcDbLine
 10
1976.105446619762
 20
-973.9086891514551
 30
0.0
 11
1979.781557137232
 21
-970.2325786339851
 31
0.0
1001
ACAD
1010
0.0
1020
0.0
1030
0.0
  0
LINE
  5
23199
330
18
100
AcDbEntity
  8
1HATCH
  6
CONTINUOUS
100
AcDbLine
 10
1978.350510650029
 20
-973.9086891514551
 30
0.0
 11
1979.781557137232
 21
-972.4776426642525
 31
0.0
1001
ACAD
1010
0.0
1020
0.0
1030
0.0
  0
LINE
  5
2319A
330
18
100
AcDbEntity
  8
1DIM
100
AcDbLine
 10
1923.724045512572
 20
-948.9086891514546
 30
0.0
 11
1913.658333139235
 21
-948.9086891514546
 31
0.0
  0
LINE
  5
2319B
330
18
100
AcDbEntity
  8
1DIM
100
AcDbLine
 10
1944.793191445188
 20
-982.9086891514005
 30
0.0
 11
1913.658333139235
 21
-982.9086891514005
 31
0.0
  0
LINE
  5
2319C
330
18
100
AcDbEntity
  8
1DIM
100
AcDbLine
 10
1914.658333139235
 20
-950.9086891514546
 30
0.0
 11
1914.658333139235
 21
-980.9086891514005
 31
0.0
  0
LINE
  5
231A0
330
18
100
AcDbEntity
  8
1DIM
100
AcDbLine
 10
1941.293237981086
 20
-927.9086810077808
 30
0.0
 11
1904.9736731285
 21
-927.9086810077808
 31
0.0
  0
LINE
  5
231A1
330
18
100
AcDbEntity
  8
1DIM
100
AcDbLine
 10
1944.793191445188
 20
-982.9086891514005
 30
0.0
 11
1904.9736731285
 21
-982.9086891514005
 31
0.0
  0
LINE
  5
231A2
330
18
100
AcDbEntity
  8
1DIM
100
AcDbLine
 10
1905.9736731285
 20
-929.9086810077808
 30
0.0
 11
1905.9736731285
 21
-980.9086891514005
 31
0.0
  0
LINE
  5
231A6
330
18
100
AcDbEntity
  8
1DIM
100
AcDbLine
 10
1941.293237981086
 20
-928.9086891514546
 30
0.0
 11
1913.390383949235
 21
-928.9086891514546
 31
0.0
  0
LINE
  5
231A7
330
18
100
AcDbEntity
  8
1DIM
100
AcDbLine
 10
1923.724045512572
 20
-948.9086891514546
 30
0.0
 11
1913.390383949235
 21
-948.9086891514546
 31
0.0
  0
LINE
  5
231A8
330
18
100
AcDbEntity
  8
1DIM
100
AcDbLine
 10
1914.390383949235
 20
-930.9086891514546
 30
0.0
 11
1914.390383949235
 21
-946.9086891514546
 31
0.0
  0
LINE
  5
231AC
330
18
100
AcDbEntity
  8
0
  6
BYBLOCK
100
AcDbLine
 10
1866.864827084594
 20
-946.9086891514539
 30
0.0
 11
1866.328928704594
 21
-948.9086891514539
 31
0.0
  0
LINE
  5
231AD
330
18
100
AcDbEntity
  8
0
  6
BYBLOCK
100
AcDbLine
 10
1866.328928704594
 20
-948.9086891514539
 30
0.0
 11
1865.793030324594
 21
-946.9086891514539
 31
0.0
  0
LINE
  5
231AE
330
18
100
AcDbEntity
  8
0
  6
BYBLOCK
100
AcDbLine
 10
1866.328928704594
 20
-948.9086891514539
 30
0.0
 11
1866.328928704594
 21
-946.9086891514539
 31
0.0
  0
LINE
  5
231AF
330
18
100
AcDbEntity
  8
0
  6
BYBLOCK
100
AcDbLine
 10
1865.793030324594
 20
-892.4086891514539
 30
0.0
 11
1866.328928704594
 21
-890.4086891514539
 31
0.0
  0
LINE
  5
231B0
330
18
100
AcDbEntity
  8
0
  6
BYBLOCK
100
AcDbLine
 10
1866.328928704594
 20
-890.4086891514539
 30
0.0
 11
1866.864827084594
 21
-892.4086891514539
 31
0.0
  0
LINE
  5
231B1
330
18
100
AcDbEntity
  8
0
  6
BYBLOCK
100
AcDbLine
 10
1866.328928704594
 20
-890.4086891514539
 30
0.0
 11
1866.328928704594
 21
-892.4086891514539
 31
0.0
  0
TEXT
  5
231B2
330
18
100
AcDbEntity
  8
1DIM
  6
CONTINUOUS
100
AcDbText
 10
1865.628928704594
 20
-924.9208419292313
 30
0.0
 40
3.5
  1
58.5
 50
90.0
100
AcDbText
1001
ACAD
1000
DSTYLE
1002
{
1070
    40
1040
1.0
1002
}
  0
LINE
  5
231B3
330
18
100
AcDbEntity
  8
0
  6
BYBLOCK
100
AcDbLine
 10
1846.653453415737
 20
-990.8222272765767
 30
0.0
 11
1848.653453415737
 21
-991.3581256565767
 31
0.0
  0
LINE
  5
231B4
330
18
100
AcDbEntity
  8
0
  6
BYBLOCK
100
AcDbLine
 10
1848.653453415737
 20
-991.3581256565767
 30
0.0
 11
1846.653453415737
 21
-991.8940240365768
 31
0.0
  0
LINE
  5
231B5
330
18
100
AcDbEntity
  8
0
  6
BYBLOCK
100
AcDbLine
 10
1848.653453415737
 20
-991.3581256565767
 30
0.0
 11
1846.653453415737
 21
-991.3581256565767
 31
0.0
  0
LINE
  5
231B6
330
18
100
AcDbEntity
  8
0
  6
BYBLOCK
100
AcDbLine
 10
1792.153453415737
 20
-991.8940240365768
 30
0.0
 11
1790.153453415737
 21
-991.3581256565767
 31
0.0
  0
LINE
  5
231B7
330
18
100
AcDbEntity
  8
0
  6
BYBLOCK
100
AcDbLine
 10
1790.153453415737
 20
-991.3581256565767
 30
0.0
 11
1792.153453415737
 21
-990.8222272765767
 31
0.0
  0
LINE
  5
231B8
330
18
100
AcDbEntity
  8
0
  6
BYBLOCK
100
AcDbLine
 10
1790.153453415737
 20
-991.3581256565767
 30
0.0
 11
1792.153453415737
 21
-991.3581256565767
 31
0.0
  0
TEXT
  5
231B9
330
18
100
AcDbEntity
  8
1DIM
  6
CONTINUOUS
100
AcDbText
 10
1814.141300637959
 20
-990.6581256565765
 30
0.0
 40
3.5
  1
58.5
100
AcDbText
1001
ACAD
1000
DSTYLE
1002
{
1070
    40
1040
1.0
1002
}
  0
LINE
  5
231BA
330
18
100
AcDbEntity
  8
0
  6
BYBLOCK
100
AcDbLine
 10
1940.543191445189
 20
-991.8940240365768
 30
0.0
 11
1938.543191445189
 21
-991.3581256565767
 31
0.0
  0
LINE
  5
231BB
330
18
100
AcDbEntity
  8
0
  6
BYBLOCK
100
AcDbLine
 10
1938.543191445189
 20
-991.3581256565767
 30
0.0
 11
1940.543191445189
 21
-990.8222272765767
 31
0.0
  0
LINE
  5
231BC
330
18
100
AcDbEntity
  8
0
  6
BYBLOCK
100
AcDbLine
 10
1938.543191445189
 20
-991.3581256565767
 30
0.0
 11
1940.543191445189
 21
-991.3581256565767
 31
0.0
  0
LINE
  5
231BD
330
18
100
AcDbEntity
  8
0
  6
BYBLOCK
100
AcDbLine
 10
1963.043191445188
 20
-990.8222272765767
 30
0.0
 11
1965.043191445188
 21
-991.3581256565767
 31
0.0
  0
LINE
  5
231BE
330
18
100
AcDbEntity
  8
0
  6
BYBLOCK
100
AcDbLine
 10
1965.043191445188
 20
-991.3581256565767
 30
0.0
 11
1963.043191445188
 21
-991.8940240365768
 31
0.0
  0
LINE
  5
231BF
330
18
100
AcDbEntity
  8
0
  6
BYBLOCK
100
AcDbLine
 10
1965.043191445188
 20
-991.3581256565767
 30
0.0
 11
1963.043191445188
 21
-991.3581256565767
 31
0.0
  0
TEXT
  5
231C0
330
18
100
AcDbEntity
  8
1DIM
  6
CONTINUOUS
100
AcDbText
 10
1946.531038667411
 20
-990.6581256565768
 30
0.0
 40
3.5
  1
26.5
100
AcDbText
1001
ACAD
1000
DSTYLE
1002
{
1070
    40
1040
1.0
1002
}
  0
LINE
  5
231C1
330
18
100
AcDbEntity
  8
0
  6
BYBLOCK
100
AcDbLine
 10
1817.653453415736
 20
-864.213354043493
 30
0.0
 11
1819.653453415736
 21
-864.7492524234931
 31
0.0
  0
LINE
  5
231C2
330
18
100
AcDbEntity
  8
0
  6
BYBLOCK
100
AcDbLine
 10
1819.653453415736
 20
-864.7492524234931
 30
0.0
 11
1817.653453415736
 21
-865.2851508034931
 31
0.0
  0
LINE
  5
231C3
330
18
100
AcDbEntity
  8
0
  6
BYBLOCK
100
AcDbLine
 10
1819.653453415736
 20
-864.7492524234931
 30
0.0
 11
1817.653453415736
 21
-864.7492524234931
 31
0.0
  0
LINE
  5
231C4
330
18
100
AcDbEntity
  8
0
  6
BYBLOCK
100
AcDbLine
 10
1800.653453415736
 20
-865.2851508034931
 30
0.0
 11
1798.653453415736
 21
-864.7492524234931
 31
0.0
  0
LINE
  5
231C5
330
18
100
AcDbEntity
  8
0
  6
BYBLOCK
100
AcDbLine
 10
1798.653453415736
 20
-864.7492524234931
 30
0.0
 11
1800.653453415736
 21
-864.213354043493
 31
0.0
  0
LINE
  5
231C6
330
18
100
AcDbEntity
  8
0
  6
BYBLOCK
100
AcDbLine
 10
1798.653453415736
 20
-864.7492524234931
 30
0.0
 11
1800.653453415736
 21
-864.7492524234931
 31
0.0
  0
TEXT
  5
231C7
330
18
100
AcDbEntity
  8
1DIM
  6
CONTINUOUS
100
AcDbText
 10
1805.070120082403
 20
-864.049252423493
 30
0.0
 40
3.5
  1
P21
100
AcDbText
1001
ACAD
1000
DSTYLE
1002
{
1070
    40
1040
1.0
1002
}
  0
LINE
  5
231C8
330
18
100
AcDbEntity
  8
0
  6
BYBLOCK
100
AcDbLine
 10
1821.653453415736
 20
-865.2851508034931
 30
0.0
 11
1819.653453415736
 21
-864.7492524234931
 31
0.0
  0
LINE
  5
231C9
330
18
100
AcDbEntity
  8
0
  6
BYBLOCK
100
AcDbLine
 10
1819.653453415736
 20
-864.7492524234931
 30
0.0
 11
1821.653453415736
 21
-864.213354043493
 31
0.0
  0
LINE
  5
231CA
330
18
100
AcDbEntity
  8
0
  6
BYBLOCK
100
AcDbLine
 10
1819.653453415736
 20
-864.7492524234931
 30
0.0
 11
1821.653453415736
 21
-864.7492524234931
 31
0.0
  0
LINE
  5
231CB
330
18
100
AcDbEntity
  8
0
  6
BYBLOCK
100
AcDbLine
 10
1838.653453415736
 20
-864.213354043493
 30
0.0
 11
1840.653453415736
 21
-864.7492524234931
 31
0.0
  0
LINE
  5
231CC
330
18
100
AcDbEntity
  8
0
  6
BYBLOCK
100
AcDbLine
 10
1840.653453415736
 20
-864.7492524234931
 30
0.0
 11
1838.653453415736
 21
-865.2851508034931
 31
0.0
  0
LINE
  5
231CD
330
18
100
AcDbEntity
  8
0
  6
BYBLOCK
100
AcDbLine
 10
1840.653453415736
 20
-864.7492524234931
 30
0.0
 11
1838.653453415736
 21
-864.7492524234931
 31
0.0
  0
TEXT
  5
231CE
330
18
100
AcDbEntity
  8
1DIM
  6
CONTINUOUS
100
AcDbText
 10
1826.070120082403
 20
-864.049252423493
 30
0.0
 40
3.5
  1
P21
100
AcDbText
1001
ACAD
1000
DSTYLE
1002
{
1070
    40
1040
1.0
1002
}
  0
LINE
  5
231CF
330
18
100
AcDbEntity
  8
0
  6
BYBLOCK
100
AcDbLine
 10
1866.864827084594
 20
-841.0588829495333
 30
0.0
 11
1866.328928704594
 21
-843.0588829495333
 31
0.0
  0
LINE
  5
231D0
330
18
100
AcDbEntity
  8
0
  6
BYBLOCK
100
AcDbLine
 10
1866.328928704594
 20
-843.0588829495333
 30
0.0
 11
1865.793030324594
 21
-841.0588829495333
 31
0.0
  0
LINE
  5
231D1
330
18
100
AcDbEntity
  8
0
  6
BYBLOCK
100
AcDbLine
 10
1866.328928704594
 20
-843.0588829495333
 30
0.0
 11
1866.328928704594
 21
-841.0588829495333
 31
0.0
  0
LINE
  5
231D2
330
18
100
AcDbEntity
  8
0
  6
BYBLOCK
100
AcDbLine
 10
1865.793030324594
 20
-831.0588829495324
 30
0.0
 11
1866.328928704594
 21
-829.0588829495324
 31
0.0
  0
LINE
  5
231D3
330
18
100
AcDbEntity
  8
0
  6
BYBLOCK
100
AcDbLine
 10
1866.328928704594
 20
-829.0588829495324
 30
0.0
 11
1866.864827084594
 21
-831.0588829495324
 31
0.0
  0
LINE
  5
231D4
330
18
100
AcDbEntity
  8
0
  6
BYBLOCK
100
AcDbLine
 10
1866.328928704594
 20
-829.0588829495324
 30
0.0
 11
1866.328928704594
 21
-831.0588829495324
 31
0.0
  0
TEXT
  5
231D5
330
18
100
AcDbEntity
  8
1DIM
  6
CONTINUOUS
100
AcDbText
 10
1865.628928704594
 20
-840.1422162828655
 30
0.0
 40
3.5
  1
P14
 50
90.0
100
AcDbText
  0
LINE
  5
231D6
330
18
100
AcDbEntity
  8
0
  6
BYBLOCK
100
AcDbLine
 10
1842.653453415736
 20
-865.2851508034931
 30
0.0
 11
1840.653453415736
 21
-864.7492524234931
 31
0.0
  0
LINE
  5
231D7
330
18
100
AcDbEntity
  8
0
  6
BYBLOCK
100
AcDbLine
 10
1840.653453415736
 20
-864.7492524234931
 30
0.0
 11
1842.653453415736
 21
-864.213354043493
 31
0.0
  0
LINE
  5
231D8
330
18
100
AcDbEntity
  8
0
  6
BYBLOCK
100
AcDbLine
 10
1840.653453415736
 20
-864.7492524234931
 30
0.0
 11
1842.653453415736
 21
-864.7492524234931
 31
0.0
  0
LINE
  5
231D9
330
18
100
AcDbEntity
  8
0
  6
BYBLOCK
100
AcDbLine
 10
1846.653453415736
 20
-864.213354043493
 30
0.0
 11
1848.653453415736
 21
-864.7492524234931
 31
0.0
  0
LINE
  5
231DA
330
18
100
AcDbEntity
  8
0
  6
BYBLOCK
100
AcDbLine
 10
1848.653453415736
 20
-864.7492524234931
 30
0.0
 11
1846.653453415736
 21
-865.2851508034931
 31
0.0
  0
LINE
  5
231DB
330
18
100
AcDbEntity
  8
0
  6
BYBLOCK
100
AcDbLine
 10
1848.653453415736
 20
-864.7492524234931
 30
0.0
 11
1846.653453415736
 21
-864.7492524234931
 31
0.0
  0
TEXT
  5
231DC
330
18
100
AcDbEntity
  8
1DIM
  6
CONTINUOUS
100
AcDbText
 10
1843.486786749069
 20
-864.049252423493
 30
0.0
 40
3.5
  1
8
100
AcDbText
  0
LINE
  5
231DD
330
18
100
AcDbEntity
  8
0
  6
BYBLOCK
100
AcDbLine
 10
1914.122434759235
 20
-950.9086891514546
 30
0.0
 11
1914.658333139235
 21
-948.9086891514546
 31
0.0
  0
LINE
  5
231DE
330
18
100
AcDbEntity
  8
0
  6
BYBLOCK
100
AcDbLine
 10
1914.658333139235
 20
-948.9086891514546
 30
0.0
 11
1915.194231519235
 21
-950.9086891514546
 31
0.0
  0
LINE
  5
231DF
330
18
100
AcDbEntity
  8
0
  6
BYBLOCK
100
AcDbLine
 10
1914.658333139235
 20
-948.9086891514546
 30
0.0
 11
1914.658333139235
 21
-950.9086891514546
 31
0.0
  0
LINE
  5
231E0
330
18
100
AcDbEntity
  8
0
  6
BYBLOCK
100
AcDbLine
 10
1915.194231519235
 20
-980.9086891514005
 30
0.0
 11
1914.658333139235
 21
-982.9086891514005
 31
0.0
  0
LINE
  5
231E1
330
18
100
AcDbEntity
  8
0
  6
BYBLOCK
100
AcDbLine
 10
1914.658333139235
 20
-982.9086891514005
 30
0.0
 11
1914.122434759235
 21
-980.9086891514005
 31
0.0
  0
LINE
  5
231E2
330
18
100
AcDbEntity
  8
0
  6
BYBLOCK
100
AcDbLine
 10
1914.658333139235
 20
-982.9086891514005
 30
0.0
 11
1914.658333139235
 21
-980.9086891514005
 31
0.0
  0
TEXT
  5
231E3
330
18
100
AcDbEntity
  8
1DIM
  6
CONTINUOUS
100
AcDbText
 10
1913.958333139235
 20
-968.8253558180945
 30
0.0
 40
3.5
  1
34
 50
90.0
100
AcDbText
  0
LINE
  5
231E4
330
18
100
AcDbEntity
  8
0
  6
BYBLOCK
100
AcDbLine
 10
1905.4377747485
 20
-929.9086810077808
 30
0.0
 11
1905.9736731285
 21
-927.9086810077808
 31
0.0
  0
LINE
  5
231E5
330
18
100
AcDbEntity
  8
0
  6
BYBLOCK
100
AcDbLine
 10
1905.9736731285
 20
-927.9086810077808
 30
0.0
 11
1906.509571508499
 21
-929.9086810077808
 31
0.0
  0
LINE
  5
231E6
330
18
100
AcDbEntity
  8
0
  6
BYBLOCK
100
AcDbLine
 10
1905.9736731285
 20
-927.9086810077808
 30
0.0
 11
1905.9736731285
 21
-929.9086810077808
 31
0.0
  0
LINE
  5
231E7
330
18
100
AcDbEntity
  8
0
  6
BYBLOCK
100
AcDbLine
 10
1906.509571508499
 20
-980.9086891514005
 30
0.0
 11
1905.9736731285
 21
-982.9086891514005
 31
0.0
  0
LINE
  5
231E8
330
18
100
AcDbEntity
  8
0
  6
BYBLOCK
100
AcDbLine
 10
1905.9736731285
 20
-982.9086891514005
 30
0.0
 11
1905.4377747485
 21
-980.9086891514005
 31
0.0
  0
LINE
  5
231E9
330
18
100
AcDbEntity
  8
0
  6
BYBLOCK
100
AcDbLine
 10
1905.9736731285
 20
-982.9086891514005
 30
0.0
 11
1905.9736731285
 21
-980.9086891514005
 31
0.0
  0
TEXT
  5
231EA
330
18
100
AcDbEntity
  8
1DIM
  6
CONTINUOUS
100
AcDbText
 10
1905.273673128499
 20
-958.337504524035
 30
0.0
 40
3.5
  1
55
 50
90.0
100
AcDbText
  0
LINE
  5
231EB
330
18
100
AcDbEntity
  8
0
  6
BYBLOCK
100
AcDbLine
 10
1913.854485569236
 20
-930.9086891514546
 30
0.0
 11
1914.390383949235
 21
-928.9086891514546
 31
0.0
  0
LINE
  5
231EC
330
18
100
AcDbEntity
  8
0
  6
BYBLOCK
100
AcDbLine
 10
1914.390383949235
 20
-928.9086891514546
 30
0.0
 11
1914.926282329235
 21
-930.9086891514546
 31
0.0
  0
LINE
  5
231ED
330
18
100
AcDbEntity
  8
0
  6
BYBLOCK
100
AcDbLine
 10
1914.390383949235
 20
-928.9086891514546
 30
0.0
 11
1914.390383949235
 21
-930.9086891514546
 31
0.0
  0
LINE
  5
231EE
330
18
100
AcDbEntity
  8
0
  6
BYBLOCK
100
AcDbLine
 10
1914.926282329235
 20
-946.9086891514546
 30
0.0
 11
1914.390383949235
 21
-948.9086891514546
 31
0.0
  0
LINE
  5
231EF
330
18
100
AcDbEntity
  8
0
  6
BYBLOCK
100
AcDbLine
 10
1914.390383949235
 20
-948.9086891514546
 30
0.0
 11
1913.854485569236
 21
-946.9086891514546
 31
0.0
  0
LINE
  5
231F0
330
18
100
AcDbEntity
  8
0
  6
BYBLOCK
100
AcDbLine
 10
1914.390383949235
 20
-948.9086891514546
 30
0.0
 11
1914.390383949235
 21
-946.9086891514546
 31
0.0
  0
TEXT
  5
231F1
330
18
100
AcDbEntity
  8
1DIM
  6
CONTINUOUS
100
AcDbText
 10
1913.690383949235
 20
-941.6066058181214
 30
0.0
 40
3.5
  1
20
 50
90.0
100
AcDbText
  0
VIEWPORT
  5
57
330
15
100
AcDbEntity
 67
     1
  8
0
100
AcDbViewport
 68
     1
 10
0.0
 20
0.0
 30
0.0
 40
475.3404255319149
 41
297.0000000000001
 68
     1
 69
     1
1001
ACAD
1000
MVIEW
1002
{
1070
    16
1010
0.0
1020
0.0
1030
0.0
1010
0.0
1020
0.0
1030
1.0
1040
0.0
1040
297.0000000000001
1040
3.5527187509106
1040
-0.3088653384455711
1040
50.0
1040
0.0
1040
0.0
1070
    16
1070
   100
1070
     0
1070
     1
1070
     0
1070
     0
1070
     0
1070
     0
1040
0.0
1040
0.0
1040
0.0
1040
10.0
1040
10.0
1040
10.0
1040
10.0
1070
     0
1002
{
1002
}
1002
}
  0
ENDSEC
  0
SECTION
  2
OBJECTS
  0
DICTIONARY
  5
C
330
0
100
AcDbDictionary
  3
ACAD_COLOR
350
2D0
  3
ACAD_GROUP
350
D
  3
ACAD_LAYOUT
350
2D1
  3
ACAD_MATERIAL
350
2CF
  3
ACAD_MLEADERSTYLE
350
19E18
  3
ACAD_MLINESTYLE
350
1B
  3
ACAD_PLOTSETTINGS
350
2D2
  3
ACAD_SCALELIST
350
19DF6
  3
ACAD_VISUALSTYLE
350
19DE5
  3
ACDBHEADERROUNDTRIPXREC
350
231F2
  3
ACDBVARIABLEDICTIONARY
350
37
  3
AEC_PROPERTY_SET_DEFS
350
20A60
  3
CONTENTDICTIONARY
350
D8
  3
DRAWINGVARIABLESDICT
350
20
  3
DWGPROPS
350
231F5
1001
ACAD
1000
TREAT_AS_HARD
1070
     0
  0
DICTIONARY
  5
18FE8
330
2
100
AcDbDictionary
  3
ACAD_LAYERSTATES
360
18FE9
1001
ACAD
1000
TREAT_AS_HARD
1070
     1
  0
DICTIONARY
  5
1A20A
330
E
100
AcDbDictionary
  3
ADSK_XREC_LAYER_RECONCILED
360
1A20B
1001
ACAD
1000
TREAT_AS_HARD
1070
     1
  0
DICTIONARY
  5
1A20C
330
29
100
AcDbDictionary
  3
ADSK_XREC_LAYER_RECONCILED
360
1A20D
1001
ACAD
1000
TREAT_AS_HARD
1070
     1
  0
DICTIONARY
  5
1A20E
330
31
100
AcDbDictionary
  3
ADSK_XREC_LAYER_RECONCILED
360
1A20F
1001
ACAD
1000
TREAT_AS_HARD
1070
     1
  0
DICTIONARY
  5
1A218
330
101
100
AcDbDictionary
  3
ADSK_XREC_LAYER_RECONCILED
360
1A219
1001
ACAD
1000
TREAT_AS_HARD
1070
     1
  0
DICTIONARY
  5
1A21C
330
103
100
AcDbDictionary
  3
ADSK_XREC_LAYER_RECONCILED
360
1A21D
1001
ACAD
1000
TREAT_AS_HARD
1070
     1
  0
DICTIONARY
  5
1A220
330
25F
100
AcDbDictionary
  3
ADSK_XREC_LAYER_RECONCILED
360
1A221
1001
ACAD
1000
TREAT_AS_HARD
1070
     1
  0
DICTIONARY
  5
1A23C
330
26D
100
AcDbDictionary
  3
ADSK_XREC_LAYER_RECONCILED
360
1A23D
1001
ACAD
1000
TREAT_AS_HARD
1070
     1
  0
DICTIONARY
  5
6E9
330
18
100
AcDbDictionary
  3
ACAD_SORTENTS
360
6EA
1001
ACAD
1000
TREAT_AS_HARD
1070
     1
  0
DICTIONARY
  5
59B
330
15
100
AcDbDictionary
  3
ACAD_SORTENTS
360
59C
1001
ACAD
1000
TREAT_AS_HARD
1070
     1
  0
DICTIONARY
  5
2D0
102
{ACAD_REACTORS
330
C
102
}
330
C
100
AcDbDictionary
1001
ACAD
1000
TREAT_AS_HARD
1070
     0
  0
DICTIONARY
  5
D
102
{ACAD_REACTORS
330
C
102
}
330
C
100
AcDbDictionary
1001
ACAD
1000
TREAT_AS_HARD
1070
     0
  0
DICTIONARY
  5
2D1
102
{ACAD_REACTORS
330
C
102
}
330
C
100
AcDbDictionary
1001
ACAD
1000
TREAT_AS_HARD
1070
     0
  0
DICTIONARY
  5
2CF
102
{ACAD_REACTORS
330
C
102
}
330
C
100
AcDbDictionary
  3
BYBLOCK
350
19DD5
  3
BYLAYER
350
19DCD
  3
GLOBAL
350
19DDD
1001
ACAD
1000
TREAT_AS_HARD
1070
     0
  0
DICTIONARY
  5
19E18
102
{ACAD_REACTORS
330
C
102
}
330
C
100
AcDbDictionary
  3
STANDARD
350
19E19
1001
ACAD
1000
TREAT_AS_HARD
1070
     0
  0
DICTIONARY
  5
1B
102
{ACAD_REACTORS
330
C
102
}
330
C
100
AcDbDictionary
  3
STANDARD
350
1C
1001
ACAD
1000
TREAT_AS_HARD
1070
     0
  0
DICTIONARY
  5
2D2
102
{ACAD_REACTORS
330
C
102
}
330
C
100
AcDbDictionary
1001
ACAD
1000
TREAT_AS_HARD
1070
     0
  0
DICTIONARY
  5
19DF6
102
{ACAD_REACTORS
330
C
102
}
330
C
100
AcDbDictionary
  3
A0
350
19DF7
  3
A1
350
19DF8
  3
A2
350
19DF9
  3
A3
350
19DFA
  3
A4
350
19DFB
  3
A5
350
19DFC
  3
A6
350
19DFD
  3
A7
350
19DFE
  3
A8
350
19DFF
  3
A9
350
19E00
  3
B0
350
19E01
  3
B1
350
19E02
  3
B2
350
19E03
  3
B3
350
19E04
  3
B4
350
19E05
  3
B5
350
19E06
  3
B6
350
19E07
  3
B7
350
19E08
  3
B8
350
19E09
  3
B9
350
19E0A
  3
C0
350
19E0B
  3
C1
350
19E0C
  3
C2
350
19E0D
  3
C3
350
19E0E
  3
C4
350
19E0F
  3
C5
350
19E10
  3
C6
350
19E11
  3
C7
350
19E12
  3
C8
350
19E13
  3
C9
350
19E14
  3
D0
350
19E15
  3
D1
350
19E16
  3
D2
350
19E17
1001
ACAD
1000
TREAT_AS_HARD
1070
     0
  0
DICTIONARY
  5
19DE5
102
{ACAD_REACTORS
330
C
102
}
330
C
100
AcDbDictionary
  3
2DWIREFRAME
350
19DEB
  3
3D_HIDDEN
350
19DED
  3
3DWIREFRAME
350
19DEC
  3
BASIC
350
19DEA
  3
BRIGHTEN
350
19DF1
  3
COLORCHANGE
350
19DF5
  3
CONCEPTUAL
350
19DEE
  3
DIM
350
19DF0
  3
EDGECOLOROFF
350
1E02A
  3
FACEPATTERN
350
19DF4
  3
FLAT
350
19DE6
  3
FLATWITHEDGES
350
19DE7
  3
GOURAUD
350
19DE8
  3
GOURAUDWITHEDGES
350
19DE9
  3
HIDDEN
350
22078
  3
JITTEROFF
350
1E028
  3
LINEPATTERN
350
19DF3
  3
MODELING
350
2207E
  3
OVERHANGOFF
350
1E029
  3
REALISTIC
350
19DEF
  3
SHADED
350
2207D
  3
SHADED_WITH_EDGES
350
2207C
  3
SHADES_OF_GRAY
350
22079
  3
SKETCHY
350
2207A
  3
THICKEN
350
19DF2
  3
WIREFRAME
350
22077
  3
X-RAY
350
2207B
1001
ACAD
1000
TREAT_AS_HARD
1070
     0
  0
DICTIONARY
  5
231F2
102
{ACAD_REACTORS
330
C
102
}
330
C
100
AcDbDictionary
  3
COLORDICT
350
231F3
  3
MATERIALDICT
350
231F4
1001
ACAD
1000
TREAT_AS_HARD
1070
     0
  0
DICTIONARY
  5
37
102
{ACAD_REACTORS
330
C
102
}
330
C
100
AcDbDictionary
  3
CANNOSCALE
350
22815
  3
CMLEADERSTYLE
350
1AC19
  3
CTABLESTYLE
350
4F1
  3
DIMADEC
350
38
  3
DIMASSOC
350
408
  3
HIDETEXT
350
1891
  3
INDEXCTL
350
1AC1C
  3
INTERSECTIONCOLOR
350
1895
  3
INTERSECTIONDISPLAY
350
1894
  3
MSLTSCALE
350
22816
  3
OBSCOLOR
350
1892
  3
OBSLTYPE
350
1893
  3
PROJECTNAME
350
409
  3
SORTENTS
350
1AC1B
  3
XCLIPFRAME
350
22076
1001
ACAD
1000
TREAT_AS_HARD
1070
     0
  0
DICTIONARY
  5
20A60
102
{ACAD_REACTORS
330
C
102
}
330
C
100
AcDbDictionary
1001
ACAD
1000
TREAT_AS_HARD
1070
     0
  0
DICTIONARY
  5
D8
102
{ACAD_REACTORS
330
C
102
}
330
C
100
AcDbDictionary
1001
CONTENTTABDATA
1070
    11
1000
Child
1000
D:\ACLT\TABset\CHILDREN.dwg
1070
     0
1070
     0
1070
     1
1000
PK
1000
D:\ACLT\TABset\PK.dwg
1070
     0
1070
     0
1070
     1
1000
Lev1
1000
D:\ACLT\TABset\Lever01.dwg
1070
     0
1070
     0
1070
     1
1000
Lev2
1000
D:\ACLT\TABset\Lever02.dwg
1070
     0
1070
     0
1070
     1
1000
L3
1000
D:\Aclt\TABset\Lever03.dwg
1070
     0
1070
     0
1070
     1
1000
Form
1000
D:\ACLT\FORMAT
1070
     1
1070
     0
1070
     1
1000
Jnt
1000
D:\ACLT\TABset\JOINTPARTS.dwg
1070
     0
1070
     0
1070
     1
1000
ISO
1000
D:\ACLT\TABset\Isome01.dwg
1070
     0
1070
     0
1070
     1
1000
R
1000
D:\ACLT\TABset\REGION.dwg
1070
     0
1070
     0
1070
     1
1000
std
1000
D:\ACLT\TABset\std_sym_all.dwg
1070
     0
1070
     0
1070
     1
1000
丸
1000
D:\Aclt\TABset\MARU.dwg
1070
     0
1070
     0
1070
     1
1001
CONTENTCURRENTTAB
1070
     0
1001
ACAD
1000
TREAT_AS_HARD
1070
     0
  0
DICTIONARY
  5
20
102
{ACAD_REACTORS
330
C
102
}
330
C
100
AcDbDictionary
1001
DRAWINGVARIABLESXDATA
1000
POLARANG
1000
0.261799387799149410000000
1000
POLARMODE
1000
1
1000
POLARSTYLE
1000
1
1001
ACAD
1000
TREAT_AS_HARD
1070
     0
  0
XRECORD
  5
231F5
102
{ACAD_REACTORS
330
C
102
}
330
C
100
AcDbXrecord
  1
DWGPROPS COOKIE
  2

  3

  4

  6

  7

  8
3684
  9

300
=
301
=
302
=
303
=
304
=
305
=
306
=
307
=
308
=
309
=
 40
0.0
 41
2453033.357663484
 42
2459646.172556713
  1

 90
        0
  0
DICTIONARY
  5
18FE9
102
{ACAD_REACTORS
330
18FE8
102
}
330
18FE8
100
AcDbDictionary
1001
ACAD
1000
TREAT_AS_HARD
1070
     0
  0
ACAD_PROXY_OBJECT
  5
1A20B
102
{ACAD_REACTORS
330
1A20A
102
}
330
1A20A
100
AcDbZombieObject
 90
      499
 91
      518
 93
       34
310
40C8804040
  0
ACAD_PROXY_OBJECT
  5
1A20D
102
{ACAD_REACTORS
330
1A20C
102
}
330
1A20C
100
AcDbZombieObject
 90
      499
 91
      518
 93
       34
310
40C8804040
  0
ACAD_PROXY_OBJECT
  5
1A20F
102
{ACAD_REACTORS
330
1A20E
102
}
330
1A20E
100
AcDbZombieObject
 90
      499
 91
      518
 93
       34
310
40C8804040
  0
ACAD_PROXY_OBJECT
  5
1A219
102
{ACAD_REACTORS
330
1A218
102
}
330
1A218
100
AcDbZombieObject
 90
      499
 91
      518
 93
       34
310
40C8804040
  0
ACAD_PROXY_OBJECT
  5
1A21D
102
{ACAD_REACTORS
330
1A21C
102
}
330
1A21C
100
AcDbZombieObject
 90
      499
 91
      518
 93
       34
310
40C8804040
  0
ACAD_PROXY_OBJECT
  5
1A221
102
{ACAD_REACTORS
330
1A220
102
}
330
1A220
100
AcDbZombieObject
 90
      499
 91
      518
 93
       34
310
40C8804040
  0
ACAD_PROXY_OBJECT
  5
1A23D
102
{ACAD_REACTORS
330
1A23C
102
}
330
1A23C
100
AcDbZombieObject
 90
      499
 91
      518
 93
       34
310
40C8804040
  0
SORTENTSTABLE
  5
6EA
102
{ACAD_REACTORS
330
6E9
102
}
330
6E9
100
AcDbSortentsTable
330
18
331
0
  5
99AB
331
0
  5
AB53
331
0
  5
AB54
331
0
  5
ECB5
331
0
  5
2002E
331
0
  5
2002F
331
0
  5
20030
331
2007C
  5
1FE2D
331
200BC
  5
1FE35
331
200BD
  5
1FE38
331
0
  5
207EB
331
0
  5
207F5
331
207E6
  5
1FE2E
331
207E7
  5
1FE36
331
20B9D
  5
21C69
331
20C30
  5
21C6A
331
20C31
  5
21C6B
331
20C32
  5
21C6C
331
20C33
  5
21C6D
331
20C34
  5
21C6E
331
20C35
  5
21C6F
331
20C36
  5
21C70
331
20C37
  5
21C71
331
20C38
  5
21C72
331
20C39
  5
21C73
331
20C3A
  5
21C74
331
21B51
  5
21C75
331
21B53
  5
21C76
331
21B56
  5
21C77
331
21B57
  5
21C78
331
21B58
  5
21C79
331
21B59
  5
21C7A
331
21B5A
  5
21C7B
331
21B5D
  5
21C7C
331
21B5E
  5
21C7D
331
21B5F
  5
21C7E
331
0
  5
21BCD
331
0
  5
21BD2
331
21BD3
  5
21C83
331
21BD4
  5
21C84
331
21BD5
  5
21C85
331
21BD6
  5
21C86
331
21BD7
  5
21C87
331
21BD8
  5
21C88
331
21BD9
  5
21C89
331
21BDA
  5
21C8B
331
21BDB
  5
21C8C
331
21BDC
  5
21C8D
331
21BDD
  5
21C8E
331
21BDE
  5
21C8F
331
21BDF
  5
21C90
331
21BE0
  5
21C91
331
21BE1
  5
21C92
331
21BE2
  5
21C93
331
21BE3
  5
21C94
331
21BE4
  5
21C95
331
21BE5
  5
21C96
331
21BE6
  5
21C97
331
21BE7
  5
21C98
331
21BE8
  5
21C99
331
21BE9
  5
21C9A
331
21BEA
  5
21C9B
331
21BEB
  5
21C9C
331
21BEC
  5
21C9D
331
21BED
  5
21C9E
331
21BEE
  5
21C9F
331
21BEF
  5
21CA0
331
21C59
  5
21CA1
331
21C5A
  5
21CA2
331
21C5B
  5
21CD2
331
21C5C
  5
21CD3
331
21C5D
  5
21CD4
331
21C5E
  5
21CD5
331
21C5F
  5
21CD6
331
21C60
  5
21CD7
331
21C61
  5
21CD8
331
21C62
  5
21CD9
331
21C63
  5
21CDA
331
21C64
  5
21CDB
331
21C65
  5
21CDC
331
21C66
  5
21CDD
331
21C67
  5
21CDE
331
21C68
  5
21CDF
331
21C69
  5
21CE0
331
21C6A
  5
21CE1
331
21C6B
  5
21CE2
331
21C6C
  5
21CE3
331
21C6D
  5
21CE4
331
21C6E
  5
21CE5
331
21C6F
  5
21CE6
331
21C70
  5
21CE7
331
21C71
  5
21CE8
331
21C72
  5
21CE9
331
21C73
  5
21CEA
331
21C74
  5
21CEB
331
21C75
  5
21CEC
331
21C76
  5
21CED
331
21C77
  5
21CEE
331
21C78
  5
21CEF
331
21C79
  5
21CF0
331
21C7A
  5
21CF1
331
21C7B
  5
21CF2
331
21C7C
  5
21CF3
331
21C7D
  5
21CF4
331
21C7E
  5
21CF5
331
21C7F
  5
21CF6
331
21C80
  5
21CF7
331
21C81
  5
21CF8
331
21C82
  5
21CF9
331
21C83
  5
21CFA
331
21C84
  5
21CFB
331
21C85
  5
21CFC
331
21C86
  5
21CFD
331
21C87
  5
21CFE
331
21C88
  5
21CFF
331
21C89
  5
21D00
331
21C8A
  5
21D01
331
21C8B
  5
21D02
331
21C8C
  5
21D03
331
21C8D
  5
21D04
331
21C8E
  5
21D05
331
21C8F
  5
21D06
331
21C90
  5
21D07
331
21C91
  5
21D08
331
21C92
  5
21D09
331
21C93
  5
21D0A
331
21C94
  5
21D0B
331
21C95
  5
21D0C
331
21C96
  5
21D0D
331
21C97
  5
21D0E
331
21C98
  5
21D0F
331
21C99
  5
21D10
331
21C9A
  5
21D11
331
21C9B
  5
21D12
331
21C9C
  5
21D13
331
21C9D
  5
21D14
331
21C9E
  5
21D15
331
21C9F
  5
21D16
331
21CA0
  5
21D17
331
21CA1
  5
21D18
331
21CA2
  5
21D19
331
21CA3
  5
21D1A
331
21CA4
  5
21D1B
331
21CA5
  5
21D1C
331
21CA6
  5
21D1D
331
21CA7
  5
21D1E
331
21CA8
  5
21D1F
331
21CA9
  5
21D22
331
21CAA
  5
21D23
331
21CAB
  5
21D24
331
21CAC
  5
21D25
331
21CAD
  5
21D26
331
21CAE
  5
21D27
331
21CAF
  5
21D29
331
21CB0
  5
21D2A
331
21CB1
  5
21D2B
331
21CB2
  5
21D2C
331
21CB3
  5
21D98
331
21CB4
  5
21D99
331
21CB5
  5
21DAC
331
21CB6
  5
21DAD
331
21CB9
  5
21DF6
331
21CBA
  5
21EA1
331
21CBB
  5
21EE9
331
21CBC
  5
21EEC
331
21CBE
  5
21EED
331
21CBF
  5
21EEE
331
21CC0
  5
21EF0
331
21CC1
  5
21EF1
331
21CC2
  5
21EF7
331
21CC3
  5
21EF8
331
21CC4
  5
21EF9
331
21CC5
  5
21EFA
331
21CC6
  5
21EFB
331
21CC7
  5
21EFC
331
21CC8
  5
21EFD
331
21CC9
  5
21EFE
331
21CCA
  5
21EFF
331
21CCB
  5
21F00
331
21CCC
  5
21F01
331
21CCD
  5
21F02
331
21CCE
  5
21F03
331
21CCF
  5
21F04
331
21CD0
  5
21F05
331
21CD1
  5
21F06
331
21CD2
  5
21F08
331
21CD3
  5
21F09
331
21CD4
  5
21F0F
331
21CD5
  5
21F10
331
21CD6
  5
21F11
331
21CD7
  5
21F12
331
21CD8
  5
21F13
331
21CD9
  5
21F14
331
21CDA
  5
21F15
331
21CDB
  5
21F16
331
21CDC
  5
21F17
331
21CDD
  5
21F18
331
21CDE
  5
21F1E
331
21CDF
  5
22FBA
331
21CE0
  5
22FC9
331
21CE1
  5
23073
331
21CE2
  5
23074
331
21CE3
  5
23075
331
21CE4
  5
23076
331
21CE5
  5
23077
331
21CE6
  5
23078
331
21CE7
  5
23079
331
21CE8
  5
2307A
331
21CE9
  5
2307B
331
21CEA
  5
2307C
331
21CEB
  5
2307D
331
21CEC
  5
2307E
331
21CED
  5
2307F
331
21CEE
  5
23080
331
21CEF
  5
23081
331
21CF0
  5
23082
331
21CF1
  5
23083
331
21CF2
  5
23084
331
21CF3
  5
23085
331
21CF4
  5
23086
331
21CF5
  5
23087
331
21CF6
  5
23088
331
21CF7
  5
23089
331
21CF8
  5
2308A
331
21CF9
  5
2308B
331
21CFA
  5
2308C
331
21CFB
  5
2308D
331
21CFC
  5
2308E
331
21CFD
  5
2308F
331
21CFE
  5
23090
331
21CFF
  5
23091
331
21D00
  5
23092
331
21D01
  5
23093
331
21D02
  5
23094
331
21D03
  5
23095
331
21D04
  5
23096
331
21D05
  5
23097
331
21D06
  5
23098
331
21D07
  5
23099
331
21D08
  5
2309A
331
21D09
  5
2309B
331
21D0A
  5
2309C
331
21D0B
  5
2309D
331
21D0C
  5
2309E
331
21D0D
  5
2309F
331
21D0E
  5
230A0
331
21D0F
  5
230A1
331
21D10
  5
230A2
331
21D11
  5
230A3
331
21D12
  5
230A4
331
21D13
  5
230A5
331
21D14
  5
230A6
331
21D15
  5
230A7
331
21D16
  5
230A8
331
21D17
  5
230A9
331
21D18
  5
230AA
331
21D19
  5
230AB
331
21D1A
  5
230AC
331
21D1B
  5
230AD
331
21D1C
  5
230AE
331
21D1D
  5
230AF
331
21D1E
  5
230B0
331
21D1F
  5
230B1
331
21D22
  5
230B2
331
21D23
  5
23180
331
21D24
  5
23181
331
0
  5
21D2E
331
0
  5
21D2F
331
21D27
  5
23183
331
21D28
  5
23182
331
21D29
  5
23188
331
21D2A
  5
23189
331
21D2B
  5
2318A
331
21D2C
  5
2318B
331
0
  5
21D28
331
0
  5
21DAE
331
0
  5
21DD3
331
21DAC
  5
23190
331
21DAD
  5
23191
331
21DAE
  5
23192
331
0
  5
21EEA
331
0
  5
21EEB
331
21EA1
  5
21C8A
331
21EE9
  5
231B0
331
21EEA
  5
231B1
331
21EEB
  5
231B2
331
21EEC
  5
231B3
331
21EED
  5
231B4
331
21EEE
  5
231B5
331
21EF0
  5
231B6
331
21EF1
  5
231B7
331
21EF7
  5
231B8
331
21EF8
  5
231B9
331
21EF9
  5
231BA
331
21EFA
  5
231BB
331
21EFB
  5
231BC
331
21EFC
  5
231BD
331
21EFD
  5
231BE
331
21EFE
  5
231BF
331
21EFF
  5
231C0
331
21F00
  5
231C1
331
21F01
  5
231C2
331
21F02
  5
231C3
331
21F03
  5
231C4
331
21F04
  5
231C5
331
21F05
  5
231C6
331
21F06
  5
231C7
331
21F08
  5
231C8
331
21F09
  5
231C9
331
21F0F
  5
231CA
331
21F10
  5
231CB
331
21F11
  5
231CC
331
21F12
  5
231CD
331
21F13
  5
231CE
331
21F14
  5
231CF
331
21F15
  5
231D0
331
21F16
  5
231D1
331
21F17
  5
231D2
331
21F18
  5
231D3
331
0
  5
21C5F
331
0
  5
22FD8
331
0
  5
23071
331
0
  5
23072
331
23071
  5
21C81
331
23072
  5
21C82
331
23073
  5
20C30
331
23074
  5
20C32
331
23075
  5
20C33
331
0
  5
20C34
331
0
  5
20C35
331
0
  5
20C36
331
23079
  5
21B5E
331
2307A
  5
21B5F
331
2307B
  5
21BD6
331
0
  5
20C3A
331
0
  5
20C3C
331
0
  5
20C3D
331
2307F
  5
21BE1
331
23080
  5
21BE2
331
23081
  5
21BE3
331
0
  5
21B58
331
0
  5
21B59
331
0
  5
21B5A
331
23085
  5
21BEB
331
23086
  5
21BEC
331
23087
  5
21BED
331
0
  5
21B6E
331
0
  5
21BD4
331
0
  5
21BD5
331
2308B
  5
21C5E
331
2308C
  5
21C60
331
2308D
  5
21C61
331
0
  5
21BD9
331
0
  5
21BDA
331
0
  5
21BDB
331
23091
  5
21C7F
331
23092
  5
21C80
331
23093
  5
23184
331
23094
  5
23185
331
23095
  5
23186
331
23096
  5
23187
331
23097
  5
230B3
331
23098
  5
230B4
331
23099
  5
230B5
331
2309A
  5
230B6
331
2309B
  5
230B7
331
2309C
  5
230B8
331
2309D
  5
230B9
331
2309E
  5
230BA
331
2309F
  5
230BB
331
230A0
  5
230BC
331
230A1
  5
230BD
331
230A2
  5
230BE
331
230A3
  5
230BF
331
230A4
  5
230C0
331
230A5
  5
230C1
331
230A6
  5
230C2
331
230A7
  5
230C3
331
230A8
  5
230C4
331
230A9
  5
230C5
331
230AA
  5
230C6
331
230AB
  5
230C7
331
230AC
  5
230C8
331
230AD
  5
230C9
331
230AE
  5
230CA
331
230AF
  5
230CB
331
230B0
  5
230CC
331
230B1
  5
230CD
331
230B2
  5
230CE
331
230B3
  5
230CF
331
230B4
  5
230D0
331
230B5
  5
230D1
331
230B6
  5
230D2
331
230B7
  5
230D3
331
230B8
  5
230D4
331
230B9
  5
230D5
331
230BA
  5
230D6
331
230BB
  5
230D7
331
230BC
  5
230D8
331
230BD
  5
230D9
331
230BE
  5
230DA
331
230BF
  5
230DB
331
230C0
  5
230DC
331
230C1
  5
230DD
331
230C2
  5
230DE
331
230C3
  5
230DF
331
230C4
  5
230E0
331
230C5
  5
230E1
331
230C6
  5
230E2
331
230C7
  5
230E3
331
230C8
  5
230E4
331
230C9
  5
230E5
331
230CA
  5
230E6
331
230CB
  5
230E7
331
230CC
  5
230E8
331
230CD
  5
230E9
331
230CE
  5
230EA
331
230CF
  5
230EB
331
230D0
  5
230EC
331
230D1
  5
230ED
331
230D2
  5
230EE
331
230D3
  5
230EF
331
230D4
  5
230F0
331
230D5
  5
230F1
331
230D6
  5
230F2
331
230D7
  5
230F3
331
230D8
  5
230F4
331
230D9
  5
230F5
331
230DA
  5
230F6
331
230DB
  5
230F7
331
230DC
  5
230F8
331
230DD
  5
230F9
331
230DE
  5
230FA
331
230DF
  5
230FB
331
230E0
  5
230FC
331
230E1
  5
230FD
331
230E2
  5
230FE
331
230E3
  5
230FF
331
230E4
  5
23100
331
230E5
  5
23101
331
230E6
  5
23102
331
230E7
  5
23103
331
230E8
  5
23104
331
230E9
  5
23105
331
230EA
  5
23106
331
230EB
  5
23107
331
230EC
  5
23108
331
230ED
  5
23109
331
230EE
  5
2310A
331
230EF
  5
2310B
331
230F0
  5
2310C
331
230F1
  5
2310D
331
230F2
  5
2310E
331
230F3
  5
2310F
331
230F4
  5
23110
331
230F5
  5
23111
331
230F6
  5
23112
331
230F7
  5
23113
331
230F8
  5
23114
331
230F9
  5
23115
331
230FA
  5
23116
331
230FB
  5
23117
331
230FC
  5
23118
331
230FD
  5
23119
331
230FE
  5
2311A
331
230FF
  5
2311B
331
23100
  5
2311C
331
23101
  5
2311D
331
23102
  5
2311E
331
23103
  5
2311F
331
23104
  5
23120
331
23105
  5
23121
331
23106
  5
23122
331
23107
  5
23123
331
23108
  5
23124
331
23109
  5
23125
331
2310A
  5
23126
331
2310B
  5
23127
331
2310C
  5
23128
331
2310D
  5
23129
331
2310E
  5
2312A
331
2310F
  5
2312B
331
23110
  5
2312C
331
23111
  5
2312D
331
23112
  5
2312E
331
23113
  5
2312F
331
23114
  5
23130
331
23115
  5
23131
331
23116
  5
23132
331
23117
  5
23133
331
23118
  5
23134
331
23119
  5
23135
331
2311A
  5
23136
331
2311B
  5
23137
331
2311C
  5
23138
331
2311D
  5
23139
331
2311E
  5
2313A
331
2311F
  5
2313B
331
23120
  5
2313C
331
23121
  5
2313D
331
23122
  5
2313E
331
23123
  5
2313F
331
23124
  5
23140
331
23125
  5
23141
331
23126
  5
23142
331
23127
  5
23143
331
23128
  5
23144
331
23129
  5
23145
331
2312A
  5
23146
331
2312B
  5
23147
331
2312C
  5
23148
331
2312D
  5
23149
331
2312E
  5
2314A
331
2312F
  5
2314B
331
23130
  5
2314C
331
23131
  5
2314D
331
23132
  5
2314E
331
23133
  5
2314F
331
23134
  5
23150
331
23135
  5
23151
331
23136
  5
23152
331
23137
  5
23153
331
23138
  5
23154
331
23139
  5
23155
331
2313A
  5
23156
331
2313B
  5
23157
331
2313C
  5
23158
331
2313D
  5
23159
331
2313E
  5
2315A
331
2313F
  5
2315B
331
23140
  5
2315C
331
23141
  5
2315D
331
23142
  5
2315E
331
23143
  5
2315F
331
23144
  5
23160
331
23145
  5
23161
331
23146
  5
23162
331
23147
  5
23163
331
23148
  5
23164
331
23149
  5
23165
331
2314A
  5
23166
331
2314B
  5
23167
331
2314C
  5
23168
331
2314D
  5
23169
331
2314E
  5
2316A
331
2314F
  5
2316B
331
23150
  5
2316C
331
23151
  5
23170
331
23152
  5
23171
331
23153
  5
23172
331
23154
  5
23176
331
23155
  5
23177
331
23156
  5
23178
331
23157
  5
23179
331
23158
  5
2317A
331
23159
  5
2317B
331
2315A
  5
2317C
331
2315B
  5
2317D
331
2315C
  5
2317E
331
2315D
  5
2317F
331
2315E
  5
2318C
331
2315F
  5
2318D
331
23160
  5
2318E
331
23161
  5
2318F
331
23162
  5
23193
331
23163
  5
23194
331
23164
  5
23195
331
0
  5
2316D
331
0
  5
2316E
331
0
  5
2316F
331
23168
  5
231A0
331
23169
  5
231A1
331
2316A
  5
231A2
331
0
  5
23173
331
0
  5
23174
331
0
  5
23175
331
2316E
  5
21CA3
331
2316F
  5
21CA4
331
23170
  5
21CA5
331
23171
  5
21CA6
331
23172
  5
21CA7
331
23173
  5
21CA8
331
23174
  5
21CA9
331
23175
  5
21CAA
331
23176
  5
21CAB
331
23177
  5
21CAC
331
23178
  5
21CAD
331
23179
  5
21CAE
331
2317A
  5
21CAF
331
2317B
  5
21CB0
331
2317C
  5
21CB1
331
2317D
  5
21CB2
331
2317E
  5
21CB3
331
2317F
  5
21CB4
331
23180
  5
21CB5
331
23181
  5
21CB6
331
23182
  5
21CB9
331
23183
  5
21CBA
331
23184
  5
21CBB
331
23185
  5
21CBC
331
23186
  5
21CBE
331
23187
  5
21CBF
331
23188
  5
21CC0
331
23189
  5
21CC1
331
2318A
  5
21CC2
331
2318B
  5
21CC3
331
2318C
  5
21CC4
331
2318D
  5
21CC5
331
2318E
  5
21CC6
331
2318F
  5
21CC7
331
23190
  5
21CC8
331
23191
  5
21CC9
331
23192
  5
21CCA
331
23193
  5
21CCB
331
23194
  5
21CCC
331
23195
  5
21CCD
331
23196
  5
21CCE
331
23197
  5
21CCF
331
23198
  5
21CD0
331
23199
  5
21CD1
331
2319A
  5
231D4
331
2319B
  5
231D5
331
2319C
  5
231D6
331
231A0
  5
231DE
331
231A1
  5
231DF
331
231A2
  5
231E0
331
231A6
  5
231E8
331
231A7
  5
231E9
331
231A8
  5
231EA
331
231AC
  5
20C37
331
231AD
  5
20C38
331
231AE
  5
20C39
331
231AF
  5
21B51
331
231B0
  5
21B56
331
231B1
  5
21B57
331
231B2
  5
21B5D
331
231B3
  5
21BD7
331
231B4
  5
21BD8
331
231B5
  5
21BDC
331
231B6
  5
21BDD
331
231B7
  5
21BDE
331
231B8
  5
21BDF
331
231B9
  5
21BE0
331
231BA
  5
21BE4
331
231BB
  5
21BE5
331
231BC
  5
21BE6
331
231BD
  5
21BE7
331
231BE
  5
21BE8
331
231BF
  5
21BE9
331
231C0
  5
21BEA
331
231C1
  5
21BEE
331
231C2
  5
21BEF
331
231C3
  5
21BF2
331
231C4
  5
21C59
331
231C5
  5
21C5B
331
231C6
  5
21C5C
331
231C7
  5
21C5D
331
231C8
  5
21C62
331
231C9
  5
21C63
331
231CA
  5
21C64
331
231CB
  5
21C65
331
231CC
  5
21C66
331
231CD
  5
21C67
331
231CE
  5
21C68
331
231CF
  5
23196
331
231D0
  5
23197
331
231D1
  5
23198
331
231D2
  5
23199
331
231D3
  5
2319A
331
231D4
  5
2319B
331
231D5
  5
2319C
331
231D6
  5
231A6
331
231D7
  5
231A7
331
231D8
  5
231A8
331
231D9
  5
231AC
331
231DA
  5
231AD
331
231DB
  5
231AE
331
231DC
  5
231AF
331
231DD
  5
231D7
331
231DE
  5
231D8
331
231DF
  5
231D9
331
231E0
  5
231DA
331
231E1
  5
231DB
331
231E2
  5
231DC
331
231E3
  5
231DD
331
231E4
  5
231E1
331
231E5
  5
231E2
331
231E6
  5
231E3
331
231E7
  5
231E4
331
231E8
  5
231E5
331
231E9
  5
231E6
331
231EA
  5
231E7
  0
SORTENTSTABLE
  5
59C
102
{ACAD_REACTORS
330
59B
102
}
330
59B
100
AcDbSortentsTable
330
15
331
57
  5
57
331
0
  5
70
  0
MATERIAL
  5
19DD5
102
{ACAD_REACTORS
330
2CF
102
}
102
{ACAD_XDICTIONARY
360
23390
102
}
330
2CF
100
AcDbMaterial
  1
BYBLOCK
 72
     0
 73
     2
 43
0.0208333333333333
 43
0.0
 43
0.0
 43
0.0
 43
0.0
 43
0.0208333333333333
 43
0.0
 43
0.0
 43
0.0
 43
0.0
 43
1.0
 43
0.0
 43
0.0
 43
0.0
 43
0.0
 43
1.0
 77
     0
 78
     2
 47
0.0208333333333333
 47
0.0
 47
0.0
 47
0.0
 47
0.0
 47
0.0208333333333333
 47
0.0
 47
0.0
 47
0.0
 47
0.0
 47
1.0
 47
0.0
 47
0.0
 47
0.0
 47
0.0
 47
1.0
171
     0
172
     2
 49
0.0208333333333333
 49
0.0
 49
0.0
 49
0.0
 49
0.0
 49
0.0208333333333333
 49
0.0
 49
0.0
 49
0.0
 49
0.0
 49
1.0
 49
0.0
 49
0.0
 49
0.0
 49
0.0
 49
1.0
175
     0
176
     2
142
0.0208333333333333
142
0.0
142
0.0
142
0.0
142
0.0
142
0.0208333333333333
142
0.0
142
0.0
142
0.0
142
0.0
142
1.0
142
0.0
142
0.0
142
0.0
142
0.0
142
1.0
179
     0
270
     2
144
0.0208333333333333
144
0.0
144
0.0
144
0.0
144
0.0
144
0.0208333333333333
144
0.0
144
0.0
144
0.0
144
0.0
144
1.0
144
0.0
144
0.0
144
0.0
144
0.0
144
1.0
274
     2
147
0.0208333333333333
147
0.0
147
0.0
147
0.0
147
0.0
147
0.0208333333333333
147
0.0
147
0.0
147
0.0
147
0.0
147
1.0
147
0.0
147
0.0
147
0.0
147
0.0
147
1.0
  0
MATERIAL
  5
19DCD
102
{ACAD_REACTORS
330
2CF
102
}
102
{ACAD_XDICTIONARY
360
23392
102
}
330
2CF
100
AcDbMaterial
  1
BYLAYER
 72
     0
 73
     2
 43
0.0208333333333333
 43
0.0
 43
0.0
 43
0.0
 43
0.0
 43
0.0208333333333333
 43
0.0
 43
0.0
 43
0.0
 43
0.0
 43
1.0
 43
0.0
 43
0.0
 43
0.0
 43
0.0
 43
1.0
 77
     0
 78
     2
 47
0.0208333333333333
 47
0.0
 47
0.0
 47
0.0
 47
0.0
 47
0.0208333333333333
 47
0.0
 47
0.0
 47
0.0
 47
0.0
 47
1.0
 47
0.0
 47
0.0
 47
0.0
 47
0.0
 47
1.0
171
     0
172
     2
 49
0.0208333333333333
 49
0.0
 49
0.0
 49
0.0
 49
0.0
 49
0.0208333333333333
 49
0.0
 49
0.0
 49
0.0
 49
0.0
 49
1.0
 49
0.0
 49
0.0
 49
0.0
 49
0.0
 49
1.0
175
     0
176
     2
142
0.0208333333333333
142
0.0
142
0.0
142
0.0
142
0.0
142
0.0208333333333333
142
0.0
142
0.0
142
0.0
142
0.0
142
1.0
142
0.0
142
0.0
142
0.0
142
0.0
142
1.0
179
     0
270
     2
144
0.0208333333333333
144
0.0
144
0.0
144
0.0
144
0.0
144
0.0208333333333333
144
0.0
144
0.0
144
0.0
144
0.0
144
1.0
144
0.0
144
0.0
144
0.0
144
0.0
144
1.0
274
     2
147
0.0208333333333333
147
0.0
147
0.0
147
0.0
147
0.0
147
0.0208333333333333
147
0.0
147
0.0
147
0.0
147
0.0
147
1.0
147
0.0
147
0.0
147
0.0
147
0.0
147
1.0
  0
MATERIAL
  5
19DDD
102
{ACAD_REACTORS
330
2CF
102
}
102
{ACAD_XDICTIONARY
360
23394
102
}
330
2CF
100
AcDbMaterial
  1
GLOBAL
 72
     0
 73
     2
 43
0.0208333333333333
 43
0.0
 43
0.0
 43
0.0
 43
0.0
 43
0.0208333333333333
 43
0.0
 43
0.0
 43
0.0
 43
0.0
 43
1.0
 43
0.0
 43
0.0
 43
0.0
 43
0.0
 43
1.0
 77
     0
 78
     2
 47
0.0208333333333333
 47
0.0
 47
0.0
 47
0.0
 47
0.0
 47
0.0208333333333333
 47
0.0
 47
0.0
 47
0.0
 47
0.0
 47
1.0
 47
0.0
 47
0.0
 47
0.0
 47
0.0
 47
1.0
171
     0
172
     2
 49
0.0208333333333333
 49
0.0
 49
0.0
 49
0.0
 49
0.0
 49
0.0208333333333333
 49
0.0
 49
0.0
 49
0.0
 49
0.0
 49
1.0
 49
0.0
 49
0.0
 49
0.0
 49
0.0
 49
1.0
175
     0
176
     2
142
0.0208333333333333
142
0.0
142
0.0
142
0.0
142
0.0
142
0.0208333333333333
142
0.0
142
0.0
142
0.0
142
0.0
142
1.0
142
0.0
142
0.0
142
0.0
142
0.0
142
1.0
179
     0
270
     2
144
0.0208333333333333
144
0.0
144
0.0
144
0.0
144
0.0
144
0.0208333333333333
144
0.0
144
0.0
144
0.0
144
0.0
144
1.0
144
0.0
144
0.0
144
0.0
144
0.0
144
1.0
274
     2
147
0.0208333333333333
147
0.0
147
0.0
147
0.0
147
0.0
147
0.0208333333333333
147
0.0
147
0.0
147
0.0
147
0.0
147
1.0
147
0.0
147
0.0
147
0.0
147
0.0
147
1.0
  0
ACAD_PROXY_OBJECT
  5
19E19
102
{ACAD_REACTORS
330
19E18
102
}
330
19E18
100
AcDbZombieObject
 90
      499
 91
      512
 93
      610
310
40901902A4063FBFFFFFE000000000000002040AD7A3703D0AD73F4214DD185B99185C990000000000000104090141901A00000000000004100000000000000041025764000000000000300FC0
340
12
340
0
340
F
340
0
 94
        0
1001
ACAD_MLEADERVER
1070
     2
  0
MLINESTYLE
  5
1C
102
{ACAD_REACTORS
330
1B
102
}
330
1B
100
AcDbMlineStyle
  2
STANDARD
 70
     0
  3

 62
   256
 51
90.0
 52
90.0
 71
     2
 49
0.5
 62
   256
  6
BYLAYER
 49
-0.5
 62
   256
  6
BYLAYER
  0
ACAD_PROXY_OBJECT
  5
19DF7
102
{ACAD_REACTORS
330
19DF6
102
}
330
19DF6
100
AcDbZombieObject
 90
      499
 91
      511
 93
       41
310
903313A31580
  0
ACAD_PROXY_OBJECT
  5
19DF8
102
{ACAD_REACTORS
330
19DF6
102
}
330
19DF6
100
AcDbZombieObject
 90
      499
 91
      511
 93
      105
310
903313A324000000000000004000
  0
ACAD_PROXY_OBJECT
  5
19DF9
102
{ACAD_REACTORS
330
19DF6
102
}
330
19DF6
100
AcDbZombieObject
 90
      499
 91
      511
 93
      105
310
903313A344000000000000104000
  0
ACAD_PROXY_OBJECT
  5
19DFA
102
{ACAD_REACTORS
330
19DF6
102
}
330
19DF6
100
AcDbZombieObject
 90
      499
 91
      511
 93
      105
310
903313A354000000000000144000
  0
ACAD_PROXY_OBJECT
  5
19DFB
102
{ACAD_REACTORS
330
19DF6
102
}
330
19DF6
100
AcDbZombieObject
 90
      499
 91
      511
 93
      105
310
903313A384000000000000204000
  0
ACAD_PROXY_OBJECT
  5
19DFC
102
{ACAD_REACTORS
330
19DF6
102
}
330
19DF6
100
AcDbZombieObject
 90
      499
 91
      511
 93
      113
310
904313A31304000000000000244000
  0
ACAD_PROXY_OBJECT
  5
19DFD
102
{ACAD_REACTORS
330
19DF6
102
}
330
19DF6
100
AcDbZombieObject
 90
      499
 91
      511
 93
      113
310
904313A31364000000000000304000
  0
ACAD_PROXY_OBJECT
  5
19DFE
102
{ACAD_REACTORS
330
19DF6
102
}
330
19DF6
100
AcDbZombieObject
 90
      499
 91
      511
 93
      113
310
904313A32304000000000000344000
  0
ACAD_PROXY_OBJECT
  5
19DFF
102
{ACAD_REACTORS
330
19DF6
102
}
330
19DF6
100
AcDbZombieObject
 90
      499
 91
      511
 93
      113
310
904313A333040000000000003E4000
  0
ACAD_PROXY_OBJECT
  5
19E00
102
{ACAD_REACTORS
330
19DF6
102
}
330
19DF6
100
AcDbZombieObject
 90
      499
 91
      511
 93
      113
310
904313A34304000000000000444000
  0
ACAD_PROXY_OBJECT
  5
19E01
102
{ACAD_REACTORS
330
19DF6
102
}
330
19DF6
100
AcDbZombieObject
 90
      499
 91
      511
 93
      113
310
904313A35304000000000000494000
  0
ACAD_PROXY_OBJECT
  5
19E02
102
{ACAD_REACTORS
330
19DF6
102
}
330
19DF6
100
AcDbZombieObject
 90
      499
 91
      511
 93
      121
310
905313A3130304000000000000594000
  0
ACAD_PROXY_OBJECT
  5
19E03
102
{ACAD_REACTORS
330
19DF6
102
}
330
19DF6
100
AcDbZombieObject
 90
      499
 91
      511
 93
      105
310
903323A310000000000000010100
  0
ACAD_PROXY_OBJECT
  5
19E04
102
{ACAD_REACTORS
330
19DF6
102
}
330
19DF6
100
AcDbZombieObject
 90
      499
 91
      511
 93
      105
310
903343A310000000000000410100
  0
ACAD_PROXY_OBJECT
  5
19E05
102
{ACAD_REACTORS
330
19DF6
102
}
330
19DF6
100
AcDbZombieObject
 90
      499
 91
      511
 93
      105
310
903383A310000000000000810100
  0
ACAD_PROXY_OBJECT
  5
19E06
102
{ACAD_REACTORS
330
19DF6
102
}
330
19DF6
100
AcDbZombieObject
 90
      499
 91
      511
 93
      113
310
90431303A310000000000000910100
  0
ACAD_PROXY_OBJECT
  5
19E07
102
{ACAD_REACTORS
330
19DF6
102
}
330
19DF6
100
AcDbZombieObject
 90
      499
 91
      511
 93
      121
310
9053130303A310000000000001650100
  0
ACAD_PROXY_OBJECT
  5
19E08
102
{ACAD_REACTORS
330
19DF6
102
}
330
19DF6
100
AcDbZombieObject
 90
      499
 91
      511
 93
      257
310
90E312F31323822203D2031272D3022000000000000200FC000000000000284000
  0
ACAD_PROXY_OBJECT
  5
19E09
102
{ACAD_REACTORS
330
19DF6
102
}
330
19DF6
100
AcDbZombieObject
 90
      499
 91
      511
 93
      249
310
90D312F363422203D2031272D3022000000000000240FC000000000000284000
  0
ACAD_PROXY_OBJECT
  5
19E0A
102
{ACAD_REACTORS
330
19DF6
102
}
330
19DF6
100
AcDbZombieObject
 90
      499
 91
      511
 93
      249
310
90D312F333222203D2031272D3022000000000000280FC000000000000284000
  0
ACAD_PROXY_OBJECT
  5
19E0B
102
{ACAD_REACTORS
330
19DF6
102
}
330
19DF6
100
AcDbZombieObject
 90
      499
 91
      511
 93
      249
310
90D312F313622203D2031272D30220000000000002C0FC000000000000284000
  0
ACAD_PROXY_OBJECT
  5
19E0C
102
{ACAD_REACTORS
330
19DF6
102
}
330
19DF6
100
AcDbZombieObject
 90
      499
 91
      511
 93
      249
310
90D332F333222203D2031272D30220000000000002E0FC000000000000284000
  0
ACAD_PROXY_OBJECT
  5
19E0D
102
{ACAD_REACTORS
330
19DF6
102
}
330
19DF6
100
AcDbZombieObject
 90
      499
 91
      511
 93
      241
310
90C312F3822203D2031272D3022000000000000300FC000000000000284000
  0
ACAD_PROXY_OBJECT
  5
19E0E
102
{ACAD_REACTORS
330
19DF6
102
}
330
19DF6
100
AcDbZombieObject
 90
      499
 91
      511
 93
      249
310
90D332F313622203D2031272D3022000000000000320FC000000000000284000
  0
ACAD_PROXY_OBJECT
  5
19E0F
102
{ACAD_REACTORS
330
19DF6
102
}
330
19DF6
100
AcDbZombieObject
 90
      499
 91
      511
 93
      241
310
90C312F3422203D2031272D3022000000000000340FC000000000000284000
  0
ACAD_PROXY_OBJECT
  5
19E10
102
{ACAD_REACTORS
330
19DF6
102
}
330
19DF6
100
AcDbZombieObject
 90
      499
 91
      511
 93
      241
310
90C332F3822203D2031272D3022000000000000360FC000000000000284000
  0
ACAD_PROXY_OBJECT
  5
19E11
102
{ACAD_REACTORS
330
19DF6
102
}
330
19DF6
100
AcDbZombieObject
 90
      499
 91
      511
 93
      241
310
90C312F3222203D2031272D3022000000000000380FC000000000000284000
  0
ACAD_PROXY_OBJECT
  5
19E12
102
{ACAD_REACTORS
330
19DF6
102
}
330
19DF6
100
AcDbZombieObject
 90
      499
 91
      511
 93
      241
310
90C332F3422203D2031272D30220000000000003A0FC000000000000284000
  0
ACAD_PROXY_OBJECT
  5
19E13
102
{ACAD_REACTORS
330
19DF6
102
}
330
19DF6
100
AcDbZombieObject
 90
      499
 91
      511
 93
      161
310
90A3122203D2031272D30224000000000000284000
  0
ACAD_PROXY_OBJECT
  5
19E14
102
{ACAD_REACTORS
330
19DF6
102
}
330
19DF6
100
AcDbZombieObject
 90
      499
 91
      511
 93
      257
310
90E312D312F3222203D2031272D30220000000000003E0FC000000000000284000
  0
ACAD_PROXY_OBJECT
  5
19E15
102
{ACAD_REACTORS
330
19DF6
102
}
330
19DF6
100
AcDbZombieObject
 90
      499
 91
      511
 93
      225
310
90A3322203D2031272D302200000000000002100000000000000284000
  0
ACAD_PROXY_OBJECT
  5
19E16
102
{ACAD_REACTORS
330
19DF6
102
}
330
19DF6
100
AcDbZombieObject
 90
      499
 91
      511
 93
      225
310
90A3622203D2031272D302200000000000006100000000000000284000
  0
ACAD_PROXY_OBJECT
  5
19E17
102
{ACAD_REACTORS
330
19DF6
102
}
330
19DF6
100
AcDbZombieObject
 90
      499
 91
      511
 93
      249
310
90D31272D3022203D2031272D30220000000000000A100000000000000284000
  0
ACAD_PROXY_OBJECT
  5
19DEB
102
{ACAD_REACTORS
330
19DE5
102
}
330
19DE5
100
AcDbZombieObject
 90
      499
 91
      510
 93
      436
310
42CC9915DA5C99599C985B595049028333333333333E3BF0000000000000FB0107901411070040501600405405064090741402480A0340
1001
ACAD
1000
AcDbSavedByObjectVersion
1070
     0
  0
ACAD_PROXY_OBJECT
  5
19DED
102
{ACAD_REACTORS
330
19DE5
102
}
330
19DE5
100
AcDbZombieObject
 90
      499
 91
      510
 93
      500
310
424CD108121A5919195B90640502408333333333333E3BF0000000000000FB01079024090700405020000000000001110200405405064090740C02480A0340
1001
ACAD
1000
AcDbSavedByObjectVersion
1070
     0
  0
ACAD_PROXY_OBJECT
  5
19DEC
102
{ACAD_REACTORS
330
19DE5
102
}
330
19DE5
100
AcDbZombieObject
 90
      499
 91
      510
 93
      436
310
42CCD915DA5C99599C985B595059028333333333333E3BF0000000000000FB0107901411070040501600405405064090741402480A0340
1001
ACAD
1000
AcDbSavedByObjectVersion
1070
     0
  0
ACAD_PROXY_OBJECT
  5
19DEA
102
{ACAD_REACTORS
330
19DE5
102
}
330
19DE5
100
AcDbZombieObject
 90
      499
 91
      510
 93
      388
310
4150985CDA58D07406404333333333333E3BF0000000000000FB0107A41107004050150841D405064090741402480A0350
1001
ACAD
1000
AcDbSavedByObjectVersion
1070
     0
  0
ACAD_PROXY_OBJECT
  5
19DF1
102
{ACAD_REACTORS
330
19DE5
102
}
330
19DE5
100
AcDbZombieObject
 90
      499
 91
      510
 93
      428
310
42109C9A59DA1D195B90C409028333333333333E3BF0000000000000FB010790141107004050150841D405064090741402480A029950
1001
ACAD
1000
AcDbSavedByObjectVersion
1070
     0
  0
ACAD_PROXY_OBJECT
  5
19DF5
102
{ACAD_REACTORS
330
19DE5
102
}
330
19DE5
100
AcDbZombieObject
 90
      499
 91
      510
 93
      452
310
42D0DBDB1BDC90DA185B99D95104090240C333333333333E3BF0000000000000FB0108901411070040501508421405064090741402480A0350
1001
ACAD
1000
AcDbSavedByObjectVersion
1070
     0
  0
ACAD_PROXY_OBJECT
  5
19DEE
102
{ACAD_REACTORS
330
19DE5
102
}
330
19DE5
100
AcDbZombieObject
 90
      499
 91
      510
 93
      500
310
4290DBDB98D95C1D1D585B10940D028333333333333E3BF0000000000000FB0107902409070040501000000000000111010841D405064090740C02480A0340
1001
ACAD
1000
AcDbSavedByObjectVersion
1070
     0
  0
ACAD_PROXY_OBJECT
  5
19DF0
102
{ACAD_REACTORS
330
19DE5
102
}
330
19DE5
100
AcDbZombieObject
 90
      499
 91
      510
 93
      412
310
40D11A5B50B409028333333333333E3BF0000000000000FB010790141107004050150841D405064090741402480A02677FFFFFD0
1001
ACAD
1000
AcDbSavedByObjectVersion
1070
     0
  0
ACAD_PROXY_OBJECT
  5
1E02A
102
{ACAD_REACTORS
330
19DE5
102
}
330
19DE5
100
AcDbZombieObject
 90
      499
 91
      510
 93
      452
310
43115919D950DBDB1BDC93D999916409028333333333333E3BF0000000000000FB010790141107004050150841D405064090741402480A0350
1001
ACAD
1000
AcDbSavedByObjectVersion
1070
     0
  0
ACAD_PROXY_OBJECT
  5
19DF4
102
{ACAD_REACTORS
330
19DE5
102
}
330
19DE5
100
AcDbZombieObject
 90
      499
 91
      510
 93
      444
310
42D19858D95C185D1D195C9B90F409028333333333333E3BF0000000000000FB010790141107004050150841D405064090741402480A0350
1001
ACAD
1000
AcDbSavedByObjectVersion
1070
     0
  0
ACAD_PROXY_OBJECT
  5
19DE6
102
{ACAD_REACTORS
330
19DE5
102
}
330
19DE5
100
AcDbZombieObject
 90
      499
 91
      510
 93
      388
310
41119B185D240901404333333333333E3BF0000000000000F9010740A41107004050150841D405064090741402480A1B50
1001
ACAD
1000
AcDbSavedByObjectVersion
1070
     0
  0
ACAD_PROXY_OBJECT
  5
19DE7
102
{ACAD_REACTORS
330
19DE5
102
}
330
19DE5
100
AcDbZombieObject
 90
      499
 91
      510
 93
      476
310
43519B185D15DA5D1A115919D95CD0140901404333333333333E3BF0000000000000F9010740901411070040501600405405064090741402480A1B50
1001
ACAD
1000
AcDbSavedByObjectVersion
1070
     0
  0
ACAD_PROXY_OBJECT
  5
19DE8
102
{ACAD_REACTORS
330
19DE5
102
}
330
19DE5
100
AcDbZombieObject
 90
      499
 91
      510
 93
      412
310
41D1DBDD5C985D5910240902404333333333333E3BF0000000000000F9010740A411070040501641D405064090741402480A1B50
1001
ACAD
1000
AcDbSavedByObjectVersion
1070
     0
  0
ACAD_PROXY_OBJECT
  5
19DE9
102
{ACAD_REACTORS
330
19DE5
102
}
330
19DE5
100
AcDbZombieObject
 90
      499
 91
      510
 93
      500
310
4411DBDD5C985D5915DA5D1A115919D95CD0340902404333333333333E3BF0000000000000F9010740901411070040501600405405064090741402480A1B50
1001
ACAD
1000
AcDbSavedByObjectVersion
1070
     0
  0
ACAD_PROXY_OBJECT
  5
22078
102
{ACAD_REACTORS
330
19DE5
102
}
330
19DE5
100
AcDbZombieObject
 90
      499
 91
      510
 93
      476
310
41921A5919195B90640502408333333333333E33F0000000000000F901079024090700405020000000000001110200405405064090740C02480A0340
1001
ACAD
1000
AcDbSavedByObjectVersion
1070
     0
  0
ACAD_PROXY_OBJECT
  5
1E028
102
{ACAD_REACTORS
330
19DE5
102
}
330
19DE5
100
AcDbZombieObject
 90
      499
 91
      510
 93
      428
310
42529A5D1D195C93D999914409028333333333333E3BF0000000000000FB010790141107004050150A41D405064090741402480A0350
1001
ACAD
1000
AcDbSavedByObjectVersion
1070
     0
  0
ACAD_PROXY_OBJECT
  5
19DF3
102
{ACAD_REACTORS
330
19DE5
102
}
330
19DE5
100
AcDbZombieObject
 90
      499
 91
      510
 93
      444
310
42D31A5B995C185D1D195C9B90E409028333333333333E3BF0000000000000FB010790141107004050750841D405064090741402483A0350
1001
ACAD
1000
AcDbSavedByObjectVersion
1070
     0
  0
ACAD_PROXY_OBJECT
  5
2207E
102
{ACAD_REACTORS
330
19DE5
102
}
330
19DE5
100
AcDbZombieObject
 90
      499
 91
      510
 93
      484
310
42135BD9195B1A5B99D0A409038333333333333E33F0000000000000F901074090290700405010000000000201990108421405064090741402480A1B40
1001
ACAD
1000
AcDbSavedByObjectVersion
1070
     0
  0
ACAD_PROXY_OBJECT
  5
1E029
102
{ACAD_REACTORS
330
19DE5
102
}
330
19DE5
100
AcDbZombieObject
 90
      499
 91
      510
 93
      444
310
42D3DD995C9A185B99D3D999915409028333333333333E3BF0000000000000FB010790141107004050150941D405064090741402480A0350
1001
ACAD
1000
AcDbSavedByObjectVersion
1070
     0
  0
ACAD_PROXY_OBJECT
  5
19DEF
102
{ACAD_REACTORS
330
19DE5
102
}
330
19DE5
100
AcDbZombieObject
 90
      499
 91
      510
 93
      420
310
425499585B1A5CDD1A58D08409028333333333333E3BF0000000000000FB01079019070040501508421405064090741402480A1B40
1001
ACAD
1000
AcDbSavedByObjectVersion
1070
     0
  0
ACAD_PROXY_OBJECT
  5
2207D
102
{ACAD_REACTORS
330
19DE5
102
}
330
19DE5
100
AcDbZombieObject
 90
      499
 91
      510
 93
      420
310
4194DA1859195911B40902404333333333333E33F0000000000000F9010740A41107004050150800405405064090840C02480A0B40
1001
ACAD
1000
AcDbSavedByObjectVersion
1070
     0
  0
ACAD_PROXY_OBJECT
  5
2207C
102
{ACAD_REACTORS
330
19DE5
102
}
330
19DE5
100
AcDbZombieObject
 90
      499
 91
      510
 93
      516
310
4454DA18591959081DDA5D1A08195919D95CD1A40902404333333333333E33F0000000000000F901074090142907004050250800405405064090740C02480A0B40
1001
ACAD
1000
AcDbSavedByObjectVersion
1070
     0
  0
ACAD_PROXY_OBJECT
  5
22079
102
{ACAD_REACTORS
330
19DE5
102
}
330
19DE5
100
AcDbZombieObject
 90
      499
 91
      510
 93
      532
310
4394DA1859195CC81BD98811DC985E5174090240C333333333333E33F0000000000000F901079024090741D01000000000000111010841D405064090740C02480A0340
1001
ACAD
1000
AcDbSavedByObjectVersion
1070
     0
  0
ACAD_PROXY_OBJECT
  5
2207A
102
{ACAD_REACTORS
330
19DE5
102
}
330
19DE5
100
AcDbZombieObject
 90
      499
 91
      510
 93
      476
310
41D4DAD95D18DA1E51840502408333333333333E33F0000000000000F901079024090741D01000000000000111010B41D405064090741802480A0340
1001
ACAD
1000
AcDbSavedByObjectVersion
1070
     0
  0
ACAD_PROXY_OBJECT
  5
19DF2
102
{ACAD_REACTORS
330
19DE5
102
}
330
19DE5
100
AcDbZombieObject
 90
      499
 91
      510
 93
      412
310
41D51A1A58DAD95B90D409028333333333333E3BF0000000000000FB010790141107004050150C41D405064090741402480A0350
1001
ACAD
1000
AcDbSavedByObjectVersion
1070
     0
  0
ACAD_PROXY_OBJECT
  5
22077
102
{ACAD_REACTORS
330
19DE5
102
}
330
19DE5
100
AcDbZombieObject
 90
      499
 91
      510
 93
      420
310
4255DA5C99599C985B595059028333333333333E33F0000000000000F90107901411070040501600405405064090740C02480A0340
1001
ACAD
1000
AcDbSavedByObjectVersion
1070
     0
  0
ACAD_PROXY_OBJECT
  5
2207B
102
{ACAD_REACTORS
330
19DE5
102
}
330
19DE5
100
AcDbZombieObject
 90
      499
 91
      510
 93
      404
310
41560B54985E51940902404000000000000E03F0000000000000F9010740501907004050150841D405064090740C02480A1B40
1001
ACAD
1000
AcDbSavedByObjectVersion
1070
     0
  0
XRECORD
  5
231F3
102
{ACAD_REACTORS
330
231F2
102
}
330
231F2
100
AcDbXrecord
340
2D0
  0
XRECORD
  5
231F4
102
{ACAD_REACTORS
330
231F2
102
}
330
231F2
100
AcDbXrecord
340
2CF
  0
DICTIONARYVAR
  5
22815
102
{ACAD_REACTORS
330
37
102
}
330
37
100
DictionaryVariables
280
     0
  1
1:1
  0
DICTIONARYVAR
  5
1AC19
102
{ACAD_REACTORS
330
37
102
}
330
37
100
DictionaryVariables
280
     0
  1
Standard
  0
DICTIONARYVAR
  5
4F1
102
{ACAD_REACTORS
330
37
102
}
330
37
100
DictionaryVariables
280
     0
  1
Standard
  0
DICTIONARYVAR
  5
38
102
{ACAD_REACTORS
330
37
102
}
330
37
100
DictionaryVariables
280
     0
  1
-1
  0
DICTIONARYVAR
  5
408
102
{ACAD_REACTORS
330
37
102
}
330
37
100
DictionaryVariables
280
     0
  1
2
  0
DICTIONARYVAR
  5
1891
102
{ACAD_REACTORS
330
37
102
}
330
37
100
DictionaryVariables
280
     0
  1
1
  0
DICTIONARYVAR
  5
1AC1C
102
{ACAD_REACTORS
330
37
102
}
330
37
100
DictionaryVariables
280
     0
  1
0
  0
DICTIONARYVAR
  5
1895
102
{ACAD_REACTORS
330
37
102
}
330
37
100
DictionaryVariables
280
     0
  1
8
  0
DICTIONARYVAR
  5
1894
102
{ACAD_REACTORS
330
37
102
}
330
37
100
DictionaryVariables
280
     0
  1
1
  0
DICTIONARYVAR
  5
22816
102
{ACAD_REACTORS
330
37
102
}
330
37
100
DictionaryVariables
280
     0
  1
0
  0
DICTIONARYVAR
  5
1892
102
{ACAD_REACTORS
330
37
102
}
330
37
100
DictionaryVariables
280
     0
  1
8
  0
DICTIONARYVAR
  5
1893
102
{ACAD_REACTORS
330
37
102
}
330
37
100
DictionaryVariables
280
     0
  1
2
  0
DICTIONARYVAR
  5
409
102
{ACAD_REACTORS
330
37
102
}
330
37
100
DictionaryVariables
280
     0
  1

  0
DICTIONARYVAR
  5
1AC1B
102
{ACAD_REACTORS
330
37
102
}
330
37
100
DictionaryVariables
280
     0
  1
127
  0
DICTIONARYVAR
  5
22076
102
{ACAD_REACTORS
330
37
102
}
330
37
100
DictionaryVariables
280
     0
  1
2
  0
DICTIONARY
  5
23390
330
19DD5
100
AcDbDictionary
  3
ACAD_XREC_ROUNDTRIP
360
23391
1001
ACAD
1000
TREAT_AS_HARD
1070
     1
  0
DICTIONARY
  5
23392
330
19DCD
100
AcDbDictionary
  3
ACAD_XREC_ROUNDTRIP
360
23393
1001
ACAD
1000
TREAT_AS_HARD
1070
     1
  0
DICTIONARY
  5
23394
330
19DDD
100
AcDbDictionary
  3
ACAD_XREC_ROUNDTRIP
360
23395
1001
ACAD
1000
TREAT_AS_HARD
1070
     1
  0
XRECORD
  5
23391
102
{ACAD_REACTORS
330
23390
102
}
330
23390
100
AcDbXrecord
102
MATERIAL
148
0.0
149
0.0
149
0.0
 93
        0
 94
      127
282
     0
 72
     0
 77
     0
171
     0
175
     0
179
     0
273
     0
  0
XRECORD
  5
23393
102
{ACAD_REACTORS
330
23392
102
}
330
23392
100
AcDbXrecord
102
MATERIAL
148
0.0
149
0.0
149
0.0
 93
        0
 94
      127
282
     0
 72
     0
 77
     0
171
     0
175
     0
179
     0
273
     0
  0
XRECORD
  5
23395
102
{ACAD_REACTORS
330
23394
102
}
330
23394
100
AcDbXrecord
102
MATERIAL
148
0.0
149
0.0
149
0.0
 93
        0
 94
      127
282
     0
 72
     0
 77
     0
171
     0
175
     0
179
     0
273
     0
  0
ENDSEC
  0
EOF
