  0
SECTION
  2
HEADER
  9
$ACADVER
  1
AC1009
  9
$INSBASE
 10
0.0
 20
0.0
 30
0.0
  9
$EXTMIN
 10
-420.90045325834348
 20
-1174.38557014451
 30
0.0
  9
$EXTMAX
 10
790.1174025115904
 20
-196.57652894430191
 30
0.0
  9
$LIMMIN
 10
0.0
 20
0.0
  9
$LIMMAX
 10
420.0
 20
297.0
  9
$ORTHOMODE
 70
     0
  9
$REGENMODE
 70
     1
  9
$FILLMODE
 70
     1
  9
$QTEXTMODE
 70
     0
  9
$MIRRTEXT
 70
     0
  9
$DRAGMODE
 70
     2
  9
$LTSCALE
 40
0.5
  9
$OSMODE
 70
  2175
  9
$ATTMODE
 70
     1
  9
$TEXTSIZE
 40
4.0
  9
$TRACEWID
 40
1.0
  9
$TEXTSTYLE
  7
STANDARD
  9
$CLAYER
  8
1TEXT
  9
$CELTYPE
  6
BYLAYER
  9
$CECOLOR
 62
   256
  9
$DIMSCALE
 40
1.0
  9
$DIMASZ
 40
2.0
  9
$DIMEXO
 40
0.0
  9
$DIMDLI
 40
7.0
  9
$DIMRND
 40
0.0
  9
$DIMDLE
 40
0.0
  9
$DIMEXE
 40
1.0
  9
$DIMTP
 40
0.0
  9
$DIMTM
 40
0.0
  9
$DIMTXT
 40
3.5
  9
$DIMCEN
 40
0.0
  9
$DIMTSZ
 40
0.0
  9
$DIMTOL
 70
     0
  9
$DIMLIM
 70
     0
  9
$DIMTIH
 70
     0
  9
$DIMTOH
 70
     0
  9
$DIMSE1
 70
     0
  9
$DIMSE2
 70
     0
  9
$DIMTAD
 70
     1
  9
$DIMZIN
 70
     8
  9
$DIMBLK
  1

  9
$DIMASO
 70
     1
  9
$DIMSHO
 70
     1
  9
$DIMPOST
  1
 
  9
$DIMAPOST
  1

  9
$DIMALT
 70
     0
  9
$DIMALTD
 70
     2
  9
$DIMALTF
 40
25.399999999999999
  9
$DIMLFAC
 40
1.0
  9
$DIMTOFL
 70
     1
  9
$DIMTVP
 40
0.0
  9
$DIMTIX
 70
     0
  9
$DIMSOXD
 70
     0
  9
$DIMSAH
 70
     1
  9
$DIMBLK1
  1
OPEN30
  9
$DIMBLK2
  1
OPEN30
  9
$DIMSTYLE
  2
NEWX10
  9
$DIMCLRD
 70
   256
  9
$DIMCLRE
 70
   256
  9
$DIMCLRT
 70
   201
  9
$DIMTFAC
 40
0.7
  9
$DIMGAP
 40
0.7
  9
$LUNITS
 70
     2
  9
$LUPREC
 70
     4
  9
$SKETCHINC
 40
1.0
  9
$FILLETRAD
 40
0.0
  9
$AUNITS
 70
     0
  9
$AUPREC
 70
     2
  9
$MENU
  1
acad
  9
$ELEVATION
 40
0.0
  9
$PELEVATION
 40
0.0
  9
$THICKNESS
 40
0.0
  9
$LIMCHECK
 70
     0
  9
$BLIPMODE
 70
     0
  9
$CHAMFERA
 40
10.0
  9
$CHAMFERB
 40
10.0
  9
$SKPOLY
 70
     0
  9
$TDCREATE
 40
2453033.7326634838
  9
$TDUPDATE
 40
2454082.4621775462
  9
$TDINDWG
 40
1.895708044
  9
$TDUSRTIMER
 40
1.895708044
  9
$USRTIMER
 70
     1
  9
$ANGBASE
 50
0.0
  9
$ANGDIR
 70
     0
  9
$PDMODE
 70
     0
  9
$PDSIZE
 40
0.0
  9
$PLINEWID
 40
0.0
  9
$COORDS
 70
     2
  9
$SPLFRAME
 70
     0
  9
$SPLINETYPE
 70
     6
  9
$SPLINESEGS
 70
     8
  9
$ATTDIA
 70
     0
  9
$ATTREQ
 70
     1
  9
$HANDLING
 70
     1
  9
$HANDSEED
  5
1B1FE
  9
$SURFTAB1
 70
     6
  9
$SURFTAB2
 70
     6
  9
$SURFTYPE
 70
     6
  9
$SURFU
 70
     6
  9
$SURFV
 70
     6
  9
$UCSNAME
  2

  9
$UCSORG
 10
0.0
 20
0.0
 30
0.0
  9
$UCSXDIR
 10
1.0
 20
0.0
 30
0.0
  9
$UCSYDIR
 10
0.0
 20
1.0
 30
0.0
  9
$PUCSNAME
  2

  9
$PUCSORG
 10
0.0
 20
0.0
 30
0.0
  9
$PUCSXDIR
 10
1.0
 20
0.0
 30
0.0
  9
$PUCSYDIR
 10
0.0
 20
1.0
 30
0.0
  9
$USERI1
 70
     0
  9
$USERI2
 70
     0
  9
$USERI3
 70
     0
  9
$USERI4
 70
     0
  9
$USERI5
 70
     0
  9
$USERR1
 40
0.0
  9
$USERR2
 40
0.0
  9
$USERR3
 40
0.0
  9
$USERR4
 40
0.0
  9
$USERR5
 40
0.0
  9
$WORLDVIEW
 70
     1
  9
$SHADEDGE
 70
     3
  9
$SHADEDIF
 70
    70
  9
$TILEMODE
 70
     1
  9
$MAXACTVP
 70
    48
  9
$PLIMCHECK
 70
     0
  9
$PEXTMIN
 10
1.0000000000000000E+020
 20
1.0000000000000000E+020
 30
1.0000000000000000E+020
  9
$PEXTMAX
 10
-1.0000000000000000E+020
 20
-1.0000000000000000E+020
 30
-1.0000000000000000E+020
  9
$PLIMMIN
 10
0.0
 20
0.0
  9
$PLIMMAX
 10
420.0
 20
297.0
  9
$UNITMODE
 70
     0
  9
$VISRETAIN
 70
     1
  9
$PLINEGEN
 70
     0
  9
$PSLTSCALE
 70
     1
  0
ENDSEC
  0
SECTION
  2
TABLES
  0
TABLE
  2
VPORT
 70
     4
  0
VPORT
  2
*ACTIVE
 70
     0
 10
0.0
 20
0.0
 11
1.0
 21
1.0
 12
184.61237873041091
 22
-685.49157770725265
 13
0.0
 23
0.0
 14
10.0
 24
10.0
 15
10.0
 25
10.0
 16
0.0
 26
0.0
 36
1.0
 17
0.0
 27
0.0
 37
0.0
 40
1037.6573782235221
 41
1.508086253369272
 42
50.0
 43
0.0
 44
0.0
 50
0.0
 51
0.0
 71
     0
 72
   100
 73
     1
 74
     1
 75
     0
 76
     0
 77
     0
 78
     1
  0
ENDTAB
  0
TABLE
  2
LTYPE
 70
    14
  0
LTYPE
  2
CONTINUOUS
 70
     0
  3
Solid line
 72
    65
 73
     0
 40
0.0
  0
LTYPE
  2
CENTER2
 70
     0
  3
Center (.5x) ___ _ ___ _ ___ _ ___ _ ___ _ ___
 72
    65
 73
     4
 40
28.574999999999999
 49
19.050000000000001
 49
-3.1749999999999989
 49
3.1749999999999989
 49
-3.1749999999999989
  0
LTYPE
  2
XREF1|CENTER2
 70
    48
  3
Center (.5x) ___ _ ___ _ ___ _ ___ _ ___ _ ___
 72
    65
 73
     4
 40
28.574999999999999
 49
19.050000000000001
 49
-3.1749999999999989
 49
3.1749999999999989
 49
-3.1749999999999989
  0
LTYPE
  2
HIDDEN
 70
     0
  3
Hidden __ __ __ __ __ __ __ __ __ __ __ __ __ _
 72
    65
 73
     2
 40
9.5249999999999986
 49
6.3499999999999988
 49
-3.1749999999999989
  0
LTYPE
  2
PHANTOM2
 70
     0
  3
Phantom (.5x) ___ _ _ ___ _ _ ___ _ _ ___ _ _
 72
    65
 73
     6
 40
31.75
 49
15.875
 49
-3.1749999999999989
 49
3.1749999999999989
 49
-3.1749999999999989
 49
3.1749999999999989
 49
-3.1749999999999989
  0
LTYPE
  2
A3WAKUDAKE|CENTER2
 70
    48
  3
Center (.5x) ___ _ ___ _ ___ _ ___ _ ___ _ ___
 72
    65
 73
     4
 40
28.574999999999999
 49
19.050000000000001
 49
-3.1749999999999989
 49
3.1749999999999989
 49
-3.1749999999999989
  0
ENDTAB
  0
TABLE
  2
LAYER
 70
    41
  0
LAYER
  2
0
 70
     0
 62
     7
  6
CONTINUOUS
  0
LAYER
  2
1CENTER
 70
     0
 62
     7
  6
CENTER2
  0
LAYER
  2
1TEXT
 70
     0
 62
     7
  6
CONTINUOUS
  0
LAYER
  2
1DIM
 70
     0
 62
     7
  6
CONTINUOUS
  0
LAYER
  2
1HIDDEN
 70
     0
 62
     7
  6
HIDDEN
  0
LAYER
  2
1PHANTOM
 70
     0
 62
     7
  6
PHANTOM2
  0
LAYER
  2
01
 70
     0
 62
     1
  6
CONTINUOUS
  0
LAYER
  2
XREF1|1CENTER
 70
    48
 62
     7
  6
XREF1|CENTER2
  0
LAYER
  2
A3WAKUDAKE|THICK
 70
    48
 62
     7
  6
CONTINUOUS
  0
LAYER
  2
A3WAKUDAKE|POINT
 70
    48
 62
     7
  6
CONTINUOUS
  0
LAYER
  2
A3WAKUDAKE|1CENTER
 70
    48
 62
     7
  6
A3WAKUDAKE|CENTER2
  0
LAYER
  2
A3WAKUDAKE|0-6
 70
    48
 62
     7
  6
CONTINUOUS
  0
LAYER
  2
A3WAKUDAKE|1DIM
 70
    48
 62
     7
  6
CONTINUOUS
  0
ENDTAB
  0
TABLE
  2
STYLE
 70
    20
  0
STYLE
  2
STANDARD
 70
     0
 40
0.0
 41
1.0
 50
0.0
 71
     0
 42
4.0
  3
txt.shx
  4
extfont.shx
  0
ENDTAB
  0
TABLE
  2
VIEW
 70
     0
  0
ENDTAB
  0
TABLE
  2
UCS
 70
     0
  0
ENDTAB
  0
TABLE
  2
APPID
 70
     9
  0
APPID
  2
ACAD
 70
     0
  0
APPID
  2
DRAWINGVARIABLESXDATA
 70
     0
  0
APPID
  2
CONTENTTABDATA
 70
     0
  0
APPID
  2
CONTENTCURRENTTAB
 70
     0
  0
APPID
  2
CONTENTBLOCKDESCRIPTION
 70
     0
  0
APPID
  2
CONTENTBLOCKICON
 70
     0
  0
APPID
  2
CONTENTLONGBLOCKNAME
 70
     0
  0
APPID
  2
ACAD_PSEXT
 70
     0
  0
APPID
  2
ACAD_DSTYLE_DIMTEXT_FILL
 70
     0
  0
ENDTAB
  0
TABLE
  2
DIMSTYLE
 70
     5
  0
DIMSTYLE
  2
NEWX10
 70
     0
  3
 
  4

  5

  6
OPEN30
  7
OPEN30
 40
1.0
 41
2.0
 42
0.0
 43
7.0
 44
1.0
 45
0.0
 46
0.0
 47
0.0
 48
0.0
140
3.5
141
0.0
142
0.0
143
25.399999999999999
144
1.0
145
0.0
146
0.7
147
0.7
 71
     0
 72
     0
 73
     0
 74
     0
 75
     0
 76
     0
 77
     1
 78
     8
170
     0
171
     2
172
     1
173
     1
174
     0
175
     0
176
   256
177
   256
178
   201
  0
ENDTAB
  0
ENDSEC
  0
SECTION
  2
BLOCKS
  0
BLOCK
  8
0
  2
$MODEL_SPACE
 70
     0
 10
0.0
 20
0.0
 30
0.0
  3
$MODEL_SPACE
  1

  0
ENDBLK
  5
1A
  8
0
  0
BLOCK
 67
     1
  8
0
  2
$PAPER_SPACE
 70
     0
 10
0.0
 20
0.0
 30
0.0
  3
$PAPER_SPACE
  1

  0
ENDBLK
  5
17
 67
     1
  8
0
  0
BLOCK
  8
0
  2
_OPEN30
 70
     0
 10
0.0
 20
0.0
 30
0.0
  3
_OPEN30
  1

  0
LINE
  5
44
  8
0
  6
BYBLOCK
 62
     0
 10
-1.0
 20
0.26794919
 30
0.0
 11
0.0
 21
0.0
 31
0.0
  0
LINE
  5
45
  8
0
  6
BYBLOCK
 62
     0
 10
0.0
 20
0.0
 30
0.0
 11
-1.0
 21
-0.26794919
 31
0.0
  0
LINE
  5
46
  8
0
  6
BYBLOCK
 62
     0
 10
0.0
 20
0.0
 30
0.0
 11
-1.0
 21
0.0
 31
0.0
  0
ENDBLK
  5
47
  8
0
  0
BLOCK
  8
0
  2
XREF1
 70
    36
 10
0.0
 20
0.0
 30
0.0
  3
XREF1
  1
D:\ACLT\FORMAT\KAWAJUN(9)図面用.dwg
  0
ENDBLK
  5
5D
  8
0
  0
BLOCK
  8
0
  2
A3WAKUDAKE
 70
    36
 10
0.0
 20
0.0
 30
0.0
  3
A3WAKUDAKE
  1
D:\ACLT\FORMAT\A3WAKUdake.dwg
  0
ENDBLK
  5
6DC
  8
0
  0
BLOCK
  8
0
  2
*U14
 70
     1
 10
0.0
 20
0.0
 30
0.0
  3
*U14
  1

  0
LINE
  5
1B1D5
  8
0
 10
-24.999999999837598
 20
0.0000465358979227
 30
0.0
 11
-19.69999650959204
 21
1.500046535897922
 31
0.0
  0
LINE
  5
1B1D6
  8
0
 10
-24.999999999837598
 20
0.0000465358979227
 30
0.0
 11
-19.700003489976719
 21
-1.4999534641020771
 31
0.0
  0
LINE
  5
1B1D7
  8
0
 10
-19.69999650959204
 20
1.500046535897922
 30
0.0
 11
0.0000034903006174
 21
1.500046535897922
 31
0.0
  0
LINE
  5
1B1D8
  8
0
 10
-19.700003489976719
 20
-1.4999534641020771
 30
0.0
 11
-0.0000034900840618
 21
-1.499953464101849
 31
0.0
  0
LINE
  5
1B1D9
  8
0
 10
0.0000034903006174
 20
1.500046535897922
 30
0.0
 11
0.0000081437821429
 21
3.5
 31
0.0
  0
LINE
  5
1B1DA
  8
0
 10
-0.0000081437821358
 20
-3.4999999999998859
 30
0.0
 11
-0.0000034900840618
 21
-1.499953464101849
 31
0.0
  0
LINE
  5
1B1DB
  8
0
 10
0.0000081437821429
 20
3.5
 30
0.0
 11
1.1000046535927801
 21
3.5
 31
0.0
  0
LINE
  5
1B1DC
  8
0
 10
-0.0000081437821358
 20
-3.4999999999998859
 30
0.0
 11
1.099995346413184
 21
-3.5
 31
0.0
  0
ARC
  5
1B1DD
  8
0
 10
1.1000046535927801
 20
2.0
 30
0.0
 40
1.5
 50
359.99986668447059
 51
90.0
  0
ARC
  5
1B1DE
  8
0
 10
1.099995346413184
 20
-2.0
 30
0.0
 40
1.5
 50
270.0
 51
359.99986668447059
  0
LINE
  5
1B1DF
  8
0
 10
2.599995346409119
 20
-2.0000034901923982
 30
0.0
 11
2.6000046535887189
 21
1.9999965098076009
 31
0.0
  0
ENDBLK
  5
1B1E1
  8
0
  0
BLOCK
  8
0
  2
*U15
 70
     1
 10
0.0
 20
0.0
 30
0.0
  3
*U15
  1

  0
TEXT
  5
1B1E3
  8
1DIM
 62
   201
 10
150.33694544953411
 20
-378.55557014450733
 30
0.0
 40
10.5
  1
400
  0
ENDBLK
  5
1B1E5
  8
0
  0
BLOCK
  8
0
  2
*U16
 70
     1
 10
0.0
 20
0.0
 30
0.0
  3
*U16
  1

  0
TEXT
  5
1B1E7
  8
1DIM
 62
   201
 10
692.89512728739703
 20
-650.39331235193697
 30
0.0
 40
10.5
  1
20 
 50
90.0
  0
ENDBLK
  5
1B1E9
  8
0
  0
BLOCK
  8
0
  2
*U17
 70
     1
 10
0.0
 20
0.0
 30
0.0
  3
*U17
  1

  0
TEXT
  5
1B1EB
  8
1DIM
 62
   201
 10
589.31422216852161
 20
-378.55557014450619
 30
0.0
 40
10.5
  1
t5 
  0
ENDBLK
  5
1B1ED
  8
0
  0
BLOCK
  8
0
  2
*U18
 70
     1
 10
0.0
 20
0.0
 30
0.0
  3
*U18
  1

  0
TEXT
  5
1B1EF
  8
1DIM
 62
   201
 10
150.6126814480331
 20
-398.55557014450733
 30
0.0
 40
10.5
  1
200 
  0
ENDBLK
  5
1B1F1
  8
0
  0
BLOCK
  8
0
  2
*U19
 70
     1
 10
0.0
 20
0.0
 30
0.0
  3
*U19
  1

  0
TEXT
  5
1B1F3
  8
1DIM
 62
   201
 10
692.8348387201205
 20
-531.65556857033243
 30
0.0
 40
10.5
  1
151 
 50
90.0
  0
ENDBLK
  5
1B1F5
  8
0
  0
BLOCK
  8
0
  2
*U20
 70
     1
 10
0.0
 20
0.0
 30
0.0
  3
*U20
  1

  0
TEXT
  5
1B1F7
  8
1DIM
 62
   201
 10
575.56422216852172
 20
-358.55557014450619
 30
0.0
 40
10.5
  1
15.5 
  0
ENDBLK
  5
1B1F9
  8
0
  0
BLOCK
  8
0
  2
*U21
 70
     1
 10
0.0
 20
0.0
 30
0.0
  3
*U21
  1

  0
TEXT
  5
1B1FB
  8
1DIM
 62
   201
 10
425.48694544953429
 20
-807.90557014450985
 30
0.0
 40
10.5
  1
700 
 50
90.0
  0
ENDBLK
  5
1B1FD
  8
0
  0
ENDSEC
  0
SECTION
  2
ENTITIES
  0
LINE
  5
176F7
  8
01
 10
625.91422216852015
 20
-565.65557014450985
 30
0.0
 11
625.91422216852209
 21
-645.65557014450997
 31
0.0
  0
LINE
  5
176F8
  8
01
 10
623.9142221685222
 20
-565.65557014450985
 30
0.0
 11
623.9142221685222
 21
-645.65557014450997
 31
0.0
  0
LINE
  5
176F9
  8
01
 10
625.11422216852293
 20
-565.65557014450985
 30
0.0
 11
625.11422216852293
 21
-645.65557014450997
 31
0.0
  0
LINE
  5
176FA
  8
01
 10
623.9142221685222
 20
-645.65557014450997
 30
0.0
 11
625.91422216852209
 21
-645.65557014450997
 31
0.0
  0
LINE
  5
176FC
  8
01
 10
632.71422216852136
 20
-577.65557014450974
 30
0.0
 11
625.91422216852243
 21
-577.65557014450985
 31
0.0
  0
LINE
  5
176FE
  8
01
 10
626.81422216852229
 20
-565.65557014450985
 30
0.0
 11
626.81422216852229
 21
-577.65557014450974
 31
0.0
  0
LINE
  5
17700
  8
01
 10
632.71422216852136
 20
-577.65557014450974
 30
0.0
 11
632.71422216852136
 21
-587.65557014450985
 31
0.0
  0
LINE
  5
17701
  8
01
 10
625.91422216852015
 20
-565.65557014450985
 30
0.0
 11
623.9142221685222
 21
-565.65557014450985
 31
0.0
  0
LINE
  5
17719
  8
01
 10
302.83846398242588
 20
-304.21011909664338
 30
0.0
 11
222.83846398242599
 21
-304.21011909664298
 31
0.0
  0
LINE
  5
1771B
  8
01
 10
278.7783656987628
 20
-303.41011909664189
 30
0.0
 11
246.89856226608001
 21
-303.41011909664007
 31
0.0
  0
LINE
  5
1771C
  8
01
 10
277.25320927601871
 20
-303.41011909664371
 30
0.0
 11
273.37829988092273
 21
-299.18294521109118
 31
0.0
  0
LINE
  5
1771D
  8
01
 10
278.04121155856211
 20
-303.08584372516111
 30
0.0
 11
273.96802319308489
 21
-298.64236550827508
 31
0.0
  0
LINE
  5
1771F
  8
01
 10
22.838463982418709
 20
-304.21011909666692
 30
0.0
 11
102.8384639824187
 21
-304.21011909664321
 31
0.0
  0
LINE
  5
17720
  8
01
 10
46.898562266081854
 20
-303.41011909665849
 30
0.0
 11
78.778365698764674
 21
-303.41011909664758
 31
0.0
  0
LINE
  5
17723
  8
01
 10
78.041211558564783
 20
-303.08584372516913
 30
0.0
 11
73.968023193077215
 21
-298.64236550828628
 31
0.0
  0
LINE
  5
17725
  8
01
 10
22.838463982418709
 20
-303.41011909666759
 30
0.0
 11
46.898562266081854
 21
-303.41011909666031
 31
0.0
  0
LINE
  5
17726
  8
01
 10
22.838463982418709
 20
-303.41011909666759
 30
0.0
 11
22.838463982419171
 21
-305.41011909666759
 31
0.0
  0
LINE
  5
17727
  8
01
 10
54.510090504520797
 20
-298.21011909665782
 30
0.0
 11
71.166837460316628
 21
-298.21011909665231
 31
0.0
  0
LINE
  5
17728
  8
01
 10
54.510090504521713
 20
-297.41011909665667
 30
0.0
 11
71.166837460317993
 21
-297.4101190966548
 31
0.0
  0
ARC
  5
17729
  8
01
 10
46.898562266081854
 20
-302.41011909666031
 30
0.0
 40
1.0
 50
270.00000000002598
 51
317.4895529220131
  0
LINE
  5
1772A
  8
01
 10
48.42371868882605
 20
-303.41011909666031
 30
0.0
 11
52.298628083920669
 21
-299.18294521110602
 31
0.0
  0
ARC
  5
1772B
  8
01
 10
54.510090504523077
 20
-301.21011909665782
 30
0.0
 40
3.7999999999999989
 50
90.000000000026048
 51
137.48955292203149
  0
ARC
  5
1772C
  8
01
 10
54.510090504523077
 20
-301.21011909665782
 30
0.0
 40
3.0
 50
90.000000000026048
 51
137.48955292203149
  0
LINE
  5
1772D
  8
01
 10
47.635716406282199
 20
-303.08584372517822
 30
0.0
 11
51.708904771757943
 21
-298.64236550828991
 31
0.0
  0
LINE
  5
1772E
  8
01
 10
77.253209276011376
 20
-303.4101190966494
 30
0.0
 11
73.378299880921304
 21
-299.1829452111005
 31
0.0
  0
ARC
  5
1772F
  8
01
 10
71.166837460318902
 20
-301.21011909665231
 30
0.0
 40
3.7999999999999989
 50
42.51044707802366
 51
90.000000000026048
  0
ARC
  5
17730
  8
01
 10
71.166837460318902
 20
-301.21011909665231
 30
0.0
 40
3.0
 50
42.51044707802366
 51
90.000000000026048
  0
LINE
  5
17731
  8
01
 10
78.778365698764674
 20
-303.4101190966494
 30
0.0
 11
102.8384639824187
 21
-303.41011909664388
 31
0.0
  0
ARC
  5
17732
  8
01
 10
78.778365698764674
 20
-302.41011909665121
 30
0.0
 40
1.0
 50
222.51044707802359
 51
270.00000000002598
  0
LINE
  5
17733
  8
01
 10
102.8384639824192
 20
-305.41011909664388
 30
0.0
 11
102.8384639824187
 21
-303.41011909664388
 31
0.0
  0
LINE
  5
17734
  8
01
 10
246.89856226608001
 20
-303.41011909664189
 30
0.0
 11
222.83846398242599
 21
-303.41011909664371
 31
0.0
  0
LINE
  5
17735
  8
01
 10
222.83846398242599
 20
-305.41011909664371
 30
0.0
 11
222.83846398242599
 21
-303.41011909664371
 31
0.0
  0
LINE
  5
17736
  8
01
 10
248.4237186888333
 20
-303.41011909664189
 30
0.0
 11
252.29862808392201
 21
-299.18294521109118
 31
0.0
  0
ARC
  5
17737
  8
01
 10
254.51009050452581
 20
-301.21011909664298
 30
0.0
 40
3.7999999999999989
 50
90.0
 51
137.48955292199909
  0
ARC
  5
17738
  8
01
 10
254.51009050452581
 20
-301.21011909664298
 30
0.0
 40
3.0
 50
90.0
 51
137.48955292199909
  0
ARC
  5
17739
  8
01
 10
246.89856226608049
 20
-302.41011909664371
 30
0.0
 40
1.0
 50
270.0
 51
317.48955292199912
  0
LINE
  5
1773A
  8
01
 10
247.6357164062799
 20
-303.08584372516128
 30
0.0
 11
251.7089047717661
 21
-298.64236550827701
 31
0.0
  0
ARC
  5
1773B
  8
01
 10
271.16683746032157
 20
-301.21011909664298
 30
0.0
 40
3.7999999999999989
 50
42.510447077991238
 51
90.0
  0
LINE
  5
1773C
  8
01
 10
271.16683746032209
 20
-298.21011909664298
 30
0.0
 11
254.51009050452629
 21
-298.21011909664298
 31
0.0
  0
LINE
  5
1773D
  8
01
 10
271.16683746032118
 20
-297.41011909664189
 30
0.0
 11
254.5100905045249
 21
-297.41011909664547
 31
0.0
  0
ARC
  5
1773E
  8
01
 10
271.16683746032157
 20
-301.21011909664298
 30
0.0
 40
3.0
 50
42.510447077991238
 51
90.0
  0
LINE
  5
1773F
  8
01
 10
302.83846398242588
 20
-303.41011909664422
 30
0.0
 11
278.7783656987628
 21
-303.41011909664371
 31
0.0
  0
ARC
  5
17740
  8
01
 10
278.77836569876331
 20
-302.41011909664371
 30
0.0
 40
1.0
 50
222.51044707800091
 51
270.0
  0
LINE
  5
17741
  8
01
 10
302.83846398242588
 20
-303.41011909664422
 30
0.0
 11
302.83846398242588
 21
-305.41011909664422
 31
0.0
  0
LINE
  5
17743
  8
1CENTER
 10
62.862727983920422
 20
-260.38325992611487
 30
0.0
 11
62.862727983920422
 21
-299.90713073632202
 31
0.0
  0
LINE
  5
17744
  8
1CENTER
 10
262.86272798392071
 20
-261.17595217119219
 30
0.0
 11
262.86272798392071
 21
-299.90713073633628
 31
0.0
  0
LINE
  5
17748
  8
01
 10
634.4142221685189
 20
-416.92225800415821
 30
0.0
 11
634.4142221685189
 21
-1174.38557014451
 31
0.0
  0
LINE
  5
1774A
  8
01
 10
74.362727983929972
 20
-294.9071307363256
 30
0.0
 11
74.362727983929972
 21
-299.07295255285158
 31
0.0
  0
LINE
  5
1774B
  8
01
 10
51.362727983931791
 20
-294.9071307363256
 30
0.0
 11
51.362727983931329
 21
-299.0200129131922
 31
0.0
  0
LINE
  5
1774C
  8
01
 10
51.362727983931791
 20
-294.9071307363256
 30
0.0
 11
74.362727983929972
 21
-294.9071307363256
 31
0.0
  0
LINE
  5
1774D
  8
01
 10
74.362727983929972
 20
-300.90713073632202
 30
0.0
 11
51.362727983931791
 21
-300.90713073632202
 31
0.0
  0
LINE
  5
1774E
  8
01
 10
51.362727983931791
 20
-302.5071307363242
 30
0.0
 11
74.362727983929972
 21
-302.5071307363242
 31
0.0
  0
LINE
  5
1774F
  8
01
 10
68.362727983929972
 20
-300.90713073632202
 30
0.0
 11
68.362727983929972
 21
-302.5071307363242
 31
0.0
  0
LINE
  5
17750
  8
01
 10
57.362727983929972
 20
-302.5071307363242
 30
0.0
 11
57.362727983929972
 21
-300.90713073632202
 31
0.0
  0
LINE
  5
17752
  8
01
 10
274.3627279839198
 20
-294.90713073633992
 30
0.0
 11
274.36272798391951
 21
-299.07295255282253
 31
0.0
  0
LINE
  5
17753
  8
01
 10
274.3627279839198
 20
-294.90713073633992
 30
0.0
 11
251.36272798392159
 21
-294.90713073633992
 31
0.0
  0
LINE
  5
17755
  8
01
 10
268.36272798392162
 20
-302.50713073633852
 30
0.0
 11
268.36272798392162
 21
-300.90713073633628
 31
0.0
  0
LINE
  5
17756
  8
01
 10
274.3627279839198
 20
-302.50713073633852
 30
0.0
 11
251.36272798392159
 21
-302.50713073633852
 31
0.0
  0
LINE
  5
17757
  8
01
 10
251.36272798392159
 20
-300.90713073633628
 30
0.0
 11
274.3627279839198
 21
-300.90713073633628
 31
0.0
  0
LINE
  5
17758
  8
01
 10
257.3627279839215
 20
-300.90713073633628
 30
0.0
 11
257.3627279839215
 21
-302.50713073633852
 31
0.0
  0
LINE
  5
17759
  8
01
 10
251.36272798392159
 20
-294.90713073633992
 30
0.0
 11
251.3627279839213
 21
-299.02001291319789
 31
0.0
  0
LINE
  5
1775A
  8
01
 10
74.362727983929972
 20
-300.25686677801809
 30
0.0
 11
74.362727983929972
 21
-302.5071307363242
 31
0.0
  0
LINE
  5
1775B
  8
01
 10
51.362727983931791
 20
-300.203927138366
 30
0.0
 11
51.362727983931791
 21
-302.5071307363242
 31
0.0
  0
LINE
  5
1775C
  8
01
 10
274.362727983919
 20
-300.2568667779949
 30
0.0
 11
274.3627279839198
 21
-302.50713073633852
 31
0.0
  0
LINE
  5
1775D
  8
01
 10
251.36272798392221
 20
-300.2039271383635
 30
0.0
 11
251.36272798392159
 21
-302.50713073633852
 31
0.0
  0
LINE
  5
1775E
  8
01
 10
386.30633589774448
 20
-294.90713073634038
 30
0.0
 11
-84.101491151485561
 21
-294.90713073634038
 31
0.0
  0
LINE
  5
17763
  8
01
 10
632.71422216852136
 20
-587.65557014450985
 30
0.0
 11
625.9142221685205
 21
-587.65557014451031
 31
0.0
  0
LINE
  5
177CE
  8
01
 10
628.41422216852266
 20
-559.15557014450872
 30
0.0
 11
628.41422216852015
 21
-577.65557014450985
 31
0.0
  0
LINE
  5
177CF
  8
01
 10
626.81422216852036
 20
-559.15557014450906
 30
0.0
 11
626.81422216852036
 21
-577.65557014451008
 31
0.0
  0
LINE
  5
177D0
  8
01
 10
634.4142221685189
 20
-598.15561668040812
 30
0.0
 11
634.4142221685189
 21
-615.15561668040846
 31
0.0
  0
LINE
  5
177D1
  8
01
 10
632.81422216852047
 20
-590.2555701445101
 30
0.0
 11
632.81422216852047
 21
-626.65557014451042
 31
0.0
  0
LINE
  5
177D4
  8
01
 10
632.81422216852047
 20
-626.65557014451042
 30
0.0
 11
634.4142221685189
 21
-626.65557014451042
 31
0.0
  0
LINE
  5
177D5
  8
01
 10
634.4142221685189
 20
-618.15561668040834
 30
0.0
 11
634.4142221685189
 21
-626.65557014451042
 31
0.0
  0
LINE
  5
177D9
  8
01
 10
629.41422216851902
 20
-589.25557014450965
 30
0.0
 11
631.81422216852047
 21
-589.25557014450999
 31
0.0
  0
LINE
  5
177DA
  8
01
 10
629.41422216851902
 20
-587.65557014450974
 30
0.0
 11
631.81422216852093
 21
-587.65557014450997
 31
0.0
  0
ARC
  5
177DB
  8
1HIDDEN
 10
629.41422216851902
 20
-586.65557014450997
 30
0.0
 40
2.6000000000000001
 50
180.0
 51
202.6198649480354
  0
ARC
  5
177DC
  8
1HIDDEN
 10
629.41422216851902
 20
-586.65557014450997
 30
0.0
 40
1.0
 50
180.0
 51
270.0
  0
ARC
  5
177DE
  8
01
 10
631.81422216852047
 20
-590.2555701445101
 30
0.0
 40
2.6000000000000001
 50
0.0
 51
90.0
  0
ARC
  5
177DF
  8
01
 10
631.81422216852047
 20
-590.2555701445101
 30
0.0
 40
1.0
 50
0.0
 51
90.0
  0
LINE
  5
177E2
  8
01
 10
634.41422216851845
 20
-590.2555701445101
 30
0.0
 11
634.4142221685189
 21
-595.15561668040834
 31
0.0
  0
LINE
  5
177E3
  8
01
 10
626.81422216852036
 20
-559.15557014450906
 30
0.0
 11
628.41422216852266
 21
-559.15557014450872
 31
0.0
  0
LINE
  5
182D5
  8
01
 10
643.41422216851902
 20
-416.92225800415821
 30
0.0
 11
643.41422216851902
 21
-1174.38557014451
 31
0.0
  0
LINE
  5
182D6
  8
01
 10
652.41422216851902
 20
-416.92225800415821
 30
0.0
 11
652.41422216851902
 21
-1174.38557014451
 31
0.0
  0
LINE
  5
182EA
  8
1HIDDEN
 10
626.81422216852036
 20
-577.65557014450985
 30
0.0
 11
626.81422216852036
 21
-586.65557014450974
 31
0.0
  0
LINE
  5
182EB
  8
1HIDDEN
 10
628.41422216852015
 20
-577.65557014450985
 30
0.0
 11
628.41422216851902
 21
-586.65557014450997
 31
0.0
  0
ARC
  5
182EC
  8
01
 10
629.41422216851902
 20
-586.65557014450997
 30
0.0
 40
2.6000000000000001
 50
202.6198649480508
 51
270.0
  0
LINE
  5
18341
  8
01
 10
386.30633589774448
 20
-285.90713073634038
 30
0.0
 11
-84.101491151485561
 21
-285.90713073634038
 31
0.0
  0
LINE
  5
18342
  8
01
 10
386.30633589774448
 20
-276.90713073634038
 30
0.0
 11
-84.101491151485561
 21
-276.90713073634038
 31
0.0
  0
TEXT
  5
183FB
  8
1TEXT
 10
-420.90045325834348
 20
-228.576528944302
 30
0.0
 40
32.0
  1
KG-05-X1
  0
LINE
  5
18742
  8
1HIDDEN
 10
74.362727983929972
 20
-296.50713073632579
 30
0.0
 11
51.362727983931791
 21
-296.50713073632579
 31
0.0
  0
LINE
  5
1874B
  8
1HIDDEN
 10
274.36272798393043
 20
-296.50713073632528
 30
0.0
 11
251.36272798393219
 21
-296.50713073632528
 31
0.0
  0
LINE
  5
1ACEF
  8
01
 10
362.58694544953443
 20
-448.65557014451008
 30
0.0
 11
362.58694544953443
 21
-1142.65557014451
 31
0.0
  0
ARC
  5
1ACF0
  8
01
 10
359.58694544953443
 20
-1142.65557014451
 30
0.0
 40
3.0
 50
270.0
 51
0.0
  0
ARC
  5
1ACF1
  8
01
 10
359.58694544953443
 20
-448.65557014451008
 30
0.0
 40
3.0
 50
0.0
 51
90.0
  0
LINE
  5
1ACF3
  8
01
 10
-37.413054550466093
 20
-448.65557014451008
 30
0.0
 11
-37.413054550466093
 21
-1142.65557014451
 31
0.0
  0
LINE
  5
1ACF6
  8
01
 10
-34.413054550466093
 20
-1145.65557014451
 30
0.0
 11
359.58694544953443
 21
-1145.65557014451
 31
0.0
  0
ARC
  5
1ACF7
  8
01
 10
-34.413054550466093
 20
-1142.65557014451
 30
0.0
 40
3.0
 50
180.0
 51
270.0
  0
LINE
  5
1ACF8
  8
01
 10
-34.413054550466093
 20
-445.65557014451002
 30
0.0
 11
359.58694544953443
 21
-445.65557014451002
 31
0.0
  0
ARC
  5
1ACF9
  8
01
 10
-34.413054550466093
 20
-448.65557014451008
 30
0.0
 40
3.0
 50
90.0
 51
180.0
  0
LINE
  5
1ACFA
  8
01
 10
623.9142221685222
 20
-445.65557014451002
 30
0.0
 11
623.9142221685222
 21
-1145.65557014451
 31
0.0
  0
LINE
  5
1ACFB
  8
01
 10
618.91422216852175
 20
-445.65557014451002
 30
0.0
 11
623.9142221685222
 21
-445.65557014451002
 31
0.0
  0
LINE
  5
1ACFC
  8
01
 10
620.41422216852175
 20
-445.65557014451002
 30
0.0
 11
620.41422216852175
 21
-1145.65557014451
 31
0.0
  0
LINE
  5
1ACFD
  8
01
 10
618.9142221685222
 20
-1145.65557014451
 30
0.0
 11
623.9142221685222
 21
-1145.65557014451
 31
0.0
  0
LINE
  5
1ACFE
  8
01
 10
618.91422216852175
 20
-445.65557014451002
 30
0.0
 11
618.9142221685222
 21
-1145.65557014451
 31
0.0
  0
LINE
  5
1AD8E
  8
01
 10
347.58694544953443
 20
-445.65557014451002
 30
0.0
 11
347.58694544953443
 21
-1145.65557014451
 31
0.0
  0
LINE
  5
1AD8F
  8
01
 10
-22.413054550465631
 20
-445.65557014451002
 30
0.0
 11
-22.413054550465631
 21
-1145.65557014451
 31
0.0
  0
LINE
  5
1AD90
  8
1PHANTOM
 10
47.386945449534103
 20
-577.65557014451088
 30
0.0
 11
47.386945449534103
 21
-587.65557014450985
 31
0.0
  0
LINE
  5
1AD91
  8
1PHANTOM
 10
77.786945449534187
 20
-577.65557014451088
 30
0.0
 11
77.786945449534187
 21
-587.65557014450985
 31
0.0
  0
LINE
  5
1AD92
  8
1PHANTOM
 10
2.586945449534368
 20
-565.65557014450985
 30
0.0
 11
2.5869454495341411
 21
-645.65557014450997
 31
0.0
  0
LINE
  5
1AD93
  8
1PHANTOM
 10
122.5869454495343
 20
-565.65557014450985
 30
0.0
 11
122.5869454495343
 21
-645.65557014450997
 31
0.0
  0
LINE
  5
1AD94
  8
1PHANTOM
 10
247.38694544953449
 20
-577.65557014450985
 30
0.0
 11
247.38694544953449
 21
-587.65557014450985
 31
0.0
  0
LINE
  5
1AD95
  8
1PHANTOM
 10
277.7869454495347
 20
-577.65557014450985
 30
0.0
 11
277.78694544953549
 21
-587.65557014450906
 31
0.0
  0
LINE
  5
1AD96
  8
1PHANTOM
 10
202.58694544953349
 20
-565.65557014450985
 30
0.0
 11
202.58694544953349
 21
-645.65557014450997
 31
0.0
  0
LINE
  5
1AD97
  8
1PHANTOM
 10
322.58694544953443
 20
-565.65557014450985
 30
0.0
 11
322.58694544953443
 21
-645.65557014450997
 31
0.0
  0
LINE
  5
1AD98
  8
1PHANTOM
 10
2.586945449534368
 20
-565.65557014450985
 30
0.0
 11
122.5869454495343
 21
-565.65557014450985
 31
0.0
  0
LINE
  5
1AD99
  8
1PHANTOM
 10
47.386945449534103
 20
-577.65557014451088
 30
0.0
 11
77.786945449534187
 21
-577.65557014451088
 31
0.0
  0
LINE
  5
1AD9A
  8
1PHANTOM
 10
47.386945449534103
 20
-587.65557014450985
 30
0.0
 11
77.786945449534187
 21
-587.65557014450985
 31
0.0
  0
LINE
  5
1AD9B
  8
1PHANTOM
 10
202.58694544953349
 20
-565.65557014450985
 30
0.0
 11
322.58694544953443
 21
-565.65557014450985
 31
0.0
  0
LINE
  5
1AD9C
  8
1PHANTOM
 10
247.38694544953449
 20
-577.65557014450985
 30
0.0
 11
277.7869454495347
 21
-577.65557014450985
 31
0.0
  0
LINE
  5
1AD9D
  8
1PHANTOM
 10
247.38694544953449
 20
-587.65557014450985
 30
0.0
 11
277.78694544953549
 21
-587.65557014450906
 31
0.0
  0
LINE
  5
1AD9E
  8
1PHANTOM
 10
2.5869454495341411
 20
-645.65557014450997
 30
0.0
 11
122.5869454495343
 21
-645.65557014450997
 31
0.0
  0
LINE
  5
1AD9F
  8
1PHANTOM
 10
202.58694544953349
 20
-645.65557014450997
 30
0.0
 11
322.58694544953443
 21
-645.65557014450997
 31
0.0
  0
LINE
  5
1ADA0
  8
1PHANTOM
 10
72.586945449534824
 20
-1085.6555701445091
 30
0.0
 11
72.586945449534824
 21
-1105.6555701445091
 31
0.0
  0
LINE
  5
1ADA1
  8
1PHANTOM
 10
52.586945449533907
 20
-1085.6555701445091
 30
0.0
 11
52.586945449533907
 21
-1105.65557014451
 31
0.0
  0
LINE
  5
1ADA2
  8
1PHANTOM
 10
272.58694544953443
 20
-1085.6555701445111
 30
0.0
 11
272.58694544953443
 21
-1105.65557014451
 31
0.0
  0
LINE
  5
1ADA3
  8
1PHANTOM
 10
252.5869454495344
 20
-1085.6555701445111
 30
0.0
 11
252.58694544953391
 21
-1105.65557014451
 31
0.0
  0
LINE
  5
1ADA4
  8
1PHANTOM
 10
52.586945449533907
 20
-1105.65557014451
 30
0.0
 11
72.586945449534824
 21
-1105.6555701445091
 31
0.0
  0
LINE
  5
1ADA5
  8
1PHANTOM
 10
252.58694544953391
 20
-1105.65557014451
 30
0.0
 11
272.58694544953443
 21
-1105.65557014451
 31
0.0
  0
LINE
  5
1ADA6
  8
1PHANTOM
 10
52.586945449533907
 20
-1085.6555701445091
 30
0.0
 11
72.586945449534824
 21
-1085.6555701445091
 31
0.0
  0
LINE
  5
1ADA7
  8
1PHANTOM
 10
252.5869454495344
 20
-1085.6555701445111
 30
0.0
 11
272.58694544953443
 21
-1085.6555701445111
 31
0.0
  0
LINE
  5
1ADA8
  8
1PHANTOM
 10
74.362681448032845
 20
-623.65556699615615
 30
0.0
 11
74.362681448032845
 21
-587.65556699615649
 31
0.0
  0
LINE
  5
1ADA9
  8
1PHANTOM
 10
51.362681448040121
 20
-623.65556699615684
 30
0.0
 11
51.362681448032852
 21
-587.65556699615615
 31
0.0
  0
LINE
  5
1ADAA
  8
1PHANTOM
 10
74.362681448032845
 20
-589.25556699615561
 30
0.0
 11
51.362681448032852
 21
-589.25556699615561
 31
0.0
  0
LINE
  5
1ADAB
  8
1PHANTOM
 10
71.362681448032845
 20
-626.65556699615627
 30
0.0
 11
54.362681448040121
 21
-626.65556699615615
 31
0.0
  0
ARC
  5
1ADAC
  8
1PHANTOM
 10
54.362681448040121
 20
-623.65556699615615
 30
0.0
 40
3.0
 50
180.00000000001299
 51
270.0
  0
LINE
  5
1ADAD
  8
1PHANTOM
 10
65.362681448032845
 20
-595.65556699615615
 30
0.0
 11
65.362681448032845
 21
-597.65556699615615
 31
0.0
  0
ARC
  5
1ADAE
  8
1PHANTOM
 10
71.362681448032845
 20
-623.65556699615627
 30
0.0
 40
3.0
 50
270.0
 51
0.0
  0
LINE
  5
1ADAF
  8
1PHANTOM
 10
65.362681448032845
 20
-615.65556699615615
 30
0.0
 11
65.362681448032845
 21
-617.65556699615615
 31
0.0
  0
LINE
  5
1ADB0
  8
1PHANTOM
 10
60.362681448032838
 20
-595.65556699615615
 30
0.0
 11
60.362681448032838
 21
-597.65556699615615
 31
0.0
  0
LINE
  5
1ADB1
  8
1PHANTOM
 10
60.362681448032838
 20
-615.65556699615615
 30
0.0
 11
60.362681448032838
 21
-617.65556699615615
 31
0.0
  0
ARC
  5
1ADB2
  8
1PHANTOM
 10
62.862681448032838
 20
-595.65556699615615
 30
0.0
 40
2.5
 50
0.0
 51
180.0
  0
ARC
  5
1ADB3
  8
1PHANTOM
 10
62.862681448032838
 20
-597.65556699615615
 30
0.0
 40
2.5
 50
180.0
 51
0.0
  0
ARC
  5
1ADB4
  8
1PHANTOM
 10
62.862681448032838
 20
-615.65556699615615
 30
0.0
 40
2.5
 50
0.0
 51
180.0
  0
ARC
  5
1ADB5
  8
1PHANTOM
 10
62.862681448032838
 20
-617.65556699615615
 30
0.0
 40
2.5
 50
180.0
 51
0.0
  0
LINE
  5
1ADB6
  8
1PHANTOM
 10
56.58035112911125
 20
-561.56721859074185
 30
0.0
 11
51.362681448032852
 21
-587.65556699615615
 31
0.0
  0
LINE
  5
1ADB7
  8
1PHANTOM
 10
74.362681448032845
 20
-587.65556699615649
 30
0.0
 11
51.362681448032852
 21
-587.65556699615615
 31
0.0
  0
LINE
  5
1ADB8
  8
1PHANTOM
 10
69.145011766950802
 20
-561.56721859074185
 30
0.0
 11
74.362681448032845
 21
-587.65556699615593
 31
0.0
  0
LINE
  5
1ADB9
  8
1PHANTOM
 10
66.203269739877896
 20
-559.15556699615615
 30
0.0
 11
59.522093156184148
 21
-559.15556699615593
 31
0.0
  0
ARC
  5
1ADBA
  8
1PHANTOM
 10
59.522093156184148
 20
-562.15556699615581
 30
0.0
 40
3.0
 50
90.0
 51
168.69006752600279
  0
ARC
  5
1ADBB
  8
1PHANTOM
 10
66.203269739877896
 20
-562.15556699615615
 30
0.0
 40
3.0
 50
11.30993247399722
 51
90.0
  0
LINE
  5
1ADBC
  8
1CENTER
 10
62.862681448032838
 20
-544.79363052634369
 30
0.0
 11
62.862681448032838
 21
-633.93081630099914
 31
0.0
  0
LINE
  5
1ADBD
  8
1PHANTOM
 10
274.3626814480333
 20
-623.65556699615524
 30
0.0
 11
274.3626814480333
 21
-587.6555669961557
 31
0.0
  0
LINE
  5
1ADBE
  8
1PHANTOM
 10
251.3626814480406
 20
-623.65556699615593
 30
0.0
 11
251.3626814480333
 21
-587.65556699615524
 31
0.0
  0
LINE
  5
1ADBF
  8
1PHANTOM
 10
274.3626814480333
 20
-589.2555669961547
 30
0.0
 11
251.3626814480333
 21
-589.2555669961547
 31
0.0
  0
LINE
  5
1ADC0
  8
1PHANTOM
 10
271.3626814480333
 20
-626.65556699615536
 30
0.0
 11
254.3626814480406
 21
-626.65556699615524
 31
0.0
  0
ARC
  5
1ADC1
  8
1PHANTOM
 10
254.3626814480406
 20
-623.65556699615524
 30
0.0
 40
3.0
 50
180.00000000001299
 51
270.0
  0
LINE
  5
1ADC2
  8
1PHANTOM
 10
265.3626814480333
 20
-595.65556699615524
 30
0.0
 11
265.3626814480333
 21
-597.65556699615524
 31
0.0
  0
ARC
  5
1ADC3
  8
1PHANTOM
 10
271.3626814480333
 20
-623.65556699615536
 30
0.0
 40
3.0
 50
270.0
 51
0.0
  0
LINE
  5
1ADC4
  8
1PHANTOM
 10
265.3626814480333
 20
-615.65556699615524
 30
0.0
 11
265.3626814480333
 21
-617.65556699615524
 31
0.0
  0
LINE
  5
1ADC5
  8
1PHANTOM
 10
260.3626814480333
 20
-595.65556699615524
 30
0.0
 11
260.3626814480333
 21
-597.65556699615524
 31
0.0
  0
LINE
  5
1ADC6
  8
1PHANTOM
 10
260.3626814480333
 20
-615.65556699615524
 30
0.0
 11
260.3626814480333
 21
-617.65556699615524
 31
0.0
  0
ARC
  5
1ADC7
  8
1PHANTOM
 10
262.8626814480333
 20
-595.65556699615524
 30
0.0
 40
2.5
 50
0.0
 51
180.0
  0
ARC
  5
1ADC8
  8
1PHANTOM
 10
262.8626814480333
 20
-597.65556699615524
 30
0.0
 40
2.5
 50
180.0
 51
0.0
  0
ARC
  5
1ADC9
  8
1PHANTOM
 10
262.8626814480333
 20
-615.65556699615524
 30
0.0
 40
2.5
 50
0.0
 51
180.0
  0
ARC
  5
1ADCA
  8
1PHANTOM
 10
262.8626814480333
 20
-617.65556699615524
 30
0.0
 40
2.5
 50
180.0
 51
0.0
  0
LINE
  5
1ADCB
  8
1PHANTOM
 10
256.5803511291117
 20
-561.56721859074094
 30
0.0
 11
251.3626814480333
 21
-587.65556699615524
 31
0.0
  0
LINE
  5
1ADCC
  8
1PHANTOM
 10
274.3626814480333
 20
-587.6555669961557
 30
0.0
 11
251.3626814480333
 21
-587.65556699615524
 31
0.0
  0
LINE
  5
1ADCD
  8
1PHANTOM
 10
269.1450117669512
 20
-561.56721859074094
 30
0.0
 11
274.3626814480333
 21
-587.6555669961549
 31
0.0
  0
LINE
  5
1ADCE
  8
1PHANTOM
 10
266.20326973987841
 20
-559.15556699615524
 30
0.0
 11
259.52209315618461
 21
-559.1555669961549
 31
0.0
  0
ARC
  5
1ADCF
  8
1PHANTOM
 10
259.52209315618461
 20
-562.15556699615502
 30
0.0
 40
3.0
 50
90.0
 51
168.69006752600279
  0
ARC
  5
1ADD0
  8
1PHANTOM
 10
266.20326973987841
 20
-562.15556699615524
 30
0.0
 40
3.0
 50
11.30993247399722
 51
90.0
  0
LINE
  5
1ADD1
  8
1CENTER
 10
262.8626814480333
 20
-544.79363052634289
 30
0.0
 11
262.8626814480333
 21
-633.93081630099823
 31
0.0
  0
LINE
  5
1AE29
  8
01
 10
362.5869454495342
 20
-305.41011909664388
 30
0.0
 11
-37.413054550466093
 21
-305.41011909664383
 31
0.0
  0
LINE
  5
1AE2B
  8
01
 10
347.58694544953391
 20
-310.41011909664371
 30
0.0
 11
-22.41305455046518
 21
-310.41011909664371
 31
0.0
  0
LINE
  5
1AE2C
  8
01
 10
-37.413054550466093
 20
-308.91011909664371
 30
0.0
 11
-37.413054550466093
 21
-305.41011909664383
 31
0.0
  0
LINE
  5
1AE2D
  8
01
 10
362.5869454495342
 20
-308.91011909664371
 30
0.0
 11
362.5869454495342
 21
-305.41011909664388
 31
0.0
  0
LINE
  5
1AE30
  8
01
 10
362.5869454495342
 20
-308.91011909664371
 30
0.0
 11
-37.413054550466093
 21
-308.91011909664371
 31
0.0
  0
LINE
  5
1AE31
  8
01
 10
347.58694544953391
 20
-310.41011909664371
 30
0.0
 11
362.5869454495342
 21
-308.91011909664371
 31
0.0
  0
LINE
  5
1AE32
  8
01
 10
-37.413054550466093
 20
-308.91011909664371
 30
0.0
 11
-22.41305455046518
 21
-310.41011909664371
 31
0.0
  0
LINE
  5
1B069
  8
1DIM
 10
359.58694544953443
 20
-445.65557014451002
 30
0.0
 11
430.58694544953431
 21
-445.65557014451008
 31
0.0
  0
LINE
  5
1B06A
  8
1DIM
 10
359.58694544953443
 20
-1145.65557014451
 30
0.0
 11
430.58694544953431
 21
-1145.65557014451
 31
0.0
  0
LINE
  5
1B06B
  8
1DIM
 10
427.58694544953431
 20
-451.65557014451008
 30
0.0
 11
427.5869454495342
 21
-1139.65557014451
 31
0.0
  0
LINE
  5
1B06F
  8
1DIM
 10
62.862681448032838
 20
-545.79363052634369
 30
0.0
 11
62.862681448032852
 21
-397.65557014450729
 31
0.0
  0
LINE
  5
1B070
  8
1DIM
 10
262.8626814480333
 20
-544.79363052634289
 30
0.0
 11
262.8626814480333
 21
-397.65557014450729
 31
0.0
  0
LINE
  5
1B071
  8
1DIM
 10
68.862681448032845
 20
-400.65557014450729
 30
0.0
 11
256.8626814480333
 21
-400.65557014450729
 31
0.0
  0
TEXT
  5
1B075
  8
1DIM
 10
444.33199981351089
 20
-388.4409806414742
 30
0.0
 40
14.0
  1
材料：ガラス
  0
SOLID
  5
1B076
  8
1DIM
 10
618.8740668198617
 20
-478.91511389347198
 30
0.0
 11
619.9142221685222
 21
-480.65557014450621
 31
0.0
 12
618.36581913567011
 22
-479.34654029039069
 32
0.0
 13
618.36581913567011
 23
-479.34654029039069
 33
0.0
  0
LINE
  5
1B078
  8
1DIM
 10
634.4142221685189
 20
-416.92225800415821
 30
0.0
 11
634.4142221685189
 21
-357.65557014450621
 31
0.0
  0
LINE
  5
1B079
  8
1DIM
 10
618.91422216852175
 20
-445.65557014451002
 30
0.0
 11
618.91422216852175
 21
-357.65557014450621
 31
0.0
  0
LINE
  5
1B07A
  8
1DIM
 10
640.41422216851902
 20
-360.65557014450621
 30
0.0
 11
646.41422216851902
 21
-360.65557014450621
 31
0.0
  0
LINE
  5
1B07B
  8
1DIM
 10
612.91422216852175
 20
-360.65557014450621
 30
0.0
 11
572.21422216852159
 21
-360.65557014450621
 31
0.0
  0
LINE
  5
1B07C
  8
1DIM
 10
634.4142221685189
 20
-360.65557014450621
 30
0.0
 11
618.91422216852175
 21
-360.65557014450621
 31
0.0
  0
LINE
  5
1B080
  8
1DIM
 10
618.91422216852175
 20
-445.65557014451002
 30
0.0
 11
618.91422216852175
 21
-377.65557014450621
 31
0.0
  0
LINE
  5
1B081
  8
1DIM
 10
623.9142221685222
 20
-460.65557014450621
 30
0.0
 11
623.9142221685222
 21
-377.65557014450621
 31
0.0
  0
LINE
  5
1B082
  8
1DIM
 10
629.91422216852209
 20
-380.65557014450621
 30
0.0
 11
635.9142221685222
 21
-380.65557014450621
 31
0.0
  0
LINE
  5
1B083
  8
1DIM
 10
612.91422216852175
 20
-380.65557014450621
 30
0.0
 11
589.2142221685217
 21
-380.65557014450621
 31
0.0
  0
LINE
  5
1B084
  8
1DIM
 10
623.9142221685222
 20
-380.65557014450621
 30
0.0
 11
618.91422216852175
 21
-380.65557014450621
 31
0.0
  0
TEXT
  5
1B08A
  8
1DIM
 10
679.05073584492345
 20
-357.48351206827988
 30
0.0
 40
14.0
  1
合板9ｍｍ以上
  0
SOLID
  5
1B08B
  8
1DIM
 10
648.81757066676471
 20
-413.27891545991832
 30
0.0
 11
647.61648892197309
 21
-414.91247407638713
 31
0.0
 12
648.22284453467796
 22
-412.9776759003355
 32
0.0
 13
648.22284453467796
 23
-412.9776759003355
 33
0.0
  0
TEXT
  5
1B08D
  8
1DIM
 10
681.83598857755567
 20
-332.06506397640959
 30
0.0
 40
14.0
  1
PB
  0
SOLID
  5
1B08E
  8
1DIM
 10
639.29097499867873
 20
-412.67722049074359
 30
0.0
 11
638.09411250332278
 21
-414.31387295181207
 31
0.0
 12
638.6954735250697
 22
-412.37751657122641
 32
0.0
 13
638.6954735250697
 23
-412.37751657122641
 33
0.0
  0
LINE
  5
1B090
  8
1DIM
 10
623.9142221685222
 20
-445.65557014451002
 30
0.0
 11
697.93483872012052
 21
-445.65557014451008
 31
0.0
  0
LINE
  5
1B091
  8
1DIM
 10
659.87513675967762
 20
-596.65556699615513
 30
0.0
 11
697.93483872012052
 21
-596.65556699615513
 31
0.0
  0
LINE
  5
1B092
  8
1DIM
 10
694.93483872012041
 20
-451.65557014451008
 30
0.0
 11
694.93483872012041
 21
-590.65556699615513
 31
0.0
  0
LINE
  5
1B096
  8
1DIM
 10
660.77513675967725
 20
-596.65556699615513
 30
0.0
 11
697.99512728739694
 21
-596.65556699615513
 31
0.0
  0
LINE
  5
1B097
  8
1DIM
 10
660.77513675966998
 20
-616.65557014451042
 30
0.0
 11
697.99512728739694
 21
-616.65557014451042
 31
0.0
  0
LINE
  5
1B098
  8
1DIM
 10
694.99512728739694
 20
-602.65556699615513
 30
0.0
 11
694.99512728739694
 21
-610.65557014451031
 31
0.0
  0
LINE
  5
1B099
  8
1DIM
 10
694.99512728739694
 20
-616.65557014451042
 30
0.0
 11
694.99512728739694
 21
-653.11831235193722
 31
0.0
  0
LINE
  5
1B09F
  8
1DIM
 10
362.58694544953443
 20
-448.65557014451008
 30
0.0
 11
362.58694544953443
 21
-377.65557014450741
 31
0.0
  0
LINE
  5
1B0A0
  8
1DIM
 10
-37.413054550466093
 20
-448.65557014451008
 30
0.0
 11
-37.413054550466079
 21
-377.65557014450741
 31
0.0
  0
LINE
  5
1B0A1
  8
1DIM
 10
356.58694544953443
 20
-380.65557014450729
 30
0.0
 11
-31.413054550466079
 21
-380.65557014450729
 31
0.0
  0
TEXT
  5
1B0A5
  8
1DIM
 10
150.33694544953411
 20
-378.55557014450733
 30
0.0
 40
10.5
  1
400
  0
LINE
  5
1B0A6
  8
0
  6
BYBLOCK
 10
-31.413054550466079
 20
-382.26326528450733
 30
0.0
 11
-37.413054550466079
 21
-380.65557014450729
 31
0.0
  0
LINE
  5
1B0A7
  8
0
  6
BYBLOCK
 10
-37.413054550466079
 20
-380.65557014450729
 30
0.0
 11
-31.413054550466079
 21
-379.04787500450738
 31
0.0
  0
LINE
  5
1B0A8
  8
0
  6
BYBLOCK
 10
-37.413054550466079
 20
-380.65557014450729
 30
0.0
 11
-31.413054550466079
 21
-380.65557014450729
 31
0.0
  0
LINE
  5
1B0A9
  8
0
  6
BYBLOCK
 10
356.58694544953443
 20
-379.04787500450738
 30
0.0
 11
362.58694544953443
 21
-380.65557014450729
 31
0.0
  0
LINE
  5
1B0AA
  8
0
  6
BYBLOCK
 10
362.58694544953443
 20
-380.65557014450729
 30
0.0
 11
356.58694544953443
 21
-382.26326528450733
 31
0.0
  0
LINE
  5
1B0AB
  8
0
  6
BYBLOCK
 10
362.58694544953443
 20
-380.65557014450729
 30
0.0
 11
356.58694544953443
 21
-380.65557014450729
 31
0.0
  0
LINE
  5
1B0AD
  8
0
 10
655.71422471469123
 20
-595.56124318216007
 30
0.0
 11
656.5142201487422
 21
-597.52357827103538
 31
0.0
  0
LINE
  5
1B0AE
  8
1CENTER
 10
660.77513675967737
 20
-596.65556699615513
 30
0.0
 11
628.47561718608745
 21
-596.65556699615513
 31
0.0
  0
LINE
  5
1B0AF
  8
0
 10
656.5142201487422
 20
-597.52357827103538
 30
0.0
 11
656.82599000499431
 21
-596.93530169599308
 31
0.0
  0
LINE
  5
1B0B0
  8
0
 10
633.31422682190123
 20
-594.65561353205305
 30
0.0
 11
634.11421751471948
 21
-598.65561353205305
 31
0.0
  0
LINE
  5
1B0B1
  8
0
 10
644.51422682190559
 20
-594.65561353205305
 30
0.0
 11
645.31421751472817
 21
-598.65561353205305
 31
0.0
  0
LINE
  5
1B0B2
  8
0
 10
646.11422682190573
 20
-594.65561353205305
 30
0.0
 11
646.91421751472831
 21
-598.65561353205305
 31
0.0
  0
LINE
  5
1B0B3
  8
0
 10
646.01422565850862
 20
-595.15561353205305
 30
0.0
 11
646.11422682190573
 21
-594.65561353205305
 31
0.0
  0
LINE
  5
1B0B4
  8
0
 10
647.61422565850853
 20
-595.15561353205305
 30
0.0
 11
647.71422682190564
 21
-594.65561353205305
 31
0.0
  0
LINE
  5
1B0B5
  8
0
 10
646.91421751472831
 20
-598.65561353205305
 30
0.0
 11
647.01421867812542
 21
-598.15561353205305
 31
0.0
  0
LINE
  5
1B0B6
  8
0
 10
645.31421751472817
 20
-598.65561353205305
 30
0.0
 11
645.41421867812539
 21
-598.15561353205305
 31
0.0
  0
LINE
  5
1B0B7
  8
0
 10
649.21422565850844
 20
-595.15561353205305
 30
0.0
 11
649.31422682190555
 21
-594.65561353205305
 31
0.0
  0
LINE
  5
1B0B8
  8
0
 10
648.51421751472822
 20
-598.65561353205305
 30
0.0
 11
648.61421867812544
 21
-598.15561353205305
 31
0.0
  0
LINE
  5
1B0B9
  8
0
 10
647.71422682190564
 20
-594.65561353205305
 30
0.0
 11
648.51421751472822
 21
-598.65561353205305
 31
0.0
  0
LINE
  5
1B0BA
  8
0
 10
652.51422682190559
 20
-594.65561353205305
 30
0.0
 11
653.31421804153092
 21
-598.42920647984897
 31
0.0
  0
LINE
  5
1B0BB
  8
0
 10
650.91422682190569
 20
-594.65561353205305
 30
0.0
 11
651.71421751472826
 21
-598.65561353205305
 31
0.0
  0
LINE
  5
1B0BC
  8
0
 10
654.11422576829546
 20
-595.10842967411168
 30
0.0
 11
654.91421909513645
 21
-597.97639237544229
 31
0.0
  0
LINE
  5
1B0BD
  8
0
 10
655.56278891825082
 20
-596.01841502279115
 30
0.0
 11
655.71422471469123
 21
-595.56124318216007
 31
0.0
  0
LINE
  5
1B0BE
  8
0
 10
652.41422565850849
 20
-595.15561353205305
 30
0.0
 11
652.51422682190559
 21
-594.65561353205305
 31
0.0
  0
LINE
  5
1B0BF
  8
0
 10
650.81422565850846
 20
-595.15561353205305
 30
0.0
 11
650.91422682190569
 21
-594.65561353205305
 31
0.0
  0
LINE
  5
1B0C0
  8
0
 10
654.00145625594541
 20
-595.57652812926176
 30
0.0
 11
654.11422576829546
 21
-595.10842967411168
 31
0.0
  0
LINE
  5
1B0C1
  8
0
 10
653.31421804153092
 20
-598.42920647984897
 30
0.0
 11
653.44348873916078
 21
-597.89261274457795
 31
0.0
  0
LINE
  5
1B0C2
  8
0
 10
650.11421751472824
 20
-598.65561353205305
 30
0.0
 11
650.21421867812523
 21
-598.15561353205305
 31
0.0
  0
LINE
  5
1B0C3
  8
0
 10
651.71421751472826
 20
-598.65561353205305
 30
0.0
 11
651.81421867812526
 21
-598.15561353205305
 31
0.0
  0
LINE
  5
1B0C4
  8
0
 10
654.91421909513645
 20
-597.97639237544229
 30
0.0
 11
655.09698323776456
 21
-597.42464291163901
 31
0.0
  0
LINE
  5
1B0C5
  8
0
 10
649.31422682190555
 20
-594.65561353205305
 30
0.0
 11
650.11421751472824
 21
-598.65561353205305
 31
0.0
  0
LINE
  5
1B0C6
  8
0
 10
634.91422682190114
 20
-594.65561353205305
 30
0.0
 11
635.71421751471939
 21
-598.65561353205305
 31
0.0
  0
LINE
  5
1B0C7
  8
0
 10
634.81422565850346
 20
-595.15561353205305
 30
0.0
 11
634.91422682190114
 21
-594.65561353205305
 31
0.0
  0
LINE
  5
1B0C8
  8
0
 10
636.4142256585036
 20
-595.15561353205305
 30
0.0
 11
636.51422682190116
 21
-594.65561353205305
 31
0.0
  0
LINE
  5
1B0C9
  8
0
 10
634.11421751471948
 20
-598.65561353205305
 30
0.0
 11
634.21421867811705
 21
-598.15561353205305
 31
0.0
  0
LINE
  5
1B0CA
  8
0
 10
635.71421751471939
 20
-598.65561353205305
 30
0.0
 11
635.81421867811696
 21
-598.15561353205305
 31
0.0
  0
LINE
  5
1B0CB
  8
0
 10
638.01422565850794
 20
-595.15561353205305
 30
0.0
 11
638.11422682190562
 21
-594.65561353205305
 31
0.0
  0
LINE
  5
1B0CC
  8
0
 10
637.31421751471953
 20
-598.65561353205305
 30
0.0
 11
637.41421867811709
 21
-598.15561353205305
 31
0.0
  0
LINE
  5
1B0CD
  8
0
 10
636.51422682190116
 20
-594.65561353205305
 30
0.0
 11
637.31421751471953
 21
-598.65561353205305
 31
0.0
  0
LINE
  5
1B0CE
  8
0
 10
639.71422682190553
 20
-594.65561353205305
 30
0.0
 11
640.51421751472367
 21
-598.65561353205305
 31
0.0
  0
LINE
  5
1B0CF
  8
0
 10
642.91422682190569
 20
-594.65561353205305
 30
0.0
 11
643.71421751472826
 21
-598.65561353205305
 31
0.0
  0
LINE
  5
1B0D0
  8
0
 10
641.31422682190555
 20
-594.65561353205305
 30
0.0
 11
642.11421751472392
 21
-598.65561353205305
 31
0.0
  0
LINE
  5
1B0D1
  8
0
 10
641.21422565850787
 20
-595.15561353205305
 30
0.0
 11
641.31422682190555
 21
-594.65561353205305
 31
0.0
  0
LINE
  5
1B0D2
  8
0
 10
639.61422565850785
 20
-595.15561353205305
 30
0.0
 11
639.71422682190553
 21
-594.65561353205305
 31
0.0
  0
LINE
  5
1B0D3
  8
0
 10
642.81422565850778
 20
-595.15561353205305
 30
0.0
 11
642.91422682190569
 21
-594.65561353205305
 31
0.0
  0
LINE
  5
1B0D4
  8
0
 10
644.41422565850837
 20
-595.15561353205305
 30
0.0
 11
644.51422682190559
 21
-594.65561353205305
 31
0.0
  0
LINE
  5
1B0D5
  8
0
 10
640.51421751472367
 20
-598.65561353205305
 30
0.0
 11
640.61421867812135
 21
-598.15561353205305
 31
0.0
  0
LINE
  5
1B0D6
  8
0
 10
638.91421751472376
 20
-598.65561353205305
 30
0.0
 11
639.01421867812155
 21
-598.15561353205305
 31
0.0
  0
LINE
  5
1B0D7
  8
0
 10
643.71421751472826
 20
-598.65561353205305
 30
0.0
 11
643.81421867812526
 21
-598.15561353205305
 31
0.0
  0
LINE
  5
1B0D8
  8
0
 10
642.11421751472392
 20
-598.65561353205305
 30
0.0
 11
642.2142186781216
 21
-598.15561353205305
 31
0.0
  0
LINE
  5
1B0D9
  8
0
 10
638.11422682190562
 20
-594.65561353205305
 30
0.0
 11
638.91421751472376
 21
-598.65561353205305
 31
0.0
  0
LINE
  5
1B0DA
  8
0
 10
632.81421867823076
 20
-598.15561353205305
 30
0.0
 11
632.81422565861556
 21
-595.15561353205317
 31
0.0
  0
LINE
  5
1B0DB
  8
0
 10
633.21422565850355
 20
-595.15561353205305
 30
0.0
 11
633.31422682190123
 21
-594.65561353205305
 31
0.0
  0
LINE
  5
1B0DD
  8
0
 10
655.71422471468395
 20
-615.56124633051525
 30
0.0
 11
656.51422014873492
 21
-617.52358141939067
 31
0.0
  0
LINE
  5
1B0DE
  8
1CENTER
 10
660.77513675967009
 20
-616.65557014451042
 30
0.0
 11
628.47561718608017
 21
-616.65557014451042
 31
0.0
  0
LINE
  5
1B0DF
  8
0
 10
656.51422014873492
 20
-617.52358141939067
 30
0.0
 11
656.82599000498703
 21
-616.93530484434825
 31
0.0
  0
LINE
  5
1B0E0
  8
0
 10
633.31422682189395
 20
-614.65561668040834
 30
0.0
 11
634.11421751471221
 21
-618.65561668040834
 31
0.0
  0
LINE
  5
1B0E1
  8
0
 10
644.51422682189832
 20
-614.65561668040834
 30
0.0
 11
645.31421751472089
 21
-618.65561668040834
 31
0.0
  0
LINE
  5
1B0E2
  8
0
 10
646.11422682189846
 20
-614.65561668040834
 30
0.0
 11
646.91421751472103
 21
-618.65561668040834
 31
0.0
  0
LINE
  5
1B0E3
  8
0
 10
646.01422565850135
 20
-615.15561668040834
 30
0.0
 11
646.11422682189846
 21
-614.65561668040834
 31
0.0
  0
LINE
  5
1B0E4
  8
0
 10
647.61422565850125
 20
-615.15561668040834
 30
0.0
 11
647.71422682189825
 21
-614.65561668040834
 31
0.0
  0
LINE
  5
1B0E5
  8
0
 10
646.91421751472103
 20
-618.65561668040834
 30
0.0
 11
647.01421867811814
 21
-618.15561668040834
 31
0.0
  0
LINE
  5
1B0E6
  8
0
 10
645.31421751472089
 20
-618.65561668040834
 30
0.0
 11
645.41421867811812
 21
-618.15561668040834
 31
0.0
  0
LINE
  5
1B0E7
  8
0
 10
649.21422565850116
 20
-615.15561668040834
 30
0.0
 11
649.31422682189827
 21
-614.65561668040834
 31
0.0
  0
LINE
  5
1B0E8
  8
0
 10
648.51421751472094
 20
-618.65561668040834
 30
0.0
 11
648.61421867811805
 21
-618.15561668040834
 31
0.0
  0
LINE
  5
1B0E9
  8
0
 10
647.71422682189825
 20
-614.65561668040834
 30
0.0
 11
648.51421751472094
 21
-618.65561668040834
 31
0.0
  0
LINE
  5
1B0EA
  8
0
 10
652.51422682189832
 20
-614.65561668040834
 30
0.0
 11
653.31421804152365
 21
-618.42920962820426
 31
0.0
  0
LINE
  5
1B0EB
  8
0
 10
650.91422682189841
 20
-614.65561668040834
 30
0.0
 11
651.71421751472099
 21
-618.65561668040834
 31
0.0
  0
LINE
  5
1B0EC
  8
0
 10
654.11422576828807
 20
-615.10843282246697
 30
0.0
 11
654.91421909512917
 21
-617.97639552379758
 31
0.0
  0
LINE
  5
1B0ED
  8
0
 10
655.56278891824354
 20
-616.01841817114644
 30
0.0
 11
655.71422471468395
 21
-615.56124633051525
 31
0.0
  0
LINE
  5
1B0EE
  8
0
 10
652.41422565850121
 20
-615.15561668040834
 30
0.0
 11
652.51422682189832
 21
-614.65561668040834
 31
0.0
  0
LINE
  5
1B0EF
  8
0
 10
650.8142256585013
 20
-615.15561668040834
 30
0.0
 11
650.91422682189841
 21
-614.65561668040834
 31
0.0
  0
LINE
  5
1B0F0
  8
0
 10
654.00145625593814
 20
-615.57653127761705
 30
0.0
 11
654.11422576828807
 21
-615.10843282246697
 31
0.0
  0
LINE
  5
1B0F1
  8
0
 10
653.31421804152365
 20
-618.42920962820426
 30
0.0
 11
653.44348873915351
 21
-617.89261589293324
 31
0.0
  0
LINE
  5
1B0F2
  8
0
 10
650.11421751472085
 20
-618.65561668040834
 30
0.0
 11
650.21421867811785
 21
-618.15561668040834
 31
0.0
  0
LINE
  5
1B0F3
  8
0
 10
651.71421751472099
 20
-618.65561668040834
 30
0.0
 11
651.81421867811798
 21
-618.15561668040834
 31
0.0
  0
LINE
  5
1B0F4
  8
0
 10
654.91421909512917
 20
-617.97639552379758
 30
0.0
 11
655.09698323775729
 21
-617.4246460599943
 31
0.0
  0
LINE
  5
1B0F5
  8
0
 10
649.31422682189827
 20
-614.65561668040834
 30
0.0
 11
650.11421751472085
 21
-618.65561668040834
 31
0.0
  0
LINE
  5
1B0F6
  8
0
 10
634.91422682189386
 20
-614.65561668040834
 30
0.0
 11
635.71421751471212
 21
-618.65561668040834
 31
0.0
  0
LINE
  5
1B0F7
  8
0
 10
634.81422565849618
 20
-615.15561668040834
 30
0.0
 11
634.91422682189386
 21
-614.65561668040834
 31
0.0
  0
LINE
  5
1B0F8
  8
0
 10
636.41422565849632
 20
-615.15561668040834
 30
0.0
 11
636.514226821894
 21
-614.65561668040834
 31
0.0
  0
LINE
  5
1B0F9
  8
0
 10
634.11421751471221
 20
-618.65561668040834
 30
0.0
 11
634.21421867810977
 21
-618.15561668040834
 31
0.0
  0
LINE
  5
1B0FA
  8
0
 10
635.71421751471212
 20
-618.65561668040834
 30
0.0
 11
635.8142186781098
 21
-618.15561668040834
 31
0.0
  0
LINE
  5
1B0FB
  8
0
 10
638.01422565850055
 20
-615.15561668040834
 30
0.0
 11
638.11422682189834
 21
-614.65561668040834
 31
0.0
  0
LINE
  5
1B0FC
  8
0
 10
637.31421751471225
 20
-618.65561668040834
 30
0.0
 11
637.41421867810993
 21
-618.15561668040834
 31
0.0
  0
LINE
  5
1B0FD
  8
0
 10
636.514226821894
 20
-614.65561668040834
 30
0.0
 11
637.31421751471225
 21
-618.65561668040834
 31
0.0
  0
LINE
  5
1B0FE
  8
0
 10
639.71422682189825
 20
-614.65561668040834
 30
0.0
 11
640.51421751471639
 21
-618.65561668040834
 31
0.0
  0
LINE
  5
1B0FF
  8
0
 10
642.91422682189841
 20
-614.65561668040834
 30
0.0
 11
643.71421751472099
 21
-618.65561668040834
 31
0.0
  0
LINE
  5
1B100
  8
0
 10
641.31422682189827
 20
-614.65561668040834
 30
0.0
 11
642.11421751471664
 21
-618.65561668040834
 31
0.0
  0
LINE
  5
1B101
  8
0
 10
641.2142256585006
 20
-615.15561668040834
 30
0.0
 11
641.31422682189827
 21
-614.65561668040834
 31
0.0
  0
LINE
  5
1B102
  8
0
 10
639.61422565850046
 20
-615.15561668040834
 30
0.0
 11
639.71422682189825
 21
-614.65561668040834
 31
0.0
  0
LINE
  5
1B103
  8
0
 10
642.8142256585005
 20
-615.15561668040834
 30
0.0
 11
642.91422682189841
 21
-614.65561668040834
 31
0.0
  0
LINE
  5
1B104
  8
0
 10
644.41422565850121
 20
-615.15561668040834
 30
0.0
 11
644.51422682189832
 21
-614.65561668040834
 31
0.0
  0
LINE
  5
1B105
  8
0
 10
640.51421751471639
 20
-618.65561668040834
 30
0.0
 11
640.61421867811407
 21
-618.15561668040834
 31
0.0
  0
LINE
  5
1B106
  8
0
 10
638.91421751471648
 20
-618.65561668040834
 30
0.0
 11
639.01421867811416
 21
-618.15561668040834
 31
0.0
  0
LINE
  5
1B107
  8
0
 10
643.71421751472099
 20
-618.65561668040834
 30
0.0
 11
643.81421867811798
 21
-618.15561668040834
 31
0.0
  0
LINE
  5
1B108
  8
0
 10
642.11421751471664
 20
-618.65561668040834
 30
0.0
 11
642.21421867811432
 21
-618.15561668040834
 31
0.0
  0
LINE
  5
1B109
  8
0
 10
638.11422682189834
 20
-614.65561668040834
 30
0.0
 11
638.91421751471648
 21
-618.65561668040834
 31
0.0
  0
LINE
  5
1B10A
  8
0
 10
632.8142186782236
 20
-618.15561668040834
 30
0.0
 11
632.81422565860817
 21
-615.15561668040846
 31
0.0
  0
LINE
  5
1B10B
  8
0
 10
633.21422565849628
 20
-615.15561668040834
 30
0.0
 11
633.31422682189395
 21
-614.65561668040834
 31
0.0
  0
TEXT
  5
1B10C
  8
1DIM
 10
692.89512728739703
 20
-650.39331235193697
 30
0.0
 40
10.5
  1
20 
 50
90.0
  0
LINE
  5
1B10D
  8
0
  6
BYBLOCK
 10
696.60282242739686
 20
-610.65557014451031
 30
0.0
 11
694.99512728739694
 21
-616.65557014451042
 31
0.0
  0
LINE
  5
1B10E
  8
0
  6
BYBLOCK
 10
694.99512728739694
 20
-616.65557014451042
 30
0.0
 11
693.38743214739691
 21
-610.65557014451031
 31
0.0
  0
LINE
  5
1B10F
  8
0
  6
BYBLOCK
 10
694.99512728739694
 20
-616.65557014451042
 30
0.0
 11
694.99512728739694
 21
-610.65557014451031
 31
0.0
  0
LINE
  5
1B110
  8
0
  6
BYBLOCK
 10
693.38743214739691
 20
-602.65556699615513
 30
0.0
 11
694.99512728739694
 21
-596.65556699615513
 31
0.0
  0
LINE
  5
1B111
  8
0
  6
BYBLOCK
 10
694.99512728739694
 20
-596.65556699615513
 30
0.0
 11
696.60282242739686
 21
-602.65556699615513
 31
0.0
  0
LINE
  5
1B112
  8
0
  6
BYBLOCK
 10
694.99512728739694
 20
-596.65556699615513
 30
0.0
 11
694.99512728739694
 21
-602.65556699615513
 31
0.0
  0
TEXT
  5
1B113
  8
1DIM
 10
692.8348387201205
 20
-531.65556857033243
 30
0.0
 40
10.5
  1
151 
 50
90.0
  0
LINE
  5
1B114
  8
0
  6
BYBLOCK
 10
696.54253386012056
 20
-590.65556699615513
 30
0.0
 11
694.93483872012041
 21
-596.65556699615513
 31
0.0
  0
LINE
  5
1B115
  8
0
  6
BYBLOCK
 10
694.93483872012041
 20
-596.65556699615513
 30
0.0
 11
693.32714358012049
 21
-590.65556699615513
 31
0.0
  0
LINE
  5
1B116
  8
0
  6
BYBLOCK
 10
694.93483872012041
 20
-596.65556699615513
 30
0.0
 11
694.93483872012041
 21
-590.65556699615513
 31
0.0
  0
LINE
  5
1B117
  8
0
  6
BYBLOCK
 10
693.32714358012049
 20
-451.65557014451008
 30
0.0
 11
694.93483872012041
 21
-445.65557014451008
 31
0.0
  0
LINE
  5
1B118
  8
0
  6
BYBLOCK
 10
694.93483872012041
 20
-445.65557014451008
 30
0.0
 11
696.54253386012056
 21
-451.65557014451008
 31
0.0
  0
LINE
  5
1B119
  8
0
  6
BYBLOCK
 10
694.93483872012041
 20
-445.65557014451008
 30
0.0
 11
694.93483872012041
 21
-451.65557014451008
 31
0.0
  0
LINE
  5
1B11A
  8
1DIM
 10
638.99322426187416
 20
-412.52736853098497
 30
0.0
 11
679.13598857755574
 21
-332.76506397640969
 31
0.0
  0
LINE
  5
1B11B
  8
1DIM
 10
679.13598857755574
 20
-332.76506397640969
 30
0.0
 11
705.16932191088904
 21
-332.76506397640969
 31
0.0
  0
LINE
  5
1B11C
  8
1DIM
 10
648.52020760072128
 20
-413.12829568012688
 30
0.0
 11
676.35073584492352
 21
-358.18351206827992
 31
0.0
  0
LINE
  5
1B11D
  8
1DIM
 10
676.35073584492352
 20
-358.18351206827992
 30
0.0
 11
789.45073584492354
 21
-358.18351206827992
 31
0.0
  0
LINE
  5
1B11F
  8
0
 10
61.768357634037791
 20
-273.60712819005812
 30
0.0
 11
63.730692722913211
 21
-272.80713275600709
 31
0.0
  0
LINE
  5
1B120
  8
1CENTER
 10
62.862681448032852
 20
-268.54621614507181
 30
0.0
 11
62.862681448032838
 21
-300.84573571866179
 31
0.0
  0
LINE
  5
1B121
  8
0
 10
63.730692722913211
 20
-272.80713275600709
 30
0.0
 11
63.14241614787079
 21
-272.49536289975498
 31
0.0
  0
LINE
  5
1B122
  8
0
 10
60.862727983930768
 20
-296.00712608284812
 30
0.0
 11
64.862727983930768
 21
-295.2071353900298
 31
0.0
  0
LINE
  5
1B123
  8
0
 10
60.862727983930768
 20
-284.80712608284369
 30
0.0
 11
64.862727983930768
 21
-284.00713539002112
 31
0.0
  0
LINE
  5
1B124
  8
0
 10
60.862727983930768
 20
-283.20712608284362
 30
0.0
 11
64.862727983930768
 21
-282.40713539002098
 31
0.0
  0
LINE
  5
1B125
  8
0
 10
61.36272798393076
 20
-283.30712724624073
 30
0.0
 11
60.862727983930768
 21
-283.20712608284362
 31
0.0
  0
LINE
  5
1B126
  8
0
 10
61.36272798393076
 20
-281.70712724624082
 30
0.0
 11
60.862727983930768
 21
-281.60712608284371
 31
0.0
  0
LINE
  5
1B127
  8
0
 10
64.862727983930768
 20
-282.40713539002098
 30
0.0
 11
64.362727983930753
 21
-282.30713422662387
 31
0.0
  0
LINE
  5
1B128
  8
0
 10
64.862727983930768
 20
-284.00713539002112
 30
0.0
 11
64.362727983930753
 21
-283.9071342266239
 31
0.0
  0
LINE
  5
1B129
  8
0
 10
61.36272798393076
 20
-280.10712724624079
 30
0.0
 11
60.862727983930768
 21
-280.00712608284363
 31
0.0
  0
LINE
  5
1B12A
  8
0
 10
64.862727983930768
 20
-280.80713539002107
 30
0.0
 11
64.362727983930753
 21
-280.70713422662391
 31
0.0
  0
LINE
  5
1B12B
  8
0
 10
60.862727983930768
 20
-281.60712608284371
 30
0.0
 11
64.862727983930768
 21
-280.80713539002107
 31
0.0
  0
LINE
  5
1B12C
  8
0
 10
60.862727983930768
 20
-276.80712608284369
 30
0.0
 11
64.6363209317268
 21
-276.00713486321843
 31
0.0
  0
LINE
  5
1B12D
  8
0
 10
60.862727983930768
 20
-278.4071260828436
 30
0.0
 11
64.862727983930768
 21
-277.60713539002103
 31
0.0
  0
LINE
  5
1B12E
  8
0
 10
61.315544125989511
 20
-275.20712713645378
 30
0.0
 11
64.183506827320002
 21
-274.40713380961267
 31
0.0
  0
LINE
  5
1B12F
  8
0
 10
62.225529474668868
 20
-273.75856398649847
 30
0.0
 11
61.768357634037791
 21
-273.60712819005812
 31
0.0
  0
LINE
  5
1B130
  8
0
 10
61.36272798393076
 20
-276.9071272462408
 30
0.0
 11
60.862727983930768
 21
-276.80712608284369
 31
0.0
  0
LINE
  5
1B131
  8
0
 10
61.36272798393076
 20
-278.50712724624071
 30
0.0
 11
60.862727983930768
 21
-278.4071260828436
 31
0.0
  0
LINE
  5
1B132
  8
0
 10
61.783642581139482
 20
-275.31989664880388
 30
0.0
 11
61.315544125989511
 21
-275.20712713645378
 31
0.0
  0
LINE
  5
1B133
  8
0
 10
64.6363209317268
 20
-276.00713486321843
 30
0.0
 11
64.09972719645566
 21
-275.87786416558851
 31
0.0
  0
LINE
  5
1B134
  8
0
 10
64.862727983930768
 20
-279.20713539002099
 30
0.0
 11
64.362727983930753
 21
-279.10713422662411
 31
0.0
  0
LINE
  5
1B135
  8
0
 10
64.862727983930768
 20
-277.60713539002103
 30
0.0
 11
64.362727983930753
 21
-277.50713422662392
 31
0.0
  0
LINE
  5
1B136
  8
0
 10
64.183506827320002
 20
-274.40713380961267
 30
0.0
 11
63.631757363516734
 21
-274.22436966698473
 31
0.0
  0
LINE
  5
1B137
  8
0
 10
60.862727983930768
 20
-280.00712608284363
 30
0.0
 11
64.862727983930768
 21
-279.20713539002099
 31
0.0
  0
LINE
  5
1B138
  8
0
 10
60.862727983930768
 20
-294.40712608284809
 30
0.0
 11
64.862727983930768
 21
-293.6071353900299
 31
0.0
  0
LINE
  5
1B139
  8
0
 10
61.36272798393076
 20
-294.50712724624577
 30
0.0
 11
60.862727983930768
 21
-294.40712608284809
 31
0.0
  0
LINE
  5
1B13A
  8
0
 10
61.36272798393076
 20
-292.90712724624569
 30
0.0
 11
60.862727983930768
 21
-292.80712608284801
 31
0.0
  0
LINE
  5
1B13B
  8
0
 10
64.862727983930768
 20
-295.2071353900298
 30
0.0
 11
64.362727983930753
 21
-295.10713422663213
 31
0.0
  0
LINE
  5
1B13C
  8
0
 10
64.862727983930768
 20
-293.6071353900299
 30
0.0
 11
64.362727983930753
 21
-293.50713422663222
 31
0.0
  0
LINE
  5
1B13D
  8
0
 10
61.36272798393076
 20
-291.30712724624129
 30
0.0
 11
60.862727983930768
 21
-291.20712608284367
 31
0.0
  0
LINE
  5
1B13E
  8
0
 10
64.862727983930768
 20
-292.0071353900297
 30
0.0
 11
64.362727983930753
 21
-291.90713422663208
 31
0.0
  0
LINE
  5
1B13F
  8
0
 10
60.862727983930768
 20
-292.80712608284801
 30
0.0
 11
64.862727983930768
 21
-292.0071353900297
 31
0.0
  0
LINE
  5
1B140
  8
0
 10
60.862727983930768
 20
-289.60712608284382
 30
0.0
 11
64.862727983930768
 21
-288.80713539002551
 31
0.0
  0
LINE
  5
1B141
  8
0
 10
60.862727983930768
 20
-286.4071260828436
 30
0.0
 11
64.862727983930768
 21
-285.60713539002103
 31
0.0
  0
LINE
  5
1B142
  8
0
 10
60.862727983930768
 20
-288.00712608284363
 30
0.0
 11
64.862727983930768
 21
-287.20713539002543
 31
0.0
  0
LINE
  5
1B143
  8
0
 10
61.36272798393076
 20
-288.1071272462413
 30
0.0
 11
60.862727983930768
 21
-288.00712608284363
 31
0.0
  0
LINE
  5
1B144
  8
0
 10
61.36272798393076
 20
-289.70712724624138
 30
0.0
 11
60.862727983930768
 21
-289.60712608284382
 31
0.0
  0
LINE
  5
1B145
  8
0
 10
61.36272798393076
 20
-286.5071272462414
 30
0.0
 11
60.862727983930768
 21
-286.4071260828436
 31
0.0
  0
LINE
  5
1B146
  8
0
 10
61.36272798393076
 20
-284.9071272462408
 30
0.0
 11
60.862727983930768
 21
-284.80712608284369
 31
0.0
  0
LINE
  5
1B147
  8
0
 10
64.862727983930768
 20
-288.80713539002551
 30
0.0
 11
64.362727983930753
 21
-288.70713422662777
 31
0.0
  0
LINE
  5
1B148
  8
0
 10
64.862727983930768
 20
-290.40713539002542
 30
0.0
 11
64.362727983930753
 21
-290.30713422662768
 31
0.0
  0
LINE
  5
1B149
  8
0
 10
64.862727983930768
 20
-285.60713539002103
 30
0.0
 11
64.362727983930753
 21
-285.50713422662392
 31
0.0
  0
LINE
  5
1B14A
  8
0
 10
64.862727983930768
 20
-287.20713539002543
 30
0.0
 11
64.362727983930753
 21
-287.10713422662769
 31
0.0
  0
LINE
  5
1B14B
  8
0
 10
60.862727983930768
 20
-291.20712608284367
 30
0.0
 11
64.862727983930768
 21
-290.40713539002542
 31
0.0
  0
LINE
  5
1B14C
  8
0
 10
64.362727983930753
 20
-296.50713422651847
 30
0.0
 11
61.362727983931002
 21
-296.50712724613379
 31
0.0
  0
LINE
  5
1B14D
  8
0
 10
61.36272798393076
 20
-296.1071272462458
 30
0.0
 11
60.862727983930768
 21
-296.00712608284812
 31
0.0
  0
LINE
  5
1B14F
  8
0
 10
261.76835763403801
 20
-273.60712819005721
 30
0.0
 11
263.73069272291337
 21
-272.80713275600618
 31
0.0
  0
LINE
  5
1B150
  8
1CENTER
 10
262.86268144803307
 20
-268.5462161450709
 30
0.0
 11
262.86268144803307
 21
-300.84573571866088
 31
0.0
  0
LINE
  5
1B151
  8
0
 10
263.73069272291337
 20
-272.80713275600618
 30
0.0
 11
263.14241614787102
 21
-272.49536289975413
 31
0.0
  0
LINE
  5
1B152
  8
0
 10
260.86272798393099
 20
-296.00712608284709
 30
0.0
 11
264.86272798393099
 21
-295.2071353900289
 31
0.0
  0
LINE
  5
1B153
  8
0
 10
260.86272798393099
 20
-284.80712608284279
 30
0.0
 11
264.86272798393099
 21
-284.00713539002021
 31
0.0
  0
LINE
  5
1B154
  8
0
 10
260.86272798393099
 20
-283.20712608284259
 30
0.0
 11
264.86272798393099
 21
-282.40713539002007
 31
0.0
  0
LINE
  5
1B155
  8
0
 10
261.36272798393099
 20
-283.3071272462397
 30
0.0
 11
260.86272798393099
 21
-283.20712608284259
 31
0.0
  0
LINE
  5
1B156
  8
0
 10
261.36272798393099
 20
-281.70712724623991
 30
0.0
 11
260.86272798393099
 21
-281.60712608284268
 31
0.0
  0
LINE
  5
1B157
  8
0
 10
264.86272798393099
 20
-282.40713539002007
 30
0.0
 11
264.36272798393099
 21
-282.30713422662302
 31
0.0
  0
LINE
  5
1B158
  8
0
 10
264.86272798393099
 20
-284.00713539002021
 30
0.0
 11
264.36272798393099
 21
-283.90713422662299
 31
0.0
  0
LINE
  5
1B159
  8
0
 10
261.36272798393099
 20
-280.10712724623988
 30
0.0
 11
260.86272798393099
 21
-280.00712608284272
 31
0.0
  0
LINE
  5
1B15A
  8
0
 10
264.86272798393099
 20
-280.80713539002011
 30
0.0
 11
264.36272798393099
 21
-280.707134226623
 31
0.0
  0
LINE
  5
1B15B
  8
0
 10
260.86272798393099
 20
-281.60712608284268
 30
0.0
 11
264.86272798393099
 21
-280.80713539002011
 31
0.0
  0
LINE
  5
1B15C
  8
0
 10
260.86272798393099
 20
-276.80712608284279
 30
0.0
 11
264.63632093172703
 21
-276.00713486321752
 31
0.0
  0
LINE
  5
1B15D
  8
0
 10
260.86272798393099
 20
-278.40712608284269
 30
0.0
 11
264.86272798393099
 21
-277.60713539002012
 31
0.0
  0
LINE
  5
1B15E
  8
0
 10
261.31554412598967
 20
-275.20712713645293
 30
0.0
 11
264.18350682732017
 21
-274.40713380961182
 31
0.0
  0
LINE
  5
1B15F
  8
0
 10
262.22552947466909
 20
-273.75856398649762
 30
0.0
 11
261.76835763403801
 21
-273.60712819005721
 31
0.0
  0
LINE
  5
1B160
  8
0
 10
261.36272798393099
 20
-276.9071272462399
 30
0.0
 11
260.86272798393099
 21
-276.80712608284279
 31
0.0
  0
LINE
  5
1B161
  8
0
 10
261.36272798393099
 20
-278.5071272462398
 30
0.0
 11
260.86272798393099
 21
-278.40712608284269
 31
0.0
  0
LINE
  5
1B162
  8
0
 10
261.7836425811397
 20
-275.31989664880302
 30
0.0
 11
261.31554412598967
 21
-275.20712713645293
 31
0.0
  0
LINE
  5
1B163
  8
0
 10
264.63632093172703
 20
-276.00713486321752
 30
0.0
 11
264.09972719645589
 21
-275.8778641655876
 31
0.0
  0
LINE
  5
1B164
  8
0
 10
264.86272798393099
 20
-279.2071353900202
 30
0.0
 11
264.36272798393099
 21
-279.10713422662309
 31
0.0
  0
LINE
  5
1B165
  8
0
 10
264.86272798393099
 20
-277.60713539002012
 30
0.0
 11
264.36272798393099
 21
-277.50713422662301
 31
0.0
  0
LINE
  5
1B166
  8
0
 10
264.18350682732017
 20
-274.40713380961182
 30
0.0
 11
263.63175736351701
 21
-274.22436966698382
 31
0.0
  0
LINE
  5
1B167
  8
0
 10
260.86272798393099
 20
-280.00712608284272
 30
0.0
 11
264.86272798393099
 21
-279.2071353900202
 31
0.0
  0
LINE
  5
1B168
  8
0
 10
260.86272798393099
 20
-294.40712608284718
 30
0.0
 11
264.86272798393099
 21
-293.60713539002899
 31
0.0
  0
LINE
  5
1B169
  8
0
 10
261.36272798393099
 20
-294.50712724624492
 30
0.0
 11
260.86272798393099
 21
-294.40712608284718
 31
0.0
  0
LINE
  5
1B16A
  8
0
 10
261.36272798393099
 20
-292.90712724624478
 30
0.0
 11
260.86272798393099
 21
-292.80712608284711
 31
0.0
  0
LINE
  5
1B16B
  8
0
 10
264.86272798393099
 20
-295.2071353900289
 30
0.0
 11
264.36272798393099
 21
-295.10713422663122
 31
0.0
  0
LINE
  5
1B16C
  8
0
 10
264.86272798393099
 20
-293.60713539002899
 30
0.0
 11
264.36272798393099
 21
-293.50713422663131
 31
0.0
  0
LINE
  5
1B16D
  8
0
 10
261.36272798393099
 20
-291.3071272462405
 30
0.0
 11
260.86272798393099
 21
-291.20712608284282
 31
0.0
  0
LINE
  5
1B16E
  8
0
 10
264.86272798393099
 20
-292.00713539002891
 30
0.0
 11
264.36272798393099
 21
-291.90713422663117
 31
0.0
  0
LINE
  5
1B16F
  8
0
 10
260.86272798393099
 20
-292.80712608284711
 30
0.0
 11
264.86272798393099
 21
-292.00713539002891
 31
0.0
  0
LINE
  5
1B170
  8
0
 10
260.86272798393099
 20
-289.60712608284291
 30
0.0
 11
264.86272798393099
 21
-288.8071353900246
 31
0.0
  0
LINE
  5
1B171
  8
0
 10
260.86272798393099
 20
-286.40712608284269
 30
0.0
 11
264.86272798393099
 21
-285.60713539002012
 31
0.0
  0
LINE
  5
1B172
  8
0
 10
260.86272798393099
 20
-288.00712608284272
 30
0.0
 11
264.86272798393099
 21
-287.20713539002452
 31
0.0
  0
LINE
  5
1B173
  8
0
 10
261.36272798393099
 20
-288.1071272462404
 30
0.0
 11
260.86272798393099
 21
-288.00712608284272
 31
0.0
  0
LINE
  5
1B174
  8
0
 10
261.36272798393099
 20
-289.70712724624047
 30
0.0
 11
260.86272798393099
 21
-289.60712608284291
 31
0.0
  0
LINE
  5
1B175
  8
0
 10
261.36272798393099
 20
-286.50712724624049
 30
0.0
 11
260.86272798393099
 21
-286.40712608284269
 31
0.0
  0
LINE
  5
1B176
  8
0
 10
261.36272798393099
 20
-284.9071272462399
 30
0.0
 11
260.86272798393099
 21
-284.80712608284279
 31
0.0
  0
LINE
  5
1B177
  8
0
 10
264.86272798393099
 20
-288.8071353900246
 30
0.0
 11
264.36272798393099
 21
-288.70713422662692
 31
0.0
  0
LINE
  5
1B178
  8
0
 10
264.86272798393099
 20
-290.40713539002451
 30
0.0
 11
264.36272798393099
 21
-290.30713422662677
 31
0.0
  0
LINE
  5
1B179
  8
0
 10
264.86272798393099
 20
-285.60713539002012
 30
0.0
 11
264.36272798393099
 21
-285.50713422662301
 31
0.0
  0
LINE
  5
1B17A
  8
0
 10
264.86272798393099
 20
-287.20713539002452
 30
0.0
 11
264.36272798393099
 21
-287.10713422662678
 31
0.0
  0
LINE
  5
1B17B
  8
0
 10
260.86272798393099
 20
-291.20712608284282
 30
0.0
 11
264.86272798393099
 21
-290.40713539002451
 31
0.0
  0
LINE
  5
1B17C
  8
0
 10
264.36272798393099
 20
-296.50713422651762
 30
0.0
 11
261.36272798393122
 21
-296.50712724613288
 31
0.0
  0
LINE
  5
1B17D
  8
0
 10
261.36272798393099
 20
-296.10712724624477
 30
0.0
 11
260.86272798393099
 21
-296.00712608284709
 31
0.0
  0
TEXT
  5
1B17E
  8
1DIM
 10
589.31422216852161
 20
-378.55557014450619
 30
0.0
 40
10.5
  1
t5 
  0
LINE
  5
1B17F
  8
0
  6
BYBLOCK
 10
612.91422216852175
 20
-379.04787500450618
 30
0.0
 11
618.91422216852175
 21
-380.65557014450621
 31
0.0
  0
LINE
  5
1B180
  8
0
  6
BYBLOCK
 10
618.91422216852175
 20
-380.65557014450621
 30
0.0
 11
612.91422216852175
 21
-382.26326528450619
 31
0.0
  0
LINE
  5
1B181
  8
0
  6
BYBLOCK
 10
618.91422216852175
 20
-380.65557014450621
 30
0.0
 11
612.91422216852175
 21
-380.65557014450621
 31
0.0
  0
LINE
  5
1B182
  8
0
  6
BYBLOCK
 10
629.91422216852209
 20
-382.26326528450619
 30
0.0
 11
623.9142221685222
 21
-380.65557014450621
 31
0.0
  0
LINE
  5
1B183
  8
0
  6
BYBLOCK
 10
623.9142221685222
 20
-380.65557014450621
 30
0.0
 11
629.91422216852209
 21
-379.04787500450618
 31
0.0
  0
LINE
  5
1B184
  8
0
  6
BYBLOCK
 10
623.9142221685222
 20
-380.65557014450621
 30
0.0
 11
629.91422216852209
 21
-380.65557014450621
 31
0.0
  0
TEXT
  5
1B185
  8
1DIM
 10
575.56422216852172
 20
-358.55557014450619
 30
0.0
 40
10.5
  1
15.5 
  0
LINE
  5
1B186
  8
0
  6
BYBLOCK
 10
612.91422216852175
 20
-359.0478750045063
 30
0.0
 11
618.91422216852175
 21
-360.65557014450621
 31
0.0
  0
LINE
  5
1B187
  8
0
  6
BYBLOCK
 10
618.91422216852175
 20
-360.65557014450621
 30
0.0
 11
612.91422216852175
 21
-362.26326528450619
 31
0.0
  0
LINE
  5
1B188
  8
0
  6
BYBLOCK
 10
618.91422216852175
 20
-360.65557014450621
 30
0.0
 11
612.91422216852175
 21
-360.65557014450621
 31
0.0
  0
LINE
  5
1B189
  8
0
  6
BYBLOCK
 10
640.41422216851902
 20
-362.26326528450619
 30
0.0
 11
634.4142221685189
 21
-360.65557014450621
 31
0.0
  0
LINE
  5
1B18A
  8
0
  6
BYBLOCK
 10
634.4142221685189
 20
-360.65557014450621
 30
0.0
 11
640.41422216851902
 21
-359.0478750045063
 31
0.0
  0
LINE
  5
1B18B
  8
0
  6
BYBLOCK
 10
634.4142221685189
 20
-360.65557014450621
 30
0.0
 11
640.41422216851902
 21
-360.65557014450621
 31
0.0
  0
LINE
  5
1B18C
  8
1DIM
 10
618.61994297776585
 20
-479.13082709193139
 30
0.0
 11
542.23199981351104
 21
-389.14098064147419
 31
0.0
  0
LINE
  5
1B18D
  8
1DIM
 10
542.23199981351104
 20
-389.14098064147419
 30
0.0
 11
442.46533314684427
 21
-389.14098064147419
 31
0.0
  0
TEXT
  5
1B18E
  8
1DIM
 10
150.6126814480331
 20
-398.55557014450733
 30
0.0
 40
10.5
  1
200 
  0
LINE
  5
1B18F
  8
0
  6
BYBLOCK
 10
256.8626814480333
 20
-399.04787500450738
 30
0.0
 11
262.8626814480333
 21
-400.65557014450729
 31
0.0
  0
LINE
  5
1B190
  8
0
  6
BYBLOCK
 10
262.8626814480333
 20
-400.65557014450729
 30
0.0
 11
256.8626814480333
 21
-402.26326528450733
 31
0.0
  0
LINE
  5
1B191
  8
0
  6
BYBLOCK
 10
262.8626814480333
 20
-400.65557014450729
 30
0.0
 11
256.8626814480333
 21
-400.65557014450729
 31
0.0
  0
LINE
  5
1B192
  8
0
  6
BYBLOCK
 10
68.862681448032845
 20
-402.26326528450733
 30
0.0
 11
62.862681448032852
 21
-400.65557014450729
 31
0.0
  0
LINE
  5
1B193
  8
0
  6
BYBLOCK
 10
62.862681448032852
 20
-400.65557014450729
 30
0.0
 11
68.862681448032845
 21
-399.04787500450738
 31
0.0
  0
LINE
  5
1B194
  8
0
  6
BYBLOCK
 10
62.862681448032852
 20
-400.65557014450729
 30
0.0
 11
68.862681448032845
 21
-400.65557014450729
 31
0.0
  0
TEXT
  5
1B195
  8
1DIM
 10
425.48694544953429
 20
-807.90557014450985
 30
0.0
 40
10.5
  1
700 
 50
90.0
  0
LINE
  5
1B196
  8
0
  6
BYBLOCK
 10
429.19464058953417
 20
-1139.65557014451
 30
0.0
 11
427.5869454495342
 21
-1145.65557014451
 31
0.0
  0
LINE
  5
1B197
  8
0
  6
BYBLOCK
 10
427.5869454495342
 20
-1145.65557014451
 30
0.0
 11
425.97925030953428
 21
-1139.65557014451
 31
0.0
  0
LINE
  5
1B198
  8
0
  6
BYBLOCK
 10
427.5869454495342
 20
-1145.65557014451
 30
0.0
 11
427.5869454495342
 21
-1139.65557014451
 31
0.0
  0
LINE
  5
1B199
  8
0
  6
BYBLOCK
 10
425.97925030953439
 20
-451.65557014451008
 30
0.0
 11
427.58694544953431
 21
-445.65557014451008
 31
0.0
  0
LINE
  5
1B19A
  8
0
  6
BYBLOCK
 10
427.58694544953431
 20
-445.65557014451008
 30
0.0
 11
429.19464058953429
 21
-451.65557014451008
 31
0.0
  0
LINE
  5
1B19B
  8
0
  6
BYBLOCK
 10
427.58694544953431
 20
-445.65557014451008
 30
0.0
 11
427.58694544953431
 21
-451.65557014451008
 31
0.0
  0
LINE
  5
1B19C
  8
0
 10
262.86272798393099
 20
-271.50713073637928
 30
0.0
 11
264.36272798393099
 21
-276.8071342266249
 31
0.0
  0
LINE
  5
1B19D
  8
0
 10
262.86272798393099
 20
-271.50713073637928
 30
0.0
 11
261.36272798393099
 21
-276.80712724624021
 31
0.0
  0
LINE
  5
1B19E
  8
0
 10
264.36272798393099
 20
-276.8071342266249
 30
0.0
 11
264.36272798393099
 21
-296.50713422651762
 31
0.0
  0
LINE
  5
1B19F
  8
0
 10
261.36272798393099
 20
-276.80712724624021
 30
0.0
 11
261.36272798393122
 21
-296.50712724613288
 31
0.0
  0
LINE
  5
1B1A0
  8
0
 10
264.36272798393099
 20
-296.50713422651762
 30
0.0
 11
266.36268144803307
 21
-296.5071388799991
 31
0.0
  0
LINE
  5
1B1A1
  8
0
 10
259.36268144803319
 20
-296.50712259243483
 30
0.0
 11
261.36272798393122
 21
-296.50712724613288
 31
0.0
  0
LINE
  5
1B1A2
  8
0
 10
266.36268144803307
 20
-296.5071388799991
 30
0.0
 11
266.36268144803307
 21
-297.60713538980968
 31
0.0
  0
LINE
  5
1B1A3
  8
0
 10
259.36268144803319
 20
-296.50712259243483
 30
0.0
 11
259.36268144803307
 21
-297.6071260826302
 31
0.0
  0
ARC
  5
1B1A4
  8
0
 10
264.86268144803307
 20
-297.60713538980968
 30
0.0
 40
1.5
 50
269.99986668447059
 51
0.0
  0
ARC
  5
1B1A5
  8
0
 10
260.86268144803307
 20
-297.6071260826302
 30
0.0
 40
1.5
 50
180.0
 51
269.99986668447059
  0
LINE
  5
1B1A6
  8
0
 10
260.86267795784067
 20
-299.107126082626
 30
0.0
 11
264.86267795784067
 21
-299.10713538980559
 31
0.0
  0
LINE
  5
1B1A7
  8
0
 10
62.862727983930782
 20
-271.50713073638019
 30
0.0
 11
64.362727983930753
 21
-276.80713422662581
 31
0.0
  0
LINE
  5
1B1A8
  8
0
 10
62.862727983930782
 20
-271.50713073638019
 30
0.0
 11
61.36272798393076
 21
-276.80712724624112
 31
0.0
  0
LINE
  5
1B1A9
  8
0
 10
64.362727983930753
 20
-276.80713422662581
 30
0.0
 11
64.362727983930753
 21
-296.50713422651847
 31
0.0
  0
LINE
  5
1B1AA
  8
0
 10
61.36272798393076
 20
-276.80712724624112
 30
0.0
 11
61.362727983931002
 21
-296.50712724613379
 31
0.0
  0
LINE
  5
1B1AB
  8
0
 10
64.362727983930753
 20
-296.50713422651847
 30
0.0
 11
66.362681448032845
 21
-296.50713888000001
 31
0.0
  0
LINE
  5
1B1AC
  8
0
 10
59.362681448032959
 20
-296.50712259243568
 30
0.0
 11
61.362727983931002
 21
-296.50712724613379
 31
0.0
  0
LINE
  5
1B1AD
  8
0
 10
66.362681448032845
 20
-296.50713888000001
 30
0.0
 11
66.362681448032845
 21
-297.60713538981059
 31
0.0
  0
LINE
  5
1B1AE
  8
0
 10
59.362681448032959
 20
-296.50712259243568
 30
0.0
 11
59.362681448032852
 21
-297.607126082631
 31
0.0
  0
ARC
  5
1B1AF
  8
0
 10
64.862681448032845
 20
-297.60713538981059
 30
0.0
 40
1.5
 50
269.99986668447059
 51
0.0
  0
ARC
  5
1B1B0
  8
0
 10
60.862681448032838
 20
-297.607126082631
 30
0.0
 40
1.5
 50
180.0
 51
269.99986668447059
  0
LINE
  5
1B1B1
  8
0
 10
60.862677957840447
 20
-299.10712608262702
 30
0.0
 11
64.862677957840447
 21
-299.10713538980661
 31
0.0
  0
LINE
  5
1B1B2
  8
0
 10
657.81422216836165
 20
-616.65561668040834
 30
0.0
 11
652.51421867811609
 21
-618.15561668040834
 31
0.0
  0
LINE
  5
1B1B3
  8
0
 10
657.81422216836165
 20
-616.65561668040834
 30
0.0
 11
652.51422565850089
 21
-615.15561668040834
 31
0.0
  0
LINE
  5
1B1B4
  8
0
 10
652.51421867811609
 20
-618.15561668040834
 30
0.0
 11
632.8142186782236
 21
-618.15561668040834
 31
0.0
  0
LINE
  5
1B1B5
  8
0
 10
652.51422565850089
 20
-615.15561668040834
 30
0.0
 11
632.81422565860817
 21
-615.15561668040846
 31
0.0
  0
LINE
  5
1B1B6
  8
0
 10
632.8142186782236
 20
-618.15561668040834
 30
0.0
 11
632.81421402474211
 21
-620.15557014451042
 31
0.0
  0
LINE
  5
1B1B7
  8
0
 10
632.81423031230634
 20
-613.15557014451053
 30
0.0
 11
632.81422565860817
 21
-615.15561668040846
 31
0.0
  0
LINE
  5
1B1B8
  8
0
 10
632.81421402474211
 20
-620.15557014451042
 30
0.0
 11
631.71421751493142
 21
-620.15557014451042
 31
0.0
  0
LINE
  5
1B1B9
  8
0
 10
632.81423031230634
 20
-613.15557014451053
 30
0.0
 11
631.71422682211096
 21
-613.15557014451042
 31
0.0
  0
ARC
  5
1B1BA
  8
0
 10
631.71421751493142
 20
-618.65557014451042
 30
0.0
 40
1.5
 50
179.99986668447059
 51
270.0
  0
ARC
  5
1B1BB
  8
0
 10
631.71422682211096
 20
-614.65557014451031
 30
0.0
 40
1.5
 50
90.0
 51
179.99986668447059
  0
LINE
  5
1B1BC
  8
0
 10
630.21422682211505
 20
-614.65556665431791
 30
0.0
 11
630.21421751493551
 21
-618.65556665431802
 31
0.0
  0
LINE
  5
1B1BD
  8
0
 10
657.81422216836904
 20
-596.65561353205305
 30
0.0
 11
652.51421867812337
 21
-598.15561353205305
 31
0.0
  0
LINE
  5
1B1BE
  8
0
 10
657.81422216836904
 20
-596.65561353205305
 30
0.0
 11
652.51422565850805
 21
-595.15561353205305
 31
0.0
  0
LINE
  5
1B1BF
  8
0
 10
652.51421867812337
 20
-598.15561353205305
 30
0.0
 11
632.81421867823076
 21
-598.15561353205305
 31
0.0
  0
LINE
  5
1B1C0
  8
0
 10
652.51422565850805
 20
-595.15561353205305
 30
0.0
 11
632.81422565861556
 21
-595.15561353205317
 31
0.0
  0
LINE
  5
1B1C1
  8
0
 10
632.81421867823076
 20
-598.15561353205305
 30
0.0
 11
632.81421402474939
 21
-600.15556699615513
 31
0.0
  0
LINE
  5
1B1C2
  8
0
 10
632.81423031231361
 20
-593.15556699615524
 30
0.0
 11
632.81422565861556
 21
-595.15561353205317
 31
0.0
  0
LINE
  5
1B1C3
  8
0
 10
632.81421402474939
 20
-600.15556699615513
 30
0.0
 11
631.7142175149387
 21
-600.15556699615513
 31
0.0
  0
LINE
  5
1B1C4
  8
0
 10
632.81423031231361
 20
-593.15556699615524
 30
0.0
 11
631.71422682211835
 21
-593.15556699615513
 31
0.0
  0
ARC
  5
1B1C5
  8
0
 10
631.7142175149387
 20
-598.65556699615513
 30
0.0
 40
1.5
 50
179.99986668447059
 51
270.0
  0
ARC
  5
1B1C6
  8
0
 10
631.71422682211835
 20
-594.65556699615513
 30
0.0
 40
1.5
 50
90.0
 51
179.99986668447059
  0
LINE
  5
1B1C7
  8
0
 10
630.21422682212233
 20
-594.65556350596273
 30
0.0
 11
630.21421751494279
 21
-598.65556350596273
 31
0.0
  0
VIEWPORT
  5
57
 67
     1
  8
0
 10
-11.113113824767201
 20
10.09248672500371
 30
0.0
 40
426.40462002071013
 41
282.74551211382209
 68
     1
 69
     1
1001
ACAD
1000
MVIEW
1002
{
1070
    16
1010
0.0
1020
0.0
1030
0.0
1010
0.0
1020
0.0
1030
1.0
1040
0.0
1040
282.74551211382209
1040
-11.113113824767201
1040
10.09248672500371
1040
50.0
1040
0.0
1040
0.0
1070
     0
1070
   100
1070
     1
1070
     1
1070
     0
1070
     0
1070
     0
1070
     0
1040
0.0
1040
0.0
1040
0.0
1040
10.0
1040
10.0
1040
10.0
1040
10.0
1070
     0
1002
{
1002
}
1002
}
  0
ENDSEC
  0
EOF
