  0
SECTION
  2
HEADER
  9
$ACADVER
  1
AC1012
  9
$DWGCODEPAGE
  3
ansi_932
  9
$INSBASE
 10
0.0
 20
0.0
 30
0.0
  9
$EXTMIN
 10
5481.56070010294
 20
-541.9517577542665
 30
0.0
  9
$EXTMAX
 10
6161.857812366295
 20
-170.3198324613304
 30
0.0
  9
$LIMMIN
 10
0.0
 20
0.0
  9
$LIMMAX
 10
420.0
 20
297.0
  9
$ORTHOMODE
 70
     0
  9
$REGENMODE
 70
     1
  9
$FILLMODE
 70
     1
  9
$QTEXTMODE
 70
     0
  9
$MIRRTEXT
 70
     0
  9
$DRAGMODE
 70
     2
  9
$LTSCALE
 40
0.5
  9
$OSMODE
 70
 14463
  9
$ATTMODE
 70
     1
  9
$TEXTSIZE
 40
4.0
  9
$TRACEWID
 40
1.0
  9
$TEXTSTYLE
  7
STANDARD
  9
$CLAYER
  8
1TEXT
  9
$CELTYPE
  6
BYLAYER
  9
$CECOLOR
 62
   256
  9
$CELTSCALE
 40
1.0
  9
$DELOBJ
 70
     1
  9
$DISPSILH
 70
     0
  9
$DIMSCALE
 40
1.0
  9
$DIMASZ
 40
2.0
  9
$DIMEXO
 40
0.0
  9
$DIMDLI
 40
7.0
  9
$DIMRND
 40
0.5
  9
$DIMDLE
 40
0.0
  9
$DIMEXE
 40
1.0
  9
$DIMTP
 40
0.0
  9
$DIMTM
 40
0.0
  9
$DIMTXT
 40
3.5
  9
$DIMCEN
 40
0.0
  9
$DIMTSZ
 40
0.0
  9
$DIMTOL
 70
     0
  9
$DIMLIM
 70
     0
  9
$DIMTIH
 70
     0
  9
$DIMTOH
 70
     0
  9
$DIMSE1
 70
     0
  9
$DIMSE2
 70
     0
  9
$DIMTAD
 70
     1
  9
$DIMZIN
 70
     8
  9
$DIMBLK
  1

  9
$DIMASO
 70
     1
  9
$DIMSHO
 70
     1
  9
$DIMPOST
  1
 
  9
$DIMAPOST
  1

  9
$DIMALT
 70
     0
  9
$DIMALTD
 70
     2
  9
$DIMALTF
 40
25.4
  9
$DIMLFAC
 40
1.0
  9
$DIMTOFL
 70
     1
  9
$DIMTVP
 40
0.0
  9
$DIMTIX
 70
     0
  9
$DIMSOXD
 70
     0
  9
$DIMSAH
 70
     1
  9
$DIMBLK1
  1
OPEN30
  9
$DIMBLK2
  1
OPEN30
  9
$DIMSTYLE
  2
NEWX10
  9
$DIMCLRD
 70
   256
  9
$DIMCLRE
 70
   256
  9
$DIMCLRT
 70
   201
  9
$DIMTFAC
 40
0.7
  9
$DIMGAP
 40
0.7
  9
$DIMJUST
 70
     0
  9
$DIMSD1
 70
     0
  9
$DIMSD2
 70
     0
  9
$DIMTOLJ
 70
     1
  9
$DIMTZIN
 70
     8
  9
$DIMALTZ
 70
     0
  9
$DIMALTTZ
 70
     0
  9
$DIMFIT
 70
     2
  9
$DIMUPT
 70
     0
  9
$DIMUNIT
 70
     2
  9
$DIMDEC
 70
     2
  9
$DIMTDEC
 70
     2
  9
$DIMALTU
 70
     2
  9
$DIMALTTD
 70
     2
  9
$DIMTXSTY
  7
STANDARD
  9
$DIMAUNIT
 70
     0
  9
$LUNITS
 70
     2
  9
$LUPREC
 70
     4
  9
$SKETCHINC
 40
1.0
  9
$FILLETRAD
 40
0.0
  9
$AUNITS
 70
     0
  9
$AUPREC
 70
     2
  9
$MENU
  1
acad
  9
$ELEVATION
 40
0.0
  9
$PELEVATION
 40
0.0
  9
$THICKNESS
 40
0.0
  9
$LIMCHECK
 70
     0
  9
$CHAMFERA
 40
10.0
  9
$CHAMFERB
 40
10.0
  9
$CHAMFERC
 40
20.0
  9
$CHAMFERD
 40
0.0
  9
$SKPOLY
 70
     0
  9
$TDCREATE
 40
2451318.621352917
  9
$TDUPDATE
 40
2458129.498210555
  9
$TDINDWG
 40
1.5016747685
  9
$TDUSRTIMER
 40
1.5016747685
  9
$USRTIMER
 70
     1
  9
$ANGBASE
 50
0.0
  9
$ANGDIR
 70
     0
  9
$PDMODE
 70
     0
  9
$PDSIZE
 40
0.0
  9
$PLINEWID
 40
0.0
  9
$COORDS
 70
     2
  9
$SPLFRAME
 70
     0
  9
$SPLINETYPE
 70
     6
  9
$SPLINESEGS
 70
     8
  9
$ATTDIA
 70
     0
  9
$ATTREQ
 70
     1
  9
$HANDLING
 70
     1
  9
$HANDSEED
  5
BE9C
  9
$SURFTAB1
 70
     6
  9
$SURFTAB2
 70
     6
  9
$SURFTYPE
 70
     6
  9
$SURFU
 70
     6
  9
$SURFV
 70
     6
  9
$UCSNAME
  2

  9
$UCSORG
 10
0.0
 20
0.0
 30
0.0
  9
$UCSXDIR
 10
1.0
 20
0.0
 30
0.0
  9
$UCSYDIR
 10
0.0
 20
1.0
 30
0.0
  9
$PUCSNAME
  2

  9
$PUCSORG
 10
0.0
 20
0.0
 30
0.0
  9
$PUCSXDIR
 10
1.0
 20
0.0
 30
0.0
  9
$PUCSYDIR
 10
0.0
 20
1.0
 30
0.0
  9
$USERI1
 70
     0
  9
$USERI2
 70
     0
  9
$USERI3
 70
     0
  9
$USERI4
 70
     0
  9
$USERI5
 70
     0
  9
$USERR1
 40
0.0
  9
$USERR2
 40
0.0
  9
$USERR3
 40
0.0
  9
$USERR4
 40
0.0
  9
$USERR5
 40
0.0
  9
$WORLDVIEW
 70
     1
  9
$SHADEDGE
 70
     3
  9
$SHADEDIF
 70
    70
  9
$TILEMODE
 70
     1
  9
$MAXACTVP
 70
    48
  9
$PINSBASE
 10
0.0
 20
0.0
 30
0.0
  9
$PLIMCHECK
 70
     0
  9
$PEXTMIN
 10
1.000000000000000E+20
 20
1.000000000000000E+20
 30
1.000000000000000E+20
  9
$PEXTMAX
 10
-1.000000000000000E+20
 20
-1.000000000000000E+20
 30
-1.000000000000000E+20
  9
$PLIMMIN
 10
0.0
 20
0.0
  9
$PLIMMAX
 10
420.0
 20
297.0
  9
$UNITMODE
 70
     0
  9
$VISRETAIN
 70
     1
  9
$PLINEGEN
 70
     0
  9
$PSLTSCALE
 70
     1
  9
$TREEDEPTH
 70
  3020
  9
$PICKSTYLE
 70
     0
  9
$CMLSTYLE
  2
STANDARD
  9
$CMLJUST
 70
     0
  9
$CMLSCALE
 40
20.0
  9
$SAVEIMAGES
 70
     1
  0
ENDSEC
  0
SECTION
  2
CLASSES
  0
CLASS
  1
DICTIONARYVAR
  2
AcDbDictionaryVar
  3
ObjectDBX Classes
 90
        0
280
     0
281
     0
  0
CLASS
  1
IDBUFFER
  2
AcDbIdBuffer
  3
ObjectDBX Classes
 90
    32768
280
     0
281
     0
  0
CLASS
  1
LWPOLYLINE
  2
AcDbPolyline
  3
ObjectDBX Classes
 90
    32768
280
     0
281
     1
  0
CLASS
  1
ACDBDICTIONARYWDFLT
  2
AcDbDictionaryWithDefault
  3
ObjectDBX Classes
 90
    32768
280
     0
281
     0
  0
CLASS
  1
ACDBPLACEHOLDER
  2
AcDbPlaceHolder
  3
ObjectDBX Classes
 90
        0
280
     0
281
     0
  0
CLASS
  1
LAYOUT
  2
AcDbLayout
  3
ObjectDBX Classes
 90
        0
280
     0
281
     0
  0
CLASS
  1
TABLESTYLE
  2
AcDbTableStyle
  3
ObjectDBX Classes
 90
     4095
280
     0
281
     0
  0
CLASS
  1
SORTENTSTABLE
  2
AcDbSortentsTable
  3
ObjectDBX Classes
 90
    32768
280
     0
281
     0
  0
CLASS
  1
MATERIAL
  2
AcDbMaterial
  3
ObjectDBX Classes
 90
     1153
280
     0
281
     0
  0
CLASS
  1
VISUALSTYLE
  2
AcDbVisualStyle
  3
ObjectDBX Classes
 90
     4095
280
     0
281
     0
  0
CLASS
  1
SCALE
  2
AcDbScale
  3
ObjectDBX Classes
 90
     1153
280
     0
281
     0
  0
CLASS
  1
MLEADERSTYLE
  2
AcDbMLeaderStyle
  3
ACDB_MLEADERSTYLE_CLASS
 90
     4095
280
     0
281
     0
  0
CLASS
  1
CELLSTYLEMAP
  2
AcDbCellStyleMap
  3
ObjectDBX Classes
 90
     1152
280
     0
281
     0
  0
CLASS
  1
SUN
  2
AcDbSun
  3
SCENEOE
 90
     1153
280
     0
281
     0
  0
CLASS
  1
AEC_REFEDIT_STATUS_TRACKER
  2
AecDbRefEditStatusTracker
  3
AecArchBase60|Product Desc: Autodesk Architectural Desktop 2007 |Company: Autodesk,Inc. |WEB Address: www.autodesk.com
 90
      129
280
     1
281
     0
  0
CLASS
  1
NPOCOLLECTION
  2
AcDbImpNonPersistentObjectsCollection
  3
ObjectDBX Classes
 90
     1153
280
     1
281
     0
  0
CLASS
  1
DIMASSOC
  2
AcDbDimAssoc
  3
"AcDbDimAssoc|Product Desc:     AcDim ARX App For Dimension|Company:          Autodesk, Inc.|WEB Address:      www.autodesk.com"
 90
        0
280
     0
281
     0
  0
CLASS
  1
XRECORD
  2
AcDbXrecord
  3
ObjectDBX Classes
 90
    32768
280
     0
281
     0
  0
CLASS
  1
HATCH
  2
AcDbHatch
  3
ObjectDBX Classes
 90
    32768
280
     0
281
     1
  0
ENDSEC
  0
SECTION
  2
TABLES
  0
TABLE
  2
VPORT
  5
8
330
0
100
AcDbSymbolTable
 70
     1
  0
VPORT
  5
952D
330
8
100
AcDbSymbolTableRecord
100
AcDbViewportTableRecord
  2
*ACTIVE
 70
     0
 10
0.0
 20
0.0
 11
1.0
 21
1.0
 12
5821.709256234617
 22
-356.1357951077985
 13
0.0
 23
0.0
 14
10.0
 24
10.0
 15
10.0
 25
10.0
 16
0.0
 26
0.0
 36
1.0
 17
0.0
 27
0.0
 37
0.0
 40
399.015330314521
 41
2.233782129742962
 42
50.0
 43
0.0
 44
0.0
 50
0.0
 51
0.0
 71
    16
 72
   100
 73
     1
 74
     1
 75
     0
 76
     0
 77
     0
 78
     0
1001
ACAD_NAV_VCDISPLAY
1070
     3
  0
ENDTAB
  0
TABLE
  2
LTYPE
  5
5
330
0
100
AcDbSymbolTable
 70
     4
  0
LTYPE
  5
12
330
5
100
AcDbSymbolTableRecord
100
AcDbLinetypeTableRecord
  2
BYBLOCK
 70
     0
  3

 72
    65
 73
     0
 40
0.0
  0
LTYPE
  5
13
330
5
100
AcDbSymbolTableRecord
100
AcDbLinetypeTableRecord
  2
BYLAYER
 70
     0
  3

 72
    65
 73
     0
 40
0.0
  0
LTYPE
  5
14
330
5
100
AcDbSymbolTableRecord
100
AcDbLinetypeTableRecord
  2
CONTINUOUS
 70
     0
  3
Solid line
 72
    65
 73
     0
 40
0.0
  0
LTYPE
  5
2C03
330
5
100
AcDbSymbolTableRecord
100
AcDbLinetypeTableRecord
  2
HIDDEN
 70
     0
  3
Hidden __ __ __ __ __ __ __ __ __ __ __ __ __ _
 72
    65
 73
     2
 40
9.524999999999999
 49
6.35
 74
     0
 49
-3.175
 74
     0
  0
LTYPE
  5
9837
330
5
100
AcDbSymbolTableRecord
100
AcDbLinetypeTableRecord
  2
CENTER2
 70
     0
  3
Center (.5x) ___ _ ___ _ ___ _ ___ _ ___ _ ___
 72
    65
 73
     4
 40
28.575
 49
19.05
 74
     0
 49
-3.175
 74
     0
 49
3.175
 74
     0
 49
-3.175
 74
     0
  0
LTYPE
  5
B2BA
330
5
100
AcDbSymbolTableRecord
100
AcDbLinetypeTableRecord
  2
PHANTOM2
 70
     0
  3
Phantom (0.5x) ___ _ _ ___ _ _ ___ _ _ ___ _ _
 72
    65
 73
     6
 40
31.75
 49
15.875
 74
     0
 49
-3.175
 74
     0
 49
3.175
 74
     0
 49
-3.175
 74
     0
 49
3.175
 74
     0
 49
-3.175
 74
     0
  0
ENDTAB
  0
TABLE
  2
LAYER
  5
2
102
{ACAD_XDICTIONARY
360
96D9
102
}
330
0
100
AcDbSymbolTable
 70
     8
  0
LAYER
  5
E
102
{ACAD_XDICTIONARY
360
9593
102
}
330
2
100
AcDbSymbolTableRecord
100
AcDbLayerTableRecord
  2
0
 70
     0
 62
     7
  6
CONTINUOUS
  0
LAYER
  5
29
102
{ACAD_XDICTIONARY
360
9595
102
}
330
2
100
AcDbSymbolTableRecord
100
AcDbLayerTableRecord
  2
1CENTER
 70
     0
 62
     7
  6
CENTER2
  0
LAYER
  5
31
102
{ACAD_XDICTIONARY
360
9597
102
}
330
2
100
AcDbSymbolTableRecord
100
AcDbLayerTableRecord
  2
1TEXT
 70
     0
 62
     7
  6
CONTINUOUS
  0
LAYER
  5
243
102
{ACAD_XDICTIONARY
360
959D
102
}
330
2
100
AcDbSymbolTableRecord
100
AcDbLayerTableRecord
  2
01
 70
     0
 62
     1
  6
CONTINUOUS
  0
LAYER
  5
24E
102
{ACAD_XDICTIONARY
360
95A3
102
}
330
2
100
AcDbSymbolTableRecord
100
AcDbLayerTableRecord
  2
1DIM
 70
     0
 62
     7
  6
CONTINUOUS
  0
LAYER
  5
252
102
{ACAD_XDICTIONARY
360
95A5
102
}
330
2
100
AcDbSymbolTableRecord
100
AcDbLayerTableRecord
  2
1HATCH
 70
     0
 62
     7
  6
CONTINUOUS
  0
LAYER
  5
2C05
102
{ACAD_XDICTIONARY
360
95AF
102
}
330
2
100
AcDbSymbolTableRecord
100
AcDbLayerTableRecord
  2
1HIDDEN
 70
     0
 62
     7
  6
HIDDEN
  0
LAYER
  5
B2BB
330
2
100
AcDbSymbolTableRecord
100
AcDbLayerTableRecord
  2
1PHANTOM
 70
     0
 62
     7
  6
PHANTOM2
  0
ENDTAB
  0
TABLE
  2
STYLE
  5
3
330
0
100
AcDbSymbolTable
 70
     1
  0
STYLE
  5
F
330
3
100
AcDbSymbolTableRecord
100
AcDbTextStyleTableRecord
  2
STANDARD
 70
     0
 40
0.0
 41
1.0
 50
0.0
 71
     0
 42
4.0
  3
txt.shx
  4
extfont.shx
  0
ENDTAB
  0
TABLE
  2
VIEW
  5
6
330
0
100
AcDbSymbolTable
 70
     0
  0
ENDTAB
  0
TABLE
  2
UCS
  5
7
330
0
100
AcDbSymbolTable
 70
     0
  0
ENDTAB
  0
TABLE
  2
APPID
  5
9
330
0
100
AcDbSymbolTable
 70
    17
  0
APPID
  5
10
330
9
100
AcDbSymbolTableRecord
100
AcDbRegAppTableRecord
  2
ACAD
 70
     0
  0
APPID
  5
21
330
9
100
AcDbSymbolTableRecord
100
AcDbRegAppTableRecord
  2
DRAWINGVARIABLESXDATA
 70
     0
  0
APPID
  5
64
330
9
100
AcDbSymbolTableRecord
100
AcDbRegAppTableRecord
  2
CONTENTTABDATA
 70
     0
  0
APPID
  5
65
330
9
100
AcDbSymbolTableRecord
100
AcDbRegAppTableRecord
  2
CONTENTCURRENTTAB
 70
     0
  0
APPID
  5
66
330
9
100
AcDbSymbolTableRecord
100
AcDbRegAppTableRecord
  2
CONTENTBLOCKDESCRIPTION
 70
     0
  0
APPID
  5
67
330
9
100
AcDbSymbolTableRecord
100
AcDbRegAppTableRecord
  2
CONTENTBLOCKICON
 70
     0
  0
APPID
  5
68
330
9
100
AcDbSymbolTableRecord
100
AcDbRegAppTableRecord
  2
CONTENTLONGBLOCKNAME
 70
     0
  0
APPID
  5
2AE
330
9
100
AcDbSymbolTableRecord
100
AcDbRegAppTableRecord
  2
ACAD_PSEXT
 70
     0
  0
APPID
  5
9585
330
9
100
AcDbSymbolTableRecord
100
AcDbRegAppTableRecord
  2
ACAD_MLEADERVER
 70
     0
  0
APPID
  5
A2E3
330
9
100
AcDbSymbolTableRecord
100
AcDbRegAppTableRecord
  2
ACADANNOTATIVE
 70
     0
  0
APPID
  5
A2E4
330
9
100
AcDbSymbolTableRecord
100
AcDbRegAppTableRecord
  2
ACDBBLOCKREPETAG
 70
     0
  0
APPID
  5
AD43
330
9
100
AcDbSymbolTableRecord
100
AcDbRegAppTableRecord
  2
ACAECLAYERSTANDARD
 70
     0
  0
APPID
  5
AF26
330
9
100
AcDbSymbolTableRecord
100
AcDbRegAppTableRecord
  2
ACAD_OBJECT_CHANGE_GUID
 70
     0
  0
APPID
  5
AFBD
330
9
100
AcDbSymbolTableRecord
100
AcDbRegAppTableRecord
  2
ACAD_NAV_VCDISPLAY
 70
     0
  0
APPID
  5
B007
330
9
100
AcDbSymbolTableRecord
100
AcDbRegAppTableRecord
  2
ACAD_DSTYLE_DIMJAG
 70
     0
  0
APPID
  5
B008
330
9
100
AcDbSymbolTableRecord
100
AcDbRegAppTableRecord
  2
ACAD_DSTYLE_DIMTALN
 70
     0
  0
APPID
  5
B638
330
9
100
AcDbSymbolTableRecord
100
AcDbRegAppTableRecord
  2
ACAD_EXEMPT_FROM_CAD_STAND
 70
     0
  0
ENDTAB
  0
TABLE
  2
DIMSTYLE
  5
A
330
0
100
AcDbSymbolTable
 70
     1
  0
DIMSTYLE
105
48
330
A
100
AcDbSymbolTableRecord
100
AcDbDimStyleTableRecord
  2
NEWX10
 70
     0
  3
 
  4

  5

  6
OPEN30
  7
OPEN30
 40
1.0
 41
2.0
 42
0.0
 43
7.0
 44
1.0
 45
0.5
 46
0.0
 47
0.0
 48
0.0
140
3.5
141
0.0
142
0.0
143
25.4
144
1.0
145
0.0
146
0.7
147
0.7
 71
     0
 72
     0
 73
     0
 74
     0
 75
     0
 76
     0
 77
     1
 78
     8
170
     0
171
     2
172
     1
173
     1
174
     0
175
     0
176
   256
177
   256
178
   201
179
     2
270
     2
271
     2
272
     2
273
     2
274
     2
340
F
275
     0
280
     0
281
     0
282
     0
283
     1
284
     8
285
     0
286
     0
287
     2
288
     0
1001
ACAD_DSTYLE_DIMJAG
1070
   388
1040
1.5
1001
ACAD_DSTYLE_DIMTALN
1070
   392
1070
     0
  0
ENDTAB
  0
TABLE
  2
BLOCK_RECORD
  5
1
330
0
100
AcDbSymbolTable
 70
     9
  0
BLOCK_RECORD
  5
18
102
{ACAD_XDICTIONARY
360
88F
102
}
330
1
100
AcDbSymbolTableRecord
100
AcDbBlockTableRecord
  2
*MODEL_SPACE
  0
BLOCK_RECORD
  5
15
330
1
100
AcDbSymbolTableRecord
100
AcDbBlockTableRecord
  2
*PAPER_SPACE
  0
BLOCK_RECORD
  5
42
330
1
100
AcDbSymbolTableRecord
100
AcDbBlockTableRecord
  2
_OPEN30
  0
BLOCK_RECORD
  5
A333
330
1
100
AcDbSymbolTableRecord
100
AcDbBlockTableRecord
  2
A3WAKUKAWAJUN2017_HYOUDAI_
  0
BLOCK_RECORD
  5
B728
102
{ACAD_XDICTIONARY
360
B729
102
}
330
1
100
AcDbSymbolTableRecord
100
AcDbBlockTableRecord
  2
R5-45なべ
  0
BLOCK_RECORD
  5
BCFC
330
1
100
AcDbSymbolTableRecord
100
AcDbBlockTableRecord
  2
*X67
  0
BLOCK_RECORD
  5
BD4A
330
1
100
AcDbSymbolTableRecord
100
AcDbBlockTableRecord
  2
*X68
  0
BLOCK_RECORD
  5
BD9C
330
1
100
AcDbSymbolTableRecord
100
AcDbBlockTableRecord
  2
*X69
  0
BLOCK_RECORD
  5
BDED
330
1
100
AcDbSymbolTableRecord
100
AcDbBlockTableRecord
  2
*X70
  0
BLOCK_RECORD
  5
BE29
330
1
100
AcDbSymbolTableRecord
100
AcDbBlockTableRecord
  2
*X71
  0
BLOCK_RECORD
  5
BE69
330
1
100
AcDbSymbolTableRecord
100
AcDbBlockTableRecord
  2
*X72
  0
ENDTAB
  0
ENDSEC
  0
SECTION
  2
BLOCKS
  0
BLOCK
  5
19
330
18
100
AcDbEntity
  8
0
100
AcDbBlockBegin
  2
*MODEL_SPACE
 70
     0
 10
0.0
 20
0.0
 30
0.0
  3
*MODEL_SPACE
  1

  0
ENDBLK
  5
1A
330
18
100
AcDbEntity
  8
0
100
AcDbBlockEnd
  0
BLOCK
  5
16
330
15
100
AcDbEntity
 67
     1
  8
0
100
AcDbBlockBegin
  2
*PAPER_SPACE
 70
     0
 10
0.0
 20
0.0
 30
0.0
  3
*PAPER_SPACE
  1

  0
ENDBLK
  5
17
330
15
100
AcDbEntity
 67
     1
  8
0
100
AcDbBlockEnd
  0
BLOCK
  5
43
330
42
100
AcDbEntity
  8
0
100
AcDbBlockBegin
  2
_OPEN30
 70
     0
 10
0.0
 20
0.0
 30
0.0
  3
_OPEN30
  1

  0
LINE
  5
44
330
42
100
AcDbEntity
  8
0
  6
BYBLOCK
 62
     0
100
AcDbLine
 10
-1.0
 20
0.26794919
 30
0.0
 11
0.0
 21
0.0
 31
0.0
  0
LINE
  5
45
330
42
100
AcDbEntity
  8
0
  6
BYBLOCK
 62
     0
100
AcDbLine
 10
0.0
 20
0.0
 30
0.0
 11
-1.0
 21
-0.26794919
 31
0.0
  0
LINE
  5
46
330
42
100
AcDbEntity
  8
0
  6
BYBLOCK
 62
     0
100
AcDbLine
 10
0.0
 20
0.0
 30
0.0
 11
-1.0
 21
0.0
 31
0.0
  0
ENDBLK
  5
47
330
42
100
AcDbEntity
  8
0
100
AcDbBlockEnd
  0
BLOCK
  5
AA56
330
A333
100
AcDbEntity
  8
0
100
AcDbBlockBegin
  2
A3WAKUKAWAJUN2017_HYOUDAI_
 70
     0
 10
0.0
 20
0.0
 30
0.0
  3
A3WAKUKAWAJUN2017_HYOUDAI_
  1

  0
LINE
  5
A335
330
A333
100
AcDbEntity
  8
0
100
AcDbLine
 10
13.26299999998673
 20
-0.0001000000000317
 30
0.0
 11
9.236999999990758
 21
8.999899999990987
 31
0.0
1001
ACAD
1000
ASC_BOUNDS
1002
{
1070
    19
1005
A376
1002
}
  0
LINE
  5
A336
330
A333
100
AcDbEntity
  8
0
100
AcDbLine
 10
5.657999999994331
 20
0.9999999999989768
 30
0.0
 11
9.236999999990758
 21
8.999999999991019
 31
0.0
1001
ACAD
1000
ASC_BOUNDS
1002
{
1070
    19
1005
A376
1002
}
  0
LINE
  5
A337
330
A333
100
AcDbEntity
  8
0
100
AcDbLine
 10
18.59199999998134
 20
-0.2368999999997641
 30
0.0
 11
16.46099999998353
 21
5.432899999994561
 31
0.0
1001
ACAD
1000
ASC_BOUNDS
1002
{
1070
    19
1005
A377
1002
}
  0
LINE
  5
A338
330
A333
100
AcDbEntity
  8
0
100
AcDbLine
 10
18.59199999998134
 20
-0.2368999999997641
 30
0.0
 11
22.38199999997767
 21
8.763099999991255
 31
0.0
1001
ACAD
1000
ASC_BOUNDS
1002
{
1070
    19
1005
A377
1002
}
  0
LINE
  5
A339
330
A333
100
AcDbEntity
  8
0
100
AcDbLine
 10
14.32899999998563
 20
-0.2368999999997641
 30
0.0
 11
16.46099999998353
 21
5.432899999994561
 31
0.0
1001
ACAD
1000
ASC_BOUNDS
1002
{
1070
    19
1005
A377
1002
}
  0
LINE
  5
A33A
330
A333
100
AcDbEntity
  8
0
100
AcDbLine
 10
14.32899999998563
 20
-0.2368999999997641
 30
0.0
 11
10.53899999998941
 21
8.763099999991255
 31
0.0
1001
ACAD
1000
ASC_BOUNDS
1002
{
1070
    19
1005
A377
1002
}
  0
LINE
  5
A33B
330
A333
100
AcDbEntity
  8
0
100
AcDbLine
 10
19.53899999998043
 20
-0.0001000000000317
 30
0.0
 11
23.56599999997638
 21
8.999899999990987
 31
0.0
1001
ACAD
1000
ASC_BOUNDS
1002
{
1070
    19
1005
A378
1002
}
  0
LINE
  5
A33C
330
A333
100
AcDbEntity
  8
0
100
AcDbLine
 10
26.97358892824991
 20
1.383099999991202
 30
0.0
 11
23.56599999997638
 21
8.999899999990987
 31
0.0
1001
ACAD
1000
ASC_BOUNDS
1002
{
1070
    19
1005
A378
1002
}
  0
LINE
  5
A33D
330
A333
100
AcDbEntity
  8
0
100
AcDbLine
 10
5.657999999994331
 20
0.9999999999989768
 30
0.0
 11
3.181999999996833
 21
4.668599999995308
 31
0.0
1001
ACAD
1000
ASC_BOUNDS
1002
{
1070
    19
1005
A376
1002
}
  0
LINE
  5
A33E
330
A333
100
AcDbEntity
  8
0
100
AcDbLine
 10
4.617999999995391
 20
-0.0001000000000317
 30
0.0
 11
1.420999999998571
 21
4.736799999995242
 31
0.0
1001
ACAD
1000
ASC_BOUNDS
1002
{
1070
    19
1005
A376
1002
}
  0
LINE
  5
A33F
330
A333
100
AcDbEntity
  8
0
100
AcDbLine
 10
1.420999999998571
 20
8.763099999991255
 30
0.0
 11
1.420999999998571
 21
0.0
 31
0.0
1001
ACAD
1000
ASC_BOUNDS
1002
{
1070
    19
1005
A37B
1002
}
  0
LINE
  5
A340
330
A333
100
AcDbEntity
  8
0
100
AcDbLine
 10
0.0
 20
8.763099999991255
 30
0.0
 11
0.0
 21
0.0
 31
0.0
1001
ACAD
1000
ASC_BOUNDS
1002
{
1070
    19
1005
A37B
1002
}
  0
LINE
  5
A341
330
A333
100
AcDbEntity
  8
0
100
AcDbLine
 10
6.766999999993232
 20
-0.0001000000000317
 30
0.0
 11
7.826999999992154
 21
2.368399999997621
 31
0.0
1001
ACAD
1000
ASC_BOUNDS
1002
{
1070
    19
1005
A376
1002
}
  0
LINE
  5
A342
330
A333
100
AcDbEntity
  8
0
100
AcDbLine
 10
0.0
 20
0.0
 30
0.0
 11
1.420999999998571
 21
0.0
 31
0.0
1001
ACAD
1000
ASC_BOUNDS
1002
{
1070
    19
1005
A37B
1002
}
  0
LINE
  5
A343
330
A333
100
AcDbEntity
  8
0
100
AcDbLine
 10
4.617999999995391
 20
0.0
 30
0.0
 11
6.766999999993232
 21
0.0
 31
0.0
1001
ACAD
1000
ASC_BOUNDS
1002
{
1070
    19
1005
A376
1002
}
  0
LINE
  5
A344
330
A333
100
AcDbEntity
  8
0
100
AcDbLine
 10
11.70599999998831
 20
-0.0001000000000317
 30
0.0
 11
10.64699999998936
 21
2.368399999997621
 31
0.0
1001
ACAD
1000
ASC_BOUNDS
1002
{
1070
    19
1005
A376
1002
}
  0
LINE
  5
A345
330
A333
100
AcDbEntity
  8
0
100
AcDbLine
 10
7.826999999992154
 20
2.368399999997621
 30
0.0
 11
10.64699999998936
 21
2.368399999997621
 31
0.0
1001
ACAD
1000
ASC_BOUNDS
1002
{
1070
    19
1005
A376
1002
}
  0
LINE
  5
A346
330
A333
100
AcDbEntity
  8
0
100
AcDbLine
 10
11.70599999998831
 20
0.0
 30
0.0
 11
13.26299999998673
 21
0.0
 31
0.0
1001
ACAD
1000
ASC_BOUNDS
1002
{
1070
    19
1005
A376
1002
}
  0
LINE
  5
A347
330
A333
100
AcDbEntity
  8
0
100
AcDbLine
 10
22.15599999997789
 20
2.368399999997621
 30
0.0
 11
24.97599999997499
 21
2.368399999997621
 31
0.0
1001
ACAD
1000
ASC_BOUNDS
1002
{
1070
    19
1005
A378
1002
}
  0
LINE
  5
A348
330
A333
100
AcDbEntity
  8
0
100
AcDbLine
 10
19.53899999998043
 20
0.0
 30
0.0
 11
21.09599999997886
 21
0.0
 31
0.0
1001
ACAD
1000
ASC_BOUNDS
1002
{
1070
    19
1005
A378
1002
}
  0
LINE
  5
A349
330
A333
100
AcDbEntity
  8
0
100
AcDbLine
 10
21.09599999997886
 20
-0.0001000000000317
 30
0.0
 11
22.15599999997789
 21
2.368399999997621
 31
0.0
1001
ACAD
1000
ASC_BOUNDS
1002
{
1070
    19
1005
A378
1002
}
  0
LINE
  5
A34A
330
A333
100
AcDbEntity
  8
0
100
AcDbLine
 10
26.02015566812236
 20
0.0330999999912365
 30
0.0
 11
24.97599999997499
 21
2.368399999997621
 31
0.0
1001
ACAD
1000
ASC_BOUNDS
1002
{
1070
    19
1005
A378
1002
}
  0
LINE
  5
A34B
330
A333
100
AcDbEntity
  8
0
100
AcDbLine
 10
14.32399999998563
 20
3.315799999996671
 30
0.0
 11
16.46099999998353
 21
8.999899999990987
 31
0.0
1001
ACAD
1000
ASC_BOUNDS
1002
{
1070
    19
1005
A377
1002
}
  0
LINE
  5
A34C
330
A333
100
AcDbEntity
  8
0
100
AcDbLine
 10
6.432999999993513
 20
8.763099999991255
 30
0.0
 11
3.181999999996833
 21
4.668599999995308
 31
0.0
1001
ACAD
1000
ASC_BOUNDS
1002
{
1070
    19
1005
A376
1002
}
  0
LINE
  5
A34D
330
A333
100
AcDbEntity
  8
0
100
AcDbLine
 10
4.617999999995391
 20
8.763099999991255
 30
0.0
 11
1.420999999998571
 21
4.736799999995242
 31
0.0
1001
ACAD
1000
ASC_BOUNDS
1002
{
1070
    19
1005
A376
1002
}
  0
LINE
  5
A34E
330
A333
100
AcDbEntity
  8
0
100
AcDbLine
 10
0.0
 20
8.763099999991255
 30
0.0
 11
1.420999999998571
 21
8.763099999991255
 31
0.0
1001
ACAD
1000
ASC_BOUNDS
1002
{
1070
    19
1005
A37B
1002
}
  0
LINE
  5
A34F
330
A333
100
AcDbEntity
  8
0
100
AcDbLine
 10
4.617999999995391
 20
8.763099999991255
 30
0.0
 11
6.432999999993513
 21
8.763099999991255
 31
0.0
1001
ACAD
1000
ASC_BOUNDS
1002
{
1070
    19
1005
A376
1002
}
  0
LINE
  5
A350
330
A333
100
AcDbEntity
  8
0
100
AcDbLine
 10
14.32399999998563
 20
3.315799999996671
 30
0.0
 11
12.02999999998792
 21
8.763099999991255
 31
0.0
1001
ACAD
1000
ASC_BOUNDS
1002
{
1070
    19
1005
A377
1002
}
  0
LINE
  5
A351
330
A333
100
AcDbEntity
  8
0
100
AcDbLine
 10
10.06399999998996
 20
3.670999999996297
 30
0.0
 11
9.236999999990758
 21
5.5200999999945
 31
0.0
1001
ACAD
1000
ASC_BOUNDS
1002
{
1070
    19
1005
A376
1002
}
  0
LINE
  5
A352
330
A333
100
AcDbEntity
  8
0
100
AcDbLine
 10
8.409999999991555
 20
3.670999999996297
 30
0.0
 11
9.236999999990758
 21
5.5200999999945
 31
0.0
1001
ACAD
1000
ASC_BOUNDS
1002
{
1070
    19
1005
A376
1002
}
  0
LINE
  5
A353
330
A333
100
AcDbEntity
  8
0
100
AcDbLine
 10
8.409999999991555
 20
3.670999999996297
 30
0.0
 11
10.06399999998996
 21
3.670999999996297
 31
0.0
1001
ACAD
1000
ASC_BOUNDS
1002
{
1070
    19
1005
A376
1002
}
  0
LINE
  5
A354
330
A333
100
AcDbEntity
  8
0
100
AcDbLine
 10
10.53899999998941
 20
8.763099999991255
 30
0.0
 11
12.02999999998792
 21
8.763099999991255
 31
0.0
1001
ACAD
1000
ASC_BOUNDS
1002
{
1070
    19
1005
A377
1002
}
  0
LINE
  5
A355
330
A333
100
AcDbEntity
  8
0
100
AcDbLine
 10
22.7389999999773
 20
3.670999999996297
 30
0.0
 11
23.56599999997638
 21
5.5200999999945
 31
0.0
1001
ACAD
1000
ASC_BOUNDS
1002
{
1070
    19
1005
A378
1002
}
  0
LINE
  5
A356
330
A333
100
AcDbEntity
  8
0
100
AcDbLine
 10
22.7389999999773
 20
3.670999999996297
 30
0.0
 11
24.39299999997559
 21
3.670999999996297
 31
0.0
1001
ACAD
1000
ASC_BOUNDS
1002
{
1070
    19
1005
A378
1002
}
  0
LINE
  5
A357
330
A333
100
AcDbEntity
  8
0
100
AcDbLine
 10
18.59799999998143
 20
3.315799999996671
 30
0.0
 11
20.89099999997916
 21
8.763099999991255
 31
0.0
1001
ACAD
1000
ASC_BOUNDS
1002
{
1070
    19
1005
A377
1002
}
  0
LINE
  5
A358
330
A333
100
AcDbEntity
  8
0
100
AcDbLine
 10
18.59799999998143
 20
3.315799999996671
 30
0.0
 11
16.46099999998353
 21
8.999899999990987
 31
0.0
1001
ACAD
1000
ASC_BOUNDS
1002
{
1070
    19
1005
A377
1002
}
  0
LINE
  5
A359
330
A333
100
AcDbEntity
  8
0
100
AcDbLine
 10
20.89099999997916
 20
8.763099999991255
 30
0.0
 11
22.38199999997767
 21
8.763099999991255
 31
0.0
1001
ACAD
1000
ASC_BOUNDS
1002
{
1070
    19
1005
A377
1002
}
  0
LINE
  5
A35A
330
A333
100
AcDbEntity
  8
0
100
AcDbLine
 10
24.39299999997559
 20
3.670999999996297
 30
0.0
 11
23.56599999997638
 21
5.5200999999945
 31
0.0
1001
ACAD
1000
ASC_BOUNDS
1002
{
1070
    19
1005
A378
1002
}
  0
LINE
  5
A35B
330
A333
100
AcDbEntity
  8
0
100
AcDbLine
 10
44.99999999995498
 20
-0.2368999999997641
 30
0.0
 11
40.02599999995994
 21
5.341799999994635
 31
0.0
1001
ACAD
1000
ASC_BOUNDS
1002
{
1070
    19
1005
A37A
1002
}
  0
LINE
  5
A35C
330
A333
100
AcDbEntity
  8
0
100
AcDbLine
 10
40.02599999995994
 20
5.341799999994635
 30
0.0
 11
40.02599999995994
 21
0.0
 31
0.0
1001
ACAD
1000
ASC_BOUNDS
1002
{
1070
    19
1005
A37A
1002
}
  0
LINE
  5
A35D
330
A333
100
AcDbEntity
  8
0
100
AcDbLine
 10
38.60499999996136
 20
8.999999999991019
 30
0.0
 11
38.60499999996136
 21
0.0
 31
0.0
1001
ACAD
1000
ASC_BOUNDS
1002
{
1070
    19
1005
A37A
1002
}
  0
LINE
  5
A35E
330
A333
100
AcDbEntity
  8
0
100
AcDbLine
 10
44.99999999995498
 20
8.763099999991255
 30
0.0
 11
44.99999999995498
 21
-0.2368999999997641
 31
0.0
1001
ACAD
1000
ASC_BOUNDS
1002
{
1070
    19
1005
A37A
1002
}
  0
LINE
  5
A35F
330
A333
100
AcDbEntity
  8
0
100
AcDbLine
 10
38.60499999996136
 20
0.0
 30
0.0
 11
40.02599999995994
 21
0.0
 31
0.0
1001
ACAD
1000
ASC_BOUNDS
1002
{
1070
    19
1005
A37A
1002
}
  0
LINE
  5
A360
330
A333
100
AcDbEntity
  8
0
100
AcDbLine
 10
43.57899999995641
 20
3.421199999996588
 30
0.0
 11
38.60499999996136
 21
8.999899999990987
 31
0.0
1001
ACAD
1000
ASC_BOUNDS
1002
{
1070
    19
1005
A37A
1002
}
  0
LINE
  5
A361
330
A333
100
AcDbEntity
  8
0
100
AcDbLine
 10
43.57899999995641
 20
8.763099999991255
 30
0.0
 11
43.57899999995641
 21
3.421199999996588
 31
0.0
1001
ACAD
1000
ASC_BOUNDS
1002
{
1070
    19
1005
A37A
1002
}
  0
LINE
  5
A362
330
A333
100
AcDbEntity
  8
0
100
AcDbLine
 10
43.57899999995641
 20
8.763099999991255
 30
0.0
 11
44.99999999995498
 21
8.763099999991255
 31
0.0
1001
ACAD
1000
ASC_BOUNDS
1002
{
1070
    19
1005
A37A
1002
}
  0
LINE
  5
A363
330
A333
100
AcDbEntity
  8
0
100
AcDbLine
 10
37.67199999996831
 20
8.763099999991255
 30
0.0
 11
36.23199999996837
 21
8.763099999991255
 31
0.0
  0
LINE
  5
A364
330
A333
100
AcDbEntity
  8
0
100
AcDbLine
 10
31.64199999996833
 20
8.763099999991255
 30
0.0
 11
31.64199999996833
 21
2.481619422925121
 31
0.0
  0
LINE
  5
A365
330
A333
100
AcDbEntity
  8
0
100
AcDbLine
 10
37.67199999996831
 20
8.763099999991255
 30
0.0
 11
37.67199999996831
 21
2.481619422925121
 31
0.0
  0
LINE
  5
A366
330
A333
100
AcDbEntity
  8
0
100
AcDbLine
 10
36.23199999996837
 20
8.763099999991255
 30
0.0
 11
36.23199999996837
 21
2.481619422925064
 31
0.0
  0
LINE
  5
A367
330
A333
100
AcDbEntity
  8
0
100
AcDbLine
 10
33.08199999996839
 20
8.763099999991255
 30
0.0
 11
33.08199999996839
 21
2.481619422925121
 31
0.0
  0
ARC
  5
A368
330
A333
100
AcDbEntity
  8
0
100
AcDbCircle
 10
34.65699999996832
 20
3.183099999991214
 30
0.0
 40
3.420000000000007
100
AcDbArc
 50
240.0000000000255
 51
299.9999999999766
  0
ARC
  5
A369
330
A333
100
AcDbEntity
  8
0
100
AcDbCircle
 10
34.65699999996832
 20
3.183099999991214
 30
0.0
 40
1.97999999999999
100
AcDbArc
 50
240.000000000026
 51
299.9999999999703
  0
LINE
  5
A36A
330
A333
100
AcDbEntity
  8
0
100
AcDbLine
 10
33.08199999996828
 20
8.763099999991255
 30
0.0
 11
31.64199999996833
 21
8.763099999991255
 31
0.0
  0
ARC
  5
A36B
330
A333
100
AcDbEntity
  8
0
100
AcDbCircle
 10
35.06199999996829
 20
2.481619422925064
 30
0.0
 40
1.17
100
AcDbArc
 50
299.9999999999699
 51
0.0
  0
ARC
  5
A36C
330
A333
100
AcDbEntity
  8
0
100
AcDbCircle
 10
34.25199999996835
 20
2.481619422925121
 30
0.0
 40
1.17
100
AcDbArc
 50
180.0
 51
240.0000000000238
  0
ARC
  5
A36D
330
A333
100
AcDbEntity
  8
0
100
AcDbCircle
 10
35.06199999996841
 20
2.481619422925121
 30
0.0
 40
2.61
100
AcDbArc
 50
299.9999999999756
 51
0.0
  0
ARC
  5
A36E
330
A333
100
AcDbEntity
  8
0
100
AcDbCircle
 10
34.25199999996835
 20
2.481619422925121
 30
0.0
 40
2.61
100
AcDbArc
 50
180.0
 51
240.0000000000244
  0
LINE
  5
A36F
330
A333
100
AcDbEntity
  8
0
100
AcDbLine
 10
29.30199999996933
 20
8.763099999991255
 30
0.0
 11
30.74199999996927
 21
8.763099999991255
 31
0.0
1001
ACAD
1000
ASC_BOUNDS
1002
{
1070
    19
1005
A378
1002
}
  0
LINE
  5
A370
330
A333
100
AcDbEntity
  8
0
100
AcDbLine
 10
30.74199999996927
 20
8.763099999991255
 30
0.0
 11
30.74199999996927
 21
2.373099999991211
 31
0.0
1001
ACAD
1000
ASC_BOUNDS
1002
{
1070
    19
1005
A378
1002
}
  0
LINE
  5
A371
330
A333
100
AcDbEntity
  8
0
100
AcDbLine
 10
26.02015566812236
 20
0.0330999999912365
 30
0.0
 11
28.40199999996923
 21
0.0330999999912365
 31
0.0
1001
ACAD
1000
ASC_BOUNDS
1002
{
1070
    19
1005
A378
1002
}
  0
LINE
  5
A372
330
A333
100
AcDbEntity
  8
0
100
AcDbLine
 10
29.30199999996933
 20
8.763099999991255
 30
0.0
 11
29.30199999996933
 21
2.283099999991236
 31
0.0
1001
ACAD
1000
ASC_BOUNDS
1002
{
1070
    19
1005
A378
1002
}
  0
LINE
  5
A373
330
A333
100
AcDbEntity
  8
0
100
AcDbLine
 10
26.97358892824991
 20
1.383099999991202
 30
0.0
 11
28.40199999996923
 21
1.383099999991202
 31
0.0
1001
ACAD
1000
ASC_BOUNDS
1002
{
1070
    19
1005
A378
1002
}
  0
ARC
  5
A374
330
A333
100
AcDbEntity
  8
0
100
AcDbCircle
 10
28.40199999996923
 20
2.283099999991236
 30
0.0
 40
0.9
100
AcDbArc
 50
270.0
 51
0.0
1001
ACAD
1000
ASC_BOUNDS
1002
{
1070
    19
1005
A378
1002
}
  0
ARC
  5
A375
330
A333
100
AcDbEntity
  8
0
100
AcDbCircle
 10
28.40199999996923
 20
2.373099999991211
 30
0.0
 40
2.34
100
AcDbArc
 50
270.0
 51
0.0
1001
ACAD
1000
ASC_BOUNDS
1002
{
1070
    19
1005
A378
1002
}
  0
INSERT
  5
A376
330
A333
100
AcDbEntity
  8
0
100
AcDbBlockReference
  2
*X67
 10
0.0
 20
0.0
 30
0.0
1001
ACAD
1000
HATCH
1002
{
1070
    19
1000
ANSI37
1040
0.15
1040
0.0
1000
ASC_BOUNDS
1070
     2
1070
     2
1070
    12
1005
A335
1005
A336
1005
A33D
1005
A34C
1005
A34F
1005
A34D
1005
A33E
1005
A343
1005
A341
1005
A345
1005
A344
1005
A346
1070
     2
1070
     3
1005
A351
1005
A353
1005
A352
1000
ASC_SEEDPOINT
1011
3.614004224891801
1021
2.996669441146025
1031
0.0
1000
R14_HATCH_DATA
1000
A376
1011
1.0
1021
0.0
1031
0.0
1011
0.0
1021
1.0
1031
0.0
1011
0.0
1021
0.0
1031
1.0
1040
0.0
1010
0.0
1020
0.0
1030
1.0
1000
ANSI37
1070
     0
1070
     1
1071
        2
1071
        7
1070
     0
1070
     1
1071
       17
1040
13.26299999998673
1040
-0.0001000000000317
1040
9.236999999990758
1040
8.999899999990987
1040
9.236999999990758
1040
8.999999999991019
1040
5.657999999994331
1040
0.9999999999989768
1040
3.181999999996833
1040
4.668599999995308
1040
6.432999999993513
1040
8.763099999991255
1040
4.617999999995391
1040
8.763099999991255
1040
1.420999999998571
1040
4.736799999995242
1040
4.617999999995391
1040
-0.0001000000000317
1040
4.617999999995391
1040
0.0
1040
6.766999999993232
1040
0.0
1040
6.766999999993232
1040
-0.0001000000000317
1040
7.826999999992154
1040
2.368399999997621
1040
10.64699999998936
1040
2.368399999997621
1040
11.70599999998831
1040
-0.0001000000000317
1040
11.70599999998831
1040
0.0
1040
13.26299999998673
1040
0.0
1071
       12
1005
A335
1005
A336
1005
A33D
1005
A34C
1005
A34F
1005
A34D
1005
A33E
1005
A343
1005
A341
1005
A345
1005
A344
1005
A346
1071
       22
1070
     0
1070
     1
1071
        3
1040
9.236999999990758
1040
5.5200999999945
1040
10.06399999998996
1040
3.670999999996297
1040
8.409999999991555
1040
3.670999999996297
1071
        3
1005
A351
1005
A353
1005
A352
1070
     0
1070
     1
1040
0.0
1040
0.15
1070
     0
1070
     2
1040
0.7853981633974483
1040
49.29960901727088
1040
-10.17736998311392
1040
-0.3367596045400932
1040
0.3367596045400932
1070
     0
1040
2.356194490192345
1040
49.29960901727088
1040
-10.17736998311392
1040
-0.3367596045400932
1040
-0.3367596045400932
1070
     0
1040
0.0110235143455945
1071
        2
1040
3.614004224891801
1040
2.996669441146025
1040
0.0
1040
3.614004224891801
1040
2.996669441146025
1040
0.0
1002
}
  0
INSERT
  5
A377
330
A333
100
AcDbEntity
  8
0
100
AcDbBlockReference
  2
*X68
 10
0.0
 20
0.0
 30
0.0
1001
ACAD
1000
HATCH
1002
{
1070
    19
1000
ANSI37
1040
0.15
1040
0.0
1000
ASC_BOUNDS
1070
     1
1070
     2
1070
    10
1005
A337
1005
A338
1005
A359
1005
A357
1005
A358
1005
A34B
1005
A350
1005
A354
1005
A33A
1005
A339
1000
ASC_SEEDPOINT
1011
14.73245321214324
1021
2.798246178283421
1031
0.0
1000
R14_HATCH_DATA
1000
A377
1011
1.0
1021
0.0
1031
0.0
1011
0.0
1021
1.0
1031
0.0
1011
0.0
1021
0.0
1031
1.0
1040
0.0
1010
0.0
1020
0.0
1030
1.0
1000
ANSI37
1070
     0
1070
     1
1071
        1
1071
        7
1070
     0
1070
     1
1071
       10
1040
16.46099999998353
1040
5.432899999994561
1040
18.59199999998134
1040
-0.2368999999997641
1040
22.38199999997767
1040
8.763099999991255
1040
20.89099999997916
1040
8.763099999991255
1040
18.59799999998143
1040
3.315799999996671
1040
16.46099999998353
1040
8.999899999990987
1040
14.32399999998563
1040
3.315799999996671
1040
12.02999999998792
1040
8.763099999991255
1040
10.53899999998941
1040
8.763099999991255
1040
14.32899999998563
1040
-0.2368999999997641
1071
       10
1005
A337
1005
A338
1005
A359
1005
A357
1005
A358
1005
A34B
1005
A350
1005
A354
1005
A33A
1005
A339
1070
     0
1070
     1
1040
0.0
1040
0.15
1070
     0
1070
     2
1040
0.7853981633974483
1040
49.29960901727088
1040
-10.17736998311392
1040
-0.3367596045400932
1040
0.3367596045400932
1070
     0
1040
2.356194490192345
1040
49.29960901727088
1040
-10.17736998311392
1040
-0.3367596045400932
1040
-0.3367596045400932
1070
     0
1040
0.0110235143455945
1071
        1
1040
14.73245321214324
1040
2.798246178283421
1040
0.0
1002
}
  0
INSERT
  5
A378
330
A333
100
AcDbEntity
  8
0
100
AcDbBlockReference
  2
*X69
 10
0.0
 20
0.0
 30
0.0
1001
ACAD
1000
HATCH
1002
{
1070
    19
1000
ANSI37
1040
0.15
1040
0.0
1000
ASC_BOUNDS
1070
     2
1070
     2
1070
    13
1005
A33B
1005
A348
1005
A349
1005
A347
1005
A34A
1005
A371
1005
A375
1005
A370
1005
A36F
1005
A372
1005
A374
1005
A373
1005
A33C
1070
     2
1070
     3
1005
A355
1005
A35A
1005
A356
1000
ASC_SEEDPOINT
1011
21.97929957367762
1021
3.294304244259308
1031
0.0
1000
R14_HATCH_DATA
1000
A378
1011
1.0
1021
0.0
1031
0.0
1011
0.0
1021
1.0
1031
0.0
1011
0.0
1021
0.0
1031
1.0
1040
0.0
1010
0.0
1020
0.0
1030
1.0
1000
ANSI37
1070
     0
1070
     1
1071
        2
1071
        7
1070
     1
1070
     1
1071
       15
1040
23.56599999997638
1040
8.999899999990987
1040
0.0
1040
19.53899999998043
1040
-0.0001000000000317
1040
0.0
1040
19.53899999998043
1040
0.0
1040
0.0
1040
21.09599999997886
1040
0.0
1040
0.0
1040
21.09599999997886
1040
-0.0001000000000317
1040
0.0
1040
22.15599999997789
1040
2.368399999997621
1040
0.0
1040
24.97599999997499
1040
2.368399999997621
1040
0.0
1040
26.02015566812236
1040
0.0330999999912365
1040
0.0
1040
28.40199999996923
1040
0.0330999999912365
1040
0.414213562373095
1040
30.74199999996923
1040
2.373099999991211
1040
0.0
1040
30.74199999996927
1040
8.763099999991255
1040
0.0
1040
29.30199999996933
1040
8.763099999991255
1040
0.0
1040
29.30199999996933
1040
2.283099999991236
1040
-0.414213562373095
1040
28.40199999996923
1040
1.383099999991237
1040
0.0
1040
26.97358892824991
1040
1.383099999991202
1040
0.0
1071
       13
1005
A33B
1005
A348
1005
A349
1005
A347
1005
A34A
1005
A371
1005
A375
1005
A370
1005
A36F
1005
A372
1005
A374
1005
A373
1005
A33C
1071
       22
1070
     0
1070
     1
1071
        3
1040
22.7389999999773
1040
3.670999999996297
1040
23.56599999997638
1040
5.5200999999945
1040
24.39299999997559
1040
3.670999999996297
1071
        3
1005
A355
1005
A35A
1005
A356
1070
     0
1070
     1
1040
0.0
1040
0.15
1070
     0
1070
     2
1040
0.7853981633974483
1040
49.29960901727088
1040
-10.17736998311392
1040
-0.3367596045400932
1040
0.3367596045400932
1070
     0
1040
2.356194490192345
1040
49.29960901727088
1040
-10.17736998311392
1040
-0.3367596045400932
1040
-0.3367596045400932
1070
     0
1040
0.0110235143455945
1071
        2
1040
21.97929957367762
1040
3.294304244259308
1040
0.0
1040
21.97929957367762
1040
3.294304244259308
1040
0.0
1002
}
  0
INSERT
  5
A379
330
A333
100
AcDbEntity
  8
0
100
AcDbBlockReference
  2
*X70
 10
0.0
 20
0.0
 30
0.0
1001
ACAD
1000
HATCH
1002
{
1070
    19
1000
ANSI37
1040
0.15
1040
0.0
1000
R14_HATCH_DATA
1000
A379
1011
1.0
1021
0.0
1031
0.0
1011
0.0
1021
1.0
1031
0.0
1011
0.0
1021
0.0
1031
1.0
1040
0.0
1010
0.0
1020
0.0
1030
1.0
1000
ANSI37
1070
     0
1070
     1
1071
        1
1071
        7
1070
     1
1070
     1
1071
       12
1040
31.64199999996833
1040
2.481619422925121
1040
0.2679491924310942
1040
32.94699999997067
1040
0.2212931190493919
1040
0.2679491924301353
1040
36.36699999995983
1040
0.2212931190459813
1040
0.2679491924321411
1040
37.67199999996831
1040
2.481619422928361
1040
0.0
1040
37.67199999996831
1040
8.763099999991255
1040
0.0
1040
36.23199999996837
1040
8.763099999991255
1040
0.0
1040
36.23199999996837
1040
2.481619422925064
1040
-0.2679491924310291
1040
35.64699999996708
1040
1.468369700498386
1040
-0.267949192430519
1040
33.66699999997093
1040
1.468369700497703
1040
-0.267949192431809
1040
33.08199999996839
1040
2.481619422926997
1040
0.0
1040
33.08199999996839
1040
8.763099999991255
1040
0.0
1040
31.64199999996833
1040
8.763099999991255
1040
0.0
1071
        0
1070
     0
1070
     1
1040
0.0
1040
0.15
1070
     0
1070
     2
1040
0.7853981633974483
1040
49.29960901727088
1040
-10.17736998311392
1040
-0.3367596045400932
1040
0.3367596045400932
1070
     0
1040
2.356194490192345
1040
49.29960901727088
1040
-10.17736998311392
1040
-0.3367596045400932
1040
-0.3367596045400932
1070
     0
1040
0.0110235143455945
1071
        1
1040
32.30357378967278
1040
3.988785755459219
1040
0.0
1002
}
  0
INSERT
  5
A37A
330
A333
100
AcDbEntity
  8
0
100
AcDbBlockReference
  2
*X71
 10
0.0
 20
0.0
 30
0.0
1001
ACAD
1000
HATCH
1002
{
1070
    19
1000
ANSI37
1040
0.15
1040
0.0
1000
ASC_BOUNDS
1070
     1
1070
     2
1070
     8
1005
A35B
1005
A35E
1005
A362
1005
A361
1005
A360
1005
A35D
1005
A35F
1005
A35C
1000
ASC_SEEDPOINT
1011
39.74896370716704
1021
4.484843821435049
1031
0.0
1000
R14_HATCH_DATA
1000
A37A
1011
1.0
1021
0.0
1031
0.0
1011
0.0
1021
1.0
1031
0.0
1011
0.0
1021
0.0
1031
1.0
1040
0.0
1010
0.0
1020
0.0
1030
1.0
1000
ANSI37
1070
     0
1070
     1
1071
        1
1071
        7
1070
     0
1070
     1
1071
        9
1040
40.02599999995994
1040
5.341799999994635
1040
44.99999999995498
1040
-0.2368999999997641
1040
44.99999999995498
1040
8.763099999991255
1040
43.57899999995641
1040
8.763099999991255
1040
43.57899999995641
1040
3.421199999996588
1040
38.60499999996136
1040
8.999899999990987
1040
38.60499999996136
1040
8.999999999991019
1040
38.60499999996136
1040
0.0
1040
40.02599999995994
1040
0.0
1071
        8
1005
A35B
1005
A35E
1005
A362
1005
A361
1005
A360
1005
A35D
1005
A35F
1005
A35C
1070
     0
1070
     1
1040
0.0
1040
0.15
1070
     0
1070
     2
1040
0.7853981633974483
1040
49.29960901727088
1040
-10.17736998311392
1040
-0.3367596045400932
1040
0.3367596045400932
1070
     0
1040
2.356194490192345
1040
49.29960901727088
1040
-10.17736998311392
1040
-0.3367596045400932
1040
-0.3367596045400932
1070
     0
1040
0.0110235143455945
1071
        1
1040
39.74896370716704
1040
4.484843821435049
1040
0.0
1002
}
  0
INSERT
  5
A37B
330
A333
100
AcDbEntity
  8
0
100
AcDbBlockReference
  2
*X72
 10
0.0
 20
0.0
 30
0.0
1001
ACAD
1000
HATCH
1002
{
1070
    19
1000
ANSI37
1040
0.15
1040
0.0
1000
ASC_BOUNDS
1070
     1
1070
     2
1070
     4
1005
A33F
1005
A34E
1005
A340
1005
A342
1000
ASC_SEEDPOINT
1011
1.079051535452663
1021
4.148538732891836
1031
0.0
1000
R14_HATCH_DATA
1000
A37B
1011
1.0
1021
0.0
1031
0.0
1011
0.0
1021
1.0
1031
0.0
1011
0.0
1021
0.0
1031
1.0
1040
0.0
1010
0.0
1020
0.0
1030
1.0
1000
ANSI37
1070
     0
1070
     1
1071
        1
1071
        7
1070
     0
1070
     1
1071
        4
1040
1.420999999998571
1040
0.0
1040
1.420999999998571
1040
8.763099999991255
1040
0.0
1040
8.763099999991255
1040
0.0
1040
0.0
1071
        4
1005
A33F
1005
A34E
1005
A340
1005
A342
1070
     0
1070
     1
1040
0.0
1040
0.15
1070
     0
1070
     2
1040
0.7853981633974483
1040
49.29960901727088
1040
-10.17736998311392
1040
-0.3367596045400932
1040
0.3367596045400932
1070
     0
1040
2.356194490192345
1040
49.29960901727088
1040
-10.17736998311392
1040
-0.3367596045400932
1040
-0.3367596045400932
1070
     0
1040
0.0053004257112761
1071
        1
1040
1.079051535452663
1040
4.148538732891836
1040
0.0
1002
}
  0
ENDBLK
  5
AA57
330
A333
100
AcDbEntity
  8
0
100
AcDbBlockEnd
  0
BLOCK
  5
B72A
330
B728
100
AcDbEntity
  8
0
100
AcDbBlockBegin
  2
R5-45なべ
 70
     0
 10
0.0
 20
0.0
 30
0.0
  3
R5-45なべ
  1

  0
LINE
  5
B72B
330
B728
100
AcDbEntity
  8
0
100
AcDbLine
 10
45.0
 20
0.0
 30
0.0
 11
38.46891108675459
 21
1.75
 31
0.0
  0
LINE
  5
B72C
330
B728
100
AcDbEntity
  8
0
100
AcDbLine
 10
38.46891108675459
 20
1.75
 30
0.0
 11
-0.0000000000001137
 21
1.75
 31
0.0
  0
LINE
  5
B72D
330
B728
100
AcDbEntity
  8
0
100
AcDbLine
 10
45.0
 20
0.0
 30
0.0
 11
38.46891108675459
 21
-1.75
 31
0.0
  0
LINE
  5
B72E
330
B728
100
AcDbEntity
  8
0
100
AcDbLine
 10
0.0
 20
1.75
 30
0.0
 11
0.0
 21
4.5
 31
0.0
  0
LINE
  5
B72F
330
B728
100
AcDbEntity
  8
0
100
AcDbLine
 10
38.46891108675459
 20
-1.75
 30
0.0
 11
0.0
 21
-1.75
 31
0.0
  0
LINE
  5
B730
330
B728
100
AcDbEntity
  8
0
100
AcDbLine
 10
0.0
 20
4.5
 30
0.0
 11
-0.7999999999997272
 21
4.5
 31
0.0
  0
LINE
  5
B731
330
B728
100
AcDbEntity
  8
0
100
AcDbLine
 10
0.0
 20
-4.5
 30
0.0
 11
0.0
 21
-1.75
 31
0.0
  0
ARC
  5
B732
330
B728
100
AcDbEntity
  8
0
100
AcDbCircle
 10
-0.7999999999999545
 20
2.0
 30
0.0
 40
2.5
100
AcDbArc
 50
89.99999999999349
 51
180.0
  0
LINE
  5
B733
330
B728
100
AcDbEntity
  8
0
100
AcDbLine
 10
0.0
 20
-4.5
 30
0.0
 11
-0.8000000000000682
 21
-4.5
 31
0.0
  0
LINE
  5
B734
330
B728
100
AcDbEntity
  8
0
100
AcDbLine
 10
-3.300000000000068
 20
-2.0
 30
0.0
 11
-3.299999999999955
 21
2.0
 31
0.0
  0
ARC
  5
B735
330
B728
100
AcDbEntity
  8
0
100
AcDbCircle
 10
-0.8000000000000682
 20
-2.0
 30
0.0
 40
2.5
100
AcDbArc
 50
180.0
 51
270.0
  0
LINE
  5
B736
330
B728
100
AcDbEntity
  8
0
100
AcDbLine
 10
25.11786558604581
 20
2.5
 30
0.0
 11
26.11786558604581
 21
-2.5
 31
0.0
  0
LINE
  5
B737
330
B728
100
AcDbEntity
  8
1CENTER
100
AcDbLine
 10
46.70426435116383
 20
0.0
 30
0.0
 11
-5.86383953393306
 21
0.0
 31
0.0
  0
LINE
  5
B738
330
B728
100
AcDbEntity
  8
0
100
AcDbLine
 10
30.2678655860459
 20
-1.75
 30
0.0
 11
30.11786558604581
 21
-2.5
 31
0.0
  0
LINE
  5
B739
330
B728
100
AcDbEntity
  8
0
100
AcDbLine
 10
31.11786558604581
 20
2.5
 30
0.0
 11
32.11786558604581
 21
-2.5
 31
0.0
  0
LINE
  5
B73A
330
B728
100
AcDbEntity
  8
0
100
AcDbLine
 10
33.11786558604581
 20
2.5
 30
0.0
 11
32.96786558604595
 21
1.75
 31
0.0
  0
LINE
  5
B73B
330
B728
100
AcDbEntity
  8
0
100
AcDbLine
 10
31.11786558604581
 20
2.5
 30
0.0
 11
30.96786558604595
 21
1.75
 31
0.0
  0
LINE
  5
B73C
330
B728
100
AcDbEntity
  8
0
100
AcDbLine
 10
32.2678655860459
 20
-1.75
 30
0.0
 11
32.11786558604581
 21
-2.5
 31
0.0
  0
LINE
  5
B73D
330
B728
100
AcDbEntity
  8
0
100
AcDbLine
 10
26.2678655860459
 20
-1.75
 30
0.0
 11
26.11786558604581
 21
-2.5
 31
0.0
  0
LINE
  5
B73E
330
B728
100
AcDbEntity
  8
0
100
AcDbLine
 10
29.11786558604581
 20
2.5
 30
0.0
 11
30.11786558604581
 21
-2.5
 31
0.0
  0
LINE
  5
B73F
330
B728
100
AcDbEntity
  8
0
100
AcDbLine
 10
27.11786558604581
 20
2.5
 30
0.0
 11
28.11786558604581
 21
-2.5
 31
0.0
  0
LINE
  5
B740
330
B728
100
AcDbEntity
  8
0
100
AcDbLine
 10
27.11786558604581
 20
2.5
 30
0.0
 11
26.96786558604595
 21
1.75
 31
0.0
  0
LINE
  5
B741
330
B728
100
AcDbEntity
  8
0
100
AcDbLine
 10
29.11786558604581
 20
2.5
 30
0.0
 11
28.96786558604595
 21
1.75
 31
0.0
  0
LINE
  5
B742
330
B728
100
AcDbEntity
  8
0
100
AcDbLine
 10
28.2678655860459
 20
-1.75
 30
0.0
 11
28.11786558604581
 21
-2.5
 31
0.0
  0
LINE
  5
B743
330
B728
100
AcDbEntity
  8
0
100
AcDbLine
 10
43.3811095059425
 20
1.183780400517207
 30
0.0
 11
43.83053692343469
 21
-1.063356686943735
 31
0.0
  0
LINE
  5
B744
330
B728
100
AcDbEntity
  8
0
100
AcDbLine
 10
39.15461219783867
 20
2.316266941035792
 30
0.0
 11
40.03399309405688
 21
-2.080637540054795
 31
0.0
  0
LINE
  5
B745
330
B728
100
AcDbEntity
  8
0
100
AcDbLine
 10
39.15461219783867
 20
2.316266941035792
 30
0.0
 11
39.0046121978387
 21
1.566266941035792
 31
0.0
  0
LINE
  5
B746
330
B728
100
AcDbEntity
  8
0
100
AcDbLine
 10
37.11786558604581
 20
2.5
 30
0.0
 11
38.11786558604581
 21
-2.5
 31
0.0
  0
LINE
  5
B747
330
B728
100
AcDbEntity
  8
0
100
AcDbLine
 10
37.11786558604581
 20
2.5
 30
0.0
 11
36.96786558604595
 21
1.75
 31
0.0
  0
LINE
  5
B748
330
B728
100
AcDbEntity
  8
0
100
AcDbLine
 10
38.2678655860459
 20
-1.75
 30
0.0
 11
38.11786558604581
 21
-2.5
 31
0.0
  0
LINE
  5
B749
330
B728
100
AcDbEntity
  8
0
100
AcDbLine
 10
43.3811095059425
 20
1.183780400517207
 30
0.0
 11
43.23110950594241
 21
0.4337804005172075
 31
0.0
  0
LINE
  5
B74A
330
B728
100
AcDbEntity
  8
0
100
AcDbLine
 10
41.26786085189065
 20
1.7500236707765
 30
0.0
 11
41.93226500874573
 21
-1.571997113499492
 31
0.0
  0
LINE
  5
B74B
330
B728
100
AcDbEntity
  8
0
100
AcDbLine
 10
41.26786085189065
 20
1.7500236707765
 30
0.0
 11
41.11786085189055
 21
1.0000236707765
 31
0.0
  0
LINE
  5
B74C
330
B728
100
AcDbEntity
  8
0
100
AcDbLine
 10
42.08226500874571
 20
-0.8219971134994921
 30
0.0
 11
41.93226500874573
 21
-1.571997113499492
 31
0.0
  0
LINE
  5
B74D
330
B728
100
AcDbEntity
  8
0
100
AcDbLine
 10
40.18399309405686
 20
-1.330637540054795
 30
0.0
 11
40.03399309405688
 21
-2.080637540054795
 31
0.0
  0
LINE
  5
B74E
330
B728
100
AcDbEntity
  8
0
100
AcDbLine
 10
35.11786558604581
 20
2.5
 30
0.0
 11
36.11786558604581
 21
-2.5
 31
0.0
  0
LINE
  5
B74F
330
B728
100
AcDbEntity
  8
0
100
AcDbLine
 10
35.11786558604581
 20
2.5
 30
0.0
 11
34.96786558604595
 21
1.75
 31
0.0
  0
LINE
  5
B750
330
B728
100
AcDbEntity
  8
0
100
AcDbLine
 10
36.2678655860459
 20
-1.75
 30
0.0
 11
36.11786558604581
 21
-2.5
 31
0.0
  0
LINE
  5
B751
330
B728
100
AcDbEntity
  8
0
100
AcDbLine
 10
34.2678655860459
 20
-1.75
 30
0.0
 11
34.11786558604581
 21
-2.5
 31
0.0
  0
LINE
  5
B752
330
B728
100
AcDbEntity
  8
0
100
AcDbLine
 10
33.11786558604581
 20
2.5
 30
0.0
 11
34.11786558604581
 21
-2.5
 31
0.0
  0
LINE
  5
B753
330
B728
100
AcDbEntity
  8
0
100
AcDbLine
 10
43.98053692343456
 20
-0.3133566869437345
 30
0.0
 11
43.83053692343469
 21
-1.063356686943735
 31
0.0
  0
LINE
  5
B754
330
B728
100
AcDbEntity
  8
0
100
AcDbLine
 10
9.11786558604581
 20
2.5
 30
0.0
 11
10.11786558604581
 21
-2.5
 31
0.0
  0
LINE
  5
B755
330
B728
100
AcDbEntity
  8
0
100
AcDbLine
 10
10.2678655860459
 20
-1.75
 30
0.0
 11
10.11786558604581
 21
-2.5
 31
0.0
  0
LINE
  5
B756
330
B728
100
AcDbEntity
  8
0
100
AcDbLine
 10
11.11786558604581
 20
2.5
 30
0.0
 11
10.96786558604595
 21
1.75
 31
0.0
  0
LINE
  5
B757
330
B728
100
AcDbEntity
  8
0
100
AcDbLine
 10
6.2678655860459
 20
-1.75
 30
0.0
 11
6.117865586045809
 21
-2.5
 31
0.0
  0
LINE
  5
B758
330
B728
100
AcDbEntity
  8
0
100
AcDbLine
 10
5.117865586045923
 20
2.5
 30
0.0
 11
4.967865586045946
 21
1.75
 31
0.0
  0
LINE
  5
B759
330
B728
100
AcDbEntity
  8
0
100
AcDbLine
 10
5.117865586045923
 20
2.5
 30
0.0
 11
6.117865586045809
 21
-2.5
 31
0.0
  0
LINE
  5
B75A
330
B728
100
AcDbEntity
  8
0
100
AcDbLine
 10
8.2678655860459
 20
-1.75
 30
0.0
 11
8.11786558604581
 21
-2.5
 31
0.0
  0
LINE
  5
B75B
330
B728
100
AcDbEntity
  8
0
100
AcDbLine
 10
7.117865586045923
 20
2.5
 30
0.0
 11
6.967865586045946
 21
1.75
 31
0.0
  0
LINE
  5
B75C
330
B728
100
AcDbEntity
  8
0
100
AcDbLine
 10
7.117865586045923
 20
2.5
 30
0.0
 11
8.11786558604581
 21
-2.5
 31
0.0
  0
LINE
  5
B75D
330
B728
100
AcDbEntity
  8
0
100
AcDbLine
 10
9.11786558604581
 20
2.5
 30
0.0
 11
8.967865586045946
 21
1.75
 31
0.0
  0
LINE
  5
B75E
330
B728
100
AcDbEntity
  8
0
100
AcDbLine
 10
0.0
 20
-1.75
 30
0.0
 11
0.0
 21
1.75
 31
0.0
  0
LINE
  5
B75F
330
B728
100
AcDbEntity
  8
0
100
AcDbLine
 10
17.11786558604581
 20
2.5
 30
0.0
 11
18.11786558604581
 21
-2.5
 31
0.0
  0
LINE
  5
B760
330
B728
100
AcDbEntity
  8
0
100
AcDbLine
 10
19.11786558604581
 20
2.5
 30
0.0
 11
18.96786558604595
 21
1.75
 31
0.0
  0
LINE
  5
B761
330
B728
100
AcDbEntity
  8
0
100
AcDbLine
 10
17.11786558604581
 20
2.5
 30
0.0
 11
16.96786558604595
 21
1.75
 31
0.0
  0
LINE
  5
B762
330
B728
100
AcDbEntity
  8
0
100
AcDbLine
 10
18.2678655860459
 20
-1.75
 30
0.0
 11
18.11786558604581
 21
-2.5
 31
0.0
  0
LINE
  5
B763
330
B728
100
AcDbEntity
  8
0
100
AcDbLine
 10
21.11786558604581
 20
2.5
 30
0.0
 11
22.11786558604581
 21
-2.5
 31
0.0
  0
LINE
  5
B764
330
B728
100
AcDbEntity
  8
0
100
AcDbLine
 10
22.2678655860459
 20
-1.75
 30
0.0
 11
22.11786558604581
 21
-2.5
 31
0.0
  0
LINE
  5
B765
330
B728
100
AcDbEntity
  8
0
100
AcDbLine
 10
21.11786558604581
 20
2.5
 30
0.0
 11
20.96786558604595
 21
1.75
 31
0.0
  0
LINE
  5
B766
330
B728
100
AcDbEntity
  8
0
100
AcDbLine
 10
20.2678655860459
 20
-1.75
 30
0.0
 11
20.11786558604581
 21
-2.5
 31
0.0
  0
LINE
  5
B767
330
B728
100
AcDbEntity
  8
0
100
AcDbLine
 10
19.11786558604581
 20
2.5
 30
0.0
 11
20.11786558604581
 21
-2.5
 31
0.0
  0
LINE
  5
B768
330
B728
100
AcDbEntity
  8
0
100
AcDbLine
 10
12.2678655860459
 20
-1.75
 30
0.0
 11
12.11786558604581
 21
-2.5
 31
0.0
  0
LINE
  5
B769
330
B728
100
AcDbEntity
  8
0
100
AcDbLine
 10
14.2678655860459
 20
-1.75
 30
0.0
 11
14.11786558604581
 21
-2.5
 31
0.0
  0
LINE
  5
B76A
330
B728
100
AcDbEntity
  8
0
100
AcDbLine
 10
13.11786558604581
 20
2.5
 30
0.0
 11
12.96786558604595
 21
1.75
 31
0.0
  0
LINE
  5
B76B
330
B728
100
AcDbEntity
  8
0
100
AcDbLine
 10
13.11786558604581
 20
2.5
 30
0.0
 11
14.11786558604581
 21
-2.5
 31
0.0
  0
LINE
  5
B76C
330
B728
100
AcDbEntity
  8
0
100
AcDbLine
 10
15.11786558604581
 20
2.5
 30
0.0
 11
16.11786558604581
 21
-2.5
 31
0.0
  0
LINE
  5
B76D
330
B728
100
AcDbEntity
  8
0
100
AcDbLine
 10
15.11786558604581
 20
2.5
 30
0.0
 11
14.96786558604595
 21
1.75
 31
0.0
  0
LINE
  5
B76E
330
B728
100
AcDbEntity
  8
0
100
AcDbLine
 10
16.2678655860459
 20
-1.75
 30
0.0
 11
16.11786558604581
 21
-2.5
 31
0.0
  0
LINE
  5
B76F
330
B728
100
AcDbEntity
  8
0
100
AcDbLine
 10
11.11786558604581
 20
2.5
 30
0.0
 11
12.11786558604581
 21
-2.5
 31
0.0
  0
LINE
  5
B770
330
B728
100
AcDbEntity
  8
0
100
AcDbLine
 10
23.11786558604581
 20
2.5
 30
0.0
 11
24.11786558604581
 21
-2.5
 31
0.0
  0
LINE
  5
B771
330
B728
100
AcDbEntity
  8
0
100
AcDbLine
 10
25.11786558604581
 20
2.5
 30
0.0
 11
24.96786558604595
 21
1.75
 31
0.0
  0
LINE
  5
B772
330
B728
100
AcDbEntity
  8
0
100
AcDbLine
 10
24.2678655860459
 20
-1.75
 30
0.0
 11
24.11786558604581
 21
-2.5
 31
0.0
  0
LINE
  5
B773
330
B728
100
AcDbEntity
  8
0
100
AcDbLine
 10
23.11786558604581
 20
2.5
 30
0.0
 11
22.96786558604595
 21
1.75
 31
0.0
  0
LINE
  5
B774
330
B728
100
AcDbEntity
  8
0
100
AcDbLine
 10
4.2678655860459
 20
-1.75
 30
0.0
 11
4.117865586045809
 21
-2.5
 31
0.0
  0
LINE
  5
B775
330
B728
100
AcDbEntity
  8
0
100
AcDbLine
 10
3.117865586045923
 20
2.5
 30
0.0
 11
2.967865586045946
 21
1.75
 31
0.0
  0
LINE
  5
B776
330
B728
100
AcDbEntity
  8
0
100
AcDbLine
 10
3.117865586045923
 20
2.5
 30
0.0
 11
4.117865586045809
 21
-2.5
 31
0.0
  0
LINE
  5
B777
330
B728
100
AcDbEntity
  8
0
100
AcDbLine
 10
2.2678655860459
 20
-1.75
 30
0.0
 11
2.117865586045809
 21
-2.5
 31
0.0
  0
LINE
  5
B778
330
B728
100
AcDbEntity
  8
0
100
AcDbLine
 10
1.117865586045923
 20
2.5
 30
0.0
 11
0.9678655860459457
 21
1.75
 31
0.0
  0
LINE
  5
B779
330
B728
100
AcDbEntity
  8
0
100
AcDbLine
 10
1.117865586045923
 20
2.5
 30
0.0
 11
2.117865586045809
 21
-2.5
 31
0.0
  0
ENDBLK
  5
B77A
330
B728
100
AcDbEntity
  8
0
100
AcDbBlockEnd
  0
BLOCK
  5
BE8A
330
BCFC
100
AcDbEntity
  8
0
100
AcDbBlockBegin
  2
*X67
 70
     1
 10
0.0
 20
0.0
 30
0.0
  3
*X67
  1

  0
LINE
  5
BCFD
330
BCFC
100
AcDbEntity
  8
0
  6
CONTINUOUS
100
AcDbLine
 10
3.418023043697893
 20
7.251849696850613
 30
0.0
 11
4.929273346838536
 21
8.763099999991255
 31
0.0
  0
LINE
  5
BCFE
330
BCFC
100
AcDbEntity
  8
0
  6
CONTINUOUS
100
AcDbLine
 10
1.483656411257782
 20
4.643963855330318
 30
0.0
 11
5.60279255591872
 21
8.763099999991255
 31
0.0
  0
LINE
  5
BCFF
330
BCFC
100
AcDbEntity
  8
0
  6
CONTINUOUS
100
AcDbLine
 10
1.755053947328235
 20
4.241842182320584
 30
0.0
 11
6.276311764998907
 21
8.763099999991255
 31
0.0
  0
LINE
  5
BD00
330
BCFC
100
AcDbEntity
  8
0
  6
CONTINUOUS
100
AcDbLine
 10
2.026451483398688
 20
3.839720509310849
 30
0.0
 11
4.441040904851878
 21
6.254309930764039
 31
0.0
  0
LINE
  5
BD01
330
BCFC
100
AcDbEntity
  8
0
  6
CONTINUOUS
100
AcDbLine
 10
2.297849019469139
 20
3.437598836301114
 30
0.0
 11
3.321765168359338
 21
4.461514985191313
 31
0.0
  0
LINE
  5
BD02
330
BCFC
100
AcDbEntity
  8
0
  6
CONTINUOUS
100
AcDbLine
 10
2.569246555539591
 20
3.03547716329138
 30
0.0
 11
3.593163397972743
 21
4.059394005724531
 31
0.0
  0
LINE
  5
BD03
330
BCFC
100
AcDbEntity
  8
0
  6
CONTINUOUS
100
AcDbLine
 10
2.840644091610043
 20
2.633355490281646
 30
0.0
 11
3.864561627586149
 21
3.657273026257751
 31
0.0
  0
LINE
  5
BD04
330
BCFC
100
AcDbEntity
  8
0
  6
CONTINUOUS
100
AcDbLine
 10
3.112041627680496
 20
2.231233817271911
 30
0.0
 11
4.135959857199554
 21
3.25515204679097
 31
0.0
  0
LINE
  5
BD05
330
BCFC
100
AcDbEntity
  8
0
  6
CONTINUOUS
100
AcDbLine
 10
3.383439163750948
 20
1.829112144262177
 30
0.0
 11
4.40735808681296
 21
2.853031067324189
 31
0.0
  0
LINE
  5
BD06
330
BCFC
100
AcDbEntity
  8
0
  6
CONTINUOUS
100
AcDbLine
 10
3.654836699821399
 20
1.426990471252442
 30
0.0
 11
4.678756316426365
 21
2.450910087857407
 31
0.0
  0
LINE
  5
BD07
330
BCFC
100
AcDbEntity
  8
0
  6
CONTINUOUS
100
AcDbLine
 10
3.926234235891853
 20
1.024868798242709
 30
0.0
 11
4.95015454603977
 21
2.048789108390626
 31
0.0
  0
LINE
  5
BD08
330
BCFC
100
AcDbEntity
  8
0
  6
CONTINUOUS
100
AcDbLine
 10
4.197631771962304
 20
0.6227471252329737
 30
0.0
 11
5.221552775653176
 21
1.646668128923846
 31
0.0
  0
LINE
  5
BD09
330
BCFC
100
AcDbEntity
  8
0
  6
CONTINUOUS
100
AcDbLine
 10
8.715877546767851
 20
7.835069736359266
 30
0.0
 11
9.435953450375058
 21
8.555145639966472
 31
0.0
  0
LINE
  5
BD0A
330
BCFC
100
AcDbEntity
  8
0
  6
CONTINUOUS
100
AcDbLine
 10
8.170620868422267
 20
6.616293848933497
 30
0.0
 11
9.644120833743461
 21
8.08979381425469
 31
0.0
  0
LINE
  5
BD0B
330
BCFC
100
AcDbEntity
  8
0
  6
CONTINUOUS
100
AcDbLine
 10
7.625364190076684
 20
5.397517961507727
 30
0.0
 11
9.852288217111864
 21
7.624441988542907
 31
0.0
  0
LINE
  5
BD0C
330
BCFC
100
AcDbEntity
  8
0
  6
CONTINUOUS
100
AcDbLine
 10
7.080107511731101
 20
4.178742074081957
 30
0.0
 11
10.06045560048027
 21
7.159090162831124
 31
0.0
  0
LINE
  5
BD0D
330
BCFC
100
AcDbEntity
  8
0
  6
CONTINUOUS
100
AcDbLine
 10
6.534850833385518
 20
2.959966186656187
 30
0.0
 11
10.26862298384867
 21
6.693738337119342
 31
0.0
  0
LINE
  5
BD0E
330
BCFC
100
AcDbEntity
  8
0
  6
CONTINUOUS
100
AcDbLine
 10
4.469029308032756
 20
0.2206254522232385
 30
0.0
 11
5.492951005266582
 21
1.244547149457064
 31
0.0
  0
LINE
  5
BD0F
330
BCFC
100
AcDbEntity
  8
0
  6
CONTINUOUS
100
AcDbLine
 10
5.989594155039935
 20
1.741190299230417
 30
0.0
 11
8.806950407233131
 21
4.558546551423613
 31
0.0
  0
LINE
  5
BD10
330
BCFC
100
AcDbEntity
  8
0
  6
CONTINUOUS
100
AcDbLine
 10
9.401251593263643
 20
5.152847737454126
 30
0.0
 11
10.47679036721708
 21
6.228386511407559
 31
0.0
  0
LINE
  5
BD11
330
BCFC
100
AcDbEntity
  8
0
  6
CONTINUOUS
100
AcDbLine
 10
4.921837203428691
 20
-0.0000858614610131
 30
0.0
 11
8.592923064886001
 21
3.670999999996297
 31
0.0
  0
LINE
  5
BD12
330
BCFC
100
AcDbEntity
  8
0
  6
CONTINUOUS
100
AcDbLine
 10
9.609390446785305
 20
4.6874673818956
 30
0.0
 11
10.68495775058548
 21
5.763034685695775
 31
0.0
  0
LINE
  5
BD13
330
BCFC
100
AcDbEntity
  8
0
  6
CONTINUOUS
100
AcDbLine
 10
5.595387755019432
 20
-0.0000545189504582
 30
0.0
 11
7.716137258923768
 21
2.120694984953879
 31
0.0
  0
LINE
  5
BD14
330
BCFC
100
AcDbEntity
  8
0
  6
CONTINUOUS
100
AcDbLine
 10
6.268938306610172
 20
-0.000023176439905
 30
0.0
 11
7.170485805526503
 21
0.9015243224764267
 31
0.0
  0
LINE
  5
BD15
330
BCFC
100
AcDbEntity
  8
0
  6
CONTINUOUS
100
AcDbLine
 10
7.963842273967511
 20
2.368399999997621
 30
0.0
 11
9.266442273966188
 21
3.670999999996297
 31
0.0
  0
LINE
  5
BD16
330
BCFC
100
AcDbEntity
  8
0
  6
CONTINUOUS
100
AcDbLine
 10
8.637361483047696
 20
2.368399999997621
 30
0.0
 11
9.939961483046375
 21
3.670999999996297
 31
0.0
  0
LINE
  5
BD17
330
BCFC
100
AcDbEntity
  8
0
  6
CONTINUOUS
100
AcDbLine
 10
9.817529300306965
 20
4.222087026337075
 30
0.0
 11
10.89312513395388
 21
5.297682859983993
 31
0.0
  0
LINE
  5
BD18
330
BCFC
100
AcDbEntity
  8
0
  6
CONTINUOUS
100
AcDbLine
 10
10.02566815382863
 20
3.756706670778549
 30
0.0
 11
11.10129251732229
 21
4.832331034272211
 31
0.0
  0
LINE
  5
BD19
330
BCFC
100
AcDbEntity
  8
0
  6
CONTINUOUS
100
AcDbLine
 10
9.310880692127883
 20
2.368399999997621
 30
0.0
 11
11.30945990069069
 21
4.366979208560428
 31
0.0
  0
LINE
  5
BD1A
330
BCFC
100
AcDbEntity
  8
0
  6
CONTINUOUS
100
AcDbLine
 10
9.98439990120807
 20
2.36839999999762
 30
0.0
 11
11.5176272840591
 21
3.901627382848645
 31
0.0
  0
LINE
  5
BD1B
330
BCFC
100
AcDbEntity
  8
0
  6
CONTINUOUS
100
AcDbLine
 10
10.65037369446246
 20
2.36085458417182
 30
0.0
 11
11.7257946674275
 21
3.436275557136862
 31
0.0
  0
LINE
  5
BD1C
330
BCFC
100
AcDbEntity
  8
0
  6
CONTINUOUS
100
AcDbLine
 10
10.85847197087848
 20
1.895433651507656
 30
0.0
 11
11.9339620507959
 21
2.97092373142508
 31
0.0
  0
LINE
  5
BD1D
330
BCFC
100
AcDbEntity
  8
0
  6
CONTINUOUS
100
AcDbLine
 10
11.0665702472945
 20
1.430012718843491
 30
0.0
 11
12.14212943416431
 21
2.505571905713296
 31
0.0
  0
LINE
  5
BD1E
330
BCFC
100
AcDbEntity
  8
0
  6
CONTINUOUS
100
AcDbLine
 10
11.27466852371052
 20
0.9645917861793256
 30
0.0
 11
12.35029681753271
 21
2.040220080001513
 31
0.0
  0
LINE
  5
BD1F
330
BCFC
100
AcDbEntity
  8
0
  6
CONTINUOUS
100
AcDbLine
 10
11.48276680012654
 20
0.4991708535151611
 30
0.0
 11
12.55846420090111
 21
1.57486825428973
 31
0.0
  0
LINE
  5
BD20
330
BCFC
100
AcDbEntity
  8
0
  6
CONTINUOUS
100
AcDbLine
 10
11.69086507654257
 20
0.0337499208509957
 30
0.0
 11
12.76663158426952
 21
1.109516428577947
 31
0.0
  0
LINE
  5
BD21
330
BCFC
100
AcDbEntity
  8
0
  6
CONTINUOUS
100
AcDbLine
 10
12.33057447873954
 20
-0.0000598860322123
 30
0.0
 11
12.97479896763792
 21
0.6441646028661663
 31
0.0
  0
LINE
  5
BD22
330
BCFC
100
AcDbEntity
  8
0
  6
CONTINUOUS
100
AcDbLine
 10
13.00413694809395
 20
-0.0000166257579952
 30
0.0
 11
13.18296635100632
 21
0.1788127771543824
 31
0.0
  0
LINE
  5
BD23
330
BCFC
100
AcDbEntity
  8
0
  6
CONTINUOUS
100
AcDbLine
 10
4.772852165289667
 20
-0.000092794222212
 30
0.0
 11
4.296495091028902
 21
0.4762642800385528
 31
0.0
  0
LINE
  5
BD24
330
BCFC
100
AcDbEntity
  8
0
  6
CONTINUOUS
100
AcDbLine
 10
5.446340034776103
 20
-0.0000614546284616
 30
0.0
 11
2.898195908335625
 21
2.548082671812017
 31
0.0
  0
LINE
  5
BD25
330
BCFC
100
AcDbEntity
  8
0
  6
CONTINUOUS
100
AcDbLine
 10
6.119827904262539
 20
-0.0000301150347113
 30
0.0
 11
1.499896725642348
 21
4.61990106358548
 31
0.0
  0
LINE
  5
BD26
330
BCFC
100
AcDbEntity
  8
0
  6
CONTINUOUS
100
AcDbLine
 10
6.775136745476159
 20
0.0181802528318542
 30
0.0
 11
5.699826040202669
 21
1.093490958105344
 31
0.0
  0
LINE
  5
BD27
330
BCFC
100
AcDbEntity
  8
0
  6
CONTINUOUS
100
AcDbLine
 10
6.983376846288489
 20
0.4834593610997118
 30
0.0
 11
5.908008617934405
 21
1.558827589453796
 31
0.0
  0
LINE
  5
BD28
330
BCFC
100
AcDbEntity
  8
0
  6
CONTINUOUS
100
AcDbLine
 10
5.377063484962296
 20
1.416253513345719
 30
0.0
 11
1.702276957014131
 21
5.091040041293883
 31
0.0
  0
LINE
  5
BD29
330
BCFC
100
AcDbEntity
  8
0
  6
CONTINUOUS
100
AcDbLine
 10
3.978745891735324
 20
3.488090315652877
 30
0.0
 11
2.000373521109399
 21
5.466462686278803
 31
0.0
  0
LINE
  5
BD2A
330
BCFC
100
AcDbEntity
  8
0
  6
CONTINUOUS
100
AcDbLine
 10
7.191616947100819
 20
0.948738469367568
 30
0.0
 11
6.11619119566614
 21
2.024164220802247
 31
0.0
  0
LINE
  5
BD2B
330
BCFC
100
AcDbEntity
  8
0
  6
CONTINUOUS
100
AcDbLine
 10
7.399857047913149
 20
1.414017577635424
 30
0.0
 11
6.324373773397875
 21
2.489500852150698
 31
0.0
  0
LINE
  5
BD2C
330
BCFC
100
AcDbEntity
  8
0
  6
CONTINUOUS
100
AcDbLine
 10
7.608097148725479
 20
1.879296685903281
 30
0.0
 11
6.53255635112961
 21
2.95483748349915
 31
0.0
  0
LINE
  5
BD2D
330
BCFC
100
AcDbEntity
  8
0
  6
CONTINUOUS
100
AcDbLine
 10
7.816337249537808
 20
2.344575794171138
 30
0.0
 11
6.740738928861345
 21
3.420174114847601
 31
0.0
  0
LINE
  5
BD2E
330
BCFC
100
AcDbEntity
  8
0
  6
CONTINUOUS
100
AcDbLine
 10
3.310241080789734
 20
4.830114335678653
 30
0.0
 11
2.298470085204666
 21
5.84188533126372
 31
0.0
  0
LINE
  5
BD2F
330
BCFC
100
AcDbEntity
  8
0
  6
CONTINUOUS
100
AcDbLine
 10
3.60832983563551
 20
5.205544789913063
 30
0.0
 11
2.596566649299935
 21
6.217307976248638
 31
0.0
  0
LINE
  5
BD30
330
BCFC
100
AcDbEntity
  8
0
  6
CONTINUOUS
100
AcDbLine
 10
3.906418590481286
 20
5.580975244147473
 30
0.0
 11
2.894663213395203
 21
6.592730621233557
 31
0.0
  0
LINE
  5
BD31
330
BCFC
100
AcDbEntity
  8
0
  6
CONTINUOUS
100
AcDbLine
 10
4.204507345327062
 20
5.956405698381884
 30
0.0
 11
3.192759777490472
 21
6.968153266218474
 31
0.0
  0
LINE
  5
BD32
330
BCFC
100
AcDbEntity
  8
0
  6
CONTINUOUS
100
AcDbLine
 10
8.466032252791512
 20
2.368399999997621
 30
0.0
 11
6.948921506593081
 21
3.885510746196053
 31
0.0
  0
LINE
  5
BD33
330
BCFC
100
AcDbEntity
  8
0
  6
CONTINUOUS
100
AcDbLine
 10
9.139551461871699
 20
2.36839999999762
 30
0.0
 11
7.157104084324816
 21
4.350847377544504
 31
0.0
  0
LINE
  5
BD34
330
BCFC
100
AcDbEntity
  8
0
  6
CONTINUOUS
100
AcDbLine
 10
4.502596100172839
 20
6.331836152616295
 30
0.0
 11
3.49085634158574
 21
7.343575911203393
 31
0.0
  0
LINE
  5
BD35
330
BCFC
100
AcDbEntity
  8
0
  6
CONTINUOUS
100
AcDbLine
 10
4.800684855018615
 20
6.707266606850705
 30
0.0
 11
3.788952905681008
 21
7.718998556188312
 31
0.0
  0
LINE
  5
BD36
330
BCFC
100
AcDbEntity
  8
0
  6
CONTINUOUS
100
AcDbLine
 10
12.18154012887317
 20
-0.0000694579236642
 30
0.0
 11
11.32140332908496
 21
0.8600673418645499
 31
0.0
  0
LINE
  5
BD37
330
BCFC
100
AcDbEntity
  8
0
  6
CONTINUOUS
100
AcDbLine
 10
12.85501608323566
 20
-0.0000262032059659
 30
0.0
 11
10.77672456435345
 21
2.078265315676246
 31
0.0
  0
LINE
  5
BD38
330
BCFC
100
AcDbEntity
  8
0
  6
CONTINUOUS
100
AcDbLine
 10
9.813070670951886
 20
2.36839999999762
 30
0.0
 11
8.51047067095321
 21
3.670999999996297
 31
0.0
  0
LINE
  5
BD39
330
BCFC
100
AcDbEntity
  8
0
  6
CONTINUOUS
100
AcDbLine
 10
10.48658988003207
 20
2.36839999999762
 30
0.0
 11
9.183989880033396
 21
3.670999999996297
 31
0.0
  0
LINE
  5
BD3A
330
BCFC
100
AcDbEntity
  8
0
  6
CONTINUOUS
100
AcDbLine
 10
8.441048632286794
 20
3.740422038662712
 30
0.0
 11
7.365286662056551
 21
4.816184008892956
 31
0.0
  0
LINE
  5
BD3B
330
BCFC
100
AcDbEntity
  8
0
  6
CONTINUOUS
100
AcDbLine
 10
8.649187485808454
 20
4.205802394221237
 30
0.0
 11
7.573469239788285
 21
5.281520640241407
 31
0.0
  0
LINE
  5
BD3C
330
BCFC
100
AcDbEntity
  8
0
  6
CONTINUOUS
100
AcDbLine
 10
5.098773609864391
 20
7.082697061085115
 30
0.0
 11
4.087049469776277
 21
8.09442120117323
 31
0.0
  0
LINE
  5
BD3D
330
BCFC
100
AcDbEntity
  8
0
  6
CONTINUOUS
100
AcDbLine
 10
5.396862364710167
 20
7.458127515319526
 30
0.0
 11
4.385146033871544
 21
8.469843846158149
 31
0.0
  0
LINE
  5
BD3E
330
BCFC
100
AcDbEntity
  8
0
  6
CONTINUOUS
100
AcDbLine
 10
13.04801363231285
 20
0.4804954567970334
 30
0.0
 11
9.85750908911358
 21
3.670999999996297
 31
0.0
  0
LINE
  5
BD3F
330
BCFC
100
AcDbEntity
  8
0
  6
CONTINUOUS
100
AcDbLine
 10
8.857326339330116
 20
4.671182749779763
 30
0.0
 11
7.781651817520021
 21
5.746857271589858
 31
0.0
  0
LINE
  5
BD40
330
BCFC
100
AcDbEntity
  8
0
  6
CONTINUOUS
100
AcDbLine
 10
5.694951119555943
 20
7.833557969553937
 30
0.0
 11
4.765409089118624
 21
8.763099999991255
 31
0.0
  0
LINE
  5
BD41
330
BCFC
100
AcDbEntity
  8
0
  6
CONTINUOUS
100
AcDbLine
 10
12.50286117236978
 20
1.699167125820288
 30
0.0
 11
9.68611877250287
 21
4.515909525687196
 31
0.0
  0
LINE
  5
BD42
330
BCFC
100
AcDbEntity
  8
0
  6
CONTINUOUS
100
AcDbLine
 10
9.065465192851777
 20
5.136563105338288
 30
0.0
 11
7.989834395251757
 21
6.21219390293831
 31
0.0
  0
LINE
  5
BD43
330
BCFC
100
AcDbEntity
  8
0
  6
CONTINUOUS
100
AcDbLine
 10
5.993039874401719
 20
8.208988423788346
 30
0.0
 11
5.43892829819881
 21
8.763099999991255
 31
0.0
  0
LINE
  5
BD44
330
BCFC
100
AcDbEntity
  8
0
  6
CONTINUOUS
100
AcDbLine
 10
11.95770871242671
 20
2.917838794843543
 30
0.0
 11
8.19801697298349
 21
6.677530534286761
 31
0.0
  0
LINE
  5
BD45
330
BCFC
100
AcDbEntity
  8
0
  6
CONTINUOUS
100
AcDbLine
 10
6.291128629247495
 20
8.584418878022756
 30
0.0
 11
6.112447507278997
 21
8.763099999991255
 31
0.0
  0
LINE
  5
BD46
330
BCFC
100
AcDbEntity
  8
0
  6
CONTINUOUS
100
AcDbLine
 10
11.41255625248364
 20
4.136510463866797
 30
0.0
 11
8.406199550715227
 21
7.142867165635211
 31
0.0
  0
LINE
  5
BD47
330
BCFC
100
AcDbEntity
  8
0
  6
CONTINUOUS
100
AcDbLine
 10
10.86740379254057
 20
5.355182132890051
 30
0.0
 11
8.614382128446962
 21
7.608203796983664
 31
0.0
  0
LINE
  5
BD48
330
BCFC
100
AcDbEntity
  8
0
  6
CONTINUOUS
100
AcDbLine
 10
10.3222513325975
 20
6.573853801913305
 30
0.0
 11
8.822564706178696
 21
8.073540428332114
 31
0.0
  0
LINE
  5
BD49
330
BCFC
100
AcDbEntity
  8
0
  6
CONTINUOUS
100
AcDbLine
 10
9.777098872654436
 20
7.792525470936562
 30
0.0
 11
9.030747283910433
 21
8.538877059680566
 31
0.0
  0
ENDBLK
  5
BE8B
330
BCFC
100
AcDbEntity
  8
0
100
AcDbBlockEnd
  0
BLOCK
  5
BE8C
330
BD4A
100
AcDbEntity
  8
0
100
AcDbBlockBegin
  2
*X68
 70
     1
 10
0.0
 20
0.0
 30
0.0
  3
*X68
  1

  0
LINE
  5
BD4B
330
BD4A
100
AcDbEntity
  8
0
  6
CONTINUOUS
100
AcDbLine
 10
10.67292308101235
 20
8.445076852443387
 30
0.0
 11
10.99094622856022
 21
8.763099999991255
 31
0.0
  0
LINE
  5
BD4C
330
BD4A
100
AcDbEntity
  8
0
  6
CONTINUOUS
100
AcDbLine
 10
10.87250383178748
 20
7.971138394138331
 30
0.0
 11
11.6644654376404
 21
8.763099999991255
 31
0.0
  0
LINE
  5
BD4D
330
BD4A
100
AcDbEntity
  8
0
  6
CONTINUOUS
100
AcDbLine
 10
11.07208458256261
 20
7.497199935833273
 30
0.0
 11
12.12126590876355
 21
8.546381262034211
 31
0.0
  0
LINE
  5
BD4E
330
BD4A
100
AcDbEntity
  8
0
  6
CONTINUOUS
100
AcDbLine
 10
11.27166533333774
 20
7.023261477528216
 30
0.0
 11
12.32085164573666
 21
8.072447789927136
 31
0.0
  0
LINE
  5
BD4F
330
BD4A
100
AcDbEntity
  8
0
  6
CONTINUOUS
100
AcDbLine
 10
11.47124608411287
 20
6.549323019223158
 30
0.0
 11
12.52043738270977
 21
7.59851431782006
 31
0.0
  0
LINE
  5
BD50
330
BD4A
100
AcDbEntity
  8
0
  6
CONTINUOUS
100
AcDbLine
 10
11.670826834888
 20
6.075384560918101
 30
0.0
 11
12.72002311968288
 21
7.124580845712984
 31
0.0
  0
LINE
  5
BD51
330
BD4A
100
AcDbEntity
  8
0
  6
CONTINUOUS
100
AcDbLine
 10
11.87040758566313
 20
5.601446102613043
 30
0.0
 11
12.91960885665599
 21
6.650647373605907
 31
0.0
  0
LINE
  5
BD52
330
BD4A
100
AcDbEntity
  8
0
  6
CONTINUOUS
100
AcDbLine
 10
12.06998833643825
 20
5.127507644307986
 30
0.0
 11
13.1191945936291
 21
6.176713901498832
 31
0.0
  0
LINE
  5
BD53
330
BD4A
100
AcDbEntity
  8
0
  6
CONTINUOUS
100
AcDbLine
 10
12.26956908721338
 20
4.65356918600293
 30
0.0
 11
13.31878033060221
 21
5.702780429391757
 31
0.0
  0
LINE
  5
BD54
330
BD4A
100
AcDbEntity
  8
0
  6
CONTINUOUS
100
AcDbLine
 10
12.46914983798851
 20
4.179630727697873
 30
0.0
 11
13.51836606757532
 21
5.228846957284683
 31
0.0
  0
LINE
  5
BD55
330
BD4A
100
AcDbEntity
  8
0
  6
CONTINUOUS
100
AcDbLine
 10
12.66873058876364
 20
3.705692269392816
 30
0.0
 11
13.71795180454843
 21
4.754913485177607
 31
0.0
  0
LINE
  5
BD56
330
BD4A
100
AcDbEntity
  8
0
  6
CONTINUOUS
100
AcDbLine
 10
12.86831133953877
 20
3.231753811087759
 30
0.0
 11
13.91753754152154
 21
4.280980013070531
 31
0.0
  0
LINE
  5
BD57
330
BD4A
100
AcDbEntity
  8
0
  6
CONTINUOUS
100
AcDbLine
 10
13.0678920903139
 20
2.757815352782702
 30
0.0
 11
14.11712327849465
 21
3.807046540963456
 31
0.0
  0
LINE
  5
BD58
330
BD4A
100
AcDbEntity
  8
0
  6
CONTINUOUS
100
AcDbLine
 10
13.26747284108903
 20
2.283876894477644
 30
0.0
 11
14.31670901546777
 21
3.333113068856379
 31
0.0
  0
LINE
  5
BD59
330
BD4A
100
AcDbEntity
  8
0
  6
CONTINUOUS
100
AcDbLine
 10
16.36767838827179
 20
8.751678487061342
 30
0.0
 11
16.50332410898388
 21
8.887324207773432
 31
0.0
  0
LINE
  5
BD5A
330
BD4A
100
AcDbEntity
  8
0
  6
CONTINUOUS
100
AcDbLine
 10
15.96190732182191
 20
7.67238821153127
 30
0.0
 11
16.68735328004734
 21
8.397834169756699
 31
0.0
  0
LINE
  5
BD5B
330
BD4A
100
AcDbEntity
  8
0
  6
CONTINUOUS
100
AcDbLine
 10
15.55613625537202
 20
6.593097936001196
 30
0.0
 11
16.87138245111079
 21
7.908344131739965
 31
0.0
  0
LINE
  5
BD5C
330
BD4A
100
AcDbEntity
  8
0
  6
CONTINUOUS
100
AcDbLine
 10
15.15036518892213
 20
5.513807660471122
 30
0.0
 11
17.05541162217424
 21
7.418854093723231
 31
0.0
  0
LINE
  5
BD5D
330
BD4A
100
AcDbEntity
  8
0
  6
CONTINUOUS
100
AcDbLine
 10
14.74459412247225
 20
4.434517384941048
 30
0.0
 11
17.2394407932377
 21
6.929364055706499
 31
0.0
  0
LINE
  5
BD5E
330
BD4A
100
AcDbEntity
  8
0
  6
CONTINUOUS
100
AcDbLine
 10
14.33882305602236
 20
3.355227109410975
 30
0.0
 11
17.42346996430115
 21
6.439874017689766
 31
0.0
  0
LINE
  5
BD5F
330
BD4A
100
AcDbEntity
  8
0
  6
CONTINUOUS
100
AcDbLine
 10
13.46705359186416
 20
1.809938436172586
 30
0.0
 11
16.0819338255367
 21
4.424818669845129
 31
0.0
  0
LINE
  5
BD60
330
BD4A
100
AcDbEntity
  8
0
  6
CONTINUOUS
100
AcDbLine
 10
16.63283254238972
 20
4.975717386698149
 30
0.0
 11
17.60749913536461
 21
5.950383979673033
 31
0.0
  0
LINE
  5
BD61
330
BD4A
100
AcDbEntity
  8
0
  6
CONTINUOUS
100
AcDbLine
 10
13.66663434263929
 20
1.335999977867529
 30
0.0
 11
15.67604797733754
 21
3.345413612565779
 31
0.0
  0
LINE
  5
BD62
330
BD4A
100
AcDbEntity
  8
0
  6
CONTINUOUS
100
AcDbLine
 10
13.86621509341442
 20
0.8620615195624723
 30
0.0
 11
15.27016212913838
 21
2.26600855528643
 31
0.0
  0
LINE
  5
BD63
330
BD4A
100
AcDbEntity
  8
0
  6
CONTINUOUS
100
AcDbLine
 10
16.81682257348267
 20
4.486188208710908
 30
0.0
 11
17.79152830642806
 21
5.460893941656299
 31
0.0
  0
LINE
  5
BD64
330
BD4A
100
AcDbEntity
  8
0
  6
CONTINUOUS
100
AcDbLine
 10
17.00081260457561
 20
3.996659030723667
 30
0.0
 11
17.97555747749151
 21
4.971403903639565
 31
0.0
  0
LINE
  5
BD65
330
BD4A
100
AcDbEntity
  8
0
  6
CONTINUOUS
100
AcDbLine
 10
20.74362343514722
 20
8.412989070375462
 30
0.0
 11
21.09373436476302
 21
8.763099999991256
 31
0.0
  0
LINE
  5
BD66
330
BD4A
100
AcDbEntity
  8
0
  6
CONTINUOUS
100
AcDbLine
 10
20.25401257174777
 20
7.249858997895826
 30
0.0
 11
21.7672535738432
 21
8.763099999991255
 31
0.0
  0
LINE
  5
BD67
330
BD4A
100
AcDbEntity
  8
0
  6
CONTINUOUS
100
AcDbLine
 10
14.06579584418955
 20
0.3881230612574149
 30
0.0
 11
14.86427628093921
 21
1.186603498007082
 31
0.0
  0
LINE
  5
BD68
330
BD4A
100
AcDbEntity
  8
0
  6
CONTINUOUS
100
AcDbLine
 10
14.26537659496467
 20
-0.0858153970476412
 30
0.0
 11
14.45839043274005
 21
0.1071984407277329
 31
0.0
  0
LINE
  5
BD69
330
BD4A
100
AcDbEntity
  8
0
  6
CONTINUOUS
100
AcDbLine
 10
17.18480263566856
 20
3.507129852736426
 30
0.0
 11
18.15958664855496
 21
4.481913865622833
 31
0.0
  0
LINE
  5
BD6A
330
BD4A
100
AcDbEntity
  8
0
  6
CONTINUOUS
100
AcDbLine
 10
17.3687926667615
 20
3.017600674749186
 30
0.0
 11
18.34361581961842
 21
3.9924238276061
 31
0.0
  0
LINE
  5
BD6B
330
BD4A
100
AcDbEntity
  8
0
  6
CONTINUOUS
100
AcDbLine
 10
19.76440170834832
 20
6.086728925416191
 30
0.0
 11
22.33924590259489
 21
8.661573119662755
 31
0.0
  0
LINE
  5
BD6C
330
BD4A
100
AcDbEntity
  8
0
  6
CONTINUOUS
100
AcDbLine
 10
19.27479084494887
 20
4.923598852936555
 30
0.0
 11
21.84929622842713
 21
7.498104236414807
 31
0.0
  0
LINE
  5
BD6D
330
BD4A
100
AcDbEntity
  8
0
  6
CONTINUOUS
100
AcDbLine
 10
17.55278269785445
 20
2.528071496761945
 30
0.0
 11
18.52764499068187
 21
3.502933789589366
 31
0.0
  0
LINE
  5
BD6E
330
BD4A
100
AcDbEntity
  8
0
  6
CONTINUOUS
100
AcDbLine
 10
18.78517998154942
 20
3.760468780456919
 30
0.0
 11
21.35934655425936
 21
6.33463535316686
 31
0.0
  0
LINE
  5
BD6F
330
BD4A
100
AcDbEntity
  8
0
  6
CONTINUOUS
100
AcDbLine
 10
17.73677272894739
 20
2.038542318774704
 30
0.0
 11
20.8693968800916
 21
5.171166469918914
 31
0.0
  0
LINE
  5
BD70
330
BD4A
100
AcDbEntity
  8
0
  6
CONTINUOUS
100
AcDbLine
 10
17.92076276004034
 20
1.549013140787464
 30
0.0
 11
20.37944720592384
 21
4.007697586670968
 31
0.0
  0
LINE
  5
BD71
330
BD4A
100
AcDbEntity
  8
0
  6
CONTINUOUS
100
AcDbLine
 10
18.10475279113329
 20
1.059483962800223
 30
0.0
 11
19.88949753175608
 21
2.84422870342302
 31
0.0
  0
LINE
  5
BD72
330
BD4A
100
AcDbEntity
  8
0
  6
CONTINUOUS
100
AcDbLine
 10
18.28874282222623
 20
0.5699547848129822
 30
0.0
 11
19.39954785758832
 21
1.680759820175074
 31
0.0
  0
LINE
  5
BD73
330
BD4A
100
AcDbEntity
  8
0
  6
CONTINUOUS
100
AcDbLine
 10
18.47273285331918
 20
0.0804256068257416
 30
0.0
 11
18.90959818342056
 21
0.517290936927127
 31
0.0
  0
LINE
  5
BD74
330
BD4A
100
AcDbEntity
  8
0
  6
CONTINUOUS
100
AcDbLine
 10
14.3590401358224
 20
-0.1570118376323384
 30
0.0
 11
14.24903296539946
 21
-0.0470046672093929
 31
0.0
  0
LINE
  5
BD75
330
BD4A
100
AcDbEntity
  8
0
  6
CONTINUOUS
100
AcDbLine
 10
14.54309291258661
 20
0.332454594683643
 30
0.0
 11
13.75908329123172
 21
1.116464216038529
 31
0.0
  0
LINE
  5
BD76
330
BD4A
100
AcDbEntity
  8
0
  6
CONTINUOUS
100
AcDbLine
 10
14.72714568935081
 20
0.8219210269996244
 30
0.0
 11
13.26913361706399
 21
2.27993309928645
 31
0.0
  0
LINE
  5
BD77
330
BD4A
100
AcDbEntity
  8
0
  6
CONTINUOUS
100
AcDbLine
 10
14.91119846611502
 20
1.311387459315606
 30
0.0
 11
12.77918394289625
 21
3.443401982534371
 31
0.0
  0
LINE
  5
BD78
330
BD4A
100
AcDbEntity
  8
0
  6
CONTINUOUS
100
AcDbLine
 10
15.09525124287922
 20
1.800853891631587
 30
0.0
 11
12.28923426872852
 21
4.606870865782293
 31
0.0
  0
LINE
  5
BD79
330
BD4A
100
AcDbEntity
  8
0
  6
CONTINUOUS
100
AcDbLine
 10
15.27930401964343
 20
2.290320323947569
 30
0.0
 11
11.79928459456078
 21
5.770339749030213
 31
0.0
  0
LINE
  5
BD7A
330
BD4A
100
AcDbEntity
  8
0
  6
CONTINUOUS
100
AcDbLine
 10
15.46335679640763
 20
2.77978675626355
 30
0.0
 11
14.48885470994921
 21
3.754288842721972
 31
0.0
  0
LINE
  5
BD7B
330
BD4A
100
AcDbEntity
  8
0
  6
CONTINUOUS
100
AcDbLine
 10
13.88507249233704
 20
4.358071060334137
 30
0.0
 11
11.30933492039305
 21
6.933808632278135
 31
0.0
  0
LINE
  5
BD7C
330
BD4A
100
AcDbEntity
  8
0
  6
CONTINUOUS
100
AcDbLine
 10
18.75840522805855
 20
0.1582575336928151
 30
0.0
 11
18.25383727664818
 21
0.6628254851031863
 31
0.0
  0
LINE
  5
BD7D
330
BD4A
100
AcDbEntity
  8
0
  6
CONTINUOUS
100
AcDbLine
 10
15.64740957317184
 20
3.269253188579531
 30
0.0
 11
14.67288388101266
 21
4.243778880738705
 31
0.0
  0
LINE
  5
BD7E
330
BD4A
100
AcDbEntity
  8
0
  6
CONTINUOUS
100
AcDbLine
 10
13.39509276772158
 20
5.521569994029786
 30
0.0
 11
10.81938524622531
 21
8.097277515526056
 31
0.0
  0
LINE
  5
BD7F
330
BD4A
100
AcDbEntity
  8
0
  6
CONTINUOUS
100
AcDbLine
 10
18.95798597883369
 20
0.6321959919978686
 30
0.0
 11
17.84825644852853
 21
1.741925522303024
 31
0.0
  0
LINE
  5
BD80
330
BD4A
100
AcDbEntity
  8
0
  6
CONTINUOUS
100
AcDbLine
 10
19.15756672960882
 20
1.106134450302922
 30
0.0
 11
17.44267562040888
 21
2.821025559502861
 31
0.0
  0
LINE
  5
BD81
330
BD4A
100
AcDbEntity
  8
0
  6
CONTINUOUS
100
AcDbLine
 10
15.83146234993604
 20
3.758719620895513
 30
0.0
 11
14.85691305207612
 21
4.733268918755439
 31
0.0
  0
LINE
  5
BD82
330
BD4A
100
AcDbEntity
  8
0
  6
CONTINUOUS
100
AcDbLine
 10
16.01551512670025
 20
4.248186053211494
 30
0.0
 11
15.04094222313957
 21
5.222758956772172
 31
0.0
  0
LINE
  5
BD83
330
BD4A
100
AcDbEntity
  8
0
  6
CONTINUOUS
100
AcDbLine
 10
12.90511304310612
 20
6.685068927725435
 30
0.0
 11
10.8270819708403
 21
8.763099999991255
 31
0.0
  0
LINE
  5
BD84
330
BD4A
100
AcDbEntity
  8
0
  6
CONTINUOUS
100
AcDbLine
 10
12.41513331849066
 20
7.848567861421083
 30
0.0
 11
11.50060117992049
 21
8.763099999991255
 31
0.0
  0
LINE
  5
BD85
330
BD4A
100
AcDbEntity
  8
0
  6
CONTINUOUS
100
AcDbLine
 10
19.35714748038395
 20
1.580072908607975
 30
0.0
 11
17.03709479228923
 21
3.900125596702697
 31
0.0
  0
LINE
  5
BD86
330
BD4A
100
AcDbEntity
  8
0
  6
CONTINUOUS
100
AcDbLine
 10
19.55672823115909
 20
2.054011366913028
 30
0.0
 11
16.63151396416958
 21
4.979225633902534
 31
0.0
  0
LINE
  5
BD87
330
BD4A
100
AcDbEntity
  8
0
  6
CONTINUOUS
100
AcDbLine
 10
16.19956790346445
 20
4.737652485527476
 30
0.0
 11
15.22497139420302
 21
5.712248994788904
 31
0.0
  0
LINE
  5
BD88
330
BD4A
100
AcDbEntity
  8
0
  6
CONTINUOUS
100
AcDbLine
 10
16.38362068022866
 20
5.227118917843457
 30
0.0
 11
15.40900056526648
 21
6.201739032805637
 31
0.0
  0
LINE
  5
BD89
330
BD4A
100
AcDbEntity
  8
0
  6
CONTINUOUS
100
AcDbLine
 10
19.75630898193422
 20
2.527949825218081
 30
0.0
 11
18.70774536448286
 21
3.576513442669441
 31
0.0
  0
LINE
  5
BD8A
330
BD4A
100
AcDbEntity
  8
0
  6
CONTINUOUS
100
AcDbLine
 10
19.95588973270936
 20
3.001888283523134
 30
0.0
 11
18.90726987211446
 21
4.050508144118028
 31
0.0
  0
LINE
  5
BD8B
330
BD4A
100
AcDbEntity
  8
0
  6
CONTINUOUS
100
AcDbLine
 10
20.15547048348449
 20
3.475826741828186
 30
0.0
 11
19.10679437974606
 21
4.524502845566614
 31
0.0
  0
LINE
  5
BD8C
330
BD4A
100
AcDbEntity
  8
0
  6
CONTINUOUS
100
AcDbLine
 10
20.35505123425962
 20
3.94976520013324
 30
0.0
 11
19.30631888737766
 21
4.998497547015201
 31
0.0
  0
LINE
  5
BD8D
330
BD4A
100
AcDbEntity
  8
0
  6
CONTINUOUS
100
AcDbLine
 10
20.55463198503475
 20
4.423703658438292
 30
0.0
 11
19.50584339500926
 21
5.472492248463787
 31
0.0
  0
LINE
  5
BD8E
330
BD4A
100
AcDbEntity
  8
0
  6
CONTINUOUS
100
AcDbLine
 10
18.37481191085755
 20
3.909446896294752
 30
0.0
 11
15.59302973632993
 21
6.691229070822371
 31
0.0
  0
LINE
  5
BD8F
330
BD4A
100
AcDbEntity
  8
0
  6
CONTINUOUS
100
AcDbLine
 10
17.96904084440766
 20
4.988737171824825
 30
0.0
 11
15.77705890739338
 21
7.180719108839104
 31
0.0
  0
LINE
  5
BD90
330
BD4A
100
AcDbEntity
  8
0
  6
CONTINUOUS
100
AcDbLine
 10
17.56326977795777
 20
6.068027447354899
 30
0.0
 11
15.96108807845684
 21
7.670209146855838
 31
0.0
  0
LINE
  5
BD91
330
BD4A
100
AcDbEntity
  8
0
  6
CONTINUOUS
100
AcDbLine
 10
17.15749871150789
 20
7.147317722884972
 30
0.0
 11
16.14511724952029
 21
8.15969918487257
 31
0.0
  0
LINE
  5
BD92
330
BD4A
100
AcDbEntity
  8
0
  6
CONTINUOUS
100
AcDbLine
 10
16.751727645058
 20
8.226607998415046
 30
0.0
 11
16.32914642058374
 21
8.649189222889303
 31
0.0
  0
LINE
  5
BD93
330
BD4A
100
AcDbEntity
  8
0
  6
CONTINUOUS
100
AcDbLine
 10
20.75421273580989
 20
4.897642116743345
 30
0.0
 11
19.70536790264086
 21
5.946486949912374
 31
0.0
  0
LINE
  5
BD94
330
BD4A
100
AcDbEntity
  8
0
  6
CONTINUOUS
100
AcDbLine
 10
20.95379348658502
 20
5.371580575048398
 30
0.0
 11
19.90489241027246
 21
6.42048165136096
 31
0.0
  0
LINE
  5
BD95
330
BD4A
100
AcDbEntity
  8
0
  6
CONTINUOUS
100
AcDbLine
 10
21.15337423736015
 20
5.845519033353452
 30
0.0
 11
20.10441691790406
 21
6.894476352809547
 31
0.0
  0
LINE
  5
BD96
330
BD4A
100
AcDbEntity
  8
0
  6
CONTINUOUS
100
AcDbLine
 10
21.35295498813529
 20
6.319457491658505
 30
0.0
 11
20.30394142553566
 21
7.368471054258134
 31
0.0
  0
LINE
  5
BD97
330
BD4A
100
AcDbEntity
  8
0
  6
CONTINUOUS
100
AcDbLine
 10
21.55253573891042
 20
6.793395949963558
 30
0.0
 11
20.50346593316726
 21
7.842465755706721
 31
0.0
  0
LINE
  5
BD98
330
BD4A
100
AcDbEntity
  8
0
  6
CONTINUOUS
100
AcDbLine
 10
21.75211648968556
 20
7.267334408268612
 30
0.0
 11
20.70299044079886
 21
8.316460457155308
 31
0.0
  0
LINE
  5
BD99
330
BD4A
100
AcDbEntity
  8
0
  6
CONTINUOUS
100
AcDbLine
 10
21.95169724046069
 20
7.741272866573663
 30
0.0
 11
20.9298701070431
 21
8.763099999991256
 31
0.0
  0
LINE
  5
BD9A
330
BD4A
100
AcDbEntity
  8
0
  6
CONTINUOUS
100
AcDbLine
 10
22.15127799123582
 20
8.215211324878716
 30
0.0
 11
21.60338931612328
 21
8.763099999991256
 31
0.0
  0
LINE
  5
BD9B
330
BD4A
100
AcDbEntity
  8
0
  6
CONTINUOUS
100
AcDbLine
 10
22.35085874201096
 20
8.689149783183769
 30
0.0
 11
22.27690852520347
 21
8.763099999991255
 31
0.0
  0
ENDBLK
  5
BE8D
330
BD4A
100
AcDbEntity
  8
0
100
AcDbBlockEnd
  0
BLOCK
  5
BE8E
330
BD9C
100
AcDbEntity
  8
0
100
AcDbBlockBegin
  2
*X69
 70
     1
 10
0.0
 20
0.0
 30
0.0
  3
*X69
  1

  0
LINE
  5
BD9D
330
BD9C
100
AcDbEntity
  8
0
  6
CONTINUOUS
100
AcDbLine
 10
23.19462913593892
 20
8.169917934846424
 30
0.0
 11
23.70775465517246
 21
8.683043454079957
 31
0.0
  0
LINE
  5
BD9E
330
BD9C
100
AcDbEntity
  8
0
  6
CONTINUOUS
100
AcDbLine
 10
22.64923161835078
 20
6.951001208178088
 30
0.0
 11
23.9159364069932
 21
8.217705996820516
 31
0.0
  0
LINE
  5
BD9F
330
BD9C
100
AcDbEntity
  8
0
  6
CONTINUOUS
100
AcDbLine
 10
22.10383410076263
 20
5.732084481509751
 30
0.0
 11
24.12411815881395
 21
7.752368539561078
 31
0.0
  0
LINE
  5
BDA0
330
BD9C
100
AcDbEntity
  8
0
  6
CONTINUOUS
100
AcDbLine
 10
21.55843658317447
 20
4.513167754841414
 30
0.0
 11
24.3322999106347
 21
7.287031082301639
 31
0.0
  0
LINE
  5
BDA1
330
BD9C
100
AcDbEntity
  8
0
  6
CONTINUOUS
100
AcDbLine
 10
21.01303906558632
 20
3.294251028173077
 30
0.0
 11
24.54048166245544
 21
6.821693625042199
 31
0.0
  0
LINE
  5
BDA2
330
BD9C
100
AcDbEntity
  8
0
  6
CONTINUOUS
100
AcDbLine
 10
20.46764154799817
 20
2.075334301504738
 30
0.0
 11
23.28571549467848
 21
4.89340824818505
 31
0.0
  0
LINE
  5
BDA3
330
BD9C
100
AcDbEntity
  8
0
  6
CONTINUOUS
100
AcDbLine
 10
19.92224403041002
 20
0.8564175748364002
 30
0.0
 11
22.74075865492779
 21
3.674932199354171
 31
0.0
  0
LINE
  5
BDA4
330
BD9C
100
AcDbEntity
  8
0
  6
CONTINUOUS
100
AcDbLine
 10
23.67305085490148
 20
5.280743608408048
 30
0.0
 11
24.74866341427619
 21
6.356356167782759
 31
0.0
  0
LINE
  5
BDA5
330
BD9C
100
AcDbEntity
  8
0
  6
CONTINUOUS
100
AcDbLine
 10
23.88118970842314
 20
4.815363252849522
 30
0.0
 11
24.95684516609694
 21
5.89101871052332
 31
0.0
  0
LINE
  5
BDA6
330
BD9C
100
AcDbEntity
  8
0
  6
CONTINUOUS
100
AcDbLine
 10
19.73925852647308
 20
-0.0000871381807288
 30
0.0
 11
23.4103456646501
 21
3.670999999996297
 31
0.0
  0
LINE
  5
BDA7
330
BD9C
100
AcDbEntity
  8
0
  6
CONTINUOUS
100
AcDbLine
 10
24.0893285619448
 20
4.349982897290997
 30
0.0
 11
25.16502691791769
 21
5.42568125326388
 31
0.0
  0
LINE
  5
BDA8
330
BD9C
100
AcDbEntity
  8
0
  6
CONTINUOUS
100
AcDbLine
 10
20.41282099582748
 20
-0.0000438779065108
 30
0.0
 11
21.64944178675636
 21
1.236576913022366
 31
0.0
  0
LINE
  5
BDA9
330
BD9C
100
AcDbEntity
  8
0
  6
CONTINUOUS
100
AcDbLine
 10
22.78126487373161
 20
2.36839999999762
 30
0.0
 11
24.08386487373029
 21
3.670999999996297
 31
0.0
  0
LINE
  5
BDAA
330
BD9C
100
AcDbEntity
  8
0
  6
CONTINUOUS
100
AcDbLine
 10
24.29746741546646
 20
3.884602541732471
 30
0.0
 11
25.37320866973843
 21
4.960343796004441
 31
0.0
  0
LINE
  5
BDAB
330
BD9C
100
AcDbEntity
  8
0
  6
CONTINUOUS
100
AcDbLine
 10
21.08638346518189
 20
-0.0000006176322938
 30
0.0
 11
21.10379033335899
 21
0.0174062505448083
 31
0.0
  0
LINE
  5
BDAC
330
BD9C
100
AcDbEntity
  8
0
  6
CONTINUOUS
100
AcDbLine
 10
23.4547840828118
 20
2.36839999999762
 30
0.0
 11
25.58139042155918
 21
4.495006338745002
 31
0.0
  0
LINE
  5
BDAD
330
BD9C
100
AcDbEntity
  8
0
  6
CONTINUOUS
100
AcDbLine
 10
29.30199999996933
 20
8.215615917155148
 30
0.0
 11
29.84948408280543
 21
8.763099999991255
 31
0.0
  0
LINE
  5
BDAE
330
BD9C
100
AcDbEntity
  8
0
  6
CONTINUOUS
100
AcDbLine
 10
24.12830329189199
 20
2.36839999999762
 30
0.0
 11
25.78957217337993
 21
4.029668881485562
 31
0.0
  0
LINE
  5
BDAF
330
BD9C
100
AcDbEntity
  8
0
  6
CONTINUOUS
100
AcDbLine
 10
29.30199999996933
 20
7.54209670807496
 30
0.0
 11
30.52300329188562
 21
8.763099999991255
 31
0.0
  0
LINE
  5
BDB0
330
BD9C
100
AcDbEntity
  8
0
  6
CONTINUOUS
100
AcDbLine
 10
24.80182250097217
 20
2.36839999999762
 30
0.0
 11
25.99775392520067
 21
3.564331424226122
 31
0.0
  0
LINE
  5
BDB1
330
BD9C
100
AcDbEntity
  8
0
  6
CONTINUOUS
100
AcDbLine
 10
29.30199999996933
 20
6.868577498994774
 30
0.0
 11
30.74199999996926
 21
8.308577498994712
 31
0.0
  0
LINE
  5
BDB2
330
BD9C
100
AcDbEntity
  8
0
  6
CONTINUOUS
100
AcDbLine
 10
25.13028238392013
 20
2.023340673865392
 30
0.0
 11
26.20593567702142
 21
3.098993966966683
 31
0.0
  0
LINE
  5
BDB3
330
BD9C
100
AcDbEntity
  8
0
  6
CONTINUOUS
100
AcDbLine
 10
25.33838066033617
 20
1.557919741201244
 30
0.0
 11
26.41411742884217
 21
2.633656509707244
 31
0.0
  0
LINE
  5
BDB4
330
BD9C
100
AcDbEntity
  8
0
  6
CONTINUOUS
100
AcDbLine
 10
25.54647893675221
 20
1.092498808537098
 30
0.0
 11
26.62229918066291
 21
2.168319052447804
 31
0.0
  0
LINE
  5
BDB5
330
BD9C
100
AcDbEntity
  8
0
  6
CONTINUOUS
100
AcDbLine
 10
25.75457721316825
 20
0.62707787587295
 30
0.0
 11
26.83048093248366
 21
1.702981595188365
 31
0.0
  0
LINE
  5
BDB6
330
BD9C
100
AcDbEntity
  8
0
  6
CONTINUOUS
100
AcDbLine
 10
29.30199999996933
 20
6.195058289914587
 30
0.0
 11
30.74199999996926
 21
7.635058289914522
 31
0.0
  0
LINE
  5
BDB7
330
BD9C
100
AcDbEntity
  8
0
  6
CONTINUOUS
100
AcDbLine
 10
29.30199999996933
 20
5.521539080834401
 30
0.0
 11
30.74199999996926
 21
6.961539080834331
 31
0.0
  0
LINE
  5
BDB8
330
BD9C
100
AcDbEntity
  8
0
  6
CONTINUOUS
100
AcDbLine
 10
29.30199999996933
 20
4.848019871754214
 30
0.0
 11
30.74199999996925
 21
6.288019871754143
 31
0.0
  0
LINE
  5
BDB9
330
BD9C
100
AcDbEntity
  8
0
  6
CONTINUOUS
100
AcDbLine
 10
29.30199999996933
 20
4.174500662674028
 30
0.0
 11
30.74199999996925
 21
5.614500662673953
 31
0.0
  0
LINE
  5
BDBA
330
BD9C
100
AcDbEntity
  8
0
  6
CONTINUOUS
100
AcDbLine
 10
25.96267548958429
 20
0.1616569432088024
 30
0.0
 11
27.18411854636669
 21
1.383099999991207
 31
0.0
  0
LINE
  5
BDBB
330
BD9C
100
AcDbEntity
  8
0
  6
CONTINUOUS
100
AcDbLine
 10
29.30199999996933
 20
3.500981453593841
 30
0.0
 11
30.74199999996925
 21
4.940981453593762
 31
0.0
  0
LINE
  5
BDBC
330
BD9C
100
AcDbEntity
  8
0
  6
CONTINUOUS
100
AcDbLine
 10
26.50763775544691
 20
0.0330999999912356
 30
0.0
 11
27.85763775544689
 21
1.383099999991223
 31
0.0
  0
LINE
  5
BDBD
330
BD9C
100
AcDbEntity
  8
0
  6
CONTINUOUS
100
AcDbLine
 10
29.30199999996933
 20
2.827462244513656
 30
0.0
 11
30.74199999996925
 21
4.267462244513574
 31
0.0
  0
LINE
  5
BDBE
330
BD9C
100
AcDbEntity
  8
0
  6
CONTINUOUS
100
AcDbLine
 10
27.18115696452709
 20
0.0330999999912356
 30
0.0
 11
28.6224847300034
 21
1.474427765467545
 31
0.0
  0
LINE
  5
BDBF
330
BD9C
100
AcDbEntity
  8
0
  6
CONTINUOUS
100
AcDbLine
 10
29.21067223449293
 20
2.062615269957069
 30
0.0
 11
30.74199999996924
 21
3.593943035433383
 31
0.0
  0
LINE
  5
BDC0
330
BD9C
100
AcDbEntity
  8
0
  6
CONTINUOUS
100
AcDbLine
 10
27.85467617360728
 20
0.0330999999912356
 30
0.0
 11
30.74199999996924
 21
2.920423826353195
 31
0.0
  0
LINE
  5
BDC1
330
BD9C
100
AcDbEntity
  8
0
  6
CONTINUOUS
100
AcDbLine
 10
28.57438609860264
 20
0.0792907159064073
 30
0.0
 11
30.69580928405405
 21
2.200713901357819
 31
0.0
  0
LINE
  5
BDC2
330
BD9C
100
AcDbEntity
  8
0
  6
CONTINUOUS
100
AcDbLine
 10
29.49443044814297
 20
0.3258158563665496
 30
0.0
 11
30.44928414359389
 21
1.280669551817477
 31
0.0
  0
LINE
  5
BDC3
330
BD9C
100
AcDbEntity
  8
0
  6
CONTINUOUS
100
AcDbLine
 10
19.59027867740337
 20
-0.0000967065718083
 30
0.0
 11
19.55485265190471
 21
0.035329318926844
 31
0.0
  0
LINE
  5
BDC4
330
BD9C
100
AcDbEntity
  8
0
  6
CONTINUOUS
100
AcDbLine
 10
20.26375463176586
 20
-0.0000534518541091
 30
0.0
 11
19.76305575737534
 21
0.5006454225364014
 31
0.0
  0
LINE
  5
BDC5
330
BD9C
100
AcDbEntity
  8
0
  6
CONTINUOUS
100
AcDbLine
 10
20.93723058612834
 20
-0.0000101971364099
 30
0.0
 11
19.97125886284597
 21
0.965961526145958
 31
0.0
  0
LINE
  5
BDC6
330
BD9C
100
AcDbEntity
  8
0
  6
CONTINUOUS
100
AcDbLine
 10
21.25514828313686
 20
0.355591314935257
 30
0.0
 11
20.1794619683166
 21
1.431277629755512
 31
0.0
  0
LINE
  5
BDC7
330
BD9C
100
AcDbEntity
  8
0
  6
CONTINUOUS
100
AcDbLine
 10
21.46338838394921
 20
0.8208704232030986
 30
0.0
 11
20.38766507378723
 21
1.896593733365069
 31
0.0
  0
LINE
  5
BDC8
330
BD9C
100
AcDbEntity
  8
0
  6
CONTINUOUS
100
AcDbLine
 10
21.67162848476155
 20
1.28614953147094
 30
0.0
 11
20.59586817925786
 21
2.361909836974626
 31
0.0
  0
LINE
  5
BDC9
330
BD9C
100
AcDbEntity
  8
0
  6
CONTINUOUS
100
AcDbLine
 10
21.8798685855739
 20
1.751428639738782
 30
0.0
 11
20.80407128472849
 21
2.827225940584183
 31
0.0
  0
LINE
  5
BDCA
330
BD9C
100
AcDbEntity
  8
0
  6
CONTINUOUS
100
AcDbLine
 10
22.08810868638624
 20
2.216707748006623
 30
0.0
 11
21.01227439019912
 21
3.292542044193739
 31
0.0
  0
LINE
  5
BDCB
330
BD9C
100
AcDbEntity
  8
0
  6
CONTINUOUS
100
AcDbLine
 10
22.60993564347543
 20
2.36839999999762
 30
0.0
 11
21.22047749566975
 21
3.757858147803296
 31
0.0
  0
LINE
  5
BDCC
330
BD9C
100
AcDbEntity
  8
0
  6
CONTINUOUS
100
AcDbLine
 10
23.28345485255561
 20
2.36839999999762
 30
0.0
 11
21.42868060114038
 21
4.223174251412853
 31
0.0
  0
LINE
  5
BDCD
330
BD9C
100
AcDbEntity
  8
0
  6
CONTINUOUS
100
AcDbLine
 10
26.29227406164219
 20
0.0330999999912356
 30
0.0
 11
25.80009199592872
 21
0.5252820657046957
 31
0.0
  0
LINE
  5
BDCE
330
BD9C
100
AcDbEntity
  8
0
  6
CONTINUOUS
100
AcDbLine
 10
23.9569740616358
 20
2.36839999999762
 30
0.0
 11
21.63688370661101
 21
4.688490355022409
 31
0.0
  0
LINE
  5
BDCF
330
BD9C
100
AcDbEntity
  8
0
  6
CONTINUOUS
100
AcDbLine
 10
26.96579327072237
 20
0.0330999999912356
 30
0.0
 11
25.2554132311971
 21
1.743480039516508
 31
0.0
  0
LINE
  5
BDD0
330
BD9C
100
AcDbEntity
  8
0
  6
CONTINUOUS
100
AcDbLine
 10
24.63049327071599
 20
2.36839999999762
 30
0.0
 11
23.32789327071731
 21
3.670999999996297
 31
0.0
  0
LINE
  5
BDD1
330
BD9C
100
AcDbEntity
  8
0
  6
CONTINUOUS
100
AcDbLine
 10
22.92098674744635
 20
4.077906523267254
 30
0.0
 11
21.84508681208164
 21
5.153806458631966
 31
0.0
  0
LINE
  5
BDD2
330
BD9C
100
AcDbEntity
  8
0
  6
CONTINUOUS
100
AcDbLine
 10
27.63931247980256
 20
0.0330999999912356
 30
0.0
 11
24.0014124797975
 21
3.670999999996297
 31
0.0
  0
LINE
  5
BDD3
330
BD9C
100
AcDbEntity
  8
0
  6
CONTINUOUS
100
AcDbLine
 10
23.129125600968
 20
4.5432868788258
 30
0.0
 11
22.05328991755227
 21
5.619122562241522
 31
0.0
  0
LINE
  5
BDD4
330
BD9C
100
AcDbEntity
  8
0
  6
CONTINUOUS
100
AcDbLine
 10
28.31283168888275
 20
0.0330999999912356
 30
0.0
 11
24.16488385994816
 21
4.181047828925828
 31
0.0
  0
LINE
  5
BDD5
330
BD9C
100
AcDbEntity
  8
0
  6
CONTINUOUS
100
AcDbLine
 10
23.33726445448964
 20
5.008667234384345
 30
0.0
 11
22.2614930230229
 21
6.084438665851079
 31
0.0
  0
LINE
  5
BDD6
330
BD9C
100
AcDbEntity
  8
0
  6
CONTINUOUS
100
AcDbLine
 10
28.86286302309502
 20
0.1565878748591523
 30
0.0
 11
27.63635089796295
 21
1.383099999991217
 31
0.0
  0
LINE
  5
BDD7
330
BD9C
100
AcDbEntity
  8
0
  6
CONTINUOUS
100
AcDbLine
 10
26.43704649509776
 20
2.582404402856405
 30
0.0
 11
23.61992702019732
 21
5.399523877756844
 31
0.0
  0
LINE
  5
BDD8
330
BD9C
100
AcDbEntity
  8
0
  6
CONTINUOUS
100
AcDbLine
 10
23.54540330801128
 20
5.47404758994289
 30
0.0
 11
22.46969612849353
 21
6.549754769460635
 31
0.0
  0
LINE
  5
BDD9
330
BD9C
100
AcDbEntity
  8
0
  6
CONTINUOUS
100
AcDbLine
 10
29.39405087596853
 20
0.2989192310658284
 30
0.0
 11
28.30987010704312
 21
1.383099999991234
 31
0.0
  0
LINE
  5
BDDA
330
BD9C
100
AcDbEntity
  8
0
  6
CONTINUOUS
100
AcDbLine
 10
25.89179548232307
 20
3.801174624711282
 30
0.0
 11
22.67789923396416
 21
7.015070873070191
 31
0.0
  0
LINE
  5
BDDB
330
BD9C
100
AcDbEntity
  8
0
  6
CONTINUOUS
100
AcDbLine
 10
29.79594438047407
 20
0.570544935640473
 30
0.0
 11
28.81310432793121
 21
1.553384988183336
 31
0.0
  0
LINE
  5
BDDC
330
BD9C
100
AcDbEntity
  8
0
  6
CONTINUOUS
100
AcDbLine
 10
25.34654446954838
 20
5.01994484656616
 30
0.0
 11
22.88610233943479
 21
7.480386976679748
 31
0.0
  0
LINE
  5
BDDD
330
BD9C
100
AcDbEntity
  8
0
  6
CONTINUOUS
100
AcDbLine
 10
30.13270398501416
 20
0.9073045401805646
 30
0.0
 11
29.14234640337737
 21
1.897662121817355
 31
0.0
  0
LINE
  5
BDDE
330
BD9C
100
AcDbEntity
  8
0
  6
CONTINUOUS
100
AcDbLine
 10
24.80129345677369
 20
6.238715068421037
 30
0.0
 11
23.09430544490542
 21
7.945703080289305
 31
0.0
  0
LINE
  5
BDDF
330
BD9C
100
AcDbEntity
  8
0
  6
CONTINUOUS
100
AcDbLine
 10
30.44581292956759
 20
1.26771480470732
 30
0.0
 11
29.30199999996933
 21
2.411527734305588
 31
0.0
  0
LINE
  5
BDE0
330
BD9C
100
AcDbEntity
  8
0
  6
CONTINUOUS
100
AcDbLine
 10
30.58814428577427
 20
1.798902657580827
 30
0.0
 11
29.30199999996933
 21
3.085046943385775
 31
0.0
  0
LINE
  5
BDE1
330
BD9C
100
AcDbEntity
  8
0
  6
CONTINUOUS
100
AcDbLine
 10
24.256042443999
 20
7.457485290275915
 30
0.0
 11
23.30250855037605
 21
8.411019183898862
 31
0.0
  0
LINE
  5
BDE2
330
BD9C
100
AcDbEntity
  8
0
  6
CONTINUOUS
100
AcDbLine
 10
23.71079143122431
 20
8.676255512130794
 30
0.0
 11
23.51071165584668
 21
8.876335287508418
 31
0.0
  0
LINE
  5
BDE3
330
BD9C
100
AcDbEntity
  8
0
  6
CONTINUOUS
100
AcDbLine
 10
30.73047564198095
 20
2.330090510454333
 30
0.0
 11
29.30199999996933
 21
3.758566152465961
 31
0.0
  0
LINE
  5
BDE4
330
BD9C
100
AcDbEntity
  8
0
  6
CONTINUOUS
100
AcDbLine
 10
30.74199999996924
 20
2.992085361546236
 30
0.0
 11
29.30199999996933
 21
4.432085361546148
 31
0.0
  0
LINE
  5
BDE5
330
BD9C
100
AcDbEntity
  8
0
  6
CONTINUOUS
100
AcDbLine
 10
30.74199999996924
 20
3.665604570626419
 30
0.0
 11
29.30199999996933
 21
5.105604570626333
 31
0.0
  0
LINE
  5
BDE6
330
BD9C
100
AcDbEntity
  8
0
  6
CONTINUOUS
100
AcDbLine
 10
30.74199999996925
 20
4.339123779706602
 30
0.0
 11
29.30199999996933
 21
5.77912377970652
 31
0.0
  0
LINE
  5
BDE7
330
BD9C
100
AcDbEntity
  8
0
  6
CONTINUOUS
100
AcDbLine
 10
30.74199999996925
 20
5.012642988786785
 30
0.0
 11
29.30199999996933
 21
6.452642988786707
 31
0.0
  0
LINE
  5
BDE8
330
BD9C
100
AcDbEntity
  8
0
  6
CONTINUOUS
100
AcDbLine
 10
30.74199999996925
 20
5.68616219786697
 30
0.0
 11
29.30199999996933
 21
7.126162197866894
 31
0.0
  0
LINE
  5
BDE9
330
BD9C
100
AcDbEntity
  8
0
  6
CONTINUOUS
100
AcDbLine
 10
30.74199999996925
 20
6.359681406947153
 30
0.0
 11
29.30199999996933
 21
7.799681406947081
 31
0.0
  0
LINE
  5
BDEA
330
BD9C
100
AcDbEntity
  8
0
  6
CONTINUOUS
100
AcDbLine
 10
30.74199999996926
 20
7.033200616027337
 30
0.0
 11
29.30199999996933
 21
8.473200616027269
 31
0.0
  0
LINE
  5
BDEB
330
BD9C
100
AcDbEntity
  8
0
  6
CONTINUOUS
100
AcDbLine
 10
30.74199999996926
 20
7.706719825107518
 30
0.0
 11
29.68561982508552
 21
8.763099999991255
 31
0.0
  0
LINE
  5
BDEC
330
BD9C
100
AcDbEntity
  8
0
  6
CONTINUOUS
100
AcDbLine
 10
30.74199999996926
 20
8.380239034187703
 30
0.0
 11
30.35913903416571
 21
8.763099999991255
 31
0.0
  0
ENDBLK
  5
BE8F
330
BD9C
100
AcDbEntity
  8
0
100
AcDbBlockEnd
  0
BLOCK
  5
BE90
330
BDED
100
AcDbEntity
  8
0
100
AcDbBlockBegin
  2
*X70
 70
     1
 10
0.0
 20
0.0
 30
0.0
  3
*X70
  1

  0
LINE
  5
BDEE
330
BDED
100
AcDbEntity
  8
0
  6
CONTINUOUS
100
AcDbLine
 10
31.64199999996833
 20
8.5350582899136
 30
0.0
 11
31.87004171004599
 21
8.763099999991255
 31
0.0
  0
LINE
  5
BDEF
330
BDED
100
AcDbEntity
  8
0
  6
CONTINUOUS
100
AcDbLine
 10
31.64199999996833
 20
7.861539080833413
 30
0.0
 11
32.54356091912618
 21
8.763099999991255
 31
0.0
  0
LINE
  5
BDF0
330
BDED
100
AcDbEntity
  8
0
  6
CONTINUOUS
100
AcDbLine
 10
31.64199999996833
 20
7.188019871753227
 30
0.0
 11
33.08199999996839
 21
8.628019871753281
 31
0.0
  0
LINE
  5
BDF1
330
BDED
100
AcDbEntity
  8
0
  6
CONTINUOUS
100
AcDbLine
 10
31.64199999996833
 20
6.514500662673041
 30
0.0
 11
33.08199999996839
 21
7.954500662673095
 31
0.0
  0
LINE
  5
BDF2
330
BDED
100
AcDbEntity
  8
0
  6
CONTINUOUS
100
AcDbLine
 10
31.64199999996833
 20
5.840981453592855
 30
0.0
 11
33.08199999996839
 21
7.28098145359291
 31
0.0
  0
LINE
  5
BDF3
330
BDED
100
AcDbEntity
  8
0
  6
CONTINUOUS
100
AcDbLine
 10
31.64199999996833
 20
5.167462244512668
 30
0.0
 11
33.08199999996839
 21
6.607462244512723
 31
0.0
  0
LINE
  5
BDF4
330
BDED
100
AcDbEntity
  8
0
  6
CONTINUOUS
100
AcDbLine
 10
31.64199999996833
 20
4.493943035432482
 30
0.0
 11
33.08199999996839
 21
5.933943035432536
 31
0.0
  0
LINE
  5
BDF5
330
BDED
100
AcDbEntity
  8
0
  6
CONTINUOUS
100
AcDbLine
 10
31.64199999996833
 20
3.820423826352294
 30
0.0
 11
33.08199999996839
 21
5.260423826352349
 31
0.0
  0
LINE
  5
BDF6
330
BDED
100
AcDbEntity
  8
0
  6
CONTINUOUS
100
AcDbLine
 10
31.64199999996833
 20
3.146904617272108
 30
0.0
 11
33.08199999996839
 21
4.586904617272163
 31
0.0
  0
LINE
  5
BDF7
330
BDED
100
AcDbEntity
  8
0
  6
CONTINUOUS
100
AcDbLine
 10
36.23199999996837
 20
8.410423826352327
 30
0.0
 11
36.58467617360729
 21
8.763099999991255
 31
0.0
  0
LINE
  5
BDF8
330
BDED
100
AcDbEntity
  8
0
  6
CONTINUOUS
100
AcDbLine
 10
36.23199999996837
 20
7.73690461727214
 30
0.0
 11
37.25819538268748
 21
8.763099999991255
 31
0.0
  0
LINE
  5
BDF9
330
BDED
100
AcDbEntity
  8
0
  6
CONTINUOUS
100
AcDbLine
 10
31.64374005202358
 20
2.475125460247168
 30
0.0
 11
33.08199999996839
 21
3.913385408191976
 31
0.0
  0
LINE
  5
BDFA
330
BDED
100
AcDbEntity
  8
0
  6
CONTINUOUS
100
AcDbLine
 10
31.78607140823076
 20
1.943937607374162
 30
0.0
 11
33.08199999996839
 21
3.239866199111789
 31
0.0
  0
LINE
  5
BDFB
330
BDED
100
AcDbEntity
  8
0
  6
CONTINUOUS
100
AcDbLine
 10
31.92840276443794
 20
1.412749754501156
 30
0.0
 11
33.08199999996839
 21
2.566346990031603
 31
0.0
  0
LINE
  5
BDFC
330
BDED
100
AcDbEntity
  8
0
  6
CONTINUOUS
100
AcDbLine
 10
36.23199999996837
 20
7.063385408191953
 30
0.0
 11
37.67199999996831
 21
8.503385408191894
 31
0.0
  0
LINE
  5
BDFD
330
BDED
100
AcDbEntity
  8
0
  6
CONTINUOUS
100
AcDbLine
 10
36.23199999996837
 20
6.389866199111767
 30
0.0
 11
37.67199999996831
 21
7.829866199111708
 31
0.0
  0
LINE
  5
BDFE
330
BDED
100
AcDbEntity
  8
0
  6
CONTINUOUS
100
AcDbLine
 10
36.23199999996837
 20
5.71634699003158
 30
0.0
 11
37.67199999996831
 21
7.156346990031522
 31
0.0
  0
LINE
  5
BDFF
330
BDED
100
AcDbEntity
  8
0
  6
CONTINUOUS
100
AcDbLine
 10
32.1787326690177
 20
0.9895604500007265
 30
0.0
 11
33.20642631446081
 21
2.017254095443838
 31
0.0
  0
LINE
  5
BE00
330
BDED
100
AcDbEntity
  8
0
  6
CONTINUOUS
100
AcDbLine
 10
36.23199999996837
 20
5.042827780951393
 30
0.0
 11
37.67199999996831
 21
6.482827780951334
 31
0.0
  0
LINE
  5
BE01
330
BDED
100
AcDbEntity
  8
0
  6
CONTINUOUS
100
AcDbLine
 10
32.51549227355815
 20
0.6528008454609919
 30
0.0
 11
33.49903056428258
 21
1.636339136185419
 31
0.0
  0
LINE
  5
BE02
330
BDED
100
AcDbEntity
  8
0
  6
CONTINUOUS
100
AcDbLine
 10
36.23199999996837
 20
4.369308571871207
 30
0.0
 11
37.67199999996831
 21
5.809308571871148
 31
0.0
  0
LINE
  5
BE03
330
BDED
100
AcDbEntity
  8
0
  6
CONTINUOUS
100
AcDbLine
 10
32.8522518780986
 20
0.3160412409212574
 30
0.0
 11
33.93324121824649
 21
1.397030581069146
 31
0.0
  0
LINE
  5
BE04
330
BDED
100
AcDbEntity
  8
0
  6
CONTINUOUS
100
AcDbLine
 10
36.23199999996837
 20
3.695789362791021
 30
0.0
 11
37.67199999996831
 21
5.135789362790963
 31
0.0
  0
LINE
  5
BE05
330
BDED
100
AcDbEntity
  8
0
  6
CONTINUOUS
100
AcDbLine
 10
33.30186329036846
 20
0.0921334441109263
 30
0.0
 11
34.46442907112041
 21
1.254699224862875
 31
0.0
  0
LINE
  5
BE06
330
BDED
100
AcDbEntity
  8
0
  6
CONTINUOUS
100
AcDbLine
 10
36.23199999996837
 20
3.022270153710834
 30
0.0
 11
37.67199999996831
 21
4.462270153710776
 31
0.0
  0
LINE
  5
BE07
330
BDED
100
AcDbEntity
  8
0
  6
CONTINUOUS
100
AcDbLine
 10
33.79565647746294
 20
-0.0875925778747773
 30
0.0
 11
35.24350171668284
 21
1.360252661345124
 31
0.0
  0
LINE
  5
BE08
330
BDED
100
AcDbEntity
  8
0
  6
CONTINUOUS
100
AcDbLine
 10
36.18336676155003
 20
2.300117706212308
 30
0.0
 11
37.67199999996831
 21
3.788750944630589
 31
0.0
  0
LINE
  5
BE09
330
BDED
100
AcDbEntity
  8
0
  6
CONTINUOUS
100
AcDbLine
 10
34.37182574910968
 20
-0.184942515308224
 30
0.0
 11
37.67199999996831
 21
3.115231735550402
 31
0.0
  0
LINE
  5
BE0A
330
BDED
100
AcDbEntity
  8
0
  6
CONTINUOUS
100
AcDbLine
 10
35.0453449581892
 20
-0.1849425153088955
 30
0.0
 11
37.65739306207836
 21
2.427105588580267
 31
0.0
  0
LINE
  5
BE0B
330
BDED
100
AcDbEntity
  8
0
  6
CONTINUOUS
100
AcDbLine
 10
35.98667157609191
 20
0.0828648935136398
 30
0.0
 11
37.41086792161699
 21
1.507061239038713
 31
0.0
  0
LINE
  5
BE0C
330
BDED
100
AcDbEntity
  8
0
  6
CONTINUOUS
100
AcDbLine
 10
33.83656881101902
 20
-0.1024834495035494
 30
0.0
 11
31.78457936207464
 21
1.949505999440828
 31
0.0
  0
LINE
  5
BE0D
330
BDED
100
AcDbEntity
  8
0
  6
CONTINUOUS
100
AcDbLine
 10
34.5925470859041
 20
-0.1849425153084434
 30
0.0
 11
31.64199999996833
 21
2.765604570627322
 31
0.0
  0
LINE
  5
BE0E
330
BDED
100
AcDbEntity
  8
0
  6
CONTINUOUS
100
AcDbLine
 10
35.26201302775981
 20
-0.1808892480839752
 30
0.0
 11
31.64199999996833
 21
3.439123779707508
 31
0.0
  0
LINE
  5
BE0F
330
BDED
100
AcDbEntity
  8
0
  6
CONTINUOUS
100
AcDbLine
 10
35.75580621485512
 20
-0.0011632260990879
 30
0.0
 11
34.51294304365551
 21
1.241699945100514
 31
0.0
  0
LINE
  5
BE10
330
BDED
100
AcDbEntity
  8
0
  6
CONTINUOUS
100
AcDbLine
 10
33.08199999996839
 20
2.672642988787641
 30
0.0
 11
31.64199999996833
 21
4.112642988787695
 31
0.0
  0
LINE
  5
BE11
330
BDED
100
AcDbEntity
  8
0
  6
CONTINUOUS
100
AcDbLine
 10
36.24959940195042
 20
0.1785627958857976
 30
0.0
 11
35.10501653033629
 21
1.323145667499924
 31
0.0
  0
LINE
  5
BE12
330
BDED
100
AcDbEntity
  8
0
  6
CONTINUOUS
100
AcDbLine
 10
33.08199999996839
 20
3.346162197867827
 30
0.0
 11
31.64199999996833
 21
4.786162197867881
 31
0.0
  0
LINE
  5
BE13
330
BDED
100
AcDbEntity
  8
0
  6
CONTINUOUS
100
AcDbLine
 10
36.62369414391585
 20
0.4779872630005553
 30
0.0
 11
35.6362043832099
 21
1.465477023706505
 31
0.0
  0
LINE
  5
BE14
330
BDED
100
AcDbEntity
  8
0
  6
CONTINUOUS
100
AcDbLine
 10
33.08199999996839
 20
4.019681406948013
 30
0.0
 11
31.64199999996833
 21
5.459681406948068
 31
0.0
  0
LINE
  5
BE15
330
BDED
100
AcDbEntity
  8
0
  6
CONTINUOUS
100
AcDbLine
 10
36.96045374845689
 20
0.8147468675397027
 30
0.0
 11
35.97691545773309
 21
1.798285158263504
 31
0.0
  0
LINE
  5
BE16
330
BDED
100
AcDbEntity
  8
0
  6
CONTINUOUS
100
AcDbLine
 10
33.08199999996839
 20
4.6932006160282
 30
0.0
 11
31.64199999996833
 21
6.133200616028255
 31
0.0
  0
LINE
  5
BE17
330
BDED
100
AcDbEntity
  8
0
  6
CONTINUOUS
100
AcDbLine
 10
37.29721335299792
 20
1.151506472078851
 30
0.0
 11
36.17602012811361
 21
2.272699696963169
 31
0.0
  0
LINE
  5
BE18
330
BDED
100
AcDbEntity
  8
0
  6
CONTINUOUS
100
AcDbLine
 10
33.08199999996839
 20
5.366719825108387
 30
0.0
 11
31.64199999996833
 21
6.806719825108441
 31
0.0
  0
LINE
  5
BE19
330
BDED
100
AcDbEntity
  8
0
  6
CONTINUOUS
100
AcDbLine
 10
37.45404367813572
 20
1.668195356021243
 30
0.0
 11
36.23199999996837
 21
2.890239034188595
 31
0.0
  0
LINE
  5
BE1A
330
BDED
100
AcDbEntity
  8
0
  6
CONTINUOUS
100
AcDbLine
 10
37.5963750343428
 20
2.199383208894346
 30
0.0
 11
36.23199999996837
 21
3.563758243268782
 31
0.0
  0
LINE
  5
BE1B
330
BDED
100
AcDbEntity
  8
0
  6
CONTINUOUS
100
AcDbLine
 10
33.08199999996839
 20
6.040239034188573
 30
0.0
 11
31.64199999996833
 21
7.480239034188628
 31
0.0
  0
LINE
  5
BE1C
330
BDED
100
AcDbEntity
  8
0
  6
CONTINUOUS
100
AcDbLine
 10
33.08199999996839
 20
6.713758243268759
 30
0.0
 11
31.64199999996833
 21
8.153758243268815
 31
0.0
  0
LINE
  5
BE1D
330
BDED
100
AcDbEntity
  8
0
  6
CONTINUOUS
100
AcDbLine
 10
37.67199999996831
 20
2.797277452349027
 30
0.0
 11
36.23199999996837
 21
4.237277452348969
 31
0.0
  0
LINE
  5
BE1E
330
BDED
100
AcDbEntity
  8
0
  6
CONTINUOUS
100
AcDbLine
 10
37.67199999996831
 20
3.470796661429214
 30
0.0
 11
36.23199999996837
 21
4.910796661429155
 31
0.0
  0
LINE
  5
BE1F
330
BDED
100
AcDbEntity
  8
0
  6
CONTINUOUS
100
AcDbLine
 10
37.67199999996831
 20
4.1443158705094
 30
0.0
 11
36.23199999996837
 21
5.584315870509341
 31
0.0
  0
LINE
  5
BE20
330
BDED
100
AcDbEntity
  8
0
  6
CONTINUOUS
100
AcDbLine
 10
33.08199999996839
 20
7.387277452348946
 30
0.0
 11
31.70617745232608
 21
8.763099999991255
 31
0.0
  0
LINE
  5
BE21
330
BDED
100
AcDbEntity
  8
0
  6
CONTINUOUS
100
AcDbLine
 10
33.08199999996839
 20
8.060796661429134
 30
0.0
 11
32.37969666140626
 21
8.763099999991255
 31
0.0
  0
LINE
  5
BE22
330
BDED
100
AcDbEntity
  8
0
  6
CONTINUOUS
100
AcDbLine
 10
33.08199999996839
 20
8.734315870509318
 30
0.0
 11
33.05321587048645
 21
8.763099999991255
 31
0.0
  0
LINE
  5
BE23
330
BDED
100
AcDbEntity
  8
0
  6
CONTINUOUS
100
AcDbLine
 10
37.67199999996831
 20
4.817835079589586
 30
0.0
 11
36.23199999996837
 21
6.257835079589528
 31
0.0
  0
LINE
  5
BE24
330
BDED
100
AcDbEntity
  8
0
  6
CONTINUOUS
100
AcDbLine
 10
37.67199999996831
 20
5.491354288669772
 30
0.0
 11
36.23199999996837
 21
6.931354288669715
 31
0.0
  0
LINE
  5
BE25
330
BDED
100
AcDbEntity
  8
0
  6
CONTINUOUS
100
AcDbLine
 10
37.67199999996831
 20
6.164873497749959
 30
0.0
 11
36.23199999996837
 21
7.6048734977499
 31
0.0
  0
LINE
  5
BE26
330
BDED
100
AcDbEntity
  8
0
  6
CONTINUOUS
100
AcDbLine
 10
37.67199999996831
 20
6.838392706830145
 30
0.0
 11
36.23199999996837
 21
8.278392706830086
 31
0.0
  0
LINE
  5
BE27
330
BDED
100
AcDbEntity
  8
0
  6
CONTINUOUS
100
AcDbLine
 10
37.67199999996831
 20
7.511911915910333
 30
0.0
 11
36.42081191588738
 21
8.763099999991255
 31
0.0
  0
LINE
  5
BE28
330
BDED
100
AcDbEntity
  8
0
  6
CONTINUOUS
100
AcDbLine
 10
37.67199999996831
 20
8.185431124990519
 30
0.0
 11
37.09433112496757
 21
8.763099999991255
 31
0.0
  0
ENDBLK
  5
BE91
330
BDED
100
AcDbEntity
  8
0
100
AcDbBlockEnd
  0
BLOCK
  5
BE92
330
BE29
100
AcDbEntity
  8
0
100
AcDbBlockBegin
  2
*X71
 70
     1
 10
0.0
 20
0.0
 30
0.0
  3
*X71
  1

  0
LINE
  5
BE2A
330
BE29
100
AcDbEntity
  8
0
  6
CONTINUOUS
100
AcDbLine
 10
38.60499999996136
 20
8.762866199104765
 30
0.0
 11
38.71672554182345
 21
8.874591740966855
 31
0.0
  0
LINE
  5
BE2B
330
BE29
100
AcDbEntity
  8
0
  6
CONTINUOUS
100
AcDbLine
 10
38.60499999996136
 20
8.089346990024577
 30
0.0
 11
39.03418785440363
 21
8.518534844466847
 31
0.0
  0
LINE
  5
BE2C
330
BE29
100
AcDbEntity
  8
0
  6
CONTINUOUS
100
AcDbLine
 10
38.60499999996136
 20
7.41582778094439
 30
0.0
 11
39.35165016698382
 21
8.16247794796684
 31
0.0
  0
LINE
  5
BE2D
330
BE29
100
AcDbEntity
  8
0
  6
CONTINUOUS
100
AcDbLine
 10
38.60499999996136
 20
6.742308571864204
 30
0.0
 11
39.66911247956399
 21
7.806421051466834
 31
0.0
  0
LINE
  5
BE2E
330
BE29
100
AcDbEntity
  8
0
  6
CONTINUOUS
100
AcDbLine
 10
38.60499999996136
 20
6.068789362784018
 30
0.0
 11
39.98657479214418
 21
7.450364154966827
 31
0.0
  0
LINE
  5
BE2F
330
BE29
100
AcDbEntity
  8
0
  6
CONTINUOUS
100
AcDbLine
 10
38.60499999996136
 20
5.395270153703832
 30
0.0
 11
40.30403710472435
 21
7.09430725846682
 31
0.0
  0
LINE
  5
BE30
330
BE29
100
AcDbEntity
  8
0
  6
CONTINUOUS
100
AcDbLine
 10
38.60499999996136
 20
4.721750944623645
 30
0.0
 11
40.62149941730453
 21
6.738250361966813
 31
0.0
  0
LINE
  5
BE31
330
BE29
100
AcDbEntity
  8
0
  6
CONTINUOUS
100
AcDbLine
 10
38.60499999996136
 20
4.048231735543458
 30
0.0
 11
40.93896172988471
 21
6.382193465466806
 31
0.0
  0
LINE
  5
BE32
330
BE29
100
AcDbEntity
  8
0
  6
CONTINUOUS
100
AcDbLine
 10
38.60499999996136
 20
3.374712526463272
 30
0.0
 11
40.02599999995994
 21
4.795712526461843
 31
0.0
  0
LINE
  5
BE33
330
BE29
100
AcDbEntity
  8
0
  6
CONTINUOUS
100
AcDbLine
 10
38.60499999996136
 20
2.701193317383085
 30
0.0
 11
40.02599999995994
 21
4.122193317381657
 31
0.0
  0
LINE
  5
BE34
330
BE29
100
AcDbEntity
  8
0
  6
CONTINUOUS
100
AcDbLine
 10
40.28339754687704
 20
5.053110073378947
 30
0.0
 11
41.25642404246489
 21
6.026136568966799
 31
0.0
  0
LINE
  5
BE35
330
BE29
100
AcDbEntity
  8
0
  6
CONTINUOUS
100
AcDbLine
 10
40.60085985945722
 20
4.697053176878939
 30
0.0
 11
41.57388635504507
 21
5.670079672466793
 31
0.0
  0
LINE
  5
BE36
330
BE29
100
AcDbEntity
  8
0
  6
CONTINUOUS
100
AcDbLine
 10
43.57899999995641
 20
8.348712526458318
 30
0.0
 11
43.99338747348935
 21
8.763099999991255
 31
0.0
  0
LINE
  5
BE37
330
BE29
100
AcDbEntity
  8
0
  6
CONTINUOUS
100
AcDbLine
 10
43.57899999995641
 20
7.675193317378131
 30
0.0
 11
44.66690668256953
 21
8.763099999991255
 31
0.0
  0
LINE
  5
BE38
330
BE29
100
AcDbEntity
  8
0
  6
CONTINUOUS
100
AcDbLine
 10
38.60499999996136
 20
2.027674108302898
 30
0.0
 11
40.02599999995994
 21
3.44867410830147
 31
0.0
  0
LINE
  5
BE39
330
BE29
100
AcDbEntity
  8
0
  6
CONTINUOUS
100
AcDbLine
 10
38.60499999996136
 20
1.354154899222712
 30
0.0
 11
40.02599999995994
 21
2.775154899221284
 31
0.0
  0
LINE
  5
BE3A
330
BE29
100
AcDbEntity
  8
0
  6
CONTINUOUS
100
AcDbLine
 10
38.60499999996136
 20
0.6806356901425255
 30
0.0
 11
40.02599999995994
 21
2.101635690141098
 31
0.0
  0
LINE
  5
BE3B
330
BE29
100
AcDbEntity
  8
0
  6
CONTINUOUS
100
AcDbLine
 10
38.60499999996136
 20
0.0071164810623383
 30
0.0
 11
40.02599999995994
 21
1.428116481060911
 31
0.0
  0
LINE
  5
BE3C
330
BE29
100
AcDbEntity
  8
0
  6
CONTINUOUS
100
AcDbLine
 10
40.9183221720374
 20
4.340996280378933
 30
0.0
 11
41.89134866762525
 21
5.314022775966786
 31
0.0
  0
LINE
  5
BE3D
330
BE29
100
AcDbEntity
  8
0
  6
CONTINUOUS
100
AcDbLine
 10
41.23578448461758
 20
3.984939383878926
 30
0.0
 11
42.20881098020543
 21
4.957965879466778
 31
0.0
  0
LINE
  5
BE3E
330
BE29
100
AcDbEntity
  8
0
  6
CONTINUOUS
100
AcDbLine
 10
41.55324679719776
 20
3.628882487378919
 30
0.0
 11
42.52627329278561
 21
4.601908982966772
 31
0.0
  0
LINE
  5
BE3F
330
BE29
100
AcDbEntity
  8
0
  6
CONTINUOUS
100
AcDbLine
 10
41.87070910977793
 20
3.272825590878912
 30
0.0
 11
42.84373560536579
 21
4.245852086466765
 31
0.0
  0
LINE
  5
BE40
330
BE29
100
AcDbEntity
  8
0
  6
CONTINUOUS
100
AcDbLine
 10
43.57899999995641
 20
7.001674108297943
 30
0.0
 11
44.99999999995498
 21
8.422674108296516
 31
0.0
  0
LINE
  5
BE41
330
BE29
100
AcDbEntity
  8
0
  6
CONTINUOUS
100
AcDbLine
 10
43.57899999995641
 20
6.328154899217758
 30
0.0
 11
44.99999999995498
 21
7.749154899216329
 31
0.0
  0
LINE
  5
BE42
330
BE29
100
AcDbEntity
  8
0
  6
CONTINUOUS
100
AcDbLine
 10
43.57899999995641
 20
5.654635690137571
 30
0.0
 11
44.99999999995498
 21
7.075635690136142
 31
0.0
  0
LINE
  5
BE43
330
BE29
100
AcDbEntity
  8
0
  6
CONTINUOUS
100
AcDbLine
 10
43.57899999995641
 20
4.981116481057384
 30
0.0
 11
44.99999999995498
 21
6.402116481055955
 31
0.0
  0
LINE
  5
BE44
330
BE29
100
AcDbEntity
  8
0
  6
CONTINUOUS
100
AcDbLine
 10
39.27140272797921
 20
-0.0000000000000009
 30
0.0
 11
40.02599999995994
 21
0.7545972719807246
 31
0.0
  0
LINE
  5
BE45
330
BE29
100
AcDbEntity
  8
0
  6
CONTINUOUS
100
AcDbLine
 10
39.9449219370594
 20
-0.0000000000000009
 30
0.0
 11
40.02599999995994
 21
0.0810780629005379
 31
0.0
  0
LINE
  5
BE46
330
BE29
100
AcDbEntity
  8
0
  6
CONTINUOUS
100
AcDbLine
 10
42.18817142235812
 20
2.916768694378905
 30
0.0
 11
43.16119791794597
 21
3.889795189966758
 31
0.0
  0
LINE
  5
BE47
330
BE29
100
AcDbEntity
  8
0
  6
CONTINUOUS
100
AcDbLine
 10
42.50563373493829
 20
2.560711797878898
 30
0.0
 11
43.47866023052615
 21
3.533738293466751
 31
0.0
  0
LINE
  5
BE48
330
BE29
100
AcDbEntity
  8
0
  6
CONTINUOUS
100
AcDbLine
 10
43.57899999995641
 20
4.307597271977198
 30
0.0
 11
44.99999999995498
 21
5.728597271975769
 31
0.0
  0
LINE
  5
BE49
330
BE29
100
AcDbEntity
  8
0
  6
CONTINUOUS
100
AcDbLine
 10
43.57899999995641
 20
3.634078062897011
 30
0.0
 11
44.99999999995498
 21
5.055078062895582
 31
0.0
  0
LINE
  5
BE4A
330
BE29
100
AcDbEntity
  8
0
  6
CONTINUOUS
100
AcDbLine
 10
42.82309604751848
 20
2.204654901378891
 30
0.0
 11
44.99999999995498
 21
4.381558853815395
 31
0.0
  0
LINE
  5
BE4B
330
BE29
100
AcDbEntity
  8
0
  6
CONTINUOUS
100
AcDbLine
 10
43.14055836009865
 20
1.848598004878885
 30
0.0
 11
44.99999999995498
 21
3.70803964473521
 31
0.0
  0
LINE
  5
BE4C
330
BE29
100
AcDbEntity
  8
0
  6
CONTINUOUS
100
AcDbLine
 10
43.45802067267883
 20
1.492541108378878
 30
0.0
 11
44.99999999995498
 21
3.034520435655023
 31
0.0
  0
LINE
  5
BE4D
330
BE29
100
AcDbEntity
  8
0
  6
CONTINUOUS
100
AcDbLine
 10
43.77548298525902
 20
1.136484211878871
 30
0.0
 11
44.99999999995498
 21
2.361001226574837
 31
0.0
  0
LINE
  5
BE4E
330
BE29
100
AcDbEntity
  8
0
  6
CONTINUOUS
100
AcDbLine
 10
44.09294529783919
 20
0.7804273153788639
 30
0.0
 11
44.99999999995498
 21
1.687482017494649
 31
0.0
  0
LINE
  5
BE4F
330
BE29
100
AcDbEntity
  8
0
  6
CONTINUOUS
100
AcDbLine
 10
44.41040761041938
 20
0.4243704188788566
 30
0.0
 11
44.99999999995498
 21
1.013962808414463
 31
0.0
  0
LINE
  5
BE50
330
BE29
100
AcDbEntity
  8
0
  6
CONTINUOUS
100
AcDbLine
 10
44.72786992299955
 20
0.0683135223788494
 30
0.0
 11
44.99999999995498
 21
0.340443599334276
 31
0.0
  0
LINE
  5
BE51
330
BE29
100
AcDbEntity
  8
0
  6
CONTINUOUS
100
AcDbLine
 10
39.12223903415696
 20
-0.0000000000000009
 30
0.0
 11
38.60499999996136
 21
0.5172390341955961
 31
0.0
  0
LINE
  5
BE52
330
BE29
100
AcDbEntity
  8
0
  6
CONTINUOUS
100
AcDbLine
 10
39.79575824323715
 20
-0.0000000000000009
 30
0.0
 11
38.60499999996136
 21
1.190758243275783
 31
0.0
  0
LINE
  5
BE53
330
BE29
100
AcDbEntity
  8
0
  6
CONTINUOUS
100
AcDbLine
 10
40.02599999995994
 20
0.443277452357397
 30
0.0
 11
38.60499999996136
 21
1.864277452355969
 31
0.0
  0
LINE
  5
BE54
330
BE29
100
AcDbEntity
  8
0
  6
CONTINUOUS
100
AcDbLine
 10
40.02599999995994
 20
1.116796661437583
 30
0.0
 11
38.60499999996136
 21
2.537796661436155
 31
0.0
  0
LINE
  5
BE55
330
BE29
100
AcDbEntity
  8
0
  6
CONTINUOUS
100
AcDbLine
 10
40.02599999995994
 20
1.79031587051777
 30
0.0
 11
38.60499999996136
 21
3.211315870516341
 31
0.0
  0
LINE
  5
BE56
330
BE29
100
AcDbEntity
  8
0
  6
CONTINUOUS
100
AcDbLine
 10
40.02599999995994
 20
2.463835079597956
 30
0.0
 11
38.60499999996136
 21
3.884835079596527
 31
0.0
  0
LINE
  5
BE57
330
BE29
100
AcDbEntity
  8
0
  6
CONTINUOUS
100
AcDbLine
 10
40.02599999995994
 20
3.137354288678143
 30
0.0
 11
38.60499999996136
 21
4.558354288676714
 31
0.0
  0
LINE
  5
BE58
330
BE29
100
AcDbEntity
  8
0
  6
CONTINUOUS
100
AcDbLine
 10
40.02599999995994
 20
3.810873497758329
 30
0.0
 11
38.60499999996136
 21
5.2318734977569
 31
0.0
  0
LINE
  5
BE59
330
BE29
100
AcDbEntity
  8
0
  6
CONTINUOUS
100
AcDbLine
 10
40.02599999995994
 20
4.484392706838515
 30
0.0
 11
38.60499999996136
 21
5.905392706837086
 31
0.0
  0
LINE
  5
BE5A
330
BE29
100
AcDbEntity
  8
0
  6
CONTINUOUS
100
AcDbLine
 10
44.99999999995498
 20
0.183911915923658
 30
0.0
 11
41.53858364506288
 21
3.64532827081576
 31
0.0
  0
LINE
  5
BE5B
330
BE29
100
AcDbEntity
  8
0
  6
CONTINUOUS
100
AcDbLine
 10
40.02599999995994
 20
5.157911915918703
 30
0.0
 11
38.60499999996136
 21
6.578911915917274
 31
0.0
  0
LINE
  5
BE5C
330
BE29
100
AcDbEntity
  8
0
  6
CONTINUOUS
100
AcDbLine
 10
44.99999999995498
 20
0.8574311250038447
 30
0.0
 11
38.60499999996136
 21
7.25243112499746
 31
0.0
  0
LINE
  5
BE5D
330
BE29
100
AcDbEntity
  8
0
  6
CONTINUOUS
100
AcDbLine
 10
44.99999999995498
 20
1.530950334084031
 30
0.0
 11
38.60499999996136
 21
7.925950334077647
 31
0.0
  0
LINE
  5
BE5E
330
BE29
100
AcDbEntity
  8
0
  6
CONTINUOUS
100
AcDbLine
 10
44.99999999995498
 20
2.204469543164218
 30
0.0
 11
43.57899999995641
 21
3.625469543162789
 31
0.0
  0
LINE
  5
BE5F
330
BE29
100
AcDbEntity
  8
0
  6
CONTINUOUS
100
AcDbLine
 10
41.89876730984767
 20
5.305702233271528
 30
0.0
 11
38.60499999996136
 21
8.599469543157834
 31
0.0
  0
LINE
  5
BE60
330
BE29
100
AcDbEntity
  8
0
  6
CONTINUOUS
100
AcDbLine
 10
44.99999999995498
 20
2.877988752244405
 30
0.0
 11
43.57899999995641
 21
4.298988752242975
 31
0.0
  0
LINE
  5
BE61
330
BE29
100
AcDbEntity
  8
0
  6
CONTINUOUS
100
AcDbLine
 10
44.99999999995498
 20
3.551507961324591
 30
0.0
 11
43.57899999995641
 21
4.972507961323163
 31
0.0
  0
LINE
  5
BE62
330
BE29
100
AcDbEntity
  8
0
  6
CONTINUOUS
100
AcDbLine
 10
44.99999999995498
 20
4.225027170404777
 30
0.0
 11
43.57899999995641
 21
5.646027170403348
 31
0.0
  0
LINE
  5
BE63
330
BE29
100
AcDbEntity
  8
0
  6
CONTINUOUS
100
AcDbLine
 10
44.99999999995498
 20
4.898546379484964
 30
0.0
 11
43.57899999995641
 21
6.319546379483535
 31
0.0
  0
LINE
  5
BE64
330
BE29
100
AcDbEntity
  8
0
  6
CONTINUOUS
100
AcDbLine
 10
44.99999999995498
 20
5.572065588565151
 30
0.0
 11
43.57899999995641
 21
6.993065588563722
 31
0.0
  0
LINE
  5
BE65
330
BE29
100
AcDbEntity
  8
0
  6
CONTINUOUS
100
AcDbLine
 10
44.99999999995498
 20
6.245584797645336
 30
0.0
 11
43.57899999995641
 21
7.666584797643908
 31
0.0
  0
LINE
  5
BE66
330
BE29
100
AcDbEntity
  8
0
  6
CONTINUOUS
100
AcDbLine
 10
44.99999999995498
 20
6.919104006725522
 30
0.0
 11
43.57899999995641
 21
8.340104006724093
 31
0.0
  0
LINE
  5
BE67
330
BE29
100
AcDbEntity
  8
0
  6
CONTINUOUS
100
AcDbLine
 10
44.99999999995498
 20
7.592623215805709
 30
0.0
 11
43.82952321576943
 21
8.763099999991255
 31
0.0
  0
LINE
  5
BE68
330
BE29
100
AcDbEntity
  8
0
  6
CONTINUOUS
100
AcDbLine
 10
44.99999999995498
 20
8.266142424885896
 30
0.0
 11
44.50304242484962
 21
8.763099999991255
 31
0.0
  0
ENDBLK
  5
BE93
330
BE29
100
AcDbEntity
  8
0
100
AcDbBlockEnd
  0
BLOCK
  5
BE94
330
BE69
100
AcDbEntity
  8
0
100
AcDbBlockBegin
  2
*X72
 70
     1
 10
0.0
 20
0.0
 30
0.0
  3
*X72
  1

  0
LINE
  5
BE6A
330
BE69
100
AcDbEntity
  8
0
  6
CONTINUOUS
100
AcDbLine
 10
0.0
 20
8.548461116714023
 30
0.0
 11
0.2146388832772324
 21
8.763099999991255
 31
0.0
  0
LINE
  5
BE6B
330
BE69
100
AcDbEntity
  8
0
  6
CONTINUOUS
100
AcDbLine
 10
-0.0000000000000002
 20
7.874941907633837
 30
0.0
 11
0.8881580923574184
 21
8.763099999991255
 31
0.0
  0
LINE
  5
BE6C
330
BE69
100
AcDbEntity
  8
0
  6
CONTINUOUS
100
AcDbLine
 10
0.0
 20
7.20142269855365
 30
0.0
 11
1.420999999998572
 21
8.622422698552223
 31
0.0
  0
LINE
  5
BE6D
330
BE69
100
AcDbEntity
  8
0
  6
CONTINUOUS
100
AcDbLine
 10
-0.0000000000000001
 20
6.527903489473465
 30
0.0
 11
1.420999999998571
 21
7.948903489472036
 31
0.0
  0
LINE
  5
BE6E
330
BE69
100
AcDbEntity
  8
0
  6
CONTINUOUS
100
AcDbLine
 10
-0.0000000000000002
 20
5.854384280393278
 30
0.0
 11
1.420999999998571
 21
7.275384280391849
 31
0.0
  0
LINE
  5
BE6F
330
BE69
100
AcDbEntity
  8
0
  6
CONTINUOUS
100
AcDbLine
 10
-0.0000000000000002
 20
5.180865071313091
 30
0.0
 11
1.420999999998571
 21
6.601865071311663
 31
0.0
  0
LINE
  5
BE70
330
BE69
100
AcDbEntity
  8
0
  6
CONTINUOUS
100
AcDbLine
 10
0.0
 20
4.507345862232905
 30
0.0
 11
1.420999999998571
 21
5.928345862231477
 31
0.0
  0
LINE
  5
BE71
330
BE69
100
AcDbEntity
  8
0
  6
CONTINUOUS
100
AcDbLine
 10
-0.0000000000000003
 20
3.833826653152718
 30
0.0
 11
1.420999999998571
 21
5.25482665315129
 31
0.0
  0
LINE
  5
BE72
330
BE69
100
AcDbEntity
  8
0
  6
CONTINUOUS
100
AcDbLine
 10
-0.0000000000000002
 20
3.160307444072532
 30
0.0
 11
1.420999999998571
 21
4.581307444071103
 31
0.0
  0
LINE
  5
BE73
330
BE69
100
AcDbEntity
  8
0
  6
CONTINUOUS
100
AcDbLine
 10
-0.0000000000000001
 20
2.486788234992345
 30
0.0
 11
1.420999999998571
 21
3.907788234990917
 31
0.0
  0
LINE
  5
BE74
330
BE69
100
AcDbEntity
  8
0
  6
CONTINUOUS
100
AcDbLine
 10
-0.0000000000000006
 20
1.813269025912159
 30
0.0
 11
1.420999999998571
 21
3.234269025910731
 31
0.0
  0
LINE
  5
BE75
330
BE69
100
AcDbEntity
  8
0
  6
CONTINUOUS
100
AcDbLine
 10
0.0
 20
1.139749816831973
 30
0.0
 11
1.420999999998571
 21
2.560749816830544
 31
0.0
  0
LINE
  5
BE76
330
BE69
100
AcDbEntity
  8
0
  6
CONTINUOUS
100
AcDbLine
 10
0.0000000000000002
 20
0.466230607751787
 30
0.0
 11
1.420999999998571
 21
1.887230607750358
 31
0.0
  0
LINE
  5
BE77
330
BE69
100
AcDbEntity
  8
0
  6
CONTINUOUS
100
AcDbLine
 10
0.2072886013284003
 20
-0.0000000000000009
 30
0.0
 11
1.420999999998571
 21
1.213711398670171
 31
0.0
  0
LINE
  5
BE78
330
BE69
100
AcDbEntity
  8
0
  6
CONTINUOUS
100
AcDbLine
 10
0.8808078104085864
 20
-0.0000000000000009
 30
0.0
 11
1.420999999998571
 21
0.5401921895899839
 31
0.0
  0
LINE
  5
BE79
330
BE69
100
AcDbEntity
  8
0
  6
CONTINUOUS
100
AcDbLine
 10
0.0581249075061505
 20
-0.0000000000000009
 30
0.0
 11
-0.0000000000000002
 21
0.0581249075061496
 31
0.0
  0
LINE
  5
BE7A
330
BE69
100
AcDbEntity
  8
0
  6
CONTINUOUS
100
AcDbLine
 10
0.7316441165863372
 20
-0.0000000000000009
 30
0.0
 11
-0.0000000000000002
 21
0.7316441165863363
 31
0.0
  0
LINE
  5
BE7B
330
BE69
100
AcDbEntity
  8
0
  6
CONTINUOUS
100
AcDbLine
 10
1.405163325666523
 20
-0.0000000000000009
 30
0.0
 11
-0.0000000000000002
 21
1.405163325666523
 31
0.0
  0
LINE
  5
BE7C
330
BE69
100
AcDbEntity
  8
0
  6
CONTINUOUS
100
AcDbLine
 10
1.420999999998572
 20
0.6576825347481381
 30
0.0
 11
-0.0000000000000001
 21
2.07868253474671
 31
0.0
  0
LINE
  5
BE7D
330
BE69
100
AcDbEntity
  8
0
  6
CONTINUOUS
100
AcDbLine
 10
1.420999999998571
 20
1.331201743828324
 30
0.0
 11
-0.0000000000000001
 21
2.752201743826896
 31
0.0
  0
LINE
  5
BE7E
330
BE69
100
AcDbEntity
  8
0
  6
CONTINUOUS
100
AcDbLine
 10
1.420999999998571
 20
2.004720952908511
 30
0.0
 11
-0.0000000000000002
 21
3.425720952907082
 31
0.0
  0
LINE
  5
BE7F
330
BE69
100
AcDbEntity
  8
0
  6
CONTINUOUS
100
AcDbLine
 10
1.420999999998571
 20
2.678240161988697
 30
0.0
 11
-0.0000000000000001
 21
4.099240161987269
 31
0.0
  0
LINE
  5
BE80
330
BE69
100
AcDbEntity
  8
0
  6
CONTINUOUS
100
AcDbLine
 10
1.420999999998572
 20
3.351759371068884
 30
0.0
 11
0.0
 21
4.772759371067455
 31
0.0
  0
LINE
  5
BE81
330
BE69
100
AcDbEntity
  8
0
  6
CONTINUOUS
100
AcDbLine
 10
1.420999999998571
 20
4.02527858014907
 30
0.0
 11
-0.0000000000000003
 21
5.446278580147642
 31
0.0
  0
LINE
  5
BE82
330
BE69
100
AcDbEntity
  8
0
  6
CONTINUOUS
100
AcDbLine
 10
1.420999999998571
 20
4.698797789229257
 30
0.0
 11
0.0
 21
6.119797789227828
 31
0.0
  0
LINE
  5
BE83
330
BE69
100
AcDbEntity
  8
0
  6
CONTINUOUS
100
AcDbLine
 10
1.420999999998571
 20
5.372316998309444
 30
0.0
 11
-0.0000000000000001
 21
6.793316998308015
 31
0.0
  0
LINE
  5
BE84
330
BE69
100
AcDbEntity
  8
0
  6
CONTINUOUS
100
AcDbLine
 10
1.420999999998572
 20
6.045836207389629
 30
0.0
 11
-0.0000000000000004
 21
7.466836207388202
 31
0.0
  0
LINE
  5
BE85
330
BE69
100
AcDbEntity
  8
0
  6
CONTINUOUS
100
AcDbLine
 10
1.420999999998571
 20
6.719355416469816
 30
0.0
 11
0.0
 21
8.140355416468388
 31
0.0
  0
LINE
  5
BE86
330
BE69
100
AcDbEntity
  8
0
  6
CONTINUOUS
100
AcDbLine
 10
1.420999999998571
 20
7.392874625550003
 30
0.0
 11
0.0507746255573185
 21
8.763099999991255
 31
0.0
  0
LINE
  5
BE87
330
BE69
100
AcDbEntity
  8
0
  6
CONTINUOUS
100
AcDbLine
 10
1.420999999998571
 20
8.06639383463019
 30
0.0
 11
0.7242938346375052
 21
8.763099999991255
 31
0.0
  0
LINE
  5
BE88
330
BE69
100
AcDbEntity
  8
0
  6
CONTINUOUS
100
AcDbLine
 10
1.420999999998571
 20
8.739913043710375
 30
0.0
 11
1.397813043717691
 21
8.763099999991255
 31
0.0
  0
ENDBLK
  5
BE95
330
BE69
100
AcDbEntity
  8
0
100
AcDbBlockEnd
  0
ENDSEC
  0
SECTION
  2
ENTITIES
  0
LINE
  5
B887
330
18
100
AcDbEntity
  8
01
100
AcDbLine
 10
5535.23774173388
 20
-297.9148529877975
 30
0.0
 11
5482.23774173388
 21
-297.9148529877975
 31
0.0
  0
LINE
  5
B888
330
18
100
AcDbEntity
  8
01
100
AcDbLine
 10
5481.73774173388
 20
-294.9148529877975
 30
0.0
 11
5535.73774173388
 21
-294.9148529877973
 31
0.0
  0
LINE
  5
B889
330
18
100
AcDbEntity
  8
01
100
AcDbLine
 10
5533.43774173388
 20
-365.1648529877971
 30
0.0
 11
5486.944848515066
 21
-365.1648529877971
 31
0.0
  0
LINE
  5
B88A
330
18
100
AcDbEntity
  8
01
100
AcDbLine
 10
5483.737741733879
 20
-361.9577462066104
 30
0.0
 11
5483.73774173388
 21
-297.9148529877975
 31
0.0
  0
LINE
  5
B88B
330
18
100
AcDbEntity
  8
01
100
AcDbLine
 10
5481.73774173388
 20
-294.9148529877975
 30
0.0
 11
5481.73774173388
 21
-297.4148529877975
 31
0.0
  0
ARC
  5
B88C
330
18
100
AcDbEntity
  8
01
100
AcDbCircle
 10
5482.23774173388
 20
-297.4148529877975
 30
0.0
 40
0.5
100
AcDbArc
 50
180.0
 51
270.0
  0
LINE
  5
B88D
330
18
100
AcDbEntity
  8
01
100
AcDbLine
 10
5483.884188343287
 20
-362.3112995972037
 30
0.0
 11
5486.591295124474
 21
-365.0184063783904
 31
0.0
  0
ARC
  5
B88E
330
18
100
AcDbEntity
  8
01
100
AcDbCircle
 10
5484.23774173388
 20
-361.9577462066104
 30
0.0
 40
0.5
100
AcDbArc
 50
180.0
 51
225.0
  0
ARC
  5
B88F
330
18
100
AcDbEntity
  8
01
100
AcDbCircle
 10
5486.944848515066
 20
-364.6648529877971
 30
0.0
 40
0.5
100
AcDbArc
 50
225.0
 51
270.0
  0
LINE
  5
B890
330
18
100
AcDbEntity
  8
01
100
AcDbLine
 10
5533.73774173388
 20
-297.9148529877975
 30
0.0
 11
5533.73774173388
 21
-364.8648529877969
 31
0.0
  0
LINE
  5
B891
330
18
100
AcDbEntity
  8
01
100
AcDbLine
 10
5535.73774173388
 20
-294.9148529877975
 30
0.0
 11
5535.73774173388
 21
-297.4148529877975
 31
0.0
  0
ARC
  5
B892
330
18
100
AcDbEntity
  8
01
100
AcDbCircle
 10
5535.23774173388
 20
-297.4148529877975
 30
0.0
 40
0.5
100
AcDbArc
 50
270.0
 51
0.0
  0
LINE
  5
B893
330
18
100
AcDbEntity
  8
01
100
AcDbLine
 10
5534.03774173388
 20
-365.4148529877975
 30
0.0
 11
5933.43774173388
 21
-365.4148529877975
 31
0.0
  0
LINE
  5
B894
330
18
100
AcDbEntity
  8
01
100
AcDbLine
 10
5534.03774173388
 20
-330.4148529877975
 30
0.0
 11
5933.43774173388
 21
-330.4148529877975
 31
0.0
  0
LINE
  5
B895
330
18
100
AcDbEntity
  8
01
100
AcDbLine
 10
5533.73774173388
 20
-330.7148529877975
 30
0.0
 11
5533.73774173388
 21
-365.1148529877973
 31
0.0
  0
ARC
  5
B896
330
18
100
AcDbEntity
  8
01
100
AcDbCircle
 10
5534.03774173388
 20
-330.7148529877975
 30
0.0
 40
0.3
100
AcDbArc
 50
90.0
 51
180.0
  0
ARC
  5
B897
330
18
100
AcDbEntity
  8
01
100
AcDbCircle
 10
5533.43774173388
 20
-364.8648529877969
 30
0.0
 40
0.3
100
AcDbArc
 50
270.0
 51
0.0
  0
ARC
  5
B898
330
18
100
AcDbEntity
  8
01
100
AcDbCircle
 10
5534.03774173388
 20
-365.1148529877973
 30
0.0
 40
0.3
100
AcDbArc
 50
180.0
 51
270.0
  0
LINE
  5
B899
330
18
100
AcDbEntity
  8
01
100
AcDbLine
 10
6100.023389477383
 20
-484.4947926750765
 30
0.0
 11
6100.023389477383
 21
-513.4947926750765
 31
0.0
  0
LINE
  5
B89A
330
18
100
AcDbEntity
  8
01
100
AcDbLine
 10
6097.023389477383
 20
-484.9947926750765
 30
0.0
 11
6097.023389477383
 21
-512.9947926750765
 31
0.0
  0
ARC
  5
B89B
330
18
100
AcDbEntity
  8
01
100
AcDbCircle
 10
6047.023389477383
 20
-498.9947926750765
 30
0.0
 40
17.24999999999955
100
AcDbArc
 50
51.86118715166341
 51
308.1388128483366
  0
LINE
  5
B89C
330
18
100
AcDbEntity
  8
01
100
AcDbLine
 10
6060.764295561044
 20
-486.4947926750767
 30
0.0
 11
6097.023389477383
 21
-486.4947926750765
 31
0.0
  0
ARC
  5
B89D
330
18
100
AcDbEntity
  8
01
100
AcDbCircle
 10
6097.523389477383
 20
-484.9947926750763
 30
0.0
 40
0.5
100
AcDbArc
 50
90.0
 51
180.000000000013
  0
LINE
  5
B89E
330
18
100
AcDbEntity
  8
01
100
AcDbLine
 10
6097.523389477383
 20
-484.4947926750765
 30
0.0
 11
6100.023389477383
 21
-484.4947926750765
 31
0.0
  0
ARC
  5
B89F
330
18
100
AcDbEntity
  8
01
100
AcDbCircle
 10
6060.764295561044
 20
-481.4947926750767
 30
0.0
 40
5.0
100
AcDbArc
 50
231.8611871516634
 51
270.0
  0
LINE
  5
B8A0
330
18
100
AcDbEntity
  8
01
100
AcDbLine
 10
6060.764295561044
 20
-511.4947926750765
 30
0.0
 11
6097.023389477383
 21
-511.4947926750765
 31
0.0
  0
ARC
  5
B8A1
330
18
100
AcDbEntity
  8
01
100
AcDbCircle
 10
6097.523389477383
 20
-512.9947926750767
 30
0.0
 40
0.5
100
AcDbArc
 50
179.9999999999739
 51
270.0
  0
LINE
  5
B8A2
330
18
100
AcDbEntity
  8
01
100
AcDbLine
 10
6097.523389477383
 20
-513.4947926750765
 30
0.0
 11
6100.023389477383
 21
-513.4947926750765
 31
0.0
  0
ARC
  5
B8A3
330
18
100
AcDbEntity
  8
01
100
AcDbCircle
 10
6060.764295561044
 20
-516.4947926750765
 30
0.0
 40
5.0
100
AcDbArc
 50
90.0
 51
128.1388128483366
  0
LINE
  5
B8A4
330
18
100
AcDbEntity
  8
01
100
AcDbLine
 10
5983.737741733881
 20
-361.9577462066104
 30
0.0
 11
5983.73774173388
 21
-297.9148529877975
 31
0.0
  0
LINE
  5
B8A5
330
18
100
AcDbEntity
  8
01
100
AcDbLine
 10
5933.73774173388
 20
-297.9148529877975
 30
0.0
 11
5933.73774173388
 21
-364.8648529877969
 31
0.0
  0
LINE
  5
B8A6
330
18
100
AcDbEntity
  8
01
100
AcDbLine
 10
5932.23774173388
 20
-297.9148529877975
 30
0.0
 11
5985.23774173388
 21
-297.9148529877975
 31
0.0
  0
LINE
  5
B8A7
330
18
100
AcDbEntity
  8
01
100
AcDbLine
 10
5985.73774173388
 20
-294.9148529877975
 30
0.0
 11
5931.73774173388
 21
-294.9148529877973
 31
0.0
  0
LINE
  5
B8A8
330
18
100
AcDbEntity
  8
01
100
AcDbLine
 10
5985.73774173388
 20
-294.9148529877975
 30
0.0
 11
5985.73774173388
 21
-297.4148529877975
 31
0.0
  0
ARC
  5
B8A9
330
18
100
AcDbEntity
  8
01
100
AcDbCircle
 10
5985.23774173388
 20
-297.4148529877975
 30
0.0
 40
0.5
100
AcDbArc
 50
270.0
 51
0.0
  0
LINE
  5
B8AA
330
18
100
AcDbEntity
  8
01
100
AcDbLine
 10
5931.73774173388
 20
-294.9148529877975
 30
0.0
 11
5931.73774173388
 21
-297.4148529877975
 31
0.0
  0
ARC
  5
B8AB
330
18
100
AcDbEntity
  8
01
100
AcDbCircle
 10
5932.23774173388
 20
-297.4148529877975
 30
0.0
 40
0.5
100
AcDbArc
 50
180.0
 51
270.0
  0
ARC
  5
B8AC
330
18
100
AcDbEntity
  8
01
100
AcDbCircle
 10
5983.23774173388
 20
-361.9577462066104
 30
0.0
 40
0.5
100
AcDbArc
 50
315.0
 51
0.0
  0
LINE
  5
B8AD
330
18
100
AcDbEntity
  8
01
100
AcDbLine
 10
5934.03774173388
 20
-365.1648529877971
 30
0.0
 11
5980.530634952695
 21
-365.1648529877971
 31
0.0
  0
ARC
  5
B8AE
330
18
100
AcDbEntity
  8
01
100
AcDbCircle
 10
5980.530634952695
 20
-364.6648529877971
 30
0.0
 40
0.5
100
AcDbArc
 50
270.0
 51
315.0
  0
LINE
  5
B8AF
330
18
100
AcDbEntity
  8
01
100
AcDbLine
 10
5983.591295124474
 20
-362.3112995972037
 30
0.0
 11
5980.884188343287
 21
-365.0184063783904
 31
0.0
  0
LINE
  5
B8B0
330
18
100
AcDbEntity
  8
01
100
AcDbLine
 10
5933.73774173388
 20
-330.7148529877975
 30
0.0
 11
5933.73774173388
 21
-365.1148529877973
 31
0.0
  0
ARC
  5
B8B1
330
18
100
AcDbEntity
  8
01
100
AcDbCircle
 10
5933.43774173388
 20
-330.7148529877975
 30
0.0
 40
0.3
100
AcDbArc
 50
0.0
 51
90.0
  0
ARC
  5
B8B2
330
18
100
AcDbEntity
  8
01
100
AcDbCircle
 10
5934.03774173388
 20
-364.8648529877969
 30
0.0
 40
0.3
100
AcDbArc
 50
180.0
 51
270.0
  0
ARC
  5
B8B3
330
18
100
AcDbEntity
  8
01
100
AcDbCircle
 10
5933.43774173388
 20
-365.1148529877973
 30
0.0
 40
0.3
100
AcDbArc
 50
270.0
 51
0.0
  0
CIRCLE
  5
B8B6
330
18
100
AcDbEntity
  8
01
100
AcDbCircle
 10
5958.73774173388
 20
-311.4148529877978
 30
0.0
 40
2.2
  0
CIRCLE
  5
B8B7
330
18
100
AcDbEntity
  8
01
100
AcDbCircle
 10
5958.73774173388
 20
-311.4148529877991
 30
0.0
 40
1.65
  0
CIRCLE
  5
B8B8
330
18
100
AcDbEntity
  8
01
100
AcDbCircle
 10
5508.73774173388
 20
-311.4148529877991
 30
0.0
 40
1.65
  0
CIRCLE
  5
B8B9
330
18
100
AcDbEntity
  8
01
100
AcDbCircle
 10
5508.73774173388
 20
-311.4148529877978
 30
0.0
 40
2.2
  0
LINE
  5
B8BF
330
18
100
AcDbEntity
  8
01
100
AcDbLine
 10
5933.437741733882
 20
-516.4947926750765
 30
0.0
 11
5534.037741733882
 21
-516.4947926750765
 31
0.0
  0
LINE
  5
B8C0
330
18
100
AcDbEntity
  8
01
100
AcDbLine
 10
5933.437741733882
 20
-481.4947926750765
 30
0.0
 11
5534.037741733884
 21
-481.4947926750765
 31
0.0
  0
LINE
  5
B8C1
330
18
100
AcDbEntity
  8
01
100
AcDbLine
 10
5933.737741733881
 20
-516.1947926750754
 30
0.0
 11
5933.737741733881
 21
-481.7947926750758
 31
0.0
  0
LINE
  5
B8C2
330
18
100
AcDbEntity
  8
01
100
AcDbLine
 10
5980.737741733881
 20
-481.7447926750765
 30
0.0
 11
5983.737741733881
 21
-484.7447926750765
 31
0.0
  0
ARC
  5
B8C3
330
18
100
AcDbEntity
  8
01
100
AcDbCircle
 10
5933.437741733878
 20
-481.7947926750778
 30
0.0
 40
0.3
100
AcDbArc
 50
0.0000000002214684
 51
89.99999999932257
  0
LINE
  5
B8C4
330
18
100
AcDbEntity
  8
01
100
AcDbLine
 10
5980.737741733881
 20
-481.7447926750765
 30
0.0
 11
5933.733545723033
 21
-481.7447926750765
 31
0.0
  0
ARC
  5
B8C5
330
18
100
AcDbEntity
  8
01
100
AcDbCircle
 10
5933.43774173388
 20
-516.1947926750756
 30
0.0
 40
0.3
100
AcDbArc
 50
270.0000000003648
 51
0.0000000000390827
  0
LINE
  5
B8C6
330
18
100
AcDbEntity
  8
01
100
AcDbLine
 10
5980.737741733881
 20
-516.2447926750765
 30
0.0
 11
5983.737741733881
 21
-513.2447926750765
 31
0.0
  0
LINE
  5
B8C7
330
18
100
AcDbEntity
  8
01
100
AcDbLine
 10
5980.737741733881
 20
-516.2447926750765
 30
0.0
 11
5933.733545723035
 21
-516.2447926750765
 31
0.0
  0
LINE
  5
B8C8
330
18
100
AcDbEntity
  8
01
100
AcDbLine
 10
5983.737741733881
 20
-513.2447926750765
 30
0.0
 11
5983.737741733881
 21
-484.7447926750765
 31
0.0
  0
LINE
  5
B8C9
330
18
100
AcDbEntity
  8
1HIDDEN
100
AcDbLine
 10
5932.737741733881
 20
-513.4947926750765
 30
0.0
 11
5981.323528171508
 21
-513.4947926750765
 31
0.0
  0
ARC
  5
B8CA
330
18
100
AcDbEntity
  8
1HIDDEN
100
AcDbCircle
 10
5932.737741733881
 20
-512.4947926750767
 30
0.0
 40
1.0
100
AcDbArc
 50
180.0
 51
270.0
  0
ARC
  5
B8CB
330
18
100
AcDbEntity
  8
1HIDDEN
100
AcDbCircle
 10
5946.237741733881
 20
-499.9947926750767
 30
0.0
 40
3.0
100
AcDbArc
 50
180.0000000000261
 51
0.0000000000130276
  0
ARC
  5
B8CC
330
18
100
AcDbEntity
  8
1HIDDEN
100
AcDbCircle
 10
5946.237741733881
 20
-497.9947926750767
 30
0.0
 40
3.0
100
AcDbArc
 50
0.0000000000130276
 51
180.0000000000261
  0
LINE
  5
B8CD
330
18
100
AcDbEntity
  8
1HIDDEN
100
AcDbLine
 10
5943.237741733883
 20
-499.9947926750765
 30
0.0
 11
5943.237741733883
 21
-497.9947926750765
 31
0.0
  0
LINE
  5
B8CE
330
18
100
AcDbEntity
  8
1HIDDEN
100
AcDbLine
 10
5949.237741733883
 20
-499.9947926750747
 30
0.0
 11
5949.237741733883
 21
-497.9947926750747
 31
0.0
  0
ARC
  5
B8CF
330
18
100
AcDbEntity
  8
01
100
AcDbCircle
 10
5984.737741733881
 20
-488.9090062374482
 30
0.0
 40
1.0
100
AcDbArc
 50
0.0
 51
44.99999999999078
  0
LINE
  5
B8D0
330
18
100
AcDbEntity
  8
01
100
AcDbLine
 10
5985.444848515068
 20
-488.2018994562613
 30
0.0
 11
5983.737741733881
 21
-486.4947926750745
 31
0.0
  0
ARC
  5
B8D1
330
18
100
AcDbEntity
  8
1HIDDEN
100
AcDbCircle
 10
5981.323528171508
 20
-485.4947926750767
 30
0.0
 40
1.0
100
AcDbArc
 50
44.99999999999078
 51
90.0
  0
LINE
  5
B8D2
330
18
100
AcDbEntity
  8
01
100
AcDbLine
 10
5985.444848515068
 20
-509.7876858938898
 30
0.0
 11
5983.737741733881
 21
-511.4947926750763
 31
0.0
  0
ARC
  5
B8D3
330
18
100
AcDbEntity
  8
1HIDDEN
100
AcDbCircle
 10
5971.237741733881
 20
-499.9947926750767
 30
0.0
 40
3.0
100
AcDbArc
 50
180.0000000000261
 51
0.0000000000130276
  0
ARC
  5
B8D4
330
18
100
AcDbEntity
  8
1HIDDEN
100
AcDbCircle
 10
5971.237741733881
 20
-497.9947926750767
 30
0.0
 40
3.0
100
AcDbArc
 50
0.0000000000130276
 51
180.0000000000261
  0
LINE
  5
B8D5
330
18
100
AcDbEntity
  8
1HIDDEN
100
AcDbLine
 10
5968.237741733881
 20
-499.9947926750765
 30
0.0
 11
5968.237741733881
 21
-497.9947926750765
 31
0.0
  0
LINE
  5
B8D6
330
18
100
AcDbEntity
  8
1HIDDEN
100
AcDbLine
 10
5974.237741733881
 20
-499.9947926750747
 30
0.0
 11
5974.237741733881
 21
-497.9947926750747
 31
0.0
  0
ARC
  5
B8D7
330
18
100
AcDbEntity
  8
1HIDDEN
100
AcDbCircle
 10
5981.323528171508
 20
-512.4947926750767
 30
0.0
 40
1.0
100
AcDbArc
 50
270.0
 51
315.0
  0
LINE
  5
B8D8
330
18
100
AcDbEntity
  8
01
100
AcDbLine
 10
5985.737741733883
 20
-488.909006237448
 30
0.0
 11
5985.737741733881
 21
-509.0805791127032
 31
0.0
  0
ARC
  5
B8D9
330
18
100
AcDbEntity
  8
01
100
AcDbCircle
 10
5984.737741733881
 20
-509.0805791127034
 30
0.0
 40
1.0
100
AcDbArc
 50
315.0
 51
0.0
  0
ARC
  5
B8DA
330
18
100
AcDbEntity
  8
1HIDDEN
100
AcDbCircle
 10
5971.237741733881
 20
-499.9947926750767
 30
0.0
 40
3.0
100
AcDbArc
 50
180.0
 51
0.0
  0
ARC
  5
B8DB
330
18
100
AcDbEntity
  8
1HIDDEN
100
AcDbCircle
 10
5971.237741733881
 20
-497.9947926750767
 30
0.0
 40
3.0
100
AcDbArc
 50
0.0
 51
180.0
  0
LINE
  5
B8DC
330
18
100
AcDbEntity
  8
1HIDDEN
100
AcDbLine
 10
5949.237741733883
 20
-499.9947926750765
 30
0.0
 11
5949.237741733883
 21
-497.9947926750765
 31
0.0
  0
LINE
  5
B8DD
330
18
100
AcDbEntity
  8
1HIDDEN
100
AcDbLine
 10
5943.237741733883
 20
-499.9947926750765
 30
0.0
 11
5943.237741733883
 21
-497.9947926750765
 31
0.0
  0
ARC
  5
B8DE
330
18
100
AcDbEntity
  8
1HIDDEN
100
AcDbCircle
 10
5946.237741733881
 20
-497.9947926750767
 30
0.0
 40
3.0
100
AcDbArc
 50
0.0
 51
180.0
  0
ARC
  5
B8DF
330
18
100
AcDbEntity
  8
1HIDDEN
100
AcDbCircle
 10
5946.237741733881
 20
-499.9947926750767
 30
0.0
 40
3.0
100
AcDbArc
 50
180.0
 51
0.0
  0
LINE
  5
B8E0
330
18
100
AcDbEntity
  8
1HIDDEN
100
AcDbLine
 10
5968.237741733883
 20
-499.9947926750765
 30
0.0
 11
5968.237741733883
 21
-497.9947926750765
 31
0.0
  0
LINE
  5
B8E1
330
18
100
AcDbEntity
  8
1HIDDEN
100
AcDbLine
 10
5974.237741733883
 20
-499.9947926750765
 30
0.0
 11
5974.237741733883
 21
-497.9947926750747
 31
0.0
  0
LINE
  5
B8E2
330
18
100
AcDbEntity
  8
1HIDDEN
100
AcDbLine
 10
5931.737741733881
 20
-485.4947926750747
 30
0.0
 11
5931.737741733881
 21
-512.4947926750765
 31
0.0
  0
ARC
  5
B8E3
330
18
100
AcDbEntity
  8
1HIDDEN
100
AcDbCircle
 10
5932.737741733881
 20
-485.4947926750749
 30
0.0
 40
1.0
100
AcDbArc
 50
90.0
 51
180.0
  0
LINE
  5
B8E4
330
18
100
AcDbEntity
  8
1HIDDEN
100
AcDbLine
 10
5932.737741733881
 20
-484.4947926750747
 30
0.0
 11
5981.32352817151
 21
-484.4947926750765
 31
0.0
  0
LINE
  5
B8E5
330
18
100
AcDbEntity
  8
01
100
AcDbLine
 10
5533.737741733881
 20
-516.1947926750754
 30
0.0
 11
5533.737741733881
 21
-481.7947926750758
 31
0.0
  0
LINE
  5
B8E6
330
18
100
AcDbEntity
  8
01
100
AcDbLine
 10
5486.737741733882
 20
-481.7447926750747
 30
0.0
 11
5483.737741733882
 21
-484.7447926750747
 31
0.0
  0
LINE
  5
B8E7
330
18
100
AcDbEntity
  8
01
100
AcDbLine
 10
5486.737741733882
 20
-481.7447926750747
 30
0.0
 11
5533.74193774473
 21
-481.7447926750765
 31
0.0
  0
ARC
  5
B8E8
330
18
100
AcDbEntity
  8
01
100
AcDbCircle
 10
5534.037741733884
 20
-481.7947926750776
 30
0.0
 40
0.3
100
AcDbArc
 50
90.00000000067743
 51
179.9999999997655
  0
LINE
  5
B8E9
330
18
100
AcDbEntity
  8
01
100
AcDbLine
 10
5486.737741733882
 20
-516.2447926750747
 30
0.0
 11
5533.741937744728
 21
-516.2447926750765
 31
0.0
  0
LINE
  5
B8EA
330
18
100
AcDbEntity
  8
1HIDDEN
100
AcDbLine
 10
5534.737741733881
 20
-484.4947926750747
 30
0.0
 11
5486.151955296254
 21
-484.4947926750747
 31
0.0
  0
LINE
  5
B8EB
330
18
100
AcDbEntity
  8
1HIDDEN
100
AcDbLine
 10
5534.737741733881
 20
-513.4947926750765
 30
0.0
 11
5486.151955296255
 21
-513.4947926750747
 31
0.0
  0
ARC
  5
B8EC
330
18
100
AcDbEntity
  8
01
100
AcDbCircle
 10
5534.037741733882
 20
-516.1947926750754
 30
0.0
 40
0.3
100
AcDbArc
 50
179.9999999999609
 51
269.9999999996352
  0
ARC
  5
B8ED
330
18
100
AcDbEntity
  8
1HIDDEN
100
AcDbCircle
 10
5521.237741733881
 20
-499.9947926750765
 30
0.0
 40
3.0
100
AcDbArc
 50
180.0
 51
0.0
  0
ARC
  5
B8EE
330
18
100
AcDbEntity
  8
1HIDDEN
100
AcDbCircle
 10
5521.237741733881
 20
-497.9947926750765
 30
0.0
 40
3.0
100
AcDbArc
 50
0.0
 51
180.0
  0
LINE
  5
B8EF
330
18
100
AcDbEntity
  8
1HIDDEN
100
AcDbLine
 10
5524.237741733879
 20
-499.9947926750765
 30
0.0
 11
5524.237741733879
 21
-497.9947926750765
 31
0.0
  0
LINE
  5
B8F0
330
18
100
AcDbEntity
  8
1HIDDEN
100
AcDbLine
 10
5518.237741733879
 20
-499.9947926750747
 30
0.0
 11
5518.237741733879
 21
-497.9947926750747
 31
0.0
  0
LINE
  5
B8F1
330
18
100
AcDbEntity
  8
1HIDDEN
100
AcDbLine
 10
5535.737741733881
 20
-485.4947926750747
 30
0.0
 11
5535.737741733881
 21
-512.4947926750765
 31
0.0
  0
ARC
  5
B8F2
330
18
100
AcDbEntity
  8
1HIDDEN
100
AcDbCircle
 10
5534.737741733881
 20
-485.4947926750747
 30
0.0
 40
1.0
100
AcDbArc
 50
0.0
 51
90.0
  0
ARC
  5
B8F3
330
18
100
AcDbEntity
  8
1HIDDEN
100
AcDbCircle
 10
5534.737741733881
 20
-512.4947926750765
 30
0.0
 40
1.0
100
AcDbArc
 50
270.0
 51
0.0
  0
ARC
  5
B8F4
330
18
100
AcDbEntity
  8
1HIDDEN
100
AcDbCircle
 10
5521.237741733881
 20
-499.9947926750765
 30
0.0
 40
3.0
100
AcDbArc
 50
179.999999999987
 51
359.999999999974
  0
ARC
  5
B8F5
330
18
100
AcDbEntity
  8
1HIDDEN
100
AcDbCircle
 10
5521.237741733881
 20
-497.9947926750765
 30
0.0
 40
3.0
100
AcDbArc
 50
359.999999999974
 51
179.999999999987
  0
LINE
  5
B8F6
330
18
100
AcDbEntity
  8
1HIDDEN
100
AcDbLine
 10
5524.237741733879
 20
-499.9947926750765
 30
0.0
 11
5524.237741733879
 21
-497.9947926750765
 31
0.0
  0
LINE
  5
B8F7
330
18
100
AcDbEntity
  8
1HIDDEN
100
AcDbLine
 10
5518.237741733879
 20
-499.9947926750747
 30
0.0
 11
5518.237741733879
 21
-497.9947926750747
 31
0.0
  0
LINE
  5
B8F8
330
18
100
AcDbEntity
  8
01
100
AcDbLine
 10
5486.737741733882
 20
-516.2447926750747
 30
0.0
 11
5483.737741733882
 21
-513.2447926750747
 31
0.0
  0
LINE
  5
B8F9
330
18
100
AcDbEntity
  8
01
100
AcDbLine
 10
5483.737741733882
 20
-513.2447926750747
 30
0.0
 11
5483.737741733882
 21
-484.7447926750747
 31
0.0
  0
LINE
  5
B8FA
330
18
100
AcDbEntity
  8
1HIDDEN
100
AcDbLine
 10
5493.23774173388
 20
-499.9947926750747
 30
0.0
 11
5493.23774173388
 21
-497.9947926750747
 31
0.0
  0
LINE
  5
B8FB
330
18
100
AcDbEntity
  8
1HIDDEN
100
AcDbLine
 10
5499.23774173388
 20
-499.9947926750747
 30
0.0
 11
5499.23774173388
 21
-497.9947926750747
 31
0.0
  0
ARC
  5
B8FC
330
18
100
AcDbEntity
  8
1HIDDEN
100
AcDbCircle
 10
5496.237741733882
 20
-497.9947926750765
 30
0.0
 40
3.0
100
AcDbArc
 50
0.0
 51
180.0
  0
ARC
  5
B8FD
330
18
100
AcDbEntity
  8
1HIDDEN
100
AcDbCircle
 10
5496.237741733882
 20
-499.9947926750765
 30
0.0
 40
3.0
100
AcDbArc
 50
180.0
 51
0.0
  0
ARC
  5
B8FE
330
18
100
AcDbEntity
  8
01
100
AcDbCircle
 10
5482.737741733882
 20
-488.909006237448
 30
0.0
 40
1.0
100
AcDbArc
 50
135.0000000000092
 51
180.0
  0
LINE
  5
B8FF
330
18
100
AcDbEntity
  8
01
100
AcDbLine
 10
5482.030634952695
 20
-488.2018994562595
 30
0.0
 11
5483.737741733882
 21
-486.4947926750738
 31
0.0
  0
ARC
  5
B900
330
18
100
AcDbEntity
  8
1HIDDEN
100
AcDbCircle
 10
5486.151955296255
 20
-485.4947926750765
 30
0.0
 40
1.0
100
AcDbArc
 50
90.0
 51
135.0000000000092
  0
LINE
  5
B901
330
18
100
AcDbEntity
  8
01
100
AcDbLine
 10
5482.030634952695
 20
-509.7876858938898
 30
0.0
 11
5483.737741733882
 21
-511.4947926750765
 31
0.0
  0
ARC
  5
B902
330
18
100
AcDbEntity
  8
1HIDDEN
100
AcDbCircle
 10
5496.237741733882
 20
-499.9947926750765
 30
0.0
 40
3.0
100
AcDbArc
 50
179.999999999987
 51
359.999999999974
  0
ARC
  5
B903
330
18
100
AcDbEntity
  8
1HIDDEN
100
AcDbCircle
 10
5496.237741733882
 20
-497.9947926750765
 30
0.0
 40
3.0
100
AcDbArc
 50
359.999999999974
 51
179.999999999987
  0
LINE
  5
B904
330
18
100
AcDbEntity
  8
1HIDDEN
100
AcDbLine
 10
5499.237741733882
 20
-499.9947926750747
 30
0.0
 11
5499.237741733882
 21
-497.9947926750747
 31
0.0
  0
LINE
  5
B905
330
18
100
AcDbEntity
  8
1HIDDEN
100
AcDbLine
 10
5493.237741733882
 20
-499.9947926750747
 30
0.0
 11
5493.237741733882
 21
-497.9947926750747
 31
0.0
  0
ARC
  5
B906
330
18
100
AcDbEntity
  8
1HIDDEN
100
AcDbCircle
 10
5486.151955296255
 20
-512.4947926750765
 30
0.0
 40
1.0
100
AcDbArc
 50
225.0
 51
270.0
  0
LINE
  5
B907
330
18
100
AcDbEntity
  8
01
100
AcDbLine
 10
5481.73774173388
 20
-488.909006237448
 30
0.0
 11
5481.737741733882
 21
-509.0805791127013
 31
0.0
  0
ARC
  5
B908
330
18
100
AcDbEntity
  8
01
100
AcDbCircle
 10
5482.737741733882
 20
-509.0805791127032
 30
0.0
 40
1.0
100
AcDbArc
 50
180.0
 51
225.0
  0
LINE
  5
B90A
330
18
100
AcDbEntity
  8
1HIDDEN
100
AcDbLine
 10
5983.737741733881
 20
-486.4947926750745
 30
0.0
 11
5982.030634952696
 21
-484.7876858938898
 31
0.0
  0
LINE
  5
B90B
330
18
100
AcDbEntity
  8
1HIDDEN
100
AcDbLine
 10
5983.737741733881
 20
-511.4947926750767
 30
0.0
 11
5982.030634952695
 21
-513.2018994562632
 31
0.0
  0
LINE
  5
B90C
330
18
100
AcDbEntity
  8
1HIDDEN
100
AcDbLine
 10
5483.737741733882
 20
-486.4947926750735
 30
0.0
 11
5485.444848515067
 21
-484.7876858938898
 31
0.0
  0
LINE
  5
B90D
330
18
100
AcDbEntity
  8
1HIDDEN
100
AcDbLine
 10
5483.737741733882
 20
-511.4947926750767
 30
0.0
 11
5485.444848515069
 21
-513.2018994562632
 31
0.0
  0
TEXT
  5
B90E
330
18
100
AcDbEntity
  8
1TEXT
100
AcDbText
 10
5481.56070010294
 20
-180.8198324613304
 30
0.0
 40
10.5
  1
KH-24-AC
100
AcDbText
  0
LINE
  5
B915
330
18
100
AcDbEntity
  8
1CENTER
100
AcDbLine
 10
5940.237741733881
 20
-498.764635396363
 30
0.0
 11
5952.237741733882
 21
-498.764635396363
 31
0.0
  0
LINE
  5
B916
330
18
100
AcDbEntity
  8
1CENTER
100
AcDbLine
 10
5946.237741733882
 20
-506.2249499537968
 30
0.0
 11
5946.237741733882
 21
-491.764635396363
 31
0.0
  0
LINE
  5
B917
330
18
100
AcDbEntity
  8
1CENTER
100
AcDbLine
 10
5958.737741733882
 20
-506.2249499537968
 30
0.0
 11
5958.737741733882
 21
-491.764635396363
 31
0.0
  0
LINE
  5
B918
330
18
100
AcDbEntity
  8
1CENTER
100
AcDbLine
 10
5965.237741733881
 20
-498.764635396363
 30
0.0
 11
5977.237741733882
 21
-498.764635396363
 31
0.0
  0
LINE
  5
B919
330
18
100
AcDbEntity
  8
1CENTER
100
AcDbLine
 10
5971.237741733882
 20
-506.2249499537968
 30
0.0
 11
5971.237741733882
 21
-491.764635396363
 31
0.0
  0
LINE
  5
B91A
330
18
100
AcDbEntity
  8
1CENTER
100
AcDbLine
 10
5515.237741733881
 20
-498.7646353963628
 30
0.0
 11
5527.237741733882
 21
-498.7646353963628
 31
0.0
  0
LINE
  5
B91B
330
18
100
AcDbEntity
  8
1CENTER
100
AcDbLine
 10
5521.237741733882
 20
-506.2249499537966
 30
0.0
 11
5521.237741733882
 21
-491.7646353963628
 31
0.0
  0
LINE
  5
B91C
330
18
100
AcDbEntity
  8
1CENTER
100
AcDbLine
 10
5490.237741733882
 20
-498.7646353963628
 30
0.0
 11
5502.237741733882
 21
-498.7646353963628
 31
0.0
  0
LINE
  5
B91D
330
18
100
AcDbEntity
  8
1CENTER
100
AcDbLine
 10
5496.237741733882
 20
-506.2249499537966
 30
0.0
 11
5496.237741733882
 21
-491.7646353963628
 31
0.0
  0
LINE
  5
B91E
330
18
100
AcDbEntity
  8
1CENTER
100
AcDbLine
 10
5508.737741733882
 20
-506.2249499537966
 30
0.0
 11
5508.737741733882
 21
-491.7646353963628
 31
0.0
  0
CIRCLE
  5
B922
330
18
100
AcDbEntity
  8
1PHANTOM
100
AcDbCircle
 10
5958.73774173388
 20
-311.4148529877975
 30
0.0
 40
2.2
  0
LINE
  5
B923
330
18
100
AcDbEntity
  8
1PHANTOM
100
AcDbLine
 10
5940.737741733881
 20
-297.9148529877975
 30
0.0
 11
5976.73774173388
 21
-297.9148529877975
 31
0.0
  0
LINE
  5
B924
330
18
100
AcDbEntity
  8
1PHANTOM
100
AcDbLine
 10
5958.737741733881
 20
-315.9148529877975
 30
0.0
 11
5954.912955125637
 21
-315.9148529877975
 31
0.0
  0
LINE
  5
B925
330
18
100
AcDbEntity
  8
1PHANTOM
100
AcDbLine
 10
5942.122479742589
 20
-309.9148529877975
 30
0.0
 11
5953.254897346476
 21
-309.9148529877975
 31
0.0
  0
LINE
  5
B926
330
18
100
AcDbEntity
  8
1PHANTOM
100
AcDbLine
 10
5953.913564298618
 20
-314.9497524845001
 30
0.0
 11
5953.754592759986
 21
-310.3974032394462
 31
0.0
  0
ARC
  5
B927
330
18
100
AcDbEntity
  8
1PHANTOM
100
AcDbCircle
 10
5954.912955125637
 20
-314.9148529877975
 30
0.0
 40
1.0
100
AcDbArc
 50
182.000000000004
 51
270.0
  0
ARC
  5
B928
330
18
100
AcDbEntity
  8
1PHANTOM
100
AcDbCircle
 10
5953.254897346476
 20
-310.4148529877975
 30
0.0
 40
0.5
100
AcDbArc
 50
2.000000000003953
 51
90.0
  0
LINE
  5
B929
330
18
100
AcDbEntity
  8
1PHANTOM
100
AcDbLine
 10
5941.123088915569
 20
-308.9497524845001
 30
0.0
 11
5940.737741733881
 21
-297.9148529877975
 31
0.0
  0
ARC
  5
B92A
330
18
100
AcDbEntity
  8
1PHANTOM
100
AcDbCircle
 10
5942.122479742589
 20
-308.9148529877975
 30
0.0
 40
1.0
100
AcDbArc
 50
182.000000000004
 51
270.0
  0
LINE
  5
B92B
330
18
100
AcDbEntity
  8
1PHANTOM
100
AcDbLine
 10
5975.353003725172
 20
-309.9148529877962
 30
0.0
 11
5964.220586121284
 21
-309.9148529877971
 31
0.0
  0
LINE
  5
B92C
330
18
100
AcDbEntity
  8
1PHANTOM
100
AcDbLine
 10
5963.561919169143
 20
-314.9497524844996
 30
0.0
 11
5963.720890707775
 21
-310.3974032394458
 31
0.0
  0
LINE
  5
B92D
330
18
100
AcDbEntity
  8
1PHANTOM
100
AcDbLine
 10
5958.737741733881
 20
-315.9148529877975
 30
0.0
 11
5962.562528342124
 21
-315.9148529877971
 31
0.0
  0
ARC
  5
B92E
330
18
100
AcDbEntity
  8
1PHANTOM
100
AcDbCircle
 10
5962.562528342124
 20
-314.9148529877971
 30
0.0
 40
1.0
100
AcDbArc
 50
270.0
 51
357.9999999999961
  0
ARC
  5
B92F
330
18
100
AcDbEntity
  8
1PHANTOM
100
AcDbCircle
 10
5964.220586121284
 20
-310.4148529877971
 30
0.0
 40
0.5
100
AcDbArc
 50
90.0
 51
177.999999999996
  0
LINE
  5
B930
330
18
100
AcDbEntity
  8
1PHANTOM
100
AcDbLine
 10
5976.352394552192
 20
-308.9497524844987
 30
0.0
 11
5976.737741733879
 21
-297.9148529877962
 31
0.0
  0
ARC
  5
B931
330
18
100
AcDbEntity
  8
1PHANTOM
100
AcDbCircle
 10
5975.353003725172
 20
-308.9148529877962
 30
0.0
 40
1.0
100
AcDbArc
 50
270.0
 51
357.9999999999961
  0
LINE
  5
B932
330
18
100
AcDbEntity
  8
1PHANTOM
100
AcDbLine
 10
6097.023389477383
 20
-490.9947926750767
 30
0.0
 11
6079.98848998068
 21
-491.5896644737159
 31
0.0
  0
ARC
  5
B933
330
18
100
AcDbEntity
  8
1PHANTOM
100
AcDbCircle
 10
6080.023389477383
 20
-492.589055300735
 30
0.0
 40
1.0
100
AcDbArc
 50
92.00000000000371
 51
180.0
  0
ARC
  5
B934
330
18
100
AcDbEntity
  8
1PHANTOM
100
AcDbCircle
 10
6085.931681608258
 20
-492.3827331931427
 30
0.0
 40
1.0
100
AcDbArc
 50
92.00000000000371
 51
180.0
  0
LINE
  5
B935
330
18
100
AcDbEntity
  8
1PHANTOM
100
AcDbLine
 10
6097.023389477383
 20
-506.9947926750765
 30
0.0
 11
6079.98848998068
 21
-506.3999208764374
 31
0.0
  0
LINE
  5
B936
330
18
100
AcDbEntity
  8
1PHANTOM
100
AcDbLine
 10
6084.931681608258
 20
-506.5725409318175
 30
0.0
 11
6084.931681608258
 21
-491.4170444183358
 31
0.0
  0
ARC
  5
B937
330
18
100
AcDbEntity
  8
1PHANTOM
100
AcDbCircle
 10
6085.931681608258
 20
-505.6068521570103
 30
0.0
 40
1.0
100
AcDbArc
 50
180.0
 51
267.9999999999963
  0
LINE
  5
B938
330
18
100
AcDbEntity
  8
1PHANTOM
100
AcDbLine
 10
6097.023389477383
 20
-506.9947926750767
 30
0.0
 11
6097.023389477383
 21
-490.9947926750765
 31
0.0
  0
LINE
  5
B939
330
18
100
AcDbEntity
  8
1PHANTOM
100
AcDbLine
 10
6079.023389477383
 20
-492.589055300735
 30
0.0
 11
6079.023389477383
 21
-505.4005300494182
 31
0.0
  0
ARC
  5
B93A
330
18
100
AcDbEntity
  8
1PHANTOM
100
AcDbCircle
 10
6080.023389477383
 20
-505.4005300494182
 30
0.0
 40
1.0
100
AcDbArc
 50
180.0
 51
267.9999999999963
  0
LINE
  5
B93D
330
18
100
AcDbEntity
  8
01
100
AcDbLine
 10
6109.023389477383
 20
-458.9947926750767
 30
0.0
 11
6109.023389477383
 21
-538.9947926750763
 31
0.0
  0
LINE
  5
B93E
330
18
100
AcDbEntity
  8
01
100
AcDbLine
 10
6121.023389477383
 20
-458.9947926750767
 30
0.0
 11
6121.023389477383
 21
-538.9947926750763
 31
0.0
  0
LINE
  5
B93F
330
18
100
AcDbEntity
  8
01
100
AcDbLine
 10
6100.023389477383
 20
-458.9947926750767
 30
0.0
 11
6100.023389477383
 21
-538.9947926750763
 31
0.0
  0
INSERT
  5
B940
330
18
100
AcDbEntity
  8
1PHANTOM
100
AcDbBlockReference
  2
R5-45なべ
 10
6083.631681608258
 20
-498.9947926750767
 30
0.0
  0
ARC
  5
B943
330
18
100
AcDbEntity
  8
01
100
AcDbCircle
 10
6047.023389477383
 20
-498.9947926750765
 30
0.0
 40
17.5
100
AcDbArc
 50
47.32674091787276
 51
312.6732590821272
  0
TEXT
  5
B948
330
18
100
AcDbEntity
  8
1TEXT
100
AcDbText
 10
6030.410754314871
 20
-413.5221124286678
 30
0.0
 40
7.0
  1
（15mm以上推奨）
100
AcDbText
  0
LINE
  5
B949
330
18
100
AcDbEntity
  8
1CENTER
100
AcDbLine
 10
6056.230618427306
 20
-498.9947926750765
 30
0.0
 11
6037.816160527459
 21
-498.9947926750765
 31
0.0
  0
LINE
  5
B94A
330
18
100
AcDbEntity
  8
1CENTER
100
AcDbLine
 10
6047.023389477383
 20
-489.7875637251532
 30
0.0
 11
6047.023389477383
 21
-508.2020216249998
 31
0.0
  0
TEXT
  5
BBD4
330
18
100
AcDbEntity
  8
01
  6
CONTINUOUS
100
AcDbText
 10
6083.979737721368
 20
-429.1609928616862
 30
0.0
 40
7.0
  1
PB
100
AcDbText
  0
TEXT
  5
BBD5
330
18
100
AcDbEntity
  8
01
  6
CONTINUOUS
100
AcDbText
 10
6047.788476305338
 20
-402.2744256512969
 30
0.0
 40
7.0
  1
合板12mm以上
100
AcDbText
  0
LINE
  5
BBD6
330
18
100
AcDbEntity
  8
1DIM
100
AcDbLine
 10
5481.73774173388
 20
-294.9148529877975
 30
0.0
 11
5481.73774173388
 21
-221.0302388156013
 31
0.0
1001
ACAD
1000
DSTYLE
1002
{
1070
    40
1040
2.0
1002
}
  0
LINE
  5
BBD7
330
18
100
AcDbEntity
  8
1DIM
100
AcDbLine
 10
5985.73774173388
 20
-294.9148529877975
 30
0.0
 11
5985.73774173388
 21
-221.0302388156013
 31
0.0
1001
ACAD
1000
DSTYLE
1002
{
1070
    40
1040
2.0
1002
}
  0
LINE
  5
BBD8
330
18
100
AcDbEntity
  8
1DIM
100
AcDbLine
 10
5485.73774173388
 20
-223.0302388156013
 30
0.0
 11
5981.73774173388
 21
-223.0302388156013
 31
0.0
1001
ACAD
1000
DSTYLE
1002
{
1070
    40
1040
2.0
1002
}
  0
LINE
  5
BBDC
330
18
100
AcDbEntity
  8
1DIM
100
AcDbLine
 10
5985.73774173388
 20
-294.9148529877975
 30
0.0
 11
6050.267241205394
 21
-294.9148529877976
 31
0.0
1001
ACAD
1000
DSTYLE
1002
{
1070
    40
1040
2.0
1002
}
  0
LINE
  5
BBDD
330
18
100
AcDbEntity
  8
1DIM
100
AcDbLine
 10
5933.43774173388
 20
-365.4148529877975
 30
0.0
 11
6050.267241205394
 21
-365.4148529877976
 31
0.0
1001
ACAD
1000
DSTYLE
1002
{
1070
    40
1040
2.0
1002
}
  0
LINE
  5
BBDE
330
18
100
AcDbEntity
  8
1DIM
100
AcDbLine
 10
6048.267241205394
 20
-361.4148529877976
 30
0.0
 11
6048.267241205394
 21
-298.9148529877976
 31
0.0
1001
ACAD
1000
DSTYLE
1002
{
1070
    40
1040
2.0
1002
}
  0
LINE
  5
BBDF
330
18
100
AcDbEntity
  8
1DIM
100
AcDbLine
 10
6048.267241205394
 20
-294.9148529877976
 30
0.0
 11
6048.267241205394
 21
-215.8806479539776
 31
0.0
1001
ACAD
1000
DSTYLE
1002
{
1070
    40
1040
2.0
1002
}
  0
LINE
  5
BBE3
330
18
100
AcDbEntity
  8
1DIM
100
AcDbLine
 10
6100.023389477383
 20
-484.4947926750765
 30
0.0
 11
6161.857812366295
 21
-484.4947926750765
 31
0.0
1001
ACAD
1000
DSTYLE
1002
{
1070
    40
1040
2.0
1002
}
  0
LINE
  5
BBE4
330
18
100
AcDbEntity
  8
1DIM
100
AcDbLine
 10
6100.023389477383
 20
-513.4947926750765
 30
0.0
 11
6161.857812366295
 21
-513.4947926750765
 31
0.0
1001
ACAD
1000
DSTYLE
1002
{
1070
    40
1040
2.0
1002
}
  0
LINE
  5
BBE5
330
18
100
AcDbEntity
  8
1DIM
100
AcDbLine
 10
6159.857812366295
 20
-484.4947926750765
 30
0.0
 11
6159.857812366295
 21
-425.9281260084108
 31
0.0
1001
ACAD
1000
DSTYLE
1002
{
1070
    40
1040
2.0
1002
}
  0
LINE
  5
BBE6
330
18
100
AcDbEntity
  8
1DIM
100
AcDbLine
 10
6159.857812366295
 20
-488.4947926750765
 30
0.0
 11
6159.857812366295
 21
-509.4947926750765
 31
0.0
1001
ACAD
1000
DSTYLE
1002
{
1070
    40
1040
2.0
1002
}
  0
LINE
  5
BBEA
330
18
100
AcDbEntity
  8
1DIM
100
AcDbLine
 10
5931.73774173388
 20
-294.9148529877973
 30
0.0
 11
5931.73774173388
 21
-249.7315754188453
 31
0.0
1001
ACAD
1000
DSTYLE
1002
{
1070
    40
1040
2.0
1002
}
  0
LINE
  5
BBEB
330
18
100
AcDbEntity
  8
1DIM
100
AcDbLine
 10
5985.73774173388
 20
-294.9148529877975
 30
0.0
 11
5985.73774173388
 21
-249.7315754188453
 31
0.0
1001
ACAD
1000
DSTYLE
1002
{
1070
    40
1040
2.0
1002
}
  0
LINE
  5
BBEC
330
18
100
AcDbEntity
  8
1DIM
100
AcDbLine
 10
5981.73774173388
 20
-251.7315754188453
 30
0.0
 11
5935.73774173388
 21
-251.7315754188453
 31
0.0
1001
ACAD
1000
DSTYLE
1002
{
1070
    40
1040
2.0
1002
}
  0
LINE
  5
BBED
330
18
100
AcDbEntity
  8
1DIM
100
AcDbLine
 10
5931.73774173388
 20
-251.7315754188453
 30
0.0
 11
5864.53774173388
 21
-251.7315754188453
 31
0.0
1001
ACAD
1000
DSTYLE
1002
{
1070
    40
1040
2.0
1002
}
  0
LINE
  5
BBF1
330
18
100
AcDbEntity
  8
1DIM
100
AcDbLine
 10
5481.73774173388
 20
-294.9148529877975
 30
0.0
 11
5481.73774173388
 21
-245.1333003849816
 31
0.0
1001
ACAD
1000
DSTYLE
1002
{
1070
    40
1040
2.0
1002
}
  0
LINE
  5
BBF2
330
18
100
AcDbEntity
  8
1DIM
100
AcDbLine
 10
5535.73774173388
 20
-294.9148529877973
 30
0.0
 11
5535.73774173388
 21
-245.1333003849816
 31
0.0
1001
ACAD
1000
DSTYLE
1002
{
1070
    40
1040
2.0
1002
}
  0
LINE
  5
BBF3
330
18
100
AcDbEntity
  8
1DIM
100
AcDbLine
 10
5485.73774173388
 20
-247.1333003849816
 30
0.0
 11
5531.73774173388
 21
-247.1333003849816
 31
0.0
1001
ACAD
1000
DSTYLE
1002
{
1070
    40
1040
2.0
1002
}
  0
LINE
  5
BBF7
330
18
100
AcDbEntity
  8
1DIM
100
AcDbLine
 10
6046.956402179275
 20
-481.4947926750765
 30
0.0
 11
6006.458867654098
 21
-481.4947926750764
 31
0.0
1001
ACAD
1000
DSTYLE
1002
{
1070
    40
1040
2.0
1070
   271
1070
     4
1002
}
  0
LINE
  5
BBF8
330
18
100
AcDbEntity
  8
1DIM
100
AcDbLine
 10
6047.023389477383
 20
-516.4947926750765
 30
0.0
 11
6006.458867654098
 21
-516.4947926750765
 31
0.0
1001
ACAD
1000
DSTYLE
1002
{
1070
    40
1040
2.0
1070
   271
1070
     4
1002
}
  0
LINE
  5
BBF9
330
18
100
AcDbEntity
  8
1DIM
100
AcDbLine
 10
6008.458867654098
 20
-485.4947926750764
 30
0.0
 11
6008.458867654098
 21
-512.4947926750765
 31
0.0
1001
ACAD
1000
DSTYLE
1002
{
1070
    40
1040
2.0
1070
   271
1070
     4
1002
}
  0
LINE
  5
BBFD
330
18
100
AcDbEntity
  8
1DIM
100
AcDbLine
 10
5881.843537840996
 20
-330.4148529877975
 30
0.0
 11
5843.886918166965
 21
-330.4148529877975
 31
0.0
1001
ACAD
1000
DSTYLE
1002
{
1070
    40
1040
2.0
1070
     3
1000
φ<>
1002
}
  0
LINE
  5
BBFE
330
18
100
AcDbEntity
  8
1DIM
100
AcDbLine
 10
5881.843537840996
 20
-365.4148529877975
 30
0.0
 11
5843.886918166965
 21
-365.4148529877975
 31
0.0
1001
ACAD
1000
DSTYLE
1002
{
1070
    40
1040
2.0
1070
     3
1000
φ<>
1002
}
  0
LINE
  5
BBFF
330
18
100
AcDbEntity
  8
1DIM
100
AcDbLine
 10
5845.886918166965
 20
-361.4148529877975
 30
0.0
 11
5845.886918166965
 21
-334.4148529877975
 31
0.0
1001
ACAD
1000
DSTYLE
1002
{
1070
    40
1040
2.0
1070
     3
1000
φ<>
1002
}
  0
LINE
  5
BC00
330
18
100
AcDbEntity
  8
1DIM
100
AcDbLine
 10
5845.886918166965
 20
-330.4148529877975
 30
0.0
 11
5845.886918166965
 21
-287.1136391169223
 31
0.0
1001
ACAD
1000
DSTYLE
1002
{
1070
    40
1040
2.0
1070
     3
1000
φ<>
1002
}
  0
LINE
  5
BC04
330
18
100
AcDbEntity
  8
1DIM
100
AcDbLine
 10
5496.237741733882
 20
-491.7646353963628
 30
0.0
 11
5496.237741733882
 21
-541.9517577542665
 31
0.0
1001
ACAD
1000
DSTYLE
1002
{
1070
    40
1040
2.0
1002
}
  0
LINE
  5
BC05
330
18
100
AcDbEntity
  8
1DIM
100
AcDbLine
 10
5521.237741733882
 20
-491.7646353963628
 30
0.0
 11
5521.237741733882
 21
-541.9517577542665
 31
0.0
1001
ACAD
1000
DSTYLE
1002
{
1070
    40
1040
2.0
1002
}
  0
LINE
  5
BC06
330
18
100
AcDbEntity
  8
1DIM
100
AcDbLine
 10
5500.237741733882
 20
-539.9517577542665
 30
0.0
 11
5517.237741733882
 21
-539.9517577542665
 31
0.0
1001
ACAD
1000
DSTYLE
1002
{
1070
    40
1040
2.0
1002
}
  0
SOLID
  5
BC0A
330
18
100
AcDbEntity
  8
1DIM
100
AcDbTrace
 10
5674.11326960404
 20
-333.8335365864086
 30
0.0
 11
5671.022272049625
 21
-336.4584515494198
 31
0.0
 12
5673.094864883366
 22
-332.9729381883824
 32
0.0
 13
5673.094864883366
 23
-332.9729381883824
 33
0.0
1001
ACAD
1000
DSTYLE
1002
{
1070
    40
1040
2.0
1002
}
  0
LINE
  5
BC0B
330
18
100
AcDbEntity
  8
1DIM
100
AcDbLine
 10
5673.604067243703
 20
-333.4032373873955
 30
0.0
 11
5694.907318212757
 21
-308.1936490331018
 31
0.0
1001
ACAD
1000
DSTYLE
1002
{
1070
    40
1040
2.0
1002
}
  0
LINE
  5
BC0C
330
18
100
AcDbEntity
  8
1DIM
100
AcDbLine
 10
5694.907318212757
 20
-308.1936490331018
 30
0.0
 11
5700.307318212756
 21
-308.1936490331018
 31
0.0
1001
ACAD
1000
DSTYLE
1002
{
1070
    40
1040
2.0
1002
}
  0
TEXT
  5
BC0D
330
18
100
AcDbEntity
  8
1DIM
  6
CONTINUOUS
100
AcDbText
 10
5699.840651546091
 20
-306.7936490331017
 30
0.0
 40
7.0
  1
材質：アクリル樹脂（クリア）
100
AcDbText
  0
SOLID
  5
BC0E
330
18
100
AcDbEntity
  8
1DIM
100
AcDbTrace
 10
5531.319689347057
 20
-322.0396668386148
 30
0.0
 11
5527.43055132996
 21
-323.1881658279121
 31
0.0
 12
5530.736979511766
 22
-320.8404058054644
 32
0.0
 13
5530.736979511766
 23
-320.8404058054644
 33
0.0
1001
ACAD
1000
DSTYLE
1002
{
1070
    40
1040
2.0
1002
}
  0
LINE
  5
BC0F
330
18
100
AcDbEntity
  8
1DIM
100
AcDbLine
 10
5531.028334429411
 20
-321.4400363220396
 30
0.0
 11
5561.405171418413
 21
-306.6802124061253
 31
0.0
1001
ACAD
1000
DSTYLE
1002
{
1070
    40
1040
2.0
1002
}
  0
LINE
  5
BC10
330
18
100
AcDbEntity
  8
1DIM
100
AcDbLine
 10
5561.405171418413
 20
-306.6802124061253
 30
0.0
 11
5566.805171418413
 21
-306.6802124061253
 31
0.0
1001
ACAD
1000
DSTYLE
1002
{
1070
    40
1040
2.0
1002
}
  0
TEXT
  5
BC11
330
18
100
AcDbEntity
  8
1DIM
  6
CONTINUOUS
100
AcDbText
 10
5566.338504751747
 20
-293.8468790727918
 30
0.0
 40
7.0
  1
材質：亜鉛ダイキャスト
100
AcDbText
  0
TEXT
  5
BC12
330
18
100
AcDbEntity
  8
1DIM
  6
CONTINUOUS
100
AcDbText
 10
5566.571838085079
 20
-305.5135457394585
 30
0.0
 40
7.0
  1
仕上げ：クローム
100
AcDbText
  0
SOLID
  5
BC13
330
18
100
AcDbEntity
  8
1DIM
100
AcDbTrace
 10
5535.507258674694
 20
-293.6141571624518
 30
0.0
 11
5531.666342792463
 21
-294.9148529877973
 31
0.0
 12
5534.877794305272
 22
-292.4387625966119
 32
0.0
 13
5534.877794305272
 23
-292.4387625966119
 33
0.0
1001
ACAD
1000
DSTYLE
1002
{
1070
    40
1040
2.0
1002
}
  0
LINE
  5
BC14
330
18
100
AcDbEntity
  8
1DIM
100
AcDbLine
 10
5535.192526489983
 20
-293.0264598795318
 30
0.0
 11
5563.472765498625
 21
-277.8814155412063
 31
0.0
1001
ACAD
1000
DSTYLE
1002
{
1070
    40
1040
2.0
1002
}
  0
LINE
  5
BC15
330
18
100
AcDbEntity
  8
1DIM
100
AcDbLine
 10
5563.472765498625
 20
-277.8814155412063
 30
0.0
 11
5568.872765498625
 21
-277.8814155412063
 31
0.0
1001
ACAD
1000
DSTYLE
1002
{
1070
    40
1040
2.0
1002
}
  0
TEXT
  5
BC16
330
18
100
AcDbEntity
  8
1DIM
  6
CONTINUOUS
100
AcDbText
 10
5568.406098831959
 20
-264.8147488745394
 30
0.0
 40
7.0
  1
材質：真鍮
100
AcDbText
  0
TEXT
  5
BC17
330
18
100
AcDbEntity
  8
1DIM
  6
CONTINUOUS
100
AcDbText
 10
5568.639432165292
 20
-276.4814155412061
 30
0.0
 40
7.0
  1
仕上げ：クローム
100
AcDbText
  0
LINE
  5
BC18
330
18
100
AcDbEntity
  8
1DIM
100
AcDbLine
 10
5958.737741733882
 20
-491.764635396363
 30
0.0
 11
5958.737741733882
 21
-440.7942087751615
 31
0.0
1001
ACAD
1000
DSTYLE
1002
{
1070
    40
1040
2.0
1002
}
  0
LINE
  5
BC19
330
18
100
AcDbEntity
  8
1DIM
100
AcDbLine
 10
5508.737741733882
 20
-491.7646353963628
 30
0.0
 11
5508.737741733882
 21
-440.7942087751615
 31
0.0
1001
ACAD
1000
DSTYLE
1002
{
1070
    40
1040
2.0
1002
}
  0
LINE
  5
BC1A
330
18
100
AcDbEntity
  8
1DIM
100
AcDbLine
 10
5954.737741733882
 20
-442.7942087751615
 30
0.0
 11
5512.737741733882
 21
-442.7942087751615
 31
0.0
1001
ACAD
1000
DSTYLE
1002
{
1070
    40
1040
2.0
1002
}
  0
LINE
  5
BC1E
330
18
100
AcDbEntity
  8
1DIM
100
AcDbLine
 10
5483.737741733879
 20
-361.9577462066104
 30
0.0
 11
5483.737741733879
 21
-392.06150367246
 31
0.0
1001
ACAD
1000
DSTYLE
1002
{
1070
    40
1040
2.0
1002
}
  0
LINE
  5
BC1F
330
18
100
AcDbEntity
  8
1DIM
100
AcDbLine
 10
5983.737741733881
 20
-361.9577462066104
 30
0.0
 11
5983.737741733881
 21
-392.06150367246
 31
0.0
1001
ACAD
1000
DSTYLE
1002
{
1070
    40
1040
2.0
1002
}
  0
LINE
  5
BC20
330
18
100
AcDbEntity
  8
1DIM
100
AcDbLine
 10
5487.737741733879
 20
-390.06150367246
 30
0.0
 11
5979.737741733881
 21
-390.06150367246
 31
0.0
1001
ACAD
1000
DSTYLE
1002
{
1070
    40
1040
2.0
1002
}
  0
LINE
  5
BC24
330
18
100
AcDbEntity
  8
1DIM
100
AcDbLine
 10
6097.023389477383
 20
-511.4947926750765
 30
0.0
 11
6148.853882441855
 21
-511.4947926750765
 31
0.0
1001
ACAD
1000
DSTYLE
1002
{
1070
    40
1040
2.0
1002
}
  0
LINE
  5
BC25
330
18
100
AcDbEntity
  8
1DIM
100
AcDbLine
 10
6097.023389477383
 20
-486.4947926750765
 30
0.0
 11
6148.853882441855
 21
-486.4947926750765
 31
0.0
1001
ACAD
1000
DSTYLE
1002
{
1070
    40
1040
2.0
1002
}
  0
LINE
  5
BC26
330
18
100
AcDbEntity
  8
1DIM
100
AcDbLine
 10
6146.853882441855
 20
-486.4947926750765
 30
0.0
 11
6146.853882441855
 21
-425.9294938859408
 31
0.0
1001
ACAD
1000
DSTYLE
1002
{
1070
    40
1040
2.0
1002
}
  0
LINE
  5
BC27
330
18
100
AcDbEntity
  8
1DIM
100
AcDbLine
 10
6146.853882441855
 20
-507.4947926750765
 30
0.0
 11
6146.853882441855
 21
-490.4947926750765
 31
0.0
1001
ACAD
1000
DSTYLE
1002
{
1070
    40
1040
2.0
1002
}
  0
LINE
  5
BC2B
330
18
100
AcDbEntity
  8
1HATCH
100
AcDbLine
 10
6081.873389477383
 20
-488.1447926750765
 30
0.0
 11
6081.523389477383
 21
-487.7947928491505
 31
0.0
  0
LINE
  5
BC2C
330
18
100
AcDbEntity
  8
1HATCH
100
AcDbLine
 10
6085.523389477383
 20
-487.7947928491505
 30
0.0
 11
6085.173389477382
 21
-488.1447926750765
 31
0.0
  0
LINE
  5
BC2D
330
18
100
AcDbEntity
  8
1HATCH
100
AcDbLine
 10
6080.523389477383
 20
-486.7947926850765
 30
0.0
 11
6086.523389477383
 21
-486.7947926850765
 31
0.0
  0
LINE
  5
BC2E
330
18
100
AcDbEntity
  8
1HATCH
100
AcDbLine
 10
6081.523389477383
 20
-494.1447926750765
 30
0.0
 11
6085.523389477383
 21
-494.1447926750765
 31
0.0
  0
LINE
  5
BC30
330
18
100
AcDbEntity
  8
1HATCH
100
AcDbLine
 10
6085.173389477382
 20
-494.4947926750765
 30
0.0
 11
6085.173389477382
 21
-488.1447926750765
 31
0.0
  0
LINE
  5
BC31
330
18
100
AcDbEntity
  8
1HATCH
100
AcDbLine
 10
6081.873389477383
 20
-494.4947926750765
 30
0.0
 11
6081.873389477383
 21
-488.1447926750765
 31
0.0
  0
LINE
  5
BC32
330
18
100
AcDbEntity
  8
1CENTER
100
AcDbLine
 10
6083.523389477383
 20
-496.0964676750765
 30
0.0
 11
6083.523389477383
 21
-484.9360237750765
 31
0.0
  0
LINE
  5
BC3B
330
18
100
AcDbEntity
  8
1HATCH
100
AcDbLine
 10
6081.873389477383
 20
-509.8447926750765
 30
0.0
 11
6081.523389477383
 21
-510.1947925010025
 31
0.0
  0
LINE
  5
BC3C
330
18
100
AcDbEntity
  8
1HATCH
100
AcDbLine
 10
6085.523389477383
 20
-510.1947925010025
 30
0.0
 11
6085.173389477382
 21
-509.8447926750765
 31
0.0
  0
LINE
  5
BC3D
330
18
100
AcDbEntity
  8
1HATCH
100
AcDbLine
 10
6080.523389477383
 20
-511.1947926650765
 30
0.0
 11
6086.523389477383
 21
-511.1947926650765
 31
0.0
  0
LINE
  5
BC3E
330
18
100
AcDbEntity
  8
1HATCH
100
AcDbLine
 10
6081.523389477383
 20
-503.8447926750765
 30
0.0
 11
6085.523389477383
 21
-503.8447926750765
 31
0.0
  0
LINE
  5
BC40
330
18
100
AcDbEntity
  8
1HATCH
100
AcDbLine
 10
6085.173389477382
 20
-503.4947926750765
 30
0.0
 11
6085.173389477382
 21
-509.8447926750765
 31
0.0
  0
LINE
  5
BC41
330
18
100
AcDbEntity
  8
1HATCH
100
AcDbLine
 10
6081.873389477383
 20
-503.4947926750765
 30
0.0
 11
6081.873389477383
 21
-509.8447926750765
 31
0.0
  0
LINE
  5
BC42
330
18
100
AcDbEntity
  8
1CENTER
100
AcDbLine
 10
6083.523389477383
 20
-501.8931176750765
 30
0.0
 11
6083.523389477383
 21
-513.0535615750765
 31
0.0
  0
LINE
  5
BC43
330
18
100
AcDbEntity
  8
1DIM
100
AcDbLine
 10
5985.23774173388
 20
-297.9148529877975
 30
0.0
 11
6033.452792204609
 21
-297.9148529877976
 31
0.0
1001
ACAD
1000
DSTYLE
1002
{
1070
    40
1040
2.0
1002
}
  0
LINE
  5
BC44
330
18
100
AcDbEntity
  8
1DIM
100
AcDbLine
 10
5933.43774173388
 20
-365.4148529877975
 30
0.0
 11
6033.452792204609
 21
-365.4148529877976
 31
0.0
1001
ACAD
1000
DSTYLE
1002
{
1070
    40
1040
2.0
1002
}
  0
LINE
  5
BC45
330
18
100
AcDbEntity
  8
1DIM
100
AcDbLine
 10
6031.452792204609
 20
-361.4148529877976
 30
0.0
 11
6031.452792204609
 21
-301.9148529877976
 31
0.0
1001
ACAD
1000
DSTYLE
1002
{
1070
    40
1040
2.0
1002
}
  0
LINE
  5
BC46
330
18
100
AcDbEntity
  8
1DIM
100
AcDbLine
 10
6031.452792204609
 20
-297.9148529877976
 30
0.0
 11
6031.452792204609
 21
-214.3086338517106
 31
0.0
1001
ACAD
1000
DSTYLE
1002
{
1070
    40
1040
2.0
1002
}
  0
LINE
  5
BC4A
330
18
100
AcDbEntity
  8
1DIM
100
AcDbLine
 10
5983.73774173388
 20
-297.9148529877975
 30
0.0
 11
5983.73774173388
 21
-263.3312631404979
 31
0.0
1001
ACAD
1000
DSTYLE
1002
{
1070
    40
1040
2.0
1002
}
  0
LINE
  5
BC4B
330
18
100
AcDbEntity
  8
1DIM
100
AcDbLine
 10
5933.73774173388
 20
-297.9148529877975
 30
0.0
 11
5933.73774173388
 21
-263.3312631404979
 31
0.0
1001
ACAD
1000
DSTYLE
1002
{
1070
    40
1040
2.0
1002
}
  0
LINE
  5
BC4C
330
18
100
AcDbEntity
  8
1DIM
100
AcDbLine
 10
5979.73774173388
 20
-265.3312631404979
 30
0.0
 11
5937.73774173388
 21
-265.3312631404979
 31
0.0
1001
ACAD
1000
DSTYLE
1002
{
1070
    40
1040
2.0
1002
}
  0
LINE
  5
BC4D
330
18
100
AcDbEntity
  8
1DIM
100
AcDbLine
 10
5933.73774173388
 20
-265.3312631404979
 30
0.0
 11
5866.53774173388
 21
-265.3312631404979
 31
0.0
1001
ACAD
1000
DSTYLE
1002
{
1070
    40
1040
2.0
1002
}
  0
SOLID
  5
BC51
330
18
100
AcDbEntity
  8
1DIM
100
AcDbTrace
 10
6104.493581561195
 20
-454.0569136986183
 30
0.0
 11
6104.957851395256
 21
-458.0854243372571
 31
0.0
 12
6103.212133236991
 22
-454.4252450306724
 32
0.0
 13
6103.212133236991
 23
-454.4252450306724
 33
0.0
1001
ACAD
1000
DSTYLE
1002
{
1070
    40
1040
2.0
1002
}
  0
LINE
  5
BC52
330
18
100
AcDbEntity
  8
1DIM
100
AcDbLine
 10
6103.852857399093
 20
-454.2410793646454
 30
0.0
 11
6097.046404388035
 21
-430.5609928616862
 31
0.0
1001
ACAD
1000
DSTYLE
1002
{
1070
    40
1040
2.0
1002
}
  0
SOLID
  5
BC53
330
18
100
AcDbEntity
  8
1DIM
100
AcDbTrace
 10
6115.881731885192
 20
-453.7536148721239
 30
0.0
 11
6115.866328710084
 21
-457.8087606385102
 31
0.0
 12
6114.565716870413
 22
-453.9678163162178
 32
0.0
 13
6114.565716870413
 23
-453.9678163162178
 33
0.0
1001
ACAD
1000
DSTYLE
1002
{
1070
    40
1040
2.0
1002
}
  0
LINE
  5
BC54
330
18
100
AcDbEntity
  8
1DIM
100
AcDbLine
 10
6115.223724377803
 20
-453.8607155941708
 30
0.0
 11
6107.055142972004
 21
-403.6744256512969
 31
0.0
1001
ACAD
1000
DSTYLE
1002
{
1070
    40
1040
2.0
1002
}
  0
LINE
  5
BC55
330
18
100
AcDbEntity
  8
1DIM
100
AcDbLine
 10
6047.023389477383
 20
-489.7875637251532
 30
0.0
 11
6047.023389477383
 21
-464.1068651437088
 31
0.0
1001
ACAD
1000
DSTYLE
1002
{
1070
    40
1040
2.0
1002
}
  0
LINE
  5
BC56
330
18
100
AcDbEntity
  8
1DIM
100
AcDbLine
 10
6100.023389477383
 20
-484.4947926750765
 30
0.0
 11
6100.023389477383
 21
-464.1068651437088
 31
0.0
1001
ACAD
1000
DSTYLE
1002
{
1070
    40
1040
2.0
1002
}
  0
LINE
  5
BC57
330
18
100
AcDbEntity
  8
1DIM
100
AcDbLine
 10
6051.023389477383
 20
-466.1068651437088
 30
0.0
 11
6096.023389477383
 21
-466.1068651437088
 31
0.0
1001
ACAD
1000
DSTYLE
1002
{
1070
    40
1040
2.0
1002
}
  0
LINE
  5
BC5B
330
18
100
AcDbEntity
  8
1DIM
100
AcDbLine
 10
6029.523389477383
 20
-498.9947926750765
 30
0.0
 11
6029.523389477383
 21
-444.4793333025536
 31
0.0
1001
ACAD
1000
DSTYLE
1002
{
1070
    40
1040
2.0
1002
}
  0
LINE
  5
BC5C
330
18
100
AcDbEntity
  8
1DIM
100
AcDbLine
 10
6100.023389477383
 20
-484.4947926750765
 30
0.0
 11
6100.023389477383
 21
-444.4793333025536
 31
0.0
1001
ACAD
1000
DSTYLE
1002
{
1070
    40
1040
2.0
1002
}
  0
LINE
  5
BC5D
330
18
100
AcDbEntity
  8
1DIM
100
AcDbLine
 10
6033.523389477383
 20
-446.4793333025536
 30
0.0
 11
6096.023389477383
 21
-446.4793333025536
 31
0.0
1001
ACAD
1000
DSTYLE
1002
{
1070
    40
1040
2.0
1002
}
  0
LINE
  5
BC61
330
18
100
AcDbEntity
  8
1DIM
100
AcDbLine
 10
5521.237741733882
 20
-491.7646353963628
 30
0.0
 11
5521.237741733882
 21
-464.4446568781668
 31
0.0
1001
ACAD
1000
DSTYLE
1002
{
1070
    40
1040
2.0
1002
}
  0
LINE
  5
BC62
330
18
100
AcDbEntity
  8
1DIM
100
AcDbLine
 10
5946.237741733882
 20
-491.764635396363
 30
0.0
 11
5946.237741733882
 21
-464.4446568781668
 31
0.0
1001
ACAD
1000
DSTYLE
1002
{
1070
    40
1040
2.0
1002
}
  0
LINE
  5
BC63
330
18
100
AcDbEntity
  8
1DIM
100
AcDbLine
 10
5525.237741733882
 20
-466.4446568781668
 30
0.0
 11
5942.237741733882
 21
-466.4446568781668
 31
0.0
1001
ACAD
1000
DSTYLE
1002
{
1070
    40
1040
2.0
1002
}
  0
LINE
  5
BC67
330
18
100
AcDbEntity
  8
1DIM
100
AcDbLine
 10
5946.237741733881
 20
-498.764635396363
 30
0.0
 11
5946.237741733881
 21
-538.8017577542668
 31
0.0
1001
ACAD
1000
DSTYLE
1002
{
1070
    40
1040
2.0
1002
}
  0
LINE
  5
BC68
330
18
100
AcDbEntity
  8
1DIM
100
AcDbLine
 10
5971.237741733881
 20
-498.764635396363
 30
0.0
 11
5971.237741733881
 21
-538.8017577542668
 31
0.0
1001
ACAD
1000
DSTYLE
1002
{
1070
    40
1040
2.0
1002
}
  0
LINE
  5
BC69
330
18
100
AcDbEntity
  8
1DIM
100
AcDbLine
 10
5950.237741733881
 20
-536.8017577542668
 30
0.0
 11
5967.237741733881
 21
-536.8017577542668
 31
0.0
1001
ACAD
1000
DSTYLE
1002
{
1070
    40
1040
2.0
1002
}
  0
LINE
  5
BC6D
330
18
100
AcDbEntity
  8
0
  6
BYBLOCK
100
AcDbLine
 10
5485.73774173388
 20
-224.1020355756013
 30
0.0
 11
5481.73774173388
 21
-223.0302388156013
 31
0.0
  0
LINE
  5
BC6E
330
18
100
AcDbEntity
  8
0
  6
BYBLOCK
100
AcDbLine
 10
5481.73774173388
 20
-223.0302388156013
 30
0.0
 11
5485.73774173388
 21
-221.9584420556012
 31
0.0
  0
LINE
  5
BC6F
330
18
100
AcDbEntity
  8
0
  6
BYBLOCK
100
AcDbLine
 10
5481.73774173388
 20
-223.0302388156013
 30
0.0
 11
5485.73774173388
 21
-223.0302388156013
 31
0.0
  0
LINE
  5
BC70
330
18
100
AcDbEntity
  8
0
  6
BYBLOCK
100
AcDbLine
 10
5981.73774173388
 20
-221.9584420556012
 30
0.0
 11
5985.73774173388
 21
-223.0302388156013
 31
0.0
  0
LINE
  5
BC71
330
18
100
AcDbEntity
  8
0
  6
BYBLOCK
100
AcDbLine
 10
5985.73774173388
 20
-223.0302388156013
 30
0.0
 11
5981.73774173388
 21
-224.1020355756013
 31
0.0
  0
LINE
  5
BC72
330
18
100
AcDbEntity
  8
0
  6
BYBLOCK
100
AcDbLine
 10
5985.73774173388
 20
-223.0302388156013
 30
0.0
 11
5981.73774173388
 21
-223.0302388156013
 31
0.0
  0
TEXT
  5
BC73
330
18
100
AcDbEntity
  8
1DIM
  6
CONTINUOUS
100
AcDbText
 10
5724.963436178325
 20
-221.6302388156013
 30
0.0
 40
7.0
  1
504
100
AcDbText
1001
ACAD
1000
DSTYLE
1002
{
1070
    40
1040
2.0
1002
}
  0
LINE
  5
BC74
330
18
100
AcDbEntity
  8
0
  6
BYBLOCK
100
AcDbLine
 10
6049.339037965395
 20
-361.4148529877976
 30
0.0
 11
6048.267241205394
 21
-365.4148529877976
 31
0.0
  0
LINE
  5
BC75
330
18
100
AcDbEntity
  8
0
  6
BYBLOCK
100
AcDbLine
 10
6048.267241205394
 20
-365.4148529877976
 30
0.0
 11
6047.195444445394
 21
-361.4148529877976
 31
0.0
  0
LINE
  5
BC76
330
18
100
AcDbEntity
  8
0
  6
BYBLOCK
100
AcDbLine
 10
6048.267241205394
 20
-365.4148529877976
 30
0.0
 11
6048.267241205394
 21
-361.4148529877976
 31
0.0
  0
LINE
  5
BC77
330
18
100
AcDbEntity
  8
0
  6
BYBLOCK
100
AcDbLine
 10
6047.195444445394
 20
-298.9148529877976
 30
0.0
 11
6048.267241205394
 21
-294.9148529877976
 31
0.0
  0
LINE
  5
BC78
330
18
100
AcDbEntity
  8
0
  6
BYBLOCK
100
AcDbLine
 10
6048.267241205394
 20
-294.9148529877976
 30
0.0
 11
6049.339037965395
 21
-298.9148529877976
 31
0.0
  0
LINE
  5
BC79
330
18
100
AcDbEntity
  8
0
  6
BYBLOCK
100
AcDbLine
 10
6048.267241205394
 20
-294.9148529877976
 30
0.0
 11
6048.267241205394
 21
-298.9148529877976
 31
0.0
  0
TEXT
  5
BC7A
330
18
100
AcDbEntity
  8
1DIM
  6
CONTINUOUS
100
AcDbText
 10
6046.867241205395
 20
-283.3049535095324
 30
0.0
 40
7.0
  1
70.5 （横施工）
 50
90.0
100
AcDbText
1001
ACAD
1000
DSTYLE
1002
{
1070
    40
1040
2.0
1002
}
  0
LINE
  5
BC7B
330
18
100
AcDbEntity
  8
0
  6
BYBLOCK
100
AcDbLine
 10
6158.786015606294
 20
-488.4947926750765
 30
0.0
 11
6159.857812366295
 21
-484.4947926750765
 31
0.0
  0
LINE
  5
BC7C
330
18
100
AcDbEntity
  8
0
  6
BYBLOCK
100
AcDbLine
 10
6159.857812366295
 20
-484.4947926750765
 30
0.0
 11
6160.929609126295
 21
-488.4947926750765
 31
0.0
  0
LINE
  5
BC7D
330
18
100
AcDbEntity
  8
0
  6
BYBLOCK
100
AcDbLine
 10
6159.857812366295
 20
-484.4947926750765
 30
0.0
 11
6159.857812366295
 21
-488.4947926750765
 31
0.0
  0
LINE
  5
BC7E
330
18
100
AcDbEntity
  8
0
  6
BYBLOCK
100
AcDbLine
 10
6160.929609126295
 20
-509.4947926750765
 30
0.0
 11
6159.857812366295
 21
-513.4947926750765
 31
0.0
  0
LINE
  5
BC7F
330
18
100
AcDbEntity
  8
0
  6
BYBLOCK
100
AcDbLine
 10
6159.857812366295
 20
-513.4947926750765
 30
0.0
 11
6158.786015606294
 21
-509.4947926750765
 31
0.0
  0
LINE
  5
BC80
330
18
100
AcDbEntity
  8
0
  6
BYBLOCK
100
AcDbLine
 10
6159.857812366295
 20
-513.4947926750765
 30
0.0
 11
6159.857812366295
 21
-509.4947926750765
 31
0.0
  0
TEXT
  5
BC81
330
18
100
AcDbEntity
  8
1DIM
  6
CONTINUOUS
100
AcDbText
 10
6158.457812366295
 20
-479.9297463787807
 30
0.0
 40
7.0
  1
29 （横施工）
 50
90.0
100
AcDbText
1001
ACAD
1000
DSTYLE
1002
{
1070
    40
1040
2.0
1002
}
  0
LINE
  5
BC82
330
18
100
AcDbEntity
  8
0
  6
BYBLOCK
100
AcDbLine
 10
5981.73774173388
 20
-250.6597786588453
 30
0.0
 11
5985.73774173388
 21
-251.7315754188453
 31
0.0
  0
LINE
  5
BC83
330
18
100
AcDbEntity
  8
0
  6
BYBLOCK
100
AcDbLine
 10
5985.73774173388
 20
-251.7315754188453
 30
0.0
 11
5981.73774173388
 21
-252.8033721788453
 31
0.0
  0
LINE
  5
BC84
330
18
100
AcDbEntity
  8
0
  6
BYBLOCK
100
AcDbLine
 10
5985.73774173388
 20
-251.7315754188453
 30
0.0
 11
5981.73774173388
 21
-251.7315754188453
 31
0.0
  0
LINE
  5
BC85
330
18
100
AcDbEntity
  8
0
  6
BYBLOCK
100
AcDbLine
 10
5935.73774173388
 20
-252.8033721788453
 30
0.0
 11
5931.73774173388
 21
-251.7315754188453
 31
0.0
  0
LINE
  5
BC86
330
18
100
AcDbEntity
  8
0
  6
BYBLOCK
100
AcDbLine
 10
5931.73774173388
 20
-251.7315754188453
 30
0.0
 11
5935.73774173388
 21
-250.6597786588453
 31
0.0
  0
LINE
  5
BC87
330
18
100
AcDbEntity
  8
0
  6
BYBLOCK
100
AcDbLine
 10
5931.73774173388
 20
-251.7315754188453
 30
0.0
 11
5935.73774173388
 21
-251.7315754188453
 31
0.0
  0
TEXT
  5
BC88
330
18
100
AcDbEntity
  8
1DIM
  6
CONTINUOUS
100
AcDbText
 10
5869.396769511658
 20
-250.3315754188453
 30
0.0
 40
7.0
  1
54 （横施工）
100
AcDbText
1001
ACAD
1000
DSTYLE
1002
{
1070
    40
1040
2.0
1002
}
  0
LINE
  5
BC89
330
18
100
AcDbEntity
  8
0
  6
BYBLOCK
100
AcDbLine
 10
5485.73774173388
 20
-248.2050971449816
 30
0.0
 11
5481.73774173388
 21
-247.1333003849816
 31
0.0
  0
LINE
  5
BC8A
330
18
100
AcDbEntity
  8
0
  6
BYBLOCK
100
AcDbLine
 10
5481.73774173388
 20
-247.1333003849816
 30
0.0
 11
5485.73774173388
 21
-246.0615036249816
 31
0.0
  0
LINE
  5
BC8B
330
18
100
AcDbEntity
  8
0
  6
BYBLOCK
100
AcDbLine
 10
5481.73774173388
 20
-247.1333003849816
 30
0.0
 11
5485.73774173388
 21
-247.1333003849816
 31
0.0
  0
LINE
  5
BC8C
330
18
100
AcDbEntity
  8
0
  6
BYBLOCK
100
AcDbLine
 10
5531.73774173388
 20
-246.0615036249816
 30
0.0
 11
5535.73774173388
 21
-247.1333003849816
 31
0.0
  0
LINE
  5
BC8D
330
18
100
AcDbEntity
  8
0
  6
BYBLOCK
100
AcDbLine
 10
5535.73774173388
 20
-247.1333003849816
 30
0.0
 11
5531.73774173388
 21
-248.2050971449816
 31
0.0
  0
LINE
  5
BC8E
330
18
100
AcDbEntity
  8
0
  6
BYBLOCK
100
AcDbLine
 10
5535.73774173388
 20
-247.1333003849816
 30
0.0
 11
5531.73774173388
 21
-247.1333003849816
 31
0.0
  0
TEXT
  5
BC8F
330
18
100
AcDbEntity
  8
1DIM
  6
CONTINUOUS
100
AcDbText
 10
5502.880102844992
 20
-245.7333003849816
 30
0.0
 40
7.0
  1
54
100
AcDbText
1001
ACAD
1000
DSTYLE
1002
{
1070
    40
1040
2.0
1002
}
  0
LINE
  5
BC90
330
18
100
AcDbEntity
  8
0
  6
BYBLOCK
100
AcDbLine
 10
6007.387070894098
 20
-485.4947926750764
 30
0.0
 11
6008.458867654098
 21
-481.4947926750764
 31
0.0
  0
LINE
  5
BC91
330
18
100
AcDbEntity
  8
0
  6
BYBLOCK
100
AcDbLine
 10
6008.458867654098
 20
-481.4947926750764
 30
0.0
 11
6009.530664414098
 21
-485.4947926750764
 31
0.0
  0
LINE
  5
BC92
330
18
100
AcDbEntity
  8
0
  6
BYBLOCK
100
AcDbLine
 10
6008.458867654098
 20
-481.4947926750764
 30
0.0
 11
6008.458867654098
 21
-485.4947926750764
 31
0.0
  0
LINE
  5
BC93
330
18
100
AcDbEntity
  8
0
  6
BYBLOCK
100
AcDbLine
 10
6009.530664414098
 20
-512.4947926750765
 30
0.0
 11
6008.458867654098
 21
-516.4947926750765
 31
0.0
  0
LINE
  5
BC94
330
18
100
AcDbEntity
  8
0
  6
BYBLOCK
100
AcDbLine
 10
6008.458867654098
 20
-516.4947926750765
 30
0.0
 11
6007.387070894098
 21
-512.4947926750765
 31
0.0
  0
LINE
  5
BC95
330
18
100
AcDbEntity
  8
0
  6
BYBLOCK
100
AcDbLine
 10
6008.458867654098
 20
-516.4947926750765
 30
0.0
 11
6008.458867654098
 21
-512.4947926750765
 31
0.0
  0
TEXT
  5
BC96
330
18
100
AcDbEntity
  8
1DIM
  6
CONTINUOUS
100
AcDbText
 10
6007.058867654098
 20
-504.8281260084086
 30
0.0
 40
7.0
  1
35
 50
90.0
100
AcDbText
1001
ACAD
1000
DSTYLE
1002
{
1070
    40
1040
2.0
1070
   271
1070
     4
1002
}
  0
LINE
  5
BC97
330
18
100
AcDbEntity
  8
0
  6
BYBLOCK
100
AcDbLine
 10
5846.958714926966
 20
-361.4148529877975
 30
0.0
 11
5845.886918166965
 21
-365.4148529877975
 31
0.0
  0
LINE
  5
BC98
330
18
100
AcDbEntity
  8
0
  6
BYBLOCK
100
AcDbLine
 10
5845.886918166965
 20
-365.4148529877975
 30
0.0
 11
5844.815121406965
 21
-361.4148529877975
 31
0.0
  0
LINE
  5
BC99
330
18
100
AcDbEntity
  8
0
  6
BYBLOCK
100
AcDbLine
 10
5845.886918166965
 20
-365.4148529877975
 30
0.0
 11
5845.886918166965
 21
-361.4148529877975
 31
0.0
  0
LINE
  5
BC9A
330
18
100
AcDbEntity
  8
0
  6
BYBLOCK
100
AcDbLine
 10
5844.815121406965
 20
-334.4148529877975
 30
0.0
 11
5845.886918166965
 21
-330.4148529877975
 31
0.0
  0
LINE
  5
BC9B
330
18
100
AcDbEntity
  8
0
  6
BYBLOCK
100
AcDbLine
 10
5845.886918166965
 20
-330.4148529877975
 30
0.0
 11
5846.958714926966
 21
-334.4148529877975
 31
0.0
  0
LINE
  5
BC9C
330
18
100
AcDbEntity
  8
0
  6
BYBLOCK
100
AcDbLine
 10
5845.886918166965
 20
-330.4148529877975
 30
0.0
 11
5845.886918166965
 21
-334.4148529877975
 31
0.0
  0
TEXT
  5
BC9D
330
18
100
AcDbEntity
  8
1DIM
  6
CONTINUOUS
100
AcDbText
 10
5844.486918166966
 20
-309.1469724502549
 30
0.0
 40
7.0
  1
φ35
 50
90.0
100
AcDbText
1001
ACAD
1000
DSTYLE
1002
{
1070
    40
1040
2.0
1070
     3
1000
φ<>
1002
}
  0
LINE
  5
BC9E
330
18
100
AcDbEntity
  8
0
  6
BYBLOCK
100
AcDbLine
 10
5500.237741733882
 20
-541.0235545142665
 30
0.0
 11
5496.237741733882
 21
-539.9517577542665
 31
0.0
  0
LINE
  5
BC9F
330
18
100
AcDbEntity
  8
0
  6
BYBLOCK
100
AcDbLine
 10
5496.237741733882
 20
-539.9517577542665
 30
0.0
 11
5500.237741733882
 21
-538.8799609942665
 31
0.0
  0
LINE
  5
BCA0
330
18
100
AcDbEntity
  8
0
  6
BYBLOCK
100
AcDbLine
 10
5496.237741733882
 20
-539.9517577542665
 30
0.0
 11
5500.237741733882
 21
-539.9517577542665
 31
0.0
  0
LINE
  5
BCA1
330
18
100
AcDbEntity
  8
0
  6
BYBLOCK
100
AcDbLine
 10
5517.237741733882
 20
-538.8799609942665
 30
0.0
 11
5521.237741733882
 21
-539.9517577542665
 31
0.0
  0
LINE
  5
BCA2
330
18
100
AcDbEntity
  8
0
  6
BYBLOCK
100
AcDbLine
 10
5521.237741733882
 20
-539.9517577542665
 30
0.0
 11
5517.237741733882
 21
-541.0235545142665
 31
0.0
  0
LINE
  5
BCA3
330
18
100
AcDbEntity
  8
0
  6
BYBLOCK
100
AcDbLine
 10
5521.237741733882
 20
-539.9517577542665
 30
0.0
 11
5517.237741733882
 21
-539.9517577542665
 31
0.0
  0
TEXT
  5
BCA4
330
18
100
AcDbEntity
  8
1DIM
  6
CONTINUOUS
100
AcDbText
 10
5500.04580064208
 20
-538.5517577542664
 30
0.0
 40
7.0
  1
P25
100
AcDbText
1001
ACAD
1000
DSTYLE
1002
{
1070
    40
1040
2.0
1002
}
  0
LINE
  5
BCA5
330
18
100
AcDbEntity
  8
0
  6
BYBLOCK
100
AcDbLine
 10
5954.737741733882
 20
-441.7224120151615
 30
0.0
 11
5958.737741733882
 21
-442.7942087751615
 31
0.0
  0
LINE
  5
BCA6
330
18
100
AcDbEntity
  8
0
  6
BYBLOCK
100
AcDbLine
 10
5958.737741733882
 20
-442.7942087751615
 30
0.0
 11
5954.737741733882
 21
-443.8660055351614
 31
0.0
  0
LINE
  5
BCA7
330
18
100
AcDbEntity
  8
0
  6
BYBLOCK
100
AcDbLine
 10
5958.737741733882
 20
-442.7942087751615
 30
0.0
 11
5954.737741733882
 21
-442.7942087751615
 31
0.0
  0
LINE
  5
BCA8
330
18
100
AcDbEntity
  8
0
  6
BYBLOCK
100
AcDbLine
 10
5512.737741733882
 20
-443.8660055351614
 30
0.0
 11
5508.737741733882
 21
-442.7942087751615
 31
0.0
  0
LINE
  5
BCA9
330
18
100
AcDbEntity
  8
0
  6
BYBLOCK
100
AcDbLine
 10
5508.737741733882
 20
-442.7942087751615
 30
0.0
 11
5512.737741733882
 21
-441.7224120151615
 31
0.0
  0
LINE
  5
BCAA
330
18
100
AcDbEntity
  8
0
  6
BYBLOCK
100
AcDbLine
 10
5508.737741733882
 20
-442.7942087751615
 30
0.0
 11
5512.737741733882
 21
-442.7942087751615
 31
0.0
  0
TEXT
  5
BCAB
330
18
100
AcDbEntity
  8
1DIM
  6
CONTINUOUS
100
AcDbText
 10
5721.317602844993
 20
-441.3942087751615
 30
0.0
 40
7.0
  1
P450
100
AcDbText
1001
ACAD
1000
DSTYLE
1002
{
1070
    40
1040
2.0
1002
}
  0
LINE
  5
BCAC
330
18
100
AcDbEntity
  8
0
  6
BYBLOCK
100
AcDbLine
 10
5487.737741733879
 20
-391.13330043246
 30
0.0
 11
5483.737741733879
 21
-390.06150367246
 31
0.0
  0
LINE
  5
BCAD
330
18
100
AcDbEntity
  8
0
  6
BYBLOCK
100
AcDbLine
 10
5483.737741733879
 20
-390.06150367246
 30
0.0
 11
5487.737741733879
 21
-388.9897069124601
 31
0.0
  0
LINE
  5
BCAE
330
18
100
AcDbEntity
  8
0
  6
BYBLOCK
100
AcDbLine
 10
5483.737741733879
 20
-390.06150367246
 30
0.0
 11
5487.737741733879
 21
-390.06150367246
 31
0.0
  0
LINE
  5
BCAF
330
18
100
AcDbEntity
  8
0
  6
BYBLOCK
100
AcDbLine
 10
5979.737741733881
 20
-388.9897069124601
 30
0.0
 11
5983.737741733881
 21
-390.06150367246
 31
0.0
  0
LINE
  5
BCB0
330
18
100
AcDbEntity
  8
0
  6
BYBLOCK
100
AcDbLine
 10
5983.737741733881
 20
-390.06150367246
 30
0.0
 11
5979.737741733881
 21
-391.13330043246
 31
0.0
  0
LINE
  5
BCB1
330
18
100
AcDbEntity
  8
0
  6
BYBLOCK
100
AcDbLine
 10
5983.737741733881
 20
-390.06150367246
 30
0.0
 11
5979.737741733881
 21
-390.06150367246
 31
0.0
  0
TEXT
  5
BCB2
330
18
100
AcDbEntity
  8
1DIM
  6
CONTINUOUS
100
AcDbText
 10
5725.400936178325
 20
-388.6615036724601
 30
0.0
 40
7.0
  1
500
100
AcDbText
1001
ACAD
1000
DSTYLE
1002
{
1070
    40
1040
2.0
1002
}
  0
LINE
  5
BCB3
330
18
100
AcDbEntity
  8
0
  6
BYBLOCK
100
AcDbLine
 10
6147.925679201855
 20
-507.4947926750765
 30
0.0
 11
6146.853882441855
 21
-511.4947926750765
 31
0.0
  0
LINE
  5
BCB4
330
18
100
AcDbEntity
  8
0
  6
BYBLOCK
100
AcDbLine
 10
6146.853882441855
 20
-511.4947926750765
 30
0.0
 11
6145.782085681854
 21
-507.4947926750765
 31
0.0
  0
LINE
  5
BCB5
330
18
100
AcDbEntity
  8
0
  6
BYBLOCK
100
AcDbLine
 10
6146.853882441855
 20
-511.4947926750765
 30
0.0
 11
6146.853882441855
 21
-507.4947926750765
 31
0.0
  0
LINE
  5
BCB6
330
18
100
AcDbEntity
  8
0
  6
BYBLOCK
100
AcDbLine
 10
6145.782085681854
 20
-490.4947926750765
 30
0.0
 11
6146.853882441855
 21
-486.4947926750765
 31
0.0
  0
LINE
  5
BCB7
330
18
100
AcDbEntity
  8
0
  6
BYBLOCK
100
AcDbLine
 10
6146.853882441855
 20
-486.4947926750765
 30
0.0
 11
6147.925679201855
 21
-490.4947926750765
 31
0.0
  0
LINE
  5
BCB8
330
18
100
AcDbEntity
  8
0
  6
BYBLOCK
100
AcDbLine
 10
6146.853882441855
 20
-486.4947926750765
 30
0.0
 11
6146.853882441855
 21
-490.4947926750765
 31
0.0
  0
TEXT
  5
BCB9
330
18
100
AcDbEntity
  8
1DIM
  6
CONTINUOUS
100
AcDbText
 10
6145.453882441855
 20
-479.9537994414959
 30
0.0
 40
7.0
  1
25 （縦施工）
 50
90.0
100
AcDbText
1001
ACAD
1000
DSTYLE
1002
{
1070
    40
1040
2.0
1002
}
  0
LINE
  5
BCBA
330
18
100
AcDbEntity
  8
0
100
AcDbLine
 10
6081.523389477383
 20
-487.7947928491505
 30
0.0
 11
6081.523389477383
 21
-494.1447926750765
 31
0.0
  0
LINE
  5
BCBB
330
18
100
AcDbEntity
  8
0
100
AcDbLine
 10
6081.523389477383
 20
-494.1447926750765
 30
0.0
 11
6081.873389477383
 21
-494.4947926750765
 31
0.0
  0
LINE
  5
BCBC
330
18
100
AcDbEntity
  8
0
100
AcDbLine
 10
6081.873389477383
 20
-494.4947926750765
 30
0.0
 11
6085.173389477382
 21
-494.4947926750765
 31
0.0
  0
LINE
  5
BCBD
330
18
100
AcDbEntity
  8
0
100
AcDbLine
 10
6085.173389477382
 20
-494.4947926750765
 30
0.0
 11
6085.523389477383
 21
-494.1447926750765
 31
0.0
  0
LINE
  5
BCBE
330
18
100
AcDbEntity
  8
0
100
AcDbLine
 10
6085.523389477383
 20
-494.1447926750765
 30
0.0
 11
6085.523389477383
 21
-487.7947928491505
 31
0.0
  0
LINE
  5
BCBF
330
18
100
AcDbEntity
  8
0
100
AcDbLine
 10
6085.523389477383
 20
-487.7947928491505
 30
0.0
 11
6086.523389477383
 21
-486.7947926850765
 31
0.0
  0
LINE
  5
BCC0
330
18
100
AcDbEntity
  8
0
100
AcDbLine
 10
6086.523389477383
 20
-486.7947926850765
 30
0.0
 11
6086.523389477383
 21
-486.4947926750765
 31
0.0
  0
LINE
  5
BCC1
330
18
100
AcDbEntity
  8
0
100
AcDbLine
 10
6086.523389477383
 20
-486.4947926750765
 30
0.0
 11
6080.523389477383
 21
-486.4947926750765
 31
0.0
  0
LINE
  5
BCC2
330
18
100
AcDbEntity
  8
0
100
AcDbLine
 10
6080.523389477383
 20
-486.4947926750765
 30
0.0
 11
6080.523389477383
 21
-486.7947927750765
 31
0.0
  0
LINE
  5
BCC3
330
18
100
AcDbEntity
  8
0
100
AcDbLine
 10
6080.523389477383
 20
-486.7947927750765
 30
0.0
 11
6081.523389477383
 21
-487.7947928491505
 31
0.0
  0
LINE
  5
BCC4
330
18
100
AcDbEntity
  8
0
100
AcDbLine
 10
6081.523389477383
 20
-503.8447926750765
 30
0.0
 11
6081.523389477383
 21
-510.1947925010025
 31
0.0
  0
LINE
  5
BCC5
330
18
100
AcDbEntity
  8
0
100
AcDbLine
 10
6081.523389477383
 20
-510.1947925010025
 30
0.0
 11
6080.523389477383
 21
-511.1947925750765
 31
0.0
  0
LINE
  5
BCC6
330
18
100
AcDbEntity
  8
0
100
AcDbLine
 10
6080.523389477383
 20
-511.1947925750765
 30
0.0
 11
6080.523389477383
 21
-511.4947926750765
 31
0.0
  0
LINE
  5
BCC7
330
18
100
AcDbEntity
  8
0
100
AcDbLine
 10
6080.523389477383
 20
-511.4947926750765
 30
0.0
 11
6086.523389477383
 21
-511.4947926750765
 31
0.0
  0
LINE
  5
BCC8
330
18
100
AcDbEntity
  8
0
100
AcDbLine
 10
6086.523389477383
 20
-511.4947926750765
 30
0.0
 11
6086.523389477383
 21
-511.1947926650765
 31
0.0
  0
LINE
  5
BCC9
330
18
100
AcDbEntity
  8
0
100
AcDbLine
 10
6086.523389477383
 20
-511.1947926650765
 30
0.0
 11
6085.523389477383
 21
-510.1947925010025
 31
0.0
  0
LINE
  5
BCCA
330
18
100
AcDbEntity
  8
0
100
AcDbLine
 10
6085.523389477383
 20
-510.1947925010025
 30
0.0
 11
6085.523389477383
 21
-503.8447926750765
 31
0.0
  0
LINE
  5
BCCB
330
18
100
AcDbEntity
  8
0
100
AcDbLine
 10
6085.523389477383
 20
-503.8447926750765
 30
0.0
 11
6085.173389477382
 21
-503.4947926750765
 31
0.0
  0
LINE
  5
BCCC
330
18
100
AcDbEntity
  8
0
100
AcDbLine
 10
6085.173389477382
 20
-503.4947926750765
 30
0.0
 11
6081.873389477383
 21
-503.4947926750765
 31
0.0
  0
LINE
  5
BCCD
330
18
100
AcDbEntity
  8
0
100
AcDbLine
 10
6081.873389477383
 20
-503.4947926750765
 30
0.0
 11
6081.523389477383
 21
-503.8447926750765
 31
0.0
  0
LINE
  5
BCCE
330
18
100
AcDbEntity
  8
0
  6
BYBLOCK
100
AcDbLine
 10
6032.524588964609
 20
-361.4148529877976
 30
0.0
 11
6031.452792204609
 21
-365.4148529877976
 31
0.0
  0
LINE
  5
BCCF
330
18
100
AcDbEntity
  8
0
  6
BYBLOCK
100
AcDbLine
 10
6031.452792204609
 20
-365.4148529877976
 30
0.0
 11
6030.380995444609
 21
-361.4148529877976
 31
0.0
  0
LINE
  5
BCD0
330
18
100
AcDbEntity
  8
0
  6
BYBLOCK
100
AcDbLine
 10
6031.452792204609
 20
-365.4148529877976
 30
0.0
 11
6031.452792204609
 21
-361.4148529877976
 31
0.0
  0
LINE
  5
BCD1
330
18
100
AcDbEntity
  8
0
  6
BYBLOCK
100
AcDbLine
 10
6030.380995444609
 20
-301.9148529877976
 30
0.0
 11
6031.452792204609
 21
-297.9148529877976
 31
0.0
  0
LINE
  5
BCD2
330
18
100
AcDbEntity
  8
0
  6
BYBLOCK
100
AcDbLine
 10
6031.452792204609
 20
-297.9148529877976
 30
0.0
 11
6032.524588964609
 21
-301.9148529877976
 31
0.0
  0
LINE
  5
BCD3
330
18
100
AcDbEntity
  8
0
  6
BYBLOCK
100
AcDbLine
 10
6031.452792204609
 20
-297.9148529877976
 30
0.0
 11
6031.452792204609
 21
-301.9148529877976
 31
0.0
  0
TEXT
  5
BCD4
330
18
100
AcDbEntity
  8
1DIM
  6
CONTINUOUS
100
AcDbText
 10
6030.052792204609
 20
-282.1739116294875
 30
0.0
 40
7.0
  1
67.5 （縦施工）
 50
90.0
100
AcDbText
1001
ACAD
1000
DSTYLE
1002
{
1070
    40
1040
2.0
1002
}
  0
LINE
  5
BCD5
330
18
100
AcDbEntity
  8
0
  6
BYBLOCK
100
AcDbLine
 10
5979.73774173388
 20
-264.2594663804979
 30
0.0
 11
5983.73774173388
 21
-265.3312631404979
 31
0.0
  0
LINE
  5
BCD6
330
18
100
AcDbEntity
  8
0
  6
BYBLOCK
100
AcDbLine
 10
5983.73774173388
 20
-265.3312631404979
 30
0.0
 11
5979.73774173388
 21
-266.4030599004979
 31
0.0
  0
LINE
  5
BCD7
330
18
100
AcDbEntity
  8
0
  6
BYBLOCK
100
AcDbLine
 10
5983.73774173388
 20
-265.3312631404979
 30
0.0
 11
5979.73774173388
 21
-265.3312631404979
 31
0.0
  0
LINE
  5
BCD8
330
18
100
AcDbEntity
  8
0
  6
BYBLOCK
100
AcDbLine
 10
5937.73774173388
 20
-266.4030599004979
 30
0.0
 11
5933.73774173388
 21
-265.3312631404979
 31
0.0
  0
LINE
  5
BCD9
330
18
100
AcDbEntity
  8
0
  6
BYBLOCK
100
AcDbLine
 10
5933.73774173388
 20
-265.3312631404979
 30
0.0
 11
5937.73774173388
 21
-264.2594663804979
 31
0.0
  0
LINE
  5
BCDA
330
18
100
AcDbEntity
  8
0
  6
BYBLOCK
100
AcDbLine
 10
5933.73774173388
 20
-265.3312631404979
 30
0.0
 11
5937.73774173388
 21
-265.3312631404979
 31
0.0
  0
TEXT
  5
BCDB
330
18
100
AcDbEntity
  8
1DIM
  6
CONTINUOUS
100
AcDbText
 10
5871.980102844991
 20
-263.9312631404979
 30
0.0
 40
7.0
  1
50 （縦施工）
100
AcDbText
1001
ACAD
1000
DSTYLE
1002
{
1070
    40
1040
2.0
1002
}
  0
LINE
  5
BCDC
330
18
100
AcDbEntity
  8
0
  6
BYBLOCK
100
AcDbLine
 10
6051.023389477383
 20
-467.1786619037088
 30
0.0
 11
6047.023389477383
 21
-466.1068651437088
 31
0.0
  0
LINE
  5
BCDD
330
18
100
AcDbEntity
  8
0
  6
BYBLOCK
100
AcDbLine
 10
6047.023389477383
 20
-466.1068651437088
 30
0.0
 11
6051.023389477383
 21
-465.0350683837088
 31
0.0
  0
LINE
  5
BCDE
330
18
100
AcDbEntity
  8
0
  6
BYBLOCK
100
AcDbLine
 10
6047.023389477383
 20
-466.1068651437088
 30
0.0
 11
6051.023389477383
 21
-466.1068651437088
 31
0.0
  0
LINE
  5
BCDF
330
18
100
AcDbEntity
  8
0
  6
BYBLOCK
100
AcDbLine
 10
6096.023389477383
 20
-465.0350683837088
 30
0.0
 11
6100.023389477383
 21
-466.1068651437088
 31
0.0
  0
LINE
  5
BCE0
330
18
100
AcDbEntity
  8
0
  6
BYBLOCK
100
AcDbLine
 10
6100.023389477383
 20
-466.1068651437088
 30
0.0
 11
6096.023389477383
 21
-467.1786619037088
 31
0.0
  0
LINE
  5
BCE1
330
18
100
AcDbEntity
  8
0
  6
BYBLOCK
100
AcDbLine
 10
6100.023389477383
 20
-466.1068651437088
 30
0.0
 11
6096.023389477383
 21
-466.1068651437088
 31
0.0
  0
TEXT
  5
BCE2
330
18
100
AcDbEntity
  8
1DIM
  6
CONTINUOUS
100
AcDbText
 10
6046.802892675833
 20
-464.7068651437089
 30
0.0
 40
7.0
  1
53 （横施工）
100
AcDbText
1001
ACAD
1000
DSTYLE
1002
{
1070
    40
1040
2.0
1002
}
  0
LINE
  5
BCE3
330
18
100
AcDbEntity
  8
0
  6
BYBLOCK
100
AcDbLine
 10
6033.523389477383
 20
-447.5511300625536
 30
0.0
 11
6029.523389477383
 21
-446.4793333025536
 31
0.0
  0
LINE
  5
BCE4
330
18
100
AcDbEntity
  8
0
  6
BYBLOCK
100
AcDbLine
 10
6029.523389477383
 20
-446.4793333025536
 30
0.0
 11
6033.523389477383
 21
-445.4075365425537
 31
0.0
  0
LINE
  5
BCE5
330
18
100
AcDbEntity
  8
0
  6
BYBLOCK
100
AcDbLine
 10
6029.523389477383
 20
-446.4793333025536
 30
0.0
 11
6033.523389477383
 21
-446.4793333025536
 31
0.0
  0
LINE
  5
BCE6
330
18
100
AcDbEntity
  8
0
  6
BYBLOCK
100
AcDbLine
 10
6096.023389477383
 20
-445.4075365425537
 30
0.0
 11
6100.023389477383
 21
-446.4793333025536
 31
0.0
  0
LINE
  5
BCE7
330
18
100
AcDbEntity
  8
0
  6
BYBLOCK
100
AcDbLine
 10
6100.023389477383
 20
-446.4793333025536
 30
0.0
 11
6096.023389477383
 21
-447.5511300625536
 31
0.0
  0
LINE
  5
BCE8
330
18
100
AcDbEntity
  8
0
  6
BYBLOCK
100
AcDbLine
 10
6100.023389477383
 20
-446.4793333025536
 30
0.0
 11
6096.023389477383
 21
-446.4793333025536
 31
0.0
  0
TEXT
  5
BCE9
330
18
100
AcDbEntity
  8
1DIM
  6
CONTINUOUS
100
AcDbText
 10
6028.137016451769
 20
-445.0793333025537
 30
0.0
 40
7.0
  1
70.5 （横施工）
100
AcDbText
1001
ACAD
1000
DSTYLE
1002
{
1070
    40
1040
2.0
1002
}
  0
LINE
  5
BCEA
330
18
100
AcDbEntity
  8
0
  6
BYBLOCK
100
AcDbLine
 10
5525.237741733882
 20
-467.5164536381668
 30
0.0
 11
5521.237741733882
 21
-466.4446568781668
 31
0.0
  0
LINE
  5
BCEB
330
18
100
AcDbEntity
  8
0
  6
BYBLOCK
100
AcDbLine
 10
5521.237741733882
 20
-466.4446568781668
 30
0.0
 11
5525.237741733882
 21
-465.3728601181668
 31
0.0
  0
LINE
  5
BCEC
330
18
100
AcDbEntity
  8
0
  6
BYBLOCK
100
AcDbLine
 10
5521.237741733882
 20
-466.4446568781668
 30
0.0
 11
5525.237741733882
 21
-466.4446568781668
 31
0.0
  0
LINE
  5
BCED
330
18
100
AcDbEntity
  8
0
  6
BYBLOCK
100
AcDbLine
 10
5942.237741733882
 20
-465.3728601181668
 30
0.0
 11
5946.237741733882
 21
-466.4446568781668
 31
0.0
  0
LINE
  5
BCEE
330
18
100
AcDbEntity
  8
0
  6
BYBLOCK
100
AcDbLine
 10
5946.237741733882
 20
-466.4446568781668
 30
0.0
 11
5942.237741733882
 21
-467.5164536381668
 31
0.0
  0
LINE
  5
BCEF
330
18
100
AcDbEntity
  8
0
  6
BYBLOCK
100
AcDbLine
 10
5946.237741733882
 20
-466.4446568781668
 30
0.0
 11
5942.237741733882
 21
-466.4446568781668
 31
0.0
  0
TEXT
  5
BCF0
330
18
100
AcDbEntity
  8
1DIM
  6
CONTINUOUS
100
AcDbText
 10
5724.404408400549
 20
-465.0446568781668
 30
0.0
 40
7.0
  1
425
100
AcDbText
1001
ACAD
1000
DSTYLE
1002
{
1070
    40
1040
2.0
1002
}
  0
LINE
  5
BCF1
330
18
100
AcDbEntity
  8
0
  6
BYBLOCK
100
AcDbLine
 10
5950.237741733881
 20
-537.8735545142667
 30
0.0
 11
5946.237741733881
 21
-536.8017577542668
 31
0.0
  0
LINE
  5
BCF2
330
18
100
AcDbEntity
  8
0
  6
BYBLOCK
100
AcDbLine
 10
5946.237741733881
 20
-536.8017577542668
 30
0.0
 11
5950.237741733881
 21
-535.7299609942668
 31
0.0
  0
LINE
  5
BCF3
330
18
100
AcDbEntity
  8
0
  6
BYBLOCK
100
AcDbLine
 10
5946.237741733881
 20
-536.8017577542668
 30
0.0
 11
5950.237741733881
 21
-536.8017577542668
 31
0.0
  0
LINE
  5
BCF4
330
18
100
AcDbEntity
  8
0
  6
BYBLOCK
100
AcDbLine
 10
5967.237741733881
 20
-535.7299609942668
 30
0.0
 11
5971.237741733881
 21
-536.8017577542668
 31
0.0
  0
LINE
  5
BCF5
330
18
100
AcDbEntity
  8
0
  6
BYBLOCK
100
AcDbLine
 10
5971.237741733881
 20
-536.8017577542668
 30
0.0
 11
5967.237741733881
 21
-537.8735545142667
 31
0.0
  0
LINE
  5
BCF6
330
18
100
AcDbEntity
  8
0
  6
BYBLOCK
100
AcDbLine
 10
5971.237741733881
 20
-536.8017577542668
 30
0.0
 11
5967.237741733881
 21
-536.8017577542668
 31
0.0
  0
TEXT
  5
BCF7
330
18
100
AcDbEntity
  8
1DIM
  6
CONTINUOUS
100
AcDbText
 10
5950.045800642079
 20
-535.4017577542667
 30
0.0
 40
7.0
  1
P25
100
AcDbText
1001
ACAD
1000
DSTYLE
1002
{
1070
    40
1040
2.0
1002
}
  0
VIEWPORT
  5
57
330
15
100
AcDbEntity
 67
     1
  8
0
100
AcDbViewport
 68
     1
 10
0.0
 20
0.0
 30
0.0
 40
652.3224602203182
 41
292.026
 68
     1
 69
     1
1001
ACAD
1000
MVIEW
1002
{
1070
    16
1010
0.0
1020
0.0
1030
0.0
1010
0.0
1020
0.0
1030
1.0
1040
0.0
1040
292.026
1040
0.9779999999999447
1040
19.989
1040
50.0
1040
0.0
1040
0.0
1070
    16
1070
   100
1070
     0
1070
     1
1070
     0
1070
     0
1070
     0
1070
     0
1040
0.0
1040
0.0
1040
0.0
1040
10.0
1040
10.0
1040
10.0
1040
10.0
1070
     0
1002
{
1002
}
1002
}
  0
ENDSEC
  0
SECTION
  2
OBJECTS
  0
DICTIONARY
  5
C
330
0
100
AcDbDictionary
  3
ACAD_CIP_PREVIOUS_PRODUCT_INFO
350
AF9C
  3
ACAD_COLOR
350
18D
  3
ACAD_GROUP
350
D
  3
ACAD_LAYOUT
350
18E
  3
ACAD_MATERIAL
350
18C
  3
ACAD_MLEADERSTYLE
350
9583
  3
ACAD_MLINESTYLE
350
1B
  3
ACAD_PLOTSETTINGS
350
18F
  3
ACAD_SCALELIST
350
9561
  3
ACAD_VISUALSTYLE
350
9550
  3
ACDBHEADERROUNDTRIPXREC
350
BCF8
  3
ACDBVARIABLEDICTIONARY
350
37
  3
AEC_PROPERTY_SET_DEFS
350
ADE0
  3
CONTENTDICTIONARY
350
D8
  3
DRAWINGVARIABLESDICT
350
20
  3
DWGPROPS
350
BCFB
1001
ACAD
1000
TREAT_AS_HARD
1070
     0
  0
DICTIONARY
  5
96D9
330
2
100
AcDbDictionary
  3
ACAD_LAYERSTATES
360
96DA
1001
ACAD
1000
TREAT_AS_HARD
1070
     1
  0
DICTIONARY
  5
9593
330
E
100
AcDbDictionary
  3
ADSK_XREC_LAYER_RECONCILED
360
9594
1001
ACAD
1000
TREAT_AS_HARD
1070
     1
  0
DICTIONARY
  5
9595
330
29
100
AcDbDictionary
  3
ADSK_XREC_LAYER_RECONCILED
360
9596
1001
ACAD
1000
TREAT_AS_HARD
1070
     1
  0
DICTIONARY
  5
9597
330
31
100
AcDbDictionary
  3
ADSK_XREC_LAYER_RECONCILED
360
9598
1001
ACAD
1000
TREAT_AS_HARD
1070
     1
  0
DICTIONARY
  5
959D
330
243
100
AcDbDictionary
  3
ADSK_XREC_LAYER_RECONCILED
360
959E
1001
ACAD
1000
TREAT_AS_HARD
1070
     1
  0
DICTIONARY
  5
95A3
330
24E
100
AcDbDictionary
  3
ADSK_XREC_LAYER_RECONCILED
360
95A4
1001
ACAD
1000
TREAT_AS_HARD
1070
     1
  0
DICTIONARY
  5
95A5
330
252
100
AcDbDictionary
  3
ADSK_XREC_LAYER_RECONCILED
360
95A6
1001
ACAD
1000
TREAT_AS_HARD
1070
     1
  0
DICTIONARY
  5
95AF
330
2C05
100
AcDbDictionary
  3
ADSK_XREC_LAYER_RECONCILED
360
95B0
1001
ACAD
1000
TREAT_AS_HARD
1070
     1
  0
DICTIONARY
  5
88F
330
18
100
AcDbDictionary
  3
ACAD_SORTENTS
360
890
1001
ACAD
1000
TREAT_AS_HARD
1070
     1
  0
DICTIONARY
  5
B729
330
B728
100
AcDbDictionary
  3
ACDBBLOCKTABLERECORDDATA
360
BAEA
1001
ACAD
1000
TREAT_AS_HARD
1070
     1
  0
XRECORD
  5
AF9C
102
{ACAD_REACTORS
330
C
102
}
330
C
100
AcDbXrecord
300
ACDLT
300
2012
300
ACDLT_F_S
  0
DICTIONARY
  5
18D
102
{ACAD_REACTORS
330
C
102
}
330
C
100
AcDbDictionary
1001
ACAD
1000
TREAT_AS_HARD
1070
     0
  0
DICTIONARY
  5
D
102
{ACAD_REACTORS
330
C
102
}
330
C
100
AcDbDictionary
1001
ACAD
1000
TREAT_AS_HARD
1070
     0
  0
DICTIONARY
  5
18E
102
{ACAD_REACTORS
330
C
102
}
330
C
100
AcDbDictionary
1001
ACAD
1000
TREAT_AS_HARD
1070
     0
  0
DICTIONARY
  5
18C
102
{ACAD_REACTORS
330
C
102
}
330
C
100
AcDbDictionary
  3
BYBLOCK
350
9540
  3
BYLAYER
350
9538
  3
GLOBAL
350
9548
1001
ACAD
1000
TREAT_AS_HARD
1070
     0
  0
DICTIONARY
  5
9583
102
{ACAD_REACTORS
330
C
102
}
330
C
100
AcDbDictionary
  3
STANDARD
350
9584
1001
ACAD
1000
TREAT_AS_HARD
1070
     0
  0
DICTIONARY
  5
1B
102
{ACAD_REACTORS
330
C
102
}
330
C
100
AcDbDictionary
  3
STANDARD
350
1C
1001
ACAD
1000
TREAT_AS_HARD
1070
     0
  0
DICTIONARY
  5
18F
102
{ACAD_REACTORS
330
C
102
}
330
C
100
AcDbDictionary
1001
ACAD
1000
TREAT_AS_HARD
1070
     0
  0
DICTIONARY
  5
9561
102
{ACAD_REACTORS
330
C
102
}
330
C
100
AcDbDictionary
  3
A0
350
9562
  3
A1
350
9563
  3
A2
350
9564
  3
A3
350
9565
  3
A4
350
9566
  3
A5
350
9567
  3
A6
350
9568
  3
A7
350
9569
  3
A8
350
956A
  3
A9
350
956B
  3
B0
350
956C
  3
B1
350
956D
  3
B2
350
956E
  3
B3
350
956F
  3
B4
350
9570
  3
B5
350
9571
  3
B6
350
9572
  3
B7
350
9573
  3
B8
350
9574
  3
B9
350
9575
  3
C0
350
9576
  3
C1
350
9577
  3
C2
350
9578
  3
C3
350
9579
  3
C4
350
957A
  3
C5
350
957B
  3
C6
350
957C
  3
C7
350
957D
  3
C8
350
957E
  3
C9
350
957F
  3
D0
350
9580
  3
D1
350
9581
  3
D2
350
9582
1001
ACAD
1000
TREAT_AS_HARD
1070
     0
  0
DICTIONARY
  5
9550
102
{ACAD_REACTORS
330
C
102
}
330
C
100
AcDbDictionary
  3
2DWIREFRAME
350
9556
  3
3D_HIDDEN
350
9558
  3
3DWIREFRAME
350
9557
  3
BASIC
350
9555
  3
BRIGHTEN
350
955C
  3
COLORCHANGE
350
9560
  3
CONCEPTUAL
350
9559
  3
DIM
350
955B
  3
EDGECOLOROFF
350
A211
  3
FACEPATTERN
350
955F
  3
FLAT
350
9551
  3
FLATWITHEDGES
350
9552
  3
GOURAUD
350
9553
  3
GOURAUDWITHEDGES
350
9554
  3
HIDDEN
350
A260
  3
JITTEROFF
350
A20F
  3
LINEPATTERN
350
955E
  3
MODELING
350
A266
  3
OVERHANGOFF
350
A210
  3
REALISTIC
350
955A
  3
SHADED
350
A265
  3
SHADED_WITH_EDGES
350
A264
  3
SHADES_OF_GRAY
350
A261
  3
SKETCHY
350
A262
  3
THICKEN
350
955D
  3
WIREFRAME
350
A25F
  3
X-RAY
350
A263
1001
ACAD
1000
TREAT_AS_HARD
1070
     0
  0
DICTIONARY
  5
BCF8
102
{ACAD_REACTORS
330
C
102
}
330
C
100
AcDbDictionary
  3
COLORDICT
350
BCF9
  3
MATERIALDICT
350
BCFA
1001
ACAD
1000
TREAT_AS_HARD
1070
     0
  0
DICTIONARY
  5
37
102
{ACAD_REACTORS
330
C
102
}
330
C
100
AcDbDictionary
  3
CANNOSCALE
350
AF43
  3
CMLEADERSTYLE
350
9627
  3
CTABLESTYLE
350
29E
  3
DIMADEC
350
38
  3
DIMASSOC
350
1CE
  3
HIDETEXT
350
704E
  3
INDEXCTL
350
962A
  3
INTERSECTIONCOLOR
350
7052
  3
INTERSECTIONDISPLAY
350
7051
  3
MSLTSCALE
350
AB30
  3
OBSCOLOR
350
704F
  3
OBSLTYPE
350
7050
  3
PROJECTNAME
350
1CF
  3
SORTENTS
350
9629
  3
XCLIPFRAME
350
BAEC
1001
ACAD
1000
TREAT_AS_HARD
1070
     0
  0
DICTIONARY
  5
ADE0
102
{ACAD_REACTORS
330
C
102
}
330
C
100
AcDbDictionary
1001
ACAD
1000
TREAT_AS_HARD
1070
     0
  0
DICTIONARY
  5
D8
102
{ACAD_REACTORS
330
C
102
}
330
C
100
AcDbDictionary
1001
ACAD
1000
TREAT_AS_HARD
1070
     0
  0
DICTIONARY
  5
20
102
{ACAD_REACTORS
330
C
102
}
330
C
100
AcDbDictionary
1001
DRAWINGVARIABLESXDATA
1000
POLARANG
1000
0.261799387799149410000000
1000
POLARMODE
1000
1
1000
POLARSTYLE
1000
1
1001
ACAD
1000
TREAT_AS_HARD
1070
     0
  0
XRECORD
  5
BCFB
102
{ACAD_REACTORS
330
C
102
}
330
C
100
AcDbXrecord
  1
DWGPROPS COOKIE
  2

  3

  4

  6

  7

  8
3684
  9

300
=
301
=
302
=
303
=
304
=
305
=
306
=
307
=
308
=
309
=
 40
0.0
 41
2451318.246352917
 42
2458129.123210555
  1

 90
        0
  0
DICTIONARY
  5
96DA
102
{ACAD_REACTORS
330
96D9
102
}
330
96D9
100
AcDbDictionary
1001
ACAD
1000
TREAT_AS_HARD
1070
     0
  0
ACAD_PROXY_OBJECT
  5
9594
102
{ACAD_REACTORS
330
9593
102
}
330
9593
100
AcDbZombieObject
 90
      499
 91
      517
 93
       34
310
40C8804040
  0
ACAD_PROXY_OBJECT
  5
9596
102
{ACAD_REACTORS
330
9595
102
}
330
9595
100
AcDbZombieObject
 90
      499
 91
      517
 93
       34
310
40C8804040
  0
ACAD_PROXY_OBJECT
  5
9598
102
{ACAD_REACTORS
330
9597
102
}
330
9597
100
AcDbZombieObject
 90
      499
 91
      517
 93
       34
310
40C8804040
  0
ACAD_PROXY_OBJECT
  5
959E
102
{ACAD_REACTORS
330
959D
102
}
330
959D
100
AcDbZombieObject
 90
      499
 91
      517
 93
       34
310
40C8804040
  0
ACAD_PROXY_OBJECT
  5
95A4
102
{ACAD_REACTORS
330
95A3
102
}
330
95A3
100
AcDbZombieObject
 90
      499
 91
      517
 93
       34
310
40C8804040
  0
ACAD_PROXY_OBJECT
  5
95A6
102
{ACAD_REACTORS
330
95A5
102
}
330
95A5
100
AcDbZombieObject
 90
      499
 91
      517
 93
       34
310
40C8804040
  0
ACAD_PROXY_OBJECT
  5
95B0
102
{ACAD_REACTORS
330
95AF
102
}
330
95AF
100
AcDbZombieObject
 90
      499
 91
      517
 93
       34
310
40C8804040
  0
SORTENTSTABLE
  5
890
102
{ACAD_REACTORS
330
88F
102
}
330
88F
100
AcDbSortentsTable
330
18
331
B8B6
  5
B8DC
331
B8B7
  5
B8E0
331
B8B8
  5
B8E1
331
B8B9
  5
B8E2
331
B8BF
  5
B928
331
B8C0
  5
B929
331
B8C1
  5
B92A
331
B8C2
  5
B92B
331
B8C3
  5
B92C
331
B8C4
  5
B92D
331
B8C5
  5
B92E
331
B8C6
  5
B92F
331
B8C7
  5
B930
331
B8C8
  5
B931
331
B8C9
  5
B932
331
B8CA
  5
B933
331
B8CB
  5
B934
331
B8CC
  5
B935
331
B8CD
  5
B936
331
B8CE
  5
B937
331
B8CF
  5
B938
331
B8D0
  5
B939
331
B8D1
  5
B93A
331
B8D2
  5
B93D
331
B8D3
  5
B93E
331
B8D4
  5
B93F
331
B8D5
  5
B940
331
B8D6
  5
B943
331
B8D7
  5
B946
331
B8D8
  5
B949
331
B8D9
  5
B94A
331
B8DA
  5
B94B
331
B8DB
  5
BBD8
331
B8DC
  5
BBD9
331
B8DD
  5
BBDA
331
B8DE
  5
BBDB
331
B8DF
  5
BBDC
331
B8E0
  5
BBDD
331
B8E1
  5
BBDE
331
B8E2
  5
BBDF
331
B8E3
  5
BBE0
331
B8E4
  5
BBE1
331
B8E5
  5
BBE2
331
B8E6
  5
BBE3
331
B8E7
  5
BBE4
331
B8E8
  5
BBE5
331
B8E9
  5
BBE6
331
B8EA
  5
BBE7
331
B8EB
  5
BBE8
331
B8EC
  5
BBE9
331
B8ED
  5
BBEA
331
B8EE
  5
BBEB
331
B8EF
  5
BBEC
331
B8F0
  5
BBED
331
B8F1
  5
BBEE
331
B8F2
  5
BBEF
331
B8F3
  5
BBF0
331
B8F4
  5
BBF1
331
B8F5
  5
BBF2
331
B8F6
  5
BBF3
331
B8F7
  5
BBF4
331
B8F8
  5
BBF5
331
B8F9
  5
BBF6
331
B8FA
  5
BBF7
331
B8FB
  5
BBFB
331
B8FC
  5
BBFC
331
B8FD
  5
BBFD
331
B8FE
  5
BC01
331
B8FF
  5
BC02
331
B900
  5
BC03
331
B901
  5
BC04
331
B902
  5
BC08
331
B903
  5
BC09
331
B904
  5
BC0A
331
B905
  5
BC0B
331
B906
  5
BC0C
331
B907
  5
BC0D
331
B908
  5
BC0E
331
B90A
  5
BC19
331
B90B
  5
BC1A
331
B90C
  5
BC1B
331
B90D
  5
BC1C
331
B90E
  5
BC1D
331
B915
  5
BC2E
331
B916
  5
BC2F
331
B917
  5
BC30
331
B918
  5
BC31
331
B919
  5
BC32
331
B91A
  5
BC3B
331
B91B
  5
BC3C
331
B91C
  5
BC3D
331
B91D
  5
BC3E
331
B91E
  5
BC3F
331
B922
  5
BC71
331
B923
  5
BC72
331
B924
  5
BC73
331
B925
  5
BC74
331
B926
  5
BC75
331
B927
  5
BC76
331
B928
  5
BC77
331
B929
  5
BC78
331
B92A
  5
BC79
331
B92B
  5
BC7A
331
B92C
  5
BC7B
331
B92D
  5
BC7C
331
B92E
  5
BC7D
331
B92F
  5
BC7E
331
B930
  5
BC7F
331
B931
  5
BC80
331
B932
  5
BC81
331
B933
  5
BC82
331
B934
  5
BC83
331
B935
  5
BC84
331
B936
  5
BC85
331
B937
  5
BC86
331
B938
  5
BC87
331
B939
  5
BC88
331
B93A
  5
BC89
331
B93D
  5
BCAC
331
B93E
  5
BCAD
331
B93F
  5
BCAE
331
B940
  5
BCAF
331
B943
  5
BCC6
331
0
  5
B948
331
B948
  5
BCCD
331
B949
  5
BCCE
331
B94A
  5
BCCF
331
0
  5
B94D
331
0
  5
BB35
331
0
  5
BBD4
331
0
  5
BBD5
331
BBD4
  5
BCC9
331
BBD5
  5
BCCC
331
BBD6
  5
B8B6
331
BBD7
  5
B8B7
331
BBD8
  5
B8B8
331
0
  5
B8B9
331
0
  5
B8BF
331
0
  5
B8C0
331
BBDC
  5
B8CB
331
BBDD
  5
B8CC
331
BBDE
  5
B8CD
331
BBDF
  5
B8CE
331
0
  5
B8C5
331
0
  5
B8C6
331
0
  5
B8C7
331
BBE3
  5
B8E6
331
BBE4
  5
B8E7
331
BBE5
  5
B8E8
331
BBE6
  5
B8E9
331
0
  5
B8D0
331
0
  5
B8D1
331
0
  5
B8D2
331
BBEA
  5
B8F4
331
BBEB
  5
B8F5
331
BBEC
  5
B8F6
331
BBED
  5
B8F7
331
0
  5
B8D7
331
0
  5
B8D8
331
0
  5
B8D9
331
BBF1
  5
B8FF
331
BBF2
  5
B900
331
BBF3
  5
B901
331
0
  5
B8DD
331
0
  5
B8DE
331
0
  5
B8DF
331
BBF7
  5
B90A
331
BBF8
  5
B90B
331
BBF9
  5
B90C
331
0
  5
B8E3
331
0
  5
B8E4
331
0
  5
B8E5
331
BBFD
  5
B91A
331
BBFE
  5
B91B
331
BBFF
  5
B91C
331
BC00
  5
B91D
331
0
  5
B8EA
331
0
  5
B8EB
331
0
  5
B8EC
331
BC04
  5
BC0F
331
BC05
  5
BC10
331
BC06
  5
BC11
331
0
  5
B94C
331
0
  5
BBD6
331
0
  5
BBD7
331
BC0A
  5
BC1E
331
BC0B
  5
BC1F
331
BC0C
  5
BC20
331
BC0D
  5
BC21
331
BC0E
  5
BC22
331
BC0F
  5
BC23
331
BC10
  5
BC24
331
BC11
  5
BC26
331
BC12
  5
BC27
331
BC13
  5
BC28
331
BC14
  5
BC29
331
BC15
  5
BC2A
331
BC16
  5
BC2B
331
BC17
  5
BC2C
331
BC18
  5
BC40
331
BC19
  5
BC44
331
BC1A
  5
BC45
331
0
  5
BBF8
331
0
  5
BBF9
331
0
  5
BBFA
331
BC1E
  5
BC50
331
BC1F
  5
BC51
331
BC20
  5
BC52
331
0
  5
BBFE
331
0
  5
BBFF
331
0
  5
BC00
331
BC24
  5
BC5D
331
BC25
  5
BC61
331
BC26
  5
BC62
331
BC27
  5
BC63
331
0
  5
BC05
331
0
  5
BC06
331
0
  5
BC07
331
BC2B
  5
BC8A
331
BC2C
  5
BC8B
331
BC2D
  5
BC8C
331
BC2E
  5
BC8D
331
0
  5
BC25
331
BC30
  5
BC98
331
BC31
  5
BC99
331
BC32
  5
BC9A
331
BC3B
  5
BC9B
331
BC3C
  5
BC9C
331
BC3D
  5
BC9D
331
BC3E
  5
BC9E
331
0
  5
BC2D
331
BC40
  5
BCA9
331
BC41
  5
BCAA
331
BC42
  5
BCAB
331
BC43
  5
BCB0
331
BC44
  5
BCB1
331
BC45
  5
BCB2
331
BC46
  5
BCB3
331
0
  5
BC41
331
0
  5
BC42
331
0
  5
BC43
331
BC4A
  5
BCBB
331
BC4B
  5
BCBC
331
BC4C
  5
BCBD
331
BC4D
  5
BCBE
331
0
  5
BC48
331
0
  5
BC49
331
0
  5
BC4A
331
BC51
  5
BCC7
331
BC52
  5
BCC8
331
BC53
  5
BCCA
331
BC54
  5
BCCB
331
BC55
  5
BCD0
331
BC56
  5
BCD1
331
BC57
  5
BCD2
331
BC5B
  5
BCDA
331
BC5C
  5
BCDB
331
BC5D
  5
BCDC
331
BC61
  5
BCE4
331
BC62
  5
BCE5
331
BC63
  5
BCE6
331
BC67
  5
BCEE
331
BC68
  5
BCEF
331
BC69
  5
BCF0
331
BC6D
  5
B8C1
331
BC6E
  5
B8C2
331
BC6F
  5
B8C3
331
BC70
  5
B8C4
331
BC71
  5
B8C8
331
BC72
  5
B8C9
331
BC73
  5
B8CA
331
BC74
  5
B8CF
331
BC75
  5
B8D3
331
BC76
  5
B8D4
331
BC77
  5
B8D5
331
BC78
  5
B8D6
331
BC79
  5
B8DA
331
BC7A
  5
B8DB
331
BC7B
  5
B8ED
331
BC7C
  5
B8EE
331
BC7D
  5
B8EF
331
BC7E
  5
B8F0
331
BC7F
  5
B8F1
331
BC80
  5
B8F2
331
BC81
  5
B8F3
331
BC82
  5
B8F8
331
BC83
  5
B8F9
331
BC84
  5
B8FA
331
BC85
  5
B8FB
331
BC86
  5
B8FC
331
BC87
  5
B8FD
331
BC88
  5
B8FE
331
BC89
  5
B902
331
BC8A
  5
B903
331
BC8B
  5
B904
331
BC8C
  5
B905
331
BC8D
  5
B906
331
BC8E
  5
B907
331
BC8F
  5
B908
331
BC90
  5
B90D
331
BC91
  5
B90E
331
BC92
  5
B915
331
BC93
  5
B916
331
BC94
  5
B917
331
BC95
  5
B918
331
BC96
  5
B919
331
BC97
  5
B91E
331
BC98
  5
B922
331
BC99
  5
B923
331
BC9A
  5
B924
331
BC9B
  5
B925
331
BC9C
  5
B926
331
BC9D
  5
B927
331
BC9E
  5
BC12
331
BC9F
  5
BC13
331
BCA0
  5
BC14
331
BCA1
  5
BC15
331
BCA2
  5
BC16
331
BCA3
  5
BC17
331
BCA4
  5
BC18
331
BCA5
  5
BC46
331
BCA6
  5
BC47
331
BCA7
  5
BC4B
331
BCA8
  5
BC4C
331
BCA9
  5
BC4D
331
BCAA
  5
BC4E
331
BCAB
  5
BC4F
331
BCAC
  5
BC53
331
BCAD
  5
BC54
331
BCAE
  5
BC55
331
BCAF
  5
BC56
331
BCB0
  5
BC57
331
BCB1
  5
BC5B
331
BCB2
  5
BC5C
331
BCB3
  5
BC67
331
BCB4
  5
BC68
331
BCB5
  5
BC69
331
BCB6
  5
BC6D
331
BCB7
  5
BC6E
331
BCB8
  5
BC6F
331
BCB9
  5
BC70
331
BCBA
  5
BC8E
331
BCBB
  5
BC8F
331
BCBC
  5
BC90
331
BCBD
  5
BC91
331
BCBE
  5
BC92
331
BCBF
  5
BC93
331
BCC0
  5
BC94
331
BCC1
  5
BC95
331
BCC2
  5
BC96
331
BCC3
  5
BC97
331
BCC4
  5
BC9F
331
BCC5
  5
BCA0
331
BCC6
  5
BCA1
331
BCC7
  5
BCA2
331
BCC8
  5
BCA3
331
BCC9
  5
BCA4
331
BCCA
  5
BCA5
331
BCCB
  5
BCA6
331
BCCC
  5
BCA7
331
BCCD
  5
BCA8
331
BCCE
  5
BCB4
331
BCCF
  5
BCB5
331
BCD0
  5
BCB6
331
BCD1
  5
BCB7
331
BCD2
  5
BCB8
331
BCD3
  5
BCB9
331
BCD4
  5
BCBA
331
BCD5
  5
BCBF
331
BCD6
  5
BCC0
331
BCD7
  5
BCC1
331
BCD8
  5
BCC2
331
BCD9
  5
BCC3
331
BCDA
  5
BCC4
331
BCDB
  5
BCC5
331
BCDC
  5
BCD3
331
BCDD
  5
BCD4
331
BCDE
  5
BCD5
331
BCDF
  5
BCD6
331
BCE0
  5
BCD7
331
BCE1
  5
BCD8
331
BCE2
  5
BCD9
331
BCE3
  5
BCDD
331
BCE4
  5
BCDE
331
BCE5
  5
BCDF
331
BCE6
  5
BCE0
331
BCE7
  5
BCE1
331
BCE8
  5
BCE2
331
BCE9
  5
BCE3
331
BCEA
  5
BCE7
331
BCEB
  5
BCE8
331
BCEC
  5
BCE9
331
BCED
  5
BCEA
331
BCEE
  5
BCEB
331
BCEF
  5
BCEC
331
BCF0
  5
BCED
  0
DICTIONARY
  5
BAEA
102
{ACAD_REACTORS
330
B729
102
}
330
B729
100
AcDbDictionary
  3
Edit
360
BE89
1001
ACAD
1000
TREAT_AS_HARD
1070
     1
  0
MATERIAL
  5
9540
102
{ACAD_REACTORS
330
18C
102
}
102
{ACAD_XDICTIONARY
360
BE96
102
}
330
18C
100
AcDbMaterial
  1
BYBLOCK
 72
     0
 73
     2
 43
0.0208333333333333
 43
0.0
 43
0.0
 43
0.0
 43
0.0
 43
0.0208333333333333
 43
0.0
 43
0.0
 43
0.0
 43
0.0
 43
1.0
 43
0.0
 43
0.0
 43
0.0
 43
0.0
 43
1.0
 77
     0
 78
     2
 47
0.0208333333333333
 47
0.0
 47
0.0
 47
0.0
 47
0.0
 47
0.0208333333333333
 47
0.0
 47
0.0
 47
0.0
 47
0.0
 47
1.0
 47
0.0
 47
0.0
 47
0.0
 47
0.0
 47
1.0
171
     0
172
     2
 49
0.0208333333333333
 49
0.0
 49
0.0
 49
0.0
 49
0.0
 49
0.0208333333333333
 49
0.0
 49
0.0
 49
0.0
 49
0.0
 49
1.0
 49
0.0
 49
0.0
 49
0.0
 49
0.0
 49
1.0
175
     0
176
     2
142
0.0208333333333333
142
0.0
142
0.0
142
0.0
142
0.0
142
0.0208333333333333
142
0.0
142
0.0
142
0.0
142
0.0
142
1.0
142
0.0
142
0.0
142
0.0
142
0.0
142
1.0
179
     0
270
     2
144
0.0208333333333333
144
0.0
144
0.0
144
0.0
144
0.0
144
0.0208333333333333
144
0.0
144
0.0
144
0.0
144
0.0
144
1.0
144
0.0
144
0.0
144
0.0
144
0.0
144
1.0
274
     2
147
0.0208333333333333
147
0.0
147
0.0
147
0.0
147
0.0
147
0.0208333333333333
147
0.0
147
0.0
147
0.0
147
0.0
147
1.0
147
0.0
147
0.0
147
0.0
147
0.0
147
1.0
  0
MATERIAL
  5
9538
102
{ACAD_REACTORS
330
18C
102
}
102
{ACAD_XDICTIONARY
360
BE98
102
}
330
18C
100
AcDbMaterial
  1
BYLAYER
 72
     0
 73
     2
 43
0.0208333333333333
 43
0.0
 43
0.0
 43
0.0
 43
0.0
 43
0.0208333333333333
 43
0.0
 43
0.0
 43
0.0
 43
0.0
 43
1.0
 43
0.0
 43
0.0
 43
0.0
 43
0.0
 43
1.0
 77
     0
 78
     2
 47
0.0208333333333333
 47
0.0
 47
0.0
 47
0.0
 47
0.0
 47
0.0208333333333333
 47
0.0
 47
0.0
 47
0.0
 47
0.0
 47
1.0
 47
0.0
 47
0.0
 47
0.0
 47
0.0
 47
1.0
171
     0
172
     2
 49
0.0208333333333333
 49
0.0
 49
0.0
 49
0.0
 49
0.0
 49
0.0208333333333333
 49
0.0
 49
0.0
 49
0.0
 49
0.0
 49
1.0
 49
0.0
 49
0.0
 49
0.0
 49
0.0
 49
1.0
175
     0
176
     2
142
0.0208333333333333
142
0.0
142
0.0
142
0.0
142
0.0
142
0.0208333333333333
142
0.0
142
0.0
142
0.0
142
0.0
142
1.0
142
0.0
142
0.0
142
0.0
142
0.0
142
1.0
179
     0
270
     2
144
0.0208333333333333
144
0.0
144
0.0
144
0.0
144
0.0
144
0.0208333333333333
144
0.0
144
0.0
144
0.0
144
0.0
144
1.0
144
0.0
144
0.0
144
0.0
144
0.0
144
1.0
274
     2
147
0.0208333333333333
147
0.0
147
0.0
147
0.0
147
0.0
147
0.0208333333333333
147
0.0
147
0.0
147
0.0
147
0.0
147
1.0
147
0.0
147
0.0
147
0.0
147
0.0
147
1.0
  0
MATERIAL
  5
9548
102
{ACAD_REACTORS
330
18C
102
}
102
{ACAD_XDICTIONARY
360
BE9A
102
}
330
18C
100
AcDbMaterial
  1
GLOBAL
 72
     0
 73
     2
 43
0.0208333333333333
 43
0.0
 43
0.0
 43
0.0
 43
0.0
 43
0.0208333333333333
 43
0.0
 43
0.0
 43
0.0
 43
0.0
 43
1.0
 43
0.0
 43
0.0
 43
0.0
 43
0.0
 43
1.0
 77
     0
 78
     2
 47
0.0208333333333333
 47
0.0
 47
0.0
 47
0.0
 47
0.0
 47
0.0208333333333333
 47
0.0
 47
0.0
 47
0.0
 47
0.0
 47
1.0
 47
0.0
 47
0.0
 47
0.0
 47
0.0
 47
1.0
171
     0
172
     2
 49
0.0208333333333333
 49
0.0
 49
0.0
 49
0.0
 49
0.0
 49
0.0208333333333333
 49
0.0
 49
0.0
 49
0.0
 49
0.0
 49
1.0
 49
0.0
 49
0.0
 49
0.0
 49
0.0
 49
1.0
175
     0
176
     2
142
0.0208333333333333
142
0.0
142
0.0
142
0.0
142
0.0
142
0.0208333333333333
142
0.0
142
0.0
142
0.0
142
0.0
142
1.0
142
0.0
142
0.0
142
0.0
142
0.0
142
1.0
179
     0
270
     2
144
0.0208333333333333
144
0.0
144
0.0
144
0.0
144
0.0
144
0.0208333333333333
144
0.0
144
0.0
144
0.0
144
0.0
144
1.0
144
0.0
144
0.0
144
0.0
144
0.0
144
1.0
274
     2
147
0.0208333333333333
147
0.0
147
0.0
147
0.0
147
0.0
147
0.0208333333333333
147
0.0
147
0.0
147
0.0
147
0.0
147
1.0
147
0.0
147
0.0
147
0.0
147
0.0
147
1.0
  0
ACAD_PROXY_OBJECT
  5
9584
102
{ACAD_REACTORS
330
9583
102
}
330
9583
100
AcDbZombieObject
 90
      499
 91
      511
 93
      610
310
40901902A4063FBFFFFFE000000000000002040AD7A3703D0AD73F4214DD185B99185C990000000000000104090141901A00000000000004100000000000000041025764000000000000300FC0
340
12
340
0
340
F
340
0
 94
        0
1001
ACAD_MLEADERVER
1070
     2
  0
MLINESTYLE
  5
1C
102
{ACAD_REACTORS
330
1B
102
}
330
1B
100
AcDbMlineStyle
  2
STANDARD
 70
     0
  3

 62
   256
 51
90.0
 52
90.0
 71
     2
 49
0.5
 62
   256
  6
BYLAYER
 49
-0.5
 62
   256
  6
BYLAYER
  0
ACAD_PROXY_OBJECT
  5
9562
102
{ACAD_REACTORS
330
9561
102
}
330
9561
100
AcDbZombieObject
 90
      499
 91
      510
 93
       41
310
903313A31580
  0
ACAD_PROXY_OBJECT
  5
9563
102
{ACAD_REACTORS
330
9561
102
}
330
9561
100
AcDbZombieObject
 90
      499
 91
      510
 93
      105
310
903313A324000000000000004000
  0
ACAD_PROXY_OBJECT
  5
9564
102
{ACAD_REACTORS
330
9561
102
}
330
9561
100
AcDbZombieObject
 90
      499
 91
      510
 93
      105
310
903313A344000000000000104000
  0
ACAD_PROXY_OBJECT
  5
9565
102
{ACAD_REACTORS
330
9561
102
}
330
9561
100
AcDbZombieObject
 90
      499
 91
      510
 93
      105
310
903313A354000000000000144000
  0
ACAD_PROXY_OBJECT
  5
9566
102
{ACAD_REACTORS
330
9561
102
}
330
9561
100
AcDbZombieObject
 90
      499
 91
      510
 93
      105
310
903313A384000000000000204000
  0
ACAD_PROXY_OBJECT
  5
9567
102
{ACAD_REACTORS
330
9561
102
}
330
9561
100
AcDbZombieObject
 90
      499
 91
      510
 93
      113
310
904313A31304000000000000244000
  0
ACAD_PROXY_OBJECT
  5
9568
102
{ACAD_REACTORS
330
9561
102
}
330
9561
100
AcDbZombieObject
 90
      499
 91
      510
 93
      113
310
904313A31364000000000000304000
  0
ACAD_PROXY_OBJECT
  5
9569
102
{ACAD_REACTORS
330
9561
102
}
330
9561
100
AcDbZombieObject
 90
      499
 91
      510
 93
      113
310
904313A32304000000000000344000
  0
ACAD_PROXY_OBJECT
  5
956A
102
{ACAD_REACTORS
330
9561
102
}
330
9561
100
AcDbZombieObject
 90
      499
 91
      510
 93
      113
310
904313A333040000000000003E4000
  0
ACAD_PROXY_OBJECT
  5
956B
102
{ACAD_REACTORS
330
9561
102
}
330
9561
100
AcDbZombieObject
 90
      499
 91
      510
 93
      113
310
904313A34304000000000000444000
  0
ACAD_PROXY_OBJECT
  5
956C
102
{ACAD_REACTORS
330
9561
102
}
330
9561
100
AcDbZombieObject
 90
      499
 91
      510
 93
      113
310
904313A35304000000000000494000
  0
ACAD_PROXY_OBJECT
  5
956D
102
{ACAD_REACTORS
330
9561
102
}
330
9561
100
AcDbZombieObject
 90
      499
 91
      510
 93
      121
310
905313A3130304000000000000594000
  0
ACAD_PROXY_OBJECT
  5
956E
102
{ACAD_REACTORS
330
9561
102
}
330
9561
100
AcDbZombieObject
 90
      499
 91
      510
 93
      105
310
903323A310000000000000010100
  0
ACAD_PROXY_OBJECT
  5
956F
102
{ACAD_REACTORS
330
9561
102
}
330
9561
100
AcDbZombieObject
 90
      499
 91
      510
 93
      105
310
903343A310000000000000410100
  0
ACAD_PROXY_OBJECT
  5
9570
102
{ACAD_REACTORS
330
9561
102
}
330
9561
100
AcDbZombieObject
 90
      499
 91
      510
 93
      105
310
903383A310000000000000810100
  0
ACAD_PROXY_OBJECT
  5
9571
102
{ACAD_REACTORS
330
9561
102
}
330
9561
100
AcDbZombieObject
 90
      499
 91
      510
 93
      113
310
90431303A310000000000000910100
  0
ACAD_PROXY_OBJECT
  5
9572
102
{ACAD_REACTORS
330
9561
102
}
330
9561
100
AcDbZombieObject
 90
      499
 91
      510
 93
      121
310
9053130303A310000000000001650100
  0
ACAD_PROXY_OBJECT
  5
9573
102
{ACAD_REACTORS
330
9561
102
}
330
9561
100
AcDbZombieObject
 90
      499
 91
      510
 93
      257
310
90E312F31323822203D2031272D3022000000000000200FC000000000000284000
  0
ACAD_PROXY_OBJECT
  5
9574
102
{ACAD_REACTORS
330
9561
102
}
330
9561
100
AcDbZombieObject
 90
      499
 91
      510
 93
      249
310
90D312F363422203D2031272D3022000000000000240FC000000000000284000
  0
ACAD_PROXY_OBJECT
  5
9575
102
{ACAD_REACTORS
330
9561
102
}
330
9561
100
AcDbZombieObject
 90
      499
 91
      510
 93
      249
310
90D312F333222203D2031272D3022000000000000280FC000000000000284000
  0
ACAD_PROXY_OBJECT
  5
9576
102
{ACAD_REACTORS
330
9561
102
}
330
9561
100
AcDbZombieObject
 90
      499
 91
      510
 93
      249
310
90D312F313622203D2031272D30220000000000002C0FC000000000000284000
  0
ACAD_PROXY_OBJECT
  5
9577
102
{ACAD_REACTORS
330
9561
102
}
330
9561
100
AcDbZombieObject
 90
      499
 91
      510
 93
      249
310
90D332F333222203D2031272D30220000000000002E0FC000000000000284000
  0
ACAD_PROXY_OBJECT
  5
9578
102
{ACAD_REACTORS
330
9561
102
}
330
9561
100
AcDbZombieObject
 90
      499
 91
      510
 93
      241
310
90C312F3822203D2031272D3022000000000000300FC000000000000284000
  0
ACAD_PROXY_OBJECT
  5
9579
102
{ACAD_REACTORS
330
9561
102
}
330
9561
100
AcDbZombieObject
 90
      499
 91
      510
 93
      249
310
90D332F313622203D2031272D3022000000000000320FC000000000000284000
  0
ACAD_PROXY_OBJECT
  5
957A
102
{ACAD_REACTORS
330
9561
102
}
330
9561
100
AcDbZombieObject
 90
      499
 91
      510
 93
      241
310
90C312F3422203D2031272D3022000000000000340FC000000000000284000
  0
ACAD_PROXY_OBJECT
  5
957B
102
{ACAD_REACTORS
330
9561
102
}
330
9561
100
AcDbZombieObject
 90
      499
 91
      510
 93
      241
310
90C332F3822203D2031272D3022000000000000360FC000000000000284000
  0
ACAD_PROXY_OBJECT
  5
957C
102
{ACAD_REACTORS
330
9561
102
}
330
9561
100
AcDbZombieObject
 90
      499
 91
      510
 93
      241
310
90C312F3222203D2031272D3022000000000000380FC000000000000284000
  0
ACAD_PROXY_OBJECT
  5
957D
102
{ACAD_REACTORS
330
9561
102
}
330
9561
100
AcDbZombieObject
 90
      499
 91
      510
 93
      241
310
90C332F3422203D2031272D30220000000000003A0FC000000000000284000
  0
ACAD_PROXY_OBJECT
  5
957E
102
{ACAD_REACTORS
330
9561
102
}
330
9561
100
AcDbZombieObject
 90
      499
 91
      510
 93
      161
310
90A3122203D2031272D30224000000000000284000
  0
ACAD_PROXY_OBJECT
  5
957F
102
{ACAD_REACTORS
330
9561
102
}
330
9561
100
AcDbZombieObject
 90
      499
 91
      510
 93
      257
310
90E312D312F3222203D2031272D30220000000000003E0FC000000000000284000
  0
ACAD_PROXY_OBJECT
  5
9580
102
{ACAD_REACTORS
330
9561
102
}
330
9561
100
AcDbZombieObject
 90
      499
 91
      510
 93
      225
310
90A3322203D2031272D302200000000000002100000000000000284000
  0
ACAD_PROXY_OBJECT
  5
9581
102
{ACAD_REACTORS
330
9561
102
}
330
9561
100
AcDbZombieObject
 90
      499
 91
      510
 93
      225
310
90A3622203D2031272D302200000000000006100000000000000284000
  0
ACAD_PROXY_OBJECT
  5
9582
102
{ACAD_REACTORS
330
9561
102
}
330
9561
100
AcDbZombieObject
 90
      499
 91
      510
 93
      249
310
90D31272D3022203D2031272D30220000000000000A100000000000000284000
  0
ACAD_PROXY_OBJECT
  5
9556
102
{ACAD_REACTORS
330
9550
102
}
330
9550
100
AcDbZombieObject
 90
      499
 91
      509
 93
      436
310
42CC9915DA5C99599C985B595049028333333333333E3BF0000000000000FB0107901411070040501600405405064090741402480A0340
1001
ACAD
1000
AcDbSavedByObjectVersion
1070
     0
  0
ACAD_PROXY_OBJECT
  5
9558
102
{ACAD_REACTORS
330
9550
102
}
330
9550
100
AcDbZombieObject
 90
      499
 91
      509
 93
      500
310
424CD108121A5919195B90640502408333333333333E3BF0000000000000FB01079024090700405020000000000001110200405405064090740C02480A0340
1001
ACAD
1000
AcDbSavedByObjectVersion
1070
     0
  0
ACAD_PROXY_OBJECT
  5
9557
102
{ACAD_REACTORS
330
9550
102
}
330
9550
100
AcDbZombieObject
 90
      499
 91
      509
 93
      436
310
42CCD915DA5C99599C985B595059028333333333333E3BF0000000000000FB0107901411070040501600405405064090741402480A0340
1001
ACAD
1000
AcDbSavedByObjectVersion
1070
     0
  0
ACAD_PROXY_OBJECT
  5
9555
102
{ACAD_REACTORS
330
9550
102
}
330
9550
100
AcDbZombieObject
 90
      499
 91
      509
 93
      388
310
4150985CDA58D07406404333333333333E3BF0000000000000FB0107A41107004050150841D405064090741402480A0350
1001
ACAD
1000
AcDbSavedByObjectVersion
1070
     0
  0
ACAD_PROXY_OBJECT
  5
955C
102
{ACAD_REACTORS
330
9550
102
}
330
9550
100
AcDbZombieObject
 90
      499
 91
      509
 93
      428
310
42109C9A59DA1D195B90C409028333333333333E3BF0000000000000FB010790141107004050150841D405064090741402480A029950
1001
ACAD
1000
AcDbSavedByObjectVersion
1070
     0
  0
ACAD_PROXY_OBJECT
  5
9560
102
{ACAD_REACTORS
330
9550
102
}
330
9550
100
AcDbZombieObject
 90
      499
 91
      509
 93
      452
310
42D0DBDB1BDC90DA185B99D95104090240C333333333333E3BF0000000000000FB0108901411070040501508421405064090741402480A0350
1001
ACAD
1000
AcDbSavedByObjectVersion
1070
     0
  0
ACAD_PROXY_OBJECT
  5
9559
102
{ACAD_REACTORS
330
9550
102
}
330
9550
100
AcDbZombieObject
 90
      499
 91
      509
 93
      500
310
4290DBDB98D95C1D1D585B10940D028333333333333E3BF0000000000000FB0107902409070040501000000000000111010841D405064090740C02480A0340
1001
ACAD
1000
AcDbSavedByObjectVersion
1070
     0
  0
ACAD_PROXY_OBJECT
  5
955B
102
{ACAD_REACTORS
330
9550
102
}
330
9550
100
AcDbZombieObject
 90
      499
 91
      509
 93
      412
310
40D11A5B50B409028333333333333E3BF0000000000000FB010790141107004050150841D405064090741402480A02677FFFFFD0
1001
ACAD
1000
AcDbSavedByObjectVersion
1070
     0
  0
ACAD_PROXY_OBJECT
  5
A211
102
{ACAD_REACTORS
330
9550
102
}
330
9550
100
AcDbZombieObject
 90
      499
 91
      509
 93
      452
310
43115919D950DBDB1BDC93D999916409028333333333333E3BF0000000000000FB010790141107004050150841D405064090741402480A0350
1001
ACAD
1000
AcDbSavedByObjectVersion
1070
     0
  0
ACAD_PROXY_OBJECT
  5
955F
102
{ACAD_REACTORS
330
9550
102
}
330
9550
100
AcDbZombieObject
 90
      499
 91
      509
 93
      444
310
42D19858D95C185D1D195C9B90F409028333333333333E3BF0000000000000FB010790141107004050150841D405064090741402480A0350
1001
ACAD
1000
AcDbSavedByObjectVersion
1070
     0
  0
ACAD_PROXY_OBJECT
  5
9551
102
{ACAD_REACTORS
330
9550
102
}
330
9550
100
AcDbZombieObject
 90
      499
 91
      509
 93
      388
310
41119B185D240901404333333333333E3BF0000000000000F9010740A41107004050150841D405064090741402480A1B50
1001
ACAD
1000
AcDbSavedByObjectVersion
1070
     0
  0
ACAD_PROXY_OBJECT
  5
9552
102
{ACAD_REACTORS
330
9550
102
}
330
9550
100
AcDbZombieObject
 90
      499
 91
      509
 93
      476
310
43519B185D15DA5D1A115919D95CD0140901404333333333333E3BF0000000000000F9010740901411070040501600405405064090741402480A1B50
1001
ACAD
1000
AcDbSavedByObjectVersion
1070
     0
  0
ACAD_PROXY_OBJECT
  5
9553
102
{ACAD_REACTORS
330
9550
102
}
330
9550
100
AcDbZombieObject
 90
      499
 91
      509
 93
      412
310
41D1DBDD5C985D5910240902404333333333333E3BF0000000000000F9010740A411070040501641D405064090741402480A1B50
1001
ACAD
1000
AcDbSavedByObjectVersion
1070
     0
  0
ACAD_PROXY_OBJECT
  5
9554
102
{ACAD_REACTORS
330
9550
102
}
330
9550
100
AcDbZombieObject
 90
      499
 91
      509
 93
      500
310
4411DBDD5C985D5915DA5D1A115919D95CD0340902404333333333333E3BF0000000000000F9010740901411070040501600405405064090741402480A1B50
1001
ACAD
1000
AcDbSavedByObjectVersion
1070
     0
  0
ACAD_PROXY_OBJECT
  5
A260
102
{ACAD_REACTORS
330
9550
102
}
330
9550
100
AcDbZombieObject
 90
      499
 91
      509
 93
      476
310
41921A5919195B90640502408333333333333E3BF0000000000000FB01079024090700405020000000000001110200405405064090740C02480A0340
1001
ACAD
1000
AcDbSavedByObjectVersion
1070
     0
  0
ACAD_PROXY_OBJECT
  5
A20F
102
{ACAD_REACTORS
330
9550
102
}
330
9550
100
AcDbZombieObject
 90
      499
 91
      509
 93
      428
310
42529A5D1D195C93D999914409028333333333333E3BF0000000000000FB010790141107004050150A41D405064090741402480A0350
1001
ACAD
1000
AcDbSavedByObjectVersion
1070
     0
  0
ACAD_PROXY_OBJECT
  5
955E
102
{ACAD_REACTORS
330
9550
102
}
330
9550
100
AcDbZombieObject
 90
      499
 91
      509
 93
      444
310
42D31A5B995C185D1D195C9B90E409028333333333333E3BF0000000000000FB010790141107004050750841D405064090741402483A0350
1001
ACAD
1000
AcDbSavedByObjectVersion
1070
     0
  0
ACAD_PROXY_OBJECT
  5
A266
102
{ACAD_REACTORS
330
9550
102
}
330
9550
100
AcDbZombieObject
 90
      499
 91
      509
 93
      484
310
42135BD9195B1A5B99D0A409028333333333333E3BF0000000000000F901074090290700405010000000000201990108421405064090741402480A1B40
1001
ACAD
1000
AcDbSavedByObjectVersion
1070
     0
  0
ACAD_PROXY_OBJECT
  5
A210
102
{ACAD_REACTORS
330
9550
102
}
330
9550
100
AcDbZombieObject
 90
      499
 91
      509
 93
      444
310
42D3DD995C9A185B99D3D999915409028333333333333E3BF0000000000000FB010790141107004050150941D405064090741402480A0350
1001
ACAD
1000
AcDbSavedByObjectVersion
1070
     0
  0
ACAD_PROXY_OBJECT
  5
955A
102
{ACAD_REACTORS
330
9550
102
}
330
9550
100
AcDbZombieObject
 90
      499
 91
      509
 93
      420
310
425499585B1A5CDD1A58D08409028333333333333E3BF0000000000000FB01079019070040501508421405064090741402480A1B40
1001
ACAD
1000
AcDbSavedByObjectVersion
1070
     0
  0
ACAD_PROXY_OBJECT
  5
A265
102
{ACAD_REACTORS
330
9550
102
}
330
9550
100
AcDbZombieObject
 90
      499
 91
      509
 93
      420
310
4194DA1859195911B40902404333333333333E3BF0000000000000F9010740A41107004050150800405405064090840C02480A0B40
1001
ACAD
1000
AcDbSavedByObjectVersion
1070
     0
  0
ACAD_PROXY_OBJECT
  5
A264
102
{ACAD_REACTORS
330
9550
102
}
330
9550
100
AcDbZombieObject
 90
      499
 91
      509
 93
      516
310
4454DA18591959081DDA5D1A08195919D95CD1A40902404333333333333E3BF0000000000000F901074090142907004050250800405405064090740C02480A0B40
1001
ACAD
1000
AcDbSavedByObjectVersion
1070
     0
  0
ACAD_PROXY_OBJECT
  5
A261
102
{ACAD_REACTORS
330
9550
102
}
330
9550
100
AcDbZombieObject
 90
      499
 91
      509
 93
      532
310
4394DA1859195CC81BD98811DC985E5174090240C333333333333E3BF0000000000000FB01079024090741D01000000000000111010841D405064090740C02480A0340
1001
ACAD
1000
AcDbSavedByObjectVersion
1070
     0
  0
ACAD_PROXY_OBJECT
  5
A262
102
{ACAD_REACTORS
330
9550
102
}
330
9550
100
AcDbZombieObject
 90
      499
 91
      509
 93
      476
310
41D4DAD95D18DA1E51840502408333333333333E3BF0000000000000FB01079024090741D01000000000000111010B41D405064090741802480A0340
1001
ACAD
1000
AcDbSavedByObjectVersion
1070
     0
  0
ACAD_PROXY_OBJECT
  5
955D
102
{ACAD_REACTORS
330
9550
102
}
330
9550
100
AcDbZombieObject
 90
      499
 91
      509
 93
      412
310
41D51A1A58DAD95B90D409028333333333333E3BF0000000000000FB010790141107004050150C41D405064090741402480A0350
1001
ACAD
1000
AcDbSavedByObjectVersion
1070
     0
  0
ACAD_PROXY_OBJECT
  5
A25F
102
{ACAD_REACTORS
330
9550
102
}
330
9550
100
AcDbZombieObject
 90
      499
 91
      509
 93
      420
310
4255DA5C99599C985B595059028333333333333E3BF0000000000000FB0107901411070040501600405405064090740C02480A0340
1001
ACAD
1000
AcDbSavedByObjectVersion
1070
     0
  0
ACAD_PROXY_OBJECT
  5
A263
102
{ACAD_REACTORS
330
9550
102
}
330
9550
100
AcDbZombieObject
 90
      499
 91
      509
 93
      404
310
41560B54985E51940902404000000000000E03F0000000000000FB010740501907004050150841D405064090740C02480A1B40
1001
ACAD
1000
AcDbSavedByObjectVersion
1070
     0
  0
XRECORD
  5
BCF9
102
{ACAD_REACTORS
330
BCF8
102
}
330
BCF8
100
AcDbXrecord
340
18D
  0
XRECORD
  5
BCFA
102
{ACAD_REACTORS
330
BCF8
102
}
330
BCF8
100
AcDbXrecord
340
18C
  0
DICTIONARYVAR
  5
AF43
102
{ACAD_REACTORS
330
37
102
}
330
37
100
DictionaryVariables
280
     0
  1
1:1
  0
DICTIONARYVAR
  5
9627
102
{ACAD_REACTORS
330
37
102
}
330
37
100
DictionaryVariables
280
     0
  1
Standard
  0
DICTIONARYVAR
  5
29E
102
{ACAD_REACTORS
330
37
102
}
330
37
100
DictionaryVariables
280
     0
  1
Standard
  0
DICTIONARYVAR
  5
38
102
{ACAD_REACTORS
330
37
102
}
330
37
100
DictionaryVariables
280
     0
  1
-1
  0
DICTIONARYVAR
  5
1CE
102
{ACAD_REACTORS
330
37
102
}
330
37
100
DictionaryVariables
280
     0
  1
2
  0
DICTIONARYVAR
  5
704E
102
{ACAD_REACTORS
330
37
102
}
330
37
100
DictionaryVariables
280
     0
  1
1
  0
DICTIONARYVAR
  5
962A
102
{ACAD_REACTORS
330
37
102
}
330
37
100
DictionaryVariables
280
     0
  1
0
  0
DICTIONARYVAR
  5
7052
102
{ACAD_REACTORS
330
37
102
}
330
37
100
DictionaryVariables
280
     0
  1
8
  0
DICTIONARYVAR
  5
7051
102
{ACAD_REACTORS
330
37
102
}
330
37
100
DictionaryVariables
280
     0
  1
1
  0
DICTIONARYVAR
  5
AB30
102
{ACAD_REACTORS
330
37
102
}
330
37
100
DictionaryVariables
280
     0
  1
0
  0
DICTIONARYVAR
  5
704F
102
{ACAD_REACTORS
330
37
102
}
330
37
100
DictionaryVariables
280
     0
  1
8
  0
DICTIONARYVAR
  5
7050
102
{ACAD_REACTORS
330
37
102
}
330
37
100
DictionaryVariables
280
     0
  1
2
  0
DICTIONARYVAR
  5
1CF
102
{ACAD_REACTORS
330
37
102
}
330
37
100
DictionaryVariables
280
     0
  1

  0
DICTIONARYVAR
  5
9629
102
{ACAD_REACTORS
330
37
102
}
330
37
100
DictionaryVariables
280
     0
  1
127
  0
DICTIONARYVAR
  5
BAEC
102
{ACAD_REACTORS
330
37
102
}
330
37
100
DictionaryVariables
280
     0
  1
2
  0
XRECORD
  5
BE89
102
{ACAD_REACTORS
330
BAEA
102
}
330
BAEA
100
AcDbXrecord
1070
     0
1070
     0
1070
     0
  0
DICTIONARY
  5
BE96
330
9540
100
AcDbDictionary
  3
ACAD_XREC_ROUNDTRIP
360
BE97
1001
ACAD
1000
TREAT_AS_HARD
1070
     1
  0
DICTIONARY
  5
BE98
330
9538
100
AcDbDictionary
  3
ACAD_XREC_ROUNDTRIP
360
BE99
1001
ACAD
1000
TREAT_AS_HARD
1070
     1
  0
DICTIONARY
  5
BE9A
330
9548
100
AcDbDictionary
  3
ACAD_XREC_ROUNDTRIP
360
BE9B
1001
ACAD
1000
TREAT_AS_HARD
1070
     1
  0
XRECORD
  5
BE97
102
{ACAD_REACTORS
330
BE96
102
}
330
BE96
100
AcDbXrecord
102
MATERIAL
148
0.0
149
0.0
149
0.0
 93
        0
 94
      127
282
     0
 72
     0
 77
     0
171
     0
175
     0
179
     0
273
     0
  0
XRECORD
  5
BE99
102
{ACAD_REACTORS
330
BE98
102
}
330
BE98
100
AcDbXrecord
102
MATERIAL
148
0.0
149
0.0
149
0.0
 93
        0
 94
      127
282
     0
 72
     0
 77
     0
171
     0
175
     0
179
     0
273
     0
  0
XRECORD
  5
BE9B
102
{ACAD_REACTORS
330
BE9A
102
}
330
BE9A
100
AcDbXrecord
102
MATERIAL
148
0.0
149
0.0
149
0.0
 93
        0
 94
      127
282
     0
 72
     0
 77
     0
171
     0
175
     0
179
     0
273
     0
  0
ENDSEC
  0
EOF
