  0
SECTION
  2
HEADER
  9
$ACADVER
  1
AC1012
  9
$DWGCODEPAGE
  3
ansi_932
  9
$INSBASE
 10
0.0
 20
0.0
 30
0.0
  9
$EXTMIN
 10
7.979405386660467
 20
-1064.487597593408
 30
0.0
  9
$EXTMAX
 10
761.547983236629
 20
-753.4875975934045
 30
0.0
  9
$LIMMIN
 10
0.0
 20
0.0
  9
$LIMMAX
 10
420.0
 20
297.0
  9
$ORTHOMODE
 70
     0
  9
$REGENMODE
 70
     1
  9
$FILLMODE
 70
     1
  9
$QTEXTMODE
 70
     0
  9
$MIRRTEXT
 70
     0
  9
$DRAGMODE
 70
     2
  9
$LTSCALE
 40
0.5
  9
$OSMODE
 70
 14463
  9
$ATTMODE
 70
     1
  9
$TEXTSIZE
 40
4.0
  9
$TRACEWID
 40
1.0
  9
$TEXTSTYLE
  7
STANDARD
  9
$CLAYER
  8
1TEXT
  9
$CELTYPE
  6
BYLAYER
  9
$CECOLOR
 62
   256
  9
$CELTSCALE
 40
1.0
  9
$DELOBJ
 70
     1
  9
$DISPSILH
 70
     0
  9
$DIMSCALE
 40
1.0
  9
$DIMASZ
 40
2.0
  9
$DIMEXO
 40
0.0
  9
$DIMDLI
 40
7.0
  9
$DIMRND
 40
0.0
  9
$DIMDLE
 40
0.0
  9
$DIMEXE
 40
1.0
  9
$DIMTP
 40
0.0
  9
$DIMTM
 40
0.0
  9
$DIMTXT
 40
3.5
  9
$DIMCEN
 40
0.0
  9
$DIMTSZ
 40
0.0
  9
$DIMTOL
 70
     0
  9
$DIMLIM
 70
     0
  9
$DIMTIH
 70
     0
  9
$DIMTOH
 70
     0
  9
$DIMSE1
 70
     0
  9
$DIMSE2
 70
     0
  9
$DIMTAD
 70
     1
  9
$DIMZIN
 70
     8
  9
$DIMBLK
  1

  9
$DIMASO
 70
     1
  9
$DIMSHO
 70
     1
  9
$DIMPOST
  1
 
  9
$DIMAPOST
  1

  9
$DIMALT
 70
     0
  9
$DIMALTD
 70
     2
  9
$DIMALTF
 40
25.4
  9
$DIMLFAC
 40
1.0
  9
$DIMTOFL
 70
     1
  9
$DIMTVP
 40
0.0
  9
$DIMTIX
 70
     0
  9
$DIMSOXD
 70
     0
  9
$DIMSAH
 70
     1
  9
$DIMBLK1
  1
OPEN30
  9
$DIMBLK2
  1
OPEN30
  9
$DIMSTYLE
  2
NEWX10
  9
$DIMCLRD
 70
   256
  9
$DIMCLRE
 70
   256
  9
$DIMCLRT
 70
   201
  9
$DIMTFAC
 40
0.7
  9
$DIMGAP
 40
0.7
  9
$DIMJUST
 70
     0
  9
$DIMSD1
 70
     0
  9
$DIMSD2
 70
     0
  9
$DIMTOLJ
 70
     1
  9
$DIMTZIN
 70
     8
  9
$DIMALTZ
 70
     0
  9
$DIMALTTZ
 70
     0
  9
$DIMFIT
 70
     2
  9
$DIMUPT
 70
     0
  9
$DIMUNIT
 70
     2
  9
$DIMDEC
 70
     2
  9
$DIMTDEC
 70
     4
  9
$DIMALTU
 70
     2
  9
$DIMALTTD
 70
     2
  9
$DIMTXSTY
  7
STANDARD
  9
$DIMAUNIT
 70
     0
  9
$LUNITS
 70
     2
  9
$LUPREC
 70
     4
  9
$SKETCHINC
 40
1.0
  9
$FILLETRAD
 40
0.0
  9
$AUNITS
 70
     0
  9
$AUPREC
 70
     2
  9
$MENU
  1
acad
  9
$ELEVATION
 40
0.0
  9
$PELEVATION
 40
0.0
  9
$THICKNESS
 40
0.0
  9
$LIMCHECK
 70
     0
  9
$CHAMFERA
 40
1.0
  9
$CHAMFERB
 40
1.0
  9
$CHAMFERC
 40
20.0
  9
$CHAMFERD
 40
0.0
  9
$SKPOLY
 70
     0
  9
$TDCREATE
 40
2453033.732663484
  9
$TDUPDATE
 40
2458101.362139768
  9
$TDINDWG
 40
2.3612702431
  9
$TDUSRTIMER
 40
2.3612702431
  9
$USRTIMER
 70
     1
  9
$ANGBASE
 50
0.0
  9
$ANGDIR
 70
     0
  9
$PDMODE
 70
     0
  9
$PDSIZE
 40
0.0
  9
$PLINEWID
 40
0.0
  9
$COORDS
 70
     2
  9
$SPLFRAME
 70
     0
  9
$SPLINETYPE
 70
     6
  9
$SPLINESEGS
 70
     8
  9
$ATTDIA
 70
     0
  9
$ATTREQ
 70
     1
  9
$HANDLING
 70
     1
  9
$HANDSEED
  5
21698
  9
$SURFTAB1
 70
     6
  9
$SURFTAB2
 70
     6
  9
$SURFTYPE
 70
     6
  9
$SURFU
 70
     6
  9
$SURFV
 70
     6
  9
$UCSNAME
  2

  9
$UCSORG
 10
0.0
 20
0.0
 30
0.0
  9
$UCSXDIR
 10
1.0
 20
0.0
 30
0.0
  9
$UCSYDIR
 10
0.0
 20
1.0
 30
0.0
  9
$PUCSNAME
  2

  9
$PUCSORG
 10
0.0
 20
0.0
 30
0.0
  9
$PUCSXDIR
 10
1.0
 20
0.0
 30
0.0
  9
$PUCSYDIR
 10
0.0
 20
1.0
 30
0.0
  9
$USERI1
 70
     0
  9
$USERI2
 70
     0
  9
$USERI3
 70
     0
  9
$USERI4
 70
     0
  9
$USERI5
 70
     0
  9
$USERR1
 40
0.0
  9
$USERR2
 40
0.0
  9
$USERR3
 40
0.0
  9
$USERR4
 40
0.0
  9
$USERR5
 40
0.0
  9
$WORLDVIEW
 70
     1
  9
$SHADEDGE
 70
     3
  9
$SHADEDIF
 70
    70
  9
$TILEMODE
 70
     1
  9
$MAXACTVP
 70
    48
  9
$PINSBASE
 10
0.0
 20
0.0
 30
0.0
  9
$PLIMCHECK
 70
     0
  9
$PEXTMIN
 10
1.000000000000000E+20
 20
1.000000000000000E+20
 30
1.000000000000000E+20
  9
$PEXTMAX
 10
-1.000000000000000E+20
 20
-1.000000000000000E+20
 30
-1.000000000000000E+20
  9
$PLIMMIN
 10
0.0
 20
0.0
  9
$PLIMMAX
 10
420.0
 20
297.0
  9
$UNITMODE
 70
     0
  9
$VISRETAIN
 70
     1
  9
$PLINEGEN
 70
     0
  9
$PSLTSCALE
 70
     1
  9
$TREEDEPTH
 70
  3020
  9
$PICKSTYLE
 70
     0
  9
$CMLSTYLE
  2
STANDARD
  9
$CMLJUST
 70
     0
  9
$CMLSCALE
 40
20.0
  9
$SAVEIMAGES
 70
     1
  0
ENDSEC
  0
SECTION
  2
CLASSES
  0
CLASS
  1
DICTIONARYVAR
  2
AcDbDictionaryVar
  3
ObjectDBX Classes
 90
        0
280
     0
281
     0
  0
CLASS
  1
IDBUFFER
  2
AcDbIdBuffer
  3
ObjectDBX Classes
 90
    32768
280
     0
281
     0
  0
CLASS
  1
LWPOLYLINE
  2
AcDbPolyline
  3
ObjectDBX Classes
 90
    32768
280
     0
281
     1
  0
CLASS
  1
ACDBDICTIONARYWDFLT
  2
AcDbDictionaryWithDefault
  3
ObjectDBX Classes
 90
    32768
280
     0
281
     0
  0
CLASS
  1
ACDBPLACEHOLDER
  2
AcDbPlaceHolder
  3
ObjectDBX Classes
 90
        0
280
     0
281
     0
  0
CLASS
  1
LAYOUT
  2
AcDbLayout
  3
ObjectDBX Classes
 90
        0
280
     0
281
     0
  0
CLASS
  1
TABLESTYLE
  2
AcDbTableStyle
  3
ObjectDBX Classes
 90
     4095
280
     0
281
     0
  0
CLASS
  1
SORTENTSTABLE
  2
AcDbSortentsTable
  3
ObjectDBX Classes
 90
    32768
280
     0
281
     0
  0
CLASS
  1
DIMASSOC
  2
AcDbDimAssoc
  3
"AcDbDimAssoc|Product Desc:     AcDim ARX App For Dimension|Company:          Autodesk, Inc.|WEB Address:      www.autodesk.com"
 90
        0
280
     0
281
     0
  0
CLASS
  1
MATERIAL
  2
AcDbMaterial
  3
ObjectDBX Classes
 90
     1153
280
     0
281
     0
  0
CLASS
  1
VISUALSTYLE
  2
AcDbVisualStyle
  3
ObjectDBX Classes
 90
     4095
280
     0
281
     0
  0
CLASS
  1
SCALE
  2
AcDbScale
  3
ObjectDBX Classes
 90
     1153
280
     0
281
     0
  0
CLASS
  1
MLEADERSTYLE
  2
AcDbMLeaderStyle
  3
ACDB_MLEADERSTYLE_CLASS
 90
     4095
280
     0
281
     0
  0
CLASS
  1
CELLSTYLEMAP
  2
AcDbCellStyleMap
  3
ObjectDBX Classes
 90
     1152
280
     0
281
     0
  0
CLASS
  1
EXACXREFPANELOBJECT
  2
ExAcXREFPanelObject
  3
EXAC_ESW
 90
     1025
280
     1
281
     0
  0
CLASS
  1
NPOCOLLECTION
  2
AcDbImpNonPersistentObjectsCollection
  3
ObjectDBX Classes
 90
     1153
280
     1
281
     0
  0
CLASS
  1
SUN
  2
AcDbSun
  3
SCENEOE
 90
     1153
280
     0
281
     0
  0
CLASS
  1
XRECORD
  2
AcDbXrecord
  3
ObjectDBX Classes
 90
    32768
280
     0
281
     0
  0
CLASS
  1
HATCH
  2
AcDbHatch
  3
ObjectDBX Classes
 90
    32768
280
     0
281
     1
  0
ENDSEC
  0
SECTION
  2
TABLES
  0
TABLE
  2
VPORT
  5
8
330
0
100
AcDbSymbolTable
 70
     1
  0
VPORT
  5
19DC2
330
8
100
AcDbSymbolTableRecord
100
AcDbViewportTableRecord
  2
*ACTIVE
 70
     0
 10
0.0
 20
0.0
 11
1.0
 21
1.0
 12
384.7636943116447
 22
-908.9875975934062
 13
0.0
 23
0.0
 14
10.0
 24
10.0
 15
10.0
 25
10.0
 16
0.0
 26
0.0
 36
1.0
 17
0.0
 27
0.0
 37
0.0
 40
432.3285523152338
 41
1.871481028151775
 42
50.0
 43
0.0
 44
0.0
 50
0.0
 51
0.0
 71
    16
 72
   100
 73
     1
 74
     1
 75
     0
 76
     0
 77
     0
 78
     0
  0
ENDTAB
  0
TABLE
  2
LTYPE
  5
5
330
0
100
AcDbSymbolTable
 70
     3
  0
LTYPE
  5
12
330
5
100
AcDbSymbolTableRecord
100
AcDbLinetypeTableRecord
  2
BYBLOCK
 70
     0
  3

 72
    65
 73
     0
 40
0.0
  0
LTYPE
  5
13
330
5
100
AcDbSymbolTableRecord
100
AcDbLinetypeTableRecord
  2
BYLAYER
 70
     0
  3

 72
    65
 73
     0
 40
0.0
  0
LTYPE
  5
14
330
5
100
AcDbSymbolTableRecord
100
AcDbLinetypeTableRecord
  2
CONTINUOUS
 70
     0
  3
Solid line
 72
    65
 73
     0
 40
0.0
  0
LTYPE
  5
26
330
5
100
AcDbSymbolTableRecord
100
AcDbLinetypeTableRecord
  2
CENTER2
 70
     0
  3
Center (.5x) ___ _ ___ _ ___ _ ___ _ ___ _ ___
 72
    65
 73
     4
 40
28.575
 49
19.05
 74
     0
 49
-3.175
 74
     0
 49
3.175
 74
     0
 49
-3.175
 74
     0
  0
LTYPE
  5
100
330
5
100
AcDbSymbolTableRecord
100
AcDbLinetypeTableRecord
  2
PHANTOM2
 70
     0
  3
Phantom (0.5x) ___ _ _ ___ _ _ ___ _ _ ___ _ _
 72
    65
 73
     6
 40
31.75
 49
15.875
 74
     0
 49
-3.175
 74
     0
 49
3.175
 74
     0
 49
-3.175
 74
     0
 49
3.175
 74
     0
 49
-3.175
 74
     0
  0
ENDTAB
  0
TABLE
  2
LAYER
  5
2
102
{ACAD_XDICTIONARY
360
18FE8
102
}
330
0
100
AcDbSymbolTable
 70
     7
  0
LAYER
  5
E
102
{ACAD_XDICTIONARY
360
1A20A
102
}
330
2
100
AcDbSymbolTableRecord
100
AcDbLayerTableRecord
  2
0
 70
     0
 62
     7
  6
CONTINUOUS
  0
LAYER
  5
29
102
{ACAD_XDICTIONARY
360
1A20C
102
}
330
2
100
AcDbSymbolTableRecord
100
AcDbLayerTableRecord
  2
1CENTER
 70
     0
 62
     7
  6
CENTER2
  0
LAYER
  5
31
102
{ACAD_XDICTIONARY
360
1A20E
102
}
330
2
100
AcDbSymbolTableRecord
100
AcDbLayerTableRecord
  2
1TEXT
 70
     0
 62
     7
  6
CONTINUOUS
  0
LAYER
  5
101
102
{ACAD_XDICTIONARY
360
1A218
102
}
330
2
100
AcDbSymbolTableRecord
100
AcDbLayerTableRecord
  2
1DIM
 70
     0
 62
     7
  6
CONTINUOUS
  0
LAYER
  5
103
102
{ACAD_XDICTIONARY
360
1A21C
102
}
330
2
100
AcDbSymbolTableRecord
100
AcDbLayerTableRecord
  2
1PHANTOM
 70
     0
 62
     7
  6
PHANTOM2
  0
LAYER
  5
25F
102
{ACAD_XDICTIONARY
360
1A220
102
}
330
2
100
AcDbSymbolTableRecord
100
AcDbLayerTableRecord
  2
01
 70
     0
 62
     1
  6
CONTINUOUS
  0
LAYER
  5
26D
102
{ACAD_XDICTIONARY
360
1A23C
102
}
330
2
100
AcDbSymbolTableRecord
100
AcDbLayerTableRecord
  2
1HATCH
 70
     0
 62
     7
  6
CONTINUOUS
  0
ENDTAB
  0
TABLE
  2
STYLE
  5
3
330
0
100
AcDbSymbolTable
 70
     1
  0
STYLE
  5
F
330
3
100
AcDbSymbolTableRecord
100
AcDbTextStyleTableRecord
  2
STANDARD
 70
     0
 40
0.0
 41
1.0
 50
0.0
 71
     0
 42
4.0
  3
txt.shx
  4
extfont.shx
  0
ENDTAB
  0
TABLE
  2
VIEW
  5
6
330
0
100
AcDbSymbolTable
 70
     0
  0
ENDTAB
  0
TABLE
  2
UCS
  5
7
330
0
100
AcDbSymbolTable
 70
     0
  0
ENDTAB
  0
TABLE
  2
APPID
  5
9
330
0
100
AcDbSymbolTable
 70
    16
  0
APPID
  5
10
330
9
100
AcDbSymbolTableRecord
100
AcDbRegAppTableRecord
  2
ACAD
 70
     0
  0
APPID
  5
21
330
9
100
AcDbSymbolTableRecord
100
AcDbRegAppTableRecord
  2
DRAWINGVARIABLESXDATA
 70
     0
  0
APPID
  5
64
330
9
100
AcDbSymbolTableRecord
100
AcDbRegAppTableRecord
  2
CONTENTTABDATA
 70
     0
  0
APPID
  5
65
330
9
100
AcDbSymbolTableRecord
100
AcDbRegAppTableRecord
  2
CONTENTCURRENTTAB
 70
     0
  0
APPID
  5
66
330
9
100
AcDbSymbolTableRecord
100
AcDbRegAppTableRecord
  2
CONTENTBLOCKDESCRIPTION
 70
     0
  0
APPID
  5
67
330
9
100
AcDbSymbolTableRecord
100
AcDbRegAppTableRecord
  2
CONTENTBLOCKICON
 70
     0
  0
APPID
  5
68
330
9
100
AcDbSymbolTableRecord
100
AcDbRegAppTableRecord
  2
CONTENTLONGBLOCKNAME
 70
     0
  0
APPID
  5
5A9
330
9
100
AcDbSymbolTableRecord
100
AcDbRegAppTableRecord
  2
ACAD_PSEXT
 70
     0
  0
APPID
  5
18AC
330
9
100
AcDbSymbolTableRecord
100
AcDbRegAppTableRecord
  2
ACAD_DSTYLE_DIMTEXT_FILL
 70
     0
  0
APPID
  5
19E1A
330
9
100
AcDbSymbolTableRecord
100
AcDbRegAppTableRecord
  2
ACAD_MLEADERVER
 70
     0
  0
APPID
  5
1A2FA
330
9
100
AcDbSymbolTableRecord
100
AcDbRegAppTableRecord
  2
ACAD_DSTYLE_DIMRADIAL_EXTE
 70
     0
  0
APPID
  5
1DBC1
330
9
100
AcDbSymbolTableRecord
100
AcDbRegAppTableRecord
  2
ACADANNOTATIVE
 70
     0
  0
APPID
  5
1E991
330
9
100
AcDbSymbolTableRecord
100
AcDbRegAppTableRecord
  2
ACAD_EXEMPT_FROM_CAD_STAND
 70
     0
  0
APPID
  5
202C7
330
9
100
AcDbSymbolTableRecord
100
AcDbRegAppTableRecord
  2
ACDBBLOCKREPETAG
 70
     0
  0
APPID
  5
20AA7
330
9
100
AcDbSymbolTableRecord
100
AcDbRegAppTableRecord
  2
ACAD_OBJECT_CHANGE_GUID
 70
     0
  0
APPID
  5
20B2F
330
9
100
AcDbSymbolTableRecord
100
AcDbRegAppTableRecord
  2
ACAD_NAV_VCDISPLAY
 70
     0
  0
ENDTAB
  0
TABLE
  2
DIMSTYLE
  5
A
330
0
100
AcDbSymbolTable
 70
     1
  0
DIMSTYLE
105
48
330
A
100
AcDbSymbolTableRecord
100
AcDbDimStyleTableRecord
  2
NEWX10
 70
     0
  3
 
  4

  5

  6
OPEN30
  7
OPEN30
 40
1.0
 41
2.0
 42
0.0
 43
7.0
 44
1.0
 45
0.0
 46
0.0
 47
0.0
 48
0.0
140
3.5
141
0.0
142
0.0
143
25.4
144
1.0
145
0.0
146
0.7
147
0.7
 71
     0
 72
     0
 73
     0
 74
     0
 75
     0
 76
     0
 77
     1
 78
     8
170
     0
171
     2
172
     1
173
     1
174
     0
175
     0
176
   256
177
   256
178
   201
179
     2
270
     2
271
     2
272
     4
273
     2
274
     2
340
F
275
     0
280
     0
281
     0
282
     0
283
     1
284
     8
285
     0
286
     0
287
     2
288
     0
  0
ENDTAB
  0
TABLE
  2
BLOCK_RECORD
  5
1
330
0
100
AcDbSymbolTable
 70
     8
  0
BLOCK_RECORD
  5
18
102
{ACAD_XDICTIONARY
360
6E9
102
}
330
1
100
AcDbSymbolTableRecord
100
AcDbBlockTableRecord
  2
*MODEL_SPACE
  0
BLOCK_RECORD
  5
15
102
{ACAD_XDICTIONARY
360
59B
102
}
330
1
100
AcDbSymbolTableRecord
100
AcDbBlockTableRecord
  2
*PAPER_SPACE
  0
BLOCK_RECORD
  5
42
330
1
100
AcDbSymbolTableRecord
100
AcDbBlockTableRecord
  2
_OPEN30
  0
BLOCK_RECORD
  5
20316
330
1
100
AcDbSymbolTableRecord
100
AcDbBlockTableRecord
  2
A3WAKUKAWAJUN2017_HYOUDAI_
  0
BLOCK_RECORD
  5
214F8
330
1
100
AcDbSymbolTableRecord
100
AcDbBlockTableRecord
  2
*X66
  0
BLOCK_RECORD
  5
21546
330
1
100
AcDbSymbolTableRecord
100
AcDbBlockTableRecord
  2
*X67
  0
BLOCK_RECORD
  5
21598
330
1
100
AcDbSymbolTableRecord
100
AcDbBlockTableRecord
  2
*X68
  0
BLOCK_RECORD
  5
215E9
330
1
100
AcDbSymbolTableRecord
100
AcDbBlockTableRecord
  2
*X69
  0
BLOCK_RECORD
  5
21626
330
1
100
AcDbSymbolTableRecord
100
AcDbBlockTableRecord
  2
*X70
  0
BLOCK_RECORD
  5
21666
330
1
100
AcDbSymbolTableRecord
100
AcDbBlockTableRecord
  2
*X71
  0
ENDTAB
  0
ENDSEC
  0
SECTION
  2
BLOCKS
  0
BLOCK
  5
19
330
18
100
AcDbEntity
  8
0
100
AcDbBlockBegin
  2
*MODEL_SPACE
 70
     0
 10
0.0
 20
0.0
 30
0.0
  3
*MODEL_SPACE
  1

  0
ENDBLK
  5
1A
330
18
100
AcDbEntity
  8
0
100
AcDbBlockEnd
  0
BLOCK
  5
16
330
15
100
AcDbEntity
 67
     1
  8
0
100
AcDbBlockBegin
  2
*PAPER_SPACE
 70
     0
 10
0.0
 20
0.0
 30
0.0
  3
*PAPER_SPACE
  1

  0
ENDBLK
  5
17
330
15
100
AcDbEntity
 67
     1
  8
0
100
AcDbBlockEnd
  0
BLOCK
  5
43
330
42
100
AcDbEntity
  8
0
100
AcDbBlockBegin
  2
_OPEN30
 70
     0
 10
0.0
 20
0.0
 30
0.0
  3
_OPEN30
  1

  0
LINE
  5
44
330
42
100
AcDbEntity
  8
0
  6
BYBLOCK
 62
     0
100
AcDbLine
 10
-1.0
 20
0.26794919
 30
0.0
 11
0.0
 21
0.0
 31
0.0
  0
LINE
  5
45
330
42
100
AcDbEntity
  8
0
  6
BYBLOCK
 62
     0
100
AcDbLine
 10
0.0
 20
0.0
 30
0.0
 11
-1.0
 21
-0.26794919
 31
0.0
  0
LINE
  5
46
330
42
100
AcDbEntity
  8
0
  6
BYBLOCK
 62
     0
100
AcDbLine
 10
0.0
 20
0.0
 30
0.0
 11
-1.0
 21
0.0
 31
0.0
  0
ENDBLK
  5
47
330
42
100
AcDbEntity
  8
0
100
AcDbBlockEnd
  0
BLOCK
  5
20A15
330
20316
100
AcDbEntity
  8
0
100
AcDbBlockBegin
  2
A3WAKUKAWAJUN2017_HYOUDAI_
 70
     0
 10
0.0
 20
0.0
 30
0.0
  3
A3WAKUKAWAJUN2017_HYOUDAI_
  1

  0
LINE
  5
20318
330
20316
100
AcDbEntity
  8
0
100
AcDbLine
 10
13.26299999998673
 20
-0.0001000000000317
 30
0.0
 11
9.236999999990758
 21
8.999899999990987
 31
0.0
1001
ACAD
1000
ASC_BOUNDS
1002
{
1070
    19
1005
20359
1002
}
  0
LINE
  5
20319
330
20316
100
AcDbEntity
  8
0
100
AcDbLine
 10
5.657999999994331
 20
0.9999999999989768
 30
0.0
 11
9.236999999990758
 21
8.999999999991019
 31
0.0
1001
ACAD
1000
ASC_BOUNDS
1002
{
1070
    19
1005
20359
1002
}
  0
LINE
  5
2031A
330
20316
100
AcDbEntity
  8
0
100
AcDbLine
 10
18.59199999998134
 20
-0.2368999999997641
 30
0.0
 11
16.46099999998353
 21
5.432899999994561
 31
0.0
1001
ACAD
1000
ASC_BOUNDS
1002
{
1070
    19
1005
2035A
1002
}
  0
LINE
  5
2031B
330
20316
100
AcDbEntity
  8
0
100
AcDbLine
 10
18.59199999998134
 20
-0.2368999999997641
 30
0.0
 11
22.38199999997767
 21
8.763099999991255
 31
0.0
1001
ACAD
1000
ASC_BOUNDS
1002
{
1070
    19
1005
2035A
1002
}
  0
LINE
  5
2031C
330
20316
100
AcDbEntity
  8
0
100
AcDbLine
 10
14.32899999998563
 20
-0.2368999999997641
 30
0.0
 11
16.46099999998353
 21
5.432899999994561
 31
0.0
1001
ACAD
1000
ASC_BOUNDS
1002
{
1070
    19
1005
2035A
1002
}
  0
LINE
  5
2031D
330
20316
100
AcDbEntity
  8
0
100
AcDbLine
 10
14.32899999998563
 20
-0.2368999999997641
 30
0.0
 11
10.53899999998941
 21
8.763099999991255
 31
0.0
1001
ACAD
1000
ASC_BOUNDS
1002
{
1070
    19
1005
2035A
1002
}
  0
LINE
  5
2031E
330
20316
100
AcDbEntity
  8
0
100
AcDbLine
 10
19.53899999998043
 20
-0.0001000000000317
 30
0.0
 11
23.56599999997638
 21
8.999899999990987
 31
0.0
1001
ACAD
1000
ASC_BOUNDS
1002
{
1070
    19
1005
2035B
1002
}
  0
LINE
  5
2031F
330
20316
100
AcDbEntity
  8
0
100
AcDbLine
 10
26.97358892824991
 20
1.383099999991202
 30
0.0
 11
23.56599999997638
 21
8.999899999990987
 31
0.0
1001
ACAD
1000
ASC_BOUNDS
1002
{
1070
    19
1005
2035B
1002
}
  0
LINE
  5
20320
330
20316
100
AcDbEntity
  8
0
100
AcDbLine
 10
5.657999999994331
 20
0.9999999999989768
 30
0.0
 11
3.181999999996833
 21
4.668599999995308
 31
0.0
1001
ACAD
1000
ASC_BOUNDS
1002
{
1070
    19
1005
20359
1002
}
  0
LINE
  5
20321
330
20316
100
AcDbEntity
  8
0
100
AcDbLine
 10
4.617999999995391
 20
-0.0001000000000317
 30
0.0
 11
1.420999999998571
 21
4.736799999995242
 31
0.0
1001
ACAD
1000
ASC_BOUNDS
1002
{
1070
    19
1005
20359
1002
}
  0
LINE
  5
20322
330
20316
100
AcDbEntity
  8
0
100
AcDbLine
 10
1.420999999998571
 20
8.763099999991255
 30
0.0
 11
1.420999999998571
 21
0.0
 31
0.0
1001
ACAD
1000
ASC_BOUNDS
1002
{
1070
    19
1005
2035E
1002
}
  0
LINE
  5
20323
330
20316
100
AcDbEntity
  8
0
100
AcDbLine
 10
0.0
 20
8.763099999991255
 30
0.0
 11
0.0
 21
0.0
 31
0.0
1001
ACAD
1000
ASC_BOUNDS
1002
{
1070
    19
1005
2035E
1002
}
  0
LINE
  5
20324
330
20316
100
AcDbEntity
  8
0
100
AcDbLine
 10
6.766999999993232
 20
-0.0001000000000317
 30
0.0
 11
7.826999999992154
 21
2.368399999997621
 31
0.0
1001
ACAD
1000
ASC_BOUNDS
1002
{
1070
    19
1005
20359
1002
}
  0
LINE
  5
20325
330
20316
100
AcDbEntity
  8
0
100
AcDbLine
 10
0.0
 20
0.0
 30
0.0
 11
1.420999999998571
 21
0.0
 31
0.0
1001
ACAD
1000
ASC_BOUNDS
1002
{
1070
    19
1005
2035E
1002
}
  0
LINE
  5
20326
330
20316
100
AcDbEntity
  8
0
100
AcDbLine
 10
4.617999999995391
 20
0.0
 30
0.0
 11
6.766999999993232
 21
0.0
 31
0.0
1001
ACAD
1000
ASC_BOUNDS
1002
{
1070
    19
1005
20359
1002
}
  0
LINE
  5
20327
330
20316
100
AcDbEntity
  8
0
100
AcDbLine
 10
11.70599999998831
 20
-0.0001000000000317
 30
0.0
 11
10.64699999998936
 21
2.368399999997621
 31
0.0
1001
ACAD
1000
ASC_BOUNDS
1002
{
1070
    19
1005
20359
1002
}
  0
LINE
  5
20328
330
20316
100
AcDbEntity
  8
0
100
AcDbLine
 10
7.826999999992154
 20
2.368399999997621
 30
0.0
 11
10.64699999998936
 21
2.368399999997621
 31
0.0
1001
ACAD
1000
ASC_BOUNDS
1002
{
1070
    19
1005
20359
1002
}
  0
LINE
  5
20329
330
20316
100
AcDbEntity
  8
0
100
AcDbLine
 10
11.70599999998831
 20
0.0
 30
0.0
 11
13.26299999998673
 21
0.0
 31
0.0
1001
ACAD
1000
ASC_BOUNDS
1002
{
1070
    19
1005
20359
1002
}
  0
LINE
  5
2032A
330
20316
100
AcDbEntity
  8
0
100
AcDbLine
 10
22.15599999997789
 20
2.368399999997621
 30
0.0
 11
24.97599999997499
 21
2.368399999997621
 31
0.0
1001
ACAD
1000
ASC_BOUNDS
1002
{
1070
    19
1005
2035B
1002
}
  0
LINE
  5
2032B
330
20316
100
AcDbEntity
  8
0
100
AcDbLine
 10
19.53899999998043
 20
0.0
 30
0.0
 11
21.09599999997886
 21
0.0
 31
0.0
1001
ACAD
1000
ASC_BOUNDS
1002
{
1070
    19
1005
2035B
1002
}
  0
LINE
  5
2032C
330
20316
100
AcDbEntity
  8
0
100
AcDbLine
 10
21.09599999997886
 20
-0.0001000000000317
 30
0.0
 11
22.15599999997789
 21
2.368399999997621
 31
0.0
1001
ACAD
1000
ASC_BOUNDS
1002
{
1070
    19
1005
2035B
1002
}
  0
LINE
  5
2032D
330
20316
100
AcDbEntity
  8
0
100
AcDbLine
 10
26.02015566812236
 20
0.0330999999912365
 30
0.0
 11
24.97599999997499
 21
2.368399999997621
 31
0.0
1001
ACAD
1000
ASC_BOUNDS
1002
{
1070
    19
1005
2035B
1002
}
  0
LINE
  5
2032E
330
20316
100
AcDbEntity
  8
0
100
AcDbLine
 10
14.32399999998563
 20
3.315799999996671
 30
0.0
 11
16.46099999998353
 21
8.999899999990987
 31
0.0
1001
ACAD
1000
ASC_BOUNDS
1002
{
1070
    19
1005
2035A
1002
}
  0
LINE
  5
2032F
330
20316
100
AcDbEntity
  8
0
100
AcDbLine
 10
6.432999999993513
 20
8.763099999991255
 30
0.0
 11
3.181999999996833
 21
4.668599999995308
 31
0.0
1001
ACAD
1000
ASC_BOUNDS
1002
{
1070
    19
1005
20359
1002
}
  0
LINE
  5
20330
330
20316
100
AcDbEntity
  8
0
100
AcDbLine
 10
4.617999999995391
 20
8.763099999991255
 30
0.0
 11
1.420999999998571
 21
4.736799999995242
 31
0.0
1001
ACAD
1000
ASC_BOUNDS
1002
{
1070
    19
1005
20359
1002
}
  0
LINE
  5
20331
330
20316
100
AcDbEntity
  8
0
100
AcDbLine
 10
0.0
 20
8.763099999991255
 30
0.0
 11
1.420999999998571
 21
8.763099999991255
 31
0.0
1001
ACAD
1000
ASC_BOUNDS
1002
{
1070
    19
1005
2035E
1002
}
  0
LINE
  5
20332
330
20316
100
AcDbEntity
  8
0
100
AcDbLine
 10
4.617999999995391
 20
8.763099999991255
 30
0.0
 11
6.432999999993513
 21
8.763099999991255
 31
0.0
1001
ACAD
1000
ASC_BOUNDS
1002
{
1070
    19
1005
20359
1002
}
  0
LINE
  5
20333
330
20316
100
AcDbEntity
  8
0
100
AcDbLine
 10
14.32399999998563
 20
3.315799999996671
 30
0.0
 11
12.02999999998792
 21
8.763099999991255
 31
0.0
1001
ACAD
1000
ASC_BOUNDS
1002
{
1070
    19
1005
2035A
1002
}
  0
LINE
  5
20334
330
20316
100
AcDbEntity
  8
0
100
AcDbLine
 10
10.06399999998996
 20
3.670999999996297
 30
0.0
 11
9.236999999990758
 21
5.5200999999945
 31
0.0
1001
ACAD
1000
ASC_BOUNDS
1002
{
1070
    19
1005
20359
1002
}
  0
LINE
  5
20335
330
20316
100
AcDbEntity
  8
0
100
AcDbLine
 10
8.409999999991555
 20
3.670999999996297
 30
0.0
 11
9.236999999990758
 21
5.5200999999945
 31
0.0
1001
ACAD
1000
ASC_BOUNDS
1002
{
1070
    19
1005
20359
1002
}
  0
LINE
  5
20336
330
20316
100
AcDbEntity
  8
0
100
AcDbLine
 10
8.409999999991555
 20
3.670999999996297
 30
0.0
 11
10.06399999998996
 21
3.670999999996297
 31
0.0
1001
ACAD
1000
ASC_BOUNDS
1002
{
1070
    19
1005
20359
1002
}
  0
LINE
  5
20337
330
20316
100
AcDbEntity
  8
0
100
AcDbLine
 10
10.53899999998941
 20
8.763099999991255
 30
0.0
 11
12.02999999998792
 21
8.763099999991255
 31
0.0
1001
ACAD
1000
ASC_BOUNDS
1002
{
1070
    19
1005
2035A
1002
}
  0
LINE
  5
20338
330
20316
100
AcDbEntity
  8
0
100
AcDbLine
 10
22.7389999999773
 20
3.670999999996297
 30
0.0
 11
23.56599999997638
 21
5.5200999999945
 31
0.0
1001
ACAD
1000
ASC_BOUNDS
1002
{
1070
    19
1005
2035B
1002
}
  0
LINE
  5
20339
330
20316
100
AcDbEntity
  8
0
100
AcDbLine
 10
22.7389999999773
 20
3.670999999996297
 30
0.0
 11
24.39299999997559
 21
3.670999999996297
 31
0.0
1001
ACAD
1000
ASC_BOUNDS
1002
{
1070
    19
1005
2035B
1002
}
  0
LINE
  5
2033A
330
20316
100
AcDbEntity
  8
0
100
AcDbLine
 10
18.59799999998143
 20
3.315799999996671
 30
0.0
 11
20.89099999997916
 21
8.763099999991255
 31
0.0
1001
ACAD
1000
ASC_BOUNDS
1002
{
1070
    19
1005
2035A
1002
}
  0
LINE
  5
2033B
330
20316
100
AcDbEntity
  8
0
100
AcDbLine
 10
18.59799999998143
 20
3.315799999996671
 30
0.0
 11
16.46099999998353
 21
8.999899999990987
 31
0.0
1001
ACAD
1000
ASC_BOUNDS
1002
{
1070
    19
1005
2035A
1002
}
  0
LINE
  5
2033C
330
20316
100
AcDbEntity
  8
0
100
AcDbLine
 10
20.89099999997916
 20
8.763099999991255
 30
0.0
 11
22.38199999997767
 21
8.763099999991255
 31
0.0
1001
ACAD
1000
ASC_BOUNDS
1002
{
1070
    19
1005
2035A
1002
}
  0
LINE
  5
2033D
330
20316
100
AcDbEntity
  8
0
100
AcDbLine
 10
24.39299999997559
 20
3.670999999996297
 30
0.0
 11
23.56599999997638
 21
5.5200999999945
 31
0.0
1001
ACAD
1000
ASC_BOUNDS
1002
{
1070
    19
1005
2035B
1002
}
  0
LINE
  5
2033E
330
20316
100
AcDbEntity
  8
0
100
AcDbLine
 10
44.99999999995498
 20
-0.2368999999997641
 30
0.0
 11
40.02599999995994
 21
5.341799999994635
 31
0.0
1001
ACAD
1000
ASC_BOUNDS
1002
{
1070
    19
1005
2035D
1002
}
  0
LINE
  5
2033F
330
20316
100
AcDbEntity
  8
0
100
AcDbLine
 10
40.02599999995994
 20
5.341799999994635
 30
0.0
 11
40.02599999995994
 21
0.0
 31
0.0
1001
ACAD
1000
ASC_BOUNDS
1002
{
1070
    19
1005
2035D
1002
}
  0
LINE
  5
20340
330
20316
100
AcDbEntity
  8
0
100
AcDbLine
 10
38.60499999996136
 20
8.999999999991019
 30
0.0
 11
38.60499999996136
 21
0.0
 31
0.0
1001
ACAD
1000
ASC_BOUNDS
1002
{
1070
    19
1005
2035D
1002
}
  0
LINE
  5
20341
330
20316
100
AcDbEntity
  8
0
100
AcDbLine
 10
44.99999999995498
 20
8.763099999991255
 30
0.0
 11
44.99999999995498
 21
-0.2368999999997641
 31
0.0
1001
ACAD
1000
ASC_BOUNDS
1002
{
1070
    19
1005
2035D
1002
}
  0
LINE
  5
20342
330
20316
100
AcDbEntity
  8
0
100
AcDbLine
 10
38.60499999996136
 20
0.0
 30
0.0
 11
40.02599999995994
 21
0.0
 31
0.0
1001
ACAD
1000
ASC_BOUNDS
1002
{
1070
    19
1005
2035D
1002
}
  0
LINE
  5
20343
330
20316
100
AcDbEntity
  8
0
100
AcDbLine
 10
43.57899999995641
 20
3.421199999996588
 30
0.0
 11
38.60499999996136
 21
8.999899999990987
 31
0.0
1001
ACAD
1000
ASC_BOUNDS
1002
{
1070
    19
1005
2035D
1002
}
  0
LINE
  5
20344
330
20316
100
AcDbEntity
  8
0
100
AcDbLine
 10
43.57899999995641
 20
8.763099999991255
 30
0.0
 11
43.57899999995641
 21
3.421199999996588
 31
0.0
1001
ACAD
1000
ASC_BOUNDS
1002
{
1070
    19
1005
2035D
1002
}
  0
LINE
  5
20345
330
20316
100
AcDbEntity
  8
0
100
AcDbLine
 10
43.57899999995641
 20
8.763099999991255
 30
0.0
 11
44.99999999995498
 21
8.763099999991255
 31
0.0
1001
ACAD
1000
ASC_BOUNDS
1002
{
1070
    19
1005
2035D
1002
}
  0
LINE
  5
20346
330
20316
100
AcDbEntity
  8
0
100
AcDbLine
 10
37.67199999996831
 20
8.763099999991255
 30
0.0
 11
36.23199999996837
 21
8.763099999991255
 31
0.0
  0
LINE
  5
20347
330
20316
100
AcDbEntity
  8
0
100
AcDbLine
 10
31.64199999996833
 20
8.763099999991255
 30
0.0
 11
31.64199999996833
 21
2.481619422925121
 31
0.0
  0
LINE
  5
20348
330
20316
100
AcDbEntity
  8
0
100
AcDbLine
 10
37.67199999996831
 20
8.763099999991255
 30
0.0
 11
37.67199999996831
 21
2.481619422925121
 31
0.0
  0
LINE
  5
20349
330
20316
100
AcDbEntity
  8
0
100
AcDbLine
 10
36.23199999996837
 20
8.763099999991255
 30
0.0
 11
36.23199999996837
 21
2.481619422925064
 31
0.0
  0
LINE
  5
2034A
330
20316
100
AcDbEntity
  8
0
100
AcDbLine
 10
33.08199999996839
 20
8.763099999991255
 30
0.0
 11
33.08199999996839
 21
2.481619422925121
 31
0.0
  0
ARC
  5
2034B
330
20316
100
AcDbEntity
  8
0
100
AcDbCircle
 10
34.65699999996832
 20
3.183099999991214
 30
0.0
 40
3.420000000000007
100
AcDbArc
 50
240.0000000000255
 51
299.9999999999766
  0
ARC
  5
2034C
330
20316
100
AcDbEntity
  8
0
100
AcDbCircle
 10
34.65699999996832
 20
3.183099999991214
 30
0.0
 40
1.97999999999999
100
AcDbArc
 50
240.000000000026
 51
299.9999999999703
  0
LINE
  5
2034D
330
20316
100
AcDbEntity
  8
0
100
AcDbLine
 10
33.08199999996828
 20
8.763099999991255
 30
0.0
 11
31.64199999996833
 21
8.763099999991255
 31
0.0
  0
ARC
  5
2034E
330
20316
100
AcDbEntity
  8
0
100
AcDbCircle
 10
35.06199999996829
 20
2.481619422925064
 30
0.0
 40
1.17
100
AcDbArc
 50
299.9999999999699
 51
0.0
  0
ARC
  5
2034F
330
20316
100
AcDbEntity
  8
0
100
AcDbCircle
 10
34.25199999996835
 20
2.481619422925121
 30
0.0
 40
1.17
100
AcDbArc
 50
180.0
 51
240.0000000000238
  0
ARC
  5
20350
330
20316
100
AcDbEntity
  8
0
100
AcDbCircle
 10
35.06199999996841
 20
2.481619422925121
 30
0.0
 40
2.61
100
AcDbArc
 50
299.9999999999756
 51
0.0
  0
ARC
  5
20351
330
20316
100
AcDbEntity
  8
0
100
AcDbCircle
 10
34.25199999996835
 20
2.481619422925121
 30
0.0
 40
2.61
100
AcDbArc
 50
180.0
 51
240.0000000000244
  0
LINE
  5
20352
330
20316
100
AcDbEntity
  8
0
100
AcDbLine
 10
29.30199999996933
 20
8.763099999991255
 30
0.0
 11
30.74199999996927
 21
8.763099999991255
 31
0.0
1001
ACAD
1000
ASC_BOUNDS
1002
{
1070
    19
1005
2035B
1002
}
  0
LINE
  5
20353
330
20316
100
AcDbEntity
  8
0
100
AcDbLine
 10
30.74199999996927
 20
8.763099999991255
 30
0.0
 11
30.74199999996927
 21
2.373099999991211
 31
0.0
1001
ACAD
1000
ASC_BOUNDS
1002
{
1070
    19
1005
2035B
1002
}
  0
LINE
  5
20354
330
20316
100
AcDbEntity
  8
0
100
AcDbLine
 10
26.02015566812236
 20
0.0330999999912365
 30
0.0
 11
28.40199999996923
 21
0.0330999999912365
 31
0.0
1001
ACAD
1000
ASC_BOUNDS
1002
{
1070
    19
1005
2035B
1002
}
  0
LINE
  5
20355
330
20316
100
AcDbEntity
  8
0
100
AcDbLine
 10
29.30199999996933
 20
8.763099999991255
 30
0.0
 11
29.30199999996933
 21
2.283099999991236
 31
0.0
1001
ACAD
1000
ASC_BOUNDS
1002
{
1070
    19
1005
2035B
1002
}
  0
LINE
  5
20356
330
20316
100
AcDbEntity
  8
0
100
AcDbLine
 10
26.97358892824991
 20
1.383099999991202
 30
0.0
 11
28.40199999996923
 21
1.383099999991202
 31
0.0
1001
ACAD
1000
ASC_BOUNDS
1002
{
1070
    19
1005
2035B
1002
}
  0
ARC
  5
20357
330
20316
100
AcDbEntity
  8
0
100
AcDbCircle
 10
28.40199999996923
 20
2.283099999991236
 30
0.0
 40
0.9
100
AcDbArc
 50
270.0
 51
0.0
1001
ACAD
1000
ASC_BOUNDS
1002
{
1070
    19
1005
2035B
1002
}
  0
ARC
  5
20358
330
20316
100
AcDbEntity
  8
0
100
AcDbCircle
 10
28.40199999996923
 20
2.373099999991211
 30
0.0
 40
2.34
100
AcDbArc
 50
270.0
 51
0.0
1001
ACAD
1000
ASC_BOUNDS
1002
{
1070
    19
1005
2035B
1002
}
  0
INSERT
  5
20359
330
20316
100
AcDbEntity
  8
0
100
AcDbBlockReference
  2
*X66
 10
0.0
 20
0.0
 30
0.0
1001
ACAD
1000
HATCH
1002
{
1070
    19
1000
ANSI37
1040
0.15
1040
0.0
1000
ASC_BOUNDS
1070
     2
1070
     2
1070
    12
1005
20318
1005
20319
1005
20320
1005
2032F
1005
20332
1005
20330
1005
20321
1005
20326
1005
20324
1005
20328
1005
20327
1005
20329
1070
     2
1070
     3
1005
20334
1005
20336
1005
20335
1000
ASC_SEEDPOINT
1011
3.614004224891801
1021
2.996669441146025
1031
0.0
1000
R14_HATCH_DATA
1000
20359
1011
1.0
1021
0.0
1031
0.0
1011
0.0
1021
1.0
1031
0.0
1011
0.0
1021
0.0
1031
1.0
1040
0.0
1010
0.0
1020
0.0
1030
1.0
1000
ANSI37
1070
     0
1070
     1
1071
        2
1071
        7
1070
     0
1070
     1
1071
       17
1040
13.26299999998673
1040
-0.0001000000000317
1040
9.236999999990758
1040
8.999899999990987
1040
9.236999999990758
1040
8.999999999991019
1040
5.657999999994331
1040
0.9999999999989768
1040
3.181999999996833
1040
4.668599999995308
1040
6.432999999993513
1040
8.763099999991255
1040
4.617999999995391
1040
8.763099999991255
1040
1.420999999998571
1040
4.736799999995242
1040
4.617999999995391
1040
-0.0001000000000317
1040
4.617999999995391
1040
0.0
1040
6.766999999993232
1040
0.0
1040
6.766999999993232
1040
-0.0001000000000317
1040
7.826999999992154
1040
2.368399999997621
1040
10.64699999998936
1040
2.368399999997621
1040
11.70599999998831
1040
-0.0001000000000317
1040
11.70599999998831
1040
0.0
1040
13.26299999998673
1040
0.0
1071
       12
1005
20318
1005
20319
1005
20320
1005
2032F
1005
20332
1005
20330
1005
20321
1005
20326
1005
20324
1005
20328
1005
20327
1005
20329
1071
       22
1070
     0
1070
     1
1071
        3
1040
9.236999999990758
1040
5.5200999999945
1040
10.06399999998996
1040
3.670999999996297
1040
8.409999999991555
1040
3.670999999996297
1071
        3
1005
20334
1005
20336
1005
20335
1070
     0
1070
     1
1040
0.0
1040
0.15
1070
     0
1070
     2
1040
0.7853981633974483
1040
49.29960901727088
1040
-10.17736998311392
1040
-0.3367596045400932
1040
0.3367596045400932
1070
     0
1040
2.356194490192345
1040
49.29960901727088
1040
-10.17736998311392
1040
-0.3367596045400932
1040
-0.3367596045400932
1070
     0
1040
0.0110235143455945
1071
        2
1040
3.614004224891801
1040
2.996669441146025
1040
0.0
1040
3.614004224891801
1040
2.996669441146025
1040
0.0
1002
}
  0
INSERT
  5
2035A
330
20316
100
AcDbEntity
  8
0
100
AcDbBlockReference
  2
*X67
 10
0.0
 20
0.0
 30
0.0
1001
ACAD
1000
HATCH
1002
{
1070
    19
1000
ANSI37
1040
0.15
1040
0.0
1000
ASC_BOUNDS
1070
     1
1070
     2
1070
    10
1005
2031A
1005
2031B
1005
2033C
1005
2033A
1005
2033B
1005
2032E
1005
20333
1005
20337
1005
2031D
1005
2031C
1000
ASC_SEEDPOINT
1011
14.73245321214324
1021
2.798246178283421
1031
0.0
1000
R14_HATCH_DATA
1000
2035A
1011
1.0
1021
0.0
1031
0.0
1011
0.0
1021
1.0
1031
0.0
1011
0.0
1021
0.0
1031
1.0
1040
0.0
1010
0.0
1020
0.0
1030
1.0
1000
ANSI37
1070
     0
1070
     1
1071
        1
1071
        7
1070
     0
1070
     1
1071
       10
1040
16.46099999998353
1040
5.432899999994561
1040
18.59199999998134
1040
-0.2368999999997641
1040
22.38199999997767
1040
8.763099999991255
1040
20.89099999997916
1040
8.763099999991255
1040
18.59799999998143
1040
3.315799999996671
1040
16.46099999998353
1040
8.999899999990987
1040
14.32399999998563
1040
3.315799999996671
1040
12.02999999998792
1040
8.763099999991255
1040
10.53899999998941
1040
8.763099999991255
1040
14.32899999998563
1040
-0.2368999999997641
1071
       10
1005
2031A
1005
2031B
1005
2033C
1005
2033A
1005
2033B
1005
2032E
1005
20333
1005
20337
1005
2031D
1005
2031C
1070
     0
1070
     1
1040
0.0
1040
0.15
1070
     0
1070
     2
1040
0.7853981633974483
1040
49.29960901727088
1040
-10.17736998311392
1040
-0.3367596045400932
1040
0.3367596045400932
1070
     0
1040
2.356194490192345
1040
49.29960901727088
1040
-10.17736998311392
1040
-0.3367596045400932
1040
-0.3367596045400932
1070
     0
1040
0.0110235143455945
1071
        1
1040
14.73245321214324
1040
2.798246178283421
1040
0.0
1002
}
  0
INSERT
  5
2035B
330
20316
100
AcDbEntity
  8
0
100
AcDbBlockReference
  2
*X68
 10
0.0
 20
0.0
 30
0.0
1001
ACAD
1000
HATCH
1002
{
1070
    19
1000
ANSI37
1040
0.15
1040
0.0
1000
ASC_BOUNDS
1070
     2
1070
     2
1070
    13
1005
2031E
1005
2032B
1005
2032C
1005
2032A
1005
2032D
1005
20354
1005
20358
1005
20353
1005
20352
1005
20355
1005
20357
1005
20356
1005
2031F
1070
     2
1070
     3
1005
20338
1005
2033D
1005
20339
1000
ASC_SEEDPOINT
1011
21.97929957367762
1021
3.294304244259308
1031
0.0
1000
R14_HATCH_DATA
1000
2035B
1011
1.0
1021
0.0
1031
0.0
1011
0.0
1021
1.0
1031
0.0
1011
0.0
1021
0.0
1031
1.0
1040
0.0
1010
0.0
1020
0.0
1030
1.0
1000
ANSI37
1070
     0
1070
     1
1071
        2
1071
        7
1070
     1
1070
     1
1071
       15
1040
23.56599999997638
1040
8.999899999990987
1040
0.0
1040
19.53899999998043
1040
-0.0001000000000317
1040
0.0
1040
19.53899999998043
1040
0.0
1040
0.0
1040
21.09599999997886
1040
0.0
1040
0.0
1040
21.09599999997886
1040
-0.0001000000000317
1040
0.0
1040
22.15599999997789
1040
2.368399999997621
1040
0.0
1040
24.97599999997499
1040
2.368399999997621
1040
0.0
1040
26.02015566812236
1040
0.0330999999912365
1040
0.0
1040
28.40199999996923
1040
0.0330999999912365
1040
0.414213562373095
1040
30.74199999996923
1040
2.373099999991211
1040
0.0
1040
30.74199999996927
1040
8.763099999991255
1040
0.0
1040
29.30199999996933
1040
8.763099999991255
1040
0.0
1040
29.30199999996933
1040
2.283099999991236
1040
-0.414213562373095
1040
28.40199999996923
1040
1.383099999991237
1040
0.0
1040
26.97358892824991
1040
1.383099999991202
1040
0.0
1071
       13
1005
2031E
1005
2032B
1005
2032C
1005
2032A
1005
2032D
1005
20354
1005
20358
1005
20353
1005
20352
1005
20355
1005
20357
1005
20356
1005
2031F
1071
       22
1070
     0
1070
     1
1071
        3
1040
22.7389999999773
1040
3.670999999996297
1040
23.56599999997638
1040
5.5200999999945
1040
24.39299999997559
1040
3.670999999996297
1071
        3
1005
20338
1005
2033D
1005
20339
1070
     0
1070
     1
1040
0.0
1040
0.15
1070
     0
1070
     2
1040
0.7853981633974483
1040
49.29960901727088
1040
-10.17736998311392
1040
-0.3367596045400932
1040
0.3367596045400932
1070
     0
1040
2.356194490192345
1040
49.29960901727088
1040
-10.17736998311392
1040
-0.3367596045400932
1040
-0.3367596045400932
1070
     0
1040
0.0110235143455945
1071
        2
1040
21.97929957367762
1040
3.294304244259308
1040
0.0
1040
21.97929957367762
1040
3.294304244259308
1040
0.0
1002
}
  0
INSERT
  5
2035C
330
20316
100
AcDbEntity
  8
0
100
AcDbBlockReference
  2
*X69
 10
0.0
 20
0.0
 30
0.0
1001
ACAD
1000
HATCH
1002
{
1070
    19
1000
ANSI37
1040
0.15
1040
0.0
1000
R14_HATCH_DATA
1000
2035C
1011
1.0
1021
0.0
1031
0.0
1011
0.0
1021
1.0
1031
0.0
1011
0.0
1021
0.0
1031
1.0
1040
0.0
1010
0.0
1020
0.0
1030
1.0
1000
ANSI37
1070
     0
1070
     1
1071
        1
1071
        7
1070
     1
1070
     1
1071
       12
1040
31.64199999996833
1040
2.481619422925121
1040
0.2679491924310942
1040
32.94699999997067
1040
0.2212931190493919
1040
0.2679491924301353
1040
36.36699999995983
1040
0.2212931190459813
1040
0.2679491924321411
1040
37.67199999996831
1040
2.481619422928361
1040
0.0
1040
37.67199999996831
1040
8.763099999991255
1040
0.0
1040
36.23199999996837
1040
8.763099999991255
1040
0.0
1040
36.23199999996837
1040
2.481619422925064
1040
-0.2679491924310291
1040
35.64699999996708
1040
1.468369700498386
1040
-0.267949192430519
1040
33.66699999997093
1040
1.468369700497703
1040
-0.267949192431809
1040
33.08199999996839
1040
2.481619422926997
1040
0.0
1040
33.08199999996839
1040
8.763099999991255
1040
0.0
1040
31.64199999996833
1040
8.763099999991255
1040
0.0
1071
        0
1070
     0
1070
     1
1040
0.0
1040
0.15
1070
     0
1070
     2
1040
0.7853981633974483
1040
49.29960901727088
1040
-10.17736998311392
1040
-0.3367596045400932
1040
0.3367596045400932
1070
     0
1040
2.356194490192345
1040
49.29960901727088
1040
-10.17736998311392
1040
-0.3367596045400932
1040
-0.3367596045400932
1070
     0
1040
0.0110235143455945
1071
        1
1040
32.30357378967278
1040
3.988785755459219
1040
0.0
1002
}
  0
INSERT
  5
2035D
330
20316
100
AcDbEntity
  8
0
100
AcDbBlockReference
  2
*X70
 10
0.0
 20
0.0
 30
0.0
1001
ACAD
1000
HATCH
1002
{
1070
    19
1000
ANSI37
1040
0.15
1040
0.0
1000
ASC_BOUNDS
1070
     1
1070
     2
1070
     8
1005
2033E
1005
20341
1005
20345
1005
20344
1005
20343
1005
20340
1005
20342
1005
2033F
1000
ASC_SEEDPOINT
1011
39.74896370716704
1021
4.484843821435049
1031
0.0
1000
R14_HATCH_DATA
1000
2035D
1011
1.0
1021
0.0
1031
0.0
1011
0.0
1021
1.0
1031
0.0
1011
0.0
1021
0.0
1031
1.0
1040
0.0
1010
0.0
1020
0.0
1030
1.0
1000
ANSI37
1070
     0
1070
     1
1071
        1
1071
        7
1070
     0
1070
     1
1071
        9
1040
40.02599999995994
1040
5.341799999994635
1040
44.99999999995498
1040
-0.2368999999997641
1040
44.99999999995498
1040
8.763099999991255
1040
43.57899999995641
1040
8.763099999991255
1040
43.57899999995641
1040
3.421199999996588
1040
38.60499999996136
1040
8.999899999990987
1040
38.60499999996136
1040
8.999999999991019
1040
38.60499999996136
1040
0.0
1040
40.02599999995994
1040
0.0
1071
        8
1005
2033E
1005
20341
1005
20345
1005
20344
1005
20343
1005
20340
1005
20342
1005
2033F
1070
     0
1070
     1
1040
0.0
1040
0.15
1070
     0
1070
     2
1040
0.7853981633974483
1040
49.29960901727088
1040
-10.17736998311392
1040
-0.3367596045400932
1040
0.3367596045400932
1070
     0
1040
2.356194490192345
1040
49.29960901727088
1040
-10.17736998311392
1040
-0.3367596045400932
1040
-0.3367596045400932
1070
     0
1040
0.0110235143455945
1071
        1
1040
39.74896370716704
1040
4.484843821435049
1040
0.0
1002
}
  0
INSERT
  5
2035E
330
20316
100
AcDbEntity
  8
0
100
AcDbBlockReference
  2
*X71
 10
0.0
 20
0.0
 30
0.0
1001
ACAD
1000
HATCH
1002
{
1070
    19
1000
ANSI37
1040
0.15
1040
0.0
1000
ASC_BOUNDS
1070
     1
1070
     2
1070
     4
1005
20322
1005
20331
1005
20323
1005
20325
1000
ASC_SEEDPOINT
1011
1.079051535452663
1021
4.148538732891836
1031
0.0
1000
R14_HATCH_DATA
1000
2035E
1011
1.0
1021
0.0
1031
0.0
1011
0.0
1021
1.0
1031
0.0
1011
0.0
1021
0.0
1031
1.0
1040
0.0
1010
0.0
1020
0.0
1030
1.0
1000
ANSI37
1070
     0
1070
     1
1071
        1
1071
        7
1070
     0
1070
     1
1071
        4
1040
1.420999999998571
1040
0.0
1040
1.420999999998571
1040
8.763099999991255
1040
0.0
1040
8.763099999991255
1040
0.0
1040
0.0
1071
        4
1005
20322
1005
20331
1005
20323
1005
20325
1070
     0
1070
     1
1040
0.0
1040
0.15
1070
     0
1070
     2
1040
0.7853981633974483
1040
49.29960901727088
1040
-10.17736998311392
1040
-0.3367596045400932
1040
0.3367596045400932
1070
     0
1040
2.356194490192345
1040
49.29960901727088
1040
-10.17736998311392
1040
-0.3367596045400932
1040
-0.3367596045400932
1070
     0
1040
0.0053004257112761
1071
        1
1040
1.079051535452663
1040
4.148538732891836
1040
0.0
1002
}
  0
ENDBLK
  5
20A16
330
20316
100
AcDbEntity
  8
0
100
AcDbBlockEnd
  0
BLOCK
  5
21686
330
214F8
100
AcDbEntity
  8
0
100
AcDbBlockBegin
  2
*X66
 70
     1
 10
0.0
 20
0.0
 30
0.0
  3
*X66
  1

  0
LINE
  5
214F9
330
214F8
100
AcDbEntity
  8
0
  6
CONTINUOUS
100
AcDbLine
 10
3.418023043697893
 20
7.251849696850613
 30
0.0
 11
4.929273346838536
 21
8.763099999991255
 31
0.0
  0
LINE
  5
214FA
330
214F8
100
AcDbEntity
  8
0
  6
CONTINUOUS
100
AcDbLine
 10
1.483656411257782
 20
4.643963855330318
 30
0.0
 11
5.60279255591872
 21
8.763099999991255
 31
0.0
  0
LINE
  5
214FB
330
214F8
100
AcDbEntity
  8
0
  6
CONTINUOUS
100
AcDbLine
 10
1.755053947328235
 20
4.241842182320584
 30
0.0
 11
6.276311764998907
 21
8.763099999991255
 31
0.0
  0
LINE
  5
214FC
330
214F8
100
AcDbEntity
  8
0
  6
CONTINUOUS
100
AcDbLine
 10
2.026451483398688
 20
3.839720509310849
 30
0.0
 11
4.441040904851878
 21
6.254309930764039
 31
0.0
  0
LINE
  5
214FD
330
214F8
100
AcDbEntity
  8
0
  6
CONTINUOUS
100
AcDbLine
 10
2.297849019469139
 20
3.437598836301114
 30
0.0
 11
3.321765168359338
 21
4.461514985191313
 31
0.0
  0
LINE
  5
214FE
330
214F8
100
AcDbEntity
  8
0
  6
CONTINUOUS
100
AcDbLine
 10
2.569246555539591
 20
3.03547716329138
 30
0.0
 11
3.593163397972743
 21
4.059394005724531
 31
0.0
  0
LINE
  5
214FF
330
214F8
100
AcDbEntity
  8
0
  6
CONTINUOUS
100
AcDbLine
 10
2.840644091610043
 20
2.633355490281646
 30
0.0
 11
3.864561627586149
 21
3.657273026257751
 31
0.0
  0
LINE
  5
21500
330
214F8
100
AcDbEntity
  8
0
  6
CONTINUOUS
100
AcDbLine
 10
3.112041627680496
 20
2.231233817271911
 30
0.0
 11
4.135959857199554
 21
3.25515204679097
 31
0.0
  0
LINE
  5
21501
330
214F8
100
AcDbEntity
  8
0
  6
CONTINUOUS
100
AcDbLine
 10
3.383439163750948
 20
1.829112144262177
 30
0.0
 11
4.40735808681296
 21
2.853031067324189
 31
0.0
  0
LINE
  5
21502
330
214F8
100
AcDbEntity
  8
0
  6
CONTINUOUS
100
AcDbLine
 10
3.654836699821399
 20
1.426990471252442
 30
0.0
 11
4.678756316426365
 21
2.450910087857407
 31
0.0
  0
LINE
  5
21503
330
214F8
100
AcDbEntity
  8
0
  6
CONTINUOUS
100
AcDbLine
 10
3.926234235891853
 20
1.024868798242709
 30
0.0
 11
4.95015454603977
 21
2.048789108390626
 31
0.0
  0
LINE
  5
21504
330
214F8
100
AcDbEntity
  8
0
  6
CONTINUOUS
100
AcDbLine
 10
4.197631771962304
 20
0.6227471252329737
 30
0.0
 11
5.221552775653176
 21
1.646668128923846
 31
0.0
  0
LINE
  5
21505
330
214F8
100
AcDbEntity
  8
0
  6
CONTINUOUS
100
AcDbLine
 10
8.715877546767851
 20
7.835069736359266
 30
0.0
 11
9.435953450375058
 21
8.555145639966472
 31
0.0
  0
LINE
  5
21506
330
214F8
100
AcDbEntity
  8
0
  6
CONTINUOUS
100
AcDbLine
 10
8.170620868422267
 20
6.616293848933497
 30
0.0
 11
9.644120833743461
 21
8.08979381425469
 31
0.0
  0
LINE
  5
21507
330
214F8
100
AcDbEntity
  8
0
  6
CONTINUOUS
100
AcDbLine
 10
7.625364190076684
 20
5.397517961507727
 30
0.0
 11
9.852288217111864
 21
7.624441988542907
 31
0.0
  0
LINE
  5
21508
330
214F8
100
AcDbEntity
  8
0
  6
CONTINUOUS
100
AcDbLine
 10
7.080107511731101
 20
4.178742074081957
 30
0.0
 11
10.06045560048027
 21
7.159090162831124
 31
0.0
  0
LINE
  5
21509
330
214F8
100
AcDbEntity
  8
0
  6
CONTINUOUS
100
AcDbLine
 10
6.534850833385518
 20
2.959966186656187
 30
0.0
 11
10.26862298384867
 21
6.693738337119342
 31
0.0
  0
LINE
  5
2150A
330
214F8
100
AcDbEntity
  8
0
  6
CONTINUOUS
100
AcDbLine
 10
4.469029308032756
 20
0.2206254522232385
 30
0.0
 11
5.492951005266582
 21
1.244547149457064
 31
0.0
  0
LINE
  5
2150B
330
214F8
100
AcDbEntity
  8
0
  6
CONTINUOUS
100
AcDbLine
 10
5.989594155039935
 20
1.741190299230417
 30
0.0
 11
8.806950407233131
 21
4.558546551423613
 31
0.0
  0
LINE
  5
2150C
330
214F8
100
AcDbEntity
  8
0
  6
CONTINUOUS
100
AcDbLine
 10
9.401251593263643
 20
5.152847737454126
 30
0.0
 11
10.47679036721708
 21
6.228386511407559
 31
0.0
  0
LINE
  5
2150D
330
214F8
100
AcDbEntity
  8
0
  6
CONTINUOUS
100
AcDbLine
 10
4.921837203428691
 20
-0.0000858614610131
 30
0.0
 11
8.592923064886001
 21
3.670999999996297
 31
0.0
  0
LINE
  5
2150E
330
214F8
100
AcDbEntity
  8
0
  6
CONTINUOUS
100
AcDbLine
 10
9.609390446785305
 20
4.6874673818956
 30
0.0
 11
10.68495775058548
 21
5.763034685695775
 31
0.0
  0
LINE
  5
2150F
330
214F8
100
AcDbEntity
  8
0
  6
CONTINUOUS
100
AcDbLine
 10
5.595387755019432
 20
-0.0000545189504582
 30
0.0
 11
7.716137258923768
 21
2.120694984953879
 31
0.0
  0
LINE
  5
21510
330
214F8
100
AcDbEntity
  8
0
  6
CONTINUOUS
100
AcDbLine
 10
6.268938306610172
 20
-0.000023176439905
 30
0.0
 11
7.170485805526503
 21
0.9015243224764267
 31
0.0
  0
LINE
  5
21511
330
214F8
100
AcDbEntity
  8
0
  6
CONTINUOUS
100
AcDbLine
 10
7.963842273967511
 20
2.368399999997621
 30
0.0
 11
9.266442273966188
 21
3.670999999996297
 31
0.0
  0
LINE
  5
21512
330
214F8
100
AcDbEntity
  8
0
  6
CONTINUOUS
100
AcDbLine
 10
8.637361483047696
 20
2.368399999997621
 30
0.0
 11
9.939961483046375
 21
3.670999999996297
 31
0.0
  0
LINE
  5
21513
330
214F8
100
AcDbEntity
  8
0
  6
CONTINUOUS
100
AcDbLine
 10
9.817529300306965
 20
4.222087026337075
 30
0.0
 11
10.89312513395388
 21
5.297682859983993
 31
0.0
  0
LINE
  5
21514
330
214F8
100
AcDbEntity
  8
0
  6
CONTINUOUS
100
AcDbLine
 10
10.02566815382863
 20
3.756706670778549
 30
0.0
 11
11.10129251732229
 21
4.832331034272211
 31
0.0
  0
LINE
  5
21515
330
214F8
100
AcDbEntity
  8
0
  6
CONTINUOUS
100
AcDbLine
 10
9.310880692127883
 20
2.368399999997621
 30
0.0
 11
11.30945990069069
 21
4.366979208560428
 31
0.0
  0
LINE
  5
21516
330
214F8
100
AcDbEntity
  8
0
  6
CONTINUOUS
100
AcDbLine
 10
9.98439990120807
 20
2.36839999999762
 30
0.0
 11
11.5176272840591
 21
3.901627382848645
 31
0.0
  0
LINE
  5
21517
330
214F8
100
AcDbEntity
  8
0
  6
CONTINUOUS
100
AcDbLine
 10
10.65037369446246
 20
2.36085458417182
 30
0.0
 11
11.7257946674275
 21
3.436275557136862
 31
0.0
  0
LINE
  5
21518
330
214F8
100
AcDbEntity
  8
0
  6
CONTINUOUS
100
AcDbLine
 10
10.85847197087848
 20
1.895433651507656
 30
0.0
 11
11.9339620507959
 21
2.97092373142508
 31
0.0
  0
LINE
  5
21519
330
214F8
100
AcDbEntity
  8
0
  6
CONTINUOUS
100
AcDbLine
 10
11.0665702472945
 20
1.430012718843491
 30
0.0
 11
12.14212943416431
 21
2.505571905713296
 31
0.0
  0
LINE
  5
2151A
330
214F8
100
AcDbEntity
  8
0
  6
CONTINUOUS
100
AcDbLine
 10
11.27466852371052
 20
0.9645917861793256
 30
0.0
 11
12.35029681753271
 21
2.040220080001513
 31
0.0
  0
LINE
  5
2151B
330
214F8
100
AcDbEntity
  8
0
  6
CONTINUOUS
100
AcDbLine
 10
11.48276680012654
 20
0.4991708535151611
 30
0.0
 11
12.55846420090111
 21
1.57486825428973
 31
0.0
  0
LINE
  5
2151C
330
214F8
100
AcDbEntity
  8
0
  6
CONTINUOUS
100
AcDbLine
 10
11.69086507654257
 20
0.0337499208509957
 30
0.0
 11
12.76663158426952
 21
1.109516428577947
 31
0.0
  0
LINE
  5
2151D
330
214F8
100
AcDbEntity
  8
0
  6
CONTINUOUS
100
AcDbLine
 10
12.33057447873954
 20
-0.0000598860322123
 30
0.0
 11
12.97479896763792
 21
0.6441646028661663
 31
0.0
  0
LINE
  5
2151E
330
214F8
100
AcDbEntity
  8
0
  6
CONTINUOUS
100
AcDbLine
 10
13.00413694809395
 20
-0.0000166257579952
 30
0.0
 11
13.18296635100632
 21
0.1788127771543824
 31
0.0
  0
LINE
  5
2151F
330
214F8
100
AcDbEntity
  8
0
  6
CONTINUOUS
100
AcDbLine
 10
4.772852165289667
 20
-0.000092794222212
 30
0.0
 11
4.296495091028902
 21
0.4762642800385528
 31
0.0
  0
LINE
  5
21520
330
214F8
100
AcDbEntity
  8
0
  6
CONTINUOUS
100
AcDbLine
 10
5.446340034776103
 20
-0.0000614546284616
 30
0.0
 11
2.898195908335625
 21
2.548082671812017
 31
0.0
  0
LINE
  5
21521
330
214F8
100
AcDbEntity
  8
0
  6
CONTINUOUS
100
AcDbLine
 10
6.119827904262539
 20
-0.0000301150347113
 30
0.0
 11
1.499896725642348
 21
4.61990106358548
 31
0.0
  0
LINE
  5
21522
330
214F8
100
AcDbEntity
  8
0
  6
CONTINUOUS
100
AcDbLine
 10
6.775136745476159
 20
0.0181802528318542
 30
0.0
 11
5.699826040202669
 21
1.093490958105344
 31
0.0
  0
LINE
  5
21523
330
214F8
100
AcDbEntity
  8
0
  6
CONTINUOUS
100
AcDbLine
 10
6.983376846288489
 20
0.4834593610997118
 30
0.0
 11
5.908008617934405
 21
1.558827589453796
 31
0.0
  0
LINE
  5
21524
330
214F8
100
AcDbEntity
  8
0
  6
CONTINUOUS
100
AcDbLine
 10
5.377063484962296
 20
1.416253513345719
 30
0.0
 11
1.702276957014131
 21
5.091040041293883
 31
0.0
  0
LINE
  5
21525
330
214F8
100
AcDbEntity
  8
0
  6
CONTINUOUS
100
AcDbLine
 10
3.978745891735324
 20
3.488090315652877
 30
0.0
 11
2.000373521109399
 21
5.466462686278803
 31
0.0
  0
LINE
  5
21526
330
214F8
100
AcDbEntity
  8
0
  6
CONTINUOUS
100
AcDbLine
 10
7.191616947100819
 20
0.948738469367568
 30
0.0
 11
6.11619119566614
 21
2.024164220802247
 31
0.0
  0
LINE
  5
21527
330
214F8
100
AcDbEntity
  8
0
  6
CONTINUOUS
100
AcDbLine
 10
7.399857047913149
 20
1.414017577635424
 30
0.0
 11
6.324373773397875
 21
2.489500852150698
 31
0.0
  0
LINE
  5
21528
330
214F8
100
AcDbEntity
  8
0
  6
CONTINUOUS
100
AcDbLine
 10
7.608097148725479
 20
1.879296685903281
 30
0.0
 11
6.53255635112961
 21
2.95483748349915
 31
0.0
  0
LINE
  5
21529
330
214F8
100
AcDbEntity
  8
0
  6
CONTINUOUS
100
AcDbLine
 10
7.816337249537808
 20
2.344575794171138
 30
0.0
 11
6.740738928861345
 21
3.420174114847601
 31
0.0
  0
LINE
  5
2152A
330
214F8
100
AcDbEntity
  8
0
  6
CONTINUOUS
100
AcDbLine
 10
3.310241080789734
 20
4.830114335678653
 30
0.0
 11
2.298470085204666
 21
5.84188533126372
 31
0.0
  0
LINE
  5
2152B
330
214F8
100
AcDbEntity
  8
0
  6
CONTINUOUS
100
AcDbLine
 10
3.60832983563551
 20
5.205544789913063
 30
0.0
 11
2.596566649299935
 21
6.217307976248638
 31
0.0
  0
LINE
  5
2152C
330
214F8
100
AcDbEntity
  8
0
  6
CONTINUOUS
100
AcDbLine
 10
3.906418590481286
 20
5.580975244147473
 30
0.0
 11
2.894663213395203
 21
6.592730621233557
 31
0.0
  0
LINE
  5
2152D
330
214F8
100
AcDbEntity
  8
0
  6
CONTINUOUS
100
AcDbLine
 10
4.204507345327062
 20
5.956405698381884
 30
0.0
 11
3.192759777490472
 21
6.968153266218474
 31
0.0
  0
LINE
  5
2152E
330
214F8
100
AcDbEntity
  8
0
  6
CONTINUOUS
100
AcDbLine
 10
8.466032252791512
 20
2.368399999997621
 30
0.0
 11
6.948921506593081
 21
3.885510746196053
 31
0.0
  0
LINE
  5
2152F
330
214F8
100
AcDbEntity
  8
0
  6
CONTINUOUS
100
AcDbLine
 10
9.139551461871699
 20
2.36839999999762
 30
0.0
 11
7.157104084324816
 21
4.350847377544504
 31
0.0
  0
LINE
  5
21530
330
214F8
100
AcDbEntity
  8
0
  6
CONTINUOUS
100
AcDbLine
 10
4.502596100172839
 20
6.331836152616295
 30
0.0
 11
3.49085634158574
 21
7.343575911203393
 31
0.0
  0
LINE
  5
21531
330
214F8
100
AcDbEntity
  8
0
  6
CONTINUOUS
100
AcDbLine
 10
4.800684855018615
 20
6.707266606850705
 30
0.0
 11
3.788952905681008
 21
7.718998556188312
 31
0.0
  0
LINE
  5
21532
330
214F8
100
AcDbEntity
  8
0
  6
CONTINUOUS
100
AcDbLine
 10
12.18154012887317
 20
-0.0000694579236642
 30
0.0
 11
11.32140332908496
 21
0.8600673418645499
 31
0.0
  0
LINE
  5
21533
330
214F8
100
AcDbEntity
  8
0
  6
CONTINUOUS
100
AcDbLine
 10
12.85501608323566
 20
-0.0000262032059659
 30
0.0
 11
10.77672456435345
 21
2.078265315676246
 31
0.0
  0
LINE
  5
21534
330
214F8
100
AcDbEntity
  8
0
  6
CONTINUOUS
100
AcDbLine
 10
9.813070670951886
 20
2.36839999999762
 30
0.0
 11
8.51047067095321
 21
3.670999999996297
 31
0.0
  0
LINE
  5
21535
330
214F8
100
AcDbEntity
  8
0
  6
CONTINUOUS
100
AcDbLine
 10
10.48658988003207
 20
2.36839999999762
 30
0.0
 11
9.183989880033396
 21
3.670999999996297
 31
0.0
  0
LINE
  5
21536
330
214F8
100
AcDbEntity
  8
0
  6
CONTINUOUS
100
AcDbLine
 10
8.441048632286794
 20
3.740422038662712
 30
0.0
 11
7.365286662056551
 21
4.816184008892956
 31
0.0
  0
LINE
  5
21537
330
214F8
100
AcDbEntity
  8
0
  6
CONTINUOUS
100
AcDbLine
 10
8.649187485808454
 20
4.205802394221237
 30
0.0
 11
7.573469239788285
 21
5.281520640241407
 31
0.0
  0
LINE
  5
21538
330
214F8
100
AcDbEntity
  8
0
  6
CONTINUOUS
100
AcDbLine
 10
5.098773609864391
 20
7.082697061085115
 30
0.0
 11
4.087049469776277
 21
8.09442120117323
 31
0.0
  0
LINE
  5
21539
330
214F8
100
AcDbEntity
  8
0
  6
CONTINUOUS
100
AcDbLine
 10
5.396862364710167
 20
7.458127515319526
 30
0.0
 11
4.385146033871544
 21
8.469843846158149
 31
0.0
  0
LINE
  5
2153A
330
214F8
100
AcDbEntity
  8
0
  6
CONTINUOUS
100
AcDbLine
 10
13.04801363231285
 20
0.4804954567970334
 30
0.0
 11
9.85750908911358
 21
3.670999999996297
 31
0.0
  0
LINE
  5
2153B
330
214F8
100
AcDbEntity
  8
0
  6
CONTINUOUS
100
AcDbLine
 10
8.857326339330116
 20
4.671182749779763
 30
0.0
 11
7.781651817520021
 21
5.746857271589858
 31
0.0
  0
LINE
  5
2153C
330
214F8
100
AcDbEntity
  8
0
  6
CONTINUOUS
100
AcDbLine
 10
5.694951119555943
 20
7.833557969553937
 30
0.0
 11
4.765409089118624
 21
8.763099999991255
 31
0.0
  0
LINE
  5
2153D
330
214F8
100
AcDbEntity
  8
0
  6
CONTINUOUS
100
AcDbLine
 10
12.50286117236978
 20
1.699167125820288
 30
0.0
 11
9.68611877250287
 21
4.515909525687196
 31
0.0
  0
LINE
  5
2153E
330
214F8
100
AcDbEntity
  8
0
  6
CONTINUOUS
100
AcDbLine
 10
9.065465192851777
 20
5.136563105338288
 30
0.0
 11
7.989834395251757
 21
6.21219390293831
 31
0.0
  0
LINE
  5
2153F
330
214F8
100
AcDbEntity
  8
0
  6
CONTINUOUS
100
AcDbLine
 10
5.993039874401719
 20
8.208988423788346
 30
0.0
 11
5.43892829819881
 21
8.763099999991255
 31
0.0
  0
LINE
  5
21540
330
214F8
100
AcDbEntity
  8
0
  6
CONTINUOUS
100
AcDbLine
 10
11.95770871242671
 20
2.917838794843543
 30
0.0
 11
8.19801697298349
 21
6.677530534286761
 31
0.0
  0
LINE
  5
21541
330
214F8
100
AcDbEntity
  8
0
  6
CONTINUOUS
100
AcDbLine
 10
6.291128629247495
 20
8.584418878022756
 30
0.0
 11
6.112447507278997
 21
8.763099999991255
 31
0.0
  0
LINE
  5
21542
330
214F8
100
AcDbEntity
  8
0
  6
CONTINUOUS
100
AcDbLine
 10
11.41255625248364
 20
4.136510463866797
 30
0.0
 11
8.406199550715227
 21
7.142867165635211
 31
0.0
  0
LINE
  5
21543
330
214F8
100
AcDbEntity
  8
0
  6
CONTINUOUS
100
AcDbLine
 10
10.86740379254057
 20
5.355182132890051
 30
0.0
 11
8.614382128446962
 21
7.608203796983664
 31
0.0
  0
LINE
  5
21544
330
214F8
100
AcDbEntity
  8
0
  6
CONTINUOUS
100
AcDbLine
 10
10.3222513325975
 20
6.573853801913305
 30
0.0
 11
8.822564706178696
 21
8.073540428332114
 31
0.0
  0
LINE
  5
21545
330
214F8
100
AcDbEntity
  8
0
  6
CONTINUOUS
100
AcDbLine
 10
9.777098872654436
 20
7.792525470936562
 30
0.0
 11
9.030747283910433
 21
8.538877059680566
 31
0.0
  0
ENDBLK
  5
21687
330
214F8
100
AcDbEntity
  8
0
100
AcDbBlockEnd
  0
BLOCK
  5
21688
330
21546
100
AcDbEntity
  8
0
100
AcDbBlockBegin
  2
*X67
 70
     1
 10
0.0
 20
0.0
 30
0.0
  3
*X67
  1

  0
LINE
  5
21547
330
21546
100
AcDbEntity
  8
0
  6
CONTINUOUS
100
AcDbLine
 10
10.67292308101235
 20
8.445076852443387
 30
0.0
 11
10.99094622856022
 21
8.763099999991255
 31
0.0
  0
LINE
  5
21548
330
21546
100
AcDbEntity
  8
0
  6
CONTINUOUS
100
AcDbLine
 10
10.87250383178748
 20
7.971138394138331
 30
0.0
 11
11.6644654376404
 21
8.763099999991255
 31
0.0
  0
LINE
  5
21549
330
21546
100
AcDbEntity
  8
0
  6
CONTINUOUS
100
AcDbLine
 10
11.07208458256261
 20
7.497199935833273
 30
0.0
 11
12.12126590876355
 21
8.546381262034211
 31
0.0
  0
LINE
  5
2154A
330
21546
100
AcDbEntity
  8
0
  6
CONTINUOUS
100
AcDbLine
 10
11.27166533333774
 20
7.023261477528216
 30
0.0
 11
12.32085164573666
 21
8.072447789927136
 31
0.0
  0
LINE
  5
2154B
330
21546
100
AcDbEntity
  8
0
  6
CONTINUOUS
100
AcDbLine
 10
11.47124608411287
 20
6.549323019223158
 30
0.0
 11
12.52043738270977
 21
7.59851431782006
 31
0.0
  0
LINE
  5
2154C
330
21546
100
AcDbEntity
  8
0
  6
CONTINUOUS
100
AcDbLine
 10
11.670826834888
 20
6.075384560918101
 30
0.0
 11
12.72002311968288
 21
7.124580845712984
 31
0.0
  0
LINE
  5
2154D
330
21546
100
AcDbEntity
  8
0
  6
CONTINUOUS
100
AcDbLine
 10
11.87040758566313
 20
5.601446102613043
 30
0.0
 11
12.91960885665599
 21
6.650647373605907
 31
0.0
  0
LINE
  5
2154E
330
21546
100
AcDbEntity
  8
0
  6
CONTINUOUS
100
AcDbLine
 10
12.06998833643825
 20
5.127507644307986
 30
0.0
 11
13.1191945936291
 21
6.176713901498832
 31
0.0
  0
LINE
  5
2154F
330
21546
100
AcDbEntity
  8
0
  6
CONTINUOUS
100
AcDbLine
 10
12.26956908721338
 20
4.65356918600293
 30
0.0
 11
13.31878033060221
 21
5.702780429391757
 31
0.0
  0
LINE
  5
21550
330
21546
100
AcDbEntity
  8
0
  6
CONTINUOUS
100
AcDbLine
 10
12.46914983798851
 20
4.179630727697873
 30
0.0
 11
13.51836606757532
 21
5.228846957284683
 31
0.0
  0
LINE
  5
21551
330
21546
100
AcDbEntity
  8
0
  6
CONTINUOUS
100
AcDbLine
 10
12.66873058876364
 20
3.705692269392816
 30
0.0
 11
13.71795180454843
 21
4.754913485177607
 31
0.0
  0
LINE
  5
21552
330
21546
100
AcDbEntity
  8
0
  6
CONTINUOUS
100
AcDbLine
 10
12.86831133953877
 20
3.231753811087759
 30
0.0
 11
13.91753754152154
 21
4.280980013070531
 31
0.0
  0
LINE
  5
21553
330
21546
100
AcDbEntity
  8
0
  6
CONTINUOUS
100
AcDbLine
 10
13.0678920903139
 20
2.757815352782702
 30
0.0
 11
14.11712327849465
 21
3.807046540963456
 31
0.0
  0
LINE
  5
21554
330
21546
100
AcDbEntity
  8
0
  6
CONTINUOUS
100
AcDbLine
 10
13.26747284108903
 20
2.283876894477644
 30
0.0
 11
14.31670901546777
 21
3.333113068856379
 31
0.0
  0
LINE
  5
21555
330
21546
100
AcDbEntity
  8
0
  6
CONTINUOUS
100
AcDbLine
 10
16.36767838827179
 20
8.751678487061342
 30
0.0
 11
16.50332410898388
 21
8.887324207773432
 31
0.0
  0
LINE
  5
21556
330
21546
100
AcDbEntity
  8
0
  6
CONTINUOUS
100
AcDbLine
 10
15.96190732182191
 20
7.67238821153127
 30
0.0
 11
16.68735328004734
 21
8.397834169756699
 31
0.0
  0
LINE
  5
21557
330
21546
100
AcDbEntity
  8
0
  6
CONTINUOUS
100
AcDbLine
 10
15.55613625537202
 20
6.593097936001196
 30
0.0
 11
16.87138245111079
 21
7.908344131739965
 31
0.0
  0
LINE
  5
21558
330
21546
100
AcDbEntity
  8
0
  6
CONTINUOUS
100
AcDbLine
 10
15.15036518892213
 20
5.513807660471122
 30
0.0
 11
17.05541162217424
 21
7.418854093723231
 31
0.0
  0
LINE
  5
21559
330
21546
100
AcDbEntity
  8
0
  6
CONTINUOUS
100
AcDbLine
 10
14.74459412247225
 20
4.434517384941048
 30
0.0
 11
17.2394407932377
 21
6.929364055706499
 31
0.0
  0
LINE
  5
2155A
330
21546
100
AcDbEntity
  8
0
  6
CONTINUOUS
100
AcDbLine
 10
14.33882305602236
 20
3.355227109410975
 30
0.0
 11
17.42346996430115
 21
6.439874017689766
 31
0.0
  0
LINE
  5
2155B
330
21546
100
AcDbEntity
  8
0
  6
CONTINUOUS
100
AcDbLine
 10
13.46705359186416
 20
1.809938436172586
 30
0.0
 11
16.0819338255367
 21
4.424818669845129
 31
0.0
  0
LINE
  5
2155C
330
21546
100
AcDbEntity
  8
0
  6
CONTINUOUS
100
AcDbLine
 10
16.63283254238972
 20
4.975717386698149
 30
0.0
 11
17.60749913536461
 21
5.950383979673033
 31
0.0
  0
LINE
  5
2155D
330
21546
100
AcDbEntity
  8
0
  6
CONTINUOUS
100
AcDbLine
 10
13.66663434263929
 20
1.335999977867529
 30
0.0
 11
15.67604797733754
 21
3.345413612565779
 31
0.0
  0
LINE
  5
2155E
330
21546
100
AcDbEntity
  8
0
  6
CONTINUOUS
100
AcDbLine
 10
13.86621509341442
 20
0.8620615195624723
 30
0.0
 11
15.27016212913838
 21
2.26600855528643
 31
0.0
  0
LINE
  5
2155F
330
21546
100
AcDbEntity
  8
0
  6
CONTINUOUS
100
AcDbLine
 10
16.81682257348267
 20
4.486188208710908
 30
0.0
 11
17.79152830642806
 21
5.460893941656299
 31
0.0
  0
LINE
  5
21560
330
21546
100
AcDbEntity
  8
0
  6
CONTINUOUS
100
AcDbLine
 10
17.00081260457561
 20
3.996659030723667
 30
0.0
 11
17.97555747749151
 21
4.971403903639565
 31
0.0
  0
LINE
  5
21561
330
21546
100
AcDbEntity
  8
0
  6
CONTINUOUS
100
AcDbLine
 10
20.74362343514722
 20
8.412989070375462
 30
0.0
 11
21.09373436476302
 21
8.763099999991256
 31
0.0
  0
LINE
  5
21562
330
21546
100
AcDbEntity
  8
0
  6
CONTINUOUS
100
AcDbLine
 10
20.25401257174777
 20
7.249858997895826
 30
0.0
 11
21.7672535738432
 21
8.763099999991255
 31
0.0
  0
LINE
  5
21563
330
21546
100
AcDbEntity
  8
0
  6
CONTINUOUS
100
AcDbLine
 10
14.06579584418955
 20
0.3881230612574149
 30
0.0
 11
14.86427628093921
 21
1.186603498007082
 31
0.0
  0
LINE
  5
21564
330
21546
100
AcDbEntity
  8
0
  6
CONTINUOUS
100
AcDbLine
 10
14.26537659496467
 20
-0.0858153970476412
 30
0.0
 11
14.45839043274005
 21
0.1071984407277329
 31
0.0
  0
LINE
  5
21565
330
21546
100
AcDbEntity
  8
0
  6
CONTINUOUS
100
AcDbLine
 10
17.18480263566856
 20
3.507129852736426
 30
0.0
 11
18.15958664855496
 21
4.481913865622833
 31
0.0
  0
LINE
  5
21566
330
21546
100
AcDbEntity
  8
0
  6
CONTINUOUS
100
AcDbLine
 10
17.3687926667615
 20
3.017600674749186
 30
0.0
 11
18.34361581961842
 21
3.9924238276061
 31
0.0
  0
LINE
  5
21567
330
21546
100
AcDbEntity
  8
0
  6
CONTINUOUS
100
AcDbLine
 10
19.76440170834832
 20
6.086728925416191
 30
0.0
 11
22.33924590259489
 21
8.661573119662755
 31
0.0
  0
LINE
  5
21568
330
21546
100
AcDbEntity
  8
0
  6
CONTINUOUS
100
AcDbLine
 10
19.27479084494887
 20
4.923598852936555
 30
0.0
 11
21.84929622842713
 21
7.498104236414807
 31
0.0
  0
LINE
  5
21569
330
21546
100
AcDbEntity
  8
0
  6
CONTINUOUS
100
AcDbLine
 10
17.55278269785445
 20
2.528071496761945
 30
0.0
 11
18.52764499068187
 21
3.502933789589366
 31
0.0
  0
LINE
  5
2156A
330
21546
100
AcDbEntity
  8
0
  6
CONTINUOUS
100
AcDbLine
 10
18.78517998154942
 20
3.760468780456919
 30
0.0
 11
21.35934655425936
 21
6.33463535316686
 31
0.0
  0
LINE
  5
2156B
330
21546
100
AcDbEntity
  8
0
  6
CONTINUOUS
100
AcDbLine
 10
17.73677272894739
 20
2.038542318774704
 30
0.0
 11
20.8693968800916
 21
5.171166469918914
 31
0.0
  0
LINE
  5
2156C
330
21546
100
AcDbEntity
  8
0
  6
CONTINUOUS
100
AcDbLine
 10
17.92076276004034
 20
1.549013140787464
 30
0.0
 11
20.37944720592384
 21
4.007697586670968
 31
0.0
  0
LINE
  5
2156D
330
21546
100
AcDbEntity
  8
0
  6
CONTINUOUS
100
AcDbLine
 10
18.10475279113329
 20
1.059483962800223
 30
0.0
 11
19.88949753175608
 21
2.84422870342302
 31
0.0
  0
LINE
  5
2156E
330
21546
100
AcDbEntity
  8
0
  6
CONTINUOUS
100
AcDbLine
 10
18.28874282222623
 20
0.5699547848129822
 30
0.0
 11
19.39954785758832
 21
1.680759820175074
 31
0.0
  0
LINE
  5
2156F
330
21546
100
AcDbEntity
  8
0
  6
CONTINUOUS
100
AcDbLine
 10
18.47273285331918
 20
0.0804256068257416
 30
0.0
 11
18.90959818342056
 21
0.517290936927127
 31
0.0
  0
LINE
  5
21570
330
21546
100
AcDbEntity
  8
0
  6
CONTINUOUS
100
AcDbLine
 10
14.3590401358224
 20
-0.1570118376323384
 30
0.0
 11
14.24903296539946
 21
-0.0470046672093929
 31
0.0
  0
LINE
  5
21571
330
21546
100
AcDbEntity
  8
0
  6
CONTINUOUS
100
AcDbLine
 10
14.54309291258661
 20
0.332454594683643
 30
0.0
 11
13.75908329123172
 21
1.116464216038529
 31
0.0
  0
LINE
  5
21572
330
21546
100
AcDbEntity
  8
0
  6
CONTINUOUS
100
AcDbLine
 10
14.72714568935081
 20
0.8219210269996244
 30
0.0
 11
13.26913361706399
 21
2.27993309928645
 31
0.0
  0
LINE
  5
21573
330
21546
100
AcDbEntity
  8
0
  6
CONTINUOUS
100
AcDbLine
 10
14.91119846611502
 20
1.311387459315606
 30
0.0
 11
12.77918394289625
 21
3.443401982534371
 31
0.0
  0
LINE
  5
21574
330
21546
100
AcDbEntity
  8
0
  6
CONTINUOUS
100
AcDbLine
 10
15.09525124287922
 20
1.800853891631587
 30
0.0
 11
12.28923426872852
 21
4.606870865782293
 31
0.0
  0
LINE
  5
21575
330
21546
100
AcDbEntity
  8
0
  6
CONTINUOUS
100
AcDbLine
 10
15.27930401964343
 20
2.290320323947569
 30
0.0
 11
11.79928459456078
 21
5.770339749030213
 31
0.0
  0
LINE
  5
21576
330
21546
100
AcDbEntity
  8
0
  6
CONTINUOUS
100
AcDbLine
 10
15.46335679640763
 20
2.77978675626355
 30
0.0
 11
14.48885470994921
 21
3.754288842721972
 31
0.0
  0
LINE
  5
21577
330
21546
100
AcDbEntity
  8
0
  6
CONTINUOUS
100
AcDbLine
 10
13.88507249233704
 20
4.358071060334137
 30
0.0
 11
11.30933492039305
 21
6.933808632278135
 31
0.0
  0
LINE
  5
21578
330
21546
100
AcDbEntity
  8
0
  6
CONTINUOUS
100
AcDbLine
 10
18.75840522805855
 20
0.1582575336928151
 30
0.0
 11
18.25383727664818
 21
0.6628254851031863
 31
0.0
  0
LINE
  5
21579
330
21546
100
AcDbEntity
  8
0
  6
CONTINUOUS
100
AcDbLine
 10
15.64740957317184
 20
3.269253188579531
 30
0.0
 11
14.67288388101266
 21
4.243778880738705
 31
0.0
  0
LINE
  5
2157A
330
21546
100
AcDbEntity
  8
0
  6
CONTINUOUS
100
AcDbLine
 10
13.39509276772158
 20
5.521569994029786
 30
0.0
 11
10.81938524622531
 21
8.097277515526056
 31
0.0
  0
LINE
  5
2157B
330
21546
100
AcDbEntity
  8
0
  6
CONTINUOUS
100
AcDbLine
 10
18.95798597883369
 20
0.6321959919978686
 30
0.0
 11
17.84825644852853
 21
1.741925522303024
 31
0.0
  0
LINE
  5
2157C
330
21546
100
AcDbEntity
  8
0
  6
CONTINUOUS
100
AcDbLine
 10
19.15756672960882
 20
1.106134450302922
 30
0.0
 11
17.44267562040888
 21
2.821025559502861
 31
0.0
  0
LINE
  5
2157D
330
21546
100
AcDbEntity
  8
0
  6
CONTINUOUS
100
AcDbLine
 10
15.83146234993604
 20
3.758719620895513
 30
0.0
 11
14.85691305207612
 21
4.733268918755439
 31
0.0
  0
LINE
  5
2157E
330
21546
100
AcDbEntity
  8
0
  6
CONTINUOUS
100
AcDbLine
 10
16.01551512670025
 20
4.248186053211494
 30
0.0
 11
15.04094222313957
 21
5.222758956772172
 31
0.0
  0
LINE
  5
2157F
330
21546
100
AcDbEntity
  8
0
  6
CONTINUOUS
100
AcDbLine
 10
12.90511304310612
 20
6.685068927725435
 30
0.0
 11
10.8270819708403
 21
8.763099999991255
 31
0.0
  0
LINE
  5
21580
330
21546
100
AcDbEntity
  8
0
  6
CONTINUOUS
100
AcDbLine
 10
12.41513331849066
 20
7.848567861421083
 30
0.0
 11
11.50060117992049
 21
8.763099999991255
 31
0.0
  0
LINE
  5
21581
330
21546
100
AcDbEntity
  8
0
  6
CONTINUOUS
100
AcDbLine
 10
19.35714748038395
 20
1.580072908607975
 30
0.0
 11
17.03709479228923
 21
3.900125596702697
 31
0.0
  0
LINE
  5
21582
330
21546
100
AcDbEntity
  8
0
  6
CONTINUOUS
100
AcDbLine
 10
19.55672823115909
 20
2.054011366913028
 30
0.0
 11
16.63151396416958
 21
4.979225633902534
 31
0.0
  0
LINE
  5
21583
330
21546
100
AcDbEntity
  8
0
  6
CONTINUOUS
100
AcDbLine
 10
16.19956790346445
 20
4.737652485527476
 30
0.0
 11
15.22497139420302
 21
5.712248994788904
 31
0.0
  0
LINE
  5
21584
330
21546
100
AcDbEntity
  8
0
  6
CONTINUOUS
100
AcDbLine
 10
16.38362068022866
 20
5.227118917843457
 30
0.0
 11
15.40900056526648
 21
6.201739032805637
 31
0.0
  0
LINE
  5
21585
330
21546
100
AcDbEntity
  8
0
  6
CONTINUOUS
100
AcDbLine
 10
19.75630898193422
 20
2.527949825218081
 30
0.0
 11
18.70774536448286
 21
3.576513442669441
 31
0.0
  0
LINE
  5
21586
330
21546
100
AcDbEntity
  8
0
  6
CONTINUOUS
100
AcDbLine
 10
19.95588973270936
 20
3.001888283523134
 30
0.0
 11
18.90726987211446
 21
4.050508144118028
 31
0.0
  0
LINE
  5
21587
330
21546
100
AcDbEntity
  8
0
  6
CONTINUOUS
100
AcDbLine
 10
20.15547048348449
 20
3.475826741828186
 30
0.0
 11
19.10679437974606
 21
4.524502845566614
 31
0.0
  0
LINE
  5
21588
330
21546
100
AcDbEntity
  8
0
  6
CONTINUOUS
100
AcDbLine
 10
20.35505123425962
 20
3.94976520013324
 30
0.0
 11
19.30631888737766
 21
4.998497547015201
 31
0.0
  0
LINE
  5
21589
330
21546
100
AcDbEntity
  8
0
  6
CONTINUOUS
100
AcDbLine
 10
20.55463198503475
 20
4.423703658438292
 30
0.0
 11
19.50584339500926
 21
5.472492248463787
 31
0.0
  0
LINE
  5
2158A
330
21546
100
AcDbEntity
  8
0
  6
CONTINUOUS
100
AcDbLine
 10
18.37481191085755
 20
3.909446896294752
 30
0.0
 11
15.59302973632993
 21
6.691229070822371
 31
0.0
  0
LINE
  5
2158B
330
21546
100
AcDbEntity
  8
0
  6
CONTINUOUS
100
AcDbLine
 10
17.96904084440766
 20
4.988737171824825
 30
0.0
 11
15.77705890739338
 21
7.180719108839104
 31
0.0
  0
LINE
  5
2158C
330
21546
100
AcDbEntity
  8
0
  6
CONTINUOUS
100
AcDbLine
 10
17.56326977795777
 20
6.068027447354899
 30
0.0
 11
15.96108807845684
 21
7.670209146855838
 31
0.0
  0
LINE
  5
2158D
330
21546
100
AcDbEntity
  8
0
  6
CONTINUOUS
100
AcDbLine
 10
17.15749871150789
 20
7.147317722884972
 30
0.0
 11
16.14511724952029
 21
8.15969918487257
 31
0.0
  0
LINE
  5
2158E
330
21546
100
AcDbEntity
  8
0
  6
CONTINUOUS
100
AcDbLine
 10
16.751727645058
 20
8.226607998415046
 30
0.0
 11
16.32914642058374
 21
8.649189222889303
 31
0.0
  0
LINE
  5
2158F
330
21546
100
AcDbEntity
  8
0
  6
CONTINUOUS
100
AcDbLine
 10
20.75421273580989
 20
4.897642116743345
 30
0.0
 11
19.70536790264086
 21
5.946486949912374
 31
0.0
  0
LINE
  5
21590
330
21546
100
AcDbEntity
  8
0
  6
CONTINUOUS
100
AcDbLine
 10
20.95379348658502
 20
5.371580575048398
 30
0.0
 11
19.90489241027246
 21
6.42048165136096
 31
0.0
  0
LINE
  5
21591
330
21546
100
AcDbEntity
  8
0
  6
CONTINUOUS
100
AcDbLine
 10
21.15337423736015
 20
5.845519033353452
 30
0.0
 11
20.10441691790406
 21
6.894476352809547
 31
0.0
  0
LINE
  5
21592
330
21546
100
AcDbEntity
  8
0
  6
CONTINUOUS
100
AcDbLine
 10
21.35295498813529
 20
6.319457491658505
 30
0.0
 11
20.30394142553566
 21
7.368471054258134
 31
0.0
  0
LINE
  5
21593
330
21546
100
AcDbEntity
  8
0
  6
CONTINUOUS
100
AcDbLine
 10
21.55253573891042
 20
6.793395949963558
 30
0.0
 11
20.50346593316726
 21
7.842465755706721
 31
0.0
  0
LINE
  5
21594
330
21546
100
AcDbEntity
  8
0
  6
CONTINUOUS
100
AcDbLine
 10
21.75211648968556
 20
7.267334408268612
 30
0.0
 11
20.70299044079886
 21
8.316460457155308
 31
0.0
  0
LINE
  5
21595
330
21546
100
AcDbEntity
  8
0
  6
CONTINUOUS
100
AcDbLine
 10
21.95169724046069
 20
7.741272866573663
 30
0.0
 11
20.9298701070431
 21
8.763099999991256
 31
0.0
  0
LINE
  5
21596
330
21546
100
AcDbEntity
  8
0
  6
CONTINUOUS
100
AcDbLine
 10
22.15127799123582
 20
8.215211324878716
 30
0.0
 11
21.60338931612328
 21
8.763099999991256
 31
0.0
  0
LINE
  5
21597
330
21546
100
AcDbEntity
  8
0
  6
CONTINUOUS
100
AcDbLine
 10
22.35085874201096
 20
8.689149783183769
 30
0.0
 11
22.27690852520347
 21
8.763099999991255
 31
0.0
  0
ENDBLK
  5
21689
330
21546
100
AcDbEntity
  8
0
100
AcDbBlockEnd
  0
BLOCK
  5
2168A
330
21598
100
AcDbEntity
  8
0
100
AcDbBlockBegin
  2
*X68
 70
     1
 10
0.0
 20
0.0
 30
0.0
  3
*X68
  1

  0
LINE
  5
21599
330
21598
100
AcDbEntity
  8
0
  6
CONTINUOUS
100
AcDbLine
 10
23.19462913593892
 20
8.169917934846424
 30
0.0
 11
23.70775465517246
 21
8.683043454079957
 31
0.0
  0
LINE
  5
2159A
330
21598
100
AcDbEntity
  8
0
  6
CONTINUOUS
100
AcDbLine
 10
22.64923161835078
 20
6.951001208178088
 30
0.0
 11
23.9159364069932
 21
8.217705996820516
 31
0.0
  0
LINE
  5
2159B
330
21598
100
AcDbEntity
  8
0
  6
CONTINUOUS
100
AcDbLine
 10
22.10383410076263
 20
5.732084481509751
 30
0.0
 11
24.12411815881395
 21
7.752368539561078
 31
0.0
  0
LINE
  5
2159C
330
21598
100
AcDbEntity
  8
0
  6
CONTINUOUS
100
AcDbLine
 10
21.55843658317447
 20
4.513167754841414
 30
0.0
 11
24.3322999106347
 21
7.287031082301639
 31
0.0
  0
LINE
  5
2159D
330
21598
100
AcDbEntity
  8
0
  6
CONTINUOUS
100
AcDbLine
 10
21.01303906558632
 20
3.294251028173077
 30
0.0
 11
24.54048166245544
 21
6.821693625042199
 31
0.0
  0
LINE
  5
2159E
330
21598
100
AcDbEntity
  8
0
  6
CONTINUOUS
100
AcDbLine
 10
20.46764154799817
 20
2.075334301504738
 30
0.0
 11
23.28571549467848
 21
4.89340824818505
 31
0.0
  0
LINE
  5
2159F
330
21598
100
AcDbEntity
  8
0
  6
CONTINUOUS
100
AcDbLine
 10
19.92224403041002
 20
0.8564175748364002
 30
0.0
 11
22.74075865492779
 21
3.674932199354171
 31
0.0
  0
LINE
  5
215A0
330
21598
100
AcDbEntity
  8
0
  6
CONTINUOUS
100
AcDbLine
 10
23.67305085490148
 20
5.280743608408048
 30
0.0
 11
24.74866341427619
 21
6.356356167782759
 31
0.0
  0
LINE
  5
215A1
330
21598
100
AcDbEntity
  8
0
  6
CONTINUOUS
100
AcDbLine
 10
23.88118970842314
 20
4.815363252849522
 30
0.0
 11
24.95684516609694
 21
5.89101871052332
 31
0.0
  0
LINE
  5
215A2
330
21598
100
AcDbEntity
  8
0
  6
CONTINUOUS
100
AcDbLine
 10
19.73925852647308
 20
-0.0000871381807288
 30
0.0
 11
23.4103456646501
 21
3.670999999996297
 31
0.0
  0
LINE
  5
215A3
330
21598
100
AcDbEntity
  8
0
  6
CONTINUOUS
100
AcDbLine
 10
24.0893285619448
 20
4.349982897290997
 30
0.0
 11
25.16502691791769
 21
5.42568125326388
 31
0.0
  0
LINE
  5
215A4
330
21598
100
AcDbEntity
  8
0
  6
CONTINUOUS
100
AcDbLine
 10
20.41282099582748
 20
-0.0000438779065108
 30
0.0
 11
21.64944178675636
 21
1.236576913022366
 31
0.0
  0
LINE
  5
215A5
330
21598
100
AcDbEntity
  8
0
  6
CONTINUOUS
100
AcDbLine
 10
22.78126487373161
 20
2.36839999999762
 30
0.0
 11
24.08386487373029
 21
3.670999999996297
 31
0.0
  0
LINE
  5
215A6
330
21598
100
AcDbEntity
  8
0
  6
CONTINUOUS
100
AcDbLine
 10
24.29746741546646
 20
3.884602541732471
 30
0.0
 11
25.37320866973843
 21
4.960343796004441
 31
0.0
  0
LINE
  5
215A7
330
21598
100
AcDbEntity
  8
0
  6
CONTINUOUS
100
AcDbLine
 10
21.08638346518189
 20
-0.0000006176322938
 30
0.0
 11
21.10379033335899
 21
0.0174062505448083
 31
0.0
  0
LINE
  5
215A8
330
21598
100
AcDbEntity
  8
0
  6
CONTINUOUS
100
AcDbLine
 10
23.4547840828118
 20
2.36839999999762
 30
0.0
 11
25.58139042155918
 21
4.495006338745002
 31
0.0
  0
LINE
  5
215A9
330
21598
100
AcDbEntity
  8
0
  6
CONTINUOUS
100
AcDbLine
 10
29.30199999996933
 20
8.215615917155148
 30
0.0
 11
29.84948408280543
 21
8.763099999991255
 31
0.0
  0
LINE
  5
215AA
330
21598
100
AcDbEntity
  8
0
  6
CONTINUOUS
100
AcDbLine
 10
24.12830329189199
 20
2.36839999999762
 30
0.0
 11
25.78957217337993
 21
4.029668881485562
 31
0.0
  0
LINE
  5
215AB
330
21598
100
AcDbEntity
  8
0
  6
CONTINUOUS
100
AcDbLine
 10
29.30199999996933
 20
7.54209670807496
 30
0.0
 11
30.52300329188562
 21
8.763099999991255
 31
0.0
  0
LINE
  5
215AC
330
21598
100
AcDbEntity
  8
0
  6
CONTINUOUS
100
AcDbLine
 10
24.80182250097217
 20
2.36839999999762
 30
0.0
 11
25.99775392520067
 21
3.564331424226122
 31
0.0
  0
LINE
  5
215AD
330
21598
100
AcDbEntity
  8
0
  6
CONTINUOUS
100
AcDbLine
 10
29.30199999996933
 20
6.868577498994774
 30
0.0
 11
30.74199999996926
 21
8.308577498994712
 31
0.0
  0
LINE
  5
215AE
330
21598
100
AcDbEntity
  8
0
  6
CONTINUOUS
100
AcDbLine
 10
25.13028238392013
 20
2.023340673865392
 30
0.0
 11
26.20593567702142
 21
3.098993966966683
 31
0.0
  0
LINE
  5
215AF
330
21598
100
AcDbEntity
  8
0
  6
CONTINUOUS
100
AcDbLine
 10
25.33838066033617
 20
1.557919741201244
 30
0.0
 11
26.41411742884217
 21
2.633656509707244
 31
0.0
  0
LINE
  5
215B0
330
21598
100
AcDbEntity
  8
0
  6
CONTINUOUS
100
AcDbLine
 10
25.54647893675221
 20
1.092498808537098
 30
0.0
 11
26.62229918066291
 21
2.168319052447804
 31
0.0
  0
LINE
  5
215B1
330
21598
100
AcDbEntity
  8
0
  6
CONTINUOUS
100
AcDbLine
 10
25.75457721316825
 20
0.62707787587295
 30
0.0
 11
26.83048093248366
 21
1.702981595188365
 31
0.0
  0
LINE
  5
215B2
330
21598
100
AcDbEntity
  8
0
  6
CONTINUOUS
100
AcDbLine
 10
29.30199999996933
 20
6.195058289914587
 30
0.0
 11
30.74199999996926
 21
7.635058289914522
 31
0.0
  0
LINE
  5
215B3
330
21598
100
AcDbEntity
  8
0
  6
CONTINUOUS
100
AcDbLine
 10
29.30199999996933
 20
5.521539080834401
 30
0.0
 11
30.74199999996926
 21
6.961539080834331
 31
0.0
  0
LINE
  5
215B4
330
21598
100
AcDbEntity
  8
0
  6
CONTINUOUS
100
AcDbLine
 10
29.30199999996933
 20
4.848019871754214
 30
0.0
 11
30.74199999996925
 21
6.288019871754143
 31
0.0
  0
LINE
  5
215B5
330
21598
100
AcDbEntity
  8
0
  6
CONTINUOUS
100
AcDbLine
 10
29.30199999996933
 20
4.174500662674028
 30
0.0
 11
30.74199999996925
 21
5.614500662673953
 31
0.0
  0
LINE
  5
215B6
330
21598
100
AcDbEntity
  8
0
  6
CONTINUOUS
100
AcDbLine
 10
25.96267548958429
 20
0.1616569432088024
 30
0.0
 11
27.18411854636669
 21
1.383099999991207
 31
0.0
  0
LINE
  5
215B7
330
21598
100
AcDbEntity
  8
0
  6
CONTINUOUS
100
AcDbLine
 10
29.30199999996933
 20
3.500981453593841
 30
0.0
 11
30.74199999996925
 21
4.940981453593762
 31
0.0
  0
LINE
  5
215B8
330
21598
100
AcDbEntity
  8
0
  6
CONTINUOUS
100
AcDbLine
 10
26.50763775544691
 20
0.0330999999912356
 30
0.0
 11
27.85763775544689
 21
1.383099999991223
 31
0.0
  0
LINE
  5
215B9
330
21598
100
AcDbEntity
  8
0
  6
CONTINUOUS
100
AcDbLine
 10
29.30199999996933
 20
2.827462244513656
 30
0.0
 11
30.74199999996925
 21
4.267462244513574
 31
0.0
  0
LINE
  5
215BA
330
21598
100
AcDbEntity
  8
0
  6
CONTINUOUS
100
AcDbLine
 10
27.18115696452709
 20
0.0330999999912356
 30
0.0
 11
28.55073879889363
 21
1.402681834357775
 31
0.0
  0
LINE
  5
215BB
330
21598
100
AcDbEntity
  8
0
  6
CONTINUOUS
100
AcDbLine
 10
29.28241816560272
 20
2.134361201066866
 30
0.0
 11
30.74199999996924
 21
3.593943035433383
 31
0.0
  0
LINE
  5
215BC
330
21598
100
AcDbEntity
  8
0
  6
CONTINUOUS
100
AcDbLine
 10
27.85467617360728
 20
0.0330999999912356
 30
0.0
 11
30.74199999996924
 21
2.920423826353195
 31
0.0
  0
LINE
  5
215BD
330
21598
100
AcDbEntity
  8
0
  6
CONTINUOUS
100
AcDbLine
 10
28.53897559587887
 20
0.0438802131826428
 30
0.0
 11
30.73121978677781
 21
2.236124404081585
 31
0.0
  0
LINE
  5
215BE
330
21598
100
AcDbEntity
  8
0
  6
CONTINUOUS
100
AcDbLine
 10
29.45140055588722
 20
0.2827859641107988
 30
0.0
 11
30.49231403584965
 21
1.323699444073236
 31
0.0
  0
LINE
  5
215BF
330
21598
100
AcDbEntity
  8
0
  6
CONTINUOUS
100
AcDbLine
 10
19.59027867740337
 20
-0.0000967065718083
 30
0.0
 11
19.55485265190471
 21
0.035329318926844
 31
0.0
  0
LINE
  5
215C0
330
21598
100
AcDbEntity
  8
0
  6
CONTINUOUS
100
AcDbLine
 10
20.26375463176586
 20
-0.0000534518541091
 30
0.0
 11
19.76305575737534
 21
0.5006454225364014
 31
0.0
  0
LINE
  5
215C1
330
21598
100
AcDbEntity
  8
0
  6
CONTINUOUS
100
AcDbLine
 10
20.93723058612834
 20
-0.0000101971364099
 30
0.0
 11
19.97125886284597
 21
0.965961526145958
 31
0.0
  0
LINE
  5
215C2
330
21598
100
AcDbEntity
  8
0
  6
CONTINUOUS
100
AcDbLine
 10
21.25514828313686
 20
0.355591314935257
 30
0.0
 11
20.1794619683166
 21
1.431277629755512
 31
0.0
  0
LINE
  5
215C3
330
21598
100
AcDbEntity
  8
0
  6
CONTINUOUS
100
AcDbLine
 10
21.46338838394921
 20
0.8208704232030986
 30
0.0
 11
20.38766507378723
 21
1.896593733365069
 31
0.0
  0
LINE
  5
215C4
330
21598
100
AcDbEntity
  8
0
  6
CONTINUOUS
100
AcDbLine
 10
21.67162848476155
 20
1.28614953147094
 30
0.0
 11
20.59586817925786
 21
2.361909836974626
 31
0.0
  0
LINE
  5
215C5
330
21598
100
AcDbEntity
  8
0
  6
CONTINUOUS
100
AcDbLine
 10
21.8798685855739
 20
1.751428639738782
 30
0.0
 11
20.80407128472849
 21
2.827225940584183
 31
0.0
  0
LINE
  5
215C6
330
21598
100
AcDbEntity
  8
0
  6
CONTINUOUS
100
AcDbLine
 10
22.08810868638624
 20
2.216707748006623
 30
0.0
 11
21.01227439019912
 21
3.292542044193739
 31
0.0
  0
LINE
  5
215C7
330
21598
100
AcDbEntity
  8
0
  6
CONTINUOUS
100
AcDbLine
 10
22.60993564347543
 20
2.36839999999762
 30
0.0
 11
21.22047749566975
 21
3.757858147803296
 31
0.0
  0
LINE
  5
215C8
330
21598
100
AcDbEntity
  8
0
  6
CONTINUOUS
100
AcDbLine
 10
23.28345485255561
 20
2.36839999999762
 30
0.0
 11
21.42868060114038
 21
4.223174251412853
 31
0.0
  0
LINE
  5
215C9
330
21598
100
AcDbEntity
  8
0
  6
CONTINUOUS
100
AcDbLine
 10
26.29227406164219
 20
0.0330999999912356
 30
0.0
 11
25.80009199592872
 21
0.5252820657046957
 31
0.0
  0
LINE
  5
215CA
330
21598
100
AcDbEntity
  8
0
  6
CONTINUOUS
100
AcDbLine
 10
23.9569740616358
 20
2.36839999999762
 30
0.0
 11
21.63688370661101
 21
4.688490355022409
 31
0.0
  0
LINE
  5
215CB
330
21598
100
AcDbEntity
  8
0
  6
CONTINUOUS
100
AcDbLine
 10
26.96579327072237
 20
0.0330999999912356
 30
0.0
 11
25.2554132311971
 21
1.743480039516508
 31
0.0
  0
LINE
  5
215CC
330
21598
100
AcDbEntity
  8
0
  6
CONTINUOUS
100
AcDbLine
 10
24.63049327071599
 20
2.36839999999762
 30
0.0
 11
23.32789327071731
 21
3.670999999996297
 31
0.0
  0
LINE
  5
215CD
330
21598
100
AcDbEntity
  8
0
  6
CONTINUOUS
100
AcDbLine
 10
22.92098674744635
 20
4.077906523267254
 30
0.0
 11
21.84508681208164
 21
5.153806458631966
 31
0.0
  0
LINE
  5
215CE
330
21598
100
AcDbEntity
  8
0
  6
CONTINUOUS
100
AcDbLine
 10
27.63931247980256
 20
0.0330999999912356
 30
0.0
 11
24.0014124797975
 21
3.670999999996297
 31
0.0
  0
LINE
  5
215CF
330
21598
100
AcDbEntity
  8
0
  6
CONTINUOUS
100
AcDbLine
 10
23.129125600968
 20
4.5432868788258
 30
0.0
 11
22.05328991755227
 21
5.619122562241522
 31
0.0
  0
LINE
  5
215D0
330
21598
100
AcDbEntity
  8
0
  6
CONTINUOUS
100
AcDbLine
 10
28.31283168888275
 20
0.0330999999912356
 30
0.0
 11
24.16488385994816
 21
4.181047828925828
 31
0.0
  0
LINE
  5
215D1
330
21598
100
AcDbEntity
  8
0
  6
CONTINUOUS
100
AcDbLine
 10
23.33726445448964
 20
5.008667234384345
 30
0.0
 11
22.2614930230229
 21
6.084438665851079
 31
0.0
  0
LINE
  5
215D2
330
21598
100
AcDbEntity
  8
0
  6
CONTINUOUS
100
AcDbLine
 10
28.92085740005492
 20
0.0985934978992438
 30
0.0
 11
27.63635089796295
 21
1.383099999991217
 31
0.0
  0
LINE
  5
215D3
330
21598
100
AcDbEntity
  8
0
  6
CONTINUOUS
100
AcDbLine
 10
26.43704649509776
 20
2.582404402856405
 30
0.0
 11
23.61992702019732
 21
5.399523877756844
 31
0.0
  0
LINE
  5
215D4
330
21598
100
AcDbEntity
  8
0
  6
CONTINUOUS
100
AcDbLine
 10
23.54540330801128
 20
5.47404758994289
 30
0.0
 11
22.46969612849353
 21
6.549754769460635
 31
0.0
  0
LINE
  5
215D5
330
21598
100
AcDbEntity
  8
0
  6
CONTINUOUS
100
AcDbLine
 10
29.42225615078443
 20
0.2707139562499279
 30
0.0
 11
28.30987010704312
 21
1.383099999991234
 31
0.0
  0
LINE
  5
215D6
330
21598
100
AcDbEntity
  8
0
  6
CONTINUOUS
100
AcDbLine
 10
25.89179548232307
 20
3.801174624711282
 30
0.0
 11
22.67789923396416
 21
7.015070873070191
 31
0.0
  0
LINE
  5
215D7
330
21598
100
AcDbEntity
  8
0
  6
CONTINUOUS
100
AcDbLine
 10
29.83624534690007
 20
0.5302439692144705
 30
0.0
 11
28.85811781497101
 21
1.508371501143527
 31
0.0
  0
LINE
  5
215D8
330
21598
100
AcDbEntity
  8
0
  6
CONTINUOUS
100
AcDbLine
 10
25.34654446954838
 20
5.01994484656616
 30
0.0
 11
22.88610233943479
 21
7.480386976679748
 31
0.0
  0
LINE
  5
215D9
330
21598
100
AcDbEntity
  8
0
  6
CONTINUOUS
100
AcDbLine
 10
30.17865975401872
 20
0.8613487711760022
 30
0.0
 11
29.18888744090175
 21
1.851121084292977
 31
0.0
  0
LINE
  5
215DA
330
21598
100
AcDbEntity
  8
0
  6
CONTINUOUS
100
AcDbLine
 10
24.80129345677369
 20
6.238715068421037
 30
0.0
 11
23.09430544490542
 21
7.945703080289305
 31
0.0
  0
LINE
  5
215DB
330
21598
100
AcDbEntity
  8
0
  6
CONTINUOUS
100
AcDbLine
 10
30.45496647202376
 20
1.258561262251155
 30
0.0
 11
29.30199999996933
 21
2.411527734305588
 31
0.0
  0
LINE
  5
215DC
330
21598
100
AcDbEntity
  8
0
  6
CONTINUOUS
100
AcDbLine
 10
24.256042443999
 20
7.457485290275915
 30
0.0
 11
23.30250855037605
 21
8.411019183898862
 31
0.0
  0
LINE
  5
215DD
330
21598
100
AcDbEntity
  8
0
  6
CONTINUOUS
100
AcDbLine
 10
30.64868582078271
 20
1.738361122572387
 30
0.0
 11
29.30199999996933
 21
3.085046943385775
 31
0.0
  0
LINE
  5
215DE
330
21598
100
AcDbEntity
  8
0
  6
CONTINUOUS
100
AcDbLine
 10
23.71079143122431
 20
8.676255512130794
 30
0.0
 11
23.51071165584668
 21
8.876335287508416
 31
0.0
  0
LINE
  5
215DF
330
21598
100
AcDbEntity
  8
0
  6
CONTINUOUS
100
AcDbLine
 10
30.73802122914428
 20
2.322544923291007
 30
0.0
 11
29.30199999996933
 21
3.758566152465961
 31
0.0
  0
LINE
  5
215E0
330
21598
100
AcDbEntity
  8
0
  6
CONTINUOUS
100
AcDbLine
 10
30.74199999996924
 20
2.992085361546236
 30
0.0
 11
29.30199999996933
 21
4.432085361546148
 31
0.0
  0
LINE
  5
215E1
330
21598
100
AcDbEntity
  8
0
  6
CONTINUOUS
100
AcDbLine
 10
30.74199999996924
 20
3.665604570626419
 30
0.0
 11
29.30199999996933
 21
5.105604570626333
 31
0.0
  0
LINE
  5
215E2
330
21598
100
AcDbEntity
  8
0
  6
CONTINUOUS
100
AcDbLine
 10
30.74199999996925
 20
4.339123779706602
 30
0.0
 11
29.30199999996933
 21
5.77912377970652
 31
0.0
  0
LINE
  5
215E3
330
21598
100
AcDbEntity
  8
0
  6
CONTINUOUS
100
AcDbLine
 10
30.74199999996925
 20
5.012642988786785
 30
0.0
 11
29.30199999996933
 21
6.452642988786707
 31
0.0
  0
LINE
  5
215E4
330
21598
100
AcDbEntity
  8
0
  6
CONTINUOUS
100
AcDbLine
 10
30.74199999996925
 20
5.68616219786697
 30
0.0
 11
29.30199999996933
 21
7.126162197866894
 31
0.0
  0
LINE
  5
215E5
330
21598
100
AcDbEntity
  8
0
  6
CONTINUOUS
100
AcDbLine
 10
30.74199999996925
 20
6.359681406947153
 30
0.0
 11
29.30199999996933
 21
7.799681406947081
 31
0.0
  0
LINE
  5
215E6
330
21598
100
AcDbEntity
  8
0
  6
CONTINUOUS
100
AcDbLine
 10
30.74199999996926
 20
7.033200616027337
 30
0.0
 11
29.30199999996933
 21
8.473200616027269
 31
0.0
  0
LINE
  5
215E7
330
21598
100
AcDbEntity
  8
0
  6
CONTINUOUS
100
AcDbLine
 10
30.74199999996926
 20
7.706719825107518
 30
0.0
 11
29.68561982508552
 21
8.763099999991255
 31
0.0
  0
LINE
  5
215E8
330
21598
100
AcDbEntity
  8
0
  6
CONTINUOUS
100
AcDbLine
 10
30.74199999996926
 20
8.380239034187703
 30
0.0
 11
30.35913903416571
 21
8.763099999991255
 31
0.0
  0
ENDBLK
  5
2168B
330
21598
100
AcDbEntity
  8
0
100
AcDbBlockEnd
  0
BLOCK
  5
2168C
330
215E9
100
AcDbEntity
  8
0
100
AcDbBlockBegin
  2
*X69
 70
     1
 10
0.0
 20
0.0
 30
0.0
  3
*X69
  1

  0
LINE
  5
215EA
330
215E9
100
AcDbEntity
  8
0
  6
CONTINUOUS
100
AcDbLine
 10
31.64199999996833
 20
8.535058289913598
 30
0.0
 11
31.87004171004599
 21
8.763099999991255
 31
0.0
  0
LINE
  5
215EB
330
215E9
100
AcDbEntity
  8
0
  6
CONTINUOUS
100
AcDbLine
 10
31.64199999996833
 20
7.861539080833412
 30
0.0
 11
32.54356091912618
 21
8.763099999991255
 31
0.0
  0
LINE
  5
215EC
330
215E9
100
AcDbEntity
  8
0
  6
CONTINUOUS
100
AcDbLine
 10
31.64199999996833
 20
7.188019871753226
 30
0.0
 11
33.08199999996839
 21
8.628019871753281
 31
0.0
  0
LINE
  5
215ED
330
215E9
100
AcDbEntity
  8
0
  6
CONTINUOUS
100
AcDbLine
 10
31.64199999996833
 20
6.51450066267304
 30
0.0
 11
33.08199999996839
 21
7.954500662673095
 31
0.0
  0
LINE
  5
215EE
330
215E9
100
AcDbEntity
  8
0
  6
CONTINUOUS
100
AcDbLine
 10
31.64199999996833
 20
5.840981453592853
 30
0.0
 11
33.08199999996839
 21
7.280981453592908
 31
0.0
  0
LINE
  5
215EF
330
215E9
100
AcDbEntity
  8
0
  6
CONTINUOUS
100
AcDbLine
 10
31.64199999996833
 20
5.167462244512667
 30
0.0
 11
33.08199999996839
 21
6.607462244512721
 31
0.0
  0
LINE
  5
215F0
330
215E9
100
AcDbEntity
  8
0
  6
CONTINUOUS
100
AcDbLine
 10
31.64199999996833
 20
4.493943035432481
 30
0.0
 11
33.08199999996839
 21
5.933943035432535
 31
0.0
  0
LINE
  5
215F1
330
215E9
100
AcDbEntity
  8
0
  6
CONTINUOUS
100
AcDbLine
 10
31.64199999996833
 20
3.820423826352293
 30
0.0
 11
33.08199999996839
 21
5.260423826352348
 31
0.0
  0
LINE
  5
215F2
330
215E9
100
AcDbEntity
  8
0
  6
CONTINUOUS
100
AcDbLine
 10
31.64199999996833
 20
3.146904617272106
 30
0.0
 11
33.08199999996839
 21
4.586904617272161
 31
0.0
  0
LINE
  5
215F3
330
215E9
100
AcDbEntity
  8
0
  6
CONTINUOUS
100
AcDbLine
 10
36.23199999996837
 20
8.410423826352325
 30
0.0
 11
36.5846761736073
 21
8.763099999991255
 31
0.0
  0
LINE
  5
215F4
330
215E9
100
AcDbEntity
  8
0
  6
CONTINUOUS
100
AcDbLine
 10
36.23199999996837
 20
7.73690461727214
 30
0.0
 11
37.25819538268748
 21
8.763099999991255
 31
0.0
  0
LINE
  5
215F5
330
215E9
100
AcDbEntity
  8
0
  6
CONTINUOUS
100
AcDbLine
 10
31.64257403601376
 20
2.473959444237348
 30
0.0
 11
33.08199999996839
 21
3.913385408191974
 31
0.0
  0
LINE
  5
215F6
330
215E9
100
AcDbEntity
  8
0
  6
CONTINUOUS
100
AcDbLine
 10
36.23199999996837
 20
7.063385408191953
 30
0.0
 11
37.67199999996831
 21
8.503385408191894
 31
0.0
  0
LINE
  5
215F7
330
215E9
100
AcDbEntity
  8
0
  6
CONTINUOUS
100
AcDbLine
 10
31.72013636841932
 20
1.87800256756272
 30
0.0
 11
33.08199999996839
 21
3.239866199111788
 31
0.0
  0
LINE
  5
215F8
330
215E9
100
AcDbEntity
  8
0
  6
CONTINUOUS
100
AcDbLine
 10
36.23199999996837
 20
6.389866199111767
 30
0.0
 11
37.67199999996831
 21
7.829866199111708
 31
0.0
  0
LINE
  5
215F9
330
215E9
100
AcDbEntity
  8
0
  6
CONTINUOUS
100
AcDbLine
 10
31.89042734314753
 20
1.374774333210744
 30
0.0
 11
33.08199999996839
 21
2.566346990031601
 31
0.0
  0
LINE
  5
215FA
330
215E9
100
AcDbEntity
  8
0
  6
CONTINUOUS
100
AcDbLine
 10
36.23199999996837
 20
5.71634699003158
 30
0.0
 11
37.67199999996831
 21
7.156346990031521
 31
0.0
  0
LINE
  5
215FB
330
215E9
100
AcDbEntity
  8
0
  6
CONTINUOUS
100
AcDbLine
 10
32.14210568064475
 20
0.952933461627778
 30
0.0
 11
33.18745552475986
 21
1.998283305742888
 31
0.0
  0
LINE
  5
215FC
330
215E9
100
AcDbEntity
  8
0
  6
CONTINUOUS
100
AcDbLine
 10
36.23199999996837
 20
5.042827780951393
 30
0.0
 11
37.67199999996831
 21
6.482827780951334
 31
0.0
  0
LINE
  5
215FD
330
215E9
100
AcDbEntity
  8
0
  6
CONTINUOUS
100
AcDbLine
 10
32.45820639400955
 20
0.5955149659123915
 30
0.0
 11
33.47242681921943
 21
1.60973539112227
 31
0.0
  0
LINE
  5
215FE
330
215E9
100
AcDbEntity
  8
0
  6
CONTINUOUS
100
AcDbLine
 10
36.23199999996837
 20
4.369308571871207
 30
0.0
 11
37.67199999996831
 21
5.809308571871147
 31
0.0
  0
LINE
  5
215FF
330
215E9
100
AcDbEntity
  8
0
  6
CONTINUOUS
100
AcDbLine
 10
32.83432456621412
 20
0.2981139290367771
 30
0.0
 11
33.89722476612215
 21
1.361014128944803
 31
0.0
  0
LINE
  5
21600
330
215E9
100
AcDbEntity
  8
0
  6
CONTINUOUS
100
AcDbLine
 10
36.23199999996837
 20
3.69578936279102
 30
0.0
 11
37.67199999996831
 21
5.135789362790962
 31
0.0
  0
LINE
  5
21601
330
215E9
100
AcDbEntity
  8
0
  6
CONTINUOUS
100
AcDbLine
 10
33.2711633111245
 20
0.0614334648669672
 30
0.0
 11
34.43247338014423
 21
1.222743533886696
 31
0.0
  0
LINE
  5
21602
330
215E9
100
AcDbEntity
  8
0
  6
CONTINUOUS
100
AcDbLine
 10
36.23199999996837
 20
3.022270153710834
 30
0.0
 11
37.67199999996831
 21
4.462270153710775
 31
0.0
  0
LINE
  5
21603
330
215E9
100
AcDbEntity
  8
0
  6
CONTINUOUS
100
AcDbLine
 10
33.76515245874577
 20
-0.1180965965919523
 30
0.0
 11
35.1587445516215
 21
1.27549549628378
 31
0.0
  0
LINE
  5
21604
330
215E9
100
AcDbEntity
  8
0
  6
CONTINUOUS
100
AcDbLine
 10
36.21639478609585
 20
2.333145730758136
 30
0.0
 11
37.67199999996831
 21
3.788750944630588
 31
0.0
  0
LINE
  5
21605
330
215E9
100
AcDbEntity
  8
0
  6
CONTINUOUS
100
AcDbLine
 10
34.34060583368432
 20
-0.2161624307335863
 30
0.0
 11
37.67199999996831
 21
3.115231735550401
 31
0.0
  0
LINE
  5
21606
330
215E9
100
AcDbEntity
  8
0
  6
CONTINUOUS
100
AcDbLine
 10
35.01698193613905
 20
-0.2133055373590427
 30
0.0
 11
37.66876712070525
 21
2.438479647207154
 31
0.0
  0
LINE
  5
21607
330
215E9
100
AcDbEntity
  8
0
  6
CONTINUOUS
100
AcDbLine
 10
35.90743367693304
 20
0.0036269943547609
 30
0.0
 11
37.51723902192366
 21
1.613432339345381
 31
0.0
  0
LINE
  5
21608
330
215E9
100
AcDbEntity
  8
0
  6
CONTINUOUS
100
AcDbLine
 10
32.55309425579761
 20
0.5074718966376706
 30
0.0
 11
32.27784730925847
 21
0.7827188431768102
 31
0.0
  0
LINE
  5
21609
330
215E9
100
AcDbEntity
  8
0
  6
CONTINUOUS
100
AcDbLine
 10
33.87496468909684
 20
-0.1408793275813673
 30
0.0
 11
31.67993083278052
 21
2.054154528734943
 31
0.0
  0
LINE
  5
2160A
330
215E9
100
AcDbEntity
  8
0
  6
CONTINUOUS
100
AcDbLine
 10
34.64362813207632
 20
-0.2360235614806649
 30
0.0
 11
31.64199999996833
 21
2.765604570627322
 31
0.0
  0
LINE
  5
2160B
330
215E9
100
AcDbEntity
  8
0
  6
CONTINUOUS
100
AcDbLine
 10
35.25801106796118
 20
-0.1768872882853429
 30
0.0
 11
31.64199999996833
 21
3.439123779707508
 31
0.0
  0
LINE
  5
2160C
330
215E9
100
AcDbEntity
  8
0
  6
CONTINUOUS
100
AcDbLine
 10
35.79065650332146
 20
-0.0360135145654361
 30
0.0
 11
34.54143210838231
 21
1.213210880373721
 31
0.0
  0
LINE
  5
2160D
330
215E9
100
AcDbEntity
  8
0
  6
CONTINUOUS
100
AcDbLine
 10
33.08199999996839
 20
2.67264298878764
 30
0.0
 11
31.64199999996833
 21
4.112642988787695
 31
0.0
  0
LINE
  5
2160E
330
215E9
100
AcDbEntity
  8
0
  6
CONTINUOUS
100
AcDbLine
 10
36.25975597779143
 20
0.1684062200447833
 30
0.0
 11
35.15395110240023
 21
1.274211095435983
 31
0.0
  0
LINE
  5
2160F
330
215E9
100
AcDbEntity
  8
0
  6
CONTINUOUS
100
AcDbLine
 10
33.08199999996839
 20
3.346162197867826
 30
0.0
 11
31.64199999996833
 21
4.786162197867881
 31
0.0
  0
LINE
  5
21610
330
215E9
100
AcDbEntity
  8
0
  6
CONTINUOUS
100
AcDbLine
 10
36.67226329638774
 20
0.4294181105286579
 30
0.0
 11
35.63766478748767
 21
1.464016619428737
 31
0.0
  0
LINE
  5
21611
330
215E9
100
AcDbEntity
  8
0
  6
CONTINUOUS
100
AcDbLine
 10
33.08199999996839
 20
4.019681406948012
 30
0.0
 11
31.64199999996833
 21
5.459681406948068
 31
0.0
  0
LINE
  5
21612
330
215E9
100
AcDbEntity
  8
0
  6
CONTINUOUS
100
AcDbLine
 10
37.01677749710036
 20
0.7584231188962329
 30
0.0
 11
35.99563422741351
 21
1.779566388583076
 31
0.0
  0
LINE
  5
21613
330
215E9
100
AcDbEntity
  8
0
  6
CONTINUOUS
100
AcDbLine
 10
33.08199999996839
 20
4.693200616028199
 30
0.0
 11
31.64199999996833
 21
6.133200616028255
 31
0.0
  0
LINE
  5
21614
330
215E9
100
AcDbEntity
  8
0
  6
CONTINUOUS
100
AcDbLine
 10
37.29859977568887
 20
1.1501200493879
 30
0.0
 11
36.20680593341555
 21
2.241913891661226
 31
0.0
  0
LINE
  5
21615
330
215E9
100
AcDbEntity
  8
0
  6
CONTINUOUS
100
AcDbLine
 10
33.08199999996839
 20
5.366719825108386
 30
0.0
 11
31.64199999996833
 21
6.80671982510844
 31
0.0
  0
LINE
  5
21616
330
215E9
100
AcDbEntity
  8
0
  6
CONTINUOUS
100
AcDbLine
 10
37.5148623517228
 20
1.607376682434161
 30
0.0
 11
36.23199999996837
 21
2.890239034188594
 31
0.0
  0
LINE
  5
21617
330
215E9
100
AcDbEntity
  8
0
  6
CONTINUOUS
100
AcDbLine
 10
33.08199999996839
 20
6.040239034188573
 30
0.0
 11
31.64199999996833
 21
7.480239034188627
 31
0.0
  0
LINE
  5
21618
330
215E9
100
AcDbEntity
  8
0
  6
CONTINUOUS
100
AcDbLine
 10
37.64705163358367
 20
2.148706609653477
 30
0.0
 11
36.23199999996837
 21
3.56375824326878
 31
0.0
  0
LINE
  5
21619
330
215E9
100
AcDbEntity
  8
0
  6
CONTINUOUS
100
AcDbLine
 10
33.08199999996839
 20
6.713758243268758
 30
0.0
 11
31.64199999996833
 21
8.153758243268815
 31
0.0
  0
LINE
  5
2161A
330
215E9
100
AcDbEntity
  8
0
  6
CONTINUOUS
100
AcDbLine
 10
37.67199999996831
 20
2.797277452349026
 30
0.0
 11
36.23199999996837
 21
4.237277452348967
 31
0.0
  0
LINE
  5
2161B
330
215E9
100
AcDbEntity
  8
0
  6
CONTINUOUS
100
AcDbLine
 10
37.67199999996831
 20
3.470796661429213
 30
0.0
 11
36.23199999996837
 21
4.910796661429154
 31
0.0
  0
LINE
  5
2161C
330
215E9
100
AcDbEntity
  8
0
  6
CONTINUOUS
100
AcDbLine
 10
37.67199999996831
 20
4.144315870509399
 30
0.0
 11
36.23199999996837
 21
5.58431587050934
 31
0.0
  0
LINE
  5
2161D
330
215E9
100
AcDbEntity
  8
0
  6
CONTINUOUS
100
AcDbLine
 10
33.08199999996839
 20
7.387277452348945
 30
0.0
 11
31.70617745232608
 21
8.763099999991255
 31
0.0
  0
LINE
  5
2161E
330
215E9
100
AcDbEntity
  8
0
  6
CONTINUOUS
100
AcDbLine
 10
33.08199999996839
 20
8.060796661429132
 30
0.0
 11
32.37969666140626
 21
8.763099999991255
 31
0.0
  0
LINE
  5
2161F
330
215E9
100
AcDbEntity
  8
0
  6
CONTINUOUS
100
AcDbLine
 10
33.08199999996839
 20
8.734315870509318
 30
0.0
 11
33.05321587048645
 21
8.763099999991255
 31
0.0
  0
LINE
  5
21620
330
215E9
100
AcDbEntity
  8
0
  6
CONTINUOUS
100
AcDbLine
 10
37.67199999996831
 20
4.817835079589585
 30
0.0
 11
36.23199999996837
 21
6.257835079589526
 31
0.0
  0
LINE
  5
21621
330
215E9
100
AcDbEntity
  8
0
  6
CONTINUOUS
100
AcDbLine
 10
37.67199999996831
 20
5.491354288669771
 30
0.0
 11
36.23199999996837
 21
6.931354288669713
 31
0.0
  0
LINE
  5
21622
330
215E9
100
AcDbEntity
  8
0
  6
CONTINUOUS
100
AcDbLine
 10
37.67199999996831
 20
6.164873497749958
 30
0.0
 11
36.23199999996837
 21
7.6048734977499
 31
0.0
  0
LINE
  5
21623
330
215E9
100
AcDbEntity
  8
0
  6
CONTINUOUS
100
AcDbLine
 10
37.67199999996831
 20
6.838392706830144
 30
0.0
 11
36.23199999996837
 21
8.278392706830086
 31
0.0
  0
LINE
  5
21624
330
215E9
100
AcDbEntity
  8
0
  6
CONTINUOUS
100
AcDbLine
 10
37.67199999996831
 20
7.511911915910332
 30
0.0
 11
36.42081191588738
 21
8.763099999991255
 31
0.0
  0
LINE
  5
21625
330
215E9
100
AcDbEntity
  8
0
  6
CONTINUOUS
100
AcDbLine
 10
37.67199999996831
 20
8.185431124990519
 30
0.0
 11
37.09433112496757
 21
8.763099999991255
 31
0.0
  0
ENDBLK
  5
2168D
330
215E9
100
AcDbEntity
  8
0
100
AcDbBlockEnd
  0
BLOCK
  5
2168E
330
21626
100
AcDbEntity
  8
0
100
AcDbBlockBegin
  2
*X70
 70
     1
 10
0.0
 20
0.0
 30
0.0
  3
*X70
  1

  0
LINE
  5
21627
330
21626
100
AcDbEntity
  8
0
  6
CONTINUOUS
100
AcDbLine
 10
38.60499999996136
 20
8.762866199104765
 30
0.0
 11
38.71672554182345
 21
8.874591740966855
 31
0.0
  0
LINE
  5
21628
330
21626
100
AcDbEntity
  8
0
  6
CONTINUOUS
100
AcDbLine
 10
38.60499999996136
 20
8.089346990024577
 30
0.0
 11
39.03418785440363
 21
8.518534844466847
 31
0.0
  0
LINE
  5
21629
330
21626
100
AcDbEntity
  8
0
  6
CONTINUOUS
100
AcDbLine
 10
38.60499999996136
 20
7.41582778094439
 30
0.0
 11
39.35165016698382
 21
8.16247794796684
 31
0.0
  0
LINE
  5
2162A
330
21626
100
AcDbEntity
  8
0
  6
CONTINUOUS
100
AcDbLine
 10
38.60499999996136
 20
6.742308571864204
 30
0.0
 11
39.66911247956399
 21
7.806421051466834
 31
0.0
  0
LINE
  5
2162B
330
21626
100
AcDbEntity
  8
0
  6
CONTINUOUS
100
AcDbLine
 10
38.60499999996136
 20
6.068789362784018
 30
0.0
 11
39.98657479214418
 21
7.450364154966827
 31
0.0
  0
LINE
  5
2162C
330
21626
100
AcDbEntity
  8
0
  6
CONTINUOUS
100
AcDbLine
 10
38.60499999996136
 20
5.395270153703832
 30
0.0
 11
40.30403710472435
 21
7.09430725846682
 31
0.0
  0
LINE
  5
2162D
330
21626
100
AcDbEntity
  8
0
  6
CONTINUOUS
100
AcDbLine
 10
38.60499999996136
 20
4.721750944623645
 30
0.0
 11
40.62149941730453
 21
6.738250361966813
 31
0.0
  0
LINE
  5
2162E
330
21626
100
AcDbEntity
  8
0
  6
CONTINUOUS
100
AcDbLine
 10
38.60499999996136
 20
4.048231735543458
 30
0.0
 11
40.93896172988471
 21
6.382193465466806
 31
0.0
  0
LINE
  5
2162F
330
21626
100
AcDbEntity
  8
0
  6
CONTINUOUS
100
AcDbLine
 10
38.60499999996136
 20
3.374712526463272
 30
0.0
 11
40.02599999995994
 21
4.795712526461843
 31
0.0
  0
LINE
  5
21630
330
21626
100
AcDbEntity
  8
0
  6
CONTINUOUS
100
AcDbLine
 10
38.60499999996136
 20
2.701193317383085
 30
0.0
 11
40.02599999995994
 21
4.122193317381657
 31
0.0
  0
LINE
  5
21631
330
21626
100
AcDbEntity
  8
0
  6
CONTINUOUS
100
AcDbLine
 10
40.28339754687704
 20
5.053110073378947
 30
0.0
 11
41.25642404246489
 21
6.026136568966799
 31
0.0
  0
LINE
  5
21632
330
21626
100
AcDbEntity
  8
0
  6
CONTINUOUS
100
AcDbLine
 10
40.60085985945722
 20
4.697053176878939
 30
0.0
 11
41.57388635504507
 21
5.670079672466793
 31
0.0
  0
LINE
  5
21633
330
21626
100
AcDbEntity
  8
0
  6
CONTINUOUS
100
AcDbLine
 10
43.57899999995641
 20
8.348712526458318
 30
0.0
 11
43.99338747348935
 21
8.763099999991255
 31
0.0
  0
LINE
  5
21634
330
21626
100
AcDbEntity
  8
0
  6
CONTINUOUS
100
AcDbLine
 10
43.57899999995641
 20
7.675193317378131
 30
0.0
 11
44.66690668256953
 21
8.763099999991255
 31
0.0
  0
LINE
  5
21635
330
21626
100
AcDbEntity
  8
0
  6
CONTINUOUS
100
AcDbLine
 10
38.60499999996136
 20
2.027674108302898
 30
0.0
 11
40.02599999995994
 21
3.44867410830147
 31
0.0
  0
LINE
  5
21636
330
21626
100
AcDbEntity
  8
0
  6
CONTINUOUS
100
AcDbLine
 10
38.60499999996136
 20
1.354154899222712
 30
0.0
 11
40.02599999995994
 21
2.775154899221284
 31
0.0
  0
LINE
  5
21637
330
21626
100
AcDbEntity
  8
0
  6
CONTINUOUS
100
AcDbLine
 10
38.60499999996136
 20
0.6806356901425255
 30
0.0
 11
40.02599999995994
 21
2.101635690141098
 31
0.0
  0
LINE
  5
21638
330
21626
100
AcDbEntity
  8
0
  6
CONTINUOUS
100
AcDbLine
 10
38.60499999996136
 20
0.0071164810623383
 30
0.0
 11
40.02599999995994
 21
1.428116481060911
 31
0.0
  0
LINE
  5
21639
330
21626
100
AcDbEntity
  8
0
  6
CONTINUOUS
100
AcDbLine
 10
40.9183221720374
 20
4.340996280378933
 30
0.0
 11
41.89134866762525
 21
5.314022775966786
 31
0.0
  0
LINE
  5
2163A
330
21626
100
AcDbEntity
  8
0
  6
CONTINUOUS
100
AcDbLine
 10
41.23578448461758
 20
3.984939383878926
 30
0.0
 11
42.20881098020543
 21
4.957965879466778
 31
0.0
  0
LINE
  5
2163B
330
21626
100
AcDbEntity
  8
0
  6
CONTINUOUS
100
AcDbLine
 10
41.55324679719776
 20
3.628882487378919
 30
0.0
 11
42.52627329278561
 21
4.601908982966772
 31
0.0
  0
LINE
  5
2163C
330
21626
100
AcDbEntity
  8
0
  6
CONTINUOUS
100
AcDbLine
 10
41.87070910977793
 20
3.272825590878912
 30
0.0
 11
42.84373560536579
 21
4.245852086466765
 31
0.0
  0
LINE
  5
2163D
330
21626
100
AcDbEntity
  8
0
  6
CONTINUOUS
100
AcDbLine
 10
43.57899999995641
 20
7.001674108297943
 30
0.0
 11
44.99999999995498
 21
8.422674108296516
 31
0.0
  0
LINE
  5
2163E
330
21626
100
AcDbEntity
  8
0
  6
CONTINUOUS
100
AcDbLine
 10
43.57899999995641
 20
6.328154899217758
 30
0.0
 11
44.99999999995498
 21
7.749154899216329
 31
0.0
  0
LINE
  5
2163F
330
21626
100
AcDbEntity
  8
0
  6
CONTINUOUS
100
AcDbLine
 10
43.57899999995641
 20
5.654635690137571
 30
0.0
 11
44.99999999995498
 21
7.075635690136142
 31
0.0
  0
LINE
  5
21640
330
21626
100
AcDbEntity
  8
0
  6
CONTINUOUS
100
AcDbLine
 10
43.57899999995641
 20
4.981116481057384
 30
0.0
 11
44.99999999995498
 21
6.402116481055955
 31
0.0
  0
LINE
  5
21641
330
21626
100
AcDbEntity
  8
0
  6
CONTINUOUS
100
AcDbLine
 10
39.27140272797921
 20
-0.0000000000000009
 30
0.0
 11
40.02599999995994
 21
0.7545972719807246
 31
0.0
  0
LINE
  5
21642
330
21626
100
AcDbEntity
  8
0
  6
CONTINUOUS
100
AcDbLine
 10
39.9449219370594
 20
-0.0000000000000009
 30
0.0
 11
40.02599999995994
 21
0.0810780629005379
 31
0.0
  0
LINE
  5
21643
330
21626
100
AcDbEntity
  8
0
  6
CONTINUOUS
100
AcDbLine
 10
42.18817142235812
 20
2.916768694378905
 30
0.0
 11
43.16119791794597
 21
3.889795189966758
 31
0.0
  0
LINE
  5
21644
330
21626
100
AcDbEntity
  8
0
  6
CONTINUOUS
100
AcDbLine
 10
42.50563373493829
 20
2.560711797878898
 30
0.0
 11
43.47866023052615
 21
3.533738293466751
 31
0.0
  0
LINE
  5
21645
330
21626
100
AcDbEntity
  8
0
  6
CONTINUOUS
100
AcDbLine
 10
43.57899999995641
 20
4.307597271977198
 30
0.0
 11
44.99999999995498
 21
5.728597271975769
 31
0.0
  0
LINE
  5
21646
330
21626
100
AcDbEntity
  8
0
  6
CONTINUOUS
100
AcDbLine
 10
43.57899999995641
 20
3.634078062897011
 30
0.0
 11
44.99999999995498
 21
5.055078062895582
 31
0.0
  0
LINE
  5
21647
330
21626
100
AcDbEntity
  8
0
  6
CONTINUOUS
100
AcDbLine
 10
42.82309604751848
 20
2.204654901378891
 30
0.0
 11
44.99999999995498
 21
4.381558853815395
 31
0.0
  0
LINE
  5
21648
330
21626
100
AcDbEntity
  8
0
  6
CONTINUOUS
100
AcDbLine
 10
43.14055836009865
 20
1.848598004878885
 30
0.0
 11
44.99999999995498
 21
3.70803964473521
 31
0.0
  0
LINE
  5
21649
330
21626
100
AcDbEntity
  8
0
  6
CONTINUOUS
100
AcDbLine
 10
43.45802067267883
 20
1.492541108378878
 30
0.0
 11
44.99999999995498
 21
3.034520435655023
 31
0.0
  0
LINE
  5
2164A
330
21626
100
AcDbEntity
  8
0
  6
CONTINUOUS
100
AcDbLine
 10
43.77548298525902
 20
1.136484211878871
 30
0.0
 11
44.99999999995498
 21
2.361001226574837
 31
0.0
  0
LINE
  5
2164B
330
21626
100
AcDbEntity
  8
0
  6
CONTINUOUS
100
AcDbLine
 10
44.09294529783919
 20
0.7804273153788639
 30
0.0
 11
44.99999999995498
 21
1.687482017494649
 31
0.0
  0
LINE
  5
2164C
330
21626
100
AcDbEntity
  8
0
  6
CONTINUOUS
100
AcDbLine
 10
44.41040761041938
 20
0.4243704188788566
 30
0.0
 11
44.99999999995498
 21
1.013962808414463
 31
0.0
  0
LINE
  5
2164D
330
21626
100
AcDbEntity
  8
0
  6
CONTINUOUS
100
AcDbLine
 10
44.72786992299955
 20
0.0683135223788494
 30
0.0
 11
44.99999999995498
 21
0.340443599334276
 31
0.0
  0
LINE
  5
2164E
330
21626
100
AcDbEntity
  8
0
  6
CONTINUOUS
100
AcDbLine
 10
39.12223903415696
 20
-0.0000000000000009
 30
0.0
 11
38.60499999996136
 21
0.5172390341955961
 31
0.0
  0
LINE
  5
2164F
330
21626
100
AcDbEntity
  8
0
  6
CONTINUOUS
100
AcDbLine
 10
39.79575824323715
 20
-0.0000000000000009
 30
0.0
 11
38.60499999996136
 21
1.190758243275783
 31
0.0
  0
LINE
  5
21650
330
21626
100
AcDbEntity
  8
0
  6
CONTINUOUS
100
AcDbLine
 10
40.02599999995994
 20
0.443277452357397
 30
0.0
 11
38.60499999996136
 21
1.864277452355969
 31
0.0
  0
LINE
  5
21651
330
21626
100
AcDbEntity
  8
0
  6
CONTINUOUS
100
AcDbLine
 10
40.02599999995994
 20
1.116796661437583
 30
0.0
 11
38.60499999996136
 21
2.537796661436155
 31
0.0
  0
LINE
  5
21652
330
21626
100
AcDbEntity
  8
0
  6
CONTINUOUS
100
AcDbLine
 10
40.02599999995994
 20
1.79031587051777
 30
0.0
 11
38.60499999996136
 21
3.211315870516341
 31
0.0
  0
LINE
  5
21653
330
21626
100
AcDbEntity
  8
0
  6
CONTINUOUS
100
AcDbLine
 10
40.02599999995994
 20
2.463835079597956
 30
0.0
 11
38.60499999996136
 21
3.884835079596527
 31
0.0
  0
LINE
  5
21654
330
21626
100
AcDbEntity
  8
0
  6
CONTINUOUS
100
AcDbLine
 10
40.02599999995994
 20
3.137354288678143
 30
0.0
 11
38.60499999996136
 21
4.558354288676714
 31
0.0
  0
LINE
  5
21655
330
21626
100
AcDbEntity
  8
0
  6
CONTINUOUS
100
AcDbLine
 10
40.02599999995994
 20
3.810873497758329
 30
0.0
 11
38.60499999996136
 21
5.2318734977569
 31
0.0
  0
LINE
  5
21656
330
21626
100
AcDbEntity
  8
0
  6
CONTINUOUS
100
AcDbLine
 10
40.02599999995994
 20
4.484392706838515
 30
0.0
 11
38.60499999996136
 21
5.905392706837086
 31
0.0
  0
LINE
  5
21657
330
21626
100
AcDbEntity
  8
0
  6
CONTINUOUS
100
AcDbLine
 10
44.99999999995498
 20
0.183911915923658
 30
0.0
 11
41.53858364506288
 21
3.64532827081576
 31
0.0
  0
LINE
  5
21658
330
21626
100
AcDbEntity
  8
0
  6
CONTINUOUS
100
AcDbLine
 10
40.02599999995994
 20
5.157911915918703
 30
0.0
 11
38.60499999996136
 21
6.578911915917274
 31
0.0
  0
LINE
  5
21659
330
21626
100
AcDbEntity
  8
0
  6
CONTINUOUS
100
AcDbLine
 10
44.99999999995498
 20
0.8574311250038447
 30
0.0
 11
38.60499999996136
 21
7.25243112499746
 31
0.0
  0
LINE
  5
2165A
330
21626
100
AcDbEntity
  8
0
  6
CONTINUOUS
100
AcDbLine
 10
44.99999999995498
 20
1.530950334084031
 30
0.0
 11
38.60499999996136
 21
7.925950334077647
 31
0.0
  0
LINE
  5
2165B
330
21626
100
AcDbEntity
  8
0
  6
CONTINUOUS
100
AcDbLine
 10
44.99999999995498
 20
2.204469543164218
 30
0.0
 11
43.57899999995641
 21
3.625469543162789
 31
0.0
  0
LINE
  5
2165C
330
21626
100
AcDbEntity
  8
0
  6
CONTINUOUS
100
AcDbLine
 10
41.89876730984767
 20
5.305702233271528
 30
0.0
 11
38.60499999996136
 21
8.599469543157834
 31
0.0
  0
LINE
  5
2165D
330
21626
100
AcDbEntity
  8
0
  6
CONTINUOUS
100
AcDbLine
 10
44.99999999995498
 20
2.877988752244405
 30
0.0
 11
43.57899999995641
 21
4.298988752242975
 31
0.0
  0
LINE
  5
2165E
330
21626
100
AcDbEntity
  8
0
  6
CONTINUOUS
100
AcDbLine
 10
44.99999999995498
 20
3.551507961324591
 30
0.0
 11
43.57899999995641
 21
4.972507961323163
 31
0.0
  0
LINE
  5
2165F
330
21626
100
AcDbEntity
  8
0
  6
CONTINUOUS
100
AcDbLine
 10
44.99999999995498
 20
4.225027170404777
 30
0.0
 11
43.57899999995641
 21
5.646027170403348
 31
0.0
  0
LINE
  5
21660
330
21626
100
AcDbEntity
  8
0
  6
CONTINUOUS
100
AcDbLine
 10
44.99999999995498
 20
4.898546379484964
 30
0.0
 11
43.57899999995641
 21
6.319546379483535
 31
0.0
  0
LINE
  5
21661
330
21626
100
AcDbEntity
  8
0
  6
CONTINUOUS
100
AcDbLine
 10
44.99999999995498
 20
5.572065588565151
 30
0.0
 11
43.57899999995641
 21
6.993065588563722
 31
0.0
  0
LINE
  5
21662
330
21626
100
AcDbEntity
  8
0
  6
CONTINUOUS
100
AcDbLine
 10
44.99999999995498
 20
6.245584797645336
 30
0.0
 11
43.57899999995641
 21
7.666584797643908
 31
0.0
  0
LINE
  5
21663
330
21626
100
AcDbEntity
  8
0
  6
CONTINUOUS
100
AcDbLine
 10
44.99999999995498
 20
6.919104006725522
 30
0.0
 11
43.57899999995641
 21
8.340104006724093
 31
0.0
  0
LINE
  5
21664
330
21626
100
AcDbEntity
  8
0
  6
CONTINUOUS
100
AcDbLine
 10
44.99999999995498
 20
7.592623215805709
 30
0.0
 11
43.82952321576943
 21
8.763099999991255
 31
0.0
  0
LINE
  5
21665
330
21626
100
AcDbEntity
  8
0
  6
CONTINUOUS
100
AcDbLine
 10
44.99999999995498
 20
8.266142424885896
 30
0.0
 11
44.50304242484962
 21
8.763099999991255
 31
0.0
  0
ENDBLK
  5
2168F
330
21626
100
AcDbEntity
  8
0
100
AcDbBlockEnd
  0
BLOCK
  5
21690
330
21666
100
AcDbEntity
  8
0
100
AcDbBlockBegin
  2
*X71
 70
     1
 10
0.0
 20
0.0
 30
0.0
  3
*X71
  1

  0
LINE
  5
21667
330
21666
100
AcDbEntity
  8
0
  6
CONTINUOUS
100
AcDbLine
 10
0.0
 20
8.548461116714023
 30
0.0
 11
0.2146388832772324
 21
8.763099999991255
 31
0.0
  0
LINE
  5
21668
330
21666
100
AcDbEntity
  8
0
  6
CONTINUOUS
100
AcDbLine
 10
-0.0000000000000002
 20
7.874941907633837
 30
0.0
 11
0.8881580923574184
 21
8.763099999991255
 31
0.0
  0
LINE
  5
21669
330
21666
100
AcDbEntity
  8
0
  6
CONTINUOUS
100
AcDbLine
 10
0.0
 20
7.20142269855365
 30
0.0
 11
1.420999999998572
 21
8.622422698552223
 31
0.0
  0
LINE
  5
2166A
330
21666
100
AcDbEntity
  8
0
  6
CONTINUOUS
100
AcDbLine
 10
-0.0000000000000001
 20
6.527903489473465
 30
0.0
 11
1.420999999998571
 21
7.948903489472036
 31
0.0
  0
LINE
  5
2166B
330
21666
100
AcDbEntity
  8
0
  6
CONTINUOUS
100
AcDbLine
 10
-0.0000000000000002
 20
5.854384280393278
 30
0.0
 11
1.420999999998571
 21
7.275384280391849
 31
0.0
  0
LINE
  5
2166C
330
21666
100
AcDbEntity
  8
0
  6
CONTINUOUS
100
AcDbLine
 10
-0.0000000000000002
 20
5.180865071313091
 30
0.0
 11
1.420999999998571
 21
6.601865071311663
 31
0.0
  0
LINE
  5
2166D
330
21666
100
AcDbEntity
  8
0
  6
CONTINUOUS
100
AcDbLine
 10
0.0
 20
4.507345862232905
 30
0.0
 11
1.420999999998571
 21
5.928345862231477
 31
0.0
  0
LINE
  5
2166E
330
21666
100
AcDbEntity
  8
0
  6
CONTINUOUS
100
AcDbLine
 10
-0.0000000000000003
 20
3.833826653152718
 30
0.0
 11
1.420999999998571
 21
5.25482665315129
 31
0.0
  0
LINE
  5
2166F
330
21666
100
AcDbEntity
  8
0
  6
CONTINUOUS
100
AcDbLine
 10
-0.0000000000000002
 20
3.160307444072532
 30
0.0
 11
1.420999999998571
 21
4.581307444071103
 31
0.0
  0
LINE
  5
21670
330
21666
100
AcDbEntity
  8
0
  6
CONTINUOUS
100
AcDbLine
 10
-0.0000000000000001
 20
2.486788234992345
 30
0.0
 11
1.420999999998571
 21
3.907788234990917
 31
0.0
  0
LINE
  5
21671
330
21666
100
AcDbEntity
  8
0
  6
CONTINUOUS
100
AcDbLine
 10
-0.0000000000000006
 20
1.813269025912159
 30
0.0
 11
1.420999999998571
 21
3.234269025910731
 31
0.0
  0
LINE
  5
21672
330
21666
100
AcDbEntity
  8
0
  6
CONTINUOUS
100
AcDbLine
 10
0.0
 20
1.139749816831973
 30
0.0
 11
1.420999999998571
 21
2.560749816830544
 31
0.0
  0
LINE
  5
21673
330
21666
100
AcDbEntity
  8
0
  6
CONTINUOUS
100
AcDbLine
 10
0.0000000000000002
 20
0.466230607751787
 30
0.0
 11
1.420999999998571
 21
1.887230607750358
 31
0.0
  0
LINE
  5
21674
330
21666
100
AcDbEntity
  8
0
  6
CONTINUOUS
100
AcDbLine
 10
0.2072886013284003
 20
-0.0000000000000009
 30
0.0
 11
1.420999999998571
 21
1.213711398670171
 31
0.0
  0
LINE
  5
21675
330
21666
100
AcDbEntity
  8
0
  6
CONTINUOUS
100
AcDbLine
 10
0.8808078104085864
 20
-0.0000000000000009
 30
0.0
 11
1.420999999998571
 21
0.5401921895899839
 31
0.0
  0
LINE
  5
21676
330
21666
100
AcDbEntity
  8
0
  6
CONTINUOUS
100
AcDbLine
 10
0.0581249075061505
 20
-0.0000000000000009
 30
0.0
 11
-0.0000000000000002
 21
0.0581249075061496
 31
0.0
  0
LINE
  5
21677
330
21666
100
AcDbEntity
  8
0
  6
CONTINUOUS
100
AcDbLine
 10
0.7316441165863372
 20
-0.0000000000000009
 30
0.0
 11
-0.0000000000000002
 21
0.7316441165863363
 31
0.0
  0
LINE
  5
21678
330
21666
100
AcDbEntity
  8
0
  6
CONTINUOUS
100
AcDbLine
 10
1.405163325666523
 20
-0.0000000000000009
 30
0.0
 11
-0.0000000000000002
 21
1.405163325666523
 31
0.0
  0
LINE
  5
21679
330
21666
100
AcDbEntity
  8
0
  6
CONTINUOUS
100
AcDbLine
 10
1.420999999998572
 20
0.6576825347481381
 30
0.0
 11
-0.0000000000000001
 21
2.07868253474671
 31
0.0
  0
LINE
  5
2167A
330
21666
100
AcDbEntity
  8
0
  6
CONTINUOUS
100
AcDbLine
 10
1.420999999998571
 20
1.331201743828324
 30
0.0
 11
-0.0000000000000001
 21
2.752201743826896
 31
0.0
  0
LINE
  5
2167B
330
21666
100
AcDbEntity
  8
0
  6
CONTINUOUS
100
AcDbLine
 10
1.420999999998571
 20
2.004720952908511
 30
0.0
 11
-0.0000000000000002
 21
3.425720952907082
 31
0.0
  0
LINE
  5
2167C
330
21666
100
AcDbEntity
  8
0
  6
CONTINUOUS
100
AcDbLine
 10
1.420999999998571
 20
2.678240161988697
 30
0.0
 11
-0.0000000000000001
 21
4.099240161987269
 31
0.0
  0
LINE
  5
2167D
330
21666
100
AcDbEntity
  8
0
  6
CONTINUOUS
100
AcDbLine
 10
1.420999999998572
 20
3.351759371068884
 30
0.0
 11
0.0
 21
4.772759371067455
 31
0.0
  0
LINE
  5
2167E
330
21666
100
AcDbEntity
  8
0
  6
CONTINUOUS
100
AcDbLine
 10
1.420999999998571
 20
4.02527858014907
 30
0.0
 11
-0.0000000000000003
 21
5.446278580147642
 31
0.0
  0
LINE
  5
2167F
330
21666
100
AcDbEntity
  8
0
  6
CONTINUOUS
100
AcDbLine
 10
1.420999999998571
 20
4.698797789229257
 30
0.0
 11
0.0
 21
6.119797789227828
 31
0.0
  0
LINE
  5
21680
330
21666
100
AcDbEntity
  8
0
  6
CONTINUOUS
100
AcDbLine
 10
1.420999999998571
 20
5.372316998309444
 30
0.0
 11
-0.0000000000000001
 21
6.793316998308015
 31
0.0
  0
LINE
  5
21681
330
21666
100
AcDbEntity
  8
0
  6
CONTINUOUS
100
AcDbLine
 10
1.420999999998572
 20
6.045836207389629
 30
0.0
 11
-0.0000000000000004
 21
7.466836207388202
 31
0.0
  0
LINE
  5
21682
330
21666
100
AcDbEntity
  8
0
  6
CONTINUOUS
100
AcDbLine
 10
1.420999999998571
 20
6.719355416469816
 30
0.0
 11
0.0
 21
8.140355416468388
 31
0.0
  0
LINE
  5
21683
330
21666
100
AcDbEntity
  8
0
  6
CONTINUOUS
100
AcDbLine
 10
1.420999999998571
 20
7.392874625550003
 30
0.0
 11
0.0507746255573185
 21
8.763099999991255
 31
0.0
  0
LINE
  5
21684
330
21666
100
AcDbEntity
  8
0
  6
CONTINUOUS
100
AcDbLine
 10
1.420999999998571
 20
8.06639383463019
 30
0.0
 11
0.7242938346375052
 21
8.763099999991255
 31
0.0
  0
LINE
  5
21685
330
21666
100
AcDbEntity
  8
0
  6
CONTINUOUS
100
AcDbLine
 10
1.420999999998571
 20
8.739913043710375
 30
0.0
 11
1.397813043717691
 21
8.763099999991255
 31
0.0
  0
ENDBLK
  5
21691
330
21666
100
AcDbEntity
  8
0
100
AcDbBlockEnd
  0
ENDSEC
  0
SECTION
  2
ENTITIES
  0
LINE
  5
20CF8
330
18
100
AcDbEntity
  8
01
100
AcDbLine
 10
597.0706022208308
 20
-850.4875975934054
 30
0.0
 11
70.69999999999774
 21
-850.4875975934035
 31
0.0
  0
LINE
  5
20CF9
330
18
100
AcDbEntity
  8
01
100
AcDbLine
 10
597.0706022208294
 20
-825.4875975934054
 30
0.0
 11
70.69999999999979
 21
-825.4875975934053
 31
0.0
  0
ARC
  5
20CFC
330
18
100
AcDbEntity
  8
01
100
AcDbCircle
 10
160.9743622036438
 20
-4125.487546047794
 30
0.0
 40
3225.0
100
AcDbArc
 50
82.90655364928246
 51
90.01024397775302
  0
ARC
  5
20CFD
330
18
100
AcDbEntity
  8
01
100
AcDbCircle
 10
160.9743622036438
 20
-4125.487546047794
 30
0.0
 40
3200.0
100
AcDbArc
 50
82.91788773038871
 51
90.0102839157549
  0
LINE
  5
20CFF
330
18
100
AcDbEntity
  8
01
100
AcDbLine
 10
160.3977607792808
 20
-900.4875975934087
 30
0.0
 11
70.69999999999933
 21
-900.4875975934087
 31
0.0
  0
LINE
  5
20D00
330
18
100
AcDbEntity
  8
01
100
AcDbLine
 10
160.3999999989832
 20
-925.4875975934124
 30
0.0
 11
70.69999999999933
 21
-925.4875975934051
 31
0.0
  0
LINE
  5
20D02
330
18
100
AcDbEntity
  8
01
100
AcDbLine
 10
70.40000000000006
 20
-900.7875975934089
 30
0.0
 11
70.40000000000006
 21
-925.1875975934049
 31
0.0
  0
LINE
  5
20D03
330
18
100
AcDbEntity
  8
01
100
AcDbLine
 10
28.40000000000007
 20
-974.9875975934078
 30
0.0
 11
28.40000000000007
 21
-900.9875975934042
 31
0.0
  0
ARC
  5
20D05
330
18
100
AcDbEntity
  8
01
100
AcDbCircle
 10
70.09999999999988
 20
-850.1875975934042
 30
0.0
 40
0.3
100
AcDbArc
 50
270.0000000000217
 51
0.0000000000868503
  0
ARC
  5
20D06
330
18
100
AcDbEntity
  8
01
100
AcDbCircle
 10
70.70000000000024
 20
-850.1875975934042
 30
0.0
 40
0.3
100
AcDbArc
 50
179.9999999999131
 51
269.9999999999349
  0
ARC
  5
20D07
330
18
100
AcDbEntity
  8
01
100
AcDbCircle
 10
70.69999999999979
 20
-825.7875975934046
 30
0.0
 40
0.3
100
AcDbArc
 50
90.0
 51
180.0
  0
ARC
  5
20D08
330
18
100
AcDbEntity
  8
01
100
AcDbCircle
 10
70.09999999999988
 20
-825.7875975934046
 30
0.0
 40
0.3
100
AcDbArc
 50
0.0
 51
90.0
  0
LINE
  5
20D09
330
18
100
AcDbEntity
  8
01
100
AcDbLine
 10
70.39999999999984
 20
-850.1875975934024
 30
0.0
 11
70.39999999999984
 21
-825.7875975934046
 31
0.0
  0
LINE
  5
20D0A
330
18
100
AcDbEntity
  8
01
100
AcDbLine
 10
70.39999999999984
 20
-825.7875975934046
 30
0.0
 11
70.39999999999984
 21
-850.1875975934024
 31
0.0
  0
ARC
  5
20D0B
330
18
100
AcDbEntity
  8
01
100
AcDbCircle
 10
28.70000000000048
 20
-850.1875975934042
 30
0.0
 40
0.3
100
AcDbArc
 50
179.9999999999131
 51
269.9999999998698
  0
ARC
  5
20D0C
330
18
100
AcDbEntity
  8
01
100
AcDbCircle
 10
28.69999999999979
 20
-825.7875975934046
 30
0.0
 40
0.3
100
AcDbArc
 50
90.00000000002173
 51
180.0
  0
LINE
  5
20D0D
330
18
100
AcDbEntity
  8
01
100
AcDbLine
 10
28.39999999999984
 20
-825.7875975934046
 30
0.0
 11
28.39999999999984
 21
-850.1875975934024
 31
0.0
  0
LINE
  5
20D0E
330
18
100
AcDbEntity
  8
01
100
AcDbLine
 10
28.69999999999979
 20
-850.4875975934035
 30
0.0
 11
70.09999999999988
 21
-850.4875975934035
 31
0.0
  0
LINE
  5
20D0F
330
18
100
AcDbEntity
  8
01
100
AcDbLine
 10
28.69999999999979
 20
-825.4875975934053
 30
0.0
 11
70.09999999999988
 21
-825.4875975934053
 31
0.0
  0
LINE
  5
20D10
330
18
100
AcDbEntity
  8
01
100
AcDbLine
 10
70.40000000000006
 20
-900.7875975934089
 30
0.0
 11
70.40000000000006
 21
-901.5275975934087
 31
0.0
  0
ARC
  5
20D11
330
18
100
AcDbEntity
  8
01
100
AcDbCircle
 10
70.69999999999638
 20
-900.7875975934062
 30
0.0
 40
0.3
100
AcDbArc
 50
89.9999999996526
 51
179.999999999696
  0
LINE
  5
20D12
330
18
100
AcDbEntity
  8
01
100
AcDbLine
 10
70.40000000000006
 20
-901.4875975934078
 30
0.0
 11
70.40000000000006
 21
-900.7875975934035
 31
0.0
  0
ARC
  5
20D13
330
18
100
AcDbEntity
  8
01
100
AcDbCircle
 10
70.10000000000124
 20
-900.7875975934035
 30
0.0
 40
0.3
100
AcDbArc
 50
0.0
 51
90.0
  0
ARC
  5
20D14
330
18
100
AcDbEntity
  8
01
100
AcDbCircle
 10
28.90000000000052
 20
-900.9875975934042
 30
0.0
 40
0.5
100
AcDbArc
 50
90.0
 51
180.0
  0
LINE
  5
20D15
330
18
100
AcDbEntity
  8
01
100
AcDbLine
 10
70.10000000000079
 20
-900.4875975934042
 30
0.0
 11
28.90000000000007
 21
-900.4875975934042
 31
0.0
  0
ARC
  5
20D17
330
18
100
AcDbEntity
  8
1PHANTOM
100
AcDbCircle
 10
53.22478660824746
 20
-958.4875975934151
 30
0.0
 40
1.0
100
AcDbArc
 50
2.000000000003655
 51
90.0
  0
ARC
  5
20D18
330
18
100
AcDbEntity
  8
1PHANTOM
100
AcDbCircle
 10
54.88284438740848
 20
-962.9875975934151
 30
0.0
 40
0.5
100
AcDbArc
 50
182.0000000000036
 51
270.0
  0
LINE
  5
20D19
330
18
100
AcDbEntity
  8
1PHANTOM
100
AcDbLine
 10
58.4000000000037
 20
-963.4875975934115
 30
0.0
 11
54.88284438741036
 21
-963.4875975934115
 31
0.0
  0
LINE
  5
20D1A
330
18
100
AcDbEntity
  8
1PHANTOM
100
AcDbLine
 10
54.22417743526827
 20
-958.4526980967089
 30
0.0
 11
54.38314897390089
 21
-963.0050473417609
 31
0.0
  0
ARC
  5
20D1C
330
18
100
AcDbEntity
  8
1PHANTOM
100
AcDbCircle
 10
66.01526199129913
 20
-964.4875975934151
 30
0.0
 40
1.0
100
AcDbArc
 50
2.000000000003641
 51
90.0
  0
LINE
  5
20D1D
330
18
100
AcDbEntity
  8
1PHANTOM
100
AcDbLine
 10
66.4000000000037
 20
-961.9875975934151
 30
0.0
 11
66.4000000000037
 21
-963.4875975934151
 31
0.0
  0
LINE
  5
20D1E
330
18
100
AcDbEntity
  8
1PHANTOM
100
AcDbLine
 10
63.6500000000037
 20
-963.4875975934151
 30
0.0
 11
66.4000000000037
 21
-963.4875975934151
 31
0.0
  0
LINE
  5
20D1F
330
18
100
AcDbEntity
  8
1PHANTOM
100
AcDbLine
 10
67.0146528183163
 20
-964.4526980967089
 30
0.0
 11
67.4000000000037
 21
-975.4875975934115
 31
0.0
  0
LINE
  5
20D20
330
18
100
AcDbEntity
  8
1PHANTOM
100
AcDbLine
 10
59.4000000000037
 20
-961.9875975934151
 30
0.0
 11
59.4000000000037
 21
-963.4875975934151
 31
0.0
  0
LINE
  5
20D21
330
18
100
AcDbEntity
  8
1PHANTOM
100
AcDbLine
 10
66.01526199129918
 20
-963.4875975934115
 30
0.0
 11
54.88284438740854
 21
-963.4875975934115
 31
0.0
  0
LINE
  5
20D22
330
18
100
AcDbEntity
  8
1PHANTOM
100
AcDbLine
 10
57.4000000000037
 20
-963.4875975934151
 30
0.0
 11
57.4000000000037
 21
-961.9875975934151
 31
0.0
  0
LINE
  5
20D23
330
18
100
AcDbEntity
  8
1PHANTOM
100
AcDbLine
 10
60.1500000000037
 20
-963.4875975934151
 30
0.0
 11
57.4000000000037
 21
-963.4875975934151
 31
0.0
  0
LINE
  5
20D24
330
18
100
AcDbEntity
  8
1PHANTOM
100
AcDbLine
 10
64.4000000000037
 20
-963.4875975934151
 30
0.0
 11
64.4000000000037
 21
-961.9875975934151
 31
0.0
  0
ARC
  5
20D25
330
18
100
AcDbEntity
  8
1PHANTOM
100
AcDbCircle
 10
43.91715561260244
 20
-962.9875975934151
 30
0.0
 40
0.5
100
AcDbArc
 50
270.0
 51
357.9999999999964
  0
ARC
  5
20D26
330
18
100
AcDbEntity
  8
1PHANTOM
100
AcDbCircle
 10
45.57521339176347
 20
-958.4875975934151
 30
0.0
 40
1.0
100
AcDbArc
 50
90.0
 51
177.9999999999964
  0
LINE
  5
20D27
330
18
100
AcDbEntity
  8
1PHANTOM
100
AcDbLine
 10
44.57582256474277
 20
-958.4526980967089
 30
0.0
 11
44.41685102611015
 21
-963.0050473417609
 31
0.0
  0
LINE
  5
20D28
330
18
100
AcDbEntity
  8
1PHANTOM
100
AcDbLine
 10
32.78473800871174
 20
-963.4875975934124
 30
0.0
 11
43.91715561260068
 21
-963.4875975934115
 31
0.0
  0
LINE
  5
20D29
330
18
100
AcDbEntity
  8
1HATCH
100
AcDbLine
 10
40.09140662080105
 20
-975.1875975934122
 30
0.0
 11
39.9000000000037
 21
-974.9961909726185
 31
0.0
  0
LINE
  5
20D2A
330
18
100
AcDbEntity
  8
1HATCH
100
AcDbLine
 10
31.41115049972948
 20
-975.4875975934078
 30
0.0
 11
31.40037624526528
 21
-975.4768233389436
 31
0.0
  0
LINE
  5
20D2B
330
18
100
AcDbEntity
  8
1PHANTOM
100
AcDbLine
 10
35.1500000000037
 20
-963.4875975934151
 30
0.0
 11
32.4000000000037
 21
-963.4875975934151
 31
0.0
  0
LINE
  5
20D2C
330
18
100
AcDbEntity
  8
1PHANTOM
100
AcDbLine
 10
35.1500000000037
 20
-963.4875975934151
 30
0.0
 11
32.4000000000037
 21
-963.4875975934151
 31
0.0
  0
LINE
  5
20D2D
330
18
100
AcDbEntity
  8
1PHANTOM
100
AcDbLine
 10
32.4000000000037
 20
-963.4875975934151
 30
0.0
 11
32.4000000000037
 21
-961.9875975934151
 31
0.0
  0
LINE
  5
20D2E
330
18
100
AcDbEntity
  8
1PHANTOM
100
AcDbLine
 10
32.4000000000037
 20
-963.4875975934151
 30
0.0
 11
32.4000000000037
 21
-961.9875975934151
 31
0.0
  0
LINE
  5
20D2F
330
18
100
AcDbEntity
  8
1PHANTOM
100
AcDbLine
 10
38.6500000000037
 20
-963.4875975934151
 30
0.0
 11
41.4000000000037
 21
-963.4875975934151
 31
0.0
  0
LINE
  5
20D30
330
18
100
AcDbEntity
  8
1PHANTOM
100
AcDbLine
 10
38.6500000000037
 20
-963.4875975934151
 30
0.0
 11
41.4000000000037
 21
-963.4875975934151
 31
0.0
  0
LINE
  5
20D31
330
18
100
AcDbEntity
  8
1PHANTOM
100
AcDbLine
 10
41.4000000000037
 20
-961.9875975934151
 30
0.0
 11
41.4000000000037
 21
-963.4875975934151
 31
0.0
  0
LINE
  5
20D32
330
18
100
AcDbEntity
  8
1PHANTOM
100
AcDbLine
 10
41.4000000000037
 20
-961.9875975934151
 30
0.0
 11
41.4000000000037
 21
-963.4875975934151
 31
0.0
  0
LINE
  5
20D33
330
18
100
AcDbEntity
  8
1PHANTOM
100
AcDbLine
 10
34.4000000000037
 20
-961.9875975934151
 30
0.0
 11
34.4000000000037
 21
-963.4875975934151
 31
0.0
  0
LINE
  5
20D34
330
18
100
AcDbEntity
  8
1PHANTOM
100
AcDbLine
 10
34.4000000000037
 20
-961.9875975934151
 30
0.0
 11
34.4000000000037
 21
-963.4875975934151
 31
0.0
  0
ARC
  5
20D35
330
18
100
AcDbEntity
  8
1PHANTOM
100
AcDbCircle
 10
32.7847380087118
 20
-964.4875975934151
 30
0.0
 40
1.0
100
AcDbArc
 50
90.0
 51
177.9999999999964
  0
LINE
  5
20D36
330
18
100
AcDbEntity
  8
1PHANTOM
100
AcDbLine
 10
31.78534718169474
 20
-964.4526980967089
 30
0.0
 11
31.4000000000037
 21
-975.4875975934115
 31
0.0
  0
ARC
  5
20D37
330
18
100
AcDbEntity
  8
01
100
AcDbCircle
 10
70.69999999999814
 20
-925.187597593404
 30
0.0
 40
0.3
100
AcDbArc
 50
180.0
 51
270.0
  0
LINE
  5
20D38
330
18
100
AcDbEntity
  8
1CENTER
100
AcDbLine
 10
49.4000000000037
 20
-957.3350351303338
 30
0.0
 11
49.4000000000037
 21
-966.64016005648
 31
0.0
  0
ARC
  5
20D39
330
18
100
AcDbEntity
  8
01
100
AcDbCircle
 10
70.10000000000119
 20
-975.1875975934086
 30
0.0
 40
0.3
100
AcDbArc
 50
270.0
 51
0.0
  0
LINE
  5
20D3A
330
18
100
AcDbEntity
  8
01
100
AcDbLine
 10
70.40000000000006
 20
-975.1875975934086
 30
0.0
 11
70.40000000000006
 21
-924.4875975934206
 31
0.0
  0
ARC
  5
20D3B
330
18
100
AcDbEntity
  8
01
100
AcDbCircle
 10
28.90000000000046
 20
-974.9875975934078
 30
0.0
 40
0.5
100
AcDbArc
 50
180.0
 51
270.0
  0
LINE
  5
20D3C
330
18
100
AcDbEntity
  8
01
100
AcDbLine
 10
70.10000000000079
 20
-975.4875975934078
 30
0.0
 11
28.90000000000007
 21
-975.4875975934078
 31
0.0
  0
LINE
  5
20D3D
330
18
100
AcDbEntity
  8
1CENTER
100
AcDbLine
 10
44.74743753693153
 20
-961.9875975934078
 30
0.0
 11
54.05256246307587
 21
-961.9875975934078
 31
0.0
  0
LINE
  5
20D3E
330
18
100
AcDbEntity
  8
01
100
AcDbLine
 10
598.9457621143621
 20
-932.1756556617461
 30
0.0
 11
559.2230663188133
 21
-925.1714726465148
 31
0.0
  0
LINE
  5
20D3F
330
18
100
AcDbEntity
  8
01
100
AcDbLine
 10
697.307031392661
 20
-825.4875975934054
 30
0.0
 11
597.0706022194704
 21
-825.4875975934054
 31
0.0
  0
LINE
  5
20D40
330
18
100
AcDbEntity
  8
01
100
AcDbLine
 10
697.3070313926664
 20
-850.4875975934054
 30
0.0
 11
597.0706022194718
 21
-850.4875975934054
 31
0.0
  0
ELLIPSE
  5
20D41
330
18
100
AcDbEntity
  8
01
100
AcDbEllipse
 10
597.0706022194713
 20
-837.9875975934054
 30
0.0
 11
2.296136913416957E-15
 21
12.5
 31
0.0
210
0.0
220
0.0
230
1.0
 40
0.1736481776634901
 41
3.141592653589793
 42
6.283185307179586
  0
ELLIPSE
  5
20D42
330
18
100
AcDbEntity
  8
01
100
AcDbEllipse
 10
697.3070313926664
 20
-837.9875975934054
 30
0.0
 11
26.09296860595009
 21
-4.793042271740145E-15
 31
0.0
210
0.0
220
0.0
230
1.0
 40
0.4790562618141338
 41
4.71238898038469
 42
7.853981633974483
  0
ARC
  5
20D44
330
18
100
AcDbEntity
  8
01
100
AcDbCircle
 10
560.049613551443
 20
-1250.154185767844
 30
0.0
 40
320.0
100
AcDbArc
 50
59.30486154430631
 51
78.58172727427862
  0
LINE
  5
20D45
330
18
100
AcDbEntity
  8
01
100
AcDbLine
 10
723.0999999986162
 20
-975.4875975934096
 30
0.0
 11
615.1999999986157
 21
-975.4875975934033
 31
0.0
  0
ARC
  5
20D46
330
18
100
AcDbEntity
  8
01
100
AcDbCircle
 10
615.1999999986155
 20
-975.1875975934031
 30
0.0
 40
0.3
100
AcDbArc
 50
180.0
 51
270.0
  0
LINE
  5
20D47
330
18
100
AcDbEntity
  8
01
100
AcDbLine
 10
614.8999999986155
 20
-961.2135831857036
 30
0.0
 11
614.8999999986155
 21
-975.187597593404
 31
0.0
  0
ARC
  5
20D48
330
18
100
AcDbEntity
  8
01
100
AcDbCircle
 10
613.8999999986155
 20
-961.2135831857036
 30
0.0
 40
1.0
100
AcDbArc
 50
0.0
 51
80.00000000000139
  0
ARC
  5
20D49
330
18
100
AcDbEntity
  8
01
100
AcDbCircle
 10
599.4845523128923
 20
-932.5752868942541
 30
0.0
 40
0.3
100
AcDbArc
 50
79.99999999999034
 51
170.0000000001438
  0
LINE
  5
20D4A
330
18
100
AcDbEntity
  8
01
100
AcDbLine
 10
623.3999999986191
 20
-936.4875975934051
 30
0.0
 11
599.5366467661923
 21
-932.2798445683507
 31
0.0
  0
LINE
  5
20D4B
330
18
100
AcDbEntity
  8
01
100
AcDbLine
 10
614.0736481762825
 20
-960.2287754326912
 30
0.0
 11
595.1954331947508
 21
-956.9000367838316
 31
0.0
  0
ARC
  5
20D4C
330
18
100
AcDbEntity
  8
01
100
AcDbCircle
 10
598.8936676610621
 20
-932.4710979876495
 30
0.0
 40
0.3
100
AcDbArc
 50
350.0000000001903
 51
79.99999999999034
  0
LINE
  5
20D4D
330
18
100
AcDbEntity
  8
01
100
AcDbLine
 10
599.1891099869661
 20
-932.5231924409486
 30
0.0
 11
594.9520944519504
 21
-956.5525016146048
 31
0.0
  0
LINE
  5
20D4E
330
18
100
AcDbEntity
  8
1PHANTOM
100
AcDbLine
 10
664.4000000000036
 20
-963.4875975934151
 30
0.0
 11
664.4000000000036
 21
-961.9875975934151
 31
0.0
  0
LINE
  5
20D4F
330
18
100
AcDbEntity
  8
1PHANTOM
100
AcDbLine
 10
660.1500000000036
 20
-963.4875975934151
 30
0.0
 11
657.4000000000036
 21
-963.4875975934151
 31
0.0
  0
LINE
  5
20D50
330
18
100
AcDbEntity
  8
1PHANTOM
100
AcDbLine
 10
657.4000000000036
 20
-963.4875975934151
 30
0.0
 11
657.4000000000036
 21
-961.9875975934151
 31
0.0
  0
LINE
  5
20D51
330
18
100
AcDbEntity
  8
1PHANTOM
100
AcDbLine
 10
659.4000000000036
 20
-961.9875975934151
 30
0.0
 11
659.4000000000036
 21
-963.4875975934151
 31
0.0
  0
LINE
  5
20D52
330
18
100
AcDbEntity
  8
1PHANTOM
100
AcDbLine
 10
667.0146528183162
 20
-964.4526980967089
 30
0.0
 11
667.4000000000036
 21
-975.4875975934115
 31
0.0
  0
LINE
  5
20D53
330
18
100
AcDbEntity
  8
1PHANTOM
100
AcDbLine
 10
663.6500000000036
 20
-963.4875975934151
 30
0.0
 11
666.4000000000036
 21
-963.4875975934151
 31
0.0
  0
LINE
  5
20D54
330
18
100
AcDbEntity
  8
1PHANTOM
100
AcDbLine
 10
666.4000000000036
 20
-961.9875975934151
 30
0.0
 11
666.4000000000036
 21
-963.4875975934151
 31
0.0
  0
ARC
  5
20D55
330
18
100
AcDbEntity
  8
1PHANTOM
100
AcDbCircle
 10
666.0152619912991
 20
-964.4875975934151
 30
0.0
 40
1.0
100
AcDbArc
 50
2.000000000003725
 51
90.0
  0
LINE
  5
20D57
330
18
100
AcDbEntity
  8
1PHANTOM
100
AcDbLine
 10
654.2241774352682
 20
-958.4526980967089
 30
0.0
 11
654.3831489739008
 21
-963.0050473417609
 31
0.0
  0
LINE
  5
20D58
330
18
100
AcDbEntity
  8
1PHANTOM
100
AcDbLine
 10
658.4000000000036
 20
-963.4875975934115
 30
0.0
 11
654.8828443874103
 21
-963.4875975934115
 31
0.0
  0
ARC
  5
20D59
330
18
100
AcDbEntity
  8
1PHANTOM
100
AcDbCircle
 10
654.8828443874085
 20
-962.9875975934151
 30
0.0
 40
0.5
100
AcDbArc
 50
182.0000000000035
 51
270.0
  0
LINE
  5
20D5A
330
18
100
AcDbEntity
  8
1PHANTOM
100
AcDbLine
 10
666.0152619912991
 20
-963.4875975934115
 30
0.0
 11
654.8828443874085
 21
-963.4875975934115
 31
0.0
  0
LINE
  5
20D5B
330
18
100
AcDbEntity
  8
1CENTER
100
AcDbLine
 10
649.4000000000036
 20
-957.3350351303338
 30
0.0
 11
649.4000000000036
 21
-966.64016005648
 31
0.0
  0
LINE
  5
20D5C
330
18
100
AcDbEntity
  8
1PHANTOM
100
AcDbLine
 10
631.7853471816946
 20
-964.4526980967089
 30
0.0
 11
631.4000000000036
 21
-975.4875975934115
 31
0.0
  0
ARC
  5
20D5D
330
18
100
AcDbEntity
  8
1PHANTOM
100
AcDbCircle
 10
632.7847380087118
 20
-964.4875975934151
 30
0.0
 40
1.0
100
AcDbArc
 50
90.0
 51
177.9999999999963
  0
LINE
  5
20D5E
330
18
100
AcDbEntity
  8
1PHANTOM
100
AcDbLine
 10
634.4000000000036
 20
-961.9875975934151
 30
0.0
 11
634.4000000000036
 21
-963.4875975934151
 31
0.0
  0
LINE
  5
20D5F
330
18
100
AcDbEntity
  8
1PHANTOM
100
AcDbLine
 10
634.4000000000036
 20
-961.9875975934151
 30
0.0
 11
634.4000000000036
 21
-963.4875975934151
 31
0.0
  0
LINE
  5
20D60
330
18
100
AcDbEntity
  8
1PHANTOM
100
AcDbLine
 10
639.4000000000036
 20
-963.4875975934151
 30
0.0
 11
639.4000000000036
 21
-961.9875975934151
 31
0.0
  0
LINE
  5
20D61
330
18
100
AcDbEntity
  8
1PHANTOM
100
AcDbLine
 10
641.4000000000036
 20
-961.9875975934151
 30
0.0
 11
641.4000000000036
 21
-963.4875975934151
 31
0.0
  0
LINE
  5
20D62
330
18
100
AcDbEntity
  8
1PHANTOM
100
AcDbLine
 10
639.4000000000036
 20
-963.4875975934151
 30
0.0
 11
639.4000000000036
 21
-961.9875975934151
 31
0.0
  0
LINE
  5
20D63
330
18
100
AcDbEntity
  8
1PHANTOM
100
AcDbLine
 10
641.4000000000036
 20
-961.9875975934151
 30
0.0
 11
641.4000000000036
 21
-963.4875975934151
 31
0.0
  0
LINE
  5
20D64
330
18
100
AcDbEntity
  8
1PHANTOM
100
AcDbLine
 10
638.6500000000036
 20
-963.4875975934151
 30
0.0
 11
641.4000000000036
 21
-963.4875975934151
 31
0.0
  0
LINE
  5
20D65
330
18
100
AcDbEntity
  8
1PHANTOM
100
AcDbLine
 10
638.6500000000036
 20
-963.4875975934151
 30
0.0
 11
641.4000000000036
 21
-963.4875975934151
 31
0.0
  0
LINE
  5
20D66
330
18
100
AcDbEntity
  8
1PHANTOM
100
AcDbLine
 10
632.4000000000036
 20
-963.4875975934151
 30
0.0
 11
632.4000000000036
 21
-961.9875975934151
 31
0.0
  0
LINE
  5
20D67
330
18
100
AcDbEntity
  8
1PHANTOM
100
AcDbLine
 10
632.4000000000036
 20
-963.4875975934151
 30
0.0
 11
632.4000000000036
 21
-961.9875975934151
 31
0.0
  0
LINE
  5
20D68
330
18
100
AcDbEntity
  8
1PHANTOM
100
AcDbLine
 10
635.1500000000036
 20
-963.4875975934151
 30
0.0
 11
632.4000000000036
 21
-963.4875975934151
 31
0.0
  0
LINE
  5
20D69
330
18
100
AcDbEntity
  8
1PHANTOM
100
AcDbLine
 10
635.1500000000036
 20
-963.4875975934151
 30
0.0
 11
632.4000000000036
 21
-963.4875975934151
 31
0.0
  0
LINE
  5
20D6A
330
18
100
AcDbEntity
  8
1HATCH
100
AcDbLine
 10
631.4111504997294
 20
-975.4875975934078
 30
0.0
 11
631.4003762452652
 21
-975.4768233389436
 31
0.0
  0
LINE
  5
20D6B
330
18
100
AcDbEntity
  8
1HATCH
100
AcDbLine
 10
640.091406620801
 20
-975.1875975934122
 30
0.0
 11
639.9000000000036
 21
-974.9961909726185
 31
0.0
  0
LINE
  5
20D6C
330
18
100
AcDbEntity
  8
1PHANTOM
100
AcDbLine
 10
644.5758225647427
 20
-958.4526980967089
 30
0.0
 11
644.4168510261101
 21
-963.0050473417609
 31
0.0
  0
ARC
  5
20D6D
330
18
100
AcDbEntity
  8
1PHANTOM
100
AcDbCircle
 10
645.5752133917634
 20
-958.4875975934151
 30
0.0
 40
1.0
100
AcDbArc
 50
90.0
 51
177.9999999999963
  0
ARC
  5
20D6E
330
18
100
AcDbEntity
  8
1PHANTOM
100
AcDbCircle
 10
643.9171556126024
 20
-962.9875975934151
 30
0.0
 40
0.5
100
AcDbArc
 50
270.0
 51
357.9999999999965
  0
LINE
  5
20D70
330
18
100
AcDbEntity
  8
1PHANTOM
100
AcDbLine
 10
632.7847380087118
 20
-963.4875975934124
 30
0.0
 11
643.9171556126006
 21
-963.4875975934115
 31
0.0
  0
LINE
  5
20D71
330
18
100
AcDbEntity
  8
1CENTER
100
AcDbLine
 10
644.7474375369314
 20
-961.9875975934078
 30
0.0
 11
654.0525624630758
 21
-961.9875975934078
 31
0.0
  0
ARC
  5
20D72
330
18
100
AcDbEntity
  8
1PHANTOM
100
AcDbCircle
 10
653.2247866082474
 20
-958.4875975934151
 30
0.0
 40
1.0
100
AcDbArc
 50
2.000000000003725
 51
90.0
  0
LINE
  5
20D73
330
18
100
AcDbEntity
  8
01
100
AcDbLine
 10
723.3999999986164
 20
-974.9875975934096
 30
0.0
 11
723.3999999986164
 21
-975.1875975934095
 31
0.0
  0
ARC
  5
20D74
330
18
100
AcDbEntity
  8
01
100
AcDbCircle
 10
723.099999998616
 20
-975.1875975934095
 30
0.0
 40
0.3
100
AcDbArc
 50
270.0
 51
0.0
  0
LINE
  5
20D75
330
18
100
AcDbEntity
  8
01
100
AcDbLine
 10
724.8127872694314
 20
-975.4875975934078
 30
0.0
 11
25.51984847617962
 21
-975.4875975934078
 31
0.0
  0
LINE
  5
20D76
330
18
100
AcDbEntity
  8
01
100
AcDbLine
 10
724.8127872694314
 20
-987.4875975934078
 30
0.0
 11
25.51984847617962
 21
-987.4875975934078
 31
0.0
  0
LINE
  5
20D77
330
18
100
AcDbEntity
  8
01
100
AcDbLine
 10
724.8127872694314
 20
-1002.487597593408
 30
0.0
 11
25.51984847617962
 21
-1002.487597593408
 31
0.0
  0
LINE
  5
20D78
330
18
100
AcDbEntity
  8
01
100
AcDbLine
 10
594.6045667636033
 20
-956.7958510900262
 30
0.0
 11
555.5076898781575
 21
-949.9020168336833
 31
0.0
  0
LINE
  5
20D79
330
18
100
AcDbEntity
  8
1PHANTOM
100
AcDbLine
 10
631.4000000000036
 20
-975.4875975934115
 30
0.0
 11
667.4000000000036
 21
-975.4875975934115
 31
0.0
  0
LINE
  5
20D7A
330
18
100
AcDbEntity
  8
1PHANTOM
100
AcDbLine
 10
645.5752133917634
 20
-957.4875975934151
 30
0.0
 11
653.2247866082474
 21
-957.4875975934151
 31
0.0
  0
LINE
  5
20D7B
330
18
100
AcDbEntity
  8
1PHANTOM
100
AcDbLine
 10
45.57521339176347
 20
-957.4875975934151
 30
0.0
 11
53.22478660824746
 21
-957.4875975934151
 31
0.0
  0
LINE
  5
20D7C
330
18
100
AcDbEntity
  8
1PHANTOM
100
AcDbLine
 10
31.4000000000037
 20
-975.4875975934115
 30
0.0
 11
67.4000000000037
 21
-975.4875975934115
 31
0.0
  0
ARC
  5
20D7D
330
18
100
AcDbEntity
  8
01
100
AcDbCircle
 10
595.2475367778543
 20
-956.6045960679039
 30
0.0
 40
0.3
100
AcDbArc
 50
170.0000000000117
 51
259.9999999999903
  0
ARC
  5
20D7E
330
18
100
AcDbEntity
  8
01
100
AcDbCircle
 10
594.6566521260713
 20
-956.5004071613075
 30
0.0
 40
0.3
100
AcDbArc
 50
259.9999999999903
 51
350.0000000001438
  0
CIRCLE
  5
20D7F
330
18
100
AcDbEntity
  8
01
100
AcDbCircle
 10
649.4000000000036
 20
-961.9876458808826
 30
0.0
 40
3.1
  0
LINE
  5
20D81
330
18
100
AcDbEntity
  8
1CENTER
100
AcDbLine
 10
644.7474375369314
 20
-961.9875975934078
 30
0.0
 11
654.0525624630758
 21
-961.9875975934078
 31
0.0
  0
LINE
  5
20D82
330
18
100
AcDbEntity
  8
1CENTER
100
AcDbLine
 10
649.4000000000036
 20
-966.6401600564818
 30
0.0
 11
649.4000000000036
 21
-957.3350351303357
 31
0.0
  0
CIRCLE
  5
20D83
330
18
100
AcDbEntity
  8
01
100
AcDbCircle
 10
49.40000000000376
 20
-961.9876458808826
 30
0.0
 40
3.1
  0
LINE
  5
20D85
330
18
100
AcDbEntity
  8
1CENTER
100
AcDbLine
 10
44.74743753693159
 20
-961.9875975934078
 30
0.0
 11
54.05256246307593
 21
-961.9875975934078
 31
0.0
  0
LINE
  5
20D86
330
18
100
AcDbEntity
  8
1CENTER
100
AcDbLine
 10
49.40000000000376
 20
-966.6401600564818
 30
0.0
 11
49.40000000000376
 21
-957.3350351303357
 31
0.0
  0
LINE
  5
20D87
330
18
100
AcDbEntity
  8
1CENTER
100
AcDbLine
 10
36.90000000000546
 20
-843.9875975934053
 30
0.0
 11
36.90000000000546
 21
-831.9875975934053
 31
0.0
  0
LINE
  5
20D88
330
18
100
AcDbEntity
  8
1CENTER
100
AcDbLine
 10
30.90000000000547
 20
-837.9875975934053
 30
0.0
 11
42.90000000000546
 21
-837.9875975934053
 31
0.0
  0
LINE
  5
20D89
330
18
100
AcDbEntity
  8
1CENTER
100
AcDbLine
 10
61.90000000000546
 20
-843.9875975934053
 30
0.0
 11
61.90000000000546
 21
-831.9875975934053
 31
0.0
  0
LINE
  5
20D8A
330
18
100
AcDbEntity
  8
1CENTER
100
AcDbLine
 10
55.90000000000546
 20
-837.9875975934053
 30
0.0
 11
67.90000000000546
 21
-837.9875975934053
 31
0.0
  0
LINE
  5
20D8B
330
18
100
AcDbEntity
  8
1CENTER
100
AcDbLine
 10
636.9000000000055
 20
-843.9875975934054
 30
0.0
 11
636.9000000000055
 21
-831.9875975934054
 31
0.0
  0
LINE
  5
20D8C
330
18
100
AcDbEntity
  8
1CENTER
100
AcDbLine
 10
630.9000000000055
 20
-837.9875975934054
 30
0.0
 11
642.9000000000055
 21
-837.9875975934054
 31
0.0
  0
LINE
  5
20D8D
330
18
100
AcDbEntity
  8
1CENTER
100
AcDbLine
 10
661.9000000000055
 20
-843.9875975934054
 30
0.0
 11
661.9000000000055
 21
-831.9875975934054
 31
0.0
  0
LINE
  5
20D8E
330
18
100
AcDbEntity
  8
1CENTER
100
AcDbLine
 10
655.9000000000055
 20
-837.9875975934054
 30
0.0
 11
667.9000000000055
 21
-837.9875975934054
 31
0.0
  0
TEXT
  5
20D8F
330
18
100
AcDbEntity
  8
1TEXT
100
AcDbText
 10
28.39999999999978
 20
-795.4875975934054
 30
0.0
 40
16.0
  1
KH-30-X
100
AcDbText
  0
LINE
  5
20D90
330
18
100
AcDbEntity
  8
1DIM
100
AcDbLine
 10
513.3999999986155
 20
-767.4875975934054
 30
0.0
 11
723.3999999986165
 21
-767.4875975934045
 31
0.0
  0
TEXT
  5
20D91
330
18
100
AcDbEntity
  8
1TEXT
100
AcDbText
 10
520.0666666652825
 20
-764.4875975934054
 30
0.0
 40
8.0
  1
仕上げ：脚部
 72
     1
 11
548.1999999986158
 21
-764.4875975934054
 31
0.0
100
AcDbText
  0
LINE
  5
20D92
330
18
100
AcDbEntity
  8
1DIM
100
AcDbLine
 10
513.3999999986155
 20
-753.4875975934054
 30
0.0
 11
723.3999999986165
 21
-753.4875975934045
 31
0.0
  0
TEXT
  5
20D93
330
18
100
AcDbEntity
  8
1TEXT
100
AcDbText
 10
674.4666666652824
 20
-764.4875975934054
 30
0.0
 40
8.0
  1
コード
 72
     1
 11
688.1999999986158
 21
-764.4875975934054
 31
0.0
100
AcDbText
  0
TEXT
  5
20D94
330
18
100
AcDbEntity
  8
1TEXT
100
AcDbText
 10
591.1333333319491
 20
-764.4875975934054
 30
0.0
 40
8.0
  1
仕上げ：握り
 72
     1
 11
618.1999999986158
 21
-764.4875975934054
 31
0.0
100
AcDbText
  0
LINE
  5
20D95
330
18
100
AcDbEntity
  8
1DIM
100
AcDbLine
 10
513.3999999986152
 20
-781.4875975934053
 30
0.0
 11
723.3999999986165
 21
-781.4875975934054
 31
0.0
  0
LINE
  5
20D96
330
18
100
AcDbEntity
  8
1DIM
100
AcDbLine
 10
583.3999999986156
 20
-795.4875975934054
 30
0.0
 11
653.3999999986156
 21
-795.4875975934054
 31
0.0
  0
LINE
  5
20D97
330
18
100
AcDbEntity
  8
1DIM
100
AcDbLine
 10
513.3999999986149
 20
-795.4875975934053
 30
0.0
 11
723.3999999986165
 21
-795.4875975934054
 31
0.0
  0
TEXT
  5
20D98
330
18
100
AcDbEntity
  8
1TEXT
100
AcDbText
 10
595.1333333319509
 20
-792.9163115607042
 30
0.0
 40
8.0
  1
ヘアライン
 72
     1
 11
618.1999999986176
 21
-792.9163115607042
 31
0.0
100
AcDbText
  0
TEXT
  5
20D99
330
18
100
AcDbEntity
  8
1TEXT
100
AcDbText
 10
595.1333333319509
 20
-778.9163115607042
 30
0.0
 40
8.0
  1
ヘアライン
 72
     1
 11
618.1999999986176
 21
-778.9163115607042
 31
0.0
100
AcDbText
  0
LINE
  5
20D9A
330
18
100
AcDbEntity
  8
1DIM
100
AcDbLine
 10
583.3999999986156
 20
-753.4875975934054
 30
0.0
 11
583.3999999986152
 21
-795.4875975934056
 31
0.0
  0
LINE
  5
20D9B
330
18
100
AcDbEntity
  8
1DIM
100
AcDbLine
 10
653.3999999986156
 20
-753.4875975934045
 30
0.0
 11
653.3999999986156
 21
-795.4875975934054
 31
0.0
  0
LINE
  5
20D9C
330
18
100
AcDbEntity
  8
1DIM
100
AcDbLine
 10
723.3999999986165
 20
-753.4875975934045
 30
0.0
 11
723.3999999986156
 21
-795.4875975934054
 31
0.0
  0
LINE
  5
20D9D
330
18
100
AcDbEntity
  8
1DIM
100
AcDbLine
 10
513.3999999986155
 20
-753.4875975934054
 30
0.0
 11
513.3999999986149
 21
-795.4875975934054
 31
0.0
  0
TEXT
  5
20D9E
330
18
100
AcDbEntity
  8
1TEXT
100
AcDbText
 10
658.1999999986176
 20
-792.9163115607042
 30
0.0
 40
8.0
  1
KH-30-TN
 72
     1
 11
688.1999999986176
 21
-792.9163115607042
 31
0.0
100
AcDbText
  0
TEXT
  5
20D9F
330
18
100
AcDbEntity
  8
1TEXT
100
AcDbText
 10
658.1999999986176
 20
-778.9163115607042
 30
0.0
 40
8.0
  1
KH-30-TC
 72
     1
 11
688.1999999986176
 21
-778.9163115607042
 31
0.0
100
AcDbText
  0
TEXT
  5
20DAB
330
18
100
AcDbEntity
  8
1TEXT
100
AcDbText
 10
515.1333333319504
 20
-792.9163115607042
 30
0.0
 40
8.0
  1
サテンニッケル
 72
     1
 11
548.1999999986172
 21
-792.9163115607042
 31
0.0
100
AcDbText
  0
TEXT
  5
20DAC
330
18
100
AcDbEntity
  8
1TEXT
100
AcDbText
 10
529.2666666652839
 20
-778.9163115607042
 30
0.0
 40
8.0
  1
クローム
 72
     1
 11
548.1999999986172
 21
-778.9163115607042
 31
0.0
100
AcDbText
  0
LINE
  5
20DAD
330
18
100
AcDbEntity
  8
01
100
AcDbLine
 10
731.1938056612297
 20
-912.9875975934042
 30
0.0
 11
731.1938056612297
 21
-975.4875975934078
 31
0.0
  0
LINE
  5
20DAE
330
18
100
AcDbEntity
  8
01
100
AcDbLine
 10
756.1938056612297
 20
-912.9875975934042
 30
0.0
 11
756.1938056612297
 21
-975.4875975934078
 31
0.0
  0
LINE
  5
20DAF
330
18
100
AcDbEntity
  8
01
100
AcDbLine
 10
731.1938056612297
 20
-975.4875975934078
 30
0.0
 11
756.1938056612297
 21
-975.4875975934078
 31
0.0
  0
ARC
  5
20DB0
330
18
100
AcDbEntity
  8
01
100
AcDbCircle
 10
743.6938056612297
 20
-912.9875975934042
 30
0.0
 40
12.5
100
AcDbArc
 50
0.0
 51
180.0
  0
ARC
  5
20DB1
330
18
100
AcDbEntity
  8
01
100
AcDbCircle
 10
743.6938056612297
 20
-944.7752868942541
 30
0.0
 40
12.5
100
AcDbArc
 50
0.0
 51
180.0
  0
LINE
  5
20DB2
330
18
100
AcDbEntity
  8
1CENTER
100
AcDbLine
 10
736.5236520899545
 20
-961.9876458808826
 30
0.0
 11
725.8396280858304
 21
-961.9876458808826
 31
0.0
  0
LINE
  5
20DB3
330
18
100
AcDbEntity
  8
1CENTER
100
AcDbLine
 10
750.863959232505
 20
-961.9876458808826
 30
0.0
 11
761.547983236629
 21
-961.9876458808826
 31
0.0
  0
LINE
  5
20DB4
330
18
100
AcDbEntity
  8
1PHANTOM
100
AcDbLine
 10
746.1938056612297
 20
-963.395889724283
 30
0.0
 11
746.1938056612297
 21
-961.895889724283
 31
0.0
  0
LINE
  5
20DB5
330
18
100
AcDbEntity
  8
1PHANTOM
100
AcDbLine
 10
741.9438056612297
 20
-963.395889724283
 30
0.0
 11
739.1938056612297
 21
-963.395889724283
 31
0.0
  0
LINE
  5
20DB6
330
18
100
AcDbEntity
  8
1PHANTOM
100
AcDbLine
 10
739.1938056612297
 20
-963.395889724283
 30
0.0
 11
739.1938056612297
 21
-961.895889724283
 31
0.0
  0
LINE
  5
20DB7
330
18
100
AcDbEntity
  8
1PHANTOM
100
AcDbLine
 10
741.1938056612297
 20
-961.895889724283
 30
0.0
 11
741.1938056612297
 21
-963.395889724283
 31
0.0
  0
LINE
  5
20DB8
330
18
100
AcDbEntity
  8
1PHANTOM
100
AcDbLine
 10
745.4438056612297
 20
-963.395889724283
 30
0.0
 11
748.1938056612297
 21
-963.395889724283
 31
0.0
  0
LINE
  5
20DB9
330
18
100
AcDbEntity
  8
1PHANTOM
100
AcDbLine
 10
748.1938056612297
 20
-961.895889724283
 30
0.0
 11
748.1938056612297
 21
-963.395889724283
 31
0.0
  0
LINE
  5
20DBB
330
18
100
AcDbEntity
  8
1PHANTOM
100
AcDbLine
 10
751.6938056612316
 20
-975.4875975934074
 30
0.0
 11
751.0989338625923
 21
-958.452698096705
 31
0.0
  0
ARC
  5
20DBC
330
18
100
AcDbEntity
  8
1PHANTOM
100
AcDbCircle
 10
750.0995430355731
 20
-958.4875975934076
 30
0.0
 40
1.0
100
AcDbArc
 50
2.000000000003725
 51
90.0
  0
ARC
  5
20DBD
330
18
100
AcDbEntity
  8
1PHANTOM
100
AcDbCircle
 10
750.3058651431652
 20
-964.395889724283
 30
0.0
 40
1.0
100
AcDbArc
 50
2.000000000003725
 51
90.0
  0
LINE
  5
20DBE
330
18
100
AcDbEntity
  8
1PHANTOM
100
AcDbLine
 10
735.6938056612314
 20
-975.4875975934074
 30
0.0
 11
736.2886774598708
 21
-958.452698096705
 31
0.0
  0
LINE
  5
20DBF
330
18
100
AcDbEntity
  8
1PHANTOM
100
AcDbLine
 10
737.0817461792976
 20
-963.395889724283
 30
0.0
 11
750.3058651431652
 21
-963.395889724283
 31
0.0
  0
ARC
  5
20DC0
330
18
100
AcDbEntity
  8
1PHANTOM
100
AcDbCircle
 10
737.0817461792976
 20
-964.395889724283
 30
0.0
 40
1.0
100
AcDbArc
 50
90.0
 51
177.9999999999963
  0
LINE
  5
20DC1
330
18
100
AcDbEntity
  8
1PHANTOM
100
AcDbLine
 10
735.6938056612314
 20
-975.4875975934074
 30
0.0
 11
751.6938056612317
 21
-975.4875975934078
 31
0.0
  0
LINE
  5
20DC2
330
18
100
AcDbEntity
  8
1PHANTOM
100
AcDbLine
 10
750.0995430355731
 20
-957.4875975934076
 30
0.0
 11
737.2880682868899
 21
-957.4875975934076
 31
0.0
  0
ARC
  5
20DC3
330
18
100
AcDbEntity
  8
1PHANTOM
100
AcDbCircle
 10
737.2880682868899
 20
-958.4875975934076
 30
0.0
 40
1.0
100
AcDbArc
 50
90.0
 51
177.9999999999963
  0
TEXT
  5
20DC6
330
18
100
AcDbEntity
  8
1TEXT
100
AcDbText
 10
515.2359523945839
 20
-807.948538003567
 30
0.0
 40
8.0
  1
※縦施工専用
100
AcDbText
  0
LINE
  5
2126C
330
18
100
AcDbEntity
  8
01
100
AcDbLine
 10
649.8703383748546
 20
-963.5822474948042
 30
0.0
 11
649.8703462227425
 21
-962.4579702155589
 31
0.0
  0
LINE
  5
2126D
330
18
100
AcDbEntity
  8
01
100
AcDbLine
 10
650.9946169356801
 20
-962.4579623677168
 30
0.0
 11
650.9946235019877
 21
-961.5172824459371
 31
0.0
  0
LINE
  5
2126E
330
18
100
AcDbEntity
  8
01
100
AcDbLine
 10
650.9946169356801
 20
-962.4579623677168
 30
0.0
 11
649.8703462227425
 21
-962.4579702155589
 31
0.0
  0
LINE
  5
2126F
330
18
100
AcDbEntity
  8
01
100
AcDbLine
 10
648.9296584530748
 20
-963.5822409284965
 30
0.0
 11
649.8703383748546
 21
-963.5822474948042
 31
0.0
  0
LINE
  5
21270
330
18
100
AcDbEntity
  8
01
100
AcDbLine
 10
648.9296584530748
 20
-963.5822409284965
 30
0.0
 11
648.9296506052787
 21
-962.4579767819762
 31
0.0
  0
LINE
  5
21271
330
18
100
AcDbEntity
  8
01
100
AcDbLine
 10
648.9296506052787
 20
-962.4579767819762
 30
0.0
 11
647.8053733258321
 21
-962.4579846298641
 31
0.0
  0
LINE
  5
21272
330
18
100
AcDbEntity
  8
01
100
AcDbLine
 10
648.9296440387698
 20
-961.517268031586
 30
0.0
 11
648.9296361909276
 21
-960.3929973186484
 31
0.0
  0
LINE
  5
21273
330
18
100
AcDbEntity
  8
01
100
AcDbLine
 10
648.9296440387698
 20
-961.517268031586
 30
0.0
 11
647.8053798924504
 21
-961.5172601837899
 31
0.0
  0
LINE
  5
21274
330
18
100
AcDbEntity
  8
01
100
AcDbLine
 10
647.8053798924504
 20
-961.5172601837899
 30
0.0
 11
647.8053733258321
 21
-962.4579846298641
 31
0.0
  0
LINE
  5
21275
330
18
100
AcDbEntity
  8
01
100
AcDbLine
 10
649.8703527891597
 20
-961.517274598095
 30
0.0
 11
649.8703606370019
 21
-960.3930038852669
 31
0.0
  0
LINE
  5
21276
330
18
100
AcDbEntity
  8
01
100
AcDbLine
 10
649.8703606370019
 20
-960.3930038852669
 30
0.0
 11
648.9296361909276
 21
-960.3929973186484
 31
0.0
  0
LINE
  5
21277
330
18
100
AcDbEntity
  8
01
100
AcDbLine
 10
650.9946235019877
 20
-961.5172824459371
 30
0.0
 11
649.8703527891597
 21
-961.517274598095
 31
0.0
  0
LINE
  5
21279
330
18
100
AcDbEntity
  8
01
100
AcDbLine
 10
49.87033837485475
 20
-963.5822474948042
 30
0.0
 11
49.8703462227426
 21
-962.4579702155589
 31
0.0
  0
LINE
  5
2127A
330
18
100
AcDbEntity
  8
01
100
AcDbLine
 10
50.99461693568028
 20
-962.4579623677168
 30
0.0
 11
50.99462350198789
 21
-961.5172824459371
 31
0.0
  0
LINE
  5
2127B
330
18
100
AcDbEntity
  8
01
100
AcDbLine
 10
50.99461693568028
 20
-962.4579623677168
 30
0.0
 11
49.8703462227426
 21
-962.4579702155589
 31
0.0
  0
LINE
  5
2127C
330
18
100
AcDbEntity
  8
01
100
AcDbLine
 10
48.92965845307495
 20
-963.5822409284965
 30
0.0
 11
49.87033837485475
 21
-963.5822474948042
 31
0.0
  0
LINE
  5
2127D
330
18
100
AcDbEntity
  8
01
100
AcDbLine
 10
48.92965845307495
 20
-963.5822409284965
 30
0.0
 11
48.92965060527885
 21
-962.4579767819762
 31
0.0
  0
LINE
  5
2127E
330
18
100
AcDbEntity
  8
01
100
AcDbLine
 10
48.92965060527885
 20
-962.4579767819762
 30
0.0
 11
47.80537332583216
 21
-962.4579846298641
 31
0.0
  0
LINE
  5
2127F
330
18
100
AcDbEntity
  8
01
100
AcDbLine
 10
48.92964403876985
 20
-961.517268031586
 30
0.0
 11
48.92963619092771
 21
-960.3929973186484
 31
0.0
  0
LINE
  5
21280
330
18
100
AcDbEntity
  8
01
100
AcDbLine
 10
48.92964403876985
 20
-961.517268031586
 30
0.0
 11
47.80537989245065
 21
-961.5172601837899
 31
0.0
  0
LINE
  5
21281
330
18
100
AcDbEntity
  8
01
100
AcDbLine
 10
47.80537989245065
 20
-961.5172601837899
 30
0.0
 11
47.80537332583216
 21
-962.4579846298641
 31
0.0
  0
LINE
  5
21282
330
18
100
AcDbEntity
  8
01
100
AcDbLine
 10
49.87035278915985
 20
-961.517274598095
 30
0.0
 11
49.87036063700199
 21
-960.3930038852669
 31
0.0
  0
LINE
  5
21283
330
18
100
AcDbEntity
  8
01
100
AcDbLine
 10
49.87036063700199
 20
-960.3930038852669
 30
0.0
 11
48.92963619092771
 21
-960.3929973186484
 31
0.0
  0
LINE
  5
21284
330
18
100
AcDbEntity
  8
01
100
AcDbLine
 10
50.99462350198789
 20
-961.5172824459371
 30
0.0
 11
49.87035278915985
 21
-961.517274598095
 31
0.0
  0
CIRCLE
  5
21285
330
18
100
AcDbEntity
  8
01
100
AcDbCircle
 10
649.4000000000036
 20
-961.9875975934078
 30
0.0
 40
3.0
  0
CIRCLE
  5
21286
330
18
100
AcDbEntity
  8
01
100
AcDbCircle
 10
49.40000000000376
 20
-961.9875975934078
 30
0.0
 40
3.0
  0
LINE
  5
21287
330
18
100
AcDbEntity
  8
1DIM
100
AcDbLine
 10
723.3999999986164
 20
-975.1875975934095
 30
0.0
 11
723.3999999986164
 21
-1064.487597593408
 31
0.0
1001
ACAD
1000
DSTYLE
1002
{
1070
    40
1040
2.0
1002
}
  0
LINE
  5
21288
330
18
100
AcDbEntity
  8
1DIM
100
AcDbLine
 10
28.40000000000007
 20
-974.9875975934078
 30
0.0
 11
28.40000000000007
 21
-1064.487597593408
 31
0.0
1001
ACAD
1000
DSTYLE
1002
{
1070
    40
1040
2.0
1002
}
  0
LINE
  5
21289
330
18
100
AcDbEntity
  8
1DIM
100
AcDbLine
 10
719.3999999986164
 20
-1062.487597593408
 30
0.0
 11
32.40000000000006
 21
-1062.487597593408
 31
0.0
1001
ACAD
1000
DSTYLE
1002
{
1070
    40
1040
2.0
1002
}
  0
LINE
  5
2128D
330
18
100
AcDbEntity
  8
1DIM
100
AcDbLine
 10
49.40000000000376
 20
-966.6401600564818
 30
0.0
 11
49.40000000000376
 21
-1044.487597593408
 31
0.0
1001
ACAD
1000
DSTYLE
1002
{
1070
    40
1040
2.0
1002
}
  0
LINE
  5
2128E
330
18
100
AcDbEntity
  8
1DIM
100
AcDbLine
 10
649.4000000000036
 20
-966.6401600564818
 30
0.0
 11
649.4000000000036
 21
-1044.487597593408
 31
0.0
1001
ACAD
1000
DSTYLE
1002
{
1070
    40
1040
2.0
1002
}
  0
LINE
  5
2128F
330
18
100
AcDbEntity
  8
1DIM
100
AcDbLine
 10
53.40000000000376
 20
-1042.487597593408
 30
0.0
 11
645.4000000000036
 21
-1042.487597593408
 31
0.0
1001
ACAD
1000
DSTYLE
1002
{
1070
    40
1040
2.0
1002
}
  0
LINE
  5
21293
330
18
100
AcDbEntity
  8
1DIM
100
AcDbLine
 10
61.90000000000546
 20
-1013.433950823963
 30
0.0
 11
61.90000000000546
 21
-1024.487597593408
 31
0.0
1001
ACAD
1000
DSTYLE
1002
{
1070
    40
1040
2.0
1002
}
  0
LINE
  5
21294
330
18
100
AcDbEntity
  8
1DIM
100
AcDbLine
 10
36.90000000000552
 20
-1013.433950823963
 30
0.0
 11
36.90000000000552
 21
-1024.487597593408
 31
0.0
1001
ACAD
1000
DSTYLE
1002
{
1070
    40
1040
2.0
1002
}
  0
LINE
  5
21295
330
18
100
AcDbEntity
  8
1DIM
100
AcDbLine
 10
36.90000000000552
 20
-1022.487597593408
 30
0.0
 11
7.979405386660467
 21
-1022.487597593408
 31
0.0
1001
ACAD
1000
DSTYLE
1002
{
1070
    40
1040
2.0
1002
}
  0
LINE
  5
21296
330
18
100
AcDbEntity
  8
1DIM
100
AcDbLine
 10
57.90000000000546
 20
-1022.487597593408
 30
0.0
 11
40.90000000000552
 21
-1022.487597593408
 31
0.0
1001
ACAD
1000
DSTYLE
1002
{
1070
    40
1040
2.0
1002
}
  0
LINE
  5
2129A
330
18
100
AcDbEntity
  8
1DIM
100
AcDbLine
 10
29.75185664599119
 20
-900.4875975934042
 30
0.0
 11
19.06472086312309
 21
-900.4875975934042
 31
0.0
1001
ACAD
1000
DSTYLE
1002
{
1070
    40
1040
2.0
1002
}
  0
LINE
  5
2129B
330
18
100
AcDbEntity
  8
1DIM
100
AcDbLine
 10
28.90000000000007
 20
-975.4875975934078
 30
0.0
 11
19.06472086312307
 21
-975.4875975934078
 31
0.0
1001
ACAD
1000
DSTYLE
1002
{
1070
    40
1040
2.0
1002
}
  0
LINE
  5
2129C
330
18
100
AcDbEntity
  8
1DIM
100
AcDbLine
 10
21.06472086312309
 20
-904.4875975934042
 30
0.0
 11
21.06472086312307
 21
-971.4875975934078
 31
0.0
1001
ACAD
1000
DSTYLE
1002
{
1070
    40
1040
2.0
1002
}
  0
LINE
  5
212A0
330
18
100
AcDbEntity
  8
1DIM
100
AcDbLine
 10
28.69999999999979
 20
-825.4875975934053
 30
0.0
 11
19.06472086312309
 21
-825.4875975934053
 31
0.0
1001
ACAD
1000
DSTYLE
1002
{
1070
    40
1040
2.0
1002
}
  0
LINE
  5
212A1
330
18
100
AcDbEntity
  8
1DIM
100
AcDbLine
 10
28.69999999999979
 20
-850.4875975934035
 30
0.0
 11
19.06472086312309
 21
-850.4875975934035
 31
0.0
1001
ACAD
1000
DSTYLE
1002
{
1070
    40
1040
2.0
1002
}
  0
LINE
  5
212A2
330
18
100
AcDbEntity
  8
1DIM
100
AcDbLine
 10
21.06472086312309
 20
-850.4875975934035
 30
0.0
 11
21.06472086312308
 21
-868.620930926737
 31
0.0
1001
ACAD
1000
DSTYLE
1002
{
1070
    40
1040
2.0
1002
}
  0
LINE
  5
212A3
330
18
100
AcDbEntity
  8
1DIM
100
AcDbLine
 10
21.06472086312309
 20
-829.4875975934053
 30
0.0
 11
21.06472086312309
 21
-846.4875975934035
 31
0.0
1001
ACAD
1000
DSTYLE
1002
{
1070
    40
1040
2.0
1002
}
  0
LINE
  5
212A7
330
18
100
AcDbEntity
  8
0
100
AcDbLine
 10
39.40000000000546
 20
-988.1054631794609
 30
0.0
 11
34.40000000000546
 21
-989.1054631794609
 31
0.0
  0
LINE
  5
212A8
330
18
100
AcDbEntity
  8
1CENTER
100
AcDbLine
 10
36.90000000000545
 20
-1013.433950823963
 30
0.0
 11
36.90000000000546
 21
-957.004644843269
 31
0.0
  0
LINE
  5
212AA
330
18
100
AcDbEntity
  8
0
100
AcDbLine
 10
39.2162669410413
 20
-1006.142209791254
 30
0.0
 11
38.4662669410413
 21
-1005.992209791254
 31
0.0
  0
LINE
  5
212AB
330
18
100
AcDbEntity
  8
0
100
AcDbLine
 10
39.21626694104135
 20
-1006.142209791254
 30
0.0
 11
34.8193624599506
 21
-1007.021590687472
 31
0.0
  0
LINE
  5
212AC
330
18
100
AcDbEntity
  8
0
100
AcDbLine
 10
38.0837804005226
 20
-1010.368707099357
 30
0.0
 11
37.3337804005226
 21
-1010.218707099358
 31
0.0
  0
LINE
  5
212AD
330
18
100
AcDbEntity
  8
0
100
AcDbLine
 10
36.58664331306171
 20
-1010.96813451685
 30
0.0
 11
35.83664331306171
 21
-1010.81813451685
 31
0.0
  0
LINE
  5
212AE
330
18
100
AcDbEntity
  8
0
100
AcDbLine
 10
38.0837804005226
 20
-1010.368707099357
 30
0.0
 11
35.83664331306177
 21
-1010.81813451685
 31
0.0
  0
LINE
  5
212AF
330
18
100
AcDbEntity
  8
0
100
AcDbLine
 10
38.65002367078195
 20
-1008.255458445306
 30
0.0
 11
37.90002367078195
 21
-1008.105458445306
 31
0.0
  0
LINE
  5
212B0
330
18
100
AcDbEntity
  8
0
100
AcDbLine
 10
36.07800288650618
 20
-1009.069862602161
 30
0.0
 11
35.32800288650618
 21
-1008.919862602161
 31
0.0
  0
LINE
  5
212B1
330
18
100
AcDbEntity
  8
0
100
AcDbLine
 10
35.5693624599506
 20
-1007.171590687472
 30
0.0
 11
34.8193624599506
 21
-1007.021590687472
 31
0.0
  0
LINE
  5
212B2
330
18
100
AcDbEntity
  8
0
100
AcDbLine
 10
38.65002367078201
 20
-1008.255458445306
 30
0.0
 11
35.32800288650613
 21
-1008.919862602161
 31
0.0
  0
LINE
  5
212B3
330
18
100
AcDbEntity
  8
0
100
AcDbLine
 10
39.40000000000546
 20
-992.1054631794609
 30
0.0
 11
38.65000000000546
 21
-991.9554631794609
 31
0.0
  0
LINE
  5
212B4
330
18
100
AcDbEntity
  8
0
100
AcDbLine
 10
39.40000000000546
 20
-990.1054631794609
 30
0.0
 11
38.65000000000546
 21
-989.9554631794609
 31
0.0
  0
LINE
  5
212B5
330
18
100
AcDbEntity
  8
0
100
AcDbLine
 10
39.40000000000546
 20
-996.1054631794609
 30
0.0
 11
38.65000000000546
 21
-995.9554631794609
 31
0.0
  0
LINE
  5
212B6
330
18
100
AcDbEntity
  8
0
100
AcDbLine
 10
39.40000000000546
 20
-994.1054631794609
 30
0.0
 11
38.65000000000546
 21
-993.9554631794609
 31
0.0
  0
LINE
  5
212B7
330
18
100
AcDbEntity
  8
0
100
AcDbLine
 10
39.40000000000546
 20
-998.1054631794609
 30
0.0
 11
38.65000000000546
 21
-997.9554631794609
 31
0.0
  0
LINE
  5
212B8
330
18
100
AcDbEntity
  8
0
100
AcDbLine
 10
39.40000000000545
 20
-1000.105463179461
 30
0.0
 11
38.65000000000545
 21
-999.9554631794609
 31
0.0
  0
LINE
  5
212B9
330
18
100
AcDbEntity
  8
0
100
AcDbLine
 10
39.40000000000546
 20
-990.1054631794609
 30
0.0
 11
34.40000000000546
 21
-991.1054631794609
 31
0.0
  0
LINE
  5
212BA
330
18
100
AcDbEntity
  8
0
100
AcDbLine
 10
39.40000000000546
 20
-992.1054631794609
 30
0.0
 11
34.40000000000546
 21
-993.1054631794609
 31
0.0
  0
LINE
  5
212BB
330
18
100
AcDbEntity
  8
0
100
AcDbLine
 10
39.40000000000546
 20
-994.1054631794609
 30
0.0
 11
34.40000000000546
 21
-995.1054631794609
 31
0.0
  0
LINE
  5
212BC
330
18
100
AcDbEntity
  8
0
100
AcDbLine
 10
39.40000000000546
 20
-996.1054631794609
 30
0.0
 11
34.40000000000546
 21
-997.1054631794609
 31
0.0
  0
LINE
  5
212BD
330
18
100
AcDbEntity
  8
0
100
AcDbLine
 10
39.40000000000546
 20
-998.1054631794609
 30
0.0
 11
34.40000000000545
 21
-999.1054631794609
 31
0.0
  0
LINE
  5
212BE
330
18
100
AcDbEntity
  8
0
100
AcDbLine
 10
39.40000000000545
 20
-1004.105463179461
 30
0.0
 11
38.65000000000545
 21
-1003.955463179461
 31
0.0
  0
LINE
  5
212BF
330
18
100
AcDbEntity
  8
0
100
AcDbLine
 10
39.40000000000545
 20
-1002.105463179461
 30
0.0
 11
38.65000000000545
 21
-1001.955463179461
 31
0.0
  0
LINE
  5
212C0
330
18
100
AcDbEntity
  8
0
100
AcDbLine
 10
39.40000000000545
 20
-1002.105463179461
 30
0.0
 11
34.40000000000545
 21
-1003.105463179461
 31
0.0
  0
LINE
  5
212C1
330
18
100
AcDbEntity
  8
0
100
AcDbLine
 10
39.40000000000545
 20
-1004.105463179461
 30
0.0
 11
34.40000000000545
 21
-1005.105463179461
 31
0.0
  0
LINE
  5
212C2
330
18
100
AcDbEntity
  8
0
100
AcDbLine
 10
39.40000000000545
 20
-1000.105463179461
 30
0.0
 11
34.40000000000545
 21
-1001.105463179461
 31
0.0
  0
LINE
  5
212C3
330
18
100
AcDbEntity
  8
0
100
AcDbLine
 10
35.15000000000546
 20
-997.255463179461
 30
0.0
 11
34.40000000000546
 21
-997.1054631794609
 31
0.0
  0
LINE
  5
212C4
330
18
100
AcDbEntity
  8
0
100
AcDbLine
 10
35.15000000000545
 20
-1003.255463179461
 30
0.0
 11
34.40000000000545
 21
-1003.105463179461
 31
0.0
  0
LINE
  5
212C5
330
18
100
AcDbEntity
  8
0
100
AcDbLine
 10
35.15000000000545
 20
-1005.255463179461
 30
0.0
 11
34.40000000000545
 21
-1005.105463179461
 31
0.0
  0
LINE
  5
212C6
330
18
100
AcDbEntity
  8
0
100
AcDbLine
 10
35.15000000000545
 20
-999.255463179461
 30
0.0
 11
34.40000000000545
 21
-999.1054631794609
 31
0.0
  0
LINE
  5
212C7
330
18
100
AcDbEntity
  8
0
100
AcDbLine
 10
35.15000000000545
 20
-1001.255463179461
 30
0.0
 11
34.40000000000545
 21
-1001.105463179461
 31
0.0
  0
LINE
  5
212C8
330
18
100
AcDbEntity
  8
0
100
AcDbLine
 10
35.15000000000546
 20
-993.255463179461
 30
0.0
 11
34.40000000000546
 21
-993.1054631794609
 31
0.0
  0
LINE
  5
212C9
330
18
100
AcDbEntity
  8
0
100
AcDbLine
 10
35.15000000000546
 20
-995.255463179461
 30
0.0
 11
34.40000000000546
 21
-995.1054631794609
 31
0.0
  0
LINE
  5
212CA
330
18
100
AcDbEntity
  8
0
100
AcDbLine
 10
35.15000000000546
 20
-991.255463179461
 30
0.0
 11
34.40000000000546
 21
-991.1054631794609
 31
0.0
  0
LINE
  5
212CB
330
18
100
AcDbEntity
  8
0
100
AcDbLine
 10
35.15000000000546
 20
-989.255463179461
 30
0.0
 11
34.40000000000546
 21
-989.1054631794609
 31
0.0
  0
LINE
  5
212CC
330
18
100
AcDbEntity
  8
0
100
AcDbLine
 10
39.40000000000546
 20
-972.1054631794609
 30
0.0
 11
34.40000000000546
 21
-973.1054631794609
 31
0.0
  0
LINE
  5
212CD
330
18
100
AcDbEntity
  8
0
100
AcDbLine
 10
39.40000000000546
 20
-984.1054631794609
 30
0.0
 11
38.65000000000546
 21
-983.9554631794609
 31
0.0
  0
LINE
  5
212CE
330
18
100
AcDbEntity
  8
0
100
AcDbLine
 10
39.40000000000546
 20
-986.1054631794609
 30
0.0
 11
38.65000000000546
 21
-985.9554631794609
 31
0.0
  0
LINE
  5
212CF
330
18
100
AcDbEntity
  8
0
100
AcDbLine
 10
39.40000000000546
 20
-988.1054631794609
 30
0.0
 11
38.65000000000546
 21
-987.9554631794609
 31
0.0
  0
LINE
  5
212D0
330
18
100
AcDbEntity
  8
0
100
AcDbLine
 10
39.40000000000546
 20
-982.1054631794609
 30
0.0
 11
38.65000000000546
 21
-981.9554631794609
 31
0.0
  0
LINE
  5
212D1
330
18
100
AcDbEntity
  8
0
100
AcDbLine
 10
39.40000000000546
 20
-980.1054631794609
 30
0.0
 11
38.65000000000546
 21
-979.9554631794609
 31
0.0
  0
LINE
  5
212D2
330
18
100
AcDbEntity
  8
0
100
AcDbLine
 10
39.40000000000546
 20
-976.1054631794609
 30
0.0
 11
38.65000000000546
 21
-975.9554631794609
 31
0.0
  0
LINE
  5
212D3
330
18
100
AcDbEntity
  8
0
100
AcDbLine
 10
39.40000000000546
 20
-978.1054631794609
 30
0.0
 11
38.65000000000546
 21
-977.9554631794609
 31
0.0
  0
LINE
  5
212D4
330
18
100
AcDbEntity
  8
0
100
AcDbLine
 10
39.40000000000546
 20
-974.1054631794609
 30
0.0
 11
38.65000000000546
 21
-973.9554631794609
 31
0.0
  0
LINE
  5
212D5
330
18
100
AcDbEntity
  8
0
100
AcDbLine
 10
39.40000000000546
 20
-984.1054631794609
 30
0.0
 11
34.40000000000546
 21
-985.1054631794609
 31
0.0
  0
LINE
  5
212D6
330
18
100
AcDbEntity
  8
0
100
AcDbLine
 10
39.40000000000546
 20
-986.1054631794609
 30
0.0
 11
34.40000000000546
 21
-987.1054631794609
 31
0.0
  0
LINE
  5
212D7
330
18
100
AcDbEntity
  8
0
100
AcDbLine
 10
39.40000000000546
 20
-982.1054631794609
 30
0.0
 11
34.40000000000546
 21
-983.1054631794609
 31
0.0
  0
LINE
  5
212D8
330
18
100
AcDbEntity
  8
0
100
AcDbLine
 10
39.40000000000546
 20
-980.1054631794609
 30
0.0
 11
34.40000000000546
 21
-981.1054631794609
 31
0.0
  0
LINE
  5
212D9
330
18
100
AcDbEntity
  8
0
100
AcDbLine
 10
39.40000000000546
 20
-978.1054631794609
 30
0.0
 11
34.40000000000546
 21
-979.1054631794609
 31
0.0
  0
LINE
  5
212DA
330
18
100
AcDbEntity
  8
0
100
AcDbLine
 10
39.40000000000546
 20
-976.1054631794609
 30
0.0
 11
34.40000000000546
 21
-977.1054631794609
 31
0.0
  0
LINE
  5
212DB
330
18
100
AcDbEntity
  8
0
100
AcDbLine
 10
39.40000000000546
 20
-974.1054631794609
 30
0.0
 11
34.40000000000546
 21
-975.1054631794609
 31
0.0
  0
LINE
  5
212DC
330
18
100
AcDbEntity
  8
0
100
AcDbLine
 10
35.15000000000546
 20
-985.255463179461
 30
0.0
 11
34.40000000000546
 21
-985.1054631794609
 31
0.0
  0
LINE
  5
212DD
330
18
100
AcDbEntity
  8
0
100
AcDbLine
 10
35.15000000000546
 20
-987.255463179461
 30
0.0
 11
34.40000000000546
 21
-987.1054631794609
 31
0.0
  0
LINE
  5
212DE
330
18
100
AcDbEntity
  8
0
100
AcDbLine
 10
35.15000000000546
 20
-983.255463179461
 30
0.0
 11
34.40000000000546
 21
-983.1054631794609
 31
0.0
  0
LINE
  5
212DF
330
18
100
AcDbEntity
  8
0
100
AcDbLine
 10
35.15000000000546
 20
-981.255463179461
 30
0.0
 11
34.40000000000546
 21
-981.1054631794609
 31
0.0
  0
LINE
  5
212E0
330
18
100
AcDbEntity
  8
0
100
AcDbLine
 10
35.15000000000546
 20
-979.255463179461
 30
0.0
 11
34.40000000000546
 21
-979.1054631794609
 31
0.0
  0
LINE
  5
212E1
330
18
100
AcDbEntity
  8
0
100
AcDbLine
 10
35.15000000000546
 20
-977.255463179461
 30
0.0
 11
34.40000000000546
 21
-977.1054631794609
 31
0.0
  0
LINE
  5
212E2
330
18
100
AcDbEntity
  8
0
100
AcDbLine
 10
35.15000000000546
 20
-975.255463179461
 30
0.0
 11
34.40000000000546
 21
-975.1054631794609
 31
0.0
  0
LINE
  5
212E3
330
18
100
AcDbEntity
  8
0
100
AcDbLine
 10
35.15000000000546
 20
-973.255463179461
 30
0.0
 11
34.40000000000546
 21
-973.1054631794609
 31
0.0
  0
LINE
  5
212E4
330
18
100
AcDbEntity
  8
0
100
AcDbLine
 10
39.40000000000546
 20
-970.1054631794609
 30
0.0
 11
38.65000000000546
 21
-969.9554631794609
 31
0.0
  0
LINE
  5
212E5
330
18
100
AcDbEntity
  8
0
100
AcDbLine
 10
39.40000000000546
 20
-968.1054631794609
 30
0.0
 11
38.65000000000546
 21
-967.9554631794609
 31
0.0
  0
LINE
  5
212E6
330
18
100
AcDbEntity
  8
0
100
AcDbLine
 10
39.40000000000546
 20
-972.1054631794609
 30
0.0
 11
38.65000000000546
 21
-971.9554631794609
 31
0.0
  0
LINE
  5
212E7
330
18
100
AcDbEntity
  8
0
100
AcDbLine
 10
39.40000000000546
 20
-966.1054631794609
 30
0.0
 11
38.65000000000546
 21
-965.9554631794609
 31
0.0
  0
LINE
  5
212E8
330
18
100
AcDbEntity
  8
0
100
AcDbLine
 10
39.40000000000546
 20
-964.1054631794609
 30
0.0
 11
38.65000000000546
 21
-963.9554631794609
 31
0.0
  0
LINE
  5
212E9
330
18
100
AcDbEntity
  8
0
100
AcDbLine
 10
39.40000000000546
 20
-962.1054631794609
 30
0.0
 11
38.65000000000546
 21
-961.9554631794609
 31
0.0
  0
LINE
  5
212EA
330
18
100
AcDbEntity
  8
0
100
AcDbLine
 10
39.40000000000546
 20
-968.1054631794609
 30
0.0
 11
34.40000000000546
 21
-969.1054631794609
 31
0.0
  0
LINE
  5
212EB
330
18
100
AcDbEntity
  8
0
100
AcDbLine
 10
39.40000000000546
 20
-970.1054631794609
 30
0.0
 11
34.40000000000546
 21
-971.1054631794609
 31
0.0
  0
LINE
  5
212EC
330
18
100
AcDbEntity
  8
0
100
AcDbLine
 10
39.40000000000546
 20
-966.1054631794609
 30
0.0
 11
34.40000000000546
 21
-967.1054631794609
 31
0.0
  0
LINE
  5
212ED
330
18
100
AcDbEntity
  8
0
100
AcDbLine
 10
39.40000000000546
 20
-962.1054631794609
 30
0.0
 11
34.40000000000546
 21
-963.1054631794609
 31
0.0
  0
LINE
  5
212EE
330
18
100
AcDbEntity
  8
0
100
AcDbLine
 10
39.40000000000546
 20
-964.1054631794609
 30
0.0
 11
34.40000000000546
 21
-965.1054631794609
 31
0.0
  0
LINE
  5
212EF
330
18
100
AcDbEntity
  8
0
100
AcDbLine
 10
35.15000000000546
 20
-969.2554631794609
 30
0.0
 11
34.40000000000546
 21
-969.1054631794609
 31
0.0
  0
LINE
  5
212F0
330
18
100
AcDbEntity
  8
0
100
AcDbLine
 10
35.15000000000546
 20
-971.255463179461
 30
0.0
 11
34.40000000000546
 21
-971.1054631794609
 31
0.0
  0
LINE
  5
212F1
330
18
100
AcDbEntity
  8
0
100
AcDbLine
 10
35.15000000000546
 20
-967.2554631794609
 30
0.0
 11
34.40000000000546
 21
-967.1054631794609
 31
0.0
  0
LINE
  5
212F2
330
18
100
AcDbEntity
  8
0
100
AcDbLine
 10
35.15000000000546
 20
-965.2554631794609
 30
0.0
 11
34.40000000000546
 21
-965.1054631794609
 31
0.0
  0
LINE
  5
212F3
330
18
100
AcDbEntity
  8
0
100
AcDbLine
 10
35.15000000000546
 20
-963.2554631794609
 30
0.0
 11
34.40000000000546
 21
-963.1054631794609
 31
0.0
  0
LINE
  5
212F4
330
18
100
AcDbEntity
  8
0
100
AcDbLine
 10
35.15000000000546
 20
-961.9875975934151
 30
0.0
 11
38.65000000000546
 21
-961.9875975934151
 31
0.0
  0
LINE
  5
212F5
330
18
100
AcDbEntity
  8
0
100
AcDbLine
 10
64.40000000000545
 20
-988.1054631794609
 30
0.0
 11
59.40000000000546
 21
-989.1054631794609
 31
0.0
  0
LINE
  5
212F6
330
18
100
AcDbEntity
  8
1CENTER
100
AcDbLine
 10
61.90000000000545
 20
-1013.433950823963
 30
0.0
 11
61.90000000000546
 21
-957.004644843269
 31
0.0
  0
LINE
  5
212F8
330
18
100
AcDbEntity
  8
0
100
AcDbLine
 10
64.2162669410413
 20
-1006.142209791254
 30
0.0
 11
63.4662669410413
 21
-1005.992209791254
 31
0.0
  0
LINE
  5
212F9
330
18
100
AcDbEntity
  8
0
100
AcDbLine
 10
64.21626694104135
 20
-1006.142209791254
 30
0.0
 11
59.8193624599506
 21
-1007.021590687472
 31
0.0
  0
LINE
  5
212FA
330
18
100
AcDbEntity
  8
0
100
AcDbLine
 10
63.0837804005226
 20
-1010.368707099357
 30
0.0
 11
62.3337804005226
 21
-1010.218707099358
 31
0.0
  0
LINE
  5
212FB
330
18
100
AcDbEntity
  8
0
100
AcDbLine
 10
61.58664331306171
 20
-1010.96813451685
 30
0.0
 11
60.83664331306171
 21
-1010.81813451685
 31
0.0
  0
LINE
  5
212FC
330
18
100
AcDbEntity
  8
0
100
AcDbLine
 10
63.0837804005226
 20
-1010.368707099357
 30
0.0
 11
60.83664331306177
 21
-1010.81813451685
 31
0.0
  0
LINE
  5
212FD
330
18
100
AcDbEntity
  8
0
100
AcDbLine
 10
63.65002367078195
 20
-1008.255458445306
 30
0.0
 11
62.90002367078195
 21
-1008.105458445306
 31
0.0
  0
LINE
  5
212FE
330
18
100
AcDbEntity
  8
0
100
AcDbLine
 10
61.07800288650618
 20
-1009.069862602161
 30
0.0
 11
60.32800288650618
 21
-1008.919862602161
 31
0.0
  0
LINE
  5
212FF
330
18
100
AcDbEntity
  8
0
100
AcDbLine
 10
60.5693624599506
 20
-1007.171590687472
 30
0.0
 11
59.8193624599506
 21
-1007.021590687472
 31
0.0
  0
LINE
  5
21300
330
18
100
AcDbEntity
  8
0
100
AcDbLine
 10
63.65002367078201
 20
-1008.255458445306
 30
0.0
 11
60.32800288650613
 21
-1008.919862602161
 31
0.0
  0
LINE
  5
21301
330
18
100
AcDbEntity
  8
0
100
AcDbLine
 10
64.40000000000545
 20
-992.1054631794609
 30
0.0
 11
63.65000000000546
 21
-991.9554631794609
 31
0.0
  0
LINE
  5
21302
330
18
100
AcDbEntity
  8
0
100
AcDbLine
 10
64.40000000000545
 20
-990.1054631794609
 30
0.0
 11
63.65000000000546
 21
-989.9554631794609
 31
0.0
  0
LINE
  5
21303
330
18
100
AcDbEntity
  8
0
100
AcDbLine
 10
64.40000000000545
 20
-996.1054631794609
 30
0.0
 11
63.65000000000546
 21
-995.9554631794609
 31
0.0
  0
LINE
  5
21304
330
18
100
AcDbEntity
  8
0
100
AcDbLine
 10
64.40000000000545
 20
-994.1054631794609
 30
0.0
 11
63.65000000000546
 21
-993.9554631794609
 31
0.0
  0
LINE
  5
21305
330
18
100
AcDbEntity
  8
0
100
AcDbLine
 10
64.40000000000545
 20
-998.1054631794609
 30
0.0
 11
63.65000000000546
 21
-997.9554631794609
 31
0.0
  0
LINE
  5
21306
330
18
100
AcDbEntity
  8
0
100
AcDbLine
 10
64.40000000000545
 20
-1000.105463179461
 30
0.0
 11
63.65000000000545
 21
-999.9554631794609
 31
0.0
  0
LINE
  5
21307
330
18
100
AcDbEntity
  8
0
100
AcDbLine
 10
64.40000000000545
 20
-990.1054631794609
 30
0.0
 11
59.40000000000546
 21
-991.1054631794609
 31
0.0
  0
LINE
  5
21308
330
18
100
AcDbEntity
  8
0
100
AcDbLine
 10
64.40000000000545
 20
-992.1054631794609
 30
0.0
 11
59.40000000000546
 21
-993.1054631794609
 31
0.0
  0
LINE
  5
21309
330
18
100
AcDbEntity
  8
0
100
AcDbLine
 10
64.40000000000545
 20
-994.1054631794609
 30
0.0
 11
59.40000000000546
 21
-995.1054631794609
 31
0.0
  0
LINE
  5
2130A
330
18
100
AcDbEntity
  8
0
100
AcDbLine
 10
64.40000000000545
 20
-996.1054631794609
 30
0.0
 11
59.40000000000546
 21
-997.1054631794609
 31
0.0
  0
LINE
  5
2130B
330
18
100
AcDbEntity
  8
0
100
AcDbLine
 10
64.40000000000545
 20
-998.1054631794609
 30
0.0
 11
59.40000000000545
 21
-999.1054631794609
 31
0.0
  0
LINE
  5
2130C
330
18
100
AcDbEntity
  8
0
100
AcDbLine
 10
64.40000000000545
 20
-1004.105463179461
 30
0.0
 11
63.65000000000545
 21
-1003.955463179461
 31
0.0
  0
LINE
  5
2130D
330
18
100
AcDbEntity
  8
0
100
AcDbLine
 10
64.40000000000545
 20
-1002.105463179461
 30
0.0
 11
63.65000000000545
 21
-1001.955463179461
 31
0.0
  0
LINE
  5
2130E
330
18
100
AcDbEntity
  8
0
100
AcDbLine
 10
64.40000000000545
 20
-1002.105463179461
 30
0.0
 11
59.40000000000545
 21
-1003.105463179461
 31
0.0
  0
LINE
  5
2130F
330
18
100
AcDbEntity
  8
0
100
AcDbLine
 10
64.40000000000545
 20
-1004.105463179461
 30
0.0
 11
59.40000000000545
 21
-1005.105463179461
 31
0.0
  0
LINE
  5
21310
330
18
100
AcDbEntity
  8
0
100
AcDbLine
 10
64.40000000000545
 20
-1000.105463179461
 30
0.0
 11
59.40000000000545
 21
-1001.105463179461
 31
0.0
  0
LINE
  5
21311
330
18
100
AcDbEntity
  8
0
100
AcDbLine
 10
60.15000000000546
 20
-997.255463179461
 30
0.0
 11
59.40000000000546
 21
-997.1054631794609
 31
0.0
  0
LINE
  5
21312
330
18
100
AcDbEntity
  8
0
100
AcDbLine
 10
60.15000000000545
 20
-1003.255463179461
 30
0.0
 11
59.40000000000545
 21
-1003.105463179461
 31
0.0
  0
LINE
  5
21313
330
18
100
AcDbEntity
  8
0
100
AcDbLine
 10
60.15000000000545
 20
-1005.255463179461
 30
0.0
 11
59.40000000000545
 21
-1005.105463179461
 31
0.0
  0
LINE
  5
21314
330
18
100
AcDbEntity
  8
0
100
AcDbLine
 10
60.15000000000545
 20
-999.255463179461
 30
0.0
 11
59.40000000000545
 21
-999.1054631794609
 31
0.0
  0
LINE
  5
21315
330
18
100
AcDbEntity
  8
0
100
AcDbLine
 10
60.15000000000545
 20
-1001.255463179461
 30
0.0
 11
59.40000000000545
 21
-1001.105463179461
 31
0.0
  0
LINE
  5
21316
330
18
100
AcDbEntity
  8
0
100
AcDbLine
 10
60.15000000000546
 20
-993.255463179461
 30
0.0
 11
59.40000000000546
 21
-993.1054631794609
 31
0.0
  0
LINE
  5
21317
330
18
100
AcDbEntity
  8
0
100
AcDbLine
 10
60.15000000000546
 20
-995.255463179461
 30
0.0
 11
59.40000000000546
 21
-995.1054631794609
 31
0.0
  0
LINE
  5
21318
330
18
100
AcDbEntity
  8
0
100
AcDbLine
 10
60.15000000000546
 20
-991.255463179461
 30
0.0
 11
59.40000000000546
 21
-991.1054631794609
 31
0.0
  0
LINE
  5
21319
330
18
100
AcDbEntity
  8
0
100
AcDbLine
 10
60.15000000000546
 20
-989.255463179461
 30
0.0
 11
59.40000000000546
 21
-989.1054631794609
 31
0.0
  0
LINE
  5
2131A
330
18
100
AcDbEntity
  8
0
100
AcDbLine
 10
64.40000000000546
 20
-972.1054631794609
 30
0.0
 11
59.40000000000546
 21
-973.1054631794609
 31
0.0
  0
LINE
  5
2131B
330
18
100
AcDbEntity
  8
0
100
AcDbLine
 10
64.40000000000546
 20
-984.1054631794609
 30
0.0
 11
63.65000000000546
 21
-983.9554631794609
 31
0.0
  0
LINE
  5
2131C
330
18
100
AcDbEntity
  8
0
100
AcDbLine
 10
64.40000000000546
 20
-986.1054631794609
 30
0.0
 11
63.65000000000546
 21
-985.9554631794609
 31
0.0
  0
LINE
  5
2131D
330
18
100
AcDbEntity
  8
0
100
AcDbLine
 10
64.40000000000545
 20
-988.1054631794609
 30
0.0
 11
63.65000000000546
 21
-987.9554631794609
 31
0.0
  0
LINE
  5
2131E
330
18
100
AcDbEntity
  8
0
100
AcDbLine
 10
64.40000000000546
 20
-982.1054631794609
 30
0.0
 11
63.65000000000546
 21
-981.9554631794609
 31
0.0
  0
LINE
  5
2131F
330
18
100
AcDbEntity
  8
0
100
AcDbLine
 10
64.40000000000546
 20
-980.1054631794609
 30
0.0
 11
63.65000000000546
 21
-979.9554631794609
 31
0.0
  0
LINE
  5
21320
330
18
100
AcDbEntity
  8
0
100
AcDbLine
 10
64.40000000000546
 20
-976.1054631794609
 30
0.0
 11
63.65000000000546
 21
-975.9554631794609
 31
0.0
  0
LINE
  5
21321
330
18
100
AcDbEntity
  8
0
100
AcDbLine
 10
64.40000000000546
 20
-978.1054631794609
 30
0.0
 11
63.65000000000546
 21
-977.9554631794609
 31
0.0
  0
LINE
  5
21322
330
18
100
AcDbEntity
  8
0
100
AcDbLine
 10
64.40000000000546
 20
-974.1054631794609
 30
0.0
 11
63.65000000000546
 21
-973.9554631794609
 31
0.0
  0
LINE
  5
21323
330
18
100
AcDbEntity
  8
0
100
AcDbLine
 10
64.40000000000546
 20
-984.1054631794609
 30
0.0
 11
59.40000000000546
 21
-985.1054631794609
 31
0.0
  0
LINE
  5
21324
330
18
100
AcDbEntity
  8
0
100
AcDbLine
 10
64.40000000000546
 20
-986.1054631794609
 30
0.0
 11
59.40000000000546
 21
-987.1054631794609
 31
0.0
  0
LINE
  5
21325
330
18
100
AcDbEntity
  8
0
100
AcDbLine
 10
64.40000000000546
 20
-982.1054631794609
 30
0.0
 11
59.40000000000546
 21
-983.1054631794609
 31
0.0
  0
LINE
  5
21326
330
18
100
AcDbEntity
  8
0
100
AcDbLine
 10
64.40000000000546
 20
-980.1054631794609
 30
0.0
 11
59.40000000000546
 21
-981.1054631794609
 31
0.0
  0
LINE
  5
21327
330
18
100
AcDbEntity
  8
0
100
AcDbLine
 10
64.40000000000546
 20
-978.1054631794609
 30
0.0
 11
59.40000000000546
 21
-979.1054631794609
 31
0.0
  0
LINE
  5
21328
330
18
100
AcDbEntity
  8
0
100
AcDbLine
 10
64.40000000000546
 20
-976.1054631794609
 30
0.0
 11
59.40000000000546
 21
-977.1054631794609
 31
0.0
  0
LINE
  5
21329
330
18
100
AcDbEntity
  8
0
100
AcDbLine
 10
64.40000000000546
 20
-974.1054631794609
 30
0.0
 11
59.40000000000546
 21
-975.1054631794609
 31
0.0
  0
LINE
  5
2132A
330
18
100
AcDbEntity
  8
0
100
AcDbLine
 10
60.15000000000546
 20
-985.255463179461
 30
0.0
 11
59.40000000000546
 21
-985.1054631794609
 31
0.0
  0
LINE
  5
2132B
330
18
100
AcDbEntity
  8
0
100
AcDbLine
 10
60.15000000000546
 20
-987.255463179461
 30
0.0
 11
59.40000000000546
 21
-987.1054631794609
 31
0.0
  0
LINE
  5
2132C
330
18
100
AcDbEntity
  8
0
100
AcDbLine
 10
60.15000000000546
 20
-983.255463179461
 30
0.0
 11
59.40000000000546
 21
-983.1054631794609
 31
0.0
  0
LINE
  5
2132D
330
18
100
AcDbEntity
  8
0
100
AcDbLine
 10
60.15000000000546
 20
-981.255463179461
 30
0.0
 11
59.40000000000546
 21
-981.1054631794609
 31
0.0
  0
LINE
  5
2132E
330
18
100
AcDbEntity
  8
0
100
AcDbLine
 10
60.15000000000546
 20
-979.255463179461
 30
0.0
 11
59.40000000000546
 21
-979.1054631794609
 31
0.0
  0
LINE
  5
2132F
330
18
100
AcDbEntity
  8
0
100
AcDbLine
 10
60.15000000000546
 20
-977.255463179461
 30
0.0
 11
59.40000000000546
 21
-977.1054631794609
 31
0.0
  0
LINE
  5
21330
330
18
100
AcDbEntity
  8
0
100
AcDbLine
 10
60.15000000000546
 20
-975.255463179461
 30
0.0
 11
59.40000000000546
 21
-975.1054631794609
 31
0.0
  0
LINE
  5
21331
330
18
100
AcDbEntity
  8
0
100
AcDbLine
 10
60.15000000000546
 20
-973.255463179461
 30
0.0
 11
59.40000000000546
 21
-973.1054631794609
 31
0.0
  0
LINE
  5
21332
330
18
100
AcDbEntity
  8
0
100
AcDbLine
 10
64.40000000000546
 20
-970.1054631794609
 30
0.0
 11
63.65000000000546
 21
-969.9554631794609
 31
0.0
  0
LINE
  5
21333
330
18
100
AcDbEntity
  8
0
100
AcDbLine
 10
64.40000000000546
 20
-968.1054631794609
 30
0.0
 11
63.65000000000546
 21
-967.9554631794609
 31
0.0
  0
LINE
  5
21334
330
18
100
AcDbEntity
  8
0
100
AcDbLine
 10
64.40000000000546
 20
-972.1054631794609
 30
0.0
 11
63.65000000000546
 21
-971.9554631794609
 31
0.0
  0
LINE
  5
21335
330
18
100
AcDbEntity
  8
0
100
AcDbLine
 10
64.40000000000546
 20
-966.1054631794609
 30
0.0
 11
63.65000000000546
 21
-965.9554631794609
 31
0.0
  0
LINE
  5
21336
330
18
100
AcDbEntity
  8
0
100
AcDbLine
 10
64.40000000000546
 20
-964.1054631794609
 30
0.0
 11
63.65000000000546
 21
-963.9554631794609
 31
0.0
  0
LINE
  5
21337
330
18
100
AcDbEntity
  8
0
100
AcDbLine
 10
64.40000000000546
 20
-962.1054631794609
 30
0.0
 11
63.65000000000546
 21
-961.9554631794609
 31
0.0
  0
LINE
  5
21338
330
18
100
AcDbEntity
  8
0
100
AcDbLine
 10
64.40000000000546
 20
-968.1054631794609
 30
0.0
 11
59.40000000000546
 21
-969.1054631794609
 31
0.0
  0
LINE
  5
21339
330
18
100
AcDbEntity
  8
0
100
AcDbLine
 10
64.40000000000546
 20
-970.1054631794609
 30
0.0
 11
59.40000000000546
 21
-971.1054631794609
 31
0.0
  0
LINE
  5
2133A
330
18
100
AcDbEntity
  8
0
100
AcDbLine
 10
64.40000000000546
 20
-966.1054631794609
 30
0.0
 11
59.40000000000546
 21
-967.1054631794609
 31
0.0
  0
LINE
  5
2133B
330
18
100
AcDbEntity
  8
0
100
AcDbLine
 10
64.40000000000546
 20
-962.1054631794609
 30
0.0
 11
59.40000000000546
 21
-963.1054631794609
 31
0.0
  0
LINE
  5
2133C
330
18
100
AcDbEntity
  8
0
100
AcDbLine
 10
64.40000000000546
 20
-964.1054631794609
 30
0.0
 11
59.40000000000546
 21
-965.1054631794609
 31
0.0
  0
LINE
  5
2133D
330
18
100
AcDbEntity
  8
0
100
AcDbLine
 10
60.15000000000546
 20
-969.2554631794609
 30
0.0
 11
59.40000000000546
 21
-969.1054631794609
 31
0.0
  0
LINE
  5
2133E
330
18
100
AcDbEntity
  8
0
100
AcDbLine
 10
60.15000000000546
 20
-971.255463179461
 30
0.0
 11
59.40000000000546
 21
-971.1054631794609
 31
0.0
  0
LINE
  5
2133F
330
18
100
AcDbEntity
  8
0
100
AcDbLine
 10
60.15000000000546
 20
-967.2554631794609
 30
0.0
 11
59.40000000000546
 21
-967.1054631794609
 31
0.0
  0
LINE
  5
21340
330
18
100
AcDbEntity
  8
0
100
AcDbLine
 10
60.15000000000546
 20
-965.2554631794609
 30
0.0
 11
59.40000000000546
 21
-965.1054631794609
 31
0.0
  0
LINE
  5
21341
330
18
100
AcDbEntity
  8
0
100
AcDbLine
 10
60.15000000000546
 20
-963.2554631794609
 30
0.0
 11
59.40000000000546
 21
-963.1054631794609
 31
0.0
  0
LINE
  5
21342
330
18
100
AcDbEntity
  8
0
100
AcDbLine
 10
60.15000000000546
 20
-961.9875975934151
 30
0.0
 11
63.65000000000546
 21
-961.9875975934151
 31
0.0
  0
LINE
  5
21343
330
18
100
AcDbEntity
  8
1DIM
100
AcDbLine
 10
636.9000000000054
 20
-1013.433950823963
 30
0.0
 11
636.9000000000054
 21
-1024.487597593408
 31
0.0
1001
ACAD
1000
DSTYLE
1002
{
1070
    40
1040
2.0
1002
}
  0
LINE
  5
21344
330
18
100
AcDbEntity
  8
1DIM
100
AcDbLine
 10
661.9000000000054
 20
-1013.433950823963
 30
0.0
 11
661.9000000000054
 21
-1024.487597593408
 31
0.0
1001
ACAD
1000
DSTYLE
1002
{
1070
    40
1040
2.0
1002
}
  0
LINE
  5
21345
330
18
100
AcDbEntity
  8
1DIM
100
AcDbLine
 10
661.9000000000054
 20
-1022.487597593408
 30
0.0
 11
686.7000000000054
 21
-1022.487597593408
 31
0.0
1001
ACAD
1000
DSTYLE
1002
{
1070
    40
1040
2.0
1002
}
  0
LINE
  5
21346
330
18
100
AcDbEntity
  8
1DIM
100
AcDbLine
 10
640.9000000000054
 20
-1022.487597593408
 30
0.0
 11
657.9000000000054
 21
-1022.487597593408
 31
0.0
1001
ACAD
1000
DSTYLE
1002
{
1070
    40
1040
2.0
1002
}
  0
LINE
  5
2134A
330
18
100
AcDbEntity
  8
0
100
AcDbLine
 10
664.4000000000054
 20
-988.1054631794609
 30
0.0
 11
659.4000000000054
 21
-989.1054631794609
 31
0.0
  0
LINE
  5
2134B
330
18
100
AcDbEntity
  8
1CENTER
100
AcDbLine
 10
661.9000000000054
 20
-1013.433950823963
 30
0.0
 11
661.9000000000054
 21
-957.004644843269
 31
0.0
  0
LINE
  5
2134D
330
18
100
AcDbEntity
  8
0
100
AcDbLine
 10
664.2162669410412
 20
-1006.142209791254
 30
0.0
 11
663.4662669410412
 21
-1005.992209791254
 31
0.0
  0
LINE
  5
2134E
330
18
100
AcDbEntity
  8
0
100
AcDbLine
 10
664.2162669410413
 20
-1006.142209791254
 30
0.0
 11
659.8193624599505
 21
-1007.021590687472
 31
0.0
  0
LINE
  5
2134F
330
18
100
AcDbEntity
  8
0
100
AcDbLine
 10
663.0837804005225
 20
-1010.368707099357
 30
0.0
 11
662.3337804005225
 21
-1010.218707099358
 31
0.0
  0
LINE
  5
21350
330
18
100
AcDbEntity
  8
0
100
AcDbLine
 10
661.5866433130617
 20
-1010.96813451685
 30
0.0
 11
660.8366433130617
 21
-1010.81813451685
 31
0.0
  0
LINE
  5
21351
330
18
100
AcDbEntity
  8
0
100
AcDbLine
 10
663.0837804005225
 20
-1010.368707099357
 30
0.0
 11
660.8366433130617
 21
-1010.81813451685
 31
0.0
  0
LINE
  5
21352
330
18
100
AcDbEntity
  8
0
100
AcDbLine
 10
663.6500236707819
 20
-1008.255458445306
 30
0.0
 11
662.9000236707819
 21
-1008.105458445306
 31
0.0
  0
LINE
  5
21353
330
18
100
AcDbEntity
  8
0
100
AcDbLine
 10
661.0780028865062
 20
-1009.069862602161
 30
0.0
 11
660.3280028865062
 21
-1008.919862602161
 31
0.0
  0
LINE
  5
21354
330
18
100
AcDbEntity
  8
0
100
AcDbLine
 10
660.5693624599505
 20
-1007.171590687472
 30
0.0
 11
659.8193624599505
 21
-1007.021590687472
 31
0.0
  0
LINE
  5
21355
330
18
100
AcDbEntity
  8
0
100
AcDbLine
 10
663.6500236707819
 20
-1008.255458445306
 30
0.0
 11
660.328002886506
 21
-1008.919862602161
 31
0.0
  0
LINE
  5
21356
330
18
100
AcDbEntity
  8
0
100
AcDbLine
 10
664.4000000000054
 20
-992.1054631794609
 30
0.0
 11
663.6500000000054
 21
-991.9554631794609
 31
0.0
  0
LINE
  5
21357
330
18
100
AcDbEntity
  8
0
100
AcDbLine
 10
664.4000000000054
 20
-990.1054631794609
 30
0.0
 11
663.6500000000054
 21
-989.9554631794609
 31
0.0
  0
LINE
  5
21358
330
18
100
AcDbEntity
  8
0
100
AcDbLine
 10
664.4000000000054
 20
-996.1054631794609
 30
0.0
 11
663.6500000000054
 21
-995.9554631794609
 31
0.0
  0
LINE
  5
21359
330
18
100
AcDbEntity
  8
0
100
AcDbLine
 10
664.4000000000054
 20
-994.1054631794609
 30
0.0
 11
663.6500000000054
 21
-993.9554631794609
 31
0.0
  0
LINE
  5
2135A
330
18
100
AcDbEntity
  8
0
100
AcDbLine
 10
664.4000000000054
 20
-998.1054631794609
 30
0.0
 11
663.6500000000054
 21
-997.9554631794609
 31
0.0
  0
LINE
  5
2135B
330
18
100
AcDbEntity
  8
0
100
AcDbLine
 10
664.4000000000054
 20
-1000.105463179461
 30
0.0
 11
663.6500000000054
 21
-999.9554631794609
 31
0.0
  0
LINE
  5
2135C
330
18
100
AcDbEntity
  8
0
100
AcDbLine
 10
664.4000000000054
 20
-990.1054631794609
 30
0.0
 11
659.4000000000054
 21
-991.1054631794609
 31
0.0
  0
LINE
  5
2135D
330
18
100
AcDbEntity
  8
0
100
AcDbLine
 10
664.4000000000054
 20
-992.1054631794609
 30
0.0
 11
659.4000000000054
 21
-993.1054631794609
 31
0.0
  0
LINE
  5
2135E
330
18
100
AcDbEntity
  8
0
100
AcDbLine
 10
664.4000000000054
 20
-994.1054631794609
 30
0.0
 11
659.4000000000054
 21
-995.1054631794609
 31
0.0
  0
LINE
  5
2135F
330
18
100
AcDbEntity
  8
0
100
AcDbLine
 10
664.4000000000054
 20
-996.1054631794609
 30
0.0
 11
659.4000000000054
 21
-997.1054631794609
 31
0.0
  0
LINE
  5
21360
330
18
100
AcDbEntity
  8
0
100
AcDbLine
 10
664.4000000000054
 20
-998.1054631794609
 30
0.0
 11
659.4000000000054
 21
-999.1054631794609
 31
0.0
  0
LINE
  5
21361
330
18
100
AcDbEntity
  8
0
100
AcDbLine
 10
664.4000000000054
 20
-1004.105463179461
 30
0.0
 11
663.6500000000054
 21
-1003.955463179461
 31
0.0
  0
LINE
  5
21362
330
18
100
AcDbEntity
  8
0
100
AcDbLine
 10
664.4000000000054
 20
-1002.105463179461
 30
0.0
 11
663.6500000000054
 21
-1001.955463179461
 31
0.0
  0
LINE
  5
21363
330
18
100
AcDbEntity
  8
0
100
AcDbLine
 10
664.4000000000054
 20
-1002.105463179461
 30
0.0
 11
659.4000000000054
 21
-1003.105463179461
 31
0.0
  0
LINE
  5
21364
330
18
100
AcDbEntity
  8
0
100
AcDbLine
 10
664.4000000000054
 20
-1004.105463179461
 30
0.0
 11
659.4000000000054
 21
-1005.105463179461
 31
0.0
  0
LINE
  5
21365
330
18
100
AcDbEntity
  8
0
100
AcDbLine
 10
664.4000000000054
 20
-1000.105463179461
 30
0.0
 11
659.4000000000054
 21
-1001.105463179461
 31
0.0
  0
LINE
  5
21366
330
18
100
AcDbEntity
  8
0
100
AcDbLine
 10
660.1500000000054
 20
-997.255463179461
 30
0.0
 11
659.4000000000054
 21
-997.1054631794609
 31
0.0
  0
LINE
  5
21367
330
18
100
AcDbEntity
  8
0
100
AcDbLine
 10
660.1500000000054
 20
-1003.255463179461
 30
0.0
 11
659.4000000000054
 21
-1003.105463179461
 31
0.0
  0
LINE
  5
21368
330
18
100
AcDbEntity
  8
0
100
AcDbLine
 10
660.1500000000054
 20
-1005.255463179461
 30
0.0
 11
659.4000000000054
 21
-1005.105463179461
 31
0.0
  0
LINE
  5
21369
330
18
100
AcDbEntity
  8
0
100
AcDbLine
 10
660.1500000000054
 20
-999.255463179461
 30
0.0
 11
659.4000000000054
 21
-999.1054631794609
 31
0.0
  0
LINE
  5
2136A
330
18
100
AcDbEntity
  8
0
100
AcDbLine
 10
660.1500000000054
 20
-1001.255463179461
 30
0.0
 11
659.4000000000054
 21
-1001.105463179461
 31
0.0
  0
LINE
  5
2136B
330
18
100
AcDbEntity
  8
0
100
AcDbLine
 10
660.1500000000054
 20
-993.255463179461
 30
0.0
 11
659.4000000000054
 21
-993.1054631794609
 31
0.0
  0
LINE
  5
2136C
330
18
100
AcDbEntity
  8
0
100
AcDbLine
 10
660.1500000000054
 20
-995.255463179461
 30
0.0
 11
659.4000000000054
 21
-995.1054631794609
 31
0.0
  0
LINE
  5
2136D
330
18
100
AcDbEntity
  8
0
100
AcDbLine
 10
660.1500000000054
 20
-991.255463179461
 30
0.0
 11
659.4000000000054
 21
-991.1054631794609
 31
0.0
  0
LINE
  5
2136E
330
18
100
AcDbEntity
  8
0
100
AcDbLine
 10
660.1500000000054
 20
-989.255463179461
 30
0.0
 11
659.4000000000054
 21
-989.1054631794609
 31
0.0
  0
LINE
  5
2136F
330
18
100
AcDbEntity
  8
0
100
AcDbLine
 10
664.4000000000054
 20
-972.1054631794609
 30
0.0
 11
659.4000000000054
 21
-973.1054631794609
 31
0.0
  0
LINE
  5
21370
330
18
100
AcDbEntity
  8
0
100
AcDbLine
 10
664.4000000000054
 20
-984.1054631794609
 30
0.0
 11
663.6500000000054
 21
-983.9554631794609
 31
0.0
  0
LINE
  5
21371
330
18
100
AcDbEntity
  8
0
100
AcDbLine
 10
664.4000000000054
 20
-986.1054631794609
 30
0.0
 11
663.6500000000054
 21
-985.9554631794609
 31
0.0
  0
LINE
  5
21372
330
18
100
AcDbEntity
  8
0
100
AcDbLine
 10
664.4000000000054
 20
-988.1054631794609
 30
0.0
 11
663.6500000000054
 21
-987.9554631794609
 31
0.0
  0
LINE
  5
21373
330
18
100
AcDbEntity
  8
0
100
AcDbLine
 10
664.4000000000054
 20
-982.1054631794609
 30
0.0
 11
663.6500000000054
 21
-981.9554631794609
 31
0.0
  0
LINE
  5
21374
330
18
100
AcDbEntity
  8
0
100
AcDbLine
 10
664.4000000000054
 20
-980.1054631794609
 30
0.0
 11
663.6500000000054
 21
-979.9554631794609
 31
0.0
  0
LINE
  5
21375
330
18
100
AcDbEntity
  8
0
100
AcDbLine
 10
664.4000000000054
 20
-976.1054631794609
 30
0.0
 11
663.6500000000054
 21
-975.9554631794609
 31
0.0
  0
LINE
  5
21376
330
18
100
AcDbEntity
  8
0
100
AcDbLine
 10
664.4000000000054
 20
-978.1054631794609
 30
0.0
 11
663.6500000000054
 21
-977.9554631794609
 31
0.0
  0
LINE
  5
21377
330
18
100
AcDbEntity
  8
0
100
AcDbLine
 10
664.4000000000054
 20
-974.1054631794609
 30
0.0
 11
663.6500000000054
 21
-973.9554631794609
 31
0.0
  0
LINE
  5
21378
330
18
100
AcDbEntity
  8
0
100
AcDbLine
 10
664.4000000000054
 20
-984.1054631794609
 30
0.0
 11
659.4000000000054
 21
-985.1054631794609
 31
0.0
  0
LINE
  5
21379
330
18
100
AcDbEntity
  8
0
100
AcDbLine
 10
664.4000000000054
 20
-986.1054631794609
 30
0.0
 11
659.4000000000054
 21
-987.1054631794609
 31
0.0
  0
LINE
  5
2137A
330
18
100
AcDbEntity
  8
0
100
AcDbLine
 10
664.4000000000054
 20
-982.1054631794609
 30
0.0
 11
659.4000000000054
 21
-983.1054631794609
 31
0.0
  0
LINE
  5
2137B
330
18
100
AcDbEntity
  8
0
100
AcDbLine
 10
664.4000000000054
 20
-980.1054631794609
 30
0.0
 11
659.4000000000054
 21
-981.1054631794609
 31
0.0
  0
LINE
  5
2137C
330
18
100
AcDbEntity
  8
0
100
AcDbLine
 10
664.4000000000054
 20
-978.1054631794609
 30
0.0
 11
659.4000000000054
 21
-979.1054631794609
 31
0.0
  0
LINE
  5
2137D
330
18
100
AcDbEntity
  8
0
100
AcDbLine
 10
664.4000000000054
 20
-976.1054631794609
 30
0.0
 11
659.4000000000054
 21
-977.1054631794609
 31
0.0
  0
LINE
  5
2137E
330
18
100
AcDbEntity
  8
0
100
AcDbLine
 10
664.4000000000054
 20
-974.1054631794609
 30
0.0
 11
659.4000000000054
 21
-975.1054631794609
 31
0.0
  0
LINE
  5
2137F
330
18
100
AcDbEntity
  8
0
100
AcDbLine
 10
660.1500000000054
 20
-985.255463179461
 30
0.0
 11
659.4000000000054
 21
-985.1054631794609
 31
0.0
  0
LINE
  5
21380
330
18
100
AcDbEntity
  8
0
100
AcDbLine
 10
660.1500000000054
 20
-987.255463179461
 30
0.0
 11
659.4000000000054
 21
-987.1054631794609
 31
0.0
  0
LINE
  5
21381
330
18
100
AcDbEntity
  8
0
100
AcDbLine
 10
660.1500000000054
 20
-983.255463179461
 30
0.0
 11
659.4000000000054
 21
-983.1054631794609
 31
0.0
  0
LINE
  5
21382
330
18
100
AcDbEntity
  8
0
100
AcDbLine
 10
660.1500000000054
 20
-981.255463179461
 30
0.0
 11
659.4000000000054
 21
-981.1054631794609
 31
0.0
  0
LINE
  5
21383
330
18
100
AcDbEntity
  8
0
100
AcDbLine
 10
660.1500000000054
 20
-979.255463179461
 30
0.0
 11
659.4000000000054
 21
-979.1054631794609
 31
0.0
  0
LINE
  5
21384
330
18
100
AcDbEntity
  8
0
100
AcDbLine
 10
660.1500000000054
 20
-977.255463179461
 30
0.0
 11
659.4000000000054
 21
-977.1054631794609
 31
0.0
  0
LINE
  5
21385
330
18
100
AcDbEntity
  8
0
100
AcDbLine
 10
660.1500000000054
 20
-975.255463179461
 30
0.0
 11
659.4000000000054
 21
-975.1054631794609
 31
0.0
  0
LINE
  5
21386
330
18
100
AcDbEntity
  8
0
100
AcDbLine
 10
660.1500000000054
 20
-973.255463179461
 30
0.0
 11
659.4000000000054
 21
-973.1054631794609
 31
0.0
  0
LINE
  5
21387
330
18
100
AcDbEntity
  8
0
100
AcDbLine
 10
664.4000000000054
 20
-970.1054631794609
 30
0.0
 11
663.6500000000054
 21
-969.9554631794609
 31
0.0
  0
LINE
  5
21388
330
18
100
AcDbEntity
  8
0
100
AcDbLine
 10
664.4000000000054
 20
-968.1054631794609
 30
0.0
 11
663.6500000000054
 21
-967.9554631794609
 31
0.0
  0
LINE
  5
21389
330
18
100
AcDbEntity
  8
0
100
AcDbLine
 10
664.4000000000054
 20
-972.1054631794609
 30
0.0
 11
663.6500000000054
 21
-971.9554631794609
 31
0.0
  0
LINE
  5
2138A
330
18
100
AcDbEntity
  8
0
100
AcDbLine
 10
664.4000000000054
 20
-966.1054631794609
 30
0.0
 11
663.6500000000054
 21
-965.9554631794609
 31
0.0
  0
LINE
  5
2138B
330
18
100
AcDbEntity
  8
0
100
AcDbLine
 10
664.4000000000054
 20
-964.1054631794609
 30
0.0
 11
663.6500000000054
 21
-963.9554631794609
 31
0.0
  0
LINE
  5
2138C
330
18
100
AcDbEntity
  8
0
100
AcDbLine
 10
664.4000000000054
 20
-962.1054631794609
 30
0.0
 11
663.6500000000054
 21
-961.9554631794609
 31
0.0
  0
LINE
  5
2138D
330
18
100
AcDbEntity
  8
0
100
AcDbLine
 10
664.4000000000054
 20
-968.1054631794609
 30
0.0
 11
659.4000000000054
 21
-969.1054631794609
 31
0.0
  0
LINE
  5
2138E
330
18
100
AcDbEntity
  8
0
100
AcDbLine
 10
664.4000000000054
 20
-970.1054631794609
 30
0.0
 11
659.4000000000054
 21
-971.1054631794609
 31
0.0
  0
LINE
  5
2138F
330
18
100
AcDbEntity
  8
0
100
AcDbLine
 10
664.4000000000054
 20
-966.1054631794609
 30
0.0
 11
659.4000000000054
 21
-967.1054631794609
 31
0.0
  0
LINE
  5
21390
330
18
100
AcDbEntity
  8
0
100
AcDbLine
 10
664.4000000000054
 20
-962.1054631794609
 30
0.0
 11
659.4000000000054
 21
-963.1054631794609
 31
0.0
  0
LINE
  5
21391
330
18
100
AcDbEntity
  8
0
100
AcDbLine
 10
664.4000000000054
 20
-964.1054631794609
 30
0.0
 11
659.4000000000054
 21
-965.1054631794609
 31
0.0
  0
LINE
  5
21392
330
18
100
AcDbEntity
  8
0
100
AcDbLine
 10
660.1500000000054
 20
-969.2554631794609
 30
0.0
 11
659.4000000000054
 21
-969.1054631794609
 31
0.0
  0
LINE
  5
21393
330
18
100
AcDbEntity
  8
0
100
AcDbLine
 10
660.1500000000054
 20
-971.255463179461
 30
0.0
 11
659.4000000000054
 21
-971.1054631794609
 31
0.0
  0
LINE
  5
21394
330
18
100
AcDbEntity
  8
0
100
AcDbLine
 10
660.1500000000054
 20
-967.2554631794609
 30
0.0
 11
659.4000000000054
 21
-967.1054631794609
 31
0.0
  0
LINE
  5
21395
330
18
100
AcDbEntity
  8
0
100
AcDbLine
 10
660.1500000000054
 20
-965.2554631794609
 30
0.0
 11
659.4000000000054
 21
-965.1054631794609
 31
0.0
  0
LINE
  5
21396
330
18
100
AcDbEntity
  8
0
100
AcDbLine
 10
660.1500000000054
 20
-963.2554631794609
 30
0.0
 11
659.4000000000054
 21
-963.1054631794609
 31
0.0
  0
LINE
  5
21397
330
18
100
AcDbEntity
  8
0
100
AcDbLine
 10
660.1500000000054
 20
-961.9875975934151
 30
0.0
 11
663.6500000000054
 21
-961.9875975934151
 31
0.0
  0
LINE
  5
21398
330
18
100
AcDbEntity
  8
0
100
AcDbLine
 10
639.4000000000054
 20
-988.1054631794609
 30
0.0
 11
634.4000000000054
 21
-989.1054631794609
 31
0.0
  0
LINE
  5
21399
330
18
100
AcDbEntity
  8
1CENTER
100
AcDbLine
 10
636.9000000000054
 20
-1013.433950823963
 30
0.0
 11
636.9000000000054
 21
-957.004644843269
 31
0.0
  0
LINE
  5
2139B
330
18
100
AcDbEntity
  8
0
100
AcDbLine
 10
639.2162669410412
 20
-1006.142209791254
 30
0.0
 11
638.4662669410412
 21
-1005.992209791254
 31
0.0
  0
LINE
  5
2139C
330
18
100
AcDbEntity
  8
0
100
AcDbLine
 10
639.2162669410413
 20
-1006.142209791254
 30
0.0
 11
634.8193624599505
 21
-1007.021590687472
 31
0.0
  0
LINE
  5
2139D
330
18
100
AcDbEntity
  8
0
100
AcDbLine
 10
638.0837804005225
 20
-1010.368707099357
 30
0.0
 11
637.3337804005225
 21
-1010.218707099358
 31
0.0
  0
LINE
  5
2139E
330
18
100
AcDbEntity
  8
0
100
AcDbLine
 10
636.5866433130617
 20
-1010.96813451685
 30
0.0
 11
635.8366433130617
 21
-1010.81813451685
 31
0.0
  0
LINE
  5
2139F
330
18
100
AcDbEntity
  8
0
100
AcDbLine
 10
638.0837804005225
 20
-1010.368707099357
 30
0.0
 11
635.8366433130617
 21
-1010.81813451685
 31
0.0
  0
LINE
  5
213A0
330
18
100
AcDbEntity
  8
0
100
AcDbLine
 10
638.6500236707819
 20
-1008.255458445306
 30
0.0
 11
637.9000236707819
 21
-1008.105458445306
 31
0.0
  0
LINE
  5
213A1
330
18
100
AcDbEntity
  8
0
100
AcDbLine
 10
636.0780028865062
 20
-1009.069862602161
 30
0.0
 11
635.3280028865062
 21
-1008.919862602161
 31
0.0
  0
LINE
  5
213A2
330
18
100
AcDbEntity
  8
0
100
AcDbLine
 10
635.5693624599505
 20
-1007.171590687472
 30
0.0
 11
634.8193624599505
 21
-1007.021590687472
 31
0.0
  0
LINE
  5
213A3
330
18
100
AcDbEntity
  8
0
100
AcDbLine
 10
638.6500236707819
 20
-1008.255458445306
 30
0.0
 11
635.328002886506
 21
-1008.919862602161
 31
0.0
  0
LINE
  5
213A4
330
18
100
AcDbEntity
  8
0
100
AcDbLine
 10
639.4000000000054
 20
-992.1054631794609
 30
0.0
 11
638.6500000000054
 21
-991.9554631794609
 31
0.0
  0
LINE
  5
213A5
330
18
100
AcDbEntity
  8
0
100
AcDbLine
 10
639.4000000000054
 20
-990.1054631794609
 30
0.0
 11
638.6500000000054
 21
-989.9554631794609
 31
0.0
  0
LINE
  5
213A6
330
18
100
AcDbEntity
  8
0
100
AcDbLine
 10
639.4000000000054
 20
-996.1054631794609
 30
0.0
 11
638.6500000000054
 21
-995.9554631794609
 31
0.0
  0
LINE
  5
213A7
330
18
100
AcDbEntity
  8
0
100
AcDbLine
 10
639.4000000000054
 20
-994.1054631794609
 30
0.0
 11
638.6500000000054
 21
-993.9554631794609
 31
0.0
  0
LINE
  5
213A8
330
18
100
AcDbEntity
  8
0
100
AcDbLine
 10
639.4000000000054
 20
-998.1054631794609
 30
0.0
 11
638.6500000000054
 21
-997.9554631794609
 31
0.0
  0
LINE
  5
213A9
330
18
100
AcDbEntity
  8
0
100
AcDbLine
 10
639.4000000000054
 20
-1000.105463179461
 30
0.0
 11
638.6500000000054
 21
-999.9554631794609
 31
0.0
  0
LINE
  5
213AA
330
18
100
AcDbEntity
  8
0
100
AcDbLine
 10
639.4000000000054
 20
-990.1054631794609
 30
0.0
 11
634.4000000000054
 21
-991.1054631794609
 31
0.0
  0
LINE
  5
213AB
330
18
100
AcDbEntity
  8
0
100
AcDbLine
 10
639.4000000000054
 20
-992.1054631794609
 30
0.0
 11
634.4000000000054
 21
-993.1054631794609
 31
0.0
  0
LINE
  5
213AC
330
18
100
AcDbEntity
  8
0
100
AcDbLine
 10
639.4000000000054
 20
-994.1054631794609
 30
0.0
 11
634.4000000000054
 21
-995.1054631794609
 31
0.0
  0
LINE
  5
213AD
330
18
100
AcDbEntity
  8
0
100
AcDbLine
 10
639.4000000000054
 20
-996.1054631794609
 30
0.0
 11
634.4000000000054
 21
-997.1054631794609
 31
0.0
  0
LINE
  5
213AE
330
18
100
AcDbEntity
  8
0
100
AcDbLine
 10
639.4000000000054
 20
-998.1054631794609
 30
0.0
 11
634.4000000000054
 21
-999.1054631794609
 31
0.0
  0
LINE
  5
213AF
330
18
100
AcDbEntity
  8
0
100
AcDbLine
 10
639.4000000000054
 20
-1004.105463179461
 30
0.0
 11
638.6500000000054
 21
-1003.955463179461
 31
0.0
  0
LINE
  5
213B0
330
18
100
AcDbEntity
  8
0
100
AcDbLine
 10
639.4000000000054
 20
-1002.105463179461
 30
0.0
 11
638.6500000000054
 21
-1001.955463179461
 31
0.0
  0
LINE
  5
213B1
330
18
100
AcDbEntity
  8
0
100
AcDbLine
 10
639.4000000000054
 20
-1002.105463179461
 30
0.0
 11
634.4000000000054
 21
-1003.105463179461
 31
0.0
  0
LINE
  5
213B2
330
18
100
AcDbEntity
  8
0
100
AcDbLine
 10
639.4000000000054
 20
-1004.105463179461
 30
0.0
 11
634.4000000000054
 21
-1005.105463179461
 31
0.0
  0
LINE
  5
213B3
330
18
100
AcDbEntity
  8
0
100
AcDbLine
 10
639.4000000000054
 20
-1000.105463179461
 30
0.0
 11
634.4000000000054
 21
-1001.105463179461
 31
0.0
  0
LINE
  5
213B4
330
18
100
AcDbEntity
  8
0
100
AcDbLine
 10
635.1500000000054
 20
-997.255463179461
 30
0.0
 11
634.4000000000054
 21
-997.1054631794609
 31
0.0
  0
LINE
  5
213B5
330
18
100
AcDbEntity
  8
0
100
AcDbLine
 10
635.1500000000054
 20
-1003.255463179461
 30
0.0
 11
634.4000000000054
 21
-1003.105463179461
 31
0.0
  0
LINE
  5
213B6
330
18
100
AcDbEntity
  8
0
100
AcDbLine
 10
635.1500000000054
 20
-1005.255463179461
 30
0.0
 11
634.4000000000054
 21
-1005.105463179461
 31
0.0
  0
LINE
  5
213B7
330
18
100
AcDbEntity
  8
0
100
AcDbLine
 10
635.1500000000054
 20
-999.255463179461
 30
0.0
 11
634.4000000000054
 21
-999.1054631794609
 31
0.0
  0
LINE
  5
213B8
330
18
100
AcDbEntity
  8
0
100
AcDbLine
 10
635.1500000000054
 20
-1001.255463179461
 30
0.0
 11
634.4000000000054
 21
-1001.105463179461
 31
0.0
  0
LINE
  5
213B9
330
18
100
AcDbEntity
  8
0
100
AcDbLine
 10
635.1500000000054
 20
-993.255463179461
 30
0.0
 11
634.4000000000054
 21
-993.1054631794609
 31
0.0
  0
LINE
  5
213BA
330
18
100
AcDbEntity
  8
0
100
AcDbLine
 10
635.1500000000054
 20
-995.255463179461
 30
0.0
 11
634.4000000000054
 21
-995.1054631794609
 31
0.0
  0
LINE
  5
213BB
330
18
100
AcDbEntity
  8
0
100
AcDbLine
 10
635.1500000000054
 20
-991.255463179461
 30
0.0
 11
634.4000000000054
 21
-991.1054631794609
 31
0.0
  0
LINE
  5
213BC
330
18
100
AcDbEntity
  8
0
100
AcDbLine
 10
635.1500000000054
 20
-989.255463179461
 30
0.0
 11
634.4000000000054
 21
-989.1054631794609
 31
0.0
  0
LINE
  5
213BD
330
18
100
AcDbEntity
  8
0
100
AcDbLine
 10
639.4000000000054
 20
-972.1054631794609
 30
0.0
 11
634.4000000000054
 21
-973.1054631794609
 31
0.0
  0
LINE
  5
213BE
330
18
100
AcDbEntity
  8
0
100
AcDbLine
 10
639.4000000000054
 20
-984.1054631794609
 30
0.0
 11
638.6500000000054
 21
-983.9554631794609
 31
0.0
  0
LINE
  5
213BF
330
18
100
AcDbEntity
  8
0
100
AcDbLine
 10
639.4000000000054
 20
-986.1054631794609
 30
0.0
 11
638.6500000000054
 21
-985.9554631794609
 31
0.0
  0
LINE
  5
213C0
330
18
100
AcDbEntity
  8
0
100
AcDbLine
 10
639.4000000000054
 20
-988.1054631794609
 30
0.0
 11
638.6500000000054
 21
-987.9554631794609
 31
0.0
  0
LINE
  5
213C1
330
18
100
AcDbEntity
  8
0
100
AcDbLine
 10
639.4000000000054
 20
-982.1054631794609
 30
0.0
 11
638.6500000000054
 21
-981.9554631794609
 31
0.0
  0
LINE
  5
213C2
330
18
100
AcDbEntity
  8
0
100
AcDbLine
 10
639.4000000000054
 20
-980.1054631794609
 30
0.0
 11
638.6500000000054
 21
-979.9554631794609
 31
0.0
  0
LINE
  5
213C3
330
18
100
AcDbEntity
  8
0
100
AcDbLine
 10
639.4000000000054
 20
-976.1054631794609
 30
0.0
 11
638.6500000000054
 21
-975.9554631794609
 31
0.0
  0
LINE
  5
213C4
330
18
100
AcDbEntity
  8
0
100
AcDbLine
 10
639.4000000000054
 20
-978.1054631794609
 30
0.0
 11
638.6500000000054
 21
-977.9554631794609
 31
0.0
  0
LINE
  5
213C5
330
18
100
AcDbEntity
  8
0
100
AcDbLine
 10
639.4000000000054
 20
-974.1054631794609
 30
0.0
 11
638.6500000000054
 21
-973.9554631794609
 31
0.0
  0
LINE
  5
213C6
330
18
100
AcDbEntity
  8
0
100
AcDbLine
 10
639.4000000000054
 20
-984.1054631794609
 30
0.0
 11
634.4000000000054
 21
-985.1054631794609
 31
0.0
  0
LINE
  5
213C7
330
18
100
AcDbEntity
  8
0
100
AcDbLine
 10
639.4000000000054
 20
-986.1054631794609
 30
0.0
 11
634.4000000000054
 21
-987.1054631794609
 31
0.0
  0
LINE
  5
213C8
330
18
100
AcDbEntity
  8
0
100
AcDbLine
 10
639.4000000000054
 20
-982.1054631794609
 30
0.0
 11
634.4000000000054
 21
-983.1054631794609
 31
0.0
  0
LINE
  5
213C9
330
18
100
AcDbEntity
  8
0
100
AcDbLine
 10
639.4000000000054
 20
-980.1054631794609
 30
0.0
 11
634.4000000000054
 21
-981.1054631794609
 31
0.0
  0
LINE
  5
213CA
330
18
100
AcDbEntity
  8
0
100
AcDbLine
 10
639.4000000000054
 20
-978.1054631794609
 30
0.0
 11
634.4000000000054
 21
-979.1054631794609
 31
0.0
  0
LINE
  5
213CB
330
18
100
AcDbEntity
  8
0
100
AcDbLine
 10
639.4000000000054
 20
-976.1054631794609
 30
0.0
 11
634.4000000000054
 21
-977.1054631794609
 31
0.0
  0
LINE
  5
213CC
330
18
100
AcDbEntity
  8
0
100
AcDbLine
 10
639.4000000000054
 20
-974.1054631794609
 30
0.0
 11
634.4000000000054
 21
-975.1054631794609
 31
0.0
  0
LINE
  5
213CD
330
18
100
AcDbEntity
  8
0
100
AcDbLine
 10
635.1500000000054
 20
-985.255463179461
 30
0.0
 11
634.4000000000054
 21
-985.1054631794609
 31
0.0
  0
LINE
  5
213CE
330
18
100
AcDbEntity
  8
0
100
AcDbLine
 10
635.1500000000054
 20
-987.255463179461
 30
0.0
 11
634.4000000000054
 21
-987.1054631794609
 31
0.0
  0
LINE
  5
213CF
330
18
100
AcDbEntity
  8
0
100
AcDbLine
 10
635.1500000000054
 20
-983.255463179461
 30
0.0
 11
634.4000000000054
 21
-983.1054631794609
 31
0.0
  0
LINE
  5
213D0
330
18
100
AcDbEntity
  8
0
100
AcDbLine
 10
635.1500000000054
 20
-981.255463179461
 30
0.0
 11
634.4000000000054
 21
-981.1054631794609
 31
0.0
  0
LINE
  5
213D1
330
18
100
AcDbEntity
  8
0
100
AcDbLine
 10
635.1500000000054
 20
-979.255463179461
 30
0.0
 11
634.4000000000054
 21
-979.1054631794609
 31
0.0
  0
LINE
  5
213D2
330
18
100
AcDbEntity
  8
0
100
AcDbLine
 10
635.1500000000054
 20
-977.255463179461
 30
0.0
 11
634.4000000000054
 21
-977.1054631794609
 31
0.0
  0
LINE
  5
213D3
330
18
100
AcDbEntity
  8
0
100
AcDbLine
 10
635.1500000000054
 20
-975.255463179461
 30
0.0
 11
634.4000000000054
 21
-975.1054631794609
 31
0.0
  0
LINE
  5
213D4
330
18
100
AcDbEntity
  8
0
100
AcDbLine
 10
635.1500000000054
 20
-973.255463179461
 30
0.0
 11
634.4000000000054
 21
-973.1054631794609
 31
0.0
  0
LINE
  5
213D5
330
18
100
AcDbEntity
  8
0
100
AcDbLine
 10
639.4000000000054
 20
-970.1054631794609
 30
0.0
 11
638.6500000000054
 21
-969.9554631794609
 31
0.0
  0
LINE
  5
213D6
330
18
100
AcDbEntity
  8
0
100
AcDbLine
 10
639.4000000000054
 20
-968.1054631794609
 30
0.0
 11
638.6500000000054
 21
-967.9554631794609
 31
0.0
  0
LINE
  5
213D7
330
18
100
AcDbEntity
  8
0
100
AcDbLine
 10
639.4000000000054
 20
-972.1054631794609
 30
0.0
 11
638.6500000000054
 21
-971.9554631794609
 31
0.0
  0
LINE
  5
213D8
330
18
100
AcDbEntity
  8
0
100
AcDbLine
 10
639.4000000000054
 20
-966.1054631794609
 30
0.0
 11
638.6500000000054
 21
-965.9554631794609
 31
0.0
  0
LINE
  5
213D9
330
18
100
AcDbEntity
  8
0
100
AcDbLine
 10
639.4000000000054
 20
-964.1054631794609
 30
0.0
 11
638.6500000000054
 21
-963.9554631794609
 31
0.0
  0
LINE
  5
213DA
330
18
100
AcDbEntity
  8
0
100
AcDbLine
 10
639.4000000000054
 20
-962.1054631794609
 30
0.0
 11
638.6500000000054
 21
-961.9554631794609
 31
0.0
  0
LINE
  5
213DB
330
18
100
AcDbEntity
  8
0
100
AcDbLine
 10
639.4000000000054
 20
-968.1054631794609
 30
0.0
 11
634.4000000000054
 21
-969.1054631794609
 31
0.0
  0
LINE
  5
213DC
330
18
100
AcDbEntity
  8
0
100
AcDbLine
 10
639.4000000000054
 20
-970.1054631794609
 30
0.0
 11
634.4000000000054
 21
-971.1054631794609
 31
0.0
  0
LINE
  5
213DD
330
18
100
AcDbEntity
  8
0
100
AcDbLine
 10
639.4000000000054
 20
-966.1054631794609
 30
0.0
 11
634.4000000000054
 21
-967.1054631794609
 31
0.0
  0
LINE
  5
213DE
330
18
100
AcDbEntity
  8
0
100
AcDbLine
 10
639.4000000000054
 20
-962.1054631794609
 30
0.0
 11
634.4000000000054
 21
-963.1054631794609
 31
0.0
  0
LINE
  5
213DF
330
18
100
AcDbEntity
  8
0
100
AcDbLine
 10
639.4000000000054
 20
-964.1054631794609
 30
0.0
 11
634.4000000000054
 21
-965.1054631794609
 31
0.0
  0
LINE
  5
213E0
330
18
100
AcDbEntity
  8
0
100
AcDbLine
 10
635.1500000000054
 20
-969.2554631794609
 30
0.0
 11
634.4000000000054
 21
-969.1054631794609
 31
0.0
  0
LINE
  5
213E1
330
18
100
AcDbEntity
  8
0
100
AcDbLine
 10
635.1500000000054
 20
-971.255463179461
 30
0.0
 11
634.4000000000054
 21
-971.1054631794609
 31
0.0
  0
LINE
  5
213E2
330
18
100
AcDbEntity
  8
0
100
AcDbLine
 10
635.1500000000054
 20
-967.2554631794609
 30
0.0
 11
634.4000000000054
 21
-967.1054631794609
 31
0.0
  0
LINE
  5
213E3
330
18
100
AcDbEntity
  8
0
100
AcDbLine
 10
635.1500000000054
 20
-965.2554631794609
 30
0.0
 11
634.4000000000054
 21
-965.1054631794609
 31
0.0
  0
LINE
  5
213E4
330
18
100
AcDbEntity
  8
0
100
AcDbLine
 10
635.1500000000054
 20
-963.2554631794609
 30
0.0
 11
634.4000000000054
 21
-963.1054631794609
 31
0.0
  0
LINE
  5
213E5
330
18
100
AcDbEntity
  8
0
100
AcDbLine
 10
635.1500000000054
 20
-961.9875975934151
 30
0.0
 11
638.6500000000054
 21
-961.9875975934151
 31
0.0
  0
TEXT
  5
213E6
330
18
100
AcDbEntity
  8
1DIM
  6
CONTINUOUS
100
AcDbText
 10
149.3718554307253
 20
-952.1589697684885
 30
0.0
 40
7.0
  1
PB
100
AcDbText
  0
SOLID
  5
213E7
330
18
100
AcDbEntity
  8
1DIM
100
AcDbTrace
 10
124.6196029643275
 20
-977.3896844222955
 30
0.0
 11
121.52292708445
 21
-980.007898114764
 31
0.0
 12
123.6030646921822
 22
-976.5268821743606
 32
0.0
 13
123.6030646921822
 23
-976.5268821743606
 33
0.0
1001
ACAD
1000
DSTYLE
1002
{
1070
    40
1040
2.0
1002
}
  0
LINE
  5
213E8
330
18
100
AcDbEntity
  8
1DIM
100
AcDbLine
 10
124.1113338282548
 20
-976.9582832983281
 30
0.0
 11
143.9718554307253
 21
-953.5589697684885
 31
0.0
1001
ACAD
1000
DSTYLE
1002
{
1070
    40
1040
2.0
1002
}
  0
LINE
  5
213E9
330
18
100
AcDbEntity
  8
1DIM
100
AcDbLine
 10
143.9718554307253
 20
-953.5589697684885
 30
0.0
 11
161.038522097392
 21
-953.5589697684885
 31
0.0
1001
ACAD
1000
DSTYLE
1002
{
1070
    40
1040
2.0
1002
}
  0
TEXT
  5
213EA
330
18
100
AcDbEntity
  8
1DIM
  6
CONTINUOUS
100
AcDbText
 10
181.9647229644471
 20
-952.1978831452417
 30
0.0
 40
7.0
  1
合板12mm以上
100
AcDbText
  0
TEXT
  5
213EB
330
18
100
AcDbEntity
  8
1DIM
  6
CONTINUOUS
100
AcDbText
 10
176.3647229644471
 20
-963.8742720341306
 30
0.0
 40
7.0
  1
（15mm以上推奨）
100
AcDbText
  0
SOLID
  5
213EC
330
18
100
AcDbEntity
  8
1DIM
100
AcDbTrace
 10
159.6249358810575
 20
-992.2011436387587
 30
0.0
 11
156.867748163442
 21
-995.1747542948929
 31
0.0
 12
158.511484440278
 22
-991.4676563063501
 32
0.0
 13
158.511484440278
 23
-991.4676563063501
 33
0.0
1001
ACAD
1000
DSTYLE
1002
{
1070
    40
1040
2.0
1002
}
  0
LINE
  5
213ED
330
18
100
AcDbEntity
  8
1DIM
100
AcDbLine
 10
159.0682101606678
 20
-991.8343999725544
 30
0.0
 11
176.5647229644471
 21
-965.2742720341306
 31
0.0
1001
ACAD
1000
DSTYLE
1002
{
1070
    40
1040
2.0
1002
}
  0
LINE
  5
213EE
330
18
100
AcDbEntity
  8
1DIM
100
AcDbLine
 10
176.5647229644471
 20
-965.2742720341306
 30
0.0
 11
253.3313896311138
 21
-965.2742720341306
 31
0.0
1001
ACAD
1000
DSTYLE
1002
{
1070
    40
1040
2.0
1002
}
  0
TEXT
  5
213EF
330
18
100
AcDbEntity
  8
1DIM
  6
CONTINUOUS
100
AcDbText
 10
416.7129141705631
 20
-874.336788182189
 30
0.0
 40
7.0
  1
材質：ステンレス
100
AcDbText
  0
TEXT
  5
213F0
330
18
100
AcDbEntity
  8
1DIM
  6
CONTINUOUS
100
AcDbText
 10
416.9462475038964
 20
-886.0034548488557
 30
0.0
 40
7.0
  1
仕上げ：ヘアライン
100
AcDbText
  0
SOLID
  5
213F1
330
18
100
AcDbEntity
  8
1DIM
100
AcDbTrace
 10
377.7849100143862
 20
-921.7637433885077
 30
0.0
 11
374.4652927989953
 21
-924.0928174508176
 31
0.0
 12
376.8500958744268
 22
-920.8130066733706
 32
0.0
 13
376.8500958744268
 23
-920.8130066733706
 33
0.0
1001
ACAD
1000
DSTYLE
1002
{
1070
    40
1040
2.0
1002
}
  0
LINE
  5
213F2
330
18
100
AcDbEntity
  8
1DIM
100
AcDbLine
 10
377.3175029444066
 20
-921.2883750309392
 30
0.0
 11
411.7795808372297
 21
-887.4034548488556
 31
0.0
1001
ACAD
1000
DSTYLE
1002
{
1070
    40
1040
2.0
1002
}
  0
LINE
  5
213F3
330
18
100
AcDbEntity
  8
1DIM
100
AcDbLine
 10
411.7795808372297
 20
-887.4034548488556
 30
0.0
 11
490.9129141705631
 21
-887.4034548488556
 31
0.0
1001
ACAD
1000
DSTYLE
1002
{
1070
    40
1040
2.0
1002
}
  0
TEXT
  5
213F4
330
18
100
AcDbEntity
  8
1DIM
  6
CONTINUOUS
100
AcDbText
 10
632.5037599486142
 20
-897.677443320753
 30
0.0
 40
7.0
  1
材質：亜鉛ダイキャスト
100
AcDbText
  0
TEXT
  5
213F5
330
18
100
AcDbEntity
  8
1DIM
  6
CONTINUOUS
100
AcDbText
 10
632.7370932819475
 20
-909.3441099874196
 30
0.0
 40
7.0
  1
仕上げ：各種メッキ
100
AcDbText
  0
SOLID
  5
213F6
330
18
100
AcDbEntity
  8
1DIM
100
AcDbTrace
 10
608.2488772992067
 20
-936.9089618583574
 30
0.0
 11
605.2792056223808
 21
-939.6703916648712
 31
0.0
 12
607.1927556496981
 22
-936.0950915743335
 32
0.0
 13
607.1927556496981
 23
-936.0950915743335
 33
0.0
1001
ACAD
1000
DSTYLE
1002
{
1070
    40
1040
2.0
1002
}
  0
LINE
  5
213F7
330
18
100
AcDbEntity
  8
1DIM
100
AcDbLine
 10
607.7208164744524
 20
-936.5020267163455
 30
0.0
 11
627.5704266152809
 21
-910.7441099874196
 31
0.0
1001
ACAD
1000
DSTYLE
1002
{
1070
    40
1040
2.0
1002
}
  0
LINE
  5
213F8
330
18
100
AcDbEntity
  8
1DIM
100
AcDbLine
 10
627.5704266152809
 20
-910.7441099874196
 30
0.0
 11
722.1037599486142
 21
-910.7441099874196
 31
0.0
1001
ACAD
1000
DSTYLE
1002
{
1070
    40
1040
2.0
1002
}
  0
TEXT
  5
213F9
330
18
100
AcDbEntity
  8
1DIM
  6
CONTINUOUS
100
AcDbText
 10
72.64272251701703
 20
-867.1300123838581
 30
0.0
 40
7.0
  1
材質：亜鉛ダイキャスト
100
AcDbText
  0
TEXT
  5
213FA
330
18
100
AcDbEntity
  8
1DIM
  6
CONTINUOUS
100
AcDbText
 10
72.87605585035037
 20
-878.7966790505247
 30
0.0
 40
7.0
  1
仕上げ：各種メッキ
100
AcDbText
  0
SOLID
  5
213FB
330
18
100
AcDbEntity
  8
1DIM
100
AcDbTrace
 10
47.71267247873818
 20
-908.9865961684702
 30
0.0
 11
44.82851913733046
 21
-911.8372283698759
 31
0.0
 12
46.63224293550348
 22
-908.2052833118734
 32
0.0
 13
46.63224293550348
 23
-908.2052833118734
 33
0.0
1001
ACAD
1000
DSTYLE
1002
{
1070
    40
1040
2.0
1002
}
  0
LINE
  5
213FC
330
18
100
AcDbEntity
  8
1DIM
100
AcDbLine
 10
47.17245770712083
 20
-908.5959397401718
 30
0.0
 11
67.7093891836837
 21
-880.1966790505247
 31
0.0
1001
ACAD
1000
DSTYLE
1002
{
1070
    40
1040
2.0
1002
}
  0
LINE
  5
213FD
330
18
100
AcDbEntity
  8
1DIM
100
AcDbLine
 10
67.7093891836837
 20
-880.1966790505247
 30
0.0
 11
162.2427225170171
 21
-880.1966790505247
 31
0.0
1001
ACAD
1000
DSTYLE
1002
{
1070
    40
1040
2.0
1002
}
  0
LINE
  5
213FE
330
18
100
AcDbEntity
  8
1DIM
100
AcDbLine
 10
296.7954522034051
 20
-850.4875975934038
 30
0.0
 11
321.2633256633051
 21
-850.4875975934038
 31
0.0
1001
ACAD
1000
DSTYLE
1002
{
1070
     3
1000
φ<>
1070
    40
1040
2.0
1002
}
  0
LINE
  5
213FF
330
18
100
AcDbEntity
  8
1DIM
100
AcDbLine
 10
296.7954522034051
 20
-825.4875975934053
 30
0.0
 11
321.2633256633051
 21
-825.4875975934053
 31
0.0
1001
ACAD
1000
DSTYLE
1002
{
1070
     3
1000
φ<>
1070
    40
1040
2.0
1002
}
  0
LINE
  5
21400
330
18
100
AcDbEntity
  8
1DIM
100
AcDbLine
 10
319.2633256633051
 20
-850.4875975934038
 30
0.0
 11
319.2633256633051
 21
-876.387597593404
 31
0.0
1001
ACAD
1000
DSTYLE
1002
{
1070
     3
1000
φ<>
1070
    40
1040
2.0
1002
}
  0
LINE
  5
21401
330
18
100
AcDbEntity
  8
1DIM
100
AcDbLine
 10
319.2633256633051
 20
-846.4875975934038
 30
0.0
 11
319.2633256633051
 21
-829.4875975934053
 31
0.0
1001
ACAD
1000
DSTYLE
1002
{
1070
     3
1000
φ<>
1070
    40
1040
2.0
1002
}
  0
LINE
  5
21405
330
18
100
AcDbEntity
  8
0
100
AcDbLine
 10
746.1938056612315
 20
-988.0137553103289
 30
0.0
 11
741.1938056612315
 21
-989.0137553103289
 31
0.0
  0
LINE
  5
21406
330
18
100
AcDbEntity
  8
1CENTER
100
AcDbLine
 10
743.6938056612315
 20
-1013.342242954831
 30
0.0
 11
743.6938056612315
 21
-956.912936974137
 31
0.0
  0
LINE
  5
21408
330
18
100
AcDbEntity
  8
0
100
AcDbLine
 10
746.0100726022673
 20
-1006.050501922122
 30
0.0
 11
745.2600726022673
 21
-1005.900501922122
 31
0.0
  0
LINE
  5
21409
330
18
100
AcDbEntity
  8
0
100
AcDbLine
 10
746.0100726022674
 20
-1006.050501922122
 30
0.0
 11
741.6131681211766
 21
-1006.92988281834
 31
0.0
  0
LINE
  5
2140A
330
18
100
AcDbEntity
  8
0
100
AcDbLine
 10
744.8775860617486
 20
-1010.276999230225
 30
0.0
 11
744.1275860617486
 21
-1010.126999230225
 31
0.0
  0
LINE
  5
2140B
330
18
100
AcDbEntity
  8
0
100
AcDbLine
 10
743.3804489742878
 20
-1010.876426647718
 30
0.0
 11
742.6304489742878
 21
-1010.726426647718
 31
0.0
  0
LINE
  5
2140C
330
18
100
AcDbEntity
  8
0
100
AcDbLine
 10
744.8775860617486
 20
-1010.276999230225
 30
0.0
 11
742.6304489742878
 21
-1010.726426647718
 31
0.0
  0
LINE
  5
2140D
330
18
100
AcDbEntity
  8
0
100
AcDbLine
 10
745.443829332008
 20
-1008.163750576174
 30
0.0
 11
744.693829332008
 21
-1008.013750576174
 31
0.0
  0
LINE
  5
2140E
330
18
100
AcDbEntity
  8
0
100
AcDbLine
 10
742.8718085477323
 20
-1008.978154733029
 30
0.0
 11
742.1218085477323
 21
-1008.828154733029
 31
0.0
  0
LINE
  5
2140F
330
18
100
AcDbEntity
  8
0
100
AcDbLine
 10
742.3631681211766
 20
-1007.07988281834
 30
0.0
 11
741.6131681211766
 21
-1006.92988281834
 31
0.0
  0
LINE
  5
21410
330
18
100
AcDbEntity
  8
0
100
AcDbLine
 10
745.443829332008
 20
-1008.163750576174
 30
0.0
 11
742.1218085477321
 21
-1008.828154733029
 31
0.0
  0
LINE
  5
21411
330
18
100
AcDbEntity
  8
0
100
AcDbLine
 10
746.1938056612315
 20
-992.0137553103289
 30
0.0
 11
745.4438056612315
 21
-991.8637553103289
 31
0.0
  0
LINE
  5
21412
330
18
100
AcDbEntity
  8
0
100
AcDbLine
 10
746.1938056612315
 20
-990.0137553103289
 30
0.0
 11
745.4438056612315
 21
-989.8637553103289
 31
0.0
  0
LINE
  5
21413
330
18
100
AcDbEntity
  8
0
100
AcDbLine
 10
746.1938056612315
 20
-996.0137553103289
 30
0.0
 11
745.4438056612315
 21
-995.8637553103289
 31
0.0
  0
LINE
  5
21414
330
18
100
AcDbEntity
  8
0
100
AcDbLine
 10
746.1938056612315
 20
-994.0137553103289
 30
0.0
 11
745.4438056612315
 21
-993.8637553103289
 31
0.0
  0
LINE
  5
21415
330
18
100
AcDbEntity
  8
0
100
AcDbLine
 10
746.1938056612315
 20
-998.0137553103289
 30
0.0
 11
745.4438056612315
 21
-997.8637553103289
 31
0.0
  0
LINE
  5
21416
330
18
100
AcDbEntity
  8
0
100
AcDbLine
 10
746.1938056612315
 20
-1000.013755310329
 30
0.0
 11
745.4438056612315
 21
-999.8637553103289
 31
0.0
  0
LINE
  5
21417
330
18
100
AcDbEntity
  8
0
100
AcDbLine
 10
746.1938056612315
 20
-990.0137553103289
 30
0.0
 11
741.1938056612315
 21
-991.0137553103289
 31
0.0
  0
LINE
  5
21418
330
18
100
AcDbEntity
  8
0
100
AcDbLine
 10
746.1938056612315
 20
-992.0137553103289
 30
0.0
 11
741.1938056612315
 21
-993.0137553103289
 31
0.0
  0
LINE
  5
21419
330
18
100
AcDbEntity
  8
0
100
AcDbLine
 10
746.1938056612315
 20
-994.0137553103289
 30
0.0
 11
741.1938056612315
 21
-995.0137553103289
 31
0.0
  0
LINE
  5
2141A
330
18
100
AcDbEntity
  8
0
100
AcDbLine
 10
746.1938056612315
 20
-996.0137553103289
 30
0.0
 11
741.1938056612315
 21
-997.0137553103289
 31
0.0
  0
LINE
  5
2141B
330
18
100
AcDbEntity
  8
0
100
AcDbLine
 10
746.1938056612315
 20
-998.0137553103289
 30
0.0
 11
741.1938056612315
 21
-999.0137553103289
 31
0.0
  0
LINE
  5
2141C
330
18
100
AcDbEntity
  8
0
100
AcDbLine
 10
746.1938056612315
 20
-1004.013755310329
 30
0.0
 11
745.4438056612315
 21
-1003.863755310329
 31
0.0
  0
LINE
  5
2141D
330
18
100
AcDbEntity
  8
0
100
AcDbLine
 10
746.1938056612315
 20
-1002.013755310329
 30
0.0
 11
745.4438056612315
 21
-1001.863755310329
 31
0.0
  0
LINE
  5
2141E
330
18
100
AcDbEntity
  8
0
100
AcDbLine
 10
746.1938056612315
 20
-1002.013755310329
 30
0.0
 11
741.1938056612315
 21
-1003.013755310329
 31
0.0
  0
LINE
  5
2141F
330
18
100
AcDbEntity
  8
0
100
AcDbLine
 10
746.1938056612315
 20
-1004.013755310329
 30
0.0
 11
741.1938056612315
 21
-1005.013755310329
 31
0.0
  0
LINE
  5
21420
330
18
100
AcDbEntity
  8
0
100
AcDbLine
 10
746.1938056612315
 20
-1000.013755310329
 30
0.0
 11
741.1938056612315
 21
-1001.013755310329
 31
0.0
  0
LINE
  5
21421
330
18
100
AcDbEntity
  8
0
100
AcDbLine
 10
741.9438056612315
 20
-997.163755310329
 30
0.0
 11
741.1938056612315
 21
-997.0137553103289
 31
0.0
  0
LINE
  5
21422
330
18
100
AcDbEntity
  8
0
100
AcDbLine
 10
741.9438056612315
 20
-1003.163755310329
 30
0.0
 11
741.1938056612315
 21
-1003.013755310329
 31
0.0
  0
LINE
  5
21423
330
18
100
AcDbEntity
  8
0
100
AcDbLine
 10
741.9438056612315
 20
-1005.163755310329
 30
0.0
 11
741.1938056612315
 21
-1005.013755310329
 31
0.0
  0
LINE
  5
21424
330
18
100
AcDbEntity
  8
0
100
AcDbLine
 10
741.9438056612315
 20
-999.163755310329
 30
0.0
 11
741.1938056612315
 21
-999.0137553103289
 31
0.0
  0
LINE
  5
21425
330
18
100
AcDbEntity
  8
0
100
AcDbLine
 10
741.9438056612315
 20
-1001.163755310329
 30
0.0
 11
741.1938056612315
 21
-1001.013755310329
 31
0.0
  0
LINE
  5
21426
330
18
100
AcDbEntity
  8
0
100
AcDbLine
 10
741.9438056612315
 20
-993.163755310329
 30
0.0
 11
741.1938056612315
 21
-993.0137553103289
 31
0.0
  0
LINE
  5
21427
330
18
100
AcDbEntity
  8
0
100
AcDbLine
 10
741.9438056612315
 20
-995.163755310329
 30
0.0
 11
741.1938056612315
 21
-995.0137553103289
 31
0.0
  0
LINE
  5
21428
330
18
100
AcDbEntity
  8
0
100
AcDbLine
 10
741.9438056612315
 20
-991.163755310329
 30
0.0
 11
741.1938056612315
 21
-991.0137553103289
 31
0.0
  0
LINE
  5
21429
330
18
100
AcDbEntity
  8
0
100
AcDbLine
 10
741.9438056612315
 20
-989.163755310329
 30
0.0
 11
741.1938056612315
 21
-989.0137553103289
 31
0.0
  0
LINE
  5
2142A
330
18
100
AcDbEntity
  8
0
100
AcDbLine
 10
746.1938056612315
 20
-972.0137553103289
 30
0.0
 11
741.1938056612315
 21
-973.0137553103289
 31
0.0
  0
LINE
  5
2142B
330
18
100
AcDbEntity
  8
0
100
AcDbLine
 10
746.1938056612315
 20
-984.0137553103289
 30
0.0
 11
745.4438056612315
 21
-983.8637553103289
 31
0.0
  0
LINE
  5
2142C
330
18
100
AcDbEntity
  8
0
100
AcDbLine
 10
746.1938056612315
 20
-986.0137553103289
 30
0.0
 11
745.4438056612315
 21
-985.8637553103289
 31
0.0
  0
LINE
  5
2142D
330
18
100
AcDbEntity
  8
0
100
AcDbLine
 10
746.1938056612315
 20
-988.0137553103289
 30
0.0
 11
745.4438056612315
 21
-987.8637553103289
 31
0.0
  0
LINE
  5
2142E
330
18
100
AcDbEntity
  8
0
100
AcDbLine
 10
746.1938056612315
 20
-982.0137553103289
 30
0.0
 11
745.4438056612315
 21
-981.8637553103289
 31
0.0
  0
LINE
  5
2142F
330
18
100
AcDbEntity
  8
0
100
AcDbLine
 10
746.1938056612315
 20
-980.0137553103289
 30
0.0
 11
745.4438056612315
 21
-979.8637553103289
 31
0.0
  0
LINE
  5
21430
330
18
100
AcDbEntity
  8
0
100
AcDbLine
 10
746.1938056612315
 20
-976.0137553103289
 30
0.0
 11
745.4438056612315
 21
-975.8637553103289
 31
0.0
  0
LINE
  5
21431
330
18
100
AcDbEntity
  8
0
100
AcDbLine
 10
746.1938056612315
 20
-978.0137553103289
 30
0.0
 11
745.4438056612315
 21
-977.8637553103289
 31
0.0
  0
LINE
  5
21432
330
18
100
AcDbEntity
  8
0
100
AcDbLine
 10
746.1938056612315
 20
-974.0137553103289
 30
0.0
 11
745.4438056612315
 21
-973.8637553103289
 31
0.0
  0
LINE
  5
21433
330
18
100
AcDbEntity
  8
0
100
AcDbLine
 10
746.1938056612315
 20
-984.0137553103289
 30
0.0
 11
741.1938056612315
 21
-985.0137553103289
 31
0.0
  0
LINE
  5
21434
330
18
100
AcDbEntity
  8
0
100
AcDbLine
 10
746.1938056612315
 20
-986.0137553103289
 30
0.0
 11
741.1938056612315
 21
-987.0137553103289
 31
0.0
  0
LINE
  5
21435
330
18
100
AcDbEntity
  8
0
100
AcDbLine
 10
746.1938056612315
 20
-982.0137553103289
 30
0.0
 11
741.1938056612315
 21
-983.0137553103289
 31
0.0
  0
LINE
  5
21436
330
18
100
AcDbEntity
  8
0
100
AcDbLine
 10
746.1938056612315
 20
-980.0137553103289
 30
0.0
 11
741.1938056612315
 21
-981.0137553103289
 31
0.0
  0
LINE
  5
21437
330
18
100
AcDbEntity
  8
0
100
AcDbLine
 10
746.1938056612315
 20
-978.0137553103289
 30
0.0
 11
741.1938056612315
 21
-979.0137553103289
 31
0.0
  0
LINE
  5
21438
330
18
100
AcDbEntity
  8
0
100
AcDbLine
 10
746.1938056612315
 20
-976.0137553103289
 30
0.0
 11
741.1938056612315
 21
-977.0137553103289
 31
0.0
  0
LINE
  5
21439
330
18
100
AcDbEntity
  8
0
100
AcDbLine
 10
746.1938056612315
 20
-974.0137553103289
 30
0.0
 11
741.1938056612315
 21
-975.0137553103289
 31
0.0
  0
LINE
  5
2143A
330
18
100
AcDbEntity
  8
0
100
AcDbLine
 10
741.9438056612315
 20
-985.163755310329
 30
0.0
 11
741.1938056612315
 21
-985.0137553103289
 31
0.0
  0
LINE
  5
2143B
330
18
100
AcDbEntity
  8
0
100
AcDbLine
 10
741.9438056612315
 20
-987.163755310329
 30
0.0
 11
741.1938056612315
 21
-987.0137553103289
 31
0.0
  0
LINE
  5
2143C
330
18
100
AcDbEntity
  8
0
100
AcDbLine
 10
741.9438056612315
 20
-983.163755310329
 30
0.0
 11
741.1938056612315
 21
-983.0137553103289
 31
0.0
  0
LINE
  5
2143D
330
18
100
AcDbEntity
  8
0
100
AcDbLine
 10
741.9438056612315
 20
-981.163755310329
 30
0.0
 11
741.1938056612315
 21
-981.0137553103289
 31
0.0
  0
LINE
  5
2143E
330
18
100
AcDbEntity
  8
0
100
AcDbLine
 10
741.9438056612315
 20
-979.163755310329
 30
0.0
 11
741.1938056612315
 21
-979.0137553103289
 31
0.0
  0
LINE
  5
2143F
330
18
100
AcDbEntity
  8
0
100
AcDbLine
 10
741.9438056612315
 20
-977.163755310329
 30
0.0
 11
741.1938056612315
 21
-977.0137553103289
 31
0.0
  0
LINE
  5
21440
330
18
100
AcDbEntity
  8
0
100
AcDbLine
 10
741.9438056612315
 20
-975.163755310329
 30
0.0
 11
741.1938056612315
 21
-975.0137553103289
 31
0.0
  0
LINE
  5
21441
330
18
100
AcDbEntity
  8
0
100
AcDbLine
 10
741.9438056612315
 20
-973.163755310329
 30
0.0
 11
741.1938056612315
 21
-973.0137553103289
 31
0.0
  0
LINE
  5
21442
330
18
100
AcDbEntity
  8
0
100
AcDbLine
 10
746.1938056612315
 20
-970.0137553103289
 30
0.0
 11
745.4438056612315
 21
-969.8637553103289
 31
0.0
  0
LINE
  5
21443
330
18
100
AcDbEntity
  8
0
100
AcDbLine
 10
746.1938056612315
 20
-968.0137553103289
 30
0.0
 11
745.4438056612315
 21
-967.8637553103289
 31
0.0
  0
LINE
  5
21444
330
18
100
AcDbEntity
  8
0
100
AcDbLine
 10
746.1938056612315
 20
-972.0137553103289
 30
0.0
 11
745.4438056612315
 21
-971.8637553103289
 31
0.0
  0
LINE
  5
21445
330
18
100
AcDbEntity
  8
0
100
AcDbLine
 10
746.1938056612315
 20
-966.0137553103289
 30
0.0
 11
745.4438056612315
 21
-965.8637553103289
 31
0.0
  0
LINE
  5
21446
330
18
100
AcDbEntity
  8
0
100
AcDbLine
 10
746.1938056612315
 20
-964.0137553103289
 30
0.0
 11
745.4438056612315
 21
-963.8637553103289
 31
0.0
  0
LINE
  5
21447
330
18
100
AcDbEntity
  8
0
100
AcDbLine
 10
746.1938056612315
 20
-962.0137553103289
 30
0.0
 11
745.4438056612315
 21
-961.8637553103289
 31
0.0
  0
LINE
  5
21448
330
18
100
AcDbEntity
  8
0
100
AcDbLine
 10
746.1938056612315
 20
-968.0137553103289
 30
0.0
 11
741.1938056612315
 21
-969.0137553103289
 31
0.0
  0
LINE
  5
21449
330
18
100
AcDbEntity
  8
0
100
AcDbLine
 10
746.1938056612315
 20
-970.0137553103289
 30
0.0
 11
741.1938056612315
 21
-971.0137553103289
 31
0.0
  0
LINE
  5
2144A
330
18
100
AcDbEntity
  8
0
100
AcDbLine
 10
746.1938056612315
 20
-966.0137553103289
 30
0.0
 11
741.1938056612315
 21
-967.0137553103289
 31
0.0
  0
LINE
  5
2144B
330
18
100
AcDbEntity
  8
0
100
AcDbLine
 10
746.1938056612315
 20
-962.0137553103289
 30
0.0
 11
741.1938056612315
 21
-963.0137553103289
 31
0.0
  0
LINE
  5
2144C
330
18
100
AcDbEntity
  8
0
100
AcDbLine
 10
746.1938056612315
 20
-964.0137553103289
 30
0.0
 11
741.1938056612315
 21
-965.0137553103289
 31
0.0
  0
LINE
  5
2144D
330
18
100
AcDbEntity
  8
0
100
AcDbLine
 10
741.9438056612315
 20
-969.1637553103288
 30
0.0
 11
741.1938056612315
 21
-969.0137553103289
 31
0.0
  0
LINE
  5
2144E
330
18
100
AcDbEntity
  8
0
100
AcDbLine
 10
741.9438056612315
 20
-971.163755310329
 30
0.0
 11
741.1938056612315
 21
-971.0137553103289
 31
0.0
  0
LINE
  5
2144F
330
18
100
AcDbEntity
  8
0
100
AcDbLine
 10
741.9438056612315
 20
-967.1637553103288
 30
0.0
 11
741.1938056612315
 21
-967.0137553103289
 31
0.0
  0
LINE
  5
21450
330
18
100
AcDbEntity
  8
0
100
AcDbLine
 10
741.9438056612315
 20
-965.1637553103288
 30
0.0
 11
741.1938056612315
 21
-965.0137553103289
 31
0.0
  0
LINE
  5
21451
330
18
100
AcDbEntity
  8
0
100
AcDbLine
 10
741.9438056612315
 20
-963.1637553103288
 30
0.0
 11
741.1938056612315
 21
-963.0137553103289
 31
0.0
  0
LINE
  5
21452
330
18
100
AcDbEntity
  8
0
100
AcDbLine
 10
741.9438056612315
 20
-961.895889724283
 30
0.0
 11
745.4438056612315
 21
-961.895889724283
 31
0.0
  0
LINE
  5
21454
330
18
100
AcDbEntity
  8
0
100
AcDbLine
 10
755.8938335826446
 20
-957.9876625693988
 30
0.0
 11
755.8937777395671
 21
-965.9876625692257
 31
0.0
  0
LINE
  5
21455
330
18
100
AcDbEntity
  8
1HATCH
100
AcDbLine
 10
746.1937949587574
 20
-963.6374326819483
 30
0.0
 11
753.5437722715418
 21
-963.637640697201
 31
0.0
  0
LINE
  5
21456
330
18
100
AcDbEntity
  8
1HATCH
100
AcDbLine
 10
746.1938163652704
 20
-960.3374326820046
 30
0.0
 11
753.5438281147211
 21
-960.3376406975777
 31
0.0
  0
LINE
  5
21457
330
18
100
AcDbEntity
  8
1CENTER
100
AcDbLine
 10
744.2323205026514
 20
-961.9874144260818
 30
0.0
 11
758.1335569045303
 21
-961.9876834150793
 31
0.0
  0
LINE
  5
21458
330
18
100
AcDbEntity
  8
1HATCH
100
AcDbLine
 10
746.5438196227731
 20
-959.987435351534
 30
0.0
 11
746.5437917012343
 21
-963.9874353514468
 31
0.0
  0
LINE
  5
21459
330
18
100
AcDbEntity
  8
1HATCH
100
AcDbLine
 10
753.5438281147211
 20
-960.3376406975777
 30
0.0
 11
753.8938289290928
 21
-959.9876439550831
 31
0.0
  0
LINE
  5
2145A
330
18
100
AcDbEntity
  8
1HATCH
100
AcDbLine
 10
753.5437722715418
 20
-963.637640697201
 30
0.0
 11
753.8937730859286
 21
-963.9876439547365
 31
0.0
  0
LINE
  5
21464
330
18
100
AcDbEntity
  8
0
100
AcDbLine
 10
731.4937777398185
 20
-957.9876625693988
 30
0.0
 11
731.493833582896
 21
-965.9876625692257
 31
0.0
  0
LINE
  5
21465
330
18
100
AcDbEntity
  8
1HATCH
100
AcDbLine
 10
741.1938163637057
 20
-963.6374326819483
 30
0.0
 11
733.8438390509212
 21
-963.637640697201
 31
0.0
  0
LINE
  5
21466
330
18
100
AcDbEntity
  8
1HATCH
100
AcDbLine
 10
741.1937949571926
 20
-960.3374326820046
 30
0.0
 11
733.8437832077419
 21
-960.3376406975777
 31
0.0
  0
LINE
  5
21467
330
18
100
AcDbEntity
  8
1CENTER
100
AcDbLine
 10
743.1552908198116
 20
-961.9874144260818
 30
0.0
 11
729.2540544179327
 21
-961.9876834150793
 31
0.0
  0
LINE
  5
21468
330
18
100
AcDbEntity
  8
1HATCH
100
AcDbLine
 10
740.84379169969
 20
-959.987435351534
 30
0.0
 11
740.8438196212287
 21
-963.9874353514468
 31
0.0
  0
LINE
  5
21469
330
18
100
AcDbEntity
  8
1HATCH
100
AcDbLine
 10
733.8437832077419
 20
-960.3376406975777
 30
0.0
 11
733.4937823933702
 21
-959.9876439550831
 31
0.0
  0
LINE
  5
2146A
330
18
100
AcDbEntity
  8
1HATCH
100
AcDbLine
 10
733.8438390509212
 20
-963.637640697201
 30
0.0
 11
733.4938382365344
 21
-963.9876439547365
 31
0.0
  0
LINE
  5
2146B
330
18
100
AcDbEntity
  8
1DIM
100
AcDbLine
 10
61.90000000000546
 20
-1013.433950823963
 30
0.0
 11
61.90000000000546
 21
-1024.487597593408
 31
0.0
1001
ACAD
1000
DSTYLE
1002
{
1070
    40
1040
2.0
1002
}
  0
LINE
  5
2146C
330
18
100
AcDbEntity
  8
1DIM
100
AcDbLine
 10
636.9000000000054
 20
-1013.433950823963
 30
0.0
 11
636.9000000000054
 21
-1024.487597593408
 31
0.0
1001
ACAD
1000
DSTYLE
1002
{
1070
    40
1040
2.0
1002
}
  0
LINE
  5
2146D
330
18
100
AcDbEntity
  8
1DIM
100
AcDbLine
 10
65.90000000000546
 20
-1022.487597593408
 30
0.0
 11
632.9000000000054
 21
-1022.487597593408
 31
0.0
1001
ACAD
1000
DSTYLE
1002
{
1070
    40
1040
2.0
1002
}
  0
LINE
  5
21471
330
18
100
AcDbEntity
  8
0
  6
BYBLOCK
100
AcDbLine
 10
719.3999999986164
 20
-1061.415800833408
 30
0.0
 11
723.3999999986164
 21
-1062.487597593408
 31
0.0
  0
LINE
  5
21472
330
18
100
AcDbEntity
  8
0
  6
BYBLOCK
100
AcDbLine
 10
723.3999999986164
 20
-1062.487597593408
 30
0.0
 11
719.3999999986164
 21
-1063.559394353408
 31
0.0
  0
LINE
  5
21473
330
18
100
AcDbEntity
  8
0
  6
BYBLOCK
100
AcDbLine
 10
723.3999999986164
 20
-1062.487597593408
 30
0.0
 11
719.3999999986164
 21
-1062.487597593408
 31
0.0
  0
LINE
  5
21474
330
18
100
AcDbEntity
  8
0
  6
BYBLOCK
100
AcDbLine
 10
32.40000000000006
 20
-1063.559394353408
 30
0.0
 11
28.40000000000007
 21
-1062.487597593408
 31
0.0
  0
LINE
  5
21475
330
18
100
AcDbEntity
  8
0
  6
BYBLOCK
100
AcDbLine
 10
28.40000000000007
 20
-1062.487597593408
 30
0.0
 11
32.40000000000006
 21
-1061.415800833408
 31
0.0
  0
LINE
  5
21476
330
18
100
AcDbEntity
  8
0
  6
BYBLOCK
100
AcDbLine
 10
28.40000000000007
 20
-1062.487597593408
 30
0.0
 11
32.40000000000006
 21
-1062.487597593408
 31
0.0
  0
TEXT
  5
21477
330
18
100
AcDbEntity
  8
1DIM
  6
CONTINUOUS
100
AcDbText
 10
366.540740740049
 20
-1061.087597593408
 30
0.0
 40
7.0
  1
695
100
AcDbText
1001
ACAD
1000
DSTYLE
1002
{
1070
    40
1040
2.0
1002
}
  0
LINE
  5
21478
330
18
100
AcDbEntity
  8
0
  6
BYBLOCK
100
AcDbLine
 10
53.40000000000376
 20
-1043.559394353408
 30
0.0
 11
49.40000000000376
 21
-1042.487597593408
 31
0.0
  0
LINE
  5
21479
330
18
100
AcDbEntity
  8
0
  6
BYBLOCK
100
AcDbLine
 10
49.40000000000376
 20
-1042.487597593408
 30
0.0
 11
53.40000000000376
 21
-1041.415800833408
 31
0.0
  0
LINE
  5
2147A
330
18
100
AcDbEntity
  8
0
  6
BYBLOCK
100
AcDbLine
 10
49.40000000000376
 20
-1042.487597593408
 30
0.0
 11
53.40000000000376
 21
-1042.487597593408
 31
0.0
  0
LINE
  5
2147B
330
18
100
AcDbEntity
  8
0
  6
BYBLOCK
100
AcDbLine
 10
645.4000000000036
 20
-1041.415800833408
 30
0.0
 11
649.4000000000036
 21
-1042.487597593408
 31
0.0
  0
LINE
  5
2147C
330
18
100
AcDbEntity
  8
0
  6
BYBLOCK
100
AcDbLine
 10
649.4000000000036
 20
-1042.487597593408
 30
0.0
 11
645.4000000000036
 21
-1043.559394353408
 31
0.0
  0
LINE
  5
2147D
330
18
100
AcDbEntity
  8
0
  6
BYBLOCK
100
AcDbLine
 10
649.4000000000036
 20
-1042.487597593408
 30
0.0
 11
645.4000000000036
 21
-1042.487597593408
 31
0.0
  0
TEXT
  5
2147E
330
18
100
AcDbEntity
  8
1DIM
  6
CONTINUOUS
100
AcDbText
 10
337.5631944444481
 20
-1041.087597593408
 30
0.0
 40
7.0
  1
P600
100
AcDbText
1001
ACAD
1000
DSTYLE
1002
{
1070
    40
1040
2.0
1002
}
  0
LINE
  5
2147F
330
18
100
AcDbEntity
  8
0
  6
BYBLOCK
100
AcDbLine
 10
57.90000000000546
 20
-1021.415800833408
 30
0.0
 11
61.90000000000546
 21
-1022.487597593408
 31
0.0
  0
LINE
  5
21480
330
18
100
AcDbEntity
  8
0
  6
BYBLOCK
100
AcDbLine
 10
61.90000000000546
 20
-1022.487597593408
 30
0.0
 11
57.90000000000546
 21
-1023.559394353408
 31
0.0
  0
LINE
  5
21481
330
18
100
AcDbEntity
  8
0
  6
BYBLOCK
100
AcDbLine
 10
61.90000000000546
 20
-1022.487597593408
 30
0.0
 11
57.90000000000546
 21
-1022.487597593408
 31
0.0
  0
LINE
  5
21482
330
18
100
AcDbEntity
  8
0
  6
BYBLOCK
100
AcDbLine
 10
40.90000000000552
 20
-1023.559394353408
 30
0.0
 11
36.90000000000552
 21
-1022.487597593408
 31
0.0
  0
LINE
  5
21483
330
18
100
AcDbEntity
  8
0
  6
BYBLOCK
100
AcDbLine
 10
36.90000000000552
 20
-1022.487597593408
 30
0.0
 11
40.90000000000552
 21
-1021.415800833408
 31
0.0
  0
LINE
  5
21484
330
18
100
AcDbEntity
  8
0
  6
BYBLOCK
100
AcDbLine
 10
36.90000000000552
 20
-1022.487597593408
 30
0.0
 11
40.90000000000552
 21
-1022.487597593408
 31
0.0
  0
TEXT
  5
21485
330
18
100
AcDbEntity
  8
1DIM
  6
CONTINUOUS
100
AcDbText
 10
9.046072053327132
 20
-1021.087597593408
 30
0.0
 40
7.0
  1
P25
100
AcDbText
1001
ACAD
1000
DSTYLE
1002
{
1070
    40
1040
2.0
1002
}
  0
LINE
  5
21486
330
18
100
AcDbEntity
  8
0
  6
BYBLOCK
100
AcDbLine
 10
19.99292410312308
 20
-904.4875975934042
 30
0.0
 11
21.06472086312309
 21
-900.4875975934042
 31
0.0
  0
LINE
  5
21487
330
18
100
AcDbEntity
  8
0
  6
BYBLOCK
100
AcDbLine
 10
21.06472086312309
 20
-900.4875975934042
 30
0.0
 11
22.13651762312308
 21
-904.4875975934042
 31
0.0
  0
LINE
  5
21488
330
18
100
AcDbEntity
  8
0
  6
BYBLOCK
100
AcDbLine
 10
21.06472086312309
 20
-900.4875975934042
 30
0.0
 11
21.06472086312309
 21
-904.4875975934042
 31
0.0
  0
LINE
  5
21489
330
18
100
AcDbEntity
  8
0
  6
BYBLOCK
100
AcDbLine
 10
22.13651762312307
 20
-971.4875975934078
 30
0.0
 11
21.06472086312307
 21
-975.4875975934078
 31
0.0
  0
LINE
  5
2148A
330
18
100
AcDbEntity
  8
0
  6
BYBLOCK
100
AcDbLine
 10
21.06472086312307
 20
-975.4875975934078
 30
0.0
 11
19.99292410312307
 21
-971.4875975934078
 31
0.0
  0
LINE
  5
2148B
330
18
100
AcDbEntity
  8
0
  6
BYBLOCK
100
AcDbLine
 10
21.06472086312307
 20
-975.4875975934078
 30
0.0
 11
21.06472086312307
 21
-971.4875975934078
 31
0.0
  0
TEXT
  5
2148C
330
18
100
AcDbEntity
  8
1DIM
  6
CONTINUOUS
100
AcDbText
 10
19.66472086312297
 20
-943.8209309267393
 30
0.0
 40
7.0
  1
75
 50
89.99999999999999
100
AcDbText
1001
ACAD
1000
DSTYLE
1002
{
1070
    40
1040
2.0
1002
}
  0
LINE
  5
2148D
330
18
100
AcDbEntity
  8
0
  6
BYBLOCK
100
AcDbLine
 10
19.99292410312308
 20
-829.4875975934053
 30
0.0
 11
21.06472086312309
 21
-825.4875975934053
 31
0.0
  0
LINE
  5
2148E
330
18
100
AcDbEntity
  8
0
  6
BYBLOCK
100
AcDbLine
 10
21.06472086312309
 20
-825.4875975934053
 30
0.0
 11
22.13651762312308
 21
-829.4875975934053
 31
0.0
  0
LINE
  5
2148F
330
18
100
AcDbEntity
  8
0
  6
BYBLOCK
100
AcDbLine
 10
21.06472086312309
 20
-825.4875975934053
 30
0.0
 11
21.06472086312309
 21
-829.4875975934053
 31
0.0
  0
LINE
  5
21490
330
18
100
AcDbEntity
  8
0
  6
BYBLOCK
100
AcDbLine
 10
22.13651762312309
 20
-846.4875975934035
 30
0.0
 11
21.06472086312309
 21
-850.4875975934035
 31
0.0
  0
LINE
  5
21491
330
18
100
AcDbEntity
  8
0
  6
BYBLOCK
100
AcDbLine
 10
21.06472086312309
 20
-850.4875975934035
 30
0.0
 11
19.99292410312309
 21
-846.4875975934035
 31
0.0
  0
LINE
  5
21492
330
18
100
AcDbEntity
  8
0
  6
BYBLOCK
100
AcDbLine
 10
21.06472086312309
 20
-850.4875975934035
 30
0.0
 11
21.06472086312309
 21
-846.4875975934035
 31
0.0
  0
TEXT
  5
21493
330
18
100
AcDbEntity
  8
1DIM
  6
CONTINUOUS
100
AcDbText
 10
19.66472086312297
 20
-867.3875975934036
 30
0.0
 40
7.0
  1
25
 50
90.0
100
AcDbText
1001
ACAD
1000
DSTYLE
1002
{
1070
    40
1040
2.0
1002
}
  0
LINE
  5
21494
330
18
100
AcDbEntity
  8
0
100
AcDbLine
 10
38.65000000000545
 20
-1005.45650868017
 30
0.0
 11
38.65000000000546
 21
-961.9875975934151
 31
0.0
  0
LINE
  5
21495
330
18
100
AcDbEntity
  8
0
100
AcDbLine
 10
38.65000000000546
 20
-961.9875975934151
 30
0.0
 11
41.40000000000546
 21
-961.9875975934151
 31
0.0
  0
LINE
  5
21496
330
18
100
AcDbEntity
  8
0
100
AcDbLine
 10
41.40000000000546
 20
-961.9875975934151
 30
0.0
 11
41.40000000000546
 21
-961.1875975934154
 31
0.0
  0
ARC
  5
21497
330
18
100
AcDbEntity
  8
0
100
AcDbCircle
 10
38.90000000000546
 20
-961.1875975934151
 30
0.0
 40
2.5
100
AcDbArc
 50
0.000000000005211
 51
90.00000000000911
  0
LINE
  5
21498
330
18
100
AcDbEntity
  8
0
100
AcDbLine
 10
38.90000000000546
 20
-958.6875975934151
 30
0.0
 11
34.90000000000546
 21
-958.687597593415
 31
0.0
  0
ARC
  5
21499
330
18
100
AcDbEntity
  8
0
100
AcDbCircle
 10
34.90000000000546
 20
-961.187597593415
 30
0.0
 40
2.5
100
AcDbArc
 50
90.0
 51
180.0
  0
LINE
  5
2149A
330
18
100
AcDbEntity
  8
0
100
AcDbLine
 10
32.40000000000546
 20
-961.187597593415
 30
0.0
 11
32.40000000000546
 21
-961.9875975934151
 31
0.0
  0
LINE
  5
2149B
330
18
100
AcDbEntity
  8
0
100
AcDbLine
 10
32.40000000000546
 20
-961.9875975934151
 30
0.0
 11
35.15000000000546
 21
-961.9875975934151
 31
0.0
  0
LINE
  5
2149C
330
18
100
AcDbEntity
  8
0
100
AcDbLine
 10
35.15000000000546
 20
-961.9875975934151
 30
0.0
 11
35.15000000000545
 21
-1005.45650868017
 31
0.0
  0
LINE
  5
2149D
330
18
100
AcDbEntity
  8
0
100
AcDbLine
 10
35.15000000000545
 20
-1005.45650868017
 30
0.0
 11
36.90000000000545
 21
-1011.987597593415
 31
0.0
  0
LINE
  5
2149E
330
18
100
AcDbEntity
  8
0
100
AcDbLine
 10
36.90000000000545
 20
-1011.987597593415
 30
0.0
 11
38.65000000000545
 21
-1005.45650868017
 31
0.0
  0
LINE
  5
2149F
330
18
100
AcDbEntity
  8
0
100
AcDbLine
 10
63.65000000000545
 20
-1005.45650868017
 30
0.0
 11
63.65000000000546
 21
-961.9875975934151
 31
0.0
  0
LINE
  5
214A0
330
18
100
AcDbEntity
  8
0
100
AcDbLine
 10
63.65000000000546
 20
-961.9875975934151
 30
0.0
 11
66.40000000000546
 21
-961.9875975934151
 31
0.0
  0
LINE
  5
214A1
330
18
100
AcDbEntity
  8
0
100
AcDbLine
 10
66.40000000000546
 20
-961.9875975934151
 30
0.0
 11
66.40000000000546
 21
-961.1875975934154
 31
0.0
  0
ARC
  5
214A2
330
18
100
AcDbEntity
  8
0
100
AcDbCircle
 10
63.90000000000546
 20
-961.1875975934151
 30
0.0
 40
2.5
100
AcDbArc
 50
0.000000000005211
 51
90.00000000000911
  0
LINE
  5
214A3
330
18
100
AcDbEntity
  8
0
100
AcDbLine
 10
63.90000000000546
 20
-958.6875975934151
 30
0.0
 11
59.90000000000546
 21
-958.687597593415
 31
0.0
  0
ARC
  5
214A4
330
18
100
AcDbEntity
  8
0
100
AcDbCircle
 10
59.90000000000546
 20
-961.187597593415
 30
0.0
 40
2.5
100
AcDbArc
 50
90.0
 51
180.0
  0
LINE
  5
214A5
330
18
100
AcDbEntity
  8
0
100
AcDbLine
 10
57.40000000000546
 20
-961.187597593415
 30
0.0
 11
57.40000000000546
 21
-961.9875975934151
 31
0.0
  0
LINE
  5
214A6
330
18
100
AcDbEntity
  8
0
100
AcDbLine
 10
57.40000000000546
 20
-961.9875975934151
 30
0.0
 11
60.15000000000546
 21
-961.9875975934151
 31
0.0
  0
LINE
  5
214A7
330
18
100
AcDbEntity
  8
0
100
AcDbLine
 10
60.15000000000546
 20
-961.9875975934151
 30
0.0
 11
60.15000000000545
 21
-1005.45650868017
 31
0.0
  0
LINE
  5
214A8
330
18
100
AcDbEntity
  8
0
100
AcDbLine
 10
60.15000000000545
 20
-1005.45650868017
 30
0.0
 11
61.90000000000545
 21
-1011.987597593415
 31
0.0
  0
LINE
  5
214A9
330
18
100
AcDbEntity
  8
0
100
AcDbLine
 10
61.90000000000545
 20
-1011.987597593415
 30
0.0
 11
63.65000000000545
 21
-1005.45650868017
 31
0.0
  0
LINE
  5
214AA
330
18
100
AcDbEntity
  8
0
  6
BYBLOCK
100
AcDbLine
 10
640.9000000000054
 20
-1023.559394353408
 30
0.0
 11
636.9000000000054
 21
-1022.487597593408
 31
0.0
  0
LINE
  5
214AB
330
18
100
AcDbEntity
  8
0
  6
BYBLOCK
100
AcDbLine
 10
636.9000000000054
 20
-1022.487597593408
 30
0.0
 11
640.9000000000054
 21
-1021.415800833408
 31
0.0
  0
LINE
  5
214AC
330
18
100
AcDbEntity
  8
0
  6
BYBLOCK
100
AcDbLine
 10
636.9000000000054
 20
-1022.487597593408
 30
0.0
 11
640.9000000000054
 21
-1022.487597593408
 31
0.0
  0
LINE
  5
214AD
330
18
100
AcDbEntity
  8
0
  6
BYBLOCK
100
AcDbLine
 10
657.9000000000054
 20
-1021.415800833408
 30
0.0
 11
661.9000000000054
 21
-1022.487597593408
 31
0.0
  0
LINE
  5
214AE
330
18
100
AcDbEntity
  8
0
  6
BYBLOCK
100
AcDbLine
 10
661.9000000000054
 20
-1022.487597593408
 30
0.0
 11
657.9000000000054
 21
-1023.559394353408
 31
0.0
  0
LINE
  5
214AF
330
18
100
AcDbEntity
  8
0
  6
BYBLOCK
100
AcDbLine
 10
661.9000000000054
 20
-1022.487597593408
 30
0.0
 11
657.9000000000054
 21
-1022.487597593408
 31
0.0
  0
TEXT
  5
214B0
330
18
100
AcDbEntity
  8
1DIM
  6
CONTINUOUS
100
AcDbText
 10
666.966666666672
 20
-1021.087597593408
 30
0.0
 40
7.0
  1
P25
100
AcDbText
1001
ACAD
1000
DSTYLE
1002
{
1070
    40
1040
2.0
1002
}
  0
LINE
  5
214B1
330
18
100
AcDbEntity
  8
0
100
AcDbLine
 10
663.6500000000054
 20
-1005.45650868017
 30
0.0
 11
663.6500000000054
 21
-961.9875975934151
 31
0.0
  0
LINE
  5
214B2
330
18
100
AcDbEntity
  8
0
100
AcDbLine
 10
663.6500000000054
 20
-961.9875975934151
 30
0.0
 11
666.4000000000054
 21
-961.9875975934151
 31
0.0
  0
LINE
  5
214B3
330
18
100
AcDbEntity
  8
0
100
AcDbLine
 10
666.4000000000054
 20
-961.9875975934151
 30
0.0
 11
666.4000000000054
 21
-961.1875975934154
 31
0.0
  0
ARC
  5
214B4
330
18
100
AcDbEntity
  8
0
100
AcDbCircle
 10
663.9000000000054
 20
-961.1875975934151
 30
0.0
 40
2.5
100
AcDbArc
 50
0.000000000005211
 51
90.00000000000783
  0
LINE
  5
214B5
330
18
100
AcDbEntity
  8
0
100
AcDbLine
 10
663.9000000000054
 20
-958.6875975934151
 30
0.0
 11
659.9000000000054
 21
-958.687597593415
 31
0.0
  0
ARC
  5
214B6
330
18
100
AcDbEntity
  8
0
100
AcDbCircle
 10
659.9000000000054
 20
-961.187597593415
 30
0.0
 40
2.5
100
AcDbArc
 50
90.0
 51
180.0
  0
LINE
  5
214B7
330
18
100
AcDbEntity
  8
0
100
AcDbLine
 10
657.4000000000054
 20
-961.187597593415
 30
0.0
 11
657.4000000000054
 21
-961.9875975934151
 31
0.0
  0
LINE
  5
214B8
330
18
100
AcDbEntity
  8
0
100
AcDbLine
 10
657.4000000000054
 20
-961.9875975934151
 30
0.0
 11
660.1500000000054
 21
-961.9875975934151
 31
0.0
  0
LINE
  5
214B9
330
18
100
AcDbEntity
  8
0
100
AcDbLine
 10
660.1500000000054
 20
-961.9875975934151
 30
0.0
 11
660.1500000000054
 21
-1005.45650868017
 31
0.0
  0
LINE
  5
214BA
330
18
100
AcDbEntity
  8
0
100
AcDbLine
 10
660.1500000000054
 20
-1005.45650868017
 30
0.0
 11
661.9000000000054
 21
-1011.987597593415
 31
0.0
  0
LINE
  5
214BB
330
18
100
AcDbEntity
  8
0
100
AcDbLine
 10
661.9000000000054
 20
-1011.987597593415
 30
0.0
 11
663.6500000000054
 21
-1005.45650868017
 31
0.0
  0
LINE
  5
214BC
330
18
100
AcDbEntity
  8
0
100
AcDbLine
 10
638.6500000000054
 20
-1005.45650868017
 30
0.0
 11
638.6500000000054
 21
-961.9875975934151
 31
0.0
  0
LINE
  5
214BD
330
18
100
AcDbEntity
  8
0
100
AcDbLine
 10
638.6500000000054
 20
-961.9875975934151
 30
0.0
 11
641.4000000000054
 21
-961.9875975934151
 31
0.0
  0
LINE
  5
214BE
330
18
100
AcDbEntity
  8
0
100
AcDbLine
 10
641.4000000000054
 20
-961.9875975934151
 30
0.0
 11
641.4000000000054
 21
-961.1875975934154
 31
0.0
  0
ARC
  5
214BF
330
18
100
AcDbEntity
  8
0
100
AcDbCircle
 10
638.9000000000054
 20
-961.1875975934151
 30
0.0
 40
2.5
100
AcDbArc
 50
0.000000000005211
 51
90.00000000000783
  0
LINE
  5
214C0
330
18
100
AcDbEntity
  8
0
100
AcDbLine
 10
638.9000000000054
 20
-958.6875975934151
 30
0.0
 11
634.9000000000054
 21
-958.687597593415
 31
0.0
  0
ARC
  5
214C1
330
18
100
AcDbEntity
  8
0
100
AcDbCircle
 10
634.9000000000054
 20
-961.187597593415
 30
0.0
 40
2.5
100
AcDbArc
 50
90.0
 51
180.0
  0
LINE
  5
214C2
330
18
100
AcDbEntity
  8
0
100
AcDbLine
 10
632.4000000000054
 20
-961.187597593415
 30
0.0
 11
632.4000000000054
 21
-961.9875975934151
 31
0.0
  0
LINE
  5
214C3
330
18
100
AcDbEntity
  8
0
100
AcDbLine
 10
632.4000000000054
 20
-961.9875975934151
 30
0.0
 11
635.1500000000054
 21
-961.9875975934151
 31
0.0
  0
LINE
  5
214C4
330
18
100
AcDbEntity
  8
0
100
AcDbLine
 10
635.1500000000054
 20
-961.9875975934151
 30
0.0
 11
635.1500000000054
 21
-1005.45650868017
 31
0.0
  0
LINE
  5
214C5
330
18
100
AcDbEntity
  8
0
100
AcDbLine
 10
635.1500000000054
 20
-1005.45650868017
 30
0.0
 11
636.9000000000054
 21
-1011.987597593415
 31
0.0
  0
LINE
  5
214C6
330
18
100
AcDbEntity
  8
0
100
AcDbLine
 10
636.9000000000054
 20
-1011.987597593415
 30
0.0
 11
638.6500000000054
 21
-1005.45650868017
 31
0.0
  0
LINE
  5
214C7
330
18
100
AcDbEntity
  8
0
  6
BYBLOCK
100
AcDbLine
 10
320.3351224233051
 20
-846.4875975934038
 30
0.0
 11
319.2633256633051
 21
-850.4875975934038
 31
0.0
  0
LINE
  5
214C8
330
18
100
AcDbEntity
  8
0
  6
BYBLOCK
100
AcDbLine
 10
319.2633256633051
 20
-850.4875975934038
 30
0.0
 11
318.1915289033051
 21
-846.4875975934038
 31
0.0
  0
LINE
  5
214C9
330
18
100
AcDbEntity
  8
0
  6
BYBLOCK
100
AcDbLine
 10
319.2633256633051
 20
-850.4875975934038
 30
0.0
 11
319.2633256633051
 21
-846.4875975934038
 31
0.0
  0
LINE
  5
214CA
330
18
100
AcDbEntity
  8
0
  6
BYBLOCK
100
AcDbLine
 10
318.1915289033051
 20
-829.4875975934053
 30
0.0
 11
319.2633256633051
 21
-825.4875975934053
 31
0.0
  0
LINE
  5
214CB
330
18
100
AcDbEntity
  8
0
  6
BYBLOCK
100
AcDbLine
 10
319.2633256633051
 20
-825.4875975934053
 30
0.0
 11
320.3351224233051
 21
-829.4875975934053
 31
0.0
  0
LINE
  5
214CC
330
18
100
AcDbEntity
  8
0
  6
BYBLOCK
100
AcDbLine
 10
319.2633256633051
 20
-825.4875975934053
 30
0.0
 11
319.2633256633051
 21
-829.4875975934053
 31
0.0
  0
TEXT
  5
214CD
330
18
100
AcDbEntity
  8
1DIM
  6
CONTINUOUS
100
AcDbText
 10
317.863325663305
 20
-876.5209309267374
 30
0.0
 40
7.0
  1
φ25
 50
90.0
100
AcDbText
1001
ACAD
1000
DSTYLE
1002
{
1070
     3
1000
φ<>
1070
    40
1040
2.0
1002
}
  0
LINE
  5
214CE
330
18
100
AcDbEntity
  8
0
100
AcDbLine
 10
745.4438056612315
 20
-1005.364800811038
 30
0.0
 11
745.4438056612315
 21
-961.895889724283
 31
0.0
  0
LINE
  5
214CF
330
18
100
AcDbEntity
  8
0
100
AcDbLine
 10
745.4438056612315
 20
-961.895889724283
 30
0.0
 11
748.1938056612315
 21
-961.895889724283
 31
0.0
  0
LINE
  5
214D0
330
18
100
AcDbEntity
  8
0
100
AcDbLine
 10
748.1938056612315
 20
-961.895889724283
 30
0.0
 11
748.1938056612315
 21
-961.0958897242833
 31
0.0
  0
ARC
  5
214D1
330
18
100
AcDbEntity
  8
0
100
AcDbCircle
 10
745.6938056612315
 20
-961.0958897242831
 30
0.0
 40
2.5
100
AcDbArc
 50
0.000000000005211
 51
90.00000000000783
  0
LINE
  5
214D2
330
18
100
AcDbEntity
  8
0
100
AcDbLine
 10
745.6938056612315
 20
-958.5958897242831
 30
0.0
 11
741.6938056612315
 21
-958.595889724283
 31
0.0
  0
ARC
  5
214D3
330
18
100
AcDbEntity
  8
0
100
AcDbCircle
 10
741.6938056612315
 20
-961.095889724283
 30
0.0
 40
2.5
100
AcDbArc
 50
90.0
 51
180.0
  0
LINE
  5
214D4
330
18
100
AcDbEntity
  8
0
100
AcDbLine
 10
739.1938056612315
 20
-961.095889724283
 30
0.0
 11
739.1938056612315
 21
-961.895889724283
 31
0.0
  0
LINE
  5
214D5
330
18
100
AcDbEntity
  8
0
100
AcDbLine
 10
739.1938056612315
 20
-961.895889724283
 30
0.0
 11
741.9438056612315
 21
-961.895889724283
 31
0.0
  0
LINE
  5
214D6
330
18
100
AcDbEntity
  8
0
100
AcDbLine
 10
741.9438056612315
 20
-961.895889724283
 30
0.0
 11
741.9438056612315
 21
-1005.364800811038
 31
0.0
  0
LINE
  5
214D7
330
18
100
AcDbEntity
  8
0
100
AcDbLine
 10
741.9438056612315
 20
-1005.364800811038
 30
0.0
 11
743.6938056612315
 21
-1011.895889724283
 31
0.0
  0
LINE
  5
214D8
330
18
100
AcDbEntity
  8
0
100
AcDbLine
 10
743.6938056612315
 20
-1011.895889724283
 30
0.0
 11
745.4438056612315
 21
-1005.364800811038
 31
0.0
  0
LINE
  5
214D9
330
18
100
AcDbEntity
  8
0
100
AcDbLine
 10
756.1937777395549
 20
-965.9876653613795
 30
0.0
 11
756.1938335826325
 21
-957.9876653615527
 31
0.0
  0
LINE
  5
214DA
330
18
100
AcDbEntity
  8
0
100
AcDbLine
 10
756.1938335826325
 20
-957.9876653615527
 30
0.0
 11
755.8938335826446
 21
-957.9876625693988
 31
0.0
  0
LINE
  5
214DB
330
18
100
AcDbEntity
  8
0
100
AcDbLine
 10
755.8938335826446
 20
-957.9876625693988
 30
0.0
 11
753.8938289290928
 21
-959.9876439550831
 31
0.0
  0
LINE
  5
214DC
330
18
100
AcDbEntity
  8
0
100
AcDbLine
 10
753.8938289290928
 20
-959.9876439550831
 30
0.0
 11
746.5438196227731
 21
-959.987435351534
 31
0.0
  0
LINE
  5
214DD
330
18
100
AcDbEntity
  8
0
100
AcDbLine
 10
746.5438196227731
 20
-959.987435351534
 30
0.0
 11
746.1938171796487
 21
-960.3374326820112
 31
0.0
  0
LINE
  5
214DE
330
18
100
AcDbEntity
  8
0
100
AcDbLine
 10
746.1938171796487
 20
-960.3374326820112
 30
0.0
 11
746.1937941443792
 21
-963.6374326819416
 31
0.0
  0
LINE
  5
214DF
330
18
100
AcDbEntity
  8
0
100
AcDbLine
 10
746.1937941443792
 20
-963.6374326819416
 30
0.0
 11
746.5437917012343
 21
-963.9874353514468
 31
0.0
  0
LINE
  5
214E0
330
18
100
AcDbEntity
  8
0
100
AcDbLine
 10
746.5437917012343
 20
-963.9874353514468
 30
0.0
 11
753.8937730859286
 21
-963.9876439547365
 31
0.0
  0
LINE
  5
214E1
330
18
100
AcDbEntity
  8
0
100
AcDbLine
 10
753.8937730859286
 20
-963.9876439547365
 30
0.0
 11
755.8937777395671
 21
-965.9876625692257
 31
0.0
  0
LINE
  5
214E2
330
18
100
AcDbEntity
  8
0
100
AcDbLine
 10
755.8937777395671
 20
-965.9876625692257
 30
0.0
 11
756.1937777395549
 21
-965.9876653613795
 31
0.0
  0
LINE
  5
214E3
330
18
100
AcDbEntity
  8
0
100
AcDbLine
 10
731.1937777398305
 20
-957.9876653615527
 30
0.0
 11
731.1938335829082
 21
-965.9876653613795
 31
0.0
  0
LINE
  5
214E4
330
18
100
AcDbEntity
  8
0
100
AcDbLine
 10
731.1938335829082
 20
-965.9876653613795
 30
0.0
 11
731.4938335828958
 21
-965.9876625692257
 31
0.0
  0
LINE
  5
214E5
330
18
100
AcDbEntity
  8
0
100
AcDbLine
 10
731.4938335828958
 20
-965.9876625692257
 30
0.0
 11
733.4938382365344
 21
-963.9876439547365
 31
0.0
  0
LINE
  5
214E6
330
18
100
AcDbEntity
  8
0
100
AcDbLine
 10
733.4938382365344
 20
-963.9876439547365
 30
0.0
 11
740.8438196212287
 21
-963.9874353514468
 31
0.0
  0
LINE
  5
214E7
330
18
100
AcDbEntity
  8
0
100
AcDbLine
 10
740.8438196212287
 20
-963.9874353514468
 30
0.0
 11
741.1938171780838
 21
-963.6374326819416
 31
0.0
  0
LINE
  5
214E8
330
18
100
AcDbEntity
  8
0
100
AcDbLine
 10
741.1938171780838
 20
-963.6374326819416
 30
0.0
 11
741.1937941428143
 21
-960.3374326820112
 31
0.0
  0
LINE
  5
214E9
330
18
100
AcDbEntity
  8
0
100
AcDbLine
 10
741.1937941428143
 20
-960.3374326820112
 30
0.0
 11
740.84379169969
 21
-959.987435351534
 31
0.0
  0
LINE
  5
214EA
330
18
100
AcDbEntity
  8
0
100
AcDbLine
 10
740.84379169969
 20
-959.987435351534
 30
0.0
 11
733.4937823933702
 21
-959.9876439550831
 31
0.0
  0
LINE
  5
214EB
330
18
100
AcDbEntity
  8
0
100
AcDbLine
 10
733.4937823933702
 20
-959.9876439550831
 30
0.0
 11
731.4937777398184
 21
-957.9876625693988
 31
0.0
  0
LINE
  5
214EC
330
18
100
AcDbEntity
  8
0
100
AcDbLine
 10
731.4937777398184
 20
-957.9876625693988
 30
0.0
 11
731.1937777398305
 21
-957.9876653615527
 31
0.0
  0
LINE
  5
214ED
330
18
100
AcDbEntity
  8
0
  6
BYBLOCK
100
AcDbLine
 10
65.90000000000546
 20
-1023.559394353408
 30
0.0
 11
61.90000000000546
 21
-1022.487597593408
 31
0.0
  0
LINE
  5
214EE
330
18
100
AcDbEntity
  8
0
  6
BYBLOCK
100
AcDbLine
 10
61.90000000000546
 20
-1022.487597593408
 30
0.0
 11
65.90000000000546
 21
-1021.415800833408
 31
0.0
  0
LINE
  5
214EF
330
18
100
AcDbEntity
  8
0
  6
BYBLOCK
100
AcDbLine
 10
61.90000000000546
 20
-1022.487597593408
 30
0.0
 11
65.90000000000546
 21
-1022.487597593408
 31
0.0
  0
LINE
  5
214F0
330
18
100
AcDbEntity
  8
0
  6
BYBLOCK
100
AcDbLine
 10
632.9000000000054
 20
-1021.415800833408
 30
0.0
 11
636.9000000000054
 21
-1022.487597593408
 31
0.0
  0
LINE
  5
214F1
330
18
100
AcDbEntity
  8
0
  6
BYBLOCK
100
AcDbLine
 10
636.9000000000054
 20
-1022.487597593408
 30
0.0
 11
632.9000000000054
 21
-1023.559394353408
 31
0.0
  0
LINE
  5
214F2
330
18
100
AcDbEntity
  8
0
  6
BYBLOCK
100
AcDbLine
 10
636.9000000000054
 20
-1022.487597593408
 30
0.0
 11
632.9000000000054
 21
-1022.487597593408
 31
0.0
  0
TEXT
  5
214F3
330
18
100
AcDbEntity
  8
1DIM
  6
CONTINUOUS
100
AcDbText
 10
340.0423611111165
 20
-1021.087597593408
 30
0.0
 40
7.0
  1
575
100
AcDbText
1001
ACAD
1000
DSTYLE
1002
{
1070
    40
1040
2.0
1002
}
  0
VIEWPORT
  5
57
330
15
100
AcDbEntity
 67
     1
  8
0
100
AcDbViewport
 68
     1
 10
0.0
 20
0.0
 30
0.0
 40
555.8298653610772
 41
297.0
 68
     1
 69
     1
1001
ACAD
1000
MVIEW
1002
{
1070
    16
1010
0.0
1020
0.0
1030
0.0
1010
0.0
1020
0.0
1030
1.0
1040
0.0
1040
297.0
1040
-4.171999999925333
1040
12.83903210976956
1040
50.0
1040
0.0
1040
0.0
1070
    16
1070
   100
1070
     0
1070
     1
1070
     0
1070
     0
1070
     0
1070
     0
1040
0.0
1040
0.0
1040
0.0
1040
10.0
1040
10.0
1040
10.0
1040
10.0
1070
     0
1002
{
1002
}
1002
}
  0
ENDSEC
  0
SECTION
  2
OBJECTS
  0
DICTIONARY
  5
C
330
0
100
AcDbDictionary
  3
ACAD_COLOR
350
2D0
  3
ACAD_GROUP
350
D
  3
ACAD_LAYOUT
350
2D1
  3
ACAD_MATERIAL
350
2CF
  3
ACAD_MLEADERSTYLE
350
19E18
  3
ACAD_MLINESTYLE
350
1B
  3
ACAD_PLOTSETTINGS
350
2D2
  3
ACAD_SCALELIST
350
19DF6
  3
ACAD_VISUALSTYLE
350
19DE5
  3
ACDBHEADERROUNDTRIPXREC
350
214F4
  3
ACDBVARIABLEDICTIONARY
350
37
  3
CONTENTDICTIONARY
350
D8
  3
DRAWINGVARIABLESDICT
350
20
  3
DWGPROPS
350
214F7
1001
ACAD
1000
TREAT_AS_HARD
1070
     0
  0
DICTIONARY
  5
18FE8
330
2
100
AcDbDictionary
  3
ACAD_LAYERSTATES
360
18FE9
1001
ACAD
1000
TREAT_AS_HARD
1070
     1
  0
DICTIONARY
  5
1A20A
330
E
100
AcDbDictionary
  3
ADSK_XREC_LAYER_RECONCILED
360
1A20B
1001
ACAD
1000
TREAT_AS_HARD
1070
     1
  0
DICTIONARY
  5
1A20C
330
29
100
AcDbDictionary
  3
ADSK_XREC_LAYER_RECONCILED
360
1A20D
1001
ACAD
1000
TREAT_AS_HARD
1070
     1
  0
DICTIONARY
  5
1A20E
330
31
100
AcDbDictionary
  3
ADSK_XREC_LAYER_RECONCILED
360
1A20F
1001
ACAD
1000
TREAT_AS_HARD
1070
     1
  0
DICTIONARY
  5
1A218
330
101
100
AcDbDictionary
  3
ADSK_XREC_LAYER_RECONCILED
360
1A219
1001
ACAD
1000
TREAT_AS_HARD
1070
     1
  0
DICTIONARY
  5
1A21C
330
103
100
AcDbDictionary
  3
ADSK_XREC_LAYER_RECONCILED
360
1A21D
1001
ACAD
1000
TREAT_AS_HARD
1070
     1
  0
DICTIONARY
  5
1A220
330
25F
100
AcDbDictionary
  3
ADSK_XREC_LAYER_RECONCILED
360
1A221
1001
ACAD
1000
TREAT_AS_HARD
1070
     1
  0
DICTIONARY
  5
1A23C
330
26D
100
AcDbDictionary
  3
ADSK_XREC_LAYER_RECONCILED
360
1A23D
1001
ACAD
1000
TREAT_AS_HARD
1070
     1
  0
DICTIONARY
  5
6E9
330
18
100
AcDbDictionary
  3
ACAD_SORTENTS
360
6EA
1001
ACAD
1000
TREAT_AS_HARD
1070
     1
  0
DICTIONARY
  5
59B
330
15
100
AcDbDictionary
  3
ACAD_SORTENTS
360
59C
1001
ACAD
1000
TREAT_AS_HARD
1070
     1
  0
DICTIONARY
  5
2D0
102
{ACAD_REACTORS
330
C
102
}
330
C
100
AcDbDictionary
1001
ACAD
1000
TREAT_AS_HARD
1070
     0
  0
DICTIONARY
  5
D
102
{ACAD_REACTORS
330
C
102
}
330
C
100
AcDbDictionary
1001
ACAD
1000
TREAT_AS_HARD
1070
     0
  0
DICTIONARY
  5
2D1
102
{ACAD_REACTORS
330
C
102
}
330
C
100
AcDbDictionary
1001
ACAD
1000
TREAT_AS_HARD
1070
     0
  0
DICTIONARY
  5
2CF
102
{ACAD_REACTORS
330
C
102
}
330
C
100
AcDbDictionary
  3
BYBLOCK
350
19DD5
  3
BYLAYER
350
19DCD
  3
GLOBAL
350
19DDD
1001
ACAD
1000
TREAT_AS_HARD
1070
     0
  0
DICTIONARY
  5
19E18
102
{ACAD_REACTORS
330
C
102
}
330
C
100
AcDbDictionary
  3
STANDARD
350
19E19
1001
ACAD
1000
TREAT_AS_HARD
1070
     0
  0
DICTIONARY
  5
1B
102
{ACAD_REACTORS
330
C
102
}
330
C
100
AcDbDictionary
  3
STANDARD
350
1C
1001
ACAD
1000
TREAT_AS_HARD
1070
     0
  0
DICTIONARY
  5
2D2
102
{ACAD_REACTORS
330
C
102
}
330
C
100
AcDbDictionary
1001
ACAD
1000
TREAT_AS_HARD
1070
     0
  0
DICTIONARY
  5
19DF6
102
{ACAD_REACTORS
330
C
102
}
330
C
100
AcDbDictionary
  3
A0
350
19DF7
  3
A1
350
19DF8
  3
A2
350
19DF9
  3
A3
350
19DFA
  3
A4
350
19DFB
  3
A5
350
19DFC
  3
A6
350
19DFD
  3
A7
350
19DFE
  3
A8
350
19DFF
  3
A9
350
19E00
  3
B0
350
19E01
  3
B1
350
19E02
  3
B2
350
19E03
  3
B3
350
19E04
  3
B4
350
19E05
  3
B5
350
19E06
  3
B6
350
19E07
  3
B7
350
19E08
  3
B8
350
19E09
  3
B9
350
19E0A
  3
C0
350
19E0B
  3
C1
350
19E0C
  3
C2
350
19E0D
  3
C3
350
19E0E
  3
C4
350
19E0F
  3
C5
350
19E10
  3
C6
350
19E11
  3
C7
350
19E12
  3
C8
350
19E13
  3
C9
350
19E14
  3
D0
350
19E15
  3
D1
350
19E16
  3
D2
350
19E17
1001
ACAD
1000
TREAT_AS_HARD
1070
     0
  0
DICTIONARY
  5
19DE5
102
{ACAD_REACTORS
330
C
102
}
330
C
100
AcDbDictionary
  3
2DWIREFRAME
350
19DEB
  3
3D_HIDDEN
350
19DED
  3
3DWIREFRAME
350
19DEC
  3
BASIC
350
19DEA
  3
BRIGHTEN
350
19DF1
  3
COLORCHANGE
350
19DF5
  3
CONCEPTUAL
350
19DEE
  3
DIM
350
19DF0
  3
EDGECOLOROFF
350
1E02A
  3
FACEPATTERN
350
19DF4
  3
FLAT
350
19DE6
  3
FLATWITHEDGES
350
19DE7
  3
GOURAUD
350
19DE8
  3
GOURAUDWITHEDGES
350
19DE9
  3
HIDDEN
350
1F381
  3
JITTEROFF
350
1E028
  3
LINEPATTERN
350
19DF3
  3
MODELING
350
1F387
  3
OVERHANGOFF
350
1E029
  3
REALISTIC
350
19DEF
  3
SHADED
350
1F386
  3
SHADED_WITH_EDGES
350
1F385
  3
SHADES_OF_GRAY
350
1F382
  3
SKETCHY
350
1F383
  3
THICKEN
350
19DF2
  3
WIREFRAME
350
1F380
  3
X-RAY
350
1F384
1001
ACAD
1000
TREAT_AS_HARD
1070
     0
  0
DICTIONARY
  5
214F4
102
{ACAD_REACTORS
330
C
102
}
330
C
100
AcDbDictionary
  3
COLORDICT
350
214F5
  3
MATERIALDICT
350
214F6
1001
ACAD
1000
TREAT_AS_HARD
1070
     0
  0
DICTIONARY
  5
37
102
{ACAD_REACTORS
330
C
102
}
330
C
100
AcDbDictionary
  3
CANNOSCALE
350
20A45
  3
CMLEADERSTYLE
350
1AC19
  3
CTABLESTYLE
350
4F1
  3
DIMADEC
350
38
  3
DIMASSOC
350
408
  3
HIDETEXT
350
1891
  3
INDEXCTL
350
1AC1C
  3
INTERSECTIONCOLOR
350
1895
  3
INTERSECTIONDISPLAY
350
1894
  3
MSLTSCALE
350
20A9B
  3
OBSCOLOR
350
1892
  3
OBSLTYPE
350
1893
  3
PROJECTNAME
350
409
  3
SORTENTS
350
1AC1B
  3
XCLIPFRAME
350
1F37F
1001
ACAD
1000
TREAT_AS_HARD
1070
     0
  0
DICTIONARY
  5
D8
102
{ACAD_REACTORS
330
C
102
}
330
C
100
AcDbDictionary
1001
CONTENTTABDATA
1070
    11
1000
Child
1000
D:\ACLT\TABset\CHILDREN.dwg
1070
     0
1070
     0
1070
     1
1000
PK
1000
D:\ACLT\TABset\PK.dwg
1070
     0
1070
     0
1070
     1
1000
Lev1
1000
D:\ACLT\TABset\Lever01.dwg
1070
     0
1070
     0
1070
     1
1000
Lev2
1000
D:\ACLT\TABset\Lever02.dwg
1070
     0
1070
     0
1070
     1
1000
L3
1000
D:\Aclt\TABset\Lever03.dwg
1070
     0
1070
     0
1070
     1
1000
Form
1000
D:\ACLT\FORMAT
1070
     1
1070
     0
1070
     1
1000
Jnt
1000
D:\ACLT\TABset\JOINTPARTS.dwg
1070
     0
1070
     0
1070
     1
1000
ISO
1000
D:\ACLT\TABset\Isome01.dwg
1070
     0
1070
     0
1070
     1
1000
R
1000
D:\ACLT\TABset\REGION.dwg
1070
     0
1070
     0
1070
     1
1000
std
1000
D:\ACLT\TABset\std_sym_all.dwg
1070
     0
1070
     0
1070
     1
1000
丸
1000
D:\Aclt\TABset\MARU.dwg
1070
     0
1070
     0
1070
     1
1001
CONTENTCURRENTTAB
1070
     0
1001
ACAD
1000
TREAT_AS_HARD
1070
     0
  0
DICTIONARY
  5
20
102
{ACAD_REACTORS
330
C
102
}
330
C
100
AcDbDictionary
1001
DRAWINGVARIABLESXDATA
1000
POLARANG
1000
0.261799387799149410000000
1000
POLARMODE
1000
1
1000
POLARSTYLE
1000
1
1001
ACAD
1000
TREAT_AS_HARD
1070
     0
  0
XRECORD
  5
214F7
102
{ACAD_REACTORS
330
C
102
}
330
C
100
AcDbXrecord
  1
DWGPROPS COOKIE
  2

  3

  4

  6

  7

  8
3684
  9

300
=
301
=
302
=
303
=
304
=
305
=
306
=
307
=
308
=
309
=
 40
0.0
 41
2453033.357663484
 42
2458100.987139768
  1

 90
        0
  0
DICTIONARY
  5
18FE9
102
{ACAD_REACTORS
330
18FE8
102
}
330
18FE8
100
AcDbDictionary
1001
ACAD
1000
TREAT_AS_HARD
1070
     0
  0
ACAD_PROXY_OBJECT
  5
1A20B
102
{ACAD_REACTORS
330
1A20A
102
}
330
1A20A
100
AcDbZombieObject
 90
      499
 91
      517
 93
       34
310
40C8804040
  0
ACAD_PROXY_OBJECT
  5
1A20D
102
{ACAD_REACTORS
330
1A20C
102
}
330
1A20C
100
AcDbZombieObject
 90
      499
 91
      517
 93
       34
310
40C8804040
  0
ACAD_PROXY_OBJECT
  5
1A20F
102
{ACAD_REACTORS
330
1A20E
102
}
330
1A20E
100
AcDbZombieObject
 90
      499
 91
      517
 93
       34
310
40C8804040
  0
ACAD_PROXY_OBJECT
  5
1A219
102
{ACAD_REACTORS
330
1A218
102
}
330
1A218
100
AcDbZombieObject
 90
      499
 91
      517
 93
       34
310
40C8804040
  0
ACAD_PROXY_OBJECT
  5
1A21D
102
{ACAD_REACTORS
330
1A21C
102
}
330
1A21C
100
AcDbZombieObject
 90
      499
 91
      517
 93
       34
310
40C8804040
  0
ACAD_PROXY_OBJECT
  5
1A221
102
{ACAD_REACTORS
330
1A220
102
}
330
1A220
100
AcDbZombieObject
 90
      499
 91
      517
 93
       34
310
40C8804040
  0
ACAD_PROXY_OBJECT
  5
1A23D
102
{ACAD_REACTORS
330
1A23C
102
}
330
1A23C
100
AcDbZombieObject
 90
      499
 91
      517
 93
       34
310
40C8804040
  0
SORTENTSTABLE
  5
6EA
102
{ACAD_REACTORS
330
6E9
102
}
330
6E9
100
AcDbSortentsTable
330
18
331
0
  5
99AB
331
0
  5
AB53
331
0
  5
AB54
331
0
  5
ECB5
331
20CFC
  5
20D21
331
20CFD
  5
20D22
331
20CFF
  5
20D31
331
20D00
  5
20D32
331
20D02
  5
20D3E
331
20D03
  5
20D3F
331
20D05
  5
20D4C
331
20D06
  5
20D4D
331
20D07
  5
20D4E
331
20D08
  5
20D4F
331
20D09
  5
20D50
331
20D0A
  5
20D51
331
20D0B
  5
20D52
331
20D0C
  5
20D53
331
20D0D
  5
20D54
331
20D0E
  5
20D55
331
20D0F
  5
20D57
331
20D10
  5
20D58
331
20D11
  5
20D59
331
20D12
  5
20D5A
331
20D13
  5
20D5B
331
20D14
  5
20D5C
331
20D15
  5
20D5D
331
20D17
  5
20E1F
331
20D18
  5
2126B
331
20D19
  5
2126C
331
20D1A
  5
2126D
331
20D1C
  5
212CD
331
20D1D
  5
212CE
331
20D1E
  5
212CF
331
20D1F
  5
212D0
331
20D20
  5
212D1
331
20D21
  5
212D2
331
20D22
  5
212D4
331
20D23
  5
212D5
331
20D24
  5
212D6
331
20D25
  5
212D7
331
20D26
  5
212D8
331
20D27
  5
212D9
331
20D28
  5
212DA
331
20D29
  5
212DB
331
20D2A
  5
212DC
331
20D2B
  5
212DD
331
20D2C
  5
212DE
331
20D2D
  5
212DF
331
20D2E
  5
212E0
331
20D2F
  5
212E1
331
20D30
  5
212E2
331
20D31
  5
212E3
331
20D32
  5
212E4
331
20D33
  5
212E5
331
20D34
  5
212E6
331
20D35
  5
212E7
331
20D36
  5
212E8
331
20D37
  5
212E9
331
20D38
  5
212EA
331
20D39
  5
212EB
331
20D3A
  5
212EC
331
20D3B
  5
212ED
331
20D3C
  5
212EE
331
20D3D
  5
212EF
331
20D3E
  5
212F0
331
20D3F
  5
212F1
331
20D40
  5
212F2
331
20D41
  5
212F3
331
20D42
  5
212F4
331
20D44
  5
21300
331
20D45
  5
21301
331
20D46
  5
21302
331
20D47
  5
21303
331
20D48
  5
21304
331
20D49
  5
21305
331
20D4A
  5
21306
331
20D4B
  5
21307
331
20D4C
  5
21308
331
20D4D
  5
21309
331
20D4E
  5
2130A
331
20D4F
  5
2130B
331
20D50
  5
2130C
331
20D51
  5
2130D
331
20D52
  5
2130E
331
20D53
  5
2130F
331
20D54
  5
21310
331
20D55
  5
21311
331
20D57
  5
2136B
331
20D58
  5
2136C
331
20D59
  5
2136D
331
20D5A
  5
2136E
331
20D5B
  5
2136F
331
20D5C
  5
21370
331
20D5D
  5
21371
331
20D5E
  5
21372
331
20D5F
  5
21373
331
20D60
  5
21374
331
20D61
  5
21375
331
20D62
  5
21376
331
20D63
  5
21377
331
20D64
  5
21378
331
20D65
  5
21379
331
20D66
  5
2137A
331
20D67
  5
2137B
331
20D68
  5
2137C
331
20D69
  5
2137D
331
20D6A
  5
2137E
331
20D6B
  5
2137F
331
20D6C
  5
21380
331
20D6D
  5
21381
331
20D6E
  5
21382
331
20D70
  5
213DB
331
20D71
  5
213DC
331
20D72
  5
213DD
331
20D73
  5
213DE
331
20D74
  5
213DF
331
20D75
  5
213E0
331
20D76
  5
213E1
331
20D77
  5
213E2
331
20D78
  5
213E3
331
20D79
  5
213E4
331
20D7A
  5
213E5
331
20D7B
  5
213E6
331
20D7C
  5
213E7
331
20D7D
  5
213E8
331
20D7E
  5
213EC
331
20D7F
  5
213ED
331
20D81
  5
213FB
331
20D82
  5
213FC
331
20D83
  5
213FE
331
20D85
  5
2140C
331
20D86
  5
2140D
331
20D87
  5
2140E
331
20D88
  5
2140F
331
20D89
  5
21410
331
20D8A
  5
21411
331
20D8B
  5
21412
331
20D8C
  5
21413
331
20D8D
  5
21414
331
20D8E
  5
21415
331
20D8F
  5
21416
331
20D90
  5
21417
331
20D91
  5
21418
331
20D92
  5
21419
331
20D93
  5
2141A
331
20D94
  5
2141B
331
20D95
  5
2141C
331
20D96
  5
2141D
331
20D97
  5
2141E
331
20D98
  5
2141F
331
20D99
  5
21420
331
20D9A
  5
21421
331
20D9B
  5
21422
331
20D9C
  5
21423
331
20D9D
  5
21424
331
20D9E
  5
21425
331
20D9F
  5
21426
331
0
  5
20DBC
331
0
  5
20DBD
331
0
  5
20DBE
331
0
  5
20DBF
331
0
  5
20DC0
331
0
  5
20DC1
331
0
  5
20DC2
331
0
  5
20DC3
331
0
  5
20DC4
331
0
  5
20DC5
331
0
  5
20DC6
331
20DAB
  5
2144A
331
20DAC
  5
2144B
331
20DAD
  5
2144C
331
20DAE
  5
2144D
331
20DAF
  5
2144E
331
20DB0
  5
2144F
331
20DB1
  5
21450
331
20DB2
  5
21451
331
20DB3
  5
21453
331
20DB4
  5
21454
331
20DB5
  5
21455
331
20DB6
  5
21456
331
20DB7
  5
21457
331
20DB8
  5
21458
331
20DB9
  5
21459
331
0
  5
21279
331
20DBB
  5
214BE
331
20DBC
  5
214BF
331
20DBD
  5
214C0
331
20DBE
  5
214C1
331
20DBF
  5
214C2
331
20DC0
  5
214C3
331
20DC1
  5
214C4
331
20DC2
  5
214C5
331
20DC3
  5
214C6
331
0
  5
21283
331
0
  5
21284
331
20DC6
  5
214E9
331
0
  5
21286
331
0
  5
20D81
331
2126C
  5
213EF
331
2126D
  5
213F0
331
2126E
  5
213F1
331
2126F
  5
213F2
331
21270
  5
213F3
331
21271
  5
213F4
331
21272
  5
213F5
331
21273
  5
213F6
331
21274
  5
213F7
331
21275
  5
213F8
331
21276
  5
213F9
331
21277
  5
213FA
331
0
  5
20D92
331
21279
  5
21400
331
2127A
  5
21401
331
2127B
  5
21402
331
2127C
  5
21403
331
2127D
  5
21404
331
2127E
  5
21405
331
2127F
  5
21406
331
21280
  5
21407
331
21281
  5
21408
331
21282
  5
21409
331
21283
  5
2140A
331
21284
  5
2140B
331
21285
  5
213EE
331
21286
  5
213FF
331
21287
  5
20CFC
331
21288
  5
20CFD
331
21289
  5
20CFF
331
0
  5
20D00
331
0
  5
20D02
331
0
  5
20D03
331
2128D
  5
20D0F
331
2128E
  5
20D10
331
2128F
  5
20D14
331
0
  5
20D08
331
0
  5
20D09
331
0
  5
20D0A
331
21293
  5
20D23
331
21294
  5
20D27
331
21295
  5
20D28
331
21296
  5
20D29
331
0
  5
20D11
331
0
  5
20D12
331
0
  5
20D13
331
2129A
  5
20D33
331
2129B
  5
20D34
331
2129C
  5
20D35
331
0
  5
20D1A
331
0
  5
20D1C
331
0
  5
20D1D
331
212A0
  5
20D40
331
212A1
  5
20D41
331
212A2
  5
20D42
331
212A3
  5
20D44
331
0
  5
20D24
331
0
  5
20D25
331
0
  5
20D26
331
212A7
  5
20D5E
331
212A8
  5
20D5F
331
0
  5
20D3A
331
212AA
  5
20D6B
331
212AB
  5
20D6C
331
212AC
  5
20D6D
331
212AD
  5
20D6E
331
212AE
  5
20D70
331
212AF
  5
20D71
331
212B0
  5
20D72
331
212B1
  5
20D73
331
212B2
  5
20D74
331
212B3
  5
20D75
331
212B4
  5
20D76
331
212B5
  5
20D77
331
212B6
  5
20D78
331
212B7
  5
20D79
331
212B8
  5
20D7A
331
212B9
  5
20D7B
331
212BA
  5
20D7C
331
212BB
  5
20D7D
331
212BC
  5
20D7E
331
212BD
  5
20D7F
331
212BE
  5
20D82
331
212BF
  5
20D83
331
212C0
  5
20D85
331
212C1
  5
20D86
331
212C2
  5
20D87
331
212C3
  5
20D88
331
212C4
  5
20D89
331
212C5
  5
20D8A
331
212C6
  5
20D8B
331
212C7
  5
20D8C
331
212C8
  5
20D8D
331
212C9
  5
20D8E
331
212CA
  5
20D8F
331
212CB
  5
20D90
331
212CC
  5
20D91
331
212CD
  5
20D94
331
212CE
  5
20D95
331
212CF
  5
20D96
331
212D0
  5
20D97
331
212D1
  5
20D98
331
212D2
  5
20D99
331
212D3
  5
20D9A
331
212D4
  5
20D9B
331
212D5
  5
20D9C
331
212D6
  5
20D9D
331
212D7
  5
20D9E
331
212D8
  5
20D9F
331
212D9
  5
20DA0
331
212DA
  5
20DA1
331
212DB
  5
20DA2
331
212DC
  5
20DA3
331
212DD
  5
20DA4
331
212DE
  5
20DA5
331
212DF
  5
20DA6
331
212E0
  5
20DA7
331
212E1
  5
20DA8
331
212E2
  5
20DA9
331
212E3
  5
20DAA
331
212E4
  5
20DAB
331
212E5
  5
20DAC
331
212E6
  5
20DAD
331
212E7
  5
20DAE
331
212E8
  5
20DAF
331
212E9
  5
20DB0
331
212EA
  5
20DB1
331
212EB
  5
20DB2
331
212EC
  5
20DB3
331
212ED
  5
20DB4
331
212EE
  5
20DB5
331
212EF
  5
20DB6
331
212F0
  5
20DB7
331
212F1
  5
20DB8
331
212F2
  5
20DB9
331
212F3
  5
20DBA
331
212F4
  5
20DBB
331
212F5
  5
2126E
331
212F6
  5
2126F
331
0
  5
20D93
331
212F8
  5
2127C
331
212F9
  5
2127D
331
212FA
  5
2127E
331
212FB
  5
2127F
331
212FC
  5
21280
331
212FD
  5
21281
331
212FE
  5
21282
331
212FF
  5
21285
331
21300
  5
21287
331
21301
  5
21288
331
21302
  5
21289
331
21303
  5
2128A
331
21304
  5
2128B
331
21305
  5
2128C
331
21306
  5
2128D
331
21307
  5
2128E
331
21308
  5
2128F
331
21309
  5
21290
331
2130A
  5
21291
331
2130B
  5
21292
331
2130C
  5
21293
331
2130D
  5
21294
331
2130E
  5
21295
331
2130F
  5
21296
331
21310
  5
21297
331
21311
  5
21298
331
21312
  5
21299
331
21313
  5
2129A
331
21314
  5
2129B
331
21315
  5
2129C
331
21316
  5
2129D
331
21317
  5
2129E
331
21318
  5
2129F
331
21319
  5
212A0
331
2131A
  5
212A1
331
2131B
  5
212A2
331
2131C
  5
212A3
331
2131D
  5
212A4
331
2131E
  5
212A5
331
2131F
  5
212A6
331
21320
  5
212A7
331
21321
  5
212A8
331
21322
  5
212A9
331
21323
  5
212AA
331
21324
  5
212AB
331
21325
  5
212AC
331
21326
  5
212AD
331
21327
  5
212AE
331
21328
  5
212AF
331
21329
  5
212B0
331
2132A
  5
212B1
331
2132B
  5
212B2
331
2132C
  5
212B3
331
2132D
  5
212B4
331
2132E
  5
212B5
331
2132F
  5
212B6
331
21330
  5
212B7
331
21331
  5
212B8
331
21332
  5
212B9
331
21333
  5
212BA
331
21334
  5
212BB
331
21335
  5
212BF
331
21336
  5
212C0
331
21337
  5
212C1
331
21338
  5
212C2
331
21339
  5
212C3
331
2133A
  5
212C4
331
2133B
  5
212C5
331
2133C
  5
212C6
331
2133D
  5
212C7
331
2133E
  5
212C8
331
2133F
  5
212C9
331
21340
  5
212CA
331
21341
  5
212CB
331
21342
  5
212CC
331
21343
  5
212F5
331
21344
  5
212F6
331
21345
  5
212F7
331
21346
  5
212F8
331
0
  5
212BC
331
0
  5
212BD
331
0
  5
212BE
331
2134A
  5
21312
331
2134B
  5
21313
331
0
  5
212D3
331
2134D
  5
2131F
331
2134E
  5
21320
331
2134F
  5
21321
331
21350
  5
21322
331
21351
  5
21323
331
21352
  5
21324
331
21353
  5
21325
331
21354
  5
21326
331
21355
  5
21327
331
21356
  5
21328
331
21357
  5
21329
331
21358
  5
2132A
331
21359
  5
2132B
331
2135A
  5
2132C
331
2135B
  5
2132D
331
2135C
  5
2132E
331
2135D
  5
2132F
331
2135E
  5
21330
331
2135F
  5
21331
331
21360
  5
21332
331
21361
  5
21333
331
21362
  5
21334
331
21363
  5
21335
331
21364
  5
21336
331
21365
  5
21337
331
21366
  5
21338
331
21367
  5
2133A
331
21368
  5
2133B
331
21369
  5
2133C
331
2136A
  5
2133D
331
2136B
  5
2133E
331
2136C
  5
2133F
331
2136D
  5
21340
331
2136E
  5
21341
331
2136F
  5
21342
331
21370
  5
21343
331
21371
  5
21344
331
21372
  5
21345
331
21373
  5
21346
331
21374
  5
21347
331
21375
  5
21348
331
21376
  5
21349
331
21377
  5
2134A
331
21378
  5
2134B
331
21379
  5
2134C
331
2137A
  5
2134D
331
2137B
  5
2134E
331
2137C
  5
2134F
331
2137D
  5
21350
331
2137E
  5
21351
331
2137F
  5
21352
331
21380
  5
21353
331
21381
  5
21354
331
21382
  5
21355
331
21383
  5
21356
331
21384
  5
21357
331
21385
  5
21358
331
21386
  5
21359
331
21387
  5
2135A
331
21388
  5
2135B
331
21389
  5
2135C
331
2138A
  5
2135D
331
2138B
  5
2135E
331
2138C
  5
2135F
331
2138D
  5
21360
331
2138E
  5
21361
331
2138F
  5
21362
331
21390
  5
21363
331
21391
  5
21364
331
21392
  5
21365
331
21393
  5
21366
331
21394
  5
21367
331
21395
  5
21368
331
21396
  5
21369
331
21397
  5
2136A
331
21398
  5
21383
331
21399
  5
21384
331
0
  5
21339
331
2139B
  5
21390
331
2139C
  5
21391
331
2139D
  5
21392
331
2139E
  5
21393
331
2139F
  5
21394
331
213A0
  5
21395
331
213A1
  5
21396
331
213A2
  5
21397
331
213A3
  5
21398
331
213A4
  5
21399
331
213A5
  5
2139A
331
213A6
  5
2139B
331
213A7
  5
2139C
331
213A8
  5
2139D
331
213A9
  5
2139E
331
213AA
  5
2139F
331
213AB
  5
213A0
331
213AC
  5
213A1
331
213AD
  5
213A2
331
213AE
  5
213A3
331
213AF
  5
213A4
331
213B0
  5
213A5
331
213B1
  5
213A6
331
213B2
  5
213A7
331
213B3
  5
213A8
331
213B4
  5
213A9
331
213B5
  5
213AA
331
213B6
  5
213AB
331
213B7
  5
213AC
331
213B8
  5
213AD
331
213B9
  5
213AE
331
213BA
  5
213AF
331
213BB
  5
213B0
331
213BC
  5
213B1
331
213BD
  5
213B2
331
213BE
  5
213B3
331
213BF
  5
213B4
331
213C0
  5
213B5
331
213C1
  5
213B6
331
213C2
  5
213B7
331
213C3
  5
213B8
331
213C4
  5
213B9
331
213C5
  5
213BA
331
213C6
  5
213BB
331
213C7
  5
213BC
331
213C8
  5
213BD
331
213C9
  5
213BE
331
213CA
  5
213BF
331
213CB
  5
213C0
331
213CC
  5
213C1
331
213CD
  5
213C2
331
213CE
  5
213C3
331
213CF
  5
213C4
331
213D0
  5
213C5
331
213D1
  5
213C6
331
213D2
  5
213C7
331
213D3
  5
213C8
331
213D4
  5
213C9
331
213D5
  5
213CA
331
213D6
  5
213CB
331
213D7
  5
213CC
331
213D8
  5
213CD
331
213D9
  5
213CE
331
213DA
  5
213CF
331
213DB
  5
213D0
331
213DC
  5
213D1
331
213DD
  5
213D2
331
213DE
  5
213D3
331
213DF
  5
213D4
331
213E0
  5
213D5
331
213E1
  5
213D6
331
213E2
  5
213D7
331
213E3
  5
213D8
331
213E4
  5
213D9
331
213E5
  5
213DA
331
213E6
  5
21427
331
213E7
  5
21428
331
213E8
  5
21429
331
213E9
  5
2142A
331
213EA
  5
2142B
331
213EB
  5
2142C
331
213EC
  5
2142D
331
213ED
  5
2142E
331
213EE
  5
2142F
331
213EF
  5
21430
331
213F0
  5
21431
331
213F1
  5
21432
331
213F2
  5
21433
331
213F3
  5
21434
331
213F4
  5
21435
331
213F5
  5
21436
331
213F6
  5
21437
331
213F7
  5
21438
331
213F8
  5
21439
331
213F9
  5
2143A
331
213FA
  5
2143B
331
213FB
  5
2143C
331
213FC
  5
2143D
331
213FD
  5
2143E
331
213FE
  5
2143F
331
213FF
  5
21440
331
21400
  5
21441
331
21401
  5
21442
331
0
  5
213E9
331
0
  5
213EA
331
0
  5
213EB
331
21405
  5
21463
331
21406
  5
21464
331
0
  5
213FD
331
21408
  5
21473
331
21409
  5
21474
331
2140A
  5
21475
331
2140B
  5
21476
331
2140C
  5
21477
331
2140D
  5
21478
331
2140E
  5
21479
331
2140F
  5
2147A
331
21410
  5
2147B
331
21411
  5
2147C
331
21412
  5
2147D
331
21413
  5
2147E
331
21414
  5
2147F
331
21415
  5
21480
331
21416
  5
21481
331
21417
  5
21482
331
21418
  5
21483
331
21419
  5
21484
331
2141A
  5
21485
331
2141B
  5
21486
331
2141C
  5
21487
331
2141D
  5
21488
331
2141E
  5
21489
331
2141F
  5
2148A
331
21420
  5
2148B
331
21421
  5
2148C
331
21422
  5
2148D
331
21423
  5
2148E
331
21424
  5
2148F
331
21425
  5
21490
331
21426
  5
21491
331
21427
  5
21492
331
21428
  5
21493
331
21429
  5
21494
331
2142A
  5
21495
331
2142B
  5
21496
331
2142C
  5
21497
331
2142D
  5
21498
331
2142E
  5
21499
331
2142F
  5
2149A
331
21430
  5
2149B
331
21431
  5
2149C
331
21432
  5
2149D
331
21433
  5
2149E
331
21434
  5
2149F
331
21435
  5
214A0
331
21436
  5
214A1
331
21437
  5
214A2
331
21438
  5
214A3
331
21439
  5
214A4
331
2143A
  5
214A5
331
2143B
  5
214A6
331
2143C
  5
214A7
331
2143D
  5
214A8
331
2143E
  5
214A9
331
2143F
  5
214AA
331
21440
  5
214AB
331
21441
  5
214AC
331
21442
  5
214AD
331
21443
  5
214AE
331
21444
  5
214AF
331
21445
  5
214B0
331
21446
  5
214B1
331
21447
  5
214B2
331
21448
  5
214B3
331
21449
  5
214B4
331
2144A
  5
214B5
331
2144B
  5
214B6
331
2144C
  5
214B7
331
2144D
  5
214B8
331
2144E
  5
214B9
331
2144F
  5
214BA
331
21450
  5
214BB
331
21451
  5
214BC
331
21452
  5
214BD
331
0
  5
21452
331
21454
  5
214D1
331
21455
  5
214D2
331
21456
  5
214D3
331
21457
  5
214D4
331
21458
  5
214D5
331
21459
  5
214D6
331
2145A
  5
214D7
331
0
  5
2145A
331
21464
  5
214E2
331
21465
  5
214E3
331
21466
  5
214E4
331
21467
  5
214E5
331
21468
  5
214E6
331
21469
  5
214E7
331
2146A
  5
214E8
331
2146B
  5
214EA
331
2146C
  5
214EB
331
2146D
  5
214EC
331
21471
  5
20D05
331
21472
  5
20D06
331
21473
  5
20D07
331
21474
  5
20D0B
331
21475
  5
20D0C
331
21476
  5
20D0D
331
21477
  5
20D0E
331
21478
  5
20D15
331
21479
  5
20D17
331
2147A
  5
20D18
331
2147B
  5
20D19
331
2147C
  5
20D1E
331
2147D
  5
20D1F
331
2147E
  5
20D20
331
2147F
  5
20D2A
331
21480
  5
20D2B
331
21481
  5
20D2C
331
21482
  5
20D2D
331
21483
  5
20D2E
331
21484
  5
20D2F
331
21485
  5
20D30
331
21486
  5
20D36
331
21487
  5
20D37
331
21488
  5
20D38
331
21489
  5
20D39
331
2148A
  5
20D3B
331
2148B
  5
20D3C
331
2148C
  5
20D3D
331
2148D
  5
20D45
331
2148E
  5
20D46
331
2148F
  5
20D47
331
21490
  5
20D48
331
21491
  5
20D49
331
21492
  5
20D4A
331
21493
  5
20D4B
331
21494
  5
20D60
331
21495
  5
20D61
331
21496
  5
20D62
331
21497
  5
20D63
331
21498
  5
20D64
331
21499
  5
20D65
331
2149A
  5
20D66
331
2149B
  5
20D67
331
2149C
  5
20D68
331
2149D
  5
20D69
331
2149E
  5
20D6A
331
2149F
  5
21270
331
214A0
  5
21271
331
214A1
  5
21272
331
214A2
  5
21273
331
214A3
  5
21274
331
214A4
  5
21275
331
214A5
  5
21276
331
214A6
  5
21277
331
214A7
  5
21278
331
214A8
  5
2127A
331
214A9
  5
2127B
331
214AA
  5
212F9
331
214AB
  5
212FA
331
214AC
  5
212FB
331
214AD
  5
212FC
331
214AE
  5
212FD
331
214AF
  5
212FE
331
214B0
  5
212FF
331
214B1
  5
21314
331
214B2
  5
21315
331
214B3
  5
21316
331
214B4
  5
21317
331
214B5
  5
21318
331
214B6
  5
21319
331
214B7
  5
2131A
331
214B8
  5
2131B
331
214B9
  5
2131C
331
214BA
  5
2131D
331
214BB
  5
2131E
331
214BC
  5
21385
331
214BD
  5
21386
331
214BE
  5
21387
331
214BF
  5
21388
331
214C0
  5
21389
331
214C1
  5
2138A
331
214C2
  5
2138B
331
214C3
  5
2138C
331
214C4
  5
2138D
331
214C5
  5
2138E
331
214C6
  5
2138F
331
214C7
  5
21443
331
214C8
  5
21444
331
214C9
  5
21445
331
214CA
  5
21446
331
214CB
  5
21447
331
214CC
  5
21448
331
214CD
  5
21449
331
214CE
  5
21465
331
214CF
  5
21466
331
214D0
  5
21467
331
214D1
  5
21468
331
214D2
  5
21469
331
214D3
  5
2146A
331
214D4
  5
2146B
331
214D5
  5
2146C
331
214D6
  5
2146D
331
214D7
  5
21471
331
214D8
  5
21472
331
214D9
  5
214C7
331
214DA
  5
214C8
331
214DB
  5
214C9
331
214DC
  5
214CA
331
214DD
  5
214CB
331
214DE
  5
214CC
331
214DF
  5
214CD
331
214E0
  5
214CE
331
214E1
  5
214CF
331
214E2
  5
214D0
331
214E3
  5
214D8
331
214E4
  5
214D9
331
214E5
  5
214DA
331
214E6
  5
214DB
331
214E7
  5
214DC
331
214E8
  5
214DD
331
214E9
  5
214DE
331
214EA
  5
214DF
331
214EB
  5
214E0
331
214EC
  5
214E1
  0
SORTENTSTABLE
  5
59C
102
{ACAD_REACTORS
330
59B
102
}
330
59B
100
AcDbSortentsTable
330
15
  0
MATERIAL
  5
19DD5
102
{ACAD_REACTORS
330
2CF
102
}
102
{ACAD_XDICTIONARY
360
21692
102
}
330
2CF
100
AcDbMaterial
  1
BYBLOCK
 72
     0
 73
     2
 43
0.0208333333333333
 43
0.0
 43
0.0
 43
0.0
 43
0.0
 43
0.0208333333333333
 43
0.0
 43
0.0
 43
0.0
 43
0.0
 43
1.0
 43
0.0
 43
0.0
 43
0.0
 43
0.0
 43
1.0
 77
     0
 78
     2
 47
0.0208333333333333
 47
0.0
 47
0.0
 47
0.0
 47
0.0
 47
0.0208333333333333
 47
0.0
 47
0.0
 47
0.0
 47
0.0
 47
1.0
 47
0.0
 47
0.0
 47
0.0
 47
0.0
 47
1.0
171
     0
172
     2
 49
0.0208333333333333
 49
0.0
 49
0.0
 49
0.0
 49
0.0
 49
0.0208333333333333
 49
0.0
 49
0.0
 49
0.0
 49
0.0
 49
1.0
 49
0.0
 49
0.0
 49
0.0
 49
0.0
 49
1.0
175
     0
176
     2
142
0.0208333333333333
142
0.0
142
0.0
142
0.0
142
0.0
142
0.0208333333333333
142
0.0
142
0.0
142
0.0
142
0.0
142
1.0
142
0.0
142
0.0
142
0.0
142
0.0
142
1.0
179
     0
270
     2
144
0.0208333333333333
144
0.0
144
0.0
144
0.0
144
0.0
144
0.0208333333333333
144
0.0
144
0.0
144
0.0
144
0.0
144
1.0
144
0.0
144
0.0
144
0.0
144
0.0
144
1.0
274
     2
147
0.0208333333333333
147
0.0
147
0.0
147
0.0
147
0.0
147
0.0208333333333333
147
0.0
147
0.0
147
0.0
147
0.0
147
1.0
147
0.0
147
0.0
147
0.0
147
0.0
147
1.0
  0
MATERIAL
  5
19DCD
102
{ACAD_REACTORS
330
2CF
102
}
102
{ACAD_XDICTIONARY
360
21694
102
}
330
2CF
100
AcDbMaterial
  1
BYLAYER
 72
     0
 73
     2
 43
0.0208333333333333
 43
0.0
 43
0.0
 43
0.0
 43
0.0
 43
0.0208333333333333
 43
0.0
 43
0.0
 43
0.0
 43
0.0
 43
1.0
 43
0.0
 43
0.0
 43
0.0
 43
0.0
 43
1.0
 77
     0
 78
     2
 47
0.0208333333333333
 47
0.0
 47
0.0
 47
0.0
 47
0.0
 47
0.0208333333333333
 47
0.0
 47
0.0
 47
0.0
 47
0.0
 47
1.0
 47
0.0
 47
0.0
 47
0.0
 47
0.0
 47
1.0
171
     0
172
     2
 49
0.0208333333333333
 49
0.0
 49
0.0
 49
0.0
 49
0.0
 49
0.0208333333333333
 49
0.0
 49
0.0
 49
0.0
 49
0.0
 49
1.0
 49
0.0
 49
0.0
 49
0.0
 49
0.0
 49
1.0
175
     0
176
     2
142
0.0208333333333333
142
0.0
142
0.0
142
0.0
142
0.0
142
0.0208333333333333
142
0.0
142
0.0
142
0.0
142
0.0
142
1.0
142
0.0
142
0.0
142
0.0
142
0.0
142
1.0
179
     0
270
     2
144
0.0208333333333333
144
0.0
144
0.0
144
0.0
144
0.0
144
0.0208333333333333
144
0.0
144
0.0
144
0.0
144
0.0
144
1.0
144
0.0
144
0.0
144
0.0
144
0.0
144
1.0
274
     2
147
0.0208333333333333
147
0.0
147
0.0
147
0.0
147
0.0
147
0.0208333333333333
147
0.0
147
0.0
147
0.0
147
0.0
147
1.0
147
0.0
147
0.0
147
0.0
147
0.0
147
1.0
  0
MATERIAL
  5
19DDD
102
{ACAD_REACTORS
330
2CF
102
}
102
{ACAD_XDICTIONARY
360
21696
102
}
330
2CF
100
AcDbMaterial
  1
GLOBAL
 72
     0
 73
     2
 43
0.0208333333333333
 43
0.0
 43
0.0
 43
0.0
 43
0.0
 43
0.0208333333333333
 43
0.0
 43
0.0
 43
0.0
 43
0.0
 43
1.0
 43
0.0
 43
0.0
 43
0.0
 43
0.0
 43
1.0
 77
     0
 78
     2
 47
0.0208333333333333
 47
0.0
 47
0.0
 47
0.0
 47
0.0
 47
0.0208333333333333
 47
0.0
 47
0.0
 47
0.0
 47
0.0
 47
1.0
 47
0.0
 47
0.0
 47
0.0
 47
0.0
 47
1.0
171
     0
172
     2
 49
0.0208333333333333
 49
0.0
 49
0.0
 49
0.0
 49
0.0
 49
0.0208333333333333
 49
0.0
 49
0.0
 49
0.0
 49
0.0
 49
1.0
 49
0.0
 49
0.0
 49
0.0
 49
0.0
 49
1.0
175
     0
176
     2
142
0.0208333333333333
142
0.0
142
0.0
142
0.0
142
0.0
142
0.0208333333333333
142
0.0
142
0.0
142
0.0
142
0.0
142
1.0
142
0.0
142
0.0
142
0.0
142
0.0
142
1.0
179
     0
270
     2
144
0.0208333333333333
144
0.0
144
0.0
144
0.0
144
0.0
144
0.0208333333333333
144
0.0
144
0.0
144
0.0
144
0.0
144
1.0
144
0.0
144
0.0
144
0.0
144
0.0
144
1.0
274
     2
147
0.0208333333333333
147
0.0
147
0.0
147
0.0
147
0.0
147
0.0208333333333333
147
0.0
147
0.0
147
0.0
147
0.0
147
1.0
147
0.0
147
0.0
147
0.0
147
0.0
147
1.0
  0
ACAD_PROXY_OBJECT
  5
19E19
102
{ACAD_REACTORS
330
19E18
102
}
330
19E18
100
AcDbZombieObject
 90
      499
 91
      512
 93
      610
310
40901902A4063FBFFFFFE000000000000002040AD7A3703D0AD73F4214DD185B99185C990000000000000104090141901A00000000000004100000000000000041025764000000000000300FC0
340
12
340
0
340
F
340
0
 94
        0
1001
ACAD_MLEADERVER
1070
     2
  0
MLINESTYLE
  5
1C
102
{ACAD_REACTORS
330
1B
102
}
330
1B
100
AcDbMlineStyle
  2
STANDARD
 70
     0
  3

 62
   256
 51
90.0
 52
90.0
 71
     2
 49
0.5
 62
   256
  6
BYLAYER
 49
-0.5
 62
   256
  6
BYLAYER
  0
ACAD_PROXY_OBJECT
  5
19DF7
102
{ACAD_REACTORS
330
19DF6
102
}
330
19DF6
100
AcDbZombieObject
 90
      499
 91
      511
 93
       41
310
903313A31580
  0
ACAD_PROXY_OBJECT
  5
19DF8
102
{ACAD_REACTORS
330
19DF6
102
}
330
19DF6
100
AcDbZombieObject
 90
      499
 91
      511
 93
      105
310
903313A324000000000000004000
  0
ACAD_PROXY_OBJECT
  5
19DF9
102
{ACAD_REACTORS
330
19DF6
102
}
330
19DF6
100
AcDbZombieObject
 90
      499
 91
      511
 93
      105
310
903313A344000000000000104000
  0
ACAD_PROXY_OBJECT
  5
19DFA
102
{ACAD_REACTORS
330
19DF6
102
}
330
19DF6
100
AcDbZombieObject
 90
      499
 91
      511
 93
      105
310
903313A354000000000000144000
  0
ACAD_PROXY_OBJECT
  5
19DFB
102
{ACAD_REACTORS
330
19DF6
102
}
330
19DF6
100
AcDbZombieObject
 90
      499
 91
      511
 93
      105
310
903313A384000000000000204000
  0
ACAD_PROXY_OBJECT
  5
19DFC
102
{ACAD_REACTORS
330
19DF6
102
}
330
19DF6
100
AcDbZombieObject
 90
      499
 91
      511
 93
      113
310
904313A31304000000000000244000
  0
ACAD_PROXY_OBJECT
  5
19DFD
102
{ACAD_REACTORS
330
19DF6
102
}
330
19DF6
100
AcDbZombieObject
 90
      499
 91
      511
 93
      113
310
904313A31364000000000000304000
  0
ACAD_PROXY_OBJECT
  5
19DFE
102
{ACAD_REACTORS
330
19DF6
102
}
330
19DF6
100
AcDbZombieObject
 90
      499
 91
      511
 93
      113
310
904313A32304000000000000344000
  0
ACAD_PROXY_OBJECT
  5
19DFF
102
{ACAD_REACTORS
330
19DF6
102
}
330
19DF6
100
AcDbZombieObject
 90
      499
 91
      511
 93
      113
310
904313A333040000000000003E4000
  0
ACAD_PROXY_OBJECT
  5
19E00
102
{ACAD_REACTORS
330
19DF6
102
}
330
19DF6
100
AcDbZombieObject
 90
      499
 91
      511
 93
      113
310
904313A34304000000000000444000
  0
ACAD_PROXY_OBJECT
  5
19E01
102
{ACAD_REACTORS
330
19DF6
102
}
330
19DF6
100
AcDbZombieObject
 90
      499
 91
      511
 93
      113
310
904313A35304000000000000494000
  0
ACAD_PROXY_OBJECT
  5
19E02
102
{ACAD_REACTORS
330
19DF6
102
}
330
19DF6
100
AcDbZombieObject
 90
      499
 91
      511
 93
      121
310
905313A3130304000000000000594000
  0
ACAD_PROXY_OBJECT
  5
19E03
102
{ACAD_REACTORS
330
19DF6
102
}
330
19DF6
100
AcDbZombieObject
 90
      499
 91
      511
 93
      105
310
903323A310000000000000010100
  0
ACAD_PROXY_OBJECT
  5
19E04
102
{ACAD_REACTORS
330
19DF6
102
}
330
19DF6
100
AcDbZombieObject
 90
      499
 91
      511
 93
      105
310
903343A310000000000000410100
  0
ACAD_PROXY_OBJECT
  5
19E05
102
{ACAD_REACTORS
330
19DF6
102
}
330
19DF6
100
AcDbZombieObject
 90
      499
 91
      511
 93
      105
310
903383A310000000000000810100
  0
ACAD_PROXY_OBJECT
  5
19E06
102
{ACAD_REACTORS
330
19DF6
102
}
330
19DF6
100
AcDbZombieObject
 90
      499
 91
      511
 93
      113
310
90431303A310000000000000910100
  0
ACAD_PROXY_OBJECT
  5
19E07
102
{ACAD_REACTORS
330
19DF6
102
}
330
19DF6
100
AcDbZombieObject
 90
      499
 91
      511
 93
      121
310
9053130303A310000000000001650100
  0
ACAD_PROXY_OBJECT
  5
19E08
102
{ACAD_REACTORS
330
19DF6
102
}
330
19DF6
100
AcDbZombieObject
 90
      499
 91
      511
 93
      257
310
90E312F31323822203D2031272D3022000000000000200FC000000000000284000
  0
ACAD_PROXY_OBJECT
  5
19E09
102
{ACAD_REACTORS
330
19DF6
102
}
330
19DF6
100
AcDbZombieObject
 90
      499
 91
      511
 93
      249
310
90D312F363422203D2031272D3022000000000000240FC000000000000284000
  0
ACAD_PROXY_OBJECT
  5
19E0A
102
{ACAD_REACTORS
330
19DF6
102
}
330
19DF6
100
AcDbZombieObject
 90
      499
 91
      511
 93
      249
310
90D312F333222203D2031272D3022000000000000280FC000000000000284000
  0
ACAD_PROXY_OBJECT
  5
19E0B
102
{ACAD_REACTORS
330
19DF6
102
}
330
19DF6
100
AcDbZombieObject
 90
      499
 91
      511
 93
      249
310
90D312F313622203D2031272D30220000000000002C0FC000000000000284000
  0
ACAD_PROXY_OBJECT
  5
19E0C
102
{ACAD_REACTORS
330
19DF6
102
}
330
19DF6
100
AcDbZombieObject
 90
      499
 91
      511
 93
      249
310
90D332F333222203D2031272D30220000000000002E0FC000000000000284000
  0
ACAD_PROXY_OBJECT
  5
19E0D
102
{ACAD_REACTORS
330
19DF6
102
}
330
19DF6
100
AcDbZombieObject
 90
      499
 91
      511
 93
      241
310
90C312F3822203D2031272D3022000000000000300FC000000000000284000
  0
ACAD_PROXY_OBJECT
  5
19E0E
102
{ACAD_REACTORS
330
19DF6
102
}
330
19DF6
100
AcDbZombieObject
 90
      499
 91
      511
 93
      249
310
90D332F313622203D2031272D3022000000000000320FC000000000000284000
  0
ACAD_PROXY_OBJECT
  5
19E0F
102
{ACAD_REACTORS
330
19DF6
102
}
330
19DF6
100
AcDbZombieObject
 90
      499
 91
      511
 93
      241
310
90C312F3422203D2031272D3022000000000000340FC000000000000284000
  0
ACAD_PROXY_OBJECT
  5
19E10
102
{ACAD_REACTORS
330
19DF6
102
}
330
19DF6
100
AcDbZombieObject
 90
      499
 91
      511
 93
      241
310
90C332F3822203D2031272D3022000000000000360FC000000000000284000
  0
ACAD_PROXY_OBJECT
  5
19E11
102
{ACAD_REACTORS
330
19DF6
102
}
330
19DF6
100
AcDbZombieObject
 90
      499
 91
      511
 93
      241
310
90C312F3222203D2031272D3022000000000000380FC000000000000284000
  0
ACAD_PROXY_OBJECT
  5
19E12
102
{ACAD_REACTORS
330
19DF6
102
}
330
19DF6
100
AcDbZombieObject
 90
      499
 91
      511
 93
      241
310
90C332F3422203D2031272D30220000000000003A0FC000000000000284000
  0
ACAD_PROXY_OBJECT
  5
19E13
102
{ACAD_REACTORS
330
19DF6
102
}
330
19DF6
100
AcDbZombieObject
 90
      499
 91
      511
 93
      161
310
90A3122203D2031272D30224000000000000284000
  0
ACAD_PROXY_OBJECT
  5
19E14
102
{ACAD_REACTORS
330
19DF6
102
}
330
19DF6
100
AcDbZombieObject
 90
      499
 91
      511
 93
      257
310
90E312D312F3222203D2031272D30220000000000003E0FC000000000000284000
  0
ACAD_PROXY_OBJECT
  5
19E15
102
{ACAD_REACTORS
330
19DF6
102
}
330
19DF6
100
AcDbZombieObject
 90
      499
 91
      511
 93
      225
310
90A3322203D2031272D302200000000000002100000000000000284000
  0
ACAD_PROXY_OBJECT
  5
19E16
102
{ACAD_REACTORS
330
19DF6
102
}
330
19DF6
100
AcDbZombieObject
 90
      499
 91
      511
 93
      225
310
90A3622203D2031272D302200000000000006100000000000000284000
  0
ACAD_PROXY_OBJECT
  5
19E17
102
{ACAD_REACTORS
330
19DF6
102
}
330
19DF6
100
AcDbZombieObject
 90
      499
 91
      511
 93
      249
310
90D31272D3022203D2031272D30220000000000000A100000000000000284000
  0
ACAD_PROXY_OBJECT
  5
19DEB
102
{ACAD_REACTORS
330
19DE5
102
}
330
19DE5
100
AcDbZombieObject
 90
      499
 91
      510
 93
      436
310
42CC9915DA5C99599C985B595049028333333333333E3BF0000000000000FB0107901411070040501600405405064090741402480A0340
1001
ACAD
1000
AcDbSavedByObjectVersion
1070
     0
  0
ACAD_PROXY_OBJECT
  5
19DED
102
{ACAD_REACTORS
330
19DE5
102
}
330
19DE5
100
AcDbZombieObject
 90
      499
 91
      510
 93
      500
310
424CD108121A5919195B90640502408333333333333E3BF0000000000000FB01079024090700405020000000000001110200405405064090740C02480A0340
1001
ACAD
1000
AcDbSavedByObjectVersion
1070
     0
  0
ACAD_PROXY_OBJECT
  5
19DEC
102
{ACAD_REACTORS
330
19DE5
102
}
330
19DE5
100
AcDbZombieObject
 90
      499
 91
      510
 93
      436
310
42CCD915DA5C99599C985B595059028333333333333E3BF0000000000000FB0107901411070040501600405405064090741402480A0340
1001
ACAD
1000
AcDbSavedByObjectVersion
1070
     0
  0
ACAD_PROXY_OBJECT
  5
19DEA
102
{ACAD_REACTORS
330
19DE5
102
}
330
19DE5
100
AcDbZombieObject
 90
      499
 91
      510
 93
      388
310
4150985CDA58D07406404333333333333E3BF0000000000000FB0107A41107004050150841D405064090741402480A0350
1001
ACAD
1000
AcDbSavedByObjectVersion
1070
     0
  0
ACAD_PROXY_OBJECT
  5
19DF1
102
{ACAD_REACTORS
330
19DE5
102
}
330
19DE5
100
AcDbZombieObject
 90
      499
 91
      510
 93
      428
310
42109C9A59DA1D195B90C409028333333333333E3BF0000000000000FB010790141107004050150841D405064090741402480A029950
1001
ACAD
1000
AcDbSavedByObjectVersion
1070
     0
  0
ACAD_PROXY_OBJECT
  5
19DF5
102
{ACAD_REACTORS
330
19DE5
102
}
330
19DE5
100
AcDbZombieObject
 90
      499
 91
      510
 93
      452
310
42D0DBDB1BDC90DA185B99D95104090240C333333333333E3BF0000000000000FB0108901411070040501508421405064090741402480A0350
1001
ACAD
1000
AcDbSavedByObjectVersion
1070
     0
  0
ACAD_PROXY_OBJECT
  5
19DEE
102
{ACAD_REACTORS
330
19DE5
102
}
330
19DE5
100
AcDbZombieObject
 90
      499
 91
      510
 93
      500
310
4290DBDB98D95C1D1D585B10940D028333333333333E3BF0000000000000FB0107902409070040501000000000000111010841D405064090740C02480A0340
1001
ACAD
1000
AcDbSavedByObjectVersion
1070
     0
  0
ACAD_PROXY_OBJECT
  5
19DF0
102
{ACAD_REACTORS
330
19DE5
102
}
330
19DE5
100
AcDbZombieObject
 90
      499
 91
      510
 93
      412
310
40D11A5B50B409028333333333333E3BF0000000000000FB010790141107004050150841D405064090741402480A02677FFFFFD0
1001
ACAD
1000
AcDbSavedByObjectVersion
1070
     0
  0
ACAD_PROXY_OBJECT
  5
1E02A
102
{ACAD_REACTORS
330
19DE5
102
}
330
19DE5
100
AcDbZombieObject
 90
      499
 91
      510
 93
      452
310
43115919D950DBDB1BDC93D999916409028333333333333E3BF0000000000000FB010790141107004050150841D405064090741402480A0350
1001
ACAD
1000
AcDbSavedByObjectVersion
1070
     0
  0
ACAD_PROXY_OBJECT
  5
19DF4
102
{ACAD_REACTORS
330
19DE5
102
}
330
19DE5
100
AcDbZombieObject
 90
      499
 91
      510
 93
      444
310
42D19858D95C185D1D195C9B90F409028333333333333E3BF0000000000000FB010790141107004050150841D405064090741402480A0350
1001
ACAD
1000
AcDbSavedByObjectVersion
1070
     0
  0
ACAD_PROXY_OBJECT
  5
19DE6
102
{ACAD_REACTORS
330
19DE5
102
}
330
19DE5
100
AcDbZombieObject
 90
      499
 91
      510
 93
      388
310
41119B185D240901404333333333333E3BF0000000000000F9010740A41107004050150841D405064090741402480A1B50
1001
ACAD
1000
AcDbSavedByObjectVersion
1070
     0
  0
ACAD_PROXY_OBJECT
  5
19DE7
102
{ACAD_REACTORS
330
19DE5
102
}
330
19DE5
100
AcDbZombieObject
 90
      499
 91
      510
 93
      476
310
43519B185D15DA5D1A115919D95CD0140901404333333333333E3BF0000000000000F9010740901411070040501600405405064090741402480A1B50
1001
ACAD
1000
AcDbSavedByObjectVersion
1070
     0
  0
ACAD_PROXY_OBJECT
  5
19DE8
102
{ACAD_REACTORS
330
19DE5
102
}
330
19DE5
100
AcDbZombieObject
 90
      499
 91
      510
 93
      412
310
41D1DBDD5C985D5910240902404333333333333E3BF0000000000000F9010740A411070040501641D405064090741402480A1B50
1001
ACAD
1000
AcDbSavedByObjectVersion
1070
     0
  0
ACAD_PROXY_OBJECT
  5
19DE9
102
{ACAD_REACTORS
330
19DE5
102
}
330
19DE5
100
AcDbZombieObject
 90
      499
 91
      510
 93
      500
310
4411DBDD5C985D5915DA5D1A115919D95CD0340902404333333333333E3BF0000000000000F9010740901411070040501600405405064090741402480A1B50
1001
ACAD
1000
AcDbSavedByObjectVersion
1070
     0
  0
ACAD_PROXY_OBJECT
  5
1F381
102
{ACAD_REACTORS
330
19DE5
102
}
330
19DE5
100
AcDbZombieObject
 90
      499
 91
      510
 93
      476
310
41921A5919195B90640502408333333333333E33F0000000000000F901079024090700405020000000000001110200405405064090740C02480A0340
1001
ACAD
1000
AcDbSavedByObjectVersion
1070
     0
  0
ACAD_PROXY_OBJECT
  5
1E028
102
{ACAD_REACTORS
330
19DE5
102
}
330
19DE5
100
AcDbZombieObject
 90
      499
 91
      510
 93
      428
310
42529A5D1D195C93D999914409028333333333333E3BF0000000000000FB010790141107004050150A41D405064090741402480A0350
1001
ACAD
1000
AcDbSavedByObjectVersion
1070
     0
  0
ACAD_PROXY_OBJECT
  5
19DF3
102
{ACAD_REACTORS
330
19DE5
102
}
330
19DE5
100
AcDbZombieObject
 90
      499
 91
      510
 93
      444
310
42D31A5B995C185D1D195C9B90E409028333333333333E3BF0000000000000FB010790141107004050750841D405064090741402483A0350
1001
ACAD
1000
AcDbSavedByObjectVersion
1070
     0
  0
ACAD_PROXY_OBJECT
  5
1F387
102
{ACAD_REACTORS
330
19DE5
102
}
330
19DE5
100
AcDbZombieObject
 90
      499
 91
      510
 93
      484
310
42135BD9195B1A5B99D0A409038333333333333E33F0000000000000F901074090290700405010000000000201990108421405064090741402480A1B40
1001
ACAD
1000
AcDbSavedByObjectVersion
1070
     0
  0
ACAD_PROXY_OBJECT
  5
1E029
102
{ACAD_REACTORS
330
19DE5
102
}
330
19DE5
100
AcDbZombieObject
 90
      499
 91
      510
 93
      444
310
42D3DD995C9A185B99D3D999915409028333333333333E3BF0000000000000FB010790141107004050150941D405064090741402480A0350
1001
ACAD
1000
AcDbSavedByObjectVersion
1070
     0
  0
ACAD_PROXY_OBJECT
  5
19DEF
102
{ACAD_REACTORS
330
19DE5
102
}
330
19DE5
100
AcDbZombieObject
 90
      499
 91
      510
 93
      420
310
425499585B1A5CDD1A58D08409028333333333333E3BF0000000000000FB01079019070040501508421405064090741402480A1B40
1001
ACAD
1000
AcDbSavedByObjectVersion
1070
     0
  0
ACAD_PROXY_OBJECT
  5
1F386
102
{ACAD_REACTORS
330
19DE5
102
}
330
19DE5
100
AcDbZombieObject
 90
      499
 91
      510
 93
      420
310
4194DA1859195911B40902404333333333333E33F0000000000000F9010740A41107004050150800405405064090840C02480A0B40
1001
ACAD
1000
AcDbSavedByObjectVersion
1070
     0
  0
ACAD_PROXY_OBJECT
  5
1F385
102
{ACAD_REACTORS
330
19DE5
102
}
330
19DE5
100
AcDbZombieObject
 90
      499
 91
      510
 93
      516
310
4454DA18591959081DDA5D1A08195919D95CD1A40902404333333333333E33F0000000000000F901074090142907004050250800405405064090740C02480A0B40
1001
ACAD
1000
AcDbSavedByObjectVersion
1070
     0
  0
ACAD_PROXY_OBJECT
  5
1F382
102
{ACAD_REACTORS
330
19DE5
102
}
330
19DE5
100
AcDbZombieObject
 90
      499
 91
      510
 93
      532
310
4394DA1859195CC81BD98811DC985E5174090240C333333333333E33F0000000000000F901079024090741D01000000000000111010841D405064090740C02480A0340
1001
ACAD
1000
AcDbSavedByObjectVersion
1070
     0
  0
ACAD_PROXY_OBJECT
  5
1F383
102
{ACAD_REACTORS
330
19DE5
102
}
330
19DE5
100
AcDbZombieObject
 90
      499
 91
      510
 93
      476
310
41D4DAD95D18DA1E51840502408333333333333E33F0000000000000F901079024090741D01000000000000111010B41D405064090741802480A0340
1001
ACAD
1000
AcDbSavedByObjectVersion
1070
     0
  0
ACAD_PROXY_OBJECT
  5
19DF2
102
{ACAD_REACTORS
330
19DE5
102
}
330
19DE5
100
AcDbZombieObject
 90
      499
 91
      510
 93
      412
310
41D51A1A58DAD95B90D409028333333333333E3BF0000000000000FB010790141107004050150C41D405064090741402480A0350
1001
ACAD
1000
AcDbSavedByObjectVersion
1070
     0
  0
ACAD_PROXY_OBJECT
  5
1F380
102
{ACAD_REACTORS
330
19DE5
102
}
330
19DE5
100
AcDbZombieObject
 90
      499
 91
      510
 93
      420
310
4255DA5C99599C985B595059028333333333333E33F0000000000000F90107901411070040501600405405064090740C02480A0340
1001
ACAD
1000
AcDbSavedByObjectVersion
1070
     0
  0
ACAD_PROXY_OBJECT
  5
1F384
102
{ACAD_REACTORS
330
19DE5
102
}
330
19DE5
100
AcDbZombieObject
 90
      499
 91
      510
 93
      404
310
41560B54985E51940902404000000000000E03F0000000000000F9010740501907004050150841D405064090740C02480A1B40
1001
ACAD
1000
AcDbSavedByObjectVersion
1070
     0
  0
XRECORD
  5
214F5
102
{ACAD_REACTORS
330
214F4
102
}
330
214F4
100
AcDbXrecord
340
2D0
  0
XRECORD
  5
214F6
102
{ACAD_REACTORS
330
214F4
102
}
330
214F4
100
AcDbXrecord
340
2CF
  0
DICTIONARYVAR
  5
20A45
102
{ACAD_REACTORS
330
37
102
}
330
37
100
DictionaryVariables
280
     0
  1
1:1
  0
DICTIONARYVAR
  5
1AC19
102
{ACAD_REACTORS
330
37
102
}
330
37
100
DictionaryVariables
280
     0
  1
Standard
  0
DICTIONARYVAR
  5
4F1
102
{ACAD_REACTORS
330
37
102
}
330
37
100
DictionaryVariables
280
     0
  1
Standard
  0
DICTIONARYVAR
  5
38
102
{ACAD_REACTORS
330
37
102
}
330
37
100
DictionaryVariables
280
     0
  1
-1
  0
DICTIONARYVAR
  5
408
102
{ACAD_REACTORS
330
37
102
}
330
37
100
DictionaryVariables
280
     0
  1
2
  0
DICTIONARYVAR
  5
1891
102
{ACAD_REACTORS
330
37
102
}
330
37
100
DictionaryVariables
280
     0
  1
1
  0
DICTIONARYVAR
  5
1AC1C
102
{ACAD_REACTORS
330
37
102
}
330
37
100
DictionaryVariables
280
     0
  1
0
  0
DICTIONARYVAR
  5
1895
102
{ACAD_REACTORS
330
37
102
}
330
37
100
DictionaryVariables
280
     0
  1
8
  0
DICTIONARYVAR
  5
1894
102
{ACAD_REACTORS
330
37
102
}
330
37
100
DictionaryVariables
280
     0
  1
1
  0
DICTIONARYVAR
  5
20A9B
102
{ACAD_REACTORS
330
37
102
}
330
37
100
DictionaryVariables
280
     0
  1
0
  0
DICTIONARYVAR
  5
1892
102
{ACAD_REACTORS
330
37
102
}
330
37
100
DictionaryVariables
280
     0
  1
8
  0
DICTIONARYVAR
  5
1893
102
{ACAD_REACTORS
330
37
102
}
330
37
100
DictionaryVariables
280
     0
  1
2
  0
DICTIONARYVAR
  5
409
102
{ACAD_REACTORS
330
37
102
}
330
37
100
DictionaryVariables
280
     0
  1

  0
DICTIONARYVAR
  5
1AC1B
102
{ACAD_REACTORS
330
37
102
}
330
37
100
DictionaryVariables
280
     0
  1
127
  0
DICTIONARYVAR
  5
1F37F
102
{ACAD_REACTORS
330
37
102
}
330
37
100
DictionaryVariables
280
     0
  1
2
  0
DICTIONARY
  5
21692
330
19DD5
100
AcDbDictionary
  3
ACAD_XREC_ROUNDTRIP
360
21693
1001
ACAD
1000
TREAT_AS_HARD
1070
     1
  0
DICTIONARY
  5
21694
330
19DCD
100
AcDbDictionary
  3
ACAD_XREC_ROUNDTRIP
360
21695
1001
ACAD
1000
TREAT_AS_HARD
1070
     1
  0
DICTIONARY
  5
21696
330
19DDD
100
AcDbDictionary
  3
ACAD_XREC_ROUNDTRIP
360
21697
1001
ACAD
1000
TREAT_AS_HARD
1070
     1
  0
XRECORD
  5
21693
102
{ACAD_REACTORS
330
21692
102
}
330
21692
100
AcDbXrecord
102
MATERIAL
148
0.0
149
0.0
149
0.0
 93
        0
 94
      127
282
     0
 72
     0
 77
     0
171
     0
175
     0
179
     0
273
     0
  0
XRECORD
  5
21695
102
{ACAD_REACTORS
330
21694
102
}
330
21694
100
AcDbXrecord
102
MATERIAL
148
0.0
149
0.0
149
0.0
 93
        0
 94
      127
282
     0
 72
     0
 77
     0
171
     0
175
     0
179
     0
273
     0
  0
XRECORD
  5
21697
102
{ACAD_REACTORS
330
21696
102
}
330
21696
100
AcDbXrecord
102
MATERIAL
148
0.0
149
0.0
149
0.0
 93
        0
 94
      127
282
     0
 72
     0
 77
     0
171
     0
175
     0
179
     0
273
     0
  0
ENDSEC
  0
EOF
