  0
SECTION
  2
HEADER
  9
$ACADVER
  1
AC1009
  9
$DWGCODEPAGE
  3
ansi_932
  9
$INSBASE
 10
0.0
 20
0.0
 30
0.0
  9
$EXTMIN
 10
-331.7412998338786
 20
-1038.645688685178
 30
0.0
  9
$EXTMAX
 10
491.5649758333809
 20
-804.9757582381726
 30
0.0
  9
$LIMMIN
 10
0.0
 20
0.0
  9
$LIMMAX
 10
420.0
 20
297.0
  9
$ORTHOMODE
 70
     0
  9
$REGENMODE
 70
     1
  9
$FILLMODE
 70
     1
  9
$QTEXTMODE
 70
     0
  9
$MIRRTEXT
 70
     0
  9
$DRAGMODE
 70
     2
  9
$LTSCALE
 40
0.5
  9
$OSMODE
 70
 14591
  9
$ATTMODE
 70
     1
  9
$TEXTSIZE
 40
4.0
  9
$TRACEWID
 40
1.0
  9
$TEXTSTYLE
  7
STANDARD
  9
$CLAYER
  8
1TEXT
  9
$CELTYPE
  6
BYLAYER
  9
$CECOLOR
 62
   256
  9
$DIMSCALE
 40
1.0
  9
$DIMASZ
 40
2.0
  9
$DIMEXO
 40
0.0
  9
$DIMDLI
 40
7.0
  9
$DIMRND
 40
0.0
  9
$DIMDLE
 40
0.0
  9
$DIMEXE
 40
1.0
  9
$DIMTP
 40
0.0
  9
$DIMTM
 40
0.0
  9
$DIMTXT
 40
3.5
  9
$DIMCEN
 40
0.0
  9
$DIMTSZ
 40
0.0
  9
$DIMTOL
 70
     0
  9
$DIMLIM
 70
     0
  9
$DIMTIH
 70
     0
  9
$DIMTOH
 70
     0
  9
$DIMSE1
 70
     0
  9
$DIMSE2
 70
     0
  9
$DIMTAD
 70
     1
  9
$DIMZIN
 70
     8
  9
$DIMBLK
  1

  9
$DIMASO
 70
     1
  9
$DIMSHO
 70
     1
  9
$DIMPOST
  1
 
  9
$DIMAPOST
  1

  9
$DIMALT
 70
     0
  9
$DIMALTD
 70
     2
  9
$DIMALTF
 40
25.4
  9
$DIMLFAC
 40
1.0
  9
$DIMTOFL
 70
     1
  9
$DIMTVP
 40
0.0
  9
$DIMTIX
 70
     0
  9
$DIMSOXD
 70
     0
  9
$DIMSAH
 70
     1
  9
$DIMBLK1
  1
OPEN30
  9
$DIMBLK2
  1
OPEN30
  9
$DIMSTYLE
  2
NEWX10
  9
$DIMCLRD
 70
   256
  9
$DIMCLRE
 70
   256
  9
$DIMCLRT
 70
   201
  9
$DIMTFAC
 40
0.7
  9
$DIMGAP
 40
0.7
  9
$LUNITS
 70
     2
  9
$LUPREC
 70
     4
  9
$SKETCHINC
 40
1.0
  9
$FILLETRAD
 40
0.0
  9
$AUNITS
 70
     0
  9
$AUPREC
 70
     2
  9
$MENU
  1
acad
  9
$ELEVATION
 40
0.0
  9
$PELEVATION
 40
0.0
  9
$THICKNESS
 40
0.0
  9
$LIMCHECK
 70
     0
  9
$CHAMFERA
 40
1.0
  9
$CHAMFERB
 40
1.0
  9
$SKPOLY
 70
     0
  9
$TDCREATE
 40
2453033.732663484
  9
$TDUPDATE
 40
2459675.736762268
  9
$TDINDWG
 40
2.3866822685
  9
$TDUSRTIMER
 40
2.3866822685
  9
$USRTIMER
 70
     1
  9
$ANGBASE
 50
0.0
  9
$ANGDIR
 70
     0
  9
$PDMODE
 70
     0
  9
$PDSIZE
 40
0.0
  9
$PLINEWID
 40
0.0
  9
$COORDS
 70
     2
  9
$SPLFRAME
 70
     0
  9
$SPLINETYPE
 70
     6
  9
$SPLINESEGS
 70
     8
  9
$ATTDIA
 70
     0
  9
$ATTREQ
 70
     1
  9
$HANDLING
 70
     1
  9
$HANDSEED
  5
21E20
  9
$SURFTAB1
 70
     6
  9
$SURFTAB2
 70
     6
  9
$SURFTYPE
 70
     6
  9
$SURFU
 70
     6
  9
$SURFV
 70
     6
  9
$UCSNAME
  2

  9
$UCSORG
 10
0.0
 20
0.0
 30
0.0
  9
$UCSXDIR
 10
1.0
 20
0.0
 30
0.0
  9
$UCSYDIR
 10
0.0
 20
1.0
 30
0.0
  9
$PUCSNAME
  2

  9
$PUCSORG
 10
0.0
 20
0.0
 30
0.0
  9
$PUCSXDIR
 10
1.0
 20
0.0
 30
0.0
  9
$PUCSYDIR
 10
0.0
 20
1.0
 30
0.0
  9
$USERI1
 70
     0
  9
$USERI2
 70
     0
  9
$USERI3
 70
     0
  9
$USERI4
 70
     0
  9
$USERI5
 70
     0
  9
$USERR1
 40
0.0
  9
$USERR2
 40
0.0
  9
$USERR3
 40
0.0
  9
$USERR4
 40
0.0
  9
$USERR5
 40
0.0
  9
$WORLDVIEW
 70
     1
  9
$SHADEDGE
 70
     3
  9
$SHADEDIF
 70
    70
  9
$TILEMODE
 70
     1
  9
$MAXACTVP
 70
    48
  9
$PLIMCHECK
 70
     0
  9
$PEXTMIN
 10
1.000000000000000E+20
 20
1.000000000000000E+20
 30
1.000000000000000E+20
  9
$PEXTMAX
 10
-1.000000000000000E+20
 20
-1.000000000000000E+20
 30
-1.000000000000000E+20
  9
$PLIMMIN
 10
0.0
 20
0.0
  9
$PLIMMAX
 10
420.0
 20
297.0
  9
$UNITMODE
 70
     0
  9
$VISRETAIN
 70
     1
  9
$PLINEGEN
 70
     0
  9
$PSLTSCALE
 70
     1
  0
ENDSEC
  0
SECTION
  2
TABLES
  0
TABLE
  2
VPORT
 70
     1
  0
VPORT
  2
*ACTIVE
 70
     0
 10
0.0
 20
0.0
 11
1.0
 21
1.0
 12
79.91183799975113
 22
-921.8107234616751
 13
0.0
 23
0.0
 14
10.0
 24
10.0
 15
10.0
 25
10.0
 16
0.0
 26
0.0
 36
1.0
 17
0.0
 27
0.0
 37
0.0
 40
473.5765672231606
 41
1.866585067319461
 42
50.0
 43
0.0
 44
0.0
 50
0.0
 51
0.0
 71
    16
 72
   100
 73
     1
 74
     1
 75
     0
 76
     0
 77
     0
 78
     0
  0
ENDTAB
  0
TABLE
  2
LTYPE
 70
    18
  0
LTYPE
  2
CONTINUOUS
 70
     0
  3
Solid line
 72
    65
 73
     0
 40
0.0
  0
LTYPE
  2
CENTER2
 70
     0
  3
Center (.5x) ___ _ ___ _ ___ _ ___ _ ___ _ ___
 72
    65
 73
     4
 40
28.575
 49
19.05
 49
-3.175
 49
3.175
 49
-3.175
  0
LTYPE
  2
PHANTOM2
 70
     0
  3
Phantom (0.5x) ___ _ _ ___ _ _ ___ _ _ ___ _ _
 72
    65
 73
     6
 40
31.75
 49
15.875
 49
-3.175
 49
3.175
 49
-3.175
 49
3.175
 49
-3.175
  0
ENDTAB
  0
TABLE
  2
LAYER
 70
    44
  0
LAYER
  2
0
 70
     0
 62
     7
  6
CONTINUOUS
  0
LAYER
  2
1CENTER
 70
     0
 62
     7
  6
CENTER2
  0
LAYER
  2
1TEXT
 70
     0
 62
     7
  6
CONTINUOUS
  0
LAYER
  2
1DIM
 70
     0
 62
     7
  6
CONTINUOUS
  0
LAYER
  2
1PHANTOM
 70
     0
 62
     7
  6
PHANTOM2
  0
LAYER
  2
01
 70
     0
 62
     1
  6
CONTINUOUS
  0
LAYER
  2
1DIM1
 70
     0
 62
     7
  6
CONTINUOUS
  0
LAYER
  2
1HATCH
 70
     0
 62
     7
  6
CONTINUOUS
  0
ENDTAB
  0
TABLE
  2
STYLE
 70
    24
  0
STYLE
  2
STANDARD
 70
     0
 40
0.0
 41
1.0
 50
0.0
 71
     0
 42
4.0
  3
txt.shx
  4
extfont.shx
  0
ENDTAB
  0
TABLE
  2
VIEW
 70
     0
  0
ENDTAB
  0
TABLE
  2
UCS
 70
     0
  0
ENDTAB
  0
TABLE
  2
APPID
 70
    16
  0
APPID
  2
ACAD
 70
     0
  0
APPID
  2
DRAWINGVARIABLESXDATA
 70
     0
  0
APPID
  2
CONTENTTABDATA
 70
     0
  0
APPID
  2
CONTENTCURRENTTAB
 70
     0
  0
APPID
  2
CONTENTBLOCKDESCRIPTION
 70
     0
  0
APPID
  2
CONTENTBLOCKICON
 70
     0
  0
APPID
  2
CONTENTLONGBLOCKNAME
 70
     0
  0
APPID
  2
ACAD_PSEXT
 70
     0
  0
APPID
  2
ACAD_DSTYLE_DIMTEXT_FILL
 70
     0
  0
APPID
  2
ACAD_MLEADERVER
 70
     0
  0
APPID
  2
ACAD_DSTYLE_DIMRADIAL_EXTE
 70
     0
  0
APPID
  2
ACADANNOTATIVE
 70
     0
  0
APPID
  2
ACAD_EXEMPT_FROM_CAD_STAND
 70
     0
  0
APPID
  2
ACDBBLOCKREPETAG
 70
     0
  0
APPID
  2
ACAD_OBJECT_CHANGE_GUID
 70
     0
  0
APPID
  2
ACAD_NAV_VCDISPLAY
 70
     0
  0
ENDTAB
  0
TABLE
  2
DIMSTYLE
 70
    10
  0
DIMSTYLE
  2
NEWX10
 70
     0
  3
 
  4

  5

  6
OPEN30
  7
OPEN30
 40
1.0
 41
2.0
 42
0.0
 43
7.0
 44
1.0
 45
0.0
 46
0.0
 47
0.0
 48
0.0
140
3.5
141
0.0
142
0.0
143
25.4
144
1.0
145
0.0
146
0.7
147
0.7
 71
     0
 72
     0
 73
     0
 74
     0
 75
     0
 76
     0
 77
     1
 78
     8
170
     0
171
     2
172
     1
173
     1
174
     0
175
     0
176
   256
177
   256
178
   201
  0
ENDTAB
  0
ENDSEC
  0
SECTION
  2
BLOCKS
  0
BLOCK
  8
0
  2
$MODEL_SPACE
 70
     0
 10
0.0
 20
0.0
 30
0.0
  3
$MODEL_SPACE
  1

  0
ENDBLK
  5
1A
  8
0
  0
BLOCK
 67
     1
  8
0
  2
$PAPER_SPACE
 70
     0
 10
0.0
 20
0.0
 30
0.0
  3
$PAPER_SPACE
  1

  0
ENDBLK
  5
17
 67
     1
  8
0
  0
BLOCK
  8
0
  2
_OPEN30
 70
     0
 10
0.0
 20
0.0
 30
0.0
  3
_OPEN30
  1

  0
LINE
  5
44
  8
0
  6
BYBLOCK
 62
     0
 10
-1.0
 20
0.26794919
 30
0.0
 11
0.0
 21
0.0
 31
0.0
  0
LINE
  5
45
  8
0
  6
BYBLOCK
 62
     0
 10
0.0
 20
0.0
 30
0.0
 11
-1.0
 21
-0.26794919
 31
0.0
  0
LINE
  5
46
  8
0
  6
BYBLOCK
 62
     0
 10
0.0
 20
0.0
 30
0.0
 11
-1.0
 21
0.0
 31
0.0
  0
ENDBLK
  5
47
  8
0
  0
BLOCK
  8
0
  2
A3WAKUKAWAJUN2017_HYOUDAI_
 70
     0
 10
0.0
 20
0.0
 30
0.0
  3
A3WAKUKAWAJUN2017_HYOUDAI_
  1

  0
LINE
  5
20318
  8
0
 10
13.26299999998673
 20
-0.0001000000000317
 30
0.0
 11
9.236999999990758
 21
8.999899999990987
 31
0.0
1001
ACAD
1000
ASC_BOUNDS
1002
{
1070
    19
1005
20359
1002
}
  0
LINE
  5
20319
  8
0
 10
5.657999999994331
 20
0.9999999999989768
 30
0.0
 11
9.236999999990758
 21
8.999999999991019
 31
0.0
1001
ACAD
1000
ASC_BOUNDS
1002
{
1070
    19
1005
20359
1002
}
  0
LINE
  5
2031A
  8
0
 10
18.59199999998134
 20
-0.2368999999997641
 30
0.0
 11
16.46099999998353
 21
5.432899999994561
 31
0.0
1001
ACAD
1000
ASC_BOUNDS
1002
{
1070
    19
1005
2035A
1002
}
  0
LINE
  5
2031B
  8
0
 10
18.59199999998134
 20
-0.2368999999997641
 30
0.0
 11
22.38199999997767
 21
8.763099999991255
 31
0.0
1001
ACAD
1000
ASC_BOUNDS
1002
{
1070
    19
1005
2035A
1002
}
  0
LINE
  5
2031C
  8
0
 10
14.32899999998563
 20
-0.2368999999997641
 30
0.0
 11
16.46099999998353
 21
5.432899999994561
 31
0.0
1001
ACAD
1000
ASC_BOUNDS
1002
{
1070
    19
1005
2035A
1002
}
  0
LINE
  5
2031D
  8
0
 10
14.32899999998563
 20
-0.2368999999997641
 30
0.0
 11
10.53899999998941
 21
8.763099999991255
 31
0.0
1001
ACAD
1000
ASC_BOUNDS
1002
{
1070
    19
1005
2035A
1002
}
  0
LINE
  5
2031E
  8
0
 10
19.53899999998043
 20
-0.0001000000000317
 30
0.0
 11
23.56599999997638
 21
8.999899999990987
 31
0.0
1001
ACAD
1000
ASC_BOUNDS
1002
{
1070
    19
1005
2035B
1002
}
  0
LINE
  5
2031F
  8
0
 10
26.97358892824991
 20
1.383099999991202
 30
0.0
 11
23.56599999997638
 21
8.999899999990987
 31
0.0
1001
ACAD
1000
ASC_BOUNDS
1002
{
1070
    19
1005
2035B
1002
}
  0
LINE
  5
20320
  8
0
 10
5.657999999994331
 20
0.9999999999989768
 30
0.0
 11
3.181999999996833
 21
4.668599999995308
 31
0.0
1001
ACAD
1000
ASC_BOUNDS
1002
{
1070
    19
1005
20359
1002
}
  0
LINE
  5
20321
  8
0
 10
4.617999999995391
 20
-0.0001000000000317
 30
0.0
 11
1.420999999998571
 21
4.736799999995242
 31
0.0
1001
ACAD
1000
ASC_BOUNDS
1002
{
1070
    19
1005
20359
1002
}
  0
LINE
  5
20322
  8
0
 10
1.420999999998571
 20
8.763099999991255
 30
0.0
 11
1.420999999998571
 21
0.0
 31
0.0
1001
ACAD
1000
ASC_BOUNDS
1002
{
1070
    19
1005
2035E
1002
}
  0
LINE
  5
20323
  8
0
 10
0.0
 20
8.763099999991255
 30
0.0
 11
0.0
 21
0.0
 31
0.0
1001
ACAD
1000
ASC_BOUNDS
1002
{
1070
    19
1005
2035E
1002
}
  0
LINE
  5
20324
  8
0
 10
6.766999999993232
 20
-0.0001000000000317
 30
0.0
 11
7.826999999992154
 21
2.368399999997621
 31
0.0
1001
ACAD
1000
ASC_BOUNDS
1002
{
1070
    19
1005
20359
1002
}
  0
LINE
  5
20325
  8
0
 10
0.0
 20
0.0
 30
0.0
 11
1.420999999998571
 21
0.0
 31
0.0
1001
ACAD
1000
ASC_BOUNDS
1002
{
1070
    19
1005
2035E
1002
}
  0
LINE
  5
20326
  8
0
 10
4.617999999995391
 20
0.0
 30
0.0
 11
6.766999999993232
 21
0.0
 31
0.0
1001
ACAD
1000
ASC_BOUNDS
1002
{
1070
    19
1005
20359
1002
}
  0
LINE
  5
20327
  8
0
 10
11.70599999998831
 20
-0.0001000000000317
 30
0.0
 11
10.64699999998936
 21
2.368399999997621
 31
0.0
1001
ACAD
1000
ASC_BOUNDS
1002
{
1070
    19
1005
20359
1002
}
  0
LINE
  5
20328
  8
0
 10
7.826999999992154
 20
2.368399999997621
 30
0.0
 11
10.64699999998936
 21
2.368399999997621
 31
0.0
1001
ACAD
1000
ASC_BOUNDS
1002
{
1070
    19
1005
20359
1002
}
  0
LINE
  5
20329
  8
0
 10
11.70599999998831
 20
0.0
 30
0.0
 11
13.26299999998673
 21
0.0
 31
0.0
1001
ACAD
1000
ASC_BOUNDS
1002
{
1070
    19
1005
20359
1002
}
  0
LINE
  5
2032A
  8
0
 10
22.15599999997789
 20
2.368399999997621
 30
0.0
 11
24.97599999997499
 21
2.368399999997621
 31
0.0
1001
ACAD
1000
ASC_BOUNDS
1002
{
1070
    19
1005
2035B
1002
}
  0
LINE
  5
2032B
  8
0
 10
19.53899999998043
 20
0.0
 30
0.0
 11
21.09599999997886
 21
0.0
 31
0.0
1001
ACAD
1000
ASC_BOUNDS
1002
{
1070
    19
1005
2035B
1002
}
  0
LINE
  5
2032C
  8
0
 10
21.09599999997886
 20
-0.0001000000000317
 30
0.0
 11
22.15599999997789
 21
2.368399999997621
 31
0.0
1001
ACAD
1000
ASC_BOUNDS
1002
{
1070
    19
1005
2035B
1002
}
  0
LINE
  5
2032D
  8
0
 10
26.02015566812236
 20
0.0330999999912365
 30
0.0
 11
24.97599999997499
 21
2.368399999997621
 31
0.0
1001
ACAD
1000
ASC_BOUNDS
1002
{
1070
    19
1005
2035B
1002
}
  0
LINE
  5
2032E
  8
0
 10
14.32399999998563
 20
3.315799999996671
 30
0.0
 11
16.46099999998353
 21
8.999899999990987
 31
0.0
1001
ACAD
1000
ASC_BOUNDS
1002
{
1070
    19
1005
2035A
1002
}
  0
LINE
  5
2032F
  8
0
 10
6.432999999993513
 20
8.763099999991255
 30
0.0
 11
3.181999999996833
 21
4.668599999995308
 31
0.0
1001
ACAD
1000
ASC_BOUNDS
1002
{
1070
    19
1005
20359
1002
}
  0
LINE
  5
20330
  8
0
 10
4.617999999995391
 20
8.763099999991255
 30
0.0
 11
1.420999999998571
 21
4.736799999995242
 31
0.0
1001
ACAD
1000
ASC_BOUNDS
1002
{
1070
    19
1005
20359
1002
}
  0
LINE
  5
20331
  8
0
 10
0.0
 20
8.763099999991255
 30
0.0
 11
1.420999999998571
 21
8.763099999991255
 31
0.0
1001
ACAD
1000
ASC_BOUNDS
1002
{
1070
    19
1005
2035E
1002
}
  0
LINE
  5
20332
  8
0
 10
4.617999999995391
 20
8.763099999991255
 30
0.0
 11
6.432999999993513
 21
8.763099999991255
 31
0.0
1001
ACAD
1000
ASC_BOUNDS
1002
{
1070
    19
1005
20359
1002
}
  0
LINE
  5
20333
  8
0
 10
14.32399999998563
 20
3.315799999996671
 30
0.0
 11
12.02999999998792
 21
8.763099999991255
 31
0.0
1001
ACAD
1000
ASC_BOUNDS
1002
{
1070
    19
1005
2035A
1002
}
  0
LINE
  5
20334
  8
0
 10
10.06399999998996
 20
3.670999999996297
 30
0.0
 11
9.236999999990758
 21
5.5200999999945
 31
0.0
1001
ACAD
1000
ASC_BOUNDS
1002
{
1070
    19
1005
20359
1002
}
  0
LINE
  5
20335
  8
0
 10
8.409999999991555
 20
3.670999999996297
 30
0.0
 11
9.236999999990758
 21
5.5200999999945
 31
0.0
1001
ACAD
1000
ASC_BOUNDS
1002
{
1070
    19
1005
20359
1002
}
  0
LINE
  5
20336
  8
0
 10
8.409999999991555
 20
3.670999999996297
 30
0.0
 11
10.06399999998996
 21
3.670999999996297
 31
0.0
1001
ACAD
1000
ASC_BOUNDS
1002
{
1070
    19
1005
20359
1002
}
  0
LINE
  5
20337
  8
0
 10
10.53899999998941
 20
8.763099999991255
 30
0.0
 11
12.02999999998792
 21
8.763099999991255
 31
0.0
1001
ACAD
1000
ASC_BOUNDS
1002
{
1070
    19
1005
2035A
1002
}
  0
LINE
  5
20338
  8
0
 10
22.7389999999773
 20
3.670999999996297
 30
0.0
 11
23.56599999997638
 21
5.5200999999945
 31
0.0
1001
ACAD
1000
ASC_BOUNDS
1002
{
1070
    19
1005
2035B
1002
}
  0
LINE
  5
20339
  8
0
 10
22.7389999999773
 20
3.670999999996297
 30
0.0
 11
24.39299999997559
 21
3.670999999996297
 31
0.0
1001
ACAD
1000
ASC_BOUNDS
1002
{
1070
    19
1005
2035B
1002
}
  0
LINE
  5
2033A
  8
0
 10
18.59799999998143
 20
3.315799999996671
 30
0.0
 11
20.89099999997916
 21
8.763099999991255
 31
0.0
1001
ACAD
1000
ASC_BOUNDS
1002
{
1070
    19
1005
2035A
1002
}
  0
LINE
  5
2033B
  8
0
 10
18.59799999998143
 20
3.315799999996671
 30
0.0
 11
16.46099999998353
 21
8.999899999990987
 31
0.0
1001
ACAD
1000
ASC_BOUNDS
1002
{
1070
    19
1005
2035A
1002
}
  0
LINE
  5
2033C
  8
0
 10
20.89099999997916
 20
8.763099999991255
 30
0.0
 11
22.38199999997767
 21
8.763099999991255
 31
0.0
1001
ACAD
1000
ASC_BOUNDS
1002
{
1070
    19
1005
2035A
1002
}
  0
LINE
  5
2033D
  8
0
 10
24.39299999997559
 20
3.670999999996297
 30
0.0
 11
23.56599999997638
 21
5.5200999999945
 31
0.0
1001
ACAD
1000
ASC_BOUNDS
1002
{
1070
    19
1005
2035B
1002
}
  0
LINE
  5
2033E
  8
0
 10
44.99999999995498
 20
-0.2368999999997641
 30
0.0
 11
40.02599999995994
 21
5.341799999994635
 31
0.0
1001
ACAD
1000
ASC_BOUNDS
1002
{
1070
    19
1005
2035D
1002
}
  0
LINE
  5
2033F
  8
0
 10
40.02599999995994
 20
5.341799999994635
 30
0.0
 11
40.02599999995994
 21
0.0
 31
0.0
1001
ACAD
1000
ASC_BOUNDS
1002
{
1070
    19
1005
2035D
1002
}
  0
LINE
  5
20340
  8
0
 10
38.60499999996136
 20
8.999999999991019
 30
0.0
 11
38.60499999996136
 21
0.0
 31
0.0
1001
ACAD
1000
ASC_BOUNDS
1002
{
1070
    19
1005
2035D
1002
}
  0
LINE
  5
20341
  8
0
 10
44.99999999995498
 20
8.763099999991255
 30
0.0
 11
44.99999999995498
 21
-0.2368999999997641
 31
0.0
1001
ACAD
1000
ASC_BOUNDS
1002
{
1070
    19
1005
2035D
1002
}
  0
LINE
  5
20342
  8
0
 10
38.60499999996136
 20
0.0
 30
0.0
 11
40.02599999995994
 21
0.0
 31
0.0
1001
ACAD
1000
ASC_BOUNDS
1002
{
1070
    19
1005
2035D
1002
}
  0
LINE
  5
20343
  8
0
 10
43.57899999995641
 20
3.421199999996588
 30
0.0
 11
38.60499999996136
 21
8.999899999990987
 31
0.0
1001
ACAD
1000
ASC_BOUNDS
1002
{
1070
    19
1005
2035D
1002
}
  0
LINE
  5
20344
  8
0
 10
43.57899999995641
 20
8.763099999991255
 30
0.0
 11
43.57899999995641
 21
3.421199999996588
 31
0.0
1001
ACAD
1000
ASC_BOUNDS
1002
{
1070
    19
1005
2035D
1002
}
  0
LINE
  5
20345
  8
0
 10
43.57899999995641
 20
8.763099999991255
 30
0.0
 11
44.99999999995498
 21
8.763099999991255
 31
0.0
1001
ACAD
1000
ASC_BOUNDS
1002
{
1070
    19
1005
2035D
1002
}
  0
LINE
  5
20346
  8
0
 10
37.67199999996831
 20
8.763099999991255
 30
0.0
 11
36.23199999996837
 21
8.763099999991255
 31
0.0
  0
LINE
  5
20347
  8
0
 10
31.64199999996833
 20
8.763099999991255
 30
0.0
 11
31.64199999996833
 21
2.481619422925121
 31
0.0
  0
LINE
  5
20348
  8
0
 10
37.67199999996831
 20
8.763099999991255
 30
0.0
 11
37.67199999996831
 21
2.481619422925121
 31
0.0
  0
LINE
  5
20349
  8
0
 10
36.23199999996837
 20
8.763099999991255
 30
0.0
 11
36.23199999996837
 21
2.481619422925064
 31
0.0
  0
LINE
  5
2034A
  8
0
 10
33.08199999996839
 20
8.763099999991255
 30
0.0
 11
33.08199999996839
 21
2.481619422925121
 31
0.0
  0
ARC
  5
2034B
  8
0
 10
34.65699999996832
 20
3.183099999991214
 30
0.0
 40
3.420000000000007
 50
240.0000000000255
 51
299.9999999999766
  0
ARC
  5
2034C
  8
0
 10
34.65699999996832
 20
3.183099999991214
 30
0.0
 40
1.97999999999999
 50
240.000000000026
 51
299.9999999999703
  0
LINE
  5
2034D
  8
0
 10
33.08199999996828
 20
8.763099999991255
 30
0.0
 11
31.64199999996833
 21
8.763099999991255
 31
0.0
  0
ARC
  5
2034E
  8
0
 10
35.06199999996829
 20
2.481619422925064
 30
0.0
 40
1.17
 50
299.9999999999699
 51
0.0
  0
ARC
  5
2034F
  8
0
 10
34.25199999996835
 20
2.481619422925121
 30
0.0
 40
1.17
 50
180.0
 51
240.0000000000238
  0
ARC
  5
20350
  8
0
 10
35.06199999996841
 20
2.481619422925121
 30
0.0
 40
2.61
 50
299.9999999999756
 51
0.0
  0
ARC
  5
20351
  8
0
 10
34.25199999996835
 20
2.481619422925121
 30
0.0
 40
2.61
 50
180.0
 51
240.0000000000244
  0
LINE
  5
20352
  8
0
 10
29.30199999996933
 20
8.763099999991255
 30
0.0
 11
30.74199999996927
 21
8.763099999991255
 31
0.0
1001
ACAD
1000
ASC_BOUNDS
1002
{
1070
    19
1005
2035B
1002
}
  0
LINE
  5
20353
  8
0
 10
30.74199999996927
 20
8.763099999991255
 30
0.0
 11
30.74199999996927
 21
2.373099999991211
 31
0.0
1001
ACAD
1000
ASC_BOUNDS
1002
{
1070
    19
1005
2035B
1002
}
  0
LINE
  5
20354
  8
0
 10
26.02015566812236
 20
0.0330999999912365
 30
0.0
 11
28.40199999996923
 21
0.0330999999912365
 31
0.0
1001
ACAD
1000
ASC_BOUNDS
1002
{
1070
    19
1005
2035B
1002
}
  0
LINE
  5
20355
  8
0
 10
29.30199999996933
 20
8.763099999991255
 30
0.0
 11
29.30199999996933
 21
2.283099999991236
 31
0.0
1001
ACAD
1000
ASC_BOUNDS
1002
{
1070
    19
1005
2035B
1002
}
  0
LINE
  5
20356
  8
0
 10
26.97358892824991
 20
1.383099999991202
 30
0.0
 11
28.40199999996923
 21
1.383099999991202
 31
0.0
1001
ACAD
1000
ASC_BOUNDS
1002
{
1070
    19
1005
2035B
1002
}
  0
ARC
  5
20357
  8
0
 10
28.40199999996923
 20
2.283099999991236
 30
0.0
 40
0.9
 50
270.0
 51
0.0
1001
ACAD
1000
ASC_BOUNDS
1002
{
1070
    19
1005
2035B
1002
}
  0
ARC
  5
20358
  8
0
 10
28.40199999996923
 20
2.373099999991211
 30
0.0
 40
2.34
 50
270.0
 51
0.0
1001
ACAD
1000
ASC_BOUNDS
1002
{
1070
    19
1005
2035B
1002
}
  0
INSERT
  5
20359
  8
0
  2
*X117
 10
0.0
 20
0.0
 30
0.0
1001
ACAD
1000
HATCH
1002
{
1070
    19
1000
ANSI37
1040
0.15
1040
0.0
1000
ASC_BOUNDS
1070
     2
1070
     2
1070
    12
1005
20318
1005
20319
1005
20320
1005
2032F
1005
20332
1005
20330
1005
20321
1005
20326
1005
20324
1005
20328
1005
20327
1005
20329
1070
     2
1070
     3
1005
20334
1005
20336
1005
20335
1000
ASC_SEEDPOINT
1011
3.614004224891801
1021
2.996669441146025
1031
0.0
1021
2.996669441146025
1031
0.0
1000
R14_HATCH_DATA
1000
20359
1011
1.0
1021
0.0
1031
0.0
1021
0.0
1031
0.0
1011
0.0
1021
1.0
1031
0.0
1021
1.0
1031
0.0
1011
0.0
1021
0.0
1031
1.0
1021
0.0
1031
1.0
1040
0.0
1010
0.0
1020
0.0
1030
1.0
1000
ANSI37
1070
     0
1070
     1
1071
        2
1071
        7
1070
     0
1070
     1
1071
       17
1040
13.26299999998673
1040
-0.0001000000000317
1040
9.236999999990758
1040
8.999899999990987
1040
9.236999999990758
1040
8.999999999991019
1040
5.657999999994331
1040
0.9999999999989768
1040
3.181999999996833
1040
4.668599999995308
1040
6.432999999993513
1040
8.763099999991255
1040
4.617999999995391
1040
8.763099999991255
1040
1.420999999998571
1040
4.736799999995242
1040
4.617999999995391
1040
-0.0001000000000317
1040
4.617999999995391
1040
0.0
1040
6.766999999993232
1040
0.0
1040
6.766999999993232
1040
-0.0001000000000317
1040
7.826999999992154
1040
2.368399999997621
1040
10.64699999998936
1040
2.368399999997621
1040
11.70599999998831
1040
-0.0001000000000317
1040
11.70599999998831
1040
0.0
1040
13.26299999998673
1040
0.0
1071
       12
1005
20318
1005
20319
1005
20320
1005
2032F
1005
20332
1005
20330
1005
20321
1005
20326
1005
20324
1005
20328
1005
20327
1005
20329
1071
       22
1070
     0
1070
     1
1071
        3
1040
9.236999999990758
1040
5.5200999999945
1040
10.06399999998996
1040
3.670999999996297
1040
8.409999999991555
1040
3.670999999996297
1071
        3
1005
20334
1005
20336
1005
20335
1070
     0
1070
     1
1040
0.0
1040
0.15
1070
     0
1070
     2
1040
0.7853981633974483
1040
49.29960901727088
1040
-10.17736998311392
1040
-0.3367596045400932
1040
0.3367596045400932
1070
     0
1040
2.356194490192345
1040
49.29960901727088
1040
-10.17736998311392
1040
-0.3367596045400932
1040
-0.3367596045400932
1070
     0
1040
0.0110235143455945
1071
        2
1040
3.614004224891801
1040
2.996669441146025
1040
0.0
1040
3.614004224891801
1040
2.996669441146025
1040
0.0
1002
}
  0
INSERT
  5
2035A
  8
0
  2
*X118
 10
0.0
 20
0.0
 30
0.0
1001
ACAD
1000
HATCH
1002
{
1070
    19
1000
ANSI37
1040
0.15
1040
0.0
1000
ASC_BOUNDS
1070
     1
1070
     2
1070
    10
1005
2031A
1005
2031B
1005
2033C
1005
2033A
1005
2033B
1005
2032E
1005
20333
1005
20337
1005
2031D
1005
2031C
1000
ASC_SEEDPOINT
1011
14.73245321214324
1021
2.798246178283421
1031
0.0
1021
2.798246178283421
1031
0.0
1000
R14_HATCH_DATA
1000
2035A
1011
1.0
1021
0.0
1031
0.0
1021
0.0
1031
0.0
1011
0.0
1021
1.0
1031
0.0
1021
1.0
1031
0.0
1011
0.0
1021
0.0
1031
1.0
1021
0.0
1031
1.0
1040
0.0
1010
0.0
1020
0.0
1030
1.0
1000
ANSI37
1070
     0
1070
     1
1071
        1
1071
        7
1070
     0
1070
     1
1071
       10
1040
16.46099999998353
1040
5.432899999994561
1040
18.59199999998134
1040
-0.2368999999997641
1040
22.38199999997767
1040
8.763099999991255
1040
20.89099999997916
1040
8.763099999991255
1040
18.59799999998143
1040
3.315799999996671
1040
16.46099999998353
1040
8.999899999990987
1040
14.32399999998563
1040
3.315799999996671
1040
12.02999999998792
1040
8.763099999991255
1040
10.53899999998941
1040
8.763099999991255
1040
14.32899999998563
1040
-0.2368999999997641
1071
       10
1005
2031A
1005
2031B
1005
2033C
1005
2033A
1005
2033B
1005
2032E
1005
20333
1005
20337
1005
2031D
1005
2031C
1070
     0
1070
     1
1040
0.0
1040
0.15
1070
     0
1070
     2
1040
0.7853981633974483
1040
49.29960901727088
1040
-10.17736998311392
1040
-0.3367596045400932
1040
0.3367596045400932
1070
     0
1040
2.356194490192345
1040
49.29960901727088
1040
-10.17736998311392
1040
-0.3367596045400932
1040
-0.3367596045400932
1070
     0
1040
0.0110235143455945
1071
        1
1040
14.73245321214324
1040
2.798246178283421
1040
0.0
1002
}
  0
INSERT
  5
2035B
  8
0
  2
*X119
 10
0.0
 20
0.0
 30
0.0
1001
ACAD
1000
HATCH
1002
{
1070
    19
1000
ANSI37
1040
0.15
1040
0.0
1000
ASC_BOUNDS
1070
     2
1070
     2
1070
    13
1005
2031E
1005
2032B
1005
2032C
1005
2032A
1005
2032D
1005
20354
1005
20358
1005
20353
1005
20352
1005
20355
1005
20357
1005
20356
1005
2031F
1070
     2
1070
     3
1005
20338
1005
2033D
1005
20339
1000
ASC_SEEDPOINT
1011
21.97929957367762
1021
3.294304244259308
1031
0.0
1021
3.294304244259308
1031
0.0
1000
R14_HATCH_DATA
1000
2035B
1011
1.0
1021
0.0
1031
0.0
1021
0.0
1031
0.0
1011
0.0
1021
1.0
1031
0.0
1021
1.0
1031
0.0
1011
0.0
1021
0.0
1031
1.0
1021
0.0
1031
1.0
1040
0.0
1010
0.0
1020
0.0
1030
1.0
1000
ANSI37
1070
     0
1070
     1
1071
        2
1071
        7
1070
     1
1070
     1
1071
       15
1040
23.56599999997638
1040
8.999899999990987
1040
0.0
1040
19.53899999998043
1040
-0.0001000000000317
1040
0.0
1040
19.53899999998043
1040
0.0
1040
0.0
1040
21.09599999997886
1040
0.0
1040
0.0
1040
21.09599999997886
1040
-0.0001000000000317
1040
0.0
1040
22.15599999997789
1040
2.368399999997621
1040
0.0
1040
24.97599999997499
1040
2.368399999997621
1040
0.0
1040
26.02015566812236
1040
0.0330999999912365
1040
0.0
1040
28.40199999996923
1040
0.0330999999912365
1040
0.414213562373095
1040
30.74199999996923
1040
2.373099999991211
1040
0.0
1040
30.74199999996927
1040
8.763099999991255
1040
0.0
1040
29.30199999996933
1040
8.763099999991255
1040
0.0
1040
29.30199999996933
1040
2.283099999991236
1040
-0.414213562373095
1040
28.40199999996923
1040
1.383099999991237
1040
0.0
1040
26.97358892824991
1040
1.383099999991202
1040
0.0
1071
       13
1005
2031E
1005
2032B
1005
2032C
1005
2032A
1005
2032D
1005
20354
1005
20358
1005
20353
1005
20352
1005
20355
1005
20357
1005
20356
1005
2031F
1071
       22
1070
     0
1070
     1
1071
        3
1040
22.7389999999773
1040
3.670999999996297
1040
23.56599999997638
1040
5.5200999999945
1040
24.39299999997559
1040
3.670999999996297
1071
        3
1005
20338
1005
2033D
1005
20339
1070
     0
1070
     1
1040
0.0
1040
0.15
1070
     0
1070
     2
1040
0.7853981633974483
1040
49.29960901727088
1040
-10.17736998311392
1040
-0.3367596045400932
1040
0.3367596045400932
1070
     0
1040
2.356194490192345
1040
49.29960901727088
1040
-10.17736998311392
1040
-0.3367596045400932
1040
-0.3367596045400932
1070
     0
1040
0.0110235143455945
1071
        2
1040
21.97929957367762
1040
3.294304244259308
1040
0.0
1040
21.97929957367762
1040
3.294304244259308
1040
0.0
1002
}
  0
INSERT
  5
2035C
  8
0
  2
*X120
 10
0.0
 20
0.0
 30
0.0
1001
ACAD
1000
HATCH
1002
{
1070
    19
1000
ANSI37
1040
0.15
1040
0.0
1000
R14_HATCH_DATA
1000
2035C
1011
1.0
1021
0.0
1031
0.0
1021
0.0
1031
0.0
1011
0.0
1021
1.0
1031
0.0
1021
1.0
1031
0.0
1011
0.0
1021
0.0
1031
1.0
1021
0.0
1031
1.0
1040
0.0
1010
0.0
1020
0.0
1030
1.0
1000
ANSI37
1070
     0
1070
     1
1071
        1
1071
        7
1070
     1
1070
     1
1071
       12
1040
31.64199999996833
1040
2.481619422925121
1040
0.2679491924310942
1040
32.94699999997067
1040
0.2212931190493919
1040
0.2679491924301353
1040
36.36699999995983
1040
0.2212931190459813
1040
0.2679491924321411
1040
37.67199999996831
1040
2.481619422928361
1040
0.0
1040
37.67199999996831
1040
8.763099999991255
1040
0.0
1040
36.23199999996837
1040
8.763099999991255
1040
0.0
1040
36.23199999996837
1040
2.481619422925064
1040
-0.2679491924310291
1040
35.64699999996708
1040
1.468369700498386
1040
-0.267949192430519
1040
33.66699999997093
1040
1.468369700497703
1040
-0.267949192431809
1040
33.08199999996839
1040
2.481619422926997
1040
0.0
1040
33.08199999996839
1040
8.763099999991255
1040
0.0
1040
31.64199999996833
1040
8.763099999991255
1040
0.0
1071
        0
1070
     0
1070
     1
1040
0.0
1040
0.15
1070
     0
1070
     2
1040
0.7853981633974483
1040
49.29960901727088
1040
-10.17736998311392
1040
-0.3367596045400932
1040
0.3367596045400932
1070
     0
1040
2.356194490192345
1040
49.29960901727088
1040
-10.17736998311392
1040
-0.3367596045400932
1040
-0.3367596045400932
1070
     0
1040
0.0110235143455945
1071
        1
1040
32.30357378967278
1040
3.988785755459219
1040
0.0
1002
}
  0
INSERT
  5
2035D
  8
0
  2
*X121
 10
0.0
 20
0.0
 30
0.0
1001
ACAD
1000
HATCH
1002
{
1070
    19
1000
ANSI37
1040
0.15
1040
0.0
1000
ASC_BOUNDS
1070
     1
1070
     2
1070
     8
1005
2033E
1005
20341
1005
20345
1005
20344
1005
20343
1005
20340
1005
20342
1005
2033F
1000
ASC_SEEDPOINT
1011
39.74896370716704
1021
4.484843821435049
1031
0.0
1021
4.484843821435049
1031
0.0
1000
R14_HATCH_DATA
1000
2035D
1011
1.0
1021
0.0
1031
0.0
1021
0.0
1031
0.0
1011
0.0
1021
1.0
1031
0.0
1021
1.0
1031
0.0
1011
0.0
1021
0.0
1031
1.0
1021
0.0
1031
1.0
1040
0.0
1010
0.0
1020
0.0
1030
1.0
1000
ANSI37
1070
     0
1070
     1
1071
        1
1071
        7
1070
     0
1070
     1
1071
        9
1040
40.02599999995994
1040
5.341799999994635
1040
44.99999999995498
1040
-0.2368999999997641
1040
44.99999999995498
1040
8.763099999991255
1040
43.57899999995641
1040
8.763099999991255
1040
43.57899999995641
1040
3.421199999996588
1040
38.60499999996136
1040
8.999899999990987
1040
38.60499999996136
1040
8.999999999991019
1040
38.60499999996136
1040
0.0
1040
40.02599999995994
1040
0.0
1071
        8
1005
2033E
1005
20341
1005
20345
1005
20344
1005
20343
1005
20340
1005
20342
1005
2033F
1070
     0
1070
     1
1040
0.0
1040
0.15
1070
     0
1070
     2
1040
0.7853981633974483
1040
49.29960901727088
1040
-10.17736998311392
1040
-0.3367596045400932
1040
0.3367596045400932
1070
     0
1040
2.356194490192345
1040
49.29960901727088
1040
-10.17736998311392
1040
-0.3367596045400932
1040
-0.3367596045400932
1070
     0
1040
0.0110235143455945
1071
        1
1040
39.74896370716704
1040
4.484843821435049
1040
0.0
1002
}
  0
INSERT
  5
2035E
  8
0
  2
*X122
 10
0.0
 20
0.0
 30
0.0
1001
ACAD
1000
HATCH
1002
{
1070
    19
1000
ANSI37
1040
0.15
1040
0.0
1000
ASC_BOUNDS
1070
     1
1070
     2
1070
     4
1005
20322
1005
20331
1005
20323
1005
20325
1000
ASC_SEEDPOINT
1011
1.079051535452663
1021
4.148538732891836
1031
0.0
1021
4.148538732891836
1031
0.0
1000
R14_HATCH_DATA
1000
2035E
1011
1.0
1021
0.0
1031
0.0
1021
0.0
1031
0.0
1011
0.0
1021
1.0
1031
0.0
1021
1.0
1031
0.0
1011
0.0
1021
0.0
1031
1.0
1021
0.0
1031
1.0
1040
0.0
1010
0.0
1020
0.0
1030
1.0
1000
ANSI37
1070
     0
1070
     1
1071
        1
1071
        7
1070
     0
1070
     1
1071
        4
1040
1.420999999998571
1040
0.0
1040
1.420999999998571
1040
8.763099999991255
1040
0.0
1040
8.763099999991255
1040
0.0
1040
0.0
1071
        4
1005
20322
1005
20331
1005
20323
1005
20325
1070
     0
1070
     1
1040
0.0
1040
0.15
1070
     0
1070
     2
1040
0.7853981633974483
1040
49.29960901727088
1040
-10.17736998311392
1040
-0.3367596045400932
1040
0.3367596045400932
1070
     0
1040
2.356194490192345
1040
49.29960901727088
1040
-10.17736998311392
1040
-0.3367596045400932
1040
-0.3367596045400932
1070
     0
1040
0.0053004257112761
1071
        1
1040
1.079051535452663
1040
4.148538732891836
1040
0.0
1002
}
  0
ENDBLK
  5
20A16
  8
0
  0
BLOCK
  8
0
  2
*X117
 70
     1
 10
0.0
 20
0.0
 30
0.0
  3
*X117
  1

  0
LINE
  5
21C87
  8
0
  6
CONTINUOUS
 10
3.418023043697893
 20
7.251849696850613
 30
0.0
 11
4.929273346838536
 21
8.763099999991255
 31
0.0
  0
LINE
  5
21C88
  8
0
  6
CONTINUOUS
 10
1.483656411257782
 20
4.643963855330318
 30
0.0
 11
5.60279255591872
 21
8.763099999991255
 31
0.0
  0
LINE
  5
21C89
  8
0
  6
CONTINUOUS
 10
1.755053947328235
 20
4.241842182320584
 30
0.0
 11
6.276311764998907
 21
8.763099999991255
 31
0.0
  0
LINE
  5
21C8A
  8
0
  6
CONTINUOUS
 10
2.026451483398688
 20
3.839720509310849
 30
0.0
 11
4.441040904851878
 21
6.254309930764039
 31
0.0
  0
LINE
  5
21C8B
  8
0
  6
CONTINUOUS
 10
2.297849019469139
 20
3.437598836301114
 30
0.0
 11
3.321765168359338
 21
4.461514985191313
 31
0.0
  0
LINE
  5
21C8C
  8
0
  6
CONTINUOUS
 10
2.569246555539591
 20
3.03547716329138
 30
0.0
 11
3.593163397972743
 21
4.059394005724531
 31
0.0
  0
LINE
  5
21C8D
  8
0
  6
CONTINUOUS
 10
2.840644091610043
 20
2.633355490281646
 30
0.0
 11
3.864561627586149
 21
3.657273026257751
 31
0.0
  0
LINE
  5
21C8E
  8
0
  6
CONTINUOUS
 10
3.112041627680496
 20
2.231233817271911
 30
0.0
 11
4.135959857199554
 21
3.25515204679097
 31
0.0
  0
LINE
  5
21C8F
  8
0
  6
CONTINUOUS
 10
3.383439163750948
 20
1.829112144262177
 30
0.0
 11
4.40735808681296
 21
2.853031067324189
 31
0.0
  0
LINE
  5
21C90
  8
0
  6
CONTINUOUS
 10
3.654836699821399
 20
1.426990471252442
 30
0.0
 11
4.678756316426365
 21
2.450910087857407
 31
0.0
  0
LINE
  5
21C91
  8
0
  6
CONTINUOUS
 10
3.926234235891853
 20
1.024868798242709
 30
0.0
 11
4.95015454603977
 21
2.048789108390626
 31
0.0
  0
LINE
  5
21C92
  8
0
  6
CONTINUOUS
 10
4.197631771962304
 20
0.6227471252329737
 30
0.0
 11
5.221552775653176
 21
1.646668128923846
 31
0.0
  0
LINE
  5
21C93
  8
0
  6
CONTINUOUS
 10
8.715877546767851
 20
7.835069736359266
 30
0.0
 11
9.435953450375058
 21
8.555145639966472
 31
0.0
  0
LINE
  5
21C94
  8
0
  6
CONTINUOUS
 10
8.170620868422267
 20
6.616293848933497
 30
0.0
 11
9.644120833743461
 21
8.08979381425469
 31
0.0
  0
LINE
  5
21C95
  8
0
  6
CONTINUOUS
 10
7.625364190076684
 20
5.397517961507727
 30
0.0
 11
9.852288217111864
 21
7.624441988542907
 31
0.0
  0
LINE
  5
21C96
  8
0
  6
CONTINUOUS
 10
7.080107511731101
 20
4.178742074081957
 30
0.0
 11
10.06045560048027
 21
7.159090162831124
 31
0.0
  0
LINE
  5
21C97
  8
0
  6
CONTINUOUS
 10
6.534850833385518
 20
2.959966186656187
 30
0.0
 11
10.26862298384867
 21
6.693738337119342
 31
0.0
  0
LINE
  5
21C98
  8
0
  6
CONTINUOUS
 10
4.469029308032756
 20
0.2206254522232385
 30
0.0
 11
5.492951005266582
 21
1.244547149457064
 31
0.0
  0
LINE
  5
21C99
  8
0
  6
CONTINUOUS
 10
5.989594155039935
 20
1.741190299230417
 30
0.0
 11
8.806950407233131
 21
4.558546551423613
 31
0.0
  0
LINE
  5
21C9A
  8
0
  6
CONTINUOUS
 10
9.401251593263643
 20
5.152847737454126
 30
0.0
 11
10.47679036721708
 21
6.228386511407559
 31
0.0
  0
LINE
  5
21C9B
  8
0
  6
CONTINUOUS
 10
4.921837203428691
 20
-0.0000858614610131
 30
0.0
 11
8.592923064886001
 21
3.670999999996297
 31
0.0
  0
LINE
  5
21C9C
  8
0
  6
CONTINUOUS
 10
9.609390446785305
 20
4.6874673818956
 30
0.0
 11
10.68495775058548
 21
5.763034685695775
 31
0.0
  0
LINE
  5
21C9D
  8
0
  6
CONTINUOUS
 10
5.595387755019432
 20
-0.0000545189504582
 30
0.0
 11
7.716137258923768
 21
2.120694984953879
 31
0.0
  0
LINE
  5
21C9E
  8
0
  6
CONTINUOUS
 10
6.268938306610172
 20
-0.000023176439905
 30
0.0
 11
7.170485805526503
 21
0.9015243224764267
 31
0.0
  0
LINE
  5
21C9F
  8
0
  6
CONTINUOUS
 10
7.963842273967511
 20
2.368399999997621
 30
0.0
 11
9.266442273966188
 21
3.670999999996297
 31
0.0
  0
LINE
  5
21CA0
  8
0
  6
CONTINUOUS
 10
8.637361483047696
 20
2.368399999997621
 30
0.0
 11
9.939961483046375
 21
3.670999999996297
 31
0.0
  0
LINE
  5
21CA1
  8
0
  6
CONTINUOUS
 10
9.817529300306965
 20
4.222087026337075
 30
0.0
 11
10.89312513395388
 21
5.297682859983993
 31
0.0
  0
LINE
  5
21CA2
  8
0
  6
CONTINUOUS
 10
10.02566815382863
 20
3.756706670778549
 30
0.0
 11
11.10129251732229
 21
4.832331034272211
 31
0.0
  0
LINE
  5
21CA3
  8
0
  6
CONTINUOUS
 10
9.310880692127883
 20
2.368399999997621
 30
0.0
 11
11.30945990069069
 21
4.366979208560428
 31
0.0
  0
LINE
  5
21CA4
  8
0
  6
CONTINUOUS
 10
9.98439990120807
 20
2.36839999999762
 30
0.0
 11
11.5176272840591
 21
3.901627382848645
 31
0.0
  0
LINE
  5
21CA5
  8
0
  6
CONTINUOUS
 10
10.65037369446246
 20
2.36085458417182
 30
0.0
 11
11.7257946674275
 21
3.436275557136862
 31
0.0
  0
LINE
  5
21CA6
  8
0
  6
CONTINUOUS
 10
10.85847197087848
 20
1.895433651507656
 30
0.0
 11
11.9339620507959
 21
2.97092373142508
 31
0.0
  0
LINE
  5
21CA7
  8
0
  6
CONTINUOUS
 10
11.0665702472945
 20
1.430012718843491
 30
0.0
 11
12.14212943416431
 21
2.505571905713296
 31
0.0
  0
LINE
  5
21CA8
  8
0
  6
CONTINUOUS
 10
11.27466852371052
 20
0.9645917861793256
 30
0.0
 11
12.35029681753271
 21
2.040220080001513
 31
0.0
  0
LINE
  5
21CA9
  8
0
  6
CONTINUOUS
 10
11.48276680012654
 20
0.4991708535151611
 30
0.0
 11
12.55846420090111
 21
1.57486825428973
 31
0.0
  0
LINE
  5
21CAA
  8
0
  6
CONTINUOUS
 10
11.69086507654257
 20
0.0337499208509957
 30
0.0
 11
12.76663158426952
 21
1.109516428577947
 31
0.0
  0
LINE
  5
21CAB
  8
0
  6
CONTINUOUS
 10
12.33057447873954
 20
-0.0000598860322123
 30
0.0
 11
12.97479896763792
 21
0.6441646028661663
 31
0.0
  0
LINE
  5
21CAC
  8
0
  6
CONTINUOUS
 10
13.00413694809395
 20
-0.0000166257579952
 30
0.0
 11
13.18296635100632
 21
0.1788127771543824
 31
0.0
  0
LINE
  5
21CAD
  8
0
  6
CONTINUOUS
 10
4.772852165289667
 20
-0.000092794222212
 30
0.0
 11
4.296495091028902
 21
0.4762642800385528
 31
0.0
  0
LINE
  5
21CAE
  8
0
  6
CONTINUOUS
 10
5.446340034776103
 20
-0.0000614546284616
 30
0.0
 11
2.898195908335625
 21
2.548082671812017
 31
0.0
  0
LINE
  5
21CAF
  8
0
  6
CONTINUOUS
 10
6.119827904262539
 20
-0.0000301150347113
 30
0.0
 11
1.499896725642348
 21
4.61990106358548
 31
0.0
  0
LINE
  5
21CB0
  8
0
  6
CONTINUOUS
 10
6.775136745476159
 20
0.0181802528318542
 30
0.0
 11
5.699826040202669
 21
1.093490958105344
 31
0.0
  0
LINE
  5
21CB1
  8
0
  6
CONTINUOUS
 10
6.983376846288489
 20
0.4834593610997118
 30
0.0
 11
5.908008617934405
 21
1.558827589453796
 31
0.0
  0
LINE
  5
21CB2
  8
0
  6
CONTINUOUS
 10
5.377063484962296
 20
1.416253513345719
 30
0.0
 11
1.702276957014131
 21
5.091040041293883
 31
0.0
  0
LINE
  5
21CB3
  8
0
  6
CONTINUOUS
 10
3.978745891735324
 20
3.488090315652877
 30
0.0
 11
2.000373521109399
 21
5.466462686278803
 31
0.0
  0
LINE
  5
21CB4
  8
0
  6
CONTINUOUS
 10
7.191616947100819
 20
0.948738469367568
 30
0.0
 11
6.11619119566614
 21
2.024164220802247
 31
0.0
  0
LINE
  5
21CB5
  8
0
  6
CONTINUOUS
 10
7.399857047913149
 20
1.414017577635424
 30
0.0
 11
6.324373773397875
 21
2.489500852150698
 31
0.0
  0
LINE
  5
21CB6
  8
0
  6
CONTINUOUS
 10
7.608097148725479
 20
1.879296685903281
 30
0.0
 11
6.53255635112961
 21
2.95483748349915
 31
0.0
  0
LINE
  5
21CB7
  8
0
  6
CONTINUOUS
 10
7.816337249537808
 20
2.344575794171138
 30
0.0
 11
6.740738928861345
 21
3.420174114847601
 31
0.0
  0
LINE
  5
21CB8
  8
0
  6
CONTINUOUS
 10
3.310241080789734
 20
4.830114335678653
 30
0.0
 11
2.298470085204666
 21
5.84188533126372
 31
0.0
  0
LINE
  5
21CB9
  8
0
  6
CONTINUOUS
 10
3.60832983563551
 20
5.205544789913063
 30
0.0
 11
2.596566649299935
 21
6.217307976248638
 31
0.0
  0
LINE
  5
21CBA
  8
0
  6
CONTINUOUS
 10
3.906418590481286
 20
5.580975244147473
 30
0.0
 11
2.894663213395203
 21
6.592730621233557
 31
0.0
  0
LINE
  5
21CBB
  8
0
  6
CONTINUOUS
 10
4.204507345327062
 20
5.956405698381884
 30
0.0
 11
3.192759777490472
 21
6.968153266218474
 31
0.0
  0
LINE
  5
21CBC
  8
0
  6
CONTINUOUS
 10
8.466032252791512
 20
2.368399999997621
 30
0.0
 11
6.948921506593081
 21
3.885510746196053
 31
0.0
  0
LINE
  5
21CBD
  8
0
  6
CONTINUOUS
 10
9.139551461871699
 20
2.36839999999762
 30
0.0
 11
7.157104084324816
 21
4.350847377544504
 31
0.0
  0
LINE
  5
21CBE
  8
0
  6
CONTINUOUS
 10
4.502596100172839
 20
6.331836152616295
 30
0.0
 11
3.49085634158574
 21
7.343575911203393
 31
0.0
  0
LINE
  5
21CBF
  8
0
  6
CONTINUOUS
 10
4.800684855018615
 20
6.707266606850705
 30
0.0
 11
3.788952905681008
 21
7.718998556188312
 31
0.0
  0
LINE
  5
21CC0
  8
0
  6
CONTINUOUS
 10
12.18154012887317
 20
-0.0000694579236642
 30
0.0
 11
11.32140332908496
 21
0.8600673418645499
 31
0.0
  0
LINE
  5
21CC1
  8
0
  6
CONTINUOUS
 10
12.85501608323566
 20
-0.0000262032059659
 30
0.0
 11
10.77672456435345
 21
2.078265315676246
 31
0.0
  0
LINE
  5
21CC2
  8
0
  6
CONTINUOUS
 10
9.813070670951886
 20
2.36839999999762
 30
0.0
 11
8.51047067095321
 21
3.670999999996297
 31
0.0
  0
LINE
  5
21CC3
  8
0
  6
CONTINUOUS
 10
10.48658988003207
 20
2.36839999999762
 30
0.0
 11
9.183989880033396
 21
3.670999999996297
 31
0.0
  0
LINE
  5
21CC4
  8
0
  6
CONTINUOUS
 10
8.441048632286794
 20
3.740422038662712
 30
0.0
 11
7.365286662056551
 21
4.816184008892956
 31
0.0
  0
LINE
  5
21CC5
  8
0
  6
CONTINUOUS
 10
8.649187485808454
 20
4.205802394221237
 30
0.0
 11
7.573469239788285
 21
5.281520640241407
 31
0.0
  0
LINE
  5
21CC6
  8
0
  6
CONTINUOUS
 10
5.098773609864391
 20
7.082697061085115
 30
0.0
 11
4.087049469776277
 21
8.09442120117323
 31
0.0
  0
LINE
  5
21CC7
  8
0
  6
CONTINUOUS
 10
5.396862364710167
 20
7.458127515319526
 30
0.0
 11
4.385146033871544
 21
8.469843846158149
 31
0.0
  0
LINE
  5
21CC8
  8
0
  6
CONTINUOUS
 10
13.04801363231285
 20
0.4804954567970334
 30
0.0
 11
9.85750908911358
 21
3.670999999996297
 31
0.0
  0
LINE
  5
21CC9
  8
0
  6
CONTINUOUS
 10
8.857326339330116
 20
4.671182749779763
 30
0.0
 11
7.781651817520021
 21
5.746857271589858
 31
0.0
  0
LINE
  5
21CCA
  8
0
  6
CONTINUOUS
 10
5.694951119555943
 20
7.833557969553937
 30
0.0
 11
4.765409089118624
 21
8.763099999991255
 31
0.0
  0
LINE
  5
21CCB
  8
0
  6
CONTINUOUS
 10
12.50286117236978
 20
1.699167125820288
 30
0.0
 11
9.68611877250287
 21
4.515909525687196
 31
0.0
  0
LINE
  5
21CCC
  8
0
  6
CONTINUOUS
 10
9.065465192851777
 20
5.136563105338288
 30
0.0
 11
7.989834395251757
 21
6.21219390293831
 31
0.0
  0
LINE
  5
21CCD
  8
0
  6
CONTINUOUS
 10
5.993039874401719
 20
8.208988423788346
 30
0.0
 11
5.43892829819881
 21
8.763099999991255
 31
0.0
  0
LINE
  5
21CCE
  8
0
  6
CONTINUOUS
 10
11.95770871242671
 20
2.917838794843543
 30
0.0
 11
8.19801697298349
 21
6.677530534286761
 31
0.0
  0
LINE
  5
21CCF
  8
0
  6
CONTINUOUS
 10
6.291128629247495
 20
8.584418878022756
 30
0.0
 11
6.112447507278997
 21
8.763099999991255
 31
0.0
  0
LINE
  5
21CD0
  8
0
  6
CONTINUOUS
 10
11.41255625248364
 20
4.136510463866797
 30
0.0
 11
8.406199550715227
 21
7.142867165635211
 31
0.0
  0
LINE
  5
21CD1
  8
0
  6
CONTINUOUS
 10
10.86740379254057
 20
5.355182132890051
 30
0.0
 11
8.614382128446962
 21
7.608203796983664
 31
0.0
  0
LINE
  5
21CD2
  8
0
  6
CONTINUOUS
 10
10.3222513325975
 20
6.573853801913305
 30
0.0
 11
8.822564706178696
 21
8.073540428332114
 31
0.0
  0
LINE
  5
21CD3
  8
0
  6
CONTINUOUS
 10
9.777098872654436
 20
7.792525470936562
 30
0.0
 11
9.030747283910433
 21
8.538877059680566
 31
0.0
  0
ENDBLK
  5
21E15
  8
0
  0
BLOCK
  8
0
  2
*X118
 70
     1
 10
0.0
 20
0.0
 30
0.0
  3
*X118
  1

  0
LINE
  5
21CD5
  8
0
  6
CONTINUOUS
 10
10.67292308101235
 20
8.445076852443387
 30
0.0
 11
10.99094622856022
 21
8.763099999991255
 31
0.0
  0
LINE
  5
21CD6
  8
0
  6
CONTINUOUS
 10
10.87250383178748
 20
7.971138394138331
 30
0.0
 11
11.6644654376404
 21
8.763099999991255
 31
0.0
  0
LINE
  5
21CD7
  8
0
  6
CONTINUOUS
 10
11.07208458256261
 20
7.497199935833273
 30
0.0
 11
12.12126590876355
 21
8.546381262034211
 31
0.0
  0
LINE
  5
21CD8
  8
0
  6
CONTINUOUS
 10
11.27166533333774
 20
7.023261477528216
 30
0.0
 11
12.32085164573666
 21
8.072447789927136
 31
0.0
  0
LINE
  5
21CD9
  8
0
  6
CONTINUOUS
 10
11.47124608411287
 20
6.549323019223158
 30
0.0
 11
12.52043738270977
 21
7.59851431782006
 31
0.0
  0
LINE
  5
21CDA
  8
0
  6
CONTINUOUS
 10
11.670826834888
 20
6.075384560918101
 30
0.0
 11
12.72002311968288
 21
7.124580845712984
 31
0.0
  0
LINE
  5
21CDB
  8
0
  6
CONTINUOUS
 10
11.87040758566313
 20
5.601446102613043
 30
0.0
 11
12.91960885665599
 21
6.650647373605907
 31
0.0
  0
LINE
  5
21CDC
  8
0
  6
CONTINUOUS
 10
12.06998833643825
 20
5.127507644307986
 30
0.0
 11
13.1191945936291
 21
6.176713901498832
 31
0.0
  0
LINE
  5
21CDD
  8
0
  6
CONTINUOUS
 10
12.26956908721338
 20
4.65356918600293
 30
0.0
 11
13.31878033060221
 21
5.702780429391757
 31
0.0
  0
LINE
  5
21CDE
  8
0
  6
CONTINUOUS
 10
12.46914983798851
 20
4.179630727697873
 30
0.0
 11
13.51836606757532
 21
5.228846957284683
 31
0.0
  0
LINE
  5
21CDF
  8
0
  6
CONTINUOUS
 10
12.66873058876364
 20
3.705692269392816
 30
0.0
 11
13.71795180454843
 21
4.754913485177607
 31
0.0
  0
LINE
  5
21CE0
  8
0
  6
CONTINUOUS
 10
12.86831133953877
 20
3.231753811087759
 30
0.0
 11
13.91753754152154
 21
4.280980013070531
 31
0.0
  0
LINE
  5
21CE1
  8
0
  6
CONTINUOUS
 10
13.0678920903139
 20
2.757815352782702
 30
0.0
 11
14.11712327849465
 21
3.807046540963456
 31
0.0
  0
LINE
  5
21CE2
  8
0
  6
CONTINUOUS
 10
13.26747284108903
 20
2.283876894477644
 30
0.0
 11
14.31670901546777
 21
3.333113068856379
 31
0.0
  0
LINE
  5
21CE3
  8
0
  6
CONTINUOUS
 10
16.36767838827179
 20
8.751678487061342
 30
0.0
 11
16.50332410898388
 21
8.887324207773432
 31
0.0
  0
LINE
  5
21CE4
  8
0
  6
CONTINUOUS
 10
15.96190732182191
 20
7.67238821153127
 30
0.0
 11
16.68735328004734
 21
8.397834169756699
 31
0.0
  0
LINE
  5
21CE5
  8
0
  6
CONTINUOUS
 10
15.55613625537202
 20
6.593097936001196
 30
0.0
 11
16.87138245111079
 21
7.908344131739965
 31
0.0
  0
LINE
  5
21CE6
  8
0
  6
CONTINUOUS
 10
15.15036518892213
 20
5.513807660471122
 30
0.0
 11
17.05541162217424
 21
7.418854093723231
 31
0.0
  0
LINE
  5
21CE7
  8
0
  6
CONTINUOUS
 10
14.74459412247225
 20
4.434517384941048
 30
0.0
 11
17.2394407932377
 21
6.929364055706499
 31
0.0
  0
LINE
  5
21CE8
  8
0
  6
CONTINUOUS
 10
14.33882305602236
 20
3.355227109410975
 30
0.0
 11
17.42346996430115
 21
6.439874017689766
 31
0.0
  0
LINE
  5
21CE9
  8
0
  6
CONTINUOUS
 10
13.46705359186416
 20
1.809938436172586
 30
0.0
 11
16.0819338255367
 21
4.424818669845129
 31
0.0
  0
LINE
  5
21CEA
  8
0
  6
CONTINUOUS
 10
16.63283254238972
 20
4.975717386698149
 30
0.0
 11
17.60749913536461
 21
5.950383979673033
 31
0.0
  0
LINE
  5
21CEB
  8
0
  6
CONTINUOUS
 10
13.66663434263929
 20
1.335999977867529
 30
0.0
 11
15.67604797733754
 21
3.345413612565779
 31
0.0
  0
LINE
  5
21CEC
  8
0
  6
CONTINUOUS
 10
13.86621509341442
 20
0.8620615195624723
 30
0.0
 11
15.27016212913838
 21
2.26600855528643
 31
0.0
  0
LINE
  5
21CED
  8
0
  6
CONTINUOUS
 10
16.81682257348267
 20
4.486188208710908
 30
0.0
 11
17.79152830642806
 21
5.460893941656299
 31
0.0
  0
LINE
  5
21CEE
  8
0
  6
CONTINUOUS
 10
17.00081260457561
 20
3.996659030723667
 30
0.0
 11
17.97555747749151
 21
4.971403903639565
 31
0.0
  0
LINE
  5
21CEF
  8
0
  6
CONTINUOUS
 10
20.74362343514722
 20
8.412989070375462
 30
0.0
 11
21.09373436476302
 21
8.763099999991256
 31
0.0
  0
LINE
  5
21CF0
  8
0
  6
CONTINUOUS
 10
20.25401257174777
 20
7.249858997895826
 30
0.0
 11
21.7672535738432
 21
8.763099999991255
 31
0.0
  0
LINE
  5
21CF1
  8
0
  6
CONTINUOUS
 10
14.06579584418955
 20
0.3881230612574149
 30
0.0
 11
14.86427628093921
 21
1.186603498007082
 31
0.0
  0
LINE
  5
21CF2
  8
0
  6
CONTINUOUS
 10
14.26537659496467
 20
-0.0858153970476412
 30
0.0
 11
14.45839043274005
 21
0.1071984407277329
 31
0.0
  0
LINE
  5
21CF3
  8
0
  6
CONTINUOUS
 10
17.18480263566856
 20
3.507129852736426
 30
0.0
 11
18.15958664855496
 21
4.481913865622833
 31
0.0
  0
LINE
  5
21CF4
  8
0
  6
CONTINUOUS
 10
17.3687926667615
 20
3.017600674749186
 30
0.0
 11
18.34361581961842
 21
3.9924238276061
 31
0.0
  0
LINE
  5
21CF5
  8
0
  6
CONTINUOUS
 10
19.76440170834832
 20
6.086728925416191
 30
0.0
 11
22.33924590259489
 21
8.661573119662755
 31
0.0
  0
LINE
  5
21CF6
  8
0
  6
CONTINUOUS
 10
19.27479084494887
 20
4.923598852936555
 30
0.0
 11
21.84929622842713
 21
7.498104236414807
 31
0.0
  0
LINE
  5
21CF7
  8
0
  6
CONTINUOUS
 10
17.55278269785445
 20
2.528071496761945
 30
0.0
 11
18.52764499068187
 21
3.502933789589366
 31
0.0
  0
LINE
  5
21CF8
  8
0
  6
CONTINUOUS
 10
18.78517998154942
 20
3.760468780456919
 30
0.0
 11
21.35934655425936
 21
6.33463535316686
 31
0.0
  0
LINE
  5
21CF9
  8
0
  6
CONTINUOUS
 10
17.73677272894739
 20
2.038542318774704
 30
0.0
 11
20.8693968800916
 21
5.171166469918914
 31
0.0
  0
LINE
  5
21CFA
  8
0
  6
CONTINUOUS
 10
17.92076276004034
 20
1.549013140787464
 30
0.0
 11
20.37944720592384
 21
4.007697586670968
 31
0.0
  0
LINE
  5
21CFB
  8
0
  6
CONTINUOUS
 10
18.10475279113329
 20
1.059483962800223
 30
0.0
 11
19.88949753175608
 21
2.84422870342302
 31
0.0
  0
LINE
  5
21CFC
  8
0
  6
CONTINUOUS
 10
18.28874282222623
 20
0.5699547848129822
 30
0.0
 11
19.39954785758832
 21
1.680759820175074
 31
0.0
  0
LINE
  5
21CFD
  8
0
  6
CONTINUOUS
 10
18.47273285331918
 20
0.0804256068257416
 30
0.0
 11
18.90959818342056
 21
0.517290936927127
 31
0.0
  0
LINE
  5
21CFE
  8
0
  6
CONTINUOUS
 10
14.3590401358224
 20
-0.1570118376323384
 30
0.0
 11
14.24903296539946
 21
-0.0470046672093929
 31
0.0
  0
LINE
  5
21CFF
  8
0
  6
CONTINUOUS
 10
14.54309291258661
 20
0.332454594683643
 30
0.0
 11
13.75908329123172
 21
1.116464216038529
 31
0.0
  0
LINE
  5
21D00
  8
0
  6
CONTINUOUS
 10
14.72714568935081
 20
0.8219210269996244
 30
0.0
 11
13.26913361706399
 21
2.27993309928645
 31
0.0
  0
LINE
  5
21D01
  8
0
  6
CONTINUOUS
 10
14.91119846611502
 20
1.311387459315606
 30
0.0
 11
12.77918394289625
 21
3.443401982534371
 31
0.0
  0
LINE
  5
21D02
  8
0
  6
CONTINUOUS
 10
15.09525124287922
 20
1.800853891631587
 30
0.0
 11
12.28923426872852
 21
4.606870865782293
 31
0.0
  0
LINE
  5
21D03
  8
0
  6
CONTINUOUS
 10
15.27930401964343
 20
2.290320323947569
 30
0.0
 11
11.79928459456078
 21
5.770339749030213
 31
0.0
  0
LINE
  5
21D04
  8
0
  6
CONTINUOUS
 10
15.46335679640763
 20
2.77978675626355
 30
0.0
 11
14.48885470994921
 21
3.754288842721972
 31
0.0
  0
LINE
  5
21D05
  8
0
  6
CONTINUOUS
 10
13.88507249233704
 20
4.358071060334137
 30
0.0
 11
11.30933492039305
 21
6.933808632278135
 31
0.0
  0
LINE
  5
21D06
  8
0
  6
CONTINUOUS
 10
18.75840522805855
 20
0.1582575336928151
 30
0.0
 11
18.25383727664818
 21
0.6628254851031863
 31
0.0
  0
LINE
  5
21D07
  8
0
  6
CONTINUOUS
 10
15.64740957317184
 20
3.269253188579531
 30
0.0
 11
14.67288388101266
 21
4.243778880738705
 31
0.0
  0
LINE
  5
21D08
  8
0
  6
CONTINUOUS
 10
13.39509276772158
 20
5.521569994029786
 30
0.0
 11
10.81938524622531
 21
8.097277515526056
 31
0.0
  0
LINE
  5
21D09
  8
0
  6
CONTINUOUS
 10
18.95798597883369
 20
0.6321959919978686
 30
0.0
 11
17.84825644852853
 21
1.741925522303024
 31
0.0
  0
LINE
  5
21D0A
  8
0
  6
CONTINUOUS
 10
19.15756672960882
 20
1.106134450302922
 30
0.0
 11
17.44267562040888
 21
2.821025559502861
 31
0.0
  0
LINE
  5
21D0B
  8
0
  6
CONTINUOUS
 10
15.83146234993604
 20
3.758719620895513
 30
0.0
 11
14.85691305207612
 21
4.733268918755439
 31
0.0
  0
LINE
  5
21D0C
  8
0
  6
CONTINUOUS
 10
16.01551512670025
 20
4.248186053211494
 30
0.0
 11
15.04094222313957
 21
5.222758956772172
 31
0.0
  0
LINE
  5
21D0D
  8
0
  6
CONTINUOUS
 10
12.90511304310612
 20
6.685068927725435
 30
0.0
 11
10.8270819708403
 21
8.763099999991255
 31
0.0
  0
LINE
  5
21D0E
  8
0
  6
CONTINUOUS
 10
12.41513331849066
 20
7.848567861421083
 30
0.0
 11
11.50060117992049
 21
8.763099999991255
 31
0.0
  0
LINE
  5
21D0F
  8
0
  6
CONTINUOUS
 10
19.35714748038395
 20
1.580072908607975
 30
0.0
 11
17.03709479228923
 21
3.900125596702697
 31
0.0
  0
LINE
  5
21D10
  8
0
  6
CONTINUOUS
 10
19.55672823115909
 20
2.054011366913028
 30
0.0
 11
16.63151396416958
 21
4.979225633902534
 31
0.0
  0
LINE
  5
21D11
  8
0
  6
CONTINUOUS
 10
16.19956790346445
 20
4.737652485527476
 30
0.0
 11
15.22497139420302
 21
5.712248994788904
 31
0.0
  0
LINE
  5
21D12
  8
0
  6
CONTINUOUS
 10
16.38362068022866
 20
5.227118917843457
 30
0.0
 11
15.40900056526648
 21
6.201739032805637
 31
0.0
  0
LINE
  5
21D13
  8
0
  6
CONTINUOUS
 10
19.75630898193422
 20
2.527949825218081
 30
0.0
 11
18.70774536448286
 21
3.576513442669441
 31
0.0
  0
LINE
  5
21D14
  8
0
  6
CONTINUOUS
 10
19.95588973270936
 20
3.001888283523134
 30
0.0
 11
18.90726987211446
 21
4.050508144118028
 31
0.0
  0
LINE
  5
21D15
  8
0
  6
CONTINUOUS
 10
20.15547048348449
 20
3.475826741828186
 30
0.0
 11
19.10679437974606
 21
4.524502845566614
 31
0.0
  0
LINE
  5
21D16
  8
0
  6
CONTINUOUS
 10
20.35505123425962
 20
3.94976520013324
 30
0.0
 11
19.30631888737766
 21
4.998497547015201
 31
0.0
  0
LINE
  5
21D17
  8
0
  6
CONTINUOUS
 10
20.55463198503475
 20
4.423703658438292
 30
0.0
 11
19.50584339500926
 21
5.472492248463787
 31
0.0
  0
LINE
  5
21D18
  8
0
  6
CONTINUOUS
 10
18.37481191085755
 20
3.909446896294752
 30
0.0
 11
15.59302973632993
 21
6.691229070822371
 31
0.0
  0
LINE
  5
21D19
  8
0
  6
CONTINUOUS
 10
17.96904084440766
 20
4.988737171824825
 30
0.0
 11
15.77705890739338
 21
7.180719108839104
 31
0.0
  0
LINE
  5
21D1A
  8
0
  6
CONTINUOUS
 10
17.56326977795777
 20
6.068027447354899
 30
0.0
 11
15.96108807845684
 21
7.670209146855838
 31
0.0
  0
LINE
  5
21D1B
  8
0
  6
CONTINUOUS
 10
17.15749871150789
 20
7.147317722884972
 30
0.0
 11
16.14511724952029
 21
8.15969918487257
 31
0.0
  0
LINE
  5
21D1C
  8
0
  6
CONTINUOUS
 10
16.751727645058
 20
8.226607998415046
 30
0.0
 11
16.32914642058374
 21
8.649189222889303
 31
0.0
  0
LINE
  5
21D1D
  8
0
  6
CONTINUOUS
 10
20.75421273580989
 20
4.897642116743345
 30
0.0
 11
19.70536790264086
 21
5.946486949912374
 31
0.0
  0
LINE
  5
21D1E
  8
0
  6
CONTINUOUS
 10
20.95379348658502
 20
5.371580575048398
 30
0.0
 11
19.90489241027246
 21
6.42048165136096
 31
0.0
  0
LINE
  5
21D1F
  8
0
  6
CONTINUOUS
 10
21.15337423736015
 20
5.845519033353452
 30
0.0
 11
20.10441691790406
 21
6.894476352809547
 31
0.0
  0
LINE
  5
21D20
  8
0
  6
CONTINUOUS
 10
21.35295498813529
 20
6.319457491658505
 30
0.0
 11
20.30394142553566
 21
7.368471054258134
 31
0.0
  0
LINE
  5
21D21
  8
0
  6
CONTINUOUS
 10
21.55253573891042
 20
6.793395949963558
 30
0.0
 11
20.50346593316726
 21
7.842465755706721
 31
0.0
  0
LINE
  5
21D22
  8
0
  6
CONTINUOUS
 10
21.75211648968556
 20
7.267334408268612
 30
0.0
 11
20.70299044079886
 21
8.316460457155308
 31
0.0
  0
LINE
  5
21D23
  8
0
  6
CONTINUOUS
 10
21.95169724046069
 20
7.741272866573663
 30
0.0
 11
20.9298701070431
 21
8.763099999991256
 31
0.0
  0
LINE
  5
21D24
  8
0
  6
CONTINUOUS
 10
22.15127799123582
 20
8.215211324878716
 30
0.0
 11
21.60338931612328
 21
8.763099999991256
 31
0.0
  0
LINE
  5
21D25
  8
0
  6
CONTINUOUS
 10
22.35085874201096
 20
8.689149783183769
 30
0.0
 11
22.27690852520347
 21
8.763099999991255
 31
0.0
  0
ENDBLK
  5
21E17
  8
0
  0
BLOCK
  8
0
  2
*X119
 70
     1
 10
0.0
 20
0.0
 30
0.0
  3
*X119
  1

  0
LINE
  5
21D27
  8
0
  6
CONTINUOUS
 10
23.19462913593892
 20
8.169917934846424
 30
0.0
 11
23.70775465517246
 21
8.683043454079957
 31
0.0
  0
LINE
  5
21D28
  8
0
  6
CONTINUOUS
 10
22.64923161835078
 20
6.951001208178088
 30
0.0
 11
23.9159364069932
 21
8.217705996820516
 31
0.0
  0
LINE
  5
21D29
  8
0
  6
CONTINUOUS
 10
22.10383410076263
 20
5.732084481509751
 30
0.0
 11
24.12411815881395
 21
7.752368539561078
 31
0.0
  0
LINE
  5
21D2A
  8
0
  6
CONTINUOUS
 10
21.55843658317447
 20
4.513167754841414
 30
0.0
 11
24.3322999106347
 21
7.287031082301639
 31
0.0
  0
LINE
  5
21D2B
  8
0
  6
CONTINUOUS
 10
21.01303906558632
 20
3.294251028173077
 30
0.0
 11
24.54048166245544
 21
6.821693625042199
 31
0.0
  0
LINE
  5
21D2C
  8
0
  6
CONTINUOUS
 10
20.46764154799817
 20
2.075334301504738
 30
0.0
 11
23.28571549467848
 21
4.89340824818505
 31
0.0
  0
LINE
  5
21D2D
  8
0
  6
CONTINUOUS
 10
19.92224403041002
 20
0.8564175748364002
 30
0.0
 11
22.74075865492779
 21
3.674932199354171
 31
0.0
  0
LINE
  5
21D2E
  8
0
  6
CONTINUOUS
 10
23.67305085490148
 20
5.280743608408048
 30
0.0
 11
24.74866341427619
 21
6.356356167782759
 31
0.0
  0
LINE
  5
21D2F
  8
0
  6
CONTINUOUS
 10
23.88118970842314
 20
4.815363252849522
 30
0.0
 11
24.95684516609694
 21
5.89101871052332
 31
0.0
  0
LINE
  5
21D30
  8
0
  6
CONTINUOUS
 10
19.73925852647308
 20
-0.0000871381807288
 30
0.0
 11
23.4103456646501
 21
3.670999999996297
 31
0.0
  0
LINE
  5
21D31
  8
0
  6
CONTINUOUS
 10
24.0893285619448
 20
4.349982897290997
 30
0.0
 11
25.16502691791769
 21
5.42568125326388
 31
0.0
  0
LINE
  5
21D32
  8
0
  6
CONTINUOUS
 10
20.41282099582748
 20
-0.0000438779065108
 30
0.0
 11
21.64944178675636
 21
1.236576913022366
 31
0.0
  0
LINE
  5
21D33
  8
0
  6
CONTINUOUS
 10
22.78126487373161
 20
2.36839999999762
 30
0.0
 11
24.08386487373029
 21
3.670999999996297
 31
0.0
  0
LINE
  5
21D34
  8
0
  6
CONTINUOUS
 10
24.29746741546646
 20
3.884602541732471
 30
0.0
 11
25.37320866973843
 21
4.960343796004441
 31
0.0
  0
LINE
  5
21D35
  8
0
  6
CONTINUOUS
 10
21.08638346518189
 20
-0.0000006176322938
 30
0.0
 11
21.10379033335899
 21
0.0174062505448083
 31
0.0
  0
LINE
  5
21D36
  8
0
  6
CONTINUOUS
 10
23.4547840828118
 20
2.36839999999762
 30
0.0
 11
25.58139042155918
 21
4.495006338745002
 31
0.0
  0
LINE
  5
21D37
  8
0
  6
CONTINUOUS
 10
29.30199999996933
 20
8.215615917155148
 30
0.0
 11
29.84948408280543
 21
8.763099999991255
 31
0.0
  0
LINE
  5
21D38
  8
0
  6
CONTINUOUS
 10
24.12830329189199
 20
2.36839999999762
 30
0.0
 11
25.78957217337993
 21
4.029668881485562
 31
0.0
  0
LINE
  5
21D39
  8
0
  6
CONTINUOUS
 10
29.30199999996933
 20
7.54209670807496
 30
0.0
 11
30.52300329188562
 21
8.763099999991255
 31
0.0
  0
LINE
  5
21D3A
  8
0
  6
CONTINUOUS
 10
24.80182250097217
 20
2.36839999999762
 30
0.0
 11
25.99775392520067
 21
3.564331424226122
 31
0.0
  0
LINE
  5
21D3B
  8
0
  6
CONTINUOUS
 10
29.30199999996933
 20
6.868577498994774
 30
0.0
 11
30.74199999996926
 21
8.308577498994712
 31
0.0
  0
LINE
  5
21D3C
  8
0
  6
CONTINUOUS
 10
25.13028238392013
 20
2.023340673865392
 30
0.0
 11
26.20593567702142
 21
3.098993966966683
 31
0.0
  0
LINE
  5
21D3D
  8
0
  6
CONTINUOUS
 10
25.33838066033617
 20
1.557919741201244
 30
0.0
 11
26.41411742884217
 21
2.633656509707244
 31
0.0
  0
LINE
  5
21D3E
  8
0
  6
CONTINUOUS
 10
25.54647893675221
 20
1.092498808537098
 30
0.0
 11
26.62229918066291
 21
2.168319052447804
 31
0.0
  0
LINE
  5
21D3F
  8
0
  6
CONTINUOUS
 10
25.75457721316825
 20
0.62707787587295
 30
0.0
 11
26.83048093248366
 21
1.702981595188365
 31
0.0
  0
LINE
  5
21D40
  8
0
  6
CONTINUOUS
 10
29.30199999996933
 20
6.195058289914587
 30
0.0
 11
30.74199999996926
 21
7.635058289914522
 31
0.0
  0
LINE
  5
21D41
  8
0
  6
CONTINUOUS
 10
29.30199999996933
 20
5.521539080834401
 30
0.0
 11
30.74199999996926
 21
6.961539080834331
 31
0.0
  0
LINE
  5
21D42
  8
0
  6
CONTINUOUS
 10
29.30199999996933
 20
4.848019871754214
 30
0.0
 11
30.74199999996925
 21
6.288019871754143
 31
0.0
  0
LINE
  5
21D43
  8
0
  6
CONTINUOUS
 10
29.30199999996933
 20
4.174500662674028
 30
0.0
 11
30.74199999996925
 21
5.614500662673953
 31
0.0
  0
LINE
  5
21D44
  8
0
  6
CONTINUOUS
 10
25.96267548958429
 20
0.1616569432088024
 30
0.0
 11
27.18411854636669
 21
1.383099999991207
 31
0.0
  0
LINE
  5
21D45
  8
0
  6
CONTINUOUS
 10
29.30199999996933
 20
3.500981453593841
 30
0.0
 11
30.74199999996925
 21
4.940981453593762
 31
0.0
  0
LINE
  5
21D46
  8
0
  6
CONTINUOUS
 10
26.50763775544691
 20
0.0330999999912356
 30
0.0
 11
27.85763775544689
 21
1.383099999991223
 31
0.0
  0
LINE
  5
21D47
  8
0
  6
CONTINUOUS
 10
29.30199999996933
 20
2.827462244513656
 30
0.0
 11
30.74199999996925
 21
4.267462244513574
 31
0.0
  0
LINE
  5
21D48
  8
0
  6
CONTINUOUS
 10
27.18115696452709
 20
0.0330999999912356
 30
0.0
 11
28.6224847300034
 21
1.474427765467545
 31
0.0
  0
LINE
  5
21D49
  8
0
  6
CONTINUOUS
 10
29.21067223449293
 20
2.062615269957069
 30
0.0
 11
30.74199999996924
 21
3.593943035433383
 31
0.0
  0
LINE
  5
21D4A
  8
0
  6
CONTINUOUS
 10
27.85467617360728
 20
0.0330999999912356
 30
0.0
 11
30.74199999996924
 21
2.920423826353195
 31
0.0
  0
LINE
  5
21D4B
  8
0
  6
CONTINUOUS
 10
28.57438609860264
 20
0.0792907159064073
 30
0.0
 11
30.69580928405405
 21
2.200713901357819
 31
0.0
  0
LINE
  5
21D4C
  8
0
  6
CONTINUOUS
 10
29.49443044814297
 20
0.3258158563665496
 30
0.0
 11
30.44928414359389
 21
1.280669551817477
 31
0.0
  0
LINE
  5
21D4D
  8
0
  6
CONTINUOUS
 10
19.59027867740337
 20
-0.0000967065718083
 30
0.0
 11
19.55485265190471
 21
0.035329318926844
 31
0.0
  0
LINE
  5
21D4E
  8
0
  6
CONTINUOUS
 10
20.26375463176586
 20
-0.0000534518541091
 30
0.0
 11
19.76305575737534
 21
0.5006454225364014
 31
0.0
  0
LINE
  5
21D4F
  8
0
  6
CONTINUOUS
 10
20.93723058612834
 20
-0.0000101971364099
 30
0.0
 11
19.97125886284597
 21
0.965961526145958
 31
0.0
  0
LINE
  5
21D50
  8
0
  6
CONTINUOUS
 10
21.25514828313686
 20
0.355591314935257
 30
0.0
 11
20.1794619683166
 21
1.431277629755512
 31
0.0
  0
LINE
  5
21D51
  8
0
  6
CONTINUOUS
 10
21.46338838394921
 20
0.8208704232030986
 30
0.0
 11
20.38766507378723
 21
1.896593733365069
 31
0.0
  0
LINE
  5
21D52
  8
0
  6
CONTINUOUS
 10
21.67162848476155
 20
1.28614953147094
 30
0.0
 11
20.59586817925786
 21
2.361909836974626
 31
0.0
  0
LINE
  5
21D53
  8
0
  6
CONTINUOUS
 10
21.8798685855739
 20
1.751428639738782
 30
0.0
 11
20.80407128472849
 21
2.827225940584183
 31
0.0
  0
LINE
  5
21D54
  8
0
  6
CONTINUOUS
 10
22.08810868638624
 20
2.216707748006623
 30
0.0
 11
21.01227439019912
 21
3.292542044193739
 31
0.0
  0
LINE
  5
21D55
  8
0
  6
CONTINUOUS
 10
22.60993564347543
 20
2.36839999999762
 30
0.0
 11
21.22047749566975
 21
3.757858147803296
 31
0.0
  0
LINE
  5
21D56
  8
0
  6
CONTINUOUS
 10
23.28345485255561
 20
2.36839999999762
 30
0.0
 11
21.42868060114038
 21
4.223174251412853
 31
0.0
  0
LINE
  5
21D57
  8
0
  6
CONTINUOUS
 10
26.29227406164219
 20
0.0330999999912356
 30
0.0
 11
25.80009199592872
 21
0.5252820657046957
 31
0.0
  0
LINE
  5
21D58
  8
0
  6
CONTINUOUS
 10
23.9569740616358
 20
2.36839999999762
 30
0.0
 11
21.63688370661101
 21
4.688490355022409
 31
0.0
  0
LINE
  5
21D59
  8
0
  6
CONTINUOUS
 10
26.96579327072237
 20
0.0330999999912356
 30
0.0
 11
25.2554132311971
 21
1.743480039516508
 31
0.0
  0
LINE
  5
21D5A
  8
0
  6
CONTINUOUS
 10
24.63049327071599
 20
2.36839999999762
 30
0.0
 11
23.32789327071731
 21
3.670999999996297
 31
0.0
  0
LINE
  5
21D5B
  8
0
  6
CONTINUOUS
 10
22.92098674744635
 20
4.077906523267254
 30
0.0
 11
21.84508681208164
 21
5.153806458631966
 31
0.0
  0
LINE
  5
21D5C
  8
0
  6
CONTINUOUS
 10
27.63931247980256
 20
0.0330999999912356
 30
0.0
 11
24.0014124797975
 21
3.670999999996297
 31
0.0
  0
LINE
  5
21D5D
  8
0
  6
CONTINUOUS
 10
23.129125600968
 20
4.5432868788258
 30
0.0
 11
22.05328991755227
 21
5.619122562241522
 31
0.0
  0
LINE
  5
21D5E
  8
0
  6
CONTINUOUS
 10
28.31283168888275
 20
0.0330999999912356
 30
0.0
 11
24.16488385994816
 21
4.181047828925828
 31
0.0
  0
LINE
  5
21D5F
  8
0
  6
CONTINUOUS
 10
23.33726445448964
 20
5.008667234384345
 30
0.0
 11
22.2614930230229
 21
6.084438665851079
 31
0.0
  0
LINE
  5
21D60
  8
0
  6
CONTINUOUS
 10
28.86286302309502
 20
0.1565878748591523
 30
0.0
 11
27.63635089796295
 21
1.383099999991217
 31
0.0
  0
LINE
  5
21D61
  8
0
  6
CONTINUOUS
 10
26.43704649509776
 20
2.582404402856405
 30
0.0
 11
23.61992702019732
 21
5.399523877756844
 31
0.0
  0
LINE
  5
21D62
  8
0
  6
CONTINUOUS
 10
23.54540330801128
 20
5.47404758994289
 30
0.0
 11
22.46969612849353
 21
6.549754769460635
 31
0.0
  0
LINE
  5
21D63
  8
0
  6
CONTINUOUS
 10
29.39405087596853
 20
0.2989192310658284
 30
0.0
 11
28.30987010704312
 21
1.383099999991234
 31
0.0
  0
LINE
  5
21D64
  8
0
  6
CONTINUOUS
 10
25.89179548232307
 20
3.801174624711282
 30
0.0
 11
22.67789923396416
 21
7.015070873070191
 31
0.0
  0
LINE
  5
21D65
  8
0
  6
CONTINUOUS
 10
29.79594438047407
 20
0.570544935640473
 30
0.0
 11
28.81310432793121
 21
1.553384988183336
 31
0.0
  0
LINE
  5
21D66
  8
0
  6
CONTINUOUS
 10
25.34654446954838
 20
5.01994484656616
 30
0.0
 11
22.88610233943479
 21
7.480386976679748
 31
0.0
  0
LINE
  5
21D67
  8
0
  6
CONTINUOUS
 10
30.13270398501416
 20
0.9073045401805646
 30
0.0
 11
29.14234640337737
 21
1.897662121817355
 31
0.0
  0
LINE
  5
21D68
  8
0
  6
CONTINUOUS
 10
24.80129345677369
 20
6.238715068421037
 30
0.0
 11
23.09430544490542
 21
7.945703080289305
 31
0.0
  0
LINE
  5
21D69
  8
0
  6
CONTINUOUS
 10
30.44581292956759
 20
1.26771480470732
 30
0.0
 11
29.30199999996933
 21
2.411527734305588
 31
0.0
  0
LINE
  5
21D6A
  8
0
  6
CONTINUOUS
 10
30.58814428577427
 20
1.798902657580827
 30
0.0
 11
29.30199999996933
 21
3.085046943385775
 31
0.0
  0
LINE
  5
21D6B
  8
0
  6
CONTINUOUS
 10
24.256042443999
 20
7.457485290275915
 30
0.0
 11
23.30250855037605
 21
8.411019183898862
 31
0.0
  0
LINE
  5
21D6C
  8
0
  6
CONTINUOUS
 10
23.71079143122431
 20
8.676255512130794
 30
0.0
 11
23.51071165584668
 21
8.876335287508418
 31
0.0
  0
LINE
  5
21D6D
  8
0
  6
CONTINUOUS
 10
30.73047564198095
 20
2.330090510454333
 30
0.0
 11
29.30199999996933
 21
3.758566152465961
 31
0.0
  0
LINE
  5
21D6E
  8
0
  6
CONTINUOUS
 10
30.74199999996924
 20
2.992085361546236
 30
0.0
 11
29.30199999996933
 21
4.432085361546148
 31
0.0
  0
LINE
  5
21D6F
  8
0
  6
CONTINUOUS
 10
30.74199999996924
 20
3.665604570626419
 30
0.0
 11
29.30199999996933
 21
5.105604570626333
 31
0.0
  0
LINE
  5
21D70
  8
0
  6
CONTINUOUS
 10
30.74199999996925
 20
4.339123779706602
 30
0.0
 11
29.30199999996933
 21
5.77912377970652
 31
0.0
  0
LINE
  5
21D71
  8
0
  6
CONTINUOUS
 10
30.74199999996925
 20
5.012642988786785
 30
0.0
 11
29.30199999996933
 21
6.452642988786707
 31
0.0
  0
LINE
  5
21D72
  8
0
  6
CONTINUOUS
 10
30.74199999996925
 20
5.68616219786697
 30
0.0
 11
29.30199999996933
 21
7.126162197866894
 31
0.0
  0
LINE
  5
21D73
  8
0
  6
CONTINUOUS
 10
30.74199999996925
 20
6.359681406947153
 30
0.0
 11
29.30199999996933
 21
7.799681406947081
 31
0.0
  0
LINE
  5
21D74
  8
0
  6
CONTINUOUS
 10
30.74199999996926
 20
7.033200616027337
 30
0.0
 11
29.30199999996933
 21
8.473200616027269
 31
0.0
  0
LINE
  5
21D75
  8
0
  6
CONTINUOUS
 10
30.74199999996926
 20
7.706719825107518
 30
0.0
 11
29.68561982508552
 21
8.763099999991255
 31
0.0
  0
LINE
  5
21D76
  8
0
  6
CONTINUOUS
 10
30.74199999996926
 20
8.380239034187703
 30
0.0
 11
30.35913903416571
 21
8.763099999991255
 31
0.0
  0
ENDBLK
  5
21E19
  8
0
  0
BLOCK
  8
0
  2
*X120
 70
     1
 10
0.0
 20
0.0
 30
0.0
  3
*X120
  1

  0
LINE
  5
21D78
  8
0
  6
CONTINUOUS
 10
31.64199999996833
 20
8.5350582899136
 30
0.0
 11
31.87004171004599
 21
8.763099999991255
 31
0.0
  0
LINE
  5
21D79
  8
0
  6
CONTINUOUS
 10
31.64199999996833
 20
7.861539080833413
 30
0.0
 11
32.54356091912618
 21
8.763099999991255
 31
0.0
  0
LINE
  5
21D7A
  8
0
  6
CONTINUOUS
 10
31.64199999996833
 20
7.188019871753227
 30
0.0
 11
33.08199999996839
 21
8.628019871753281
 31
0.0
  0
LINE
  5
21D7B
  8
0
  6
CONTINUOUS
 10
31.64199999996833
 20
6.514500662673041
 30
0.0
 11
33.08199999996839
 21
7.954500662673095
 31
0.0
  0
LINE
  5
21D7C
  8
0
  6
CONTINUOUS
 10
31.64199999996833
 20
5.840981453592855
 30
0.0
 11
33.08199999996839
 21
7.28098145359291
 31
0.0
  0
LINE
  5
21D7D
  8
0
  6
CONTINUOUS
 10
31.64199999996833
 20
5.167462244512668
 30
0.0
 11
33.08199999996839
 21
6.607462244512723
 31
0.0
  0
LINE
  5
21D7E
  8
0
  6
CONTINUOUS
 10
31.64199999996833
 20
4.493943035432482
 30
0.0
 11
33.08199999996839
 21
5.933943035432536
 31
0.0
  0
LINE
  5
21D7F
  8
0
  6
CONTINUOUS
 10
31.64199999996833
 20
3.820423826352294
 30
0.0
 11
33.08199999996839
 21
5.260423826352349
 31
0.0
  0
LINE
  5
21D80
  8
0
  6
CONTINUOUS
 10
31.64199999996833
 20
3.146904617272108
 30
0.0
 11
33.08199999996839
 21
4.586904617272163
 31
0.0
  0
LINE
  5
21D81
  8
0
  6
CONTINUOUS
 10
36.23199999996837
 20
8.410423826352327
 30
0.0
 11
36.58467617360729
 21
8.763099999991255
 31
0.0
  0
LINE
  5
21D82
  8
0
  6
CONTINUOUS
 10
36.23199999996837
 20
7.73690461727214
 30
0.0
 11
37.25819538268748
 21
8.763099999991255
 31
0.0
  0
LINE
  5
21D83
  8
0
  6
CONTINUOUS
 10
31.64323424774199
 20
2.474619655965573
 30
0.0
 11
33.08199999996839
 21
3.913385408191976
 31
0.0
  0
LINE
  5
21D84
  8
0
  6
CONTINUOUS
 10
31.74419223861915
 20
1.902058437762552
 30
0.0
 11
33.08199999996839
 21
3.239866199111789
 31
0.0
  0
LINE
  5
21D85
  8
0
  6
CONTINUOUS
 10
36.23199999996837
 20
7.063385408191953
 30
0.0
 11
37.67199999996831
 21
8.503385408191894
 31
0.0
  0
LINE
  5
21D86
  8
0
  6
CONTINUOUS
 10
36.23199999996837
 20
6.389866199111767
 30
0.0
 11
37.67199999996831
 21
7.829866199111708
 31
0.0
  0
LINE
  5
21D87
  8
0
  6
CONTINUOUS
 10
31.91111233414976
 20
1.39545932421297
 30
0.0
 11
33.08199999996839
 21
2.566346990031603
 31
0.0
  0
LINE
  5
21D88
  8
0
  6
CONTINUOUS
 10
36.23199999996837
 20
5.71634699003158
 30
0.0
 11
37.67199999996831
 21
7.156346990031522
 31
0.0
  0
LINE
  5
21D89
  8
0
  6
CONTINUOUS
 10
32.1576374746103
 20
0.9684652555933289
 30
0.0
 11
33.20642631446081
 21
2.017254095443838
 31
0.0
  0
LINE
  5
21D8A
  8
0
  6
CONTINUOUS
 10
36.23199999996837
 20
5.042827780951393
 30
0.0
 11
37.67199999996831
 21
6.482827780951334
 31
0.0
  0
LINE
  5
21D8B
  8
0
  6
CONTINUOUS
 10
32.47774023927325
 20
0.6150488111760914
 30
0.0
 11
33.49903056428258
 21
1.636339136185419
 31
0.0
  0
LINE
  5
21D8C
  8
0
  6
CONTINUOUS
 10
36.23199999996837
 20
4.369308571871207
 30
0.0
 11
37.67199999996831
 21
5.809308571871148
 31
0.0
  0
LINE
  5
21D8D
  8
0
  6
CONTINUOUS
 10
32.84396249154443
 20
0.3077518543670883
 30
0.0
 11
33.93324121824649
 21
1.397030581069146
 31
0.0
  0
LINE
  5
21D8E
  8
0
  6
CONTINUOUS
 10
36.23199999996837
 20
3.695789362791021
 30
0.0
 11
37.67199999996831
 21
5.135789362790963
 31
0.0
  0
LINE
  5
21D8F
  8
0
  6
CONTINUOUS
 10
33.30186329036846
 20
0.0921334441109263
 30
0.0
 11
34.46442907112041
 21
1.254699224862875
 31
0.0
  0
LINE
  5
21D90
  8
0
  6
CONTINUOUS
 10
36.23199999996837
 20
3.022270153710834
 30
0.0
 11
37.67199999996831
 21
4.462270153710776
 31
0.0
  0
LINE
  5
21D91
  8
0
  6
CONTINUOUS
 10
33.79565647746294
 20
-0.0875925778747773
 30
0.0
 11
35.24350171668284
 21
1.360252661345124
 31
0.0
  0
LINE
  5
21D92
  8
0
  6
CONTINUOUS
 10
36.18336676155003
 20
2.300117706212308
 30
0.0
 11
37.67199999996831
 21
3.788750944630589
 31
0.0
  0
LINE
  5
21D93
  8
0
  6
CONTINUOUS
 10
34.37182574910968
 20
-0.184942515308224
 30
0.0
 11
37.67199999996831
 21
3.115231735550402
 31
0.0
  0
LINE
  5
21D94
  8
0
  6
CONTINUOUS
 10
35.0453449581892
 20
-0.1849425153088955
 30
0.0
 11
37.66345697088136
 21
2.433169497383271
 31
0.0
  0
LINE
  5
21D95
  8
0
  6
CONTINUOUS
 10
35.98667157609191
 20
0.0828648935136398
 30
0.0
 11
37.51927401744566
 21
1.615467334867382
 31
0.0
  0
LINE
  5
21D96
  8
0
  6
CONTINUOUS
 10
32.27747408544484
 20
0.7830920669904482
 30
0.0
 11
32.24716210471949
 21
0.8134040477157893
 31
0.0
  0
LINE
  5
21D97
  8
0
  6
CONTINUOUS
 10
33.83656881101902
 20
-0.1024834495035494
 30
0.0
 11
31.72538911593758
 21
2.008696245577891
 31
0.0
  0
LINE
  5
21D98
  8
0
  6
CONTINUOUS
 10
34.5925470859041
 20
-0.1849425153084434
 30
0.0
 11
31.64199999996833
 21
2.765604570627322
 31
0.0
  0
LINE
  5
21D99
  8
0
  6
CONTINUOUS
 10
35.26201302775981
 20
-0.1808892480839752
 30
0.0
 11
31.64199999996833
 21
3.439123779707508
 31
0.0
  0
LINE
  5
21D9A
  8
0
  6
CONTINUOUS
 10
35.75580621485512
 20
-0.0011632260990879
 30
0.0
 11
34.51294304365551
 21
1.241699945100514
 31
0.0
  0
LINE
  5
21D9B
  8
0
  6
CONTINUOUS
 10
33.08199999996839
 20
2.672642988787641
 30
0.0
 11
31.64199999996833
 21
4.112642988787695
 31
0.0
  0
LINE
  5
21D9C
  8
0
  6
CONTINUOUS
 10
36.24959940195042
 20
0.1785627958857976
 30
0.0
 11
35.10501653033629
 21
1.323145667499924
 31
0.0
  0
LINE
  5
21D9D
  8
0
  6
CONTINUOUS
 10
33.08199999996839
 20
3.346162197867827
 30
0.0
 11
31.64199999996833
 21
4.786162197867881
 31
0.0
  0
LINE
  5
21D9E
  8
0
  6
CONTINUOUS
 10
36.64615197150552
 20
0.4555294354108876
 30
0.0
 11
35.6362043832099
 21
1.465477023706505
 31
0.0
  0
LINE
  5
21D9F
  8
0
  6
CONTINUOUS
 10
33.08199999996839
 20
4.019681406948013
 30
0.0
 11
31.64199999996833
 21
5.459681406948068
 31
0.0
  0
LINE
  5
21DA0
  8
0
  6
CONTINUOUS
 10
37.0123742237774
 20
0.7628263922191891
 30
0.0
 11
35.97691545773309
 21
1.798285158263504
 31
0.0
  0
LINE
  5
21DA1
  8
0
  6
CONTINUOUS
 10
33.08199999996839
 20
4.6932006160282
 30
0.0
 11
31.64199999996833
 21
6.133200616028255
 31
0.0
  0
LINE
  5
21DA2
  8
0
  6
CONTINUOUS
 10
37.27491524157143
 20
1.173804583505349
 30
0.0
 11
36.17602012811361
 21
2.272699696963169
 31
0.0
  0
LINE
  5
21DA3
  8
0
  6
CONTINUOUS
 10
33.08199999996839
 20
5.366719825108387
 30
0.0
 11
31.64199999996833
 21
6.806719825108441
 31
0.0
  0
LINE
  5
21DA4
  8
0
  6
CONTINUOUS
 10
37.51739996707661
 20
1.604839067080355
 30
0.0
 11
36.23199999996837
 21
2.890239034188595
 31
0.0
  0
LINE
  5
21DA5
  8
0
  6
CONTINUOUS
 10
37.6183579579535
 20
2.177400285283649
 30
0.0
 11
36.23199999996837
 21
3.563758243268782
 31
0.0
  0
LINE
  5
21DA6
  8
0
  6
CONTINUOUS
 10
33.08199999996839
 20
6.040239034188573
 30
0.0
 11
31.64199999996833
 21
7.480239034188628
 31
0.0
  0
LINE
  5
21DA7
  8
0
  6
CONTINUOUS
 10
33.08199999996839
 20
6.713758243268759
 30
0.0
 11
31.64199999996833
 21
8.153758243268815
 31
0.0
  0
LINE
  5
21DA8
  8
0
  6
CONTINUOUS
 10
37.67199999996831
 20
2.797277452349027
 30
0.0
 11
36.23199999996837
 21
4.237277452348969
 31
0.0
  0
LINE
  5
21DA9
  8
0
  6
CONTINUOUS
 10
37.67199999996831
 20
3.470796661429214
 30
0.0
 11
36.23199999996837
 21
4.910796661429155
 31
0.0
  0
LINE
  5
21DAA
  8
0
  6
CONTINUOUS
 10
37.67199999996831
 20
4.1443158705094
 30
0.0
 11
36.23199999996837
 21
5.584315870509341
 31
0.0
  0
LINE
  5
21DAB
  8
0
  6
CONTINUOUS
 10
33.08199999996839
 20
7.387277452348946
 30
0.0
 11
31.70617745232608
 21
8.763099999991255
 31
0.0
  0
LINE
  5
21DAC
  8
0
  6
CONTINUOUS
 10
33.08199999996839
 20
8.060796661429134
 30
0.0
 11
32.37969666140626
 21
8.763099999991255
 31
0.0
  0
LINE
  5
21DAD
  8
0
  6
CONTINUOUS
 10
33.08199999996839
 20
8.734315870509318
 30
0.0
 11
33.05321587048645
 21
8.763099999991255
 31
0.0
  0
LINE
  5
21DAE
  8
0
  6
CONTINUOUS
 10
37.67199999996831
 20
4.817835079589586
 30
0.0
 11
36.23199999996837
 21
6.257835079589528
 31
0.0
  0
LINE
  5
21DAF
  8
0
  6
CONTINUOUS
 10
37.67199999996831
 20
5.491354288669772
 30
0.0
 11
36.23199999996837
 21
6.931354288669715
 31
0.0
  0
LINE
  5
21DB0
  8
0
  6
CONTINUOUS
 10
37.67199999996831
 20
6.164873497749959
 30
0.0
 11
36.23199999996837
 21
7.6048734977499
 31
0.0
  0
LINE
  5
21DB1
  8
0
  6
CONTINUOUS
 10
37.67199999996831
 20
6.838392706830145
 30
0.0
 11
36.23199999996837
 21
8.278392706830086
 31
0.0
  0
LINE
  5
21DB2
  8
0
  6
CONTINUOUS
 10
37.67199999996831
 20
7.511911915910333
 30
0.0
 11
36.42081191588738
 21
8.763099999991255
 31
0.0
  0
LINE
  5
21DB3
  8
0
  6
CONTINUOUS
 10
37.67199999996831
 20
8.185431124990519
 30
0.0
 11
37.09433112496757
 21
8.763099999991255
 31
0.0
  0
ENDBLK
  5
21E1B
  8
0
  0
BLOCK
  8
0
  2
*X121
 70
     1
 10
0.0
 20
0.0
 30
0.0
  3
*X121
  1

  0
LINE
  5
21DB5
  8
0
  6
CONTINUOUS
 10
38.60499999996136
 20
8.762866199104765
 30
0.0
 11
38.71672554182345
 21
8.874591740966855
 31
0.0
  0
LINE
  5
21DB6
  8
0
  6
CONTINUOUS
 10
38.60499999996136
 20
8.089346990024577
 30
0.0
 11
39.03418785440363
 21
8.518534844466847
 31
0.0
  0
LINE
  5
21DB7
  8
0
  6
CONTINUOUS
 10
38.60499999996136
 20
7.41582778094439
 30
0.0
 11
39.35165016698382
 21
8.16247794796684
 31
0.0
  0
LINE
  5
21DB8
  8
0
  6
CONTINUOUS
 10
38.60499999996136
 20
6.742308571864204
 30
0.0
 11
39.66911247956399
 21
7.806421051466834
 31
0.0
  0
LINE
  5
21DB9
  8
0
  6
CONTINUOUS
 10
38.60499999996136
 20
6.068789362784018
 30
0.0
 11
39.98657479214418
 21
7.450364154966827
 31
0.0
  0
LINE
  5
21DBA
  8
0
  6
CONTINUOUS
 10
38.60499999996136
 20
5.395270153703832
 30
0.0
 11
40.30403710472435
 21
7.09430725846682
 31
0.0
  0
LINE
  5
21DBB
  8
0
  6
CONTINUOUS
 10
38.60499999996136
 20
4.721750944623645
 30
0.0
 11
40.62149941730453
 21
6.738250361966813
 31
0.0
  0
LINE
  5
21DBC
  8
0
  6
CONTINUOUS
 10
38.60499999996136
 20
4.048231735543458
 30
0.0
 11
40.93896172988471
 21
6.382193465466806
 31
0.0
  0
LINE
  5
21DBD
  8
0
  6
CONTINUOUS
 10
38.60499999996136
 20
3.374712526463272
 30
0.0
 11
40.02599999995994
 21
4.795712526461843
 31
0.0
  0
LINE
  5
21DBE
  8
0
  6
CONTINUOUS
 10
38.60499999996136
 20
2.701193317383085
 30
0.0
 11
40.02599999995994
 21
4.122193317381657
 31
0.0
  0
LINE
  5
21DBF
  8
0
  6
CONTINUOUS
 10
40.28339754687704
 20
5.053110073378947
 30
0.0
 11
41.25642404246489
 21
6.026136568966799
 31
0.0
  0
LINE
  5
21DC0
  8
0
  6
CONTINUOUS
 10
40.60085985945722
 20
4.697053176878939
 30
0.0
 11
41.57388635504507
 21
5.670079672466793
 31
0.0
  0
LINE
  5
21DC1
  8
0
  6
CONTINUOUS
 10
43.57899999995641
 20
8.348712526458318
 30
0.0
 11
43.99338747348935
 21
8.763099999991255
 31
0.0
  0
LINE
  5
21DC2
  8
0
  6
CONTINUOUS
 10
43.57899999995641
 20
7.675193317378131
 30
0.0
 11
44.66690668256953
 21
8.763099999991255
 31
0.0
  0
LINE
  5
21DC3
  8
0
  6
CONTINUOUS
 10
38.60499999996136
 20
2.027674108302898
 30
0.0
 11
40.02599999995994
 21
3.44867410830147
 31
0.0
  0
LINE
  5
21DC4
  8
0
  6
CONTINUOUS
 10
38.60499999996136
 20
1.354154899222712
 30
0.0
 11
40.02599999995994
 21
2.775154899221284
 31
0.0
  0
LINE
  5
21DC5
  8
0
  6
CONTINUOUS
 10
38.60499999996136
 20
0.6806356901425255
 30
0.0
 11
40.02599999995994
 21
2.101635690141098
 31
0.0
  0
LINE
  5
21DC6
  8
0
  6
CONTINUOUS
 10
38.60499999996136
 20
0.0071164810623383
 30
0.0
 11
40.02599999995994
 21
1.428116481060911
 31
0.0
  0
LINE
  5
21DC7
  8
0
  6
CONTINUOUS
 10
40.9183221720374
 20
4.340996280378933
 30
0.0
 11
41.89134866762525
 21
5.314022775966786
 31
0.0
  0
LINE
  5
21DC8
  8
0
  6
CONTINUOUS
 10
41.23578448461758
 20
3.984939383878926
 30
0.0
 11
42.20881098020543
 21
4.957965879466778
 31
0.0
  0
LINE
  5
21DC9
  8
0
  6
CONTINUOUS
 10
41.55324679719776
 20
3.628882487378919
 30
0.0
 11
42.52627329278561
 21
4.601908982966772
 31
0.0
  0
LINE
  5
21DCA
  8
0
  6
CONTINUOUS
 10
41.87070910977793
 20
3.272825590878912
 30
0.0
 11
42.84373560536579
 21
4.245852086466765
 31
0.0
  0
LINE
  5
21DCB
  8
0
  6
CONTINUOUS
 10
43.57899999995641
 20
7.001674108297943
 30
0.0
 11
44.99999999995498
 21
8.422674108296516
 31
0.0
  0
LINE
  5
21DCC
  8
0
  6
CONTINUOUS
 10
43.57899999995641
 20
6.328154899217758
 30
0.0
 11
44.99999999995498
 21
7.749154899216329
 31
0.0
  0
LINE
  5
21DCD
  8
0
  6
CONTINUOUS
 10
43.57899999995641
 20
5.654635690137571
 30
0.0
 11
44.99999999995498
 21
7.075635690136142
 31
0.0
  0
LINE
  5
21DCE
  8
0
  6
CONTINUOUS
 10
43.57899999995641
 20
4.981116481057384
 30
0.0
 11
44.99999999995498
 21
6.402116481055955
 31
0.0
  0
LINE
  5
21DCF
  8
0
  6
CONTINUOUS
 10
39.27140272797921
 20
-0.0000000000000009
 30
0.0
 11
40.02599999995994
 21
0.7545972719807246
 31
0.0
  0
LINE
  5
21DD0
  8
0
  6
CONTINUOUS
 10
39.9449219370594
 20
-0.0000000000000009
 30
0.0
 11
40.02599999995994
 21
0.0810780629005379
 31
0.0
  0
LINE
  5
21DD1
  8
0
  6
CONTINUOUS
 10
42.18817142235812
 20
2.916768694378905
 30
0.0
 11
43.16119791794597
 21
3.889795189966758
 31
0.0
  0
LINE
  5
21DD2
  8
0
  6
CONTINUOUS
 10
42.50563373493829
 20
2.560711797878898
 30
0.0
 11
43.47866023052615
 21
3.533738293466751
 31
0.0
  0
LINE
  5
21DD3
  8
0
  6
CONTINUOUS
 10
43.57899999995641
 20
4.307597271977198
 30
0.0
 11
44.99999999995498
 21
5.728597271975769
 31
0.0
  0
LINE
  5
21DD4
  8
0
  6
CONTINUOUS
 10
43.57899999995641
 20
3.634078062897011
 30
0.0
 11
44.99999999995498
 21
5.055078062895582
 31
0.0
  0
LINE
  5
21DD5
  8
0
  6
CONTINUOUS
 10
42.82309604751848
 20
2.204654901378891
 30
0.0
 11
44.99999999995498
 21
4.381558853815395
 31
0.0
  0
LINE
  5
21DD6
  8
0
  6
CONTINUOUS
 10
43.14055836009865
 20
1.848598004878885
 30
0.0
 11
44.99999999995498
 21
3.70803964473521
 31
0.0
  0
LINE
  5
21DD7
  8
0
  6
CONTINUOUS
 10
43.45802067267883
 20
1.492541108378878
 30
0.0
 11
44.99999999995498
 21
3.034520435655023
 31
0.0
  0
LINE
  5
21DD8
  8
0
  6
CONTINUOUS
 10
43.77548298525902
 20
1.136484211878871
 30
0.0
 11
44.99999999995498
 21
2.361001226574837
 31
0.0
  0
LINE
  5
21DD9
  8
0
  6
CONTINUOUS
 10
44.09294529783919
 20
0.7804273153788639
 30
0.0
 11
44.99999999995498
 21
1.687482017494649
 31
0.0
  0
LINE
  5
21DDA
  8
0
  6
CONTINUOUS
 10
44.41040761041938
 20
0.4243704188788566
 30
0.0
 11
44.99999999995498
 21
1.013962808414463
 31
0.0
  0
LINE
  5
21DDB
  8
0
  6
CONTINUOUS
 10
44.72786992299955
 20
0.0683135223788494
 30
0.0
 11
44.99999999995498
 21
0.340443599334276
 31
0.0
  0
LINE
  5
21DDC
  8
0
  6
CONTINUOUS
 10
39.12223903415696
 20
-0.0000000000000009
 30
0.0
 11
38.60499999996136
 21
0.5172390341955961
 31
0.0
  0
LINE
  5
21DDD
  8
0
  6
CONTINUOUS
 10
39.79575824323715
 20
-0.0000000000000009
 30
0.0
 11
38.60499999996136
 21
1.190758243275783
 31
0.0
  0
LINE
  5
21DDE
  8
0
  6
CONTINUOUS
 10
40.02599999995994
 20
0.443277452357397
 30
0.0
 11
38.60499999996136
 21
1.864277452355969
 31
0.0
  0
LINE
  5
21DDF
  8
0
  6
CONTINUOUS
 10
40.02599999995994
 20
1.116796661437583
 30
0.0
 11
38.60499999996136
 21
2.537796661436155
 31
0.0
  0
LINE
  5
21DE0
  8
0
  6
CONTINUOUS
 10
40.02599999995994
 20
1.79031587051777
 30
0.0
 11
38.60499999996136
 21
3.211315870516341
 31
0.0
  0
LINE
  5
21DE1
  8
0
  6
CONTINUOUS
 10
40.02599999995994
 20
2.463835079597956
 30
0.0
 11
38.60499999996136
 21
3.884835079596527
 31
0.0
  0
LINE
  5
21DE2
  8
0
  6
CONTINUOUS
 10
40.02599999995994
 20
3.137354288678143
 30
0.0
 11
38.60499999996136
 21
4.558354288676714
 31
0.0
  0
LINE
  5
21DE3
  8
0
  6
CONTINUOUS
 10
40.02599999995994
 20
3.810873497758329
 30
0.0
 11
38.60499999996136
 21
5.2318734977569
 31
0.0
  0
LINE
  5
21DE4
  8
0
  6
CONTINUOUS
 10
40.02599999995994
 20
4.484392706838515
 30
0.0
 11
38.60499999996136
 21
5.905392706837086
 31
0.0
  0
LINE
  5
21DE5
  8
0
  6
CONTINUOUS
 10
44.99999999995498
 20
0.183911915923658
 30
0.0
 11
41.53858364506288
 21
3.64532827081576
 31
0.0
  0
LINE
  5
21DE6
  8
0
  6
CONTINUOUS
 10
40.02599999995994
 20
5.157911915918703
 30
0.0
 11
38.60499999996136
 21
6.578911915917274
 31
0.0
  0
LINE
  5
21DE7
  8
0
  6
CONTINUOUS
 10
44.99999999995498
 20
0.8574311250038447
 30
0.0
 11
38.60499999996136
 21
7.25243112499746
 31
0.0
  0
LINE
  5
21DE8
  8
0
  6
CONTINUOUS
 10
44.99999999995498
 20
1.530950334084031
 30
0.0
 11
38.60499999996136
 21
7.925950334077647
 31
0.0
  0
LINE
  5
21DE9
  8
0
  6
CONTINUOUS
 10
44.99999999995498
 20
2.204469543164218
 30
0.0
 11
43.57899999995641
 21
3.625469543162789
 31
0.0
  0
LINE
  5
21DEA
  8
0
  6
CONTINUOUS
 10
41.89876730984767
 20
5.305702233271528
 30
0.0
 11
38.60499999996136
 21
8.599469543157834
 31
0.0
  0
LINE
  5
21DEB
  8
0
  6
CONTINUOUS
 10
44.99999999995498
 20
2.877988752244405
 30
0.0
 11
43.57899999995641
 21
4.298988752242975
 31
0.0
  0
LINE
  5
21DEC
  8
0
  6
CONTINUOUS
 10
44.99999999995498
 20
3.551507961324591
 30
0.0
 11
43.57899999995641
 21
4.972507961323163
 31
0.0
  0
LINE
  5
21DED
  8
0
  6
CONTINUOUS
 10
44.99999999995498
 20
4.225027170404777
 30
0.0
 11
43.57899999995641
 21
5.646027170403348
 31
0.0
  0
LINE
  5
21DEE
  8
0
  6
CONTINUOUS
 10
44.99999999995498
 20
4.898546379484964
 30
0.0
 11
43.57899999995641
 21
6.319546379483535
 31
0.0
  0
LINE
  5
21DEF
  8
0
  6
CONTINUOUS
 10
44.99999999995498
 20
5.572065588565151
 30
0.0
 11
43.57899999995641
 21
6.993065588563722
 31
0.0
  0
LINE
  5
21DF0
  8
0
  6
CONTINUOUS
 10
44.99999999995498
 20
6.245584797645336
 30
0.0
 11
43.57899999995641
 21
7.666584797643908
 31
0.0
  0
LINE
  5
21DF1
  8
0
  6
CONTINUOUS
 10
44.99999999995498
 20
6.919104006725522
 30
0.0
 11
43.57899999995641
 21
8.340104006724093
 31
0.0
  0
LINE
  5
21DF2
  8
0
  6
CONTINUOUS
 10
44.99999999995498
 20
7.592623215805709
 30
0.0
 11
43.82952321576943
 21
8.763099999991255
 31
0.0
  0
LINE
  5
21DF3
  8
0
  6
CONTINUOUS
 10
44.99999999995498
 20
8.266142424885896
 30
0.0
 11
44.50304242484962
 21
8.763099999991255
 31
0.0
  0
ENDBLK
  5
21E1D
  8
0
  0
BLOCK
  8
0
  2
*X122
 70
     1
 10
0.0
 20
0.0
 30
0.0
  3
*X122
  1

  0
LINE
  5
21DF5
  8
0
  6
CONTINUOUS
 10
0.0
 20
8.548461116714023
 30
0.0
 11
0.2146388832772324
 21
8.763099999991255
 31
0.0
  0
LINE
  5
21DF6
  8
0
  6
CONTINUOUS
 10
-0.0000000000000002
 20
7.874941907633837
 30
0.0
 11
0.8881580923574184
 21
8.763099999991255
 31
0.0
  0
LINE
  5
21DF7
  8
0
  6
CONTINUOUS
 10
0.0
 20
7.20142269855365
 30
0.0
 11
1.420999999998572
 21
8.622422698552223
 31
0.0
  0
LINE
  5
21DF8
  8
0
  6
CONTINUOUS
 10
-0.0000000000000001
 20
6.527903489473465
 30
0.0
 11
1.420999999998571
 21
7.948903489472036
 31
0.0
  0
LINE
  5
21DF9
  8
0
  6
CONTINUOUS
 10
-0.0000000000000002
 20
5.854384280393278
 30
0.0
 11
1.420999999998571
 21
7.275384280391849
 31
0.0
  0
LINE
  5
21DFA
  8
0
  6
CONTINUOUS
 10
-0.0000000000000002
 20
5.180865071313091
 30
0.0
 11
1.420999999998571
 21
6.601865071311663
 31
0.0
  0
LINE
  5
21DFB
  8
0
  6
CONTINUOUS
 10
0.0
 20
4.507345862232905
 30
0.0
 11
1.420999999998571
 21
5.928345862231477
 31
0.0
  0
LINE
  5
21DFC
  8
0
  6
CONTINUOUS
 10
-0.0000000000000003
 20
3.833826653152718
 30
0.0
 11
1.420999999998571
 21
5.25482665315129
 31
0.0
  0
LINE
  5
21DFD
  8
0
  6
CONTINUOUS
 10
-0.0000000000000002
 20
3.160307444072532
 30
0.0
 11
1.420999999998571
 21
4.581307444071103
 31
0.0
  0
LINE
  5
21DFE
  8
0
  6
CONTINUOUS
 10
-0.0000000000000001
 20
2.486788234992345
 30
0.0
 11
1.420999999998571
 21
3.907788234990917
 31
0.0
  0
LINE
  5
21DFF
  8
0
  6
CONTINUOUS
 10
-0.0000000000000006
 20
1.813269025912159
 30
0.0
 11
1.420999999998571
 21
3.234269025910731
 31
0.0
  0
LINE
  5
21E00
  8
0
  6
CONTINUOUS
 10
0.0
 20
1.139749816831973
 30
0.0
 11
1.420999999998571
 21
2.560749816830544
 31
0.0
  0
LINE
  5
21E01
  8
0
  6
CONTINUOUS
 10
0.0000000000000002
 20
0.466230607751787
 30
0.0
 11
1.420999999998571
 21
1.887230607750358
 31
0.0
  0
LINE
  5
21E02
  8
0
  6
CONTINUOUS
 10
0.2072886013284003
 20
-0.0000000000000009
 30
0.0
 11
1.420999999998571
 21
1.213711398670171
 31
0.0
  0
LINE
  5
21E03
  8
0
  6
CONTINUOUS
 10
0.8808078104085864
 20
-0.0000000000000009
 30
0.0
 11
1.420999999998571
 21
0.5401921895899839
 31
0.0
  0
LINE
  5
21E04
  8
0
  6
CONTINUOUS
 10
0.0581249075061505
 20
-0.0000000000000009
 30
0.0
 11
-0.0000000000000002
 21
0.0581249075061496
 31
0.0
  0
LINE
  5
21E05
  8
0
  6
CONTINUOUS
 10
0.7316441165863372
 20
-0.0000000000000009
 30
0.0
 11
-0.0000000000000002
 21
0.7316441165863363
 31
0.0
  0
LINE
  5
21E06
  8
0
  6
CONTINUOUS
 10
1.405163325666523
 20
-0.0000000000000009
 30
0.0
 11
-0.0000000000000002
 21
1.405163325666523
 31
0.0
  0
LINE
  5
21E07
  8
0
  6
CONTINUOUS
 10
1.420999999998572
 20
0.6576825347481381
 30
0.0
 11
-0.0000000000000001
 21
2.07868253474671
 31
0.0
  0
LINE
  5
21E08
  8
0
  6
CONTINUOUS
 10
1.420999999998571
 20
1.331201743828324
 30
0.0
 11
-0.0000000000000001
 21
2.752201743826896
 31
0.0
  0
LINE
  5
21E09
  8
0
  6
CONTINUOUS
 10
1.420999999998571
 20
2.004720952908511
 30
0.0
 11
-0.0000000000000002
 21
3.425720952907082
 31
0.0
  0
LINE
  5
21E0A
  8
0
  6
CONTINUOUS
 10
1.420999999998571
 20
2.678240161988697
 30
0.0
 11
-0.0000000000000001
 21
4.099240161987269
 31
0.0
  0
LINE
  5
21E0B
  8
0
  6
CONTINUOUS
 10
1.420999999998572
 20
3.351759371068884
 30
0.0
 11
0.0
 21
4.772759371067455
 31
0.0
  0
LINE
  5
21E0C
  8
0
  6
CONTINUOUS
 10
1.420999999998571
 20
4.02527858014907
 30
0.0
 11
-0.0000000000000003
 21
5.446278580147642
 31
0.0
  0
LINE
  5
21E0D
  8
0
  6
CONTINUOUS
 10
1.420999999998571
 20
4.698797789229257
 30
0.0
 11
0.0
 21
6.119797789227828
 31
0.0
  0
LINE
  5
21E0E
  8
0
  6
CONTINUOUS
 10
1.420999999998571
 20
5.372316998309444
 30
0.0
 11
-0.0000000000000001
 21
6.793316998308015
 31
0.0
  0
LINE
  5
21E0F
  8
0
  6
CONTINUOUS
 10
1.420999999998572
 20
6.045836207389629
 30
0.0
 11
-0.0000000000000004
 21
7.466836207388202
 31
0.0
  0
LINE
  5
21E10
  8
0
  6
CONTINUOUS
 10
1.420999999998571
 20
6.719355416469816
 30
0.0
 11
0.0
 21
8.140355416468388
 31
0.0
  0
LINE
  5
21E11
  8
0
  6
CONTINUOUS
 10
1.420999999998571
 20
7.392874625550003
 30
0.0
 11
0.0507746255573185
 21
8.763099999991255
 31
0.0
  0
LINE
  5
21E12
  8
0
  6
CONTINUOUS
 10
1.420999999998571
 20
8.06639383463019
 30
0.0
 11
0.7242938346375052
 21
8.763099999991255
 31
0.0
  0
LINE
  5
21E13
  8
0
  6
CONTINUOUS
 10
1.420999999998571
 20
8.739913043710375
 30
0.0
 11
1.397813043717691
 21
8.763099999991255
 31
0.0
  0
ENDBLK
  5
21E1F
  8
0
  0
ENDSEC
  0
SECTION
  2
ENTITIES
  0
LINE
  5
2132A
  8
01
 10
450.7513525376355
 20
-954.1533697157363
 30
0.0
 11
450.7513525376355
 21
-1034.153369715736
 31
0.0
  0
LINE
  5
2132B
  8
01
 10
462.7513525376355
 20
-954.1533697157363
 30
0.0
 11
462.7513525376355
 21
-1034.153369715736
 31
0.0
  0
LINE
  5
2132C
  8
01
 10
441.7513525376355
 20
-954.1533697157363
 30
0.0
 11
441.7513525376355
 21
-1034.153369715736
 31
0.0
  0
LINE
  5
21331
  8
1PHANTOM
 10
425.7513626951606
 20
-989.7783697157366
 30
0.0
 11
425.7513423135026
 21
-998.5379117847416
 31
0.0
  0
LINE
  5
21332
  8
1PHANTOM
 10
425.751362672958
 20
-989.7879117847416
 30
0.0
 11
426.7513525154329
 21
-989.7879117847416
 31
0.0
  0
LINE
  5
21333
  8
1PHANTOM
 10
425.751362672958
 20
-991.4879117847419
 30
0.0
 11
426.7513525154329
 21
-991.4879117847419
 31
0.0
  0
LINE
  5
21334
  8
1PHANTOM
 10
425.7513423135026
 20
-998.5379117847416
 30
0.0
 11
426.7513525376355
 21
-998.5379117847411
 31
0.0
  0
LINE
  5
21335
  8
1PHANTOM
 10
425.7513423135026
 20
-996.8379117847413
 30
0.0
 11
426.7513525154329
 21
-996.8379117847413
 31
0.0
  0
LINE
  5
21337
  8
1PHANTOM
 10
457.8692181014787
 20
-991.6533697157362
 30
0.0
 11
458.8692181014787
 21
-996.6533697157362
 31
0.0
  0
LINE
  5
21338
  8
1PHANTOM
 10
474.7318894388674
 20
-994.4667264026799
 30
0.0
 11
474.5818894388676
 21
-995.2167264026799
 31
0.0
  0
LINE
  5
21339
  8
1PHANTOM
 10
463.8692181014787
 20
-991.6533697157362
 30
0.0
 11
464.8692181014787
 21
-996.6533697157362
 31
0.0
  0
LINE
  5
2133A
  8
1PHANTOM
 10
465.0192181014788
 20
-995.9033697157362
 30
0.0
 11
464.8692181014787
 21
-996.6533697157362
 31
0.0
  0
LINE
  5
2133B
  8
1PHANTOM
 10
467.0192181014788
 20
-995.9033697157362
 30
0.0
 11
466.8692181014787
 21
-996.6533697157362
 31
0.0
  0
LINE
  5
2133C
  8
1PHANTOM
 10
465.8692181014787
 20
-991.6533697157362
 30
0.0
 11
465.7192181014788
 21
-992.4033697157362
 31
0.0
  0
LINE
  5
2133D
  8
1PHANTOM
 10
465.8692181014787
 20
-991.6533697157362
 30
0.0
 11
466.8692181014787
 21
-996.6533697157362
 31
0.0
  0
LINE
  5
2133E
  8
1PHANTOM
 10
470.9353456094897
 20
-995.484007255791
 30
0.0
 11
470.7853456094898
 21
-996.234007255791
 31
0.0
  0
LINE
  5
2133F
  8
1PHANTOM
 10
472.8336175241786
 20
-994.9753668292357
 30
0.0
 11
472.6836175241786
 21
-995.7253668292357
 31
0.0
  0
LINE
  5
21340
  8
1PHANTOM
 10
472.0192133673235
 20
-992.4033460449597
 30
0.0
 11
471.8692133673234
 21
-993.1533460449597
 31
0.0
  0
LINE
  5
21341
  8
1PHANTOM
 10
472.0192133673235
 20
-992.4033460449597
 30
0.0
 11
472.6836175241786
 21
-995.7253668292357
 31
0.0
  0
LINE
  5
21342
  8
1PHANTOM
 10
474.1324620213754
 20
-992.969589315219
 30
0.0
 11
473.9824620213753
 21
-993.719589315219
 31
0.0
  0
LINE
  5
21343
  8
1PHANTOM
 10
469.0192181014788
 20
-995.9033697157362
 30
0.0
 11
468.8692181014787
 21
-996.6533697157362
 31
0.0
  0
LINE
  5
21344
  8
1PHANTOM
 10
467.8692181014787
 20
-991.6533697157362
 30
0.0
 11
467.7192181014788
 21
-992.4033697157362
 31
0.0
  0
LINE
  5
21345
  8
1PHANTOM
 10
467.8692181014787
 20
-991.6533697157362
 30
0.0
 11
468.8692181014787
 21
-996.6533697157362
 31
0.0
  0
LINE
  5
21346
  8
1PHANTOM
 10
469.9059647132715
 20
-991.8371027747004
 30
0.0
 11
469.7559647132716
 21
-992.5871027747004
 31
0.0
  0
LINE
  5
21347
  8
1PHANTOM
 10
469.9059647132715
 20
-991.8371027747004
 30
0.0
 11
470.7853456094898
 21
-996.234007255791
 31
0.0
  0
LINE
  5
21348
  8
1PHANTOM
 10
474.1324620213754
 20
-992.969589315219
 30
0.0
 11
474.5818894388676
 21
-995.2167264026799
 31
0.0
  0
LINE
  5
21349
  8
1PHANTOM
 10
459.0192181014788
 20
-995.9033697157362
 30
0.0
 11
458.8692181014787
 21
-996.6533697157362
 31
0.0
  0
LINE
  5
2134A
  8
1PHANTOM
 10
459.8692181014787
 20
-991.6533697157362
 30
0.0
 11
459.7192181014788
 21
-992.4033697157362
 31
0.0
  0
LINE
  5
2134B
  8
1PHANTOM
 10
459.8692181014787
 20
-991.6533697157362
 30
0.0
 11
460.8692181014787
 21
-996.6533697157362
 31
0.0
  0
LINE
  5
2134C
  8
1PHANTOM
 10
463.0192181014788
 20
-995.9033697157362
 30
0.0
 11
462.8692181014787
 21
-996.6533697157362
 31
0.0
  0
LINE
  5
2134D
  8
1PHANTOM
 10
461.8692181014787
 20
-991.6533697157362
 30
0.0
 11
461.7192181014788
 21
-992.4033697157362
 31
0.0
  0
LINE
  5
2134E
  8
1PHANTOM
 10
463.8692181014787
 20
-991.6533697157362
 30
0.0
 11
463.7192181014788
 21
-992.4033697157362
 31
0.0
  0
LINE
  5
2134F
  8
1PHANTOM
 10
461.8692181014787
 20
-991.6533697157362
 30
0.0
 11
462.8692181014787
 21
-996.6533697157362
 31
0.0
  0
LINE
  5
21350
  8
1PHANTOM
 10
461.0192181014788
 20
-995.9033697157362
 30
0.0
 11
460.8692181014787
 21
-996.6533697157362
 31
0.0
  0
LINE
  5
21351
  8
1PHANTOM
 10
427.0192181014788
 20
-995.9033697157362
 30
0.0
 11
426.8692181014787
 21
-996.6533697157362
 31
0.0
  0
LINE
  5
21352
  8
1PHANTOM
 10
425.8692181014787
 20
-991.6533697157362
 30
0.0
 11
425.7192181014788
 21
-992.4033697157362
 31
0.0
  0
LINE
  5
21353
  8
1PHANTOM
 10
425.8692181014787
 20
-991.6533697157362
 30
0.0
 11
426.8692181014787
 21
-996.6533697157362
 31
0.0
  0
LINE
  5
21354
  8
1PHANTOM
 10
429.0192181014788
 20
-995.9033697157362
 30
0.0
 11
428.8692181014787
 21
-996.6533697157362
 31
0.0
  0
LINE
  5
21355
  8
1PHANTOM
 10
427.8692181014787
 20
-991.6533697157362
 30
0.0
 11
427.7192181014788
 21
-992.4033697157362
 31
0.0
  0
LINE
  5
21356
  8
1PHANTOM
 10
427.8692181014787
 20
-991.6533697157362
 30
0.0
 11
428.8692181014787
 21
-996.6533697157362
 31
0.0
  0
LINE
  5
21357
  8
1PHANTOM
 10
431.0192181014788
 20
-995.9033697157362
 30
0.0
 11
430.8692181014787
 21
-996.6533697157362
 31
0.0
  0
LINE
  5
21358
  8
1PHANTOM
 10
429.8692181014787
 20
-991.6533697157362
 30
0.0
 11
429.7192181014788
 21
-992.4033697157362
 31
0.0
  0
LINE
  5
21359
  8
1PHANTOM
 10
429.8692181014787
 20
-991.6533697157362
 30
0.0
 11
430.8692181014787
 21
-996.6533697157362
 31
0.0
  0
LINE
  5
2135A
  8
1PHANTOM
 10
433.0192181014788
 20
-995.9033697157362
 30
0.0
 11
432.8692181014787
 21
-996.6533697157362
 31
0.0
  0
LINE
  5
2135B
  8
1PHANTOM
 10
431.8692181014787
 20
-991.6533697157362
 30
0.0
 11
431.7192181014788
 21
-992.4033697157362
 31
0.0
  0
LINE
  5
2135C
  8
1PHANTOM
 10
431.8692181014787
 20
-991.6533697157362
 30
0.0
 11
432.8692181014787
 21
-996.6533697157362
 31
0.0
  0
LINE
  5
2135D
  8
1PHANTOM
 10
435.0192181014788
 20
-995.9033697157362
 30
0.0
 11
434.8692181014787
 21
-996.6533697157362
 31
0.0
  0
LINE
  5
2135E
  8
1PHANTOM
 10
433.8692181014787
 20
-991.6533697157362
 30
0.0
 11
433.7192181014788
 21
-992.4033697157362
 31
0.0
  0
LINE
  5
2135F
  8
1PHANTOM
 10
433.8692181014787
 20
-991.6533697157362
 30
0.0
 11
434.8692181014787
 21
-996.6533697157362
 31
0.0
  0
LINE
  5
21360
  8
1PHANTOM
 10
425.7513525154329
 20
-995.9033697157362
 30
0.0
 11
425.7513525154329
 21
-992.4033697157362
 31
0.0
  0
LINE
  5
21361
  8
1PHANTOM
 10
453.8692181014787
 20
-991.6533697157362
 30
0.0
 11
453.7192181014788
 21
-992.4033697157362
 31
0.0
  0
LINE
  5
21362
  8
1PHANTOM
 10
455.0192181014788
 20
-995.9033697157362
 30
0.0
 11
454.8692181014787
 21
-996.6533697157362
 31
0.0
  0
LINE
  5
21363
  8
1PHANTOM
 10
455.8692181014787
 20
-991.6533697157362
 30
0.0
 11
455.7192181014788
 21
-992.4033697157362
 31
0.0
  0
LINE
  5
21364
  8
1PHANTOM
 10
453.8692181014787
 20
-991.6533697157362
 30
0.0
 11
454.8692181014787
 21
-996.6533697157362
 31
0.0
  0
LINE
  5
21365
  8
1PHANTOM
 10
441.8692181014787
 20
-991.6533697157362
 30
0.0
 11
442.8692181014787
 21
-996.6533697157362
 31
0.0
  0
LINE
  5
21366
  8
1PHANTOM
 10
447.0192181014788
 20
-995.9033697157362
 30
0.0
 11
446.8692181014787
 21
-996.6533697157362
 31
0.0
  0
LINE
  5
21367
  8
1PHANTOM
 10
445.8692181014787
 20
-991.6533697157362
 30
0.0
 11
445.7192181014788
 21
-992.4033697157362
 31
0.0
  0
LINE
  5
21368
  8
1PHANTOM
 10
445.8692181014787
 20
-991.6533697157362
 30
0.0
 11
446.8692181014787
 21
-996.6533697157362
 31
0.0
  0
LINE
  5
21369
  8
1PHANTOM
 10
443.8692181014787
 20
-991.6533697157362
 30
0.0
 11
444.8692181014787
 21
-996.6533697157362
 31
0.0
  0
LINE
  5
2136A
  8
1PHANTOM
 10
443.8692181014787
 20
-991.6533697157362
 30
0.0
 11
443.7192181014788
 21
-992.4033697157362
 31
0.0
  0
LINE
  5
2136B
  8
1PHANTOM
 10
445.0192181014788
 20
-995.9033697157362
 30
0.0
 11
444.8692181014787
 21
-996.6533697157362
 31
0.0
  0
LINE
  5
2136C
  8
1PHANTOM
 10
443.0192181014788
 20
-995.9033697157362
 30
0.0
 11
442.8692181014787
 21
-996.6533697157362
 31
0.0
  0
LINE
  5
2136D
  8
1PHANTOM
 10
449.8692181014787
 20
-991.6533697157362
 30
0.0
 11
450.8692181014787
 21
-996.6533697157362
 31
0.0
  0
LINE
  5
2136E
  8
1PHANTOM
 10
451.0192181014788
 20
-995.9033697157362
 30
0.0
 11
450.8692181014787
 21
-996.6533697157362
 31
0.0
  0
LINE
  5
2136F
  8
1PHANTOM
 10
451.8692181014787
 20
-991.6533697157362
 30
0.0
 11
451.7192181014788
 21
-992.4033697157362
 31
0.0
  0
LINE
  5
21370
  8
1PHANTOM
 10
453.0192181014788
 20
-995.9033697157362
 30
0.0
 11
452.8692181014787
 21
-996.6533697157362
 31
0.0
  0
LINE
  5
21371
  8
1PHANTOM
 10
451.8692181014787
 20
-991.6533697157362
 30
0.0
 11
452.8692181014787
 21
-996.6533697157362
 31
0.0
  0
LINE
  5
21372
  8
1PHANTOM
 10
449.0192181014788
 20
-995.9033697157362
 30
0.0
 11
448.8692181014787
 21
-996.6533697157362
 31
0.0
  0
LINE
  5
21373
  8
1PHANTOM
 10
447.8692181014787
 20
-991.6533697157362
 30
0.0
 11
447.7192181014788
 21
-992.4033697157362
 31
0.0
  0
LINE
  5
21374
  8
1PHANTOM
 10
449.8692181014787
 20
-991.6533697157362
 30
0.0
 11
449.7192181014788
 21
-992.4033697157362
 31
0.0
  0
LINE
  5
21375
  8
1PHANTOM
 10
447.8692181014787
 20
-991.6533697157362
 30
0.0
 11
448.8692181014787
 21
-996.6533697157362
 31
0.0
  0
LINE
  5
21376
  8
1PHANTOM
 10
439.8692181014787
 20
-991.6533697157362
 30
0.0
 11
439.7192181014788
 21
-992.4033697157362
 31
0.0
  0
LINE
  5
21377
  8
1PHANTOM
 10
437.8692181014787
 20
-991.6533697157362
 30
0.0
 11
438.8692181014787
 21
-996.6533697157362
 31
0.0
  0
LINE
  5
21378
  8
1PHANTOM
 10
437.8692181014787
 20
-991.6533697157362
 30
0.0
 11
437.7192181014788
 21
-992.4033697157362
 31
0.0
  0
LINE
  5
21379
  8
1PHANTOM
 10
439.0192181014788
 20
-995.9033697157362
 30
0.0
 11
438.8692181014787
 21
-996.6533697157362
 31
0.0
  0
LINE
  5
2137A
  8
1PHANTOM
 10
435.8692181014787
 20
-991.6533697157362
 30
0.0
 11
436.8692181014787
 21
-996.6533697157362
 31
0.0
  0
LINE
  5
2137B
  8
1PHANTOM
 10
435.8692181014787
 20
-991.6533697157362
 30
0.0
 11
435.7192181014788
 21
-992.4033697157362
 31
0.0
  0
LINE
  5
2137C
  8
1PHANTOM
 10
437.0192181014788
 20
-995.9033697157362
 30
0.0
 11
436.8692181014787
 21
-996.6533697157362
 31
0.0
  0
LINE
  5
2137D
  8
1PHANTOM
 10
441.8692181014787
 20
-991.6533697157362
 30
0.0
 11
441.7192181014788
 21
-992.4033697157362
 31
0.0
  0
LINE
  5
2137E
  8
1PHANTOM
 10
441.0192181014788
 20
-995.9033697157362
 30
0.0
 11
440.8692181014787
 21
-996.6533697157362
 31
0.0
  0
LINE
  5
2137F
  8
1PHANTOM
 10
439.8692181014787
 20
-991.6533697157362
 30
0.0
 11
440.8692181014787
 21
-996.6533697157362
 31
0.0
  0
LINE
  5
21380
  8
1PHANTOM
 10
457.8692181014787
 20
-991.6533697157362
 30
0.0
 11
457.7192181014788
 21
-992.4033697157362
 31
0.0
  0
LINE
  5
21381
  8
1PHANTOM
 10
457.0192181014788
 20
-995.9033697157362
 30
0.0
 11
456.8692181014787
 21
-996.6533697157362
 31
0.0
  0
LINE
  5
21382
  8
1PHANTOM
 10
455.8692181014787
 20
-991.6533697157362
 30
0.0
 11
456.8692181014787
 21
-996.6533697157362
 31
0.0
  0
LINE
  5
21383
  8
1PHANTOM
 10
426.7513525376355
 20
-998.5379117847411
 30
0.0
 11
426.7513525154329
 21
-989.7879117847416
 31
0.0
  0
LINE
  5
21387
  8
1CENTER
 10
420.5195523721335
 20
-994.1533697157362
 30
0.0
 11
477.4556168665967
 21
-994.1533697157362
 31
0.0
  0
TEXT
  5
21389
  8
1TEXT
 10
368.2167646298323
 20
-894.0090404509153
 30
0.0
 40
8.0
  1
KH-31-X
  0
LINE
  5
2138A
  8
01
 10
270.8587001661292
 20
-981.6533697156888
 30
0.0
 11
-286.5412998338808
 21
-981.653369715735
 31
0.0
  0
LINE
  5
2138B
  8
01
 10
270.858700166131
 20
-1006.653369715732
 30
0.0
 11
-286.5412998338808
 21
-1006.653369715731
 31
0.0
  0
LINE
  5
2138C
  8
01
 10
-286.8412998338801
 20
-1006.353369715731
 30
0.0
 11
-286.8412998338801
 21
-981.9533697157352
 31
0.0
  0
ARC
  5
2138D
  8
01
 10
-286.541299833882
 20
-981.9533697157361
 30
0.0
 40
0.3
 50
90.0
 51
180.0
  0
LINE
  5
2138E
  8
01
 10
-286.8412998338801
 20
-1006.353369715731
 30
0.0
 11
-286.8412998338801
 21
-1005.613369715731
 31
0.0
  0
ARC
  5
2138F
  8
01
 10
-286.5412998338838
 20
-1006.353369715734
 30
0.0
 40
0.3
 50
179.999999999696
 51
270.0000000003474
  0
LINE
  5
21390
  8
01
 10
-286.8412998338801
 20
-1005.653369715732
 30
0.0
 11
-286.8412998338801
 21
-1006.353369715737
 31
0.0
  0
LINE
  5
21391
  8
01
 10
-328.5412998338804
 20
-981.653369715736
 30
0.0
 11
-287.1412998338803
 21
-981.653369715736
 31
0.0
  0
LINE
  5
21392
  8
01
 10
-328.5412998338804
 20
-1006.653369715734
 30
0.0
 11
-287.1412998338803
 21
-1006.653369715734
 31
0.0
  0
LINE
  5
21393
  8
01
 10
-328.8412998338803
 20
-981.9533697157352
 30
0.0
 11
-328.8412998338803
 21
-1006.353369715733
 31
0.0
  0
ARC
  5
21394
  8
01
 10
-328.5412998338804
 20
-981.9533697157352
 30
0.0
 40
0.3
 50
90.00000000002173
 51
180.0
  0
ARC
  5
21395
  8
01
 10
-328.5412998338797
 20
-1006.353369715735
 30
0.0
 40
0.3
 50
179.9999999999131
 51
269.9999999998698
  0
LINE
  5
21396
  8
01
 10
-286.8412998338803
 20
-1006.353369715733
 30
0.0
 11
-286.8412998338803
 21
-981.9533697157352
 31
0.0
  0
ARC
  5
21397
  8
01
 10
-287.1412998338803
 20
-981.9533697157352
 30
0.0
 40
0.3
 50
0.0
 51
90.0
  0
ARC
  5
21398
  8
01
 10
-287.1412998338803
 20
-1006.353369715735
 30
0.0
 40
0.3
 50
270.0000000000217
 51
0.0000000000868503
  0
LINE
  5
21399
  8
01
 10
312.8587001661276
 20
-1006.653369715734
 30
0.0
 11
271.4587001661275
 21
-1006.653369715734
 31
0.0
  0
LINE
  5
2139A
  8
01
 10
312.8587001661276
 20
-981.6533697157361
 30
0.0
 11
271.4587001661275
 21
-981.6533697157361
 31
0.0
  0
ARC
  5
2139B
  8
01
 10
271.4587001661275
 20
-1006.353369715735
 30
0.0
 40
0.3
 50
179.9999999999131
 51
269.9999999999783
  0
ARC
  5
2139C
  8
01
 10
271.4587001661275
 20
-981.9533697157353
 30
0.0
 40
0.3
 50
90.0
 51
180.0
  0
LINE
  5
2139D
  8
01
 10
271.1587001661275
 20
-1006.353369715733
 30
0.0
 11
271.1587001661275
 21
-981.9533697157353
 31
0.0
  0
LINE
  5
2139E
  8
01
 10
271.1587001661273
 20
-1005.653369715732
 30
0.0
 11
271.1587001661273
 21
-1006.353369715737
 31
0.0
  0
ARC
  5
2139F
  8
01
 10
270.858700166131
 20
-1006.353369715734
 30
0.0
 40
0.3
 50
269.9999999996526
 51
0.0000000003039762
  0
LINE
  5
213A0
  8
01
 10
271.1587001661273
 20
-1006.353369715731
 30
0.0
 11
271.1587001661273
 21
-1005.613369715732
 31
0.0
  0
ARC
  5
213A1
  8
01
 10
270.8587001661292
 20
-981.9533697157362
 30
0.0
 40
0.3
 50
0.0
 51
90.0
  0
LINE
  5
213A2
  8
01
 10
271.1587001661273
 20
-1006.353369715731
 30
0.0
 11
271.1587001661273
 21
-981.9533697157353
 31
0.0
  0
ARC
  5
213A3
  8
01
 10
312.8587001661269
 20
-1006.353369715735
 30
0.0
 40
0.3
 50
270.0000000001302
 51
0.0000000000868503
  0
ARC
  5
213A4
  8
01
 10
312.8587001661276
 20
-981.9533697157353
 30
0.0
 40
0.3
 50
0.0
 51
89.9999999999783
  0
LINE
  5
213A5
  8
01
 10
313.1587001661275
 20
-981.9533697157353
 30
0.0
 11
313.1587001661275
 21
-1006.353369715733
 31
0.0
  0
LINE
  5
213A6
  8
01
 10
438.7513525376355
 20
-981.9533697157361
 30
0.0
 11
438.7513525376355
 21
-1006.353369715736
 31
0.0
  0
ARC
  5
213A7
  8
01
 10
376.2513525376392
 20
-994.1533697157363
 30
0.0
 40
12.50000000000728
 50
90.0
 51
270.0
  0
LINE
  5
213A8
  8
01
 10
376.2513525376392
 20
-1006.653369715736
 30
0.0
 11
438.4513525376362
 21
-1006.653369715736
 31
0.0
  0
LINE
  5
213A9
  8
01
 10
376.2513525376392
 20
-981.6533697157362
 30
0.0
 11
438.4513525376362
 21
-981.6533697157362
 31
0.0
  0
LINE
  5
213AA
  8
1CENTER
 10
443.7894405031704
 20
-994.1533697157362
 30
0.0
 11
359.2585428427167
 21
-994.1533697157362
 31
0.0
  0
LINE
  5
213AB
  8
1CENTER
 10
376.2513525376392
 20
-977.1605600208135
 30
0.0
 11
376.2513525376392
 21
-1011.146179410659
 31
0.0
  0
ARC
  5
213AC
  8
01
 10
438.4513525376362
 20
-981.9533697157362
 30
0.0
 40
0.3
 50
0.0
 51
90.0
  0
ARC
  5
213AD
  8
01
 10
438.4513525376362
 20
-1006.353369715736
 30
0.0
 40
0.3
 50
270.0
 51
0.0
  0
LINE
  5
213AE
  8
01
 10
270.858700166129
 20
-903.3817355332102
 30
0.0
 11
-286.5412998338808
 21
-903.3817355332595
 31
0.0
  0
LINE
  5
213AF
  8
01
 10
270.8587001661309
 20
-928.3817355332557
 30
0.0
 11
-286.5412998338808
 21
-928.3817355332559
 31
0.0
  0
LINE
  5
213B0
  8
01
 10
-287.1412998338794
 20
-853.3817355332568
 30
0.0
 11
-328.3412998338801
 21
-853.3817355332568
 31
0.0
  0
ARC
  5
213B1
  8
01
 10
-328.3412998338796
 20
-853.8817355332568
 30
0.0
 40
0.5
 50
90.0
 51
180.0
  0
LINE
  5
213B2
  8
01
 10
-286.8412998338801
 20
-853.6817355332561
 30
0.0
 11
-286.8412998338801
 21
-904.3817355332441
 31
0.0
  0
ARC
  5
213B3
  8
01
 10
-287.1412998338789
 20
-853.6817355332561
 30
0.0
 40
0.3
 50
0.0
 51
90.0
  0
ARC
  5
213B4
  8
01
 10
-286.541299833882
 20
-903.6817355332606
 30
0.0
 40
0.3
 50
90.0
 51
180.0
  0
LINE
  5
213B5
  8
01
 10
-287.1412998338794
 20
-928.3817355332604
 30
0.0
 11
-328.3412998338801
 21
-928.3817355332604
 31
0.0
  0
ARC
  5
213B6
  8
01
 10
-328.3412998338796
 20
-927.8817355332604
 30
0.0
 40
0.5
 50
180.0
 51
270.0
  0
ARC
  5
213B7
  8
01
 10
-287.1412998338789
 20
-928.0817355332612
 30
0.0
 40
0.3
 50
270.0
 51
0.0
  0
LINE
  5
213B8
  8
01
 10
-286.8412998338801
 20
-927.3817355332568
 30
0.0
 11
-286.8412998338801
 21
-928.0817355332612
 31
0.0
  0
ARC
  5
213B9
  8
01
 10
-286.5412998338838
 20
-928.0817355332584
 30
0.0
 40
0.3
 50
179.999999999696
 51
270.0000000003474
  0
LINE
  5
213BA
  8
01
 10
-286.8412998338801
 20
-928.0817355332557
 30
0.0
 11
-286.8412998338801
 21
-927.3417355332559
 31
0.0
  0
LINE
  5
213BB
  8
01
 10
-328.8412998338801
 20
-853.8817355332568
 30
0.0
 11
-328.8412998338801
 21
-927.8817355332604
 31
0.0
  0
LINE
  5
213BC
  8
01
 10
-286.8412998338801
 20
-928.0817355332557
 30
0.0
 11
-286.8412998338801
 21
-903.6817355332597
 31
0.0
  0
LINE
  5
213BD
  8
01
 10
271.4587001661264
 20
-928.3817355332602
 30
0.0
 11
312.6587001661272
 21
-928.3817355332602
 31
0.0
  0
LINE
  5
213BE
  8
01
 10
271.4587001661264
 20
-853.3817355332567
 30
0.0
 11
312.6587001661272
 21
-853.3817355332567
 31
0.0
  0
LINE
  5
213BF
  8
01
 10
271.1587001661272
 20
-928.0817355332555
 30
0.0
 11
271.1587001661272
 21
-903.6817355332595
 31
0.0
  0
LINE
  5
213C0
  8
01
 10
271.1587001661272
 20
-928.0817355332555
 30
0.0
 11
271.1587001661272
 21
-927.3417355332557
 31
0.0
  0
ARC
  5
213C1
  8
01
 10
270.858700166131
 20
-928.0817355332582
 30
0.0
 40
0.3
 50
269.9999999996526
 51
0.0000000003039762
  0
LINE
  5
213C2
  8
01
 10
271.1587001661272
 20
-927.3817355332566
 30
0.0
 11
271.1587001661272
 21
-928.0817355332609
 31
0.0
  0
ARC
  5
213C3
  8
01
 10
271.4587001661261
 20
-928.0817355332609
 30
0.0
 40
0.3
 50
180.0
 51
270.0
  0
ARC
  5
213C4
  8
01
 10
270.8587001661292
 20
-903.6817355332604
 30
0.0
 40
0.3
 50
0.0
 51
90.0
  0
ARC
  5
213C5
  8
01
 10
271.458700166126
 20
-853.681735533256
 30
0.0
 40
0.3
 50
90.0
 51
180.0
  0
LINE
  5
213C6
  8
01
 10
271.1587001661272
 20
-853.681735533256
 30
0.0
 11
271.1587001661272
 21
-904.3817355332438
 31
0.0
  0
LINE
  5
213C7
  8
01
 10
313.1587001661272
 20
-853.8817355332567
 30
0.0
 11
313.1587001661272
 21
-927.8817355332602
 31
0.0
  0
ARC
  5
213C8
  8
01
 10
312.6587001661268
 20
-927.8817355332602
 30
0.0
 40
0.5
 50
270.0
 51
0.0
  0
LINE
  5
213C9
  8
1PHANTOM
 10
292.1587001661235
 20
-871.381735533253
 30
0.0
 11
288.3339135578779
 21
-871.381735533253
 31
0.0
  0
LINE
  5
213CA
  8
1PHANTOM
 10
292.1587001661235
 20
-871.381735533253
 30
0.0
 11
295.9834867743655
 21
-871.381735533253
 31
0.0
  0
ARC
  5
213CB
  8
1PHANTOM
 10
288.3339135578797
 20
-870.3817355332494
 30
0.0
 40
1.0
 50
182.0000000000037
 51
270.0
  0
ARC
  5
213CC
  8
1PHANTOM
 10
286.6758557787187
 20
-865.8817355332494
 30
0.0
 40
0.5
 50
2.000000000003499
 51
90.0
  0
LINE
  5
213CD
  8
1PHANTOM
 10
275.5434381748281
 20
-865.3817355332529
 30
0.0
 11
286.6758557787169
 21
-865.381735533253
 31
0.0
  0
LINE
  5
213CE
  8
1PHANTOM
 10
287.334522730859
 20
-870.4166350299556
 30
0.0
 11
287.1755511922264
 21
-865.8642857849036
 31
0.0
  0
ARC
  5
213CF
  8
1PHANTOM
 10
275.5434381748281
 20
-864.3817355332494
 30
0.0
 40
1.0
 50
182.0000000000037
 51
270.0
  0
LINE
  5
213D0
  8
1PHANTOM
 10
275.5434381748299
 20
-865.381735533253
 30
0.0
 11
276.1587001661235
 21
-865.381735533253
 31
0.0
  0
LINE
  5
213D1
  8
1PHANTOM
 10
274.5440473478109
 20
-864.4166350299556
 30
0.0
 11
274.1587001661235
 21
-853.381735533253
 31
0.0
  0
ARC
  5
213D2
  8
1PHANTOM
 10
297.6415445535247
 20
-865.8817355332494
 30
0.0
 40
0.5
 50
90.0
 51
178.0000000000095
  0
ARC
  5
213D3
  8
1PHANTOM
 10
295.9834867743637
 20
-870.3817355332494
 30
0.0
 40
1.0
 50
270.0
 51
357.9999999999962
  0
LINE
  5
213D4
  8
1PHANTOM
 10
296.9828776013845
 20
-870.4166350299556
 30
0.0
 11
297.1418491400171
 21
-865.8642857849036
 31
0.0
  0
LINE
  5
213D5
  8
01
 10
310.1475496663978
 20
-853.3817355332567
 30
0.0
 11
310.158323920862
 21
-853.3925097877209
 31
0.0
  0
ARC
  5
213D6
  8
1PHANTOM
 10
308.7739621574154
 20
-864.3817355332494
 30
0.0
 40
1.0
 50
270.0
 51
357.9999999999962
  0
LINE
  5
213D7
  8
1PHANTOM
 10
309.7733529844325
 20
-864.4166350299556
 30
0.0
 11
310.1587001661235
 21
-853.381735533253
 31
0.0
  0
ARC
  5
213D8
  8
01
 10
312.6587001661267
 20
-853.8817355332567
 30
0.0
 40
0.5
 50
0.0
 51
90.0
  0
LINE
  5
213D9
  8
01
 10
293.9264671190898
 20
-865.1139685802905
 30
0.0
 11
290.3909332131573
 21
-868.6495024862229
 31
0.0
  0
LINE
  5
213DA
  8
01
 10
293.9264671190898
 20
-868.6495024862229
 30
0.0
 11
290.3909332131573
 21
-865.1139685802905
 31
0.0
  0
CIRCLE
  5
213DB
  8
01
 10
292.1587001661235
 20
-866.8817355332567
 30
0.0
 40
4.0
  0
LINE
  5
213DC
  8
1PHANTOM
 10
-311.6660864421296
 20
-871.3817355332532
 30
0.0
 11
-304.0165132256438
 21
-871.3817355332532
 31
0.0
  0
ARC
  5
213DD
  8
1PHANTOM
 10
-311.6660864421296
 20
-870.3817355332495
 30
0.0
 40
1.0
 50
182.0000000000036
 51
270.0
  0
ARC
  5
213DE
  8
1PHANTOM
 10
-313.3241442212906
 20
-865.8817355332495
 30
0.0
 40
0.5
 50
2.000000000003725
 51
90.0
  0
LINE
  5
213DF
  8
1PHANTOM
 10
-312.6654772691504
 20
-870.4166350299557
 30
0.0
 11
-312.824448807783
 21
-865.8642857849037
 31
0.0
  0
ARC
  5
213E0
  8
1PHANTOM
 10
-324.4565618251813
 20
-864.3817355332495
 30
0.0
 40
1.0
 50
182.0000000000036
 51
270.0
  0
LINE
  5
213E1
  8
1PHANTOM
 10
-324.4565618251794
 20
-865.3817355332532
 30
0.0
 11
-313.3241442212906
 21
-865.3817355332529
 31
0.0
  0
LINE
  5
213E2
  8
1PHANTOM
 10
-325.4559526521984
 20
-864.4166350299557
 30
0.0
 11
-325.8412998338858
 21
-853.3817355332532
 31
0.0
  0
ARC
  5
213E3
  8
1PHANTOM
 10
-302.3584554464846
 20
-865.8817355332495
 30
0.0
 40
0.5
 50
90.0
 51
177.9999999999963
  0
ARC
  5
213E4
  8
1PHANTOM
 10
-304.0165132256456
 20
-870.3817355332495
 30
0.0
 40
1.0
 50
270.0000000000032
 51
357.9999999999964
  0
LINE
  5
213E5
  8
1PHANTOM
 10
-303.0171223986248
 20
-870.4166350299557
 30
0.0
 11
-302.8581508599922
 21
-865.8642857849037
 31
0.0
  0
LINE
  5
213E6
  8
1HATCH
 10
-289.8524503336116
 20
-853.3817355332568
 30
0.0
 11
-289.8416760791474
 21
-853.392509787721
 31
0.0
  0
LINE
  5
213E7
  8
1PHANTOM
 10
-291.2260378425939
 20
-865.3817355332532
 30
0.0
 11
-302.3584554464846
 21
-865.3817355332532
 31
0.0
  0
ARC
  5
213E8
  8
1PHANTOM
 10
-291.2260378425939
 20
-864.3817355332495
 30
0.0
 40
1.0
 50
270.0
 51
357.9999999999964
  0
LINE
  5
213E9
  8
1PHANTOM
 10
-290.2266470155768
 20
-864.4166350299557
 30
0.0
 11
-289.8412998338858
 21
-853.3817355332532
 31
0.0
  0
LINE
  5
213EA
  8
01
 10
-306.0735328809196
 20
-865.1139685802906
 30
0.0
 11
-309.609066786852
 21
-868.649502486223
 31
0.0
  0
LINE
  5
213EB
  8
01
 10
-306.0735328809196
 20
-868.649502486223
 30
0.0
 11
-309.609066786852
 21
-865.1139685802906
 31
0.0
  0
CIRCLE
  5
213EC
  8
01
 10
-307.8412998338858
 20
-866.8817355332568
 30
0.0
 40
4.0
  0
LINE
  5
213ED
  8
1PHANTOM
 10
297.6415445535247
 20
-865.3817355332494
 30
0.0
 11
308.7739621574154
 21
-865.3817355332494
 31
0.0
  0
CIRCLE
  5
213EE
  8
1PHANTOM
 10
279.6587001661235
 20
-994.1533697157361
 30
0.0
 40
3.0
  0
CIRCLE
  5
213EF
  8
1PHANTOM
 10
304.6587001661235
 20
-994.1533697157361
 30
0.0
 40
3.0
  0
CIRCLE
  5
213F0
  8
1PHANTOM
 10
-295.3412998338762
 20
-994.1533697157361
 30
0.0
 40
3.0
  0
CIRCLE
  5
213F1
  8
1PHANTOM
 10
-320.3412998338762
 20
-994.1533697157361
 30
0.0
 40
3.0
  0
LINE
  5
213F2
  8
1DIM
 10
364.5222764328718
 20
-904.6168779246498
 30
0.0
 11
469.5222764328724
 21
-904.6168779246493
 31
0.0
  0
TEXT
  5
213F3
  8
1TEXT
 10
367.8556097662054
 20
-903.1168779246498
 30
0.0
 40
4.0
  1
仕上げ：脚部
 72
     1
 11
381.922276432872
 21
-903.1168779246498
 31
0.0
  0
LINE
  5
213F4
  8
1DIM
 10
364.5222764328718
 20
-897.6168779246498
 30
0.0
 11
469.5222764328724
 21
-897.6168779246493
 31
0.0
  0
TEXT
  5
213F5
  8
1TEXT
 10
445.0556097662054
 20
-903.1168779246498
 30
0.0
 40
4.0
  1
コード
 72
     1
 11
451.922276432872
 21
-903.1168779246498
 31
0.0
  0
TEXT
  5
213F6
  8
1TEXT
 10
403.3889430995387
 20
-903.1168779246498
 30
0.0
 40
4.0
  1
仕上げ：握り
 72
     1
 11
416.922276432872
 21
-903.1168779246498
 31
0.0
  0
LINE
  5
213F7
  8
1DIM
 10
364.5222764328717
 20
-911.6168779246495
 30
0.0
 11
469.5222764328724
 21
-911.6168779246498
 31
0.0
  0
LINE
  5
213F8
  8
1DIM
 10
399.5222764328719
 20
-918.6168779246498
 30
0.0
 11
434.5222764328719
 21
-918.6168779246498
 31
0.0
  0
LINE
  5
213F9
  8
1DIM
 10
364.5222764328715
 20
-918.6168779246495
 30
0.0
 11
469.5222764328724
 21
-918.6168779246498
 31
0.0
  0
TEXT
  5
213FA
  8
1TEXT
 10
405.3889430995396
 20
-917.3312349082992
 30
0.0
 40
4.0
  1
ヘアライン
 72
     1
 11
416.9222764328729
 21
-917.3312349082992
 31
0.0
  0
TEXT
  5
213FB
  8
1TEXT
 10
405.3889430995396
 20
-910.3312349082992
 30
0.0
 40
4.0
  1
ヘアライン
 72
     1
 11
416.9222764328729
 21
-910.3312349082992
 31
0.0
  0
LINE
  5
213FC
  8
1DIM
 10
399.5222764328719
 20
-897.6168779246498
 30
0.0
 11
399.5222764328717
 21
-918.6168779246498
 31
0.0
  0
LINE
  5
213FD
  8
1DIM
 10
434.5222764328719
 20
-897.6168779246493
 30
0.0
 11
434.5222764328719
 21
-918.6168779246498
 31
0.0
  0
LINE
  5
213FE
  8
1DIM
 10
469.5222764328724
 20
-897.6168779246493
 30
0.0
 11
469.5222764328719
 21
-918.6168779246498
 31
0.0
  0
LINE
  5
213FF
  8
1DIM
 10
364.5222764328718
 20
-897.6168779246498
 30
0.0
 11
364.5222764328715
 21
-918.6168779246498
 31
0.0
  0
TEXT
  5
21400
  8
1TEXT
 10
437.2556097662062
 20
-917.3312349082992
 30
0.0
 40
4.0
  1
KH-31-TN
 72
     1
 11
451.9222764328729
 21
-917.3312349082992
 31
0.0
  0
TEXT
  5
21401
  8
1TEXT
 10
437.2556097662062
 20
-910.3312349082992
 30
0.0
 40
4.0
  1
KH-31-TC
 72
     1
 11
451.9222764328729
 21
-910.3312349082992
 31
0.0
  0
TEXT
  5
21402
  8
1TEXT
 10
365.3889430995393
 20
-917.3312349082992
 30
0.0
 40
4.0
  1
サテンニッケル
 72
     1
 11
381.9222764328727
 21
-917.3312349082992
 31
0.0
  0
TEXT
  5
21403
  8
1TEXT
 10
372.4556097662061
 20
-910.3312349082992
 30
0.0
 40
4.0
  1
クローム
 72
     1
 11
381.9222764328727
 21
-910.3312349082992
 31
0.0
  0
LINE
  5
21409
  8
01
 10
268.0587001661268
 20
-850.3817355332567
 30
0.0
 11
268.0587001661268
 21
-853.0817355332567
 31
0.0
  0
LINE
  5
2140A
  8
01
 10
316.0587001661268
 20
-850.3817355332567
 30
0.0
 11
316.0587001661267
 21
-853.0817355332567
 31
0.0
  0
LINE
  5
2140B
  8
01
 10
315.7587001661266
 20
-853.3817355332567
 30
0.0
 11
268.3587001661269
 21
-853.3817355332567
 31
0.0
  0
LINE
  5
2140C
  8
01
 10
268.0587001661268
 20
-850.3817355332567
 30
0.0
 11
316.0587001661268
 21
-850.3817355332567
 31
0.0
  0
ARC
  5
2140D
  8
01
 10
315.7587001661266
 20
-853.0817355332567
 30
0.0
 40
0.3
 50
270.0
 51
0.0
  0
ARC
  5
2140E
  8
01
 10
268.3587001661269
 20
-853.0817355332567
 30
0.0
 40
0.3
 50
180.0
 51
270.0
  0
LINE
  5
21410
  8
01
 10
441.7513525376355
 20
-980.1533697157362
 30
0.0
 11
441.7513525376355
 21
-1008.153369715736
 31
0.0
  0
LINE
  5
21411
  8
01
 10
438.7513525376355
 20
-1007.653369715736
 30
0.0
 11
438.7513525376355
 21
-980.6533697157362
 31
0.0
  0
LINE
  5
21412
  8
01
 10
439.2513525376355
 20
-1008.153369715736
 30
0.0
 11
441.7513525376355
 21
-1008.153369715736
 31
0.0
  0
LINE
  5
21413
  8
01
 10
439.2513525376355
 20
-980.1533697157362
 30
0.0
 11
441.7513525376355
 21
-980.1533697157362
 31
0.0
  0
ARC
  5
21414
  8
01
 10
439.2513525376355
 20
-980.6533697157362
 30
0.0
 40
0.5
 50
90.0
 51
180.0
  0
ARC
  5
21415
  8
01
 10
439.2513525376355
 20
-1007.653369715736
 30
0.0
 40
0.5
 50
180.0
 51
270.0
  0
LINE
  5
21417
  8
01
 10
315.0587001661268
 20
-980.1533697157362
 30
0.0
 11
269.0587001661268
 21
-980.1533697157362
 31
0.0
  0
LINE
  5
21418
  8
01
 10
315.0587001661268
 20
-1008.153369715736
 30
0.0
 11
269.0587001661268
 21
-1008.153369715736
 31
0.0
  0
LINE
  5
21419
  8
01
 10
316.0587001661268
 20
-981.1533697157362
 30
0.0
 11
316.0587001661268
 21
-1007.153369715736
 31
0.0
  0
LINE
  5
2141A
  8
01
 10
268.0587001661268
 20
-1007.153369715736
 30
0.0
 11
268.0587001661268
 21
-1006.653369715731
 31
0.0
  0
LINE
  5
2141B
  8
01
 10
268.0587001661268
 20
-981.653369715689
 30
0.0
 11
268.0587001661268
 21
-981.1533697157362
 31
0.0
  0
ARC
  5
2141C
  8
01
 10
315.0587001661268
 20
-981.1533697157362
 30
0.0
 40
1.0
 50
0.0
 51
90.0
  0
ARC
  5
2141D
  8
01
 10
315.0587001661268
 20
-1007.153369715736
 30
0.0
 40
1.0
 50
270.0
 51
0.0000000000065138
  0
ARC
  5
2141E
  8
01
 10
269.0587001661268
 20
-1007.153369715736
 30
0.0
 40
1.0
 50
179.9999999999935
 51
270.0
  0
ARC
  5
2141F
  8
01
 10
269.0587001661268
 20
-981.1533697157362
 30
0.0
 40
1.0
 50
90.0
 51
180.0
  0
LINE
  5
21420
  8
01
 10
-330.7412998338785
 20
-980.1533697157361
 30
0.0
 11
-284.7412998338787
 21
-980.1533697157361
 31
0.0
  0
LINE
  5
21421
  8
01
 10
-330.7412998338786
 20
-1008.153369715736
 30
0.0
 11
-284.7412998338787
 21
-1008.153369715736
 31
0.0
  0
LINE
  5
21422
  8
01
 10
-331.7412998338785
 20
-981.1533697157361
 30
0.0
 11
-331.7412998338786
 21
-1007.153369715736
 31
0.0
  0
LINE
  5
21423
  8
01
 10
-283.7412998338787
 20
-1007.153369715736
 30
0.0
 11
-283.7412998338787
 21
-1006.653369715731
 31
0.0
  0
LINE
  5
21424
  8
01
 10
-283.7412998338787
 20
-981.6533697156889
 30
0.0
 11
-283.7412998338787
 21
-981.1533697157361
 31
0.0
  0
ARC
  5
21425
  8
01
 10
-330.7412998338786
 20
-981.1533697157361
 30
0.0
 40
1.0
 50
89.99999999999675
 51
180.0
  0
ARC
  5
21426
  8
01
 10
-330.7412998338786
 20
-1007.153369715736
 30
0.0
 40
1.0
 50
179.9999999999935
 51
270.0
  0
ARC
  5
21427
  8
01
 10
-284.7412998338787
 20
-1007.153369715736
 30
0.0
 40
1.0
 50
270.0
 51
0.0000000000065138
  0
ARC
  5
21428
  8
01
 10
-284.7412998338786
 20
-981.1533697157361
 30
0.0
 40
1.0
 50
0.0
 51
90.00000000000325
  0
LINE
  5
21429
  8
01
 10
-283.7412998338787
 20
-850.3817355332567
 30
0.0
 11
-283.7412998338787
 21
-853.0817355332567
 31
0.0
  0
LINE
  5
2142A
  8
01
 10
-331.7412998338785
 20
-850.3817355332567
 30
0.0
 11
-331.7412998338785
 21
-853.0817355332567
 31
0.0
  0
LINE
  5
2142B
  8
01
 10
-331.4412998338785
 20
-853.3817355332567
 30
0.0
 11
-284.0412998338787
 21
-853.3817355332567
 31
0.0
  0
LINE
  5
2142C
  8
01
 10
-283.7412998338787
 20
-850.3817355332567
 30
0.0
 11
-331.7412998338785
 21
-850.3817355332567
 31
0.0
  0
ARC
  5
2142D
  8
01
 10
-331.4412998338785
 20
-853.0817355332567
 30
0.0
 40
0.3
 50
180.0
 51
270.0
  0
ARC
  5
2142E
  8
01
 10
-284.0412998338787
 20
-853.0817355332567
 30
0.0
 40
0.3
 50
270.0
 51
0.0
  0
TEXT
  5
21437
  8
1TEXT
 10
229.1496777915367
 20
-867.6271772229218
 30
0.0
 40
3.5
  1
仕上げ：クローム
  0
TEXT
  5
21438
  8
1TEXT
 10
225.5449815354862
 20
-890.3660081313956
 30
0.0
 40
3.5
  1
仕上げ：クローム
  0
LINE
  5
2193E
  8
1PHANTOM
 10
300.2741580971188
 20
-866.381725364623
 30
0.0
 11
309.0337001661238
 21
-866.381745746281
 31
0.0
  0
LINE
  5
2193F
  8
1PHANTOM
 10
300.2837001661238
 20
-866.3817253868256
 30
0.0
 11
300.2837001661238
 21
-865.3817355443507
 31
0.0
  0
LINE
  5
21940
  8
1PHANTOM
 10
301.983700166124
 20
-866.3817253868256
 30
0.0
 11
301.983700166124
 21
-865.3817355443507
 31
0.0
  0
LINE
  5
21941
  8
1PHANTOM
 10
309.0337001661238
 20
-866.381745746281
 30
0.0
 11
309.0337001661233
 21
-865.3817355221481
 31
0.0
  0
LINE
  5
21942
  8
1PHANTOM
 10
307.3337001661235
 20
-866.381745746281
 30
0.0
 11
307.3337001661235
 21
-865.3817355443507
 31
0.0
  0
LINE
  5
21944
  8
1PHANTOM
 10
302.1491580971183
 20
-834.2638699583048
 30
0.0
 11
307.1491580971183
 21
-833.2638699583048
 31
0.0
  0
LINE
  5
21945
  8
1PHANTOM
 10
304.9625147840621
 20
-817.401198620916
 30
0.0
 11
305.7125147840621
 21
-817.5511986209159
 31
0.0
  0
LINE
  5
21946
  8
1PHANTOM
 10
302.1491580971183
 20
-828.2638699583048
 30
0.0
 11
307.1491580971183
 21
-827.2638699583048
 31
0.0
  0
LINE
  5
21947
  8
1PHANTOM
 10
306.3991580971183
 20
-827.1138699583047
 30
0.0
 11
307.1491580971183
 21
-827.2638699583048
 31
0.0
  0
LINE
  5
21948
  8
1PHANTOM
 10
306.3991580971183
 20
-825.1138699583047
 30
0.0
 11
307.1491580971183
 21
-825.2638699583048
 31
0.0
  0
LINE
  5
21949
  8
1PHANTOM
 10
302.1491580971183
 20
-826.2638699583048
 30
0.0
 11
302.8991580971183
 21
-826.4138699583046
 31
0.0
  0
LINE
  5
2194A
  8
1PHANTOM
 10
302.1491580971183
 20
-826.2638699583048
 30
0.0
 11
307.1491580971183
 21
-825.2638699583048
 31
0.0
  0
LINE
  5
2194B
  8
1PHANTOM
 10
305.9797956371731
 20
-821.1977424502937
 30
0.0
 11
306.7297956371731
 21
-821.3477424502938
 31
0.0
  0
LINE
  5
2194C
  8
1PHANTOM
 10
305.4711552106178
 20
-819.2994705356049
 30
0.0
 11
306.2211552106178
 21
-819.449470535605
 31
0.0
  0
LINE
  5
2194D
  8
1PHANTOM
 10
302.8991344263418
 20
-820.11387469246
 30
0.0
 11
303.6491344263418
 21
-820.26387469246
 31
0.0
  0
LINE
  5
2194E
  8
1PHANTOM
 10
302.8991344263418
 20
-820.11387469246
 30
0.0
 11
306.2211552106178
 21
-819.449470535605
 31
0.0
  0
LINE
  5
2194F
  8
1PHANTOM
 10
303.4653776966011
 20
-818.0006260384081
 30
0.0
 11
304.2153776966011
 21
-818.1506260384082
 31
0.0
  0
LINE
  5
21950
  8
1PHANTOM
 10
306.3991580971183
 20
-823.1138699583047
 30
0.0
 11
307.1491580971183
 21
-823.2638699583048
 31
0.0
  0
LINE
  5
21951
  8
1PHANTOM
 10
302.1491580971183
 20
-824.2638699583048
 30
0.0
 11
302.8991580971183
 21
-824.4138699583046
 31
0.0
  0
LINE
  5
21952
  8
1PHANTOM
 10
302.1491580971183
 20
-824.2638699583048
 30
0.0
 11
307.1491580971183
 21
-823.2638699583048
 31
0.0
  0
LINE
  5
21953
  8
1PHANTOM
 10
302.3328911560826
 20
-822.227123346512
 30
0.0
 11
303.0828911560826
 21
-822.3771233465119
 31
0.0
  0
LINE
  5
21954
  8
1PHANTOM
 10
302.3328911560826
 20
-822.227123346512
 30
0.0
 11
306.7297956371731
 21
-821.3477424502938
 31
0.0
  0
LINE
  5
21955
  8
1PHANTOM
 10
303.4653776966011
 20
-818.0006260384081
 30
0.0
 11
305.7125147840621
 21
-817.5511986209159
 31
0.0
  0
LINE
  5
21956
  8
1PHANTOM
 10
306.3991580971183
 20
-833.1138699583047
 30
0.0
 11
307.1491580971183
 21
-833.2638699583048
 31
0.0
  0
LINE
  5
21957
  8
1PHANTOM
 10
302.1491580971183
 20
-832.2638699583048
 30
0.0
 11
302.8991580971183
 21
-832.4138699583046
 31
0.0
  0
LINE
  5
21958
  8
1PHANTOM
 10
302.1491580971183
 20
-832.2638699583048
 30
0.0
 11
307.1491580971183
 21
-831.2638699583048
 31
0.0
  0
LINE
  5
21959
  8
1PHANTOM
 10
306.3991580971183
 20
-829.1138699583047
 30
0.0
 11
307.1491580971183
 21
-829.2638699583048
 31
0.0
  0
LINE
  5
2195A
  8
1PHANTOM
 10
302.1491580971183
 20
-830.2638699583048
 30
0.0
 11
302.8991580971183
 21
-830.4138699583046
 31
0.0
  0
LINE
  5
2195B
  8
1PHANTOM
 10
302.1491580971183
 20
-828.2638699583048
 30
0.0
 11
302.8991580971183
 21
-828.4138699583046
 31
0.0
  0
LINE
  5
2195C
  8
1PHANTOM
 10
302.1491580971183
 20
-830.2638699583048
 30
0.0
 11
307.1491580971183
 21
-829.2638699583048
 31
0.0
  0
LINE
  5
2195D
  8
1PHANTOM
 10
306.3991580971183
 20
-831.1138699583047
 30
0.0
 11
307.1491580971183
 21
-831.2638699583048
 31
0.0
  0
LINE
  5
2195E
  8
1PHANTOM
 10
306.3991580971183
 20
-865.1138699583048
 30
0.0
 11
307.1491580971183
 21
-865.2638699583049
 31
0.0
  0
LINE
  5
2195F
  8
1PHANTOM
 10
302.1491580971183
 20
-866.2638699583049
 30
0.0
 11
302.8991580971183
 21
-866.4138699583048
 31
0.0
  0
LINE
  5
21960
  8
1PHANTOM
 10
302.1491580971183
 20
-866.2638699583049
 30
0.0
 11
307.1491580971183
 21
-865.2638699583049
 31
0.0
  0
LINE
  5
21961
  8
1PHANTOM
 10
306.3991580971183
 20
-863.1138699583048
 30
0.0
 11
307.1491580971183
 21
-863.2638699583049
 31
0.0
  0
LINE
  5
21962
  8
1PHANTOM
 10
302.1491580971183
 20
-864.2638699583049
 30
0.0
 11
302.8991580971183
 21
-864.4138699583048
 31
0.0
  0
LINE
  5
21963
  8
1PHANTOM
 10
302.1491580971183
 20
-864.2638699583049
 30
0.0
 11
307.1491580971183
 21
-863.2638699583049
 31
0.0
  0
LINE
  5
21964
  8
1PHANTOM
 10
306.3991580971183
 20
-861.1138699583047
 30
0.0
 11
307.1491580971183
 21
-861.2638699583049
 31
0.0
  0
LINE
  5
21965
  8
1PHANTOM
 10
302.1491580971183
 20
-862.2638699583049
 30
0.0
 11
302.8991580971183
 21
-862.4138699583048
 31
0.0
  0
LINE
  5
21966
  8
1PHANTOM
 10
302.1491580971183
 20
-862.2638699583049
 30
0.0
 11
307.1491580971183
 21
-861.2638699583049
 31
0.0
  0
LINE
  5
21967
  8
1PHANTOM
 10
306.3991580971183
 20
-859.1138699583047
 30
0.0
 11
307.1491580971183
 21
-859.2638699583048
 31
0.0
  0
LINE
  5
21968
  8
1PHANTOM
 10
302.1491580971183
 20
-860.2638699583048
 30
0.0
 11
302.8991580971183
 21
-860.4138699583046
 31
0.0
  0
LINE
  5
21969
  8
1PHANTOM
 10
302.1491580971183
 20
-860.2638699583048
 30
0.0
 11
307.1491580971183
 21
-859.2638699583048
 31
0.0
  0
LINE
  5
2196A
  8
1PHANTOM
 10
306.3991580971183
 20
-857.1138699583047
 30
0.0
 11
307.1491580971183
 21
-857.2638699583048
 31
0.0
  0
LINE
  5
2196B
  8
1PHANTOM
 10
302.1491580971183
 20
-858.2638699583048
 30
0.0
 11
302.8991580971183
 21
-858.4138699583046
 31
0.0
  0
LINE
  5
2196C
  8
1PHANTOM
 10
302.1491580971183
 20
-858.2638699583048
 30
0.0
 11
307.1491580971183
 21
-857.2638699583048
 31
0.0
  0
LINE
  5
2196D
  8
1PHANTOM
 10
306.3991580971183
 20
-866.3817355443507
 30
0.0
 11
302.8991580971183
 21
-866.3817355443507
 31
0.0
  0
LINE
  5
2196E
  8
1PHANTOM
 10
302.1491580971183
 20
-838.2638699583048
 30
0.0
 11
302.8991580971183
 21
-838.4138699583046
 31
0.0
  0
LINE
  5
2196F
  8
1PHANTOM
 10
306.3991580971183
 20
-837.1138699583047
 30
0.0
 11
307.1491580971183
 21
-837.2638699583048
 31
0.0
  0
LINE
  5
21970
  8
1PHANTOM
 10
302.1491580971183
 20
-836.2638699583048
 30
0.0
 11
302.8991580971183
 21
-836.4138699583046
 31
0.0
  0
LINE
  5
21971
  8
1PHANTOM
 10
302.1491580971183
 20
-838.2638699583048
 30
0.0
 11
307.1491580971183
 21
-837.2638699583048
 31
0.0
  0
LINE
  5
21972
  8
1PHANTOM
 10
302.1491580971183
 20
-850.2638699583048
 30
0.0
 11
307.1491580971183
 21
-849.2638699583048
 31
0.0
  0
LINE
  5
21973
  8
1PHANTOM
 10
306.3991580971183
 20
-845.1138699583047
 30
0.0
 11
307.1491580971183
 21
-845.2638699583048
 31
0.0
  0
LINE
  5
21974
  8
1PHANTOM
 10
302.1491580971183
 20
-846.2638699583048
 30
0.0
 11
302.8991580971183
 21
-846.4138699583046
 31
0.0
  0
LINE
  5
21975
  8
1PHANTOM
 10
302.1491580971183
 20
-846.2638699583048
 30
0.0
 11
307.1491580971183
 21
-845.2638699583048
 31
0.0
  0
LINE
  5
21976
  8
1PHANTOM
 10
302.1491580971183
 20
-848.2638699583048
 30
0.0
 11
307.1491580971183
 21
-847.2638699583048
 31
0.0
  0
LINE
  5
21977
  8
1PHANTOM
 10
302.1491580971183
 20
-848.2638699583048
 30
0.0
 11
302.8991580971183
 21
-848.4138699583046
 31
0.0
  0
LINE
  5
21978
  8
1PHANTOM
 10
306.3991580971183
 20
-847.1138699583047
 30
0.0
 11
307.1491580971183
 21
-847.2638699583048
 31
0.0
  0
LINE
  5
21979
  8
1PHANTOM
 10
306.3991580971183
 20
-849.1138699583047
 30
0.0
 11
307.1491580971183
 21
-849.2638699583048
 31
0.0
  0
LINE
  5
2197A
  8
1PHANTOM
 10
302.1491580971183
 20
-842.2638699583048
 30
0.0
 11
307.1491580971183
 21
-841.2638699583048
 31
0.0
  0
LINE
  5
2197B
  8
1PHANTOM
 10
306.3991580971183
 20
-841.1138699583047
 30
0.0
 11
307.1491580971183
 21
-841.2638699583048
 31
0.0
  0
LINE
  5
2197C
  8
1PHANTOM
 10
302.1491580971183
 20
-840.2638699583048
 30
0.0
 11
302.8991580971183
 21
-840.4138699583046
 31
0.0
  0
LINE
  5
2197D
  8
1PHANTOM
 10
306.3991580971183
 20
-839.1138699583047
 30
0.0
 11
307.1491580971183
 21
-839.2638699583048
 31
0.0
  0
LINE
  5
2197E
  8
1PHANTOM
 10
302.1491580971183
 20
-840.2638699583048
 30
0.0
 11
307.1491580971183
 21
-839.2638699583048
 31
0.0
  0
LINE
  5
2197F
  8
1PHANTOM
 10
306.3991580971183
 20
-843.1138699583047
 30
0.0
 11
307.1491580971183
 21
-843.2638699583048
 31
0.0
  0
LINE
  5
21980
  8
1PHANTOM
 10
302.1491580971183
 20
-844.2638699583048
 30
0.0
 11
302.8991580971183
 21
-844.4138699583046
 31
0.0
  0
LINE
  5
21981
  8
1PHANTOM
 10
302.1491580971183
 20
-842.2638699583048
 30
0.0
 11
302.8991580971183
 21
-842.4138699583046
 31
0.0
  0
LINE
  5
21982
  8
1PHANTOM
 10
302.1491580971183
 20
-844.2638699583048
 30
0.0
 11
307.1491580971183
 21
-843.2638699583048
 31
0.0
  0
LINE
  5
21983
  8
1PHANTOM
 10
302.1491580971183
 20
-852.2638699583048
 30
0.0
 11
302.8991580971183
 21
-852.4138699583046
 31
0.0
  0
LINE
  5
21984
  8
1PHANTOM
 10
302.1491580971183
 20
-854.2638699583048
 30
0.0
 11
307.1491580971183
 21
-853.2638699583048
 31
0.0
  0
LINE
  5
21985
  8
1PHANTOM
 10
302.1491580971183
 20
-854.2638699583048
 30
0.0
 11
302.8991580971183
 21
-854.4138699583046
 31
0.0
  0
LINE
  5
21986
  8
1PHANTOM
 10
306.3991580971183
 20
-853.1138699583047
 30
0.0
 11
307.1491580971183
 21
-853.2638699583048
 31
0.0
  0
LINE
  5
21987
  8
1PHANTOM
 10
302.1491580971183
 20
-856.2638699583048
 30
0.0
 11
307.1491580971183
 21
-855.2638699583048
 31
0.0
  0
LINE
  5
21988
  8
1PHANTOM
 10
302.1491580971183
 20
-856.2638699583048
 30
0.0
 11
302.8991580971183
 21
-856.4138699583046
 31
0.0
  0
LINE
  5
21989
  8
1PHANTOM
 10
306.3991580971183
 20
-855.1138699583047
 30
0.0
 11
307.1491580971183
 21
-855.2638699583048
 31
0.0
  0
LINE
  5
2198A
  8
1PHANTOM
 10
302.1491580971183
 20
-850.2638699583048
 30
0.0
 11
302.8991580971183
 21
-850.4138699583046
 31
0.0
  0
LINE
  5
2198B
  8
1PHANTOM
 10
306.3991580971183
 20
-851.1138699583047
 30
0.0
 11
307.1491580971183
 21
-851.2638699583048
 31
0.0
  0
LINE
  5
2198C
  8
1PHANTOM
 10
302.1491580971183
 20
-852.2638699583048
 30
0.0
 11
307.1491580971183
 21
-851.2638699583048
 31
0.0
  0
LINE
  5
2198D
  8
1PHANTOM
 10
302.1491580971183
 20
-834.2638699583048
 30
0.0
 11
302.8991580971183
 21
-834.4138699583046
 31
0.0
  0
LINE
  5
2198E
  8
1PHANTOM
 10
306.3991580971183
 20
-835.1138699583047
 30
0.0
 11
307.1491580971183
 21
-835.2638699583048
 31
0.0
  0
LINE
  5
2198F
  8
1PHANTOM
 10
302.1491580971183
 20
-836.2638699583048
 30
0.0
 11
307.1491580971183
 21
-835.2638699583048
 31
0.0
  0
LINE
  5
21990
  8
1PHANTOM
 10
309.0337001661233
 20
-865.3817355221481
 30
0.0
 11
300.2837001661238
 21
-865.3817355443507
 31
0.0
  0
LINE
  5
21991
  8
1CENTER
 10
304.6491580971183
 20
-871.61353568765
 30
0.0
 11
304.6491580971183
 21
-814.6774711931868
 31
0.0
  0
LINE
  5
21999
  8
1CENTER
 10
275.1587
 20
-994.1534
 30
0.0
 11
309.1587
 21
-994.1534
 31
0.0
  0
LINE
  5
2199A
  8
1CENTER
 10
279.6587
 20
-998.6534
 30
0.0
 11
279.6587
 21
-989.6534
 31
0.0
  0
LINE
  5
2199C
  8
1CENTER
 10
304.6587
 20
-998.6534
 30
0.0
 11
304.6587
 21
-989.6534
 31
0.0
  0
LINE
  5
2199D
  8
1CENTER
 10
-324.8413
 20
-994.1534
 30
0.0
 11
-290.8413
 21
-994.1534
 31
0.0
  0
LINE
  5
2199E
  8
1CENTER
 10
-320.3413
 20
-998.6534
 30
0.0
 11
-320.3413
 21
-989.6534
 31
0.0
  0
LINE
  5
219A0
  8
1CENTER
 10
-295.3413
 20
-998.6534
 30
0.0
 11
-295.3413
 21
-989.6534
 31
0.0
  0
LINE
  5
21A2F
  8
1PHANTOM
 10
275.2741579309953
 20
-866.3817253646265
 30
0.0
 11
284.0337000000002
 21
-866.3817457462845
 31
0.0
  0
LINE
  5
21A30
  8
1PHANTOM
 10
275.2837000000002
 20
-866.3817253868291
 30
0.0
 11
275.2837000000002
 21
-865.3817355443542
 31
0.0
  0
LINE
  5
21A31
  8
1PHANTOM
 10
276.9837000000005
 20
-866.3817253868291
 30
0.0
 11
276.9837000000005
 21
-865.3817355443542
 31
0.0
  0
LINE
  5
21A32
  8
1PHANTOM
 10
284.0337000000002
 20
-866.3817457462845
 30
0.0
 11
284.0336999999998
 21
-865.3817355221516
 31
0.0
  0
LINE
  5
21A33
  8
1PHANTOM
 10
282.3337
 20
-866.3817457462845
 30
0.0
 11
282.3337
 21
-865.3817355443542
 31
0.0
  0
LINE
  5
21A35
  8
1PHANTOM
 10
277.1491579309948
 20
-834.2638699583083
 30
0.0
 11
282.1491579309948
 21
-833.2638699583083
 31
0.0
  0
LINE
  5
21A36
  8
1PHANTOM
 10
279.9625146179386
 20
-817.4011986209196
 30
0.0
 11
280.7125146179386
 21
-817.5511986209194
 31
0.0
  0
LINE
  5
21A37
  8
1PHANTOM
 10
277.1491579309948
 20
-828.2638699583083
 30
0.0
 11
282.1491579309948
 21
-827.2638699583083
 31
0.0
  0
LINE
  5
21A38
  8
1PHANTOM
 10
281.3991579309948
 20
-827.1138699583082
 30
0.0
 11
282.1491579309948
 21
-827.2638699583083
 31
0.0
  0
LINE
  5
21A39
  8
1PHANTOM
 10
281.3991579309948
 20
-825.1138699583082
 30
0.0
 11
282.1491579309948
 21
-825.2638699583083
 31
0.0
  0
LINE
  5
21A3A
  8
1PHANTOM
 10
277.1491579309948
 20
-826.2638699583083
 30
0.0
 11
277.8991579309948
 21
-826.4138699583082
 31
0.0
  0
LINE
  5
21A3B
  8
1PHANTOM
 10
277.1491579309948
 20
-826.2638699583083
 30
0.0
 11
282.1491579309948
 21
-825.2638699583083
 31
0.0
  0
LINE
  5
21A3C
  8
1PHANTOM
 10
280.9797954710496
 20
-821.1977424502973
 30
0.0
 11
281.7297954710496
 21
-821.3477424502973
 31
0.0
  0
LINE
  5
21A3D
  8
1PHANTOM
 10
280.4711550444943
 20
-819.2994705356084
 30
0.0
 11
281.2211550444943
 21
-819.4494705356085
 31
0.0
  0
LINE
  5
21A3E
  8
1PHANTOM
 10
277.8991342602183
 20
-820.1138746924635
 30
0.0
 11
278.6491342602183
 21
-820.2638746924636
 31
0.0
  0
LINE
  5
21A3F
  8
1PHANTOM
 10
277.8991342602183
 20
-820.1138746924635
 30
0.0
 11
281.2211550444943
 21
-819.4494705356085
 31
0.0
  0
LINE
  5
21A40
  8
1PHANTOM
 10
278.4653775304776
 20
-818.0006260384116
 30
0.0
 11
279.2153775304776
 21
-818.1506260384117
 31
0.0
  0
LINE
  5
21A41
  8
1PHANTOM
 10
281.3991579309948
 20
-823.1138699583082
 30
0.0
 11
282.1491579309948
 21
-823.2638699583083
 31
0.0
  0
LINE
  5
21A42
  8
1PHANTOM
 10
277.1491579309948
 20
-824.2638699583083
 30
0.0
 11
277.8991579309948
 21
-824.4138699583082
 31
0.0
  0
LINE
  5
21A43
  8
1PHANTOM
 10
277.1491579309948
 20
-824.2638699583083
 30
0.0
 11
282.1491579309948
 21
-823.2638699583083
 31
0.0
  0
LINE
  5
21A44
  8
1PHANTOM
 10
277.332890989959
 20
-822.2271233465156
 30
0.0
 11
278.082890989959
 21
-822.3771233465154
 31
0.0
  0
LINE
  5
21A45
  8
1PHANTOM
 10
277.332890989959
 20
-822.2271233465156
 30
0.0
 11
281.7297954710496
 21
-821.3477424502973
 31
0.0
  0
LINE
  5
21A46
  8
1PHANTOM
 10
278.4653775304776
 20
-818.0006260384116
 30
0.0
 11
280.7125146179386
 21
-817.5511986209194
 31
0.0
  0
LINE
  5
21A47
  8
1PHANTOM
 10
281.3991579309948
 20
-833.1138699583082
 30
0.0
 11
282.1491579309948
 21
-833.2638699583083
 31
0.0
  0
LINE
  5
21A48
  8
1PHANTOM
 10
277.1491579309948
 20
-832.2638699583083
 30
0.0
 11
277.8991579309948
 21
-832.4138699583082
 31
0.0
  0
LINE
  5
21A49
  8
1PHANTOM
 10
277.1491579309948
 20
-832.2638699583083
 30
0.0
 11
282.1491579309948
 21
-831.2638699583083
 31
0.0
  0
LINE
  5
21A4A
  8
1PHANTOM
 10
281.3991579309948
 20
-829.1138699583082
 30
0.0
 11
282.1491579309948
 21
-829.2638699583083
 31
0.0
  0
LINE
  5
21A4B
  8
1PHANTOM
 10
277.1491579309948
 20
-830.2638699583083
 30
0.0
 11
277.8991579309948
 21
-830.4138699583082
 31
0.0
  0
LINE
  5
21A4C
  8
1PHANTOM
 10
277.1491579309948
 20
-828.2638699583083
 30
0.0
 11
277.8991579309948
 21
-828.4138699583082
 31
0.0
  0
LINE
  5
21A4D
  8
1PHANTOM
 10
277.1491579309948
 20
-830.2638699583083
 30
0.0
 11
282.1491579309948
 21
-829.2638699583083
 31
0.0
  0
LINE
  5
21A4E
  8
1PHANTOM
 10
281.3991579309948
 20
-831.1138699583082
 30
0.0
 11
282.1491579309948
 21
-831.2638699583083
 31
0.0
  0
LINE
  5
21A4F
  8
1PHANTOM
 10
281.3991579309948
 20
-865.1138699583083
 30
0.0
 11
282.1491579309948
 21
-865.2638699583084
 31
0.0
  0
LINE
  5
21A50
  8
1PHANTOM
 10
277.1491579309948
 20
-866.2638699583084
 30
0.0
 11
277.8991579309948
 21
-866.4138699583083
 31
0.0
  0
LINE
  5
21A51
  8
1PHANTOM
 10
277.1491579309948
 20
-866.2638699583084
 30
0.0
 11
282.1491579309948
 21
-865.2638699583084
 31
0.0
  0
LINE
  5
21A52
  8
1PHANTOM
 10
281.3991579309948
 20
-863.1138699583083
 30
0.0
 11
282.1491579309948
 21
-863.2638699583084
 31
0.0
  0
LINE
  5
21A53
  8
1PHANTOM
 10
277.1491579309948
 20
-864.2638699583084
 30
0.0
 11
277.8991579309948
 21
-864.4138699583083
 31
0.0
  0
LINE
  5
21A54
  8
1PHANTOM
 10
277.1491579309948
 20
-864.2638699583084
 30
0.0
 11
282.1491579309948
 21
-863.2638699583084
 31
0.0
  0
LINE
  5
21A55
  8
1PHANTOM
 10
281.3991579309948
 20
-861.1138699583082
 30
0.0
 11
282.1491579309948
 21
-861.2638699583084
 31
0.0
  0
LINE
  5
21A56
  8
1PHANTOM
 10
277.1491579309948
 20
-862.2638699583084
 30
0.0
 11
277.8991579309948
 21
-862.4138699583083
 31
0.0
  0
LINE
  5
21A57
  8
1PHANTOM
 10
277.1491579309948
 20
-862.2638699583084
 30
0.0
 11
282.1491579309948
 21
-861.2638699583084
 31
0.0
  0
LINE
  5
21A58
  8
1PHANTOM
 10
281.3991579309948
 20
-859.1138699583082
 30
0.0
 11
282.1491579309948
 21
-859.2638699583083
 31
0.0
  0
LINE
  5
21A59
  8
1PHANTOM
 10
277.1491579309948
 20
-860.2638699583083
 30
0.0
 11
277.8991579309948
 21
-860.4138699583082
 31
0.0
  0
LINE
  5
21A5A
  8
1PHANTOM
 10
277.1491579309948
 20
-860.2638699583083
 30
0.0
 11
282.1491579309948
 21
-859.2638699583083
 31
0.0
  0
LINE
  5
21A5B
  8
1PHANTOM
 10
281.3991579309948
 20
-857.1138699583082
 30
0.0
 11
282.1491579309948
 21
-857.2638699583083
 31
0.0
  0
LINE
  5
21A5C
  8
1PHANTOM
 10
277.1491579309948
 20
-858.2638699583083
 30
0.0
 11
277.8991579309948
 21
-858.4138699583082
 31
0.0
  0
LINE
  5
21A5D
  8
1PHANTOM
 10
277.1491579309948
 20
-858.2638699583083
 30
0.0
 11
282.1491579309948
 21
-857.2638699583083
 31
0.0
  0
LINE
  5
21A5E
  8
1PHANTOM
 10
281.3991579309948
 20
-866.3817355443542
 30
0.0
 11
277.8991579309948
 21
-866.3817355443542
 31
0.0
  0
LINE
  5
21A5F
  8
1PHANTOM
 10
277.1491579309948
 20
-838.2638699583083
 30
0.0
 11
277.8991579309948
 21
-838.4138699583082
 31
0.0
  0
LINE
  5
21A60
  8
1PHANTOM
 10
281.3991579309948
 20
-837.1138699583082
 30
0.0
 11
282.1491579309948
 21
-837.2638699583083
 31
0.0
  0
LINE
  5
21A61
  8
1PHANTOM
 10
277.1491579309948
 20
-836.2638699583083
 30
0.0
 11
277.8991579309948
 21
-836.4138699583082
 31
0.0
  0
LINE
  5
21A62
  8
1PHANTOM
 10
277.1491579309948
 20
-838.2638699583083
 30
0.0
 11
282.1491579309948
 21
-837.2638699583083
 31
0.0
  0
LINE
  5
21A63
  8
1PHANTOM
 10
277.1491579309948
 20
-850.2638699583083
 30
0.0
 11
282.1491579309948
 21
-849.2638699583083
 31
0.0
  0
LINE
  5
21A64
  8
1PHANTOM
 10
281.3991579309948
 20
-845.1138699583082
 30
0.0
 11
282.1491579309948
 21
-845.2638699583083
 31
0.0
  0
LINE
  5
21A65
  8
1PHANTOM
 10
277.1491579309948
 20
-846.2638699583083
 30
0.0
 11
277.8991579309948
 21
-846.4138699583082
 31
0.0
  0
LINE
  5
21A66
  8
1PHANTOM
 10
277.1491579309948
 20
-846.2638699583083
 30
0.0
 11
282.1491579309948
 21
-845.2638699583083
 31
0.0
  0
LINE
  5
21A67
  8
1PHANTOM
 10
277.1491579309948
 20
-848.2638699583083
 30
0.0
 11
282.1491579309948
 21
-847.2638699583083
 31
0.0
  0
LINE
  5
21A68
  8
1PHANTOM
 10
277.1491579309948
 20
-848.2638699583083
 30
0.0
 11
277.8991579309948
 21
-848.4138699583082
 31
0.0
  0
LINE
  5
21A69
  8
1PHANTOM
 10
281.3991579309948
 20
-847.1138699583082
 30
0.0
 11
282.1491579309948
 21
-847.2638699583083
 31
0.0
  0
LINE
  5
21A6A
  8
1PHANTOM
 10
281.3991579309948
 20
-849.1138699583082
 30
0.0
 11
282.1491579309948
 21
-849.2638699583083
 31
0.0
  0
LINE
  5
21A6B
  8
1PHANTOM
 10
277.1491579309948
 20
-842.2638699583083
 30
0.0
 11
282.1491579309948
 21
-841.2638699583083
 31
0.0
  0
LINE
  5
21A6C
  8
1PHANTOM
 10
281.3991579309948
 20
-841.1138699583082
 30
0.0
 11
282.1491579309948
 21
-841.2638699583083
 31
0.0
  0
LINE
  5
21A6D
  8
1PHANTOM
 10
277.1491579309948
 20
-840.2638699583083
 30
0.0
 11
277.8991579309948
 21
-840.4138699583082
 31
0.0
  0
LINE
  5
21A6E
  8
1PHANTOM
 10
281.3991579309948
 20
-839.1138699583082
 30
0.0
 11
282.1491579309948
 21
-839.2638699583083
 31
0.0
  0
LINE
  5
21A6F
  8
1PHANTOM
 10
277.1491579309948
 20
-840.2638699583083
 30
0.0
 11
282.1491579309948
 21
-839.2638699583083
 31
0.0
  0
LINE
  5
21A70
  8
1PHANTOM
 10
281.3991579309948
 20
-843.1138699583082
 30
0.0
 11
282.1491579309948
 21
-843.2638699583083
 31
0.0
  0
LINE
  5
21A71
  8
1PHANTOM
 10
277.1491579309948
 20
-844.2638699583083
 30
0.0
 11
277.8991579309948
 21
-844.4138699583082
 31
0.0
  0
LINE
  5
21A72
  8
1PHANTOM
 10
277.1491579309948
 20
-842.2638699583083
 30
0.0
 11
277.8991579309948
 21
-842.4138699583082
 31
0.0
  0
LINE
  5
21A73
  8
1PHANTOM
 10
277.1491579309948
 20
-844.2638699583083
 30
0.0
 11
282.1491579309948
 21
-843.2638699583083
 31
0.0
  0
LINE
  5
21A74
  8
1PHANTOM
 10
277.1491579309948
 20
-852.2638699583083
 30
0.0
 11
277.8991579309948
 21
-852.4138699583082
 31
0.0
  0
LINE
  5
21A75
  8
1PHANTOM
 10
277.1491579309948
 20
-854.2638699583083
 30
0.0
 11
282.1491579309948
 21
-853.2638699583083
 31
0.0
  0
LINE
  5
21A76
  8
1PHANTOM
 10
277.1491579309948
 20
-854.2638699583083
 30
0.0
 11
277.8991579309948
 21
-854.4138699583082
 31
0.0
  0
LINE
  5
21A77
  8
1PHANTOM
 10
281.3991579309948
 20
-853.1138699583082
 30
0.0
 11
282.1491579309948
 21
-853.2638699583083
 31
0.0
  0
LINE
  5
21A78
  8
1PHANTOM
 10
277.1491579309948
 20
-856.2638699583083
 30
0.0
 11
282.1491579309948
 21
-855.2638699583083
 31
0.0
  0
LINE
  5
21A79
  8
1PHANTOM
 10
277.1491579309948
 20
-856.2638699583083
 30
0.0
 11
277.8991579309948
 21
-856.4138699583082
 31
0.0
  0
LINE
  5
21A7A
  8
1PHANTOM
 10
281.3991579309948
 20
-855.1138699583082
 30
0.0
 11
282.1491579309948
 21
-855.2638699583083
 31
0.0
  0
LINE
  5
21A7B
  8
1PHANTOM
 10
277.1491579309948
 20
-850.2638699583083
 30
0.0
 11
277.8991579309948
 21
-850.4138699583082
 31
0.0
  0
LINE
  5
21A7C
  8
1PHANTOM
 10
281.3991579309948
 20
-851.1138699583082
 30
0.0
 11
282.1491579309948
 21
-851.2638699583083
 31
0.0
  0
LINE
  5
21A7D
  8
1PHANTOM
 10
277.1491579309948
 20
-852.2638699583083
 30
0.0
 11
282.1491579309948
 21
-851.2638699583083
 31
0.0
  0
LINE
  5
21A7E
  8
1PHANTOM
 10
277.1491579309948
 20
-834.2638699583083
 30
0.0
 11
277.8991579309948
 21
-834.4138699583082
 31
0.0
  0
LINE
  5
21A7F
  8
1PHANTOM
 10
281.3991579309948
 20
-835.1138699583082
 30
0.0
 11
282.1491579309948
 21
-835.2638699583083
 31
0.0
  0
LINE
  5
21A80
  8
1PHANTOM
 10
277.1491579309948
 20
-836.2638699583083
 30
0.0
 11
282.1491579309948
 21
-835.2638699583083
 31
0.0
  0
LINE
  5
21A81
  8
1PHANTOM
 10
284.0336999999998
 20
-865.3817355221516
 30
0.0
 11
275.2837000000002
 21
-865.3817355443542
 31
0.0
  0
LINE
  5
21A82
  8
1CENTER
 10
279.6491579309948
 20
-871.6135356876536
 30
0.0
 11
279.6491579309948
 21
-814.6774711931903
 31
0.0
  0
LINE
  5
21A83
  8
01
 10
-328.341299833879
 20
-853.3817355332567
 30
0.0
 11
-287.1412998338782
 21
-853.3817355332567
 31
0.0
  0
LINE
  5
21A84
  8
1PHANTOM
 10
-324.2565618251774
 20
-865.3817355332529
 30
0.0
 11
-313.1241442212885
 21
-865.381735533253
 31
0.0
  0
ARC
  5
21A85
  8
1PHANTOM
 10
-324.2565618251774
 20
-864.3817355332494
 30
0.0
 40
1.0
 50
182.0000000000036
 51
270.0
  0
LINE
  5
21A86
  8
1PHANTOM
 10
-324.2565618251755
 20
-865.381735533253
 30
0.0
 11
-323.6412998338819
 21
-865.381735533253
 31
0.0
  0
LINE
  5
21A87
  8
1PHANTOM
 10
-325.2559526521945
 20
-864.4166350299556
 30
0.0
 11
-325.6412998338819
 21
-853.381735533253
 31
0.0
  0
ARC
  5
21A88
  8
1PHANTOM
 10
-291.02603784259
 20
-864.3817355332494
 30
0.0
 40
1.0
 50
270.0
 51
357.9999999999964
  0
LINE
  5
21A89
  8
1PHANTOM
 10
-302.1584554464807
 20
-865.3817355332494
 30
0.0
 11
-291.02603784259
 21
-865.3817355332494
 31
0.0
  0
LINE
  5
21A8A
  8
01
 10
-284.0412998338788
 20
-853.3817355332567
 30
0.0
 11
-331.4412998338785
 21
-853.3817355332567
 31
0.0
  0
LINE
  5
21A8D
  8
1PHANTOM
 10
-299.5258419028866
 20
-866.381725364623
 30
0.0
 11
-290.7662998338816
 21
-866.381745746281
 31
0.0
  0
LINE
  5
21A8E
  8
1PHANTOM
 10
-297.8162998338814
 20
-866.3817253868256
 30
0.0
 11
-297.8162998338814
 21
-865.3817355443507
 31
0.0
  0
LINE
  5
21A8F
  8
1PHANTOM
 10
-290.7662998338816
 20
-866.381745746281
 30
0.0
 11
-290.7662998338821
 21
-865.3817355221481
 31
0.0
  0
LINE
  5
21A90
  8
1PHANTOM
 10
-292.4662998338819
 20
-866.381745746281
 30
0.0
 11
-292.4662998338819
 21
-865.3817355443507
 31
0.0
  0
LINE
  5
21A92
  8
1PHANTOM
 10
-297.6508419028871
 20
-834.2638699583048
 30
0.0
 11
-292.6508419028871
 21
-833.2638699583048
 31
0.0
  0
LINE
  5
21A93
  8
1PHANTOM
 10
-294.8374852159433
 20
-817.401198620916
 30
0.0
 11
-294.0874852159433
 21
-817.5511986209159
 31
0.0
  0
LINE
  5
21A94
  8
1PHANTOM
 10
-297.6508419028871
 20
-828.2638699583048
 30
0.0
 11
-292.6508419028871
 21
-827.2638699583048
 31
0.0
  0
LINE
  5
21A95
  8
1PHANTOM
 10
-293.4008419028871
 20
-827.1138699583047
 30
0.0
 11
-292.6508419028871
 21
-827.2638699583048
 31
0.0
  0
LINE
  5
21A96
  8
1PHANTOM
 10
-293.4008419028871
 20
-825.1138699583047
 30
0.0
 11
-292.6508419028871
 21
-825.2638699583048
 31
0.0
  0
LINE
  5
21A97
  8
1PHANTOM
 10
-297.6508419028871
 20
-826.2638699583048
 30
0.0
 11
-296.9008419028871
 21
-826.4138699583046
 31
0.0
  0
LINE
  5
21A98
  8
1PHANTOM
 10
-297.6508419028871
 20
-826.2638699583048
 30
0.0
 11
-292.6508419028871
 21
-825.2638699583048
 31
0.0
  0
LINE
  5
21A99
  8
1PHANTOM
 10
-293.8202043628323
 20
-821.1977424502937
 30
0.0
 11
-293.0702043628323
 21
-821.3477424502938
 31
0.0
  0
LINE
  5
21A9A
  8
1PHANTOM
 10
-294.3288447893876
 20
-819.2994705356049
 30
0.0
 11
-293.5788447893876
 21
-819.449470535605
 31
0.0
  0
LINE
  5
21A9B
  8
1PHANTOM
 10
-296.9008655736636
 20
-820.11387469246
 30
0.0
 11
-296.1508655736636
 21
-820.26387469246
 31
0.0
  0
LINE
  5
21A9C
  8
1PHANTOM
 10
-296.9008655736636
 20
-820.11387469246
 30
0.0
 11
-293.5788447893876
 21
-819.449470535605
 31
0.0
  0
LINE
  5
21A9D
  8
1PHANTOM
 10
-296.3346223034043
 20
-818.0006260384081
 30
0.0
 11
-295.5846223034043
 21
-818.1506260384082
 31
0.0
  0
LINE
  5
21A9E
  8
1PHANTOM
 10
-293.4008419028871
 20
-823.1138699583047
 30
0.0
 11
-292.6508419028871
 21
-823.2638699583048
 31
0.0
  0
LINE
  5
21A9F
  8
1PHANTOM
 10
-297.6508419028871
 20
-824.2638699583048
 30
0.0
 11
-296.9008419028871
 21
-824.4138699583046
 31
0.0
  0
LINE
  5
21AA0
  8
1PHANTOM
 10
-297.6508419028871
 20
-824.2638699583048
 30
0.0
 11
-292.6508419028871
 21
-823.2638699583048
 31
0.0
  0
LINE
  5
21AA1
  8
1PHANTOM
 10
-297.4671088439229
 20
-822.227123346512
 30
0.0
 11
-296.7171088439229
 21
-822.3771233465119
 31
0.0
  0
LINE
  5
21AA2
  8
1PHANTOM
 10
-297.4671088439229
 20
-822.227123346512
 30
0.0
 11
-293.0702043628323
 21
-821.3477424502938
 31
0.0
  0
LINE
  5
21AA3
  8
1PHANTOM
 10
-296.3346223034043
 20
-818.0006260384081
 30
0.0
 11
-294.0874852159433
 21
-817.5511986209159
 31
0.0
  0
LINE
  5
21AA4
  8
1PHANTOM
 10
-293.4008419028871
 20
-833.1138699583047
 30
0.0
 11
-292.6508419028871
 21
-833.2638699583048
 31
0.0
  0
LINE
  5
21AA5
  8
1PHANTOM
 10
-297.6508419028871
 20
-832.2638699583048
 30
0.0
 11
-296.9008419028871
 21
-832.4138699583046
 31
0.0
  0
LINE
  5
21AA6
  8
1PHANTOM
 10
-297.6508419028871
 20
-832.2638699583048
 30
0.0
 11
-292.6508419028871
 21
-831.2638699583048
 31
0.0
  0
LINE
  5
21AA7
  8
1PHANTOM
 10
-293.4008419028871
 20
-829.1138699583047
 30
0.0
 11
-292.6508419028871
 21
-829.2638699583048
 31
0.0
  0
LINE
  5
21AA8
  8
1PHANTOM
 10
-297.6508419028871
 20
-830.2638699583048
 30
0.0
 11
-296.9008419028871
 21
-830.4138699583046
 31
0.0
  0
LINE
  5
21AA9
  8
1PHANTOM
 10
-297.6508419028871
 20
-828.2638699583048
 30
0.0
 11
-296.9008419028871
 21
-828.4138699583046
 31
0.0
  0
LINE
  5
21AAA
  8
1PHANTOM
 10
-297.6508419028871
 20
-830.2638699583048
 30
0.0
 11
-292.6508419028871
 21
-829.2638699583048
 31
0.0
  0
LINE
  5
21AAB
  8
1PHANTOM
 10
-293.4008419028871
 20
-831.1138699583047
 30
0.0
 11
-292.6508419028871
 21
-831.2638699583048
 31
0.0
  0
LINE
  5
21AAC
  8
1PHANTOM
 10
-293.4008419028871
 20
-865.1138699583048
 30
0.0
 11
-292.6508419028871
 21
-865.2638699583049
 31
0.0
  0
LINE
  5
21AAD
  8
1PHANTOM
 10
-297.6508419028871
 20
-866.2638699583049
 30
0.0
 11
-296.9008419028871
 21
-866.4138699583048
 31
0.0
  0
LINE
  5
21AAE
  8
1PHANTOM
 10
-297.6508419028871
 20
-866.2638699583049
 30
0.0
 11
-292.6508419028871
 21
-865.2638699583049
 31
0.0
  0
LINE
  5
21AAF
  8
1PHANTOM
 10
-293.4008419028871
 20
-863.1138699583048
 30
0.0
 11
-292.6508419028871
 21
-863.2638699583049
 31
0.0
  0
LINE
  5
21AB0
  8
1PHANTOM
 10
-297.6508419028871
 20
-864.2638699583049
 30
0.0
 11
-296.9008419028871
 21
-864.4138699583048
 31
0.0
  0
LINE
  5
21AB1
  8
1PHANTOM
 10
-297.6508419028871
 20
-864.2638699583049
 30
0.0
 11
-292.6508419028871
 21
-863.2638699583049
 31
0.0
  0
LINE
  5
21AB2
  8
1PHANTOM
 10
-293.4008419028871
 20
-861.1138699583047
 30
0.0
 11
-292.6508419028871
 21
-861.2638699583049
 31
0.0
  0
LINE
  5
21AB3
  8
1PHANTOM
 10
-297.6508419028871
 20
-862.2638699583049
 30
0.0
 11
-296.9008419028871
 21
-862.4138699583048
 31
0.0
  0
LINE
  5
21AB4
  8
1PHANTOM
 10
-297.6508419028871
 20
-862.2638699583049
 30
0.0
 11
-292.6508419028871
 21
-861.2638699583049
 31
0.0
  0
LINE
  5
21AB5
  8
1PHANTOM
 10
-293.4008419028871
 20
-859.1138699583047
 30
0.0
 11
-292.6508419028871
 21
-859.2638699583048
 31
0.0
  0
LINE
  5
21AB6
  8
1PHANTOM
 10
-297.6508419028871
 20
-860.2638699583048
 30
0.0
 11
-296.9008419028871
 21
-860.4138699583046
 31
0.0
  0
LINE
  5
21AB7
  8
1PHANTOM
 10
-297.6508419028871
 20
-860.2638699583048
 30
0.0
 11
-292.6508419028871
 21
-859.2638699583048
 31
0.0
  0
LINE
  5
21AB8
  8
1PHANTOM
 10
-293.4008419028871
 20
-857.1138699583047
 30
0.0
 11
-292.6508419028871
 21
-857.2638699583048
 31
0.0
  0
LINE
  5
21AB9
  8
1PHANTOM
 10
-297.6508419028871
 20
-858.2638699583048
 30
0.0
 11
-296.9008419028871
 21
-858.4138699583046
 31
0.0
  0
LINE
  5
21ABA
  8
1PHANTOM
 10
-297.6508419028871
 20
-858.2638699583048
 30
0.0
 11
-292.6508419028871
 21
-857.2638699583048
 31
0.0
  0
LINE
  5
21ABB
  8
1PHANTOM
 10
-293.4008419028871
 20
-866.3817355443507
 30
0.0
 11
-296.9008419028871
 21
-866.3817355443507
 31
0.0
  0
LINE
  5
21ABC
  8
1PHANTOM
 10
-297.6508419028871
 20
-838.2638699583048
 30
0.0
 11
-296.9008419028871
 21
-838.4138699583046
 31
0.0
  0
LINE
  5
21ABD
  8
1PHANTOM
 10
-293.4008419028871
 20
-837.1138699583047
 30
0.0
 11
-292.6508419028871
 21
-837.2638699583048
 31
0.0
  0
LINE
  5
21ABE
  8
1PHANTOM
 10
-297.6508419028871
 20
-836.2638699583048
 30
0.0
 11
-296.9008419028871
 21
-836.4138699583046
 31
0.0
  0
LINE
  5
21ABF
  8
1PHANTOM
 10
-297.6508419028871
 20
-838.2638699583048
 30
0.0
 11
-292.6508419028871
 21
-837.2638699583048
 31
0.0
  0
LINE
  5
21AC0
  8
1PHANTOM
 10
-297.6508419028871
 20
-850.2638699583048
 30
0.0
 11
-292.6508419028871
 21
-849.2638699583048
 31
0.0
  0
LINE
  5
21AC1
  8
1PHANTOM
 10
-293.4008419028871
 20
-845.1138699583047
 30
0.0
 11
-292.6508419028871
 21
-845.2638699583048
 31
0.0
  0
LINE
  5
21AC2
  8
1PHANTOM
 10
-297.6508419028871
 20
-846.2638699583048
 30
0.0
 11
-296.9008419028871
 21
-846.4138699583046
 31
0.0
  0
LINE
  5
21AC3
  8
1PHANTOM
 10
-297.6508419028871
 20
-846.2638699583048
 30
0.0
 11
-292.6508419028871
 21
-845.2638699583048
 31
0.0
  0
LINE
  5
21AC4
  8
1PHANTOM
 10
-297.6508419028871
 20
-848.2638699583048
 30
0.0
 11
-292.6508419028871
 21
-847.2638699583048
 31
0.0
  0
LINE
  5
21AC5
  8
1PHANTOM
 10
-297.6508419028871
 20
-848.2638699583048
 30
0.0
 11
-296.9008419028871
 21
-848.4138699583046
 31
0.0
  0
LINE
  5
21AC6
  8
1PHANTOM
 10
-293.4008419028871
 20
-847.1138699583047
 30
0.0
 11
-292.6508419028871
 21
-847.2638699583048
 31
0.0
  0
LINE
  5
21AC7
  8
1PHANTOM
 10
-293.4008419028871
 20
-849.1138699583047
 30
0.0
 11
-292.6508419028871
 21
-849.2638699583048
 31
0.0
  0
LINE
  5
21AC8
  8
1PHANTOM
 10
-297.6508419028871
 20
-842.2638699583048
 30
0.0
 11
-292.6508419028871
 21
-841.2638699583048
 31
0.0
  0
LINE
  5
21AC9
  8
1PHANTOM
 10
-293.4008419028871
 20
-841.1138699583047
 30
0.0
 11
-292.6508419028871
 21
-841.2638699583048
 31
0.0
  0
LINE
  5
21ACA
  8
1PHANTOM
 10
-297.6508419028871
 20
-840.2638699583048
 30
0.0
 11
-296.9008419028871
 21
-840.4138699583046
 31
0.0
  0
LINE
  5
21ACB
  8
1PHANTOM
 10
-293.4008419028871
 20
-839.1138699583047
 30
0.0
 11
-292.6508419028871
 21
-839.2638699583048
 31
0.0
  0
LINE
  5
21ACC
  8
1PHANTOM
 10
-297.6508419028871
 20
-840.2638699583048
 30
0.0
 11
-292.6508419028871
 21
-839.2638699583048
 31
0.0
  0
LINE
  5
21ACD
  8
1PHANTOM
 10
-293.4008419028871
 20
-843.1138699583047
 30
0.0
 11
-292.6508419028871
 21
-843.2638699583048
 31
0.0
  0
LINE
  5
21ACE
  8
1PHANTOM
 10
-297.6508419028871
 20
-844.2638699583048
 30
0.0
 11
-296.9008419028871
 21
-844.4138699583046
 31
0.0
  0
LINE
  5
21ACF
  8
1PHANTOM
 10
-297.6508419028871
 20
-842.2638699583048
 30
0.0
 11
-296.9008419028871
 21
-842.4138699583046
 31
0.0
  0
LINE
  5
21AD0
  8
1PHANTOM
 10
-297.6508419028871
 20
-844.2638699583048
 30
0.0
 11
-292.6508419028871
 21
-843.2638699583048
 31
0.0
  0
LINE
  5
21AD1
  8
1PHANTOM
 10
-297.6508419028871
 20
-852.2638699583048
 30
0.0
 11
-296.9008419028871
 21
-852.4138699583046
 31
0.0
  0
LINE
  5
21AD2
  8
1PHANTOM
 10
-297.6508419028871
 20
-854.2638699583048
 30
0.0
 11
-292.6508419028871
 21
-853.2638699583048
 31
0.0
  0
LINE
  5
21AD3
  8
1PHANTOM
 10
-297.6508419028871
 20
-854.2638699583048
 30
0.0
 11
-296.9008419028871
 21
-854.4138699583046
 31
0.0
  0
LINE
  5
21AD4
  8
1PHANTOM
 10
-293.4008419028871
 20
-853.1138699583047
 30
0.0
 11
-292.6508419028871
 21
-853.2638699583048
 31
0.0
  0
LINE
  5
21AD5
  8
1PHANTOM
 10
-297.6508419028871
 20
-856.2638699583048
 30
0.0
 11
-292.6508419028871
 21
-855.2638699583048
 31
0.0
  0
LINE
  5
21AD6
  8
1PHANTOM
 10
-297.6508419028871
 20
-856.2638699583048
 30
0.0
 11
-296.9008419028871
 21
-856.4138699583046
 31
0.0
  0
LINE
  5
21AD7
  8
1PHANTOM
 10
-293.4008419028871
 20
-855.1138699583047
 30
0.0
 11
-292.6508419028871
 21
-855.2638699583048
 31
0.0
  0
LINE
  5
21AD8
  8
1PHANTOM
 10
-297.6508419028871
 20
-850.2638699583048
 30
0.0
 11
-296.9008419028871
 21
-850.4138699583046
 31
0.0
  0
LINE
  5
21AD9
  8
1PHANTOM
 10
-293.4008419028871
 20
-851.1138699583047
 30
0.0
 11
-292.6508419028871
 21
-851.2638699583048
 31
0.0
  0
LINE
  5
21ADA
  8
1PHANTOM
 10
-297.6508419028871
 20
-852.2638699583048
 30
0.0
 11
-292.6508419028871
 21
-851.2638699583048
 31
0.0
  0
LINE
  5
21ADB
  8
1PHANTOM
 10
-297.6508419028871
 20
-834.2638699583048
 30
0.0
 11
-296.9008419028871
 21
-834.4138699583046
 31
0.0
  0
LINE
  5
21ADC
  8
1PHANTOM
 10
-293.4008419028871
 20
-835.1138699583047
 30
0.0
 11
-292.6508419028871
 21
-835.2638699583048
 31
0.0
  0
LINE
  5
21ADD
  8
1PHANTOM
 10
-297.6508419028871
 20
-836.2638699583048
 30
0.0
 11
-292.6508419028871
 21
-835.2638699583048
 31
0.0
  0
LINE
  5
21ADE
  8
1PHANTOM
 10
-290.7662998338821
 20
-865.3817355221481
 30
0.0
 11
-299.5162998338816
 21
-865.3817355443507
 31
0.0
  0
LINE
  5
21ADF
  8
1CENTER
 10
-295.1508419028871
 20
-871.61353568765
 30
0.0
 11
-295.1508419028871
 21
-814.6774711931868
 31
0.0
  0
LINE
  5
21AE0
  8
1PHANTOM
 10
-324.5258420690101
 20
-866.3817253646265
 30
0.0
 11
-315.7663000000052
 21
-866.3817457462845
 31
0.0
  0
LINE
  5
21AE1
  8
1PHANTOM
 10
-324.5163000000052
 20
-866.3817253868291
 30
0.0
 11
-324.5163000000052
 21
-865.3817355443542
 31
0.0
  0
LINE
  5
21AE2
  8
1PHANTOM
 10
-322.8163000000049
 20
-866.3817253868291
 30
0.0
 11
-322.8163000000049
 21
-865.3817355443542
 31
0.0
  0
LINE
  5
21AE3
  8
1PHANTOM
 10
-315.7663000000052
 20
-866.3817457462845
 30
0.0
 11
-315.7663000000056
 21
-865.3817355221516
 31
0.0
  0
LINE
  5
21AE4
  8
1PHANTOM
 10
-317.4663000000054
 20
-866.3817457462845
 30
0.0
 11
-317.4663000000054
 21
-865.3817355443542
 31
0.0
  0
LINE
  5
21AE6
  8
1PHANTOM
 10
-322.6508420690106
 20
-834.2638699583083
 30
0.0
 11
-317.6508420690106
 21
-833.2638699583083
 31
0.0
  0
LINE
  5
21AE7
  8
1PHANTOM
 10
-319.8374853820669
 20
-817.4011986209196
 30
0.0
 11
-319.0874853820669
 21
-817.5511986209194
 31
0.0
  0
LINE
  5
21AE8
  8
1PHANTOM
 10
-322.6508420690106
 20
-828.2638699583083
 30
0.0
 11
-317.6508420690106
 21
-827.2638699583083
 31
0.0
  0
LINE
  5
21AE9
  8
1PHANTOM
 10
-318.4008420690106
 20
-827.1138699583082
 30
0.0
 11
-317.6508420690106
 21
-827.2638699583083
 31
0.0
  0
LINE
  5
21AEA
  8
1PHANTOM
 10
-318.4008420690106
 20
-825.1138699583082
 30
0.0
 11
-317.6508420690106
 21
-825.2638699583083
 31
0.0
  0
LINE
  5
21AEB
  8
1PHANTOM
 10
-322.6508420690106
 20
-826.2638699583083
 30
0.0
 11
-321.9008420690106
 21
-826.4138699583082
 31
0.0
  0
LINE
  5
21AEC
  8
1PHANTOM
 10
-322.6508420690106
 20
-826.2638699583083
 30
0.0
 11
-317.6508420690106
 21
-825.2638699583083
 31
0.0
  0
LINE
  5
21AED
  8
1PHANTOM
 10
-318.8202045289558
 20
-821.1977424502973
 30
0.0
 11
-318.0702045289558
 21
-821.3477424502973
 31
0.0
  0
LINE
  5
21AEE
  8
1PHANTOM
 10
-319.3288449555111
 20
-819.2994705356084
 30
0.0
 11
-318.5788449555111
 21
-819.4494705356085
 31
0.0
  0
LINE
  5
21AEF
  8
1PHANTOM
 10
-321.9008657397871
 20
-820.1138746924635
 30
0.0
 11
-321.1508657397871
 21
-820.2638746924636
 31
0.0
  0
LINE
  5
21AF0
  8
1PHANTOM
 10
-321.9008657397871
 20
-820.1138746924635
 30
0.0
 11
-318.5788449555111
 21
-819.4494705356085
 31
0.0
  0
LINE
  5
21AF1
  8
1PHANTOM
 10
-321.3346224695278
 20
-818.0006260384116
 30
0.0
 11
-320.5846224695278
 21
-818.1506260384117
 31
0.0
  0
LINE
  5
21AF2
  8
1PHANTOM
 10
-318.4008420690106
 20
-823.1138699583082
 30
0.0
 11
-317.6508420690106
 21
-823.2638699583083
 31
0.0
  0
LINE
  5
21AF3
  8
1PHANTOM
 10
-322.6508420690106
 20
-824.2638699583083
 30
0.0
 11
-321.9008420690106
 21
-824.4138699583082
 31
0.0
  0
LINE
  5
21AF4
  8
1PHANTOM
 10
-322.6508420690106
 20
-824.2638699583083
 30
0.0
 11
-317.6508420690106
 21
-823.2638699583083
 31
0.0
  0
LINE
  5
21AF5
  8
1PHANTOM
 10
-322.4671090100464
 20
-822.2271233465156
 30
0.0
 11
-321.7171090100464
 21
-822.3771233465154
 31
0.0
  0
LINE
  5
21AF6
  8
1PHANTOM
 10
-322.4671090100464
 20
-822.2271233465156
 30
0.0
 11
-318.0702045289558
 21
-821.3477424502973
 31
0.0
  0
LINE
  5
21AF7
  8
1PHANTOM
 10
-321.3346224695278
 20
-818.0006260384116
 30
0.0
 11
-319.0874853820669
 21
-817.5511986209194
 31
0.0
  0
LINE
  5
21AF8
  8
1PHANTOM
 10
-318.4008420690106
 20
-833.1138699583082
 30
0.0
 11
-317.6508420690106
 21
-833.2638699583083
 31
0.0
  0
LINE
  5
21AF9
  8
1PHANTOM
 10
-322.6508420690106
 20
-832.2638699583083
 30
0.0
 11
-321.9008420690106
 21
-832.4138699583082
 31
0.0
  0
LINE
  5
21AFA
  8
1PHANTOM
 10
-322.6508420690106
 20
-832.2638699583083
 30
0.0
 11
-317.6508420690106
 21
-831.2638699583083
 31
0.0
  0
LINE
  5
21AFB
  8
1PHANTOM
 10
-318.4008420690106
 20
-829.1138699583082
 30
0.0
 11
-317.6508420690106
 21
-829.2638699583083
 31
0.0
  0
LINE
  5
21AFC
  8
1PHANTOM
 10
-322.6508420690106
 20
-830.2638699583083
 30
0.0
 11
-321.9008420690106
 21
-830.4138699583082
 31
0.0
  0
LINE
  5
21AFD
  8
1PHANTOM
 10
-322.6508420690106
 20
-828.2638699583083
 30
0.0
 11
-321.9008420690106
 21
-828.4138699583082
 31
0.0
  0
LINE
  5
21AFE
  8
1PHANTOM
 10
-322.6508420690106
 20
-830.2638699583083
 30
0.0
 11
-317.6508420690106
 21
-829.2638699583083
 31
0.0
  0
LINE
  5
21AFF
  8
1PHANTOM
 10
-318.4008420690106
 20
-831.1138699583082
 30
0.0
 11
-317.6508420690106
 21
-831.2638699583083
 31
0.0
  0
LINE
  5
21B00
  8
1PHANTOM
 10
-318.4008420690106
 20
-865.1138699583083
 30
0.0
 11
-317.6508420690106
 21
-865.2638699583084
 31
0.0
  0
LINE
  5
21B01
  8
1PHANTOM
 10
-322.6508420690106
 20
-866.2638699583084
 30
0.0
 11
-321.9008420690106
 21
-866.4138699583083
 31
0.0
  0
LINE
  5
21B02
  8
1PHANTOM
 10
-322.6508420690106
 20
-866.2638699583084
 30
0.0
 11
-317.6508420690106
 21
-865.2638699583084
 31
0.0
  0
LINE
  5
21B03
  8
1PHANTOM
 10
-318.4008420690106
 20
-863.1138699583083
 30
0.0
 11
-317.6508420690106
 21
-863.2638699583084
 31
0.0
  0
LINE
  5
21B04
  8
1PHANTOM
 10
-322.6508420690106
 20
-864.2638699583084
 30
0.0
 11
-321.9008420690106
 21
-864.4138699583083
 31
0.0
  0
LINE
  5
21B05
  8
1PHANTOM
 10
-322.6508420690106
 20
-864.2638699583084
 30
0.0
 11
-317.6508420690106
 21
-863.2638699583084
 31
0.0
  0
LINE
  5
21B06
  8
1PHANTOM
 10
-318.4008420690106
 20
-861.1138699583082
 30
0.0
 11
-317.6508420690106
 21
-861.2638699583084
 31
0.0
  0
LINE
  5
21B07
  8
1PHANTOM
 10
-322.6508420690106
 20
-862.2638699583084
 30
0.0
 11
-321.9008420690106
 21
-862.4138699583083
 31
0.0
  0
LINE
  5
21B08
  8
1PHANTOM
 10
-322.6508420690106
 20
-862.2638699583084
 30
0.0
 11
-317.6508420690106
 21
-861.2638699583084
 31
0.0
  0
LINE
  5
21B09
  8
1PHANTOM
 10
-318.4008420690106
 20
-859.1138699583082
 30
0.0
 11
-317.6508420690106
 21
-859.2638699583083
 31
0.0
  0
LINE
  5
21B0A
  8
1PHANTOM
 10
-322.6508420690106
 20
-860.2638699583083
 30
0.0
 11
-321.9008420690106
 21
-860.4138699583082
 31
0.0
  0
LINE
  5
21B0B
  8
1PHANTOM
 10
-322.6508420690106
 20
-860.2638699583083
 30
0.0
 11
-317.6508420690106
 21
-859.2638699583083
 31
0.0
  0
LINE
  5
21B0C
  8
1PHANTOM
 10
-318.4008420690106
 20
-857.1138699583082
 30
0.0
 11
-317.6508420690106
 21
-857.2638699583083
 31
0.0
  0
LINE
  5
21B0D
  8
1PHANTOM
 10
-322.6508420690106
 20
-858.2638699583083
 30
0.0
 11
-321.9008420690106
 21
-858.4138699583082
 31
0.0
  0
LINE
  5
21B0E
  8
1PHANTOM
 10
-322.6508420690106
 20
-858.2638699583083
 30
0.0
 11
-317.6508420690106
 21
-857.2638699583083
 31
0.0
  0
LINE
  5
21B0F
  8
1PHANTOM
 10
-318.4008420690106
 20
-866.3817355443542
 30
0.0
 11
-321.9008420690106
 21
-866.3817355443542
 31
0.0
  0
LINE
  5
21B10
  8
1PHANTOM
 10
-322.6508420690106
 20
-838.2638699583083
 30
0.0
 11
-321.9008420690106
 21
-838.4138699583082
 31
0.0
  0
LINE
  5
21B11
  8
1PHANTOM
 10
-318.4008420690106
 20
-837.1138699583082
 30
0.0
 11
-317.6508420690106
 21
-837.2638699583083
 31
0.0
  0
LINE
  5
21B12
  8
1PHANTOM
 10
-322.6508420690106
 20
-836.2638699583083
 30
0.0
 11
-321.9008420690106
 21
-836.4138699583082
 31
0.0
  0
LINE
  5
21B13
  8
1PHANTOM
 10
-322.6508420690106
 20
-838.2638699583083
 30
0.0
 11
-317.6508420690106
 21
-837.2638699583083
 31
0.0
  0
LINE
  5
21B14
  8
1PHANTOM
 10
-322.6508420690106
 20
-850.2638699583083
 30
0.0
 11
-317.6508420690106
 21
-849.2638699583083
 31
0.0
  0
LINE
  5
21B15
  8
1PHANTOM
 10
-318.4008420690106
 20
-845.1138699583082
 30
0.0
 11
-317.6508420690106
 21
-845.2638699583083
 31
0.0
  0
LINE
  5
21B16
  8
1PHANTOM
 10
-322.6508420690106
 20
-846.2638699583083
 30
0.0
 11
-321.9008420690106
 21
-846.4138699583082
 31
0.0
  0
LINE
  5
21B17
  8
1PHANTOM
 10
-322.6508420690106
 20
-846.2638699583083
 30
0.0
 11
-317.6508420690106
 21
-845.2638699583083
 31
0.0
  0
LINE
  5
21B18
  8
1PHANTOM
 10
-322.6508420690106
 20
-848.2638699583083
 30
0.0
 11
-317.6508420690106
 21
-847.2638699583083
 31
0.0
  0
LINE
  5
21B19
  8
1PHANTOM
 10
-322.6508420690106
 20
-848.2638699583083
 30
0.0
 11
-321.9008420690106
 21
-848.4138699583082
 31
0.0
  0
LINE
  5
21B1A
  8
1PHANTOM
 10
-318.4008420690106
 20
-847.1138699583082
 30
0.0
 11
-317.6508420690106
 21
-847.2638699583083
 31
0.0
  0
LINE
  5
21B1B
  8
1PHANTOM
 10
-318.4008420690106
 20
-849.1138699583082
 30
0.0
 11
-317.6508420690106
 21
-849.2638699583083
 31
0.0
  0
LINE
  5
21B1C
  8
1PHANTOM
 10
-322.6508420690106
 20
-842.2638699583083
 30
0.0
 11
-317.6508420690106
 21
-841.2638699583083
 31
0.0
  0
LINE
  5
21B1D
  8
1PHANTOM
 10
-318.4008420690106
 20
-841.1138699583082
 30
0.0
 11
-317.6508420690106
 21
-841.2638699583083
 31
0.0
  0
LINE
  5
21B1E
  8
1PHANTOM
 10
-322.6508420690106
 20
-840.2638699583083
 30
0.0
 11
-321.9008420690106
 21
-840.4138699583082
 31
0.0
  0
LINE
  5
21B1F
  8
1PHANTOM
 10
-318.4008420690106
 20
-839.1138699583082
 30
0.0
 11
-317.6508420690106
 21
-839.2638699583083
 31
0.0
  0
LINE
  5
21B20
  8
1PHANTOM
 10
-322.6508420690106
 20
-840.2638699583083
 30
0.0
 11
-317.6508420690106
 21
-839.2638699583083
 31
0.0
  0
LINE
  5
21B21
  8
1PHANTOM
 10
-318.4008420690106
 20
-843.1138699583082
 30
0.0
 11
-317.6508420690106
 21
-843.2638699583083
 31
0.0
  0
LINE
  5
21B22
  8
1PHANTOM
 10
-322.6508420690106
 20
-844.2638699583083
 30
0.0
 11
-321.9008420690106
 21
-844.4138699583082
 31
0.0
  0
LINE
  5
21B23
  8
1PHANTOM
 10
-322.6508420690106
 20
-842.2638699583083
 30
0.0
 11
-321.9008420690106
 21
-842.4138699583082
 31
0.0
  0
LINE
  5
21B24
  8
1PHANTOM
 10
-322.6508420690106
 20
-844.2638699583083
 30
0.0
 11
-317.6508420690106
 21
-843.2638699583083
 31
0.0
  0
LINE
  5
21B25
  8
1PHANTOM
 10
-322.6508420690106
 20
-852.2638699583083
 30
0.0
 11
-321.9008420690106
 21
-852.4138699583082
 31
0.0
  0
LINE
  5
21B26
  8
1PHANTOM
 10
-322.6508420690106
 20
-854.2638699583083
 30
0.0
 11
-317.6508420690106
 21
-853.2638699583083
 31
0.0
  0
LINE
  5
21B27
  8
1PHANTOM
 10
-322.6508420690106
 20
-854.2638699583083
 30
0.0
 11
-321.9008420690106
 21
-854.4138699583082
 31
0.0
  0
LINE
  5
21B28
  8
1PHANTOM
 10
-318.4008420690106
 20
-853.1138699583082
 30
0.0
 11
-317.6508420690106
 21
-853.2638699583083
 31
0.0
  0
LINE
  5
21B29
  8
1PHANTOM
 10
-322.6508420690106
 20
-856.2638699583083
 30
0.0
 11
-317.6508420690106
 21
-855.2638699583083
 31
0.0
  0
LINE
  5
21B2A
  8
1PHANTOM
 10
-322.6508420690106
 20
-856.2638699583083
 30
0.0
 11
-321.9008420690106
 21
-856.4138699583082
 31
0.0
  0
LINE
  5
21B2B
  8
1PHANTOM
 10
-318.4008420690106
 20
-855.1138699583082
 30
0.0
 11
-317.6508420690106
 21
-855.2638699583083
 31
0.0
  0
LINE
  5
21B2C
  8
1PHANTOM
 10
-322.6508420690106
 20
-850.2638699583083
 30
0.0
 11
-321.9008420690106
 21
-850.4138699583082
 31
0.0
  0
LINE
  5
21B2D
  8
1PHANTOM
 10
-318.4008420690106
 20
-851.1138699583082
 30
0.0
 11
-317.6508420690106
 21
-851.2638699583083
 31
0.0
  0
LINE
  5
21B2E
  8
1PHANTOM
 10
-322.6508420690106
 20
-852.2638699583083
 30
0.0
 11
-317.6508420690106
 21
-851.2638699583083
 31
0.0
  0
LINE
  5
21B2F
  8
1PHANTOM
 10
-322.6508420690106
 20
-834.2638699583083
 30
0.0
 11
-321.9008420690106
 21
-834.4138699583082
 31
0.0
  0
LINE
  5
21B30
  8
1PHANTOM
 10
-318.4008420690106
 20
-835.1138699583082
 30
0.0
 11
-317.6508420690106
 21
-835.2638699583083
 31
0.0
  0
LINE
  5
21B31
  8
1PHANTOM
 10
-322.6508420690106
 20
-836.2638699583083
 30
0.0
 11
-317.6508420690106
 21
-835.2638699583083
 31
0.0
  0
LINE
  5
21B32
  8
1PHANTOM
 10
-315.7663000000056
 20
-865.3817355221516
 30
0.0
 11
-324.5163000000052
 21
-865.3817355443542
 31
0.0
  0
LINE
  5
21B33
  8
1CENTER
 10
-320.1508420690106
 20
-871.6135356876536
 30
0.0
 11
-320.1508420690106
 21
-814.6774711931903
 31
0.0
  0
LINE
  5
21B40
  8
1PHANTOM
 10
-299.5710478498796
 20
-866.3817253868291
 30
0.0
 11
-299.5710478498796
 21
-865.3817355443542
 31
0.0
  0
TEXT
  5
21B64
  8
1DIM
  6
CONTINUOUS
 10
450.6867225020924
 20
-933.6331638509425
 30
0.0
 40
3.5
  1
合板12mm以上
  0
TEXT
  5
21B65
  8
1DIM
  6
CONTINUOUS
 10
447.8867225020924
 20
-939.471358295387
 30
0.0
 40
3.5
  1
（15㎜以上推奨）
  0
SOLID
  5
21B66
  8
1DIM
 10
454.2938440215914
 20
-953.0389909412697
 30
0.0
 11
454.8293033736547
 21
-954.9945968303484
 31
0.0
 12
453.6885372117315
 22
-953.3183618602675
 32
0.0
 13
453.6885372117315
 23
-953.3183618602675
 33
0.0
  0
LINE
  5
21B67
  8
1DIM
 10
453.9911906166615
 20
-953.1786764007686
 30
0.0
 11
447.9867225020924
 21
-940.1689277398316
 31
0.0
  0
LINE
  5
21B68
  8
1DIM
 10
447.9867225020924
 20
-940.1689277398316
 30
0.0
 11
450.6867225020924
 21
-940.1689277398316
 31
0.0
  0
SOLID
  5
21B69
  8
1HATCH
 10
446.3944333309943
 20
-953.0151683917869
 30
0.0
 11
446.3313211597135
 21
-955.0417734260616
 31
0.0
 12
445.7337445538631
 22
-953.1042457975485
 32
0.0
 13
445.7337445538631
 23
-953.1042457975485
 33
0.0
  0
LINE
  5
21B6A
  8
1HATCH
 10
446.0640889424287
 20
-953.0597070946677
 30
0.0
 11
442.7064537800265
 21
-928.156064576857
 31
0.0
  0
LINE
  5
21B6B
  8
1HATCH
 10
442.7064537800265
 20
-928.156064576857
 30
0.0
 11
445.4064537800265
 21
-928.156064576857
 31
0.0
  0
TEXT
  5
21B6C
  8
1HATCH
  6
CONTINUOUS
 10
445.4064537800265
 20
-927.4560645768572
 30
0.0
 40
3.5
  1
PB
  0
LINE
  5
21B6D
  8
1PHANTOM
 10
475.7513525154329
 20
-994.1533697157362
 30
0.0
 11
469.2202636021875
 21
-992.4033697157362
 31
0.0
  0
LINE
  5
21B6E
  8
1PHANTOM
 10
469.2202636021875
 20
-992.4033697157362
 30
0.0
 11
425.7513525154329
 21
-992.4033697157362
 31
0.0
  0
LINE
  5
21B6F
  8
1PHANTOM
 10
425.7513525154329
 20
-992.4033697157362
 30
0.0
 11
425.7513525154329
 21
-989.6533697157362
 31
0.0
  0
LINE
  5
21B70
  8
1PHANTOM
 10
425.7513525154329
 20
-989.6533697157362
 30
0.0
 11
424.9513525154331
 21
-989.6533697157362
 31
0.0
  0
ARC
  5
21B71
  8
1PHANTOM
 10
424.9513525154329
 20
-992.1533697157362
 30
0.0
 40
2.5
 50
89.9999999999948
 51
180.0
  0
LINE
  5
21B72
  8
1PHANTOM
 10
422.4513525154329
 20
-996.1533697157362
 30
0.0
 11
422.4513525154329
 21
-992.1533697157362
 31
0.0
  0
ARC
  5
21B73
  8
1PHANTOM
 10
424.9513525154329
 20
-996.1533697157362
 30
0.0
 40
2.5
 50
180.0
 51
270.0
  0
LINE
  5
21B74
  8
1PHANTOM
 10
425.7513525154329
 20
-998.6533697157362
 30
0.0
 11
424.9513525154329
 21
-998.6533697157362
 31
0.0
  0
LINE
  5
21B75
  8
1PHANTOM
 10
425.7513525154329
 20
-998.6533697157362
 30
0.0
 11
425.7513525154329
 21
-995.9033697157362
 31
0.0
  0
LINE
  5
21B76
  8
1PHANTOM
 10
469.2202636021875
 20
-995.9033697157362
 30
0.0
 11
425.7513525154329
 21
-995.9033697157362
 31
0.0
  0
LINE
  5
21B77
  8
1PHANTOM
 10
475.7513525154329
 20
-994.1533697157362
 30
0.0
 11
469.2202636021875
 21
-995.9033697157362
 31
0.0
  0
LINE
  5
21B78
  8
1DIM1
 10
-307.8413
 20
-994.1534
 30
0.0
 11
-307.8413
 21
-961.1533697157361
 31
0.0
1001
ACAD
1000
DSTYLE
1002
{
1070
    40
1040
3.0
1002
}
  0
LINE
  5
21B79
  8
1DIM1
 10
292.1587001661235
 20
-994.1534
 30
0.0
 11
292.1587001661235
 21
-961.1533697157361
 31
0.0
1001
ACAD
1000
DSTYLE
1002
{
1070
    40
1040
3.0
1002
}
  0
LINE
  5
21B7A
  8
1DIM1
 10
-301.8413
 20
-964.1533697157361
 30
0.0
 11
286.1587001661235
 21
-964.1533697157361
 31
0.0
1001
ACAD
1000
DSTYLE
1002
{
1070
    40
1040
3.0
1002
}
  0
LINE
  5
21B7E
  8
1DIM1
 10
-328.8412998338804
 20
-981.9533697157352
 30
0.0
 11
-328.8412998338804
 21
-942.095376076528
 31
0.0
1001
ACAD
1000
DSTYLE
1002
{
1070
    40
1040
3.0
1002
}
  0
LINE
  5
21B7F
  8
1DIM1
 10
313.1587001661275
 20
-981.9533697157353
 30
0.0
 11
313.1587001661275
 21
-942.095376076528
 31
0.0
1001
ACAD
1000
DSTYLE
1002
{
1070
    40
1040
3.0
1002
}
  0
LINE
  5
21B80
  8
1DIM1
 10
-322.8412998338804
 20
-945.095376076528
 30
0.0
 11
307.1587001661275
 21
-945.095376076528
 31
0.0
1001
ACAD
1000
DSTYLE
1002
{
1070
    40
1040
3.0
1002
}
  0
LINE
  5
21B84
  8
1DIM
 10
271.158700166126
 20
-853.681735533256
 30
0.0
 11
271.158700166126
 21
-813.8981960642888
 31
0.0
  0
LINE
  5
21B85
  8
1DIM
 10
313.1587001661267
 20
-853.8817355332567
 30
0.0
 11
313.1587001661267
 21
-813.8981960642888
 31
0.0
  0
LINE
  5
21B86
  8
1DIM
 10
273.158700166126
 20
-814.8981960642888
 30
0.0
 11
311.1587001661267
 21
-814.8981960642888
 31
0.0
  0
LINE
  5
21B8A
  8
1DIM
 10
279.6587001661235
 20
-994.1533697157361
 30
0.0
 11
279.6587001661235
 21
-1020.796766359168
 31
0.0
  0
LINE
  5
21B8B
  8
1DIM
 10
304.6587001661235
 20
-994.1533697157361
 30
0.0
 11
304.6587001661235
 21
-1020.796766359168
 31
0.0
  0
LINE
  5
21B8C
  8
1DIM
 10
281.6587001661235
 20
-1019.796766359168
 30
0.0
 11
302.6587001661235
 21
-1019.796766359168
 31
0.0
  0
LINE
  5
21B90
  8
1DIM
 10
268.0587001661268
 20
-850.3817355332567
 30
0.0
 11
268.0587001661268
 21
-808.1757582381726
 31
0.0
  0
LINE
  5
21B91
  8
1DIM
 10
316.0587001661268
 20
-850.3817355332567
 30
0.0
 11
316.0587001661268
 21
-808.1757582381726
 31
0.0
  0
LINE
  5
21B92
  8
1DIM
 10
270.0587001661268
 20
-809.1757582381726
 30
0.0
 11
314.0587001661268
 21
-809.1757582381726
 31
0.0
  0
LINE
  5
21B96
  8
1DIM
 10
438.7513525376355
 20
-981.9533697157361
 30
0.0
 11
438.7513525376355
 21
-964.4055453390043
 31
0.0
1001
ACAD
1000
DSTYLE
1002
{
1070
    70
1070
     0
1070
    69
1070
     0
1002
}
  0
LINE
  5
21B97
  8
1DIM
 10
441.7513525376355
 20
-980.1533697157362
 30
0.0
 11
441.7513525376355
 21
-964.4055453390043
 31
0.0
1001
ACAD
1000
DSTYLE
1002
{
1070
    70
1070
     0
1070
    69
1070
     0
1002
}
  0
LINE
  5
21B98
  8
1DIM
 10
438.7513525376355
 20
-965.4055453390043
 30
0.0
 11
441.7513525376355
 21
-965.4055453390043
 31
0.0
1001
ACAD
1000
DSTYLE
1002
{
1070
    70
1070
     0
1070
    69
1070
     0
1002
}
  0
LINE
  5
21B99
  8
1DIM
 10
436.7513525376355
 20
-965.4055453390043
 30
0.0
 11
434.7513525376355
 21
-965.4055453390043
 31
0.0
1001
ACAD
1000
DSTYLE
1002
{
1070
    70
1070
     0
1070
    69
1070
     0
1002
}
  0
LINE
  5
21B9A
  8
1DIM
 10
443.7513525376355
 20
-965.4055453390043
 30
0.0
 11
445.7513525376355
 21
-965.4055453390043
 31
0.0
1001
ACAD
1000
DSTYLE
1002
{
1070
    70
1070
     0
1070
    69
1070
     0
1002
}
  0
LINE
  5
21B9E
  8
1DIM
 10
438.4513525376362
 20
-981.6533697157363
 30
0.0
 11
485.1634506107685
 21
-981.6533697157363
 31
0.0
  0
LINE
  5
21B9F
  8
1DIM
 10
438.4513525376362
 20
-1006.653369715736
 30
0.0
 11
485.1634506107685
 21
-1006.653369715736
 31
0.0
  0
LINE
  5
21BA0
  8
1DIM
 10
484.1634506107685
 20
-981.6533697157363
 30
0.0
 11
484.1634506107685
 21
-947.6151681644121
 31
0.0
  0
LINE
  5
21BA1
  8
1DIM
 10
484.1634506107685
 20
-983.6533697157363
 30
0.0
 11
484.1634506107685
 21
-1004.653369715736
 31
0.0
  0
LINE
  5
21BA5
  8
1DIM
 10
441.7513525376355
 20
-980.1533697157362
 30
0.0
 11
491.5649758333809
 21
-980.1533697157362
 31
0.0
  0
LINE
  5
21BA6
  8
1DIM
 10
441.7513525376355
 20
-1008.153369715736
 30
0.0
 11
491.5649758333809
 21
-1008.153369715736
 31
0.0
  0
LINE
  5
21BA7
  8
1DIM
 10
490.5649758333809
 20
-980.1533697157362
 30
0.0
 11
490.5649758333809
 21
-947.5863164408587
 31
0.0
  0
LINE
  5
21BA8
  8
1DIM
 10
490.5649758333809
 20
-982.1533697157362
 30
0.0
 11
490.5649758333809
 21
-1006.153369715736
 31
0.0
  0
LINE
  5
21BAC
  8
1DIM
 10
312.6587001661272
 20
-853.3817355332567
 30
0.0
 11
330.9649576826463
 21
-853.3817355332567
 31
0.0
  0
LINE
  5
21BAD
  8
1DIM
 10
312.6587001661268
 20
-928.3817355332602
 30
0.0
 11
330.9649576826463
 21
-928.3817355332602
 31
0.0
  0
LINE
  5
21BAE
  8
1DIM
 10
329.9649576826463
 20
-855.3817355332567
 30
0.0
 11
329.9649576826463
 21
-926.3817355332602
 31
0.0
  0
LINE
  5
21BB2
  8
1DIM
 10
316.0587001661268
 20
-850.3817355332567
 30
0.0
 11
340.4867748039291
 21
-850.3817355332567
 31
0.0
  0
LINE
  5
21BB3
  8
1DIM
 10
312.6587001661272
 20
-928.3817355332602
 30
0.0
 11
340.4867748039291
 21
-928.3817355332602
 31
0.0
  0
LINE
  5
21BB4
  8
1DIM
 10
339.4867748039291
 20
-852.3817355332567
 30
0.0
 11
339.4867748039291
 21
-926.3817355332602
 31
0.0
  0
SOLID
  5
21BB8
  8
1DIM
 10
269.4673603664647
 20
-877.2893272961352
 30
0.0
 11
271.1483145330341
 21
-876.1555265195416
 31
0.0
 12
269.9259419246339
 22
-877.7732150919634
 32
0.0
 13
269.9259419246339
 23
-877.7732150919634
 33
0.0
  0
LINE
  5
21BB9
  8
1DIM
 10
269.6966511455494
 20
-877.5312711940493
 30
0.0
 11
261.3238846581912
 21
-885.4661609248136
 31
0.0
  0
LINE
  5
21BBA
  8
1DIM
 10
261.3238846581912
 20
-885.4661609248136
 30
0.0
 11
258.6238846581912
 21
-885.4661609248136
 31
0.0
  0
TEXT
  5
21BBB
  8
1DIM
  6
CONTINUOUS
 10
213.8238846581911
 20
-884.7661609248136
 30
0.0
 40
3.5
  1
材質：亜鉛ダイキャスト
  0
SOLID
  5
21BBC
  8
1DIM
 10
266.7123106419153
 20
-854.5977653351421
 30
0.0
 11
268.0587001661268
 21
-853.0817355332567
 31
0.0
 12
267.2767737951868
 22
-854.9524846510006
 32
0.0
 13
267.2767737951868
 23
-854.9524846510006
 33
0.0
  0
LINE
  5
21BBD
  8
1DIM
 10
266.994542218551
 20
-854.7751249930714
 30
0.0
 11
262.3981127709303
 21
-862.0894012216274
 31
0.0
  0
LINE
  5
21BBE
  8
1DIM
 10
262.3981127709303
 20
-862.0894012216274
 30
0.0
 11
259.6981127709303
 21
-862.0894012216274
 31
0.0
  0
TEXT
  5
21BBF
  8
1DIM
  6
CONTINUOUS
 10
239.3981127709303
 20
-861.3894012216274
 30
0.0
 40
3.5
  1
材質：真鍮
  0
SOLID
  5
21BC0
  8
1DIM
 10
264.7966794406453
 20
-930.6422396573595
 30
0.0
 11
266.0796417217546
 21
-929.0721699466899
 31
0.0
 12
265.3752405511927
 22
-930.9734668993046
 32
0.0
 13
265.3752405511927
 23
-930.9734668993046
 33
0.0
  0
LINE
  5
21BC1
  8
1DIM
 10
265.085959995919
 20
-930.807853278332
 30
0.0
 11
248.7796417217546
 21
-959.2904187649019
 31
0.0
  0
LINE
  5
21BC2
  8
1DIM
 10
248.7796417217546
 20
-959.2904187649019
 30
0.0
 11
246.0796417217546
 21
-959.2904187649019
 31
0.0
  0
TEXT
  5
21BC3
  8
1DIM
  6
CONTINUOUS
 10
213.5296417217546
 20
-952.7570854315686
 30
0.0
 40
3.5
  1
材質：ステンレス
  0
TEXT
  5
21BC4
  8
1DIM
  6
CONTINUOUS
 10
209.0963083884212
 20
-958.590418764902
 30
0.0
 40
3.5
  1
仕上げ：ヘアライン
  0
LINE
  5
21BC5
  8
1DIM1
 10
-295.3412998338762
 20
-994.1533697157361
 30
0.0
 11
-295.3412998338762
 21
-1038.645688685178
 31
0.0
1001
ACAD
1000
DSTYLE
1002
{
1070
    40
1040
3.0
1002
}
  0
LINE
  5
21BC6
  8
1DIM1
 10
279.6587001661235
 20
-994.1533697157361
 30
0.0
 11
279.6587001661235
 21
-1038.645688685178
 31
0.0
1001
ACAD
1000
DSTYLE
1002
{
1070
    40
1040
3.0
1002
}
  0
LINE
  5
21BC7
  8
1DIM1
 10
-289.3412998338762
 20
-1035.645688685178
 30
0.0
 11
273.6587001661235
 21
-1035.645688685178
 31
0.0
1001
ACAD
1000
DSTYLE
1002
{
1070
    40
1040
3.0
1002
}
  0
LINE
  5
21BCB
  8
1HATCH
 10
428.2513525376319
 20
-1006.053369715736
 30
0.0
 11
422.2513525376319
 21
-1006.053369715735
 31
0.0
  0
LINE
  5
21BCC
  8
1HATCH
 10
426.9013525376319
 20
-1004.703369725736
 30
0.0
 11
427.2513525376319
 21
-1005.053369551661
 31
0.0
  0
LINE
  5
21BCD
  8
1HATCH
 10
423.2513525376319
 20
-1005.053369551661
 30
0.0
 11
423.601352537632
 21
-1004.703369725736
 31
0.0
  0
LINE
  5
21BCE
  8
1HATCH
 10
427.2513525376319
 20
-996.7033697257356
 30
0.0
 11
423.2513525376319
 21
-996.7033697257356
 31
0.0
  0
LINE
  5
21BD0
  8
1CENTER
 10
425.2513525376319
 20
-994.7516947257355
 30
0.0
 11
425.2513525376319
 21
-1007.912138625736
 31
0.0
  0
LINE
  5
21BD1
  8
1HATCH
 10
426.9013525376319
 20
-996.3533697257355
 30
0.0
 11
426.9013525376319
 21
-1004.703369725736
 31
0.0
  0
LINE
  5
21BD2
  8
1HATCH
 10
423.601352537632
 20
-996.3533697257355
 30
0.0
 11
423.601352537632
 21
-1004.703369725736
 31
0.0
  0
LINE
  5
21BD3
  8
1HATCH
 10
428.2513525376319
 20
-982.2533697157369
 30
0.0
 11
422.2513525376319
 21
-982.2533697157368
 31
0.0
  0
LINE
  5
21BD4
  8
1HATCH
 10
426.9013525376319
 20
-983.6033697057368
 30
0.0
 11
427.2513525376319
 21
-983.2533698798109
 31
0.0
  0
LINE
  5
21BD5
  8
1HATCH
 10
423.2513525376319
 20
-983.2533698798109
 30
0.0
 11
423.601352537632
 21
-983.6033697057368
 31
0.0
  0
LINE
  5
21BD6
  8
1HATCH
 10
427.2513525376319
 20
-991.6033697057368
 30
0.0
 11
423.2513525376319
 21
-991.6033697057368
 31
0.0
  0
LINE
  5
21BD8
  8
1CENTER
 10
425.2513525376319
 20
-993.5550447057368
 30
0.0
 11
425.2513525376319
 21
-980.3946008057368
 31
0.0
  0
LINE
  5
21BD9
  8
1HATCH
 10
426.9013525376319
 20
-991.9533697057368
 30
0.0
 11
426.9013525376319
 21
-983.6033697057368
 31
0.0
  0
LINE
  5
21BDA
  8
1HATCH
 10
423.601352537632
 20
-991.9533697057368
 30
0.0
 11
423.601352537632
 21
-983.6033697057368
 31
0.0
  0
LINE
  5
21BDB
  8
1PHANTOM
 10
304.6491580971183
 20
-816.3817355443507
 30
0.0
 11
302.8991580971183
 21
-822.9128244575961
 31
0.0
  0
LINE
  5
21BDC
  8
1PHANTOM
 10
302.8991580971183
 20
-822.9128244575961
 30
0.0
 11
302.8991580971183
 21
-866.3817355443507
 31
0.0
  0
LINE
  5
21BDD
  8
1PHANTOM
 10
302.8991580971183
 20
-866.3817355443507
 30
0.0
 11
300.1491580971183
 21
-866.3817355443507
 31
0.0
  0
LINE
  5
21BDE
  8
1PHANTOM
 10
300.1491580971183
 20
-866.3817355443507
 30
0.0
 11
300.1491580971183
 21
-867.1817355443504
 31
0.0
  0
ARC
  5
21BDF
  8
1PHANTOM
 10
302.6491580971183
 20
-867.1817355443507
 30
0.0
 40
2.5
 50
179.9999999999948
 51
270.0
  0
LINE
  5
21BE0
  8
1PHANTOM
 10
302.6491580971183
 20
-869.6817355443507
 30
0.0
 11
306.6491580971183
 21
-869.6817355443507
 31
0.0
  0
ARC
  5
21BE1
  8
1PHANTOM
 10
306.6491580971183
 20
-867.1817355443507
 30
0.0
 40
2.5
 50
270.0
 51
0.0
  0
LINE
  5
21BE2
  8
1PHANTOM
 10
309.1491580971183
 20
-867.1817355443507
 30
0.0
 11
309.1491580971183
 21
-866.3817355443507
 31
0.0
  0
LINE
  5
21BE3
  8
1PHANTOM
 10
309.1491580971183
 20
-866.3817355443507
 30
0.0
 11
306.3991580971183
 21
-866.3817355443507
 31
0.0
  0
LINE
  5
21BE4
  8
1PHANTOM
 10
306.3991580971183
 20
-866.3817355443507
 30
0.0
 11
306.3991580971183
 21
-822.9128244575961
 31
0.0
  0
LINE
  5
21BE5
  8
1PHANTOM
 10
306.3991580971183
 20
-822.9128244575961
 30
0.0
 11
304.6491580971183
 21
-816.3817355443507
 31
0.0
  0
LINE
  5
21BE6
  8
1PHANTOM
 10
279.6491579309948
 20
-816.3817355443541
 30
0.0
 11
277.8991579309948
 21
-822.9128244575995
 31
0.0
  0
LINE
  5
21BE7
  8
1PHANTOM
 10
277.8991579309948
 20
-822.9128244575995
 30
0.0
 11
277.8991579309948
 21
-866.3817355443541
 31
0.0
  0
LINE
  5
21BE8
  8
1PHANTOM
 10
277.8991579309948
 20
-866.3817355443541
 30
0.0
 11
275.1491579309948
 21
-866.3817355443541
 31
0.0
  0
LINE
  5
21BE9
  8
1PHANTOM
 10
275.1491579309948
 20
-866.3817355443541
 30
0.0
 11
275.1491579309948
 21
-867.1817355443538
 31
0.0
  0
ARC
  5
21BEA
  8
1PHANTOM
 10
277.6491579309948
 20
-867.1817355443541
 30
0.0
 40
2.5
 50
179.9999999999948
 51
270.0
  0
LINE
  5
21BEB
  8
1PHANTOM
 10
277.6491579309948
 20
-869.6817355443541
 30
0.0
 11
281.6491579309948
 21
-869.6817355443541
 31
0.0
  0
ARC
  5
21BEC
  8
1PHANTOM
 10
281.6491579309948
 20
-867.1817355443541
 30
0.0
 40
2.5
 50
270.0
 51
0.0
  0
LINE
  5
21BED
  8
1PHANTOM
 10
284.1491579309948
 20
-867.1817355443541
 30
0.0
 11
284.1491579309948
 21
-866.3817355443541
 31
0.0
  0
LINE
  5
21BEE
  8
1PHANTOM
 10
284.1491579309948
 20
-866.3817355443541
 30
0.0
 11
281.3991579309948
 21
-866.3817355443541
 31
0.0
  0
LINE
  5
21BEF
  8
1PHANTOM
 10
281.3991579309948
 20
-866.3817355443541
 30
0.0
 11
281.3991579309948
 21
-822.9128244575995
 31
0.0
  0
LINE
  5
21BF0
  8
1PHANTOM
 10
281.3991579309948
 20
-822.9128244575995
 30
0.0
 11
279.6491579309948
 21
-816.3817355443541
 31
0.0
  0
LINE
  5
21BF1
  8
1PHANTOM
 10
-295.150841902887
 20
-816.3817355443507
 30
0.0
 11
-296.900841902887
 21
-822.9128244575961
 31
0.0
  0
LINE
  5
21BF2
  8
1PHANTOM
 10
-296.900841902887
 20
-822.9128244575961
 30
0.0
 11
-296.900841902887
 21
-866.3817355443507
 31
0.0
  0
LINE
  5
21BF3
  8
1PHANTOM
 10
-296.900841902887
 20
-866.3817355443507
 30
0.0
 11
-299.650841902887
 21
-866.3817355443507
 31
0.0
  0
LINE
  5
21BF4
  8
1PHANTOM
 10
-299.650841902887
 20
-866.3817355443507
 30
0.0
 11
-299.650841902887
 21
-867.1817355443504
 31
0.0
  0
ARC
  5
21BF5
  8
1PHANTOM
 10
-297.150841902887
 20
-867.1817355443507
 30
0.0
 40
2.5
 50
179.9999999999948
 51
270.0
  0
LINE
  5
21BF6
  8
1PHANTOM
 10
-297.150841902887
 20
-869.6817355443507
 30
0.0
 11
-293.150841902887
 21
-869.6817355443507
 31
0.0
  0
ARC
  5
21BF7
  8
1PHANTOM
 10
-293.150841902887
 20
-867.1817355443507
 30
0.0
 40
2.5
 50
270.0
 51
0.0
  0
LINE
  5
21BF8
  8
1PHANTOM
 10
-290.650841902887
 20
-867.1817355443507
 30
0.0
 11
-290.650841902887
 21
-866.3817355443507
 31
0.0
  0
LINE
  5
21BF9
  8
1PHANTOM
 10
-290.650841902887
 20
-866.3817355443507
 30
0.0
 11
-293.400841902887
 21
-866.3817355443507
 31
0.0
  0
LINE
  5
21BFA
  8
1PHANTOM
 10
-293.400841902887
 20
-866.3817355443507
 30
0.0
 11
-293.400841902887
 21
-822.9128244575961
 31
0.0
  0
LINE
  5
21BFB
  8
1PHANTOM
 10
-293.400841902887
 20
-822.9128244575961
 30
0.0
 11
-295.150841902887
 21
-816.3817355443507
 31
0.0
  0
LINE
  5
21BFC
  8
1PHANTOM
 10
-320.1508420690105
 20
-816.3817355443541
 30
0.0
 11
-321.9008420690105
 21
-822.9128244575995
 31
0.0
  0
LINE
  5
21BFD
  8
1PHANTOM
 10
-321.9008420690105
 20
-822.9128244575995
 30
0.0
 11
-321.9008420690105
 21
-866.3817355443541
 31
0.0
  0
LINE
  5
21BFE
  8
1PHANTOM
 10
-321.9008420690105
 20
-866.3817355443541
 30
0.0
 11
-324.6508420690105
 21
-866.3817355443541
 31
0.0
  0
LINE
  5
21BFF
  8
1PHANTOM
 10
-324.6508420690105
 20
-866.3817355443541
 30
0.0
 11
-324.6508420690105
 21
-867.1817355443538
 31
0.0
  0
ARC
  5
21C00
  8
1PHANTOM
 10
-322.1508420690105
 20
-867.1817355443541
 30
0.0
 40
2.5
 50
179.9999999999948
 51
270.0
  0
LINE
  5
21C01
  8
1PHANTOM
 10
-322.1508420690105
 20
-869.6817355443541
 30
0.0
 11
-318.1508420690105
 21
-869.6817355443541
 31
0.0
  0
ARC
  5
21C02
  8
1PHANTOM
 10
-318.1508420690105
 20
-867.1817355443541
 30
0.0
 40
2.5
 50
270.0
 51
0.0
  0
LINE
  5
21C03
  8
1PHANTOM
 10
-315.6508420690105
 20
-867.1817355443541
 30
0.0
 11
-315.6508420690105
 21
-866.3817355443541
 31
0.0
  0
LINE
  5
21C04
  8
1PHANTOM
 10
-315.6508420690105
 20
-866.3817355443541
 30
0.0
 11
-318.4008420690105
 21
-866.3817355443541
 31
0.0
  0
LINE
  5
21C05
  8
1PHANTOM
 10
-318.4008420690105
 20
-866.3817355443541
 30
0.0
 11
-318.4008420690105
 21
-822.9128244575995
 31
0.0
  0
LINE
  5
21C06
  8
1PHANTOM
 10
-318.4008420690105
 20
-822.9128244575995
 30
0.0
 11
-320.1508420690105
 21
-816.3817355443541
 31
0.0
  0
LINE
  5
21C07
  8
1DIM
 10
270.858700166129
 20
-903.3817355332102
 30
0.0
 11
232.1952354100849
 21
-903.3817355332102
 31
0.0
1001
ACAD
1000
DSTYLE
1002
{
1070
     3
1000
φ<>
1002
}
  0
LINE
  5
21C08
  8
1DIM
 10
247.9631438814941
 20
-928.3817355332557
 30
0.0
 11
232.1952354100849
 21
-928.3817355332557
 31
0.0
1001
ACAD
1000
DSTYLE
1002
{
1070
     3
1000
φ<>
1002
}
  0
LINE
  5
21C09
  8
1DIM
 10
233.1952354100849
 20
-928.3817355332557
 30
0.0
 11
233.1952354100849
 21
-942.159702497811
 31
0.0
1001
ACAD
1000
DSTYLE
1002
{
1070
     3
1000
φ<>
1002
}
  0
LINE
  5
21C0A
  8
1DIM
 10
233.1952354100849
 20
-905.3817355332102
 30
0.0
 11
233.1952354100849
 21
-926.3817355332557
 31
0.0
1001
ACAD
1000
DSTYLE
1002
{
1070
     3
1000
φ<>
1002
}
  0
LINE
  5
21C0E
  8
1DIM
 10
438.7513525376355
 20
-980.6533697157362
 30
0.0
 11
438.7513525376355
 21
-972.452500100941
 31
0.0
  0
LINE
  5
21C0F
  8
1DIM
 10
425.2513525376319
 20
-980.6533697157362
 30
0.0
 11
425.2513525376319
 21
-972.452500100941
 31
0.0
  0
LINE
  5
21C10
  8
1DIM
 10
436.7513525376355
 20
-973.452500100941
 30
0.0
 11
427.2513525376319
 21
-973.452500100941
 31
0.0
  0
LINE
  5
21C14
  8
0
  6
BYBLOCK
 10
-301.8413
 20
-965.7610648557361
 30
0.0
 11
-307.8413
 21
-964.1533697157361
 31
0.0
  0
LINE
  5
21C15
  8
0
  6
BYBLOCK
 10
-307.8413
 20
-964.1533697157361
 30
0.0
 11
-301.8413
 21
-962.545674575736
 31
0.0
  0
LINE
  5
21C16
  8
0
  6
BYBLOCK
 10
-307.8413
 20
-964.1533697157361
 30
0.0
 11
-301.8413
 21
-964.1533697157361
 31
0.0
  0
LINE
  5
21C17
  8
0
  6
BYBLOCK
 10
286.1587001661235
 20
-962.545674575736
 30
0.0
 11
292.1587001661235
 21
-964.1533697157361
 31
0.0
  0
LINE
  5
21C18
  8
0
  6
BYBLOCK
 10
292.1587001661235
 20
-964.1533697157361
 30
0.0
 11
286.1587001661235
 21
-965.7610648557361
 31
0.0
  0
LINE
  5
21C19
  8
0
  6
BYBLOCK
 10
292.1587001661235
 20
-964.1533697157361
 30
0.0
 11
286.1587001661235
 21
-964.1533697157361
 31
0.0
  0
TEXT
  5
21C1A
  8
1DIM1
  6
CONTINUOUS
 10
-25.59650825027156
 20
-962.053369715736
 30
0.0
 40
10.5
  1
P600
1001
ACAD
1000
DSTYLE
1002
{
1070
    40
1040
3.0
1002
}
  0
LINE
  5
21C1B
  8
0
  6
BYBLOCK
 10
-322.8412998338804
 20
-946.7030712165281
 30
0.0
 11
-328.8412998338804
 21
-945.095376076528
 31
0.0
  0
LINE
  5
21C1C
  8
0
  6
BYBLOCK
 10
-328.8412998338804
 20
-945.095376076528
 30
0.0
 11
-322.8412998338804
 21
-943.487680936528
 31
0.0
  0
LINE
  5
21C1D
  8
0
  6
BYBLOCK
 10
-328.8412998338804
 20
-945.095376076528
 30
0.0
 11
-322.8412998338804
 21
-945.095376076528
 31
0.0
  0
LINE
  5
21C1E
  8
0
  6
BYBLOCK
 10
307.1587001661275
 20
-943.487680936528
 30
0.0
 11
313.1587001661275
 21
-945.095376076528
 31
0.0
  0
LINE
  5
21C1F
  8
0
  6
BYBLOCK
 10
313.1587001661275
 20
-945.095376076528
 30
0.0
 11
307.1587001661275
 21
-946.7030712165281
 31
0.0
  0
LINE
  5
21C20
  8
0
  6
BYBLOCK
 10
313.1587001661275
 20
-945.095376076528
 30
0.0
 11
307.1587001661275
 21
-945.095376076528
 31
0.0
  0
TEXT
  5
21C21
  8
1DIM1
  6
CONTINUOUS
 10
-21.87775816720977
 20
-942.995376076528
 30
0.0
 40
10.5
  1
642
1001
ACAD
1000
DSTYLE
1002
{
1070
    40
1040
3.0
1002
}
  0
LINE
  5
21C22
  8
0
  6
BYBLOCK
 10
273.158700166126
 20
-815.4340944442888
 30
0.0
 11
271.158700166126
 21
-814.8981960642888
 31
0.0
  0
LINE
  5
21C23
  8
0
  6
BYBLOCK
 10
271.158700166126
 20
-814.8981960642888
 30
0.0
 11
273.158700166126
 21
-814.3622976842887
 31
0.0
  0
LINE
  5
21C24
  8
0
  6
BYBLOCK
 10
271.158700166126
 20
-814.8981960642888
 30
0.0
 11
273.158700166126
 21
-814.8981960642888
 31
0.0
  0
LINE
  5
21C25
  8
0
  6
BYBLOCK
 10
311.1587001661267
 20
-814.3622976842887
 30
0.0
 11
313.1587001661267
 21
-814.8981960642888
 31
0.0
  0
LINE
  5
21C26
  8
0
  6
BYBLOCK
 10
313.1587001661267
 20
-814.8981960642888
 30
0.0
 11
311.1587001661267
 21
-815.4340944442888
 31
0.0
  0
LINE
  5
21C27
  8
0
  6
BYBLOCK
 10
313.1587001661267
 20
-814.8981960642888
 30
0.0
 11
311.1587001661267
 21
-814.8981960642888
 31
0.0
  0
TEXT
  5
21C28
  8
1DIM
  6
CONTINUOUS
 10
278.800366832793
 20
-814.1981960642887
 30
0.0
 40
3.5
  1
42 （縦施工）
  0
LINE
  5
21C29
  8
0
  6
BYBLOCK
 10
281.6587001661235
 20
-1020.332664739168
 30
0.0
 11
279.6587001661235
 21
-1019.796766359168
 31
0.0
  0
LINE
  5
21C2A
  8
0
  6
BYBLOCK
 10
279.6587001661235
 20
-1019.796766359168
 30
0.0
 11
281.6587001661235
 21
-1019.260867979168
 31
0.0
  0
LINE
  5
21C2B
  8
0
  6
BYBLOCK
 10
279.6587001661235
 20
-1019.796766359168
 30
0.0
 11
281.6587001661235
 21
-1019.796766359168
 31
0.0
  0
LINE
  5
21C2C
  8
0
  6
BYBLOCK
 10
302.6587001661235
 20
-1019.260867979168
 30
0.0
 11
304.6587001661235
 21
-1019.796766359168
 31
0.0
  0
LINE
  5
21C2D
  8
0
  6
BYBLOCK
 10
304.6587001661235
 20
-1019.796766359168
 30
0.0
 11
302.6587001661235
 21
-1020.332664739168
 31
0.0
  0
LINE
  5
21C2E
  8
0
  6
BYBLOCK
 10
304.6587001661235
 20
-1019.796766359168
 30
0.0
 11
302.6587001661235
 21
-1019.796766359168
 31
0.0
  0
TEXT
  5
21C2F
  8
1DIM
  6
CONTINUOUS
 10
287.4920334994569
 20
-1019.096766359168
 30
0.0
 40
3.5
  1
P25
  0
LINE
  5
21C30
  8
0
  6
BYBLOCK
 10
270.0587001661268
 20
-809.7116566181727
 30
0.0
 11
268.0587001661268
 21
-809.1757582381726
 31
0.0
  0
LINE
  5
21C31
  8
0
  6
BYBLOCK
 10
268.0587001661268
 20
-809.1757582381726
 30
0.0
 11
270.0587001661268
 21
-808.6398598581726
 31
0.0
  0
LINE
  5
21C32
  8
0
  6
BYBLOCK
 10
268.0587001661268
 20
-809.1757582381726
 30
0.0
 11
270.0587001661268
 21
-809.1757582381726
 31
0.0
  0
LINE
  5
21C33
  8
0
  6
BYBLOCK
 10
314.0587001661268
 20
-808.6398598581726
 30
0.0
 11
316.0587001661268
 21
-809.1757582381726
 31
0.0
  0
LINE
  5
21C34
  8
0
  6
BYBLOCK
 10
316.0587001661268
 20
-809.1757582381726
 30
0.0
 11
314.0587001661268
 21
-809.7116566181727
 31
0.0
  0
LINE
  5
21C35
  8
0
  6
BYBLOCK
 10
316.0587001661268
 20
-809.1757582381726
 30
0.0
 11
314.0587001661268
 21
-809.1757582381726
 31
0.0
  0
TEXT
  5
21C36
  8
1DIM
  6
CONTINUOUS
 10
278.7003668327935
 20
-808.4757582381726
 30
0.0
 40
3.5
  1
48 （横施工）
  0
LINE
  5
21C37
  8
0
  6
BYBLOCK
 10
436.7513525376355
 20
-964.8696469590043
 30
0.0
 11
438.7513525376355
 21
-965.4055453390043
 31
0.0
  0
LINE
  5
21C38
  8
0
  6
BYBLOCK
 10
438.7513525376355
 20
-965.4055453390043
 30
0.0
 11
436.7513525376355
 21
-965.9414437190044
 31
0.0
  0
LINE
  5
21C39
  8
0
  6
BYBLOCK
 10
438.7513525376355
 20
-965.4055453390043
 30
0.0
 11
436.7513525376355
 21
-965.4055453390043
 31
0.0
  0
LINE
  5
21C3A
  8
0
  6
BYBLOCK
 10
443.7513525376355
 20
-965.9414437190044
 30
0.0
 11
441.7513525376355
 21
-965.4055453390043
 31
0.0
  0
LINE
  5
21C3B
  8
0
  6
BYBLOCK
 10
441.7513525376355
 20
-965.4055453390043
 30
0.0
 11
443.7513525376355
 21
-964.8696469590043
 31
0.0
  0
LINE
  5
21C3C
  8
0
  6
BYBLOCK
 10
441.7513525376355
 20
-965.4055453390043
 30
0.0
 11
443.7513525376355
 21
-965.4055453390043
 31
0.0
  0
TEXT
  5
21C3D
  8
1DIM
  6
CONTINUOUS
 10
439.0846858709688
 20
-964.7055453390043
 30
0.0
 40
3.5
  1
3
1001
ACAD
1000
DSTYLE
1002
{
1070
    70
1070
     0
1070
    69
1070
     0
1002
}
  0
LINE
  5
21C3E
  8
0
  6
BYBLOCK
 10
483.6275522307685
 20
-983.6533697157363
 30
0.0
 11
484.1634506107685
 21
-981.6533697157363
 31
0.0
  0
LINE
  5
21C3F
  8
0
  6
BYBLOCK
 10
484.1634506107685
 20
-981.6533697157363
 30
0.0
 11
484.6993489907685
 21
-983.6533697157363
 31
0.0
  0
LINE
  5
21C40
  8
0
  6
BYBLOCK
 10
484.1634506107685
 20
-981.6533697157363
 30
0.0
 11
484.1634506107685
 21
-983.6533697157363
 31
0.0
  0
LINE
  5
21C41
  8
0
  6
BYBLOCK
 10
484.6993489907685
 20
-1004.653369715736
 30
0.0
 11
484.1634506107685
 21
-1006.653369715736
 31
0.0
  0
LINE
  5
21C42
  8
0
  6
BYBLOCK
 10
484.1634506107685
 20
-1006.653369715736
 30
0.0
 11
483.6275522307685
 21
-1004.653369715736
 31
0.0
  0
LINE
  5
21C43
  8
0
  6
BYBLOCK
 10
484.1634506107685
 20
-1006.653369715736
 30
0.0
 11
484.1634506107685
 21
-1004.653369715736
 31
0.0
  0
TEXT
  5
21C44
  8
1DIM
  6
CONTINUOUS
 10
483.4634506107686
 20
-974.62732094219
 30
0.0
 40
3.5
  1
25 （縦施工）
 50
90.0
  0
LINE
  5
21C45
  8
0
  6
BYBLOCK
 10
490.0290774533809
 20
-982.1533697157362
 30
0.0
 11
490.5649758333809
 21
-980.1533697157362
 31
0.0
  0
LINE
  5
21C46
  8
0
  6
BYBLOCK
 10
490.5649758333809
 20
-980.1533697157362
 30
0.0
 11
491.1008742133808
 21
-982.1533697157362
 31
0.0
  0
LINE
  5
21C47
  8
0
  6
BYBLOCK
 10
490.5649758333809
 20
-980.1533697157362
 30
0.0
 11
490.5649758333809
 21
-982.1533697157362
 31
0.0
  0
LINE
  5
21C48
  8
0
  6
BYBLOCK
 10
491.1008742133808
 20
-1006.153369715736
 30
0.0
 11
490.5649758333809
 21
-1008.153369715736
 31
0.0
  0
LINE
  5
21C49
  8
0
  6
BYBLOCK
 10
490.5649758333809
 20
-1008.153369715736
 30
0.0
 11
490.0290774533809
 21
-1006.153369715736
 31
0.0
  0
LINE
  5
21C4A
  8
0
  6
BYBLOCK
 10
490.5649758333809
 20
-1008.153369715736
 30
0.0
 11
490.5649758333809
 21
-1006.153369715736
 31
0.0
  0
TEXT
  5
21C4B
  8
1DIM
  6
CONTINUOUS
 10
489.8649758333809
 20
-974.5863164408586
 30
0.0
 40
3.5
  1
28 （横施工）
 50
90.0
  0
LINE
  5
21C4C
  8
0
  6
BYBLOCK
 10
329.4290593026464
 20
-855.3817355332567
 30
0.0
 11
329.9649576826463
 21
-853.3817355332567
 31
0.0
  0
LINE
  5
21C4D
  8
0
  6
BYBLOCK
 10
329.9649576826463
 20
-853.3817355332567
 30
0.0
 11
330.5008560626463
 21
-855.3817355332567
 31
0.0
  0
LINE
  5
21C4E
  8
0
  6
BYBLOCK
 10
329.9649576826463
 20
-853.3817355332567
 30
0.0
 11
329.9649576826463
 21
-855.3817355332567
 31
0.0
  0
LINE
  5
21C4F
  8
0
  6
BYBLOCK
 10
330.5008560626463
 20
-926.3817355332602
 30
0.0
 11
329.9649576826463
 21
-928.3817355332602
 31
0.0
  0
LINE
  5
21C50
  8
0
  6
BYBLOCK
 10
329.9649576826463
 20
-928.3817355332602
 30
0.0
 11
329.4290593026464
 21
-926.3817355332602
 31
0.0
  0
LINE
  5
21C51
  8
0
  6
BYBLOCK
 10
329.9649576826463
 20
-928.3817355332602
 30
0.0
 11
329.9649576826463
 21
-926.3817355332602
 31
0.0
  0
TEXT
  5
21C52
  8
1DIM
  6
CONTINUOUS
 10
329.2649576826465
 20
-904.2522216443697
 30
0.0
 40
3.5
  1
75 （縦施工）
 50
90.0
  0
LINE
  5
21C53
  8
0
  6
BYBLOCK
 10
338.9508764239291
 20
-852.3817355332567
 30
0.0
 11
339.4867748039291
 21
-850.3817355332567
 31
0.0
  0
LINE
  5
21C54
  8
0
  6
BYBLOCK
 10
339.4867748039291
 20
-850.3817355332567
 30
0.0
 11
340.0226731839291
 21
-852.3817355332567
 31
0.0
  0
LINE
  5
21C55
  8
0
  6
BYBLOCK
 10
339.4867748039291
 20
-850.3817355332567
 30
0.0
 11
339.4867748039291
 21
-852.3817355332567
 31
0.0
  0
LINE
  5
21C56
  8
0
  6
BYBLOCK
 10
340.0226731839291
 20
-926.3817355332602
 30
0.0
 11
339.4867748039291
 21
-928.3817355332602
 31
0.0
  0
LINE
  5
21C57
  8
0
  6
BYBLOCK
 10
339.4867748039291
 20
-928.3817355332602
 30
0.0
 11
338.9508764239291
 21
-926.3817355332602
 31
0.0
  0
LINE
  5
21C58
  8
0
  6
BYBLOCK
 10
339.4867748039291
 20
-928.3817355332602
 30
0.0
 11
339.4867748039291
 21
-926.3817355332602
 31
0.0
  0
TEXT
  5
21C59
  8
1DIM
  6
CONTINUOUS
 10
338.7867748039291
 20
-902.7400688665919
 30
0.0
 40
3.5
  1
78 （横施工）
 50
90.0
  0
LINE
  5
21C5A
  8
0
  6
BYBLOCK
 10
-289.3412998338762
 20
-1037.253383825178
 30
0.0
 11
-295.3412998338762
 21
-1035.645688685178
 31
0.0
  0
LINE
  5
21C5B
  8
0
  6
BYBLOCK
 10
-295.3412998338762
 20
-1035.645688685178
 30
0.0
 11
-289.3412998338762
 21
-1034.037993545178
 31
0.0
  0
LINE
  5
21C5C
  8
0
  6
BYBLOCK
 10
-295.3412998338762
 20
-1035.645688685178
 30
0.0
 11
-289.3412998338762
 21
-1035.645688685178
 31
0.0
  0
LINE
  5
21C5D
  8
0
  6
BYBLOCK
 10
273.6587001661235
 20
-1034.037993545178
 30
0.0
 11
279.6587001661235
 21
-1035.645688685178
 31
0.0
  0
LINE
  5
21C5E
  8
0
  6
BYBLOCK
 10
279.6587001661235
 20
-1035.645688685178
 30
0.0
 11
273.6587001661235
 21
-1037.253383825178
 31
0.0
  0
LINE
  5
21C5F
  8
0
  6
BYBLOCK
 10
279.6587001661235
 20
-1035.645688685178
 30
0.0
 11
273.6587001661235
 21
-1035.645688685178
 31
0.0
  0
TEXT
  5
21C60
  8
1DIM1
  6
CONTINUOUS
 10
-21.87775816720968
 20
-1033.545688685178
 30
0.0
 40
10.5
  1
575
1001
ACAD
1000
DSTYLE
1002
{
1070
    40
1040
3.0
1002
}
  0
LINE
  5
21C61
  8
0
 10
423.2513525376319
 20
-996.7033697257355
 30
0.0
 11
423.2513525376319
 21
-1005.053369551661
 31
0.0
  0
LINE
  5
21C62
  8
0
 10
423.2513525376319
 20
-1005.053369551661
 30
0.0
 11
422.2513525376319
 21
-1006.053369625736
 31
0.0
  0
LINE
  5
21C63
  8
0
 10
422.2513525376319
 20
-1006.053369625736
 30
0.0
 11
422.2513525376319
 21
-1006.353369725736
 31
0.0
  0
LINE
  5
21C64
  8
0
 10
422.2513525376319
 20
-1006.353369725736
 30
0.0
 11
428.2513525376319
 21
-1006.353369725736
 31
0.0
  0
LINE
  5
21C65
  8
0
 10
428.2513525376319
 20
-1006.353369725736
 30
0.0
 11
428.2513525376319
 21
-1006.053369715735
 31
0.0
  0
LINE
  5
21C66
  8
0
 10
428.2513525376319
 20
-1006.053369715735
 30
0.0
 11
427.2513525376319
 21
-1005.053369551661
 31
0.0
  0
LINE
  5
21C67
  8
0
 10
427.2513525376319
 20
-1005.053369551661
 30
0.0
 11
427.2513525376319
 21
-996.7033697257355
 31
0.0
  0
LINE
  5
21C68
  8
0
 10
427.2513525376319
 20
-996.7033697257355
 30
0.0
 11
426.9013525376319
 21
-996.3533697257355
 31
0.0
  0
LINE
  5
21C69
  8
0
 10
426.9013525376319
 20
-996.3533697257355
 30
0.0
 11
423.6013525376321
 21
-996.3533697257355
 31
0.0
  0
LINE
  5
21C6A
  8
0
 10
423.6013525376321
 20
-996.3533697257355
 30
0.0
 11
423.2513525376319
 21
-996.7033697257355
 31
0.0
  0
LINE
  5
21C6B
  8
0
 10
423.2513525376319
 20
-983.2533698798109
 30
0.0
 11
423.2513525376319
 21
-991.6033697057369
 31
0.0
  0
LINE
  5
21C6C
  8
0
 10
423.2513525376319
 20
-991.6033697057369
 30
0.0
 11
423.6013525376321
 21
-991.9533697057368
 31
0.0
  0
LINE
  5
21C6D
  8
0
 10
423.6013525376321
 20
-991.9533697057368
 30
0.0
 11
426.9013525376319
 21
-991.9533697057368
 31
0.0
  0
LINE
  5
21C6E
  8
0
 10
426.9013525376319
 20
-991.9533697057368
 30
0.0
 11
427.2513525376319
 21
-991.6033697057369
 31
0.0
  0
LINE
  5
21C6F
  8
0
 10
427.2513525376319
 20
-991.6033697057369
 30
0.0
 11
427.2513525376319
 21
-983.2533698798109
 31
0.0
  0
LINE
  5
21C70
  8
0
 10
427.2513525376319
 20
-983.2533698798109
 30
0.0
 11
428.2513525376319
 21
-982.2533697157369
 31
0.0
  0
LINE
  5
21C71
  8
0
 10
428.2513525376319
 20
-982.2533697157369
 30
0.0
 11
428.2513525376319
 21
-981.9533697057368
 31
0.0
  0
LINE
  5
21C72
  8
0
 10
428.2513525376319
 20
-981.9533697057368
 30
0.0
 11
422.2513525376319
 21
-981.9533697057368
 31
0.0
  0
LINE
  5
21C73
  8
0
 10
422.2513525376319
 20
-981.9533697057368
 30
0.0
 11
422.2513525376319
 21
-982.2533698057368
 31
0.0
  0
LINE
  5
21C74
  8
0
 10
422.2513525376319
 20
-982.2533698057368
 30
0.0
 11
423.2513525376319
 21
-983.2533698798109
 31
0.0
  0
LINE
  5
21C75
  8
0
  6
BYBLOCK
 10
232.6593370300849
 20
-905.3817355332102
 30
0.0
 11
233.1952354100849
 21
-903.3817355332102
 31
0.0
  0
LINE
  5
21C76
  8
0
  6
BYBLOCK
 10
233.1952354100849
 20
-903.3817355332102
 30
0.0
 11
233.7311337900849
 21
-905.3817355332102
 31
0.0
  0
LINE
  5
21C77
  8
0
  6
BYBLOCK
 10
233.1952354100849
 20
-903.3817355332102
 30
0.0
 11
233.1952354100849
 21
-905.3817355332102
 31
0.0
  0
LINE
  5
21C78
  8
0
  6
BYBLOCK
 10
233.7311337900849
 20
-926.3817355332557
 30
0.0
 11
233.1952354100849
 21
-928.3817355332557
 31
0.0
  0
LINE
  5
21C79
  8
0
  6
BYBLOCK
 10
233.1952354100849
 20
-928.3817355332557
 30
0.0
 11
232.6593370300849
 21
-926.3817355332557
 31
0.0
  0
LINE
  5
21C7A
  8
0
  6
BYBLOCK
 10
233.1952354100849
 20
-928.3817355332557
 30
0.0
 11
233.1952354100849
 21
-926.3817355332557
 31
0.0
  0
TEXT
  5
21C7B
  8
1DIM
  6
CONTINUOUS
 10
232.4928048545295
 20
-942.3930358311445
 30
0.0
 40
3.5
  1
φ25
 50
90.0
1001
ACAD
1000
DSTYLE
1002
{
1070
     3
1000
φ<>
1002
}
  0
LINE
  5
21C7C
  8
0
  6
BYBLOCK
 10
436.7513525376355
 20
-972.916601720941
 30
0.0
 11
438.7513525376355
 21
-973.452500100941
 31
0.0
  0
LINE
  5
21C7D
  8
0
  6
BYBLOCK
 10
438.7513525376355
 20
-973.452500100941
 30
0.0
 11
436.7513525376355
 21
-973.9883984809411
 31
0.0
  0
LINE
  5
21C7E
  8
0
  6
BYBLOCK
 10
438.7513525376355
 20
-973.452500100941
 30
0.0
 11
436.7513525376355
 21
-973.452500100941
 31
0.0
  0
LINE
  5
21C7F
  8
0
  6
BYBLOCK
 10
427.2513525376319
 20
-973.9883984809411
 30
0.0
 11
425.2513525376319
 21
-973.452500100941
 31
0.0
  0
LINE
  5
21C80
  8
0
  6
BYBLOCK
 10
425.2513525376319
 20
-973.452500100941
 30
0.0
 11
427.2513525376319
 21
-972.916601720941
 31
0.0
  0
LINE
  5
21C81
  8
0
  6
BYBLOCK
 10
425.2513525376319
 20
-973.452500100941
 30
0.0
 11
427.2513525376319
 21
-973.452500100941
 31
0.0
  0
TEXT
  5
21C82
  8
1DIM
  6
CONTINUOUS
 10
427.334685870967
 20
-972.7500695453856
 30
0.0
 40
3.5
  1
13.5
  0
VIEWPORT
  5
57
 67
     1
  8
0
 10
0.0
 20
0.0
 30
0.0
 40
554.37576499388
 41
297.0
 68
     1
 69
     1
1001
ACAD
1000
MVIEW
1002
{
1070
    16
1010
0.0
1020
0.0
1030
0.0
1010
0.0
1020
0.0
1030
1.0
1040
0.0
1040
297.0
1040
-4.171999999925333
1040
12.83903210976956
1040
50.0
1040
0.0
1040
0.0
1070
    16
1070
   100
1070
     0
1070
     1
1070
     0
1070
     0
1070
     0
1070
     0
1040
0.0
1040
0.0
1040
0.0
1040
10.0
1040
10.0
1040
10.0
1040
10.0
1070
     0
1002
{
1002
}
1002
}
  0
ENDSEC
  0
EOF
