  0
SECTION
  2
HEADER
  9
$ACADVER
  1
AC1012
  9
$DWGCODEPAGE
  3
ansi_932
  9
$INSBASE
 10
0.0
 20
0.0
 30
0.0
  9
$EXTMIN
 10
-142.4281430523915
 20
-109.0895612577457
 30
0.0
  9
$EXTMAX
 10
115.7720707614458
 20
91.74611205635894
 30
0.0
  9
$LIMMIN
 10
0.0
 20
0.0
  9
$LIMMAX
 10
420.0
 20
297.0
  9
$ORTHOMODE
 70
     0
  9
$REGENMODE
 70
     1
  9
$FILLMODE
 70
     1
  9
$QTEXTMODE
 70
     0
  9
$MIRRTEXT
 70
     0
  9
$DRAGMODE
 70
     2
  9
$LTSCALE
 40
0.5
  9
$OSMODE
 70
  2351
  9
$ATTMODE
 70
     1
  9
$TEXTSIZE
 40
4.0
  9
$TRACEWID
 40
1.0
  9
$TEXTSTYLE
  7
STANDARD
  9
$CLAYER
  8
1TEXT
  9
$CELTYPE
  6
BYLAYER
  9
$CECOLOR
 62
   256
  9
$CELTSCALE
 40
1.0
  9
$DELOBJ
 70
     1
  9
$DISPSILH
 70
     0
  9
$DIMSCALE
 40
1.0
  9
$DIMASZ
 40
2.0
  9
$DIMEXO
 40
0.0
  9
$DIMDLI
 40
7.0
  9
$DIMRND
 40
0.0
  9
$DIMDLE
 40
0.0
  9
$DIMEXE
 40
1.0
  9
$DIMTP
 40
0.0
  9
$DIMTM
 40
0.0
  9
$DIMTXT
 40
3.5
  9
$DIMCEN
 40
0.0
  9
$DIMTSZ
 40
0.0
  9
$DIMTOL
 70
     0
  9
$DIMLIM
 70
     0
  9
$DIMTIH
 70
     0
  9
$DIMTOH
 70
     0
  9
$DIMSE1
 70
     0
  9
$DIMSE2
 70
     0
  9
$DIMTAD
 70
     1
  9
$DIMZIN
 70
     8
  9
$DIMBLK
  1

  9
$DIMASO
 70
     1
  9
$DIMSHO
 70
     1
  9
$DIMPOST
  1
 
  9
$DIMAPOST
  1

  9
$DIMALT
 70
     0
  9
$DIMALTD
 70
     2
  9
$DIMALTF
 40
25.4
  9
$DIMLFAC
 40
1.0
  9
$DIMTOFL
 70
     1
  9
$DIMTVP
 40
0.0
  9
$DIMTIX
 70
     0
  9
$DIMSOXD
 70
     0
  9
$DIMSAH
 70
     1
  9
$DIMBLK1
  1
OPEN30
  9
$DIMBLK2
  1
OPEN30
  9
$DIMSTYLE
  2
NEWX10
  9
$DIMCLRD
 70
   256
  9
$DIMCLRE
 70
   256
  9
$DIMCLRT
 70
   201
  9
$DIMTFAC
 40
0.7
  9
$DIMGAP
 40
0.7
  9
$DIMJUST
 70
     0
  9
$DIMSD1
 70
     0
  9
$DIMSD2
 70
     0
  9
$DIMTOLJ
 70
     1
  9
$DIMTZIN
 70
     8
  9
$DIMALTZ
 70
     0
  9
$DIMALTTZ
 70
     0
  9
$DIMFIT
 70
     3
  9
$DIMUPT
 70
     0
  9
$DIMUNIT
 70
     2
  9
$DIMDEC
 70
     2
  9
$DIMTDEC
 70
     4
  9
$DIMALTU
 70
     2
  9
$DIMALTTD
 70
     2
  9
$DIMTXSTY
  7
STANDARD
  9
$DIMAUNIT
 70
     0
  9
$LUNITS
 70
     2
  9
$LUPREC
 70
     4
  9
$SKETCHINC
 40
1.0
  9
$FILLETRAD
 40
0.0
  9
$AUNITS
 70
     0
  9
$AUPREC
 70
     2
  9
$MENU
  1
acad
  9
$ELEVATION
 40
0.0
  9
$PELEVATION
 40
0.0
  9
$THICKNESS
 40
0.0
  9
$LIMCHECK
 70
     0
  9
$CHAMFERA
 40
2.0
  9
$CHAMFERB
 40
2.0
  9
$CHAMFERC
 40
20.0
  9
$CHAMFERD
 40
0.0
  9
$SKPOLY
 70
     0
  9
$TDCREATE
 40
2451027.627421285
  9
$TDUPDATE
 40
2458080.771299086
  9
$TDINDWG
 40
12.0036987963
  9
$TDUSRTIMER
 40
12.0036984144
  9
$USRTIMER
 70
     1
  9
$ANGBASE
 50
0.0
  9
$ANGDIR
 70
     0
  9
$PDMODE
 70
     0
  9
$PDSIZE
 40
0.0
  9
$PLINEWID
 40
0.0
  9
$COORDS
 70
     3
  9
$SPLFRAME
 70
     0
  9
$SPLINETYPE
 70
     6
  9
$SPLINESEGS
 70
     8
  9
$ATTDIA
 70
     0
  9
$ATTREQ
 70
     1
  9
$HANDLING
 70
     1
  9
$HANDSEED
  5
A3D0F
  9
$SURFTAB1
 70
     6
  9
$SURFTAB2
 70
     6
  9
$SURFTYPE
 70
     6
  9
$SURFU
 70
     6
  9
$SURFV
 70
     6
  9
$UCSNAME
  2

  9
$UCSORG
 10
0.0
 20
0.0
 30
0.0
  9
$UCSXDIR
 10
1.0
 20
0.0
 30
0.0
  9
$UCSYDIR
 10
0.0
 20
1.0
 30
0.0
  9
$PUCSNAME
  2

  9
$PUCSORG
 10
0.0
 20
0.0
 30
0.0
  9
$PUCSXDIR
 10
1.0
 20
0.0
 30
0.0
  9
$PUCSYDIR
 10
0.0
 20
1.0
 30
0.0
  9
$USERI1
 70
     0
  9
$USERI2
 70
     0
  9
$USERI3
 70
     0
  9
$USERI4
 70
     0
  9
$USERI5
 70
     0
  9
$USERR1
 40
0.0
  9
$USERR2
 40
0.0
  9
$USERR3
 40
0.0
  9
$USERR4
 40
0.0
  9
$USERR5
 40
4.5
  9
$WORLDVIEW
 70
     1
  9
$SHADEDGE
 70
     1
  9
$SHADEDIF
 70
    70
  9
$TILEMODE
 70
     1
  9
$MAXACTVP
 70
    48
  9
$PINSBASE
 10
0.0
 20
0.0
 30
0.0
  9
$PLIMCHECK
 70
     0
  9
$PEXTMIN
 10
1.000000000000000E+20
 20
1.000000000000000E+20
 30
1.000000000000000E+20
  9
$PEXTMAX
 10
-1.000000000000000E+20
 20
-1.000000000000000E+20
 30
-1.000000000000000E+20
  9
$PLIMMIN
 10
-20.0
 20
-7.5
  9
$PLIMMAX
 10
277.0
 20
202.5
  9
$UNITMODE
 70
     0
  9
$VISRETAIN
 70
     1
  9
$PLINEGEN
 70
     0
  9
$PSLTSCALE
 70
     1
  9
$TREEDEPTH
 70
  3020
  9
$PICKSTYLE
 70
     1
  9
$CMLSTYLE
  2
STANDARD
  9
$CMLJUST
 70
     0
  9
$CMLSCALE
 40
20.0
  9
$SAVEIMAGES
 70
     1
  0
ENDSEC
  0
SECTION
  2
CLASSES
  0
CLASS
  1
IDBUFFER
  2
AcDbIdBuffer
  3
ObjectDBX Classes
 90
    32768
280
     0
281
     0
  0
CLASS
  1
DICTIONARYVAR
  2
AcDbDictionaryVar
  3
ObjectDBX Classes
 90
        0
280
     0
281
     0
  0
CLASS
  1
ACDBDICTIONARYWDFLT
  2
AcDbDictionaryWithDefault
  3
ObjectDBX Classes
 90
    32768
280
     0
281
     0
  0
CLASS
  1
TABLESTYLE
  2
AcDbTableStyle
  3
ObjectDBX Classes
 90
     4095
280
     0
281
     0
  0
CLASS
  1
ACDBPLACEHOLDER
  2
AcDbPlaceHolder
  3
ObjectDBX Classes
 90
        0
280
     0
281
     0
  0
CLASS
  1
LAYOUT
  2
AcDbLayout
  3
ObjectDBX Classes
 90
        0
280
     0
281
     0
  0
CLASS
  1
SORTENTSTABLE
  2
AcDbSortentsTable
  3
ObjectDBX Classes
 90
    32768
280
     0
281
     0
  0
CLASS
  1
DIMASSOC
  2
AcDbDimAssoc
  3
"AcDbDimAssoc|Product Desc:     AcDim ARX App For Dimension|Company:          Autodesk, Inc.|WEB Address:      www.autodesk.com"
 90
        0
280
     0
281
     0
  0
CLASS
  1
MATERIAL
  2
AcDbMaterial
  3
ObjectDBX Classes
 90
     1153
280
     0
281
     0
  0
CLASS
  1
VISUALSTYLE
  2
AcDbVisualStyle
  3
ObjectDBX Classes
 90
     4095
280
     0
281
     0
  0
CLASS
  1
SCALE
  2
AcDbScale
  3
ObjectDBX Classes
 90
     1153
280
     0
281
     0
  0
CLASS
  1
MLEADERSTYLE
  2
AcDbMLeaderStyle
  3
ACDB_MLEADERSTYLE_CLASS
 90
     4095
280
     0
281
     0
  0
CLASS
  1
CELLSTYLEMAP
  2
AcDbCellStyleMap
  3
ObjectDBX Classes
 90
     1152
280
     0
281
     0
  0
CLASS
  1
ACAD_EVALUATION_GRAPH
  2
AcDbEvalGraph
  3
ObjectDBX Classes
 90
     1153
280
     0
281
     0
  0
CLASS
  1
BLOCKLINEARPARAMETER
  2
AcDbBlockLinearParameter
  3
ObjectDBX Classes
 90
     1153
280
     0
281
     0
  0
CLASS
  1
BLOCKLINEARGRIP
  2
AcDbBlockLinearGrip
  3
ObjectDBX Classes
 90
     1153
280
     0
281
     0
  0
CLASS
  1
BLOCKGRIPLOCATIONCOMPONENT
  2
AcDbBlockGripExpr
  3
ObjectDBX Classes
 90
     1153
280
     0
281
     0
  0
CLASS
  1
BLOCKSTRETCHACTION
  2
AcDbBlockStretchAction
  3
ObjectDBX Classes
 90
     1153
280
     0
281
     0
  0
CLASS
  1
ACDB_DYNAMICBLOCKPURGEPREVENTER_VERSION
  2
AcDbDynamicBlockPurgePreventer
  3
ObjectDBX Classes
 90
     1153
280
     0
281
     0
  0
CLASS
  1
ACDB_BLOCKREPRESENTATION_DATA
  2
AcDbBlockRepresentationData
  3
ObjectDBX Classes
 90
     1153
280
     0
281
     0
  0
CLASS
  1
ACAECUSTOBJ
  2
AcAeEditorObj
  3
AcAeEditorObj
 90
   -31744
280
     1
281
     0
  0
CLASS
  1
LINEARPARAMETERENTITY
  2
AcDbBlockLinearParameterEntity
  3
ObjectDBX Classes
 90
   -31743
280
     1
281
     1
  0
CLASS
  1
ACAEEEMGROBJ
  2
AcAeEEMgrObj
  3
AcAeEEMgrObj
 90
   -31744
280
     1
281
     0
  0
CLASS
  1
LINEARGRIPENTITY
  2
AcDbBlockLinearGripEntity
  3
ObjectDBX Classes
 90
   -31743
280
     1
281
     1
  0
CLASS
  1
STRETCHACTIONENTITY
  2
AcDbBlockStretchActionEntity
  3
ObjectDBX Classes
 90
   -31743
280
     1
281
     1
  0
CLASS
  1
AEC_REFEDIT_STATUS_TRACKER
  2
AecDbRefEditStatusTracker
  3
AecArchBase60|Product Desc: Autodesk Architectural Desktop 2007 |Company: Autodesk,Inc. |WEB Address: www.autodesk.com
 90
   -32639
280
     1
281
     0
  0
CLASS
  1
NPOCOLLECTION
  2
AcDbImpNonPersistentObjectsCollection
  3
ObjectDBX Classes
 90
   -31615
280
     1
281
     0
  0
CLASS
  1
SOLID_BACKGROUND
  2
AcDbSolidBackground
  3
SCENEOE
 90
     4095
280
     0
281
     0
  0
CLASS
  1
IMAGE
  2
AcDbRasterImage
  3
ISM
 90
    32895
280
     0
281
     1
  0
CLASS
  1
IMAGEDEF_REACTOR
  2
AcDbRasterImageDefReactor
  3
ISM
 90
    32769
280
     0
281
     0
  0
CLASS
  1
IMAGEDEF
  2
AcDbRasterImageDef
  3
ISM
 90
    32768
280
     0
281
     0
  0
CLASS
  1
RASTERVARIABLES
  2
AcDbRasterVariables
  3
ISM
 90
    32768
280
     0
281
     0
  0
CLASS
  1
SUN
  2
AcDbSun
  3
SCENEOE
 90
     1153
280
     0
281
     0
  0
CLASS
  1
FIELD
  2
AcDbField
  3
ObjectDBX Classes
 90
     1152
280
     0
281
     0
  0
CLASS
  1
FIELDLIST
  2
AcDbFieldList
  3
ObjectDBX Classes
 90
     1152
280
     0
281
     0
  0
CLASS
  1

  2
CaLongTransaction
  3

 90
        0
280
     0
281
     0
  0
CLASS
  1
ACDB_BLKREFOBJECTCONTEXTDATA_CLASS
  2
AcDbBlkRefObjectContextData
  3
ObjectDBX Classes
 90
     1153
280
     0
281
     0
  0
CLASS
  1
MULTILEADER
  2
AcDbMLeader
  3
ACDB_MLEADER_CLASS
 90
     1025
280
     0
281
     1
  0
CLASS
  1
ACDB_MLEADEROBJECTCONTEXTDATA_CLASS
  2
AcDbMLeaderObjectContextData
  3
ObjectDBX Classes
 90
     1153
280
     0
281
     0
  0
CLASS
  1
ACDB_ALDIMOBJECTCONTEXTDATA_CLASS
  2
AcDbAlignedDimensionObjectContextData
  3
ObjectDBX Classes
 90
     1153
280
     0
281
     0
  0
CLASS
  1
MENTALRAYRENDERSETTINGS
  2
AcDbMentalRayRenderSettings
  3
SCENEOE
 90
     1024
280
     0
281
     0
  0
CLASS
  1
BLOCKVISIBILITYPARAMETER
  2
AcDbBlockVisibilityParameter
  3
ObjectDBX Classes
 90
     1153
280
     0
281
     0
  0
CLASS
  1
BLOCKVISIBILITYGRIP
  2
AcDbBlockVisibilityGrip
  3
ObjectDBX Classes
 90
     1153
280
     0
281
     0
  0
CLASS
  1
XRECORD
  2
AcDbXrecord
  3
ObjectDBX Classes
 90
    32768
280
     0
281
     0
  0
CLASS
  1
LWPOLYLINE
  2
AcDbPolyline
  3
ObjectDBX Classes
 90
    32768
280
     0
281
     1
  0
CLASS
  1
HATCH
  2
AcDbHatch
  3
ObjectDBX Classes
 90
    32768
280
     0
281
     1
  0
ENDSEC
  0
SECTION
  2
TABLES
  0
TABLE
  2
VPORT
  5
8
330
0
100
AcDbSymbolTable
 70
     1
  0
VPORT
  5
585BF
330
8
100
AcDbSymbolTableRecord
100
AcDbViewportTableRecord
  2
*ACTIVE
 70
     0
 10
0.0
 20
0.0
 11
1.0
 21
1.0
 12
-11074.98858114547
 22
-7495.255373600694
 13
0.0
 23
0.0
 14
10.0
 24
10.0
 15
10.0
 25
10.0
 16
0.0
 26
0.0
 36
1.0
 17
11061.660545
 27
7486.583649
 37
474.311593
 40
215.6340913477755
 41
2.122931442080378
 42
50.0
 43
0.0
 44
0.0
 50
0.0
 51
0.0
 71
    16
 72
  1000
 73
     1
 74
     1
 75
     0
 76
     0
 77
     0
 78
     0
1001
ACAD_NAV_VCDISPLAY
1070
     3
  0
ENDTAB
  0
TABLE
  2
LTYPE
  5
5
330
0
100
AcDbSymbolTable
 70
     3
  0
LTYPE
  5
12
330
5
100
AcDbSymbolTableRecord
100
AcDbLinetypeTableRecord
  2
BYBLOCK
 70
     0
  3

 72
    65
 73
     0
 40
0.0
  0
LTYPE
  5
13
330
5
100
AcDbSymbolTableRecord
100
AcDbLinetypeTableRecord
  2
BYLAYER
 70
     0
  3

 72
    65
 73
     0
 40
0.0
  0
LTYPE
  5
14
330
5
100
AcDbSymbolTableRecord
100
AcDbLinetypeTableRecord
  2
CONTINUOUS
 70
     0
  3
Solid line
 72
    65
 73
     0
 40
0.0
  0
LTYPE
  5
7E6BF
330
5
100
AcDbSymbolTableRecord
100
AcDbLinetypeTableRecord
  2
PHANTOM2
 70
     0
  3
Phantom (0.5x) ___ _ _ ___ _ _ ___ _ _ ___ _ _
 72
    65
 73
     6
 40
31.75
 49
15.875
 74
     0
 49
-3.175
 74
     0
 49
3.175
 74
     0
 49
-3.175
 74
     0
 49
3.175
 74
     0
 49
-3.175
 74
     0
  0
LTYPE
  5
A3940
330
5
100
AcDbSymbolTableRecord
100
AcDbLinetypeTableRecord
  2
CENTER2
 70
     0
  3
Center (.5x) ___ _ ___ _ ___ _ ___ _ ___ _ ___
 72
    65
 73
     4
 40
28.575
 49
19.05
 74
     0
 49
-3.175
 74
     0
 49
3.175
 74
     0
 49
-3.175
 74
     0
  0
ENDTAB
  0
TABLE
  2
LAYER
  5
2
102
{ACAD_XDICTIONARY
360
14879
102
}
330
0
100
AcDbSymbolTable
 70
     6
  0
LAYER
  5
E
102
{ACAD_XDICTIONARY
360
16FBC
102
}
330
2
100
AcDbSymbolTableRecord
100
AcDbLayerTableRecord
  2
0
 70
     0
 62
     7
  6
CONTINUOUS
  0
LAYER
  5
7CF1A
330
2
100
AcDbSymbolTableRecord
100
AcDbLayerTableRecord
  2
1CENTER
 70
     0
 62
     7
  6
CENTER2
  0
LAYER
  5
7CF1D
330
2
100
AcDbSymbolTableRecord
100
AcDbLayerTableRecord
  2
1DIM
 70
     0
 62
     7
  6
CONTINUOUS
  0
LAYER
  5
7CF54
330
2
100
AcDbSymbolTableRecord
100
AcDbLayerTableRecord
  2
1TEXT
 70
     0
 62
     7
  6
CONTINUOUS
  0
LAYER
  5
7E6CA
330
2
100
AcDbSymbolTableRecord
100
AcDbLayerTableRecord
  2
1PHANTOM
 70
     0
 62
     7
  6
PHANTOM2
  0
LAYER
  5
A39ED
330
2
100
AcDbSymbolTableRecord
100
AcDbLayerTableRecord
  2
01
 70
     0
 62
     1
  6
CONTINUOUS
  0
ENDTAB
  0
TABLE
  2
STYLE
  5
3
330
0
100
AcDbSymbolTable
 70
     1
  0
STYLE
  5
F
330
3
100
AcDbSymbolTableRecord
100
AcDbTextStyleTableRecord
  2
STANDARD
 70
     0
 40
0.0
 41
1.0
 50
0.0
 71
     0
 42
4.0
  3
txt.shx
  4
extfont.shx
  0
ENDTAB
  0
TABLE
  2
VIEW
  5
6
330
0
100
AcDbSymbolTable
 70
     0
  0
ENDTAB
  0
TABLE
  2
UCS
  5
7
330
0
100
AcDbSymbolTable
 70
     5
  0
UCS
  5
150E1
330
7
100
AcDbSymbolTableRecord
100
AcDbUCSTableRecord
  2
U
 70
     0
 10
0.0
 20
0.0
 30
0.0
 11
1.0
 21
0.0
 31
0.0
 12
0.0
 22
2.220446049250313E-16
 32
1.0
 79
     0
146
0.0
  0
UCS
  5
150E2
330
7
100
AcDbSymbolTableRecord
100
AcDbUCSTableRecord
  2
L
 70
     0
 10
0.0
 20
0.0
 30
0.0
 11
-2.220446049250313E-16
 21
-1.0
 31
2.220446049250313E-16
 12
0.0
 22
2.220446049250313E-16
 32
1.0
 79
     0
146
0.0
  0
UCS
  5
150E3
330
7
100
AcDbSymbolTableRecord
100
AcDbUCSTableRecord
  2
R
 70
     0
 10
0.0
 20
0.0
 30
0.0
 11
3.445092848397667E-16
 21
1.0
 31
-2.220446049250313E-16
 12
0.0
 22
2.220446049250313E-16
 32
1.0
 79
     0
146
0.0
  0
UCS
  5
150E4
330
7
100
AcDbSymbolTableRecord
100
AcDbUCSTableRecord
  2
ISOME
 70
     0
 10
0.0
 20
0.0
 30
0.0
 11
0.7071450863198265
 21
-0.7070684729403536
 31
-3.830824619466267E-5
 12
0.4082704059428734
 22
0.4082704077401151
 32
0.8164744636514736
 79
     0
146
0.0
  0
UCS
  5
150E5
330
7
100
AcDbSymbolTableRecord
100
AcDbUCSTableRecord
  2
PERSPECTIVE
 70
     0
 10
0.0
 20
0.0
 30
0.0
 11
0.8191477691768964
 21
-0.5735823260466403
 31
-0.0004974931557765462
 12
0.1584844715982971
 22
0.225502028986108
 32
0.961265575782966
 79
     0
146
0.0
  0
ENDTAB
  0
TABLE
  2
APPID
  5
9
330
0
100
AcDbSymbolTable
 70
    32
  0
APPID
  5
10
330
9
100
AcDbSymbolTableRecord
100
AcDbRegAppTableRecord
  2
ACAD
 70
     0
  0
APPID
  5
39
330
9
100
AcDbSymbolTableRecord
100
AcDbRegAppTableRecord
  2
CONTENTTABDATA
 70
     0
  0
APPID
  5
3A
330
9
100
AcDbSymbolTableRecord
100
AcDbRegAppTableRecord
  2
CONTENTCURRENTTAB
 70
     0
  0
APPID
  5
3B
330
9
100
AcDbSymbolTableRecord
100
AcDbRegAppTableRecord
  2
CONTENTBLOCKICON
 70
     0
  0
APPID
  5
3C
330
9
100
AcDbSymbolTableRecord
100
AcDbRegAppTableRecord
  2
CONTENTBLOCKDESCRIPTION
 70
     0
  0
APPID
  5
5FA
330
9
100
AcDbSymbolTableRecord
100
AcDbRegAppTableRecord
  2
DRAWINGVARIABLESXDATA
 70
     0
  0
APPID
  5
6DE
330
9
100
AcDbSymbolTableRecord
100
AcDbRegAppTableRecord
  2
CONTENTLONGBLOCKNAME
 70
     0
  0
APPID
  5
1419A
330
9
100
AcDbSymbolTableRecord
100
AcDbRegAppTableRecord
  2
ACAD_PSEXT
 70
     0
  0
APPID
  5
16FA5
330
9
100
AcDbSymbolTableRecord
100
AcDbRegAppTableRecord
  2
ACAD_MLEADERVER
 70
     0
  0
APPID
  5
1786D
330
9
100
AcDbSymbolTableRecord
100
AcDbRegAppTableRecord
  2
ACAD_DSTYLE_DIMRADIAL_EXTE
 70
     0
  0
APPID
  5
194E7
330
9
100
AcDbSymbolTableRecord
100
AcDbRegAppTableRecord
  2
ACDBBLOCKREPETAG
 70
     0
  0
APPID
  5
194EE
330
9
100
AcDbSymbolTableRecord
100
AcDbRegAppTableRecord
  2
ACDBDYNAMICBLOCKTRUENAME
 70
     0
  0
APPID
  5
194EF
330
9
100
AcDbSymbolTableRecord
100
AcDbRegAppTableRecord
  2
ACDBDYNAMICBLOCKGUID
 70
     0
  0
APPID
  5
1955B
330
9
100
AcDbSymbolTableRecord
100
AcDbRegAppTableRecord
  2
ACDBBLOCKREPBTAG
 70
     0
  0
APPID
  5
1A99A
330
9
100
AcDbSymbolTableRecord
100
AcDbRegAppTableRecord
  2
ACADANNOTATIVE
 70
     0
  0
APPID
  5
1C397
330
9
100
AcDbSymbolTableRecord
100
AcDbRegAppTableRecord
  2
ACAUTHENVIRON
 70
     0
  0
APPID
  5
1C3F8
330
9
100
AcDbSymbolTableRecord
100
AcDbRegAppTableRecord
  2
ACADANNOPO
 70
     0
  0
APPID
  5
1E7E9
330
9
100
AcDbSymbolTableRecord
100
AcDbRegAppTableRecord
  2
ACLAYERTOOLS
 70
     0
  0
APPID
  5
25D98
330
9
100
AcDbSymbolTableRecord
100
AcDbRegAppTableRecord
  2
ACAD_EXEMPT_FROM_CAD_STAND
 70
     0
  0
APPID
  5
2992E
330
9
100
AcDbSymbolTableRecord
100
AcDbRegAppTableRecord
  2
ACAECLAYERSTANDARD
 70
     0
  0
APPID
  5
2992F
330
9
100
AcDbSymbolTableRecord
100
AcDbRegAppTableRecord
  2
ACAD_DSTYLE_DIMJOGGED_JOGA
 70
     0
  0
APPID
  5
2CC96
330
9
100
AcDbSymbolTableRecord
100
AcDbRegAppTableRecord
  2
ACAD_DSTYLE_DIM_LINETYPE
 70
     0
  0
APPID
  5
2CC97
330
9
100
AcDbSymbolTableRecord
100
AcDbRegAppTableRecord
  2
ACAD_DSTYLE_DIM_EXT1_LINET
 70
     0
  0
APPID
  5
2CC98
330
9
100
AcDbSymbolTableRecord
100
AcDbRegAppTableRecord
  2
ACAD_DSTYLE_DIM_EXT2_LINET
 70
     0
  0
APPID
  5
476E2
330
9
100
AcDbSymbolTableRecord
100
AcDbRegAppTableRecord
  2
ACAD_DIMASSOC_CALC_DIMLFAC
 70
     0
  0
APPID
  5
476E3
330
9
100
AcDbSymbolTableRecord
100
AcDbRegAppTableRecord
  2
ACAD_DIMASSOC_DIMLFAC
 70
     0
  0
APPID
  5
476E4
330
9
100
AcDbSymbolTableRecord
100
AcDbRegAppTableRecord
  2
ACAD_DIMASSOC_OVERRIDDEN_D
 70
     0
  0
APPID
  5
62D16
330
9
100
AcDbSymbolTableRecord
100
AcDbRegAppTableRecord
  2
ACAD_NAV_VCDISPLAY
 70
     0
  0
APPID
  5
6D82E
330
9
100
AcDbSymbolTableRecord
100
AcDbRegAppTableRecord
  2
ACAD_OBJECT_CHANGE_GUID
 70
     0
  0
APPID
  5
7E452
330
9
100
AcDbSymbolTableRecord
100
AcDbRegAppTableRecord
  2
ACADANNOTATIVEDECOMPOSITIO
 70
     0
  0
APPID
  5
7F000
330
9
100
AcDbSymbolTableRecord
100
AcDbRegAppTableRecord
  2
ACAD_DSTYLE_DIMJAG
 70
     0
  0
APPID
  5
7F001
330
9
100
AcDbSymbolTableRecord
100
AcDbRegAppTableRecord
  2
ACAD_DSTYLE_DIMTALN
 70
     0
  0
ENDTAB
  0
TABLE
  2
DIMSTYLE
  5
A
330
0
100
AcDbSymbolTable
 70
     1
  0
DIMSTYLE
105
49
102
{ACAD_REACTORS
102
}
330
A
100
AcDbSymbolTableRecord
100
AcDbDimStyleTableRecord
  2
NEWX10
 70
     0
  3
 
  4

  5

  6
OPEN30
  7
OPEN30
 40
1.0
 41
2.0
 42
0.0
 43
7.0
 44
1.0
 45
0.0
 46
0.0
 47
0.0
 48
0.0
140
3.5
141
0.0
142
0.0
143
25.4
144
1.0
145
0.0
146
0.7
147
0.7
 71
     0
 72
     0
 73
     0
 74
     0
 75
     0
 76
     0
 77
     1
 78
     8
170
     0
171
     2
172
     1
173
     1
174
     0
175
     0
176
   256
177
   256
178
   201
179
     1
270
     2
271
     2
272
     4
273
     2
274
     2
340
F
275
     0
280
     0
281
     0
282
     0
283
     1
284
     8
285
     0
286
     0
287
     3
288
     0
1001
ACADANNOTATIVE
1000
AnnotativeData
1002
{
1070
     1
1070
     0
1002
}
  0
ENDTAB
  0
TABLE
  2
BLOCK_RECORD
  5
1
330
0
100
AcDbSymbolTable
 70
     8
  0
BLOCK_RECORD
  5
18
102
{ACAD_XDICTIONARY
360
143BD
102
}
330
1
100
AcDbSymbolTableRecord
100
AcDbBlockTableRecord
  2
*MODEL_SPACE
  0
BLOCK_RECORD
  5
7DA16
102
{ACAD_XDICTIONARY
360
A337D
102
}
330
1
100
AcDbSymbolTableRecord
100
AcDbBlockTableRecord
  2
*PAPER_SPACE
  0
BLOCK_RECORD
  5
2EF
330
1
100
AcDbSymbolTableRecord
100
AcDbBlockTableRecord
  2
_OPEN30
  0
BLOCK_RECORD
  5
7CFD4
330
1
100
AcDbSymbolTableRecord
100
AcDbBlockTableRecord
  2
A3WAKUKAWAJUN2017_HYOUDAI_
  0
BLOCK_RECORD
  5
A3B6E
330
1
100
AcDbSymbolTableRecord
100
AcDbBlockTableRecord
  2
*X18
  0
BLOCK_RECORD
  5
A3BBC
330
1
100
AcDbSymbolTableRecord
100
AcDbBlockTableRecord
  2
*X19
  0
BLOCK_RECORD
  5
A3C0E
330
1
100
AcDbSymbolTableRecord
100
AcDbBlockTableRecord
  2
*X20
  0
BLOCK_RECORD
  5
A3C5F
330
1
100
AcDbSymbolTableRecord
100
AcDbBlockTableRecord
  2
*X21
  0
BLOCK_RECORD
  5
A3C9C
330
1
100
AcDbSymbolTableRecord
100
AcDbBlockTableRecord
  2
*X22
  0
BLOCK_RECORD
  5
A3CDC
330
1
100
AcDbSymbolTableRecord
100
AcDbBlockTableRecord
  2
*X23
  0
ENDTAB
  0
ENDSEC
  0
SECTION
  2
BLOCKS
  0
BLOCK
  5
19
330
18
100
AcDbEntity
  8
0
100
AcDbBlockBegin
  2
*MODEL_SPACE
 70
     0
 10
0.0
 20
0.0
 30
0.0
  3
*MODEL_SPACE
  1

  0
ENDBLK
  5
1A
330
18
100
AcDbEntity
  8
0
100
AcDbBlockEnd
  0
BLOCK
  5
7DA18
330
7DA16
100
AcDbEntity
 67
     1
  8
0
100
AcDbBlockBegin
  2
*PAPER_SPACE
 70
     0
 10
0.0
 20
0.0
 30
0.0
  3
*PAPER_SPACE
  1

  0
ENDBLK
  5
7DA19
330
7DA16
100
AcDbEntity
 67
     1
  8
0
100
AcDbBlockEnd
  0
BLOCK
  5
2F0
330
2EF
100
AcDbEntity
  8
0
100
AcDbBlockBegin
  2
_OPEN30
 70
     0
 10
0.0
 20
0.0
 30
0.0
  3
_OPEN30
  1

  0
LINE
  5
2F1
330
2EF
100
AcDbEntity
  8
0
  6
BYBLOCK
 62
     0
100
AcDbLine
 10
-1.0
 20
0.267949
 30
0.0
 11
0.0
 21
0.0
 31
0.0
  0
LINE
  5
2F2
330
2EF
100
AcDbEntity
  8
0
  6
BYBLOCK
 62
     0
100
AcDbLine
 10
0.0
 20
0.0
 30
0.0
 11
-1.0
 21
-0.267949
 31
0.0
  0
LINE
  5
2F3
330
2EF
100
AcDbEntity
  8
0
  6
BYBLOCK
 62
     0
100
AcDbLine
 10
0.0
 20
0.0
 30
0.0
 11
-1.0
 21
0.0
 31
0.0
  0
ENDBLK
  5
2F4
330
2EF
100
AcDbEntity
  8
0
100
AcDbBlockEnd
  0
BLOCK
  5
9481F
330
7CFD4
100
AcDbEntity
  8
0
100
AcDbBlockBegin
  2
A3WAKUKAWAJUN2017_HYOUDAI_
 70
     0
 10
0.0
 20
0.0
 30
0.0
  3
A3WAKUKAWAJUN2017_HYOUDAI_
  1

  0
LINE
  5
940D1
330
7CFD4
100
AcDbEntity
  8
0
100
AcDbLine
 10
13.26299999998673
 20
-0.0001000000000317
 30
0.0
 11
9.236999999990758
 21
8.999899999990987
 31
0.0
1001
ACAD
1000
ASC_BOUNDS
1002
{
1070
    19
1005
94112
1002
}
  0
LINE
  5
940D2
330
7CFD4
100
AcDbEntity
  8
0
100
AcDbLine
 10
5.657999999994331
 20
0.9999999999989768
 30
0.0
 11
9.236999999990758
 21
8.999999999991019
 31
0.0
1001
ACAD
1000
ASC_BOUNDS
1002
{
1070
    19
1005
94112
1002
}
  0
LINE
  5
940D3
330
7CFD4
100
AcDbEntity
  8
0
100
AcDbLine
 10
18.59199999998134
 20
-0.2368999999997641
 30
0.0
 11
16.46099999998353
 21
5.432899999994561
 31
0.0
1001
ACAD
1000
ASC_BOUNDS
1002
{
1070
    19
1005
94113
1002
}
  0
LINE
  5
940D4
330
7CFD4
100
AcDbEntity
  8
0
100
AcDbLine
 10
18.59199999998134
 20
-0.2368999999997641
 30
0.0
 11
22.38199999997767
 21
8.763099999991255
 31
0.0
1001
ACAD
1000
ASC_BOUNDS
1002
{
1070
    19
1005
94113
1002
}
  0
LINE
  5
940D5
330
7CFD4
100
AcDbEntity
  8
0
100
AcDbLine
 10
14.32899999998563
 20
-0.2368999999997641
 30
0.0
 11
16.46099999998353
 21
5.432899999994561
 31
0.0
1001
ACAD
1000
ASC_BOUNDS
1002
{
1070
    19
1005
94113
1002
}
  0
LINE
  5
940D6
330
7CFD4
100
AcDbEntity
  8
0
100
AcDbLine
 10
14.32899999998563
 20
-0.2368999999997641
 30
0.0
 11
10.53899999998941
 21
8.763099999991255
 31
0.0
1001
ACAD
1000
ASC_BOUNDS
1002
{
1070
    19
1005
94113
1002
}
  0
LINE
  5
940D7
330
7CFD4
100
AcDbEntity
  8
0
100
AcDbLine
 10
19.53899999998043
 20
-0.0001000000000317
 30
0.0
 11
23.56599999997638
 21
8.999899999990987
 31
0.0
1001
ACAD
1000
ASC_BOUNDS
1002
{
1070
    19
1005
94114
1002
}
  0
LINE
  5
940D8
330
7CFD4
100
AcDbEntity
  8
0
100
AcDbLine
 10
26.97358892824991
 20
1.383099999991202
 30
0.0
 11
23.56599999997638
 21
8.999899999990987
 31
0.0
1001
ACAD
1000
ASC_BOUNDS
1002
{
1070
    19
1005
94114
1002
}
  0
LINE
  5
940D9
330
7CFD4
100
AcDbEntity
  8
0
100
AcDbLine
 10
5.657999999994331
 20
0.9999999999989768
 30
0.0
 11
3.181999999996833
 21
4.668599999995308
 31
0.0
1001
ACAD
1000
ASC_BOUNDS
1002
{
1070
    19
1005
94112
1002
}
  0
LINE
  5
940DA
330
7CFD4
100
AcDbEntity
  8
0
100
AcDbLine
 10
4.617999999995391
 20
-0.0001000000000317
 30
0.0
 11
1.420999999998571
 21
4.736799999995242
 31
0.0
1001
ACAD
1000
ASC_BOUNDS
1002
{
1070
    19
1005
94112
1002
}
  0
LINE
  5
940DB
330
7CFD4
100
AcDbEntity
  8
0
100
AcDbLine
 10
1.420999999998571
 20
8.763099999991255
 30
0.0
 11
1.420999999998571
 21
0.0
 31
0.0
1001
ACAD
1000
ASC_BOUNDS
1002
{
1070
    19
1005
94117
1002
}
  0
LINE
  5
940DC
330
7CFD4
100
AcDbEntity
  8
0
100
AcDbLine
 10
0.0
 20
8.763099999991255
 30
0.0
 11
0.0
 21
0.0
 31
0.0
1001
ACAD
1000
ASC_BOUNDS
1002
{
1070
    19
1005
94117
1002
}
  0
LINE
  5
940DD
330
7CFD4
100
AcDbEntity
  8
0
100
AcDbLine
 10
6.766999999993232
 20
-0.0001000000000317
 30
0.0
 11
7.826999999992154
 21
2.368399999997621
 31
0.0
1001
ACAD
1000
ASC_BOUNDS
1002
{
1070
    19
1005
94112
1002
}
  0
LINE
  5
940DE
330
7CFD4
100
AcDbEntity
  8
0
100
AcDbLine
 10
0.0
 20
0.0
 30
0.0
 11
1.420999999998571
 21
0.0
 31
0.0
1001
ACAD
1000
ASC_BOUNDS
1002
{
1070
    19
1005
94117
1002
}
  0
LINE
  5
940DF
330
7CFD4
100
AcDbEntity
  8
0
100
AcDbLine
 10
4.617999999995391
 20
0.0
 30
0.0
 11
6.766999999993232
 21
0.0
 31
0.0
1001
ACAD
1000
ASC_BOUNDS
1002
{
1070
    19
1005
94112
1002
}
  0
LINE
  5
940E0
330
7CFD4
100
AcDbEntity
  8
0
100
AcDbLine
 10
11.70599999998831
 20
-0.0001000000000317
 30
0.0
 11
10.64699999998936
 21
2.368399999997621
 31
0.0
1001
ACAD
1000
ASC_BOUNDS
1002
{
1070
    19
1005
94112
1002
}
  0
LINE
  5
940E1
330
7CFD4
100
AcDbEntity
  8
0
100
AcDbLine
 10
7.826999999992154
 20
2.368399999997621
 30
0.0
 11
10.64699999998936
 21
2.368399999997621
 31
0.0
1001
ACAD
1000
ASC_BOUNDS
1002
{
1070
    19
1005
94112
1002
}
  0
LINE
  5
940E2
330
7CFD4
100
AcDbEntity
  8
0
100
AcDbLine
 10
11.70599999998831
 20
0.0
 30
0.0
 11
13.26299999998673
 21
0.0
 31
0.0
1001
ACAD
1000
ASC_BOUNDS
1002
{
1070
    19
1005
94112
1002
}
  0
LINE
  5
940E3
330
7CFD4
100
AcDbEntity
  8
0
100
AcDbLine
 10
22.15599999997789
 20
2.368399999997621
 30
0.0
 11
24.97599999997499
 21
2.368399999997621
 31
0.0
1001
ACAD
1000
ASC_BOUNDS
1002
{
1070
    19
1005
94114
1002
}
  0
LINE
  5
940E4
330
7CFD4
100
AcDbEntity
  8
0
100
AcDbLine
 10
19.53899999998043
 20
0.0
 30
0.0
 11
21.09599999997886
 21
0.0
 31
0.0
1001
ACAD
1000
ASC_BOUNDS
1002
{
1070
    19
1005
94114
1002
}
  0
LINE
  5
940E5
330
7CFD4
100
AcDbEntity
  8
0
100
AcDbLine
 10
21.09599999997886
 20
-0.0001000000000317
 30
0.0
 11
22.15599999997789
 21
2.368399999997621
 31
0.0
1001
ACAD
1000
ASC_BOUNDS
1002
{
1070
    19
1005
94114
1002
}
  0
LINE
  5
940E6
330
7CFD4
100
AcDbEntity
  8
0
100
AcDbLine
 10
26.02015566812236
 20
0.0330999999912365
 30
0.0
 11
24.97599999997499
 21
2.368399999997621
 31
0.0
1001
ACAD
1000
ASC_BOUNDS
1002
{
1070
    19
1005
94114
1002
}
  0
LINE
  5
940E7
330
7CFD4
100
AcDbEntity
  8
0
100
AcDbLine
 10
14.32399999998563
 20
3.315799999996671
 30
0.0
 11
16.46099999998353
 21
8.999899999990987
 31
0.0
1001
ACAD
1000
ASC_BOUNDS
1002
{
1070
    19
1005
94113
1002
}
  0
LINE
  5
940E8
330
7CFD4
100
AcDbEntity
  8
0
100
AcDbLine
 10
6.432999999993513
 20
8.763099999991255
 30
0.0
 11
3.181999999996833
 21
4.668599999995308
 31
0.0
1001
ACAD
1000
ASC_BOUNDS
1002
{
1070
    19
1005
94112
1002
}
  0
LINE
  5
940E9
330
7CFD4
100
AcDbEntity
  8
0
100
AcDbLine
 10
4.617999999995391
 20
8.763099999991255
 30
0.0
 11
1.420999999998571
 21
4.736799999995242
 31
0.0
1001
ACAD
1000
ASC_BOUNDS
1002
{
1070
    19
1005
94112
1002
}
  0
LINE
  5
940EA
330
7CFD4
100
AcDbEntity
  8
0
100
AcDbLine
 10
0.0
 20
8.763099999991255
 30
0.0
 11
1.420999999998571
 21
8.763099999991255
 31
0.0
1001
ACAD
1000
ASC_BOUNDS
1002
{
1070
    19
1005
94117
1002
}
  0
LINE
  5
940EB
330
7CFD4
100
AcDbEntity
  8
0
100
AcDbLine
 10
4.617999999995391
 20
8.763099999991255
 30
0.0
 11
6.432999999993513
 21
8.763099999991255
 31
0.0
1001
ACAD
1000
ASC_BOUNDS
1002
{
1070
    19
1005
94112
1002
}
  0
LINE
  5
940EC
330
7CFD4
100
AcDbEntity
  8
0
100
AcDbLine
 10
14.32399999998563
 20
3.315799999996671
 30
0.0
 11
12.02999999998792
 21
8.763099999991255
 31
0.0
1001
ACAD
1000
ASC_BOUNDS
1002
{
1070
    19
1005
94113
1002
}
  0
LINE
  5
940ED
330
7CFD4
100
AcDbEntity
  8
0
100
AcDbLine
 10
10.06399999998996
 20
3.670999999996297
 30
0.0
 11
9.236999999990758
 21
5.5200999999945
 31
0.0
1001
ACAD
1000
ASC_BOUNDS
1002
{
1070
    19
1005
94112
1002
}
  0
LINE
  5
940EE
330
7CFD4
100
AcDbEntity
  8
0
100
AcDbLine
 10
8.409999999991555
 20
3.670999999996297
 30
0.0
 11
9.236999999990758
 21
5.5200999999945
 31
0.0
1001
ACAD
1000
ASC_BOUNDS
1002
{
1070
    19
1005
94112
1002
}
  0
LINE
  5
940EF
330
7CFD4
100
AcDbEntity
  8
0
100
AcDbLine
 10
8.409999999991555
 20
3.670999999996297
 30
0.0
 11
10.06399999998996
 21
3.670999999996297
 31
0.0
1001
ACAD
1000
ASC_BOUNDS
1002
{
1070
    19
1005
94112
1002
}
  0
LINE
  5
940F0
330
7CFD4
100
AcDbEntity
  8
0
100
AcDbLine
 10
10.53899999998941
 20
8.763099999991255
 30
0.0
 11
12.02999999998792
 21
8.763099999991255
 31
0.0
1001
ACAD
1000
ASC_BOUNDS
1002
{
1070
    19
1005
94113
1002
}
  0
LINE
  5
940F1
330
7CFD4
100
AcDbEntity
  8
0
100
AcDbLine
 10
22.7389999999773
 20
3.670999999996297
 30
0.0
 11
23.56599999997638
 21
5.5200999999945
 31
0.0
1001
ACAD
1000
ASC_BOUNDS
1002
{
1070
    19
1005
94114
1002
}
  0
LINE
  5
940F2
330
7CFD4
100
AcDbEntity
  8
0
100
AcDbLine
 10
22.7389999999773
 20
3.670999999996297
 30
0.0
 11
24.39299999997559
 21
3.670999999996297
 31
0.0
1001
ACAD
1000
ASC_BOUNDS
1002
{
1070
    19
1005
94114
1002
}
  0
LINE
  5
940F3
330
7CFD4
100
AcDbEntity
  8
0
100
AcDbLine
 10
18.59799999998143
 20
3.315799999996671
 30
0.0
 11
20.89099999997916
 21
8.763099999991255
 31
0.0
1001
ACAD
1000
ASC_BOUNDS
1002
{
1070
    19
1005
94113
1002
}
  0
LINE
  5
940F4
330
7CFD4
100
AcDbEntity
  8
0
100
AcDbLine
 10
18.59799999998143
 20
3.315799999996671
 30
0.0
 11
16.46099999998353
 21
8.999899999990987
 31
0.0
1001
ACAD
1000
ASC_BOUNDS
1002
{
1070
    19
1005
94113
1002
}
  0
LINE
  5
940F5
330
7CFD4
100
AcDbEntity
  8
0
100
AcDbLine
 10
20.89099999997916
 20
8.763099999991255
 30
0.0
 11
22.38199999997767
 21
8.763099999991255
 31
0.0
1001
ACAD
1000
ASC_BOUNDS
1002
{
1070
    19
1005
94113
1002
}
  0
LINE
  5
940F6
330
7CFD4
100
AcDbEntity
  8
0
100
AcDbLine
 10
24.39299999997559
 20
3.670999999996297
 30
0.0
 11
23.56599999997638
 21
5.5200999999945
 31
0.0
1001
ACAD
1000
ASC_BOUNDS
1002
{
1070
    19
1005
94114
1002
}
  0
LINE
  5
940F7
330
7CFD4
100
AcDbEntity
  8
0
100
AcDbLine
 10
44.99999999995498
 20
-0.2368999999997641
 30
0.0
 11
40.02599999995994
 21
5.341799999994635
 31
0.0
1001
ACAD
1000
ASC_BOUNDS
1002
{
1070
    19
1005
94116
1002
}
  0
LINE
  5
940F8
330
7CFD4
100
AcDbEntity
  8
0
100
AcDbLine
 10
40.02599999995994
 20
5.341799999994635
 30
0.0
 11
40.02599999995994
 21
0.0
 31
0.0
1001
ACAD
1000
ASC_BOUNDS
1002
{
1070
    19
1005
94116
1002
}
  0
LINE
  5
940F9
330
7CFD4
100
AcDbEntity
  8
0
100
AcDbLine
 10
38.60499999996136
 20
8.999999999991019
 30
0.0
 11
38.60499999996136
 21
0.0
 31
0.0
1001
ACAD
1000
ASC_BOUNDS
1002
{
1070
    19
1005
94116
1002
}
  0
LINE
  5
940FA
330
7CFD4
100
AcDbEntity
  8
0
100
AcDbLine
 10
44.99999999995498
 20
8.763099999991255
 30
0.0
 11
44.99999999995498
 21
-0.2368999999997641
 31
0.0
1001
ACAD
1000
ASC_BOUNDS
1002
{
1070
    19
1005
94116
1002
}
  0
LINE
  5
940FB
330
7CFD4
100
AcDbEntity
  8
0
100
AcDbLine
 10
38.60499999996136
 20
0.0
 30
0.0
 11
40.02599999995994
 21
0.0
 31
0.0
1001
ACAD
1000
ASC_BOUNDS
1002
{
1070
    19
1005
94116
1002
}
  0
LINE
  5
940FC
330
7CFD4
100
AcDbEntity
  8
0
100
AcDbLine
 10
43.57899999995641
 20
3.421199999996588
 30
0.0
 11
38.60499999996136
 21
8.999899999990987
 31
0.0
1001
ACAD
1000
ASC_BOUNDS
1002
{
1070
    19
1005
94116
1002
}
  0
LINE
  5
940FD
330
7CFD4
100
AcDbEntity
  8
0
100
AcDbLine
 10
43.57899999995641
 20
8.763099999991255
 30
0.0
 11
43.57899999995641
 21
3.421199999996588
 31
0.0
1001
ACAD
1000
ASC_BOUNDS
1002
{
1070
    19
1005
94116
1002
}
  0
LINE
  5
940FE
330
7CFD4
100
AcDbEntity
  8
0
100
AcDbLine
 10
43.57899999995641
 20
8.763099999991255
 30
0.0
 11
44.99999999995498
 21
8.763099999991255
 31
0.0
1001
ACAD
1000
ASC_BOUNDS
1002
{
1070
    19
1005
94116
1002
}
  0
LINE
  5
940FF
330
7CFD4
100
AcDbEntity
  8
0
100
AcDbLine
 10
37.67199999996831
 20
8.763099999991255
 30
0.0
 11
36.23199999996837
 21
8.763099999991255
 31
0.0
  0
LINE
  5
94100
330
7CFD4
100
AcDbEntity
  8
0
100
AcDbLine
 10
31.64199999996833
 20
8.763099999991255
 30
0.0
 11
31.64199999996833
 21
2.481619422925121
 31
0.0
  0
LINE
  5
94101
330
7CFD4
100
AcDbEntity
  8
0
100
AcDbLine
 10
37.67199999996831
 20
8.763099999991255
 30
0.0
 11
37.67199999996831
 21
2.481619422925121
 31
0.0
  0
LINE
  5
94102
330
7CFD4
100
AcDbEntity
  8
0
100
AcDbLine
 10
36.23199999996837
 20
8.763099999991255
 30
0.0
 11
36.23199999996837
 21
2.481619422925064
 31
0.0
  0
LINE
  5
94103
330
7CFD4
100
AcDbEntity
  8
0
100
AcDbLine
 10
33.08199999996839
 20
8.763099999991255
 30
0.0
 11
33.08199999996839
 21
2.481619422925121
 31
0.0
  0
ARC
  5
94104
330
7CFD4
100
AcDbEntity
  8
0
100
AcDbCircle
 10
34.65699999996832
 20
3.183099999991214
 30
0.0
 40
3.420000000000007
100
AcDbArc
 50
240.0000000000255
 51
299.9999999999766
  0
ARC
  5
94105
330
7CFD4
100
AcDbEntity
  8
0
100
AcDbCircle
 10
34.65699999996832
 20
3.183099999991214
 30
0.0
 40
1.97999999999999
100
AcDbArc
 50
240.000000000026
 51
299.9999999999703
  0
LINE
  5
94106
330
7CFD4
100
AcDbEntity
  8
0
100
AcDbLine
 10
33.08199999996828
 20
8.763099999991255
 30
0.0
 11
31.64199999996833
 21
8.763099999991255
 31
0.0
  0
ARC
  5
94107
330
7CFD4
100
AcDbEntity
  8
0
100
AcDbCircle
 10
35.06199999996829
 20
2.481619422925064
 30
0.0
 40
1.17
100
AcDbArc
 50
299.9999999999699
 51
0.0
  0
ARC
  5
94108
330
7CFD4
100
AcDbEntity
  8
0
100
AcDbCircle
 10
34.25199999996835
 20
2.481619422925121
 30
0.0
 40
1.17
100
AcDbArc
 50
180.0
 51
240.0000000000238
  0
ARC
  5
94109
330
7CFD4
100
AcDbEntity
  8
0
100
AcDbCircle
 10
35.06199999996841
 20
2.481619422925121
 30
0.0
 40
2.61
100
AcDbArc
 50
299.9999999999756
 51
0.0
  0
ARC
  5
9410A
330
7CFD4
100
AcDbEntity
  8
0
100
AcDbCircle
 10
34.25199999996835
 20
2.481619422925121
 30
0.0
 40
2.61
100
AcDbArc
 50
180.0
 51
240.0000000000244
  0
LINE
  5
9410B
330
7CFD4
100
AcDbEntity
  8
0
100
AcDbLine
 10
29.30199999996933
 20
8.763099999991255
 30
0.0
 11
30.74199999996927
 21
8.763099999991255
 31
0.0
1001
ACAD
1000
ASC_BOUNDS
1002
{
1070
    19
1005
94114
1002
}
  0
LINE
  5
9410C
330
7CFD4
100
AcDbEntity
  8
0
100
AcDbLine
 10
30.74199999996927
 20
8.763099999991255
 30
0.0
 11
30.74199999996927
 21
2.373099999991211
 31
0.0
1001
ACAD
1000
ASC_BOUNDS
1002
{
1070
    19
1005
94114
1002
}
  0
LINE
  5
9410D
330
7CFD4
100
AcDbEntity
  8
0
100
AcDbLine
 10
26.02015566812236
 20
0.0330999999912365
 30
0.0
 11
28.40199999996923
 21
0.0330999999912365
 31
0.0
1001
ACAD
1000
ASC_BOUNDS
1002
{
1070
    19
1005
94114
1002
}
  0
LINE
  5
9410E
330
7CFD4
100
AcDbEntity
  8
0
100
AcDbLine
 10
29.30199999996933
 20
8.763099999991255
 30
0.0
 11
29.30199999996933
 21
2.283099999991236
 31
0.0
1001
ACAD
1000
ASC_BOUNDS
1002
{
1070
    19
1005
94114
1002
}
  0
LINE
  5
9410F
330
7CFD4
100
AcDbEntity
  8
0
100
AcDbLine
 10
26.97358892824991
 20
1.383099999991202
 30
0.0
 11
28.40199999996923
 21
1.383099999991202
 31
0.0
1001
ACAD
1000
ASC_BOUNDS
1002
{
1070
    19
1005
94114
1002
}
  0
ARC
  5
94110
330
7CFD4
100
AcDbEntity
  8
0
100
AcDbCircle
 10
28.40199999996923
 20
2.283099999991236
 30
0.0
 40
0.9
100
AcDbArc
 50
270.0
 51
0.0
1001
ACAD
1000
ASC_BOUNDS
1002
{
1070
    19
1005
94114
1002
}
  0
ARC
  5
94111
330
7CFD4
100
AcDbEntity
  8
0
100
AcDbCircle
 10
28.40199999996923
 20
2.373099999991211
 30
0.0
 40
2.34
100
AcDbArc
 50
270.0
 51
0.0
1001
ACAD
1000
ASC_BOUNDS
1002
{
1070
    19
1005
94114
1002
}
  0
INSERT
  5
94112
330
7CFD4
100
AcDbEntity
  8
0
100
AcDbBlockReference
  2
*X18
 10
0.0
 20
0.0
 30
0.0
1001
ACAD
1000
HATCH
1002
{
1070
    19
1000
ANSI37
1040
0.15
1040
0.0
1000
ASC_BOUNDS
1070
     2
1070
     2
1070
    12
1005
940D1
1005
940D2
1005
940D9
1005
940E8
1005
940EB
1005
940E9
1005
940DA
1005
940DF
1005
940DD
1005
940E1
1005
940E0
1005
940E2
1070
     2
1070
     3
1005
940ED
1005
940EF
1005
940EE
1000
ASC_SEEDPOINT
1011
3.614004224891801
1021
2.996669441146025
1031
0.0
1000
R14_HATCH_DATA
1000
94112
1011
1.0
1021
0.0
1031
0.0
1011
0.0
1021
1.0
1031
0.0
1011
0.0
1021
0.0
1031
1.0
1040
0.0
1010
0.0
1020
0.0
1030
1.0
1000
ANSI37
1070
     0
1070
     1
1071
        2
1071
        7
1070
     0
1070
     1
1071
       17
1040
13.26299999998673
1040
-0.0001000000000317
1040
9.236999999990758
1040
8.999899999990987
1040
9.236999999990758
1040
8.999999999991019
1040
5.657999999994331
1040
0.9999999999989768
1040
3.181999999996833
1040
4.668599999995308
1040
6.432999999993513
1040
8.763099999991255
1040
4.617999999995391
1040
8.763099999991255
1040
1.420999999998571
1040
4.736799999995242
1040
4.617999999995391
1040
-0.0001000000000317
1040
4.617999999995391
1040
0.0
1040
6.766999999993232
1040
0.0
1040
6.766999999993232
1040
-0.0001000000000317
1040
7.826999999992154
1040
2.368399999997621
1040
10.64699999998936
1040
2.368399999997621
1040
11.70599999998831
1040
-0.0001000000000317
1040
11.70599999998831
1040
0.0
1040
13.26299999998673
1040
0.0
1071
       12
1005
940D1
1005
940D2
1005
940D9
1005
940E8
1005
940EB
1005
940E9
1005
940DA
1005
940DF
1005
940DD
1005
940E1
1005
940E0
1005
940E2
1071
       22
1070
     0
1070
     1
1071
        3
1040
9.236999999990758
1040
5.5200999999945
1040
10.06399999998996
1040
3.670999999996297
1040
8.409999999991555
1040
3.670999999996297
1071
        3
1005
940ED
1005
940EF
1005
940EE
1070
     0
1070
     1
1040
0.0
1040
0.15
1070
     0
1070
     2
1040
0.7853981633974483
1040
49.29960901727088
1040
-10.17736998311392
1040
-0.3367596045400932
1040
0.3367596045400932
1070
     0
1040
2.356194490192345
1040
49.29960901727088
1040
-10.17736998311392
1040
-0.3367596045400932
1040
-0.3367596045400932
1070
     0
1040
0.0110235143455945
1071
        2
1040
3.614004224891801
1040
2.996669441146025
1040
0.0
1040
3.614004224891801
1040
2.996669441146025
1040
0.0
1002
}
  0
INSERT
  5
94113
330
7CFD4
100
AcDbEntity
  8
0
100
AcDbBlockReference
  2
*X19
 10
0.0
 20
0.0
 30
0.0
1001
ACAD
1000
HATCH
1002
{
1070
    19
1000
ANSI37
1040
0.15
1040
0.0
1000
ASC_BOUNDS
1070
     1
1070
     2
1070
    10
1005
940D3
1005
940D4
1005
940F5
1005
940F3
1005
940F4
1005
940E7
1005
940EC
1005
940F0
1005
940D6
1005
940D5
1000
ASC_SEEDPOINT
1011
14.73245321214324
1021
2.798246178283421
1031
0.0
1000
R14_HATCH_DATA
1000
94113
1011
1.0
1021
0.0
1031
0.0
1011
0.0
1021
1.0
1031
0.0
1011
0.0
1021
0.0
1031
1.0
1040
0.0
1010
0.0
1020
0.0
1030
1.0
1000
ANSI37
1070
     0
1070
     1
1071
        1
1071
        7
1070
     0
1070
     1
1071
       10
1040
16.46099999998353
1040
5.432899999994561
1040
18.59199999998134
1040
-0.2368999999997641
1040
22.38199999997767
1040
8.763099999991255
1040
20.89099999997916
1040
8.763099999991255
1040
18.59799999998143
1040
3.315799999996671
1040
16.46099999998353
1040
8.999899999990987
1040
14.32399999998563
1040
3.315799999996671
1040
12.02999999998792
1040
8.763099999991255
1040
10.53899999998941
1040
8.763099999991255
1040
14.32899999998563
1040
-0.2368999999997641
1071
       10
1005
940D3
1005
940D4
1005
940F5
1005
940F3
1005
940F4
1005
940E7
1005
940EC
1005
940F0
1005
940D6
1005
940D5
1070
     0
1070
     1
1040
0.0
1040
0.15
1070
     0
1070
     2
1040
0.7853981633974483
1040
49.29960901727088
1040
-10.17736998311392
1040
-0.3367596045400932
1040
0.3367596045400932
1070
     0
1040
2.356194490192345
1040
49.29960901727088
1040
-10.17736998311392
1040
-0.3367596045400932
1040
-0.3367596045400932
1070
     0
1040
0.0110235143455945
1071
        1
1040
14.73245321214324
1040
2.798246178283421
1040
0.0
1002
}
  0
INSERT
  5
94114
330
7CFD4
100
AcDbEntity
  8
0
100
AcDbBlockReference
  2
*X20
 10
0.0
 20
0.0
 30
0.0
1001
ACAD
1000
HATCH
1002
{
1070
    19
1000
ANSI37
1040
0.15
1040
0.0
1000
ASC_BOUNDS
1070
     2
1070
     2
1070
    13
1005
940D7
1005
940E4
1005
940E5
1005
940E3
1005
940E6
1005
9410D
1005
94111
1005
9410C
1005
9410B
1005
9410E
1005
94110
1005
9410F
1005
940D8
1070
     2
1070
     3
1005
940F1
1005
940F6
1005
940F2
1000
ASC_SEEDPOINT
1011
21.97929957367762
1021
3.294304244259308
1031
0.0
1000
R14_HATCH_DATA
1000
94114
1011
1.0
1021
0.0
1031
0.0
1011
0.0
1021
1.0
1031
0.0
1011
0.0
1021
0.0
1031
1.0
1040
0.0
1010
0.0
1020
0.0
1030
1.0
1000
ANSI37
1070
     0
1070
     1
1071
        2
1071
        7
1070
     1
1070
     1
1071
       15
1040
23.56599999997638
1040
8.999899999990987
1040
0.0
1040
19.53899999998043
1040
-0.0001000000000317
1040
0.0
1040
19.53899999998043
1040
0.0
1040
0.0
1040
21.09599999997886
1040
0.0
1040
0.0
1040
21.09599999997886
1040
-0.0001000000000317
1040
0.0
1040
22.15599999997789
1040
2.368399999997621
1040
0.0
1040
24.97599999997499
1040
2.368399999997621
1040
0.0
1040
26.02015566812236
1040
0.0330999999912365
1040
0.0
1040
28.40199999996923
1040
0.0330999999912365
1040
0.414213562373095
1040
30.74199999996923
1040
2.373099999991211
1040
0.0
1040
30.74199999996927
1040
8.763099999991255
1040
0.0
1040
29.30199999996933
1040
8.763099999991255
1040
0.0
1040
29.30199999996933
1040
2.283099999991236
1040
-0.414213562373095
1040
28.40199999996923
1040
1.383099999991237
1040
0.0
1040
26.97358892824991
1040
1.383099999991202
1040
0.0
1071
       13
1005
940D7
1005
940E4
1005
940E5
1005
940E3
1005
940E6
1005
9410D
1005
94111
1005
9410C
1005
9410B
1005
9410E
1005
94110
1005
9410F
1005
940D8
1071
       22
1070
     0
1070
     1
1071
        3
1040
22.7389999999773
1040
3.670999999996297
1040
23.56599999997638
1040
5.5200999999945
1040
24.39299999997559
1040
3.670999999996297
1071
        3
1005
940F1
1005
940F6
1005
940F2
1070
     0
1070
     1
1040
0.0
1040
0.15
1070
     0
1070
     2
1040
0.7853981633974483
1040
49.29960901727088
1040
-10.17736998311392
1040
-0.3367596045400932
1040
0.3367596045400932
1070
     0
1040
2.356194490192345
1040
49.29960901727088
1040
-10.17736998311392
1040
-0.3367596045400932
1040
-0.3367596045400932
1070
     0
1040
0.0110235143455945
1071
        2
1040
21.97929957367762
1040
3.294304244259308
1040
0.0
1040
21.97929957367762
1040
3.294304244259308
1040
0.0
1002
}
  0
INSERT
  5
94115
330
7CFD4
100
AcDbEntity
  8
0
100
AcDbBlockReference
  2
*X21
 10
0.0
 20
0.0
 30
0.0
1001
ACAD
1000
HATCH
1002
{
1070
    19
1000
ANSI37
1040
0.15
1040
0.0
1000
R14_HATCH_DATA
1000
94115
1011
1.0
1021
0.0
1031
0.0
1011
0.0
1021
1.0
1031
0.0
1011
0.0
1021
0.0
1031
1.0
1040
0.0
1010
0.0
1020
0.0
1030
1.0
1000
ANSI37
1070
     0
1070
     1
1071
        1
1071
        7
1070
     1
1070
     1
1071
       12
1040
31.64199999996833
1040
2.481619422925121
1040
0.2679491924310942
1040
32.94699999997067
1040
0.2212931190493919
1040
0.2679491924301353
1040
36.36699999995983
1040
0.2212931190459813
1040
0.2679491924321411
1040
37.67199999996831
1040
2.481619422928361
1040
0.0
1040
37.67199999996831
1040
8.763099999991255
1040
0.0
1040
36.23199999996837
1040
8.763099999991255
1040
0.0
1040
36.23199999996837
1040
2.481619422925064
1040
-0.2679491924310291
1040
35.64699999996708
1040
1.468369700498386
1040
-0.267949192430519
1040
33.66699999997093
1040
1.468369700497703
1040
-0.267949192431809
1040
33.08199999996839
1040
2.481619422926997
1040
0.0
1040
33.08199999996839
1040
8.763099999991255
1040
0.0
1040
31.64199999996833
1040
8.763099999991255
1040
0.0
1071
        0
1070
     0
1070
     1
1040
0.0
1040
0.15
1070
     0
1070
     2
1040
0.7853981633974483
1040
49.29960901727088
1040
-10.17736998311392
1040
-0.3367596045400932
1040
0.3367596045400932
1070
     0
1040
2.356194490192345
1040
49.29960901727088
1040
-10.17736998311392
1040
-0.3367596045400932
1040
-0.3367596045400932
1070
     0
1040
0.0110235143455945
1071
        1
1040
32.30357378967278
1040
3.988785755459219
1040
0.0
1002
}
  0
INSERT
  5
94116
330
7CFD4
100
AcDbEntity
  8
0
100
AcDbBlockReference
  2
*X22
 10
0.0
 20
0.0
 30
0.0
1001
ACAD
1000
HATCH
1002
{
1070
    19
1000
ANSI37
1040
0.15
1040
0.0
1000
ASC_BOUNDS
1070
     1
1070
     2
1070
     8
1005
940F7
1005
940FA
1005
940FE
1005
940FD
1005
940FC
1005
940F9
1005
940FB
1005
940F8
1000
ASC_SEEDPOINT
1011
39.74896370716704
1021
4.484843821435049
1031
0.0
1000
R14_HATCH_DATA
1000
94116
1011
1.0
1021
0.0
1031
0.0
1011
0.0
1021
1.0
1031
0.0
1011
0.0
1021
0.0
1031
1.0
1040
0.0
1010
0.0
1020
0.0
1030
1.0
1000
ANSI37
1070
     0
1070
     1
1071
        1
1071
        7
1070
     0
1070
     1
1071
        9
1040
40.02599999995994
1040
5.341799999994635
1040
44.99999999995498
1040
-0.2368999999997641
1040
44.99999999995498
1040
8.763099999991255
1040
43.57899999995641
1040
8.763099999991255
1040
43.57899999995641
1040
3.421199999996588
1040
38.60499999996136
1040
8.999899999990987
1040
38.60499999996136
1040
8.999999999991019
1040
38.60499999996136
1040
0.0
1040
40.02599999995994
1040
0.0
1071
        8
1005
940F7
1005
940FA
1005
940FE
1005
940FD
1005
940FC
1005
940F9
1005
940FB
1005
940F8
1070
     0
1070
     1
1040
0.0
1040
0.15
1070
     0
1070
     2
1040
0.7853981633974483
1040
49.29960901727088
1040
-10.17736998311392
1040
-0.3367596045400932
1040
0.3367596045400932
1070
     0
1040
2.356194490192345
1040
49.29960901727088
1040
-10.17736998311392
1040
-0.3367596045400932
1040
-0.3367596045400932
1070
     0
1040
0.0110235143455945
1071
        1
1040
39.74896370716704
1040
4.484843821435049
1040
0.0
1002
}
  0
INSERT
  5
94117
330
7CFD4
100
AcDbEntity
  8
0
100
AcDbBlockReference
  2
*X23
 10
0.0
 20
0.0
 30
0.0
1001
ACAD
1000
HATCH
1002
{
1070
    19
1000
ANSI37
1040
0.15
1040
0.0
1000
ASC_BOUNDS
1070
     1
1070
     2
1070
     4
1005
940DB
1005
940EA
1005
940DC
1005
940DE
1000
ASC_SEEDPOINT
1011
1.079051535452663
1021
4.148538732891836
1031
0.0
1000
R14_HATCH_DATA
1000
94117
1011
1.0
1021
0.0
1031
0.0
1011
0.0
1021
1.0
1031
0.0
1011
0.0
1021
0.0
1031
1.0
1040
0.0
1010
0.0
1020
0.0
1030
1.0
1000
ANSI37
1070
     0
1070
     1
1071
        1
1071
        7
1070
     0
1070
     1
1071
        4
1040
1.420999999998571
1040
0.0
1040
1.420999999998571
1040
8.763099999991255
1040
0.0
1040
8.763099999991255
1040
0.0
1040
0.0
1071
        4
1005
940DB
1005
940EA
1005
940DC
1005
940DE
1070
     0
1070
     1
1040
0.0
1040
0.15
1070
     0
1070
     2
1040
0.7853981633974483
1040
49.29960901727088
1040
-10.17736998311392
1040
-0.3367596045400932
1040
0.3367596045400932
1070
     0
1040
2.356194490192345
1040
49.29960901727088
1040
-10.17736998311392
1040
-0.3367596045400932
1040
-0.3367596045400932
1070
     0
1040
0.0053004257112761
1071
        1
1040
1.079051535452663
1040
4.148538732891836
1040
0.0
1002
}
  0
ENDBLK
  5
94820
330
7CFD4
100
AcDbEntity
  8
0
100
AcDbBlockEnd
  0
BLOCK
  5
A3CFC
330
A3B6E
100
AcDbEntity
  8
0
100
AcDbBlockBegin
  2
*X18
 70
     1
 10
0.0
 20
0.0
 30
0.0
  3
*X18
  1

  0
LINE
  5
A3B6F
330
A3B6E
100
AcDbEntity
  8
0
  6
CONTINUOUS
100
AcDbLine
 10
3.418023043697893
 20
7.251849696850613
 30
0.0
 11
4.929273346838536
 21
8.763099999991255
 31
0.0
  0
LINE
  5
A3B70
330
A3B6E
100
AcDbEntity
  8
0
  6
CONTINUOUS
100
AcDbLine
 10
1.483656411257782
 20
4.643963855330318
 30
0.0
 11
5.60279255591872
 21
8.763099999991255
 31
0.0
  0
LINE
  5
A3B71
330
A3B6E
100
AcDbEntity
  8
0
  6
CONTINUOUS
100
AcDbLine
 10
1.755053947328235
 20
4.241842182320584
 30
0.0
 11
6.276311764998907
 21
8.763099999991255
 31
0.0
  0
LINE
  5
A3B72
330
A3B6E
100
AcDbEntity
  8
0
  6
CONTINUOUS
100
AcDbLine
 10
2.026451483398688
 20
3.839720509310849
 30
0.0
 11
4.441040904851878
 21
6.254309930764039
 31
0.0
  0
LINE
  5
A3B73
330
A3B6E
100
AcDbEntity
  8
0
  6
CONTINUOUS
100
AcDbLine
 10
2.297849019469139
 20
3.437598836301114
 30
0.0
 11
3.321765168359338
 21
4.461514985191313
 31
0.0
  0
LINE
  5
A3B74
330
A3B6E
100
AcDbEntity
  8
0
  6
CONTINUOUS
100
AcDbLine
 10
2.569246555539591
 20
3.03547716329138
 30
0.0
 11
3.593163397972743
 21
4.059394005724531
 31
0.0
  0
LINE
  5
A3B75
330
A3B6E
100
AcDbEntity
  8
0
  6
CONTINUOUS
100
AcDbLine
 10
2.840644091610043
 20
2.633355490281646
 30
0.0
 11
3.864561627586149
 21
3.657273026257751
 31
0.0
  0
LINE
  5
A3B76
330
A3B6E
100
AcDbEntity
  8
0
  6
CONTINUOUS
100
AcDbLine
 10
3.112041627680496
 20
2.231233817271911
 30
0.0
 11
4.135959857199554
 21
3.25515204679097
 31
0.0
  0
LINE
  5
A3B77
330
A3B6E
100
AcDbEntity
  8
0
  6
CONTINUOUS
100
AcDbLine
 10
3.383439163750948
 20
1.829112144262177
 30
0.0
 11
4.40735808681296
 21
2.853031067324189
 31
0.0
  0
LINE
  5
A3B78
330
A3B6E
100
AcDbEntity
  8
0
  6
CONTINUOUS
100
AcDbLine
 10
3.654836699821399
 20
1.426990471252442
 30
0.0
 11
4.678756316426365
 21
2.450910087857407
 31
0.0
  0
LINE
  5
A3B79
330
A3B6E
100
AcDbEntity
  8
0
  6
CONTINUOUS
100
AcDbLine
 10
3.926234235891853
 20
1.024868798242709
 30
0.0
 11
4.95015454603977
 21
2.048789108390626
 31
0.0
  0
LINE
  5
A3B7A
330
A3B6E
100
AcDbEntity
  8
0
  6
CONTINUOUS
100
AcDbLine
 10
4.197631771962304
 20
0.6227471252329737
 30
0.0
 11
5.221552775653176
 21
1.646668128923846
 31
0.0
  0
LINE
  5
A3B7B
330
A3B6E
100
AcDbEntity
  8
0
  6
CONTINUOUS
100
AcDbLine
 10
8.715877546767851
 20
7.835069736359266
 30
0.0
 11
9.435953450375058
 21
8.555145639966472
 31
0.0
  0
LINE
  5
A3B7C
330
A3B6E
100
AcDbEntity
  8
0
  6
CONTINUOUS
100
AcDbLine
 10
8.170620868422267
 20
6.616293848933497
 30
0.0
 11
9.644120833743461
 21
8.08979381425469
 31
0.0
  0
LINE
  5
A3B7D
330
A3B6E
100
AcDbEntity
  8
0
  6
CONTINUOUS
100
AcDbLine
 10
7.625364190076684
 20
5.397517961507727
 30
0.0
 11
9.852288217111864
 21
7.624441988542907
 31
0.0
  0
LINE
  5
A3B7E
330
A3B6E
100
AcDbEntity
  8
0
  6
CONTINUOUS
100
AcDbLine
 10
7.080107511731101
 20
4.178742074081957
 30
0.0
 11
10.06045560048027
 21
7.159090162831124
 31
0.0
  0
LINE
  5
A3B7F
330
A3B6E
100
AcDbEntity
  8
0
  6
CONTINUOUS
100
AcDbLine
 10
6.534850833385518
 20
2.959966186656187
 30
0.0
 11
10.26862298384867
 21
6.693738337119342
 31
0.0
  0
LINE
  5
A3B80
330
A3B6E
100
AcDbEntity
  8
0
  6
CONTINUOUS
100
AcDbLine
 10
4.469029308032756
 20
0.2206254522232385
 30
0.0
 11
5.492951005266582
 21
1.244547149457064
 31
0.0
  0
LINE
  5
A3B81
330
A3B6E
100
AcDbEntity
  8
0
  6
CONTINUOUS
100
AcDbLine
 10
5.989594155039935
 20
1.741190299230417
 30
0.0
 11
8.806950407233131
 21
4.558546551423613
 31
0.0
  0
LINE
  5
A3B82
330
A3B6E
100
AcDbEntity
  8
0
  6
CONTINUOUS
100
AcDbLine
 10
9.401251593263643
 20
5.152847737454126
 30
0.0
 11
10.47679036721708
 21
6.228386511407559
 31
0.0
  0
LINE
  5
A3B83
330
A3B6E
100
AcDbEntity
  8
0
  6
CONTINUOUS
100
AcDbLine
 10
4.921837203428691
 20
-0.0000858614610131
 30
0.0
 11
8.592923064886001
 21
3.670999999996297
 31
0.0
  0
LINE
  5
A3B84
330
A3B6E
100
AcDbEntity
  8
0
  6
CONTINUOUS
100
AcDbLine
 10
9.609390446785305
 20
4.6874673818956
 30
0.0
 11
10.68495775058548
 21
5.763034685695775
 31
0.0
  0
LINE
  5
A3B85
330
A3B6E
100
AcDbEntity
  8
0
  6
CONTINUOUS
100
AcDbLine
 10
5.595387755019432
 20
-0.0000545189504582
 30
0.0
 11
7.716137258923768
 21
2.120694984953879
 31
0.0
  0
LINE
  5
A3B86
330
A3B6E
100
AcDbEntity
  8
0
  6
CONTINUOUS
100
AcDbLine
 10
6.268938306610172
 20
-0.000023176439905
 30
0.0
 11
7.170485805526503
 21
0.9015243224764267
 31
0.0
  0
LINE
  5
A3B87
330
A3B6E
100
AcDbEntity
  8
0
  6
CONTINUOUS
100
AcDbLine
 10
7.963842273967511
 20
2.368399999997621
 30
0.0
 11
9.266442273966188
 21
3.670999999996297
 31
0.0
  0
LINE
  5
A3B88
330
A3B6E
100
AcDbEntity
  8
0
  6
CONTINUOUS
100
AcDbLine
 10
8.637361483047696
 20
2.368399999997621
 30
0.0
 11
9.939961483046375
 21
3.670999999996297
 31
0.0
  0
LINE
  5
A3B89
330
A3B6E
100
AcDbEntity
  8
0
  6
CONTINUOUS
100
AcDbLine
 10
9.817529300306965
 20
4.222087026337075
 30
0.0
 11
10.89312513395388
 21
5.297682859983993
 31
0.0
  0
LINE
  5
A3B8A
330
A3B6E
100
AcDbEntity
  8
0
  6
CONTINUOUS
100
AcDbLine
 10
10.02566815382863
 20
3.756706670778549
 30
0.0
 11
11.10129251732229
 21
4.832331034272211
 31
0.0
  0
LINE
  5
A3B8B
330
A3B6E
100
AcDbEntity
  8
0
  6
CONTINUOUS
100
AcDbLine
 10
9.310880692127883
 20
2.368399999997621
 30
0.0
 11
11.30945990069069
 21
4.366979208560428
 31
0.0
  0
LINE
  5
A3B8C
330
A3B6E
100
AcDbEntity
  8
0
  6
CONTINUOUS
100
AcDbLine
 10
9.98439990120807
 20
2.36839999999762
 30
0.0
 11
11.5176272840591
 21
3.901627382848645
 31
0.0
  0
LINE
  5
A3B8D
330
A3B6E
100
AcDbEntity
  8
0
  6
CONTINUOUS
100
AcDbLine
 10
10.65037369446246
 20
2.36085458417182
 30
0.0
 11
11.7257946674275
 21
3.436275557136862
 31
0.0
  0
LINE
  5
A3B8E
330
A3B6E
100
AcDbEntity
  8
0
  6
CONTINUOUS
100
AcDbLine
 10
10.85847197087848
 20
1.895433651507656
 30
0.0
 11
11.9339620507959
 21
2.97092373142508
 31
0.0
  0
LINE
  5
A3B8F
330
A3B6E
100
AcDbEntity
  8
0
  6
CONTINUOUS
100
AcDbLine
 10
11.0665702472945
 20
1.430012718843491
 30
0.0
 11
12.14212943416431
 21
2.505571905713296
 31
0.0
  0
LINE
  5
A3B90
330
A3B6E
100
AcDbEntity
  8
0
  6
CONTINUOUS
100
AcDbLine
 10
11.27466852371052
 20
0.9645917861793256
 30
0.0
 11
12.35029681753271
 21
2.040220080001513
 31
0.0
  0
LINE
  5
A3B91
330
A3B6E
100
AcDbEntity
  8
0
  6
CONTINUOUS
100
AcDbLine
 10
11.48276680012654
 20
0.4991708535151611
 30
0.0
 11
12.55846420090111
 21
1.57486825428973
 31
0.0
  0
LINE
  5
A3B92
330
A3B6E
100
AcDbEntity
  8
0
  6
CONTINUOUS
100
AcDbLine
 10
11.69086507654257
 20
0.0337499208509957
 30
0.0
 11
12.76663158426952
 21
1.109516428577947
 31
0.0
  0
LINE
  5
A3B93
330
A3B6E
100
AcDbEntity
  8
0
  6
CONTINUOUS
100
AcDbLine
 10
12.33057447873954
 20
-0.0000598860322123
 30
0.0
 11
12.97479896763792
 21
0.6441646028661663
 31
0.0
  0
LINE
  5
A3B94
330
A3B6E
100
AcDbEntity
  8
0
  6
CONTINUOUS
100
AcDbLine
 10
13.00413694809395
 20
-0.0000166257579952
 30
0.0
 11
13.18296635100632
 21
0.1788127771543824
 31
0.0
  0
LINE
  5
A3B95
330
A3B6E
100
AcDbEntity
  8
0
  6
CONTINUOUS
100
AcDbLine
 10
4.772852165289667
 20
-0.000092794222212
 30
0.0
 11
4.296495091028902
 21
0.4762642800385528
 31
0.0
  0
LINE
  5
A3B96
330
A3B6E
100
AcDbEntity
  8
0
  6
CONTINUOUS
100
AcDbLine
 10
5.446340034776103
 20
-0.0000614546284616
 30
0.0
 11
2.898195908335625
 21
2.548082671812017
 31
0.0
  0
LINE
  5
A3B97
330
A3B6E
100
AcDbEntity
  8
0
  6
CONTINUOUS
100
AcDbLine
 10
6.119827904262539
 20
-0.0000301150347113
 30
0.0
 11
1.499896725642348
 21
4.61990106358548
 31
0.0
  0
LINE
  5
A3B98
330
A3B6E
100
AcDbEntity
  8
0
  6
CONTINUOUS
100
AcDbLine
 10
6.775136745476159
 20
0.0181802528318542
 30
0.0
 11
5.699826040202669
 21
1.093490958105344
 31
0.0
  0
LINE
  5
A3B99
330
A3B6E
100
AcDbEntity
  8
0
  6
CONTINUOUS
100
AcDbLine
 10
6.983376846288489
 20
0.4834593610997118
 30
0.0
 11
5.908008617934405
 21
1.558827589453796
 31
0.0
  0
LINE
  5
A3B9A
330
A3B6E
100
AcDbEntity
  8
0
  6
CONTINUOUS
100
AcDbLine
 10
5.377063484962296
 20
1.416253513345719
 30
0.0
 11
1.702276957014131
 21
5.091040041293883
 31
0.0
  0
LINE
  5
A3B9B
330
A3B6E
100
AcDbEntity
  8
0
  6
CONTINUOUS
100
AcDbLine
 10
3.978745891735324
 20
3.488090315652877
 30
0.0
 11
2.000373521109399
 21
5.466462686278803
 31
0.0
  0
LINE
  5
A3B9C
330
A3B6E
100
AcDbEntity
  8
0
  6
CONTINUOUS
100
AcDbLine
 10
7.191616947100819
 20
0.948738469367568
 30
0.0
 11
6.11619119566614
 21
2.024164220802247
 31
0.0
  0
LINE
  5
A3B9D
330
A3B6E
100
AcDbEntity
  8
0
  6
CONTINUOUS
100
AcDbLine
 10
7.399857047913149
 20
1.414017577635424
 30
0.0
 11
6.324373773397875
 21
2.489500852150698
 31
0.0
  0
LINE
  5
A3B9E
330
A3B6E
100
AcDbEntity
  8
0
  6
CONTINUOUS
100
AcDbLine
 10
7.608097148725479
 20
1.879296685903281
 30
0.0
 11
6.53255635112961
 21
2.95483748349915
 31
0.0
  0
LINE
  5
A3B9F
330
A3B6E
100
AcDbEntity
  8
0
  6
CONTINUOUS
100
AcDbLine
 10
7.816337249537808
 20
2.344575794171138
 30
0.0
 11
6.740738928861345
 21
3.420174114847601
 31
0.0
  0
LINE
  5
A3BA0
330
A3B6E
100
AcDbEntity
  8
0
  6
CONTINUOUS
100
AcDbLine
 10
3.310241080789734
 20
4.830114335678653
 30
0.0
 11
2.298470085204666
 21
5.84188533126372
 31
0.0
  0
LINE
  5
A3BA1
330
A3B6E
100
AcDbEntity
  8
0
  6
CONTINUOUS
100
AcDbLine
 10
3.60832983563551
 20
5.205544789913063
 30
0.0
 11
2.596566649299935
 21
6.217307976248638
 31
0.0
  0
LINE
  5
A3BA2
330
A3B6E
100
AcDbEntity
  8
0
  6
CONTINUOUS
100
AcDbLine
 10
3.906418590481286
 20
5.580975244147473
 30
0.0
 11
2.894663213395203
 21
6.592730621233557
 31
0.0
  0
LINE
  5
A3BA3
330
A3B6E
100
AcDbEntity
  8
0
  6
CONTINUOUS
100
AcDbLine
 10
4.204507345327062
 20
5.956405698381884
 30
0.0
 11
3.192759777490472
 21
6.968153266218474
 31
0.0
  0
LINE
  5
A3BA4
330
A3B6E
100
AcDbEntity
  8
0
  6
CONTINUOUS
100
AcDbLine
 10
8.466032252791512
 20
2.368399999997621
 30
0.0
 11
6.948921506593081
 21
3.885510746196053
 31
0.0
  0
LINE
  5
A3BA5
330
A3B6E
100
AcDbEntity
  8
0
  6
CONTINUOUS
100
AcDbLine
 10
9.139551461871699
 20
2.36839999999762
 30
0.0
 11
7.157104084324816
 21
4.350847377544504
 31
0.0
  0
LINE
  5
A3BA6
330
A3B6E
100
AcDbEntity
  8
0
  6
CONTINUOUS
100
AcDbLine
 10
4.502596100172839
 20
6.331836152616295
 30
0.0
 11
3.49085634158574
 21
7.343575911203393
 31
0.0
  0
LINE
  5
A3BA7
330
A3B6E
100
AcDbEntity
  8
0
  6
CONTINUOUS
100
AcDbLine
 10
4.800684855018615
 20
6.707266606850705
 30
0.0
 11
3.788952905681008
 21
7.718998556188312
 31
0.0
  0
LINE
  5
A3BA8
330
A3B6E
100
AcDbEntity
  8
0
  6
CONTINUOUS
100
AcDbLine
 10
12.18154012887317
 20
-0.0000694579236642
 30
0.0
 11
11.32140332908496
 21
0.8600673418645499
 31
0.0
  0
LINE
  5
A3BA9
330
A3B6E
100
AcDbEntity
  8
0
  6
CONTINUOUS
100
AcDbLine
 10
12.85501608323566
 20
-0.0000262032059659
 30
0.0
 11
10.77672456435345
 21
2.078265315676246
 31
0.0
  0
LINE
  5
A3BAA
330
A3B6E
100
AcDbEntity
  8
0
  6
CONTINUOUS
100
AcDbLine
 10
9.813070670951886
 20
2.36839999999762
 30
0.0
 11
8.51047067095321
 21
3.670999999996297
 31
0.0
  0
LINE
  5
A3BAB
330
A3B6E
100
AcDbEntity
  8
0
  6
CONTINUOUS
100
AcDbLine
 10
10.48658988003207
 20
2.36839999999762
 30
0.0
 11
9.183989880033396
 21
3.670999999996297
 31
0.0
  0
LINE
  5
A3BAC
330
A3B6E
100
AcDbEntity
  8
0
  6
CONTINUOUS
100
AcDbLine
 10
8.441048632286794
 20
3.740422038662712
 30
0.0
 11
7.365286662056551
 21
4.816184008892956
 31
0.0
  0
LINE
  5
A3BAD
330
A3B6E
100
AcDbEntity
  8
0
  6
CONTINUOUS
100
AcDbLine
 10
8.649187485808454
 20
4.205802394221237
 30
0.0
 11
7.573469239788285
 21
5.281520640241407
 31
0.0
  0
LINE
  5
A3BAE
330
A3B6E
100
AcDbEntity
  8
0
  6
CONTINUOUS
100
AcDbLine
 10
5.098773609864391
 20
7.082697061085115
 30
0.0
 11
4.087049469776277
 21
8.09442120117323
 31
0.0
  0
LINE
  5
A3BAF
330
A3B6E
100
AcDbEntity
  8
0
  6
CONTINUOUS
100
AcDbLine
 10
5.396862364710167
 20
7.458127515319526
 30
0.0
 11
4.385146033871544
 21
8.469843846158149
 31
0.0
  0
LINE
  5
A3BB0
330
A3B6E
100
AcDbEntity
  8
0
  6
CONTINUOUS
100
AcDbLine
 10
13.04801363231285
 20
0.4804954567970334
 30
0.0
 11
9.85750908911358
 21
3.670999999996297
 31
0.0
  0
LINE
  5
A3BB1
330
A3B6E
100
AcDbEntity
  8
0
  6
CONTINUOUS
100
AcDbLine
 10
8.857326339330116
 20
4.671182749779763
 30
0.0
 11
7.781651817520021
 21
5.746857271589858
 31
0.0
  0
LINE
  5
A3BB2
330
A3B6E
100
AcDbEntity
  8
0
  6
CONTINUOUS
100
AcDbLine
 10
5.694951119555943
 20
7.833557969553937
 30
0.0
 11
4.765409089118624
 21
8.763099999991255
 31
0.0
  0
LINE
  5
A3BB3
330
A3B6E
100
AcDbEntity
  8
0
  6
CONTINUOUS
100
AcDbLine
 10
12.50286117236978
 20
1.699167125820288
 30
0.0
 11
9.68611877250287
 21
4.515909525687196
 31
0.0
  0
LINE
  5
A3BB4
330
A3B6E
100
AcDbEntity
  8
0
  6
CONTINUOUS
100
AcDbLine
 10
9.065465192851777
 20
5.136563105338288
 30
0.0
 11
7.989834395251757
 21
6.21219390293831
 31
0.0
  0
LINE
  5
A3BB5
330
A3B6E
100
AcDbEntity
  8
0
  6
CONTINUOUS
100
AcDbLine
 10
5.993039874401719
 20
8.208988423788346
 30
0.0
 11
5.43892829819881
 21
8.763099999991255
 31
0.0
  0
LINE
  5
A3BB6
330
A3B6E
100
AcDbEntity
  8
0
  6
CONTINUOUS
100
AcDbLine
 10
11.95770871242671
 20
2.917838794843543
 30
0.0
 11
8.19801697298349
 21
6.677530534286761
 31
0.0
  0
LINE
  5
A3BB7
330
A3B6E
100
AcDbEntity
  8
0
  6
CONTINUOUS
100
AcDbLine
 10
6.291128629247495
 20
8.584418878022756
 30
0.0
 11
6.112447507278997
 21
8.763099999991255
 31
0.0
  0
LINE
  5
A3BB8
330
A3B6E
100
AcDbEntity
  8
0
  6
CONTINUOUS
100
AcDbLine
 10
11.41255625248364
 20
4.136510463866797
 30
0.0
 11
8.406199550715227
 21
7.142867165635211
 31
0.0
  0
LINE
  5
A3BB9
330
A3B6E
100
AcDbEntity
  8
0
  6
CONTINUOUS
100
AcDbLine
 10
10.86740379254057
 20
5.355182132890051
 30
0.0
 11
8.614382128446962
 21
7.608203796983664
 31
0.0
  0
LINE
  5
A3BBA
330
A3B6E
100
AcDbEntity
  8
0
  6
CONTINUOUS
100
AcDbLine
 10
10.3222513325975
 20
6.573853801913305
 30
0.0
 11
8.822564706178696
 21
8.073540428332114
 31
0.0
  0
LINE
  5
A3BBB
330
A3B6E
100
AcDbEntity
  8
0
  6
CONTINUOUS
100
AcDbLine
 10
9.777098872654436
 20
7.792525470936562
 30
0.0
 11
9.030747283910433
 21
8.538877059680566
 31
0.0
  0
ENDBLK
  5
A3CFD
330
A3B6E
100
AcDbEntity
  8
0
100
AcDbBlockEnd
  0
BLOCK
  5
A3CFE
330
A3BBC
100
AcDbEntity
  8
0
100
AcDbBlockBegin
  2
*X19
 70
     1
 10
0.0
 20
0.0
 30
0.0
  3
*X19
  1

  0
LINE
  5
A3BBD
330
A3BBC
100
AcDbEntity
  8
0
  6
CONTINUOUS
100
AcDbLine
 10
10.67292308101235
 20
8.445076852443387
 30
0.0
 11
10.99094622856022
 21
8.763099999991255
 31
0.0
  0
LINE
  5
A3BBE
330
A3BBC
100
AcDbEntity
  8
0
  6
CONTINUOUS
100
AcDbLine
 10
10.87250383178748
 20
7.971138394138331
 30
0.0
 11
11.6644654376404
 21
8.763099999991255
 31
0.0
  0
LINE
  5
A3BBF
330
A3BBC
100
AcDbEntity
  8
0
  6
CONTINUOUS
100
AcDbLine
 10
11.07208458256261
 20
7.497199935833273
 30
0.0
 11
12.12126590876355
 21
8.546381262034211
 31
0.0
  0
LINE
  5
A3BC0
330
A3BBC
100
AcDbEntity
  8
0
  6
CONTINUOUS
100
AcDbLine
 10
11.27166533333774
 20
7.023261477528216
 30
0.0
 11
12.32085164573666
 21
8.072447789927136
 31
0.0
  0
LINE
  5
A3BC1
330
A3BBC
100
AcDbEntity
  8
0
  6
CONTINUOUS
100
AcDbLine
 10
11.47124608411287
 20
6.549323019223158
 30
0.0
 11
12.52043738270977
 21
7.59851431782006
 31
0.0
  0
LINE
  5
A3BC2
330
A3BBC
100
AcDbEntity
  8
0
  6
CONTINUOUS
100
AcDbLine
 10
11.670826834888
 20
6.075384560918101
 30
0.0
 11
12.72002311968288
 21
7.124580845712984
 31
0.0
  0
LINE
  5
A3BC3
330
A3BBC
100
AcDbEntity
  8
0
  6
CONTINUOUS
100
AcDbLine
 10
11.87040758566313
 20
5.601446102613043
 30
0.0
 11
12.91960885665599
 21
6.650647373605907
 31
0.0
  0
LINE
  5
A3BC4
330
A3BBC
100
AcDbEntity
  8
0
  6
CONTINUOUS
100
AcDbLine
 10
12.06998833643825
 20
5.127507644307986
 30
0.0
 11
13.1191945936291
 21
6.176713901498832
 31
0.0
  0
LINE
  5
A3BC5
330
A3BBC
100
AcDbEntity
  8
0
  6
CONTINUOUS
100
AcDbLine
 10
12.26956908721338
 20
4.65356918600293
 30
0.0
 11
13.31878033060221
 21
5.702780429391757
 31
0.0
  0
LINE
  5
A3BC6
330
A3BBC
100
AcDbEntity
  8
0
  6
CONTINUOUS
100
AcDbLine
 10
12.46914983798851
 20
4.179630727697873
 30
0.0
 11
13.51836606757532
 21
5.228846957284683
 31
0.0
  0
LINE
  5
A3BC7
330
A3BBC
100
AcDbEntity
  8
0
  6
CONTINUOUS
100
AcDbLine
 10
12.66873058876364
 20
3.705692269392816
 30
0.0
 11
13.71795180454843
 21
4.754913485177607
 31
0.0
  0
LINE
  5
A3BC8
330
A3BBC
100
AcDbEntity
  8
0
  6
CONTINUOUS
100
AcDbLine
 10
12.86831133953877
 20
3.231753811087759
 30
0.0
 11
13.91753754152154
 21
4.280980013070531
 31
0.0
  0
LINE
  5
A3BC9
330
A3BBC
100
AcDbEntity
  8
0
  6
CONTINUOUS
100
AcDbLine
 10
13.0678920903139
 20
2.757815352782702
 30
0.0
 11
14.11712327849465
 21
3.807046540963456
 31
0.0
  0
LINE
  5
A3BCA
330
A3BBC
100
AcDbEntity
  8
0
  6
CONTINUOUS
100
AcDbLine
 10
13.26747284108903
 20
2.283876894477644
 30
0.0
 11
14.31670901546777
 21
3.333113068856379
 31
0.0
  0
LINE
  5
A3BCB
330
A3BBC
100
AcDbEntity
  8
0
  6
CONTINUOUS
100
AcDbLine
 10
16.36767838827179
 20
8.751678487061342
 30
0.0
 11
16.50332410898388
 21
8.887324207773432
 31
0.0
  0
LINE
  5
A3BCC
330
A3BBC
100
AcDbEntity
  8
0
  6
CONTINUOUS
100
AcDbLine
 10
15.96190732182191
 20
7.67238821153127
 30
0.0
 11
16.68735328004734
 21
8.397834169756699
 31
0.0
  0
LINE
  5
A3BCD
330
A3BBC
100
AcDbEntity
  8
0
  6
CONTINUOUS
100
AcDbLine
 10
15.55613625537202
 20
6.593097936001196
 30
0.0
 11
16.87138245111079
 21
7.908344131739965
 31
0.0
  0
LINE
  5
A3BCE
330
A3BBC
100
AcDbEntity
  8
0
  6
CONTINUOUS
100
AcDbLine
 10
15.15036518892213
 20
5.513807660471122
 30
0.0
 11
17.05541162217424
 21
7.418854093723231
 31
0.0
  0
LINE
  5
A3BCF
330
A3BBC
100
AcDbEntity
  8
0
  6
CONTINUOUS
100
AcDbLine
 10
14.74459412247225
 20
4.434517384941048
 30
0.0
 11
17.2394407932377
 21
6.929364055706499
 31
0.0
  0
LINE
  5
A3BD0
330
A3BBC
100
AcDbEntity
  8
0
  6
CONTINUOUS
100
AcDbLine
 10
14.33882305602236
 20
3.355227109410975
 30
0.0
 11
17.42346996430115
 21
6.439874017689766
 31
0.0
  0
LINE
  5
A3BD1
330
A3BBC
100
AcDbEntity
  8
0
  6
CONTINUOUS
100
AcDbLine
 10
13.46705359186416
 20
1.809938436172586
 30
0.0
 11
16.0819338255367
 21
4.424818669845129
 31
0.0
  0
LINE
  5
A3BD2
330
A3BBC
100
AcDbEntity
  8
0
  6
CONTINUOUS
100
AcDbLine
 10
16.63283254238972
 20
4.975717386698149
 30
0.0
 11
17.60749913536461
 21
5.950383979673033
 31
0.0
  0
LINE
  5
A3BD3
330
A3BBC
100
AcDbEntity
  8
0
  6
CONTINUOUS
100
AcDbLine
 10
13.66663434263929
 20
1.335999977867529
 30
0.0
 11
15.67604797733754
 21
3.345413612565779
 31
0.0
  0
LINE
  5
A3BD4
330
A3BBC
100
AcDbEntity
  8
0
  6
CONTINUOUS
100
AcDbLine
 10
13.86621509341442
 20
0.8620615195624723
 30
0.0
 11
15.27016212913838
 21
2.26600855528643
 31
0.0
  0
LINE
  5
A3BD5
330
A3BBC
100
AcDbEntity
  8
0
  6
CONTINUOUS
100
AcDbLine
 10
16.81682257348267
 20
4.486188208710908
 30
0.0
 11
17.79152830642806
 21
5.460893941656299
 31
0.0
  0
LINE
  5
A3BD6
330
A3BBC
100
AcDbEntity
  8
0
  6
CONTINUOUS
100
AcDbLine
 10
17.00081260457561
 20
3.996659030723667
 30
0.0
 11
17.97555747749151
 21
4.971403903639565
 31
0.0
  0
LINE
  5
A3BD7
330
A3BBC
100
AcDbEntity
  8
0
  6
CONTINUOUS
100
AcDbLine
 10
20.74362343514722
 20
8.412989070375462
 30
0.0
 11
21.09373436476302
 21
8.763099999991256
 31
0.0
  0
LINE
  5
A3BD8
330
A3BBC
100
AcDbEntity
  8
0
  6
CONTINUOUS
100
AcDbLine
 10
20.25401257174777
 20
7.249858997895826
 30
0.0
 11
21.7672535738432
 21
8.763099999991255
 31
0.0
  0
LINE
  5
A3BD9
330
A3BBC
100
AcDbEntity
  8
0
  6
CONTINUOUS
100
AcDbLine
 10
14.06579584418955
 20
0.3881230612574149
 30
0.0
 11
14.86427628093921
 21
1.186603498007082
 31
0.0
  0
LINE
  5
A3BDA
330
A3BBC
100
AcDbEntity
  8
0
  6
CONTINUOUS
100
AcDbLine
 10
14.26537659496467
 20
-0.0858153970476412
 30
0.0
 11
14.45839043274005
 21
0.1071984407277329
 31
0.0
  0
LINE
  5
A3BDB
330
A3BBC
100
AcDbEntity
  8
0
  6
CONTINUOUS
100
AcDbLine
 10
17.18480263566856
 20
3.507129852736426
 30
0.0
 11
18.15958664855496
 21
4.481913865622833
 31
0.0
  0
LINE
  5
A3BDC
330
A3BBC
100
AcDbEntity
  8
0
  6
CONTINUOUS
100
AcDbLine
 10
17.3687926667615
 20
3.017600674749186
 30
0.0
 11
18.34361581961842
 21
3.9924238276061
 31
0.0
  0
LINE
  5
A3BDD
330
A3BBC
100
AcDbEntity
  8
0
  6
CONTINUOUS
100
AcDbLine
 10
19.76440170834832
 20
6.086728925416191
 30
0.0
 11
22.33924590259489
 21
8.661573119662755
 31
0.0
  0
LINE
  5
A3BDE
330
A3BBC
100
AcDbEntity
  8
0
  6
CONTINUOUS
100
AcDbLine
 10
19.27479084494887
 20
4.923598852936555
 30
0.0
 11
21.84929622842713
 21
7.498104236414807
 31
0.0
  0
LINE
  5
A3BDF
330
A3BBC
100
AcDbEntity
  8
0
  6
CONTINUOUS
100
AcDbLine
 10
17.55278269785445
 20
2.528071496761945
 30
0.0
 11
18.52764499068187
 21
3.502933789589366
 31
0.0
  0
LINE
  5
A3BE0
330
A3BBC
100
AcDbEntity
  8
0
  6
CONTINUOUS
100
AcDbLine
 10
18.78517998154942
 20
3.760468780456919
 30
0.0
 11
21.35934655425936
 21
6.33463535316686
 31
0.0
  0
LINE
  5
A3BE1
330
A3BBC
100
AcDbEntity
  8
0
  6
CONTINUOUS
100
AcDbLine
 10
17.73677272894739
 20
2.038542318774704
 30
0.0
 11
20.8693968800916
 21
5.171166469918914
 31
0.0
  0
LINE
  5
A3BE2
330
A3BBC
100
AcDbEntity
  8
0
  6
CONTINUOUS
100
AcDbLine
 10
17.92076276004034
 20
1.549013140787464
 30
0.0
 11
20.37944720592384
 21
4.007697586670968
 31
0.0
  0
LINE
  5
A3BE3
330
A3BBC
100
AcDbEntity
  8
0
  6
CONTINUOUS
100
AcDbLine
 10
18.10475279113329
 20
1.059483962800223
 30
0.0
 11
19.88949753175608
 21
2.84422870342302
 31
0.0
  0
LINE
  5
A3BE4
330
A3BBC
100
AcDbEntity
  8
0
  6
CONTINUOUS
100
AcDbLine
 10
18.28874282222623
 20
0.5699547848129822
 30
0.0
 11
19.39954785758832
 21
1.680759820175074
 31
0.0
  0
LINE
  5
A3BE5
330
A3BBC
100
AcDbEntity
  8
0
  6
CONTINUOUS
100
AcDbLine
 10
18.47273285331918
 20
0.0804256068257416
 30
0.0
 11
18.90959818342056
 21
0.517290936927127
 31
0.0
  0
LINE
  5
A3BE6
330
A3BBC
100
AcDbEntity
  8
0
  6
CONTINUOUS
100
AcDbLine
 10
14.3590401358224
 20
-0.1570118376323384
 30
0.0
 11
14.24903296539946
 21
-0.0470046672093929
 31
0.0
  0
LINE
  5
A3BE7
330
A3BBC
100
AcDbEntity
  8
0
  6
CONTINUOUS
100
AcDbLine
 10
14.54309291258661
 20
0.332454594683643
 30
0.0
 11
13.75908329123172
 21
1.116464216038529
 31
0.0
  0
LINE
  5
A3BE8
330
A3BBC
100
AcDbEntity
  8
0
  6
CONTINUOUS
100
AcDbLine
 10
14.72714568935081
 20
0.8219210269996244
 30
0.0
 11
13.26913361706399
 21
2.27993309928645
 31
0.0
  0
LINE
  5
A3BE9
330
A3BBC
100
AcDbEntity
  8
0
  6
CONTINUOUS
100
AcDbLine
 10
14.91119846611502
 20
1.311387459315606
 30
0.0
 11
12.77918394289625
 21
3.443401982534371
 31
0.0
  0
LINE
  5
A3BEA
330
A3BBC
100
AcDbEntity
  8
0
  6
CONTINUOUS
100
AcDbLine
 10
15.09525124287922
 20
1.800853891631587
 30
0.0
 11
12.28923426872852
 21
4.606870865782293
 31
0.0
  0
LINE
  5
A3BEB
330
A3BBC
100
AcDbEntity
  8
0
  6
CONTINUOUS
100
AcDbLine
 10
15.27930401964343
 20
2.290320323947569
 30
0.0
 11
11.79928459456078
 21
5.770339749030213
 31
0.0
  0
LINE
  5
A3BEC
330
A3BBC
100
AcDbEntity
  8
0
  6
CONTINUOUS
100
AcDbLine
 10
15.46335679640763
 20
2.77978675626355
 30
0.0
 11
14.48885470994921
 21
3.754288842721972
 31
0.0
  0
LINE
  5
A3BED
330
A3BBC
100
AcDbEntity
  8
0
  6
CONTINUOUS
100
AcDbLine
 10
13.88507249233704
 20
4.358071060334137
 30
0.0
 11
11.30933492039305
 21
6.933808632278135
 31
0.0
  0
LINE
  5
A3BEE
330
A3BBC
100
AcDbEntity
  8
0
  6
CONTINUOUS
100
AcDbLine
 10
18.75840522805855
 20
0.1582575336928151
 30
0.0
 11
18.25383727664818
 21
0.6628254851031863
 31
0.0
  0
LINE
  5
A3BEF
330
A3BBC
100
AcDbEntity
  8
0
  6
CONTINUOUS
100
AcDbLine
 10
15.64740957317184
 20
3.269253188579531
 30
0.0
 11
14.67288388101266
 21
4.243778880738705
 31
0.0
  0
LINE
  5
A3BF0
330
A3BBC
100
AcDbEntity
  8
0
  6
CONTINUOUS
100
AcDbLine
 10
13.39509276772158
 20
5.521569994029786
 30
0.0
 11
10.81938524622531
 21
8.097277515526056
 31
0.0
  0
LINE
  5
A3BF1
330
A3BBC
100
AcDbEntity
  8
0
  6
CONTINUOUS
100
AcDbLine
 10
18.95798597883369
 20
0.6321959919978686
 30
0.0
 11
17.84825644852853
 21
1.741925522303024
 31
0.0
  0
LINE
  5
A3BF2
330
A3BBC
100
AcDbEntity
  8
0
  6
CONTINUOUS
100
AcDbLine
 10
19.15756672960882
 20
1.106134450302922
 30
0.0
 11
17.44267562040888
 21
2.821025559502861
 31
0.0
  0
LINE
  5
A3BF3
330
A3BBC
100
AcDbEntity
  8
0
  6
CONTINUOUS
100
AcDbLine
 10
15.83146234993604
 20
3.758719620895513
 30
0.0
 11
14.85691305207612
 21
4.733268918755439
 31
0.0
  0
LINE
  5
A3BF4
330
A3BBC
100
AcDbEntity
  8
0
  6
CONTINUOUS
100
AcDbLine
 10
16.01551512670025
 20
4.248186053211494
 30
0.0
 11
15.04094222313957
 21
5.222758956772172
 31
0.0
  0
LINE
  5
A3BF5
330
A3BBC
100
AcDbEntity
  8
0
  6
CONTINUOUS
100
AcDbLine
 10
12.90511304310612
 20
6.685068927725435
 30
0.0
 11
10.8270819708403
 21
8.763099999991255
 31
0.0
  0
LINE
  5
A3BF6
330
A3BBC
100
AcDbEntity
  8
0
  6
CONTINUOUS
100
AcDbLine
 10
12.41513331849066
 20
7.848567861421083
 30
0.0
 11
11.50060117992049
 21
8.763099999991255
 31
0.0
  0
LINE
  5
A3BF7
330
A3BBC
100
AcDbEntity
  8
0
  6
CONTINUOUS
100
AcDbLine
 10
19.35714748038395
 20
1.580072908607975
 30
0.0
 11
17.03709479228923
 21
3.900125596702697
 31
0.0
  0
LINE
  5
A3BF8
330
A3BBC
100
AcDbEntity
  8
0
  6
CONTINUOUS
100
AcDbLine
 10
19.55672823115909
 20
2.054011366913028
 30
0.0
 11
16.63151396416958
 21
4.979225633902534
 31
0.0
  0
LINE
  5
A3BF9
330
A3BBC
100
AcDbEntity
  8
0
  6
CONTINUOUS
100
AcDbLine
 10
16.19956790346445
 20
4.737652485527476
 30
0.0
 11
15.22497139420302
 21
5.712248994788904
 31
0.0
  0
LINE
  5
A3BFA
330
A3BBC
100
AcDbEntity
  8
0
  6
CONTINUOUS
100
AcDbLine
 10
16.38362068022866
 20
5.227118917843457
 30
0.0
 11
15.40900056526648
 21
6.201739032805637
 31
0.0
  0
LINE
  5
A3BFB
330
A3BBC
100
AcDbEntity
  8
0
  6
CONTINUOUS
100
AcDbLine
 10
19.75630898193422
 20
2.527949825218081
 30
0.0
 11
18.70774536448286
 21
3.576513442669441
 31
0.0
  0
LINE
  5
A3BFC
330
A3BBC
100
AcDbEntity
  8
0
  6
CONTINUOUS
100
AcDbLine
 10
19.95588973270936
 20
3.001888283523134
 30
0.0
 11
18.90726987211446
 21
4.050508144118028
 31
0.0
  0
LINE
  5
A3BFD
330
A3BBC
100
AcDbEntity
  8
0
  6
CONTINUOUS
100
AcDbLine
 10
20.15547048348449
 20
3.475826741828186
 30
0.0
 11
19.10679437974606
 21
4.524502845566614
 31
0.0
  0
LINE
  5
A3BFE
330
A3BBC
100
AcDbEntity
  8
0
  6
CONTINUOUS
100
AcDbLine
 10
20.35505123425962
 20
3.94976520013324
 30
0.0
 11
19.30631888737766
 21
4.998497547015201
 31
0.0
  0
LINE
  5
A3BFF
330
A3BBC
100
AcDbEntity
  8
0
  6
CONTINUOUS
100
AcDbLine
 10
20.55463198503475
 20
4.423703658438292
 30
0.0
 11
19.50584339500926
 21
5.472492248463787
 31
0.0
  0
LINE
  5
A3C00
330
A3BBC
100
AcDbEntity
  8
0
  6
CONTINUOUS
100
AcDbLine
 10
18.37481191085755
 20
3.909446896294752
 30
0.0
 11
15.59302973632993
 21
6.691229070822371
 31
0.0
  0
LINE
  5
A3C01
330
A3BBC
100
AcDbEntity
  8
0
  6
CONTINUOUS
100
AcDbLine
 10
17.96904084440766
 20
4.988737171824825
 30
0.0
 11
15.77705890739338
 21
7.180719108839104
 31
0.0
  0
LINE
  5
A3C02
330
A3BBC
100
AcDbEntity
  8
0
  6
CONTINUOUS
100
AcDbLine
 10
17.56326977795777
 20
6.068027447354899
 30
0.0
 11
15.96108807845684
 21
7.670209146855838
 31
0.0
  0
LINE
  5
A3C03
330
A3BBC
100
AcDbEntity
  8
0
  6
CONTINUOUS
100
AcDbLine
 10
17.15749871150789
 20
7.147317722884972
 30
0.0
 11
16.14511724952029
 21
8.15969918487257
 31
0.0
  0
LINE
  5
A3C04
330
A3BBC
100
AcDbEntity
  8
0
  6
CONTINUOUS
100
AcDbLine
 10
16.751727645058
 20
8.226607998415046
 30
0.0
 11
16.32914642058374
 21
8.649189222889303
 31
0.0
  0
LINE
  5
A3C05
330
A3BBC
100
AcDbEntity
  8
0
  6
CONTINUOUS
100
AcDbLine
 10
20.75421273580989
 20
4.897642116743345
 30
0.0
 11
19.70536790264086
 21
5.946486949912374
 31
0.0
  0
LINE
  5
A3C06
330
A3BBC
100
AcDbEntity
  8
0
  6
CONTINUOUS
100
AcDbLine
 10
20.95379348658502
 20
5.371580575048398
 30
0.0
 11
19.90489241027246
 21
6.42048165136096
 31
0.0
  0
LINE
  5
A3C07
330
A3BBC
100
AcDbEntity
  8
0
  6
CONTINUOUS
100
AcDbLine
 10
21.15337423736015
 20
5.845519033353452
 30
0.0
 11
20.10441691790406
 21
6.894476352809547
 31
0.0
  0
LINE
  5
A3C08
330
A3BBC
100
AcDbEntity
  8
0
  6
CONTINUOUS
100
AcDbLine
 10
21.35295498813529
 20
6.319457491658505
 30
0.0
 11
20.30394142553566
 21
7.368471054258134
 31
0.0
  0
LINE
  5
A3C09
330
A3BBC
100
AcDbEntity
  8
0
  6
CONTINUOUS
100
AcDbLine
 10
21.55253573891042
 20
6.793395949963558
 30
0.0
 11
20.50346593316726
 21
7.842465755706721
 31
0.0
  0
LINE
  5
A3C0A
330
A3BBC
100
AcDbEntity
  8
0
  6
CONTINUOUS
100
AcDbLine
 10
21.75211648968556
 20
7.267334408268612
 30
0.0
 11
20.70299044079886
 21
8.316460457155308
 31
0.0
  0
LINE
  5
A3C0B
330
A3BBC
100
AcDbEntity
  8
0
  6
CONTINUOUS
100
AcDbLine
 10
21.95169724046069
 20
7.741272866573663
 30
0.0
 11
20.9298701070431
 21
8.763099999991256
 31
0.0
  0
LINE
  5
A3C0C
330
A3BBC
100
AcDbEntity
  8
0
  6
CONTINUOUS
100
AcDbLine
 10
22.15127799123582
 20
8.215211324878716
 30
0.0
 11
21.60338931612328
 21
8.763099999991256
 31
0.0
  0
LINE
  5
A3C0D
330
A3BBC
100
AcDbEntity
  8
0
  6
CONTINUOUS
100
AcDbLine
 10
22.35085874201096
 20
8.689149783183769
 30
0.0
 11
22.27690852520347
 21
8.763099999991255
 31
0.0
  0
ENDBLK
  5
A3CFF
330
A3BBC
100
AcDbEntity
  8
0
100
AcDbBlockEnd
  0
BLOCK
  5
A3D00
330
A3C0E
100
AcDbEntity
  8
0
100
AcDbBlockBegin
  2
*X20
 70
     1
 10
0.0
 20
0.0
 30
0.0
  3
*X20
  1

  0
LINE
  5
A3C0F
330
A3C0E
100
AcDbEntity
  8
0
  6
CONTINUOUS
100
AcDbLine
 10
23.19462913593892
 20
8.169917934846424
 30
0.0
 11
23.70775465517246
 21
8.683043454079957
 31
0.0
  0
LINE
  5
A3C10
330
A3C0E
100
AcDbEntity
  8
0
  6
CONTINUOUS
100
AcDbLine
 10
22.64923161835078
 20
6.951001208178088
 30
0.0
 11
23.9159364069932
 21
8.217705996820516
 31
0.0
  0
LINE
  5
A3C11
330
A3C0E
100
AcDbEntity
  8
0
  6
CONTINUOUS
100
AcDbLine
 10
22.10383410076263
 20
5.732084481509751
 30
0.0
 11
24.12411815881395
 21
7.752368539561078
 31
0.0
  0
LINE
  5
A3C12
330
A3C0E
100
AcDbEntity
  8
0
  6
CONTINUOUS
100
AcDbLine
 10
21.55843658317447
 20
4.513167754841414
 30
0.0
 11
24.3322999106347
 21
7.287031082301639
 31
0.0
  0
LINE
  5
A3C13
330
A3C0E
100
AcDbEntity
  8
0
  6
CONTINUOUS
100
AcDbLine
 10
21.01303906558632
 20
3.294251028173077
 30
0.0
 11
24.54048166245544
 21
6.821693625042199
 31
0.0
  0
LINE
  5
A3C14
330
A3C0E
100
AcDbEntity
  8
0
  6
CONTINUOUS
100
AcDbLine
 10
20.46764154799817
 20
2.075334301504738
 30
0.0
 11
23.28571549467848
 21
4.89340824818505
 31
0.0
  0
LINE
  5
A3C15
330
A3C0E
100
AcDbEntity
  8
0
  6
CONTINUOUS
100
AcDbLine
 10
19.92224403041002
 20
0.8564175748364002
 30
0.0
 11
22.74075865492779
 21
3.674932199354171
 31
0.0
  0
LINE
  5
A3C16
330
A3C0E
100
AcDbEntity
  8
0
  6
CONTINUOUS
100
AcDbLine
 10
23.67305085490148
 20
5.280743608408048
 30
0.0
 11
24.74866341427619
 21
6.356356167782759
 31
0.0
  0
LINE
  5
A3C17
330
A3C0E
100
AcDbEntity
  8
0
  6
CONTINUOUS
100
AcDbLine
 10
23.88118970842314
 20
4.815363252849522
 30
0.0
 11
24.95684516609694
 21
5.89101871052332
 31
0.0
  0
LINE
  5
A3C18
330
A3C0E
100
AcDbEntity
  8
0
  6
CONTINUOUS
100
AcDbLine
 10
19.73925852647308
 20
-0.0000871381807288
 30
0.0
 11
23.4103456646501
 21
3.670999999996297
 31
0.0
  0
LINE
  5
A3C19
330
A3C0E
100
AcDbEntity
  8
0
  6
CONTINUOUS
100
AcDbLine
 10
24.0893285619448
 20
4.349982897290997
 30
0.0
 11
25.16502691791769
 21
5.42568125326388
 31
0.0
  0
LINE
  5
A3C1A
330
A3C0E
100
AcDbEntity
  8
0
  6
CONTINUOUS
100
AcDbLine
 10
20.41282099582748
 20
-0.0000438779065108
 30
0.0
 11
21.64944178675636
 21
1.236576913022366
 31
0.0
  0
LINE
  5
A3C1B
330
A3C0E
100
AcDbEntity
  8
0
  6
CONTINUOUS
100
AcDbLine
 10
22.78126487373161
 20
2.36839999999762
 30
0.0
 11
24.08386487373029
 21
3.670999999996297
 31
0.0
  0
LINE
  5
A3C1C
330
A3C0E
100
AcDbEntity
  8
0
  6
CONTINUOUS
100
AcDbLine
 10
24.29746741546646
 20
3.884602541732471
 30
0.0
 11
25.37320866973843
 21
4.960343796004441
 31
0.0
  0
LINE
  5
A3C1D
330
A3C0E
100
AcDbEntity
  8
0
  6
CONTINUOUS
100
AcDbLine
 10
21.08638346518189
 20
-0.0000006176322938
 30
0.0
 11
21.10379033335899
 21
0.0174062505448083
 31
0.0
  0
LINE
  5
A3C1E
330
A3C0E
100
AcDbEntity
  8
0
  6
CONTINUOUS
100
AcDbLine
 10
23.4547840828118
 20
2.36839999999762
 30
0.0
 11
25.58139042155918
 21
4.495006338745002
 31
0.0
  0
LINE
  5
A3C1F
330
A3C0E
100
AcDbEntity
  8
0
  6
CONTINUOUS
100
AcDbLine
 10
29.30199999996933
 20
8.215615917155148
 30
0.0
 11
29.84948408280543
 21
8.763099999991255
 31
0.0
  0
LINE
  5
A3C20
330
A3C0E
100
AcDbEntity
  8
0
  6
CONTINUOUS
100
AcDbLine
 10
24.12830329189199
 20
2.36839999999762
 30
0.0
 11
25.78957217337993
 21
4.029668881485562
 31
0.0
  0
LINE
  5
A3C21
330
A3C0E
100
AcDbEntity
  8
0
  6
CONTINUOUS
100
AcDbLine
 10
29.30199999996933
 20
7.54209670807496
 30
0.0
 11
30.52300329188562
 21
8.763099999991255
 31
0.0
  0
LINE
  5
A3C22
330
A3C0E
100
AcDbEntity
  8
0
  6
CONTINUOUS
100
AcDbLine
 10
24.80182250097217
 20
2.36839999999762
 30
0.0
 11
25.99775392520067
 21
3.564331424226122
 31
0.0
  0
LINE
  5
A3C23
330
A3C0E
100
AcDbEntity
  8
0
  6
CONTINUOUS
100
AcDbLine
 10
29.30199999996933
 20
6.868577498994774
 30
0.0
 11
30.74199999996926
 21
8.308577498994712
 31
0.0
  0
LINE
  5
A3C24
330
A3C0E
100
AcDbEntity
  8
0
  6
CONTINUOUS
100
AcDbLine
 10
25.13028238392013
 20
2.023340673865392
 30
0.0
 11
26.20593567702142
 21
3.098993966966683
 31
0.0
  0
LINE
  5
A3C25
330
A3C0E
100
AcDbEntity
  8
0
  6
CONTINUOUS
100
AcDbLine
 10
25.33838066033617
 20
1.557919741201244
 30
0.0
 11
26.41411742884217
 21
2.633656509707244
 31
0.0
  0
LINE
  5
A3C26
330
A3C0E
100
AcDbEntity
  8
0
  6
CONTINUOUS
100
AcDbLine
 10
25.54647893675221
 20
1.092498808537098
 30
0.0
 11
26.62229918066291
 21
2.168319052447804
 31
0.0
  0
LINE
  5
A3C27
330
A3C0E
100
AcDbEntity
  8
0
  6
CONTINUOUS
100
AcDbLine
 10
25.75457721316825
 20
0.62707787587295
 30
0.0
 11
26.83048093248366
 21
1.702981595188365
 31
0.0
  0
LINE
  5
A3C28
330
A3C0E
100
AcDbEntity
  8
0
  6
CONTINUOUS
100
AcDbLine
 10
29.30199999996933
 20
6.195058289914587
 30
0.0
 11
30.74199999996926
 21
7.635058289914522
 31
0.0
  0
LINE
  5
A3C29
330
A3C0E
100
AcDbEntity
  8
0
  6
CONTINUOUS
100
AcDbLine
 10
29.30199999996933
 20
5.521539080834401
 30
0.0
 11
30.74199999996926
 21
6.961539080834331
 31
0.0
  0
LINE
  5
A3C2A
330
A3C0E
100
AcDbEntity
  8
0
  6
CONTINUOUS
100
AcDbLine
 10
29.30199999996933
 20
4.848019871754214
 30
0.0
 11
30.74199999996925
 21
6.288019871754143
 31
0.0
  0
LINE
  5
A3C2B
330
A3C0E
100
AcDbEntity
  8
0
  6
CONTINUOUS
100
AcDbLine
 10
29.30199999996933
 20
4.174500662674028
 30
0.0
 11
30.74199999996925
 21
5.614500662673953
 31
0.0
  0
LINE
  5
A3C2C
330
A3C0E
100
AcDbEntity
  8
0
  6
CONTINUOUS
100
AcDbLine
 10
25.96267548958429
 20
0.1616569432088024
 30
0.0
 11
27.18411854636669
 21
1.383099999991207
 31
0.0
  0
LINE
  5
A3C2D
330
A3C0E
100
AcDbEntity
  8
0
  6
CONTINUOUS
100
AcDbLine
 10
29.30199999996933
 20
3.500981453593841
 30
0.0
 11
30.74199999996925
 21
4.940981453593762
 31
0.0
  0
LINE
  5
A3C2E
330
A3C0E
100
AcDbEntity
  8
0
  6
CONTINUOUS
100
AcDbLine
 10
26.50763775544691
 20
0.0330999999912356
 30
0.0
 11
27.85763775544689
 21
1.383099999991223
 31
0.0
  0
LINE
  5
A3C2F
330
A3C0E
100
AcDbEntity
  8
0
  6
CONTINUOUS
100
AcDbLine
 10
29.30199999996933
 20
2.827462244513656
 30
0.0
 11
30.74199999996925
 21
4.267462244513574
 31
0.0
  0
LINE
  5
A3C30
330
A3C0E
100
AcDbEntity
  8
0
  6
CONTINUOUS
100
AcDbLine
 10
27.18115696452709
 20
0.0330999999912356
 30
0.0
 11
28.57843169463094
 21
1.430374730095086
 31
0.0
  0
LINE
  5
A3C31
330
A3C0E
100
AcDbEntity
  8
0
  6
CONTINUOUS
100
AcDbLine
 10
29.2547252698654
 20
2.106668305329547
 30
0.0
 11
30.74199999996924
 21
3.593943035433384
 31
0.0
  0
LINE
  5
A3C32
330
A3C0E
100
AcDbEntity
  8
0
  6
CONTINUOUS
100
AcDbLine
 10
27.85467617360728
 20
0.0330999999912356
 30
0.0
 11
30.74199999996924
 21
2.920423826353195
 31
0.0
  0
LINE
  5
A3C33
330
A3C0E
100
AcDbEntity
  8
0
  6
CONTINUOUS
100
AcDbLine
 10
28.55194421293851
 20
0.0568488302422763
 30
0.0
 11
30.71825116971818
 21
2.223155787021951
 31
0.0
  0
LINE
  5
A3C34
330
A3C0E
100
AcDbEntity
  8
0
  6
CONTINUOUS
100
AcDbLine
 10
29.51480923620385
 20
0.346194644427432
 30
0.0
 11
30.42890535553301
 21
1.260290763756593
 31
0.0
  0
LINE
  5
A3C35
330
A3C0E
100
AcDbEntity
  8
0
  6
CONTINUOUS
100
AcDbLine
 10
19.59027867740337
 20
-0.0000967065718083
 30
0.0
 11
19.55485265190471
 21
0.035329318926844
 31
0.0
  0
LINE
  5
A3C36
330
A3C0E
100
AcDbEntity
  8
0
  6
CONTINUOUS
100
AcDbLine
 10
20.26375463176586
 20
-0.0000534518541091
 30
0.0
 11
19.76305575737534
 21
0.5006454225364014
 31
0.0
  0
LINE
  5
A3C37
330
A3C0E
100
AcDbEntity
  8
0
  6
CONTINUOUS
100
AcDbLine
 10
20.93723058612834
 20
-0.0000101971364099
 30
0.0
 11
19.97125886284597
 21
0.965961526145958
 31
0.0
  0
LINE
  5
A3C38
330
A3C0E
100
AcDbEntity
  8
0
  6
CONTINUOUS
100
AcDbLine
 10
21.25514828313686
 20
0.355591314935257
 30
0.0
 11
20.1794619683166
 21
1.431277629755512
 31
0.0
  0
LINE
  5
A3C39
330
A3C0E
100
AcDbEntity
  8
0
  6
CONTINUOUS
100
AcDbLine
 10
21.46338838394921
 20
0.8208704232030986
 30
0.0
 11
20.38766507378723
 21
1.896593733365069
 31
0.0
  0
LINE
  5
A3C3A
330
A3C0E
100
AcDbEntity
  8
0
  6
CONTINUOUS
100
AcDbLine
 10
21.67162848476155
 20
1.28614953147094
 30
0.0
 11
20.59586817925786
 21
2.361909836974626
 31
0.0
  0
LINE
  5
A3C3B
330
A3C0E
100
AcDbEntity
  8
0
  6
CONTINUOUS
100
AcDbLine
 10
21.8798685855739
 20
1.751428639738782
 30
0.0
 11
20.80407128472849
 21
2.827225940584183
 31
0.0
  0
LINE
  5
A3C3C
330
A3C0E
100
AcDbEntity
  8
0
  6
CONTINUOUS
100
AcDbLine
 10
22.08810868638624
 20
2.216707748006623
 30
0.0
 11
21.01227439019912
 21
3.292542044193739
 31
0.0
  0
LINE
  5
A3C3D
330
A3C0E
100
AcDbEntity
  8
0
  6
CONTINUOUS
100
AcDbLine
 10
22.60993564347543
 20
2.36839999999762
 30
0.0
 11
21.22047749566975
 21
3.757858147803296
 31
0.0
  0
LINE
  5
A3C3E
330
A3C0E
100
AcDbEntity
  8
0
  6
CONTINUOUS
100
AcDbLine
 10
23.28345485255561
 20
2.36839999999762
 30
0.0
 11
21.42868060114038
 21
4.223174251412853
 31
0.0
  0
LINE
  5
A3C3F
330
A3C0E
100
AcDbEntity
  8
0
  6
CONTINUOUS
100
AcDbLine
 10
26.29227406164219
 20
0.0330999999912356
 30
0.0
 11
25.80009199592872
 21
0.5252820657046957
 31
0.0
  0
LINE
  5
A3C40
330
A3C0E
100
AcDbEntity
  8
0
  6
CONTINUOUS
100
AcDbLine
 10
23.9569740616358
 20
2.36839999999762
 30
0.0
 11
21.63688370661101
 21
4.688490355022409
 31
0.0
  0
LINE
  5
A3C41
330
A3C0E
100
AcDbEntity
  8
0
  6
CONTINUOUS
100
AcDbLine
 10
26.96579327072237
 20
0.0330999999912356
 30
0.0
 11
25.2554132311971
 21
1.743480039516508
 31
0.0
  0
LINE
  5
A3C42
330
A3C0E
100
AcDbEntity
  8
0
  6
CONTINUOUS
100
AcDbLine
 10
24.63049327071599
 20
2.36839999999762
 30
0.0
 11
23.32789327071731
 21
3.670999999996297
 31
0.0
  0
LINE
  5
A3C43
330
A3C0E
100
AcDbEntity
  8
0
  6
CONTINUOUS
100
AcDbLine
 10
22.92098674744635
 20
4.077906523267254
 30
0.0
 11
21.84508681208164
 21
5.153806458631966
 31
0.0
  0
LINE
  5
A3C44
330
A3C0E
100
AcDbEntity
  8
0
  6
CONTINUOUS
100
AcDbLine
 10
27.63931247980256
 20
0.0330999999912356
 30
0.0
 11
24.0014124797975
 21
3.670999999996297
 31
0.0
  0
LINE
  5
A3C45
330
A3C0E
100
AcDbEntity
  8
0
  6
CONTINUOUS
100
AcDbLine
 10
23.129125600968
 20
4.5432868788258
 30
0.0
 11
22.05328991755227
 21
5.619122562241522
 31
0.0
  0
LINE
  5
A3C46
330
A3C0E
100
AcDbEntity
  8
0
  6
CONTINUOUS
100
AcDbLine
 10
28.31283168888275
 20
0.0330999999912356
 30
0.0
 11
24.16488385994816
 21
4.181047828925828
 31
0.0
  0
LINE
  5
A3C47
330
A3C0E
100
AcDbEntity
  8
0
  6
CONTINUOUS
100
AcDbLine
 10
23.33726445448964
 20
5.008667234384345
 30
0.0
 11
22.2614930230229
 21
6.084438665851079
 31
0.0
  0
LINE
  5
A3C48
330
A3C0E
100
AcDbEntity
  8
0
  6
CONTINUOUS
100
AcDbLine
 10
28.90645333830136
 20
0.1129975596528112
 30
0.0
 11
27.63635089796295
 21
1.383099999991217
 31
0.0
  0
LINE
  5
A3C49
330
A3C0E
100
AcDbEntity
  8
0
  6
CONTINUOUS
100
AcDbLine
 10
26.43704649509776
 20
2.582404402856405
 30
0.0
 11
23.61992702019732
 21
5.399523877756844
 31
0.0
  0
LINE
  5
A3C4A
330
A3C0E
100
AcDbEntity
  8
0
  6
CONTINUOUS
100
AcDbLine
 10
23.54540330801128
 20
5.47404758994289
 30
0.0
 11
22.46969612849353
 21
6.549754769460635
 31
0.0
  0
LINE
  5
A3C4B
330
A3C0E
100
AcDbEntity
  8
0
  6
CONTINUOUS
100
AcDbLine
 10
29.40349360806839
 20
0.2894764989659606
 30
0.0
 11
28.30987010704312
 21
1.383099999991234
 31
0.0
  0
LINE
  5
A3C4C
330
A3C0E
100
AcDbEntity
  8
0
  6
CONTINUOUS
100
AcDbLine
 10
25.89179548232307
 20
3.801174624711282
 30
0.0
 11
22.67789923396416
 21
7.015070873070191
 31
0.0
  0
LINE
  5
A3C4D
330
A3C0E
100
AcDbEntity
  8
0
  6
CONTINUOUS
100
AcDbLine
 10
29.83195328664716
 20
0.5345360294673855
 30
0.0
 11
28.85740608974929
 21
1.50908322636525
 31
0.0
  0
LINE
  5
A3C4E
330
A3C0E
100
AcDbEntity
  8
0
  6
CONTINUOUS
100
AcDbLine
 10
25.34654446954838
 20
5.01994484656616
 30
0.0
 11
22.88610233943479
 21
7.480386976679748
 31
0.0
  0
LINE
  5
A3C4F
330
A3C0E
100
AcDbEntity
  8
0
  6
CONTINUOUS
100
AcDbLine
 10
30.16871289118725
 20
0.8712956340074771
 30
0.0
 11
29.18680861743091
 21
1.853199907763824
 31
0.0
  0
LINE
  5
A3C50
330
A3C0E
100
AcDbEntity
  8
0
  6
CONTINUOUS
100
AcDbLine
 10
24.80129345677369
 20
6.238715068421037
 30
0.0
 11
23.09430544490542
 21
7.945703080289305
 31
0.0
  0
LINE
  5
A3C51
330
A3C0E
100
AcDbEntity
  8
0
  6
CONTINUOUS
100
AcDbLine
 10
30.43711825255073
 20
1.276409481724182
 30
0.0
 11
29.30199999996933
 21
2.411527734305588
 31
0.0
  0
LINE
  5
A3C52
330
A3C0E
100
AcDbEntity
  8
0
  6
CONTINUOUS
100
AcDbLine
 10
24.256042443999
 20
7.457485290275915
 30
0.0
 11
23.30250855037605
 21
8.411019183898862
 31
0.0
  0
LINE
  5
A3C53
330
A3C0E
100
AcDbEntity
  8
0
  6
CONTINUOUS
100
AcDbLine
 10
30.6424542258006
 20
1.744592717554502
 30
0.0
 11
29.30199999996933
 21
3.085046943385775
 31
0.0
  0
LINE
  5
A3C54
330
A3C0E
100
AcDbEntity
  8
0
  6
CONTINUOUS
100
AcDbLine
 10
23.71079143122431
 20
8.676255512130794
 30
0.0
 11
23.51071165584668
 21
8.876335287508416
 31
0.0
  0
LINE
  5
A3C55
330
A3C0E
100
AcDbEntity
  8
0
  6
CONTINUOUS
100
AcDbLine
 10
30.73454365592805
 20
2.326022496507238
 30
0.0
 11
29.30199999996933
 21
3.758566152465961
 31
0.0
  0
LINE
  5
A3C56
330
A3C0E
100
AcDbEntity
  8
0
  6
CONTINUOUS
100
AcDbLine
 10
30.74199999996924
 20
2.992085361546236
 30
0.0
 11
29.30199999996933
 21
4.432085361546148
 31
0.0
  0
LINE
  5
A3C57
330
A3C0E
100
AcDbEntity
  8
0
  6
CONTINUOUS
100
AcDbLine
 10
30.74199999996924
 20
3.665604570626419
 30
0.0
 11
29.30199999996933
 21
5.105604570626333
 31
0.0
  0
LINE
  5
A3C58
330
A3C0E
100
AcDbEntity
  8
0
  6
CONTINUOUS
100
AcDbLine
 10
30.74199999996925
 20
4.339123779706602
 30
0.0
 11
29.30199999996933
 21
5.77912377970652
 31
0.0
  0
LINE
  5
A3C59
330
A3C0E
100
AcDbEntity
  8
0
  6
CONTINUOUS
100
AcDbLine
 10
30.74199999996925
 20
5.012642988786785
 30
0.0
 11
29.30199999996933
 21
6.452642988786707
 31
0.0
  0
LINE
  5
A3C5A
330
A3C0E
100
AcDbEntity
  8
0
  6
CONTINUOUS
100
AcDbLine
 10
30.74199999996925
 20
5.68616219786697
 30
0.0
 11
29.30199999996933
 21
7.126162197866894
 31
0.0
  0
LINE
  5
A3C5B
330
A3C0E
100
AcDbEntity
  8
0
  6
CONTINUOUS
100
AcDbLine
 10
30.74199999996925
 20
6.359681406947153
 30
0.0
 11
29.30199999996933
 21
7.799681406947081
 31
0.0
  0
LINE
  5
A3C5C
330
A3C0E
100
AcDbEntity
  8
0
  6
CONTINUOUS
100
AcDbLine
 10
30.74199999996926
 20
7.033200616027337
 30
0.0
 11
29.30199999996933
 21
8.473200616027269
 31
0.0
  0
LINE
  5
A3C5D
330
A3C0E
100
AcDbEntity
  8
0
  6
CONTINUOUS
100
AcDbLine
 10
30.74199999996926
 20
7.706719825107518
 30
0.0
 11
29.68561982508552
 21
8.763099999991255
 31
0.0
  0
LINE
  5
A3C5E
330
A3C0E
100
AcDbEntity
  8
0
  6
CONTINUOUS
100
AcDbLine
 10
30.74199999996926
 20
8.380239034187703
 30
0.0
 11
30.35913903416571
 21
8.763099999991255
 31
0.0
  0
ENDBLK
  5
A3D01
330
A3C0E
100
AcDbEntity
  8
0
100
AcDbBlockEnd
  0
BLOCK
  5
A3D02
330
A3C5F
100
AcDbEntity
  8
0
100
AcDbBlockBegin
  2
*X21
 70
     1
 10
0.0
 20
0.0
 30
0.0
  3
*X21
  1

  0
LINE
  5
A3C60
330
A3C5F
100
AcDbEntity
  8
0
  6
CONTINUOUS
100
AcDbLine
 10
31.64199999996833
 20
8.5350582899136
 30
0.0
 11
31.87004171004599
 21
8.763099999991255
 31
0.0
  0
LINE
  5
A3C61
330
A3C5F
100
AcDbEntity
  8
0
  6
CONTINUOUS
100
AcDbLine
 10
31.64199999996833
 20
7.861539080833413
 30
0.0
 11
32.54356091912618
 21
8.763099999991255
 31
0.0
  0
LINE
  5
A3C62
330
A3C5F
100
AcDbEntity
  8
0
  6
CONTINUOUS
100
AcDbLine
 10
31.64199999996833
 20
7.188019871753227
 30
0.0
 11
33.08199999996839
 21
8.628019871753281
 31
0.0
  0
LINE
  5
A3C63
330
A3C5F
100
AcDbEntity
  8
0
  6
CONTINUOUS
100
AcDbLine
 10
31.64199999996833
 20
6.514500662673041
 30
0.0
 11
33.08199999996839
 21
7.954500662673095
 31
0.0
  0
LINE
  5
A3C64
330
A3C5F
100
AcDbEntity
  8
0
  6
CONTINUOUS
100
AcDbLine
 10
31.64199999996833
 20
5.840981453592855
 30
0.0
 11
33.08199999996839
 21
7.28098145359291
 31
0.0
  0
LINE
  5
A3C65
330
A3C5F
100
AcDbEntity
  8
0
  6
CONTINUOUS
100
AcDbLine
 10
31.64199999996833
 20
5.167462244512668
 30
0.0
 11
33.08199999996839
 21
6.607462244512723
 31
0.0
  0
LINE
  5
A3C66
330
A3C5F
100
AcDbEntity
  8
0
  6
CONTINUOUS
100
AcDbLine
 10
31.64199999996833
 20
4.493943035432482
 30
0.0
 11
33.08199999996839
 21
5.933943035432536
 31
0.0
  0
LINE
  5
A3C67
330
A3C5F
100
AcDbEntity
  8
0
  6
CONTINUOUS
100
AcDbLine
 10
31.64199999996833
 20
3.820423826352294
 30
0.0
 11
33.08199999996839
 21
5.260423826352349
 31
0.0
  0
LINE
  5
A3C68
330
A3C5F
100
AcDbEntity
  8
0
  6
CONTINUOUS
100
AcDbLine
 10
31.64199999996833
 20
3.146904617272108
 30
0.0
 11
33.08199999996839
 21
4.586904617272163
 31
0.0
  0
LINE
  5
A3C69
330
A3C5F
100
AcDbEntity
  8
0
  6
CONTINUOUS
100
AcDbLine
 10
36.23199999996837
 20
8.410423826352327
 30
0.0
 11
36.58467617360729
 21
8.763099999991255
 31
0.0
  0
LINE
  5
A3C6A
330
A3C5F
100
AcDbEntity
  8
0
  6
CONTINUOUS
100
AcDbLine
 10
36.23199999996837
 20
7.73690461727214
 30
0.0
 11
37.25819538268748
 21
8.763099999991255
 31
0.0
  0
LINE
  5
A3C6B
330
A3C5F
100
AcDbEntity
  8
0
  6
CONTINUOUS
100
AcDbLine
 10
31.64295791647285
 20
2.474343324696431
 30
0.0
 11
33.08199999996839
 21
3.913385408191976
 31
0.0
  0
LINE
  5
A3C6C
330
A3C5F
100
AcDbEntity
  8
0
  6
CONTINUOUS
100
AcDbLine
 10
31.72131278798881
 20
1.879178987132208
 30
0.0
 11
33.08199999996839
 21
3.239866199111789
 31
0.0
  0
LINE
  5
A3C6D
330
A3C5F
100
AcDbEntity
  8
0
  6
CONTINUOUS
100
AcDbLine
 10
36.23199999996837
 20
7.063385408191953
 30
0.0
 11
37.67199999996831
 21
8.503385408191894
 31
0.0
  0
LINE
  5
A3C6E
330
A3C5F
100
AcDbEntity
  8
0
  6
CONTINUOUS
100
AcDbLine
 10
36.23199999996837
 20
6.389866199111767
 30
0.0
 11
37.67199999996831
 21
7.829866199111708
 31
0.0
  0
LINE
  5
A3C6F
330
A3C5F
100
AcDbEntity
  8
0
  6
CONTINUOUS
100
AcDbLine
 10
31.90398109638795
 20
1.388328086451165
 30
0.0
 11
33.08199999996839
 21
2.566346990031603
 31
0.0
  0
LINE
  5
A3C70
330
A3C5F
100
AcDbEntity
  8
0
  6
CONTINUOUS
100
AcDbLine
 10
36.23199999996837
 20
5.71634699003158
 30
0.0
 11
37.67199999996831
 21
7.156346990031522
 31
0.0
  0
LINE
  5
A3C71
330
A3C5F
100
AcDbEntity
  8
0
  6
CONTINUOUS
100
AcDbLine
 10
32.15410588803598
 20
0.9649336690190076
 30
0.0
 11
33.19577568229511
 21
2.006603463278144
 31
0.0
  0
LINE
  5
A3C72
330
A3C5F
100
AcDbEntity
  8
0
  6
CONTINUOUS
100
AcDbLine
 10
36.23199999996837
 20
5.042827780951393
 30
0.0
 11
37.67199999996831
 21
6.482827780951334
 31
0.0
  0
LINE
  5
A3C73
330
A3C5F
100
AcDbEntity
  8
0
  6
CONTINUOUS
100
AcDbLine
 10
32.45868320364774
 20
0.5959917755505852
 30
0.0
 11
33.48433514284099
 21
1.621643714743831
 31
0.0
  0
LINE
  5
A3C74
330
A3C5F
100
AcDbEntity
  8
0
  6
CONTINUOUS
100
AcDbLine
 10
36.23199999996837
 20
4.369308571871207
 30
0.0
 11
37.67199999996831
 21
5.809308571871148
 31
0.0
  0
LINE
  5
A3C75
330
A3C5F
100
AcDbEntity
  8
0
  6
CONTINUOUS
100
AcDbLine
 10
32.83977805121244
 20
0.3035674140350983
 30
0.0
 11
33.9144983171802
 21
1.378287680002859
 31
0.0
  0
LINE
  5
A3C76
330
A3C5F
100
AcDbEntity
  8
0
  6
CONTINUOUS
100
AcDbLine
 10
36.23199999996837
 20
3.695789362791021
 30
0.0
 11
37.67199999996831
 21
5.135789362790963
 31
0.0
  0
LINE
  5
A3C77
330
A3C5F
100
AcDbEntity
  8
0
  6
CONTINUOUS
100
AcDbLine
 10
33.28925592101007
 20
0.0795260747525335
 30
0.0
 11
34.4429104952855
 21
1.233180649027971
 31
0.0
  0
LINE
  5
A3C78
330
A3C5F
100
AcDbEntity
  8
0
  6
CONTINUOUS
100
AcDbLine
 10
36.23199999996837
 20
3.022270153710834
 30
0.0
 11
37.67199999996831
 21
4.462270153710776
 31
0.0
  0
LINE
  5
A3C79
330
A3C5F
100
AcDbEntity
  8
0
  6
CONTINUOUS
100
AcDbLine
 10
33.76550592101022
 20
-0.1177431343275011
 30
0.0
 11
35.18258581678813
 21
1.299336761450407
 31
0.0
  0
LINE
  5
A3C7A
330
A3C5F
100
AcDbEntity
  8
0
  6
CONTINUOUS
100
AcDbLine
 10
36.20355631289775
 20
2.320307257560033
 30
0.0
 11
37.67199999996831
 21
3.788750944630589
 31
0.0
  0
LINE
  5
A3C7B
330
A3C5F
100
AcDbEntity
  8
0
  6
CONTINUOUS
100
AcDbLine
 10
34.35908899259119
 20
-0.1976792718267175
 30
0.0
 11
37.67199999996831
 21
3.115231735550402
 31
0.0
  0
LINE
  5
A3C7C
330
A3C5F
100
AcDbEntity
  8
0
  6
CONTINUOUS
100
AcDbLine
 10
35.04438808203069
 20
-0.1858993914674008
 30
0.0
 11
37.66594960818956
 21
2.435662134691464
 31
0.0
  0
LINE
  5
A3C7D
330
A3C5F
100
AcDbEntity
  8
0
  6
CONTINUOUS
100
AcDbLine
 10
35.95405053101277
 20
0.0502438484344916
 30
0.0
 11
37.49337557446166
 21
1.589568891883381
 31
0.0
  0
LINE
  5
A3C7E
330
A3C5F
100
AcDbEntity
  8
0
  6
CONTINUOUS
100
AcDbLine
 10
32.48400274193772
 20
0.5765634104975641
 30
0.0
 11
32.34694398754057
 21
0.7136221648947103
 31
0.0
  0
LINE
  5
A3C7F
330
A3C5F
100
AcDbEntity
  8
0
  6
CONTINUOUS
100
AcDbLine
 10
33.86697683926317
 20
-0.1328914777477044
 30
0.0
 11
31.70105830546678
 21
2.033027056048692
 31
0.0
  0
LINE
  5
A3C80
330
A3C5F
100
AcDbEntity
  8
0
  6
CONTINUOUS
100
AcDbLine
 10
34.64261010498837
 20
-0.2350055343927187
 30
0.0
 11
31.64199999996833
 21
2.765604570627322
 31
0.0
  0
LINE
  5
A3C81
330
A3C5F
100
AcDbEntity
  8
0
  6
CONTINUOUS
100
AcDbLine
 10
35.24112258276081
 20
-0.1599988030849646
 30
0.0
 11
31.64199999996833
 21
3.439123779707508
 31
0.0
  0
LINE
  5
A3C82
330
A3C5F
100
AcDbEntity
  8
0
  6
CONTINUOUS
100
AcDbLine
 10
35.777520339722
 20
-0.0228773509659694
 30
0.0
 11
34.52146233972803
 21
1.233180649027998
 31
0.0
  0
LINE
  5
A3C83
330
A3C5F
100
AcDbEntity
  8
0
  6
CONTINUOUS
100
AcDbLine
 10
33.08199999996839
 20
2.672642988787641
 30
0.0
 11
31.64199999996833
 21
4.112642988787695
 31
0.0
  0
LINE
  5
A3C84
330
A3C5F
100
AcDbEntity
  8
0
  6
CONTINUOUS
100
AcDbLine
 10
36.25377033972294
 20
0.1743918581132773
 30
0.0
 11
35.14317118804349
 21
1.284991009792725
 31
0.0
  0
LINE
  5
A3C85
330
A3C5F
100
AcDbEntity
  8
0
  6
CONTINUOUS
100
AcDbLine
 10
33.08199999996839
 20
3.346162197867827
 30
0.0
 11
31.64199999996833
 21
4.786162197867881
 31
0.0
  0
LINE
  5
A3C86
330
A3C5F
100
AcDbEntity
  8
0
  6
CONTINUOUS
100
AcDbLine
 10
36.65748856908375
 20
0.4441928378326456
 30
0.0
 11
35.63696437513804
 21
1.464717031778358
 31
0.0
  0
LINE
  5
A3C87
330
A3C5F
100
AcDbEntity
  8
0
  6
CONTINUOUS
100
AcDbLine
 10
33.08199999996839
 20
4.019681406948013
 30
0.0
 11
31.64199999996833
 21
5.459681406948068
 31
0.0
  0
LINE
  5
A3C88
330
A3C5F
100
AcDbEntity
  8
0
  6
CONTINUOUS
100
AcDbLine
 10
37.00809517418186
 20
0.7671054418147287
 30
0.0
 11
35.99025189342645
 21
1.784948722570141
 31
0.0
  0
LINE
  5
A3C89
330
A3C5F
100
AcDbEntity
  8
0
  6
CONTINUOUS
100
AcDbLine
 10
33.08199999996839
 20
4.6932006160282
 30
0.0
 11
31.64199999996833
 21
6.133200616028255
 31
0.0
  0
LINE
  5
A3C8A
330
A3C5F
100
AcDbEntity
  8
0
  6
CONTINUOUS
100
AcDbLine
 10
37.30051953569851
 20
1.148200289378269
 30
0.0
 11
36.19229254868971
 21
2.256427276387067
 31
0.0
  0
LINE
  5
A3C8B
330
A3C5F
100
AcDbEntity
  8
0
  6
CONTINUOUS
100
AcDbLine
 10
33.08199999996839
 20
5.366719825108387
 30
0.0
 11
31.64199999996833
 21
6.806719825108441
 31
0.0
  0
LINE
  5
A3C8C
330
A3C5F
100
AcDbEntity
  8
0
  6
CONTINUOUS
100
AcDbLine
 10
37.50488468691001
 20
1.617354347246954
 30
0.0
 11
36.23199999996837
 21
2.890239034188595
 31
0.0
  0
LINE
  5
A3C8D
330
A3C5F
100
AcDbEntity
  8
0
  6
CONTINUOUS
100
AcDbLine
 10
33.08199999996839
 20
6.040239034188573
 30
0.0
 11
31.64199999996833
 21
7.480239034188628
 31
0.0
  0
LINE
  5
A3C8E
330
A3C5F
100
AcDbEntity
  8
0
  6
CONTINUOUS
100
AcDbLine
 10
37.63036768068979
 20
2.165390562547355
 30
0.0
 11
36.23199999996837
 21
3.563758243268782
 31
0.0
  0
LINE
  5
A3C8F
330
A3C5F
100
AcDbEntity
  8
0
  6
CONTINUOUS
100
AcDbLine
 10
33.08199999996839
 20
6.713758243268759
 30
0.0
 11
31.64199999996833
 21
8.153758243268815
 31
0.0
  0
LINE
  5
A3C90
330
A3C5F
100
AcDbEntity
  8
0
  6
CONTINUOUS
100
AcDbLine
 10
37.67199999996831
 20
2.797277452349027
 30
0.0
 11
36.23199999996837
 21
4.237277452348969
 31
0.0
  0
LINE
  5
A3C91
330
A3C5F
100
AcDbEntity
  8
0
  6
CONTINUOUS
100
AcDbLine
 10
37.67199999996831
 20
3.470796661429214
 30
0.0
 11
36.23199999996837
 21
4.910796661429155
 31
0.0
  0
LINE
  5
A3C92
330
A3C5F
100
AcDbEntity
  8
0
  6
CONTINUOUS
100
AcDbLine
 10
37.67199999996831
 20
4.1443158705094
 30
0.0
 11
36.23199999996837
 21
5.584315870509341
 31
0.0
  0
LINE
  5
A3C93
330
A3C5F
100
AcDbEntity
  8
0
  6
CONTINUOUS
100
AcDbLine
 10
33.08199999996839
 20
7.387277452348947
 30
0.0
 11
31.70617745232608
 21
8.763099999991255
 31
0.0
  0
LINE
  5
A3C94
330
A3C5F
100
AcDbEntity
  8
0
  6
CONTINUOUS
100
AcDbLine
 10
33.08199999996839
 20
8.060796661429134
 30
0.0
 11
32.37969666140626
 21
8.763099999991255
 31
0.0
  0
LINE
  5
A3C95
330
A3C5F
100
AcDbEntity
  8
0
  6
CONTINUOUS
100
AcDbLine
 10
33.08199999996839
 20
8.73431587050932
 30
0.0
 11
33.05321587048645
 21
8.763099999991255
 31
0.0
  0
LINE
  5
A3C96
330
A3C5F
100
AcDbEntity
  8
0
  6
CONTINUOUS
100
AcDbLine
 10
37.67199999996831
 20
4.817835079589587
 30
0.0
 11
36.23199999996837
 21
6.257835079589528
 31
0.0
  0
LINE
  5
A3C97
330
A3C5F
100
AcDbEntity
  8
0
  6
CONTINUOUS
100
AcDbLine
 10
37.67199999996831
 20
5.491354288669773
 30
0.0
 11
36.23199999996837
 21
6.931354288669715
 31
0.0
  0
LINE
  5
A3C98
330
A3C5F
100
AcDbEntity
  8
0
  6
CONTINUOUS
100
AcDbLine
 10
37.67199999996831
 20
6.164873497749959
 30
0.0
 11
36.23199999996837
 21
7.6048734977499
 31
0.0
  0
LINE
  5
A3C99
330
A3C5F
100
AcDbEntity
  8
0
  6
CONTINUOUS
100
AcDbLine
 10
37.67199999996831
 20
6.838392706830145
 30
0.0
 11
36.23199999996837
 21
8.278392706830086
 31
0.0
  0
LINE
  5
A3C9A
330
A3C5F
100
AcDbEntity
  8
0
  6
CONTINUOUS
100
AcDbLine
 10
37.67199999996831
 20
7.511911915910333
 30
0.0
 11
36.42081191588738
 21
8.763099999991255
 31
0.0
  0
LINE
  5
A3C9B
330
A3C5F
100
AcDbEntity
  8
0
  6
CONTINUOUS
100
AcDbLine
 10
37.67199999996831
 20
8.18543112499052
 30
0.0
 11
37.09433112496757
 21
8.763099999991255
 31
0.0
  0
ENDBLK
  5
A3D03
330
A3C5F
100
AcDbEntity
  8
0
100
AcDbBlockEnd
  0
BLOCK
  5
A3D04
330
A3C9C
100
AcDbEntity
  8
0
100
AcDbBlockBegin
  2
*X22
 70
     1
 10
0.0
 20
0.0
 30
0.0
  3
*X22
  1

  0
LINE
  5
A3C9D
330
A3C9C
100
AcDbEntity
  8
0
  6
CONTINUOUS
100
AcDbLine
 10
38.60499999996136
 20
8.762866199104765
 30
0.0
 11
38.71672554182345
 21
8.874591740966855
 31
0.0
  0
LINE
  5
A3C9E
330
A3C9C
100
AcDbEntity
  8
0
  6
CONTINUOUS
100
AcDbLine
 10
38.60499999996136
 20
8.089346990024577
 30
0.0
 11
39.03418785440363
 21
8.518534844466847
 31
0.0
  0
LINE
  5
A3C9F
330
A3C9C
100
AcDbEntity
  8
0
  6
CONTINUOUS
100
AcDbLine
 10
38.60499999996136
 20
7.41582778094439
 30
0.0
 11
39.35165016698382
 21
8.16247794796684
 31
0.0
  0
LINE
  5
A3CA0
330
A3C9C
100
AcDbEntity
  8
0
  6
CONTINUOUS
100
AcDbLine
 10
38.60499999996136
 20
6.742308571864204
 30
0.0
 11
39.66911247956399
 21
7.806421051466834
 31
0.0
  0
LINE
  5
A3CA1
330
A3C9C
100
AcDbEntity
  8
0
  6
CONTINUOUS
100
AcDbLine
 10
38.60499999996136
 20
6.068789362784018
 30
0.0
 11
39.98657479214418
 21
7.450364154966827
 31
0.0
  0
LINE
  5
A3CA2
330
A3C9C
100
AcDbEntity
  8
0
  6
CONTINUOUS
100
AcDbLine
 10
38.60499999996136
 20
5.395270153703832
 30
0.0
 11
40.30403710472435
 21
7.09430725846682
 31
0.0
  0
LINE
  5
A3CA3
330
A3C9C
100
AcDbEntity
  8
0
  6
CONTINUOUS
100
AcDbLine
 10
38.60499999996136
 20
4.721750944623645
 30
0.0
 11
40.62149941730453
 21
6.738250361966813
 31
0.0
  0
LINE
  5
A3CA4
330
A3C9C
100
AcDbEntity
  8
0
  6
CONTINUOUS
100
AcDbLine
 10
38.60499999996136
 20
4.048231735543458
 30
0.0
 11
40.93896172988471
 21
6.382193465466806
 31
0.0
  0
LINE
  5
A3CA5
330
A3C9C
100
AcDbEntity
  8
0
  6
CONTINUOUS
100
AcDbLine
 10
38.60499999996136
 20
3.374712526463272
 30
0.0
 11
40.02599999995994
 21
4.795712526461843
 31
0.0
  0
LINE
  5
A3CA6
330
A3C9C
100
AcDbEntity
  8
0
  6
CONTINUOUS
100
AcDbLine
 10
38.60499999996136
 20
2.701193317383085
 30
0.0
 11
40.02599999995994
 21
4.122193317381657
 31
0.0
  0
LINE
  5
A3CA7
330
A3C9C
100
AcDbEntity
  8
0
  6
CONTINUOUS
100
AcDbLine
 10
40.28339754687704
 20
5.053110073378947
 30
0.0
 11
41.25642404246489
 21
6.026136568966799
 31
0.0
  0
LINE
  5
A3CA8
330
A3C9C
100
AcDbEntity
  8
0
  6
CONTINUOUS
100
AcDbLine
 10
40.60085985945722
 20
4.697053176878939
 30
0.0
 11
41.57388635504507
 21
5.670079672466793
 31
0.0
  0
LINE
  5
A3CA9
330
A3C9C
100
AcDbEntity
  8
0
  6
CONTINUOUS
100
AcDbLine
 10
43.57899999995641
 20
8.348712526458318
 30
0.0
 11
43.99338747348935
 21
8.763099999991255
 31
0.0
  0
LINE
  5
A3CAA
330
A3C9C
100
AcDbEntity
  8
0
  6
CONTINUOUS
100
AcDbLine
 10
43.57899999995641
 20
7.675193317378131
 30
0.0
 11
44.66690668256953
 21
8.763099999991255
 31
0.0
  0
LINE
  5
A3CAB
330
A3C9C
100
AcDbEntity
  8
0
  6
CONTINUOUS
100
AcDbLine
 10
38.60499999996136
 20
2.027674108302898
 30
0.0
 11
40.02599999995994
 21
3.44867410830147
 31
0.0
  0
LINE
  5
A3CAC
330
A3C9C
100
AcDbEntity
  8
0
  6
CONTINUOUS
100
AcDbLine
 10
38.60499999996136
 20
1.354154899222712
 30
0.0
 11
40.02599999995994
 21
2.775154899221284
 31
0.0
  0
LINE
  5
A3CAD
330
A3C9C
100
AcDbEntity
  8
0
  6
CONTINUOUS
100
AcDbLine
 10
38.60499999996136
 20
0.6806356901425255
 30
0.0
 11
40.02599999995994
 21
2.101635690141098
 31
0.0
  0
LINE
  5
A3CAE
330
A3C9C
100
AcDbEntity
  8
0
  6
CONTINUOUS
100
AcDbLine
 10
38.60499999996136
 20
0.0071164810623383
 30
0.0
 11
40.02599999995994
 21
1.428116481060911
 31
0.0
  0
LINE
  5
A3CAF
330
A3C9C
100
AcDbEntity
  8
0
  6
CONTINUOUS
100
AcDbLine
 10
40.9183221720374
 20
4.340996280378933
 30
0.0
 11
41.89134866762525
 21
5.314022775966786
 31
0.0
  0
LINE
  5
A3CB0
330
A3C9C
100
AcDbEntity
  8
0
  6
CONTINUOUS
100
AcDbLine
 10
41.23578448461758
 20
3.984939383878926
 30
0.0
 11
42.20881098020543
 21
4.957965879466778
 31
0.0
  0
LINE
  5
A3CB1
330
A3C9C
100
AcDbEntity
  8
0
  6
CONTINUOUS
100
AcDbLine
 10
41.55324679719776
 20
3.628882487378919
 30
0.0
 11
42.52627329278561
 21
4.601908982966772
 31
0.0
  0
LINE
  5
A3CB2
330
A3C9C
100
AcDbEntity
  8
0
  6
CONTINUOUS
100
AcDbLine
 10
41.87070910977793
 20
3.272825590878912
 30
0.0
 11
42.84373560536579
 21
4.245852086466765
 31
0.0
  0
LINE
  5
A3CB3
330
A3C9C
100
AcDbEntity
  8
0
  6
CONTINUOUS
100
AcDbLine
 10
43.57899999995641
 20
7.001674108297943
 30
0.0
 11
44.99999999995498
 21
8.422674108296516
 31
0.0
  0
LINE
  5
A3CB4
330
A3C9C
100
AcDbEntity
  8
0
  6
CONTINUOUS
100
AcDbLine
 10
43.57899999995641
 20
6.328154899217758
 30
0.0
 11
44.99999999995498
 21
7.749154899216329
 31
0.0
  0
LINE
  5
A3CB5
330
A3C9C
100
AcDbEntity
  8
0
  6
CONTINUOUS
100
AcDbLine
 10
43.57899999995641
 20
5.654635690137571
 30
0.0
 11
44.99999999995498
 21
7.075635690136142
 31
0.0
  0
LINE
  5
A3CB6
330
A3C9C
100
AcDbEntity
  8
0
  6
CONTINUOUS
100
AcDbLine
 10
43.57899999995641
 20
4.981116481057384
 30
0.0
 11
44.99999999995498
 21
6.402116481055955
 31
0.0
  0
LINE
  5
A3CB7
330
A3C9C
100
AcDbEntity
  8
0
  6
CONTINUOUS
100
AcDbLine
 10
39.27140272797921
 20
-0.0000000000000009
 30
0.0
 11
40.02599999995994
 21
0.7545972719807246
 31
0.0
  0
LINE
  5
A3CB8
330
A3C9C
100
AcDbEntity
  8
0
  6
CONTINUOUS
100
AcDbLine
 10
39.9449219370594
 20
-0.0000000000000009
 30
0.0
 11
40.02599999995994
 21
0.0810780629005379
 31
0.0
  0
LINE
  5
A3CB9
330
A3C9C
100
AcDbEntity
  8
0
  6
CONTINUOUS
100
AcDbLine
 10
42.18817142235812
 20
2.916768694378905
 30
0.0
 11
43.16119791794597
 21
3.889795189966758
 31
0.0
  0
LINE
  5
A3CBA
330
A3C9C
100
AcDbEntity
  8
0
  6
CONTINUOUS
100
AcDbLine
 10
42.50563373493829
 20
2.560711797878898
 30
0.0
 11
43.47866023052615
 21
3.533738293466751
 31
0.0
  0
LINE
  5
A3CBB
330
A3C9C
100
AcDbEntity
  8
0
  6
CONTINUOUS
100
AcDbLine
 10
43.57899999995641
 20
4.307597271977198
 30
0.0
 11
44.99999999995498
 21
5.728597271975769
 31
0.0
  0
LINE
  5
A3CBC
330
A3C9C
100
AcDbEntity
  8
0
  6
CONTINUOUS
100
AcDbLine
 10
43.57899999995641
 20
3.634078062897011
 30
0.0
 11
44.99999999995498
 21
5.055078062895582
 31
0.0
  0
LINE
  5
A3CBD
330
A3C9C
100
AcDbEntity
  8
0
  6
CONTINUOUS
100
AcDbLine
 10
42.82309604751848
 20
2.204654901378891
 30
0.0
 11
44.99999999995498
 21
4.381558853815395
 31
0.0
  0
LINE
  5
A3CBE
330
A3C9C
100
AcDbEntity
  8
0
  6
CONTINUOUS
100
AcDbLine
 10
43.14055836009865
 20
1.848598004878885
 30
0.0
 11
44.99999999995498
 21
3.70803964473521
 31
0.0
  0
LINE
  5
A3CBF
330
A3C9C
100
AcDbEntity
  8
0
  6
CONTINUOUS
100
AcDbLine
 10
43.45802067267883
 20
1.492541108378878
 30
0.0
 11
44.99999999995498
 21
3.034520435655023
 31
0.0
  0
LINE
  5
A3CC0
330
A3C9C
100
AcDbEntity
  8
0
  6
CONTINUOUS
100
AcDbLine
 10
43.77548298525902
 20
1.136484211878871
 30
0.0
 11
44.99999999995498
 21
2.361001226574837
 31
0.0
  0
LINE
  5
A3CC1
330
A3C9C
100
AcDbEntity
  8
0
  6
CONTINUOUS
100
AcDbLine
 10
44.09294529783919
 20
0.7804273153788639
 30
0.0
 11
44.99999999995498
 21
1.687482017494649
 31
0.0
  0
LINE
  5
A3CC2
330
A3C9C
100
AcDbEntity
  8
0
  6
CONTINUOUS
100
AcDbLine
 10
44.41040761041938
 20
0.4243704188788566
 30
0.0
 11
44.99999999995498
 21
1.013962808414463
 31
0.0
  0
LINE
  5
A3CC3
330
A3C9C
100
AcDbEntity
  8
0
  6
CONTINUOUS
100
AcDbLine
 10
44.72786992299955
 20
0.0683135223788494
 30
0.0
 11
44.99999999995498
 21
0.340443599334276
 31
0.0
  0
LINE
  5
A3CC4
330
A3C9C
100
AcDbEntity
  8
0
  6
CONTINUOUS
100
AcDbLine
 10
39.12223903415696
 20
-0.0000000000000009
 30
0.0
 11
38.60499999996136
 21
0.5172390341955961
 31
0.0
  0
LINE
  5
A3CC5
330
A3C9C
100
AcDbEntity
  8
0
  6
CONTINUOUS
100
AcDbLine
 10
39.79575824323715
 20
-0.0000000000000009
 30
0.0
 11
38.60499999996136
 21
1.190758243275783
 31
0.0
  0
LINE
  5
A3CC6
330
A3C9C
100
AcDbEntity
  8
0
  6
CONTINUOUS
100
AcDbLine
 10
40.02599999995994
 20
0.443277452357397
 30
0.0
 11
38.60499999996136
 21
1.864277452355969
 31
0.0
  0
LINE
  5
A3CC7
330
A3C9C
100
AcDbEntity
  8
0
  6
CONTINUOUS
100
AcDbLine
 10
40.02599999995994
 20
1.116796661437583
 30
0.0
 11
38.60499999996136
 21
2.537796661436155
 31
0.0
  0
LINE
  5
A3CC8
330
A3C9C
100
AcDbEntity
  8
0
  6
CONTINUOUS
100
AcDbLine
 10
40.02599999995994
 20
1.79031587051777
 30
0.0
 11
38.60499999996136
 21
3.211315870516341
 31
0.0
  0
LINE
  5
A3CC9
330
A3C9C
100
AcDbEntity
  8
0
  6
CONTINUOUS
100
AcDbLine
 10
40.02599999995994
 20
2.463835079597956
 30
0.0
 11
38.60499999996136
 21
3.884835079596527
 31
0.0
  0
LINE
  5
A3CCA
330
A3C9C
100
AcDbEntity
  8
0
  6
CONTINUOUS
100
AcDbLine
 10
40.02599999995994
 20
3.137354288678143
 30
0.0
 11
38.60499999996136
 21
4.558354288676714
 31
0.0
  0
LINE
  5
A3CCB
330
A3C9C
100
AcDbEntity
  8
0
  6
CONTINUOUS
100
AcDbLine
 10
40.02599999995994
 20
3.810873497758329
 30
0.0
 11
38.60499999996136
 21
5.2318734977569
 31
0.0
  0
LINE
  5
A3CCC
330
A3C9C
100
AcDbEntity
  8
0
  6
CONTINUOUS
100
AcDbLine
 10
40.02599999995994
 20
4.484392706838515
 30
0.0
 11
38.60499999996136
 21
5.905392706837086
 31
0.0
  0
LINE
  5
A3CCD
330
A3C9C
100
AcDbEntity
  8
0
  6
CONTINUOUS
100
AcDbLine
 10
44.99999999995498
 20
0.183911915923658
 30
0.0
 11
41.53858364506288
 21
3.64532827081576
 31
0.0
  0
LINE
  5
A3CCE
330
A3C9C
100
AcDbEntity
  8
0
  6
CONTINUOUS
100
AcDbLine
 10
40.02599999995994
 20
5.157911915918703
 30
0.0
 11
38.60499999996136
 21
6.578911915917274
 31
0.0
  0
LINE
  5
A3CCF
330
A3C9C
100
AcDbEntity
  8
0
  6
CONTINUOUS
100
AcDbLine
 10
44.99999999995498
 20
0.8574311250038447
 30
0.0
 11
38.60499999996136
 21
7.25243112499746
 31
0.0
  0
LINE
  5
A3CD0
330
A3C9C
100
AcDbEntity
  8
0
  6
CONTINUOUS
100
AcDbLine
 10
44.99999999995498
 20
1.530950334084031
 30
0.0
 11
38.60499999996136
 21
7.925950334077647
 31
0.0
  0
LINE
  5
A3CD1
330
A3C9C
100
AcDbEntity
  8
0
  6
CONTINUOUS
100
AcDbLine
 10
44.99999999995498
 20
2.204469543164218
 30
0.0
 11
43.57899999995641
 21
3.625469543162789
 31
0.0
  0
LINE
  5
A3CD2
330
A3C9C
100
AcDbEntity
  8
0
  6
CONTINUOUS
100
AcDbLine
 10
41.89876730984767
 20
5.305702233271528
 30
0.0
 11
38.60499999996136
 21
8.599469543157834
 31
0.0
  0
LINE
  5
A3CD3
330
A3C9C
100
AcDbEntity
  8
0
  6
CONTINUOUS
100
AcDbLine
 10
44.99999999995498
 20
2.877988752244405
 30
0.0
 11
43.57899999995641
 21
4.298988752242975
 31
0.0
  0
LINE
  5
A3CD4
330
A3C9C
100
AcDbEntity
  8
0
  6
CONTINUOUS
100
AcDbLine
 10
44.99999999995498
 20
3.551507961324591
 30
0.0
 11
43.57899999995641
 21
4.972507961323163
 31
0.0
  0
LINE
  5
A3CD5
330
A3C9C
100
AcDbEntity
  8
0
  6
CONTINUOUS
100
AcDbLine
 10
44.99999999995498
 20
4.225027170404777
 30
0.0
 11
43.57899999995641
 21
5.646027170403348
 31
0.0
  0
LINE
  5
A3CD6
330
A3C9C
100
AcDbEntity
  8
0
  6
CONTINUOUS
100
AcDbLine
 10
44.99999999995498
 20
4.898546379484964
 30
0.0
 11
43.57899999995641
 21
6.319546379483535
 31
0.0
  0
LINE
  5
A3CD7
330
A3C9C
100
AcDbEntity
  8
0
  6
CONTINUOUS
100
AcDbLine
 10
44.99999999995498
 20
5.572065588565151
 30
0.0
 11
43.57899999995641
 21
6.993065588563722
 31
0.0
  0
LINE
  5
A3CD8
330
A3C9C
100
AcDbEntity
  8
0
  6
CONTINUOUS
100
AcDbLine
 10
44.99999999995498
 20
6.245584797645336
 30
0.0
 11
43.57899999995641
 21
7.666584797643908
 31
0.0
  0
LINE
  5
A3CD9
330
A3C9C
100
AcDbEntity
  8
0
  6
CONTINUOUS
100
AcDbLine
 10
44.99999999995498
 20
6.919104006725522
 30
0.0
 11
43.57899999995641
 21
8.340104006724093
 31
0.0
  0
LINE
  5
A3CDA
330
A3C9C
100
AcDbEntity
  8
0
  6
CONTINUOUS
100
AcDbLine
 10
44.99999999995498
 20
7.592623215805709
 30
0.0
 11
43.82952321576943
 21
8.763099999991255
 31
0.0
  0
LINE
  5
A3CDB
330
A3C9C
100
AcDbEntity
  8
0
  6
CONTINUOUS
100
AcDbLine
 10
44.99999999995498
 20
8.266142424885896
 30
0.0
 11
44.50304242484962
 21
8.763099999991255
 31
0.0
  0
ENDBLK
  5
A3D05
330
A3C9C
100
AcDbEntity
  8
0
100
AcDbBlockEnd
  0
BLOCK
  5
A3D06
330
A3CDC
100
AcDbEntity
  8
0
100
AcDbBlockBegin
  2
*X23
 70
     1
 10
0.0
 20
0.0
 30
0.0
  3
*X23
  1

  0
LINE
  5
A3CDD
330
A3CDC
100
AcDbEntity
  8
0
  6
CONTINUOUS
100
AcDbLine
 10
0.0
 20
8.548461116714023
 30
0.0
 11
0.2146388832772324
 21
8.763099999991255
 31
0.0
  0
LINE
  5
A3CDE
330
A3CDC
100
AcDbEntity
  8
0
  6
CONTINUOUS
100
AcDbLine
 10
-0.0000000000000002
 20
7.874941907633837
 30
0.0
 11
0.8881580923574184
 21
8.763099999991255
 31
0.0
  0
LINE
  5
A3CDF
330
A3CDC
100
AcDbEntity
  8
0
  6
CONTINUOUS
100
AcDbLine
 10
0.0
 20
7.20142269855365
 30
0.0
 11
1.420999999998572
 21
8.622422698552223
 31
0.0
  0
LINE
  5
A3CE0
330
A3CDC
100
AcDbEntity
  8
0
  6
CONTINUOUS
100
AcDbLine
 10
-0.0000000000000001
 20
6.527903489473465
 30
0.0
 11
1.420999999998571
 21
7.948903489472036
 31
0.0
  0
LINE
  5
A3CE1
330
A3CDC
100
AcDbEntity
  8
0
  6
CONTINUOUS
100
AcDbLine
 10
-0.0000000000000002
 20
5.854384280393278
 30
0.0
 11
1.420999999998571
 21
7.275384280391849
 31
0.0
  0
LINE
  5
A3CE2
330
A3CDC
100
AcDbEntity
  8
0
  6
CONTINUOUS
100
AcDbLine
 10
-0.0000000000000002
 20
5.180865071313091
 30
0.0
 11
1.420999999998571
 21
6.601865071311663
 31
0.0
  0
LINE
  5
A3CE3
330
A3CDC
100
AcDbEntity
  8
0
  6
CONTINUOUS
100
AcDbLine
 10
0.0
 20
4.507345862232905
 30
0.0
 11
1.420999999998571
 21
5.928345862231477
 31
0.0
  0
LINE
  5
A3CE4
330
A3CDC
100
AcDbEntity
  8
0
  6
CONTINUOUS
100
AcDbLine
 10
-0.0000000000000003
 20
3.833826653152718
 30
0.0
 11
1.420999999998571
 21
5.25482665315129
 31
0.0
  0
LINE
  5
A3CE5
330
A3CDC
100
AcDbEntity
  8
0
  6
CONTINUOUS
100
AcDbLine
 10
-0.0000000000000002
 20
3.160307444072532
 30
0.0
 11
1.420999999998571
 21
4.581307444071103
 31
0.0
  0
LINE
  5
A3CE6
330
A3CDC
100
AcDbEntity
  8
0
  6
CONTINUOUS
100
AcDbLine
 10
-0.0000000000000001
 20
2.486788234992345
 30
0.0
 11
1.420999999998571
 21
3.907788234990917
 31
0.0
  0
LINE
  5
A3CE7
330
A3CDC
100
AcDbEntity
  8
0
  6
CONTINUOUS
100
AcDbLine
 10
-0.0000000000000006
 20
1.813269025912159
 30
0.0
 11
1.420999999998571
 21
3.234269025910731
 31
0.0
  0
LINE
  5
A3CE8
330
A3CDC
100
AcDbEntity
  8
0
  6
CONTINUOUS
100
AcDbLine
 10
0.0
 20
1.139749816831973
 30
0.0
 11
1.420999999998571
 21
2.560749816830544
 31
0.0
  0
LINE
  5
A3CE9
330
A3CDC
100
AcDbEntity
  8
0
  6
CONTINUOUS
100
AcDbLine
 10
0.0000000000000002
 20
0.466230607751787
 30
0.0
 11
1.420999999998571
 21
1.887230607750358
 31
0.0
  0
LINE
  5
A3CEA
330
A3CDC
100
AcDbEntity
  8
0
  6
CONTINUOUS
100
AcDbLine
 10
0.2072886013284003
 20
-0.0000000000000009
 30
0.0
 11
1.420999999998571
 21
1.213711398670171
 31
0.0
  0
LINE
  5
A3CEB
330
A3CDC
100
AcDbEntity
  8
0
  6
CONTINUOUS
100
AcDbLine
 10
0.8808078104085864
 20
-0.0000000000000009
 30
0.0
 11
1.420999999998571
 21
0.5401921895899839
 31
0.0
  0
LINE
  5
A3CEC
330
A3CDC
100
AcDbEntity
  8
0
  6
CONTINUOUS
100
AcDbLine
 10
0.0581249075061505
 20
-0.0000000000000009
 30
0.0
 11
-0.0000000000000002
 21
0.0581249075061496
 31
0.0
  0
LINE
  5
A3CED
330
A3CDC
100
AcDbEntity
  8
0
  6
CONTINUOUS
100
AcDbLine
 10
0.7316441165863372
 20
-0.0000000000000009
 30
0.0
 11
-0.0000000000000002
 21
0.7316441165863363
 31
0.0
  0
LINE
  5
A3CEE
330
A3CDC
100
AcDbEntity
  8
0
  6
CONTINUOUS
100
AcDbLine
 10
1.405163325666523
 20
-0.0000000000000009
 30
0.0
 11
-0.0000000000000002
 21
1.405163325666523
 31
0.0
  0
LINE
  5
A3CEF
330
A3CDC
100
AcDbEntity
  8
0
  6
CONTINUOUS
100
AcDbLine
 10
1.420999999998572
 20
0.6576825347481381
 30
0.0
 11
-0.0000000000000001
 21
2.07868253474671
 31
0.0
  0
LINE
  5
A3CF0
330
A3CDC
100
AcDbEntity
  8
0
  6
CONTINUOUS
100
AcDbLine
 10
1.420999999998571
 20
1.331201743828324
 30
0.0
 11
-0.0000000000000001
 21
2.752201743826896
 31
0.0
  0
LINE
  5
A3CF1
330
A3CDC
100
AcDbEntity
  8
0
  6
CONTINUOUS
100
AcDbLine
 10
1.420999999998571
 20
2.004720952908511
 30
0.0
 11
-0.0000000000000002
 21
3.425720952907082
 31
0.0
  0
LINE
  5
A3CF2
330
A3CDC
100
AcDbEntity
  8
0
  6
CONTINUOUS
100
AcDbLine
 10
1.420999999998571
 20
2.678240161988697
 30
0.0
 11
-0.0000000000000001
 21
4.099240161987269
 31
0.0
  0
LINE
  5
A3CF3
330
A3CDC
100
AcDbEntity
  8
0
  6
CONTINUOUS
100
AcDbLine
 10
1.420999999998572
 20
3.351759371068884
 30
0.0
 11
0.0
 21
4.772759371067455
 31
0.0
  0
LINE
  5
A3CF4
330
A3CDC
100
AcDbEntity
  8
0
  6
CONTINUOUS
100
AcDbLine
 10
1.420999999998571
 20
4.02527858014907
 30
0.0
 11
-0.0000000000000003
 21
5.446278580147642
 31
0.0
  0
LINE
  5
A3CF5
330
A3CDC
100
AcDbEntity
  8
0
  6
CONTINUOUS
100
AcDbLine
 10
1.420999999998571
 20
4.698797789229257
 30
0.0
 11
0.0
 21
6.119797789227828
 31
0.0
  0
LINE
  5
A3CF6
330
A3CDC
100
AcDbEntity
  8
0
  6
CONTINUOUS
100
AcDbLine
 10
1.420999999998571
 20
5.372316998309444
 30
0.0
 11
-0.0000000000000001
 21
6.793316998308015
 31
0.0
  0
LINE
  5
A3CF7
330
A3CDC
100
AcDbEntity
  8
0
  6
CONTINUOUS
100
AcDbLine
 10
1.420999999998572
 20
6.045836207389629
 30
0.0
 11
-0.0000000000000004
 21
7.466836207388202
 31
0.0
  0
LINE
  5
A3CF8
330
A3CDC
100
AcDbEntity
  8
0
  6
CONTINUOUS
100
AcDbLine
 10
1.420999999998571
 20
6.719355416469816
 30
0.0
 11
0.0
 21
8.140355416468388
 31
0.0
  0
LINE
  5
A3CF9
330
A3CDC
100
AcDbEntity
  8
0
  6
CONTINUOUS
100
AcDbLine
 10
1.420999999998571
 20
7.392874625550003
 30
0.0
 11
0.0507746255573185
 21
8.763099999991255
 31
0.0
  0
LINE
  5
A3CFA
330
A3CDC
100
AcDbEntity
  8
0
  6
CONTINUOUS
100
AcDbLine
 10
1.420999999998571
 20
8.06639383463019
 30
0.0
 11
0.7242938346375052
 21
8.763099999991255
 31
0.0
  0
LINE
  5
A3CFB
330
A3CDC
100
AcDbEntity
  8
0
  6
CONTINUOUS
100
AcDbLine
 10
1.420999999998571
 20
8.739913043710375
 30
0.0
 11
1.397813043717691
 21
8.763099999991255
 31
0.0
  0
ENDBLK
  5
A3D07
330
A3CDC
100
AcDbEntity
  8
0
100
AcDbBlockEnd
  0
ENDSEC
  0
SECTION
  2
ENTITIES
  0
LINE
  5
A36B0
330
18
100
AcDbEntity
  8
1CENTER
100
AcDbLine
 10
16.65926240681779
 20
-19.75767901522954
 30
0.0
 11
28.65926240681779
 21
-19.75767901522954
 31
0.0
  0
LINE
  5
A36B1
330
18
100
AcDbEntity
  8
1CENTER
100
AcDbLine
 10
22.65926240681779
 20
-13.75767901522954
 30
0.0
 11
22.65926240681779
 21
-25.75767901522954
 31
0.0
  0
TEXT
  5
A36B2
330
18
100
AcDbEntity
  8
1TEXT
100
AcDbText
 10
0.7864964810809862
 20
73.24611205635892
 30
0.0
 40
4.0
  1
表面処理：
 72
     1
 11
11.58649648108099
 21
73.24611205635892
 31
0.0
100
AcDbText
  0
TEXT
  5
A36B3
330
18
100
AcDbEntity
  8
1TEXT
100
AcDbText
 10
-4.94683685225235
 20
59.41082339683453
 30
0.0
 40
4.0
  1
サテンニッケル
 72
     1
 11
11.58649648108099
 21
59.41082339683453
 31
0.0
100
AcDbText
  0
TEXT
  5
A36B4
330
18
100
AcDbEntity
  8
1TEXT
100
AcDbText
 10
2.119829814414318
 20
66.26821703637461
 30
0.0
 40
4.0
  1
クローム
 72
     1
 11
11.58649648108099
 21
66.26821703637461
 31
0.0
100
AcDbText
  0
LINE
  5
A36B5
330
18
100
AcDbEntity
  8
1DIM
100
AcDbLine
 10
-5.813503518919106
 20
78.74611205635892
 30
0.0
 11
64.1864964810809
 21
78.74611205635892
 31
0.0
  0
LINE
  5
A36B6
330
18
100
AcDbEntity
  8
1DIM
100
AcDbLine
 10
-5.813503518919106
 20
64.74611205635892
 30
0.0
 11
64.1864964810809
 21
64.74611205635892
 31
0.0
  0
LINE
  5
A36B7
330
18
100
AcDbEntity
  8
1DIM
100
AcDbLine
 10
-5.813503518919106
 20
71.74611205635892
 30
0.0
 11
64.1864964810809
 21
71.74611205635892
 31
0.0
  0
LINE
  5
A36B8
330
18
100
AcDbEntity
  8
1DIM
100
AcDbLine
 10
-5.813503518919106
 20
57.74611205635892
 30
0.0
 11
64.1864964810809
 21
57.74611205635892
 31
0.0
  0
LINE
  5
A36B9
330
18
100
AcDbEntity
  8
1DIM
100
AcDbLine
 10
-5.813503518919106
 20
57.74611205635892
 30
0.0
 11
64.1864964810809
 21
57.74611205635892
 31
0.0
  0
LINE
  5
A36BA
330
18
100
AcDbEntity
  8
1DIM
100
AcDbLine
 10
29.18649648108089
 20
78.74611205635892
 30
0.0
 11
29.18649648108089
 21
50.74611205635892
 31
0.0
  0
TEXT
  5
A36BB
330
18
100
AcDbEntity
  8
1TEXT
100
AcDbText
 10
32.71982981441477
 20
66.03175507270953
 30
0.0
 40
4.0
  1
KH-372-XC
 41
0.8
 72
     1
 11
46.58649648108144
 21
66.03175507270953
 31
0.0
100
AcDbText
  0
TEXT
  5
A36BC
330
18
100
AcDbEntity
  8
1TEXT
100
AcDbText
 10
39.71982981441432
 20
73.24611205635892
 30
0.0
 40
4.0
  1
コード
 72
     1
 11
46.58649648108099
 21
73.24611205635892
 31
0.0
100
AcDbText
  0
LINE
  5
A36BD
330
18
100
AcDbEntity
  8
1DIM
100
AcDbLine
 10
-5.813503518919106
 20
50.74611205635892
 30
0.0
 11
-5.813503518919106
 21
78.74611205635892
 31
0.0
  0
LINE
  5
A36BE
330
18
100
AcDbEntity
  8
1DIM
100
AcDbLine
 10
64.1864964810809
 20
50.74611205635892
 30
0.0
 11
64.1864964810809
 21
78.74611205635892
 31
0.0
  0
TEXT
  5
A36BF
330
18
100
AcDbEntity
  8
1TEXT
100
AcDbText
 10
-5.813503518919106
 20
83.74611205635892
 30
0.0
 40
8.0
  1
KH-372-X
100
AcDbText
  0
TEXT
  5
A36C0
330
18
100
AcDbEntity
  8
1TEXT
100
AcDbText
 10
32.71982981441477
 20
59.03175507270953
 30
0.0
 40
4.0
  1
KH-372-XN
 41
0.8
 72
     1
 11
46.58649648108144
 21
59.03175507270953
 31
0.0
100
AcDbText
  0
ARC
  5
A36C1
330
18
100
AcDbEntity
  8
01
100
AcDbCircle
 10
-80.31350351891842
 20
37.2461120563587
 30
0.0
 40
21.50000000000006
100
AcDbArc
 50
196.204693376703
 51
164.8168859563837
  0
LINE
  5
A36C2
330
18
100
AcDbEntity
  8
1PHANTOM
100
AcDbLine
 10
-54.73889785162874
 20
-2.257679015222948
 30
0.0
 11
-110.54456537735
 21
-2.257679015222948
 31
0.0
  0
LINE
  5
A36C3
330
18
100
AcDbEntity
  8
1PHANTOM
100
AcDbLine
 10
-53.81201442859765
 20
-37.25767901522272
 30
0.0
 11
-68.3135035189157
 21
-37.25767901522272
 31
0.0
  0
LINE
  5
A36C4
330
18
100
AcDbEntity
  8
1PHANTOM
100
AcDbLine
 10
-92.31350351891842
 20
-37.25767901522295
 30
0.0
 11
-109.6176819543193
 21
-37.25767901522272
 31
0.0
  0
ARC
  5
A36C5
330
18
100
AcDbEntity
  8
1PHANTOM
100
AcDbCircle
 10
-132.0732449829779
 20
-29.14840979776704
 30
0.0
 40
23.8749357732201
100
AcDbArc
 50
340.1440725874383
 51
23.02461945291862
  0
ARC
  5
A36C6
330
18
100
AcDbEntity
  8
1PHANTOM
100
AcDbCircle
 10
-88.12727742131074
 20
-10.47216371429386
 30
0.0
 40
23.8749357732201
100
AcDbArc
 50
159.8753848684289
 51
203.0246194529186
  0
ARC
  5
A36C7
330
18
100
AcDbEntity
  8
1PHANTOM
100
AcDbCircle
 10
-76.26757745725672
 20
-29.14840979776704
 30
0.0
 40
23.8749357732201
100
AcDbArc
 50
340.1440725874383
 51
23.02461945291862
  0
ARC
  5
A36C8
330
18
100
AcDbEntity
  8
1PHANTOM
100
AcDbCircle
 10
-32.32160989558952
 20
-10.47216371429386
 30
0.0
 40
23.8749357732201
100
AcDbArc
 50
159.8753848684289
 51
203.0246194529186
  0
LINE
  5
A36C9
330
18
100
AcDbEntity
  8
01
100
AcDbLine
 10
-92.31350351891831
 20
-31.00646218473821
 30
0.0
 11
-92.31350351891842
 21
-39.2576790152259
 31
0.0
  0
LINE
  5
A36CA
330
18
100
AcDbEntity
  8
01
100
AcDbLine
 10
-68.31350351891882
 20
-31.00646218473821
 30
0.0
 11
-68.3135035189145
 21
-39.25767901522522
 31
0.0
  0
LINE
  5
A36CB
330
18
100
AcDbEntity
  8
01
100
AcDbLine
 10
-91.81350351891842
 20
-39.75767901522568
 30
0.0
 11
-80.31350351891842
 21
-39.75767901522386
 31
0.0
  0
ARC
  5
A36CC
330
18
100
AcDbEntity
  8
01
100
AcDbCircle
 10
-87.31350351891797
 20
-40.75767901522499
 30
0.0
 40
1.0
100
AcDbArc
 50
0.0
 51
90.0
  0
LINE
  5
A36CD
330
18
100
AcDbEntity
  8
01
100
AcDbLine
 10
-80.31350351891842
 20
-39.75767901522431
 30
0.0
 11
-68.81350351891479
 21
-39.75767901522568
 31
0.0
  0
LINE
  5
A36CE
330
18
100
AcDbEntity
  8
01
100
AcDbLine
 10
-68.31350351891479
 20
-39.25767901522568
 30
0.0
 11
-68.81350351891479
 21
-39.75767901522568
 31
0.0
  0
LINE
  5
A36CF
330
18
100
AcDbEntity
  8
01
100
AcDbLine
 10
-91.81350351891842
 20
-39.75767901522568
 30
0.0
 11
-92.31350351891842
 21
-39.25767901522568
 31
0.0
  0
LINE
  5
A36D0
330
18
100
AcDbEntity
  8
01
100
AcDbLine
 10
-91.81350351891842
 20
50.67648807492378
 30
0.0
 11
-68.81350351891842
 21
50.67648807492378
 31
0.0
  0
LINE
  5
A36D1
330
18
100
AcDbEntity
  8
01
100
AcDbLine
 10
-68.31350351891842
 20
50.17648807492378
 30
0.0
 11
-68.81350351891842
 21
50.67648807492378
 31
0.0
  0
LINE
  5
A36D2
330
18
100
AcDbEntity
  8
01
100
AcDbLine
 10
-68.31350351891842
 20
49.62048072711946
 30
0.0
 11
-92.31350351891842
 21
49.62048072712287
 31
0.0
  0
LINE
  5
A36D3
330
18
100
AcDbEntity
  8
01
100
AcDbLine
 10
-68.31350351891916
 20
24.3157360377927
 30
0.0
 11
-68.31350351891842
 21
50.17648807492378
 31
0.0
  0
ELLIPSE
  5
A36D4
330
18
100
AcDbEntity
  8
01
100
AcDbEllipse
 10
-87.31350351891842
 20
27.37373615035358
 30
0.0
 11
-2.099999999999909
 21
3.857510014540321E-16
 31
0.0
210
0.0
220
0.0
230
1.0
 40
0.8714674068047
 41
3.234946108734916
 42
6.189831851874494
  0
ELLIPSE
  5
A36D5
330
18
100
AcDbEntity
  8
01
100
AcDbEllipse
 10
-87.31350351891842
 20
27.71492894359289
 30
0.0
 11
-2.099999999999909
 21
3.857510014540321E-16
 31
0.0
210
0.0
220
0.0
230
1.0
 40
0.8714674068047
 41
0.0
 42
6.283185307179586
  0
LINE
  5
A36D6
330
18
100
AcDbEntity
  8
01
100
AcDbLine
 10
-92.31350351891842
 20
24.31573603779361
 30
0.0
 11
-92.31350351891842
 21
50.17648807492378
 31
0.0
  0
LINE
  5
A36D7
330
18
100
AcDbEntity
  8
01
100
AcDbLine
 10
-91.81350351891842
 20
50.67648807492378
 30
0.0
 11
-92.31350351891842
 21
50.17648807492378
 31
0.0
  0
LINE
  5
A36D8
330
18
100
AcDbEntity
  8
01
100
AcDbLine
 10
-74.31350351891803
 20
-40.75767901522522
 30
0.0
 11
-74.31350351891888
 21
-62.2576790152259
 31
0.0
  0
ARC
  5
A36D9
330
18
100
AcDbEntity
  8
01
100
AcDbCircle
 10
-73.31350351891797
 20
-40.75767901522522
 30
0.0
 40
1.0
100
AcDbArc
 50
90.0
 51
180.0
  0
LINE
  5
A36DA
330
18
100
AcDbEntity
  8
01
100
AcDbLine
 10
-86.31350351891797
 20
-40.75767901522499
 30
0.0
 11
-86.31350351891797
 21
-61.75767901522613
 31
0.0
  0
LINE
  5
A36DB
330
18
100
AcDbEntity
  8
01
100
AcDbLine
 10
-58.81350351891888
 20
-72.25767901522613
 30
0.0
 11
-101.8135035189198
 21
-72.25767901522613
 31
0.0
  0
LINE
  5
A36DC
330
18
100
AcDbEntity
  8
01
100
AcDbLine
 10
-101.8135035189202
 20
-62.75767901522636
 30
0.0
 11
-101.8135035189198
 21
-72.25767901522636
 31
0.0
  0
ARC
  5
A36DD
330
18
100
AcDbEntity
  8
01
100
AcDbCircle
 10
-101.3135035189202
 20
-62.75767901522636
 30
0.0
 40
0.5
100
AcDbArc
 50
90.0
 51
180.0
  0
LINE
  5
A36DE
330
18
100
AcDbEntity
  8
01
100
AcDbLine
 10
-101.3135035189202
 20
-62.25767901522636
 30
0.0
 11
-59.31350351891842
 21
-62.25767901522568
 31
0.0
  0
ARC
  5
A36DF
330
18
100
AcDbEntity
  8
01
100
AcDbCircle
 10
-86.81350351891797
 20
-61.75767901522613
 30
0.0
 40
0.5
100
AcDbArc
 50
270.0
 51
0.0
  0
LINE
  5
A36E0
330
18
100
AcDbEntity
  8
01
100
AcDbLine
 10
-68.31350351891842
 20
50.17648807492378
 30
0.0
 11
-92.31350351891842
 21
50.17648807492378
 31
0.0
  0
LINE
  5
A36E1
330
18
100
AcDbEntity
  8
1PHANTOM
100
AcDbLine
 10
-93.01350351891824
 20
25.76314914321415
 30
0.0
 11
-93.01350351891824
 21
26.72907496950324
 31
0.0
  0
ELLIPSE
  5
A36E2
330
18
100
AcDbEntity
  8
1PHANTOM
100
AcDbEllipse
 10
-90.31350351891842
 20
26.72907496950324
 30
0.0
 11
-2.699999999999989
 21
0.0
 31
0.0
210
0.0
220
0.0
230
1.0
 40
0.9659258262889973
 41
4.71238898038469
 42
6.283185307179586
  0
ELLIPSE
  5
A36E3
330
18
100
AcDbEntity
  8
1PHANTOM
100
AcDbEllipse
 10
-90.31350351891842
 20
25.76314914321415
 30
0.0
 11
-2.699999999999989
 21
0.0
 31
0.0
210
0.0
220
0.0
230
-1.0
 40
0.9659258262889973
 41
4.71238898038469
 42
6.283185307179586
  0
ELLIPSE
  5
A36E4
330
18
100
AcDbEntity
  8
1PHANTOM
100
AcDbEllipse
 10
-90.31350351891842
 20
26.53232154344687
 30
0.0
 11
0.0
 21
-2.795245687107353
 31
0.0
210
0.0
220
0.0
230
1.0
 40
0.9659258262890195
 41
4.71238898038469
 42
6.283185307179586
  0
LINE
  5
A36E5
330
18
100
AcDbEntity
  8
01
100
AcDbLine
 10
-92.31350351891842
 20
43.24611205636052
 30
0.0
 11
-100.580471718431
 21
43.24611205636052
 31
0.0
  0
LINE
  5
A36E6
330
18
100
AcDbEntity
  8
01
100
AcDbLine
 10
-92.31350351891842
 20
31.24611205636074
 30
0.0
 11
-100.5804717184319
 21
31.24611205636052
 31
0.0
  0
ARC
  5
A36E7
330
18
100
AcDbEntity
  8
01
100
AcDbCircle
 10
-80.31350351891979
 20
37.24611205635915
 30
0.0
 40
21.5
100
AcDbArc
 50
164.8168859563837
 51
195.1831140436025
  0
ARC
  5
A36E8
330
18
100
AcDbEntity
  8
01
100
AcDbCircle
 10
-100.580471718431
 20
42.74611205636052
 30
0.0
 40
0.5
100
AcDbArc
 50
90.0
 51
164.8168859563837
  0
ARC
  5
A36E9
330
18
100
AcDbEntity
  8
01
100
AcDbCircle
 10
-100.5804717184319
 20
31.74611205636052
 30
0.0
 40
0.5
100
AcDbArc
 50
195.1831140436025
 51
270.0
  0
LINE
  5
A36EA
330
18
100
AcDbEntity
  8
01
100
AcDbLine
 10
-100.5804717184319
 20
-62.25767901522636
 30
0.0
 11
-100.5804717184319
 21
-72.25767901522613
 31
0.0
  0
LINE
  5
A36EB
330
18
100
AcDbEntity
  8
1PHANTOM
100
AcDbLine
 10
-86.31350351891797
 20
-61.75767901522613
 30
0.0
 11
-80.31350351891842
 21
-62.25767901522613
 31
0.0
  0
LINE
  5
A36EC
330
18
100
AcDbEntity
  8
1PHANTOM
100
AcDbLine
 10
-87.6135035189186
 20
25.76314914321415
 30
0.0
 11
-87.6135035189186
 21
26.72907496950324
 31
0.0
  0
ELLIPSE
  5
A36ED
330
18
100
AcDbEntity
  8
1PHANTOM
100
AcDbEllipse
 10
-90.31350351891842
 20
26.72907496950324
 30
0.0
 11
2.699999999999989
 21
0.0
 31
0.0
210
0.0
220
0.0
230
-1.0
 40
0.9659258262889973
 41
4.71238898038469
 42
6.283185307179586
  0
ELLIPSE
  5
A36EE
330
18
100
AcDbEntity
  8
1PHANTOM
100
AcDbEllipse
 10
-90.31350351891842
 20
25.76314914321415
 30
0.0
 11
2.699999999999989
 21
0.0
 31
0.0
210
0.0
220
0.0
230
1.0
 40
0.9659258262889973
 41
4.71238898038469
 42
6.283185307179586
  0
ELLIPSE
  5
A36EF
330
18
100
AcDbEntity
  8
1PHANTOM
100
AcDbEllipse
 10
-90.31350351891842
 20
26.53232154344687
 30
0.0
 11
0.0
 21
-2.795245687107353
 31
0.0
210
0.0
220
0.0
230
-1.0
 40
0.9659258262890195
 41
4.71238898038469
 42
6.283185307179586
  0
LINE
  5
A36F0
330
18
100
AcDbEntity
  8
1PHANTOM
100
AcDbLine
 10
-67.61350351891906
 20
25.76314914321415
 30
0.0
 11
-67.61350351891906
 21
26.72907496950324
 31
0.0
  0
ELLIPSE
  5
A36F1
330
18
100
AcDbEntity
  8
1PHANTOM
100
AcDbEllipse
 10
-70.31350351891888
 20
26.72907496950324
 30
0.0
 11
2.699999999999988
 21
0.0
 31
0.0
210
0.0
220
0.0
230
-1.0
 40
0.9659258262889973
 41
4.71238898038469
 42
6.283185307179586
  0
ELLIPSE
  5
A36F2
330
18
100
AcDbEntity
  8
1PHANTOM
100
AcDbEllipse
 10
-70.31350351891888
 20
25.76314914321415
 30
0.0
 11
2.699999999999988
 21
0.0
 31
0.0
210
0.0
220
0.0
230
1.0
 40
0.9659258262889973
 41
4.71238898038469
 42
6.283185307179586
  0
ELLIPSE
  5
A36F3
330
18
100
AcDbEntity
  8
1PHANTOM
100
AcDbEllipse
 10
-70.31350351891888
 20
26.53232154344687
 30
0.0
 11
0.0
 21
-2.795245687107353
 31
0.0
210
0.0
220
0.0
230
-1.0
 40
0.9659258262890195
 41
4.71238898038469
 42
6.283185307179586
  0
LINE
  5
A36F4
330
18
100
AcDbEntity
  8
1PHANTOM
100
AcDbLine
 10
-73.0135035189187
 20
25.76314914321415
 30
0.0
 11
-73.0135035189187
 21
26.72907496950324
 31
0.0
  0
ELLIPSE
  5
A36F5
330
18
100
AcDbEntity
  8
1PHANTOM
100
AcDbEllipse
 10
-70.31350351891888
 20
26.72907496950324
 30
0.0
 11
-2.699999999999988
 21
0.0
 31
0.0
210
0.0
220
0.0
230
1.0
 40
0.9659258262889973
 41
4.71238898038469
 42
6.283185307179586
  0
ELLIPSE
  5
A36F6
330
18
100
AcDbEntity
  8
1PHANTOM
100
AcDbEllipse
 10
-70.31350351891888
 20
25.76314914321415
 30
0.0
 11
-2.699999999999988
 21
0.0
 31
0.0
210
0.0
220
0.0
230
-1.0
 40
0.9659258262889973
 41
4.71238898038469
 42
6.283185307179586
  0
ELLIPSE
  5
A36F7
330
18
100
AcDbEntity
  8
1PHANTOM
100
AcDbEllipse
 10
-70.31350351891888
 20
26.53232154344687
 30
0.0
 11
0.0
 21
-2.795245687107353
 31
0.0
210
0.0
220
0.0
230
1.0
 40
0.9659258262890195
 41
4.71238898038469
 42
6.283185307179586
  0
LINE
  5
A36F8
330
18
100
AcDbEntity
  8
01
100
AcDbLine
 10
-58.81350351891842
 20
-62.75767901522613
 30
0.0
 11
-58.81350351891888
 21
-72.25767901522613
 31
0.0
  0
ARC
  5
A36F9
330
18
100
AcDbEntity
  8
01
100
AcDbCircle
 10
-59.31350351891842
 20
-62.75767901522613
 30
0.0
 40
0.5
100
AcDbArc
 50
0.0
 51
90.0
  0
LINE
  5
A36FB
330
18
100
AcDbEntity
  8
01
100
AcDbLine
 10
-91.81350351891842
 20
23.81573603779361
 30
0.0
 11
-68.81350351891842
 21
23.81573603779361
 31
0.0
  0
LINE
  5
A36FC
330
18
100
AcDbEntity
  8
01
100
AcDbLine
 10
-68.31350351891842
 20
24.31573603779361
 30
0.0
 11
-68.81350351891842
 21
23.81573603779361
 31
0.0
  0
LINE
  5
A36FD
330
18
100
AcDbEntity
  8
01
100
AcDbLine
 10
-68.31350351891842
 20
24.87174338559794
 30
0.0
 11
-92.31350351891842
 21
24.87174338559453
 31
0.0
  0
LINE
  5
A36FE
330
18
100
AcDbEntity
  8
01
100
AcDbLine
 10
-91.81350351891842
 20
23.81573603779361
 30
0.0
 11
-92.31350351891842
 21
24.31573603779361
 31
0.0
  0
LINE
  5
A36FF
330
18
100
AcDbEntity
  8
01
100
AcDbLine
 10
-68.31350351891842
 20
24.31573603779361
 30
0.0
 11
-92.31350351891842
 21
24.31573603779361
 31
0.0
  0
LINE
  5
A3700
330
18
100
AcDbEntity
  8
1CENTER
100
AcDbLine
 10
-90.31350351891842
 20
23.24611205635688
 30
0.0
 11
-90.31350351891842
 21
29.24611205635688
 31
0.0
  0
LINE
  5
A3701
330
18
100
AcDbEntity
  8
1CENTER
100
AcDbLine
 10
-93.31350351891842
 20
26.24611205635688
 30
0.0
 11
-87.31350351891842
 21
26.24611205635688
 31
0.0
  0
LINE
  5
A3702
330
18
100
AcDbEntity
  8
1CENTER
100
AcDbLine
 10
-70.31350351891842
 20
23.24611205635688
 30
0.0
 11
-70.31350351891842
 21
29.24611205635688
 31
0.0
  0
LINE
  5
A3703
330
18
100
AcDbEntity
  8
1CENTER
100
AcDbLine
 10
-67.31350351891842
 20
26.24611205635688
 30
0.0
 11
-73.31350351891842
 21
26.24611205635688
 31
0.0
  0
LINE
  5
A3704
330
18
100
AcDbEntity
  8
1PHANTOM
100
AcDbLine
 10
-93.01350351891824
 20
48.72907496950324
 30
0.0
 11
-93.01350351891824
 21
47.76314914321415
 31
0.0
  0
ELLIPSE
  5
A3705
330
18
100
AcDbEntity
  8
1PHANTOM
100
AcDbEllipse
 10
-90.31350351891842
 20
47.76314914321415
 30
0.0
 11
-2.699999999999989
 21
0.0
 31
0.0
210
0.0
220
0.0
230
-1.0
 40
0.9659258262889973
 41
4.71238898038469
 42
6.283185307179586
  0
ELLIPSE
  5
A3706
330
18
100
AcDbEntity
  8
1PHANTOM
100
AcDbEllipse
 10
-90.31350351891842
 20
48.72907496950324
 30
0.0
 11
-2.699999999999989
 21
0.0
 31
0.0
210
0.0
220
0.0
230
1.0
 40
0.9659258262889973
 41
4.71238898038469
 42
6.283185307179586
  0
ELLIPSE
  5
A3707
330
18
100
AcDbEntity
  8
1PHANTOM
100
AcDbEllipse
 10
-90.31350351891842
 20
47.95990256927053
 30
0.0
 11
0.0
 21
2.795245687107353
 31
0.0
210
0.0
220
0.0
230
-1.0
 40
0.9659258262890195
 41
4.71238898038469
 42
6.283185307179586
  0
LINE
  5
A3708
330
18
100
AcDbEntity
  8
1PHANTOM
100
AcDbLine
 10
-87.6135035189186
 20
48.72907496950324
 30
0.0
 11
-87.6135035189186
 21
47.76314914321415
 31
0.0
  0
ELLIPSE
  5
A3709
330
18
100
AcDbEntity
  8
1PHANTOM
100
AcDbEllipse
 10
-90.31350351891842
 20
47.76314914321415
 30
0.0
 11
2.699999999999989
 21
0.0
 31
0.0
210
0.0
220
0.0
230
1.0
 40
0.9659258262889973
 41
4.71238898038469
 42
6.283185307179586
  0
ELLIPSE
  5
A370A
330
18
100
AcDbEntity
  8
1PHANTOM
100
AcDbEllipse
 10
-90.31350351891842
 20
48.72907496950324
 30
0.0
 11
2.699999999999989
 21
0.0
 31
0.0
210
0.0
220
0.0
230
-1.0
 40
0.9659258262889973
 41
4.71238898038469
 42
6.283185307179586
  0
ELLIPSE
  5
A370B
330
18
100
AcDbEntity
  8
1PHANTOM
100
AcDbEllipse
 10
-90.31350351891842
 20
47.95990256927053
 30
0.0
 11
0.0
 21
2.795245687107353
 31
0.0
210
0.0
220
0.0
230
1.0
 40
0.9659258262890195
 41
4.71238898038469
 42
6.283185307179586
  0
LINE
  5
A370C
330
18
100
AcDbEntity
  8
1PHANTOM
100
AcDbLine
 10
-67.61350351891906
 20
48.72907496950324
 30
0.0
 11
-67.61350351891906
 21
47.76314914321415
 31
0.0
  0
ELLIPSE
  5
A370D
330
18
100
AcDbEntity
  8
1PHANTOM
100
AcDbEllipse
 10
-70.31350351891888
 20
47.76314914321415
 30
0.0
 11
2.699999999999988
 21
0.0
 31
0.0
210
0.0
220
0.0
230
1.0
 40
0.9659258262889973
 41
4.71238898038469
 42
6.283185307179586
  0
ELLIPSE
  5
A370E
330
18
100
AcDbEntity
  8
1PHANTOM
100
AcDbEllipse
 10
-70.31350351891888
 20
48.72907496950324
 30
0.0
 11
2.699999999999988
 21
0.0
 31
0.0
210
0.0
220
0.0
230
-1.0
 40
0.9659258262889973
 41
4.71238898038469
 42
6.283185307179586
  0
ELLIPSE
  5
A370F
330
18
100
AcDbEntity
  8
1PHANTOM
100
AcDbEllipse
 10
-70.31350351891888
 20
47.95990256927053
 30
0.0
 11
0.0
 21
2.795245687107353
 31
0.0
210
0.0
220
0.0
230
1.0
 40
0.9659258262890195
 41
4.71238898038469
 42
6.283185307179586
  0
LINE
  5
A3710
330
18
100
AcDbEntity
  8
1PHANTOM
100
AcDbLine
 10
-73.0135035189187
 20
48.72907496950324
 30
0.0
 11
-73.0135035189187
 21
47.76314914321415
 31
0.0
  0
ELLIPSE
  5
A3711
330
18
100
AcDbEntity
  8
1PHANTOM
100
AcDbEllipse
 10
-70.31350351891888
 20
47.76314914321415
 30
0.0
 11
-2.699999999999988
 21
0.0
 31
0.0
210
0.0
220
0.0
230
-1.0
 40
0.9659258262889973
 41
4.71238898038469
 42
6.283185307179586
  0
ELLIPSE
  5
A3712
330
18
100
AcDbEntity
  8
1PHANTOM
100
AcDbEllipse
 10
-70.31350351891888
 20
48.72907496950324
 30
0.0
 11
-2.699999999999988
 21
0.0
 31
0.0
210
0.0
220
0.0
230
1.0
 40
0.9659258262889973
 41
4.71238898038469
 42
6.283185307179586
  0
ELLIPSE
  5
A3713
330
18
100
AcDbEntity
  8
1PHANTOM
100
AcDbEllipse
 10
-70.31350351891888
 20
47.95990256927053
 30
0.0
 11
0.0
 21
2.795245687107353
 31
0.0
210
0.0
220
0.0
230
-1.0
 40
0.9659258262890195
 41
4.71238898038469
 42
6.283185307179586
  0
LINE
  5
A3714
330
18
100
AcDbEntity
  8
1CENTER
100
AcDbLine
 10
-90.31350351891842
 20
51.24611205636052
 30
0.0
 11
-90.31350351891842
 21
45.24611205636052
 31
0.0
  0
LINE
  5
A3715
330
18
100
AcDbEntity
  8
1CENTER
100
AcDbLine
 10
-93.31350351891842
 20
48.24611205636052
 30
0.0
 11
-87.31350351891842
 21
48.24611205636052
 31
0.0
  0
LINE
  5
A3716
330
18
100
AcDbEntity
  8
1CENTER
100
AcDbLine
 10
-70.31350351891842
 20
51.24611205636052
 30
0.0
 11
-70.31350351891842
 21
45.24611205636052
 31
0.0
  0
LINE
  5
A3717
330
18
100
AcDbEntity
  8
1CENTER
100
AcDbLine
 10
-67.31350351891842
 20
48.24611205636052
 30
0.0
 11
-73.31350351891842
 21
48.24611205636052
 31
0.0
  0
LINE
  5
A3718
330
18
100
AcDbEntity
  8
01
100
AcDbLine
 10
1.186496481081122
 20
-72.25767901522909
 30
0.0
 11
44.18649648108021
 21
-72.25767901522954
 31
0.0
  0
LINE
  5
A3719
330
18
100
AcDbEntity
  8
1PHANTOM
100
AcDbLine
 10
39.35777830069742
 20
-70.25767901523
 30
0.0
 11
40.18649648107748
 21
-70.25767901522954
 31
0.0
  0
ARC
  5
A371A
330
18
100
AcDbEntity
  8
1PHANTOM
100
AcDbCircle
 10
5.186496481084419
 20
-70.75767901522909
 30
0.0
 40
0.5
100
AcDbArc
 50
90.0
 51
180.0
  0
ARC
  5
A371B
330
18
100
AcDbEntity
  8
1PHANTOM
100
AcDbCircle
 10
40.1864964810776
 20
-70.75767901522954
 30
0.0
 40
0.5
100
AcDbArc
 50
359.999999999974
 51
90.0
  0
LINE
  5
A371C
330
18
100
AcDbEntity
  8
1PHANTOM
100
AcDbLine
 10
17.18649648108089
 20
-67.25767901522954
 30
0.0
 11
28.18649648108067
 21
-67.25767901523
 31
0.0
  0
ARC
  5
A371D
330
18
100
AcDbEntity
  8
1PHANTOM
100
AcDbCircle
 10
28.18649648108078
 20
-67.75767901523
 30
0.0
 40
0.5
100
AcDbArc
 50
0.0
 51
90.0
  0
ARC
  5
A371E
330
18
100
AcDbEntity
  8
01
100
AcDbCircle
 10
29.68649648108078
 20
-39.55662735993224
 30
0.0
 40
1.0
100
AcDbArc
 50
109.9660582971094
 51
180.0
  0
ARC
  5
A371F
330
18
100
AcDbEntity
  8
01
100
AcDbCircle
 10
15.68649648108101
 20
-39.55662735993224
 30
0.0
 40
1.0
100
AcDbArc
 50
0.0
 51
70.03394170289063
  0
LINE
  5
A3720
330
18
100
AcDbEntity
  8
01
100
AcDbLine
 10
16.68649648108089
 20
-39.55662735993201
 30
0.0
 11
16.68649648108067
 21
-62.25767901522909
 31
0.0
  0
LINE
  5
A3721
330
18
100
AcDbEntity
  8
1PHANTOM
100
AcDbLine
 10
16.68649648108089
 20
-62.25767901522909
 30
0.0
 11
16.68649648108067
 21
-67.25767901522954
 31
0.0
  0
LINE
  5
A3722
330
18
100
AcDbEntity
  8
01
100
AcDbLine
 10
28.68649648108089
 20
-39.55662735993201
 30
0.0
 11
28.68649648108089
 21
-62.25767901522954
 31
0.0
  0
LINE
  5
A3723
330
18
100
AcDbEntity
  8
1PHANTOM
100
AcDbLine
 10
28.68649648107953
 20
-62.25767901522954
 30
0.0
 11
28.68649648108089
 21
-67.25767901523
 31
0.0
  0
LINE
  5
A3724
330
18
100
AcDbEntity
  8
1PHANTOM
100
AcDbLine
 10
28.68649648108089
 20
-68.37604411168809
 30
0.0
 11
31.96308291331115
 21
-68.9537947043134
 31
0.0
  0
LINE
  5
A3725
330
18
100
AcDbEntity
  8
1PHANTOM
100
AcDbLine
 10
35.40991004885382
 20
-69.56156332614705
 30
0.0
 11
39.35777830069742
 21
-70.25767901523
 31
0.0
  0
LINE
  5
A3726
330
18
100
AcDbEntity
  8
1PHANTOM
100
AcDbLine
 10
36.83788129071991
 20
-69.8133531837641
 30
0.0
 11
36.4068806969899
 21
-72.25767901522954
 31
0.0
  0
LINE
  5
A3727
330
18
100
AcDbEntity
  8
1PHANTOM
100
AcDbLine
 10
30.53511167144165
 20
-68.7020048466959
 30
0.0
 11
29.90815038092114
 21
-72.25767901522954
 31
0.0
  0
LINE
  5
A3728
330
18
100
AcDbEntity
  8
1PHANTOM
100
AcDbLine
 10
16.68649648108089
 20
-68.37604411168854
 30
0.0
 11
6.015214661464597
 21
-70.25767901522954
 31
0.0
  0
LINE
  5
A3729
330
18
100
AcDbEntity
  8
1PHANTOM
100
AcDbLine
 10
8.535111671441427
 20
-69.8133531837641
 30
0.0
 11
8.966112265171432
 21
-72.25767901522909
 31
0.0
  0
LINE
  5
A372A
330
18
100
AcDbEntity
  8
1PHANTOM
100
AcDbLine
 10
14.83788129071945
 20
-68.7020048466959
 30
0.0
 11
15.46484258124019
 21
-72.25767901522909
 31
0.0
  0
LINE
  5
A372B
330
18
100
AcDbEntity
  8
1PHANTOM
100
AcDbLine
 10
28.68649648108089
 20
-68.37604411168809
 30
0.0
 11
28.68649648108089
 21
-67.25767901523
 31
0.0
  0
LINE
  5
A372C
330
18
100
AcDbEntity
  8
1PHANTOM
100
AcDbLine
 10
16.68649648108089
 20
-68.37604411168854
 30
0.0
 11
16.68649648108067
 21
-67.25767901522954
 31
0.0
  0
ARC
  5
A372D
330
18
100
AcDbEntity
  8
1PHANTOM
100
AcDbCircle
 10
17.18649648108101
 20
-67.75767901523
 30
0.0
 40
0.5
100
AcDbArc
 50
90.0
 51
180.0000000000261
  0
LINE
  5
A372E
330
18
100
AcDbEntity
  8
1PHANTOM
100
AcDbLine
 10
40.68649648107748
 20
-70.75767901522954
 30
0.0
 11
40.68649648107703
 21
-72.25767901522954
 31
0.0
  0
LINE
  5
A372F
330
18
100
AcDbEntity
  8
1PHANTOM
100
AcDbLine
 10
4.686496481084305
 20
-70.75767901522909
 30
0.0
 11
4.686496481084305
 21
-72.25767901522954
 31
0.0
  0
LINE
  5
A3730
330
18
100
AcDbEntity
  8
01
100
AcDbLine
 10
43.68649648108067
 20
-62.25767901523
 30
0.0
 11
1.686496481080667
 21
-62.25767901522863
 31
0.0
  0
LINE
  5
A3731
330
18
100
AcDbEntity
  8
01
100
AcDbLine
 10
44.18649648108067
 20
-62.75767901522954
 30
0.0
 11
44.18649648108021
 21
-72.25767901523
 31
0.0
  0
ARC
  5
A3732
330
18
100
AcDbEntity
  8
01
100
AcDbCircle
 10
43.68649648108055
 20
-62.75767901522954
 30
0.0
 40
0.5
100
AcDbArc
 50
0.0
 51
90.0
  0
LINE
  5
A3734
330
18
100
AcDbEntity
  8
1PHANTOM
100
AcDbLine
 10
38.29177954730449
 20
-69.05428806171881
 30
0.0
 11
38.11813136963747
 21
-70.03909581473113
 31
0.0
  0
LINE
  5
A3735
330
18
100
AcDbEntity
  8
1PHANTOM
100
AcDbLine
 10
29.42850977019452
 20
-67.49145446271655
 30
0.0
 11
29.25486159252728
 21
-68.47626221572887
 31
0.0
  0
LINE
  5
A3736
330
18
100
AcDbEntity
  8
1PHANTOM
100
AcDbLine
 10
31.96308291331115
 20
-68.9537947043134
 30
0.0
 11
35.40991004885382
 21
-69.56156332614705
 31
0.0
  0
LINE
  5
A3737
330
18
100
AcDbEntity
  8
1PHANTOM
100
AcDbLine
 10
33.94531552618514
 20
-68.2917531889409
 30
0.0
 11
34.65242230737203
 21
-69.51649806033288
 31
0.0
  0
LINE
  5
A3738
330
18
100
AcDbEntity
  8
01
100
AcDbLine
 10
1.186496481080667
 20
-62.78278236033225
 30
0.0
 11
1.186496481081122
 21
-72.25767901523
 31
0.0
  0
ARC
  5
A3739
330
18
100
AcDbEntity
  8
01
100
AcDbCircle
 10
1.686496481080781
 20
-62.75767901522954
 30
0.0
 40
0.5
100
AcDbArc
 50
90.0
 51
180.0
  0
LINE
  5
A373B
330
18
100
AcDbEntity
  8
1PHANTOM
100
AcDbLine
 10
7.081213414856848
 20
-69.05428806171926
 30
0.0
 11
7.254861592523866
 21
-70.03909581473113
 31
0.0
  0
LINE
  5
A373C
330
18
100
AcDbEntity
  8
1PHANTOM
100
AcDbLine
 10
15.94448319196681
 20
-67.491454462717
 30
0.0
 11
16.11813136963383
 21
-68.47626221572887
 31
0.0
  0
LINE
  5
A373D
330
18
100
AcDbEntity
  8
01
100
AcDbLine
 10
11.51284830341183
 20
-68.27287126221813
 30
0.0
 11
10.70168872806607
 21
-69.43132719289747
 31
0.0
  0
CIRCLE
  5
A373E
330
18
100
AcDbEntity
  8
1PHANTOM
100
AcDbCircle
 10
22.68649648108078
 20
-19.75767901522954
 30
0.0
 40
17.5
  0
LINE
  5
A3740
330
18
100
AcDbEntity
  8
1PHANTOM
100
AcDbLine
 10
6.015214661463688
 20
-70.25767901523
 30
0.0
 11
5.18649648108385
 21
-70.25767901522954
 31
0.0
  0
LINE
  5
A3741
330
18
100
AcDbEntity
  8
01
100
AcDbLine
 10
36.0922742356629
 20
-31.00646218474526
 30
0.0
 11
37.22116785610729
 21
-31.95371640530152
 31
0.0
  0
LINE
  5
A3742
330
18
100
AcDbEntity
  8
01
100
AcDbLine
 10
9.280718726495024
 20
-31.00646218474208
 30
0.0
 11
8.151825106050865
 21
-31.95371640529925
 31
0.0
  0
ARC
  5
A3743
330
18
100
AcDbEntity
  8
01
100
AcDbCircle
 10
22.68649648108078
 20
-19.75767901522954
 30
0.0
 40
17.5
100
AcDbArc
 50
219.9999999999866
 51
320.0000000000134
  0
ARC
  5
A3744
330
18
100
AcDbEntity
  8
01
100
AcDbCircle
 10
22.68649648108078
 20
-19.75767901522954
 30
0.0
 40
20.0
100
AcDbArc
 50
223.0169613098264
 51
316.983038690171
  0
LINE
  5
A3745
330
18
100
AcDbEntity
  8
1PHANTOM
100
AcDbLine
 10
11.38046061927844
 20
-37.16744751844521
 30
0.0
 11
16.39591562665328
 21
-29.44432407500312
 31
0.0
  0
LINE
  5
A3746
330
18
100
AcDbEntity
  8
1PHANTOM
100
AcDbLine
 10
33.99253234287926
 20
-37.16744751843794
 30
0.0
 11
28.97707733550442
 21
-29.44432407499767
 31
0.0
  0
LINE
  5
A3747
330
18
100
AcDbEntity
  8
01
100
AcDbLine
 10
37.22116785610729
 20
-31.95371640530152
 30
0.0
 11
37.30953202354249
 21
-33.4019756817454
 31
0.0
  0
LINE
  5
A3748
330
18
100
AcDbEntity
  8
01
100
AcDbLine
 10
8.151825106050865
 20
-31.95371640529925
 30
0.0
 11
8.06346093861589
 21
-33.40197568174221
 31
0.0
  0
LINE
  5
A3749
330
18
100
AcDbEntity
  8
1PHANTOM
100
AcDbLine
 10
34.37700788923235
 20
-33.62831140946378
 30
0.0
 11
30.60299033347837
 21
-36.07918706703208
 31
0.0
  0
LINE
  5
A374A
330
18
100
AcDbEntity
  8
1PHANTOM
100
AcDbLine
 10
34.37700788923235
 20
-33.62831140946378
 30
0.0
 11
36.45197229367295
 21
-34.06935870886014
 31
0.0
  0
LINE
  5
A374B
330
18
100
AcDbEntity
  8
1PHANTOM
100
AcDbLine
 10
34.02558194383778
 20
-33.08716290877533
 30
0.0
 11
34.37700788923235
 21
-33.62831140946378
 31
0.0
  0
LINE
  5
A374C
330
18
100
AcDbEntity
  8
1PHANTOM
100
AcDbLine
 10
30.25156438808267
 20
-35.53803856634363
 30
0.0
 11
30.60299033347883
 21
-36.07918706703254
 31
0.0
  0
LINE
  5
A374D
330
18
100
AcDbEntity
  8
1PHANTOM
100
AcDbLine
 10
30.60299033347724
 20
-36.07918706703208
 30
0.0
 11
30.16194303408201
 21
-38.15415147147246
 31
0.0
  0
LINE
  5
A374E
330
18
100
AcDbEntity
  8
1PHANTOM
100
AcDbLine
 10
30.16194303408201
 20
-38.15415147147246
 30
0.0
 11
36.45197229367295
 21
-34.06935870886014
 31
0.0
  0
LINE
  5
A374F
330
18
100
AcDbEntity
  8
1PHANTOM
100
AcDbLine
 10
36.45197229367295
 20
-34.06935870886014
 30
0.0
 11
36.53110401932418
 21
-34.19121088071665
 31
0.0
  0
LINE
  5
A3750
330
18
100
AcDbEntity
  8
1PHANTOM
100
AcDbLine
 10
10.99598507292899
 20
-33.62831140946378
 30
0.0
 11
14.77000262868296
 21
-36.07918706703208
 31
0.0
  0
LINE
  5
A3751
330
18
100
AcDbEntity
  8
01
100
AcDbLine
 10
10.99598507292899
 20
-33.62831140946378
 30
0.0
 11
8.921020668488381
 21
-34.06935870886014
 31
0.0
  0
LINE
  5
A3752
330
18
100
AcDbEntity
  8
1PHANTOM
100
AcDbLine
 10
11.34741101832356
 20
-33.08716290877533
 30
0.0
 11
10.99598507292899
 21
-33.62831140946378
 31
0.0
  0
LINE
  5
A3753
330
18
100
AcDbEntity
  8
1PHANTOM
100
AcDbLine
 10
15.12142857407866
 20
-35.53803856634363
 30
0.0
 11
14.77000262868251
 21
-36.07918706703254
 31
0.0
  0
LINE
  5
A3754
330
18
100
AcDbEntity
  8
1PHANTOM
100
AcDbLine
 10
14.7700026286841
 20
-36.07918706703208
 30
0.0
 11
15.21104992807932
 21
-38.15415147147246
 31
0.0
  0
LINE
  5
A3755
330
18
100
AcDbEntity
  8
1PHANTOM
100
AcDbLine
 10
15.21104992807932
 20
-38.15415147147246
 30
0.0
 11
8.921020668488381
 21
-34.06935870886014
 31
0.0
  0
LINE
  5
A3756
330
18
100
AcDbEntity
  8
1PHANTOM
100
AcDbLine
 10
8.921020668488381
 20
-34.06935870886014
 30
0.0
 11
8.841888942837159
 21
-34.19121088071665
 31
0.0
  0
LINE
  5
A3757
330
18
100
AcDbEntity
  8
1PHANTOM
100
AcDbLine
 10
30.39883933922897
 20
-38.05992884257807
 30
0.0
 11
36.26954706422293
 21
-34.24746608923192
 31
0.0
  0
LINE
  5
A3758
330
18
100
AcDbEntity
  8
1PHANTOM
100
AcDbLine
 10
36.1061553537179
 20
-33.9958649188477
 30
0.0
 11
36.26954706422293
 21
-34.24746608923192
 31
0.0
  0
LINE
  5
A3759
330
18
100
AcDbEntity
  8
1PHANTOM
100
AcDbLine
 10
30.23544762872348
 20
-37.80832767219295
 30
0.0
 11
30.39883933922897
 21
-38.05992884257807
 31
0.0
  0
LINE
  5
A375A
330
18
100
AcDbEntity
  8
1PHANTOM
100
AcDbLine
 10
36.10615535371835
 20
-33.9958649188477
 30
0.0
 11
33.33951703771822
 21
-33.40778097038515
 31
0.0
  0
LINE
  5
A375B
330
18
100
AcDbEntity
  8
1PHANTOM
100
AcDbLine
 10
30.23545055584623
 20
-37.80832577130673
 30
0.0
 11
30.82352054110106
 21
-35.04172149249393
 31
0.0
  0
LINE
  5
A375C
330
18
100
AcDbEntity
  8
1PHANTOM
100
AcDbLine
 10
26.85832519376504
 20
-23.42762072612072
 30
0.0
 11
33.33951703771822
 21
-33.40778097038515
 31
0.0
  0
LINE
  5
A375D
330
18
100
AcDbEntity
  8
1PHANTOM
100
AcDbLine
 10
24.34230968813858
 20
-25.06153197692197
 30
0.0
 11
30.82352054110106
 21
-35.04172149249393
 31
0.0
  0
LINE
  5
A375E
330
18
100
AcDbEntity
  8
1PHANTOM
100
AcDbLine
 10
22.71373055534332
 20
-19.79962234136588
 30
0.0
 11
26.85832519376504
 21
-23.42762072612072
 31
0.0
  0
LINE
  5
A375F
330
18
100
AcDbEntity
  8
1PHANTOM
100
AcDbLine
 10
22.71373055534332
 20
-19.79962234136588
 30
0.0
 11
24.34230968813858
 21
-25.06153197692197
 31
0.0
  0
LINE
  5
A3760
330
18
100
AcDbEntity
  8
1PHANTOM
100
AcDbLine
 10
30.23545055584623
 20
-37.80832577130673
 30
0.0
 11
36.10615535371835
 21
-33.9958649188477
 31
0.0
  0
LINE
  5
A3761
330
18
100
AcDbEntity
  8
1PHANTOM
100
AcDbLine
 10
30.02293096270273
 20
-34.72696087971167
 30
0.0
 11
32.94190707552661
 21
-31.87747609095436
 31
0.0
  0
LINE
  5
A3762
330
18
100
AcDbEntity
  8
1PHANTOM
100
AcDbLine
 10
32.94190707552661
 20
-31.87747609095436
 30
0.0
 11
32.4681072544206
 21
-32.06592757595968
 31
0.0
  0
LINE
  5
A3763
330
18
100
AcDbEntity
  8
1PHANTOM
100
AcDbLine
 10
28.28008605065452
 20
-32.04321506228621
 30
0.0
 11
31.19906216347636
 21
-29.19373027352526
 31
0.0
  0
LINE
  5
A3764
330
18
100
AcDbEntity
  8
1PHANTOM
100
AcDbLine
 10
29.15150850667851
 20
-33.38508797099871
 30
0.0
 11
32.07048461950035
 21
-30.53560318223776
 31
0.0
  0
LINE
  5
A3765
330
18
100
AcDbEntity
  8
1PHANTOM
100
AcDbLine
 10
26.53724113860653
 20
-29.35946924486075
 30
0.0
 11
29.45621725142837
 21
-26.5099844560998
 31
0.0
  0
LINE
  5
A3766
330
18
100
AcDbEntity
  8
1PHANTOM
100
AcDbLine
 10
27.40866359463053
 20
-30.70134215357325
 30
0.0
 11
30.32763970745236
 21
-27.85185736481276
 31
0.0
  0
LINE
  5
A3767
330
18
100
AcDbEntity
  8
1PHANTOM
100
AcDbLine
 10
24.79439622655832
 20
-26.67572342743529
 30
0.0
 11
27.71337233937993
 21
-23.82623863867434
 31
0.0
  0
LINE
  5
A3768
330
18
100
AcDbEntity
  8
1PHANTOM
100
AcDbLine
 10
26.65206866537983
 20
-22.60767540658094
 30
0.0
 11
26.13163742465122
 21
-22.79150977135419
 31
0.0
  0
LINE
  5
A3769
330
18
100
AcDbEntity
  8
1PHANTOM
100
AcDbLine
 10
23.92297377053433
 20
-25.33385051872278
 30
0.0
 11
26.65206866537983
 21
-22.60767540658094
 31
0.0
  0
LINE
  5
A376A
330
18
100
AcDbEntity
  8
1PHANTOM
100
AcDbLine
 10
25.66581868258254
 20
-28.01759633614824
 30
0.0
 11
28.58479479540438
 21
-25.1681115473873
 31
0.0
  0
LINE
  5
A376B
330
18
100
AcDbEntity
  8
1PHANTOM
100
AcDbLine
 10
31.19906216347636
 20
-29.19373027352526
 30
0.0
 11
30.7252623423708
 21
-29.38218175853149
 31
0.0
  0
LINE
  5
A376C
330
18
100
AcDbEntity
  8
1PHANTOM
100
AcDbLine
 10
32.07048461950035
 20
-30.53560318223776
 30
0.0
 11
31.59668479839479
 21
-30.72405466724399
 31
0.0
  0
LINE
  5
A376D
330
18
100
AcDbEntity
  8
1PHANTOM
100
AcDbLine
 10
29.45621725142837
 20
-26.5099844560998
 30
0.0
 11
28.98241743032236
 21
-26.69843594110603
 31
0.0
  0
LINE
  5
A376E
330
18
100
AcDbEntity
  8
01
100
AcDbLine
 10
30.32763970745236
 20
-27.85185736481276
 30
0.0
 11
29.85383988634635
 21
-28.04030884981853
 31
0.0
  0
LINE
  5
A376F
330
18
100
AcDbEntity
  8
1PHANTOM
100
AcDbLine
 10
27.71337233937993
 20
-23.82623863867434
 30
0.0
 11
27.23957251827437
 21
-24.01469012368102
 31
0.0
  0
LINE
  5
A3770
330
18
100
AcDbEntity
  8
1PHANTOM
100
AcDbLine
 10
28.58479479540438
 20
-25.1681115473873
 30
0.0
 11
28.11099497429836
 21
-25.35656303239352
 31
0.0
  0
LINE
  5
A3771
330
18
100
AcDbEntity
  8
1CENTER
100
AcDbLine
 10
22.71373055534332
 20
-19.79962234136588
 30
0.0
 11
34.51371396190802
 21
-37.9700033627289
 31
0.0
  0
LINE
  5
A3772
330
18
100
AcDbEntity
  8
1PHANTOM
100
AcDbLine
 10
23.88531453500309
 20
-23.58498892705643
 30
0.0
 11
23.43131545938263
 21
-23.74535714699164
 31
0.0
  0
LINE
  5
A3773
330
18
100
AcDbEntity
  8
1PHANTOM
100
AcDbLine
 10
24.14969888142923
 20
-20.41716829563006
 30
0.0
 11
23.48652659847357
 21
-20.4760944793718
 31
0.0
  0
LINE
  5
A3774
330
18
100
AcDbEntity
  8
1PHANTOM
100
AcDbLine
 10
23.40554935243176
 20
-22.03487632513156
 30
0.0
 11
22.93965493916062
 21
-22.15686520984059
 31
0.0
  0
LINE
  5
A3775
330
18
100
AcDbEntity
  8
1PHANTOM
100
AcDbLine
 10
25.40088377340453
 20
-21.51242185110573
 30
0.0
 11
24.83860725095701
 21
-21.65964723934371
 31
0.0
  0
LINE
  5
A3776
330
18
100
AcDbEntity
  8
1PHANTOM
100
AcDbLine
 10
22.93965493916062
 20
-22.15686520984059
 30
0.0
 11
24.14969888142923
 21
-20.41716829563006
 31
0.0
  0
LINE
  5
A3777
330
18
100
AcDbEntity
  8
1PHANTOM
100
AcDbLine
 10
23.43131545938263
 20
-23.74535714699164
 30
0.0
 11
25.40088377340453
 21
-21.51242185110573
 31
0.0
  0
LINE
  5
A3778
330
18
100
AcDbEntity
  8
1PHANTOM
100
AcDbLine
 10
28.7538858717603
 20
-31.85476357727998
 30
0.0
 11
28.28008605065452
 21
-32.04321506228621
 31
0.0
  0
LINE
  5
A3779
330
18
100
AcDbEntity
  8
1PHANTOM
100
AcDbLine
 10
29.62530832778452
 20
-33.19663648599294
 30
0.0
 11
29.15150850667851
 21
-33.38508797099871
 31
0.0
  0
LINE
  5
A377A
330
18
100
AcDbEntity
  8
1PHANTOM
100
AcDbLine
 10
26.1396185036881
 20
-27.82914485114202
 30
0.0
 11
25.66581868258254
 21
-28.01759633614824
 31
0.0
  0
LINE
  5
A377B
330
18
100
AcDbEntity
  8
1PHANTOM
100
AcDbLine
 10
27.01104095971209
 20
-29.17101775985452
 30
0.0
 11
26.53724113860653
 21
-29.35946924486075
 31
0.0
  0
LINE
  5
A377C
330
18
100
AcDbEntity
  8
1PHANTOM
100
AcDbLine
 10
27.88246341573608
 20
-30.51289066856702
 30
0.0
 11
27.40866359463053
 21
-30.70134215357325
 31
0.0
  0
LINE
  5
A377D
330
18
100
AcDbEntity
  8
1PHANTOM
100
AcDbLine
 10
25.26819604766411
 20
-26.48727194242906
 30
0.0
 11
24.79439622655832
 21
-26.67572342743529
 31
0.0
  0
LINE
  5
A377E
330
18
100
AcDbEntity
  8
1PHANTOM
100
AcDbLine
 10
24.39677359164011
 20
-25.14539903371656
 30
0.0
 11
23.92297377053433
 21
-25.33385051872278
 31
0.0
  0
LINE
  5
A377F
330
18
100
AcDbEntity
  8
1PHANTOM
100
AcDbLine
 10
30.49673078380852
 20
-34.53850939470544
 30
0.0
 11
30.02293096270273
 21
-34.72696087971167
 31
0.0
  0
LINE
  5
A3780
330
18
100
AcDbEntity
  8
1PHANTOM
100
AcDbLine
 10
14.97415362293214
 20
-38.05992884257807
 30
0.0
 11
9.103445897938172
 21
-34.24746608923192
 31
0.0
  0
LINE
  5
A3781
330
18
100
AcDbEntity
  8
1PHANTOM
100
AcDbLine
 10
9.266837608443211
 20
-33.9958649188477
 30
0.0
 11
9.103445897938172
 21
-34.24746608923192
 31
0.0
  0
LINE
  5
A3782
330
18
100
AcDbEntity
  8
1PHANTOM
100
AcDbLine
 10
15.13754533343763
 20
-37.80832767219295
 30
0.0
 11
14.97415362293214
 21
-38.05992884257807
 31
0.0
  0
LINE
  5
A3783
330
18
100
AcDbEntity
  8
01
100
AcDbLine
 10
9.266837608442756
 20
-33.9958649188477
 30
0.0
 11
12.03347592444288
 21
-33.40778097038515
 31
0.0
  0
LINE
  5
A3784
330
18
100
AcDbEntity
  8
1PHANTOM
100
AcDbLine
 10
15.13754240631488
 20
-37.80832577130673
 30
0.0
 11
14.54947242106005
 21
-35.04172149249393
 31
0.0
  0
LINE
  5
A3785
330
18
100
AcDbEntity
  8
1PHANTOM
100
AcDbLine
 10
18.51466776839607
 20
-23.42762072612072
 30
0.0
 11
12.03347592444288
 21
-33.40778097038515
 31
0.0
  0
LINE
  5
A3786
330
18
100
AcDbEntity
  8
1PHANTOM
100
AcDbLine
 10
21.03068327402252
 20
-25.06153197692197
 30
0.0
 11
14.54947242106005
 21
-35.04172149249393
 31
0.0
  0
LINE
  5
A3787
330
18
100
AcDbEntity
  8
1PHANTOM
100
AcDbLine
 10
22.65926240681779
 20
-19.79962234136588
 30
0.0
 11
18.51466776839607
 21
-23.42762072612072
 31
0.0
  0
LINE
  5
A3788
330
18
100
AcDbEntity
  8
1PHANTOM
100
AcDbLine
 10
22.65926240681779
 20
-19.79962234136588
 30
0.0
 11
21.03068327402252
 21
-25.06153197692197
 31
0.0
  0
LINE
  5
A3789
330
18
100
AcDbEntity
  8
1PHANTOM
100
AcDbLine
 10
15.13754240631488
 20
-37.80832577130673
 30
0.0
 11
9.266837608442756
 21
-33.9958649188477
 31
0.0
  0
LINE
  5
A378A
330
18
100
AcDbEntity
  8
1PHANTOM
100
AcDbLine
 10
15.35006199945838
 20
-34.72696087971167
 30
0.0
 11
12.43108588663449
 21
-31.87747609095436
 31
0.0
  0
LINE
  5
A378B
330
18
100
AcDbEntity
  8
1PHANTOM
100
AcDbLine
 10
12.43108588663449
 20
-31.87747609095436
 30
0.0
 11
12.9048857077405
 21
-32.06592757595968
 31
0.0
  0
LINE
  5
A378C
330
18
100
AcDbEntity
  8
1PHANTOM
100
AcDbLine
 10
17.09290691150659
 20
-32.04321506228621
 30
0.0
 11
14.17393079868475
 21
-29.19373027352526
 31
0.0
  0
LINE
  5
A378D
330
18
100
AcDbEntity
  8
01
100
AcDbLine
 10
16.2214844554826
 20
-33.38508797099871
 30
0.0
 11
13.30250834266076
 21
-30.53560318223776
 31
0.0
  0
LINE
  5
A378E
330
18
100
AcDbEntity
  8
1PHANTOM
100
AcDbLine
 10
18.83575182355457
 20
-29.35946924486075
 30
0.0
 11
15.91677571073274
 21
-26.5099844560998
 31
0.0
  0
LINE
  5
A378F
330
18
100
AcDbEntity
  8
1PHANTOM
100
AcDbLine
 10
17.96432936753058
 20
-30.70134215357325
 30
0.0
 11
15.04535325470874
 21
-27.85185736481276
 31
0.0
  0
LINE
  5
A3790
330
18
100
AcDbEntity
  8
1PHANTOM
100
AcDbLine
 10
20.57859673560279
 20
-26.67572342743529
 30
0.0
 11
17.65962062278118
 21
-23.82623863867434
 31
0.0
  0
LINE
  5
A3791
330
18
100
AcDbEntity
  8
1PHANTOM
100
AcDbLine
 10
18.72092429678128
 20
-22.60767540658094
 30
0.0
 11
19.24135553750989
 21
-22.79150977135419
 31
0.0
  0
LINE
  5
A3792
330
18
100
AcDbEntity
  8
1PHANTOM
100
AcDbLine
 10
21.45001919162678
 20
-25.33385051872278
 30
0.0
 11
18.72092429678128
 21
-22.60767540658094
 31
0.0
  0
LINE
  5
A3793
330
18
100
AcDbEntity
  8
1PHANTOM
100
AcDbLine
 10
19.70717427957857
 20
-28.01759633614824
 30
0.0
 11
16.78819816675673
 21
-25.1681115473873
 31
0.0
  0
LINE
  5
A3794
330
18
100
AcDbEntity
  8
1PHANTOM
100
AcDbLine
 10
14.17393079868475
 20
-29.19373027352526
 30
0.0
 11
14.64773061979031
 21
-29.38218175853149
 31
0.0
  0
LINE
  5
A3795
330
18
100
AcDbEntity
  8
01
100
AcDbLine
 10
13.30250834266076
 20
-30.53560318223776
 30
0.0
 11
13.77630816376632
 21
-30.72405466724399
 31
0.0
  0
LINE
  5
A3796
330
18
100
AcDbEntity
  8
1PHANTOM
100
AcDbLine
 10
15.91677571073274
 20
-26.5099844560998
 30
0.0
 11
16.39057553183875
 21
-26.69843594110603
 31
0.0
  0
LINE
  5
A3797
330
18
100
AcDbEntity
  8
1PHANTOM
100
AcDbLine
 10
15.04535325470874
 20
-27.85185736481276
 30
0.0
 11
15.51915307581476
 21
-28.04030884981853
 31
0.0
  0
LINE
  5
A3798
330
18
100
AcDbEntity
  8
01
100
AcDbLine
 10
17.65962062278118
 20
-23.82623863867434
 30
0.0
 11
18.13342044388673
 21
-24.01469012368102
 31
0.0
  0
LINE
  5
A3799
330
18
100
AcDbEntity
  8
01
100
AcDbLine
 10
16.78819816675673
 20
-25.1681115473873
 30
0.0
 11
17.26199798786274
 21
-25.35656303239352
 31
0.0
  0
LINE
  5
A379A
330
18
100
AcDbEntity
  8
1CENTER
100
AcDbLine
 10
22.65926240681779
 20
-19.79962234136588
 30
0.0
 11
10.85927900025308
 21
-37.9700033627289
 31
0.0
  0
LINE
  5
A379B
330
18
100
AcDbEntity
  8
1PHANTOM
100
AcDbLine
 10
21.48767842715802
 20
-23.58498892705643
 30
0.0
 11
21.94167750277848
 21
-23.74535714699164
 31
0.0
  0
LINE
  5
A379C
330
18
100
AcDbEntity
  8
1PHANTOM
100
AcDbLine
 10
21.22329408073188
 20
-20.41716829563006
 30
0.0
 11
21.88646636368753
 21
-20.4760944793718
 31
0.0
  0
LINE
  5
A379D
330
18
100
AcDbEntity
  8
1PHANTOM
100
AcDbLine
 10
21.96744360972934
 20
-22.03487632513156
 30
0.0
 11
22.43333802300049
 21
-22.15686520984059
 31
0.0
  0
LINE
  5
A379E
330
18
100
AcDbEntity
  8
1PHANTOM
100
AcDbLine
 10
19.97210918875658
 20
-21.51242185110573
 30
0.0
 11
20.5343857112041
 21
-21.65964723934371
 31
0.0
  0
LINE
  5
A379F
330
18
100
AcDbEntity
  8
1PHANTOM
100
AcDbLine
 10
22.43333802300049
 20
-22.15686520984059
 30
0.0
 11
21.22329408073188
 21
-20.41716829563006
 31
0.0
  0
LINE
  5
A37A0
330
18
100
AcDbEntity
  8
1PHANTOM
100
AcDbLine
 10
21.94167750277848
 20
-23.74535714699164
 30
0.0
 11
19.97210918875658
 21
-21.51242185110573
 31
0.0
  0
LINE
  5
A37A1
330
18
100
AcDbEntity
  8
01
100
AcDbLine
 10
16.6191070904008
 20
-31.85476357727998
 30
0.0
 11
17.09290691150659
 21
-32.04321506228621
 31
0.0
  0
LINE
  5
A37A2
330
18
100
AcDbEntity
  8
01
100
AcDbLine
 10
15.74768463437658
 20
-33.19663648599294
 30
0.0
 11
16.2214844554826
 21
-33.38508797099871
 31
0.0
  0
LINE
  5
A37A3
330
18
100
AcDbEntity
  8
1PHANTOM
100
AcDbLine
 10
19.23337445847301
 20
-27.82914485114202
 30
0.0
 11
19.70717427957857
 21
-28.01759633614824
 31
0.0
  0
LINE
  5
A37A4
330
18
100
AcDbEntity
  8
1PHANTOM
100
AcDbLine
 10
18.36195200244902
 20
-29.17101775985452
 30
0.0
 11
18.83575182355457
 21
-29.35946924486075
 31
0.0
  0
LINE
  5
A37A5
330
18
100
AcDbEntity
  8
01
100
AcDbLine
 10
17.49052954642502
 20
-30.51289066856702
 30
0.0
 11
17.96432936753058
 21
-30.70134215357325
 31
0.0
  0
LINE
  5
A37A6
330
18
100
AcDbEntity
  8
1PHANTOM
100
AcDbLine
 10
20.104796914497
 20
-26.48727194242906
 30
0.0
 11
20.57859673560279
 21
-26.67572342743529
 31
0.0
  0
LINE
  5
A37A7
330
18
100
AcDbEntity
  8
1PHANTOM
100
AcDbLine
 10
20.97621937052099
 20
-25.14539903371656
 30
0.0
 11
21.45001919162678
 21
-25.33385051872278
 31
0.0
  0
LINE
  5
A37A8
330
18
100
AcDbEntity
  8
1PHANTOM
100
AcDbLine
 10
14.87626217835259
 20
-34.53850939470544
 30
0.0
 11
15.35006199945838
 21
-34.72696087971167
 31
0.0
  0
LINE
  5
A37A9
330
18
100
AcDbEntity
  8
01
100
AcDbLine
 10
-68.31350351891882
 20
-31.00646218473844
 30
0.0
 11
-92.31350351891825
 21
-31.00646218473798
 31
0.0
  0
LINE
  5
A37AA
330
18
100
AcDbEntity
  8
01
100
AcDbLine
 10
-68.31350351891825
 20
-31.95371640529515
 30
0.0
 11
-92.31350351891831
 21
-31.95371640529561
 31
0.0
  0
LINE
  5
A37AB
330
18
100
AcDbEntity
  8
01
100
AcDbLine
 10
-68.81350351891479
 20
-33.40197568173835
 30
0.0
 11
-91.81350351891842
 21
-33.40197568173858
 31
0.0
  0
LINE
  5
A37AC
330
18
100
AcDbEntity
  8
01
100
AcDbLine
 10
-91.81350351891842
 20
-39.75767901522568
 30
0.0
 11
-91.81350351891842
 21
-33.40197568173835
 31
0.0
  0
LINE
  5
A37AD
330
18
100
AcDbEntity
  8
01
100
AcDbLine
 10
-68.81350351891479
 20
-39.75767901522568
 30
0.0
 11
-68.81350351891479
 21
-33.40197568173835
 31
0.0
  0
LINE
  5
A37AE
330
18
100
AcDbEntity
  8
01
100
AcDbLine
 10
-91.81350351891842
 20
-33.40197568173835
 30
0.0
 11
-92.31350351891831
 21
-31.95371640529561
 31
0.0
  0
LINE
  5
A37AF
330
18
100
AcDbEntity
  8
01
100
AcDbLine
 10
-68.81350351891479
 20
-33.40197568173835
 30
0.0
 11
-68.31350351891825
 21
-31.95371640529515
 31
0.0
  0
ELLIPSE
  5
A37B0
330
18
100
AcDbEntity
  8
01
100
AcDbEllipse
 10
-73.31350351891842
 20
47.11848796236382
 30
0.0
 11
2.099999999999909
 21
-1.285836671513440E-16
 31
0.0
210
0.0
220
0.0
230
1.0
 40
0.8714674068047
 41
3.234946108734916
 42
6.189831851874494
  0
ELLIPSE
  5
A37B1
330
18
100
AcDbEntity
  8
01
100
AcDbEllipse
 10
-73.31350351891842
 20
46.7772951691245
 30
0.0
 11
2.099999999999909
 21
-1.285836671513440E-16
 31
0.0
210
0.0
220
0.0
230
1.0
 40
0.8714674068047
 41
0.0
 42
6.283185307179586
  0
LINE
  5
A37B3
330
18
100
AcDbEntity
  8
1CENTER
100
AcDbLine
 10
-115.4094524238705
 20
-19.75767901522295
 30
0.0
 11
-52.14221205451577
 21
-19.75767901522295
 31
0.0
  0
LINE
  5
A37BE
330
18
100
AcDbEntity
  8
01
100
AcDbLine
 10
70.05938068442163
 20
-81.25767901522931
 30
0.0
 11
-9.94061931557792
 21
-81.25767901522931
 31
0.0
  0
LINE
  5
A37BF
330
18
100
AcDbEntity
  8
01
100
AcDbLine
 10
70.05938068442163
 20
-93.25767901522931
 30
0.0
 11
-9.94061931557792
 21
-93.25767901522931
 31
0.0
  0
LINE
  5
A37C0
330
18
100
AcDbEntity
  8
01
100
AcDbLine
 10
70.05938068442163
 20
-72.25767901522931
 30
0.0
 11
-9.94061931557792
 21
-72.25767901522931
 31
0.0
  0
TEXT
  5
A37C5
330
18
100
AcDbEntity
  8
1TEXT
100
AcDbText
 10
-4.680170185585681
 20
52.41082339683453
 30
0.0
 40
4.0
  1
マットブラック
 72
     1
 11
11.58649648108099
 21
52.41082339683453
 31
0.0
100
AcDbText
  0
LINE
  5
A37C6
330
18
100
AcDbEntity
  8
1DIM
100
AcDbLine
 10
-5.813503518919106
 20
50.74611205635892
 30
0.0
 11
64.1864964810809
 21
50.74611205635892
 31
0.0
  0
TEXT
  5
A37C7
330
18
100
AcDbEntity
  8
1TEXT
100
AcDbText
 10
31.65316314774811
 20
52.03175507270953
 30
0.0
 40
4.0
  1
KH-372-003
 41
0.8
 72
     1
 11
46.58649648108144
 21
52.03175507270953
 31
0.0
100
AcDbText
  0
TEXT
  5
A3A08
330
18
100
AcDbEntity
  8
01
  6
CONTINUOUS
100
AcDbText
 10
86.8387374281125
 20
-92.70851734676653
 30
0.0
 40
3.5
  1
合板12mm以上
100
AcDbText
  0
TEXT
  5
A3A09
330
18
100
AcDbEntity
  8
01
  6
CONTINUOUS
100
AcDbText
 10
87.5452020684476
 20
-83.19917995382664
 30
0.0
 40
3.5
  1
PB
100
AcDbText
  0
TEXT
  5
A3A0A
330
18
100
AcDbEntity
  8
01
  6
CONTINUOUS
100
AcDbText
 10
-142.6614763857249
 20
-79.52630386405022
 30
0.0
 40
3.5
  1
材質：亜鉛ダイキャスト
100
AcDbText
  0
TEXT
  5
A3A0B
330
18
100
AcDbEntity
  8
01
  6
CONTINUOUS
100
AcDbText
 10
-142.5448097190582
 20
-85.35963719738355
 30
0.0
 40
3.5
  1
仕上げ：各種仕上げ
100
AcDbText
  0
TEXT
  5
A3A0C
330
18
100
AcDbEntity
  8
01
  6
CONTINUOUS
100
AcDbText
 10
-132.8256112691285
 20
-94.0358574098797
 30
0.0
 40
3.5
  1
材質：亜鉛ダイキャスト
100
AcDbText
  0
TEXT
  5
A3A0D
330
18
100
AcDbEntity
  8
01
  6
CONTINUOUS
100
AcDbText
 10
-132.7089446024619
 20
-99.86919074321303
 30
0.0
 40
3.5
  1
仕上げ：各種仕上げ
100
AcDbText
  0
LINE
  5
A3A0F
330
18
100
AcDbEntity
  8
1DIM
100
AcDbLine
 10
71.58532275484339
 20
-88.36784549254624
 30
0.0
 11
86.13873742811249
 21
-93.40851734676653
 31
0.0
1001
ACAD
1000
DSTYLE
1002
{
1070
    50
1040
1.570796326794897
1070
   345
1005
14
1070
   346
1005
14
1070
   347
1005
14
1002
}
  0
LINE
  5
A3A11
330
18
100
AcDbEntity
  8
1DIM
100
AcDbLine
 10
70.3584268067014
 20
-78.0097099145271
 30
0.0
 11
86.84520206844759
 21
-83.89917995382665
 31
0.0
1001
ACAD
1000
DSTYLE
1002
{
1070
    50
1040
1.570796326794897
1070
   345
1005
14
1070
   346
1005
14
1070
   347
1005
14
1002
}
  0
LINE
  5
A3A13
330
18
100
AcDbEntity
  8
1DIM
100
AcDbLine
 10
-82.46511927379179
 20
-59.53310030340635
 30
0.0
 11
-96.46147638572491
 21
-86.05963719738357
 31
0.0
1001
ACAD
1000
DSTYLE
1002
{
1070
    50
1040
1.570796326794897
1070
   345
1005
14
1070
   346
1005
14
1070
   347
1005
14
1002
}
  0
LINE
  5
A3A15
330
18
100
AcDbEntity
  8
1DIM
100
AcDbLine
 10
-71.74775270132103
 20
-72.57697690825358
 30
0.0
 11
-86.62561126912858
 21
-100.569190743213
 31
0.0
1001
ACAD
1000
DSTYLE
1002
{
1070
    50
1040
1.570796326794897
1070
   345
1005
14
1070
   346
1005
14
1070
   347
1005
14
1002
}
  0
LINE
  5
A3A16
330
18
100
AcDbEntity
  8
1DIM
  6
CONTINUOUS
100
AcDbLine
 10
-101.8135035189198
 20
37.24611205635915
 30
0.0
 11
-101.8135035189198
 21
79.74611205635892
 31
0.0
  0
LINE
  5
A3A17
330
18
100
AcDbEntity
  8
1DIM
  6
CONTINUOUS
100
AcDbLine
 10
-58.81350351891842
 20
37.2461120563587
 30
0.0
 11
-58.81350351891842
 21
79.74611205635892
 31
0.0
  0
LINE
  5
A3A18
330
18
100
AcDbEntity
  8
1DIM
  6
CONTINUOUS
100
AcDbLine
 10
-99.81350351891979
 20
78.74611205635892
 30
0.0
 11
-60.81350351891842
 21
78.74611205635892
 31
0.0
  0
LINE
  5
A3A1C
330
18
100
AcDbEntity
  8
0
100
AcDbLine
 10
33.52332605438551
 20
-84.57999069753214
 30
0.0
 11
28.42563911165757
 21
-84.69655756221056
 31
0.0
  0
LINE
  5
A3A1D
330
18
100
AcDbEntity
  8
1CENTER
100
AcDbLine
 10
26.66306094933199
 20
-109.0895612577457
 30
0.0
 11
34.72542532321206
 21
-63.36562076098069
 31
0.0
  0
LINE
  5
A3A1F
330
18
100
AcDbEntity
  8
0
100
AcDbLine
 10
30.21033613325798
 20
-102.3108136890766
 30
0.0
 11
29.49777754514882
 21
-102.0328563928747
 31
0.0
  0
LINE
  5
A3A20
330
18
100
AcDbEntity
  8
0
100
AcDbLine
 10
30.21033613325804
 20
-102.3108136890767
 30
0.0
 11
25.72752762092236
 21
-102.4133203630069
 31
0.0
  0
LINE
  5
A3A21
330
18
100
AcDbEntity
  8
0
100
AcDbLine
 10
26.78264936276281
 20
-106.6067924233489
 30
0.0
 11
26.07009077465365
 21
-106.3288351271469
 31
0.0
  0
LINE
  5
A3A22
330
18
100
AcDbEntity
  8
0
100
AcDbLine
 10
28.36113105250747
 20
-106.2764467821894
 30
0.0
 11
27.64857246439831
 21
-105.9984894859874
 31
0.0
  0
LINE
  5
A3A23
330
18
100
AcDbEntity
  8
0
100
AcDbLine
 10
28.36113105250747
 20
-106.2764467821894
 30
0.0
 11
26.0700907746537
 21
-106.328835127147
 31
0.0
  0
LINE
  5
A3A24
330
18
100
AcDbEntity
  8
0
100
AcDbLine
 10
26.44008620903152
 20
-102.6912776592088
 30
0.0
 11
25.72752762092236
 21
-102.4133203630069
 31
0.0
  0
LINE
  5
A3A25
330
18
100
AcDbEntity
  8
0
100
AcDbLine
 10
26.6113677858972
 20
-104.6490350412789
 30
0.0
 11
25.89880919778803
 21
-104.3710777450769
 31
0.0
  0
LINE
  5
A3A26
330
18
100
AcDbEntity
  8
0
100
AcDbLine
 10
29.28573359288272
 20
-104.293630235633
 30
0.0
 11
28.57317500477356
 21
-104.0156729394311
 31
0.0
  0
LINE
  5
A3A27
330
18
100
AcDbEntity
  8
0
100
AcDbLine
 10
29.28573359288278
 20
-104.293630235633
 30
0.0
 11
25.89880919778798
 21
-104.3710777450769
 31
0.0
  0
LINE
  5
A3A28
330
18
100
AcDbEntity
  8
0
100
AcDbLine
 10
27.74901227843262
 20
-92.85297688251038
 30
0.0
 11
27.03645369032346
 21
-92.57501958630846
 31
0.0
  0
LINE
  5
A3A29
330
18
100
AcDbEntity
  8
0
100
AcDbLine
 10
31.43954792238436
 20
-96.39768373367899
 30
0.0
 11
30.7269893342752
 21
-96.11972643747708
 31
0.0
  0
LINE
  5
A3A2A
330
18
100
AcDbEntity
  8
0
100
AcDbLine
 10
31.78684427771789
 20
-94.42806822765452
 30
0.0
 11
31.07428568960872
 21
-94.1501109314526
 31
0.0
  0
LINE
  5
A3A2B
330
18
100
AcDbEntity
  8
0
100
AcDbLine
 10
31.78684427771789
 20
-94.42806822765452
 30
0.0
 11
26.68915733498994
 21
-94.54463509233294
 31
0.0
  0
LINE
  5
A3A2C
330
18
100
AcDbEntity
  8
0
100
AcDbLine
 10
31.09225156705083
 20
-98.36729923970347
 30
0.0
 11
30.37969297894167
 21
-98.08934194350155
 31
0.0
  0
LINE
  5
A3A2D
330
18
100
AcDbEntity
  8
0
100
AcDbLine
 10
30.74495521171731
 20
-100.3369147457279
 30
0.0
 11
30.03239662360815
 21
-100.058957449526
 31
0.0
  0
LINE
  5
A3A2E
330
18
100
AcDbEntity
  8
0
100
AcDbLine
 10
30.74495521171731
 20
-100.3369147457279
 30
0.0
 11
25.64726826898936
 21
-100.4534816104064
 31
0.0
  0
LINE
  5
A3A2F
330
18
100
AcDbEntity
  8
0
100
AcDbLine
 10
31.09225156705083
 20
-98.36729923970347
 30
0.0
 11
25.99456462432288
 21
-98.48386610438189
 31
0.0
  0
LINE
  5
A3A30
330
18
100
AcDbEntity
  8
0
100
AcDbLine
 10
31.43954792238436
 20
-96.39768373367899
 30
0.0
 11
26.34186097965641
 21
-96.51425059835742
 31
0.0
  0
LINE
  5
A3A31
330
18
100
AcDbEntity
  8
0
100
AcDbLine
 10
26.35982685709852
 20
-100.7314389066083
 30
0.0
 11
25.64726826898936
 21
-100.4534816104064
 31
0.0
  0
LINE
  5
A3A32
330
18
100
AcDbEntity
  8
0
100
AcDbLine
 10
26.70712321243204
 20
-98.76182340058381
 30
0.0
 11
25.99456462432288
 21
-98.48386610438189
 31
0.0
  0
LINE
  5
A3A33
330
18
100
AcDbEntity
  8
0
100
AcDbLine
 10
27.4017159230991
 20
-94.82259238853484
 30
0.0
 11
26.68915733498994
 21
-94.54463509233294
 31
0.0
  0
LINE
  5
A3A34
330
18
100
AcDbEntity
  8
0
100
AcDbLine
 10
27.05441956776557
 20
-96.79220789455933
 30
0.0
 11
26.34186097965641
 21
-96.51425059835742
 31
0.0
  0
LINE
  5
A3A35
330
18
100
AcDbEntity
  8
0
100
AcDbLine
 10
32.48143698838494
 20
-90.48883721560557
 30
0.0
 11
31.76887840027577
 21
-90.21087991940365
 31
0.0
  0
LINE
  5
A3A36
330
18
100
AcDbEntity
  8
0
100
AcDbLine
 10
32.13414063305141
 20
-92.45845272163004
 30
0.0
 11
31.42158204494225
 21
-92.18049542542812
 31
0.0
  0
LINE
  5
A3A37
330
18
100
AcDbEntity
  8
0
100
AcDbLine
 10
33.17602969905199
 20
-86.5496062035566
 30
0.0
 11
32.46347111094283
 21
-86.2716489073547
 31
0.0
  0
LINE
  5
A3A38
330
18
100
AcDbEntity
  8
0
100
AcDbLine
 10
32.82873334371846
 20
-88.51922170958109
 30
0.0
 11
32.1161747556093
 21
-88.24126441337918
 31
0.0
  0
LINE
  5
A3A39
330
18
100
AcDbEntity
  8
0
100
AcDbLine
 10
32.13414063305141
 20
-92.45845272163004
 30
0.0
 11
27.03645369032346
 21
-92.57501958630846
 31
0.0
  0
LINE
  5
A3A3A
330
18
100
AcDbEntity
  8
0
100
AcDbLine
 10
32.48143698838494
 20
-90.48883721560557
 30
0.0
 11
27.38375004565699
 21
-90.60540408028399
 31
0.0
  0
LINE
  5
A3A3B
330
18
100
AcDbEntity
  8
0
100
AcDbLine
 10
32.82873334371846
 20
-88.51922170958109
 30
0.0
 11
27.73104640099051
 21
-88.63578857425952
 31
0.0
  0
LINE
  5
A3A3C
330
18
100
AcDbEntity
  8
0
100
AcDbLine
 10
33.17602969905199
 20
-86.5496062035566
 30
0.0
 11
28.07834275632404
 21
-86.66617306823504
 31
0.0
  0
LINE
  5
A3A3D
330
18
100
AcDbEntity
  8
0
100
AcDbLine
 10
28.44360498909968
 20
-88.91374587046143
 30
0.0
 11
27.73104640099051
 21
-88.63578857425952
 31
0.0
  0
LINE
  5
A3A3E
330
18
100
AcDbEntity
  8
0
100
AcDbLine
 10
28.09630863376615
 20
-90.88336137648591
 30
0.0
 11
27.38375004565699
 21
-90.60540408028399
 31
0.0
  0
LINE
  5
A3A3F
330
18
100
AcDbEntity
  8
0
100
AcDbLine
 10
29.13819769976673
 20
-84.97451485841248
 30
0.0
 11
28.42563911165757
 21
-84.69655756221056
 31
0.0
  0
LINE
  5
A3A40
330
18
100
AcDbEntity
  8
0
100
AcDbLine
 10
28.7909013444332
 20
-86.94413036443694
 30
0.0
 11
28.07834275632404
 21
-86.66617306823504
 31
0.0
  0
LINE
  5
A3A41
330
18
100
AcDbEntity
  8
0
100
AcDbLine
 10
36.30169689705372
 20
-68.82306664933634
 30
0.0
 11
31.20400995432577
 21
-68.93963351401476
 31
0.0
  0
LINE
  5
A3A42
330
18
100
AcDbEntity
  8
0
100
AcDbLine
 10
34.91251147571962
 20
-76.70152867343424
 30
0.0
 11
29.81482453299167
 21
-76.81809553811266
 31
0.0
  0
LINE
  5
A3A43
330
18
100
AcDbEntity
  8
0
100
AcDbLine
 10
33.52332605438551
 20
-84.57999069753214
 30
0.0
 11
32.81076746627635
 21
-84.30203340133022
 31
0.0
  0
LINE
  5
A3A44
330
18
100
AcDbEntity
  8
0
100
AcDbLine
 10
33.87062240971904
 20
-82.61037519150767
 30
0.0
 11
33.15806382160988
 21
-82.33241789530575
 31
0.0
  0
LINE
  5
A3A45
330
18
100
AcDbEntity
  8
0
100
AcDbLine
 10
34.21791876505257
 20
-80.64075968548319
 30
0.0
 11
33.50536017694341
 21
-80.36280238928127
 31
0.0
  0
LINE
  5
A3A46
330
18
100
AcDbEntity
  8
0
100
AcDbLine
 10
34.56521512038609
 20
-78.67114417945871
 30
0.0
 11
33.85265653227693
 21
-78.3931868832568
 31
0.0
  0
LINE
  5
A3A47
330
18
100
AcDbEntity
  8
0
100
AcDbLine
 10
33.87062240971904
 20
-82.61037519150767
 30
0.0
 11
28.77293546699109
 21
-82.72694205618609
 31
0.0
  0
LINE
  5
A3A48
330
18
100
AcDbEntity
  8
0
100
AcDbLine
 10
34.21791876505257
 20
-80.64075968548319
 30
0.0
 11
29.12023182232462
 21
-80.75732655016161
 31
0.0
  0
LINE
  5
A3A49
330
18
100
AcDbEntity
  8
0
100
AcDbLine
 10
34.56521512038609
 20
-78.67114417945871
 30
0.0
 11
29.46752817765814
 21
-78.78771104413714
 31
0.0
  0
LINE
  5
A3A4A
330
18
100
AcDbEntity
  8
0
100
AcDbLine
 10
29.48549405510025
 20
-83.00489935238801
 30
0.0
 11
28.77293546699109
 21
-82.72694205618609
 31
0.0
  0
LINE
  5
A3A4B
330
18
100
AcDbEntity
  8
0
100
AcDbLine
 10
29.83279041043378
 20
-81.03528384636353
 30
0.0
 11
29.12023182232462
 21
-80.75732655016161
 31
0.0
  0
LINE
  5
A3A4C
330
18
100
AcDbEntity
  8
0
100
AcDbLine
 10
30.18008676576731
 20
-79.06566834033904
 30
0.0
 11
29.46752817765814
 21
-78.78771104413714
 31
0.0
  0
LINE
  5
A3A4D
330
18
100
AcDbEntity
  8
0
100
AcDbLine
 10
30.52738312110083
 20
-77.09605283431458
 30
0.0
 11
29.81482453299167
 21
-76.81809553811266
 31
0.0
  0
LINE
  5
A3A4E
330
18
100
AcDbEntity
  8
0
100
AcDbLine
 10
35.60710418638667
 20
-72.76229766138529
 30
0.0
 11
34.89454559827751
 21
-72.48434036518337
 31
0.0
  0
LINE
  5
A3A4F
330
18
100
AcDbEntity
  8
0
100
AcDbLine
 10
35.25980783105314
 20
-74.73191316740977
 30
0.0
 11
34.54724924294398
 21
-74.45395587120785
 31
0.0
  0
LINE
  5
A3A50
330
18
100
AcDbEntity
  8
0
100
AcDbLine
 10
34.91251147571962
 20
-76.70152867343424
 30
0.0
 11
34.19995288761046
 21
-76.42357137723232
 31
0.0
  0
LINE
  5
A3A51
330
18
100
AcDbEntity
  8
0
100
AcDbLine
 10
35.9544005417202
 20
-70.79268215536081
 30
0.0
 11
35.24184195361104
 21
-70.5147248591589
 31
0.0
  0
LINE
  5
A3A52
330
18
100
AcDbEntity
  8
0
100
AcDbLine
 10
35.25980783105314
 20
-74.73191316740977
 30
0.0
 11
30.16212088832519
 21
-74.84848003208819
 31
0.0
  0
LINE
  5
A3A53
330
18
100
AcDbEntity
  8
0
100
AcDbLine
 10
35.60710418638667
 20
-72.76229766138529
 30
0.0
 11
30.50941724365872
 21
-72.87886452606371
 31
0.0
  0
LINE
  5
A3A54
330
18
100
AcDbEntity
  8
0
100
AcDbLine
 10
35.9544005417202
 20
-70.79268215536081
 30
0.0
 11
30.85671359899225
 21
-70.90924902003924
 31
0.0
  0
LINE
  5
A3A55
330
18
100
AcDbEntity
  8
0
100
AcDbLine
 10
31.22197583176788
 20
-73.15682182226563
 30
0.0
 11
30.50941724365872
 21
-72.87886452606371
 31
0.0
  0
LINE
  5
A3A56
330
18
100
AcDbEntity
  8
0
100
AcDbLine
 10
30.87467947643436
 20
-75.1264373282901
 30
0.0
 11
30.16212088832519
 21
-74.84848003208819
 31
0.0
  0
LINE
  5
A3A57
330
18
100
AcDbEntity
  8
0
100
AcDbLine
 10
31.56927218710141
 20
-71.18720631624115
 30
0.0
 11
30.85671359899225
 21
-70.90924902003924
 31
0.0
  0
LINE
  5
A3A58
330
18
100
AcDbEntity
  8
0
100
AcDbLine
 10
31.91656854243493
 20
-69.21759081021668
 30
0.0
 11
31.20400995432577
 21
-68.93963351401476
 31
0.0
  0
LINE
  5
A3A59
330
18
100
AcDbEntity
  8
0
100
AcDbLine
 10
36.30169689705372
 20
-68.82306664933634
 30
0.0
 11
35.58913830894456
 21
-68.54510935313442
 31
0.0
  0
LINE
  5
A3A5A
330
18
100
AcDbEntity
  8
0
100
AcDbLine
 10
32.1367310909782
 20
-67.9689869513013
 30
0.0
 11
35.58355822652103
 21
-68.57675557313496
 31
0.0
  0
LINE
  5
A3A9A
330
18
100
AcDbEntity
  8
0
100
AcDbLine
 10
11.84966690777602
 20
-84.57999069753214
 30
0.0
 11
16.94735385050397
 21
-84.69655756221057
 31
0.0
  0
LINE
  5
A3A9B
330
18
100
AcDbEntity
  8
1CENTER
100
AcDbLine
 10
18.7099320128295
 20
-109.0895612577457
 30
0.0
 11
10.64756763894951
 21
-63.36562076098069
 31
0.0
  0
LINE
  5
A3A9D
330
18
100
AcDbEntity
  8
0
100
AcDbLine
 10
15.16265682890352
 20
-102.3108136890766
 30
0.0
 11
15.87521541701268
 21
-102.0328563928747
 31
0.0
  0
LINE
  5
A3A9E
330
18
100
AcDbEntity
  8
0
100
AcDbLine
 10
15.16265682890346
 20
-102.3108136890767
 30
0.0
 11
19.64546534123914
 21
-102.4133203630069
 31
0.0
  0
LINE
  5
A3A9F
330
18
100
AcDbEntity
  8
0
100
AcDbLine
 10
18.59034359939868
 20
-106.6067924233489
 30
0.0
 11
19.30290218750784
 21
-106.328835127147
 31
0.0
  0
LINE
  5
A3AA0
330
18
100
AcDbEntity
  8
0
100
AcDbLine
 10
17.01186190965402
 20
-106.2764467821894
 30
0.0
 11
17.72442049776319
 21
-105.9984894859874
 31
0.0
  0
LINE
  5
A3AA1
330
18
100
AcDbEntity
  8
0
100
AcDbLine
 10
17.01186190965402
 20
-106.2764467821894
 30
0.0
 11
19.30290218750779
 21
-106.328835127147
 31
0.0
  0
LINE
  5
A3AA2
330
18
100
AcDbEntity
  8
0
100
AcDbLine
 10
18.93290675312998
 20
-102.6912776592089
 30
0.0
 11
19.64546534123914
 21
-102.4133203630069
 31
0.0
  0
LINE
  5
A3AA3
330
18
100
AcDbEntity
  8
0
100
AcDbLine
 10
18.7616251762643
 20
-104.6490350412789
 30
0.0
 11
19.47418376437346
 21
-104.3710777450769
 31
0.0
  0
LINE
  5
A3AA4
330
18
100
AcDbEntity
  8
0
100
AcDbLine
 10
16.08725936927877
 20
-104.293630235633
 30
0.0
 11
16.79981795738794
 21
-104.0156729394311
 31
0.0
  0
LINE
  5
A3AA5
330
18
100
AcDbEntity
  8
0
100
AcDbLine
 10
16.08725936927872
 20
-104.293630235633
 30
0.0
 11
19.47418376437352
 21
-104.3710777450769
 31
0.0
  0
LINE
  5
A3AA6
330
18
100
AcDbEntity
  8
0
100
AcDbLine
 10
17.62398068372889
 20
-92.85297688251039
 30
0.0
 11
18.33653927183806
 21
-92.57501958630847
 31
0.0
  0
LINE
  5
A3AA7
330
18
100
AcDbEntity
  8
0
100
AcDbLine
 10
13.93344503977715
 20
-96.397683733679
 30
0.0
 11
14.64600362788631
 21
-96.11972643747708
 31
0.0
  0
LINE
  5
A3AA8
330
18
100
AcDbEntity
  8
0
100
AcDbLine
 10
13.58614868444363
 20
-94.42806822765452
 30
0.0
 11
14.29870727255279
 21
-94.15011093145262
 31
0.0
  0
LINE
  5
A3AA9
330
18
100
AcDbEntity
  8
0
100
AcDbLine
 10
13.58614868444363
 20
-94.42806822765452
 30
0.0
 11
18.68383562717158
 21
-94.54463509233295
 31
0.0
  0
LINE
  5
A3AAA
330
18
100
AcDbEntity
  8
0
100
AcDbLine
 10
14.28074139511067
 20
-98.36729923970347
 30
0.0
 11
14.99329998321983
 21
-98.08934194350155
 31
0.0
  0
LINE
  5
A3AAB
330
18
100
AcDbEntity
  8
0
100
AcDbLine
 10
14.62803775044419
 20
-100.3369147457279
 30
0.0
 11
15.34059633855336
 21
-100.058957449526
 31
0.0
  0
LINE
  5
A3AAC
330
18
100
AcDbEntity
  8
0
100
AcDbLine
 10
14.62803775044419
 20
-100.3369147457279
 30
0.0
 11
19.72572469317215
 21
-100.4534816104064
 31
0.0
  0
LINE
  5
A3AAD
330
18
100
AcDbEntity
  8
0
100
AcDbLine
 10
14.28074139511067
 20
-98.36729923970347
 30
0.0
 11
19.37842833783862
 21
-98.4838661043819
 31
0.0
  0
LINE
  5
A3AAE
330
18
100
AcDbEntity
  8
0
100
AcDbLine
 10
13.93344503977715
 20
-96.397683733679
 30
0.0
 11
19.0311319825051
 21
-96.51425059835742
 31
0.0
  0
LINE
  5
A3AAF
330
18
100
AcDbEntity
  8
0
100
AcDbLine
 10
19.01316610506298
 20
-100.7314389066083
 30
0.0
 11
19.72572469317215
 21
-100.4534816104064
 31
0.0
  0
LINE
  5
A3AB0
330
18
100
AcDbEntity
  8
0
100
AcDbLine
 10
18.66586974972946
 20
-98.76182340058381
 30
0.0
 11
19.37842833783862
 21
-98.4838661043819
 31
0.0
  0
LINE
  5
A3AB1
330
18
100
AcDbEntity
  8
0
100
AcDbLine
 10
17.97127703906241
 20
-94.82259238853487
 30
0.0
 11
18.68383562717158
 21
-94.54463509233295
 31
0.0
  0
LINE
  5
A3AB2
330
18
100
AcDbEntity
  8
0
100
AcDbLine
 10
18.31857339439594
 20
-96.79220789455934
 30
0.0
 11
19.0311319825051
 21
-96.51425059835742
 31
0.0
  0
LINE
  5
A3AB3
330
18
100
AcDbEntity
  8
0
100
AcDbLine
 10
12.89155597377658
 20
-90.48883721560557
 30
0.0
 11
13.60411456188575
 21
-90.21087991940365
 31
0.0
  0
LINE
  5
A3AB4
330
18
100
AcDbEntity
  8
0
100
AcDbLine
 10
13.23885232911011
 20
-92.45845272163004
 30
0.0
 11
13.95141091721927
 21
-92.18049542542813
 31
0.0
  0
LINE
  5
A3AB5
330
18
100
AcDbEntity
  8
0
100
AcDbLine
 10
12.19696326310954
 20
-86.54960620355662
 30
0.0
 11
12.9095218512187
 21
-86.2716489073547
 31
0.0
  0
LINE
  5
A3AB6
330
18
100
AcDbEntity
  8
0
100
AcDbLine
 10
12.54425961844306
 20
-88.51922170958109
 30
0.0
 11
13.25681820655222
 21
-88.24126441337918
 31
0.0
  0
LINE
  5
A3AB7
330
18
100
AcDbEntity
  8
0
100
AcDbLine
 10
13.23885232911011
 20
-92.45845272163004
 30
0.0
 11
18.33653927183806
 21
-92.57501958630847
 31
0.0
  0
LINE
  5
A3AB8
330
18
100
AcDbEntity
  8
0
100
AcDbLine
 10
12.89155597377658
 20
-90.48883721560557
 30
0.0
 11
17.98924291650453
 21
-90.605404080284
 31
0.0
  0
LINE
  5
A3AB9
330
18
100
AcDbEntity
  8
0
100
AcDbLine
 10
12.54425961844306
 20
-88.51922170958109
 30
0.0
 11
17.64194656117101
 21
-88.63578857425952
 31
0.0
  0
LINE
  5
A3ABA
330
18
100
AcDbEntity
  8
0
100
AcDbLine
 10
12.19696326310954
 20
-86.54960620355662
 30
0.0
 11
17.29465020583749
 21
-86.66617306823505
 31
0.0
  0
LINE
  5
A3ABB
330
18
100
AcDbEntity
  8
0
100
AcDbLine
 10
16.92938797306185
 20
-88.91374587046144
 30
0.0
 11
17.64194656117101
 21
-88.63578857425952
 31
0.0
  0
LINE
  5
A3ABC
330
18
100
AcDbEntity
  8
0
100
AcDbLine
 10
17.27668432839537
 20
-90.88336137648591
 30
0.0
 11
17.98924291650453
 21
-90.605404080284
 31
0.0
  0
LINE
  5
A3ABD
330
18
100
AcDbEntity
  8
0
100
AcDbLine
 10
16.2347952623948
 20
-84.97451485841249
 30
0.0
 11
16.94735385050397
 21
-84.69655756221057
 31
0.0
  0
LINE
  5
A3ABE
330
18
100
AcDbEntity
  8
0
100
AcDbLine
 10
16.58209161772832
 20
-86.94413036443696
 30
0.0
 11
17.29465020583749
 21
-86.66617306823505
 31
0.0
  0
LINE
  5
A3ABF
330
18
100
AcDbEntity
  8
0
100
AcDbLine
 10
9.071296065107838
 20
-68.82306664933634
 30
0.0
 11
14.16898300783579
 21
-68.93963351401477
 31
0.0
  0
LINE
  5
A3AC0
330
18
100
AcDbEntity
  8
0
100
AcDbLine
 10
10.46048148644193
 20
-76.70152867343424
 30
0.0
 11
15.55816842916988
 21
-76.81809553811267
 31
0.0
  0
LINE
  5
A3AC1
330
18
100
AcDbEntity
  8
0
100
AcDbLine
 10
11.84966690777602
 20
-84.57999069753214
 30
0.0
 11
12.56222549588518
 21
-84.30203340133023
 31
0.0
  0
LINE
  5
A3AC2
330
18
100
AcDbEntity
  8
0
100
AcDbLine
 10
11.50237055244249
 20
-82.61037519150767
 30
0.0
 11
12.21492914055166
 21
-82.33241789530575
 31
0.0
  0
LINE
  5
A3AC3
330
18
100
AcDbEntity
  8
0
100
AcDbLine
 10
11.15507419710897
 20
-80.64075968548319
 30
0.0
 11
11.86763278521813
 21
-80.36280238928128
 31
0.0
  0
LINE
  5
A3AC4
330
18
100
AcDbEntity
  8
0
100
AcDbLine
 10
10.80777784177545
 20
-78.67114417945871
 30
0.0
 11
11.52033642988461
 21
-78.3931868832568
 31
0.0
  0
LINE
  5
A3AC5
330
18
100
AcDbEntity
  8
0
100
AcDbLine
 10
11.50237055244249
 20
-82.61037519150767
 30
0.0
 11
16.60005749517045
 21
-82.7269420561861
 31
0.0
  0
LINE
  5
A3AC6
330
18
100
AcDbEntity
  8
0
100
AcDbLine
 10
11.15507419710897
 20
-80.64075968548319
 30
0.0
 11
16.25276113983692
 21
-80.75732655016162
 31
0.0
  0
LINE
  5
A3AC7
330
18
100
AcDbEntity
  8
0
100
AcDbLine
 10
10.80777784177545
 20
-78.67114417945871
 30
0.0
 11
15.9054647845034
 21
-78.78771104413715
 31
0.0
  0
LINE
  5
A3AC8
330
18
100
AcDbEntity
  8
0
100
AcDbLine
 10
15.88749890706128
 20
-83.00489935238801
 30
0.0
 11
16.60005749517045
 21
-82.7269420561861
 31
0.0
  0
LINE
  5
A3AC9
330
18
100
AcDbEntity
  8
0
100
AcDbLine
 10
15.54020255172776
 20
-81.03528384636354
 30
0.0
 11
16.25276113983692
 21
-80.75732655016162
 31
0.0
  0
LINE
  5
A3ACA
330
18
100
AcDbEntity
  8
0
100
AcDbLine
 10
15.19290619639424
 20
-79.06566834033906
 30
0.0
 11
15.9054647845034
 21
-78.78771104413715
 31
0.0
  0
LINE
  5
A3ACB
330
18
100
AcDbEntity
  8
0
100
AcDbLine
 10
14.84560984106071
 20
-77.09605283431458
 30
0.0
 11
15.55816842916988
 21
-76.81809553811267
 31
0.0
  0
LINE
  5
A3ACC
330
18
100
AcDbEntity
  8
0
100
AcDbLine
 10
9.765888775774883
 20
-72.76229766138529
 30
0.0
 11
10.47844736388405
 21
-72.48434036518337
 31
0.0
  0
LINE
  5
A3ACD
330
18
100
AcDbEntity
  8
0
100
AcDbLine
 10
10.11318513110841
 20
-74.73191316740976
 30
0.0
 11
10.82574371921757
 21
-74.45395587120785
 31
0.0
  0
LINE
  5
A3ACE
330
18
100
AcDbEntity
  8
0
100
AcDbLine
 10
10.46048148644193
 20
-76.70152867343424
 30
0.0
 11
11.17304007455109
 21
-76.42357137723232
 31
0.0
  0
LINE
  5
A3ACF
330
18
100
AcDbEntity
  8
0
100
AcDbLine
 10
9.41859242044136
 20
-70.79268215536081
 30
0.0
 11
10.13115100855052
 21
-70.5147248591589
 31
0.0
  0
LINE
  5
A3AD0
330
18
100
AcDbEntity
  8
0
100
AcDbLine
 10
10.11318513110841
 20
-74.73191316740976
 30
0.0
 11
15.21087207383636
 21
-74.84848003208819
 31
0.0
  0
LINE
  5
A3AD1
330
18
100
AcDbEntity
  8
0
100
AcDbLine
 10
9.765888775774883
 20
-72.76229766138529
 30
0.0
 11
14.86357571850283
 21
-72.87886452606372
 31
0.0
  0
LINE
  5
A3AD2
330
18
100
AcDbEntity
  8
0
100
AcDbLine
 10
9.41859242044136
 20
-70.79268215536081
 30
0.0
 11
14.51627936316931
 21
-70.90924902003924
 31
0.0
  0
LINE
  5
A3AD3
330
18
100
AcDbEntity
  8
0
100
AcDbLine
 10
14.15101713039367
 20
-73.15682182226563
 30
0.0
 11
14.86357571850283
 21
-72.87886452606372
 31
0.0
  0
LINE
  5
A3AD4
330
18
100
AcDbEntity
  8
0
100
AcDbLine
 10
14.49831348572719
 20
-75.12643732829011
 30
0.0
 11
15.21087207383636
 21
-74.84848003208819
 31
0.0
  0
LINE
  5
A3AD5
330
18
100
AcDbEntity
  8
0
100
AcDbLine
 10
13.80372077506015
 20
-71.18720631624116
 30
0.0
 11
14.51627936316931
 21
-70.90924902003924
 31
0.0
  0
LINE
  5
A3AD6
330
18
100
AcDbEntity
  8
0
100
AcDbLine
 10
13.45642441972663
 20
-69.21759081021668
 30
0.0
 11
14.16898300783579
 21
-68.93963351401477
 31
0.0
  0
LINE
  5
A3AD7
330
18
100
AcDbEntity
  8
0
100
AcDbLine
 10
9.071296065107838
 20
-68.82306664933634
 30
0.0
 11
9.783854653217
 21
-68.54510935313442
 31
0.0
  0
LINE
  5
A3AD8
330
18
100
AcDbEntity
  8
0
100
AcDbLine
 10
13.23626187118336
 20
-67.9689869513013
 30
0.0
 11
9.789434735640526
 21
-68.57675557313496
 31
0.0
  0
LINE
  5
A3AD9
330
18
100
AcDbEntity
  8
1DIM
  6
CONTINUOUS
100
AcDbLine
 10
28.65926240681779
 20
-19.75767901522954
 30
0.0
 11
55.18649648108067
 21
-19.75767901522955
 31
0.0
  0
LINE
  5
A3ADA
330
18
100
AcDbEntity
  8
1DIM
  6
CONTINUOUS
100
AcDbLine
 10
44.18649648108021
 20
-72.25767901522954
 30
0.0
 11
55.18649648108067
 21
-72.25767901522954
 31
0.0
  0
LINE
  5
A3ADB
330
18
100
AcDbEntity
  8
1DIM
  6
CONTINUOUS
100
AcDbLine
 10
54.18649648108067
 20
-21.75767901522955
 30
0.0
 11
54.18649648108067
 21
-70.25767901522954
 31
0.0
  0
LINE
  5
A3ADF
330
18
100
AcDbEntity
  8
1DIM
  6
CONTINUOUS
100
AcDbLine
 10
44.18649648108021
 20
-72.25767901522954
 30
0.0
 11
65.18649648108088
 21
-72.25767901522954
 31
0.0
  0
LINE
  5
A3AE0
330
18
100
AcDbEntity
  8
1DIM
  6
CONTINUOUS
100
AcDbLine
 10
22.68649648108067
 20
-2.257679015229542
 30
0.0
 11
65.1864964810809
 21
-2.257679015229554
 31
0.0
  0
LINE
  5
A3AE1
330
18
100
AcDbEntity
  8
1DIM
  6
CONTINUOUS
100
AcDbLine
 10
64.18649648108088
 20
-70.25767901522954
 30
0.0
 11
64.1864964810809
 21
-4.257679015229554
 31
0.0
  0
LINE
  5
A3AE5
330
18
100
AcDbEntity
  8
1DIM
  6
CONTINUOUS
100
AcDbLine
 10
-58.81350351891837
 20
-72.25767901522613
 30
0.0
 11
-47.81350351891837
 21
-72.25767901522613
 31
0.0
1001
ACAD
1000
DSTYLE
1002
{
1070
   271
1070
     0
1002
}
  0
LINE
  5
A3AE6
330
18
100
AcDbEntity
  8
1DIM
  6
CONTINUOUS
100
AcDbLine
 10
-68.31350351891882
 20
-31.00646218473821
 30
0.0
 11
-47.81350351891837
 21
-31.00646218473821
 31
0.0
1001
ACAD
1000
DSTYLE
1002
{
1070
   271
1070
     0
1002
}
  0
LINE
  5
A3AE7
330
18
100
AcDbEntity
  8
1DIM
  6
CONTINUOUS
100
AcDbLine
 10
-48.81350351891837
 20
-70.25767901522613
 30
0.0
 11
-48.81350351891837
 21
-33.00646218473821
 31
0.0
1001
ACAD
1000
DSTYLE
1002
{
1070
   271
1070
     0
1002
}
  0
LINE
  5
A3AEB
330
18
100
AcDbEntity
  8
1DIM
  6
CONTINUOUS
100
AcDbLine
 10
-58.81350351891888
 20
-72.25767901522613
 30
0.0
 11
-37.81350351891837
 21
-72.25767901522613
 31
0.0
  0
LINE
  5
A3AEC
330
18
100
AcDbEntity
  8
1DIM
  6
CONTINUOUS
100
AcDbLine
 10
-52.14221205451577
 20
-19.75767901522295
 30
0.0
 11
-37.81350351891837
 21
-19.75767901522295
 31
0.0
  0
LINE
  5
A3AED
330
18
100
AcDbEntity
  8
1DIM
  6
CONTINUOUS
100
AcDbLine
 10
-38.81350351891837
 20
-70.25767901522613
 30
0.0
 11
-38.81350351891837
 21
-21.75767901522295
 31
0.0
  0
LINE
  5
A3AF1
330
18
100
AcDbEntity
  8
1DIM
  6
CONTINUOUS
100
AcDbLine
 10
-58.81350351891888
 20
-72.25767901522613
 30
0.0
 11
-27.81350351891838
 21
-72.25767901522615
 31
0.0
  0
LINE
  5
A3AF2
330
18
100
AcDbEntity
  8
1DIM
  6
CONTINUOUS
100
AcDbLine
 10
-54.73889785163175
 20
-2.257679015222948
 30
0.0
 11
-27.81350351891837
 21
-2.257679015222955
 31
0.0
  0
LINE
  5
A3AF3
330
18
100
AcDbEntity
  8
1DIM
  6
CONTINUOUS
100
AcDbLine
 10
-28.81350351891838
 20
-70.25767901522615
 30
0.0
 11
-28.81350351891837
 21
-4.257679015222956
 31
0.0
  0
LINE
  5
A3AF7
330
18
100
AcDbEntity
  8
1DIM
  6
CONTINUOUS
100
AcDbLine
 10
-109.6176819543165
 20
-37.25767901522408
 30
0.0
 11
-122.8135035189203
 21
-37.25767901522408
 31
0.0
1001
ACAD
1000
DSTYLE
1002
{
1070
     3
1000
φ<>
1002
}
  0
LINE
  5
A3AF8
330
18
100
AcDbEntity
  8
1DIM
  6
CONTINUOUS
100
AcDbLine
 10
-110.544565377353
 20
-2.257679015222948
 30
0.0
 11
-122.8135035189202
 21
-2.257679015222944
 31
0.0
1001
ACAD
1000
DSTYLE
1002
{
1070
     3
1000
φ<>
1002
}
  0
LINE
  5
A3AF9
330
18
100
AcDbEntity
  8
1DIM
  6
CONTINUOUS
100
AcDbLine
 10
-121.8135035189203
 20
-35.25767901522408
 30
0.0
 11
-121.8135035189202
 21
-4.257679015222944
 31
0.0
1001
ACAD
1000
DSTYLE
1002
{
1070
     3
1000
φ<>
1002
}
  0
LINE
  5
A3AFD
330
18
100
AcDbEntity
  8
1DIM
  6
CONTINUOUS
100
AcDbLine
 10
-90.31350351891842
 20
51.24611205636052
 30
0.0
 11
-90.31350351891842
 21
69.74611205635892
 31
0.0
  0
LINE
  5
A3AFE
330
18
100
AcDbEntity
  8
1DIM
  6
CONTINUOUS
100
AcDbLine
 10
-70.31350351891842
 20
51.24611205636052
 30
0.0
 11
-70.31350351891842
 21
69.74611205635892
 31
0.0
  0
LINE
  5
A3AFF
330
18
100
AcDbEntity
  8
1DIM
  6
CONTINUOUS
100
AcDbLine
 10
-88.31350351891842
 20
68.74611205635892
 30
0.0
 11
-72.31350351891842
 21
68.74611205635892
 31
0.0
  0
LINE
  5
A3B03
330
18
100
AcDbEntity
  8
1DIM
  6
CONTINUOUS
100
AcDbLine
 10
-67.31350351891842
 20
26.24611205635688
 30
0.0
 11
-47.81350351891832
 21
26.24611205635687
 31
0.0
  0
LINE
  5
A3B04
330
18
100
AcDbEntity
  8
1DIM
  6
CONTINUOUS
100
AcDbLine
 10
-67.31350351891842
 20
48.24611205636052
 30
0.0
 11
-47.81350351891831
 21
48.24611205636051
 31
0.0
  0
LINE
  5
A3B05
330
18
100
AcDbEntity
  8
1DIM
  6
CONTINUOUS
100
AcDbLine
 10
-48.81350351891832
 20
28.24611205635687
 30
0.0
 11
-48.81350351891832
 21
46.24611205636052
 31
0.0
  0
LINE
  5
A3B09
330
18
100
AcDbEntity
  8
0
  6
BYBLOCK
100
AcDbLine
 10
71.4099331557811
 20
-88.87422988699849
 30
0.0
 11
69.69546910936515
 21
-87.71328212764365
 31
0.0
  0
LINE
  5
A3B0A
330
18
100
AcDbEntity
  8
0
  6
BYBLOCK
100
AcDbLine
 10
69.69546910936515
 20
-87.71328212764365
 30
0.0
 11
71.76071235390567
 21
-87.861461098094
 31
0.0
  0
LINE
  5
A3B0B
330
18
100
AcDbEntity
  8
0
  6
BYBLOCK
100
AcDbLine
 10
69.69546910936515
 20
-87.71328212764365
 30
0.0
 11
71.58532275484339
 21
-88.36784549254624
 31
0.0
  0
LINE
  5
A3B0C
330
18
100
AcDbEntity
  8
0
  6
BYBLOCK
100
AcDbLine
 10
70.17814853506619
 20
-78.51437456672717
 30
0.0
 11
68.4749913312935
 21
-77.33690176209802
 31
0.0
  0
LINE
  5
A3B0D
330
18
100
AcDbEntity
  8
0
  6
BYBLOCK
100
AcDbLine
 10
68.4749913312935
 20
-77.33690176209802
 30
0.0
 11
70.5387050783366
 21
-77.50504526232702
 31
0.0
  0
LINE
  5
A3B0E
330
18
100
AcDbEntity
  8
0
  6
BYBLOCK
100
AcDbLine
 10
68.4749913312935
 20
-77.33690176209802
 30
0.0
 11
70.3584268067014
 21
-78.0097099145271
 31
0.0
  0
LINE
  5
A3B0F
330
18
100
AcDbEntity
  8
0
  6
BYBLOCK
100
AcDbLine
 10
-82.93908702062004
 20
-59.28301783426758
 30
0.0
 11
-81.53179812260714
 21
-57.76422732075571
 31
0.0
  0
LINE
  5
A3B10
330
18
100
AcDbEntity
  8
0
  6
BYBLOCK
100
AcDbLine
 10
-81.53179812260714
 20
-57.76422732075571
 30
0.0
 11
-81.99115152696352
 21
-59.78318277254512
 31
0.0
  0
LINE
  5
A3B11
330
18
100
AcDbEntity
  8
0
  6
BYBLOCK
100
AcDbLine
 10
-81.53179812260714
 20
-57.76422732075571
 30
0.0
 11
-82.46511927379179
 21
-59.53310030340635
 31
0.0
  0
LINE
  5
A3B12
330
18
100
AcDbEntity
  8
0
  6
BYBLOCK
100
AcDbLine
 10
-72.22096364677704
 20
-72.32546534290394
 30
0.0
 11
-70.80909808663819
 21
-70.81092834880383
 31
0.0
  0
LINE
  5
A3B13
330
18
100
AcDbEntity
  8
0
  6
BYBLOCK
100
AcDbLine
 10
-70.80909808663819
 20
-70.81092834880383
 30
0.0
 11
-71.27454175586503
 21
-72.82848847360324
 31
0.0
  0
LINE
  5
A3B14
330
18
100
AcDbEntity
  8
0
  6
BYBLOCK
100
AcDbLine
 10
-70.80909808663819
 20
-70.81092834880383
 30
0.0
 11
-71.74775270132103
 21
-72.57697690825358
 31
0.0
  0
LINE
  5
A3B15
330
18
100
AcDbEntity
  8
0
  6
BYBLOCK
100
AcDbLine
 10
-99.81350351891979
 20
78.21021405635892
 30
0.0
 11
-101.8135035189198
 21
78.74611205635892
 31
0.0
  0
LINE
  5
A3B16
330
18
100
AcDbEntity
  8
0
  6
BYBLOCK
100
AcDbLine
 10
-101.8135035189198
 20
78.74611205635892
 30
0.0
 11
-99.81350351891979
 21
79.28201005635893
 31
0.0
  0
LINE
  5
A3B17
330
18
100
AcDbEntity
  8
0
  6
BYBLOCK
100
AcDbLine
 10
-101.8135035189198
 20
78.74611205635892
 30
0.0
 11
-99.81350351891979
 21
78.74611205635892
 31
0.0
  0
LINE
  5
A3B18
330
18
100
AcDbEntity
  8
0
  6
BYBLOCK
100
AcDbLine
 10
-60.81350351891842
 20
79.28201005635893
 30
0.0
 11
-58.81350351891842
 21
78.74611205635892
 31
0.0
  0
LINE
  5
A3B19
330
18
100
AcDbEntity
  8
0
  6
BYBLOCK
100
AcDbLine
 10
-58.81350351891842
 20
78.74611205635892
 30
0.0
 11
-60.81350351891842
 21
78.21021405635892
 31
0.0
  0
LINE
  5
A3B1A
330
18
100
AcDbEntity
  8
0
  6
BYBLOCK
100
AcDbLine
 10
-58.81350351891842
 20
78.74611205635892
 30
0.0
 11
-60.81350351891842
 21
78.74611205635892
 31
0.0
  0
TEXT
  5
A3B1B
330
18
100
AcDbEntity
  8
1DIM
  6
CONTINUOUS
100
AcDbText
 10
-83.23017018558578
 20
79.44611205635893
 30
0.0
 40
3.5
  1
43
100
AcDbText
  0
LINE
  5
A3B1C
330
18
100
AcDbEntity
  8
0
100
AcDbLine
 10
29.77174280781518
 20
-101.5371986962481
 30
0.0
 11
35.58355822652103
 21
-68.57675557313496
 31
0.0
  0
LINE
  5
A3B1D
330
18
100
AcDbEntity
  8
0
100
AcDbLine
 10
35.58355822652103
 20
-68.57675557313496
 30
0.0
 11
38.29177954730469
 21
-69.05428806171857
 31
0.0
  0
LINE
  5
A3B1E
330
18
100
AcDbEntity
  8
0
100
AcDbLine
 10
38.29177954730469
 20
-69.05428806171857
 30
0.0
 11
38.43069808943806
 21
-68.26644185930898
 31
0.0
  0
ARC
  5
A3B1F
330
18
100
AcDbEntity
  8
0
100
AcDbCircle
 10
35.9686787069075
 20
-67.83232141514189
 30
0.0
 40
2.5
100
AcDbArc
 50
350.0000000000055
 51
80.00000000000993
  0
LINE
  5
A3B20
330
18
100
AcDbEntity
  8
0
100
AcDbLine
 10
36.4027991510744
 20
-65.37030203261129
 30
0.0
 11
32.46356813902546
 21
-64.67570932194421
 31
0.0
  0
ARC
  5
A3B21
330
18
100
AcDbEntity
  8
0
100
AcDbCircle
 10
32.02944769485855
 20
-67.13772870447481
 30
0.0
 40
2.5
100
AcDbArc
 50
80.00000000000976
 51
170.0000000000097
  0
LINE
  5
A3B22
330
18
100
AcDbEntity
  8
0
100
AcDbLine
 10
29.56742831232796
 20
-66.7036082603079
 30
0.0
 11
29.42850977019455
 21
-67.4914544627177
 31
0.0
  0
LINE
  5
A3B23
330
18
100
AcDbEntity
  8
0
100
AcDbLine
 10
29.42850977019455
 20
-67.4914544627177
 30
0.0
 11
32.1367310909782
 21
-67.9689869513013
 31
0.0
  0
LINE
  5
A3B24
330
18
100
AcDbEntity
  8
0
100
AcDbLine
 10
32.1367310909782
 20
-67.9689869513013
 30
0.0
 11
26.32491567227236
 21
-100.9294300744144
 31
0.0
  0
LINE
  5
A3B25
330
18
100
AcDbEntity
  8
0
100
AcDbLine
 10
26.32491567227236
 20
-100.9294300744144
 30
0.0
 11
26.9142175520791
 21
-107.6651813827076
 31
0.0
  0
LINE
  5
A3B26
330
18
100
AcDbEntity
  8
0
100
AcDbLine
 10
26.9142175520791
 20
-107.6651813827076
 30
0.0
 11
29.77174280781518
 21
-101.5371986962481
 31
0.0
  0
LINE
  5
A3B27
330
18
100
AcDbEntity
  8
0
100
AcDbLine
 10
9.789434735640526
 20
-68.57675557313496
 30
0.0
 11
15.60125015434632
 21
-101.5371986962481
 31
0.0
  0
LINE
  5
A3B28
330
18
100
AcDbEntity
  8
0
100
AcDbLine
 10
15.60125015434632
 20
-101.5371986962481
 30
0.0
 11
18.45877541008239
 21
-107.6651813827076
 31
0.0
  0
LINE
  5
A3B29
330
18
100
AcDbEntity
  8
0
100
AcDbLine
 10
18.45877541008239
 20
-107.6651813827076
 30
0.0
 11
19.04807728988914
 21
-100.9294300744144
 31
0.0
  0
LINE
  5
A3B2A
330
18
100
AcDbEntity
  8
0
100
AcDbLine
 10
19.04807728988914
 20
-100.9294300744144
 30
0.0
 11
13.23626187118336
 21
-67.9689869513013
 31
0.0
  0
LINE
  5
A3B2B
330
18
100
AcDbEntity
  8
0
100
AcDbLine
 10
13.23626187118336
 20
-67.9689869513013
 30
0.0
 11
15.94448319196701
 21
-67.49145446271771
 31
0.0
  0
LINE
  5
A3B2C
330
18
100
AcDbEntity
  8
0
100
AcDbLine
 10
15.94448319196701
 20
-67.49145446271771
 30
0.0
 11
15.8055646498336
 21
-66.7036082603079
 31
0.0
  0
ARC
  5
A3B2D
330
18
100
AcDbEntity
  8
0
100
AcDbCircle
 10
13.34354526730301
 20
-67.13772870447481
 30
0.0
 40
2.5
100
AcDbArc
 50
9.999999999990282
 51
99.99999999999014
  0
LINE
  5
A3B2E
330
18
100
AcDbEntity
  8
0
100
AcDbLine
 10
12.9094248231361
 20
-64.67570932194421
 30
0.0
 11
8.970193811087158
 21
-65.37030203261129
 31
0.0
  0
ARC
  5
A3B2F
330
18
100
AcDbEntity
  8
0
100
AcDbCircle
 10
9.40431425525406
 20
-67.83232141514188
 30
0.0
 40
2.5
100
AcDbArc
 50
99.99999999999017
 51
189.9999999999949
  0
LINE
  5
A3B30
330
18
100
AcDbEntity
  8
0
100
AcDbLine
 10
6.942294872723501
 20
-68.26644185930898
 30
0.0
 11
7.081213414856872
 21
-69.05428806171855
 31
0.0
  0
LINE
  5
A3B31
330
18
100
AcDbEntity
  8
0
100
AcDbLine
 10
7.081213414856872
 20
-69.05428806171855
 30
0.0
 11
9.789434735640526
 21
-68.57675557313496
 31
0.0
  0
LINE
  5
A3B32
330
18
100
AcDbEntity
  8
0
  6
BYBLOCK
100
AcDbLine
 10
53.65059848108067
 20
-21.75767901522955
 30
0.0
 11
54.18649648108067
 21
-19.75767901522955
 31
0.0
  0
LINE
  5
A3B33
330
18
100
AcDbEntity
  8
0
  6
BYBLOCK
100
AcDbLine
 10
54.18649648108067
 20
-19.75767901522955
 30
0.0
 11
54.72239448108068
 21
-21.75767901522955
 31
0.0
  0
LINE
  5
A3B34
330
18
100
AcDbEntity
  8
0
  6
BYBLOCK
100
AcDbLine
 10
54.18649648108067
 20
-19.75767901522955
 30
0.0
 11
54.18649648108067
 21
-21.75767901522955
 31
0.0
  0
LINE
  5
A3B35
330
18
100
AcDbEntity
  8
0
  6
BYBLOCK
100
AcDbLine
 10
54.72239448108067
 20
-70.25767901522954
 30
0.0
 11
54.18649648108067
 21
-72.25767901522954
 31
0.0
  0
LINE
  5
A3B36
330
18
100
AcDbEntity
  8
0
  6
BYBLOCK
100
AcDbLine
 10
54.18649648108067
 20
-72.25767901522954
 30
0.0
 11
53.65059848108066
 21
-70.25767901522954
 31
0.0
  0
LINE
  5
A3B37
330
18
100
AcDbEntity
  8
0
  6
BYBLOCK
100
AcDbLine
 10
54.18649648108067
 20
-72.25767901522954
 30
0.0
 11
54.18649648108067
 21
-70.25767901522954
 31
0.0
  0
TEXT
  5
A3B38
330
18
100
AcDbEntity
  8
1DIM
  6
CONTINUOUS
100
AcDbText
 10
53.48649648108068
 20
-51.26983179300731
 30
0.0
 40
3.5
  1
52.5
 50
90.0
100
AcDbText
  0
LINE
  5
A3B39
330
18
100
AcDbEntity
  8
0
  6
BYBLOCK
100
AcDbLine
 10
64.72239448108088
 20
-70.25767901522954
 30
0.0
 11
64.18649648108088
 21
-72.25767901522954
 31
0.0
  0
LINE
  5
A3B3A
330
18
100
AcDbEntity
  8
0
  6
BYBLOCK
100
AcDbLine
 10
64.18649648108088
 20
-72.25767901522954
 30
0.0
 11
63.65059848108088
 21
-70.25767901522954
 31
0.0
  0
LINE
  5
A3B3B
330
18
100
AcDbEntity
  8
0
  6
BYBLOCK
100
AcDbLine
 10
64.18649648108088
 20
-72.25767901522954
 30
0.0
 11
64.18649648108088
 21
-70.25767901522954
 31
0.0
  0
LINE
  5
A3B3C
330
18
100
AcDbEntity
  8
0
  6
BYBLOCK
100
AcDbLine
 10
63.65059848108089
 20
-4.257679015229554
 30
0.0
 11
64.1864964810809
 21
-2.257679015229554
 31
0.0
  0
LINE
  5
A3B3D
330
18
100
AcDbEntity
  8
0
  6
BYBLOCK
100
AcDbLine
 10
64.1864964810809
 20
-2.257679015229554
 30
0.0
 11
64.7223944810809
 21
-4.257679015229554
 31
0.0
  0
LINE
  5
A3B3E
330
18
100
AcDbEntity
  8
0
  6
BYBLOCK
100
AcDbLine
 10
64.1864964810809
 20
-2.257679015229554
 30
0.0
 11
64.1864964810809
 21
-4.257679015229554
 31
0.0
  0
TEXT
  5
A3B3F
330
18
100
AcDbEntity
  8
1DIM
  6
CONTINUOUS
100
AcDbText
 10
63.48649648108089
 20
-39.95559568189621
 30
0.0
 40
3.5
  1
70
 50
90.0
100
AcDbText
  0
LINE
  5
A3B40
330
18
100
AcDbEntity
  8
0
  6
BYBLOCK
100
AcDbLine
 10
-48.27760551891837
 20
-70.25767901522613
 30
0.0
 11
-48.81350351891837
 21
-72.25767901522613
 31
0.0
  0
LINE
  5
A3B41
330
18
100
AcDbEntity
  8
0
  6
BYBLOCK
100
AcDbLine
 10
-48.81350351891837
 20
-72.25767901522613
 30
0.0
 11
-49.34940151891838
 21
-70.25767901522613
 31
0.0
  0
LINE
  5
A3B42
330
18
100
AcDbEntity
  8
0
  6
BYBLOCK
100
AcDbLine
 10
-48.81350351891837
 20
-72.25767901522613
 30
0.0
 11
-48.81350351891837
 21
-70.25767901522613
 31
0.0
  0
LINE
  5
A3B43
330
18
100
AcDbEntity
  8
0
  6
BYBLOCK
100
AcDbLine
 10
-49.34940151891837
 20
-33.00646218473821
 30
0.0
 11
-48.81350351891837
 21
-31.00646218473821
 31
0.0
  0
LINE
  5
A3B44
330
18
100
AcDbEntity
  8
0
  6
BYBLOCK
100
AcDbLine
 10
-48.81350351891837
 20
-31.00646218473821
 30
0.0
 11
-48.27760551891836
 21
-33.00646218473821
 31
0.0
  0
LINE
  5
A3B45
330
18
100
AcDbEntity
  8
0
  6
BYBLOCK
100
AcDbLine
 10
-48.81350351891837
 20
-31.00646218473821
 30
0.0
 11
-48.81350351891837
 21
-33.00646218473821
 31
0.0
  0
TEXT
  5
A3B46
330
18
100
AcDbEntity
  8
1DIM
  6
CONTINUOUS
100
AcDbText
 10
-49.51350351891837
 20
-53.96540393331552
 30
0.0
 40
3.5
  1
41
 50
90.0
100
AcDbText
1001
ACAD
1000
DSTYLE
1002
{
1070
   271
1070
     0
1002
}
  0
LINE
  5
A3B47
330
18
100
AcDbEntity
  8
0
  6
BYBLOCK
100
AcDbLine
 10
-38.27760551891837
 20
-70.25767901522613
 30
0.0
 11
-38.81350351891837
 21
-72.25767901522613
 31
0.0
  0
LINE
  5
A3B48
330
18
100
AcDbEntity
  8
0
  6
BYBLOCK
100
AcDbLine
 10
-38.81350351891837
 20
-72.25767901522613
 30
0.0
 11
-39.34940151891838
 21
-70.25767901522613
 31
0.0
  0
LINE
  5
A3B49
330
18
100
AcDbEntity
  8
0
  6
BYBLOCK
100
AcDbLine
 10
-38.81350351891837
 20
-72.25767901522613
 30
0.0
 11
-38.81350351891837
 21
-70.25767901522613
 31
0.0
  0
LINE
  5
A3B4A
330
18
100
AcDbEntity
  8
0
  6
BYBLOCK
100
AcDbLine
 10
-39.34940151891837
 20
-21.75767901522295
 30
0.0
 11
-38.81350351891837
 21
-19.75767901522295
 31
0.0
  0
LINE
  5
A3B4B
330
18
100
AcDbEntity
  8
0
  6
BYBLOCK
100
AcDbLine
 10
-38.81350351891837
 20
-19.75767901522295
 30
0.0
 11
-38.27760551891836
 21
-21.75767901522295
 31
0.0
  0
LINE
  5
A3B4C
330
18
100
AcDbEntity
  8
0
  6
BYBLOCK
100
AcDbLine
 10
-38.81350351891837
 20
-19.75767901522295
 30
0.0
 11
-38.81350351891837
 21
-21.75767901522295
 31
0.0
  0
TEXT
  5
A3B4D
330
18
100
AcDbEntity
  8
1DIM
  6
CONTINUOUS
100
AcDbText
 10
-39.51350351891837
 20
-51.26983179300233
 30
0.0
 40
3.5
  1
52.5
 50
90.0
100
AcDbText
  0
LINE
  5
A3B4E
330
18
100
AcDbEntity
  8
0
  6
BYBLOCK
100
AcDbLine
 10
-28.27760551891839
 20
-70.25767901522615
 30
0.0
 11
-28.81350351891838
 21
-72.25767901522615
 31
0.0
  0
LINE
  5
A3B4F
330
18
100
AcDbEntity
  8
0
  6
BYBLOCK
100
AcDbLine
 10
-28.81350351891838
 20
-72.25767901522615
 30
0.0
 11
-29.34940151891838
 21
-70.25767901522615
 31
0.0
  0
LINE
  5
A3B50
330
18
100
AcDbEntity
  8
0
  6
BYBLOCK
100
AcDbLine
 10
-28.81350351891838
 20
-72.25767901522615
 30
0.0
 11
-28.81350351891838
 21
-70.25767901522615
 31
0.0
  0
LINE
  5
A3B51
330
18
100
AcDbEntity
  8
0
  6
BYBLOCK
100
AcDbLine
 10
-29.34940151891837
 20
-4.257679015222955
 30
0.0
 11
-28.81350351891837
 21
-2.257679015222955
 31
0.0
  0
LINE
  5
A3B52
330
18
100
AcDbEntity
  8
0
  6
BYBLOCK
100
AcDbLine
 10
-28.81350351891837
 20
-2.257679015222955
 30
0.0
 11
-28.27760551891837
 21
-4.257679015222955
 31
0.0
  0
LINE
  5
A3B53
330
18
100
AcDbEntity
  8
0
  6
BYBLOCK
100
AcDbLine
 10
-28.81350351891837
 20
-2.257679015222955
 30
0.0
 11
-28.81350351891837
 21
-4.257679015222955
 31
0.0
  0
TEXT
  5
A3B54
330
18
100
AcDbEntity
  8
1DIM
  6
CONTINUOUS
100
AcDbText
 10
-29.51350351891837
 20
-39.95559568189121
 30
0.0
 40
3.5
  1
70
 50
90.0
100
AcDbText
  0
LINE
  5
A3B55
330
18
100
AcDbEntity
  8
0
  6
BYBLOCK
100
AcDbLine
 10
-121.2776055189203
 20
-35.25767901522408
 30
0.0
 11
-121.8135035189203
 21
-37.25767901522408
 31
0.0
  0
LINE
  5
A3B56
330
18
100
AcDbEntity
  8
0
  6
BYBLOCK
100
AcDbLine
 10
-121.8135035189203
 20
-37.25767901522408
 30
0.0
 11
-122.3494015189203
 21
-35.25767901522408
 31
0.0
  0
LINE
  5
A3B57
330
18
100
AcDbEntity
  8
0
  6
BYBLOCK
100
AcDbLine
 10
-121.8135035189203
 20
-37.25767901522408
 30
0.0
 11
-121.8135035189203
 21
-35.25767901522408
 31
0.0
  0
LINE
  5
A3B58
330
18
100
AcDbEntity
  8
0
  6
BYBLOCK
100
AcDbLine
 10
-122.3494015189202
 20
-4.257679015222944
 30
0.0
 11
-121.8135035189202
 21
-2.257679015222944
 31
0.0
  0
LINE
  5
A3B59
330
18
100
AcDbEntity
  8
0
  6
BYBLOCK
100
AcDbLine
 10
-121.8135035189202
 20
-2.257679015222944
 30
0.0
 11
-121.2776055189202
 21
-4.257679015222944
 31
0.0
  0
LINE
  5
A3B5A
330
18
100
AcDbEntity
  8
0
  6
BYBLOCK
100
AcDbLine
 10
-121.8135035189202
 20
-2.257679015222944
 30
0.0
 11
-121.8135035189202
 21
-4.257679015222944
 31
0.0
  0
TEXT
  5
A3B5B
330
18
100
AcDbEntity
  8
1DIM
  6
CONTINUOUS
100
AcDbText
 10
-122.5135035189203
 20
-25.24101234855686
 30
0.0
 40
3.5
  1
φ35
 50
90.0
100
AcDbText
1001
ACAD
1000
DSTYLE
1002
{
1070
     3
1000
φ<>
1002
}
  0
LINE
  5
A3B5C
330
18
100
AcDbEntity
  8
0
  6
BYBLOCK
100
AcDbLine
 10
-88.31350351891842
 20
68.21021405635892
 30
0.0
 11
-90.31350351891842
 21
68.74611205635892
 31
0.0
  0
LINE
  5
A3B5D
330
18
100
AcDbEntity
  8
0
  6
BYBLOCK
100
AcDbLine
 10
-90.31350351891842
 20
68.74611205635892
 30
0.0
 11
-88.31350351891842
 21
69.28201005635893
 31
0.0
  0
LINE
  5
A3B5E
330
18
100
AcDbEntity
  8
0
  6
BYBLOCK
100
AcDbLine
 10
-90.31350351891842
 20
68.74611205635892
 30
0.0
 11
-88.31350351891842
 21
68.74611205635892
 31
0.0
  0
LINE
  5
A3B5F
330
18
100
AcDbEntity
  8
0
  6
BYBLOCK
100
AcDbLine
 10
-72.31350351891842
 20
69.28201005635893
 30
0.0
 11
-70.31350351891842
 21
68.74611205635892
 31
0.0
  0
LINE
  5
A3B60
330
18
100
AcDbEntity
  8
0
  6
BYBLOCK
100
AcDbLine
 10
-70.31350351891842
 20
68.74611205635892
 30
0.0
 11
-72.31350351891842
 21
68.21021405635892
 31
0.0
  0
LINE
  5
A3B61
330
18
100
AcDbEntity
  8
0
  6
BYBLOCK
100
AcDbLine
 10
-70.31350351891842
 20
68.74611205635892
 30
0.0
 11
-72.31350351891842
 21
68.74611205635892
 31
0.0
  0
TEXT
  5
A3B62
330
18
100
AcDbEntity
  8
1DIM
  6
CONTINUOUS
100
AcDbText
 10
-83.0114201855851
 20
69.44611205635893
 30
0.0
 40
3.5
  1
20
100
AcDbText
  0
LINE
  5
A3B63
330
18
100
AcDbEntity
  8
0
  6
BYBLOCK
100
AcDbLine
 10
-48.27760551891831
 20
28.24611205635687
 30
0.0
 11
-48.81350351891832
 21
26.24611205635687
 31
0.0
  0
LINE
  5
A3B64
330
18
100
AcDbEntity
  8
0
  6
BYBLOCK
100
AcDbLine
 10
-48.81350351891832
 20
26.24611205635687
 30
0.0
 11
-49.34940151891832
 21
28.24611205635687
 31
0.0
  0
LINE
  5
A3B65
330
18
100
AcDbEntity
  8
0
  6
BYBLOCK
100
AcDbLine
 10
-48.81350351891832
 20
26.24611205635687
 30
0.0
 11
-48.81350351891832
 21
28.24611205635687
 31
0.0
  0
LINE
  5
A3B66
330
18
100
AcDbEntity
  8
0
  6
BYBLOCK
100
AcDbLine
 10
-49.34940151891831
 20
46.24611205636052
 30
0.0
 11
-48.81350351891831
 21
48.24611205636052
 31
0.0
  0
LINE
  5
A3B67
330
18
100
AcDbEntity
  8
0
  6
BYBLOCK
100
AcDbLine
 10
-48.81350351891831
 20
48.24611205636052
 30
0.0
 11
-48.27760551891831
 21
46.24611205636052
 31
0.0
  0
LINE
  5
A3B68
330
18
100
AcDbEntity
  8
0
  6
BYBLOCK
100
AcDbLine
 10
-48.81350351891831
 20
48.24611205636052
 30
0.0
 11
-48.81350351891831
 21
46.24611205636052
 31
0.0
  0
TEXT
  5
A3B69
330
18
100
AcDbEntity
  8
1DIM
  6
CONTINUOUS
100
AcDbText
 10
-49.51350351891833
 20
34.32944538969202
 30
0.0
 40
3.5
  1
22
 50
90.0
100
AcDbText
  0
VIEWPORT
  5
7DA1A
330
7DA16
100
AcDbEntity
 67
     1
  8
0
100
AcDbViewport
 68
     1
 10
0.0
 20
0.0
 30
0.0
 40
630.5106382978723
 41
297.0
 68
     1
 69
     1
1001
ACAD
1000
MVIEW
1002
{
1070
    16
1010
0.0
1020
0.0
1030
0.0
1010
0.0
1020
0.0
1030
1.0
1040
0.0
1040
297.0
1040
-4.300000000000011
1040
12.7999999999999
1040
50.0
1040
0.0
1040
0.0
1070
    16
1070
   100
1070
     0
1070
     3
1070
     0
1070
     0
1070
     0
1070
     0
1040
0.0
1040
0.0
1040
0.0
1040
10.0
1040
10.0
1040
10.0
1040
10.0
1070
     0
1002
{
1002
}
1002
}
  0
ENDSEC
  0
SECTION
  2
OBJECTS
  0
DICTIONARY
  5
C
330
0
100
AcDbDictionary
  3
ACAD_BACKGROUND
350
3EB8B
  3
ACAD_CIP_PREVIOUS_PRODUCT_INFO
350
62CC3
  3
ACAD_COLOR
350
1418C
  3
ACAD_FIELDLIST
350
6F2BA
  3
ACAD_GROUP
350
D
  3
ACAD_IMAGE_DICT
350
47736
  3
ACAD_IMAGE_VARS
350
47739
  3
ACAD_LAYOUT
350
1418F
  3
ACAD_MATERIAL
350
1418B
  3
ACAD_MLEADERSTYLE
350
16FA3
  3
ACAD_MLINESTYLE
350
1B
  3
ACAD_PLOTSETTINGS
350
14190
  3
ACAD_RENDER_ACTIVE_SETTINGS
350
87F41
  3
ACAD_RENDER_SETTINGS
350
6EA4E
  3
ACAD_SCALELIST
350
16F81
  3
ACAD_VISUALSTYLE
350
16F70
  3
ACDBHEADERROUNDTRIPXREC
350
A3B6A
  3
ACDBVARIABLEDICTIONARY
350
6ED
  3
AEC_PROPERTY_SET_DEFS
350
26DAC
  3
CONTENTDICTIONARY
350
60
  3
DRAWINGVARIABLESDICT
350
5F9
  3
DWGPROPS
350
A3B6D
1001
ACAD
1000
TREAT_AS_HARD
1070
     0
  0
DICTIONARY
  5
14879
330
2
100
AcDbDictionary
  3
ACAD_LAYERSTATES
360
1487A
1001
ACAD
1000
TREAT_AS_HARD
1070
     1
  0
DICTIONARY
  5
16FBC
330
E
100
AcDbDictionary
  3
ADSK_XREC_LAYER_RECONCILED
360
16FBD
1001
ACAD
1000
TREAT_AS_HARD
1070
     1
  0
DICTIONARY
  5
143BD
330
18
100
AcDbDictionary
  3
ACAD_SORTENTS
360
6A56E
1001
ACAD
1000
TREAT_AS_HARD
1070
     1
  0
DICTIONARY
  5
A337D
330
7DA16
100
AcDbDictionary
  3
ACAD_SORTENTS
360
A337E
1001
ACAD
1000
TREAT_AS_HARD
1070
     1
  0
DICTIONARY
  5
3EB8B
102
{ACAD_REACTORS
330
C
102
}
330
C
100
AcDbDictionary
1001
ACAD
1000
TREAT_AS_HARD
1070
     0
  0
XRECORD
  5
62CC3
102
{ACAD_REACTORS
330
C
102
}
330
C
100
AcDbXrecord
300
ACDLT
300
2012
300
ACDLT_F_S
  0
DICTIONARY
  5
1418C
102
{ACAD_REACTORS
330
C
102
}
330
C
100
AcDbDictionary
1001
ACAD
1000
TREAT_AS_HARD
1070
     0
  0
ACAD_PROXY_OBJECT
  5
6F2BA
102
{ACAD_REACTORS
330
C
102
}
330
C
100
AcDbZombieObject
 90
      499
 91
      534
 93
        3
310
80
  0
DICTIONARY
  5
D
102
{ACAD_REACTORS
330
C
102
}
330
C
100
AcDbDictionary
1001
ACAD
1000
TREAT_AS_HARD
1070
     0
  0
DICTIONARY
  5
47736
102
{ACAD_REACTORS
330
C
102
}
330
C
100
AcDbDictionary
1001
ACAD
1000
TREAT_AS_HARD
1070
     0
  0
RASTERVARIABLES
  5
47739
102
{ACAD_REACTORS
330
C
102
}
330
C
100
AcDbRasterVariables
 90
        0
 70
     1
 71
     1
 72
     0
  0
DICTIONARY
  5
1418F
102
{ACAD_REACTORS
330
C
102
}
330
C
100
AcDbDictionary
1001
ACAD
1000
TREAT_AS_HARD
1070
     0
  0
DICTIONARY
  5
1418B
102
{ACAD_REACTORS
330
C
102
}
330
C
100
AcDbDictionary
  3
BYBLOCK
350
16F60
  3
BYLAYER
350
16F58
  3
GLOBAL
350
16F68
1001
ACAD
1000
TREAT_AS_HARD
1070
     0
  0
DICTIONARY
  5
16FA3
102
{ACAD_REACTORS
330
C
102
}
330
C
100
AcDbDictionary
  3
STANDARD
350
16FA4
1001
ACAD
1000
TREAT_AS_HARD
1070
     0
  0
DICTIONARY
  5
1B
102
{ACAD_REACTORS
330
C
102
}
330
C
100
AcDbDictionary
  3
STANDARD
350
1C
1001
ACAD
1000
TREAT_AS_HARD
1070
     0
  0
DICTIONARY
  5
14190
102
{ACAD_REACTORS
330
C
102
}
330
C
100
AcDbDictionary
1001
ACAD
1000
TREAT_AS_HARD
1070
     0
  0
ACAD_PROXY_OBJECT
  5
87F41
102
{ACAD_REACTORS
330
C
102
}
330
C
100
AcDbZombieObject
 90
      499
 91
      540
 93
      924
310
409064D656469756DFA40D02901408000000000000084000000000000002100000000A09999A93F0000002826666A4FC000000A09999A93F0000002826666A4FE505415051E802000041027000041505414E4026A6666666666E4FD00000000001C25D0280000000000002440A4C040C02000010
  0
DICTIONARY
  5
6EA4E
102
{ACAD_REACTORS
330
C
102
}
330
C
100
AcDbDictionary
1001
ACAD
1000
TREAT_AS_HARD
1070
     0
  0
DICTIONARY
  5
16F81
102
{ACAD_REACTORS
330
C
102
}
330
C
100
AcDbDictionary
  3
*A1
350
6F27C
  3
*A10
350
6F27E
  3
*A11
350
6F27F
  3
*A12
350
6F280
  3
*A13
350
6F281
  3
*A14
350
6F282
  3
*A15
350
6F283
  3
*A16
350
6F284
  3
*A17
350
7F62D
  3
*A2
350
6F285
  3
*A3
350
6F286
  3
*A4
350
6F287
  3
*A5
350
6F288
  3
*A6
350
6F289
  3
*A7
350
6F28A
  3
*A8
350
6F28B
  3
*A9
350
6F27D
  3
A0
350
16F82
  3
A1
350
16F83
  3
A2
350
16F84
  3
A3
350
16F85
  3
A4
350
16F86
  3
A5
350
16F87
  3
A6
350
16F88
  3
A7
350
16F89
  3
A8
350
16F8A
  3
A9
350
16F8B
  3
B0
350
16F8C
  3
B1
350
16F8D
  3
B2
350
16F8E
  3
B3
350
16F8F
  3
B4
350
16F90
  3
B5
350
16F91
  3
B6
350
16F92
  3
B7
350
16F93
  3
B8
350
16F94
  3
B9
350
16F95
  3
C0
350
16F96
  3
C1
350
16F97
  3
C2
350
16F98
  3
C3
350
16F99
  3
C4
350
16F9A
  3
C5
350
16F9B
  3
C6
350
16F9C
  3
C7
350
16F9D
  3
C8
350
16F9E
  3
C9
350
16F9F
  3
D0
350
16FA0
  3
D1
350
16FA1
  3
D2
350
16FA2
1001
ACAD
1000
TREAT_AS_HARD
1070
     0
  0
DICTIONARY
  5
16F70
102
{ACAD_REACTORS
330
C
102
}
330
C
100
AcDbDictionary
  3
2DWIREFRAME
350
16F76
  3
3D_HIDDEN
350
16F78
  3
3DWIREFRAME
350
16F77
  3
BASIC
350
16F75
  3
BRIGHTEN
350
16F7C
  3
COLORCHANGE
350
16F80
  3
CONCEPTUAL
350
16F79
  3
DIM
350
16F7B
  3
EDGECOLOROFF
350
62CA3
  3
FACEPATTERN
350
16F7F
  3
FLAT
350
16F71
  3
FLATWITHEDGES
350
16F72
  3
GOURAUD
350
16F73
  3
GOURAUDWITHEDGES
350
16F74
  3
HIDDEN
350
62C9B
  3
JITTEROFF
350
62CA1
  3
LINEPATTERN
350
16F7E
  3
MODELING
350
A39EC
  3
OVERHANGOFF
350
62CA2
  3
REALISTIC
350
16F7A
  3
SHADED
350
62CA0
  3
SHADED_WITH_EDGES
350
62C9F
  3
SHADES_OF_GRAY
350
62C9C
  3
SKETCHY
350
62C9D
  3
THICKEN
350
16F7D
  3
WIREFRAME
350
62C9A
  3
X-RAY
350
62C9E
1001
ACAD
1000
TREAT_AS_HARD
1070
     0
  0
DICTIONARY
  5
A3B6A
102
{ACAD_REACTORS
330
C
102
}
330
C
100
AcDbDictionary
  3
COLORDICT
350
A3B6B
  3
MATERIALDICT
350
A3B6C
1001
ACAD
1000
TREAT_AS_HARD
1070
     0
  0
DICTIONARY
  5
6ED
102
{ACAD_REACTORS
330
C
102
}
330
C
100
AcDbDictionary
  3
CANNOSCALE
350
A3D08
  3
CMLEADERSTYLE
350
1710A
  3
CTABLESTYLE
350
141AE
  3
DIMADEC
350
6EE
  3
DIMASSOC
350
141AF
  3
FIELDEVAL
350
7CF14
  3
HIDETEXT
350
1485B
  3
INDEXCTL
350
1710C
  3
INTERSECTIONCOLOR
350
1485F
  3
INTERSECTIONDISPLAY
350
1485E
  3
LAYEREVAL
350
A348C
  3
LAYERNOTIFY
350
A348D
  3
MLEADERSCALE
350
7E56E
  3
MSLTSCALE
350
6D821
  3
OBSCOLOR
350
1485C
  3
OBSLTYPE
350
1485D
  3
PROJECTNAME
350
141B0
  3
SORTENTS
350
E97
  3
UPDATETHUMBNAIL
350
41A53
  3
XCLIPFRAME
350
A39EB
1001
ACAD
1000
TREAT_AS_HARD
1070
     0
  0
DICTIONARY
  5
26DAC
102
{ACAD_REACTORS
330
C
102
}
330
C
100
AcDbDictionary
1001
ACAD
1000
TREAT_AS_HARD
1070
     0
  0
DICTIONARY
  5
60
102
{ACAD_REACTORS
330
C
102
}
330
C
100
AcDbDictionary
1001
CONTENTTABDATA
1070
     3
1000
CHILDREN.dwg
1000
D:\ACLT\家田Tab\CHILDREN.dwg
1070
     0
1070
     0
1070
     1
1000
REGION.dwg
1000
D:\ACLT\家田Tab\REGION.dwg
1070
     0
1070
     0
1070
     1
1000
std_sym_all.dwg
1000
D:\ACLT\家田Tab\std_sym_all.dwg
1070
     0
1070
     0
1070
     1
1001
CONTENTCURRENTTAB
1070
     0
1001
ACAD
1000
TREAT_AS_HARD
1070
     0
  0
DICTIONARY
  5
5F9
102
{ACAD_REACTORS
330
C
102
}
330
C
100
AcDbDictionary
1001
DRAWINGVARIABLESXDATA
1000
POLARMODE
1000
1
1000
POLARANG
1000
0.261799387799149410000000
1000
POLARSTYLE
1000
1
1001
ACAD
1000
TREAT_AS_HARD
1070
     0
  0
XRECORD
  5
A3B6D
102
{ACAD_REACTORS
330
C
102
}
330
C
100
AcDbXrecord
  1
DWGPROPS COOKIE
  2

  3

  4

  6

  7

  8
624
  9

300
=
301
=
302
=
303
=
304
=
305
=
306
=
307
=
308
=
309
=
 40
0.0
 41
2451027.252421285
 42
2458080.396299086
  1

 90
        0
  0
DICTIONARY
  5
1487A
102
{ACAD_REACTORS
330
14879
102
}
330
14879
100
AcDbDictionary
  3
_LAYISO_STATE
350
7A5FB
1001
ACLAYERTOOLS
1000
14191
1000
0
1001
ACAD
1000
TREAT_AS_HARD
1070
     0
  0
ACAD_PROXY_OBJECT
  5
16FBD
102
{ACAD_REACTORS
330
16FBC
102
}
330
16FBC
100
AcDbZombieObject
 90
      499
 91
      543
 93
       34
310
40C8804040
  0
SORTENTSTABLE
  5
6A56E
102
{ACAD_REACTORS
330
143BD
102
}
330
143BD
100
AcDbSortentsTable
330
18
331
0
  5
A33CA
331
0
  5
A36B0
331
0
  5
A36B3
331
A36B0
  5
A36CA
331
A36B1
  5
A36CB
331
A36B2
  5
A36CC
331
A36B3
  5
A36CD
331
A36B4
  5
A36CE
331
A36B5
  5
A36CF
331
A36B6
  5
A36D0
331
A36B7
  5
A36D1
331
A36B8
  5
A36D2
331
A36B9
  5
A36D3
331
A36BA
  5
A36D4
331
A36BB
  5
A36D5
331
A36BC
  5
A36D6
331
A36BD
  5
A36D7
331
A36BE
  5
A36D8
331
A36BF
  5
A36D9
331
A36C0
  5
A36DA
331
A36C1
  5
A36DB
331
A36C2
  5
A36DC
331
A36C3
  5
A36DD
331
A36C4
  5
A36DE
331
A36C5
  5
A36DF
331
A36C6
  5
A36E0
331
A36C7
  5
A36E1
331
A36C8
  5
A36E2
331
A36C9
  5
A36E3
331
A36CA
  5
A36E4
331
A36CB
  5
A36E5
331
A36CC
  5
A36E6
331
A36CD
  5
A36E7
331
A36CE
  5
A36E8
331
A36CF
  5
A36E9
331
A36D0
  5
A36EA
331
A36D1
  5
A36EB
331
A36D2
  5
A36EC
331
A36D3
  5
A36ED
331
A36D4
  5
A36EE
331
A36D5
  5
A36EF
331
A36D6
  5
A36F0
331
A36D7
  5
A36F1
331
A36D8
  5
A36F2
331
A36D9
  5
A36F3
331
A36DA
  5
A36F4
331
A36DB
  5
A36F5
331
A36DC
  5
A36F6
331
A36DD
  5
A36F7
331
A36DE
  5
A36F8
331
A36DF
  5
A36F9
331
A36E0
  5
A36FA
331
A36E1
  5
A36FB
331
A36E2
  5
A36FC
331
A36E3
  5
A36FD
331
A36E4
  5
A36FE
331
A36E5
  5
A36FF
331
A36E6
  5
A3701
331
A36E7
  5
A3702
331
A36E8
  5
A3703
331
A36E9
  5
A3704
331
A36EA
  5
A3705
331
A36EB
  5
A3706
331
A36EC
  5
A3707
331
A36ED
  5
A3708
331
A36EE
  5
A3709
331
A36EF
  5
A370A
331
A36F0
  5
A370B
331
A36F1
  5
A370F
331
A36F2
  5
A3710
331
A36F3
  5
A3711
331
A36F4
  5
A3712
331
A36F5
  5
A3713
331
A36F6
  5
A3714
331
A36F7
  5
A3715
331
A36F8
  5
A3716
331
A36F9
  5
A3717
331
0
  5
A3700
331
A36FB
  5
A3722
331
A36FC
  5
A3723
331
A36FD
  5
A3724
331
A36FE
  5
A3725
331
A36FF
  5
A3726
331
A3700
  5
A3727
331
A3701
  5
A3728
331
A3702
  5
A3729
331
A3703
  5
A372A
331
A3704
  5
A372B
331
A3705
  5
A372C
331
A3706
  5
A372D
331
A3707
  5
A372E
331
A3708
  5
A372F
331
A3709
  5
A3730
331
A370A
  5
A3731
331
A370B
  5
A3732
331
A370C
  5
A3733
331
A370D
  5
A3734
331
A370E
  5
A3735
331
A370F
  5
A3736
331
A3710
  5
A3737
331
A3711
  5
A3738
331
A3712
  5
A373A
331
A3713
  5
A373B
331
A3714
  5
A373C
331
A3715
  5
A373D
331
A3716
  5
A373E
331
A3717
  5
A373F
331
A3718
  5
A3741
331
A3719
  5
A3742
331
A371A
  5
A3743
331
A371B
  5
A3744
331
A371C
  5
A3746
331
A371D
  5
A3747
331
A371E
  5
A3748
331
A371F
  5
A3749
331
A3720
  5
A374A
331
A3721
  5
A374B
331
A3722
  5
A374D
331
A3723
  5
A374E
331
A3724
  5
A374F
331
A3725
  5
A3750
331
A3726
  5
A3751
331
A3727
  5
A3752
331
A3728
  5
A3753
331
A3729
  5
A3754
331
A372A
  5
A3755
331
A372B
  5
A3756
331
A372C
  5
A3757
331
A372D
  5
A3758
331
A372E
  5
A3759
331
A372F
  5
A375A
331
A3730
  5
A375B
331
A3731
  5
A375C
331
A3732
  5
A375D
331
0
  5
A3739
331
A3734
  5
A37A8
331
A3735
  5
A37A9
331
A3736
  5
A37AA
331
A3737
  5
A37AB
331
A3738
  5
A37AC
331
A3739
  5
A37AD
331
0
  5
A3740
331
A373B
  5
A3A49
331
A373C
  5
A3A4A
331
A373D
  5
A3A4B
331
A373E
  5
A3A4C
331
0
  5
A3745
331
A3740
  5
A3A57
331
A3741
  5
A3A58
331
A3742
  5
A3A59
331
A3743
  5
A3A5A
331
A3744
  5
A3A9A
331
A3745
  5
A3A9B
331
A3746
  5
A3A9C
331
A3747
  5
A3A9D
331
A3748
  5
A3A9E
331
A3749
  5
A3A9F
331
A374A
  5
A3AA0
331
A374B
  5
A3AA1
331
A374C
  5
A3AA2
331
A374D
  5
A3AA3
331
A374E
  5
A3AA4
331
A374F
  5
A3AA5
331
A3750
  5
A3AA6
331
A3751
  5
A3AA7
331
A3752
  5
A3AA8
331
A3753
  5
A3AA9
331
A3754
  5
A3AAA
331
A3755
  5
A3AAB
331
A3756
  5
A3AAC
331
A3757
  5
A3AAD
331
A3758
  5
A3AAE
331
A3759
  5
A3AAF
331
A375A
  5
A3AB0
331
A375B
  5
A3AB1
331
A375C
  5
A3AB2
331
A375D
  5
A3AB3
331
A375E
  5
A3AB4
331
A375F
  5
A3AB5
331
A3760
  5
A3AB6
331
A3761
  5
A3AB7
331
A3762
  5
A3AB8
331
A3763
  5
A3AB9
331
A3764
  5
A3ABA
331
A3765
  5
A3ABB
331
A3766
  5
A3ABC
331
A3767
  5
A3ABD
331
A3768
  5
A3ABE
331
A3769
  5
A3ABF
331
A376A
  5
A3AC0
331
A376B
  5
A3AC1
331
A376C
  5
A3AC2
331
A376D
  5
A3AC3
331
A376E
  5
A3AC4
331
A376F
  5
A3AC5
331
A3770
  5
A3AC6
331
A3771
  5
A3AC7
331
A3772
  5
A3AC8
331
A3773
  5
A3AC9
331
A3774
  5
A3ACA
331
A3775
  5
A3ACB
331
A3776
  5
A3ACC
331
A3777
  5
A3ACD
331
A3778
  5
A3ACE
331
A3779
  5
A3ACF
331
A377A
  5
A3AD0
331
A377B
  5
A3AD1
331
A377C
  5
A3AD2
331
A377D
  5
A3AD3
331
A377E
  5
A3AD4
331
A377F
  5
A3AD5
331
A3780
  5
A3AD6
331
A3781
  5
A3AD7
331
A3782
  5
A3AD8
331
A3783
  5
A3AD9
331
A3784
  5
A3ADA
331
A3785
  5
A3ADE
331
A3786
  5
A3ADF
331
A3787
  5
A3AE0
331
A3788
  5
A3AE1
331
A3789
  5
A3AE5
331
A378A
  5
A3AE6
331
A378B
  5
A3AE7
331
A378C
  5
A3AEB
331
A378D
  5
A3AEC
331
A378E
  5
A3AED
331
A378F
  5
A3AF1
331
A3790
  5
A3AF2
331
A3791
  5
A3AF3
331
A3792
  5
A3AF7
331
A3793
  5
A3AF8
331
A3794
  5
A3AF9
331
A3795
  5
A3AFD
331
A3796
  5
A3AFE
331
A3797
  5
A3AFF
331
A3798
  5
A3B03
331
A3799
  5
A3B04
331
A379A
  5
A3B05
331
A379B
  5
A3B06
331
A379C
  5
A3B07
331
A379D
  5
A3B08
331
A379E
  5
A3B09
331
A379F
  5
A3B0A
331
A37A0
  5
A3B0B
331
A37A1
  5
A3B0C
331
A37A2
  5
A3B0D
331
A37A3
  5
A3B0E
331
A37A4
  5
A3B0F
331
A37A5
  5
A3B10
331
A37A6
  5
A3B11
331
A37A7
  5
A3B12
331
A37A8
  5
A3B13
331
A37A9
  5
A3B14
331
A37AA
  5
A3B15
331
A37AB
  5
A3B16
331
A37AC
  5
A3B17
331
A37AD
  5
A3B18
331
A37AE
  5
A3B19
331
A37AF
  5
A3B1A
331
A37B0
  5
A3B1B
331
A37B1
  5
A3B1C
331
0
  5
A37B8
331
A37B3
  5
A3B27
331
0
  5
A37BE
331
0
  5
A37BF
331
0
  5
A37C0
331
0
  5
A37C5
331
0
  5
A37C6
331
0
  5
A37C7
331
A37BE
  5
A3B64
331
A37BF
  5
A3B65
331
A37C0
  5
A3B66
331
A37C5
  5
A3B67
331
A37C6
  5
A3B68
331
A37C7
  5
A3B69
331
A3A08
  5
A36B7
331
A3A09
  5
A36BD
331
A3A0A
  5
A36C2
331
A3A0B
  5
A36C3
331
A3A0C
  5
A36C8
331
A3A0D
  5
A36C9
331
0
  5
A3393
331
A3A0F
  5
A36B5
331
0
  5
A36B2
331
A3A11
  5
A36BC
331
0
  5
A36B6
331
A3A13
  5
A36C1
331
0
  5
A36BA
331
A3A15
  5
A36C7
331
A3A16
  5
A3718
331
A3A17
  5
A3719
331
A3A18
  5
A371A
331
0
  5
A370C
331
0
  5
A370D
331
0
  5
A370E
331
A3A1C
  5
A375E
331
A3A1D
  5
A375F
331
0
  5
A374C
331
A3A1F
  5
A376B
331
A3A20
  5
A376C
331
A3A21
  5
A376D
331
A3A22
  5
A376E
331
A3A23
  5
A376F
331
A3A24
  5
A3770
331
A3A25
  5
A3771
331
A3A26
  5
A3772
331
A3A27
  5
A3773
331
A3A28
  5
A3774
331
A3A29
  5
A3775
331
A3A2A
  5
A3776
331
A3A2B
  5
A3777
331
A3A2C
  5
A3778
331
A3A2D
  5
A3779
331
A3A2E
  5
A377A
331
A3A2F
  5
A377B
331
A3A30
  5
A377C
331
A3A31
  5
A377D
331
A3A32
  5
A377E
331
A3A33
  5
A377F
331
A3A34
  5
A3780
331
A3A35
  5
A3781
331
A3A36
  5
A3782
331
A3A37
  5
A3783
331
A3A38
  5
A3784
331
A3A39
  5
A3785
331
A3A3A
  5
A3786
331
A3A3B
  5
A3787
331
A3A3C
  5
A3788
331
A3A3D
  5
A3789
331
A3A3E
  5
A378A
331
A3A3F
  5
A378B
331
A3A40
  5
A378C
331
A3A41
  5
A378D
331
A3A42
  5
A378E
331
A3A43
  5
A378F
331
A3A44
  5
A3790
331
A3A45
  5
A3792
331
A3A46
  5
A3793
331
A3A47
  5
A3794
331
A3A48
  5
A3795
331
A3A49
  5
A3796
331
A3A4A
  5
A3797
331
A3A4B
  5
A3798
331
A3A4C
  5
A3799
331
A3A4D
  5
A379A
331
A3A4E
  5
A379B
331
A3A4F
  5
A379C
331
A3A50
  5
A379D
331
A3A51
  5
A379E
331
A3A52
  5
A379F
331
A3A53
  5
A37A0
331
A3A54
  5
A37A1
331
A3A55
  5
A37A2
331
A3A56
  5
A37A3
331
A3A57
  5
A37A4
331
A3A58
  5
A37A5
331
A3A59
  5
A37A6
331
A3A5A
  5
A37A7
331
A3A9A
  5
A37AE
331
A3A9B
  5
A37AF
331
0
  5
A3791
331
A3A9D
  5
A3A0A
331
A3A9E
  5
A3A0B
331
A3A9F
  5
A3A0C
331
A3AA0
  5
A3A0D
331
A3AA1
  5
A3A0E
331
A3AA2
  5
A3A0F
331
A3AA3
  5
A3A10
331
A3AA4
  5
A3A11
331
A3AA5
  5
A3A12
331
A3AA6
  5
A3A13
331
A3AA7
  5
A3A14
331
A3AA8
  5
A3A15
331
A3AA9
  5
A3A16
331
A3AAA
  5
A3A17
331
A3AAB
  5
A3A18
331
A3AAC
  5
A3A19
331
A3AAD
  5
A3A1A
331
A3AAE
  5
A3A1B
331
A3AAF
  5
A3A1C
331
A3AB0
  5
A3A1D
331
A3AB1
  5
A3A1E
331
A3AB2
  5
A3A1F
331
A3AB3
  5
A3A20
331
A3AB4
  5
A3A21
331
A3AB5
  5
A3A22
331
A3AB6
  5
A3A23
331
A3AB7
  5
A3A27
331
A3AB8
  5
A3A28
331
A3AB9
  5
A3A29
331
A3ABA
  5
A3A2A
331
A3ABB
  5
A3A2B
331
A3ABC
  5
A3A2C
331
A3ABD
  5
A3A2D
331
A3ABE
  5
A3A2E
331
A3ABF
  5
A3A2F
331
A3AC0
  5
A3A30
331
A3AC1
  5
A3A31
331
A3AC2
  5
A3A32
331
A3AC3
  5
A3A33
331
A3AC4
  5
A3A34
331
A3AC5
  5
A3A35
331
A3AC6
  5
A3A36
331
A3AC7
  5
A3A37
331
A3AC8
  5
A3A38
331
A3AC9
  5
A3A39
331
A3ACA
  5
A3A3A
331
A3ACB
  5
A3A3B
331
A3ACC
  5
A3A3C
331
A3ACD
  5
A3A3D
331
A3ACE
  5
A3A3E
331
A3ACF
  5
A3A3F
331
A3AD0
  5
A3A40
331
A3AD1
  5
A3A41
331
A3AD2
  5
A3A42
331
A3AD3
  5
A3A43
331
A3AD4
  5
A3A44
331
A3AD5
  5
A3A45
331
A3AD6
  5
A3A46
331
A3AD7
  5
A3A47
331
A3AD8
  5
A3A48
331
A3AD9
  5
A3A4D
331
A3ADA
  5
A3A4E
331
A3ADB
  5
A3A4F
331
0
  5
A3A24
331
0
  5
A3A25
331
0
  5
A3A26
331
A3ADF
  5
A3B1D
331
A3AE0
  5
A3B1E
331
A3AE1
  5
A3B1F
331
0
  5
A3ADB
331
0
  5
A3ADC
331
0
  5
A3ADD
331
A3AE5
  5
A3B28
331
A3AE6
  5
A3B29
331
A3AE7
  5
A3B2A
331
0
  5
A3AE2
331
0
  5
A3AE3
331
0
  5
A3AE4
331
A3AEB
  5
A3B32
331
A3AEC
  5
A3B33
331
A3AED
  5
A3B34
331
0
  5
A3AE8
331
0
  5
A3AE9
331
0
  5
A3AEA
331
A3AF1
  5
A3B3C
331
A3AF2
  5
A3B3D
331
A3AF3
  5
A3B3E
331
0
  5
A3AEE
331
0
  5
A3AEF
331
0
  5
A3AF0
331
A3AF7
  5
A3B46
331
A3AF8
  5
A3B47
331
A3AF9
  5
A3B48
331
0
  5
A3AF4
331
0
  5
A3AF5
331
0
  5
A3AF6
331
A3AFD
  5
A3B50
331
A3AFE
  5
A3B51
331
A3AFF
  5
A3B52
331
0
  5
A3AFA
331
0
  5
A3AFB
331
0
  5
A3AFC
331
A3B03
  5
A3B5A
331
A3B04
  5
A3B5B
331
A3B05
  5
A3B5C
331
0
  5
A3B00
331
0
  5
A3B01
331
0
  5
A3B02
331
A3B09
  5
A33CC
331
A3B0A
  5
A36B1
331
A3B0B
  5
A36B4
331
A3B0C
  5
A36B8
331
A3B0D
  5
A36B9
331
A3B0E
  5
A36BB
331
A3B0F
  5
A36BE
331
A3B10
  5
A36BF
331
A3B11
  5
A36C0
331
A3B12
  5
A36C4
331
A3B13
  5
A36C5
331
A3B14
  5
A36C6
331
A3B15
  5
A371B
331
A3B16
  5
A371C
331
A3B17
  5
A371D
331
A3B18
  5
A371E
331
A3B19
  5
A371F
331
A3B1A
  5
A3720
331
A3B1B
  5
A3721
331
A3B1C
  5
A3760
331
A3B1D
  5
A3761
331
A3B1E
  5
A3762
331
A3B1F
  5
A3763
331
A3B20
  5
A3764
331
A3B21
  5
A3765
331
A3B22
  5
A3766
331
A3B23
  5
A3767
331
A3B24
  5
A3768
331
A3B25
  5
A3769
331
A3B26
  5
A376A
331
A3B27
  5
A37B0
331
A3B28
  5
A37B1
331
A3B29
  5
A37B2
331
A3B2A
  5
A37B3
331
A3B2B
  5
A37B4
331
A3B2C
  5
A37B5
331
A3B2D
  5
A37B6
331
A3B2E
  5
A37B7
331
A3B2F
  5
A37B9
331
A3B30
  5
A3A08
331
A3B31
  5
A3A09
331
A3B32
  5
A3A50
331
A3B33
  5
A3A51
331
A3B34
  5
A3A52
331
A3B35
  5
A3A53
331
A3B36
  5
A3A54
331
A3B37
  5
A3A55
331
A3B38
  5
A3A56
331
A3B39
  5
A3B20
331
A3B3A
  5
A3B21
331
A3B3B
  5
A3B22
331
A3B3C
  5
A3B23
331
A3B3D
  5
A3B24
331
A3B3E
  5
A3B25
331
A3B3F
  5
A3B26
331
A3B40
  5
A3B2B
331
A3B41
  5
A3B2C
331
A3B42
  5
A3B2D
331
A3B43
  5
A3B2E
331
A3B44
  5
A3B2F
331
A3B45
  5
A3B30
331
A3B46
  5
A3B31
331
A3B47
  5
A3B35
331
A3B48
  5
A3B36
331
A3B49
  5
A3B37
331
A3B4A
  5
A3B38
331
A3B4B
  5
A3B39
331
A3B4C
  5
A3B3A
331
A3B4D
  5
A3B3B
331
A3B4E
  5
A3B3F
331
A3B4F
  5
A3B40
331
A3B50
  5
A3B41
331
A3B51
  5
A3B42
331
A3B52
  5
A3B43
331
A3B53
  5
A3B44
331
A3B54
  5
A3B45
331
A3B55
  5
A3B49
331
A3B56
  5
A3B4A
331
A3B57
  5
A3B4B
331
A3B58
  5
A3B4C
331
A3B59
  5
A3B4D
331
A3B5A
  5
A3B4E
331
A3B5B
  5
A3B4F
331
A3B5C
  5
A3B53
331
A3B5D
  5
A3B54
331
A3B5E
  5
A3B55
331
A3B5F
  5
A3B56
331
A3B60
  5
A3B57
331
A3B61
  5
A3B58
331
A3B62
  5
A3B59
331
A3B63
  5
A3B5D
331
A3B64
  5
A3B5E
331
A3B65
  5
A3B5F
331
A3B66
  5
A3B60
331
A3B67
  5
A3B61
331
A3B68
  5
A3B62
331
A3B69
  5
A3B63
  0
SORTENTSTABLE
  5
A337E
102
{ACAD_REACTORS
330
A337D
102
}
330
A337D
100
AcDbSortentsTable
330
7DA16
331
7DA1A
  5
7DA1A
331
0
  5
7E25F
331
0
  5
7E260
331
0
  5
7E261
331
0
  5
7E262
331
0
  5
7E263
331
0
  5
7E264
331
0
  5
7E265
331
0
  5
7E266
331
0
  5
7E267
331
0
  5
7E268
331
0
  5
7E26B
331
0
  5
7E6D4
  0
MATERIAL
  5
16F60
102
{ACAD_REACTORS
330
1418B
102
}
102
{ACAD_XDICTIONARY
360
A3D09
102
}
330
1418B
100
AcDbMaterial
  1
BYBLOCK
 72
     0
 73
     2
 43
0.020833
 43
0.0
 43
0.0
 43
0.0
 43
0.0
 43
0.020833
 43
0.0
 43
0.0
 43
0.0
 43
0.0
 43
1.0
 43
0.0
 43
0.0
 43
0.0
 43
0.0
 43
1.0
 77
     0
 78
     2
 47
0.020833
 47
0.0
 47
0.0
 47
0.0
 47
0.0
 47
0.020833
 47
0.0
 47
0.0
 47
0.0
 47
0.0
 47
1.0
 47
0.0
 47
0.0
 47
0.0
 47
0.0
 47
1.0
171
     0
172
     2
 49
0.020833
 49
0.0
 49
0.0
 49
0.0
 49
0.0
 49
0.020833
 49
0.0
 49
0.0
 49
0.0
 49
0.0
 49
1.0
 49
0.0
 49
0.0
 49
0.0
 49
0.0
 49
1.0
175
     0
176
     2
142
0.020833
142
0.0
142
0.0
142
0.0
142
0.0
142
0.020833
142
0.0
142
0.0
142
0.0
142
0.0
142
1.0
142
0.0
142
0.0
142
0.0
142
0.0
142
1.0
179
     0
270
     2
144
0.020833
144
0.0
144
0.0
144
0.0
144
0.0
144
0.020833
144
0.0
144
0.0
144
0.0
144
0.0
144
1.0
144
0.0
144
0.0
144
0.0
144
0.0
144
1.0
274
     2
147
0.020833
147
0.0
147
0.0
147
0.0
147
0.0
147
0.020833
147
0.0
147
0.0
147
0.0
147
0.0
147
1.0
147
0.0
147
0.0
147
0.0
147
0.0
147
1.0
  0
MATERIAL
  5
16F58
102
{ACAD_REACTORS
330
1418B
102
}
102
{ACAD_XDICTIONARY
360
A3D0B
102
}
330
1418B
100
AcDbMaterial
  1
BYLAYER
 72
     0
 73
     2
 43
0.020833
 43
0.0
 43
0.0
 43
0.0
 43
0.0
 43
0.020833
 43
0.0
 43
0.0
 43
0.0
 43
0.0
 43
1.0
 43
0.0
 43
0.0
 43
0.0
 43
0.0
 43
1.0
 77
     0
 78
     2
 47
0.020833
 47
0.0
 47
0.0
 47
0.0
 47
0.0
 47
0.020833
 47
0.0
 47
0.0
 47
0.0
 47
0.0
 47
1.0
 47
0.0
 47
0.0
 47
0.0
 47
0.0
 47
1.0
171
     0
172
     2
 49
0.020833
 49
0.0
 49
0.0
 49
0.0
 49
0.0
 49
0.020833
 49
0.0
 49
0.0
 49
0.0
 49
0.0
 49
1.0
 49
0.0
 49
0.0
 49
0.0
 49
0.0
 49
1.0
175
     0
176
     2
142
0.020833
142
0.0
142
0.0
142
0.0
142
0.0
142
0.020833
142
0.0
142
0.0
142
0.0
142
0.0
142
1.0
142
0.0
142
0.0
142
0.0
142
0.0
142
1.0
179
     0
270
     2
144
0.020833
144
0.0
144
0.0
144
0.0
144
0.0
144
0.020833
144
0.0
144
0.0
144
0.0
144
0.0
144
1.0
144
0.0
144
0.0
144
0.0
144
0.0
144
1.0
274
     2
147
0.020833
147
0.0
147
0.0
147
0.0
147
0.0
147
0.020833
147
0.0
147
0.0
147
0.0
147
0.0
147
1.0
147
0.0
147
0.0
147
0.0
147
0.0
147
1.0
  0
MATERIAL
  5
16F68
102
{ACAD_REACTORS
330
1418B
102
}
102
{ACAD_XDICTIONARY
360
A3D0D
102
}
330
1418B
100
AcDbMaterial
  1
GLOBAL
 72
     0
 73
     2
 43
0.020833
 43
0.0
 43
0.0
 43
0.0
 43
0.0
 43
0.020833
 43
0.0
 43
0.0
 43
0.0
 43
0.0
 43
1.0
 43
0.0
 43
0.0
 43
0.0
 43
0.0
 43
1.0
 77
     0
 78
     2
 47
0.020833
 47
0.0
 47
0.0
 47
0.0
 47
0.0
 47
0.020833
 47
0.0
 47
0.0
 47
0.0
 47
0.0
 47
1.0
 47
0.0
 47
0.0
 47
0.0
 47
0.0
 47
1.0
171
     0
172
     2
 49
0.020833
 49
0.0
 49
0.0
 49
0.0
 49
0.0
 49
0.020833
 49
0.0
 49
0.0
 49
0.0
 49
0.0
 49
1.0
 49
0.0
 49
0.0
 49
0.0
 49
0.0
 49
1.0
175
     0
176
     2
142
0.020833
142
0.0
142
0.0
142
0.0
142
0.0
142
0.020833
142
0.0
142
0.0
142
0.0
142
0.0
142
1.0
142
0.0
142
0.0
142
0.0
142
0.0
142
1.0
179
     0
270
     2
144
0.020833
144
0.0
144
0.0
144
0.0
144
0.0
144
0.020833
144
0.0
144
0.0
144
0.0
144
0.0
144
1.0
144
0.0
144
0.0
144
0.0
144
0.0
144
1.0
274
     2
147
0.020833
147
0.0
147
0.0
147
0.0
147
0.0
147
0.020833
147
0.0
147
0.0
147
0.0
147
0.0
147
1.0
147
0.0
147
0.0
147
0.0
147
0.0
147
1.0
  0
ACAD_PROXY_OBJECT
  5
16FA4
102
{ACAD_REACTORS
330
16FA3
102
}
330
16FA3
100
AcDbZombieObject
 90
      499
 91
      511
 93
      618
310
40901902A4073FBFFFFFE000000000000002040AD7A3703D0AD73F4214DD185B99185C9900000000000001040905415019C900000000000003100000000000000041025766000000000000300FC0
340
12
340
0
340
F
340
0
 94
        0
1001
ACAD
1000
AcRTDxfName
1000
MLEADERSTYLE
1000
AcRTDxfName
1000
MLEADERSTYLE
1000
AcRTDxfName
1000
MLEADERSTYLE
1000
AcRTDxfName
1000
MLEADERSTYLE
1000
AcRTDxfName
1000
MLEADERSTYLE
1000
AcRTDxfName
1000
MLEADERSTYLE
1001
ACAD_MLEADERVER
1070
     2
  0
MLINESTYLE
  5
1C
102
{ACAD_REACTORS
330
1B
102
}
330
1B
100
AcDbMlineStyle
  2
STANDARD
 70
     0
  3

 62
   256
 51
90.0
 52
90.0
 71
     2
 49
0.5
 62
   256
  6
BYLAYER
 49
-0.5
 62
   256
  6
BYLAYER
  0
ACAD_PROXY_OBJECT
  5
6F27C
102
{ACAD_REACTORS
330
16F81
102
}
330
16F81
100
AcDbZombieObject
 90
      499
 91
      510
 93
      153
310
909313A34305F585245464000000000000444000
  0
ACAD_PROXY_OBJECT
  5
6F27E
102
{ACAD_REACTORS
330
16F81
102
}
330
16F81
100
AcDbZombieObject
 90
      499
 91
      510
 93
      161
310
90A313A3130305F585245464000000000000594000
  0
ACAD_PROXY_OBJECT
  5
6F27F
102
{ACAD_REACTORS
330
16F81
102
}
330
16F81
100
AcDbZombieObject
 90
      499
 91
      510
 93
      145
310
908323A315F585245460000000000000010100
  0
ACAD_PROXY_OBJECT
  5
6F280
102
{ACAD_REACTORS
330
16F81
102
}
330
16F81
100
AcDbZombieObject
 90
      499
 91
      510
 93
      145
310
908343A315F585245460000000000000410100
  0
ACAD_PROXY_OBJECT
  5
6F281
102
{ACAD_REACTORS
330
16F81
102
}
330
16F81
100
AcDbZombieObject
 90
      499
 91
      510
 93
      145
310
908383A315F585245460000000000000810100
  0
ACAD_PROXY_OBJECT
  5
6F282
102
{ACAD_REACTORS
330
16F81
102
}
330
16F81
100
AcDbZombieObject
 90
      499
 91
      510
 93
      153
310
90931303A315F585245460000000000000910100
  0
ACAD_PROXY_OBJECT
  5
6F283
102
{ACAD_REACTORS
330
16F81
102
}
330
16F81
100
AcDbZombieObject
 90
      499
 91
      510
 93
      161
310
90A3130303A315F585245460000000000001650100
  0
ACAD_PROXY_OBJECT
  5
6F284
102
{ACAD_REACTORS
330
16F81
102
}
330
16F81
100
AcDbZombieObject
 90
      499
 91
      510
 93
      145
310
908313A325F585245464000000000000004000
  0
ACAD_PROXY_OBJECT
  5
7F62D
102
{ACAD_REACTORS
330
16F81
102
}
330
16F81
100
AcDbZombieObject
 90
      499
 91
      510
 93
      273
310
910312F31323822203D2031272D30225F31000000000000200FC000000000000284000
1001
ACAD
1000
AcRTDxfName
1000
SCALE
1000
AcRTDxfName
1000
SCALE
1000
AcRTDxfName
1000
SCALE
1000
AcRTDxfName
1000
SCALE
1000
AcRTDxfName
1000
SCALE
1000
AcRTDxfName
1000
SCALE
  0
ACAD_PROXY_OBJECT
  5
6F285
102
{ACAD_REACTORS
330
16F81
102
}
330
16F81
100
AcDbZombieObject
 90
      499
 91
      510
 93
      145
310
908313A345F585245464000000000000104000
  0
ACAD_PROXY_OBJECT
  5
6F286
102
{ACAD_REACTORS
330
16F81
102
}
330
16F81
100
AcDbZombieObject
 90
      499
 91
      510
 93
      145
310
908313A355F585245464000000000000144000
  0
ACAD_PROXY_OBJECT
  5
6F287
102
{ACAD_REACTORS
330
16F81
102
}
330
16F81
100
AcDbZombieObject
 90
      499
 91
      510
 93
      145
310
908313A385F585245464000000000000204000
  0
ACAD_PROXY_OBJECT
  5
6F288
102
{ACAD_REACTORS
330
16F81
102
}
330
16F81
100
AcDbZombieObject
 90
      499
 91
      510
 93
      153
310
909313A31305F585245464000000000000244000
  0
ACAD_PROXY_OBJECT
  5
6F289
102
{ACAD_REACTORS
330
16F81
102
}
330
16F81
100
AcDbZombieObject
 90
      499
 91
      510
 93
      153
310
909313A31365F585245464000000000000304000
  0
ACAD_PROXY_OBJECT
  5
6F28A
102
{ACAD_REACTORS
330
16F81
102
}
330
16F81
100
AcDbZombieObject
 90
      499
 91
      510
 93
      153
310
909313A32305F585245464000000000000344000
  0
ACAD_PROXY_OBJECT
  5
6F28B
102
{ACAD_REACTORS
330
16F81
102
}
330
16F81
100
AcDbZombieObject
 90
      499
 91
      510
 93
      153
310
909313A33305F5852454640000000000003E4000
  0
ACAD_PROXY_OBJECT
  5
6F27D
102
{ACAD_REACTORS
330
16F81
102
}
330
16F81
100
AcDbZombieObject
 90
      499
 91
      510
 93
      153
310
909313A35305F585245464000000000000494000
  0
ACAD_PROXY_OBJECT
  5
16F82
102
{ACAD_REACTORS
330
16F81
102
}
330
16F81
100
AcDbZombieObject
 90
      499
 91
      510
 93
       41
310
903313A31580
1001
ACAD
1000
AcRTDxfName
1000
SCALE
1000
AcRTDxfName
1000
SCALE
1000
AcRTDxfName
1000
SCALE
1000
AcRTDxfName
1000
SCALE
1000
AcRTDxfName
1000
SCALE
1000
AcRTDxfName
1000
SCALE
  0
ACAD_PROXY_OBJECT
  5
16F83
102
{ACAD_REACTORS
330
16F81
102
}
330
16F81
100
AcDbZombieObject
 90
      499
 91
      510
 93
      105
310
903313A324000000000000004000
1001
ACAD
1000
AcRTDxfName
1000
SCALE
1000
AcRTDxfName
1000
SCALE
1000
AcRTDxfName
1000
SCALE
1000
AcRTDxfName
1000
SCALE
1000
AcRTDxfName
1000
SCALE
1000
AcRTDxfName
1000
SCALE
  0
ACAD_PROXY_OBJECT
  5
16F84
102
{ACAD_REACTORS
330
16F81
102
}
330
16F81
100
AcDbZombieObject
 90
      499
 91
      510
 93
      105
310
903313A344000000000000104000
1001
ACAD
1000
AcRTDxfName
1000
SCALE
1000
AcRTDxfName
1000
SCALE
1000
AcRTDxfName
1000
SCALE
1000
AcRTDxfName
1000
SCALE
1000
AcRTDxfName
1000
SCALE
1000
AcRTDxfName
1000
SCALE
  0
ACAD_PROXY_OBJECT
  5
16F85
102
{ACAD_REACTORS
330
16F81
102
}
330
16F81
100
AcDbZombieObject
 90
      499
 91
      510
 93
      105
310
903313A354000000000000144000
1001
ACAD
1000
AcRTDxfName
1000
SCALE
1000
AcRTDxfName
1000
SCALE
1000
AcRTDxfName
1000
SCALE
1000
AcRTDxfName
1000
SCALE
1000
AcRTDxfName
1000
SCALE
1000
AcRTDxfName
1000
SCALE
  0
ACAD_PROXY_OBJECT
  5
16F86
102
{ACAD_REACTORS
330
16F81
102
}
330
16F81
100
AcDbZombieObject
 90
      499
 91
      510
 93
      105
310
903313A384000000000000204000
1001
ACAD
1000
AcRTDxfName
1000
SCALE
1000
AcRTDxfName
1000
SCALE
1000
AcRTDxfName
1000
SCALE
1000
AcRTDxfName
1000
SCALE
1000
AcRTDxfName
1000
SCALE
1000
AcRTDxfName
1000
SCALE
  0
ACAD_PROXY_OBJECT
  5
16F87
102
{ACAD_REACTORS
330
16F81
102
}
330
16F81
100
AcDbZombieObject
 90
      499
 91
      510
 93
      113
310
904313A31304000000000000244000
1001
ACAD
1000
AcRTDxfName
1000
SCALE
1000
AcRTDxfName
1000
SCALE
1000
AcRTDxfName
1000
SCALE
1000
AcRTDxfName
1000
SCALE
1000
AcRTDxfName
1000
SCALE
1000
AcRTDxfName
1000
SCALE
  0
ACAD_PROXY_OBJECT
  5
16F88
102
{ACAD_REACTORS
330
16F81
102
}
330
16F81
100
AcDbZombieObject
 90
      499
 91
      510
 93
      113
310
904313A31364000000000000304000
1001
ACAD
1000
AcRTDxfName
1000
SCALE
1000
AcRTDxfName
1000
SCALE
1000
AcRTDxfName
1000
SCALE
1000
AcRTDxfName
1000
SCALE
1000
AcRTDxfName
1000
SCALE
1000
AcRTDxfName
1000
SCALE
  0
ACAD_PROXY_OBJECT
  5
16F89
102
{ACAD_REACTORS
330
16F81
102
}
330
16F81
100
AcDbZombieObject
 90
      499
 91
      510
 93
      113
310
904313A32304000000000000344000
1001
ACAD
1000
AcRTDxfName
1000
SCALE
1000
AcRTDxfName
1000
SCALE
1000
AcRTDxfName
1000
SCALE
1000
AcRTDxfName
1000
SCALE
1000
AcRTDxfName
1000
SCALE
1000
AcRTDxfName
1000
SCALE
  0
ACAD_PROXY_OBJECT
  5
16F8A
102
{ACAD_REACTORS
330
16F81
102
}
330
16F81
100
AcDbZombieObject
 90
      499
 91
      510
 93
      113
310
904313A333040000000000003E4000
1001
ACAD
1000
AcRTDxfName
1000
SCALE
1000
AcRTDxfName
1000
SCALE
1000
AcRTDxfName
1000
SCALE
1000
AcRTDxfName
1000
SCALE
1000
AcRTDxfName
1000
SCALE
1000
AcRTDxfName
1000
SCALE
  0
ACAD_PROXY_OBJECT
  5
16F8B
102
{ACAD_REACTORS
330
16F81
102
}
330
16F81
100
AcDbZombieObject
 90
      499
 91
      510
 93
      113
310
904313A34304000000000000444000
1001
ACAD
1000
AcRTDxfName
1000
SCALE
1000
AcRTDxfName
1000
SCALE
1000
AcRTDxfName
1000
SCALE
1000
AcRTDxfName
1000
SCALE
1000
AcRTDxfName
1000
SCALE
1000
AcRTDxfName
1000
SCALE
  0
ACAD_PROXY_OBJECT
  5
16F8C
102
{ACAD_REACTORS
330
16F81
102
}
330
16F81
100
AcDbZombieObject
 90
      499
 91
      510
 93
      113
310
904313A35304000000000000494000
1001
ACAD
1000
AcRTDxfName
1000
SCALE
1000
AcRTDxfName
1000
SCALE
1000
AcRTDxfName
1000
SCALE
1000
AcRTDxfName
1000
SCALE
1000
AcRTDxfName
1000
SCALE
1000
AcRTDxfName
1000
SCALE
  0
ACAD_PROXY_OBJECT
  5
16F8D
102
{ACAD_REACTORS
330
16F81
102
}
330
16F81
100
AcDbZombieObject
 90
      499
 91
      510
 93
      121
310
905313A3130304000000000000594000
1001
ACAD
1000
AcRTDxfName
1000
SCALE
1000
AcRTDxfName
1000
SCALE
1000
AcRTDxfName
1000
SCALE
1000
AcRTDxfName
1000
SCALE
1000
AcRTDxfName
1000
SCALE
1000
AcRTDxfName
1000
SCALE
  0
ACAD_PROXY_OBJECT
  5
16F8E
102
{ACAD_REACTORS
330
16F81
102
}
330
16F81
100
AcDbZombieObject
 90
      499
 91
      510
 93
      105
310
903323A310000000000000010100
1001
ACAD
1000
AcRTDxfName
1000
SCALE
1000
AcRTDxfName
1000
SCALE
1000
AcRTDxfName
1000
SCALE
1000
AcRTDxfName
1000
SCALE
1000
AcRTDxfName
1000
SCALE
1000
AcRTDxfName
1000
SCALE
  0
ACAD_PROXY_OBJECT
  5
16F8F
102
{ACAD_REACTORS
330
16F81
102
}
330
16F81
100
AcDbZombieObject
 90
      499
 91
      510
 93
      105
310
903343A310000000000000410100
1001
ACAD
1000
AcRTDxfName
1000
SCALE
1000
AcRTDxfName
1000
SCALE
1000
AcRTDxfName
1000
SCALE
1000
AcRTDxfName
1000
SCALE
1000
AcRTDxfName
1000
SCALE
1000
AcRTDxfName
1000
SCALE
  0
ACAD_PROXY_OBJECT
  5
16F90
102
{ACAD_REACTORS
330
16F81
102
}
330
16F81
100
AcDbZombieObject
 90
      499
 91
      510
 93
      105
310
903383A310000000000000810100
1001
ACAD
1000
AcRTDxfName
1000
SCALE
1000
AcRTDxfName
1000
SCALE
1000
AcRTDxfName
1000
SCALE
1000
AcRTDxfName
1000
SCALE
1000
AcRTDxfName
1000
SCALE
1000
AcRTDxfName
1000
SCALE
  0
ACAD_PROXY_OBJECT
  5
16F91
102
{ACAD_REACTORS
330
16F81
102
}
330
16F81
100
AcDbZombieObject
 90
      499
 91
      510
 93
      113
310
90431303A310000000000000910100
1001
ACAD
1000
AcRTDxfName
1000
SCALE
1000
AcRTDxfName
1000
SCALE
1000
AcRTDxfName
1000
SCALE
1000
AcRTDxfName
1000
SCALE
1000
AcRTDxfName
1000
SCALE
1000
AcRTDxfName
1000
SCALE
  0
ACAD_PROXY_OBJECT
  5
16F92
102
{ACAD_REACTORS
330
16F81
102
}
330
16F81
100
AcDbZombieObject
 90
      499
 91
      510
 93
      121
310
9053130303A310000000000001650100
1001
ACAD
1000
AcRTDxfName
1000
SCALE
1000
AcRTDxfName
1000
SCALE
1000
AcRTDxfName
1000
SCALE
1000
AcRTDxfName
1000
SCALE
1000
AcRTDxfName
1000
SCALE
1000
AcRTDxfName
1000
SCALE
  0
ACAD_PROXY_OBJECT
  5
16F93
102
{ACAD_REACTORS
330
16F81
102
}
330
16F81
100
AcDbZombieObject
 90
      499
 91
      510
 93
      257
310
90E312F31323822203D2031272D3022147E90B21E7FDFCFC000000000000284000
1001
ACAD
1000
AcRTDxfName
1000
SCALE
1000
AcRTDxfName
1000
SCALE
1000
AcRTDxfName
1000
SCALE
1000
AcRTDxfName
1000
SCALE
1000
AcRTDxfName
1000
SCALE
1000
AcRTDxfName
1000
SCALE
  0
ACAD_PROXY_OBJECT
  5
16F94
102
{ACAD_REACTORS
330
16F81
102
}
330
16F81
100
AcDbZombieObject
 90
      499
 91
      510
 93
      249
310
90D312F363422203D2031272D3022000000000000240FC000000000000284000
1001
ACAD
1000
AcRTDxfName
1000
SCALE
1000
AcRTDxfName
1000
SCALE
1000
AcRTDxfName
1000
SCALE
1000
AcRTDxfName
1000
SCALE
1000
AcRTDxfName
1000
SCALE
1000
AcRTDxfName
1000
SCALE
  0
ACAD_PROXY_OBJECT
  5
16F95
102
{ACAD_REACTORS
330
16F81
102
}
330
16F81
100
AcDbZombieObject
 90
      499
 91
      510
 93
      249
310
90D312F333222203D2031272D3022000000000000280FC000000000000284000
1001
ACAD
1000
AcRTDxfName
1000
SCALE
1000
AcRTDxfName
1000
SCALE
1000
AcRTDxfName
1000
SCALE
1000
AcRTDxfName
1000
SCALE
1000
AcRTDxfName
1000
SCALE
1000
AcRTDxfName
1000
SCALE
  0
ACAD_PROXY_OBJECT
  5
16F96
102
{ACAD_REACTORS
330
16F81
102
}
330
16F81
100
AcDbZombieObject
 90
      499
 91
      510
 93
      249
310
90D312F313622203D2031272D30220000000000002C0FC000000000000284000
1001
ACAD
1000
AcRTDxfName
1000
SCALE
1000
AcRTDxfName
1000
SCALE
1000
AcRTDxfName
1000
SCALE
1000
AcRTDxfName
1000
SCALE
1000
AcRTDxfName
1000
SCALE
1000
AcRTDxfName
1000
SCALE
  0
ACAD_PROXY_OBJECT
  5
16F97
102
{ACAD_REACTORS
330
16F81
102
}
330
16F81
100
AcDbZombieObject
 90
      499
 91
      510
 93
      249
310
90D332F333222203D2031272D30220000000000002E0FC000000000000284000
1001
ACAD
1000
AcRTDxfName
1000
SCALE
1000
AcRTDxfName
1000
SCALE
1000
AcRTDxfName
1000
SCALE
1000
AcRTDxfName
1000
SCALE
1000
AcRTDxfName
1000
SCALE
1000
AcRTDxfName
1000
SCALE
  0
ACAD_PROXY_OBJECT
  5
16F98
102
{ACAD_REACTORS
330
16F81
102
}
330
16F81
100
AcDbZombieObject
 90
      499
 91
      510
 93
      241
310
90C312F3822203D2031272D3022000000000000300FC000000000000284000
1001
ACAD
1000
AcRTDxfName
1000
SCALE
1000
AcRTDxfName
1000
SCALE
1000
AcRTDxfName
1000
SCALE
1000
AcRTDxfName
1000
SCALE
1000
AcRTDxfName
1000
SCALE
1000
AcRTDxfName
1000
SCALE
  0
ACAD_PROXY_OBJECT
  5
16F99
102
{ACAD_REACTORS
330
16F81
102
}
330
16F81
100
AcDbZombieObject
 90
      499
 91
      510
 93
      249
310
90D332F313622203D2031272D3022000000000000320FC000000000000284000
1001
ACAD
1000
AcRTDxfName
1000
SCALE
1000
AcRTDxfName
1000
SCALE
1000
AcRTDxfName
1000
SCALE
1000
AcRTDxfName
1000
SCALE
1000
AcRTDxfName
1000
SCALE
1000
AcRTDxfName
1000
SCALE
  0
ACAD_PROXY_OBJECT
  5
16F9A
102
{ACAD_REACTORS
330
16F81
102
}
330
16F81
100
AcDbZombieObject
 90
      499
 91
      510
 93
      241
310
90C312F3422203D2031272D3022000000000000340FC000000000000284000
1001
ACAD
1000
AcRTDxfName
1000
SCALE
1000
AcRTDxfName
1000
SCALE
1000
AcRTDxfName
1000
SCALE
1000
AcRTDxfName
1000
SCALE
1000
AcRTDxfName
1000
SCALE
1000
AcRTDxfName
1000
SCALE
  0
ACAD_PROXY_OBJECT
  5
16F9B
102
{ACAD_REACTORS
330
16F81
102
}
330
16F81
100
AcDbZombieObject
 90
      499
 91
      510
 93
      241
310
90C332F3822203D2031272D3022000000000000360FC000000000000284000
1001
ACAD
1000
AcRTDxfName
1000
SCALE
1000
AcRTDxfName
1000
SCALE
1000
AcRTDxfName
1000
SCALE
1000
AcRTDxfName
1000
SCALE
1000
AcRTDxfName
1000
SCALE
1000
AcRTDxfName
1000
SCALE
  0
ACAD_PROXY_OBJECT
  5
16F9C
102
{ACAD_REACTORS
330
16F81
102
}
330
16F81
100
AcDbZombieObject
 90
      499
 91
      510
 93
      241
310
90C312F3222203D2031272D3022000000000000380FC000000000000284000
1001
ACAD
1000
AcRTDxfName
1000
SCALE
1000
AcRTDxfName
1000
SCALE
1000
AcRTDxfName
1000
SCALE
1000
AcRTDxfName
1000
SCALE
1000
AcRTDxfName
1000
SCALE
1000
AcRTDxfName
1000
SCALE
  0
ACAD_PROXY_OBJECT
  5
16F9D
102
{ACAD_REACTORS
330
16F81
102
}
330
16F81
100
AcDbZombieObject
 90
      499
 91
      510
 93
      241
310
90C332F3422203D2031272D30220000000000003A0FC000000000000284000
1001
ACAD
1000
AcRTDxfName
1000
SCALE
1000
AcRTDxfName
1000
SCALE
1000
AcRTDxfName
1000
SCALE
1000
AcRTDxfName
1000
SCALE
1000
AcRTDxfName
1000
SCALE
1000
AcRTDxfName
1000
SCALE
  0
ACAD_PROXY_OBJECT
  5
16F9E
102
{ACAD_REACTORS
330
16F81
102
}
330
16F81
100
AcDbZombieObject
 90
      499
 91
      510
 93
      161
310
90A3122203D2031272D30224000000000000284000
1001
ACAD
1000
AcRTDxfName
1000
SCALE
1000
AcRTDxfName
1000
SCALE
1000
AcRTDxfName
1000
SCALE
1000
AcRTDxfName
1000
SCALE
1000
AcRTDxfName
1000
SCALE
1000
AcRTDxfName
1000
SCALE
  0
ACAD_PROXY_OBJECT
  5
16F9F
102
{ACAD_REACTORS
330
16F81
102
}
330
16F81
100
AcDbZombieObject
 90
      499
 91
      510
 93
      257
310
90E312D312F3222203D2031272D30220000000000003E0FC000000000000284000
1001
ACAD
1000
AcRTDxfName
1000
SCALE
1000
AcRTDxfName
1000
SCALE
1000
AcRTDxfName
1000
SCALE
1000
AcRTDxfName
1000
SCALE
1000
AcRTDxfName
1000
SCALE
1000
AcRTDxfName
1000
SCALE
  0
ACAD_PROXY_OBJECT
  5
16FA0
102
{ACAD_REACTORS
330
16F81
102
}
330
16F81
100
AcDbZombieObject
 90
      499
 91
      510
 93
      225
310
90A3322203D2031272D302200000000000002100000000000000284000
1001
ACAD
1000
AcRTDxfName
1000
SCALE
1000
AcRTDxfName
1000
SCALE
1000
AcRTDxfName
1000
SCALE
1000
AcRTDxfName
1000
SCALE
1000
AcRTDxfName
1000
SCALE
1000
AcRTDxfName
1000
SCALE
  0
ACAD_PROXY_OBJECT
  5
16FA1
102
{ACAD_REACTORS
330
16F81
102
}
330
16F81
100
AcDbZombieObject
 90
      499
 91
      510
 93
      225
310
90A3622203D2031272D302200000000000006100000000000000284000
1001
ACAD
1000
AcRTDxfName
1000
SCALE
1000
AcRTDxfName
1000
SCALE
1000
AcRTDxfName
1000
SCALE
1000
AcRTDxfName
1000
SCALE
1000
AcRTDxfName
1000
SCALE
1000
AcRTDxfName
1000
SCALE
  0
ACAD_PROXY_OBJECT
  5
16FA2
102
{ACAD_REACTORS
330
16F81
102
}
330
16F81
100
AcDbZombieObject
 90
      499
 91
      510
 93
      249
310
90D31272D3022203D2031272D30220000000000000A100000000000000284000
1001
ACAD
1000
AcRTDxfName
1000
SCALE
1000
AcRTDxfName
1000
SCALE
1000
AcRTDxfName
1000
SCALE
1000
AcRTDxfName
1000
SCALE
1000
AcRTDxfName
1000
SCALE
1000
AcRTDxfName
1000
SCALE
  0
ACAD_PROXY_OBJECT
  5
16F76
102
{ACAD_REACTORS
330
16F70
102
}
330
16F70
100
AcDbZombieObject
 90
      499
 91
      509
 93
      436
310
42CC9915DA5C99599C985B595049028333333333333E3BF0000000000000FB0107901411070040501600405405064090741402480A0340
1001
ACAD
1000
AcRTDxfName
1000
VISUALSTYLE
1000
AcRTDxfName
1000
VISUALSTYLE
1000
AcRTDxfName
1000
VISUALSTYLE
1000
AcRTDxfName
1000
VISUALSTYLE
1000
AcRTDxfName
1000
VISUALSTYLE
1000
AcRTDxfName
1000
VISUALSTYLE
1000
AcDbSavedByObjectVersion
1070
     0
  0
ACAD_PROXY_OBJECT
  5
16F78
102
{ACAD_REACTORS
330
16F70
102
}
330
16F70
100
AcDbZombieObject
 90
      499
 91
      509
 93
      500
310
424CD108121A5919195B90640502408333333333333E3BF0000000000000FB01079024090700405020000000000001110200405405064090740C02480A0340
1001
ACAD
1000
AcRTDxfName
1000
VISUALSTYLE
1000
AcRTDxfName
1000
VISUALSTYLE
1000
AcRTDxfName
1000
VISUALSTYLE
1000
AcRTDxfName
1000
VISUALSTYLE
1000
AcRTDxfName
1000
VISUALSTYLE
1000
AcRTDxfName
1000
VISUALSTYLE
1000
AcDbSavedByObjectVersion
1070
     0
  0
ACAD_PROXY_OBJECT
  5
16F77
102
{ACAD_REACTORS
330
16F70
102
}
330
16F70
100
AcDbZombieObject
 90
      499
 91
      509
 93
      436
310
42CCD915DA5C99599C985B595059028333333333333E3BF0000000000000FB0107901411070040501600405405064090741402480A0340
1001
ACAD
1000
AcRTDxfName
1000
VISUALSTYLE
1000
AcRTDxfName
1000
VISUALSTYLE
1000
AcRTDxfName
1000
VISUALSTYLE
1000
AcRTDxfName
1000
VISUALSTYLE
1000
AcRTDxfName
1000
VISUALSTYLE
1000
AcRTDxfName
1000
VISUALSTYLE
1000
AcDbSavedByObjectVersion
1070
     0
  0
ACAD_PROXY_OBJECT
  5
16F75
102
{ACAD_REACTORS
330
16F70
102
}
330
16F70
100
AcDbZombieObject
 90
      499
 91
      509
 93
      388
310
4150985CDA58D07406404333333333333E3BF0000000000000FB0107A41107004050150841D405064090741402480A0350
1001
ACAD
1000
AcRTDxfName
1000
VISUALSTYLE
1000
AcRTDxfName
1000
VISUALSTYLE
1000
AcRTDxfName
1000
VISUALSTYLE
1000
AcRTDxfName
1000
VISUALSTYLE
1000
AcRTDxfName
1000
VISUALSTYLE
1000
AcRTDxfName
1000
VISUALSTYLE
1000
AcDbSavedByObjectVersion
1070
     0
  0
ACAD_PROXY_OBJECT
  5
16F7C
102
{ACAD_REACTORS
330
16F70
102
}
330
16F70
100
AcDbZombieObject
 90
      499
 91
      509
 93
      428
310
42109C9A59DA1D195B90C409028333333333333E3BF0000000000000FB010790141107004050150841D405064090741402480A029950
1001
ACAD
1000
AcRTDxfName
1000
VISUALSTYLE
1000
AcRTDxfName
1000
VISUALSTYLE
1000
AcRTDxfName
1000
VISUALSTYLE
1000
AcRTDxfName
1000
VISUALSTYLE
1000
AcRTDxfName
1000
VISUALSTYLE
1000
AcRTDxfName
1000
VISUALSTYLE
1000
AcDbSavedByObjectVersion
1070
     0
  0
ACAD_PROXY_OBJECT
  5
16F80
102
{ACAD_REACTORS
330
16F70
102
}
330
16F70
100
AcDbZombieObject
 90
      499
 91
      509
 93
      452
310
42D0DBDB1BDC90DA185B99D95104090240C333333333333E3BF0000000000000FB0108901411070040501508421405064090741402480A0350
1001
ACAD
1000
AcRTDxfName
1000
VISUALSTYLE
1000
AcRTDxfName
1000
VISUALSTYLE
1000
AcRTDxfName
1000
VISUALSTYLE
1000
AcRTDxfName
1000
VISUALSTYLE
1000
AcRTDxfName
1000
VISUALSTYLE
1000
AcRTDxfName
1000
VISUALSTYLE
1000
AcDbSavedByObjectVersion
1070
     0
  0
ACAD_PROXY_OBJECT
  5
16F79
102
{ACAD_REACTORS
330
16F70
102
}
330
16F70
100
AcDbZombieObject
 90
      499
 91
      509
 93
      500
310
4290DBDB98D95C1D1D585B10940D028333333333333E3BF0000000000000FB0107902409070040501000000000000111010841D405064090740C02480A0340
1001
ACAD
1000
AcRTDxfName
1000
VISUALSTYLE
1000
AcRTDxfName
1000
VISUALSTYLE
1000
AcRTDxfName
1000
VISUALSTYLE
1000
AcRTDxfName
1000
VISUALSTYLE
1000
AcRTDxfName
1000
VISUALSTYLE
1000
AcRTDxfName
1000
VISUALSTYLE
1000
AcDbSavedByObjectVersion
1070
     0
  0
ACAD_PROXY_OBJECT
  5
16F7B
102
{ACAD_REACTORS
330
16F70
102
}
330
16F70
100
AcDbZombieObject
 90
      499
 91
      509
 93
      412
310
40D11A5B50B409028333333333333E3BF0000000000000FB010790141107004050150841D405064090741402480A02677FFFFFD0
1001
ACAD
1000
AcRTDxfName
1000
VISUALSTYLE
1000
AcRTDxfName
1000
VISUALSTYLE
1000
AcRTDxfName
1000
VISUALSTYLE
1000
AcRTDxfName
1000
VISUALSTYLE
1000
AcRTDxfName
1000
VISUALSTYLE
1000
AcRTDxfName
1000
VISUALSTYLE
1000
AcDbSavedByObjectVersion
1070
     0
  0
ACAD_PROXY_OBJECT
  5
62CA3
102
{ACAD_REACTORS
330
16F70
102
}
330
16F70
100
AcDbZombieObject
 90
      499
 91
      509
 93
      452
310
43115919D950DBDB1BDC93D999916409028333333333333E3BF0000000000000FB010790141107004050150841D405064090741402480A0350
1001
ACAD
1000
AcDbSavedByObjectVersion
1070
     0
  0
ACAD_PROXY_OBJECT
  5
16F7F
102
{ACAD_REACTORS
330
16F70
102
}
330
16F70
100
AcDbZombieObject
 90
      499
 91
      509
 93
      444
310
42D19858D95C185D1D195C9B90F409028333333333333E3BF0000000000000FB010790141107004050150841D405064090741402480A0350
1001
ACAD
1000
AcRTDxfName
1000
VISUALSTYLE
1000
AcRTDxfName
1000
VISUALSTYLE
1000
AcRTDxfName
1000
VISUALSTYLE
1000
AcRTDxfName
1000
VISUALSTYLE
1000
AcRTDxfName
1000
VISUALSTYLE
1000
AcRTDxfName
1000
VISUALSTYLE
1000
AcDbSavedByObjectVersion
1070
     0
  0
ACAD_PROXY_OBJECT
  5
16F71
102
{ACAD_REACTORS
330
16F70
102
}
330
16F70
100
AcDbZombieObject
 90
      499
 91
      509
 93
      388
310
41119B185D240901404333333333333E3BF0000000000000F9010740A41107004050150841D405064090741402480A1B50
1001
ACAD
1000
AcRTDxfName
1000
VISUALSTYLE
1000
AcRTDxfName
1000
VISUALSTYLE
1000
AcRTDxfName
1000
VISUALSTYLE
1000
AcRTDxfName
1000
VISUALSTYLE
1000
AcRTDxfName
1000
VISUALSTYLE
1000
AcRTDxfName
1000
VISUALSTYLE
1000
AcDbSavedByObjectVersion
1070
     0
  0
ACAD_PROXY_OBJECT
  5
16F72
102
{ACAD_REACTORS
330
16F70
102
}
330
16F70
100
AcDbZombieObject
 90
      499
 91
      509
 93
      476
310
43519B185D15DA5D1A115919D95CD0140901404333333333333E3BF0000000000000F9010740901411070040501600405405064090741402480A1B50
1001
ACAD
1000
AcRTDxfName
1000
VISUALSTYLE
1000
AcRTDxfName
1000
VISUALSTYLE
1000
AcRTDxfName
1000
VISUALSTYLE
1000
AcRTDxfName
1000
VISUALSTYLE
1000
AcRTDxfName
1000
VISUALSTYLE
1000
AcRTDxfName
1000
VISUALSTYLE
1000
AcDbSavedByObjectVersion
1070
     0
  0
ACAD_PROXY_OBJECT
  5
16F73
102
{ACAD_REACTORS
330
16F70
102
}
330
16F70
100
AcDbZombieObject
 90
      499
 91
      509
 93
      412
310
41D1DBDD5C985D5910240902404333333333333E3BF0000000000000F9010740A411070040501641D405064090741402480A1B50
1001
ACAD
1000
AcRTDxfName
1000
VISUALSTYLE
1000
AcRTDxfName
1000
VISUALSTYLE
1000
AcRTDxfName
1000
VISUALSTYLE
1000
AcRTDxfName
1000
VISUALSTYLE
1000
AcRTDxfName
1000
VISUALSTYLE
1000
AcRTDxfName
1000
VISUALSTYLE
1000
AcDbSavedByObjectVersion
1070
     0
  0
ACAD_PROXY_OBJECT
  5
16F74
102
{ACAD_REACTORS
330
16F70
102
}
330
16F70
100
AcDbZombieObject
 90
      499
 91
      509
 93
      500
310
4411DBDD5C985D5915DA5D1A115919D95CD0340902404333333333333E3BF0000000000000F9010740901411070040501600405405064090741402480A1B50
1001
ACAD
1000
AcRTDxfName
1000
VISUALSTYLE
1000
AcRTDxfName
1000
VISUALSTYLE
1000
AcRTDxfName
1000
VISUALSTYLE
1000
AcRTDxfName
1000
VISUALSTYLE
1000
AcRTDxfName
1000
VISUALSTYLE
1000
AcRTDxfName
1000
VISUALSTYLE
1000
AcDbSavedByObjectVersion
1070
     0
  0
ACAD_PROXY_OBJECT
  5
62C9B
102
{ACAD_REACTORS
330
16F70
102
}
330
16F70
100
AcDbZombieObject
 90
      499
 91
      509
 93
      476
310
41921A5919195B90640502408333333333333E3BF0000000000000FB01079024090700405020000000000001110200405405064090740C02480A0340
1001
ACAD
1000
AcDbSavedByObjectVersion
1070
     0
  0
ACAD_PROXY_OBJECT
  5
62CA1
102
{ACAD_REACTORS
330
16F70
102
}
330
16F70
100
AcDbZombieObject
 90
      499
 91
      509
 93
      428
310
42529A5D1D195C93D999914409028333333333333E3BF0000000000000FB010790141107004050150A41D405064090741402480A0350
1001
ACAD
1000
AcDbSavedByObjectVersion
1070
     0
  0
ACAD_PROXY_OBJECT
  5
16F7E
102
{ACAD_REACTORS
330
16F70
102
}
330
16F70
100
AcDbZombieObject
 90
      499
 91
      509
 93
      444
310
42D31A5B995C185D1D195C9B90E409028333333333333E3BF0000000000000FB010790141107004050750841D405064090741402483A0350
1001
ACAD
1000
AcRTDxfName
1000
VISUALSTYLE
1000
AcRTDxfName
1000
VISUALSTYLE
1000
AcRTDxfName
1000
VISUALSTYLE
1000
AcRTDxfName
1000
VISUALSTYLE
1000
AcRTDxfName
1000
VISUALSTYLE
1000
AcRTDxfName
1000
VISUALSTYLE
1000
AcDbSavedByObjectVersion
1070
     0
  0
ACAD_PROXY_OBJECT
  5
A39EC
102
{ACAD_REACTORS
330
16F70
102
}
330
16F70
100
AcDbZombieObject
 90
      499
 91
      509
 93
      484
310
42135BD9195B1A5B99D0A409038333333333333E33F0000000000000F901074090290700405010000000000201990108421405064090741402480A1B40
1001
ACAD
1000
AcDbSavedByObjectVersion
1070
     0
  0
ACAD_PROXY_OBJECT
  5
62CA2
102
{ACAD_REACTORS
330
16F70
102
}
330
16F70
100
AcDbZombieObject
 90
      499
 91
      509
 93
      444
310
42D3DD995C9A185B99D3D999915409028333333333333E3BF0000000000000FB010790141107004050150941D405064090741402480A0350
1001
ACAD
1000
AcDbSavedByObjectVersion
1070
     0
  0
ACAD_PROXY_OBJECT
  5
16F7A
102
{ACAD_REACTORS
330
16F70
102
}
330
16F70
100
AcDbZombieObject
 90
      499
 91
      509
 93
      420
310
425499585B1A5CDD1A58D08409028333333333333E3BF0000000000000FB01079019070040501508421405064090741402480A1B40
1001
ACAD
1000
AcRTDxfName
1000
VISUALSTYLE
1000
AcRTDxfName
1000
VISUALSTYLE
1000
AcRTDxfName
1000
VISUALSTYLE
1000
AcRTDxfName
1000
VISUALSTYLE
1000
AcRTDxfName
1000
VISUALSTYLE
1000
AcRTDxfName
1000
VISUALSTYLE
1000
AcDbSavedByObjectVersion
1070
     0
  0
ACAD_PROXY_OBJECT
  5
62CA0
102
{ACAD_REACTORS
330
16F70
102
}
330
16F70
100
AcDbZombieObject
 90
      499
 91
      509
 93
      420
310
4194DA1859195911B40902404333333333333E3BF0000000000000F9010740A41107004050150800405405064090840C02480A0B40
1001
ACAD
1000
AcDbSavedByObjectVersion
1070
     0
  0
ACAD_PROXY_OBJECT
  5
62C9F
102
{ACAD_REACTORS
330
16F70
102
}
330
16F70
100
AcDbZombieObject
 90
      499
 91
      509
 93
      516
310
4454DA18591959081DDA5D1A08195919D95CD1A40902404333333333333E3BF0000000000000F901074090142907004050250800405405064090740C02480A0B40
1001
ACAD
1000
AcDbSavedByObjectVersion
1070
     0
  0
ACAD_PROXY_OBJECT
  5
62C9C
102
{ACAD_REACTORS
330
16F70
102
}
330
16F70
100
AcDbZombieObject
 90
      499
 91
      509
 93
      532
310
4394DA1859195CC81BD98811DC985E5174090240C333333333333E3BF0000000000000FB01079024090741D01000000000000111010841D405064090740C02480A0340
1001
ACAD
1000
AcDbSavedByObjectVersion
1070
     0
  0
ACAD_PROXY_OBJECT
  5
62C9D
102
{ACAD_REACTORS
330
16F70
102
}
330
16F70
100
AcDbZombieObject
 90
      499
 91
      509
 93
      476
310
41D4DAD95D18DA1E51840502408333333333333E3BF0000000000000FB01079024090741D01000000000000111010B41D405064090741802480A0340
1001
ACAD
1000
AcDbSavedByObjectVersion
1070
     0
  0
ACAD_PROXY_OBJECT
  5
16F7D
102
{ACAD_REACTORS
330
16F70
102
}
330
16F70
100
AcDbZombieObject
 90
      499
 91
      509
 93
      412
310
41D51A1A58DAD95B90D409028333333333333E3BF0000000000000FB010790141107004050150C41D405064090741402480A0350
1001
ACAD
1000
AcRTDxfName
1000
VISUALSTYLE
1000
AcRTDxfName
1000
VISUALSTYLE
1000
AcRTDxfName
1000
VISUALSTYLE
1000
AcRTDxfName
1000
VISUALSTYLE
1000
AcRTDxfName
1000
VISUALSTYLE
1000
AcRTDxfName
1000
VISUALSTYLE
1000
AcDbSavedByObjectVersion
1070
     0
  0
ACAD_PROXY_OBJECT
  5
62C9A
102
{ACAD_REACTORS
330
16F70
102
}
330
16F70
100
AcDbZombieObject
 90
      499
 91
      509
 93
      420
310
4255DA5C99599C985B595059028333333333333E3BF0000000000000FB0107901411070040501600405405064090740C02480A0340
1001
ACAD
1000
AcDbSavedByObjectVersion
1070
     0
  0
ACAD_PROXY_OBJECT
  5
62C9E
102
{ACAD_REACTORS
330
16F70
102
}
330
16F70
100
AcDbZombieObject
 90
      499
 91
      509
 93
      404
310
41560B54985E51940902404000000000000E03F0000000000000FB010740501907004050150841D405064090740C02480A1B40
1001
ACAD
1000
AcDbSavedByObjectVersion
1070
     0
  0
XRECORD
  5
A3B6B
102
{ACAD_REACTORS
330
A3B6A
102
}
330
A3B6A
100
AcDbXrecord
340
1418C
  0
XRECORD
  5
A3B6C
102
{ACAD_REACTORS
330
A3B6A
102
}
330
A3B6A
100
AcDbXrecord
340
1418B
  0
DICTIONARYVAR
  5
A3D08
102
{ACAD_REACTORS
330
6ED
102
}
330
6ED
100
DictionaryVariables
280
     0
  1
1:1
  0
DICTIONARYVAR
  5
1710A
102
{ACAD_REACTORS
330
6ED
102
}
330
6ED
100
DictionaryVariables
280
     0
  1
Standard
  0
DICTIONARYVAR
  5
141AE
102
{ACAD_REACTORS
330
6ED
102
}
330
6ED
100
DictionaryVariables
280
     0
  1
Standard
  0
DICTIONARYVAR
  5
6EE
102
{ACAD_REACTORS
330
6ED
102
}
330
6ED
100
DictionaryVariables
280
     0
  1
-1
  0
DICTIONARYVAR
  5
141AF
102
{ACAD_REACTORS
330
6ED
102
}
330
6ED
100
DictionaryVariables
280
     0
  1
2
  0
DICTIONARYVAR
  5
7CF14
102
{ACAD_REACTORS
330
6ED
102
}
330
6ED
100
DictionaryVariables
280
     0
  1
2
  0
DICTIONARYVAR
  5
1485B
102
{ACAD_REACTORS
330
6ED
102
}
330
6ED
100
DictionaryVariables
280
     0
  1
1
  0
DICTIONARYVAR
  5
1710C
102
{ACAD_REACTORS
330
6ED
102
}
330
6ED
100
DictionaryVariables
280
     0
  1
0
  0
DICTIONARYVAR
  5
1485F
102
{ACAD_REACTORS
330
6ED
102
}
330
6ED
100
DictionaryVariables
280
     0
  1
8
  0
DICTIONARYVAR
  5
1485E
102
{ACAD_REACTORS
330
6ED
102
}
330
6ED
100
DictionaryVariables
280
     0
  1
1
  0
DICTIONARYVAR
  5
A348C
102
{ACAD_REACTORS
330
6ED
102
}
330
6ED
100
DictionaryVariables
280
     0
  1
0
  0
DICTIONARYVAR
  5
A348D
102
{ACAD_REACTORS
330
6ED
102
}
330
6ED
100
DictionaryVariables
280
     0
  1
0
  0
DICTIONARYVAR
  5
7E56E
102
{ACAD_REACTORS
330
6ED
102
}
330
6ED
100
DictionaryVariables
280
     0
  1
0.000000
  0
DICTIONARYVAR
  5
6D821
102
{ACAD_REACTORS
330
6ED
102
}
330
6ED
100
DictionaryVariables
280
     0
  1
0
  0
DICTIONARYVAR
  5
1485C
102
{ACAD_REACTORS
330
6ED
102
}
330
6ED
100
DictionaryVariables
280
     0
  1
120
  0
DICTIONARYVAR
  5
1485D
102
{ACAD_REACTORS
330
6ED
102
}
330
6ED
100
DictionaryVariables
280
     0
  1
0
  0
DICTIONARYVAR
  5
141B0
102
{ACAD_REACTORS
330
6ED
102
}
330
6ED
100
DictionaryVariables
280
     0
  1

  0
DICTIONARYVAR
  5
E97
102
{ACAD_REACTORS
330
6ED
102
}
330
6ED
100
DictionaryVariables
280
     0
  1
127
  0
DICTIONARYVAR
  5
41A53
102
{ACAD_REACTORS
330
6ED
102
}
330
6ED
100
DictionaryVariables
280
     0
  1
0
  0
DICTIONARYVAR
  5
A39EB
102
{ACAD_REACTORS
330
6ED
102
}
330
6ED
100
DictionaryVariables
280
     0
  1
2
  0
ACAD_PROXY_OBJECT
  5
7A5FB
102
{ACAD_REACTORS
330
1487A
102
}
330
1487A
100
AcDbZombieObject
 90
      499
 91
      543
 93
    50146
310
1E06000016C005C080000B404000098880400B8041000996969616128043800000000000001680020000000F8001C01C80478012C04500000000000000004001C00990DBDB1BDC97CDEE0040000000128040000000000000001680020000000F8037401C80448012C04500000000000000004002400990DBDB1BDC97CC8C8C
310
6E0040000000128040000000000000001680020000000F8002001C80448012C04500000000000000004001C00990DBDB1BDC97CE2E0040000000128040000000000000001680020000000F8002001C80448012C04000000000000000004001C00990DBDB1BDC97CE2E0040000000128040000000000000001680020000000F
310
8032401C80464012C04500000000000000004002400990DBDB1BDC97CC8C0C6E0040000000128040000000000000001680020000000F8037401C80448012C04500000000000000004002400990DBDB1BDC97CC8C8C6E0040000000128040000000000000001680024000000F8000401C807F7FD2C045000000000000000040
310
01C00990DBDB1BDC97CC6E0040000000128040000000000000001680020000000F803F401C80434012C04500000000000000004002400990DBDB1BDC97CC8D4CEE0040000000128040000000000000001680000000000F8001C01C807F7FD2C04500000000000000004001C00990DBDB1BDC97CDEE00400000001280400000
310
00000000001680020000000F8002001C80448012C04500000000000000004001C00990DBDB1BDC97CE2E0040000000128040000000000000001680020000000F803F801C80434012C04000000000000000004002400990DBDB1BDC97CC8D4D2E0040000000128040000000000000001680020000000F8037401C80448012C0
310
4500000000000000004002400990DBDB1BDC97CC8C8C6E0040000000128040000000000000001680020000000F8000801C80478012C04500000000000000004001C00990DBDB1BDC97CCAE0040000000128040000000000000001680020000000F8035401C80478012C04500000000000000004002400990DBDB1BDC97CC8C
310
4CEE0040000000128040000000000000001680020000000F8038401C807F7FD2C04500000000000000004002400990DBDB1BDC97CC8C8D6E0040000000128040000000000000001680020000000F8001C01C807F7FD2C04500000000000000004001C00990DBDB1BDC97CDEE00400000001280400000000000000016800200
310
00000F8007801C807F7FD2C04500000000000000004002000990DBDB1BDC97CCCC2E0040000000128040000000000000001680020000000F803F001C804F0012C04500000000000000004002400990DBDB1BDC97CC8D4CAE0040000000128040000000000000001680024000000F8002001C807F7FD2C04500000000000000
310
004001C00990DBDB1BDC97CE2E0040000000128040000000000000001680020000000F8001801C80478012C04500000000000000004001C00990DBDB1BDC97CDAE0040000000128040000000000000001680020000000F8037801C807F7FD2C04500000000000000004002400990DBDB1BDC97CC8C8CAE0040000000128040
310
000000000000001680020000000F8000401C807F7FD2C04500000000000000004001C00990DBDB1BDC97CC6E0040000000128040000000000000001680020000000F8017C01C80478012C04500000000000000004002000990DBDB1BDC97CE4D6E0040000000128040000000000000001680000000000F803CC01C807F7FD2
310
C04500000000000000004002400990DBDB1BDC97CC8D0CEE0040000000128040000000000000001680020000000F8001001C80478012C04500000000000000004001C00990DBDB1BDC97CD2E0040000000128040000000000000001680020000000F8017401C80434012C04500000000000000004002000990DBDB1BDC97CE
310
4CEE0040000000128040000000000000001680020000000F8039C01C80434012C04500000000000000004002400990DBDB1BDC97CC8CCC6E0040000000128040000000000000001680020000000F8007C01C80434012C04500000000000000004002000990DBDB1BDC97CCCC6E004000000012804000000000000000168002
310
0000000F8001C01C80450012C04500000000000000004001C00990DBDB1BDC97CDEE0040000000128040000000000000001680020000000F8001401C80434012C04000000000000000004001C00990DBDB1BDC97CD6E0040000000128040000000000000001680020000000F8000401C80434012C040000000000000000040
310
01C00990DBDB1BDC97CC6E0040000000128040000000000000001680020000000F8002001C8043C012C04000000000000000004001C00990DBDB1BDC97CE2E0040000000128040000000000000001680020000000F8000401C80478012C04500000000000000004001C00990DBDB1BDC97CC6E004000000012804000000000
310
0000001680020000000F8000C01C80478012C04500000000000000004001C00990DBDB1BDC97CCEE0040000000128040000000000000001680020000000F8023401C80434012C04500000000000000004002400990DBDB1BDC97CC4D0C6E0040000000128040000000000000001680020000000F8014401C80434012C04500
310
000000000000004002000990DBDB1BDC97CE0C6E0040000000128040000000000000001680020000000F8003401C80434012C04500000000000000004002000990DBDB1BDC97CC4CEE0040000000128040000000000000001680020000000F800DC01C80434012C04500000000000000004002000990DBDB1BDC97CD4D6E00
310
40000000128040000000000000001680020000000F800D401C80434012C04500000000000000004002000990DBDB1BDC97CD4CEE0040000000128040000000000000001680020000000F8021801C80434012C04500000000000000004002400990DBDB1BDC97CC4CCD2E004000000012804000000000000000168002000000
310
0F800FC01C80434012C04500000000000000004002000990DBDB1BDC97CD8CEE0040000000128040000000000000001680020000000F803AC01C80434012C04500000000000000004002400990DBDB1BDC97CC8CCD6E0040000000128040000000000000001680020000000F8023401C80434012C045000000000000000040
310
02400990DBDB1BDC97CC4D0C6E0040000000128040000000000000001680020000000F8001401C80478012C04500000000000000004001C00990DBDB1BDC97CD6E0040000000128040000000000000001680020000000F8023C01C80478012C04500000000000000004002400990DBDB1BDC97CC4D0CEE0040000000128040
310
000000000000001680020000000F8003C01C80478012C04500000000000000004002000990DBDB1BDC97CC4D6E0040000000128040000000000000001680020000000F8001C01C80478012C04500000000000000004001C00990DBDB1BDC97CDEE0040000000128040000000000000001680020000000F803F801C80448012
310
C04500000000000000004002400990DBDB1BDC97CC8D4D2E0040000000128040000000000000001680020000000F8002001C80448012C04500000000000000004001C00990DBDB1BDC97CE2E0040000000128040000000000000001680020000000F8001C01C807F7FD2C04000000000000000004001C00990DBDB1BDC97CD
310
EE0040000000128040000000000000001680020000000F8001C01C807F7FD2C04000000000000000004001C00990DBDB1BDC97CDEE0040000000128040000000000000001680020000000F8001C01C807F7FD2C04000000000000000004001C00990DBDB1BDC97CDEE0040000000128040000000000000001680020000000F
310
8001C01C807F7FD2C04000000000000000004001C00990DBDB1BDC97CDEE0040000000128040000000000000001680020000000F8001C01C807F7FD2C04000000000000000004001C00990DBDB1BDC97CDEE0040000000128040000000000000001680020000000F8001C01C807F7FD2C04000000000000000004001C00990
310
DBDB1BDC97CDEE0040000000128040000000000000001680020000000F8002401C80450012C04500000000000000004001C00990DBDB1BDC97CE6E0040000000128040000000000000001680020000000F8001001C80400012C04000000000000000004001C00990DBDB1BDC97CD2E00400000001280400000000000000016
310
80020000000F8001001C80400012C04500000000000000004001C00990DBDB1BDC97CD2E0040000000128040000000000000001680020000000F8001001C80400012C04500000000000000004001C00990DBDB1BDC97CD2E0040000000128040000000000000001680020000000F8000401C80400012C04500000000000000
310
004001C00990DBDB1BDC97CC6E0040000000128040000000000000001680020000000F8001C01C80434012C04500000000000000004001C00990DBDB1BDC97CDEE0040000000128040000000000000001680020000000F8011801C80400012C04500000000000000004002000990DBDB1BDC97CDCC2E004000000012804000
310
0000000000001680020000000F8001001C80400012C04500000000000000004001C00990DBDB1BDC97CD2E0040000000128040000000000000001680020000000F8001C01C80448012C04500000000000000004001C00990DBDB1BDC97CDEE0040000000128040000000000000001680020000000F803F401C80434012C045
310
00000000000000004002400990DBDB1BDC97CC8D4CEE0040000000128040000000000000001680020000000F8000401C80478012C04500000000000000004001C00990DBDB1BDC97CC6E0040000000128040000000000000001680020000000F803F001C807F7FD2C04500000000000000004002400990DBDB1BDC97CC8D4C
310
AE0040000000128040000000000000001680020000000F800DC01C80434012C04500000000000000004002000990DBDB1BDC97CD4D6E0040000000128040000000000000001680020000000F8002801C807F7FD2C04500000000000000004002000990DBDB1BDC97CC4C2E0040000000128040000000000000001680020000
310
000F8002C01C807F7FD2C04500000000000000004002000990DBDB1BDC97CC4C6E0040000000128040000000000000001680020000000F8005401C807F7FD2C04500000000000000004002000990DBDB1BDC97CC8C6E0040000000128040000000000000001680020000000F8003001C807F7FD2C045000000000000000040
310
02000990DBDB1BDC97CC4CAE0040000000128040000000000000001680020000000F8005801C807F7FD2C04500000000000000004002000990DBDB1BDC97CC8CAE0040000000128040000000000000001680020000000F8008001C807F7FD2C04500000000000000004002000990DBDB1BDC97CCCCAE004000000012804000
310
0000000000001680020000000F8003C01C807F7FD2C04500000000000000004002000990DBDB1BDC97CC4D6E0040000000128040000000000000001680020000000F803C401C807F7FD2C04500000000000000004002400990DBDB1BDC97CC8D0C6E0040000000128040000000000000001680020000000F8000801C807F7F
310
D2C04500000000000000004001C00990DBDB1BDC97CCAE0040000000128040000000000000001680020000000F800D401C807F7FD2C04500000000000000004002000990DBDB1BDC97CD4CEE0040000000128040000000000000001680020000000F800DC01C807F7FD2C04500000000000000004002000990DBDB1BDC97CD
310
4D6E0040000000128040000000000000001680020000000F800D001C807F7FD2C04500000000000000004002000990DBDB1BDC97CD4CAE0040000000128040000000000000001680020000000F800A001C807F7FD2C04500000000000000004002000990DBDB1BDC97CD0C2E00400000001280400000000000000016800200
310
00000F800A401C807F7FD2C04500000000000000004002000990DBDB1BDC97CD0C6E0040000000128040000000000000001680020000000F800AC01C807F7FD2C04500000000000000004002000990DBDB1BDC97CD0CEE0040000000128040000000000000001680020000000F800A801C807F7FD2C0450000000000000000
310
4002000990DBDB1BDC97CD0CAE0040000000128040000000000000001680020000000F800B001C807F7FD2C04500000000000000004002000990DBDB1BDC97CD0D2E0040000000128040000000000000001680020000000F800B801C807F7FD2C04500000000000000004002000990DBDB1BDC97CD0DAE0040000000128040
310
000000000000001680020000000F800B401C807F7FD2C04500000000000000004002000990DBDB1BDC97CD0D6E0040000000128040000000000000001680020000000F800BC01C807F7FD2C04500000000000000004002000990DBDB1BDC97CD0DEE0040000000128040000000000000001680020000000F800E001C807F7F
310
D2C04500000000000000004002000990DBDB1BDC97CD4DAE0040000000128040000000000000001680020000000F8000C01C807F7FD2C04500000000000000004001C00990DBDB1BDC97CCEE0040000000128040000000000000001680020000000F800F001C807F7FD2C04500000000000000004002000990DBDB1BDC97CD
310
8C2E0040000000128040000000000000001680020000000F8014001C807F7FD2C04500000000000000004002000990DBDB1BDC97CE0C2E0040000000128040000000000000001680020000000F8019001C807F7FD2C04500000000000000004002400990DBDB1BDC97CC4C0C2E004000000012804000000000000000168002
310
0000000F800F401C807F7FD2C04500000000000000004002000990DBDB1BDC97CD8C6E0040000000128040000000000000001680020000000F8014401C807F7FD2C04500000000000000004002000990DBDB1BDC97CE0C6E0040000000128040000000000000001680020000000F8019401C807F7FD2C04500000000000000
310
004002400990DBDB1BDC97CC4C0C6E0040000000128040000000000000001680020000000F800FC01C807F7FD2C04500000000000000004002000990DBDB1BDC97CD8CEE0040000000128040000000000000001680020000000F8017401C807F7FD2C04500000000000000004002000990DBDB1BDC97CE4CEE004000000012
310
8040000000000000001680020000000F8012C01C807F7FD2C04500000000000000004002000990DBDB1BDC97CDCD6E0040000000128040000000000000001680020000000F801A401C807F7FD2C04500000000000000004002400990DBDB1BDC97CC4C0D6E0040000000128040000000000000001680020000000F8012801C
310
807F7FD2C04500000000000000004002000990DBDB1BDC97CDCD2E0040000000128040000000000000001680020000000F801A801C807F7FD2C04500000000000000004002400990DBDB1BDC97CC4C0DAE0040000000128040000000000000001680020000000F8001001C807F7FD2C04500000000000000004001C00990DB
310
DB1BDC97CD2E0040000000128040000000000000001680020000000F8021001C807F7FD2C04500000000000000004002400990DBDB1BDC97CC4CCCAE0040000000128040000000000000001680020000000F8022001C807F7FD2C04500000000000000004002400990DBDB1BDC97CC4CCDAE00400000001280400000000000
310
00001680020000000F8023001C807F7FD2C04500000000000000004002400990DBDB1BDC97CC4D0C2E0040000000128040000000000000001680020000000F8023801C807F7FD2C04500000000000000004002400990DBDB1BDC97CC4D0CAE0040000000128040000000000000001680020000000F8024001C807F7FD2C045
310
00000000000000004002400990DBDB1BDC97CC4D0D2E0040000000128040000000000000001680020000000F801EC01C807F7FD2C04500000000000000004002400990DBDB1BDC97CC4C8CEE0040000000128040000000000000001680020000000F8021C01C807F7FD2C04500000000000000004002400990DBDB1BDC97CC
310
4CCD6E0040000000128040000000000000001680020000000F8025C01C807F7FD2C04500000000000000004002400990DBDB1BDC97CC4D4C6E0040000000128040000000000000001680020000000F8028401C807F7FD2C04500000000000000004002400990DBDB1BDC97CC4D8C6E00400000001280400000000000000016
310
80020000000F8026001C807F7FD2C04500000000000000004002400990DBDB1BDC97CC4D4CAE0040000000128040000000000000001680020000000F8001401C807F7FD2C04500000000000000004001C00990DBDB1BDC97CD6E0040000000128040000000000000001680020000000F803F001C807F7FD2C0450000000000
310
0000004002400990DBDB1BDC97CC8D4CAE0040000000128040000000000000001680020000000F8001C01C807F7FD2C04500000000000000004001C00990DBDB1BDC97CDEE0040000000128040000000000000001680020000000F8001C01C80478012C045000000000000000040010009A41197CDEE004000000012804000
310
0000000000001680020000000F8001C01C80478012C045000000000000000040010009A41197CDEE004000000000
  0
DICTIONARY
  5
A3D09
330
16F60
100
AcDbDictionary
  3
ACAD_XREC_ROUNDTRIP
360
A3D0A
1001
ACAD
1000
TREAT_AS_HARD
1070
     1
  0
DICTIONARY
  5
A3D0B
330
16F58
100
AcDbDictionary
  3
ACAD_XREC_ROUNDTRIP
360
A3D0C
1001
ACAD
1000
TREAT_AS_HARD
1070
     1
  0
DICTIONARY
  5
A3D0D
330
16F68
100
AcDbDictionary
  3
ACAD_XREC_ROUNDTRIP
360
A3D0E
1001
ACAD
1000
TREAT_AS_HARD
1070
     1
  0
XRECORD
  5
A3D0A
102
{ACAD_REACTORS
330
A3D09
102
}
330
A3D09
100
AcDbXrecord
102
MATERIAL
148
0.0
149
0.0
149
0.0
 93
        0
 94
      127
282
     0
 72
     0
 77
     0
171
     0
175
     0
179
     0
273
     0
  0
XRECORD
  5
A3D0C
102
{ACAD_REACTORS
330
A3D0B
102
}
330
A3D0B
100
AcDbXrecord
102
MATERIAL
148
0.0
149
0.0
149
0.0
 93
        0
 94
      127
282
     0
 72
     0
 77
     0
171
     0
175
     0
179
     0
273
     0
  0
XRECORD
  5
A3D0E
102
{ACAD_REACTORS
330
A3D0D
102
}
330
A3D0D
100
AcDbXrecord
102
MATERIAL
148
0.0
149
0.0
149
0.0
 93
        0
 94
      127
282
     0
 72
     0
 77
     0
171
     0
175
     0
179
     0
273
     0
  0
ENDSEC
  0
EOF
