  0
SECTION
  2
HEADER
  9
$ACADVER
  1
AC1012
  9
$DWGCODEPAGE
  3
ansi_932
  9
$INSBASE
 10
0.0
 20
0.0
 30
0.0
  9
$EXTMIN
 10
-160.4151086659353
 20
-101.3703363991933
 30
0.0
  9
$EXTMAX
 10
111.4921232929498
 20
105.1532338570593
 30
0.0
  9
$LIMMIN
 10
0.0
 20
0.0
  9
$LIMMAX
 10
420.0
 20
297.0
  9
$ORTHOMODE
 70
     0
  9
$REGENMODE
 70
     1
  9
$FILLMODE
 70
     1
  9
$QTEXTMODE
 70
     0
  9
$MIRRTEXT
 70
     0
  9
$DRAGMODE
 70
     2
  9
$LTSCALE
 40
0.5
  9
$OSMODE
 70
  2351
  9
$ATTMODE
 70
     1
  9
$TEXTSIZE
 40
4.0
  9
$TRACEWID
 40
1.0
  9
$TEXTSTYLE
  7
STANDARD
  9
$CLAYER
  8
1TEXT
  9
$CELTYPE
  6
BYLAYER
  9
$CECOLOR
 62
   256
  9
$CELTSCALE
 40
1.0
  9
$DELOBJ
 70
     1
  9
$DISPSILH
 70
     0
  9
$DIMSCALE
 40
1.0
  9
$DIMASZ
 40
2.0
  9
$DIMEXO
 40
0.0
  9
$DIMDLI
 40
7.0
  9
$DIMRND
 40
0.0
  9
$DIMDLE
 40
0.0
  9
$DIMEXE
 40
1.0
  9
$DIMTP
 40
0.0
  9
$DIMTM
 40
0.0
  9
$DIMTXT
 40
3.5
  9
$DIMCEN
 40
0.0
  9
$DIMTSZ
 40
0.0
  9
$DIMTOL
 70
     0
  9
$DIMLIM
 70
     0
  9
$DIMTIH
 70
     0
  9
$DIMTOH
 70
     0
  9
$DIMSE1
 70
     0
  9
$DIMSE2
 70
     0
  9
$DIMTAD
 70
     1
  9
$DIMZIN
 70
     8
  9
$DIMBLK
  1

  9
$DIMASO
 70
     1
  9
$DIMSHO
 70
     1
  9
$DIMPOST
  1
 
  9
$DIMAPOST
  1

  9
$DIMALT
 70
     0
  9
$DIMALTD
 70
     2
  9
$DIMALTF
 40
25.4
  9
$DIMLFAC
 40
1.0
  9
$DIMTOFL
 70
     1
  9
$DIMTVP
 40
0.0
  9
$DIMTIX
 70
     0
  9
$DIMSOXD
 70
     0
  9
$DIMSAH
 70
     1
  9
$DIMBLK1
  1
OPEN30
  9
$DIMBLK2
  1
OPEN30
  9
$DIMSTYLE
  2
NEWX10
  9
$DIMCLRD
 70
   256
  9
$DIMCLRE
 70
   256
  9
$DIMCLRT
 70
   201
  9
$DIMTFAC
 40
0.7
  9
$DIMGAP
 40
0.7
  9
$DIMJUST
 70
     0
  9
$DIMSD1
 70
     0
  9
$DIMSD2
 70
     0
  9
$DIMTOLJ
 70
     1
  9
$DIMTZIN
 70
     8
  9
$DIMALTZ
 70
     0
  9
$DIMALTTZ
 70
     0
  9
$DIMFIT
 70
     3
  9
$DIMUPT
 70
     0
  9
$DIMUNIT
 70
     2
  9
$DIMDEC
 70
     2
  9
$DIMTDEC
 70
     4
  9
$DIMALTU
 70
     2
  9
$DIMALTTD
 70
     2
  9
$DIMTXSTY
  7
STANDARD
  9
$DIMAUNIT
 70
     0
  9
$LUNITS
 70
     2
  9
$LUPREC
 70
     4
  9
$SKETCHINC
 40
1.0
  9
$FILLETRAD
 40
0.0
  9
$AUNITS
 70
     0
  9
$AUPREC
 70
     2
  9
$MENU
  1
acad
  9
$ELEVATION
 40
0.0
  9
$PELEVATION
 40
0.0
  9
$THICKNESS
 40
0.0
  9
$LIMCHECK
 70
     0
  9
$CHAMFERA
 40
2.0
  9
$CHAMFERB
 40
2.0
  9
$CHAMFERC
 40
20.0
  9
$CHAMFERD
 40
0.0
  9
$SKPOLY
 70
     0
  9
$TDCREATE
 40
2451027.627421285
  9
$TDUPDATE
 40
2458080.771233727
  9
$TDINDWG
 40
12.0052911227
  9
$TDUSRTIMER
 40
12.0052907407
  9
$USRTIMER
 70
     1
  9
$ANGBASE
 50
0.0
  9
$ANGDIR
 70
     0
  9
$PDMODE
 70
     0
  9
$PDSIZE
 40
0.0
  9
$PLINEWID
 40
0.0
  9
$COORDS
 70
     3
  9
$SPLFRAME
 70
     0
  9
$SPLINETYPE
 70
     6
  9
$SPLINESEGS
 70
     8
  9
$ATTDIA
 70
     0
  9
$ATTREQ
 70
     1
  9
$HANDLING
 70
     1
  9
$HANDSEED
  5
A42C5
  9
$SURFTAB1
 70
     6
  9
$SURFTAB2
 70
     6
  9
$SURFTYPE
 70
     6
  9
$SURFU
 70
     6
  9
$SURFV
 70
     6
  9
$UCSNAME
  2

  9
$UCSORG
 10
0.0
 20
0.0
 30
0.0
  9
$UCSXDIR
 10
1.0
 20
0.0
 30
0.0
  9
$UCSYDIR
 10
0.0
 20
1.0
 30
0.0
  9
$PUCSNAME
  2

  9
$PUCSORG
 10
0.0
 20
0.0
 30
0.0
  9
$PUCSXDIR
 10
1.0
 20
0.0
 30
0.0
  9
$PUCSYDIR
 10
0.0
 20
1.0
 30
0.0
  9
$USERI1
 70
     0
  9
$USERI2
 70
     0
  9
$USERI3
 70
     0
  9
$USERI4
 70
     0
  9
$USERI5
 70
     0
  9
$USERR1
 40
0.0
  9
$USERR2
 40
0.0
  9
$USERR3
 40
0.0
  9
$USERR4
 40
0.0
  9
$USERR5
 40
4.5
  9
$WORLDVIEW
 70
     1
  9
$SHADEDGE
 70
     1
  9
$SHADEDIF
 70
    70
  9
$TILEMODE
 70
     1
  9
$MAXACTVP
 70
    48
  9
$PINSBASE
 10
0.0
 20
0.0
 30
0.0
  9
$PLIMCHECK
 70
     0
  9
$PEXTMIN
 10
1.000000000000000E+20
 20
1.000000000000000E+20
 30
1.000000000000000E+20
  9
$PEXTMAX
 10
-1.000000000000000E+20
 20
-1.000000000000000E+20
 30
-1.000000000000000E+20
  9
$PLIMMIN
 10
-20.0
 20
-7.5
  9
$PLIMMAX
 10
277.0
 20
202.5
  9
$UNITMODE
 70
     0
  9
$VISRETAIN
 70
     1
  9
$PLINEGEN
 70
     0
  9
$PSLTSCALE
 70
     1
  9
$TREEDEPTH
 70
  3020
  9
$PICKSTYLE
 70
     1
  9
$CMLSTYLE
  2
STANDARD
  9
$CMLJUST
 70
     0
  9
$CMLSCALE
 40
20.0
  9
$SAVEIMAGES
 70
     1
  0
ENDSEC
  0
SECTION
  2
CLASSES
  0
CLASS
  1
IDBUFFER
  2
AcDbIdBuffer
  3
ObjectDBX Classes
 90
    32768
280
     0
281
     0
  0
CLASS
  1
DICTIONARYVAR
  2
AcDbDictionaryVar
  3
ObjectDBX Classes
 90
        0
280
     0
281
     0
  0
CLASS
  1
ACDBDICTIONARYWDFLT
  2
AcDbDictionaryWithDefault
  3
ObjectDBX Classes
 90
    32768
280
     0
281
     0
  0
CLASS
  1
TABLESTYLE
  2
AcDbTableStyle
  3
ObjectDBX Classes
 90
     4095
280
     0
281
     0
  0
CLASS
  1
ACDBPLACEHOLDER
  2
AcDbPlaceHolder
  3
ObjectDBX Classes
 90
        0
280
     0
281
     0
  0
CLASS
  1
LAYOUT
  2
AcDbLayout
  3
ObjectDBX Classes
 90
        0
280
     0
281
     0
  0
CLASS
  1
SORTENTSTABLE
  2
AcDbSortentsTable
  3
ObjectDBX Classes
 90
    32768
280
     0
281
     0
  0
CLASS
  1
DIMASSOC
  2
AcDbDimAssoc
  3
"AcDbDimAssoc|Product Desc:     AcDim ARX App For Dimension|Company:          Autodesk, Inc.|WEB Address:      www.autodesk.com"
 90
        0
280
     0
281
     0
  0
CLASS
  1
MATERIAL
  2
AcDbMaterial
  3
ObjectDBX Classes
 90
     1153
280
     0
281
     0
  0
CLASS
  1
VISUALSTYLE
  2
AcDbVisualStyle
  3
ObjectDBX Classes
 90
     4095
280
     0
281
     0
  0
CLASS
  1
SCALE
  2
AcDbScale
  3
ObjectDBX Classes
 90
     1153
280
     0
281
     0
  0
CLASS
  1
MLEADERSTYLE
  2
AcDbMLeaderStyle
  3
ACDB_MLEADERSTYLE_CLASS
 90
     4095
280
     0
281
     0
  0
CLASS
  1
CELLSTYLEMAP
  2
AcDbCellStyleMap
  3
ObjectDBX Classes
 90
     1152
280
     0
281
     0
  0
CLASS
  1
ACAD_EVALUATION_GRAPH
  2
AcDbEvalGraph
  3
ObjectDBX Classes
 90
     1153
280
     0
281
     0
  0
CLASS
  1
BLOCKLINEARPARAMETER
  2
AcDbBlockLinearParameter
  3
ObjectDBX Classes
 90
     1153
280
     0
281
     0
  0
CLASS
  1
BLOCKLINEARGRIP
  2
AcDbBlockLinearGrip
  3
ObjectDBX Classes
 90
     1153
280
     0
281
     0
  0
CLASS
  1
BLOCKGRIPLOCATIONCOMPONENT
  2
AcDbBlockGripExpr
  3
ObjectDBX Classes
 90
     1153
280
     0
281
     0
  0
CLASS
  1
BLOCKSTRETCHACTION
  2
AcDbBlockStretchAction
  3
ObjectDBX Classes
 90
     1153
280
     0
281
     0
  0
CLASS
  1
ACDB_DYNAMICBLOCKPURGEPREVENTER_VERSION
  2
AcDbDynamicBlockPurgePreventer
  3
ObjectDBX Classes
 90
     1153
280
     0
281
     0
  0
CLASS
  1
ACDB_BLOCKREPRESENTATION_DATA
  2
AcDbBlockRepresentationData
  3
ObjectDBX Classes
 90
     1153
280
     0
281
     0
  0
CLASS
  1
ACAECUSTOBJ
  2
AcAeEditorObj
  3
AcAeEditorObj
 90
   -31744
280
     1
281
     0
  0
CLASS
  1
LINEARPARAMETERENTITY
  2
AcDbBlockLinearParameterEntity
  3
ObjectDBX Classes
 90
   -31743
280
     1
281
     1
  0
CLASS
  1
ACAEEEMGROBJ
  2
AcAeEEMgrObj
  3
AcAeEEMgrObj
 90
   -31744
280
     1
281
     0
  0
CLASS
  1
LINEARGRIPENTITY
  2
AcDbBlockLinearGripEntity
  3
ObjectDBX Classes
 90
   -31743
280
     1
281
     1
  0
CLASS
  1
STRETCHACTIONENTITY
  2
AcDbBlockStretchActionEntity
  3
ObjectDBX Classes
 90
   -31743
280
     1
281
     1
  0
CLASS
  1
AEC_REFEDIT_STATUS_TRACKER
  2
AecDbRefEditStatusTracker
  3
AecArchBase60|Product Desc: Autodesk Architectural Desktop 2007 |Company: Autodesk,Inc. |WEB Address: www.autodesk.com
 90
   -32639
280
     1
281
     0
  0
CLASS
  1
NPOCOLLECTION
  2
AcDbImpNonPersistentObjectsCollection
  3
ObjectDBX Classes
 90
   -31615
280
     1
281
     0
  0
CLASS
  1
SOLID_BACKGROUND
  2
AcDbSolidBackground
  3
SCENEOE
 90
     4095
280
     0
281
     0
  0
CLASS
  1
IMAGE
  2
AcDbRasterImage
  3
ISM
 90
    32895
280
     0
281
     1
  0
CLASS
  1
IMAGEDEF_REACTOR
  2
AcDbRasterImageDefReactor
  3
ISM
 90
    32769
280
     0
281
     0
  0
CLASS
  1
IMAGEDEF
  2
AcDbRasterImageDef
  3
ISM
 90
    32768
280
     0
281
     0
  0
CLASS
  1
RASTERVARIABLES
  2
AcDbRasterVariables
  3
ISM
 90
    32768
280
     0
281
     0
  0
CLASS
  1
SUN
  2
AcDbSun
  3
SCENEOE
 90
     1153
280
     0
281
     0
  0
CLASS
  1
FIELD
  2
AcDbField
  3
ObjectDBX Classes
 90
     1152
280
     0
281
     0
  0
CLASS
  1
FIELDLIST
  2
AcDbFieldList
  3
ObjectDBX Classes
 90
     1152
280
     0
281
     0
  0
CLASS
  1

  2
CaLongTransaction
  3

 90
        0
280
     0
281
     0
  0
CLASS
  1
ACDB_BLKREFOBJECTCONTEXTDATA_CLASS
  2
AcDbBlkRefObjectContextData
  3
ObjectDBX Classes
 90
     1153
280
     0
281
     0
  0
CLASS
  1
MULTILEADER
  2
AcDbMLeader
  3
ACDB_MLEADER_CLASS
 90
     1025
280
     0
281
     1
  0
CLASS
  1
ACDB_MLEADEROBJECTCONTEXTDATA_CLASS
  2
AcDbMLeaderObjectContextData
  3
ObjectDBX Classes
 90
     1153
280
     0
281
     0
  0
CLASS
  1
ACDB_ALDIMOBJECTCONTEXTDATA_CLASS
  2
AcDbAlignedDimensionObjectContextData
  3
ObjectDBX Classes
 90
     1153
280
     0
281
     0
  0
CLASS
  1
MENTALRAYRENDERSETTINGS
  2
AcDbMentalRayRenderSettings
  3
SCENEOE
 90
     1024
280
     0
281
     0
  0
CLASS
  1
BLOCKVISIBILITYPARAMETER
  2
AcDbBlockVisibilityParameter
  3
ObjectDBX Classes
 90
     1153
280
     0
281
     0
  0
CLASS
  1
BLOCKVISIBILITYGRIP
  2
AcDbBlockVisibilityGrip
  3
ObjectDBX Classes
 90
     1153
280
     0
281
     0
  0
CLASS
  1
XRECORD
  2
AcDbXrecord
  3
ObjectDBX Classes
 90
    32768
280
     0
281
     0
  0
CLASS
  1
LWPOLYLINE
  2
AcDbPolyline
  3
ObjectDBX Classes
 90
    32768
280
     0
281
     1
  0
CLASS
  1
HATCH
  2
AcDbHatch
  3
ObjectDBX Classes
 90
    32768
280
     0
281
     1
  0
ENDSEC
  0
SECTION
  2
TABLES
  0
TABLE
  2
VPORT
  5
8
330
0
100
AcDbSymbolTable
 70
     1
  0
VPORT
  5
585BF
330
8
100
AcDbSymbolTableRecord
100
AcDbViewportTableRecord
  2
*ACTIVE
 70
     0
 10
0.0
 20
0.0
 11
1.0
 21
1.0
 12
-11086.12203768649
 22
-7484.692200271067
 13
0.0
 23
0.0
 14
10.0
 24
10.0
 15
10.0
 25
10.0
 16
0.0
 26
0.0
 36
1.0
 17
11061.660545
 27
7486.583649
 37
474.311593
 40
221.7410964856608
 41
2.122931442080378
 42
50.0
 43
0.0
 44
0.0
 50
0.0
 51
0.0
 71
    16
 72
  1000
 73
     1
 74
     1
 75
     0
 76
     0
 77
     0
 78
     0
1001
ACAD_NAV_VCDISPLAY
1070
     3
  0
ENDTAB
  0
TABLE
  2
LTYPE
  5
5
330
0
100
AcDbSymbolTable
 70
     3
  0
LTYPE
  5
12
330
5
100
AcDbSymbolTableRecord
100
AcDbLinetypeTableRecord
  2
BYBLOCK
 70
     0
  3

 72
    65
 73
     0
 40
0.0
  0
LTYPE
  5
13
330
5
100
AcDbSymbolTableRecord
100
AcDbLinetypeTableRecord
  2
BYLAYER
 70
     0
  3

 72
    65
 73
     0
 40
0.0
  0
LTYPE
  5
14
330
5
100
AcDbSymbolTableRecord
100
AcDbLinetypeTableRecord
  2
CONTINUOUS
 70
     0
  3
Solid line
 72
    65
 73
     0
 40
0.0
  0
LTYPE
  5
7E6BF
330
5
100
AcDbSymbolTableRecord
100
AcDbLinetypeTableRecord
  2
PHANTOM2
 70
     0
  3
Phantom (0.5x) ___ _ _ ___ _ _ ___ _ _ ___ _ _
 72
    65
 73
     6
 40
31.75
 49
15.875
 74
     0
 49
-3.175
 74
     0
 49
3.175
 74
     0
 49
-3.175
 74
     0
 49
3.175
 74
     0
 49
-3.175
 74
     0
  0
LTYPE
  5
A3F0D
330
5
100
AcDbSymbolTableRecord
100
AcDbLinetypeTableRecord
  2
CENTER2
 70
     0
  3
Center (.5x) ___ _ ___ _ ___ _ ___ _ ___ _ ___
 72
    65
 73
     4
 40
28.575
 49
19.05
 74
     0
 49
-3.175
 74
     0
 49
3.175
 74
     0
 49
-3.175
 74
     0
  0
ENDTAB
  0
TABLE
  2
LAYER
  5
2
102
{ACAD_XDICTIONARY
360
14879
102
}
330
0
100
AcDbSymbolTable
 70
     6
  0
LAYER
  5
E
102
{ACAD_XDICTIONARY
360
16FBC
102
}
330
2
100
AcDbSymbolTableRecord
100
AcDbLayerTableRecord
  2
0
 70
     0
 62
     7
  6
CONTINUOUS
  0
LAYER
  5
7CF1A
330
2
100
AcDbSymbolTableRecord
100
AcDbLayerTableRecord
  2
1CENTER
 70
     0
 62
     7
  6
CENTER2
  0
LAYER
  5
7CF1D
330
2
100
AcDbSymbolTableRecord
100
AcDbLayerTableRecord
  2
1DIM
 70
     0
 62
     7
  6
CONTINUOUS
  0
LAYER
  5
7CF54
330
2
100
AcDbSymbolTableRecord
100
AcDbLayerTableRecord
  2
1TEXT
 70
     0
 62
     7
  6
CONTINUOUS
  0
LAYER
  5
7E6CA
330
2
100
AcDbSymbolTableRecord
100
AcDbLayerTableRecord
  2
1PHANTOM
 70
     0
 62
     7
  6
PHANTOM2
  0
LAYER
  5
A3FE7
330
2
100
AcDbSymbolTableRecord
100
AcDbLayerTableRecord
  2
01
 70
     0
 62
     1
  6
CONTINUOUS
  0
ENDTAB
  0
TABLE
  2
STYLE
  5
3
330
0
100
AcDbSymbolTable
 70
     1
  0
STYLE
  5
F
330
3
100
AcDbSymbolTableRecord
100
AcDbTextStyleTableRecord
  2
STANDARD
 70
     0
 40
0.0
 41
1.0
 50
0.0
 71
     0
 42
4.0
  3
txt.shx
  4
extfont.shx
  0
ENDTAB
  0
TABLE
  2
VIEW
  5
6
330
0
100
AcDbSymbolTable
 70
     0
  0
ENDTAB
  0
TABLE
  2
UCS
  5
7
330
0
100
AcDbSymbolTable
 70
     5
  0
UCS
  5
150E1
330
7
100
AcDbSymbolTableRecord
100
AcDbUCSTableRecord
  2
U
 70
     0
 10
0.0
 20
0.0
 30
0.0
 11
1.0
 21
0.0
 31
0.0
 12
0.0
 22
2.220446049250313E-16
 32
1.0
 79
     0
146
0.0
  0
UCS
  5
150E2
330
7
100
AcDbSymbolTableRecord
100
AcDbUCSTableRecord
  2
L
 70
     0
 10
0.0
 20
0.0
 30
0.0
 11
-2.220446049250313E-16
 21
-1.0
 31
2.220446049250313E-16
 12
0.0
 22
2.220446049250313E-16
 32
1.0
 79
     0
146
0.0
  0
UCS
  5
150E3
330
7
100
AcDbSymbolTableRecord
100
AcDbUCSTableRecord
  2
R
 70
     0
 10
0.0
 20
0.0
 30
0.0
 11
3.445092848397667E-16
 21
1.0
 31
-2.220446049250313E-16
 12
0.0
 22
2.220446049250313E-16
 32
1.0
 79
     0
146
0.0
  0
UCS
  5
150E4
330
7
100
AcDbSymbolTableRecord
100
AcDbUCSTableRecord
  2
ISOME
 70
     0
 10
0.0
 20
0.0
 30
0.0
 11
0.7071450863198265
 21
-0.7070684729403536
 31
-3.830824619466267E-5
 12
0.4082704059428734
 22
0.4082704077401151
 32
0.8164744636514736
 79
     0
146
0.0
  0
UCS
  5
150E5
330
7
100
AcDbSymbolTableRecord
100
AcDbUCSTableRecord
  2
PERSPECTIVE
 70
     0
 10
0.0
 20
0.0
 30
0.0
 11
0.8191477691768964
 21
-0.5735823260466403
 31
-0.0004974931557765462
 12
0.1584844715982971
 22
0.225502028986108
 32
0.961265575782966
 79
     0
146
0.0
  0
ENDTAB
  0
TABLE
  2
APPID
  5
9
330
0
100
AcDbSymbolTable
 70
    32
  0
APPID
  5
10
330
9
100
AcDbSymbolTableRecord
100
AcDbRegAppTableRecord
  2
ACAD
 70
     0
  0
APPID
  5
39
330
9
100
AcDbSymbolTableRecord
100
AcDbRegAppTableRecord
  2
CONTENTTABDATA
 70
     0
  0
APPID
  5
3A
330
9
100
AcDbSymbolTableRecord
100
AcDbRegAppTableRecord
  2
CONTENTCURRENTTAB
 70
     0
  0
APPID
  5
3B
330
9
100
AcDbSymbolTableRecord
100
AcDbRegAppTableRecord
  2
CONTENTBLOCKICON
 70
     0
  0
APPID
  5
3C
330
9
100
AcDbSymbolTableRecord
100
AcDbRegAppTableRecord
  2
CONTENTBLOCKDESCRIPTION
 70
     0
  0
APPID
  5
5FA
330
9
100
AcDbSymbolTableRecord
100
AcDbRegAppTableRecord
  2
DRAWINGVARIABLESXDATA
 70
     0
  0
APPID
  5
6DE
330
9
100
AcDbSymbolTableRecord
100
AcDbRegAppTableRecord
  2
CONTENTLONGBLOCKNAME
 70
     0
  0
APPID
  5
1419A
330
9
100
AcDbSymbolTableRecord
100
AcDbRegAppTableRecord
  2
ACAD_PSEXT
 70
     0
  0
APPID
  5
16FA5
330
9
100
AcDbSymbolTableRecord
100
AcDbRegAppTableRecord
  2
ACAD_MLEADERVER
 70
     0
  0
APPID
  5
1786D
330
9
100
AcDbSymbolTableRecord
100
AcDbRegAppTableRecord
  2
ACAD_DSTYLE_DIMRADIAL_EXTE
 70
     0
  0
APPID
  5
194E7
330
9
100
AcDbSymbolTableRecord
100
AcDbRegAppTableRecord
  2
ACDBBLOCKREPETAG
 70
     0
  0
APPID
  5
194EE
330
9
100
AcDbSymbolTableRecord
100
AcDbRegAppTableRecord
  2
ACDBDYNAMICBLOCKTRUENAME
 70
     0
  0
APPID
  5
194EF
330
9
100
AcDbSymbolTableRecord
100
AcDbRegAppTableRecord
  2
ACDBDYNAMICBLOCKGUID
 70
     0
  0
APPID
  5
1955B
330
9
100
AcDbSymbolTableRecord
100
AcDbRegAppTableRecord
  2
ACDBBLOCKREPBTAG
 70
     0
  0
APPID
  5
1A99A
330
9
100
AcDbSymbolTableRecord
100
AcDbRegAppTableRecord
  2
ACADANNOTATIVE
 70
     0
  0
APPID
  5
1C397
330
9
100
AcDbSymbolTableRecord
100
AcDbRegAppTableRecord
  2
ACAUTHENVIRON
 70
     0
  0
APPID
  5
1C3F8
330
9
100
AcDbSymbolTableRecord
100
AcDbRegAppTableRecord
  2
ACADANNOPO
 70
     0
  0
APPID
  5
1E7E9
330
9
100
AcDbSymbolTableRecord
100
AcDbRegAppTableRecord
  2
ACLAYERTOOLS
 70
     0
  0
APPID
  5
25D98
330
9
100
AcDbSymbolTableRecord
100
AcDbRegAppTableRecord
  2
ACAD_EXEMPT_FROM_CAD_STAND
 70
     0
  0
APPID
  5
2992E
330
9
100
AcDbSymbolTableRecord
100
AcDbRegAppTableRecord
  2
ACAECLAYERSTANDARD
 70
     0
  0
APPID
  5
2992F
330
9
100
AcDbSymbolTableRecord
100
AcDbRegAppTableRecord
  2
ACAD_DSTYLE_DIMJOGGED_JOGA
 70
     0
  0
APPID
  5
2CC96
330
9
100
AcDbSymbolTableRecord
100
AcDbRegAppTableRecord
  2
ACAD_DSTYLE_DIM_LINETYPE
 70
     0
  0
APPID
  5
2CC97
330
9
100
AcDbSymbolTableRecord
100
AcDbRegAppTableRecord
  2
ACAD_DSTYLE_DIM_EXT1_LINET
 70
     0
  0
APPID
  5
2CC98
330
9
100
AcDbSymbolTableRecord
100
AcDbRegAppTableRecord
  2
ACAD_DSTYLE_DIM_EXT2_LINET
 70
     0
  0
APPID
  5
476E2
330
9
100
AcDbSymbolTableRecord
100
AcDbRegAppTableRecord
  2
ACAD_DIMASSOC_CALC_DIMLFAC
 70
     0
  0
APPID
  5
476E3
330
9
100
AcDbSymbolTableRecord
100
AcDbRegAppTableRecord
  2
ACAD_DIMASSOC_DIMLFAC
 70
     0
  0
APPID
  5
476E4
330
9
100
AcDbSymbolTableRecord
100
AcDbRegAppTableRecord
  2
ACAD_DIMASSOC_OVERRIDDEN_D
 70
     0
  0
APPID
  5
62D16
330
9
100
AcDbSymbolTableRecord
100
AcDbRegAppTableRecord
  2
ACAD_NAV_VCDISPLAY
 70
     0
  0
APPID
  5
6D82E
330
9
100
AcDbSymbolTableRecord
100
AcDbRegAppTableRecord
  2
ACAD_OBJECT_CHANGE_GUID
 70
     0
  0
APPID
  5
7E452
330
9
100
AcDbSymbolTableRecord
100
AcDbRegAppTableRecord
  2
ACADANNOTATIVEDECOMPOSITIO
 70
     0
  0
APPID
  5
7F000
330
9
100
AcDbSymbolTableRecord
100
AcDbRegAppTableRecord
  2
ACAD_DSTYLE_DIMJAG
 70
     0
  0
APPID
  5
7F001
330
9
100
AcDbSymbolTableRecord
100
AcDbRegAppTableRecord
  2
ACAD_DSTYLE_DIMTALN
 70
     0
  0
ENDTAB
  0
TABLE
  2
DIMSTYLE
  5
A
330
0
100
AcDbSymbolTable
 70
     1
  0
DIMSTYLE
105
49
102
{ACAD_REACTORS
102
}
330
A
100
AcDbSymbolTableRecord
100
AcDbDimStyleTableRecord
  2
NEWX10
 70
     0
  3
 
  4

  5

  6
OPEN30
  7
OPEN30
 40
1.0
 41
2.0
 42
0.0
 43
7.0
 44
1.0
 45
0.0
 46
0.0
 47
0.0
 48
0.0
140
3.5
141
0.0
142
0.0
143
25.4
144
1.0
145
0.0
146
0.7
147
0.7
 71
     0
 72
     0
 73
     0
 74
     0
 75
     0
 76
     0
 77
     1
 78
     8
170
     0
171
     2
172
     1
173
     1
174
     0
175
     0
176
   256
177
   256
178
   201
179
     1
270
     2
271
     2
272
     4
273
     2
274
     2
340
F
275
     0
280
     0
281
     0
282
     0
283
     1
284
     8
285
     0
286
     0
287
     3
288
     0
1001
ACADANNOTATIVE
1000
AnnotativeData
1002
{
1070
     1
1070
     0
1002
}
  0
ENDTAB
  0
TABLE
  2
BLOCK_RECORD
  5
1
330
0
100
AcDbSymbolTable
 70
     8
  0
BLOCK_RECORD
  5
18
102
{ACAD_XDICTIONARY
360
143BD
102
}
330
1
100
AcDbSymbolTableRecord
100
AcDbBlockTableRecord
  2
*MODEL_SPACE
  0
BLOCK_RECORD
  5
7DA16
102
{ACAD_XDICTIONARY
360
A337D
102
}
330
1
100
AcDbSymbolTableRecord
100
AcDbBlockTableRecord
  2
*PAPER_SPACE
  0
BLOCK_RECORD
  5
2EF
330
1
100
AcDbSymbolTableRecord
100
AcDbBlockTableRecord
  2
_OPEN30
  0
BLOCK_RECORD
  5
7CFD4
330
1
100
AcDbSymbolTableRecord
100
AcDbBlockTableRecord
  2
A3WAKUKAWAJUN2017_HYOUDAI_
  0
BLOCK_RECORD
  5
A4124
330
1
100
AcDbSymbolTableRecord
100
AcDbBlockTableRecord
  2
*X41
  0
BLOCK_RECORD
  5
A4172
330
1
100
AcDbSymbolTableRecord
100
AcDbBlockTableRecord
  2
*X42
  0
BLOCK_RECORD
  5
A41C4
330
1
100
AcDbSymbolTableRecord
100
AcDbBlockTableRecord
  2
*X43
  0
BLOCK_RECORD
  5
A4215
330
1
100
AcDbSymbolTableRecord
100
AcDbBlockTableRecord
  2
*X44
  0
BLOCK_RECORD
  5
A4252
330
1
100
AcDbSymbolTableRecord
100
AcDbBlockTableRecord
  2
*X45
  0
BLOCK_RECORD
  5
A4292
330
1
100
AcDbSymbolTableRecord
100
AcDbBlockTableRecord
  2
*X46
  0
ENDTAB
  0
ENDSEC
  0
SECTION
  2
BLOCKS
  0
BLOCK
  5
19
330
18
100
AcDbEntity
  8
0
100
AcDbBlockBegin
  2
*MODEL_SPACE
 70
     0
 10
0.0
 20
0.0
 30
0.0
  3
*MODEL_SPACE
  1

  0
ENDBLK
  5
1A
330
18
100
AcDbEntity
  8
0
100
AcDbBlockEnd
  0
BLOCK
  5
7DA18
330
7DA16
100
AcDbEntity
 67
     1
  8
0
100
AcDbBlockBegin
  2
*PAPER_SPACE
 70
     0
 10
0.0
 20
0.0
 30
0.0
  3
*PAPER_SPACE
  1

  0
ENDBLK
  5
7DA19
330
7DA16
100
AcDbEntity
 67
     1
  8
0
100
AcDbBlockEnd
  0
BLOCK
  5
2F0
330
2EF
100
AcDbEntity
  8
0
100
AcDbBlockBegin
  2
_OPEN30
 70
     0
 10
0.0
 20
0.0
 30
0.0
  3
_OPEN30
  1

  0
LINE
  5
2F1
330
2EF
100
AcDbEntity
  8
0
  6
BYBLOCK
 62
     0
100
AcDbLine
 10
-1.0
 20
0.267949
 30
0.0
 11
0.0
 21
0.0
 31
0.0
  0
LINE
  5
2F2
330
2EF
100
AcDbEntity
  8
0
  6
BYBLOCK
 62
     0
100
AcDbLine
 10
0.0
 20
0.0
 30
0.0
 11
-1.0
 21
-0.267949
 31
0.0
  0
LINE
  5
2F3
330
2EF
100
AcDbEntity
  8
0
  6
BYBLOCK
 62
     0
100
AcDbLine
 10
0.0
 20
0.0
 30
0.0
 11
-1.0
 21
0.0
 31
0.0
  0
ENDBLK
  5
2F4
330
2EF
100
AcDbEntity
  8
0
100
AcDbBlockEnd
  0
BLOCK
  5
9481F
330
7CFD4
100
AcDbEntity
  8
0
100
AcDbBlockBegin
  2
A3WAKUKAWAJUN2017_HYOUDAI_
 70
     0
 10
0.0
 20
0.0
 30
0.0
  3
A3WAKUKAWAJUN2017_HYOUDAI_
  1

  0
LINE
  5
940D1
330
7CFD4
100
AcDbEntity
  8
0
100
AcDbLine
 10
13.26299999998673
 20
-0.0001000000000317
 30
0.0
 11
9.236999999990758
 21
8.999899999990987
 31
0.0
1001
ACAD
1000
ASC_BOUNDS
1002
{
1070
    19
1005
94112
1002
}
  0
LINE
  5
940D2
330
7CFD4
100
AcDbEntity
  8
0
100
AcDbLine
 10
5.657999999994331
 20
0.9999999999989768
 30
0.0
 11
9.236999999990758
 21
8.999999999991019
 31
0.0
1001
ACAD
1000
ASC_BOUNDS
1002
{
1070
    19
1005
94112
1002
}
  0
LINE
  5
940D3
330
7CFD4
100
AcDbEntity
  8
0
100
AcDbLine
 10
18.59199999998134
 20
-0.2368999999997641
 30
0.0
 11
16.46099999998353
 21
5.432899999994561
 31
0.0
1001
ACAD
1000
ASC_BOUNDS
1002
{
1070
    19
1005
94113
1002
}
  0
LINE
  5
940D4
330
7CFD4
100
AcDbEntity
  8
0
100
AcDbLine
 10
18.59199999998134
 20
-0.2368999999997641
 30
0.0
 11
22.38199999997767
 21
8.763099999991255
 31
0.0
1001
ACAD
1000
ASC_BOUNDS
1002
{
1070
    19
1005
94113
1002
}
  0
LINE
  5
940D5
330
7CFD4
100
AcDbEntity
  8
0
100
AcDbLine
 10
14.32899999998563
 20
-0.2368999999997641
 30
0.0
 11
16.46099999998353
 21
5.432899999994561
 31
0.0
1001
ACAD
1000
ASC_BOUNDS
1002
{
1070
    19
1005
94113
1002
}
  0
LINE
  5
940D6
330
7CFD4
100
AcDbEntity
  8
0
100
AcDbLine
 10
14.32899999998563
 20
-0.2368999999997641
 30
0.0
 11
10.53899999998941
 21
8.763099999991255
 31
0.0
1001
ACAD
1000
ASC_BOUNDS
1002
{
1070
    19
1005
94113
1002
}
  0
LINE
  5
940D7
330
7CFD4
100
AcDbEntity
  8
0
100
AcDbLine
 10
19.53899999998043
 20
-0.0001000000000317
 30
0.0
 11
23.56599999997638
 21
8.999899999990987
 31
0.0
1001
ACAD
1000
ASC_BOUNDS
1002
{
1070
    19
1005
94114
1002
}
  0
LINE
  5
940D8
330
7CFD4
100
AcDbEntity
  8
0
100
AcDbLine
 10
26.97358892824991
 20
1.383099999991202
 30
0.0
 11
23.56599999997638
 21
8.999899999990987
 31
0.0
1001
ACAD
1000
ASC_BOUNDS
1002
{
1070
    19
1005
94114
1002
}
  0
LINE
  5
940D9
330
7CFD4
100
AcDbEntity
  8
0
100
AcDbLine
 10
5.657999999994331
 20
0.9999999999989768
 30
0.0
 11
3.181999999996833
 21
4.668599999995308
 31
0.0
1001
ACAD
1000
ASC_BOUNDS
1002
{
1070
    19
1005
94112
1002
}
  0
LINE
  5
940DA
330
7CFD4
100
AcDbEntity
  8
0
100
AcDbLine
 10
4.617999999995391
 20
-0.0001000000000317
 30
0.0
 11
1.420999999998571
 21
4.736799999995242
 31
0.0
1001
ACAD
1000
ASC_BOUNDS
1002
{
1070
    19
1005
94112
1002
}
  0
LINE
  5
940DB
330
7CFD4
100
AcDbEntity
  8
0
100
AcDbLine
 10
1.420999999998571
 20
8.763099999991255
 30
0.0
 11
1.420999999998571
 21
0.0
 31
0.0
1001
ACAD
1000
ASC_BOUNDS
1002
{
1070
    19
1005
94117
1002
}
  0
LINE
  5
940DC
330
7CFD4
100
AcDbEntity
  8
0
100
AcDbLine
 10
0.0
 20
8.763099999991255
 30
0.0
 11
0.0
 21
0.0
 31
0.0
1001
ACAD
1000
ASC_BOUNDS
1002
{
1070
    19
1005
94117
1002
}
  0
LINE
  5
940DD
330
7CFD4
100
AcDbEntity
  8
0
100
AcDbLine
 10
6.766999999993232
 20
-0.0001000000000317
 30
0.0
 11
7.826999999992154
 21
2.368399999997621
 31
0.0
1001
ACAD
1000
ASC_BOUNDS
1002
{
1070
    19
1005
94112
1002
}
  0
LINE
  5
940DE
330
7CFD4
100
AcDbEntity
  8
0
100
AcDbLine
 10
0.0
 20
0.0
 30
0.0
 11
1.420999999998571
 21
0.0
 31
0.0
1001
ACAD
1000
ASC_BOUNDS
1002
{
1070
    19
1005
94117
1002
}
  0
LINE
  5
940DF
330
7CFD4
100
AcDbEntity
  8
0
100
AcDbLine
 10
4.617999999995391
 20
0.0
 30
0.0
 11
6.766999999993232
 21
0.0
 31
0.0
1001
ACAD
1000
ASC_BOUNDS
1002
{
1070
    19
1005
94112
1002
}
  0
LINE
  5
940E0
330
7CFD4
100
AcDbEntity
  8
0
100
AcDbLine
 10
11.70599999998831
 20
-0.0001000000000317
 30
0.0
 11
10.64699999998936
 21
2.368399999997621
 31
0.0
1001
ACAD
1000
ASC_BOUNDS
1002
{
1070
    19
1005
94112
1002
}
  0
LINE
  5
940E1
330
7CFD4
100
AcDbEntity
  8
0
100
AcDbLine
 10
7.826999999992154
 20
2.368399999997621
 30
0.0
 11
10.64699999998936
 21
2.368399999997621
 31
0.0
1001
ACAD
1000
ASC_BOUNDS
1002
{
1070
    19
1005
94112
1002
}
  0
LINE
  5
940E2
330
7CFD4
100
AcDbEntity
  8
0
100
AcDbLine
 10
11.70599999998831
 20
0.0
 30
0.0
 11
13.26299999998673
 21
0.0
 31
0.0
1001
ACAD
1000
ASC_BOUNDS
1002
{
1070
    19
1005
94112
1002
}
  0
LINE
  5
940E3
330
7CFD4
100
AcDbEntity
  8
0
100
AcDbLine
 10
22.15599999997789
 20
2.368399999997621
 30
0.0
 11
24.97599999997499
 21
2.368399999997621
 31
0.0
1001
ACAD
1000
ASC_BOUNDS
1002
{
1070
    19
1005
94114
1002
}
  0
LINE
  5
940E4
330
7CFD4
100
AcDbEntity
  8
0
100
AcDbLine
 10
19.53899999998043
 20
0.0
 30
0.0
 11
21.09599999997886
 21
0.0
 31
0.0
1001
ACAD
1000
ASC_BOUNDS
1002
{
1070
    19
1005
94114
1002
}
  0
LINE
  5
940E5
330
7CFD4
100
AcDbEntity
  8
0
100
AcDbLine
 10
21.09599999997886
 20
-0.0001000000000317
 30
0.0
 11
22.15599999997789
 21
2.368399999997621
 31
0.0
1001
ACAD
1000
ASC_BOUNDS
1002
{
1070
    19
1005
94114
1002
}
  0
LINE
  5
940E6
330
7CFD4
100
AcDbEntity
  8
0
100
AcDbLine
 10
26.02015566812236
 20
0.0330999999912365
 30
0.0
 11
24.97599999997499
 21
2.368399999997621
 31
0.0
1001
ACAD
1000
ASC_BOUNDS
1002
{
1070
    19
1005
94114
1002
}
  0
LINE
  5
940E7
330
7CFD4
100
AcDbEntity
  8
0
100
AcDbLine
 10
14.32399999998563
 20
3.315799999996671
 30
0.0
 11
16.46099999998353
 21
8.999899999990987
 31
0.0
1001
ACAD
1000
ASC_BOUNDS
1002
{
1070
    19
1005
94113
1002
}
  0
LINE
  5
940E8
330
7CFD4
100
AcDbEntity
  8
0
100
AcDbLine
 10
6.432999999993513
 20
8.763099999991255
 30
0.0
 11
3.181999999996833
 21
4.668599999995308
 31
0.0
1001
ACAD
1000
ASC_BOUNDS
1002
{
1070
    19
1005
94112
1002
}
  0
LINE
  5
940E9
330
7CFD4
100
AcDbEntity
  8
0
100
AcDbLine
 10
4.617999999995391
 20
8.763099999991255
 30
0.0
 11
1.420999999998571
 21
4.736799999995242
 31
0.0
1001
ACAD
1000
ASC_BOUNDS
1002
{
1070
    19
1005
94112
1002
}
  0
LINE
  5
940EA
330
7CFD4
100
AcDbEntity
  8
0
100
AcDbLine
 10
0.0
 20
8.763099999991255
 30
0.0
 11
1.420999999998571
 21
8.763099999991255
 31
0.0
1001
ACAD
1000
ASC_BOUNDS
1002
{
1070
    19
1005
94117
1002
}
  0
LINE
  5
940EB
330
7CFD4
100
AcDbEntity
  8
0
100
AcDbLine
 10
4.617999999995391
 20
8.763099999991255
 30
0.0
 11
6.432999999993513
 21
8.763099999991255
 31
0.0
1001
ACAD
1000
ASC_BOUNDS
1002
{
1070
    19
1005
94112
1002
}
  0
LINE
  5
940EC
330
7CFD4
100
AcDbEntity
  8
0
100
AcDbLine
 10
14.32399999998563
 20
3.315799999996671
 30
0.0
 11
12.02999999998792
 21
8.763099999991255
 31
0.0
1001
ACAD
1000
ASC_BOUNDS
1002
{
1070
    19
1005
94113
1002
}
  0
LINE
  5
940ED
330
7CFD4
100
AcDbEntity
  8
0
100
AcDbLine
 10
10.06399999998996
 20
3.670999999996297
 30
0.0
 11
9.236999999990758
 21
5.5200999999945
 31
0.0
1001
ACAD
1000
ASC_BOUNDS
1002
{
1070
    19
1005
94112
1002
}
  0
LINE
  5
940EE
330
7CFD4
100
AcDbEntity
  8
0
100
AcDbLine
 10
8.409999999991555
 20
3.670999999996297
 30
0.0
 11
9.236999999990758
 21
5.5200999999945
 31
0.0
1001
ACAD
1000
ASC_BOUNDS
1002
{
1070
    19
1005
94112
1002
}
  0
LINE
  5
940EF
330
7CFD4
100
AcDbEntity
  8
0
100
AcDbLine
 10
8.409999999991555
 20
3.670999999996297
 30
0.0
 11
10.06399999998996
 21
3.670999999996297
 31
0.0
1001
ACAD
1000
ASC_BOUNDS
1002
{
1070
    19
1005
94112
1002
}
  0
LINE
  5
940F0
330
7CFD4
100
AcDbEntity
  8
0
100
AcDbLine
 10
10.53899999998941
 20
8.763099999991255
 30
0.0
 11
12.02999999998792
 21
8.763099999991255
 31
0.0
1001
ACAD
1000
ASC_BOUNDS
1002
{
1070
    19
1005
94113
1002
}
  0
LINE
  5
940F1
330
7CFD4
100
AcDbEntity
  8
0
100
AcDbLine
 10
22.7389999999773
 20
3.670999999996297
 30
0.0
 11
23.56599999997638
 21
5.5200999999945
 31
0.0
1001
ACAD
1000
ASC_BOUNDS
1002
{
1070
    19
1005
94114
1002
}
  0
LINE
  5
940F2
330
7CFD4
100
AcDbEntity
  8
0
100
AcDbLine
 10
22.7389999999773
 20
3.670999999996297
 30
0.0
 11
24.39299999997559
 21
3.670999999996297
 31
0.0
1001
ACAD
1000
ASC_BOUNDS
1002
{
1070
    19
1005
94114
1002
}
  0
LINE
  5
940F3
330
7CFD4
100
AcDbEntity
  8
0
100
AcDbLine
 10
18.59799999998143
 20
3.315799999996671
 30
0.0
 11
20.89099999997916
 21
8.763099999991255
 31
0.0
1001
ACAD
1000
ASC_BOUNDS
1002
{
1070
    19
1005
94113
1002
}
  0
LINE
  5
940F4
330
7CFD4
100
AcDbEntity
  8
0
100
AcDbLine
 10
18.59799999998143
 20
3.315799999996671
 30
0.0
 11
16.46099999998353
 21
8.999899999990987
 31
0.0
1001
ACAD
1000
ASC_BOUNDS
1002
{
1070
    19
1005
94113
1002
}
  0
LINE
  5
940F5
330
7CFD4
100
AcDbEntity
  8
0
100
AcDbLine
 10
20.89099999997916
 20
8.763099999991255
 30
0.0
 11
22.38199999997767
 21
8.763099999991255
 31
0.0
1001
ACAD
1000
ASC_BOUNDS
1002
{
1070
    19
1005
94113
1002
}
  0
LINE
  5
940F6
330
7CFD4
100
AcDbEntity
  8
0
100
AcDbLine
 10
24.39299999997559
 20
3.670999999996297
 30
0.0
 11
23.56599999997638
 21
5.5200999999945
 31
0.0
1001
ACAD
1000
ASC_BOUNDS
1002
{
1070
    19
1005
94114
1002
}
  0
LINE
  5
940F7
330
7CFD4
100
AcDbEntity
  8
0
100
AcDbLine
 10
44.99999999995498
 20
-0.2368999999997641
 30
0.0
 11
40.02599999995994
 21
5.341799999994635
 31
0.0
1001
ACAD
1000
ASC_BOUNDS
1002
{
1070
    19
1005
94116
1002
}
  0
LINE
  5
940F8
330
7CFD4
100
AcDbEntity
  8
0
100
AcDbLine
 10
40.02599999995994
 20
5.341799999994635
 30
0.0
 11
40.02599999995994
 21
0.0
 31
0.0
1001
ACAD
1000
ASC_BOUNDS
1002
{
1070
    19
1005
94116
1002
}
  0
LINE
  5
940F9
330
7CFD4
100
AcDbEntity
  8
0
100
AcDbLine
 10
38.60499999996136
 20
8.999999999991019
 30
0.0
 11
38.60499999996136
 21
0.0
 31
0.0
1001
ACAD
1000
ASC_BOUNDS
1002
{
1070
    19
1005
94116
1002
}
  0
LINE
  5
940FA
330
7CFD4
100
AcDbEntity
  8
0
100
AcDbLine
 10
44.99999999995498
 20
8.763099999991255
 30
0.0
 11
44.99999999995498
 21
-0.2368999999997641
 31
0.0
1001
ACAD
1000
ASC_BOUNDS
1002
{
1070
    19
1005
94116
1002
}
  0
LINE
  5
940FB
330
7CFD4
100
AcDbEntity
  8
0
100
AcDbLine
 10
38.60499999996136
 20
0.0
 30
0.0
 11
40.02599999995994
 21
0.0
 31
0.0
1001
ACAD
1000
ASC_BOUNDS
1002
{
1070
    19
1005
94116
1002
}
  0
LINE
  5
940FC
330
7CFD4
100
AcDbEntity
  8
0
100
AcDbLine
 10
43.57899999995641
 20
3.421199999996588
 30
0.0
 11
38.60499999996136
 21
8.999899999990987
 31
0.0
1001
ACAD
1000
ASC_BOUNDS
1002
{
1070
    19
1005
94116
1002
}
  0
LINE
  5
940FD
330
7CFD4
100
AcDbEntity
  8
0
100
AcDbLine
 10
43.57899999995641
 20
8.763099999991255
 30
0.0
 11
43.57899999995641
 21
3.421199999996588
 31
0.0
1001
ACAD
1000
ASC_BOUNDS
1002
{
1070
    19
1005
94116
1002
}
  0
LINE
  5
940FE
330
7CFD4
100
AcDbEntity
  8
0
100
AcDbLine
 10
43.57899999995641
 20
8.763099999991255
 30
0.0
 11
44.99999999995498
 21
8.763099999991255
 31
0.0
1001
ACAD
1000
ASC_BOUNDS
1002
{
1070
    19
1005
94116
1002
}
  0
LINE
  5
940FF
330
7CFD4
100
AcDbEntity
  8
0
100
AcDbLine
 10
37.67199999996831
 20
8.763099999991255
 30
0.0
 11
36.23199999996837
 21
8.763099999991255
 31
0.0
  0
LINE
  5
94100
330
7CFD4
100
AcDbEntity
  8
0
100
AcDbLine
 10
31.64199999996833
 20
8.763099999991255
 30
0.0
 11
31.64199999996833
 21
2.481619422925121
 31
0.0
  0
LINE
  5
94101
330
7CFD4
100
AcDbEntity
  8
0
100
AcDbLine
 10
37.67199999996831
 20
8.763099999991255
 30
0.0
 11
37.67199999996831
 21
2.481619422925121
 31
0.0
  0
LINE
  5
94102
330
7CFD4
100
AcDbEntity
  8
0
100
AcDbLine
 10
36.23199999996837
 20
8.763099999991255
 30
0.0
 11
36.23199999996837
 21
2.481619422925064
 31
0.0
  0
LINE
  5
94103
330
7CFD4
100
AcDbEntity
  8
0
100
AcDbLine
 10
33.08199999996839
 20
8.763099999991255
 30
0.0
 11
33.08199999996839
 21
2.481619422925121
 31
0.0
  0
ARC
  5
94104
330
7CFD4
100
AcDbEntity
  8
0
100
AcDbCircle
 10
34.65699999996832
 20
3.183099999991214
 30
0.0
 40
3.420000000000007
100
AcDbArc
 50
240.0000000000255
 51
299.9999999999766
  0
ARC
  5
94105
330
7CFD4
100
AcDbEntity
  8
0
100
AcDbCircle
 10
34.65699999996832
 20
3.183099999991214
 30
0.0
 40
1.97999999999999
100
AcDbArc
 50
240.000000000026
 51
299.9999999999703
  0
LINE
  5
94106
330
7CFD4
100
AcDbEntity
  8
0
100
AcDbLine
 10
33.08199999996828
 20
8.763099999991255
 30
0.0
 11
31.64199999996833
 21
8.763099999991255
 31
0.0
  0
ARC
  5
94107
330
7CFD4
100
AcDbEntity
  8
0
100
AcDbCircle
 10
35.06199999996829
 20
2.481619422925064
 30
0.0
 40
1.17
100
AcDbArc
 50
299.9999999999699
 51
0.0
  0
ARC
  5
94108
330
7CFD4
100
AcDbEntity
  8
0
100
AcDbCircle
 10
34.25199999996835
 20
2.481619422925121
 30
0.0
 40
1.17
100
AcDbArc
 50
180.0
 51
240.0000000000238
  0
ARC
  5
94109
330
7CFD4
100
AcDbEntity
  8
0
100
AcDbCircle
 10
35.06199999996841
 20
2.481619422925121
 30
0.0
 40
2.61
100
AcDbArc
 50
299.9999999999756
 51
0.0
  0
ARC
  5
9410A
330
7CFD4
100
AcDbEntity
  8
0
100
AcDbCircle
 10
34.25199999996835
 20
2.481619422925121
 30
0.0
 40
2.61
100
AcDbArc
 50
180.0
 51
240.0000000000244
  0
LINE
  5
9410B
330
7CFD4
100
AcDbEntity
  8
0
100
AcDbLine
 10
29.30199999996933
 20
8.763099999991255
 30
0.0
 11
30.74199999996927
 21
8.763099999991255
 31
0.0
1001
ACAD
1000
ASC_BOUNDS
1002
{
1070
    19
1005
94114
1002
}
  0
LINE
  5
9410C
330
7CFD4
100
AcDbEntity
  8
0
100
AcDbLine
 10
30.74199999996927
 20
8.763099999991255
 30
0.0
 11
30.74199999996927
 21
2.373099999991211
 31
0.0
1001
ACAD
1000
ASC_BOUNDS
1002
{
1070
    19
1005
94114
1002
}
  0
LINE
  5
9410D
330
7CFD4
100
AcDbEntity
  8
0
100
AcDbLine
 10
26.02015566812236
 20
0.0330999999912365
 30
0.0
 11
28.40199999996923
 21
0.0330999999912365
 31
0.0
1001
ACAD
1000
ASC_BOUNDS
1002
{
1070
    19
1005
94114
1002
}
  0
LINE
  5
9410E
330
7CFD4
100
AcDbEntity
  8
0
100
AcDbLine
 10
29.30199999996933
 20
8.763099999991255
 30
0.0
 11
29.30199999996933
 21
2.283099999991236
 31
0.0
1001
ACAD
1000
ASC_BOUNDS
1002
{
1070
    19
1005
94114
1002
}
  0
LINE
  5
9410F
330
7CFD4
100
AcDbEntity
  8
0
100
AcDbLine
 10
26.97358892824991
 20
1.383099999991202
 30
0.0
 11
28.40199999996923
 21
1.383099999991202
 31
0.0
1001
ACAD
1000
ASC_BOUNDS
1002
{
1070
    19
1005
94114
1002
}
  0
ARC
  5
94110
330
7CFD4
100
AcDbEntity
  8
0
100
AcDbCircle
 10
28.40199999996923
 20
2.283099999991236
 30
0.0
 40
0.9
100
AcDbArc
 50
270.0
 51
0.0
1001
ACAD
1000
ASC_BOUNDS
1002
{
1070
    19
1005
94114
1002
}
  0
ARC
  5
94111
330
7CFD4
100
AcDbEntity
  8
0
100
AcDbCircle
 10
28.40199999996923
 20
2.373099999991211
 30
0.0
 40
2.34
100
AcDbArc
 50
270.0
 51
0.0
1001
ACAD
1000
ASC_BOUNDS
1002
{
1070
    19
1005
94114
1002
}
  0
INSERT
  5
94112
330
7CFD4
100
AcDbEntity
  8
0
100
AcDbBlockReference
  2
*X41
 10
0.0
 20
0.0
 30
0.0
1001
ACAD
1000
HATCH
1002
{
1070
    19
1000
ANSI37
1040
0.15
1040
0.0
1000
ASC_BOUNDS
1070
     2
1070
     2
1070
    12
1005
940D1
1005
940D2
1005
940D9
1005
940E8
1005
940EB
1005
940E9
1005
940DA
1005
940DF
1005
940DD
1005
940E1
1005
940E0
1005
940E2
1070
     2
1070
     3
1005
940ED
1005
940EF
1005
940EE
1000
ASC_SEEDPOINT
1011
3.614004224891801
1021
2.996669441146025
1031
0.0
1000
R14_HATCH_DATA
1000
94112
1011
1.0
1021
0.0
1031
0.0
1011
0.0
1021
1.0
1031
0.0
1011
0.0
1021
0.0
1031
1.0
1040
0.0
1010
0.0
1020
0.0
1030
1.0
1000
ANSI37
1070
     0
1070
     1
1071
        2
1071
        7
1070
     0
1070
     1
1071
       17
1040
13.26299999998673
1040
-0.0001000000000317
1040
9.236999999990758
1040
8.999899999990987
1040
9.236999999990758
1040
8.999999999991019
1040
5.657999999994331
1040
0.9999999999989768
1040
3.181999999996833
1040
4.668599999995308
1040
6.432999999993513
1040
8.763099999991255
1040
4.617999999995391
1040
8.763099999991255
1040
1.420999999998571
1040
4.736799999995242
1040
4.617999999995391
1040
-0.0001000000000317
1040
4.617999999995391
1040
0.0
1040
6.766999999993232
1040
0.0
1040
6.766999999993232
1040
-0.0001000000000317
1040
7.826999999992154
1040
2.368399999997621
1040
10.64699999998936
1040
2.368399999997621
1040
11.70599999998831
1040
-0.0001000000000317
1040
11.70599999998831
1040
0.0
1040
13.26299999998673
1040
0.0
1071
       12
1005
940D1
1005
940D2
1005
940D9
1005
940E8
1005
940EB
1005
940E9
1005
940DA
1005
940DF
1005
940DD
1005
940E1
1005
940E0
1005
940E2
1071
       22
1070
     0
1070
     1
1071
        3
1040
9.236999999990758
1040
5.5200999999945
1040
10.06399999998996
1040
3.670999999996297
1040
8.409999999991555
1040
3.670999999996297
1071
        3
1005
940ED
1005
940EF
1005
940EE
1070
     0
1070
     1
1040
0.0
1040
0.15
1070
     0
1070
     2
1040
0.7853981633974483
1040
49.29960901727088
1040
-10.17736998311392
1040
-0.3367596045400932
1040
0.3367596045400932
1070
     0
1040
2.356194490192345
1040
49.29960901727088
1040
-10.17736998311392
1040
-0.3367596045400932
1040
-0.3367596045400932
1070
     0
1040
0.0110235143455945
1071
        2
1040
3.614004224891801
1040
2.996669441146025
1040
0.0
1040
3.614004224891801
1040
2.996669441146025
1040
0.0
1002
}
  0
INSERT
  5
94113
330
7CFD4
100
AcDbEntity
  8
0
100
AcDbBlockReference
  2
*X42
 10
0.0
 20
0.0
 30
0.0
1001
ACAD
1000
HATCH
1002
{
1070
    19
1000
ANSI37
1040
0.15
1040
0.0
1000
ASC_BOUNDS
1070
     1
1070
     2
1070
    10
1005
940D3
1005
940D4
1005
940F5
1005
940F3
1005
940F4
1005
940E7
1005
940EC
1005
940F0
1005
940D6
1005
940D5
1000
ASC_SEEDPOINT
1011
14.73245321214324
1021
2.798246178283421
1031
0.0
1000
R14_HATCH_DATA
1000
94113
1011
1.0
1021
0.0
1031
0.0
1011
0.0
1021
1.0
1031
0.0
1011
0.0
1021
0.0
1031
1.0
1040
0.0
1010
0.0
1020
0.0
1030
1.0
1000
ANSI37
1070
     0
1070
     1
1071
        1
1071
        7
1070
     0
1070
     1
1071
       10
1040
16.46099999998353
1040
5.432899999994561
1040
18.59199999998134
1040
-0.2368999999997641
1040
22.38199999997767
1040
8.763099999991255
1040
20.89099999997916
1040
8.763099999991255
1040
18.59799999998143
1040
3.315799999996671
1040
16.46099999998353
1040
8.999899999990987
1040
14.32399999998563
1040
3.315799999996671
1040
12.02999999998792
1040
8.763099999991255
1040
10.53899999998941
1040
8.763099999991255
1040
14.32899999998563
1040
-0.2368999999997641
1071
       10
1005
940D3
1005
940D4
1005
940F5
1005
940F3
1005
940F4
1005
940E7
1005
940EC
1005
940F0
1005
940D6
1005
940D5
1070
     0
1070
     1
1040
0.0
1040
0.15
1070
     0
1070
     2
1040
0.7853981633974483
1040
49.29960901727088
1040
-10.17736998311392
1040
-0.3367596045400932
1040
0.3367596045400932
1070
     0
1040
2.356194490192345
1040
49.29960901727088
1040
-10.17736998311392
1040
-0.3367596045400932
1040
-0.3367596045400932
1070
     0
1040
0.0110235143455945
1071
        1
1040
14.73245321214324
1040
2.798246178283421
1040
0.0
1002
}
  0
INSERT
  5
94114
330
7CFD4
100
AcDbEntity
  8
0
100
AcDbBlockReference
  2
*X43
 10
0.0
 20
0.0
 30
0.0
1001
ACAD
1000
HATCH
1002
{
1070
    19
1000
ANSI37
1040
0.15
1040
0.0
1000
ASC_BOUNDS
1070
     2
1070
     2
1070
    13
1005
940D7
1005
940E4
1005
940E5
1005
940E3
1005
940E6
1005
9410D
1005
94111
1005
9410C
1005
9410B
1005
9410E
1005
94110
1005
9410F
1005
940D8
1070
     2
1070
     3
1005
940F1
1005
940F6
1005
940F2
1000
ASC_SEEDPOINT
1011
21.97929957367762
1021
3.294304244259308
1031
0.0
1000
R14_HATCH_DATA
1000
94114
1011
1.0
1021
0.0
1031
0.0
1011
0.0
1021
1.0
1031
0.0
1011
0.0
1021
0.0
1031
1.0
1040
0.0
1010
0.0
1020
0.0
1030
1.0
1000
ANSI37
1070
     0
1070
     1
1071
        2
1071
        7
1070
     1
1070
     1
1071
       15
1040
23.56599999997638
1040
8.999899999990987
1040
0.0
1040
19.53899999998043
1040
-0.0001000000000317
1040
0.0
1040
19.53899999998043
1040
0.0
1040
0.0
1040
21.09599999997886
1040
0.0
1040
0.0
1040
21.09599999997886
1040
-0.0001000000000317
1040
0.0
1040
22.15599999997789
1040
2.368399999997621
1040
0.0
1040
24.97599999997499
1040
2.368399999997621
1040
0.0
1040
26.02015566812236
1040
0.0330999999912365
1040
0.0
1040
28.40199999996923
1040
0.0330999999912365
1040
0.414213562373095
1040
30.74199999996923
1040
2.373099999991211
1040
0.0
1040
30.74199999996927
1040
8.763099999991255
1040
0.0
1040
29.30199999996933
1040
8.763099999991255
1040
0.0
1040
29.30199999996933
1040
2.283099999991236
1040
-0.414213562373095
1040
28.40199999996923
1040
1.383099999991237
1040
0.0
1040
26.97358892824991
1040
1.383099999991202
1040
0.0
1071
       13
1005
940D7
1005
940E4
1005
940E5
1005
940E3
1005
940E6
1005
9410D
1005
94111
1005
9410C
1005
9410B
1005
9410E
1005
94110
1005
9410F
1005
940D8
1071
       22
1070
     0
1070
     1
1071
        3
1040
22.7389999999773
1040
3.670999999996297
1040
23.56599999997638
1040
5.5200999999945
1040
24.39299999997559
1040
3.670999999996297
1071
        3
1005
940F1
1005
940F6
1005
940F2
1070
     0
1070
     1
1040
0.0
1040
0.15
1070
     0
1070
     2
1040
0.7853981633974483
1040
49.29960901727088
1040
-10.17736998311392
1040
-0.3367596045400932
1040
0.3367596045400932
1070
     0
1040
2.356194490192345
1040
49.29960901727088
1040
-10.17736998311392
1040
-0.3367596045400932
1040
-0.3367596045400932
1070
     0
1040
0.0110235143455945
1071
        2
1040
21.97929957367762
1040
3.294304244259308
1040
0.0
1040
21.97929957367762
1040
3.294304244259308
1040
0.0
1002
}
  0
INSERT
  5
94115
330
7CFD4
100
AcDbEntity
  8
0
100
AcDbBlockReference
  2
*X44
 10
0.0
 20
0.0
 30
0.0
1001
ACAD
1000
HATCH
1002
{
1070
    19
1000
ANSI37
1040
0.15
1040
0.0
1000
R14_HATCH_DATA
1000
94115
1011
1.0
1021
0.0
1031
0.0
1011
0.0
1021
1.0
1031
0.0
1011
0.0
1021
0.0
1031
1.0
1040
0.0
1010
0.0
1020
0.0
1030
1.0
1000
ANSI37
1070
     0
1070
     1
1071
        1
1071
        7
1070
     1
1070
     1
1071
       12
1040
31.64199999996833
1040
2.481619422925121
1040
0.2679491924310942
1040
32.94699999997067
1040
0.2212931190493919
1040
0.2679491924301353
1040
36.36699999995983
1040
0.2212931190459813
1040
0.2679491924321411
1040
37.67199999996831
1040
2.481619422928361
1040
0.0
1040
37.67199999996831
1040
8.763099999991255
1040
0.0
1040
36.23199999996837
1040
8.763099999991255
1040
0.0
1040
36.23199999996837
1040
2.481619422925064
1040
-0.2679491924310291
1040
35.64699999996708
1040
1.468369700498386
1040
-0.267949192430519
1040
33.66699999997093
1040
1.468369700497703
1040
-0.267949192431809
1040
33.08199999996839
1040
2.481619422926997
1040
0.0
1040
33.08199999996839
1040
8.763099999991255
1040
0.0
1040
31.64199999996833
1040
8.763099999991255
1040
0.0
1071
        0
1070
     0
1070
     1
1040
0.0
1040
0.15
1070
     0
1070
     2
1040
0.7853981633974483
1040
49.29960901727088
1040
-10.17736998311392
1040
-0.3367596045400932
1040
0.3367596045400932
1070
     0
1040
2.356194490192345
1040
49.29960901727088
1040
-10.17736998311392
1040
-0.3367596045400932
1040
-0.3367596045400932
1070
     0
1040
0.0110235143455945
1071
        1
1040
32.30357378967278
1040
3.988785755459219
1040
0.0
1002
}
  0
INSERT
  5
94116
330
7CFD4
100
AcDbEntity
  8
0
100
AcDbBlockReference
  2
*X45
 10
0.0
 20
0.0
 30
0.0
1001
ACAD
1000
HATCH
1002
{
1070
    19
1000
ANSI37
1040
0.15
1040
0.0
1000
ASC_BOUNDS
1070
     1
1070
     2
1070
     8
1005
940F7
1005
940FA
1005
940FE
1005
940FD
1005
940FC
1005
940F9
1005
940FB
1005
940F8
1000
ASC_SEEDPOINT
1011
39.74896370716704
1021
4.484843821435049
1031
0.0
1000
R14_HATCH_DATA
1000
94116
1011
1.0
1021
0.0
1031
0.0
1011
0.0
1021
1.0
1031
0.0
1011
0.0
1021
0.0
1031
1.0
1040
0.0
1010
0.0
1020
0.0
1030
1.0
1000
ANSI37
1070
     0
1070
     1
1071
        1
1071
        7
1070
     0
1070
     1
1071
        9
1040
40.02599999995994
1040
5.341799999994635
1040
44.99999999995498
1040
-0.2368999999997641
1040
44.99999999995498
1040
8.763099999991255
1040
43.57899999995641
1040
8.763099999991255
1040
43.57899999995641
1040
3.421199999996588
1040
38.60499999996136
1040
8.999899999990987
1040
38.60499999996136
1040
8.999999999991019
1040
38.60499999996136
1040
0.0
1040
40.02599999995994
1040
0.0
1071
        8
1005
940F7
1005
940FA
1005
940FE
1005
940FD
1005
940FC
1005
940F9
1005
940FB
1005
940F8
1070
     0
1070
     1
1040
0.0
1040
0.15
1070
     0
1070
     2
1040
0.7853981633974483
1040
49.29960901727088
1040
-10.17736998311392
1040
-0.3367596045400932
1040
0.3367596045400932
1070
     0
1040
2.356194490192345
1040
49.29960901727088
1040
-10.17736998311392
1040
-0.3367596045400932
1040
-0.3367596045400932
1070
     0
1040
0.0110235143455945
1071
        1
1040
39.74896370716704
1040
4.484843821435049
1040
0.0
1002
}
  0
INSERT
  5
94117
330
7CFD4
100
AcDbEntity
  8
0
100
AcDbBlockReference
  2
*X46
 10
0.0
 20
0.0
 30
0.0
1001
ACAD
1000
HATCH
1002
{
1070
    19
1000
ANSI37
1040
0.15
1040
0.0
1000
ASC_BOUNDS
1070
     1
1070
     2
1070
     4
1005
940DB
1005
940EA
1005
940DC
1005
940DE
1000
ASC_SEEDPOINT
1011
1.079051535452663
1021
4.148538732891836
1031
0.0
1000
R14_HATCH_DATA
1000
94117
1011
1.0
1021
0.0
1031
0.0
1011
0.0
1021
1.0
1031
0.0
1011
0.0
1021
0.0
1031
1.0
1040
0.0
1010
0.0
1020
0.0
1030
1.0
1000
ANSI37
1070
     0
1070
     1
1071
        1
1071
        7
1070
     0
1070
     1
1071
        4
1040
1.420999999998571
1040
0.0
1040
1.420999999998571
1040
8.763099999991255
1040
0.0
1040
8.763099999991255
1040
0.0
1040
0.0
1071
        4
1005
940DB
1005
940EA
1005
940DC
1005
940DE
1070
     0
1070
     1
1040
0.0
1040
0.15
1070
     0
1070
     2
1040
0.7853981633974483
1040
49.29960901727088
1040
-10.17736998311392
1040
-0.3367596045400932
1040
0.3367596045400932
1070
     0
1040
2.356194490192345
1040
49.29960901727088
1040
-10.17736998311392
1040
-0.3367596045400932
1040
-0.3367596045400932
1070
     0
1040
0.0053004257112761
1071
        1
1040
1.079051535452663
1040
4.148538732891836
1040
0.0
1002
}
  0
ENDBLK
  5
94820
330
7CFD4
100
AcDbEntity
  8
0
100
AcDbBlockEnd
  0
BLOCK
  5
A42B2
330
A4124
100
AcDbEntity
  8
0
100
AcDbBlockBegin
  2
*X41
 70
     1
 10
0.0
 20
0.0
 30
0.0
  3
*X41
  1

  0
LINE
  5
A4125
330
A4124
100
AcDbEntity
  8
0
  6
CONTINUOUS
100
AcDbLine
 10
3.418023043697893
 20
7.251849696850613
 30
0.0
 11
4.929273346838536
 21
8.763099999991255
 31
0.0
  0
LINE
  5
A4126
330
A4124
100
AcDbEntity
  8
0
  6
CONTINUOUS
100
AcDbLine
 10
1.483656411257782
 20
4.643963855330318
 30
0.0
 11
5.60279255591872
 21
8.763099999991255
 31
0.0
  0
LINE
  5
A4127
330
A4124
100
AcDbEntity
  8
0
  6
CONTINUOUS
100
AcDbLine
 10
1.755053947328235
 20
4.241842182320584
 30
0.0
 11
6.276311764998907
 21
8.763099999991255
 31
0.0
  0
LINE
  5
A4128
330
A4124
100
AcDbEntity
  8
0
  6
CONTINUOUS
100
AcDbLine
 10
2.026451483398688
 20
3.839720509310849
 30
0.0
 11
4.441040904851878
 21
6.254309930764039
 31
0.0
  0
LINE
  5
A4129
330
A4124
100
AcDbEntity
  8
0
  6
CONTINUOUS
100
AcDbLine
 10
2.297849019469139
 20
3.437598836301114
 30
0.0
 11
3.321765168359338
 21
4.461514985191313
 31
0.0
  0
LINE
  5
A412A
330
A4124
100
AcDbEntity
  8
0
  6
CONTINUOUS
100
AcDbLine
 10
2.569246555539591
 20
3.03547716329138
 30
0.0
 11
3.593163397972743
 21
4.059394005724531
 31
0.0
  0
LINE
  5
A412B
330
A4124
100
AcDbEntity
  8
0
  6
CONTINUOUS
100
AcDbLine
 10
2.840644091610043
 20
2.633355490281646
 30
0.0
 11
3.864561627586149
 21
3.657273026257751
 31
0.0
  0
LINE
  5
A412C
330
A4124
100
AcDbEntity
  8
0
  6
CONTINUOUS
100
AcDbLine
 10
3.112041627680496
 20
2.231233817271911
 30
0.0
 11
4.135959857199554
 21
3.25515204679097
 31
0.0
  0
LINE
  5
A412D
330
A4124
100
AcDbEntity
  8
0
  6
CONTINUOUS
100
AcDbLine
 10
3.383439163750948
 20
1.829112144262177
 30
0.0
 11
4.40735808681296
 21
2.853031067324189
 31
0.0
  0
LINE
  5
A412E
330
A4124
100
AcDbEntity
  8
0
  6
CONTINUOUS
100
AcDbLine
 10
3.654836699821399
 20
1.426990471252442
 30
0.0
 11
4.678756316426365
 21
2.450910087857407
 31
0.0
  0
LINE
  5
A412F
330
A4124
100
AcDbEntity
  8
0
  6
CONTINUOUS
100
AcDbLine
 10
3.926234235891853
 20
1.024868798242709
 30
0.0
 11
4.95015454603977
 21
2.048789108390626
 31
0.0
  0
LINE
  5
A4130
330
A4124
100
AcDbEntity
  8
0
  6
CONTINUOUS
100
AcDbLine
 10
4.197631771962304
 20
0.6227471252329737
 30
0.0
 11
5.221552775653176
 21
1.646668128923846
 31
0.0
  0
LINE
  5
A4131
330
A4124
100
AcDbEntity
  8
0
  6
CONTINUOUS
100
AcDbLine
 10
8.715877546767851
 20
7.835069736359266
 30
0.0
 11
9.435953450375058
 21
8.555145639966472
 31
0.0
  0
LINE
  5
A4132
330
A4124
100
AcDbEntity
  8
0
  6
CONTINUOUS
100
AcDbLine
 10
8.170620868422267
 20
6.616293848933497
 30
0.0
 11
9.644120833743461
 21
8.08979381425469
 31
0.0
  0
LINE
  5
A4133
330
A4124
100
AcDbEntity
  8
0
  6
CONTINUOUS
100
AcDbLine
 10
7.625364190076684
 20
5.397517961507727
 30
0.0
 11
9.852288217111864
 21
7.624441988542907
 31
0.0
  0
LINE
  5
A4134
330
A4124
100
AcDbEntity
  8
0
  6
CONTINUOUS
100
AcDbLine
 10
7.080107511731101
 20
4.178742074081957
 30
0.0
 11
10.06045560048027
 21
7.159090162831124
 31
0.0
  0
LINE
  5
A4135
330
A4124
100
AcDbEntity
  8
0
  6
CONTINUOUS
100
AcDbLine
 10
6.534850833385518
 20
2.959966186656187
 30
0.0
 11
10.26862298384867
 21
6.693738337119342
 31
0.0
  0
LINE
  5
A4136
330
A4124
100
AcDbEntity
  8
0
  6
CONTINUOUS
100
AcDbLine
 10
4.469029308032756
 20
0.2206254522232385
 30
0.0
 11
5.492951005266582
 21
1.244547149457064
 31
0.0
  0
LINE
  5
A4137
330
A4124
100
AcDbEntity
  8
0
  6
CONTINUOUS
100
AcDbLine
 10
5.989594155039935
 20
1.741190299230417
 30
0.0
 11
8.806950407233131
 21
4.558546551423613
 31
0.0
  0
LINE
  5
A4138
330
A4124
100
AcDbEntity
  8
0
  6
CONTINUOUS
100
AcDbLine
 10
9.401251593263643
 20
5.152847737454126
 30
0.0
 11
10.47679036721708
 21
6.228386511407559
 31
0.0
  0
LINE
  5
A4139
330
A4124
100
AcDbEntity
  8
0
  6
CONTINUOUS
100
AcDbLine
 10
4.921837203428691
 20
-0.0000858614610131
 30
0.0
 11
8.592923064886001
 21
3.670999999996297
 31
0.0
  0
LINE
  5
A413A
330
A4124
100
AcDbEntity
  8
0
  6
CONTINUOUS
100
AcDbLine
 10
9.609390446785305
 20
4.6874673818956
 30
0.0
 11
10.68495775058548
 21
5.763034685695775
 31
0.0
  0
LINE
  5
A413B
330
A4124
100
AcDbEntity
  8
0
  6
CONTINUOUS
100
AcDbLine
 10
5.595387755019432
 20
-0.0000545189504582
 30
0.0
 11
7.716137258923768
 21
2.120694984953879
 31
0.0
  0
LINE
  5
A413C
330
A4124
100
AcDbEntity
  8
0
  6
CONTINUOUS
100
AcDbLine
 10
6.268938306610172
 20
-0.000023176439905
 30
0.0
 11
7.170485805526503
 21
0.9015243224764267
 31
0.0
  0
LINE
  5
A413D
330
A4124
100
AcDbEntity
  8
0
  6
CONTINUOUS
100
AcDbLine
 10
7.963842273967511
 20
2.368399999997621
 30
0.0
 11
9.266442273966188
 21
3.670999999996297
 31
0.0
  0
LINE
  5
A413E
330
A4124
100
AcDbEntity
  8
0
  6
CONTINUOUS
100
AcDbLine
 10
8.637361483047696
 20
2.368399999997621
 30
0.0
 11
9.939961483046375
 21
3.670999999996297
 31
0.0
  0
LINE
  5
A413F
330
A4124
100
AcDbEntity
  8
0
  6
CONTINUOUS
100
AcDbLine
 10
9.817529300306965
 20
4.222087026337075
 30
0.0
 11
10.89312513395388
 21
5.297682859983993
 31
0.0
  0
LINE
  5
A4140
330
A4124
100
AcDbEntity
  8
0
  6
CONTINUOUS
100
AcDbLine
 10
10.02566815382863
 20
3.756706670778549
 30
0.0
 11
11.10129251732229
 21
4.832331034272211
 31
0.0
  0
LINE
  5
A4141
330
A4124
100
AcDbEntity
  8
0
  6
CONTINUOUS
100
AcDbLine
 10
9.310880692127883
 20
2.368399999997621
 30
0.0
 11
11.30945990069069
 21
4.366979208560428
 31
0.0
  0
LINE
  5
A4142
330
A4124
100
AcDbEntity
  8
0
  6
CONTINUOUS
100
AcDbLine
 10
9.98439990120807
 20
2.36839999999762
 30
0.0
 11
11.5176272840591
 21
3.901627382848645
 31
0.0
  0
LINE
  5
A4143
330
A4124
100
AcDbEntity
  8
0
  6
CONTINUOUS
100
AcDbLine
 10
10.65037369446246
 20
2.36085458417182
 30
0.0
 11
11.7257946674275
 21
3.436275557136862
 31
0.0
  0
LINE
  5
A4144
330
A4124
100
AcDbEntity
  8
0
  6
CONTINUOUS
100
AcDbLine
 10
10.85847197087848
 20
1.895433651507656
 30
0.0
 11
11.9339620507959
 21
2.97092373142508
 31
0.0
  0
LINE
  5
A4145
330
A4124
100
AcDbEntity
  8
0
  6
CONTINUOUS
100
AcDbLine
 10
11.0665702472945
 20
1.430012718843491
 30
0.0
 11
12.14212943416431
 21
2.505571905713296
 31
0.0
  0
LINE
  5
A4146
330
A4124
100
AcDbEntity
  8
0
  6
CONTINUOUS
100
AcDbLine
 10
11.27466852371052
 20
0.9645917861793256
 30
0.0
 11
12.35029681753271
 21
2.040220080001513
 31
0.0
  0
LINE
  5
A4147
330
A4124
100
AcDbEntity
  8
0
  6
CONTINUOUS
100
AcDbLine
 10
11.48276680012654
 20
0.4991708535151611
 30
0.0
 11
12.55846420090111
 21
1.57486825428973
 31
0.0
  0
LINE
  5
A4148
330
A4124
100
AcDbEntity
  8
0
  6
CONTINUOUS
100
AcDbLine
 10
11.69086507654257
 20
0.0337499208509957
 30
0.0
 11
12.76663158426952
 21
1.109516428577947
 31
0.0
  0
LINE
  5
A4149
330
A4124
100
AcDbEntity
  8
0
  6
CONTINUOUS
100
AcDbLine
 10
12.33057447873954
 20
-0.0000598860322123
 30
0.0
 11
12.97479896763792
 21
0.6441646028661663
 31
0.0
  0
LINE
  5
A414A
330
A4124
100
AcDbEntity
  8
0
  6
CONTINUOUS
100
AcDbLine
 10
13.00413694809395
 20
-0.0000166257579952
 30
0.0
 11
13.18296635100632
 21
0.1788127771543824
 31
0.0
  0
LINE
  5
A414B
330
A4124
100
AcDbEntity
  8
0
  6
CONTINUOUS
100
AcDbLine
 10
4.772852165289667
 20
-0.000092794222212
 30
0.0
 11
4.296495091028902
 21
0.4762642800385528
 31
0.0
  0
LINE
  5
A414C
330
A4124
100
AcDbEntity
  8
0
  6
CONTINUOUS
100
AcDbLine
 10
5.446340034776103
 20
-0.0000614546284616
 30
0.0
 11
2.898195908335625
 21
2.548082671812017
 31
0.0
  0
LINE
  5
A414D
330
A4124
100
AcDbEntity
  8
0
  6
CONTINUOUS
100
AcDbLine
 10
6.119827904262539
 20
-0.0000301150347113
 30
0.0
 11
1.499896725642348
 21
4.61990106358548
 31
0.0
  0
LINE
  5
A414E
330
A4124
100
AcDbEntity
  8
0
  6
CONTINUOUS
100
AcDbLine
 10
6.775136745476159
 20
0.0181802528318542
 30
0.0
 11
5.699826040202669
 21
1.093490958105344
 31
0.0
  0
LINE
  5
A414F
330
A4124
100
AcDbEntity
  8
0
  6
CONTINUOUS
100
AcDbLine
 10
6.983376846288489
 20
0.4834593610997118
 30
0.0
 11
5.908008617934405
 21
1.558827589453796
 31
0.0
  0
LINE
  5
A4150
330
A4124
100
AcDbEntity
  8
0
  6
CONTINUOUS
100
AcDbLine
 10
5.377063484962296
 20
1.416253513345719
 30
0.0
 11
1.702276957014131
 21
5.091040041293883
 31
0.0
  0
LINE
  5
A4151
330
A4124
100
AcDbEntity
  8
0
  6
CONTINUOUS
100
AcDbLine
 10
3.978745891735324
 20
3.488090315652877
 30
0.0
 11
2.000373521109399
 21
5.466462686278803
 31
0.0
  0
LINE
  5
A4152
330
A4124
100
AcDbEntity
  8
0
  6
CONTINUOUS
100
AcDbLine
 10
7.191616947100819
 20
0.948738469367568
 30
0.0
 11
6.11619119566614
 21
2.024164220802247
 31
0.0
  0
LINE
  5
A4153
330
A4124
100
AcDbEntity
  8
0
  6
CONTINUOUS
100
AcDbLine
 10
7.399857047913149
 20
1.414017577635424
 30
0.0
 11
6.324373773397875
 21
2.489500852150698
 31
0.0
  0
LINE
  5
A4154
330
A4124
100
AcDbEntity
  8
0
  6
CONTINUOUS
100
AcDbLine
 10
7.608097148725479
 20
1.879296685903281
 30
0.0
 11
6.53255635112961
 21
2.95483748349915
 31
0.0
  0
LINE
  5
A4155
330
A4124
100
AcDbEntity
  8
0
  6
CONTINUOUS
100
AcDbLine
 10
7.816337249537808
 20
2.344575794171138
 30
0.0
 11
6.740738928861345
 21
3.420174114847601
 31
0.0
  0
LINE
  5
A4156
330
A4124
100
AcDbEntity
  8
0
  6
CONTINUOUS
100
AcDbLine
 10
3.310241080789734
 20
4.830114335678653
 30
0.0
 11
2.298470085204666
 21
5.84188533126372
 31
0.0
  0
LINE
  5
A4157
330
A4124
100
AcDbEntity
  8
0
  6
CONTINUOUS
100
AcDbLine
 10
3.60832983563551
 20
5.205544789913063
 30
0.0
 11
2.596566649299935
 21
6.217307976248638
 31
0.0
  0
LINE
  5
A4158
330
A4124
100
AcDbEntity
  8
0
  6
CONTINUOUS
100
AcDbLine
 10
3.906418590481286
 20
5.580975244147473
 30
0.0
 11
2.894663213395203
 21
6.592730621233557
 31
0.0
  0
LINE
  5
A4159
330
A4124
100
AcDbEntity
  8
0
  6
CONTINUOUS
100
AcDbLine
 10
4.204507345327062
 20
5.956405698381884
 30
0.0
 11
3.192759777490472
 21
6.968153266218474
 31
0.0
  0
LINE
  5
A415A
330
A4124
100
AcDbEntity
  8
0
  6
CONTINUOUS
100
AcDbLine
 10
8.466032252791512
 20
2.368399999997621
 30
0.0
 11
6.948921506593081
 21
3.885510746196053
 31
0.0
  0
LINE
  5
A415B
330
A4124
100
AcDbEntity
  8
0
  6
CONTINUOUS
100
AcDbLine
 10
9.139551461871699
 20
2.36839999999762
 30
0.0
 11
7.157104084324816
 21
4.350847377544504
 31
0.0
  0
LINE
  5
A415C
330
A4124
100
AcDbEntity
  8
0
  6
CONTINUOUS
100
AcDbLine
 10
4.502596100172839
 20
6.331836152616295
 30
0.0
 11
3.49085634158574
 21
7.343575911203393
 31
0.0
  0
LINE
  5
A415D
330
A4124
100
AcDbEntity
  8
0
  6
CONTINUOUS
100
AcDbLine
 10
4.800684855018615
 20
6.707266606850705
 30
0.0
 11
3.788952905681008
 21
7.718998556188312
 31
0.0
  0
LINE
  5
A415E
330
A4124
100
AcDbEntity
  8
0
  6
CONTINUOUS
100
AcDbLine
 10
12.18154012887317
 20
-0.0000694579236642
 30
0.0
 11
11.32140332908496
 21
0.8600673418645499
 31
0.0
  0
LINE
  5
A415F
330
A4124
100
AcDbEntity
  8
0
  6
CONTINUOUS
100
AcDbLine
 10
12.85501608323566
 20
-0.0000262032059659
 30
0.0
 11
10.77672456435345
 21
2.078265315676246
 31
0.0
  0
LINE
  5
A4160
330
A4124
100
AcDbEntity
  8
0
  6
CONTINUOUS
100
AcDbLine
 10
9.813070670951886
 20
2.36839999999762
 30
0.0
 11
8.51047067095321
 21
3.670999999996297
 31
0.0
  0
LINE
  5
A4161
330
A4124
100
AcDbEntity
  8
0
  6
CONTINUOUS
100
AcDbLine
 10
10.48658988003207
 20
2.36839999999762
 30
0.0
 11
9.183989880033396
 21
3.670999999996297
 31
0.0
  0
LINE
  5
A4162
330
A4124
100
AcDbEntity
  8
0
  6
CONTINUOUS
100
AcDbLine
 10
8.441048632286794
 20
3.740422038662712
 30
0.0
 11
7.365286662056551
 21
4.816184008892956
 31
0.0
  0
LINE
  5
A4163
330
A4124
100
AcDbEntity
  8
0
  6
CONTINUOUS
100
AcDbLine
 10
8.649187485808454
 20
4.205802394221237
 30
0.0
 11
7.573469239788285
 21
5.281520640241407
 31
0.0
  0
LINE
  5
A4164
330
A4124
100
AcDbEntity
  8
0
  6
CONTINUOUS
100
AcDbLine
 10
5.098773609864391
 20
7.082697061085115
 30
0.0
 11
4.087049469776277
 21
8.09442120117323
 31
0.0
  0
LINE
  5
A4165
330
A4124
100
AcDbEntity
  8
0
  6
CONTINUOUS
100
AcDbLine
 10
5.396862364710167
 20
7.458127515319526
 30
0.0
 11
4.385146033871544
 21
8.469843846158149
 31
0.0
  0
LINE
  5
A4166
330
A4124
100
AcDbEntity
  8
0
  6
CONTINUOUS
100
AcDbLine
 10
13.04801363231285
 20
0.4804954567970334
 30
0.0
 11
9.85750908911358
 21
3.670999999996297
 31
0.0
  0
LINE
  5
A4167
330
A4124
100
AcDbEntity
  8
0
  6
CONTINUOUS
100
AcDbLine
 10
8.857326339330116
 20
4.671182749779763
 30
0.0
 11
7.781651817520021
 21
5.746857271589858
 31
0.0
  0
LINE
  5
A4168
330
A4124
100
AcDbEntity
  8
0
  6
CONTINUOUS
100
AcDbLine
 10
5.694951119555943
 20
7.833557969553937
 30
0.0
 11
4.765409089118624
 21
8.763099999991255
 31
0.0
  0
LINE
  5
A4169
330
A4124
100
AcDbEntity
  8
0
  6
CONTINUOUS
100
AcDbLine
 10
12.50286117236978
 20
1.699167125820288
 30
0.0
 11
9.68611877250287
 21
4.515909525687196
 31
0.0
  0
LINE
  5
A416A
330
A4124
100
AcDbEntity
  8
0
  6
CONTINUOUS
100
AcDbLine
 10
9.065465192851777
 20
5.136563105338288
 30
0.0
 11
7.989834395251757
 21
6.21219390293831
 31
0.0
  0
LINE
  5
A416B
330
A4124
100
AcDbEntity
  8
0
  6
CONTINUOUS
100
AcDbLine
 10
5.993039874401719
 20
8.208988423788346
 30
0.0
 11
5.43892829819881
 21
8.763099999991255
 31
0.0
  0
LINE
  5
A416C
330
A4124
100
AcDbEntity
  8
0
  6
CONTINUOUS
100
AcDbLine
 10
11.95770871242671
 20
2.917838794843543
 30
0.0
 11
8.19801697298349
 21
6.677530534286761
 31
0.0
  0
LINE
  5
A416D
330
A4124
100
AcDbEntity
  8
0
  6
CONTINUOUS
100
AcDbLine
 10
6.291128629247495
 20
8.584418878022756
 30
0.0
 11
6.112447507278997
 21
8.763099999991255
 31
0.0
  0
LINE
  5
A416E
330
A4124
100
AcDbEntity
  8
0
  6
CONTINUOUS
100
AcDbLine
 10
11.41255625248364
 20
4.136510463866797
 30
0.0
 11
8.406199550715227
 21
7.142867165635211
 31
0.0
  0
LINE
  5
A416F
330
A4124
100
AcDbEntity
  8
0
  6
CONTINUOUS
100
AcDbLine
 10
10.86740379254057
 20
5.355182132890051
 30
0.0
 11
8.614382128446962
 21
7.608203796983664
 31
0.0
  0
LINE
  5
A4170
330
A4124
100
AcDbEntity
  8
0
  6
CONTINUOUS
100
AcDbLine
 10
10.3222513325975
 20
6.573853801913305
 30
0.0
 11
8.822564706178696
 21
8.073540428332114
 31
0.0
  0
LINE
  5
A4171
330
A4124
100
AcDbEntity
  8
0
  6
CONTINUOUS
100
AcDbLine
 10
9.777098872654436
 20
7.792525470936562
 30
0.0
 11
9.030747283910433
 21
8.538877059680566
 31
0.0
  0
ENDBLK
  5
A42B3
330
A4124
100
AcDbEntity
  8
0
100
AcDbBlockEnd
  0
BLOCK
  5
A42B4
330
A4172
100
AcDbEntity
  8
0
100
AcDbBlockBegin
  2
*X42
 70
     1
 10
0.0
 20
0.0
 30
0.0
  3
*X42
  1

  0
LINE
  5
A4173
330
A4172
100
AcDbEntity
  8
0
  6
CONTINUOUS
100
AcDbLine
 10
10.67292308101235
 20
8.445076852443387
 30
0.0
 11
10.99094622856022
 21
8.763099999991255
 31
0.0
  0
LINE
  5
A4174
330
A4172
100
AcDbEntity
  8
0
  6
CONTINUOUS
100
AcDbLine
 10
10.87250383178748
 20
7.971138394138331
 30
0.0
 11
11.6644654376404
 21
8.763099999991255
 31
0.0
  0
LINE
  5
A4175
330
A4172
100
AcDbEntity
  8
0
  6
CONTINUOUS
100
AcDbLine
 10
11.07208458256261
 20
7.497199935833273
 30
0.0
 11
12.12126590876355
 21
8.546381262034211
 31
0.0
  0
LINE
  5
A4176
330
A4172
100
AcDbEntity
  8
0
  6
CONTINUOUS
100
AcDbLine
 10
11.27166533333774
 20
7.023261477528216
 30
0.0
 11
12.32085164573666
 21
8.072447789927136
 31
0.0
  0
LINE
  5
A4177
330
A4172
100
AcDbEntity
  8
0
  6
CONTINUOUS
100
AcDbLine
 10
11.47124608411287
 20
6.549323019223158
 30
0.0
 11
12.52043738270977
 21
7.59851431782006
 31
0.0
  0
LINE
  5
A4178
330
A4172
100
AcDbEntity
  8
0
  6
CONTINUOUS
100
AcDbLine
 10
11.670826834888
 20
6.075384560918101
 30
0.0
 11
12.72002311968288
 21
7.124580845712984
 31
0.0
  0
LINE
  5
A4179
330
A4172
100
AcDbEntity
  8
0
  6
CONTINUOUS
100
AcDbLine
 10
11.87040758566313
 20
5.601446102613043
 30
0.0
 11
12.91960885665599
 21
6.650647373605907
 31
0.0
  0
LINE
  5
A417A
330
A4172
100
AcDbEntity
  8
0
  6
CONTINUOUS
100
AcDbLine
 10
12.06998833643825
 20
5.127507644307986
 30
0.0
 11
13.1191945936291
 21
6.176713901498832
 31
0.0
  0
LINE
  5
A417B
330
A4172
100
AcDbEntity
  8
0
  6
CONTINUOUS
100
AcDbLine
 10
12.26956908721338
 20
4.65356918600293
 30
0.0
 11
13.31878033060221
 21
5.702780429391757
 31
0.0
  0
LINE
  5
A417C
330
A4172
100
AcDbEntity
  8
0
  6
CONTINUOUS
100
AcDbLine
 10
12.46914983798851
 20
4.179630727697873
 30
0.0
 11
13.51836606757532
 21
5.228846957284683
 31
0.0
  0
LINE
  5
A417D
330
A4172
100
AcDbEntity
  8
0
  6
CONTINUOUS
100
AcDbLine
 10
12.66873058876364
 20
3.705692269392816
 30
0.0
 11
13.71795180454843
 21
4.754913485177607
 31
0.0
  0
LINE
  5
A417E
330
A4172
100
AcDbEntity
  8
0
  6
CONTINUOUS
100
AcDbLine
 10
12.86831133953877
 20
3.231753811087759
 30
0.0
 11
13.91753754152154
 21
4.280980013070531
 31
0.0
  0
LINE
  5
A417F
330
A4172
100
AcDbEntity
  8
0
  6
CONTINUOUS
100
AcDbLine
 10
13.0678920903139
 20
2.757815352782702
 30
0.0
 11
14.11712327849465
 21
3.807046540963456
 31
0.0
  0
LINE
  5
A4180
330
A4172
100
AcDbEntity
  8
0
  6
CONTINUOUS
100
AcDbLine
 10
13.26747284108903
 20
2.283876894477644
 30
0.0
 11
14.31670901546777
 21
3.333113068856379
 31
0.0
  0
LINE
  5
A4181
330
A4172
100
AcDbEntity
  8
0
  6
CONTINUOUS
100
AcDbLine
 10
16.36767838827179
 20
8.751678487061342
 30
0.0
 11
16.50332410898388
 21
8.887324207773432
 31
0.0
  0
LINE
  5
A4182
330
A4172
100
AcDbEntity
  8
0
  6
CONTINUOUS
100
AcDbLine
 10
15.96190732182191
 20
7.67238821153127
 30
0.0
 11
16.68735328004734
 21
8.397834169756699
 31
0.0
  0
LINE
  5
A4183
330
A4172
100
AcDbEntity
  8
0
  6
CONTINUOUS
100
AcDbLine
 10
15.55613625537202
 20
6.593097936001196
 30
0.0
 11
16.87138245111079
 21
7.908344131739965
 31
0.0
  0
LINE
  5
A4184
330
A4172
100
AcDbEntity
  8
0
  6
CONTINUOUS
100
AcDbLine
 10
15.15036518892213
 20
5.513807660471122
 30
0.0
 11
17.05541162217424
 21
7.418854093723231
 31
0.0
  0
LINE
  5
A4185
330
A4172
100
AcDbEntity
  8
0
  6
CONTINUOUS
100
AcDbLine
 10
14.74459412247225
 20
4.434517384941048
 30
0.0
 11
17.2394407932377
 21
6.929364055706499
 31
0.0
  0
LINE
  5
A4186
330
A4172
100
AcDbEntity
  8
0
  6
CONTINUOUS
100
AcDbLine
 10
14.33882305602236
 20
3.355227109410975
 30
0.0
 11
17.42346996430115
 21
6.439874017689766
 31
0.0
  0
LINE
  5
A4187
330
A4172
100
AcDbEntity
  8
0
  6
CONTINUOUS
100
AcDbLine
 10
13.46705359186416
 20
1.809938436172586
 30
0.0
 11
16.0819338255367
 21
4.424818669845129
 31
0.0
  0
LINE
  5
A4188
330
A4172
100
AcDbEntity
  8
0
  6
CONTINUOUS
100
AcDbLine
 10
16.63283254238972
 20
4.975717386698149
 30
0.0
 11
17.60749913536461
 21
5.950383979673033
 31
0.0
  0
LINE
  5
A4189
330
A4172
100
AcDbEntity
  8
0
  6
CONTINUOUS
100
AcDbLine
 10
13.66663434263929
 20
1.335999977867529
 30
0.0
 11
15.67604797733754
 21
3.345413612565779
 31
0.0
  0
LINE
  5
A418A
330
A4172
100
AcDbEntity
  8
0
  6
CONTINUOUS
100
AcDbLine
 10
13.86621509341442
 20
0.8620615195624723
 30
0.0
 11
15.27016212913838
 21
2.26600855528643
 31
0.0
  0
LINE
  5
A418B
330
A4172
100
AcDbEntity
  8
0
  6
CONTINUOUS
100
AcDbLine
 10
16.81682257348267
 20
4.486188208710908
 30
0.0
 11
17.79152830642806
 21
5.460893941656299
 31
0.0
  0
LINE
  5
A418C
330
A4172
100
AcDbEntity
  8
0
  6
CONTINUOUS
100
AcDbLine
 10
17.00081260457561
 20
3.996659030723667
 30
0.0
 11
17.97555747749151
 21
4.971403903639565
 31
0.0
  0
LINE
  5
A418D
330
A4172
100
AcDbEntity
  8
0
  6
CONTINUOUS
100
AcDbLine
 10
20.74362343514722
 20
8.412989070375462
 30
0.0
 11
21.09373436476302
 21
8.763099999991256
 31
0.0
  0
LINE
  5
A418E
330
A4172
100
AcDbEntity
  8
0
  6
CONTINUOUS
100
AcDbLine
 10
20.25401257174777
 20
7.249858997895826
 30
0.0
 11
21.7672535738432
 21
8.763099999991255
 31
0.0
  0
LINE
  5
A418F
330
A4172
100
AcDbEntity
  8
0
  6
CONTINUOUS
100
AcDbLine
 10
14.06579584418955
 20
0.3881230612574149
 30
0.0
 11
14.86427628093921
 21
1.186603498007082
 31
0.0
  0
LINE
  5
A4190
330
A4172
100
AcDbEntity
  8
0
  6
CONTINUOUS
100
AcDbLine
 10
14.26537659496467
 20
-0.0858153970476412
 30
0.0
 11
14.45839043274005
 21
0.1071984407277329
 31
0.0
  0
LINE
  5
A4191
330
A4172
100
AcDbEntity
  8
0
  6
CONTINUOUS
100
AcDbLine
 10
17.18480263566856
 20
3.507129852736426
 30
0.0
 11
18.15958664855496
 21
4.481913865622833
 31
0.0
  0
LINE
  5
A4192
330
A4172
100
AcDbEntity
  8
0
  6
CONTINUOUS
100
AcDbLine
 10
17.3687926667615
 20
3.017600674749186
 30
0.0
 11
18.34361581961842
 21
3.9924238276061
 31
0.0
  0
LINE
  5
A4193
330
A4172
100
AcDbEntity
  8
0
  6
CONTINUOUS
100
AcDbLine
 10
19.76440170834832
 20
6.086728925416191
 30
0.0
 11
22.33924590259489
 21
8.661573119662755
 31
0.0
  0
LINE
  5
A4194
330
A4172
100
AcDbEntity
  8
0
  6
CONTINUOUS
100
AcDbLine
 10
19.27479084494887
 20
4.923598852936555
 30
0.0
 11
21.84929622842713
 21
7.498104236414807
 31
0.0
  0
LINE
  5
A4195
330
A4172
100
AcDbEntity
  8
0
  6
CONTINUOUS
100
AcDbLine
 10
17.55278269785445
 20
2.528071496761945
 30
0.0
 11
18.52764499068187
 21
3.502933789589366
 31
0.0
  0
LINE
  5
A4196
330
A4172
100
AcDbEntity
  8
0
  6
CONTINUOUS
100
AcDbLine
 10
18.78517998154942
 20
3.760468780456919
 30
0.0
 11
21.35934655425936
 21
6.33463535316686
 31
0.0
  0
LINE
  5
A4197
330
A4172
100
AcDbEntity
  8
0
  6
CONTINUOUS
100
AcDbLine
 10
17.73677272894739
 20
2.038542318774704
 30
0.0
 11
20.8693968800916
 21
5.171166469918914
 31
0.0
  0
LINE
  5
A4198
330
A4172
100
AcDbEntity
  8
0
  6
CONTINUOUS
100
AcDbLine
 10
17.92076276004034
 20
1.549013140787464
 30
0.0
 11
20.37944720592384
 21
4.007697586670968
 31
0.0
  0
LINE
  5
A4199
330
A4172
100
AcDbEntity
  8
0
  6
CONTINUOUS
100
AcDbLine
 10
18.10475279113329
 20
1.059483962800223
 30
0.0
 11
19.88949753175608
 21
2.84422870342302
 31
0.0
  0
LINE
  5
A419A
330
A4172
100
AcDbEntity
  8
0
  6
CONTINUOUS
100
AcDbLine
 10
18.28874282222623
 20
0.5699547848129822
 30
0.0
 11
19.39954785758832
 21
1.680759820175074
 31
0.0
  0
LINE
  5
A419B
330
A4172
100
AcDbEntity
  8
0
  6
CONTINUOUS
100
AcDbLine
 10
18.47273285331918
 20
0.0804256068257416
 30
0.0
 11
18.90959818342056
 21
0.517290936927127
 31
0.0
  0
LINE
  5
A419C
330
A4172
100
AcDbEntity
  8
0
  6
CONTINUOUS
100
AcDbLine
 10
14.3590401358224
 20
-0.1570118376323384
 30
0.0
 11
14.24903296539946
 21
-0.0470046672093929
 31
0.0
  0
LINE
  5
A419D
330
A4172
100
AcDbEntity
  8
0
  6
CONTINUOUS
100
AcDbLine
 10
14.54309291258661
 20
0.332454594683643
 30
0.0
 11
13.75908329123172
 21
1.116464216038529
 31
0.0
  0
LINE
  5
A419E
330
A4172
100
AcDbEntity
  8
0
  6
CONTINUOUS
100
AcDbLine
 10
14.72714568935081
 20
0.8219210269996244
 30
0.0
 11
13.26913361706399
 21
2.27993309928645
 31
0.0
  0
LINE
  5
A419F
330
A4172
100
AcDbEntity
  8
0
  6
CONTINUOUS
100
AcDbLine
 10
14.91119846611502
 20
1.311387459315606
 30
0.0
 11
12.77918394289625
 21
3.443401982534371
 31
0.0
  0
LINE
  5
A41A0
330
A4172
100
AcDbEntity
  8
0
  6
CONTINUOUS
100
AcDbLine
 10
15.09525124287922
 20
1.800853891631587
 30
0.0
 11
12.28923426872852
 21
4.606870865782293
 31
0.0
  0
LINE
  5
A41A1
330
A4172
100
AcDbEntity
  8
0
  6
CONTINUOUS
100
AcDbLine
 10
15.27930401964343
 20
2.290320323947569
 30
0.0
 11
11.79928459456078
 21
5.770339749030213
 31
0.0
  0
LINE
  5
A41A2
330
A4172
100
AcDbEntity
  8
0
  6
CONTINUOUS
100
AcDbLine
 10
15.46335679640763
 20
2.77978675626355
 30
0.0
 11
14.48885470994921
 21
3.754288842721972
 31
0.0
  0
LINE
  5
A41A3
330
A4172
100
AcDbEntity
  8
0
  6
CONTINUOUS
100
AcDbLine
 10
13.88507249233704
 20
4.358071060334137
 30
0.0
 11
11.30933492039305
 21
6.933808632278135
 31
0.0
  0
LINE
  5
A41A4
330
A4172
100
AcDbEntity
  8
0
  6
CONTINUOUS
100
AcDbLine
 10
18.75840522805855
 20
0.1582575336928151
 30
0.0
 11
18.25383727664818
 21
0.6628254851031863
 31
0.0
  0
LINE
  5
A41A5
330
A4172
100
AcDbEntity
  8
0
  6
CONTINUOUS
100
AcDbLine
 10
15.64740957317184
 20
3.269253188579531
 30
0.0
 11
14.67288388101266
 21
4.243778880738705
 31
0.0
  0
LINE
  5
A41A6
330
A4172
100
AcDbEntity
  8
0
  6
CONTINUOUS
100
AcDbLine
 10
13.39509276772158
 20
5.521569994029786
 30
0.0
 11
10.81938524622531
 21
8.097277515526056
 31
0.0
  0
LINE
  5
A41A7
330
A4172
100
AcDbEntity
  8
0
  6
CONTINUOUS
100
AcDbLine
 10
18.95798597883369
 20
0.6321959919978686
 30
0.0
 11
17.84825644852853
 21
1.741925522303024
 31
0.0
  0
LINE
  5
A41A8
330
A4172
100
AcDbEntity
  8
0
  6
CONTINUOUS
100
AcDbLine
 10
19.15756672960882
 20
1.106134450302922
 30
0.0
 11
17.44267562040888
 21
2.821025559502861
 31
0.0
  0
LINE
  5
A41A9
330
A4172
100
AcDbEntity
  8
0
  6
CONTINUOUS
100
AcDbLine
 10
15.83146234993604
 20
3.758719620895513
 30
0.0
 11
14.85691305207612
 21
4.733268918755439
 31
0.0
  0
LINE
  5
A41AA
330
A4172
100
AcDbEntity
  8
0
  6
CONTINUOUS
100
AcDbLine
 10
16.01551512670025
 20
4.248186053211494
 30
0.0
 11
15.04094222313957
 21
5.222758956772172
 31
0.0
  0
LINE
  5
A41AB
330
A4172
100
AcDbEntity
  8
0
  6
CONTINUOUS
100
AcDbLine
 10
12.90511304310612
 20
6.685068927725435
 30
0.0
 11
10.8270819708403
 21
8.763099999991255
 31
0.0
  0
LINE
  5
A41AC
330
A4172
100
AcDbEntity
  8
0
  6
CONTINUOUS
100
AcDbLine
 10
12.41513331849066
 20
7.848567861421083
 30
0.0
 11
11.50060117992049
 21
8.763099999991255
 31
0.0
  0
LINE
  5
A41AD
330
A4172
100
AcDbEntity
  8
0
  6
CONTINUOUS
100
AcDbLine
 10
19.35714748038395
 20
1.580072908607975
 30
0.0
 11
17.03709479228923
 21
3.900125596702697
 31
0.0
  0
LINE
  5
A41AE
330
A4172
100
AcDbEntity
  8
0
  6
CONTINUOUS
100
AcDbLine
 10
19.55672823115909
 20
2.054011366913028
 30
0.0
 11
16.63151396416958
 21
4.979225633902534
 31
0.0
  0
LINE
  5
A41AF
330
A4172
100
AcDbEntity
  8
0
  6
CONTINUOUS
100
AcDbLine
 10
16.19956790346445
 20
4.737652485527476
 30
0.0
 11
15.22497139420302
 21
5.712248994788904
 31
0.0
  0
LINE
  5
A41B0
330
A4172
100
AcDbEntity
  8
0
  6
CONTINUOUS
100
AcDbLine
 10
16.38362068022866
 20
5.227118917843457
 30
0.0
 11
15.40900056526648
 21
6.201739032805637
 31
0.0
  0
LINE
  5
A41B1
330
A4172
100
AcDbEntity
  8
0
  6
CONTINUOUS
100
AcDbLine
 10
19.75630898193422
 20
2.527949825218081
 30
0.0
 11
18.70774536448286
 21
3.576513442669441
 31
0.0
  0
LINE
  5
A41B2
330
A4172
100
AcDbEntity
  8
0
  6
CONTINUOUS
100
AcDbLine
 10
19.95588973270936
 20
3.001888283523134
 30
0.0
 11
18.90726987211446
 21
4.050508144118028
 31
0.0
  0
LINE
  5
A41B3
330
A4172
100
AcDbEntity
  8
0
  6
CONTINUOUS
100
AcDbLine
 10
20.15547048348449
 20
3.475826741828186
 30
0.0
 11
19.10679437974606
 21
4.524502845566614
 31
0.0
  0
LINE
  5
A41B4
330
A4172
100
AcDbEntity
  8
0
  6
CONTINUOUS
100
AcDbLine
 10
20.35505123425962
 20
3.94976520013324
 30
0.0
 11
19.30631888737766
 21
4.998497547015201
 31
0.0
  0
LINE
  5
A41B5
330
A4172
100
AcDbEntity
  8
0
  6
CONTINUOUS
100
AcDbLine
 10
20.55463198503475
 20
4.423703658438292
 30
0.0
 11
19.50584339500926
 21
5.472492248463787
 31
0.0
  0
LINE
  5
A41B6
330
A4172
100
AcDbEntity
  8
0
  6
CONTINUOUS
100
AcDbLine
 10
18.37481191085755
 20
3.909446896294752
 30
0.0
 11
15.59302973632993
 21
6.691229070822371
 31
0.0
  0
LINE
  5
A41B7
330
A4172
100
AcDbEntity
  8
0
  6
CONTINUOUS
100
AcDbLine
 10
17.96904084440766
 20
4.988737171824825
 30
0.0
 11
15.77705890739338
 21
7.180719108839104
 31
0.0
  0
LINE
  5
A41B8
330
A4172
100
AcDbEntity
  8
0
  6
CONTINUOUS
100
AcDbLine
 10
17.56326977795777
 20
6.068027447354899
 30
0.0
 11
15.96108807845684
 21
7.670209146855838
 31
0.0
  0
LINE
  5
A41B9
330
A4172
100
AcDbEntity
  8
0
  6
CONTINUOUS
100
AcDbLine
 10
17.15749871150789
 20
7.147317722884972
 30
0.0
 11
16.14511724952029
 21
8.15969918487257
 31
0.0
  0
LINE
  5
A41BA
330
A4172
100
AcDbEntity
  8
0
  6
CONTINUOUS
100
AcDbLine
 10
16.751727645058
 20
8.226607998415046
 30
0.0
 11
16.32914642058374
 21
8.649189222889303
 31
0.0
  0
LINE
  5
A41BB
330
A4172
100
AcDbEntity
  8
0
  6
CONTINUOUS
100
AcDbLine
 10
20.75421273580989
 20
4.897642116743345
 30
0.0
 11
19.70536790264086
 21
5.946486949912374
 31
0.0
  0
LINE
  5
A41BC
330
A4172
100
AcDbEntity
  8
0
  6
CONTINUOUS
100
AcDbLine
 10
20.95379348658502
 20
5.371580575048398
 30
0.0
 11
19.90489241027246
 21
6.42048165136096
 31
0.0
  0
LINE
  5
A41BD
330
A4172
100
AcDbEntity
  8
0
  6
CONTINUOUS
100
AcDbLine
 10
21.15337423736015
 20
5.845519033353452
 30
0.0
 11
20.10441691790406
 21
6.894476352809547
 31
0.0
  0
LINE
  5
A41BE
330
A4172
100
AcDbEntity
  8
0
  6
CONTINUOUS
100
AcDbLine
 10
21.35295498813529
 20
6.319457491658505
 30
0.0
 11
20.30394142553566
 21
7.368471054258134
 31
0.0
  0
LINE
  5
A41BF
330
A4172
100
AcDbEntity
  8
0
  6
CONTINUOUS
100
AcDbLine
 10
21.55253573891042
 20
6.793395949963558
 30
0.0
 11
20.50346593316726
 21
7.842465755706721
 31
0.0
  0
LINE
  5
A41C0
330
A4172
100
AcDbEntity
  8
0
  6
CONTINUOUS
100
AcDbLine
 10
21.75211648968556
 20
7.267334408268612
 30
0.0
 11
20.70299044079886
 21
8.316460457155308
 31
0.0
  0
LINE
  5
A41C1
330
A4172
100
AcDbEntity
  8
0
  6
CONTINUOUS
100
AcDbLine
 10
21.95169724046069
 20
7.741272866573663
 30
0.0
 11
20.9298701070431
 21
8.763099999991256
 31
0.0
  0
LINE
  5
A41C2
330
A4172
100
AcDbEntity
  8
0
  6
CONTINUOUS
100
AcDbLine
 10
22.15127799123582
 20
8.215211324878716
 30
0.0
 11
21.60338931612328
 21
8.763099999991256
 31
0.0
  0
LINE
  5
A41C3
330
A4172
100
AcDbEntity
  8
0
  6
CONTINUOUS
100
AcDbLine
 10
22.35085874201096
 20
8.689149783183769
 30
0.0
 11
22.27690852520347
 21
8.763099999991255
 31
0.0
  0
ENDBLK
  5
A42B5
330
A4172
100
AcDbEntity
  8
0
100
AcDbBlockEnd
  0
BLOCK
  5
A42B6
330
A41C4
100
AcDbEntity
  8
0
100
AcDbBlockBegin
  2
*X43
 70
     1
 10
0.0
 20
0.0
 30
0.0
  3
*X43
  1

  0
LINE
  5
A41C5
330
A41C4
100
AcDbEntity
  8
0
  6
CONTINUOUS
100
AcDbLine
 10
23.19462913593892
 20
8.169917934846424
 30
0.0
 11
23.70775465517246
 21
8.683043454079957
 31
0.0
  0
LINE
  5
A41C6
330
A41C4
100
AcDbEntity
  8
0
  6
CONTINUOUS
100
AcDbLine
 10
22.64923161835078
 20
6.951001208178088
 30
0.0
 11
23.9159364069932
 21
8.217705996820516
 31
0.0
  0
LINE
  5
A41C7
330
A41C4
100
AcDbEntity
  8
0
  6
CONTINUOUS
100
AcDbLine
 10
22.10383410076263
 20
5.732084481509751
 30
0.0
 11
24.12411815881395
 21
7.752368539561078
 31
0.0
  0
LINE
  5
A41C8
330
A41C4
100
AcDbEntity
  8
0
  6
CONTINUOUS
100
AcDbLine
 10
21.55843658317447
 20
4.513167754841414
 30
0.0
 11
24.3322999106347
 21
7.287031082301639
 31
0.0
  0
LINE
  5
A41C9
330
A41C4
100
AcDbEntity
  8
0
  6
CONTINUOUS
100
AcDbLine
 10
21.01303906558632
 20
3.294251028173077
 30
0.0
 11
24.54048166245544
 21
6.821693625042199
 31
0.0
  0
LINE
  5
A41CA
330
A41C4
100
AcDbEntity
  8
0
  6
CONTINUOUS
100
AcDbLine
 10
20.46764154799817
 20
2.075334301504738
 30
0.0
 11
23.28571549467848
 21
4.89340824818505
 31
0.0
  0
LINE
  5
A41CB
330
A41C4
100
AcDbEntity
  8
0
  6
CONTINUOUS
100
AcDbLine
 10
19.92224403041002
 20
0.8564175748364002
 30
0.0
 11
22.74075865492779
 21
3.674932199354171
 31
0.0
  0
LINE
  5
A41CC
330
A41C4
100
AcDbEntity
  8
0
  6
CONTINUOUS
100
AcDbLine
 10
23.67305085490148
 20
5.280743608408048
 30
0.0
 11
24.74866341427619
 21
6.356356167782759
 31
0.0
  0
LINE
  5
A41CD
330
A41C4
100
AcDbEntity
  8
0
  6
CONTINUOUS
100
AcDbLine
 10
23.88118970842314
 20
4.815363252849522
 30
0.0
 11
24.95684516609694
 21
5.89101871052332
 31
0.0
  0
LINE
  5
A41CE
330
A41C4
100
AcDbEntity
  8
0
  6
CONTINUOUS
100
AcDbLine
 10
19.73925852647308
 20
-0.0000871381807288
 30
0.0
 11
23.4103456646501
 21
3.670999999996297
 31
0.0
  0
LINE
  5
A41CF
330
A41C4
100
AcDbEntity
  8
0
  6
CONTINUOUS
100
AcDbLine
 10
24.0893285619448
 20
4.349982897290997
 30
0.0
 11
25.16502691791769
 21
5.42568125326388
 31
0.0
  0
LINE
  5
A41D0
330
A41C4
100
AcDbEntity
  8
0
  6
CONTINUOUS
100
AcDbLine
 10
20.41282099582748
 20
-0.0000438779065108
 30
0.0
 11
21.64944178675636
 21
1.236576913022366
 31
0.0
  0
LINE
  5
A41D1
330
A41C4
100
AcDbEntity
  8
0
  6
CONTINUOUS
100
AcDbLine
 10
22.78126487373161
 20
2.36839999999762
 30
0.0
 11
24.08386487373029
 21
3.670999999996297
 31
0.0
  0
LINE
  5
A41D2
330
A41C4
100
AcDbEntity
  8
0
  6
CONTINUOUS
100
AcDbLine
 10
24.29746741546646
 20
3.884602541732471
 30
0.0
 11
25.37320866973843
 21
4.960343796004441
 31
0.0
  0
LINE
  5
A41D3
330
A41C4
100
AcDbEntity
  8
0
  6
CONTINUOUS
100
AcDbLine
 10
21.08638346518189
 20
-0.0000006176322938
 30
0.0
 11
21.10379033335899
 21
0.0174062505448083
 31
0.0
  0
LINE
  5
A41D4
330
A41C4
100
AcDbEntity
  8
0
  6
CONTINUOUS
100
AcDbLine
 10
23.4547840828118
 20
2.36839999999762
 30
0.0
 11
25.58139042155918
 21
4.495006338745002
 31
0.0
  0
LINE
  5
A41D5
330
A41C4
100
AcDbEntity
  8
0
  6
CONTINUOUS
100
AcDbLine
 10
29.30199999996933
 20
8.215615917155148
 30
0.0
 11
29.84948408280543
 21
8.763099999991255
 31
0.0
  0
LINE
  5
A41D6
330
A41C4
100
AcDbEntity
  8
0
  6
CONTINUOUS
100
AcDbLine
 10
24.12830329189199
 20
2.36839999999762
 30
0.0
 11
25.78957217337993
 21
4.029668881485562
 31
0.0
  0
LINE
  5
A41D7
330
A41C4
100
AcDbEntity
  8
0
  6
CONTINUOUS
100
AcDbLine
 10
29.30199999996933
 20
7.54209670807496
 30
0.0
 11
30.52300329188562
 21
8.763099999991255
 31
0.0
  0
LINE
  5
A41D8
330
A41C4
100
AcDbEntity
  8
0
  6
CONTINUOUS
100
AcDbLine
 10
24.80182250097217
 20
2.36839999999762
 30
0.0
 11
25.99775392520067
 21
3.564331424226122
 31
0.0
  0
LINE
  5
A41D9
330
A41C4
100
AcDbEntity
  8
0
  6
CONTINUOUS
100
AcDbLine
 10
29.30199999996933
 20
6.868577498994774
 30
0.0
 11
30.74199999996926
 21
8.308577498994712
 31
0.0
  0
LINE
  5
A41DA
330
A41C4
100
AcDbEntity
  8
0
  6
CONTINUOUS
100
AcDbLine
 10
25.13028238392013
 20
2.023340673865392
 30
0.0
 11
26.20593567702142
 21
3.098993966966683
 31
0.0
  0
LINE
  5
A41DB
330
A41C4
100
AcDbEntity
  8
0
  6
CONTINUOUS
100
AcDbLine
 10
25.33838066033617
 20
1.557919741201244
 30
0.0
 11
26.41411742884217
 21
2.633656509707244
 31
0.0
  0
LINE
  5
A41DC
330
A41C4
100
AcDbEntity
  8
0
  6
CONTINUOUS
100
AcDbLine
 10
25.54647893675221
 20
1.092498808537098
 30
0.0
 11
26.62229918066291
 21
2.168319052447804
 31
0.0
  0
LINE
  5
A41DD
330
A41C4
100
AcDbEntity
  8
0
  6
CONTINUOUS
100
AcDbLine
 10
25.75457721316825
 20
0.62707787587295
 30
0.0
 11
26.83048093248366
 21
1.702981595188365
 31
0.0
  0
LINE
  5
A41DE
330
A41C4
100
AcDbEntity
  8
0
  6
CONTINUOUS
100
AcDbLine
 10
29.30199999996933
 20
6.195058289914587
 30
0.0
 11
30.74199999996926
 21
7.635058289914522
 31
0.0
  0
LINE
  5
A41DF
330
A41C4
100
AcDbEntity
  8
0
  6
CONTINUOUS
100
AcDbLine
 10
29.30199999996933
 20
5.521539080834401
 30
0.0
 11
30.74199999996926
 21
6.961539080834331
 31
0.0
  0
LINE
  5
A41E0
330
A41C4
100
AcDbEntity
  8
0
  6
CONTINUOUS
100
AcDbLine
 10
29.30199999996933
 20
4.848019871754214
 30
0.0
 11
30.74199999996925
 21
6.288019871754143
 31
0.0
  0
LINE
  5
A41E1
330
A41C4
100
AcDbEntity
  8
0
  6
CONTINUOUS
100
AcDbLine
 10
29.30199999996933
 20
4.174500662674028
 30
0.0
 11
30.74199999996925
 21
5.614500662673953
 31
0.0
  0
LINE
  5
A41E2
330
A41C4
100
AcDbEntity
  8
0
  6
CONTINUOUS
100
AcDbLine
 10
25.96267548958429
 20
0.1616569432088024
 30
0.0
 11
27.18411854636669
 21
1.383099999991207
 31
0.0
  0
LINE
  5
A41E3
330
A41C4
100
AcDbEntity
  8
0
  6
CONTINUOUS
100
AcDbLine
 10
29.30199999996933
 20
3.500981453593841
 30
0.0
 11
30.74199999996925
 21
4.940981453593762
 31
0.0
  0
LINE
  5
A41E4
330
A41C4
100
AcDbEntity
  8
0
  6
CONTINUOUS
100
AcDbLine
 10
26.50763775544691
 20
0.0330999999912356
 30
0.0
 11
27.85763775544689
 21
1.383099999991223
 31
0.0
  0
LINE
  5
A41E5
330
A41C4
100
AcDbEntity
  8
0
  6
CONTINUOUS
100
AcDbLine
 10
29.30199999996933
 20
2.827462244513656
 30
0.0
 11
30.74199999996925
 21
4.267462244513574
 31
0.0
  0
LINE
  5
A41E6
330
A41C4
100
AcDbEntity
  8
0
  6
CONTINUOUS
100
AcDbLine
 10
27.18115696452709
 20
0.0330999999912356
 30
0.0
 11
28.57843169463094
 21
1.430374730095086
 31
0.0
  0
LINE
  5
A41E7
330
A41C4
100
AcDbEntity
  8
0
  6
CONTINUOUS
100
AcDbLine
 10
29.2547252698654
 20
2.106668305329547
 30
0.0
 11
30.74199999996924
 21
3.593943035433384
 31
0.0
  0
LINE
  5
A41E8
330
A41C4
100
AcDbEntity
  8
0
  6
CONTINUOUS
100
AcDbLine
 10
27.85467617360728
 20
0.0330999999912356
 30
0.0
 11
30.74199999996924
 21
2.920423826353195
 31
0.0
  0
LINE
  5
A41E9
330
A41C4
100
AcDbEntity
  8
0
  6
CONTINUOUS
100
AcDbLine
 10
28.55194421293851
 20
0.0568488302422763
 30
0.0
 11
30.71825116971818
 21
2.223155787021951
 31
0.0
  0
LINE
  5
A41EA
330
A41C4
100
AcDbEntity
  8
0
  6
CONTINUOUS
100
AcDbLine
 10
29.51480923620385
 20
0.346194644427432
 30
0.0
 11
30.42890535553301
 21
1.260290763756593
 31
0.0
  0
LINE
  5
A41EB
330
A41C4
100
AcDbEntity
  8
0
  6
CONTINUOUS
100
AcDbLine
 10
19.59027867740337
 20
-0.0000967065718083
 30
0.0
 11
19.55485265190471
 21
0.035329318926844
 31
0.0
  0
LINE
  5
A41EC
330
A41C4
100
AcDbEntity
  8
0
  6
CONTINUOUS
100
AcDbLine
 10
20.26375463176586
 20
-0.0000534518541091
 30
0.0
 11
19.76305575737534
 21
0.5006454225364014
 31
0.0
  0
LINE
  5
A41ED
330
A41C4
100
AcDbEntity
  8
0
  6
CONTINUOUS
100
AcDbLine
 10
20.93723058612834
 20
-0.0000101971364099
 30
0.0
 11
19.97125886284597
 21
0.965961526145958
 31
0.0
  0
LINE
  5
A41EE
330
A41C4
100
AcDbEntity
  8
0
  6
CONTINUOUS
100
AcDbLine
 10
21.25514828313686
 20
0.355591314935257
 30
0.0
 11
20.1794619683166
 21
1.431277629755512
 31
0.0
  0
LINE
  5
A41EF
330
A41C4
100
AcDbEntity
  8
0
  6
CONTINUOUS
100
AcDbLine
 10
21.46338838394921
 20
0.8208704232030986
 30
0.0
 11
20.38766507378723
 21
1.896593733365069
 31
0.0
  0
LINE
  5
A41F0
330
A41C4
100
AcDbEntity
  8
0
  6
CONTINUOUS
100
AcDbLine
 10
21.67162848476155
 20
1.28614953147094
 30
0.0
 11
20.59586817925786
 21
2.361909836974626
 31
0.0
  0
LINE
  5
A41F1
330
A41C4
100
AcDbEntity
  8
0
  6
CONTINUOUS
100
AcDbLine
 10
21.8798685855739
 20
1.751428639738782
 30
0.0
 11
20.80407128472849
 21
2.827225940584183
 31
0.0
  0
LINE
  5
A41F2
330
A41C4
100
AcDbEntity
  8
0
  6
CONTINUOUS
100
AcDbLine
 10
22.08810868638624
 20
2.216707748006623
 30
0.0
 11
21.01227439019912
 21
3.292542044193739
 31
0.0
  0
LINE
  5
A41F3
330
A41C4
100
AcDbEntity
  8
0
  6
CONTINUOUS
100
AcDbLine
 10
22.60993564347543
 20
2.36839999999762
 30
0.0
 11
21.22047749566975
 21
3.757858147803296
 31
0.0
  0
LINE
  5
A41F4
330
A41C4
100
AcDbEntity
  8
0
  6
CONTINUOUS
100
AcDbLine
 10
23.28345485255561
 20
2.36839999999762
 30
0.0
 11
21.42868060114038
 21
4.223174251412853
 31
0.0
  0
LINE
  5
A41F5
330
A41C4
100
AcDbEntity
  8
0
  6
CONTINUOUS
100
AcDbLine
 10
26.29227406164219
 20
0.0330999999912356
 30
0.0
 11
25.80009199592872
 21
0.5252820657046957
 31
0.0
  0
LINE
  5
A41F6
330
A41C4
100
AcDbEntity
  8
0
  6
CONTINUOUS
100
AcDbLine
 10
23.9569740616358
 20
2.36839999999762
 30
0.0
 11
21.63688370661101
 21
4.688490355022409
 31
0.0
  0
LINE
  5
A41F7
330
A41C4
100
AcDbEntity
  8
0
  6
CONTINUOUS
100
AcDbLine
 10
26.96579327072237
 20
0.0330999999912356
 30
0.0
 11
25.2554132311971
 21
1.743480039516508
 31
0.0
  0
LINE
  5
A41F8
330
A41C4
100
AcDbEntity
  8
0
  6
CONTINUOUS
100
AcDbLine
 10
24.63049327071599
 20
2.36839999999762
 30
0.0
 11
23.32789327071731
 21
3.670999999996297
 31
0.0
  0
LINE
  5
A41F9
330
A41C4
100
AcDbEntity
  8
0
  6
CONTINUOUS
100
AcDbLine
 10
22.92098674744635
 20
4.077906523267254
 30
0.0
 11
21.84508681208164
 21
5.153806458631966
 31
0.0
  0
LINE
  5
A41FA
330
A41C4
100
AcDbEntity
  8
0
  6
CONTINUOUS
100
AcDbLine
 10
27.63931247980256
 20
0.0330999999912356
 30
0.0
 11
24.0014124797975
 21
3.670999999996297
 31
0.0
  0
LINE
  5
A41FB
330
A41C4
100
AcDbEntity
  8
0
  6
CONTINUOUS
100
AcDbLine
 10
23.129125600968
 20
4.5432868788258
 30
0.0
 11
22.05328991755227
 21
5.619122562241522
 31
0.0
  0
LINE
  5
A41FC
330
A41C4
100
AcDbEntity
  8
0
  6
CONTINUOUS
100
AcDbLine
 10
28.31283168888275
 20
0.0330999999912356
 30
0.0
 11
24.16488385994816
 21
4.181047828925828
 31
0.0
  0
LINE
  5
A41FD
330
A41C4
100
AcDbEntity
  8
0
  6
CONTINUOUS
100
AcDbLine
 10
23.33726445448964
 20
5.008667234384345
 30
0.0
 11
22.2614930230229
 21
6.084438665851079
 31
0.0
  0
LINE
  5
A41FE
330
A41C4
100
AcDbEntity
  8
0
  6
CONTINUOUS
100
AcDbLine
 10
28.90645333830136
 20
0.1129975596528112
 30
0.0
 11
27.63635089796295
 21
1.383099999991217
 31
0.0
  0
LINE
  5
A41FF
330
A41C4
100
AcDbEntity
  8
0
  6
CONTINUOUS
100
AcDbLine
 10
26.43704649509776
 20
2.582404402856405
 30
0.0
 11
23.61992702019732
 21
5.399523877756844
 31
0.0
  0
LINE
  5
A4200
330
A41C4
100
AcDbEntity
  8
0
  6
CONTINUOUS
100
AcDbLine
 10
23.54540330801128
 20
5.47404758994289
 30
0.0
 11
22.46969612849353
 21
6.549754769460635
 31
0.0
  0
LINE
  5
A4201
330
A41C4
100
AcDbEntity
  8
0
  6
CONTINUOUS
100
AcDbLine
 10
29.40349360806839
 20
0.2894764989659606
 30
0.0
 11
28.30987010704312
 21
1.383099999991234
 31
0.0
  0
LINE
  5
A4202
330
A41C4
100
AcDbEntity
  8
0
  6
CONTINUOUS
100
AcDbLine
 10
25.89179548232307
 20
3.801174624711282
 30
0.0
 11
22.67789923396416
 21
7.015070873070191
 31
0.0
  0
LINE
  5
A4203
330
A41C4
100
AcDbEntity
  8
0
  6
CONTINUOUS
100
AcDbLine
 10
29.83195328664716
 20
0.5345360294673855
 30
0.0
 11
28.85740608974929
 21
1.50908322636525
 31
0.0
  0
LINE
  5
A4204
330
A41C4
100
AcDbEntity
  8
0
  6
CONTINUOUS
100
AcDbLine
 10
25.34654446954838
 20
5.01994484656616
 30
0.0
 11
22.88610233943479
 21
7.480386976679748
 31
0.0
  0
LINE
  5
A4205
330
A41C4
100
AcDbEntity
  8
0
  6
CONTINUOUS
100
AcDbLine
 10
30.16871289118725
 20
0.8712956340074771
 30
0.0
 11
29.18680861743091
 21
1.853199907763824
 31
0.0
  0
LINE
  5
A4206
330
A41C4
100
AcDbEntity
  8
0
  6
CONTINUOUS
100
AcDbLine
 10
24.80129345677369
 20
6.238715068421037
 30
0.0
 11
23.09430544490542
 21
7.945703080289305
 31
0.0
  0
LINE
  5
A4207
330
A41C4
100
AcDbEntity
  8
0
  6
CONTINUOUS
100
AcDbLine
 10
30.43711825255073
 20
1.276409481724182
 30
0.0
 11
29.30199999996933
 21
2.411527734305588
 31
0.0
  0
LINE
  5
A4208
330
A41C4
100
AcDbEntity
  8
0
  6
CONTINUOUS
100
AcDbLine
 10
24.256042443999
 20
7.457485290275915
 30
0.0
 11
23.30250855037605
 21
8.411019183898862
 31
0.0
  0
LINE
  5
A4209
330
A41C4
100
AcDbEntity
  8
0
  6
CONTINUOUS
100
AcDbLine
 10
30.6424542258006
 20
1.744592717554502
 30
0.0
 11
29.30199999996933
 21
3.085046943385775
 31
0.0
  0
LINE
  5
A420A
330
A41C4
100
AcDbEntity
  8
0
  6
CONTINUOUS
100
AcDbLine
 10
23.71079143122431
 20
8.676255512130794
 30
0.0
 11
23.51071165584668
 21
8.876335287508416
 31
0.0
  0
LINE
  5
A420B
330
A41C4
100
AcDbEntity
  8
0
  6
CONTINUOUS
100
AcDbLine
 10
30.73454365592805
 20
2.326022496507238
 30
0.0
 11
29.30199999996933
 21
3.758566152465961
 31
0.0
  0
LINE
  5
A420C
330
A41C4
100
AcDbEntity
  8
0
  6
CONTINUOUS
100
AcDbLine
 10
30.74199999996924
 20
2.992085361546236
 30
0.0
 11
29.30199999996933
 21
4.432085361546148
 31
0.0
  0
LINE
  5
A420D
330
A41C4
100
AcDbEntity
  8
0
  6
CONTINUOUS
100
AcDbLine
 10
30.74199999996924
 20
3.665604570626419
 30
0.0
 11
29.30199999996933
 21
5.105604570626333
 31
0.0
  0
LINE
  5
A420E
330
A41C4
100
AcDbEntity
  8
0
  6
CONTINUOUS
100
AcDbLine
 10
30.74199999996925
 20
4.339123779706602
 30
0.0
 11
29.30199999996933
 21
5.77912377970652
 31
0.0
  0
LINE
  5
A420F
330
A41C4
100
AcDbEntity
  8
0
  6
CONTINUOUS
100
AcDbLine
 10
30.74199999996925
 20
5.012642988786785
 30
0.0
 11
29.30199999996933
 21
6.452642988786707
 31
0.0
  0
LINE
  5
A4210
330
A41C4
100
AcDbEntity
  8
0
  6
CONTINUOUS
100
AcDbLine
 10
30.74199999996925
 20
5.68616219786697
 30
0.0
 11
29.30199999996933
 21
7.126162197866894
 31
0.0
  0
LINE
  5
A4211
330
A41C4
100
AcDbEntity
  8
0
  6
CONTINUOUS
100
AcDbLine
 10
30.74199999996925
 20
6.359681406947153
 30
0.0
 11
29.30199999996933
 21
7.799681406947081
 31
0.0
  0
LINE
  5
A4212
330
A41C4
100
AcDbEntity
  8
0
  6
CONTINUOUS
100
AcDbLine
 10
30.74199999996926
 20
7.033200616027337
 30
0.0
 11
29.30199999996933
 21
8.473200616027269
 31
0.0
  0
LINE
  5
A4213
330
A41C4
100
AcDbEntity
  8
0
  6
CONTINUOUS
100
AcDbLine
 10
30.74199999996926
 20
7.706719825107518
 30
0.0
 11
29.68561982508552
 21
8.763099999991255
 31
0.0
  0
LINE
  5
A4214
330
A41C4
100
AcDbEntity
  8
0
  6
CONTINUOUS
100
AcDbLine
 10
30.74199999996926
 20
8.380239034187703
 30
0.0
 11
30.35913903416571
 21
8.763099999991255
 31
0.0
  0
ENDBLK
  5
A42B7
330
A41C4
100
AcDbEntity
  8
0
100
AcDbBlockEnd
  0
BLOCK
  5
A42B8
330
A4215
100
AcDbEntity
  8
0
100
AcDbBlockBegin
  2
*X44
 70
     1
 10
0.0
 20
0.0
 30
0.0
  3
*X44
  1

  0
LINE
  5
A4216
330
A4215
100
AcDbEntity
  8
0
  6
CONTINUOUS
100
AcDbLine
 10
31.64199999996833
 20
8.5350582899136
 30
0.0
 11
31.87004171004599
 21
8.763099999991255
 31
0.0
  0
LINE
  5
A4217
330
A4215
100
AcDbEntity
  8
0
  6
CONTINUOUS
100
AcDbLine
 10
31.64199999996833
 20
7.861539080833413
 30
0.0
 11
32.54356091912618
 21
8.763099999991255
 31
0.0
  0
LINE
  5
A4218
330
A4215
100
AcDbEntity
  8
0
  6
CONTINUOUS
100
AcDbLine
 10
31.64199999996833
 20
7.188019871753227
 30
0.0
 11
33.08199999996839
 21
8.628019871753281
 31
0.0
  0
LINE
  5
A4219
330
A4215
100
AcDbEntity
  8
0
  6
CONTINUOUS
100
AcDbLine
 10
31.64199999996833
 20
6.514500662673041
 30
0.0
 11
33.08199999996839
 21
7.954500662673095
 31
0.0
  0
LINE
  5
A421A
330
A4215
100
AcDbEntity
  8
0
  6
CONTINUOUS
100
AcDbLine
 10
31.64199999996833
 20
5.840981453592855
 30
0.0
 11
33.08199999996839
 21
7.28098145359291
 31
0.0
  0
LINE
  5
A421B
330
A4215
100
AcDbEntity
  8
0
  6
CONTINUOUS
100
AcDbLine
 10
31.64199999996833
 20
5.167462244512668
 30
0.0
 11
33.08199999996839
 21
6.607462244512723
 31
0.0
  0
LINE
  5
A421C
330
A4215
100
AcDbEntity
  8
0
  6
CONTINUOUS
100
AcDbLine
 10
31.64199999996833
 20
4.493943035432482
 30
0.0
 11
33.08199999996839
 21
5.933943035432536
 31
0.0
  0
LINE
  5
A421D
330
A4215
100
AcDbEntity
  8
0
  6
CONTINUOUS
100
AcDbLine
 10
31.64199999996833
 20
3.820423826352294
 30
0.0
 11
33.08199999996839
 21
5.260423826352349
 31
0.0
  0
LINE
  5
A421E
330
A4215
100
AcDbEntity
  8
0
  6
CONTINUOUS
100
AcDbLine
 10
31.64199999996833
 20
3.146904617272108
 30
0.0
 11
33.08199999996839
 21
4.586904617272163
 31
0.0
  0
LINE
  5
A421F
330
A4215
100
AcDbEntity
  8
0
  6
CONTINUOUS
100
AcDbLine
 10
36.23199999996837
 20
8.410423826352327
 30
0.0
 11
36.58467617360729
 21
8.763099999991255
 31
0.0
  0
LINE
  5
A4220
330
A4215
100
AcDbEntity
  8
0
  6
CONTINUOUS
100
AcDbLine
 10
36.23199999996837
 20
7.73690461727214
 30
0.0
 11
37.25819538268748
 21
8.763099999991255
 31
0.0
  0
LINE
  5
A4221
330
A4215
100
AcDbEntity
  8
0
  6
CONTINUOUS
100
AcDbLine
 10
31.64295791647285
 20
2.474343324696431
 30
0.0
 11
33.08199999996839
 21
3.913385408191976
 31
0.0
  0
LINE
  5
A4222
330
A4215
100
AcDbEntity
  8
0
  6
CONTINUOUS
100
AcDbLine
 10
31.72131278798881
 20
1.879178987132208
 30
0.0
 11
33.08199999996839
 21
3.239866199111789
 31
0.0
  0
LINE
  5
A4223
330
A4215
100
AcDbEntity
  8
0
  6
CONTINUOUS
100
AcDbLine
 10
36.23199999996837
 20
7.063385408191953
 30
0.0
 11
37.67199999996831
 21
8.503385408191894
 31
0.0
  0
LINE
  5
A4224
330
A4215
100
AcDbEntity
  8
0
  6
CONTINUOUS
100
AcDbLine
 10
36.23199999996837
 20
6.389866199111767
 30
0.0
 11
37.67199999996831
 21
7.829866199111708
 31
0.0
  0
LINE
  5
A4225
330
A4215
100
AcDbEntity
  8
0
  6
CONTINUOUS
100
AcDbLine
 10
31.90398109638795
 20
1.388328086451165
 30
0.0
 11
33.08199999996839
 21
2.566346990031603
 31
0.0
  0
LINE
  5
A4226
330
A4215
100
AcDbEntity
  8
0
  6
CONTINUOUS
100
AcDbLine
 10
36.23199999996837
 20
5.71634699003158
 30
0.0
 11
37.67199999996831
 21
7.156346990031522
 31
0.0
  0
LINE
  5
A4227
330
A4215
100
AcDbEntity
  8
0
  6
CONTINUOUS
100
AcDbLine
 10
32.15410588803598
 20
0.9649336690190076
 30
0.0
 11
33.19577568229511
 21
2.006603463278144
 31
0.0
  0
LINE
  5
A4228
330
A4215
100
AcDbEntity
  8
0
  6
CONTINUOUS
100
AcDbLine
 10
36.23199999996837
 20
5.042827780951393
 30
0.0
 11
37.67199999996831
 21
6.482827780951334
 31
0.0
  0
LINE
  5
A4229
330
A4215
100
AcDbEntity
  8
0
  6
CONTINUOUS
100
AcDbLine
 10
32.45868320364774
 20
0.5959917755505852
 30
0.0
 11
33.48433514284099
 21
1.621643714743831
 31
0.0
  0
LINE
  5
A422A
330
A4215
100
AcDbEntity
  8
0
  6
CONTINUOUS
100
AcDbLine
 10
36.23199999996837
 20
4.369308571871207
 30
0.0
 11
37.67199999996831
 21
5.809308571871148
 31
0.0
  0
LINE
  5
A422B
330
A4215
100
AcDbEntity
  8
0
  6
CONTINUOUS
100
AcDbLine
 10
32.83977805121244
 20
0.3035674140350983
 30
0.0
 11
33.9144983171802
 21
1.378287680002859
 31
0.0
  0
LINE
  5
A422C
330
A4215
100
AcDbEntity
  8
0
  6
CONTINUOUS
100
AcDbLine
 10
36.23199999996837
 20
3.695789362791021
 30
0.0
 11
37.67199999996831
 21
5.135789362790963
 31
0.0
  0
LINE
  5
A422D
330
A4215
100
AcDbEntity
  8
0
  6
CONTINUOUS
100
AcDbLine
 10
33.28925592101007
 20
0.0795260747525335
 30
0.0
 11
34.4429104952855
 21
1.233180649027971
 31
0.0
  0
LINE
  5
A422E
330
A4215
100
AcDbEntity
  8
0
  6
CONTINUOUS
100
AcDbLine
 10
36.23199999996837
 20
3.022270153710834
 30
0.0
 11
37.67199999996831
 21
4.462270153710776
 31
0.0
  0
LINE
  5
A422F
330
A4215
100
AcDbEntity
  8
0
  6
CONTINUOUS
100
AcDbLine
 10
33.76550592101022
 20
-0.1177431343275011
 30
0.0
 11
35.18258581678813
 21
1.299336761450407
 31
0.0
  0
LINE
  5
A4230
330
A4215
100
AcDbEntity
  8
0
  6
CONTINUOUS
100
AcDbLine
 10
36.20355631289775
 20
2.320307257560033
 30
0.0
 11
37.67199999996831
 21
3.788750944630589
 31
0.0
  0
LINE
  5
A4231
330
A4215
100
AcDbEntity
  8
0
  6
CONTINUOUS
100
AcDbLine
 10
34.35908899259119
 20
-0.1976792718267175
 30
0.0
 11
37.67199999996831
 21
3.115231735550402
 31
0.0
  0
LINE
  5
A4232
330
A4215
100
AcDbEntity
  8
0
  6
CONTINUOUS
100
AcDbLine
 10
35.04438808203069
 20
-0.1858993914674008
 30
0.0
 11
37.66594960818956
 21
2.435662134691464
 31
0.0
  0
LINE
  5
A4233
330
A4215
100
AcDbEntity
  8
0
  6
CONTINUOUS
100
AcDbLine
 10
35.95405053101277
 20
0.0502438484344916
 30
0.0
 11
37.49337557446166
 21
1.589568891883381
 31
0.0
  0
LINE
  5
A4234
330
A4215
100
AcDbEntity
  8
0
  6
CONTINUOUS
100
AcDbLine
 10
32.48400274193772
 20
0.5765634104975641
 30
0.0
 11
32.34694398754057
 21
0.7136221648947103
 31
0.0
  0
LINE
  5
A4235
330
A4215
100
AcDbEntity
  8
0
  6
CONTINUOUS
100
AcDbLine
 10
33.86697683926317
 20
-0.1328914777477044
 30
0.0
 11
31.70105830546678
 21
2.033027056048692
 31
0.0
  0
LINE
  5
A4236
330
A4215
100
AcDbEntity
  8
0
  6
CONTINUOUS
100
AcDbLine
 10
34.64261010498837
 20
-0.2350055343927187
 30
0.0
 11
31.64199999996833
 21
2.765604570627322
 31
0.0
  0
LINE
  5
A4237
330
A4215
100
AcDbEntity
  8
0
  6
CONTINUOUS
100
AcDbLine
 10
35.24112258276081
 20
-0.1599988030849646
 30
0.0
 11
31.64199999996833
 21
3.439123779707508
 31
0.0
  0
LINE
  5
A4238
330
A4215
100
AcDbEntity
  8
0
  6
CONTINUOUS
100
AcDbLine
 10
35.777520339722
 20
-0.0228773509659694
 30
0.0
 11
34.52146233972803
 21
1.233180649027998
 31
0.0
  0
LINE
  5
A4239
330
A4215
100
AcDbEntity
  8
0
  6
CONTINUOUS
100
AcDbLine
 10
33.08199999996839
 20
2.672642988787641
 30
0.0
 11
31.64199999996833
 21
4.112642988787695
 31
0.0
  0
LINE
  5
A423A
330
A4215
100
AcDbEntity
  8
0
  6
CONTINUOUS
100
AcDbLine
 10
36.25377033972294
 20
0.1743918581132773
 30
0.0
 11
35.14317118804349
 21
1.284991009792725
 31
0.0
  0
LINE
  5
A423B
330
A4215
100
AcDbEntity
  8
0
  6
CONTINUOUS
100
AcDbLine
 10
33.08199999996839
 20
3.346162197867827
 30
0.0
 11
31.64199999996833
 21
4.786162197867881
 31
0.0
  0
LINE
  5
A423C
330
A4215
100
AcDbEntity
  8
0
  6
CONTINUOUS
100
AcDbLine
 10
36.65748856908375
 20
0.4441928378326456
 30
0.0
 11
35.63696437513804
 21
1.464717031778358
 31
0.0
  0
LINE
  5
A423D
330
A4215
100
AcDbEntity
  8
0
  6
CONTINUOUS
100
AcDbLine
 10
33.08199999996839
 20
4.019681406948013
 30
0.0
 11
31.64199999996833
 21
5.459681406948068
 31
0.0
  0
LINE
  5
A423E
330
A4215
100
AcDbEntity
  8
0
  6
CONTINUOUS
100
AcDbLine
 10
37.00809517418186
 20
0.7671054418147287
 30
0.0
 11
35.99025189342645
 21
1.784948722570141
 31
0.0
  0
LINE
  5
A423F
330
A4215
100
AcDbEntity
  8
0
  6
CONTINUOUS
100
AcDbLine
 10
33.08199999996839
 20
4.6932006160282
 30
0.0
 11
31.64199999996833
 21
6.133200616028255
 31
0.0
  0
LINE
  5
A4240
330
A4215
100
AcDbEntity
  8
0
  6
CONTINUOUS
100
AcDbLine
 10
37.30051953569851
 20
1.148200289378269
 30
0.0
 11
36.19229254868971
 21
2.256427276387067
 31
0.0
  0
LINE
  5
A4241
330
A4215
100
AcDbEntity
  8
0
  6
CONTINUOUS
100
AcDbLine
 10
33.08199999996839
 20
5.366719825108387
 30
0.0
 11
31.64199999996833
 21
6.806719825108441
 31
0.0
  0
LINE
  5
A4242
330
A4215
100
AcDbEntity
  8
0
  6
CONTINUOUS
100
AcDbLine
 10
37.50488468691001
 20
1.617354347246954
 30
0.0
 11
36.23199999996837
 21
2.890239034188595
 31
0.0
  0
LINE
  5
A4243
330
A4215
100
AcDbEntity
  8
0
  6
CONTINUOUS
100
AcDbLine
 10
33.08199999996839
 20
6.040239034188573
 30
0.0
 11
31.64199999996833
 21
7.480239034188628
 31
0.0
  0
LINE
  5
A4244
330
A4215
100
AcDbEntity
  8
0
  6
CONTINUOUS
100
AcDbLine
 10
37.63036768068979
 20
2.165390562547355
 30
0.0
 11
36.23199999996837
 21
3.563758243268782
 31
0.0
  0
LINE
  5
A4245
330
A4215
100
AcDbEntity
  8
0
  6
CONTINUOUS
100
AcDbLine
 10
33.08199999996839
 20
6.713758243268759
 30
0.0
 11
31.64199999996833
 21
8.153758243268815
 31
0.0
  0
LINE
  5
A4246
330
A4215
100
AcDbEntity
  8
0
  6
CONTINUOUS
100
AcDbLine
 10
37.67199999996831
 20
2.797277452349027
 30
0.0
 11
36.23199999996837
 21
4.237277452348969
 31
0.0
  0
LINE
  5
A4247
330
A4215
100
AcDbEntity
  8
0
  6
CONTINUOUS
100
AcDbLine
 10
37.67199999996831
 20
3.470796661429214
 30
0.0
 11
36.23199999996837
 21
4.910796661429155
 31
0.0
  0
LINE
  5
A4248
330
A4215
100
AcDbEntity
  8
0
  6
CONTINUOUS
100
AcDbLine
 10
37.67199999996831
 20
4.1443158705094
 30
0.0
 11
36.23199999996837
 21
5.584315870509341
 31
0.0
  0
LINE
  5
A4249
330
A4215
100
AcDbEntity
  8
0
  6
CONTINUOUS
100
AcDbLine
 10
33.08199999996839
 20
7.387277452348947
 30
0.0
 11
31.70617745232608
 21
8.763099999991255
 31
0.0
  0
LINE
  5
A424A
330
A4215
100
AcDbEntity
  8
0
  6
CONTINUOUS
100
AcDbLine
 10
33.08199999996839
 20
8.060796661429134
 30
0.0
 11
32.37969666140626
 21
8.763099999991255
 31
0.0
  0
LINE
  5
A424B
330
A4215
100
AcDbEntity
  8
0
  6
CONTINUOUS
100
AcDbLine
 10
33.08199999996839
 20
8.73431587050932
 30
0.0
 11
33.05321587048645
 21
8.763099999991255
 31
0.0
  0
LINE
  5
A424C
330
A4215
100
AcDbEntity
  8
0
  6
CONTINUOUS
100
AcDbLine
 10
37.67199999996831
 20
4.817835079589587
 30
0.0
 11
36.23199999996837
 21
6.257835079589528
 31
0.0
  0
LINE
  5
A424D
330
A4215
100
AcDbEntity
  8
0
  6
CONTINUOUS
100
AcDbLine
 10
37.67199999996831
 20
5.491354288669773
 30
0.0
 11
36.23199999996837
 21
6.931354288669715
 31
0.0
  0
LINE
  5
A424E
330
A4215
100
AcDbEntity
  8
0
  6
CONTINUOUS
100
AcDbLine
 10
37.67199999996831
 20
6.164873497749959
 30
0.0
 11
36.23199999996837
 21
7.6048734977499
 31
0.0
  0
LINE
  5
A424F
330
A4215
100
AcDbEntity
  8
0
  6
CONTINUOUS
100
AcDbLine
 10
37.67199999996831
 20
6.838392706830145
 30
0.0
 11
36.23199999996837
 21
8.278392706830086
 31
0.0
  0
LINE
  5
A4250
330
A4215
100
AcDbEntity
  8
0
  6
CONTINUOUS
100
AcDbLine
 10
37.67199999996831
 20
7.511911915910333
 30
0.0
 11
36.42081191588738
 21
8.763099999991255
 31
0.0
  0
LINE
  5
A4251
330
A4215
100
AcDbEntity
  8
0
  6
CONTINUOUS
100
AcDbLine
 10
37.67199999996831
 20
8.18543112499052
 30
0.0
 11
37.09433112496757
 21
8.763099999991255
 31
0.0
  0
ENDBLK
  5
A42B9
330
A4215
100
AcDbEntity
  8
0
100
AcDbBlockEnd
  0
BLOCK
  5
A42BA
330
A4252
100
AcDbEntity
  8
0
100
AcDbBlockBegin
  2
*X45
 70
     1
 10
0.0
 20
0.0
 30
0.0
  3
*X45
  1

  0
LINE
  5
A4253
330
A4252
100
AcDbEntity
  8
0
  6
CONTINUOUS
100
AcDbLine
 10
38.60499999996136
 20
8.762866199104765
 30
0.0
 11
38.71672554182345
 21
8.874591740966855
 31
0.0
  0
LINE
  5
A4254
330
A4252
100
AcDbEntity
  8
0
  6
CONTINUOUS
100
AcDbLine
 10
38.60499999996136
 20
8.089346990024577
 30
0.0
 11
39.03418785440363
 21
8.518534844466847
 31
0.0
  0
LINE
  5
A4255
330
A4252
100
AcDbEntity
  8
0
  6
CONTINUOUS
100
AcDbLine
 10
38.60499999996136
 20
7.41582778094439
 30
0.0
 11
39.35165016698382
 21
8.16247794796684
 31
0.0
  0
LINE
  5
A4256
330
A4252
100
AcDbEntity
  8
0
  6
CONTINUOUS
100
AcDbLine
 10
38.60499999996136
 20
6.742308571864204
 30
0.0
 11
39.66911247956399
 21
7.806421051466834
 31
0.0
  0
LINE
  5
A4257
330
A4252
100
AcDbEntity
  8
0
  6
CONTINUOUS
100
AcDbLine
 10
38.60499999996136
 20
6.068789362784018
 30
0.0
 11
39.98657479214418
 21
7.450364154966827
 31
0.0
  0
LINE
  5
A4258
330
A4252
100
AcDbEntity
  8
0
  6
CONTINUOUS
100
AcDbLine
 10
38.60499999996136
 20
5.395270153703832
 30
0.0
 11
40.30403710472435
 21
7.09430725846682
 31
0.0
  0
LINE
  5
A4259
330
A4252
100
AcDbEntity
  8
0
  6
CONTINUOUS
100
AcDbLine
 10
38.60499999996136
 20
4.721750944623645
 30
0.0
 11
40.62149941730453
 21
6.738250361966813
 31
0.0
  0
LINE
  5
A425A
330
A4252
100
AcDbEntity
  8
0
  6
CONTINUOUS
100
AcDbLine
 10
38.60499999996136
 20
4.048231735543458
 30
0.0
 11
40.93896172988471
 21
6.382193465466806
 31
0.0
  0
LINE
  5
A425B
330
A4252
100
AcDbEntity
  8
0
  6
CONTINUOUS
100
AcDbLine
 10
38.60499999996136
 20
3.374712526463272
 30
0.0
 11
40.02599999995994
 21
4.795712526461843
 31
0.0
  0
LINE
  5
A425C
330
A4252
100
AcDbEntity
  8
0
  6
CONTINUOUS
100
AcDbLine
 10
38.60499999996136
 20
2.701193317383085
 30
0.0
 11
40.02599999995994
 21
4.122193317381657
 31
0.0
  0
LINE
  5
A425D
330
A4252
100
AcDbEntity
  8
0
  6
CONTINUOUS
100
AcDbLine
 10
40.28339754687704
 20
5.053110073378947
 30
0.0
 11
41.25642404246489
 21
6.026136568966799
 31
0.0
  0
LINE
  5
A425E
330
A4252
100
AcDbEntity
  8
0
  6
CONTINUOUS
100
AcDbLine
 10
40.60085985945722
 20
4.697053176878939
 30
0.0
 11
41.57388635504507
 21
5.670079672466793
 31
0.0
  0
LINE
  5
A425F
330
A4252
100
AcDbEntity
  8
0
  6
CONTINUOUS
100
AcDbLine
 10
43.57899999995641
 20
8.348712526458318
 30
0.0
 11
43.99338747348935
 21
8.763099999991255
 31
0.0
  0
LINE
  5
A4260
330
A4252
100
AcDbEntity
  8
0
  6
CONTINUOUS
100
AcDbLine
 10
43.57899999995641
 20
7.675193317378131
 30
0.0
 11
44.66690668256953
 21
8.763099999991255
 31
0.0
  0
LINE
  5
A4261
330
A4252
100
AcDbEntity
  8
0
  6
CONTINUOUS
100
AcDbLine
 10
38.60499999996136
 20
2.027674108302898
 30
0.0
 11
40.02599999995994
 21
3.44867410830147
 31
0.0
  0
LINE
  5
A4262
330
A4252
100
AcDbEntity
  8
0
  6
CONTINUOUS
100
AcDbLine
 10
38.60499999996136
 20
1.354154899222712
 30
0.0
 11
40.02599999995994
 21
2.775154899221284
 31
0.0
  0
LINE
  5
A4263
330
A4252
100
AcDbEntity
  8
0
  6
CONTINUOUS
100
AcDbLine
 10
38.60499999996136
 20
0.6806356901425255
 30
0.0
 11
40.02599999995994
 21
2.101635690141098
 31
0.0
  0
LINE
  5
A4264
330
A4252
100
AcDbEntity
  8
0
  6
CONTINUOUS
100
AcDbLine
 10
38.60499999996136
 20
0.0071164810623383
 30
0.0
 11
40.02599999995994
 21
1.428116481060911
 31
0.0
  0
LINE
  5
A4265
330
A4252
100
AcDbEntity
  8
0
  6
CONTINUOUS
100
AcDbLine
 10
40.9183221720374
 20
4.340996280378933
 30
0.0
 11
41.89134866762525
 21
5.314022775966786
 31
0.0
  0
LINE
  5
A4266
330
A4252
100
AcDbEntity
  8
0
  6
CONTINUOUS
100
AcDbLine
 10
41.23578448461758
 20
3.984939383878926
 30
0.0
 11
42.20881098020543
 21
4.957965879466778
 31
0.0
  0
LINE
  5
A4267
330
A4252
100
AcDbEntity
  8
0
  6
CONTINUOUS
100
AcDbLine
 10
41.55324679719776
 20
3.628882487378919
 30
0.0
 11
42.52627329278561
 21
4.601908982966772
 31
0.0
  0
LINE
  5
A4268
330
A4252
100
AcDbEntity
  8
0
  6
CONTINUOUS
100
AcDbLine
 10
41.87070910977793
 20
3.272825590878912
 30
0.0
 11
42.84373560536579
 21
4.245852086466765
 31
0.0
  0
LINE
  5
A4269
330
A4252
100
AcDbEntity
  8
0
  6
CONTINUOUS
100
AcDbLine
 10
43.57899999995641
 20
7.001674108297943
 30
0.0
 11
44.99999999995498
 21
8.422674108296516
 31
0.0
  0
LINE
  5
A426A
330
A4252
100
AcDbEntity
  8
0
  6
CONTINUOUS
100
AcDbLine
 10
43.57899999995641
 20
6.328154899217758
 30
0.0
 11
44.99999999995498
 21
7.749154899216329
 31
0.0
  0
LINE
  5
A426B
330
A4252
100
AcDbEntity
  8
0
  6
CONTINUOUS
100
AcDbLine
 10
43.57899999995641
 20
5.654635690137571
 30
0.0
 11
44.99999999995498
 21
7.075635690136142
 31
0.0
  0
LINE
  5
A426C
330
A4252
100
AcDbEntity
  8
0
  6
CONTINUOUS
100
AcDbLine
 10
43.57899999995641
 20
4.981116481057384
 30
0.0
 11
44.99999999995498
 21
6.402116481055955
 31
0.0
  0
LINE
  5
A426D
330
A4252
100
AcDbEntity
  8
0
  6
CONTINUOUS
100
AcDbLine
 10
39.27140272797921
 20
-0.0000000000000009
 30
0.0
 11
40.02599999995994
 21
0.7545972719807246
 31
0.0
  0
LINE
  5
A426E
330
A4252
100
AcDbEntity
  8
0
  6
CONTINUOUS
100
AcDbLine
 10
39.9449219370594
 20
-0.0000000000000009
 30
0.0
 11
40.02599999995994
 21
0.0810780629005379
 31
0.0
  0
LINE
  5
A426F
330
A4252
100
AcDbEntity
  8
0
  6
CONTINUOUS
100
AcDbLine
 10
42.18817142235812
 20
2.916768694378905
 30
0.0
 11
43.16119791794597
 21
3.889795189966758
 31
0.0
  0
LINE
  5
A4270
330
A4252
100
AcDbEntity
  8
0
  6
CONTINUOUS
100
AcDbLine
 10
42.50563373493829
 20
2.560711797878898
 30
0.0
 11
43.47866023052615
 21
3.533738293466751
 31
0.0
  0
LINE
  5
A4271
330
A4252
100
AcDbEntity
  8
0
  6
CONTINUOUS
100
AcDbLine
 10
43.57899999995641
 20
4.307597271977198
 30
0.0
 11
44.99999999995498
 21
5.728597271975769
 31
0.0
  0
LINE
  5
A4272
330
A4252
100
AcDbEntity
  8
0
  6
CONTINUOUS
100
AcDbLine
 10
43.57899999995641
 20
3.634078062897011
 30
0.0
 11
44.99999999995498
 21
5.055078062895582
 31
0.0
  0
LINE
  5
A4273
330
A4252
100
AcDbEntity
  8
0
  6
CONTINUOUS
100
AcDbLine
 10
42.82309604751848
 20
2.204654901378891
 30
0.0
 11
44.99999999995498
 21
4.381558853815395
 31
0.0
  0
LINE
  5
A4274
330
A4252
100
AcDbEntity
  8
0
  6
CONTINUOUS
100
AcDbLine
 10
43.14055836009865
 20
1.848598004878885
 30
0.0
 11
44.99999999995498
 21
3.70803964473521
 31
0.0
  0
LINE
  5
A4275
330
A4252
100
AcDbEntity
  8
0
  6
CONTINUOUS
100
AcDbLine
 10
43.45802067267883
 20
1.492541108378878
 30
0.0
 11
44.99999999995498
 21
3.034520435655023
 31
0.0
  0
LINE
  5
A4276
330
A4252
100
AcDbEntity
  8
0
  6
CONTINUOUS
100
AcDbLine
 10
43.77548298525902
 20
1.136484211878871
 30
0.0
 11
44.99999999995498
 21
2.361001226574837
 31
0.0
  0
LINE
  5
A4277
330
A4252
100
AcDbEntity
  8
0
  6
CONTINUOUS
100
AcDbLine
 10
44.09294529783919
 20
0.7804273153788639
 30
0.0
 11
44.99999999995498
 21
1.687482017494649
 31
0.0
  0
LINE
  5
A4278
330
A4252
100
AcDbEntity
  8
0
  6
CONTINUOUS
100
AcDbLine
 10
44.41040761041938
 20
0.4243704188788566
 30
0.0
 11
44.99999999995498
 21
1.013962808414463
 31
0.0
  0
LINE
  5
A4279
330
A4252
100
AcDbEntity
  8
0
  6
CONTINUOUS
100
AcDbLine
 10
44.72786992299955
 20
0.0683135223788494
 30
0.0
 11
44.99999999995498
 21
0.340443599334276
 31
0.0
  0
LINE
  5
A427A
330
A4252
100
AcDbEntity
  8
0
  6
CONTINUOUS
100
AcDbLine
 10
39.12223903415696
 20
-0.0000000000000009
 30
0.0
 11
38.60499999996136
 21
0.5172390341955961
 31
0.0
  0
LINE
  5
A427B
330
A4252
100
AcDbEntity
  8
0
  6
CONTINUOUS
100
AcDbLine
 10
39.79575824323715
 20
-0.0000000000000009
 30
0.0
 11
38.60499999996136
 21
1.190758243275783
 31
0.0
  0
LINE
  5
A427C
330
A4252
100
AcDbEntity
  8
0
  6
CONTINUOUS
100
AcDbLine
 10
40.02599999995994
 20
0.443277452357397
 30
0.0
 11
38.60499999996136
 21
1.864277452355969
 31
0.0
  0
LINE
  5
A427D
330
A4252
100
AcDbEntity
  8
0
  6
CONTINUOUS
100
AcDbLine
 10
40.02599999995994
 20
1.116796661437583
 30
0.0
 11
38.60499999996136
 21
2.537796661436155
 31
0.0
  0
LINE
  5
A427E
330
A4252
100
AcDbEntity
  8
0
  6
CONTINUOUS
100
AcDbLine
 10
40.02599999995994
 20
1.79031587051777
 30
0.0
 11
38.60499999996136
 21
3.211315870516341
 31
0.0
  0
LINE
  5
A427F
330
A4252
100
AcDbEntity
  8
0
  6
CONTINUOUS
100
AcDbLine
 10
40.02599999995994
 20
2.463835079597956
 30
0.0
 11
38.60499999996136
 21
3.884835079596527
 31
0.0
  0
LINE
  5
A4280
330
A4252
100
AcDbEntity
  8
0
  6
CONTINUOUS
100
AcDbLine
 10
40.02599999995994
 20
3.137354288678143
 30
0.0
 11
38.60499999996136
 21
4.558354288676714
 31
0.0
  0
LINE
  5
A4281
330
A4252
100
AcDbEntity
  8
0
  6
CONTINUOUS
100
AcDbLine
 10
40.02599999995994
 20
3.810873497758329
 30
0.0
 11
38.60499999996136
 21
5.2318734977569
 31
0.0
  0
LINE
  5
A4282
330
A4252
100
AcDbEntity
  8
0
  6
CONTINUOUS
100
AcDbLine
 10
40.02599999995994
 20
4.484392706838515
 30
0.0
 11
38.60499999996136
 21
5.905392706837086
 31
0.0
  0
LINE
  5
A4283
330
A4252
100
AcDbEntity
  8
0
  6
CONTINUOUS
100
AcDbLine
 10
44.99999999995498
 20
0.183911915923658
 30
0.0
 11
41.53858364506288
 21
3.64532827081576
 31
0.0
  0
LINE
  5
A4284
330
A4252
100
AcDbEntity
  8
0
  6
CONTINUOUS
100
AcDbLine
 10
40.02599999995994
 20
5.157911915918703
 30
0.0
 11
38.60499999996136
 21
6.578911915917274
 31
0.0
  0
LINE
  5
A4285
330
A4252
100
AcDbEntity
  8
0
  6
CONTINUOUS
100
AcDbLine
 10
44.99999999995498
 20
0.8574311250038447
 30
0.0
 11
38.60499999996136
 21
7.25243112499746
 31
0.0
  0
LINE
  5
A4286
330
A4252
100
AcDbEntity
  8
0
  6
CONTINUOUS
100
AcDbLine
 10
44.99999999995498
 20
1.530950334084031
 30
0.0
 11
38.60499999996136
 21
7.925950334077647
 31
0.0
  0
LINE
  5
A4287
330
A4252
100
AcDbEntity
  8
0
  6
CONTINUOUS
100
AcDbLine
 10
44.99999999995498
 20
2.204469543164218
 30
0.0
 11
43.57899999995641
 21
3.625469543162789
 31
0.0
  0
LINE
  5
A4288
330
A4252
100
AcDbEntity
  8
0
  6
CONTINUOUS
100
AcDbLine
 10
41.89876730984767
 20
5.305702233271528
 30
0.0
 11
38.60499999996136
 21
8.599469543157834
 31
0.0
  0
LINE
  5
A4289
330
A4252
100
AcDbEntity
  8
0
  6
CONTINUOUS
100
AcDbLine
 10
44.99999999995498
 20
2.877988752244405
 30
0.0
 11
43.57899999995641
 21
4.298988752242975
 31
0.0
  0
LINE
  5
A428A
330
A4252
100
AcDbEntity
  8
0
  6
CONTINUOUS
100
AcDbLine
 10
44.99999999995498
 20
3.551507961324591
 30
0.0
 11
43.57899999995641
 21
4.972507961323163
 31
0.0
  0
LINE
  5
A428B
330
A4252
100
AcDbEntity
  8
0
  6
CONTINUOUS
100
AcDbLine
 10
44.99999999995498
 20
4.225027170404777
 30
0.0
 11
43.57899999995641
 21
5.646027170403348
 31
0.0
  0
LINE
  5
A428C
330
A4252
100
AcDbEntity
  8
0
  6
CONTINUOUS
100
AcDbLine
 10
44.99999999995498
 20
4.898546379484964
 30
0.0
 11
43.57899999995641
 21
6.319546379483535
 31
0.0
  0
LINE
  5
A428D
330
A4252
100
AcDbEntity
  8
0
  6
CONTINUOUS
100
AcDbLine
 10
44.99999999995498
 20
5.572065588565151
 30
0.0
 11
43.57899999995641
 21
6.993065588563722
 31
0.0
  0
LINE
  5
A428E
330
A4252
100
AcDbEntity
  8
0
  6
CONTINUOUS
100
AcDbLine
 10
44.99999999995498
 20
6.245584797645336
 30
0.0
 11
43.57899999995641
 21
7.666584797643908
 31
0.0
  0
LINE
  5
A428F
330
A4252
100
AcDbEntity
  8
0
  6
CONTINUOUS
100
AcDbLine
 10
44.99999999995498
 20
6.919104006725522
 30
0.0
 11
43.57899999995641
 21
8.340104006724093
 31
0.0
  0
LINE
  5
A4290
330
A4252
100
AcDbEntity
  8
0
  6
CONTINUOUS
100
AcDbLine
 10
44.99999999995498
 20
7.592623215805709
 30
0.0
 11
43.82952321576943
 21
8.763099999991255
 31
0.0
  0
LINE
  5
A4291
330
A4252
100
AcDbEntity
  8
0
  6
CONTINUOUS
100
AcDbLine
 10
44.99999999995498
 20
8.266142424885896
 30
0.0
 11
44.50304242484962
 21
8.763099999991255
 31
0.0
  0
ENDBLK
  5
A42BB
330
A4252
100
AcDbEntity
  8
0
100
AcDbBlockEnd
  0
BLOCK
  5
A42BC
330
A4292
100
AcDbEntity
  8
0
100
AcDbBlockBegin
  2
*X46
 70
     1
 10
0.0
 20
0.0
 30
0.0
  3
*X46
  1

  0
LINE
  5
A4293
330
A4292
100
AcDbEntity
  8
0
  6
CONTINUOUS
100
AcDbLine
 10
0.0
 20
8.548461116714023
 30
0.0
 11
0.2146388832772324
 21
8.763099999991255
 31
0.0
  0
LINE
  5
A4294
330
A4292
100
AcDbEntity
  8
0
  6
CONTINUOUS
100
AcDbLine
 10
-0.0000000000000002
 20
7.874941907633837
 30
0.0
 11
0.8881580923574184
 21
8.763099999991255
 31
0.0
  0
LINE
  5
A4295
330
A4292
100
AcDbEntity
  8
0
  6
CONTINUOUS
100
AcDbLine
 10
0.0
 20
7.20142269855365
 30
0.0
 11
1.420999999998572
 21
8.622422698552223
 31
0.0
  0
LINE
  5
A4296
330
A4292
100
AcDbEntity
  8
0
  6
CONTINUOUS
100
AcDbLine
 10
-0.0000000000000001
 20
6.527903489473465
 30
0.0
 11
1.420999999998571
 21
7.948903489472036
 31
0.0
  0
LINE
  5
A4297
330
A4292
100
AcDbEntity
  8
0
  6
CONTINUOUS
100
AcDbLine
 10
-0.0000000000000002
 20
5.854384280393278
 30
0.0
 11
1.420999999998571
 21
7.275384280391849
 31
0.0
  0
LINE
  5
A4298
330
A4292
100
AcDbEntity
  8
0
  6
CONTINUOUS
100
AcDbLine
 10
-0.0000000000000002
 20
5.180865071313091
 30
0.0
 11
1.420999999998571
 21
6.601865071311663
 31
0.0
  0
LINE
  5
A4299
330
A4292
100
AcDbEntity
  8
0
  6
CONTINUOUS
100
AcDbLine
 10
0.0
 20
4.507345862232905
 30
0.0
 11
1.420999999998571
 21
5.928345862231477
 31
0.0
  0
LINE
  5
A429A
330
A4292
100
AcDbEntity
  8
0
  6
CONTINUOUS
100
AcDbLine
 10
-0.0000000000000003
 20
3.833826653152718
 30
0.0
 11
1.420999999998571
 21
5.25482665315129
 31
0.0
  0
LINE
  5
A429B
330
A4292
100
AcDbEntity
  8
0
  6
CONTINUOUS
100
AcDbLine
 10
-0.0000000000000002
 20
3.160307444072532
 30
0.0
 11
1.420999999998571
 21
4.581307444071103
 31
0.0
  0
LINE
  5
A429C
330
A4292
100
AcDbEntity
  8
0
  6
CONTINUOUS
100
AcDbLine
 10
-0.0000000000000001
 20
2.486788234992345
 30
0.0
 11
1.420999999998571
 21
3.907788234990917
 31
0.0
  0
LINE
  5
A429D
330
A4292
100
AcDbEntity
  8
0
  6
CONTINUOUS
100
AcDbLine
 10
-0.0000000000000006
 20
1.813269025912159
 30
0.0
 11
1.420999999998571
 21
3.234269025910731
 31
0.0
  0
LINE
  5
A429E
330
A4292
100
AcDbEntity
  8
0
  6
CONTINUOUS
100
AcDbLine
 10
0.0
 20
1.139749816831973
 30
0.0
 11
1.420999999998571
 21
2.560749816830544
 31
0.0
  0
LINE
  5
A429F
330
A4292
100
AcDbEntity
  8
0
  6
CONTINUOUS
100
AcDbLine
 10
0.0000000000000002
 20
0.466230607751787
 30
0.0
 11
1.420999999998571
 21
1.887230607750358
 31
0.0
  0
LINE
  5
A42A0
330
A4292
100
AcDbEntity
  8
0
  6
CONTINUOUS
100
AcDbLine
 10
0.2072886013284003
 20
-0.0000000000000009
 30
0.0
 11
1.420999999998571
 21
1.213711398670171
 31
0.0
  0
LINE
  5
A42A1
330
A4292
100
AcDbEntity
  8
0
  6
CONTINUOUS
100
AcDbLine
 10
0.8808078104085864
 20
-0.0000000000000009
 30
0.0
 11
1.420999999998571
 21
0.5401921895899839
 31
0.0
  0
LINE
  5
A42A2
330
A4292
100
AcDbEntity
  8
0
  6
CONTINUOUS
100
AcDbLine
 10
0.0581249075061505
 20
-0.0000000000000009
 30
0.0
 11
-0.0000000000000002
 21
0.0581249075061496
 31
0.0
  0
LINE
  5
A42A3
330
A4292
100
AcDbEntity
  8
0
  6
CONTINUOUS
100
AcDbLine
 10
0.7316441165863372
 20
-0.0000000000000009
 30
0.0
 11
-0.0000000000000002
 21
0.7316441165863363
 31
0.0
  0
LINE
  5
A42A4
330
A4292
100
AcDbEntity
  8
0
  6
CONTINUOUS
100
AcDbLine
 10
1.405163325666523
 20
-0.0000000000000009
 30
0.0
 11
-0.0000000000000002
 21
1.405163325666523
 31
0.0
  0
LINE
  5
A42A5
330
A4292
100
AcDbEntity
  8
0
  6
CONTINUOUS
100
AcDbLine
 10
1.420999999998572
 20
0.6576825347481381
 30
0.0
 11
-0.0000000000000001
 21
2.07868253474671
 31
0.0
  0
LINE
  5
A42A6
330
A4292
100
AcDbEntity
  8
0
  6
CONTINUOUS
100
AcDbLine
 10
1.420999999998571
 20
1.331201743828324
 30
0.0
 11
-0.0000000000000001
 21
2.752201743826896
 31
0.0
  0
LINE
  5
A42A7
330
A4292
100
AcDbEntity
  8
0
  6
CONTINUOUS
100
AcDbLine
 10
1.420999999998571
 20
2.004720952908511
 30
0.0
 11
-0.0000000000000002
 21
3.425720952907082
 31
0.0
  0
LINE
  5
A42A8
330
A4292
100
AcDbEntity
  8
0
  6
CONTINUOUS
100
AcDbLine
 10
1.420999999998571
 20
2.678240161988697
 30
0.0
 11
-0.0000000000000001
 21
4.099240161987269
 31
0.0
  0
LINE
  5
A42A9
330
A4292
100
AcDbEntity
  8
0
  6
CONTINUOUS
100
AcDbLine
 10
1.420999999998572
 20
3.351759371068884
 30
0.0
 11
0.0
 21
4.772759371067455
 31
0.0
  0
LINE
  5
A42AA
330
A4292
100
AcDbEntity
  8
0
  6
CONTINUOUS
100
AcDbLine
 10
1.420999999998571
 20
4.02527858014907
 30
0.0
 11
-0.0000000000000003
 21
5.446278580147642
 31
0.0
  0
LINE
  5
A42AB
330
A4292
100
AcDbEntity
  8
0
  6
CONTINUOUS
100
AcDbLine
 10
1.420999999998571
 20
4.698797789229257
 30
0.0
 11
0.0
 21
6.119797789227828
 31
0.0
  0
LINE
  5
A42AC
330
A4292
100
AcDbEntity
  8
0
  6
CONTINUOUS
100
AcDbLine
 10
1.420999999998571
 20
5.372316998309444
 30
0.0
 11
-0.0000000000000001
 21
6.793316998308015
 31
0.0
  0
LINE
  5
A42AD
330
A4292
100
AcDbEntity
  8
0
  6
CONTINUOUS
100
AcDbLine
 10
1.420999999998572
 20
6.045836207389629
 30
0.0
 11
-0.0000000000000004
 21
7.466836207388202
 31
0.0
  0
LINE
  5
A42AE
330
A4292
100
AcDbEntity
  8
0
  6
CONTINUOUS
100
AcDbLine
 10
1.420999999998571
 20
6.719355416469816
 30
0.0
 11
0.0
 21
8.140355416468388
 31
0.0
  0
LINE
  5
A42AF
330
A4292
100
AcDbEntity
  8
0
  6
CONTINUOUS
100
AcDbLine
 10
1.420999999998571
 20
7.392874625550003
 30
0.0
 11
0.0507746255573185
 21
8.763099999991255
 31
0.0
  0
LINE
  5
A42B0
330
A4292
100
AcDbEntity
  8
0
  6
CONTINUOUS
100
AcDbLine
 10
1.420999999998571
 20
8.06639383463019
 30
0.0
 11
0.7242938346375052
 21
8.763099999991255
 31
0.0
  0
LINE
  5
A42B1
330
A4292
100
AcDbEntity
  8
0
  6
CONTINUOUS
100
AcDbLine
 10
1.420999999998571
 20
8.739913043710375
 30
0.0
 11
1.397813043717691
 21
8.763099999991255
 31
0.0
  0
ENDBLK
  5
A42BD
330
A4292
100
AcDbEntity
  8
0
100
AcDbBlockEnd
  0
ENDSEC
  0
SECTION
  2
ENTITIES
  0
TEXT
  5
A3C11
330
18
100
AcDbEntity
  8
1TEXT
100
AcDbText
 10
47.09212329294992
 20
85.45323385705933
 30
0.0
 40
4.0
  1
表面処理：
 72
     1
 11
57.89212329294992
 21
85.45323385705933
 31
0.0
100
AcDbText
  0
TEXT
  5
A3C12
330
18
100
AcDbEntity
  8
1TEXT
100
AcDbText
 10
41.35878995961659
 20
71.61794519753494
 30
0.0
 40
4.0
  1
サテンニッケル
 72
     1
 11
57.89212329294992
 21
71.61794519753494
 31
0.0
100
AcDbText
  0
TEXT
  5
A3C13
330
18
100
AcDbEntity
  8
1TEXT
100
AcDbText
 10
48.42545662628325
 20
78.47533883707501
 30
0.0
 40
4.0
  1
クローム
 72
     1
 11
57.89212329294992
 21
78.47533883707501
 31
0.0
100
AcDbText
  0
LINE
  5
A3C14
330
18
100
AcDbEntity
  8
1DIM
100
AcDbLine
 10
40.49212329294983
 20
90.95323385705933
 30
0.0
 11
110.4921232929498
 21
90.95323385705933
 31
0.0
  0
LINE
  5
A3C15
330
18
100
AcDbEntity
  8
1DIM
100
AcDbLine
 10
40.49212329294983
 20
76.95323385705933
 30
0.0
 11
110.4921232929498
 21
76.95323385705933
 31
0.0
  0
LINE
  5
A3C16
330
18
100
AcDbEntity
  8
1DIM
100
AcDbLine
 10
40.49212329294983
 20
83.95323385705933
 30
0.0
 11
110.4921232929498
 21
83.95323385705933
 31
0.0
  0
LINE
  5
A3C17
330
18
100
AcDbEntity
  8
1DIM
100
AcDbLine
 10
40.49212329294983
 20
69.95323385705933
 30
0.0
 11
110.4921232929498
 21
69.95323385705933
 31
0.0
  0
LINE
  5
A3C18
330
18
100
AcDbEntity
  8
1DIM
100
AcDbLine
 10
40.49212329294983
 20
69.95323385705933
 30
0.0
 11
110.4921232929498
 21
69.95323385705933
 31
0.0
  0
LINE
  5
A3C19
330
18
100
AcDbEntity
  8
1DIM
100
AcDbLine
 10
75.49212329294983
 20
90.95323385705933
 30
0.0
 11
75.49212329294983
 21
62.95323385705933
 31
0.0
  0
TEXT
  5
A3C1A
330
18
100
AcDbEntity
  8
1TEXT
100
AcDbText
 10
79.02545662628371
 20
78.23887687340994
 30
0.0
 40
4.0
  1
KH-373-XC
 41
0.8
 72
     1
 11
92.89212329295037
 21
78.23887687340994
 31
0.0
100
AcDbText
  0
TEXT
  5
A3C1B
330
18
100
AcDbEntity
  8
1TEXT
100
AcDbText
 10
86.02545662628326
 20
85.45323385705933
 30
0.0
 40
4.0
  1
コード
 72
     1
 11
92.89212329294992
 21
85.45323385705933
 31
0.0
100
AcDbText
  0
LINE
  5
A3C1C
330
18
100
AcDbEntity
  8
1DIM
100
AcDbLine
 10
40.49212329294983
 20
62.95323385705933
 30
0.0
 11
40.49212329294983
 21
90.95323385705933
 31
0.0
  0
LINE
  5
A3C1D
330
18
100
AcDbEntity
  8
1DIM
100
AcDbLine
 10
110.4921232929498
 20
62.95323385705933
 30
0.0
 11
110.4921232929498
 21
90.95323385705933
 31
0.0
  0
TEXT
  5
A3C1E
330
18
100
AcDbEntity
  8
1TEXT
100
AcDbText
 10
40.49212329294983
 20
95.95323385705933
 30
0.0
 40
8.0
  1
KH-373-X
100
AcDbText
  0
TEXT
  5
A3C1F
330
18
100
AcDbEntity
  8
1TEXT
100
AcDbText
 10
79.02545662628371
 20
71.23887687340994
 30
0.0
 40
4.0
  1
KH-373-XN
 41
0.8
 72
     1
 11
92.89212329295037
 21
71.23887687340994
 31
0.0
100
AcDbText
  0
ARC
  5
A3C21
330
18
100
AcDbEntity
  8
1PHANTOM
100
AcDbCircle
 10
-82.58886506711343
 20
44.9532338570591
 30
0.0
 40
1.0
100
AcDbArc
 50
0.0
 51
90.0
  0
LINE
  5
A3C22
330
18
100
AcDbEntity
  8
01
100
AcDbLine
 10
-105.1097115694363
 20
17.4532338570591
 30
0.0
 11
-105.1097115694363
 21
-20.5467661429409
 31
0.0
  0
LINE
  5
A3C23
330
18
100
AcDbEntity
  8
01
100
AcDbLine
 10
-104.6097814857706
 20
17.96159516352077
 30
0.0
 11
-105.1097115694363
 21
17.4532338570591
 31
0.0
  0
LINE
  5
A3C24
330
18
100
AcDbEntity
  8
01
100
AcDbLine
 10
-90.10971156943634
 20
18.20410813132662
 30
0.0
 11
-90.10971156943589
 21
-20.99172447916726
 31
0.0
  0
ARC
  5
A3C25
330
18
100
AcDbEntity
  8
1PHANTOM
100
AcDbCircle
 10
-88.10971156943589
 20
-10.54676614294067
 30
0.0
 40
2.0
100
AcDbArc
 50
90.0
 51
180.0
  0
ARC
  5
A3C26
330
18
100
AcDbEntity
  8
01
100
AcDbCircle
 10
-90.40971156943607
 20
-20.99172447916726
 30
0.0
 40
0.3
100
AcDbArc
 50
269.045158746106
 51
0.0
  0
LINE
  5
A3C27
330
18
100
AcDbEntity
  8
01
100
AcDbLine
 10
-87.10971156943634
 20
50.95323385705933
 30
0.0
 11
-87.10971156943634
 21
47.95323385705933
 31
0.0
  0
LINE
  5
A3C28
330
18
100
AcDbEntity
  8
1PHANTOM
100
AcDbLine
 10
-57.02392513180877
 20
11.9532338570591
 30
0.0
 11
-71.60971156943589
 21
11.9532338570591
 31
0.0
  0
ARC
  5
A3C29
330
18
100
AcDbEntity
  8
1PHANTOM
100
AcDbCircle
 10
-57.02392513180877
 20
12.9532338570591
 30
0.0
 40
1.0
100
AcDbArc
 50
270.0
 51
315.0000000000057
  0
LINE
  5
A3C2A
330
18
100
AcDbEntity
  8
1PHANTOM
100
AcDbLine
 10
-77.52392513181013
 20
-8.546766142940669
 30
0.0
 11
-88.10971156943589
 21
-8.546766142940669
 31
0.0
  0
ARC
  5
A3C2B
330
18
100
AcDbEntity
  8
1PHANTOM
100
AcDbCircle
 10
-77.52392513181013
 20
-7.546766142940669
 30
0.0
 40
1.0
100
AcDbArc
 50
270.0
 51
314.9999999999727
  0
LINE
  5
A3C2C
330
18
100
AcDbEntity
  8
01
100
AcDbLine
 10
-43.40971156943607
 20
47.95323385705933
 30
0.0
 11
-87.10971156943634
 21
47.95323385705933
 31
0.0
  0
ARC
  5
A3C2D
330
18
100
AcDbEntity
  8
01
100
AcDbCircle
 10
-43.40971156943607
 20
48.25323385705929
 30
0.0
 40
0.3
100
AcDbArc
 50
270.0
 51
0.0
  0
LINE
  5
A3C2E
330
18
100
AcDbEntity
  8
1PHANTOM
100
AcDbLine
 10
-45.90971156943607
 20
45.9532338570591
 30
0.0
 11
-84.0799452608947
 21
45.9532338570591
 31
0.0
  0
ARC
  5
A3C2F
330
18
100
AcDbEntity
  8
1PHANTOM
100
AcDbCircle
 10
-45.90971156943607
 20
46.4532338570591
 30
0.0
 40
0.5
100
AcDbArc
 50
270.0
 51
0.0
  0
LINE
  5
A3C30
330
18
100
AcDbEntity
  8
01
100
AcDbLine
 10
-43.10971156943634
 20
50.95323385705933
 30
0.0
 11
-87.10971156943634
 21
50.95323385705933
 31
0.0
  0
LINE
  5
A3C31
330
18
100
AcDbEntity
  8
01
100
AcDbLine
 10
-87.10971156943634
 20
47.95323385705933
 30
0.0
 11
-86.24090222472051
 21
19.28252548143905
 31
0.0
  0
ARC
  5
A3C32
330
18
100
AcDbEntity
  8
01
100
AcDbCircle
 10
-87.24044340386564
 20
19.25223635479824
 30
0.0
 40
1.0
100
AcDbArc
 50
270.958179804941
 51
1.735704588930707
  0
LINE
  5
A3C33
330
18
100
AcDbEntity
  8
01
100
AcDbLine
 10
-43.10971156943634
 20
50.95323385705933
 30
0.0
 11
-43.10971156943634
 21
48.25323385705929
 31
0.0
  0
LINE
  5
A3C34
330
18
100
AcDbEntity
  8
1PHANTOM
100
AcDbLine
 10
-45.40971156943607
 20
46.4532338570591
 30
0.0
 11
-45.40971156943652
 21
47.95323385705933
 31
0.0
  0
LINE
  5
A3C35
330
18
100
AcDbEntity
  8
1PHANTOM
100
AcDbLine
 10
-84.5799452608947
 20
46.4532338570591
 30
0.0
 11
-84.5799452608947
 21
47.95323385705933
 31
0.0
  0
ARC
  5
A3C36
330
18
100
AcDbEntity
  8
1PHANTOM
100
AcDbCircle
 10
-84.0799452608947
 20
46.4532338570591
 30
0.0
 40
0.5
100
AcDbArc
 50
180.0
 51
270.0
  0
LINE
  5
A3C37
330
18
100
AcDbEntity
  8
01
100
AcDbLine
 10
-104.6097814857706
 20
17.96159516352077
 30
0.0
 11
-87.22372079094231
 21
18.25237618746633
 31
0.0
  0
LINE
  5
A3C38
330
18
100
AcDbEntity
  8
01
100
AcDbLine
 10
-104.6097809994165
 20
-21.05509831910786
 30
0.0
 11
-90.41471087513611
 21
-21.29168282117917
 31
0.0
  0
LINE
  5
A3C39
330
18
100
AcDbEntity
  8
01
100
AcDbLine
 10
-105.1097115694363
 20
-20.5467661429409
 30
0.0
 11
-104.6097809994165
 21
-21.05509831910786
 31
0.0
  0
LINE
  5
A3C3A
330
18
100
AcDbEntity
  8
1PHANTOM
100
AcDbLine
 10
-50.60971156943589
 20
18.36744741943221
 30
0.0
 11
-50.60971156943589
 21
41.39753028288328
 31
0.0
  0
ARC
  5
A3C3B
330
18
100
AcDbEntity
  8
1PHANTOM
100
AcDbCircle
 10
-51.60971156943589
 20
18.36744741943221
 30
0.0
 40
1.0
100
AcDbArc
 50
315.0000000000057
 51
0.0
  0
LINE
  5
A3C3C
330
18
100
AcDbEntity
  8
1PHANTOM
100
AcDbLine
 10
-50.90260478824922
 20
17.66034063824554
 30
0.0
 11
-56.3168183506221
 21
12.24612707587266
 31
0.0
  0
ARC
  5
A3C3D
330
18
100
AcDbEntity
  8
1PHANTOM
100
AcDbCircle
 10
-71.60971156943589
 20
11.4532338570591
 30
0.0
 40
0.5
100
AcDbArc
 50
90.0
 51
180.0
  0
LINE
  5
A3C3E
330
18
100
AcDbEntity
  8
1PHANTOM
100
AcDbLine
 10
-81.58886506711434
 20
-8.546766142940669
 30
0.0
 11
-81.58886506711343
 21
44.9532338570591
 31
0.0
  0
LINE
  5
A3C3F
330
18
100
AcDbEntity
  8
1PHANTOM
100
AcDbLine
 10
-72.40260478824968
 20
-3.839659361755366
 30
0.0
 11
-76.81681835062392
 21
-8.253872924127336
 31
0.0
  0
ARC
  5
A3C40
330
18
100
AcDbEntity
  8
1PHANTOM
100
AcDbCircle
 10
-73.10971156943634
 20
-3.132552580568699
 30
0.0
 40
1.0
100
AcDbArc
 50
315.0000000000057
 51
0.0
  0
ARC
  5
A3C41
330
18
100
AcDbEntity
  8
01
100
AcDbCircle
 10
-65.10971156943634
 20
-79.37033639919287
 30
0.0
 40
22.00000000000003
100
AcDbArc
 50
246.9169344597464
 51
113.0830655402536
  0
ARC
  5
A3C42
330
18
100
AcDbEntity
  8
01
100
AcDbCircle
 10
-89.80971156943662
 20
-82.67033639919282
 30
0.0
 40
0.3
100
AcDbArc
 50
90.0
 51
180.0
  0
LINE
  5
A3C43
330
18
100
AcDbEntity
  8
01
100
AcDbLine
 10
-105.1097115694363
 20
-60.37033639919287
 30
0.0
 11
-105.1097115694359
 21
-98.37033639919287
 31
0.0
  0
LINE
  5
A3C44
330
18
100
AcDbEntity
  8
01
100
AcDbLine
 10
-104.6097809994165
 20
-59.86200422302591
 30
0.0
 11
-105.1097115694363
 21
-60.37033639919287
 31
0.0
  0
ARC
  5
A3C45
330
18
100
AcDbEntity
  8
01
100
AcDbCircle
 10
-104.8097115694366
 20
-97.42033639919282
 30
0.0
 40
0.3
100
AcDbArc
 50
90.0
 51
180.0
  0
ARC
  5
A3C46
330
18
100
AcDbEntity
  8
01
100
AcDbCircle
 10
-104.8097115694366
 20
-61.32033639919268
 30
0.0
 40
0.3
100
AcDbArc
 50
180.0
 51
270.0
  0
LINE
  5
A3C47
330
18
100
AcDbEntity
  8
01
100
AcDbLine
 10
-90.10971156943589
 20
-59.92537806296627
 30
0.0
 11
-90.10971156943634
 21
-76.07033639919291
 31
0.0
  0
ARC
  5
A3C48
330
18
100
AcDbEntity
  8
01
100
AcDbCircle
 10
-89.80971156943662
 20
-76.07033639919291
 30
0.0
 40
0.3
100
AcDbArc
 50
180.0
 51
270.0
  0
ARC
  5
A3C49
330
18
100
AcDbEntity
  8
01
100
AcDbCircle
 10
-90.40971156943607
 20
-59.92537806296627
 30
0.0
 40
0.3
100
AcDbArc
 50
0.0
 51
90.95484125389397
  0
LINE
  5
A3C4A
330
18
100
AcDbEntity
  8
01
100
AcDbLine
 10
-90.1097115694368
 20
-82.67033639919282
 30
0.0
 11
-90.10971156943634
 21
-98.81529473541923
 31
0.0
  0
ARC
  5
A3C4B
330
18
100
AcDbEntity
  8
01
100
AcDbCircle
 10
-90.40971156943607
 20
-98.81529473541923
 30
0.0
 40
0.3
100
AcDbArc
 50
269.045158746106
 51
0.0
  0
LINE
  5
A3C4C
330
18
100
AcDbEntity
  8
01
100
AcDbLine
 10
-104.6097809994165
 20
-59.86200422302591
 30
0.0
 11
-90.41471087513611
 21
-59.62541972095437
 31
0.0
  0
LINE
  5
A3C4D
330
18
100
AcDbEntity
  8
01
100
AcDbLine
 10
-104.6097809994165
 20
-98.87866857535982
 30
0.0
 11
-90.41471087513656
 21
-99.11525307743113
 31
0.0
  0
LINE
  5
A3C4E
330
18
100
AcDbEntity
  8
01
100
AcDbLine
 10
-105.1097115694359
 20
-98.37033639919287
 30
0.0
 11
-104.6097809994165
 21
-98.87866857535982
 31
0.0
  0
LINE
  5
A3C4F
330
18
100
AcDbEntity
  8
1PHANTOM
100
AcDbLine
 10
-95.1097115694368
 20
-61.92033639919282
 30
0.0
 11
-95.1097115694368
 21
-96.82033639919291
 31
0.0
  0
ARC
  5
A3C50
330
18
100
AcDbEntity
  8
1PHANTOM
100
AcDbCircle
 10
-95.40971156943698
 20
-96.82033639919291
 30
0.0
 40
0.3
100
AcDbArc
 50
270.0
 51
0.0
  0
LINE
  5
A3C51
330
18
100
AcDbEntity
  8
1PHANTOM
100
AcDbLine
 10
-105.1097115694363
 20
-97.12033639919287
 30
0.0
 11
-95.40971156943698
 21
-97.12033639919287
 31
0.0
  0
LINE
  5
A3C52
330
18
100
AcDbEntity
  8
1PHANTOM
100
AcDbLine
 10
-105.1097115694363
 20
-61.62033639919264
 30
0.0
 11
-95.40971156943652
 21
-61.62033639919287
 31
0.0
  0
ARC
  5
A3C53
330
18
100
AcDbEntity
  8
1PHANTOM
100
AcDbCircle
 10
-95.40971156943652
 20
-61.92033639919282
 30
0.0
 40
0.3
100
AcDbArc
 50
0.0
 51
90.0
  0
LINE
  5
A3C56
330
18
100
AcDbEntity
  8
1DIM
100
AcDbLine
 10
-104.6097809994165
 20
-98.87866857535982
 30
0.0
 11
-105.1097115694363
 21
-98.87033639919287
 31
0.0
  0
LINE
  5
A3C57
330
18
100
AcDbEntity
  8
1DIM
100
AcDbLine
 10
-104.6097809994165
 20
-59.86200422302591
 30
0.0
 11
-105.1097115694363
 21
-59.87033639919287
 31
0.0
  0
LINE
  5
A3C58
330
18
100
AcDbEntity
  8
01
100
AcDbLine
 10
-89.85971156943725
 20
-9.57852030639151
 30
0.0
 11
-89.85971156943725
 21
-21.00571934259119
 31
0.0
  0
ARC
  5
A3C59
330
18
100
AcDbEntity
  8
01
100
AcDbCircle
 10
-89.55971156943707
 20
-21.00571934259119
 30
0.0
 40
0.3
100
AcDbArc
 50
180.0
 51
268.2642954110563
  0
ARC
  5
A3C5A
330
18
100
AcDbEntity
  8
1PHANTOM
100
AcDbCircle
 10
-89.35971156943725
 20
-19.79676614294067
 30
0.0
 40
0.5
100
AcDbArc
 50
90.0
 51
180.0
  0
LINE
  5
A3C5B
330
18
100
AcDbEntity
  8
1PHANTOM
100
AcDbLine
 10
-43.46439473342281
 20
46.45323385705933
 30
0.0
 11
-45.40971156943607
 21
46.45323385705933
 31
0.0
  0
ARC
  5
A3C5C
330
18
100
AcDbEntity
  8
01
100
AcDbCircle
 10
-43.46439473342281
 20
46.15323385705915
 30
0.0
 40
0.3
100
AcDbArc
 50
358.2642954110693
 51
90.0
  0
ARC
  5
A3C5D
330
18
100
AcDbEntity
  8
1PHANTOM
100
AcDbCircle
 10
-46.8597115694368
 20
39.45323385705933
 30
0.0
 40
0.5
100
AcDbArc
 50
90.0
 51
180.0
  0
LINE
  5
A3C5E
330
18
100
AcDbEntity
  8
1PHANTOM
100
AcDbLine
 10
-45.87284017571056
 20
39.95323385706479
 30
0.0
 11
-50.60971156943543
 21
39.95323385706388
 31
0.0
  0
LINE
  5
A3C5F
330
18
100
AcDbEntity
  8
01
100
AcDbLine
 10
-89.56879830742929
 20
-21.30558169633468
 30
0.0
 11
-85.22270759628537
 21
-21.4372814148544
 31
0.0
  0
LINE
  5
A3C60
330
18
100
AcDbEntity
  8
01
100
AcDbLine
 10
-43.16453237967909
 20
46.14414711906693
 30
0.0
 11
-43.96308058105234
 21
19.79205647373692
 31
0.0
  0
LINE
  5
A3C61
330
18
100
AcDbEntity
  8
01
100
AcDbLine
 10
-89.85971156943634
 20
-59.91138319954212
 30
0.0
 11
-89.85971156943634
 21
-98.82928959884362
 31
0.0
  0
ARC
  5
A3C62
330
18
100
AcDbEntity
  8
01
100
AcDbCircle
 10
-89.55971156943616
 20
-59.91138319954234
 30
0.0
 40
0.3
100
AcDbArc
 50
91.73570458891768
 51
180.0
  0
LINE
  5
A3C63
330
18
100
AcDbEntity
  8
1PHANTOM
100
AcDbLine
 10
-89.35971156943725
 20
-19.29676614294067
 30
0.0
 11
-86.10235225655543
 21
-19.29676614294067
 31
0.0
  0
LINE
  5
A3C64
330
18
100
AcDbEntity
  8
1PHANTOM
100
AcDbLine
 10
-47.3597115694368
 20
39.45323385705933
 30
0.0
 11
-47.3597115694368
 21
19.44587454417706
 31
0.0
  0
ARC
  5
A3C65
330
18
100
AcDbEntity
  8
1PHANTOM
100
AcDbCircle
 10
-48.3597115694368
 20
19.44587454417706
 30
0.0
 40
1.0
100
AcDbArc
 50
315.0000000000057
 51
0.0
  0
LINE
  5
A3C66
330
18
100
AcDbEntity
  8
1PHANTOM
100
AcDbLine
 10
-45.17312140227369
 20
46.16370370607001
 30
0.0
 11
-45.37314476220109
 21
40.43578410871351
 31
0.0
  0
ARC
  5
A3C67
330
18
100
AcDbEntity
  8
1PHANTOM
100
AcDbCircle
 10
-44.87330415416801
 20
46.15323385705915
 30
0.0
 40
0.3
100
AcDbArc
 50
90.0
 51
177.9999999999964
  0
ARC
  5
A3C68
330
18
100
AcDbEntity
  8
1PHANTOM
100
AcDbCircle
 10
-45.87284017571056
 20
40.45323385706479
 30
0.0
 40
0.5
100
AcDbArc
 50
270.0
 51
357.9999999999962
  0
LINE
  5
A3C69
330
18
100
AcDbEntity
  8
1PHANTOM
100
AcDbLine
 10
-70.10971156943725
 20
6.953233857059104
 30
0.0
 11
-70.10971156943725
 21
-3.304125455821577
 31
0.0
  0
LINE
  5
A3C6A
330
18
100
AcDbEntity
  8
1PHANTOM
100
AcDbLine
 10
-59.35235225655589
 20
7.453233857059331
 30
0.0
 11
-69.60971156943725
 21
7.453233857059331
 31
0.0
  0
LINE
  5
A3C6B
330
18
100
AcDbEntity
  8
1PHANTOM
100
AcDbLine
 10
-85.39524547536877
 20
-19.00387292412734
 30
0.0
 11
-70.40260478825058
 21
-4.011232237008244
 31
0.0
  0
ARC
  5
A3C6C
330
18
100
AcDbEntity
  8
1PHANTOM
100
AcDbCircle
 10
-86.10235225655543
 20
-18.29676614294067
 30
0.0
 40
1.0
100
AcDbArc
 50
270.0
 51
315.0000000000057
  0
ARC
  5
A3C6D
330
18
100
AcDbEntity
  8
1PHANTOM
100
AcDbCircle
 10
-71.10971156943725
 20
-3.304125455821577
 30
0.0
 40
1.0
100
AcDbArc
 50
315.0000000000057
 51
0.0
  0
LINE
  5
A3C6E
330
18
100
AcDbEntity
  8
1PHANTOM
100
AcDbLine
 10
-58.64524547536922
 20
7.746127075872664
 30
0.0
 11
-47.65260478825013
 21
18.73876776299039
 31
0.0
  0
ARC
  5
A3C6F
330
18
100
AcDbEntity
  8
1PHANTOM
100
AcDbCircle
 10
-59.35235225655589
 20
8.453233857059331
 30
0.0
 40
1.0
100
AcDbArc
 50
270.0
 51
315.0000000000057
  0
LINE
  5
A3C70
330
18
100
AcDbEntity
  8
01
100
AcDbLine
 10
-84.85400964237152
 20
-21.29106421587494
 30
0.0
 11
-44.10929778003157
 21
19.45364764646411
 31
0.0
  0
ARC
  5
A3C71
330
18
100
AcDbEntity
  8
01
100
AcDbCircle
 10
-85.20756303296486
 20
-20.93751082528161
 30
0.0
 40
0.5
100
AcDbArc
 50
268.2642954110823
 51
315.0000000000057
  0
ARC
  5
A3C72
330
18
100
AcDbEntity
  8
01
100
AcDbCircle
 10
-44.4628511706249
 20
19.80720103705744
 30
0.0
 40
0.5
100
AcDbArc
 50
315.0000000000057
 51
358.2642954110693
  0
ELLIPSE
  5
A3C73
330
18
100
AcDbEntity
  8
01
100
AcDbEllipse
 10
-65.10971156943634
 20
-79.37033639919287
 30
0.0
 11
5.020886050671886E-15
 21
20.50000000000057
 31
0.0
210
0.0
220
0.0
230
1.0
 40
0.9705882352941064
 41
0.0
 42
0.0588065764075063
  0
ELLIPSE
  5
A3C74
330
18
100
AcDbEntity
  8
01
100
AcDbEllipse
 10
-65.10971156943634
 20
-79.37033639919287
 30
0.0
 11
5.020886050671886E-15
 21
20.50000000000057
 31
0.0
210
0.0
220
0.0
230
1.0
 40
0.9705882352941064
 41
3.082786077181578
 42
3.141592653589793
  0
LINE
  5
A3C75
330
18
100
AcDbEntity
  8
01
100
AcDbLine
 10
-89.56879830742838
 20
-99.12915195258734
 30
0.0
 11
-65.10971156943634
 21
-99.87033639919332
 31
0.0
  0
ARC
  5
A3C76
330
18
100
AcDbEntity
  8
01
100
AcDbCircle
 10
-89.55971156943616
 20
-98.82928959884384
 30
0.0
 40
0.3
100
AcDbArc
 50
180.0
 51
268.2642954110823
  0
LINE
  5
A3C77
330
18
100
AcDbEntity
  8
01
100
AcDbLine
 10
-89.56879830742838
 20
-59.6115208457984
 30
0.0
 11
-65.10971156943634
 21
-58.87033639919196
 31
0.0
  0
LINE
  5
A3C78
330
18
100
AcDbEntity
  8
01
100
AcDbLine
 10
-43.47640391665283
 20
47.95323385705933
 30
0.0
 11
-43.52185846210779
 21
46.45323385705933
 31
0.0
  0
ARC
  5
A3C79
330
18
100
AcDbEntity
  8
1PHANTOM
100
AcDbCircle
 10
-69.60971156943725
 20
6.953233857059104
 30
0.0
 40
0.5
100
AcDbArc
 50
90.0
 51
180.0
  0
LINE
  5
A3C7B
330
18
100
AcDbEntity
  8
01
100
AcDbLine
 10
57.49212329294932
 20
-57.37033639919287
 30
0.0
 11
7.992123292949316
 21
-58.87033639919287
 31
0.0
  0
LINE
  5
A3C7C
330
18
100
AcDbEntity
  8
01
100
AcDbLine
 10
57.49212329294954
 20
-101.3703363991929
 30
0.0
 11
57.49212329294977
 21
-57.37033639919287
 31
0.0
  0
LINE
  5
A3C7D
330
18
100
AcDbEntity
  8
01
100
AcDbLine
 10
57.49212329294932
 20
-101.3703363991929
 30
0.0
 11
6.67695818131682
 21
-99.83048291096179
 31
0.0
  0
ELLIPSE
  5
A3C7E
330
18
100
AcDbEntity
  8
01
100
AcDbEllipse
 10
7.992123292949316
 20
-79.37033639919287
 30
0.0
 11
-21.10183486238543
 21
3.876216157468162E-15
 31
0.0
210
0.0
220
0.0
230
1.0
 40
0.9714795008912606
 41
4.71238898038469
 42
7.853981633974483
  0
LINE
  5
A3C7F
330
18
100
AcDbEntity
  8
01
100
AcDbLine
 10
60.49212329294977
 20
-57.37033639919287
 30
0.0
 11
57.79212329294973
 21
-57.37033639919287
 31
0.0
  0
ARC
  5
A3C80
330
18
100
AcDbEntity
  8
01
100
AcDbCircle
 10
57.79212329294984
 20
-57.67033639919305
 30
0.0
 40
0.3
100
AcDbArc
 50
90.0
 51
180.0
  0
LINE
  5
A3C81
330
18
100
AcDbEntity
  8
01
100
AcDbLine
 10
57.49212329294954
 20
-101.0703363991931
 30
0.0
 11
57.49212329294977
 21
-99.07033639919268
 31
0.0
  0
ARC
  5
A3C82
330
18
100
AcDbEntity
  8
01
100
AcDbCircle
 10
57.79212329294961
 20
-101.0703363991931
 30
0.0
 40
0.3
100
AcDbArc
 50
180.0
 51
270.0
  0
LINE
  5
A3C83
330
18
100
AcDbEntity
  8
01
100
AcDbLine
 10
57.49212329294977
 20
-59.67033639919305
 30
0.0
 11
57.49212329294977
 21
-57.67033639919305
 31
0.0
  0
LINE
  5
A3C84
330
18
100
AcDbEntity
  8
01
100
AcDbLine
 10
60.49212329294977
 20
-101.3703363991929
 30
0.0
 11
60.49212329294977
 21
-57.37033639919287
 31
0.0
  0
LINE
  5
A3C85
330
18
100
AcDbEntity
  8
01
100
AcDbLine
 10
60.49212329294977
 20
-101.3703363991929
 30
0.0
 11
57.7921232929495
 21
-101.3703363991933
 31
0.0
  0
LINE
  5
A3C86
330
18
100
AcDbEntity
  8
01
100
AcDbLine
 10
-69.60971156943634
 20
44.69753028288324
 30
0.0
 11
-69.60971156943634
 21
45.9532338570591
 31
0.0
  0
LINE
  5
A3C87
330
18
100
AcDbEntity
  8
01
100
AcDbLine
 10
-60.60971156943634
 20
44.69753028288324
 30
0.0
 11
-60.60971156943634
 21
45.9532338570591
 31
0.0
  0
LINE
  5
A3C88
330
18
100
AcDbEntity
  8
01
100
AcDbLine
 10
-65.10971156943634
 20
44.69753028288324
 30
0.0
 11
-65.83469236600905
 21
45.9532338570591
 31
0.0
  0
LINE
  5
A3C89
330
18
100
AcDbEntity
  8
1PHANTOM
100
AcDbLine
 10
-55.10971156943634
 20
44.69753028288324
 30
0.0
 11
-55.10971156943634
 21
45.9532338570591
 31
0.0
  0
LINE
  5
A3C8A
330
18
100
AcDbEntity
  8
1PHANTOM
100
AcDbLine
 10
-46.10971156943634
 20
44.69753028288324
 30
0.0
 11
-46.10971156943634
 21
45.9532338570591
 31
0.0
  0
LINE
  5
A3C8B
330
18
100
AcDbEntity
  8
1PHANTOM
100
AcDbLine
 10
-50.60971156943634
 20
44.69753028288324
 30
0.0
 11
-51.33469236600905
 21
45.9532338570591
 31
0.0
  0
LINE
  5
A3C8C
330
18
100
AcDbEntity
  8
1PHANTOM
100
AcDbLine
 10
-53.10971156943634
 20
60.81539586892904
 30
0.0
 11
-48.10971156943634
 21
61.81539586892904
 31
0.0
  0
LINE
  5
A3C8D
330
18
100
AcDbEntity
  8
1PHANTOM
100
AcDbLine
 10
-52.35971156943634
 20
78.16644136963782
 30
0.0
 11
-52.35971156943589
 21
50.95323385705933
 31
0.0
  0
LINE
  5
A3C8E
330
18
100
AcDbEntity
  8
1PHANTOM
100
AcDbLine
 10
-52.35971156943634
 20
44.69753028288324
 30
0.0
 11
-55.10971156943634
 21
44.69753028288324
 31
0.0
  0
LINE
  5
A3C8F
330
18
100
AcDbEntity
  8
1PHANTOM
100
AcDbLine
 10
-50.60971156943634
 20
84.69753028288324
 30
0.0
 11
-52.35971156943634
 21
78.16644136963782
 31
0.0
  0
LINE
  5
A3C90
330
18
100
AcDbEntity
  8
1PHANTOM
100
AcDbLine
 10
-55.10971156943634
 20
44.69753028288324
 30
0.0
 11
-55.10971156943634
 21
43.89753028288351
 31
0.0
  0
LINE
  5
A3C91
330
18
100
AcDbEntity
  8
1PHANTOM
100
AcDbLine
 10
-50.60971156943634
 20
84.69753028288324
 30
0.0
 11
-48.85971156943634
 21
78.16644136963782
 31
0.0
  0
ARC
  5
A3C92
330
18
100
AcDbEntity
  8
1PHANTOM
100
AcDbCircle
 10
-52.60971156943634
 20
43.89753028288328
 30
0.0
 40
2.5
100
AcDbArc
 50
179.999999999987
 51
270.0
  0
LINE
  5
A3C93
330
18
100
AcDbEntity
  8
1PHANTOM
100
AcDbLine
 10
-48.85971156943634
 20
78.16644136963782
 30
0.0
 11
-48.8597115694368
 21
50.95323385705933
 31
0.0
  0
LINE
  5
A3C94
330
18
100
AcDbEntity
  8
1PHANTOM
100
AcDbLine
 10
-48.60971156943634
 20
41.39753028288328
 30
0.0
 11
-52.60971156943634
 21
41.39753028288328
 31
0.0
  0
LINE
  5
A3C95
330
18
100
AcDbEntity
  8
1PHANTOM
100
AcDbLine
 10
-46.10971156943634
 20
44.69753028288324
 30
0.0
 11
-48.85971156943634
 21
44.69753028288324
 31
0.0
  0
ARC
  5
A3C96
330
18
100
AcDbEntity
  8
1PHANTOM
100
AcDbCircle
 10
-48.60971156943634
 20
43.89753028288328
 30
0.0
 40
2.5
100
AcDbArc
 50
270.0
 51
0.0
  0
LINE
  5
A3C97
330
18
100
AcDbEntity
  8
1PHANTOM
100
AcDbLine
 10
-46.10971156943634
 20
44.69753028288324
 30
0.0
 11
-46.10971156943634
 21
43.89753028288328
 31
0.0
  0
LINE
  5
A3C98
330
18
100
AcDbEntity
  8
1PHANTOM
100
AcDbLine
 10
-52.92597851047213
 20
78.85214248072202
 30
0.0
 11
-52.17597851047213
 21
78.70214248072193
 31
0.0
  0
LINE
  5
A3C99
330
18
100
AcDbEntity
  8
1PHANTOM
100
AcDbLine
 10
-52.92597851047213
 20
78.85214248072202
 30
0.0
 11
-48.52907402938155
 21
79.73152337694
 31
0.0
  0
LINE
  5
A3C9A
330
18
100
AcDbEntity
  8
1PHANTOM
100
AcDbLine
 10
-50.29635488249261
 20
83.67806720631779
 30
0.0
 11
-49.54635488249261
 21
83.52806720631793
 31
0.0
  0
LINE
  5
A3C9B
330
18
100
AcDbEntity
  8
1PHANTOM
100
AcDbLine
 10
-51.79349196995355
 20
83.07863978882574
 30
0.0
 11
-51.04349196995355
 21
82.92863978882565
 31
0.0
  0
LINE
  5
A3C9C
330
18
100
AcDbEntity
  8
1PHANTOM
100
AcDbLine
 10
-51.79349196995355
 20
83.07863978882574
 30
0.0
 11
-49.54635488249261
 21
83.52806720631793
 31
0.0
  0
LINE
  5
A3C9D
330
18
100
AcDbEntity
  8
1PHANTOM
100
AcDbLine
 10
-49.27907402938155
 20
79.8815233769401
 30
0.0
 11
-48.52907402938155
 21
79.73152337694
 31
0.0
  0
LINE
  5
A3C9E
330
18
100
AcDbEntity
  8
1PHANTOM
100
AcDbLine
 10
-49.78771445593731
 20
81.77979529162894
 30
0.0
 11
-49.03771445593731
 21
81.62979529162908
 31
0.0
  0
LINE
  5
A3C9F
330
18
100
AcDbEntity
  8
1PHANTOM
100
AcDbLine
 10
-52.35973524021284
 20
80.96539113477388
 30
0.0
 11
-51.60973524021284
 21
80.81539113477379
 31
0.0
  0
LINE
  5
A3CA0
330
18
100
AcDbEntity
  8
1PHANTOM
100
AcDbLine
 10
-52.35973524021284
 20
80.96539113477388
 30
0.0
 11
-49.03771445593731
 21
81.62979529162908
 31
0.0
  0
LINE
  5
A3CA1
330
18
100
AcDbEntity
  8
1PHANTOM
100
AcDbLine
 10
-48.85971156943634
 20
69.96539586892914
 30
0.0
 11
-48.10971156943634
 21
69.81539586892904
 31
0.0
  0
LINE
  5
A3CA2
330
18
100
AcDbEntity
  8
1PHANTOM
100
AcDbLine
 10
-53.10971156943634
 20
72.81539586892904
 30
0.0
 11
-52.35971156943634
 21
72.66539586892918
 31
0.0
  0
LINE
  5
A3CA3
330
18
100
AcDbEntity
  8
1PHANTOM
100
AcDbLine
 10
-53.10971156943634
 20
70.81539586892904
 30
0.0
 11
-52.35971156943634
 21
70.66539586892918
 31
0.0
  0
LINE
  5
A3CA4
330
18
100
AcDbEntity
  8
1PHANTOM
100
AcDbLine
 10
-53.10971156943634
 20
70.81539586892904
 30
0.0
 11
-48.10971156943634
 21
71.81539586892904
 31
0.0
  0
LINE
  5
A3CA5
330
18
100
AcDbEntity
  8
1PHANTOM
100
AcDbLine
 10
-53.10971156943634
 20
74.81539586892904
 30
0.0
 11
-52.35971156943634
 21
74.66539586892918
 31
0.0
  0
LINE
  5
A3CA6
330
18
100
AcDbEntity
  8
1PHANTOM
100
AcDbLine
 10
-53.10971156943634
 20
76.81539586892904
 30
0.0
 11
-52.35971156943634
 21
76.66539586892918
 31
0.0
  0
LINE
  5
A3CA7
330
18
100
AcDbEntity
  8
1PHANTOM
100
AcDbLine
 10
-53.10971156943634
 20
76.81539586892904
 30
0.0
 11
-48.10971156943634
 21
77.81539586892904
 31
0.0
  0
LINE
  5
A3CA8
330
18
100
AcDbEntity
  8
1PHANTOM
100
AcDbLine
 10
-53.10971156943634
 20
74.81539586892904
 30
0.0
 11
-48.10971156943634
 21
75.81539586892904
 31
0.0
  0
LINE
  5
A3CA9
330
18
100
AcDbEntity
  8
1PHANTOM
100
AcDbLine
 10
-53.10971156943634
 20
72.81539586892904
 30
0.0
 11
-48.10971156943634
 21
73.81539586892904
 31
0.0
  0
LINE
  5
A3CAA
330
18
100
AcDbEntity
  8
1PHANTOM
100
AcDbLine
 10
-48.85971156943634
 20
77.96539586892914
 30
0.0
 11
-48.10971156943634
 21
77.81539586892904
 31
0.0
  0
LINE
  5
A3CAB
330
18
100
AcDbEntity
  8
1PHANTOM
100
AcDbLine
 10
-48.85971156943634
 20
75.96539586892914
 30
0.0
 11
-48.10971156943634
 21
75.81539586892904
 31
0.0
  0
LINE
  5
A3CAC
330
18
100
AcDbEntity
  8
1PHANTOM
100
AcDbLine
 10
-48.85971156943634
 20
71.96539586892914
 30
0.0
 11
-48.10971156943634
 21
71.81539586892904
 31
0.0
  0
LINE
  5
A3CAD
330
18
100
AcDbEntity
  8
1PHANTOM
100
AcDbLine
 10
-48.85971156943634
 20
73.96539586892914
 30
0.0
 11
-48.10971156943634
 21
73.81539586892904
 31
0.0
  0
LINE
  5
A3CAE
330
18
100
AcDbEntity
  8
1PHANTOM
100
AcDbLine
 10
-53.10971156943634
 20
66.81539586892904
 30
0.0
 11
-52.35971156943634
 21
66.66539586892918
 31
0.0
  0
LINE
  5
A3CAF
330
18
100
AcDbEntity
  8
1PHANTOM
100
AcDbLine
 10
-53.10971156943634
 20
68.81539586892904
 30
0.0
 11
-52.35971156943634
 21
68.66539586892918
 31
0.0
  0
LINE
  5
A3CB0
330
18
100
AcDbEntity
  8
1PHANTOM
100
AcDbLine
 10
-53.10971156943634
 20
62.81539586892904
 30
0.0
 11
-52.35971156943634
 21
62.66539586892918
 31
0.0
  0
LINE
  5
A3CB1
330
18
100
AcDbEntity
  8
1PHANTOM
100
AcDbLine
 10
-53.10971156943634
 20
64.81539586892904
 30
0.0
 11
-52.35971156943634
 21
64.66539586892918
 31
0.0
  0
LINE
  5
A3CB2
330
18
100
AcDbEntity
  8
1PHANTOM
100
AcDbLine
 10
-53.10971156943634
 20
68.81539586892904
 30
0.0
 11
-48.10971156943634
 21
69.81539586892904
 31
0.0
  0
LINE
  5
A3CB3
330
18
100
AcDbEntity
  8
1PHANTOM
100
AcDbLine
 10
-53.10971156943634
 20
66.81539586892904
 30
0.0
 11
-48.10971156943634
 21
67.81539586892904
 31
0.0
  0
LINE
  5
A3CB4
330
18
100
AcDbEntity
  8
1PHANTOM
100
AcDbLine
 10
-53.10971156943634
 20
64.81539586892904
 30
0.0
 11
-48.10971156943634
 21
65.81539586892904
 31
0.0
  0
LINE
  5
A3CB5
330
18
100
AcDbEntity
  8
1PHANTOM
100
AcDbLine
 10
-53.10971156943634
 20
62.81539586892904
 30
0.0
 11
-48.10971156943634
 21
63.81539586892904
 31
0.0
  0
LINE
  5
A3CB6
330
18
100
AcDbEntity
  8
1PHANTOM
100
AcDbLine
 10
-48.85971156943634
 20
65.96539586892914
 30
0.0
 11
-48.10971156943634
 21
65.81539586892904
 31
0.0
  0
LINE
  5
A3CB7
330
18
100
AcDbEntity
  8
1PHANTOM
100
AcDbLine
 10
-48.85971156943634
 20
67.96539586892914
 30
0.0
 11
-48.10971156943634
 21
67.81539586892904
 31
0.0
  0
LINE
  5
A3CB8
330
18
100
AcDbEntity
  8
1PHANTOM
100
AcDbLine
 10
-48.85971156943634
 20
61.96539586892914
 30
0.0
 11
-48.10971156943634
 21
61.81539586892904
 31
0.0
  0
LINE
  5
A3CB9
330
18
100
AcDbEntity
  8
1PHANTOM
100
AcDbLine
 10
-48.85971156943634
 20
63.96539586892914
 30
0.0
 11
-48.10971156943634
 21
63.81539586892904
 31
0.0
  0
LINE
  5
A3CBA
330
18
100
AcDbEntity
  8
1PHANTOM
100
AcDbLine
 10
-53.10971156943634
 20
52.81539586892904
 30
0.0
 11
-48.10971156943634
 21
53.81539586892904
 31
0.0
  0
LINE
  5
A3CBB
330
18
100
AcDbEntity
  8
1PHANTOM
100
AcDbLine
 10
-53.10971156943634
 20
60.81539586892904
 30
0.0
 11
-52.35971156943634
 21
60.66539586892918
 31
0.0
  0
LINE
  5
A3CBC
330
18
100
AcDbEntity
  8
1PHANTOM
100
AcDbLine
 10
-53.10971156943634
 20
58.81539586892904
 30
0.0
 11
-52.35971156943634
 21
58.66539586892918
 31
0.0
  0
LINE
  5
A3CBD
330
18
100
AcDbEntity
  8
1PHANTOM
100
AcDbLine
 10
-53.10971156943634
 20
56.81539586892904
 30
0.0
 11
-52.35971156943634
 21
56.66539586892918
 31
0.0
  0
LINE
  5
A3CBE
330
18
100
AcDbEntity
  8
1PHANTOM
100
AcDbLine
 10
-53.10971156943634
 20
54.81539586892904
 30
0.0
 11
-52.35971156943634
 21
54.66539586892918
 31
0.0
  0
LINE
  5
A3CBF
330
18
100
AcDbEntity
  8
1PHANTOM
100
AcDbLine
 10
-53.10971156943634
 20
58.81539586892904
 30
0.0
 11
-48.10971156943634
 21
59.81539586892904
 31
0.0
  0
LINE
  5
A3CC0
330
18
100
AcDbEntity
  8
1PHANTOM
100
AcDbLine
 10
-53.10971156943634
 20
56.81539586892904
 30
0.0
 11
-48.10971156943634
 21
57.81539586892904
 31
0.0
  0
LINE
  5
A3CC1
330
18
100
AcDbEntity
  8
1PHANTOM
100
AcDbLine
 10
-53.10971156943634
 20
54.81539586892904
 30
0.0
 11
-48.10971156943634
 21
55.81539586892904
 31
0.0
  0
LINE
  5
A3CC2
330
18
100
AcDbEntity
  8
1PHANTOM
100
AcDbLine
 10
-48.85971156943634
 20
59.96539586892914
 30
0.0
 11
-48.10971156943634
 21
59.81539586892904
 31
0.0
  0
LINE
  5
A3CC3
330
18
100
AcDbEntity
  8
1PHANTOM
100
AcDbLine
 10
-48.85971156943634
 20
57.96539586892914
 30
0.0
 11
-48.10971156943634
 21
57.81539586892904
 31
0.0
  0
LINE
  5
A3CC4
330
18
100
AcDbEntity
  8
1PHANTOM
100
AcDbLine
 10
-48.85971156943634
 20
55.96539586892914
 30
0.0
 11
-48.10971156943634
 21
55.81539586892904
 31
0.0
  0
LINE
  5
A3CC5
330
18
100
AcDbEntity
  8
1PHANTOM
100
AcDbLine
 10
-48.85971156943634
 20
53.96539586892914
 30
0.0
 11
-48.10971156943634
 21
53.81539586892904
 31
0.0
  0
LINE
  5
A3CC6
330
18
100
AcDbEntity
  8
1PHANTOM
100
AcDbLine
 10
-53.10971156943634
 20
52.81539586892904
 30
0.0
 11
-52.35971156943634
 21
52.66539586892918
 31
0.0
  0
LINE
  5
A3CC7
330
18
100
AcDbEntity
  8
1PHANTOM
100
AcDbLine
 10
-52.42052162878582
 20
50.95323385705933
 30
0.0
 11
-48.10971156943634
 21
51.81539586892904
 31
0.0
  0
LINE
  5
A3CC8
330
18
100
AcDbEntity
  8
1PHANTOM
100
AcDbLine
 10
-48.85971156943634
 20
51.96539586892914
 30
0.0
 11
-48.10971156943634
 21
51.81539586892904
 31
0.0
  0
LINE
  5
A3CC9
330
18
100
AcDbEntity
  8
1PHANTOM
100
AcDbLine
 10
-48.85971156943634
 20
44.69753028288324
 30
0.0
 11
-52.35971156943634
 21
44.69753028288324
 31
0.0
  0
LINE
  5
A3CCA
330
18
100
AcDbEntity
  8
1PHANTOM
100
AcDbLine
 10
-67.60971156943634
 20
60.81539586892904
 30
0.0
 11
-62.60971156943634
 21
61.81539586892904
 31
0.0
  0
LINE
  5
A3CCB
330
18
100
AcDbEntity
  8
1CENTER
100
AcDbLine
 10
-65.10971156943634
 20
86.14388351343132
 30
0.0
 11
-65.10971156943634
 21
39.71457753273717
 31
0.0
  0
LINE
  5
A3CCC
330
18
100
AcDbEntity
  8
1PHANTOM
100
AcDbLine
 10
-66.85971156943634
 20
78.16644136963782
 30
0.0
 11
-66.85971156943634
 21
50.95323385705933
 31
0.0
  0
LINE
  5
A3CCD
330
18
100
AcDbEntity
  8
01
100
AcDbLine
 10
-66.85971156943634
 20
44.69753028288324
 30
0.0
 11
-69.60971156943634
 21
44.69753028288324
 31
0.0
  0
LINE
  5
A3CCE
330
18
100
AcDbEntity
  8
1PHANTOM
100
AcDbLine
 10
-65.10971156943634
 20
84.69753028288324
 30
0.0
 11
-66.85971156943634
 21
78.16644136963782
 31
0.0
  0
LINE
  5
A3CCF
330
18
100
AcDbEntity
  8
01
100
AcDbLine
 10
-69.60971156943634
 20
44.69753028288324
 30
0.0
 11
-69.60971156943634
 21
43.89753028288351
 31
0.0
  0
LINE
  5
A3CD0
330
18
100
AcDbEntity
  8
1PHANTOM
100
AcDbLine
 10
-65.10971156943634
 20
84.69753028288324
 30
0.0
 11
-63.35971156943634
 21
78.16644136963782
 31
0.0
  0
ARC
  5
A3CD1
330
18
100
AcDbEntity
  8
01
100
AcDbCircle
 10
-67.10971156943634
 20
43.89753028288328
 30
0.0
 40
2.5
100
AcDbArc
 50
179.999999999987
 51
270.0
  0
LINE
  5
A3CD2
330
18
100
AcDbEntity
  8
1PHANTOM
100
AcDbLine
 10
-63.35971156943634
 20
78.16644136963782
 30
0.0
 11
-63.35971156943634
 21
50.95323385705933
 31
0.0
  0
LINE
  5
A3CD3
330
18
100
AcDbEntity
  8
01
100
AcDbLine
 10
-63.10971156943634
 20
41.39753028288328
 30
0.0
 11
-67.10971156943634
 21
41.39753028288328
 31
0.0
  0
LINE
  5
A3CD4
330
18
100
AcDbEntity
  8
01
100
AcDbLine
 10
-60.60971156943634
 20
44.69753028288324
 30
0.0
 11
-63.35971156943634
 21
44.69753028288324
 31
0.0
  0
ARC
  5
A3CD5
330
18
100
AcDbEntity
  8
01
100
AcDbCircle
 10
-63.10971156943634
 20
43.89753028288328
 30
0.0
 40
2.5
100
AcDbArc
 50
270.0
 51
0.0
  0
LINE
  5
A3CD6
330
18
100
AcDbEntity
  8
01
100
AcDbLine
 10
-60.60971156943634
 20
44.69753028288324
 30
0.0
 11
-60.60971156943634
 21
43.89753028288328
 31
0.0
  0
LINE
  5
A3CD7
330
18
100
AcDbEntity
  8
1PHANTOM
100
AcDbLine
 10
-67.42597851047213
 20
78.85214248072202
 30
0.0
 11
-66.67597851047213
 21
78.70214248072193
 31
0.0
  0
LINE
  5
A3CD8
330
18
100
AcDbEntity
  8
1PHANTOM
100
AcDbLine
 10
-67.42597851047213
 20
78.85214248072202
 30
0.0
 11
-63.02907402938155
 21
79.73152337694
 31
0.0
  0
LINE
  5
A3CD9
330
18
100
AcDbEntity
  8
1PHANTOM
100
AcDbLine
 10
-64.79635488249261
 20
83.67806720631779
 30
0.0
 11
-64.04635488249261
 21
83.52806720631793
 31
0.0
  0
LINE
  5
A3CDA
330
18
100
AcDbEntity
  8
1PHANTOM
100
AcDbLine
 10
-66.29349196995355
 20
83.07863978882574
 30
0.0
 11
-65.54349196995355
 21
82.92863978882565
 31
0.0
  0
LINE
  5
A3CDB
330
18
100
AcDbEntity
  8
1PHANTOM
100
AcDbLine
 10
-66.29349196995355
 20
83.07863978882574
 30
0.0
 11
-64.04635488249261
 21
83.52806720631793
 31
0.0
  0
LINE
  5
A3CDC
330
18
100
AcDbEntity
  8
1PHANTOM
100
AcDbLine
 10
-63.77907402938155
 20
79.8815233769401
 30
0.0
 11
-63.02907402938155
 21
79.73152337694
 31
0.0
  0
LINE
  5
A3CDD
330
18
100
AcDbEntity
  8
1PHANTOM
100
AcDbLine
 10
-64.2877144559373
 20
81.77979529162894
 30
0.0
 11
-63.53771445593731
 21
81.62979529162908
 31
0.0
  0
LINE
  5
A3CDE
330
18
100
AcDbEntity
  8
1PHANTOM
100
AcDbLine
 10
-66.85973524021284
 20
80.96539113477388
 30
0.0
 11
-66.10973524021284
 21
80.81539113477379
 31
0.0
  0
LINE
  5
A3CDF
330
18
100
AcDbEntity
  8
1PHANTOM
100
AcDbLine
 10
-66.85973524021284
 20
80.96539113477388
 30
0.0
 11
-63.53771445593731
 21
81.62979529162908
 31
0.0
  0
LINE
  5
A3CE0
330
18
100
AcDbEntity
  8
1PHANTOM
100
AcDbLine
 10
-63.35971156943634
 20
69.96539586892914
 30
0.0
 11
-62.60971156943634
 21
69.81539586892904
 31
0.0
  0
LINE
  5
A3CE1
330
18
100
AcDbEntity
  8
1PHANTOM
100
AcDbLine
 10
-67.60971156943634
 20
72.81539586892904
 30
0.0
 11
-66.85971156943634
 21
72.66539586892918
 31
0.0
  0
LINE
  5
A3CE2
330
18
100
AcDbEntity
  8
1PHANTOM
100
AcDbLine
 10
-67.60971156943634
 20
70.81539586892904
 30
0.0
 11
-66.85971156943634
 21
70.66539586892918
 31
0.0
  0
LINE
  5
A3CE3
330
18
100
AcDbEntity
  8
1PHANTOM
100
AcDbLine
 10
-67.60971156943634
 20
70.81539586892904
 30
0.0
 11
-62.60971156943634
 21
71.81539586892904
 31
0.0
  0
LINE
  5
A3CE4
330
18
100
AcDbEntity
  8
1PHANTOM
100
AcDbLine
 10
-67.60971156943634
 20
74.81539586892904
 30
0.0
 11
-66.85971156943634
 21
74.66539586892918
 31
0.0
  0
LINE
  5
A3CE5
330
18
100
AcDbEntity
  8
1PHANTOM
100
AcDbLine
 10
-67.60971156943634
 20
76.81539586892904
 30
0.0
 11
-66.85971156943634
 21
76.66539586892918
 31
0.0
  0
LINE
  5
A3CE6
330
18
100
AcDbEntity
  8
1PHANTOM
100
AcDbLine
 10
-67.60971156943634
 20
76.81539586892904
 30
0.0
 11
-62.60971156943634
 21
77.81539586892904
 31
0.0
  0
LINE
  5
A3CE7
330
18
100
AcDbEntity
  8
1PHANTOM
100
AcDbLine
 10
-67.60971156943634
 20
74.81539586892904
 30
0.0
 11
-62.60971156943634
 21
75.81539586892904
 31
0.0
  0
LINE
  5
A3CE8
330
18
100
AcDbEntity
  8
1PHANTOM
100
AcDbLine
 10
-67.60971156943634
 20
72.81539586892904
 30
0.0
 11
-62.60971156943634
 21
73.81539586892904
 31
0.0
  0
LINE
  5
A3CE9
330
18
100
AcDbEntity
  8
1PHANTOM
100
AcDbLine
 10
-63.35971156943634
 20
77.96539586892914
 30
0.0
 11
-62.60971156943634
 21
77.81539586892904
 31
0.0
  0
LINE
  5
A3CEA
330
18
100
AcDbEntity
  8
1PHANTOM
100
AcDbLine
 10
-63.35971156943634
 20
75.96539586892914
 30
0.0
 11
-62.60971156943634
 21
75.81539586892904
 31
0.0
  0
LINE
  5
A3CEB
330
18
100
AcDbEntity
  8
1PHANTOM
100
AcDbLine
 10
-63.35971156943634
 20
71.96539586892914
 30
0.0
 11
-62.60971156943634
 21
71.81539586892904
 31
0.0
  0
LINE
  5
A3CEC
330
18
100
AcDbEntity
  8
1PHANTOM
100
AcDbLine
 10
-63.35971156943634
 20
73.96539586892914
 30
0.0
 11
-62.60971156943634
 21
73.81539586892904
 31
0.0
  0
LINE
  5
A3CED
330
18
100
AcDbEntity
  8
1PHANTOM
100
AcDbLine
 10
-67.60971156943634
 20
66.81539586892904
 30
0.0
 11
-66.85971156943634
 21
66.66539586892918
 31
0.0
  0
LINE
  5
A3CEE
330
18
100
AcDbEntity
  8
1PHANTOM
100
AcDbLine
 10
-67.60971156943634
 20
68.81539586892904
 30
0.0
 11
-66.85971156943634
 21
68.66539586892918
 31
0.0
  0
LINE
  5
A3CEF
330
18
100
AcDbEntity
  8
1PHANTOM
100
AcDbLine
 10
-67.60971156943634
 20
62.81539586892904
 30
0.0
 11
-66.85971156943634
 21
62.66539586892918
 31
0.0
  0
LINE
  5
A3CF0
330
18
100
AcDbEntity
  8
1PHANTOM
100
AcDbLine
 10
-67.60971156943634
 20
64.81539586892904
 30
0.0
 11
-66.85971156943634
 21
64.66539586892918
 31
0.0
  0
LINE
  5
A3CF1
330
18
100
AcDbEntity
  8
1PHANTOM
100
AcDbLine
 10
-67.60971156943634
 20
68.81539586892904
 30
0.0
 11
-62.60971156943634
 21
69.81539586892904
 31
0.0
  0
LINE
  5
A3CF2
330
18
100
AcDbEntity
  8
1PHANTOM
100
AcDbLine
 10
-67.60971156943634
 20
66.81539586892904
 30
0.0
 11
-62.60971156943634
 21
67.81539586892904
 31
0.0
  0
LINE
  5
A3CF3
330
18
100
AcDbEntity
  8
1PHANTOM
100
AcDbLine
 10
-67.60971156943634
 20
64.81539586892904
 30
0.0
 11
-62.60971156943634
 21
65.81539586892904
 31
0.0
  0
LINE
  5
A3CF4
330
18
100
AcDbEntity
  8
1PHANTOM
100
AcDbLine
 10
-67.60971156943634
 20
62.81539586892904
 30
0.0
 11
-62.60971156943634
 21
63.81539586892904
 31
0.0
  0
LINE
  5
A3CF5
330
18
100
AcDbEntity
  8
1PHANTOM
100
AcDbLine
 10
-63.35971156943634
 20
65.96539586892914
 30
0.0
 11
-62.60971156943634
 21
65.81539586892904
 31
0.0
  0
LINE
  5
A3CF6
330
18
100
AcDbEntity
  8
1PHANTOM
100
AcDbLine
 10
-63.35971156943634
 20
67.96539586892914
 30
0.0
 11
-62.60971156943634
 21
67.81539586892904
 31
0.0
  0
LINE
  5
A3CF7
330
18
100
AcDbEntity
  8
1PHANTOM
100
AcDbLine
 10
-63.35971156943634
 20
61.96539586892914
 30
0.0
 11
-62.60971156943634
 21
61.81539586892904
 31
0.0
  0
LINE
  5
A3CF8
330
18
100
AcDbEntity
  8
1PHANTOM
100
AcDbLine
 10
-63.35971156943634
 20
63.96539586892914
 30
0.0
 11
-62.60971156943634
 21
63.81539586892904
 31
0.0
  0
LINE
  5
A3CF9
330
18
100
AcDbEntity
  8
1PHANTOM
100
AcDbLine
 10
-67.60971156943634
 20
52.81539586892904
 30
0.0
 11
-62.60971156943634
 21
53.81539586892904
 31
0.0
  0
LINE
  5
A3CFA
330
18
100
AcDbEntity
  8
1PHANTOM
100
AcDbLine
 10
-67.60971156943634
 20
60.81539586892904
 30
0.0
 11
-66.85971156943634
 21
60.66539586892918
 31
0.0
  0
LINE
  5
A3CFB
330
18
100
AcDbEntity
  8
1PHANTOM
100
AcDbLine
 10
-67.60971156943634
 20
58.81539586892904
 30
0.0
 11
-66.85971156943634
 21
58.66539586892918
 31
0.0
  0
LINE
  5
A3CFC
330
18
100
AcDbEntity
  8
1PHANTOM
100
AcDbLine
 10
-67.60971156943634
 20
56.81539586892904
 30
0.0
 11
-66.85971156943634
 21
56.66539586892918
 31
0.0
  0
LINE
  5
A3CFD
330
18
100
AcDbEntity
  8
1PHANTOM
100
AcDbLine
 10
-67.60971156943634
 20
54.81539586892904
 30
0.0
 11
-66.85971156943634
 21
54.66539586892918
 31
0.0
  0
LINE
  5
A3CFE
330
18
100
AcDbEntity
  8
1PHANTOM
100
AcDbLine
 10
-67.60971156943634
 20
58.81539586892904
 30
0.0
 11
-62.60971156943634
 21
59.81539586892904
 31
0.0
  0
LINE
  5
A3CFF
330
18
100
AcDbEntity
  8
1PHANTOM
100
AcDbLine
 10
-67.60971156943634
 20
56.81539586892904
 30
0.0
 11
-62.60971156943634
 21
57.81539586892904
 31
0.0
  0
LINE
  5
A3D00
330
18
100
AcDbEntity
  8
1PHANTOM
100
AcDbLine
 10
-67.60971156943634
 20
54.81539586892904
 30
0.0
 11
-62.60971156943634
 21
55.81539586892904
 31
0.0
  0
LINE
  5
A3D01
330
18
100
AcDbEntity
  8
1PHANTOM
100
AcDbLine
 10
-63.35971156943634
 20
59.96539586892914
 30
0.0
 11
-62.60971156943634
 21
59.81539586892904
 31
0.0
  0
LINE
  5
A3D02
330
18
100
AcDbEntity
  8
1PHANTOM
100
AcDbLine
 10
-63.35971156943634
 20
57.96539586892914
 30
0.0
 11
-62.60971156943634
 21
57.81539586892904
 31
0.0
  0
LINE
  5
A3D03
330
18
100
AcDbEntity
  8
1PHANTOM
100
AcDbLine
 10
-63.35971156943634
 20
55.96539586892914
 30
0.0
 11
-62.60971156943634
 21
55.81539586892904
 31
0.0
  0
LINE
  5
A3D04
330
18
100
AcDbEntity
  8
1PHANTOM
100
AcDbLine
 10
-63.35971156943634
 20
53.96539586892914
 30
0.0
 11
-62.60971156943634
 21
53.81539586892904
 31
0.0
  0
LINE
  5
A3D05
330
18
100
AcDbEntity
  8
1PHANTOM
100
AcDbLine
 10
-67.60971156943634
 20
52.81539586892904
 30
0.0
 11
-66.85971156943634
 21
52.66539586892918
 31
0.0
  0
LINE
  5
A3D06
330
18
100
AcDbEntity
  8
1PHANTOM
100
AcDbLine
 10
-66.92052162878582
 20
50.95323385705933
 30
0.0
 11
-62.60971156943634
 21
51.81539586892904
 31
0.0
  0
LINE
  5
A3D07
330
18
100
AcDbEntity
  8
1PHANTOM
100
AcDbLine
 10
-63.35971156943634
 20
51.96539586892914
 30
0.0
 11
-62.60971156943634
 21
51.81539586892904
 31
0.0
  0
LINE
  5
A3D08
330
18
100
AcDbEntity
  8
01
100
AcDbLine
 10
-63.35971156943634
 20
44.69753028288324
 30
0.0
 11
-66.85971156943634
 21
44.69753028288324
 31
0.0
  0
LINE
  5
A3D09
330
18
100
AcDbEntity
  8
1CENTER
100
AcDbLine
 10
-50.60971156943634
 20
86.14388351343132
 30
0.0
 11
-50.60971156943634
 21
39.71457753273717
 31
0.0
  0
ELLIPSE
  5
A3D0A
330
18
100
AcDbEntity
  8
01
100
AcDbEllipse
 10
-65.10971156943634
 20
-79.37033639919287
 30
0.0
 11
21.140625
 21
-5.177788739755239E-15
 31
0.0
210
0.0
220
0.0
230
1.0
 40
0.9696969696969966
 41
4.71238898038469
 42
7.853981633974483
  0
ELLIPSE
  5
A3D0B
330
18
100
AcDbEntity
  8
01
100
AcDbEllipse
 10
-65.10971156943634
 20
-79.37033639919287
 30
0.0
 11
5.020886050671886E-15
 21
20.50000000000057
 31
0.0
210
0.0
220
0.0
230
1.0
 40
0.9705882352941064
 41
0.0
 42
3.141592653589793
  0
LINE
  5
A3D0C
330
18
100
AcDbEntity
  8
1PHANTOM
100
AcDbLine
 10
-72.10971156943634
 20
-3.132552580568699
 30
0.0
 11
-72.10971156943634
 21
11.4532338570591
 31
0.0
  0
LINE
  5
A3D0D
330
18
100
AcDbEntity
  8
1PHANTOM
100
AcDbLine
 10
70.35428530481948
 20
-91.37033639919287
 30
0.0
 11
71.35428530481948
 21
-96.37033639919287
 31
0.0
  0
LINE
  5
A3D0E
330
18
100
AcDbEntity
  8
1PHANTOM
100
AcDbLine
 10
87.70533080552826
 20
-92.12033639919287
 30
0.0
 11
60.49212329294977
 21
-92.12033639919332
 31
0.0
  0
LINE
  5
A3D0F
330
18
100
AcDbEntity
  8
1PHANTOM
100
AcDbLine
 10
94.23641971877367
 20
-93.87033639919287
 30
0.0
 11
87.70533080552826
 21
-92.12033639919287
 31
0.0
  0
LINE
  5
A3D10
330
18
100
AcDbEntity
  8
1PHANTOM
100
AcDbLine
 10
94.23641971877367
 20
-93.87033639919287
 30
0.0
 11
87.70533080552826
 21
-95.62033639919287
 31
0.0
  0
LINE
  5
A3D11
330
18
100
AcDbEntity
  8
1PHANTOM
100
AcDbLine
 10
87.70533080552826
 20
-95.62033639919287
 30
0.0
 11
60.49212329294977
 21
-95.62033639919241
 31
0.0
  0
LINE
  5
A3D12
330
18
100
AcDbEntity
  8
1PHANTOM
100
AcDbLine
 10
88.39103191661246
 20
-91.55406945815707
 30
0.0
 11
88.24103191661237
 21
-92.30406945815707
 31
0.0
  0
LINE
  5
A3D13
330
18
100
AcDbEntity
  8
1PHANTOM
100
AcDbLine
 10
88.39103191661246
 20
-91.55406945815707
 30
0.0
 11
89.27041281283044
 21
-95.95097393924766
 31
0.0
  0
LINE
  5
A3D14
330
18
100
AcDbEntity
  8
1PHANTOM
100
AcDbLine
 10
93.21695664220823
 20
-94.1836930861366
 30
0.0
 11
93.06695664220837
 21
-94.9336930861366
 31
0.0
  0
LINE
  5
A3D15
330
18
100
AcDbEntity
  8
1PHANTOM
100
AcDbLine
 10
92.61752922471618
 20
-92.68655599867566
 30
0.0
 11
92.46752922471609
 21
-93.43655599867566
 31
0.0
  0
LINE
  5
A3D16
330
18
100
AcDbEntity
  8
1PHANTOM
100
AcDbLine
 10
92.61752922471618
 20
-92.68655599867566
 30
0.0
 11
93.06695664220837
 21
-94.9336930861366
 31
0.0
  0
LINE
  5
A3D17
330
18
100
AcDbEntity
  8
1PHANTOM
100
AcDbLine
 10
89.42041281283053
 20
-95.20097393924766
 30
0.0
 11
89.27041281283044
 21
-95.95097393924766
 31
0.0
  0
LINE
  5
A3D18
330
18
100
AcDbEntity
  8
1PHANTOM
100
AcDbLine
 10
91.31868472751938
 20
-94.6923335126919
 30
0.0
 11
91.16868472751952
 21
-95.4423335126919
 31
0.0
  0
LINE
  5
A3D19
330
18
100
AcDbEntity
  8
1PHANTOM
100
AcDbLine
 10
90.50428057066432
 20
-92.12031272841637
 30
0.0
 11
90.35428057066423
 21
-92.87031272841637
 31
0.0
  0
LINE
  5
A3D1A
330
18
100
AcDbEntity
  8
1PHANTOM
100
AcDbLine
 10
90.50428057066432
 20
-92.12031272841637
 30
0.0
 11
91.16868472751952
 21
-95.4423335126919
 31
0.0
  0
LINE
  5
A3D1B
330
18
100
AcDbEntity
  8
1PHANTOM
100
AcDbLine
 10
79.50428530481958
 20
-95.62033639919287
 30
0.0
 11
79.35428530481948
 21
-96.37033639919287
 31
0.0
  0
LINE
  5
A3D1C
330
18
100
AcDbEntity
  8
1PHANTOM
100
AcDbLine
 10
82.35428530481948
 20
-91.37033639919287
 30
0.0
 11
82.20428530481962
 21
-92.12033639919287
 31
0.0
  0
LINE
  5
A3D1D
330
18
100
AcDbEntity
  8
1PHANTOM
100
AcDbLine
 10
80.35428530481948
 20
-91.37033639919287
 30
0.0
 11
80.20428530481962
 21
-92.12033639919287
 31
0.0
  0
LINE
  5
A3D1E
330
18
100
AcDbEntity
  8
1PHANTOM
100
AcDbLine
 10
80.35428530481948
 20
-91.37033639919287
 30
0.0
 11
81.35428530481948
 21
-96.37033639919287
 31
0.0
  0
LINE
  5
A3D1F
330
18
100
AcDbEntity
  8
1PHANTOM
100
AcDbLine
 10
84.35428530481948
 20
-91.37033639919287
 30
0.0
 11
84.20428530481962
 21
-92.12033639919287
 31
0.0
  0
LINE
  5
A3D20
330
18
100
AcDbEntity
  8
1PHANTOM
100
AcDbLine
 10
86.35428530481948
 20
-91.37033639919287
 30
0.0
 11
86.20428530481962
 21
-92.12033639919287
 31
0.0
  0
LINE
  5
A3D21
330
18
100
AcDbEntity
  8
1PHANTOM
100
AcDbLine
 10
86.35428530481948
 20
-91.37033639919287
 30
0.0
 11
87.35428530481948
 21
-96.37033639919287
 31
0.0
  0
LINE
  5
A3D22
330
18
100
AcDbEntity
  8
1PHANTOM
100
AcDbLine
 10
84.35428530481948
 20
-91.37033639919287
 30
0.0
 11
85.35428530481948
 21
-96.37033639919287
 31
0.0
  0
LINE
  5
A3D23
330
18
100
AcDbEntity
  8
1PHANTOM
100
AcDbLine
 10
82.35428530481948
 20
-91.37033639919287
 30
0.0
 11
83.35428530481948
 21
-96.37033639919287
 31
0.0
  0
LINE
  5
A3D24
330
18
100
AcDbEntity
  8
1PHANTOM
100
AcDbLine
 10
87.50428530481958
 20
-95.62033639919287
 30
0.0
 11
87.35428530481948
 21
-96.37033639919287
 31
0.0
  0
LINE
  5
A3D25
330
18
100
AcDbEntity
  8
1PHANTOM
100
AcDbLine
 10
85.50428530481958
 20
-95.62033639919287
 30
0.0
 11
85.35428530481948
 21
-96.37033639919287
 31
0.0
  0
LINE
  5
A3D26
330
18
100
AcDbEntity
  8
1PHANTOM
100
AcDbLine
 10
81.50428530481958
 20
-95.62033639919287
 30
0.0
 11
81.35428530481948
 21
-96.37033639919287
 31
0.0
  0
LINE
  5
A3D27
330
18
100
AcDbEntity
  8
1PHANTOM
100
AcDbLine
 10
83.50428530481958
 20
-95.62033639919287
 30
0.0
 11
83.35428530481948
 21
-96.37033639919287
 31
0.0
  0
LINE
  5
A3D28
330
18
100
AcDbEntity
  8
1PHANTOM
100
AcDbLine
 10
76.35428530481948
 20
-91.37033639919287
 30
0.0
 11
76.20428530481962
 21
-92.12033639919287
 31
0.0
  0
LINE
  5
A3D29
330
18
100
AcDbEntity
  8
1PHANTOM
100
AcDbLine
 10
78.35428530481948
 20
-91.37033639919287
 30
0.0
 11
78.20428530481962
 21
-92.12033639919287
 31
0.0
  0
LINE
  5
A3D2A
330
18
100
AcDbEntity
  8
1PHANTOM
100
AcDbLine
 10
72.35428530481948
 20
-91.37033639919287
 30
0.0
 11
72.20428530481962
 21
-92.12033639919287
 31
0.0
  0
LINE
  5
A3D2B
330
18
100
AcDbEntity
  8
1PHANTOM
100
AcDbLine
 10
74.35428530481948
 20
-91.37033639919287
 30
0.0
 11
74.20428530481962
 21
-92.12033639919287
 31
0.0
  0
LINE
  5
A3D2C
330
18
100
AcDbEntity
  8
1PHANTOM
100
AcDbLine
 10
78.35428530481948
 20
-91.37033639919287
 30
0.0
 11
79.35428530481948
 21
-96.37033639919287
 31
0.0
  0
LINE
  5
A3D2D
330
18
100
AcDbEntity
  8
1PHANTOM
100
AcDbLine
 10
76.35428530481948
 20
-91.37033639919287
 30
0.0
 11
77.35428530481948
 21
-96.37033639919287
 31
0.0
  0
LINE
  5
A3D2E
330
18
100
AcDbEntity
  8
1PHANTOM
100
AcDbLine
 10
74.35428530481948
 20
-91.37033639919287
 30
0.0
 11
75.35428530481948
 21
-96.37033639919287
 31
0.0
  0
LINE
  5
A3D2F
330
18
100
AcDbEntity
  8
1PHANTOM
100
AcDbLine
 10
72.35428530481948
 20
-91.37033639919287
 30
0.0
 11
73.35428530481948
 21
-96.37033639919287
 31
0.0
  0
LINE
  5
A3D30
330
18
100
AcDbEntity
  8
1PHANTOM
100
AcDbLine
 10
75.50428530481958
 20
-95.62033639919287
 30
0.0
 11
75.35428530481948
 21
-96.37033639919287
 31
0.0
  0
LINE
  5
A3D31
330
18
100
AcDbEntity
  8
1PHANTOM
100
AcDbLine
 10
77.50428530481958
 20
-95.62033639919287
 30
0.0
 11
77.35428530481948
 21
-96.37033639919287
 31
0.0
  0
LINE
  5
A3D32
330
18
100
AcDbEntity
  8
1PHANTOM
100
AcDbLine
 10
71.50428530481958
 20
-95.62033639919287
 30
0.0
 11
71.35428530481948
 21
-96.37033639919287
 31
0.0
  0
LINE
  5
A3D33
330
18
100
AcDbEntity
  8
1PHANTOM
100
AcDbLine
 10
73.50428530481958
 20
-95.62033639919287
 30
0.0
 11
73.35428530481948
 21
-96.37033639919287
 31
0.0
  0
LINE
  5
A3D34
330
18
100
AcDbEntity
  8
1PHANTOM
100
AcDbLine
 10
62.35428530481948
 20
-91.37033639919287
 30
0.0
 11
63.35428530481948
 21
-96.37033639919287
 31
0.0
  0
LINE
  5
A3D35
330
18
100
AcDbEntity
  8
1PHANTOM
100
AcDbLine
 10
70.35428530481948
 20
-91.37033639919287
 30
0.0
 11
70.20428530481962
 21
-92.12033639919287
 31
0.0
  0
LINE
  5
A3D36
330
18
100
AcDbEntity
  8
1PHANTOM
100
AcDbLine
 10
68.35428530481948
 20
-91.37033639919287
 30
0.0
 11
68.20428530481962
 21
-92.12033639919287
 31
0.0
  0
LINE
  5
A3D37
330
18
100
AcDbEntity
  8
1PHANTOM
100
AcDbLine
 10
66.35428530481948
 20
-91.37033639919287
 30
0.0
 11
66.20428530481962
 21
-92.12033639919287
 31
0.0
  0
LINE
  5
A3D38
330
18
100
AcDbEntity
  8
1PHANTOM
100
AcDbLine
 10
64.35428530481948
 20
-91.37033639919287
 30
0.0
 11
64.20428530481962
 21
-92.12033639919287
 31
0.0
  0
LINE
  5
A3D39
330
18
100
AcDbEntity
  8
1PHANTOM
100
AcDbLine
 10
68.35428530481948
 20
-91.37033639919287
 30
0.0
 11
69.35428530481948
 21
-96.37033639919287
 31
0.0
  0
LINE
  5
A3D3A
330
18
100
AcDbEntity
  8
1PHANTOM
100
AcDbLine
 10
66.35428530481948
 20
-91.37033639919287
 30
0.0
 11
67.35428530481948
 21
-96.37033639919287
 31
0.0
  0
LINE
  5
A3D3B
330
18
100
AcDbEntity
  8
1PHANTOM
100
AcDbLine
 10
64.35428530481948
 20
-91.37033639919287
 30
0.0
 11
65.35428530481948
 21
-96.37033639919287
 31
0.0
  0
LINE
  5
A3D3C
330
18
100
AcDbEntity
  8
1PHANTOM
100
AcDbLine
 10
69.50428530481958
 20
-95.62033639919287
 30
0.0
 11
69.35428530481948
 21
-96.37033639919287
 31
0.0
  0
LINE
  5
A3D3D
330
18
100
AcDbEntity
  8
1PHANTOM
100
AcDbLine
 10
67.50428530481958
 20
-95.62033639919287
 30
0.0
 11
67.35428530481948
 21
-96.37033639919287
 31
0.0
  0
LINE
  5
A3D3E
330
18
100
AcDbEntity
  8
1PHANTOM
100
AcDbLine
 10
65.50428530481958
 20
-95.62033639919287
 30
0.0
 11
65.35428530481948
 21
-96.37033639919287
 31
0.0
  0
LINE
  5
A3D3F
330
18
100
AcDbEntity
  8
1PHANTOM
100
AcDbLine
 10
63.50428530481958
 20
-95.62033639919287
 30
0.0
 11
63.35428530481948
 21
-96.37033639919287
 31
0.0
  0
LINE
  5
A3D40
330
18
100
AcDbEntity
  8
1PHANTOM
100
AcDbLine
 10
62.35428530481948
 20
-91.37033639919287
 30
0.0
 11
62.20428530481962
 21
-92.12033639919287
 31
0.0
  0
LINE
  5
A3D41
330
18
100
AcDbEntity
  8
1PHANTOM
100
AcDbLine
 10
60.49212329294977
 20
-92.05952633984339
 30
0.0
 11
61.35428530481948
 21
-96.37033639919287
 31
0.0
  0
LINE
  5
A3D42
330
18
100
AcDbEntity
  8
1PHANTOM
100
AcDbLine
 10
61.50428530481958
 20
-95.62033639919287
 30
0.0
 11
61.35428530481948
 21
-96.37033639919287
 31
0.0
  0
LINE
  5
A3D43
330
18
100
AcDbEntity
  8
1CENTER
100
AcDbLine
 10
95.68277294932176
 20
-93.87033639919287
 30
0.0
 11
49.25346696862761
 21
-93.87033639919287
 31
0.0
  0
LINE
  5
A3D44
330
18
100
AcDbEntity
  8
1PHANTOM
100
AcDbLine
 10
70.35428530481948
 20
-62.37033639919287
 30
0.0
 11
71.35428530481948
 21
-67.37033639919287
 31
0.0
  0
LINE
  5
A3D45
330
18
100
AcDbEntity
  8
1CENTER
100
AcDbLine
 10
95.68277294932176
 20
-64.87033639919287
 30
0.0
 11
49.25346696862761
 21
-64.87033639919287
 31
0.0
  0
LINE
  5
A3D46
330
18
100
AcDbEntity
  8
1PHANTOM
100
AcDbLine
 10
87.70533080552826
 20
-63.12033639919287
 30
0.0
 11
60.49212329294977
 21
-63.12033639919287
 31
0.0
  0
LINE
  5
A3D47
330
18
100
AcDbEntity
  8
1PHANTOM
100
AcDbLine
 10
94.23641971877367
 20
-64.87033639919287
 30
0.0
 11
87.70533080552826
 21
-63.12033639919287
 31
0.0
  0
LINE
  5
A3D48
330
18
100
AcDbEntity
  8
1PHANTOM
100
AcDbLine
 10
94.23641971877367
 20
-64.87033639919287
 30
0.0
 11
87.70533080552826
 21
-66.62033639919287
 31
0.0
  0
LINE
  5
A3D49
330
18
100
AcDbEntity
  8
1PHANTOM
100
AcDbLine
 10
87.70533080552826
 20
-66.62033639919287
 30
0.0
 11
60.49212329294977
 21
-66.62033639919287
 31
0.0
  0
LINE
  5
A3D4A
330
18
100
AcDbEntity
  8
1PHANTOM
100
AcDbLine
 10
88.39103191661246
 20
-62.55406945815707
 30
0.0
 11
88.24103191661237
 21
-63.30406945815707
 31
0.0
  0
LINE
  5
A3D4B
330
18
100
AcDbEntity
  8
1PHANTOM
100
AcDbLine
 10
88.39103191661246
 20
-62.55406945815707
 30
0.0
 11
89.27041281283044
 21
-66.95097393924766
 31
0.0
  0
LINE
  5
A3D4C
330
18
100
AcDbEntity
  8
1PHANTOM
100
AcDbLine
 10
93.21695664220823
 20
-65.1836930861366
 30
0.0
 11
93.06695664220837
 21
-65.9336930861366
 31
0.0
  0
LINE
  5
A3D4D
330
18
100
AcDbEntity
  8
1PHANTOM
100
AcDbLine
 10
92.61752922471618
 20
-63.68655599867566
 30
0.0
 11
92.46752922471609
 21
-64.43655599867566
 31
0.0
  0
LINE
  5
A3D4E
330
18
100
AcDbEntity
  8
1PHANTOM
100
AcDbLine
 10
92.61752922471618
 20
-63.68655599867566
 30
0.0
 11
93.06695664220837
 21
-65.9336930861366
 31
0.0
  0
LINE
  5
A3D4F
330
18
100
AcDbEntity
  8
1PHANTOM
100
AcDbLine
 10
89.42041281283053
 20
-66.20097393924766
 30
0.0
 11
89.27041281283044
 21
-66.95097393924766
 31
0.0
  0
LINE
  5
A3D50
330
18
100
AcDbEntity
  8
1PHANTOM
100
AcDbLine
 10
91.31868472751938
 20
-65.6923335126919
 30
0.0
 11
91.16868472751952
 21
-66.4423335126919
 31
0.0
  0
LINE
  5
A3D51
330
18
100
AcDbEntity
  8
1PHANTOM
100
AcDbLine
 10
90.50428057066432
 20
-63.12031272841637
 30
0.0
 11
90.35428057066423
 21
-63.87031272841637
 31
0.0
  0
LINE
  5
A3D52
330
18
100
AcDbEntity
  8
1PHANTOM
100
AcDbLine
 10
90.50428057066432
 20
-63.12031272841637
 30
0.0
 11
91.16868472751952
 21
-66.4423335126919
 31
0.0
  0
LINE
  5
A3D53
330
18
100
AcDbEntity
  8
1PHANTOM
100
AcDbLine
 10
79.50428530481958
 20
-66.62033639919287
 30
0.0
 11
79.35428530481948
 21
-67.37033639919287
 31
0.0
  0
LINE
  5
A3D54
330
18
100
AcDbEntity
  8
1PHANTOM
100
AcDbLine
 10
82.35428530481948
 20
-62.37033639919287
 30
0.0
 11
82.20428530481962
 21
-63.12033639919287
 31
0.0
  0
LINE
  5
A3D55
330
18
100
AcDbEntity
  8
1PHANTOM
100
AcDbLine
 10
80.35428530481948
 20
-62.37033639919287
 30
0.0
 11
80.20428530481962
 21
-63.12033639919287
 31
0.0
  0
LINE
  5
A3D56
330
18
100
AcDbEntity
  8
1PHANTOM
100
AcDbLine
 10
80.35428530481948
 20
-62.37033639919287
 30
0.0
 11
81.35428530481948
 21
-67.37033639919287
 31
0.0
  0
LINE
  5
A3D57
330
18
100
AcDbEntity
  8
1PHANTOM
100
AcDbLine
 10
84.35428530481948
 20
-62.37033639919287
 30
0.0
 11
84.20428530481962
 21
-63.12033639919287
 31
0.0
  0
LINE
  5
A3D58
330
18
100
AcDbEntity
  8
1PHANTOM
100
AcDbLine
 10
86.35428530481948
 20
-62.37033639919287
 30
0.0
 11
86.20428530481962
 21
-63.12033639919287
 31
0.0
  0
LINE
  5
A3D59
330
18
100
AcDbEntity
  8
1PHANTOM
100
AcDbLine
 10
86.35428530481948
 20
-62.37033639919287
 30
0.0
 11
87.35428530481948
 21
-67.37033639919287
 31
0.0
  0
LINE
  5
A3D5A
330
18
100
AcDbEntity
  8
1PHANTOM
100
AcDbLine
 10
84.35428530481948
 20
-62.37033639919287
 30
0.0
 11
85.35428530481948
 21
-67.37033639919287
 31
0.0
  0
LINE
  5
A3D5B
330
18
100
AcDbEntity
  8
1PHANTOM
100
AcDbLine
 10
82.35428530481948
 20
-62.37033639919287
 30
0.0
 11
83.35428530481948
 21
-67.37033639919287
 31
0.0
  0
LINE
  5
A3D5C
330
18
100
AcDbEntity
  8
1PHANTOM
100
AcDbLine
 10
87.50428530481958
 20
-66.62033639919287
 30
0.0
 11
87.35428530481948
 21
-67.37033639919287
 31
0.0
  0
LINE
  5
A3D5D
330
18
100
AcDbEntity
  8
1PHANTOM
100
AcDbLine
 10
85.50428530481958
 20
-66.62033639919287
 30
0.0
 11
85.35428530481948
 21
-67.37033639919287
 31
0.0
  0
LINE
  5
A3D5E
330
18
100
AcDbEntity
  8
1PHANTOM
100
AcDbLine
 10
81.50428530481958
 20
-66.62033639919287
 30
0.0
 11
81.35428530481948
 21
-67.37033639919287
 31
0.0
  0
LINE
  5
A3D5F
330
18
100
AcDbEntity
  8
1PHANTOM
100
AcDbLine
 10
83.50428530481958
 20
-66.62033639919287
 30
0.0
 11
83.35428530481948
 21
-67.37033639919287
 31
0.0
  0
LINE
  5
A3D60
330
18
100
AcDbEntity
  8
1PHANTOM
100
AcDbLine
 10
76.35428530481948
 20
-62.37033639919287
 30
0.0
 11
76.20428530481962
 21
-63.12033639919287
 31
0.0
  0
LINE
  5
A3D61
330
18
100
AcDbEntity
  8
1PHANTOM
100
AcDbLine
 10
78.35428530481948
 20
-62.37033639919287
 30
0.0
 11
78.20428530481962
 21
-63.12033639919287
 31
0.0
  0
LINE
  5
A3D62
330
18
100
AcDbEntity
  8
1PHANTOM
100
AcDbLine
 10
72.35428530481948
 20
-62.37033639919287
 30
0.0
 11
72.20428530481962
 21
-63.12033639919287
 31
0.0
  0
LINE
  5
A3D63
330
18
100
AcDbEntity
  8
1PHANTOM
100
AcDbLine
 10
74.35428530481948
 20
-62.37033639919287
 30
0.0
 11
74.20428530481962
 21
-63.12033639919287
 31
0.0
  0
LINE
  5
A3D64
330
18
100
AcDbEntity
  8
1PHANTOM
100
AcDbLine
 10
78.35428530481948
 20
-62.37033639919287
 30
0.0
 11
79.35428530481948
 21
-67.37033639919287
 31
0.0
  0
LINE
  5
A3D65
330
18
100
AcDbEntity
  8
1PHANTOM
100
AcDbLine
 10
76.35428530481948
 20
-62.37033639919287
 30
0.0
 11
77.35428530481948
 21
-67.37033639919287
 31
0.0
  0
LINE
  5
A3D66
330
18
100
AcDbEntity
  8
1PHANTOM
100
AcDbLine
 10
74.35428530481948
 20
-62.37033639919287
 30
0.0
 11
75.35428530481948
 21
-67.37033639919287
 31
0.0
  0
LINE
  5
A3D67
330
18
100
AcDbEntity
  8
1PHANTOM
100
AcDbLine
 10
72.35428530481948
 20
-62.37033639919287
 30
0.0
 11
73.35428530481948
 21
-67.37033639919287
 31
0.0
  0
LINE
  5
A3D68
330
18
100
AcDbEntity
  8
1PHANTOM
100
AcDbLine
 10
75.50428530481958
 20
-66.62033639919287
 30
0.0
 11
75.35428530481948
 21
-67.37033639919287
 31
0.0
  0
LINE
  5
A3D69
330
18
100
AcDbEntity
  8
1PHANTOM
100
AcDbLine
 10
77.50428530481958
 20
-66.62033639919287
 30
0.0
 11
77.35428530481948
 21
-67.37033639919287
 31
0.0
  0
LINE
  5
A3D6A
330
18
100
AcDbEntity
  8
1PHANTOM
100
AcDbLine
 10
71.50428530481958
 20
-66.62033639919287
 30
0.0
 11
71.35428530481948
 21
-67.37033639919287
 31
0.0
  0
LINE
  5
A3D6B
330
18
100
AcDbEntity
  8
1PHANTOM
100
AcDbLine
 10
73.50428530481958
 20
-66.62033639919287
 30
0.0
 11
73.35428530481948
 21
-67.37033639919287
 31
0.0
  0
LINE
  5
A3D6C
330
18
100
AcDbEntity
  8
1PHANTOM
100
AcDbLine
 10
62.35428530481948
 20
-62.37033639919287
 30
0.0
 11
63.35428530481948
 21
-67.37033639919287
 31
0.0
  0
LINE
  5
A3D6D
330
18
100
AcDbEntity
  8
1PHANTOM
100
AcDbLine
 10
70.35428530481948
 20
-62.37033639919287
 30
0.0
 11
70.20428530481962
 21
-63.12033639919287
 31
0.0
  0
LINE
  5
A3D6E
330
18
100
AcDbEntity
  8
1PHANTOM
100
AcDbLine
 10
68.35428530481948
 20
-62.37033639919287
 30
0.0
 11
68.20428530481962
 21
-63.12033639919287
 31
0.0
  0
LINE
  5
A3D6F
330
18
100
AcDbEntity
  8
1PHANTOM
100
AcDbLine
 10
66.35428530481948
 20
-62.37033639919287
 30
0.0
 11
66.20428530481962
 21
-63.12033639919287
 31
0.0
  0
LINE
  5
A3D70
330
18
100
AcDbEntity
  8
1PHANTOM
100
AcDbLine
 10
64.35428530481948
 20
-62.37033639919287
 30
0.0
 11
64.20428530481962
 21
-63.12033639919287
 31
0.0
  0
LINE
  5
A3D71
330
18
100
AcDbEntity
  8
1PHANTOM
100
AcDbLine
 10
68.35428530481948
 20
-62.37033639919287
 30
0.0
 11
69.35428530481948
 21
-67.37033639919287
 31
0.0
  0
LINE
  5
A3D72
330
18
100
AcDbEntity
  8
1PHANTOM
100
AcDbLine
 10
66.35428530481948
 20
-62.37033639919287
 30
0.0
 11
67.35428530481948
 21
-67.37033639919287
 31
0.0
  0
LINE
  5
A3D73
330
18
100
AcDbEntity
  8
1PHANTOM
100
AcDbLine
 10
64.35428530481948
 20
-62.37033639919287
 30
0.0
 11
65.35428530481948
 21
-67.37033639919287
 31
0.0
  0
LINE
  5
A3D74
330
18
100
AcDbEntity
  8
1PHANTOM
100
AcDbLine
 10
69.50428530481958
 20
-66.62033639919287
 30
0.0
 11
69.35428530481948
 21
-67.37033639919287
 31
0.0
  0
LINE
  5
A3D75
330
18
100
AcDbEntity
  8
1PHANTOM
100
AcDbLine
 10
67.50428530481958
 20
-66.62033639919287
 30
0.0
 11
67.35428530481948
 21
-67.37033639919287
 31
0.0
  0
LINE
  5
A3D76
330
18
100
AcDbEntity
  8
1PHANTOM
100
AcDbLine
 10
65.50428530481958
 20
-66.62033639919287
 30
0.0
 11
65.35428530481948
 21
-67.37033639919287
 31
0.0
  0
LINE
  5
A3D77
330
18
100
AcDbEntity
  8
1PHANTOM
100
AcDbLine
 10
63.50428530481958
 20
-66.62033639919287
 30
0.0
 11
63.35428530481948
 21
-67.37033639919287
 31
0.0
  0
LINE
  5
A3D78
330
18
100
AcDbEntity
  8
1PHANTOM
100
AcDbLine
 10
62.35428530481948
 20
-62.37033639919287
 30
0.0
 11
62.20428530481962
 21
-63.12033639919287
 31
0.0
  0
LINE
  5
A3D79
330
18
100
AcDbEntity
  8
1PHANTOM
100
AcDbLine
 10
60.49212329294977
 20
-63.05952633984339
 30
0.0
 11
61.35428530481948
 21
-67.37033639919287
 31
0.0
  0
LINE
  5
A3D7A
330
18
100
AcDbEntity
  8
1PHANTOM
100
AcDbLine
 10
61.50428530481958
 20
-66.62033639919287
 30
0.0
 11
61.35428530481948
 21
-67.37033639919287
 31
0.0
  0
ELLIPSE
  5
A3D84
330
18
100
AcDbEntity
  8
01
100
AcDbEllipse
 10
7.992123292949316
 20
-79.37033639919287
 30
0.0
 11
-20.50000000000045
 21
0.0
 31
0.0
210
0.0
220
0.0
230
1.0
 40
0.9999999999999778
 41
1.510208806957694
 42
4.712388980384691
  0
LINE
  5
A3D85
330
18
100
AcDbEntity
  8
1PHANTOM
100
AcDbLine
 10
-95.1097115694368
 20
15.90323385705915
 30
0.0
 11
-95.1097115694368
 21
-18.99676614294094
 31
0.0
  0
ARC
  5
A3D86
330
18
100
AcDbEntity
  8
1PHANTOM
100
AcDbCircle
 10
-95.40971156943698
 20
-18.99676614294094
 30
0.0
 40
0.3
100
AcDbArc
 50
270.0
 51
0.0
  0
LINE
  5
A3D87
330
18
100
AcDbEntity
  8
1PHANTOM
100
AcDbLine
 10
-105.1097115694363
 20
-19.2967661429409
 30
0.0
 11
-95.40971156943698
 21
-19.2967661429409
 31
0.0
  0
LINE
  5
A3D88
330
18
100
AcDbEntity
  8
1PHANTOM
100
AcDbLine
 10
-125.2297636369067
 20
-19.0467661429409
 30
0.0
 11
-95.11390758028199
 21
-19.04676614294112
 31
0.0
  0
LINE
  5
A3D89
330
18
100
AcDbEntity
  8
1PHANTOM
100
AcDbLine
 10
-105.1097115694363
 20
16.20323385705933
 30
0.0
 11
-95.40971156943652
 21
16.2032338570591
 31
0.0
  0
LINE
  5
A3D8A
330
18
100
AcDbEntity
  8
1PHANTOM
100
AcDbLine
 10
-125.2297636369067
 20
15.95323385705979
 30
0.0
 11
-95.11390758028153
 21
15.95323385705888
 31
0.0
  0
ARC
  5
A3D8B
330
18
100
AcDbEntity
  8
1PHANTOM
100
AcDbCircle
 10
-95.40971156943652
 20
15.90323385705915
 30
0.0
 40
0.3
100
AcDbArc
 50
0.0
 51
90.0
  0
TEXT
  5
A3D8D
330
18
100
AcDbEntity
  8
1TEXT
100
AcDbText
 10
41.62545662628325
 20
64.61794519753494
 30
0.0
 40
4.0
  1
マットブラック
 72
     1
 11
57.89212329294992
 21
64.61794519753494
 31
0.0
100
AcDbText
  0
LINE
  5
A3D8E
330
18
100
AcDbEntity
  8
1DIM
100
AcDbLine
 10
40.49212329294983
 20
62.95323385705933
 30
0.0
 11
110.4921232929498
 21
62.95323385705933
 31
0.0
  0
TEXT
  5
A3D8F
330
18
100
AcDbEntity
  8
1TEXT
100
AcDbText
 10
77.95878995961704
 20
64.23887687340994
 30
0.0
 40
4.0
  1
KH-373-003
 41
0.8
 72
     1
 11
92.89212329295037
 21
64.23887687340994
 31
0.0
100
AcDbText
  0
TEXT
  5
A400E
330
18
100
AcDbEntity
  8
01
  6
CONTINUOUS
100
AcDbText
 10
-160.6484419992687
 20
-34.89251673254268
 30
0.0
 40
3.5
  1
材質：亜鉛ダイキャスト
100
AcDbText
  0
TEXT
  5
A400F
330
18
100
AcDbEntity
  8
01
  6
CONTINUOUS
100
AcDbText
 10
-160.531775332602
 20
-40.72585006587602
 30
0.0
 40
3.5
  1
仕上げ：各種仕上げ
100
AcDbText
  0
TEXT
  5
A4010
330
18
100
AcDbEntity
  8
01
  6
CONTINUOUS
100
AcDbText
 10
-46.24566535815428
 20
-18.28278773785176
 30
0.0
 40
3.5
  1
材質：亜鉛ダイキャスト
100
AcDbText
  0
TEXT
  5
A4011
330
18
100
AcDbEntity
  8
01
  6
CONTINUOUS
100
AcDbText
 10
-46.12899869148762
 20
-24.11612107118509
 30
0.0
 40
3.5
  1
仕上げ：各種仕上げ
100
AcDbText
  0
LINE
  5
A4013
330
18
100
AcDbEntity
  8
1DIM
100
AcDbLine
 10
-102.1432836015059
 20
-18.56094769059768
 30
0.0
 11
-114.4484419992687
 21
-41.42585006587602
 31
0.0
1001
ACAD
1000
DSTYLE
1002
{
1070
    50
1040
1.570796326794897
1070
   345
1005
14
1070
   346
1005
14
1070
   347
1005
14
1002
}
  0
LINE
  5
A4015
330
18
100
AcDbEntity
  8
1DIM
100
AcDbLine
 10
-65.70686374132048
 20
2.000051595693363
 30
0.0
 11
-46.71233202482095
 21
-24.81612107118509
 31
0.0
1001
ACAD
1000
DSTYLE
1002
{
1070
    50
1040
1.570796326794897
1070
   345
1005
14
1070
   346
1005
14
1070
   347
1005
14
1002
}
  0
LINE
  5
A4016
330
18
100
AcDbEntity
  8
1CENTER
100
AcDbLine
 10
-117.2863582150901
 20
-68.37033639919287
 30
0.0
 11
-88.53586125805506
 21
-68.37033639919287
 31
0.0
  0
LINE
  5
A4018
330
18
100
AcDbEntity
  8
0
100
AcDbLine
 10
-105.4597255299898
 20
-70.37028986329494
 30
0.0
 11
-106.2597162228124
 21
-66.37028986329494
 31
0.0
  0
LINE
  5
A4019
330
18
100
AcDbEntity
  8
0
100
AcDbLine
 10
-106.2597162228124
 20
-66.37028986329494
 30
0.0
 11
-106.3597173862096
 21
-66.87028986329494
 31
0.0
  0
LINE
  5
A401A
330
18
100
AcDbEntity
  8
0
100
AcDbLine
 10
-111.7469549640296
 20
-69.44937526608624
 30
0.0
 11
-111.8597244763796
 21
-69.9174737212362
 31
0.0
  0
LINE
  5
A401B
330
18
100
AcDbEntity
  8
0
100
AcDbLine
 10
-114.2597188568263
 20
-67.5023251243125
 30
0.0
 11
-114.5714887130785
 21
-68.09060169935492
 31
0.0
  0
LINE
  5
A401C
330
18
100
AcDbEntity
  8
0
100
AcDbLine
 10
-113.308287626335
 20
-69.00748837255685
 30
0.0
 11
-113.4597234227754
 21
-69.46466021318793
 31
0.0
  0
LINE
  5
A401D
330
18
100
AcDbEntity
  8
0
100
AcDbLine
 10
-112.6597178032207
 20
-67.04951101990571
 30
0.0
 11
-112.8424819458487
 21
-67.60126048370898
 31
0.0
  0
LINE
  5
A401E
330
18
100
AcDbEntity
  8
0
100
AcDbLine
 10
-113.4597234227754
 20
-69.46466021318793
 30
0.0
 11
-114.2597188568263
 21
-67.5023251243125
 31
0.0
  0
LINE
  5
A401F
330
18
100
AcDbEntity
  8
0
100
AcDbLine
 10
-111.8597244763796
 20
-69.9174737212362
 30
0.0
 11
-112.6597178032207
 21
-67.04951101990571
 31
0.0
  0
LINE
  5
A4020
330
18
100
AcDbEntity
  8
0
100
AcDbLine
 10
-107.0597255299898
 20
-70.37028986329494
 30
0.0
 11
-107.8597162228124
 21
-66.37028986329494
 31
0.0
  0
LINE
  5
A4021
330
18
100
AcDbEntity
  8
0
100
AcDbLine
 10
-108.6597255299898
 20
-70.37028986329494
 30
0.0
 11
-109.4597162228124
 21
-66.37028986329494
 31
0.0
  0
LINE
  5
A4022
330
18
100
AcDbEntity
  8
0
100
AcDbLine
 10
-108.5597243665927
 20
-69.87028986329494
 30
0.0
 11
-108.6597255299898
 21
-70.37028986329494
 31
0.0
  0
LINE
  5
A4023
330
18
100
AcDbEntity
  8
0
100
AcDbLine
 10
-109.4597162228124
 20
-66.37028986329494
 30
0.0
 11
-109.5597173862095
 21
-66.87028986329494
 31
0.0
  0
LINE
  5
A4024
330
18
100
AcDbEntity
  8
0
100
AcDbLine
 10
-107.8597162228124
 20
-66.37028986329494
 30
0.0
 11
-107.9597173862094
 21
-66.87028986329494
 31
0.0
  0
LINE
  5
A4025
330
18
100
AcDbEntity
  8
0
100
AcDbLine
 10
-111.0597167496151
 20
-66.59669691549891
 30
0.0
 11
-111.1889874472449
 21
-67.13329065077005
 31
0.0
  0
LINE
  5
A4026
330
18
100
AcDbEntity
  8
0
100
AcDbLine
 10
-110.2597255299897
 20
-70.37028986329494
 30
0.0
 11
-111.0597167496151
 21
-66.59669691549891
 31
0.0
  0
LINE
  5
A4027
330
18
100
AcDbEntity
  8
0
100
AcDbLine
 10
-110.1597243665926
 20
-69.87028986329494
 30
0.0
 11
-110.2597255299897
 21
-70.37028986329494
 31
0.0
  0
LINE
  5
A4028
330
18
100
AcDbEntity
  8
0
100
AcDbLine
 10
-106.9597243665926
 20
-69.87028986329494
 30
0.0
 11
-107.0597255299898
 21
-70.37028986329494
 31
0.0
  0
LINE
  5
A4029
330
18
100
AcDbEntity
  8
0
100
AcDbLine
 10
-94.25972552998542
 20
-70.37028986329494
 30
0.0
 11
-95.05971622280367
 21
-66.37028986329494
 31
0.0
  0
LINE
  5
A402A
330
18
100
AcDbEntity
  8
0
100
AcDbLine
 10
-102.2597255299897
 20
-70.37028986329494
 30
0.0
 11
-103.0597162228123
 21
-66.37028986329494
 31
0.0
  0
LINE
  5
A402B
330
18
100
AcDbEntity
  8
0
100
AcDbLine
 10
-103.8597255299899
 20
-70.37028986329494
 30
0.0
 11
-104.6597162228124
 21
-66.37028986329494
 31
0.0
  0
LINE
  5
A402C
330
18
100
AcDbEntity
  8
0
100
AcDbLine
 10
-105.3597243665927
 20
-69.87028986329494
 30
0.0
 11
-105.4597255299898
 21
-70.37028986329494
 31
0.0
  0
LINE
  5
A402D
330
18
100
AcDbEntity
  8
0
100
AcDbLine
 10
-103.7597243665928
 20
-69.87028986329494
 30
0.0
 11
-103.8597255299899
 21
-70.37028986329494
 31
0.0
  0
LINE
  5
A402E
330
18
100
AcDbEntity
  8
0
100
AcDbLine
 10
-104.6597162228124
 20
-66.37028986329494
 30
0.0
 11
-104.7597173862096
 21
-66.87028986329494
 31
0.0
  0
LINE
  5
A402F
330
18
100
AcDbEntity
  8
0
100
AcDbLine
 10
-103.0597162228123
 20
-66.37028986329494
 30
0.0
 11
-103.1597173862095
 21
-66.87028986329494
 31
0.0
  0
LINE
  5
A4030
330
18
100
AcDbEntity
  8
0
100
AcDbLine
 10
-95.85972552998976
 20
-70.37028986329494
 30
0.0
 11
-96.65971622280802
 21
-66.37028986329494
 31
0.0
  0
LINE
  5
A4031
330
18
100
AcDbEntity
  8
0
100
AcDbLine
 10
-99.0597255299898
 20
-70.37028986329494
 30
0.0
 11
-99.85971622280806
 21
-66.37028986329494
 31
0.0
  0
LINE
  5
A4032
330
18
100
AcDbEntity
  8
0
100
AcDbLine
 10
-100.6597255299898
 20
-70.37028986329494
 30
0.0
 11
-101.4597162228124
 21
-66.37028986329494
 31
0.0
  0
LINE
  5
A4033
330
18
100
AcDbEntity
  8
0
100
AcDbLine
 10
-102.1597243665926
 20
-69.87028986329494
 30
0.0
 11
-102.2597255299897
 21
-70.37028986329494
 31
0.0
  0
LINE
  5
A4034
330
18
100
AcDbEntity
  8
0
100
AcDbLine
 10
-100.559724366592
 20
-69.87028986329494
 30
0.0
 11
-100.6597255299898
 21
-70.37028986329494
 31
0.0
  0
LINE
  5
A4035
330
18
100
AcDbEntity
  8
0
100
AcDbLine
 10
-99.85971622280806
 20
-66.37028986329494
 30
0.0
 11
-99.95971738620574
 21
-66.87028986329494
 31
0.0
  0
LINE
  5
A4036
330
18
100
AcDbEntity
  8
0
100
AcDbLine
 10
-101.4597162228124
 20
-66.37028986329494
 30
0.0
 11
-101.5597173862095
 21
-66.87028986329494
 31
0.0
  0
LINE
  5
A4037
330
18
100
AcDbEntity
  8
0
100
AcDbLine
 10
-96.65971622280802
 20
-66.37028986329494
 30
0.0
 11
-96.7597173862057
 21
-66.87028986329494
 31
0.0
  0
LINE
  5
A4038
330
18
100
AcDbEntity
  8
0
100
AcDbLine
 10
-97.35972436659199
 20
-69.87028986329494
 30
0.0
 11
-97.45972552998967
 21
-70.37028986329494
 31
0.0
  0
LINE
  5
A4039
330
18
100
AcDbEntity
  8
0
100
AcDbLine
 10
-98.25971622280792
 20
-66.37028986329494
 30
0.0
 11
-98.3597173862056
 21
-66.87028986329494
 31
0.0
  0
LINE
  5
A403A
330
18
100
AcDbEntity
  8
0
100
AcDbLine
 10
-97.45972552998967
 20
-70.37028986329494
 30
0.0
 11
-98.25971622280792
 21
-66.37028986329494
 31
0.0
  0
LINE
  5
A403B
330
18
100
AcDbEntity
  8
0
100
AcDbLine
 10
-98.95972436659213
 20
-69.87028986329494
 30
0.0
 11
-99.0597255299898
 21
-70.37028986329494
 31
0.0
  0
LINE
  5
A403C
330
18
100
AcDbEntity
  8
0
100
AcDbLine
 10
-95.05971622280367
 20
-66.37028986329494
 30
0.0
 11
-95.15971738620135
 21
-66.87028986329494
 31
0.0
  0
LINE
  5
A403D
330
18
100
AcDbEntity
  8
0
100
AcDbLine
 10
-95.75972436659208
 20
-69.87028986329494
 30
0.0
 11
-95.85972552998976
 21
-70.37028986329494
 31
0.0
  0
LINE
  5
A403E
330
18
100
AcDbEntity
  8
0
100
AcDbLine
 10
-90.85973018379616
 20
-72.37033639919287
 30
0.0
 11
-90.85971156943708
 21
-64.37033639919287
 31
0.0
  0
LINE
  5
A403F
330
18
100
AcDbEntity
  8
0
100
AcDbLine
 10
-93.35971738620128
 20
-66.87028986329494
 30
0.0
 11
-93.45971622280354
 21
-66.37028986329494
 31
0.0
  0
LINE
  5
A4040
330
18
100
AcDbEntity
  8
0
100
AcDbLine
 10
-93.45971622280354
 20
-66.37028986329494
 30
0.0
 11
-93.55971738620121
 21
-66.87028986329494
 31
0.0
  0
LINE
  5
A4041
330
18
100
AcDbEntity
  8
0
100
AcDbLine
 10
-94.15972436658774
 20
-69.87028986329494
 30
0.0
 11
-94.25972552998542
 21
-70.37028986329494
 31
0.0
  0
LINE
  5
A4042
330
18
100
AcDbEntity
  8
0
  6
BYBLOCK
100
AcDbLine
 10
-92.60971156943668
 20
-70.62033639919287
 30
0.0
 11
-95.1097115694368
 21
-70.62033639919287
 31
0.0
  0
LINE
  5
A4043
330
18
100
AcDbEntity
  8
0
  6
BYBLOCK
100
AcDbLine
 10
-92.60971156943657
 20
-66.12033639919287
 30
0.0
 11
-95.1097115694368
 21
-66.12033639919287
 31
0.0
  0
LINE
  5
A4044
330
18
100
AcDbEntity
  8
0
100
AcDbLine
 10
-90.1097115694368
 20
-72.62033639919287
 30
0.0
 11
-90.6097115694368
 21
-72.62033639919287
 31
0.0
  0
LINE
  5
A4045
330
18
100
AcDbEntity
  8
0
100
AcDbLine
 10
-90.6097115694368
 20
-72.62033639919287
 30
0.0
 11
-92.60971156943668
 21
-70.62033639919287
 31
0.0
  0
LINE
  5
A4046
330
18
100
AcDbEntity
  8
0
100
AcDbLine
 10
-90.1097115694368
 20
-64.12033639919287
 30
0.0
 11
-90.6097115694368
 21
-64.12033639919287
 31
0.0
  0
LINE
  5
A4047
330
18
100
AcDbEntity
  8
0
100
AcDbLine
 10
-90.6097115694368
 20
-64.12033639919287
 30
0.0
 11
-92.60971156943657
 21
-66.12033639919287
 31
0.0
  0
LINE
  5
A4048
330
18
100
AcDbEntity
  8
0
100
AcDbLine
 10
-92.60971156943657
 20
-66.12033639919287
 30
0.0
 11
-92.60971156943668
 21
-70.62033639919287
 31
0.0
  0
LINE
  5
A4049
330
18
100
AcDbEntity
  8
0
100
AcDbLine
 10
-90.6097115694368
 20
-64.12033639919287
 30
0.0
 11
-90.6097115694368
 21
-72.62033639919287
 31
0.0
  0
LINE
  5
A4052
330
18
100
AcDbEntity
  8
0
  6
BYBLOCK
100
AcDbLine
 10
-92.60971156943668
 20
-88.12033639919287
 30
0.0
 11
-95.1097115694368
 21
-88.12033639919287
 31
0.0
  0
LINE
  5
A4053
330
18
100
AcDbEntity
  8
0
  6
BYBLOCK
100
AcDbLine
 10
-92.60971156943657
 20
-92.62033639919287
 30
0.0
 11
-95.1097115694368
 21
-92.62033639919287
 31
0.0
  0
LINE
  5
A4054
330
18
100
AcDbEntity
  8
0
100
AcDbLine
 10
-90.1097115694368
 20
-86.12033639919287
 30
0.0
 11
-90.6097115694368
 21
-86.12033639919287
 31
0.0
  0
LINE
  5
A4055
330
18
100
AcDbEntity
  8
0
100
AcDbLine
 10
-90.6097115694368
 20
-86.12033639919287
 30
0.0
 11
-92.60971156943668
 21
-88.12033639919287
 31
0.0
  0
LINE
  5
A4056
330
18
100
AcDbEntity
  8
0
100
AcDbLine
 10
-90.1097115694368
 20
-94.62033639919287
 30
0.0
 11
-90.6097115694368
 21
-94.62033639919287
 31
0.0
  0
LINE
  5
A4057
330
18
100
AcDbEntity
  8
0
100
AcDbLine
 10
-90.6097115694368
 20
-94.62033639919287
 30
0.0
 11
-92.60971156943657
 21
-92.62033639919287
 31
0.0
  0
LINE
  5
A4058
330
18
100
AcDbEntity
  8
0
100
AcDbLine
 10
-92.60971156943657
 20
-92.62033639919287
 30
0.0
 11
-92.60971156943668
 21
-88.12033639919287
 31
0.0
  0
LINE
  5
A4059
330
18
100
AcDbEntity
  8
0
100
AcDbLine
 10
-90.6097115694368
 20
-94.62033639919287
 30
0.0
 11
-90.6097115694368
 21
-86.12033639919287
 31
0.0
  0
LINE
  5
A405A
330
18
100
AcDbEntity
  8
1CENTER
100
AcDbLine
 10
-117.2863582150901
 20
-90.37033639919287
 30
0.0
 11
-88.53586125805506
 21
-90.37033639919287
 31
0.0
  0
LINE
  5
A405C
330
18
100
AcDbEntity
  8
0
100
AcDbLine
 10
-105.4597255299898
 20
-92.37028986329494
 30
0.0
 11
-106.2597162228124
 21
-88.37028986329494
 31
0.0
  0
LINE
  5
A405D
330
18
100
AcDbEntity
  8
0
100
AcDbLine
 10
-106.2597162228124
 20
-88.37028986329494
 30
0.0
 11
-106.3597173862096
 21
-88.87028986329494
 31
0.0
  0
LINE
  5
A405E
330
18
100
AcDbEntity
  8
0
100
AcDbLine
 10
-111.7469549640296
 20
-91.44937526608624
 30
0.0
 11
-111.8597244763796
 21
-91.9174737212362
 31
0.0
  0
LINE
  5
A405F
330
18
100
AcDbEntity
  8
0
100
AcDbLine
 10
-114.2597188568263
 20
-89.5023251243125
 30
0.0
 11
-114.5714887130785
 21
-90.09060169935492
 31
0.0
  0
LINE
  5
A4060
330
18
100
AcDbEntity
  8
0
100
AcDbLine
 10
-113.308287626335
 20
-91.00748837255685
 30
0.0
 11
-113.4597234227754
 21
-91.46466021318793
 31
0.0
  0
LINE
  5
A4061
330
18
100
AcDbEntity
  8
0
100
AcDbLine
 10
-112.6597178032207
 20
-89.04951101990571
 30
0.0
 11
-112.8424819458487
 21
-89.60126048370898
 31
0.0
  0
LINE
  5
A4062
330
18
100
AcDbEntity
  8
0
100
AcDbLine
 10
-113.4597234227754
 20
-91.46466021318793
 30
0.0
 11
-114.2597188568263
 21
-89.5023251243125
 31
0.0
  0
LINE
  5
A4063
330
18
100
AcDbEntity
  8
0
100
AcDbLine
 10
-111.8597244763796
 20
-91.9174737212362
 30
0.0
 11
-112.6597178032207
 21
-89.04951101990571
 31
0.0
  0
LINE
  5
A4064
330
18
100
AcDbEntity
  8
0
100
AcDbLine
 10
-107.0597255299898
 20
-92.37028986329494
 30
0.0
 11
-107.8597162228124
 21
-88.37028986329494
 31
0.0
  0
LINE
  5
A4065
330
18
100
AcDbEntity
  8
0
100
AcDbLine
 10
-108.6597255299898
 20
-92.37028986329494
 30
0.0
 11
-109.4597162228124
 21
-88.37028986329494
 31
0.0
  0
LINE
  5
A4066
330
18
100
AcDbEntity
  8
0
100
AcDbLine
 10
-108.5597243665927
 20
-91.87028986329494
 30
0.0
 11
-108.6597255299898
 21
-92.37028986329494
 31
0.0
  0
LINE
  5
A4067
330
18
100
AcDbEntity
  8
0
100
AcDbLine
 10
-109.4597162228124
 20
-88.37028986329494
 30
0.0
 11
-109.5597173862095
 21
-88.87028986329494
 31
0.0
  0
LINE
  5
A4068
330
18
100
AcDbEntity
  8
0
100
AcDbLine
 10
-107.8597162228124
 20
-88.37028986329494
 30
0.0
 11
-107.9597173862094
 21
-88.87028986329494
 31
0.0
  0
LINE
  5
A4069
330
18
100
AcDbEntity
  8
0
100
AcDbLine
 10
-111.0597167496151
 20
-88.59669691549891
 30
0.0
 11
-111.1889874472449
 21
-89.13329065077005
 31
0.0
  0
LINE
  5
A406A
330
18
100
AcDbEntity
  8
0
100
AcDbLine
 10
-110.2597255299897
 20
-92.37028986329494
 30
0.0
 11
-111.0597167496151
 21
-88.59669691549891
 31
0.0
  0
LINE
  5
A406B
330
18
100
AcDbEntity
  8
0
100
AcDbLine
 10
-110.1597243665926
 20
-91.87028986329494
 30
0.0
 11
-110.2597255299897
 21
-92.37028986329494
 31
0.0
  0
LINE
  5
A406C
330
18
100
AcDbEntity
  8
0
100
AcDbLine
 10
-106.9597243665926
 20
-91.87028986329494
 30
0.0
 11
-107.0597255299898
 21
-92.37028986329494
 31
0.0
  0
LINE
  5
A406D
330
18
100
AcDbEntity
  8
0
100
AcDbLine
 10
-94.25972552998542
 20
-92.37028986329494
 30
0.0
 11
-95.05971622280367
 21
-88.37028986329494
 31
0.0
  0
LINE
  5
A406E
330
18
100
AcDbEntity
  8
0
100
AcDbLine
 10
-102.2597255299897
 20
-92.37028986329494
 30
0.0
 11
-103.0597162228123
 21
-88.37028986329494
 31
0.0
  0
LINE
  5
A406F
330
18
100
AcDbEntity
  8
0
100
AcDbLine
 10
-103.8597255299899
 20
-92.37028986329494
 30
0.0
 11
-104.6597162228124
 21
-88.37028986329494
 31
0.0
  0
LINE
  5
A4070
330
18
100
AcDbEntity
  8
0
100
AcDbLine
 10
-105.3597243665927
 20
-91.87028986329494
 30
0.0
 11
-105.4597255299898
 21
-92.37028986329494
 31
0.0
  0
LINE
  5
A4071
330
18
100
AcDbEntity
  8
0
100
AcDbLine
 10
-103.7597243665928
 20
-91.87028986329494
 30
0.0
 11
-103.8597255299899
 21
-92.37028986329494
 31
0.0
  0
LINE
  5
A4072
330
18
100
AcDbEntity
  8
0
100
AcDbLine
 10
-104.6597162228124
 20
-88.37028986329494
 30
0.0
 11
-104.7597173862096
 21
-88.87028986329494
 31
0.0
  0
LINE
  5
A4073
330
18
100
AcDbEntity
  8
0
100
AcDbLine
 10
-103.0597162228123
 20
-88.37028986329494
 30
0.0
 11
-103.1597173862095
 21
-88.87028986329494
 31
0.0
  0
LINE
  5
A4074
330
18
100
AcDbEntity
  8
0
100
AcDbLine
 10
-95.85972552998976
 20
-92.37028986329494
 30
0.0
 11
-96.65971622280802
 21
-88.37028986329494
 31
0.0
  0
LINE
  5
A4075
330
18
100
AcDbEntity
  8
0
100
AcDbLine
 10
-99.0597255299898
 20
-92.37028986329494
 30
0.0
 11
-99.85971622280806
 21
-88.37028986329494
 31
0.0
  0
LINE
  5
A4076
330
18
100
AcDbEntity
  8
0
100
AcDbLine
 10
-100.6597255299898
 20
-92.37028986329494
 30
0.0
 11
-101.4597162228124
 21
-88.37028986329494
 31
0.0
  0
LINE
  5
A4077
330
18
100
AcDbEntity
  8
0
100
AcDbLine
 10
-102.1597243665926
 20
-91.87028986329494
 30
0.0
 11
-102.2597255299897
 21
-92.37028986329494
 31
0.0
  0
LINE
  5
A4078
330
18
100
AcDbEntity
  8
0
100
AcDbLine
 10
-100.559724366592
 20
-91.87028986329494
 30
0.0
 11
-100.6597255299898
 21
-92.37028986329494
 31
0.0
  0
LINE
  5
A4079
330
18
100
AcDbEntity
  8
0
100
AcDbLine
 10
-99.85971622280806
 20
-88.37028986329494
 30
0.0
 11
-99.95971738620574
 21
-88.87028986329494
 31
0.0
  0
LINE
  5
A407A
330
18
100
AcDbEntity
  8
0
100
AcDbLine
 10
-101.4597162228124
 20
-88.37028986329494
 30
0.0
 11
-101.5597173862095
 21
-88.87028986329494
 31
0.0
  0
LINE
  5
A407B
330
18
100
AcDbEntity
  8
0
100
AcDbLine
 10
-96.65971622280802
 20
-88.37028986329494
 30
0.0
 11
-96.7597173862057
 21
-88.87028986329494
 31
0.0
  0
LINE
  5
A407C
330
18
100
AcDbEntity
  8
0
100
AcDbLine
 10
-97.35972436659199
 20
-91.87028986329494
 30
0.0
 11
-97.45972552998967
 21
-92.37028986329494
 31
0.0
  0
LINE
  5
A407D
330
18
100
AcDbEntity
  8
0
100
AcDbLine
 10
-98.25971622280792
 20
-88.37028986329494
 30
0.0
 11
-98.3597173862056
 21
-88.87028986329494
 31
0.0
  0
LINE
  5
A407E
330
18
100
AcDbEntity
  8
0
100
AcDbLine
 10
-97.45972552998967
 20
-92.37028986329494
 30
0.0
 11
-98.25971622280792
 21
-88.37028986329494
 31
0.0
  0
LINE
  5
A407F
330
18
100
AcDbEntity
  8
0
100
AcDbLine
 10
-98.95972436659213
 20
-91.87028986329494
 30
0.0
 11
-99.0597255299898
 21
-92.37028986329494
 31
0.0
  0
LINE
  5
A4080
330
18
100
AcDbEntity
  8
0
100
AcDbLine
 10
-95.05971622280367
 20
-88.37028986329494
 30
0.0
 11
-95.15971738620135
 21
-88.87028986329494
 31
0.0
  0
LINE
  5
A4081
330
18
100
AcDbEntity
  8
0
100
AcDbLine
 10
-95.75972436659208
 20
-91.87028986329494
 30
0.0
 11
-95.85972552998976
 21
-92.37028986329494
 31
0.0
  0
LINE
  5
A4082
330
18
100
AcDbEntity
  8
0
100
AcDbLine
 10
-90.85973018379616
 20
-94.37033639919287
 30
0.0
 11
-90.85971156943708
 21
-86.37033639919287
 31
0.0
  0
LINE
  5
A4083
330
18
100
AcDbEntity
  8
0
100
AcDbLine
 10
-93.35971738620128
 20
-88.87028986329494
 30
0.0
 11
-93.45971622280354
 21
-88.37028986329494
 31
0.0
  0
LINE
  5
A4084
330
18
100
AcDbEntity
  8
0
100
AcDbLine
 10
-93.45971622280354
 20
-88.37028986329494
 30
0.0
 11
-93.55971738620121
 21
-88.87028986329494
 31
0.0
  0
LINE
  5
A4085
330
18
100
AcDbEntity
  8
0
100
AcDbLine
 10
-94.15972436658774
 20
-91.87028986329494
 30
0.0
 11
-94.25972552998542
 21
-92.37028986329494
 31
0.0
  0
LINE
  5
A4086
330
18
100
AcDbEntity
  8
1DIM
  6
CONTINUOUS
100
AcDbLine
 10
95.68277294932176
 20
-64.87033639919287
 30
0.0
 11
101.4921232929498
 21
-64.87033639919288
 31
0.0
  0
LINE
  5
A4087
330
18
100
AcDbEntity
  8
1DIM
  6
CONTINUOUS
100
AcDbLine
 10
95.68277294932176
 20
-93.87033639919287
 30
0.0
 11
101.4921232929498
 21
-93.87033639919288
 31
0.0
  0
LINE
  5
A4088
330
18
100
AcDbEntity
  8
1DIM
  6
CONTINUOUS
100
AcDbLine
 10
100.4921232929498
 20
-66.87033639919288
 30
0.0
 11
100.4921232929498
 21
-91.87033639919288
 31
0.0
  0
LINE
  5
A408C
330
18
100
AcDbEntity
  8
1DIM
  6
CONTINUOUS
100
AcDbLine
 10
-65.10971156943634
 20
86.14388351343132
 30
0.0
 11
-65.10971156943634
 21
91.95323385705933
 31
0.0
  0
LINE
  5
A408D
330
18
100
AcDbEntity
  8
1DIM
  6
CONTINUOUS
100
AcDbLine
 10
-50.60971156943634
 20
86.14388351343132
 30
0.0
 11
-50.60971156943634
 21
91.95323385705933
 31
0.0
  0
LINE
  5
A408E
330
18
100
AcDbEntity
  8
1DIM
  6
CONTINUOUS
100
AcDbLine
 10
-63.10971156943634
 20
90.95323385705933
 30
0.0
 11
-52.60971156943634
 21
90.95323385705933
 31
0.0
  0
LINE
  5
A4092
330
18
100
AcDbEntity
  8
1DIM
  6
CONTINUOUS
100
AcDbLine
 10
60.49212329294977
 20
-101.3703363991929
 30
0.0
 11
111.4921232929498
 21
-101.3703363991929
 31
0.0
  0
LINE
  5
A4093
330
18
100
AcDbEntity
  8
1DIM
  6
CONTINUOUS
100
AcDbLine
 10
60.49212329294977
 20
-57.37033639919287
 30
0.0
 11
111.4921232929498
 21
-57.37033639919287
 31
0.0
  0
LINE
  5
A4094
330
18
100
AcDbEntity
  8
1DIM
  6
CONTINUOUS
100
AcDbLine
 10
110.4921232929498
 20
-99.37033639919288
 30
0.0
 11
110.4921232929498
 21
-59.37033639919287
 31
0.0
  0
LINE
  5
A4098
330
18
100
AcDbEntity
  8
1DIM
  6
CONTINUOUS
100
AcDbLine
 10
-105.1097115694363
 20
-98.87033639919287
 30
0.0
 11
-146.1097115694361
 21
-98.87033639919287
 31
0.0
  0
LINE
  5
A4099
330
18
100
AcDbEntity
  8
1DIM
  6
CONTINUOUS
100
AcDbLine
 10
-105.1097115694363
 20
-59.87033639919287
 30
0.0
 11
-146.1097115694361
 21
-59.87033639919285
 31
0.0
  0
LINE
  5
A409A
330
18
100
AcDbEntity
  8
1DIM
  6
CONTINUOUS
100
AcDbLine
 10
-145.1097115694361
 20
-96.87033639919287
 30
0.0
 11
-145.1097115694361
 21
-61.87033639919285
 31
0.0
  0
LINE
  5
A409E
330
18
100
AcDbEntity
  8
1DIM
  6
CONTINUOUS
100
AcDbLine
 10
-117.28635821509
 20
-90.37033639919287
 30
0.0
 11
-126.1097115694361
 21
-90.37033639919287
 31
0.0
  0
LINE
  5
A409F
330
18
100
AcDbEntity
  8
1DIM
  6
CONTINUOUS
100
AcDbLine
 10
-117.28635821509
 20
-68.37033639919287
 30
0.0
 11
-126.1097115694361
 21
-68.37033639919287
 31
0.0
  0
LINE
  5
A40A0
330
18
100
AcDbEntity
  8
1DIM
  6
CONTINUOUS
100
AcDbLine
 10
-125.1097115694361
 20
-88.37033639919287
 30
0.0
 11
-125.1097115694361
 21
-70.37033639919287
 31
0.0
  0
LINE
  5
A40A4
330
18
100
AcDbEntity
  8
1DIM
  6
CONTINUOUS
100
AcDbLine
 10
-105.1097115694363
 20
-97.12033639919287
 30
0.0
 11
-136.1097115694361
 21
-97.12033639919287
 31
0.0
1001
ACAD
1000
DSTYLE
1002
{
1070
     3
1000
φ<>
1002
}
  0
LINE
  5
A40A5
330
18
100
AcDbEntity
  8
1DIM
  6
CONTINUOUS
100
AcDbLine
 10
-105.1097115694363
 20
-61.62033639919264
 30
0.0
 11
-136.1097115694361
 21
-61.62033639919263
 31
0.0
1001
ACAD
1000
DSTYLE
1002
{
1070
     3
1000
φ<>
1002
}
  0
LINE
  5
A40A6
330
18
100
AcDbEntity
  8
1DIM
  6
CONTINUOUS
100
AcDbLine
 10
-135.1097115694361
 20
-95.12033639919287
 30
0.0
 11
-135.1097115694361
 21
-63.62033639919263
 31
0.0
1001
ACAD
1000
DSTYLE
1002
{
1070
     3
1000
φ<>
1002
}
  0
LINE
  5
A40AA
330
18
100
AcDbEntity
  8
1DIM
  6
CONTINUOUS
100
AcDbLine
 10
60.49212329294977
 20
-57.37033639919287
 30
0.0
 11
60.49212329294977
 21
-46.37033639919287
 31
0.0
1001
ACAD
1000
DSTYLE
1002
{
1070
   271
1070
     0
1002
}
  0
LINE
  5
A40AB
330
18
100
AcDbEntity
  8
1DIM
  6
CONTINUOUS
100
AcDbLine
 10
-13.10971156943612
 20
-79.37033639919287
 30
0.0
 11
-13.10971156943611
 21
-46.37033639919287
 31
0.0
1001
ACAD
1000
DSTYLE
1002
{
1070
   271
1070
     0
1002
}
  0
LINE
  5
A40AC
330
18
100
AcDbEntity
  8
1DIM
  6
CONTINUOUS
100
AcDbLine
 10
58.49212329294977
 20
-47.37033639919287
 30
0.0
 11
-11.10971156943611
 21
-47.37033639919287
 31
0.0
1001
ACAD
1000
DSTYLE
1002
{
1070
   271
1070
     0
1002
}
  0
LINE
  5
A40B0
330
18
100
AcDbEntity
  8
1DIM
  6
CONTINUOUS
100
AcDbLine
 10
-105.1097115694363
 20
17.4532338570591
 30
0.0
 11
-105.1097115694363
 21
101.9532338570593
 31
0.0
  0
LINE
  5
A40B1
330
18
100
AcDbEntity
  8
1DIM
  6
CONTINUOUS
100
AcDbLine
 10
-43.10971156943634
 20
50.95323385705933
 30
0.0
 11
-43.10971156943634
 21
101.9532338570593
 31
0.0
  0
LINE
  5
A40B2
330
18
100
AcDbEntity
  8
1DIM
  6
CONTINUOUS
100
AcDbLine
 10
-103.1097115694363
 20
100.9532338570593
 30
0.0
 11
-45.10971156943634
 21
100.9532338570593
 31
0.0
  0
LINE
  5
A40B6
330
18
100
AcDbEntity
  8
1DIM
  6
CONTINUOUS
100
AcDbLine
 10
-65.10971156943634
 20
86.14388351343132
 30
0.0
 11
-65.10971156943634
 21
91.95323385705933
 31
0.0
  0
LINE
  5
A40B7
330
18
100
AcDbEntity
  8
1DIM
  6
CONTINUOUS
100
AcDbLine
 10
-105.1097115694363
 20
17.4532338570591
 30
0.0
 11
-105.1097115694363
 21
91.95323385705933
 31
0.0
  0
LINE
  5
A40B8
330
18
100
AcDbEntity
  8
1DIM
  6
CONTINUOUS
100
AcDbLine
 10
-67.10971156943634
 20
90.95323385705933
 30
0.0
 11
-103.1097115694363
 21
90.95323385705933
 31
0.0
  0
LINE
  5
A40BC
330
18
100
AcDbEntity
  8
1DIM
  6
CONTINUOUS
100
AcDbLine
 10
-125.2297636369067
 20
-19.0467661429409
 30
0.0
 11
-124.1097115694361
 21
-19.0467661429409
 31
0.0
1001
ACAD
1000
DSTYLE
1002
{
1070
     3
1000
φ<>
1002
}
  0
LINE
  5
A40BD
330
18
100
AcDbEntity
  8
1DIM
  6
CONTINUOUS
100
AcDbLine
 10
-125.2297636369067
 20
15.95323385705979
 30
0.0
 11
-124.1097115694361
 21
15.95323385705979
 31
0.0
1001
ACAD
1000
DSTYLE
1002
{
1070
     3
1000
φ<>
1002
}
  0
LINE
  5
A40BE
330
18
100
AcDbEntity
  8
1DIM
  6
CONTINUOUS
100
AcDbLine
 10
-125.1097115694361
 20
-17.0467661429409
 30
0.0
 11
-125.1097115694361
 21
13.95323385705979
 31
0.0
1001
ACAD
1000
DSTYLE
1002
{
1070
     3
1000
φ<>
1002
}
  0
LINE
  5
A40C2
330
18
100
AcDbEntity
  8
0
  6
BYBLOCK
100
AcDbLine
 10
-102.6151841170627
 20
-18.30698594186131
 30
0.0
 11
-101.1954847713689
 21
-16.7997897256238
 31
0.0
  0
LINE
  5
A40C3
330
18
100
AcDbEntity
  8
0
  6
BYBLOCK
100
AcDbLine
 10
-101.1954847713689
 20
-16.7997897256238
 30
0.0
 11
-101.6713830859491
 21
-18.81490943933406
 31
0.0
  0
LINE
  5
A40C4
330
18
100
AcDbEntity
  8
0
  6
BYBLOCK
100
AcDbLine
 10
-101.1954847713689
 20
-16.7997897256238
 30
0.0
 11
-102.1432836015059
 21
-18.56094769059768
 31
0.0
  0
LINE
  5
A40C5
330
18
100
AcDbEntity
  8
0
  6
BYBLOCK
100
AcDbLine
 10
-66.14417160747561
 20
1.69029605239698
 30
0.0
 11
-66.86288799704221
 21
3.632107942815916
 31
0.0
  0
LINE
  5
A40C6
330
18
100
AcDbEntity
  8
0
  6
BYBLOCK
100
AcDbLine
 10
-66.86288799704221
 20
3.632107942815916
 30
0.0
 11
-65.26955587516534
 21
2.309807138989746
 31
0.0
  0
LINE
  5
A40C7
330
18
100
AcDbEntity
  8
0
  6
BYBLOCK
100
AcDbLine
 10
-66.86288799704221
 20
3.632107942815916
 30
0.0
 11
-65.70686374132048
 21
2.000051595693363
 31
0.0
  0
LINE
  5
A40C8
330
18
100
AcDbEntity
  8
0
100
AcDbLine
 10
-110.2597243665923
 20
-69.87028986329494
 30
0.0
 11
-93.35975926846828
 21
-69.87028986329494
 31
0.0
  0
LINE
  5
A40C9
330
18
100
AcDbEntity
  8
0
100
AcDbLine
 10
-93.35975926846828
 20
-69.87028986329494
 30
0.0
 11
-90.85973018379616
 21
-72.37033639919287
 31
0.0
  0
LINE
  5
A40CA
330
18
100
AcDbEntity
  8
0
100
AcDbLine
 10
-90.85973018379616
 20
-72.37033639919287
 30
0.0
 11
-90.55973018379518
 21
-72.37033639919287
 31
0.0
  0
LINE
  5
A40CB
330
18
100
AcDbEntity
  8
0
100
AcDbLine
 10
-90.55973018379518
 20
-72.37033639919287
 30
0.0
 11
-90.55971156943599
 21
-64.37033639919287
 31
0.0
  0
LINE
  5
A40CC
330
18
100
AcDbEntity
  8
0
100
AcDbLine
 10
-90.55971156943599
 20
-64.37033639919287
 30
0.0
 11
-90.85971156943708
 21
-64.37033639919287
 31
0.0
  0
LINE
  5
A40CD
330
18
100
AcDbEntity
  8
0
100
AcDbLine
 10
-90.85971156943708
 20
-64.37033639919287
 30
0.0
 11
-93.35969411810308
 21
-66.87028986329494
 31
0.0
  0
LINE
  5
A40CE
330
18
100
AcDbEntity
  8
0
100
AcDbLine
 10
-93.35969411810308
 20
-66.87028986329494
 30
0.0
 11
-110.2597173862076
 21
-66.87028986329494
 31
0.0
  0
LINE
  5
A40CF
330
18
100
AcDbEntity
  8
0
100
AcDbLine
 10
-110.2597173862076
 20
-66.87028986329494
 30
0.0
 11
-115.5597208764532
 21
-68.37028986329494
 31
0.0
  0
LINE
  5
A40D0
330
18
100
AcDbEntity
  8
0
100
AcDbLine
 10
-115.5597208764532
 20
-68.37028986329494
 30
0.0
 11
-110.2597243665923
 21
-69.87028986329494
 31
0.0
  0
LINE
  5
A40D1
330
18
100
AcDbEntity
  8
0
100
AcDbLine
 10
-110.2597243665923
 20
-91.87028986329494
 30
0.0
 11
-93.35975926846828
 21
-91.87028986329494
 31
0.0
  0
LINE
  5
A40D2
330
18
100
AcDbEntity
  8
0
100
AcDbLine
 10
-93.35975926846828
 20
-91.87028986329494
 30
0.0
 11
-90.85973018379616
 21
-94.37033639919287
 31
0.0
  0
LINE
  5
A40D3
330
18
100
AcDbEntity
  8
0
100
AcDbLine
 10
-90.85973018379616
 20
-94.37033639919287
 30
0.0
 11
-90.55973018379518
 21
-94.37033639919287
 31
0.0
  0
LINE
  5
A40D4
330
18
100
AcDbEntity
  8
0
100
AcDbLine
 10
-90.55973018379518
 20
-94.37033639919287
 30
0.0
 11
-90.55971156943599
 21
-86.37033639919287
 31
0.0
  0
LINE
  5
A40D5
330
18
100
AcDbEntity
  8
0
100
AcDbLine
 10
-90.55971156943599
 20
-86.37033639919287
 30
0.0
 11
-90.85971156943708
 21
-86.37033639919287
 31
0.0
  0
LINE
  5
A40D6
330
18
100
AcDbEntity
  8
0
100
AcDbLine
 10
-90.85971156943708
 20
-86.37033639919287
 30
0.0
 11
-93.35969411810308
 21
-88.87028986329494
 31
0.0
  0
LINE
  5
A40D7
330
18
100
AcDbEntity
  8
0
100
AcDbLine
 10
-93.35969411810308
 20
-88.87028986329494
 30
0.0
 11
-110.2597173862076
 21
-88.87028986329494
 31
0.0
  0
LINE
  5
A40D8
330
18
100
AcDbEntity
  8
0
100
AcDbLine
 10
-110.2597173862076
 20
-88.87028986329494
 30
0.0
 11
-115.5597208764532
 21
-90.37028986329494
 31
0.0
  0
LINE
  5
A40D9
330
18
100
AcDbEntity
  8
0
100
AcDbLine
 10
-115.5597208764532
 20
-90.37028986329494
 30
0.0
 11
-110.2597243665923
 21
-91.87028986329494
 31
0.0
  0
LINE
  5
A40DA
330
18
100
AcDbEntity
  8
0
  6
BYBLOCK
100
AcDbLine
 10
99.95622529294977
 20
-66.87033639919288
 30
0.0
 11
100.4921232929498
 21
-64.87033639919288
 31
0.0
  0
LINE
  5
A40DB
330
18
100
AcDbEntity
  8
0
  6
BYBLOCK
100
AcDbLine
 10
100.4921232929498
 20
-64.87033639919288
 30
0.0
 11
101.0280212929498
 21
-66.87033639919288
 31
0.0
  0
LINE
  5
A40DC
330
18
100
AcDbEntity
  8
0
  6
BYBLOCK
100
AcDbLine
 10
100.4921232929498
 20
-64.87033639919288
 30
0.0
 11
100.4921232929498
 21
-66.87033639919288
 31
0.0
  0
LINE
  5
A40DD
330
18
100
AcDbEntity
  8
0
  6
BYBLOCK
100
AcDbLine
 10
101.0280212929498
 20
-91.87033639919288
 30
0.0
 11
100.4921232929498
 21
-93.87033639919288
 31
0.0
  0
LINE
  5
A40DE
330
18
100
AcDbEntity
  8
0
  6
BYBLOCK
100
AcDbLine
 10
100.4921232929498
 20
-93.87033639919288
 30
0.0
 11
99.95622529294977
 21
-91.87033639919288
 31
0.0
  0
LINE
  5
A40DF
330
18
100
AcDbEntity
  8
0
  6
BYBLOCK
100
AcDbLine
 10
100.4921232929498
 20
-93.87033639919288
 30
0.0
 11
100.4921232929498
 21
-91.87033639919288
 31
0.0
  0
TEXT
  5
A40E0
330
18
100
AcDbEntity
  8
1DIM
  6
CONTINUOUS
100
AcDbText
 10
99.79212329294978
 20
-82.28781325104472
 30
0.0
 40
3.5
  1
29
 50
90.0
100
AcDbText
  0
LINE
  5
A40E1
330
18
100
AcDbEntity
  8
0
  6
BYBLOCK
100
AcDbLine
 10
-63.10971156943634
 20
90.41733585705933
 30
0.0
 11
-65.10971156943634
 21
90.95323385705933
 31
0.0
  0
LINE
  5
A40E2
330
18
100
AcDbEntity
  8
0
  6
BYBLOCK
100
AcDbLine
 10
-65.10971156943634
 20
90.95323385705933
 30
0.0
 11
-63.10971156943634
 21
91.48913185705933
 31
0.0
  0
LINE
  5
A40E3
330
18
100
AcDbEntity
  8
0
  6
BYBLOCK
100
AcDbLine
 10
-65.10971156943634
 20
90.95323385705933
 30
0.0
 11
-63.10971156943634
 21
90.95323385705933
 31
0.0
  0
LINE
  5
A40E4
330
18
100
AcDbEntity
  8
0
  6
BYBLOCK
100
AcDbLine
 10
-52.60971156943634
 20
91.48913185705933
 30
0.0
 11
-50.60971156943634
 21
90.95323385705933
 31
0.0
  0
LINE
  5
A40E5
330
18
100
AcDbEntity
  8
0
  6
BYBLOCK
100
AcDbLine
 10
-50.60971156943634
 20
90.95323385705933
 30
0.0
 11
-52.60971156943634
 21
90.41733585705933
 31
0.0
  0
LINE
  5
A40E6
330
18
100
AcDbEntity
  8
0
  6
BYBLOCK
100
AcDbLine
 10
-50.60971156943634
 20
90.95323385705933
 30
0.0
 11
-52.60971156943634
 21
90.95323385705933
 31
0.0
  0
TEXT
  5
A40E7
330
18
100
AcDbEntity
  8
1DIM
  6
CONTINUOUS
100
AcDbText
 10
-62.52637823610301
 20
91.65323385705932
 30
0.0
 40
3.5
  1
14.5
100
AcDbText
  0
LINE
  5
A40E8
330
18
100
AcDbEntity
  8
0
  6
BYBLOCK
100
AcDbLine
 10
111.0280212929498
 20
-99.37033639919288
 30
0.0
 11
110.4921232929498
 21
-101.3703363991929
 31
0.0
  0
LINE
  5
A40E9
330
18
100
AcDbEntity
  8
0
  6
BYBLOCK
100
AcDbLine
 10
110.4921232929498
 20
-101.3703363991929
 30
0.0
 11
109.9562252929498
 21
-99.37033639919288
 31
0.0
  0
LINE
  5
A40EA
330
18
100
AcDbEntity
  8
0
  6
BYBLOCK
100
AcDbLine
 10
110.4921232929498
 20
-101.3703363991929
 30
0.0
 11
110.4921232929498
 21
-99.37033639919288
 31
0.0
  0
LINE
  5
A40EB
330
18
100
AcDbEntity
  8
0
  6
BYBLOCK
100
AcDbLine
 10
109.9562252929498
 20
-59.37033639919287
 30
0.0
 11
110.4921232929498
 21
-57.37033639919287
 31
0.0
  0
LINE
  5
A40EC
330
18
100
AcDbEntity
  8
0
  6
BYBLOCK
100
AcDbLine
 10
110.4921232929498
 20
-57.37033639919287
 30
0.0
 11
111.0280212929498
 21
-59.37033639919287
 31
0.0
  0
LINE
  5
A40ED
330
18
100
AcDbEntity
  8
0
  6
BYBLOCK
100
AcDbLine
 10
110.4921232929498
 20
-57.37033639919287
 30
0.0
 11
110.4921232929498
 21
-59.37033639919287
 31
0.0
  0
TEXT
  5
A40EE
330
18
100
AcDbEntity
  8
1DIM
  6
CONTINUOUS
100
AcDbText
 10
109.7921232929498
 20
-82.28700306585954
 30
0.0
 40
3.5
  1
44
 50
90.0
100
AcDbText
  0
LINE
  5
A40EF
330
18
100
AcDbEntity
  8
0
  6
BYBLOCK
100
AcDbLine
 10
-144.5738135694361
 20
-96.87033639919287
 30
0.0
 11
-145.1097115694361
 21
-98.87033639919287
 31
0.0
  0
LINE
  5
A40F0
330
18
100
AcDbEntity
  8
0
  6
BYBLOCK
100
AcDbLine
 10
-145.1097115694361
 20
-98.87033639919287
 30
0.0
 11
-145.6456095694361
 21
-96.87033639919287
 31
0.0
  0
LINE
  5
A40F1
330
18
100
AcDbEntity
  8
0
  6
BYBLOCK
100
AcDbLine
 10
-145.1097115694361
 20
-98.87033639919287
 30
0.0
 11
-145.1097115694361
 21
-96.87033639919287
 31
0.0
  0
LINE
  5
A40F2
330
18
100
AcDbEntity
  8
0
  6
BYBLOCK
100
AcDbLine
 10
-145.6456095694361
 20
-61.87033639919285
 30
0.0
 11
-145.1097115694361
 21
-59.87033639919285
 31
0.0
  0
LINE
  5
A40F3
330
18
100
AcDbEntity
  8
0
  6
BYBLOCK
100
AcDbLine
 10
-145.1097115694361
 20
-59.87033639919285
 30
0.0
 11
-144.5738135694361
 21
-61.87033639919285
 31
0.0
  0
LINE
  5
A40F4
330
18
100
AcDbEntity
  8
0
  6
BYBLOCK
100
AcDbLine
 10
-145.1097115694361
 20
-59.87033639919285
 30
0.0
 11
-145.1097115694361
 21
-61.87033639919285
 31
0.0
  0
TEXT
  5
A40F5
330
18
100
AcDbEntity
  8
1DIM
  6
CONTINUOUS
100
AcDbText
 10
-145.8097115694361
 20
-82.28781325104474
 30
0.0
 40
3.5
  1
39
 50
90.0
100
AcDbText
  0
LINE
  5
A40F6
330
18
100
AcDbEntity
  8
0
  6
BYBLOCK
100
AcDbLine
 10
-124.5738135694361
 20
-88.37033639919287
 30
0.0
 11
-125.1097115694361
 21
-90.37033639919287
 31
0.0
  0
LINE
  5
A40F7
330
18
100
AcDbEntity
  8
0
  6
BYBLOCK
100
AcDbLine
 10
-125.1097115694361
 20
-90.37033639919287
 30
0.0
 11
-125.6456095694361
 21
-88.37033639919287
 31
0.0
  0
LINE
  5
A40F8
330
18
100
AcDbEntity
  8
0
  6
BYBLOCK
100
AcDbLine
 10
-125.1097115694361
 20
-90.37033639919287
 30
0.0
 11
-125.1097115694361
 21
-88.37033639919287
 31
0.0
  0
LINE
  5
A40F9
330
18
100
AcDbEntity
  8
0
  6
BYBLOCK
100
AcDbLine
 10
-125.6456095694361
 20
-70.37033639919287
 30
0.0
 11
-125.1097115694361
 21
-68.37033639919287
 31
0.0
  0
LINE
  5
A40FA
330
18
100
AcDbEntity
  8
0
  6
BYBLOCK
100
AcDbLine
 10
-125.1097115694361
 20
-68.37033639919287
 30
0.0
 11
-124.5738135694361
 21
-70.37033639919287
 31
0.0
  0
LINE
  5
A40FB
330
18
100
AcDbEntity
  8
0
  6
BYBLOCK
100
AcDbLine
 10
-125.1097115694361
 20
-68.37033639919287
 30
0.0
 11
-125.1097115694361
 21
-70.37033639919287
 31
0.0
  0
TEXT
  5
A40FC
330
18
100
AcDbEntity
  8
1DIM
  6
CONTINUOUS
100
AcDbText
 10
-125.8097115694361
 20
-82.28700306585954
 30
0.0
 40
3.5
  1
22
 50
90.0
100
AcDbText
  0
LINE
  5
A40FD
330
18
100
AcDbEntity
  8
0
  6
BYBLOCK
100
AcDbLine
 10
-134.5738135694361
 20
-95.12033639919287
 30
0.0
 11
-135.1097115694361
 21
-97.12033639919287
 31
0.0
  0
LINE
  5
A40FE
330
18
100
AcDbEntity
  8
0
  6
BYBLOCK
100
AcDbLine
 10
-135.1097115694361
 20
-97.12033639919287
 30
0.0
 11
-135.6456095694361
 21
-95.12033639919287
 31
0.0
  0
LINE
  5
A40FF
330
18
100
AcDbEntity
  8
0
  6
BYBLOCK
100
AcDbLine
 10
-135.1097115694361
 20
-97.12033639919287
 30
0.0
 11
-135.1097115694361
 21
-95.12033639919287
 31
0.0
  0
LINE
  5
A4100
330
18
100
AcDbEntity
  8
0
  6
BYBLOCK
100
AcDbLine
 10
-135.6456095694361
 20
-63.62033639919263
 30
0.0
 11
-135.1097115694361
 21
-61.62033639919263
 31
0.0
  0
LINE
  5
A4101
330
18
100
AcDbEntity
  8
0
  6
BYBLOCK
100
AcDbLine
 10
-135.1097115694361
 20
-61.62033639919263
 30
0.0
 11
-134.5738135694361
 21
-63.62033639919263
 31
0.0
  0
LINE
  5
A4102
330
18
100
AcDbEntity
  8
0
  6
BYBLOCK
100
AcDbLine
 10
-135.1097115694361
 20
-61.62033639919263
 30
0.0
 11
-135.1097115694361
 21
-63.62033639919263
 31
0.0
  0
TEXT
  5
A4103
330
18
100
AcDbEntity
  8
1DIM
  6
CONTINUOUS
100
AcDbText
 10
-135.8097115694361
 20
-87.1991558436372
 30
0.0
 40
3.5
  1
φ35.5
 50
90.0
100
AcDbText
1001
ACAD
1000
DSTYLE
1002
{
1070
     3
1000
φ<>
1002
}
  0
LINE
  5
A4104
330
18
100
AcDbEntity
  8
0
  6
BYBLOCK
100
AcDbLine
 10
58.49212329294977
 20
-46.83443839919286
 30
0.0
 11
60.49212329294977
 21
-47.37033639919287
 31
0.0
  0
LINE
  5
A4105
330
18
100
AcDbEntity
  8
0
  6
BYBLOCK
100
AcDbLine
 10
60.49212329294977
 20
-47.37033639919287
 30
0.0
 11
58.49212329294977
 21
-47.90623439919287
 31
0.0
  0
LINE
  5
A4106
330
18
100
AcDbEntity
  8
0
  6
BYBLOCK
100
AcDbLine
 10
60.49212329294977
 20
-47.37033639919287
 30
0.0
 11
58.49212329294977
 21
-47.37033639919287
 31
0.0
  0
LINE
  5
A4107
330
18
100
AcDbEntity
  8
0
  6
BYBLOCK
100
AcDbLine
 10
-11.10971156943611
 20
-47.90623439919287
 30
0.0
 11
-13.10971156943611
 21
-47.37033639919287
 31
0.0
  0
LINE
  5
A4108
330
18
100
AcDbEntity
  8
0
  6
BYBLOCK
100
AcDbLine
 10
-13.10971156943611
 20
-47.37033639919287
 30
0.0
 11
-11.10971156943611
 21
-46.83443839919286
 31
0.0
  0
LINE
  5
A4109
330
18
100
AcDbEntity
  8
0
  6
BYBLOCK
100
AcDbLine
 10
-13.10971156943611
 20
-47.37033639919287
 30
0.0
 11
-11.10971156943611
 21
-47.37033639919287
 31
0.0
  0
TEXT
  5
A410A
330
18
100
AcDbEntity
  8
1DIM
  6
CONTINUOUS
100
AcDbText
 10
20.77453919509016
 20
-46.67033639919286
 30
0.0
 40
3.5
  1
74
100
AcDbText
1001
ACAD
1000
DSTYLE
1002
{
1070
   271
1070
     0
1002
}
  0
LINE
  5
A410B
330
18
100
AcDbEntity
  8
0
  6
BYBLOCK
100
AcDbLine
 10
-103.1097115694363
 20
100.4173358570593
 30
0.0
 11
-105.1097115694363
 21
100.9532338570593
 31
0.0
  0
LINE
  5
A410C
330
18
100
AcDbEntity
  8
0
  6
BYBLOCK
100
AcDbLine
 10
-105.1097115694363
 20
100.9532338570593
 30
0.0
 11
-103.1097115694363
 21
101.4891318570593
 31
0.0
  0
LINE
  5
A410D
330
18
100
AcDbEntity
  8
0
  6
BYBLOCK
100
AcDbLine
 10
-105.1097115694363
 20
100.9532338570593
 30
0.0
 11
-103.1097115694363
 21
100.9532338570593
 31
0.0
  0
LINE
  5
A410E
330
18
100
AcDbEntity
  8
0
  6
BYBLOCK
100
AcDbLine
 10
-45.10971156943634
 20
101.4891318570593
 30
0.0
 11
-43.10971156943634
 21
100.9532338570593
 31
0.0
  0
LINE
  5
A410F
330
18
100
AcDbEntity
  8
0
  6
BYBLOCK
100
AcDbLine
 10
-43.10971156943634
 20
100.9532338570593
 30
0.0
 11
-45.10971156943634
 21
100.4173358570593
 31
0.0
  0
LINE
  5
A4110
330
18
100
AcDbEntity
  8
0
  6
BYBLOCK
100
AcDbLine
 10
-43.10971156943634
 20
100.9532338570593
 30
0.0
 11
-45.10971156943634
 21
100.9532338570593
 31
0.0
  0
TEXT
  5
A4111
330
18
100
AcDbEntity
  8
1DIM
  6
CONTINUOUS
100
AcDbText
 10
-77.03853101388079
 20
101.6532338570593
 30
0.0
 40
3.5
  1
62
100
AcDbText
  0
LINE
  5
A4112
330
18
100
AcDbEntity
  8
0
  6
BYBLOCK
100
AcDbLine
 10
-67.10971156943634
 20
91.48913185705933
 30
0.0
 11
-65.10971156943634
 21
90.95323385705933
 31
0.0
  0
LINE
  5
A4113
330
18
100
AcDbEntity
  8
0
  6
BYBLOCK
100
AcDbLine
 10
-65.10971156943634
 20
90.95323385705933
 30
0.0
 11
-67.10971156943634
 21
90.41733585705933
 31
0.0
  0
LINE
  5
A4114
330
18
100
AcDbEntity
  8
0
  6
BYBLOCK
100
AcDbLine
 10
-65.10971156943634
 20
90.95323385705933
 30
0.0
 11
-67.10971156943634
 21
90.95323385705933
 31
0.0
  0
LINE
  5
A4115
330
18
100
AcDbEntity
  8
0
  6
BYBLOCK
100
AcDbLine
 10
-103.1097115694363
 20
90.41733585705933
 30
0.0
 11
-105.1097115694363
 21
90.95323385705933
 31
0.0
  0
LINE
  5
A4116
330
18
100
AcDbEntity
  8
0
  6
BYBLOCK
100
AcDbLine
 10
-105.1097115694363
 20
90.95323385705933
 30
0.0
 11
-103.1097115694363
 21
91.48913185705933
 31
0.0
  0
LINE
  5
A4117
330
18
100
AcDbEntity
  8
0
  6
BYBLOCK
100
AcDbLine
 10
-105.1097115694363
 20
90.95323385705933
 30
0.0
 11
-103.1097115694363
 21
90.95323385705933
 31
0.0
  0
TEXT
  5
A4118
330
18
100
AcDbEntity
  8
1DIM
  6
CONTINUOUS
100
AcDbText
 10
-87.80762823610301
 20
91.65323385705933
 30
0.0
 40
3.5
  1
40
100
AcDbText
  0
LINE
  5
A4119
330
18
100
AcDbEntity
  8
0
  6
BYBLOCK
100
AcDbLine
 10
-124.5738135694361
 20
-17.0467661429409
 30
0.0
 11
-125.1097115694361
 21
-19.0467661429409
 31
0.0
  0
LINE
  5
A411A
330
18
100
AcDbEntity
  8
0
  6
BYBLOCK
100
AcDbLine
 10
-125.1097115694361
 20
-19.0467661429409
 30
0.0
 11
-125.6456095694361
 21
-17.0467661429409
 31
0.0
  0
LINE
  5
A411B
330
18
100
AcDbEntity
  8
0
  6
BYBLOCK
100
AcDbLine
 10
-125.1097115694361
 20
-19.0467661429409
 30
0.0
 11
-125.1097115694361
 21
-17.0467661429409
 31
0.0
  0
LINE
  5
A411C
330
18
100
AcDbEntity
  8
0
  6
BYBLOCK
100
AcDbLine
 10
-125.6456095694361
 20
13.95323385705979
 30
0.0
 11
-125.1097115694361
 21
15.95323385705979
 31
0.0
  0
LINE
  5
A411D
330
18
100
AcDbEntity
  8
0
  6
BYBLOCK
100
AcDbLine
 10
-125.1097115694361
 20
15.95323385705979
 30
0.0
 11
-124.5738135694361
 21
13.95323385705979
 31
0.0
  0
LINE
  5
A411E
330
18
100
AcDbEntity
  8
0
  6
BYBLOCK
100
AcDbLine
 10
-125.1097115694361
 20
15.95323385705979
 30
0.0
 11
-125.1097115694361
 21
13.95323385705979
 31
0.0
  0
TEXT
  5
A411F
330
18
100
AcDbEntity
  8
1DIM
  6
CONTINUOUS
100
AcDbText
 10
-125.8097115694361
 20
-7.030099476273904
 30
0.0
 40
3.5
  1
φ35
 50
90.0
100
AcDbText
1001
ACAD
1000
DSTYLE
1002
{
1070
     3
1000
φ<>
1002
}
  0
VIEWPORT
  5
7DA1A
330
7DA16
100
AcDbEntity
 67
     1
  8
0
100
AcDbViewport
 68
     1
 10
0.0
 20
0.0
 30
0.0
 40
630.5106382978724
 41
297.0
 68
     1
 69
     1
1001
ACAD
1000
MVIEW
1002
{
1070
    16
1010
0.0
1020
0.0
1030
0.0
1010
0.0
1020
0.0
1030
1.0
1040
0.0
1040
297.0
1040
-4.300000000000011
1040
12.7999999999999
1040
50.0
1040
0.0
1040
0.0
1070
    16
1070
   100
1070
     0
1070
     3
1070
     0
1070
     0
1070
     0
1070
     0
1040
0.0
1040
0.0
1040
0.0
1040
10.0
1040
10.0
1040
10.0
1040
10.0
1070
     0
1002
{
1002
}
1002
}
  0
ENDSEC
  0
SECTION
  2
OBJECTS
  0
DICTIONARY
  5
C
330
0
100
AcDbDictionary
  3
ACAD_BACKGROUND
350
3EB8B
  3
ACAD_CIP_PREVIOUS_PRODUCT_INFO
350
62CC3
  3
ACAD_COLOR
350
1418C
  3
ACAD_FIELDLIST
350
6F2BA
  3
ACAD_GROUP
350
D
  3
ACAD_IMAGE_DICT
350
47736
  3
ACAD_IMAGE_VARS
350
47739
  3
ACAD_LAYOUT
350
1418F
  3
ACAD_MATERIAL
350
1418B
  3
ACAD_MLEADERSTYLE
350
16FA3
  3
ACAD_MLINESTYLE
350
1B
  3
ACAD_PLOTSETTINGS
350
14190
  3
ACAD_RENDER_ACTIVE_SETTINGS
350
87F41
  3
ACAD_RENDER_SETTINGS
350
6EA4E
  3
ACAD_SCALELIST
350
16F81
  3
ACAD_VISUALSTYLE
350
16F70
  3
ACDBHEADERROUNDTRIPXREC
350
A4120
  3
ACDBVARIABLEDICTIONARY
350
6ED
  3
AEC_PROPERTY_SET_DEFS
350
26DAC
  3
CONTENTDICTIONARY
350
60
  3
DRAWINGVARIABLESDICT
350
5F9
  3
DWGPROPS
350
A4123
1001
ACAD
1000
TREAT_AS_HARD
1070
     0
  0
DICTIONARY
  5
14879
330
2
100
AcDbDictionary
  3
ACAD_LAYERSTATES
360
1487A
1001
ACAD
1000
TREAT_AS_HARD
1070
     1
  0
DICTIONARY
  5
16FBC
330
E
100
AcDbDictionary
  3
ADSK_XREC_LAYER_RECONCILED
360
16FBD
1001
ACAD
1000
TREAT_AS_HARD
1070
     1
  0
DICTIONARY
  5
143BD
330
18
100
AcDbDictionary
  3
ACAD_SORTENTS
360
6A56E
1001
ACAD
1000
TREAT_AS_HARD
1070
     1
  0
DICTIONARY
  5
A337D
330
7DA16
100
AcDbDictionary
  3
ACAD_SORTENTS
360
A337E
1001
ACAD
1000
TREAT_AS_HARD
1070
     1
  0
DICTIONARY
  5
3EB8B
102
{ACAD_REACTORS
330
C
102
}
330
C
100
AcDbDictionary
1001
ACAD
1000
TREAT_AS_HARD
1070
     0
  0
XRECORD
  5
62CC3
102
{ACAD_REACTORS
330
C
102
}
330
C
100
AcDbXrecord
300
ACDLT
300
2012
300
ACDLT_F_S
  0
DICTIONARY
  5
1418C
102
{ACAD_REACTORS
330
C
102
}
330
C
100
AcDbDictionary
1001
ACAD
1000
TREAT_AS_HARD
1070
     0
  0
ACAD_PROXY_OBJECT
  5
6F2BA
102
{ACAD_REACTORS
330
C
102
}
330
C
100
AcDbZombieObject
 90
      499
 91
      534
 93
        3
310
80
  0
DICTIONARY
  5
D
102
{ACAD_REACTORS
330
C
102
}
330
C
100
AcDbDictionary
1001
ACAD
1000
TREAT_AS_HARD
1070
     0
  0
DICTIONARY
  5
47736
102
{ACAD_REACTORS
330
C
102
}
330
C
100
AcDbDictionary
1001
ACAD
1000
TREAT_AS_HARD
1070
     0
  0
RASTERVARIABLES
  5
47739
102
{ACAD_REACTORS
330
C
102
}
330
C
100
AcDbRasterVariables
 90
        0
 70
     1
 71
     1
 72
     0
  0
DICTIONARY
  5
1418F
102
{ACAD_REACTORS
330
C
102
}
330
C
100
AcDbDictionary
1001
ACAD
1000
TREAT_AS_HARD
1070
     0
  0
DICTIONARY
  5
1418B
102
{ACAD_REACTORS
330
C
102
}
330
C
100
AcDbDictionary
  3
BYBLOCK
350
16F60
  3
BYLAYER
350
16F58
  3
GLOBAL
350
16F68
1001
ACAD
1000
TREAT_AS_HARD
1070
     0
  0
DICTIONARY
  5
16FA3
102
{ACAD_REACTORS
330
C
102
}
330
C
100
AcDbDictionary
  3
STANDARD
350
16FA4
1001
ACAD
1000
TREAT_AS_HARD
1070
     0
  0
DICTIONARY
  5
1B
102
{ACAD_REACTORS
330
C
102
}
330
C
100
AcDbDictionary
  3
STANDARD
350
1C
1001
ACAD
1000
TREAT_AS_HARD
1070
     0
  0
DICTIONARY
  5
14190
102
{ACAD_REACTORS
330
C
102
}
330
C
100
AcDbDictionary
1001
ACAD
1000
TREAT_AS_HARD
1070
     0
  0
ACAD_PROXY_OBJECT
  5
87F41
102
{ACAD_REACTORS
330
C
102
}
330
C
100
AcDbZombieObject
 90
      499
 91
      540
 93
      924
310
409064D656469756DFA40D02901408000000000000084000000000000002100000000A09999A93F0000002826666A4FC000000A09999A93F0000002826666A4FE505415051E802000041027000041505414E4026A6666666666E4FD00000000001C25D0280000000000002440A4C040C02000010
  0
DICTIONARY
  5
6EA4E
102
{ACAD_REACTORS
330
C
102
}
330
C
100
AcDbDictionary
1001
ACAD
1000
TREAT_AS_HARD
1070
     0
  0
DICTIONARY
  5
16F81
102
{ACAD_REACTORS
330
C
102
}
330
C
100
AcDbDictionary
  3
*A1
350
6F27C
  3
*A10
350
6F27E
  3
*A11
350
6F27F
  3
*A12
350
6F280
  3
*A13
350
6F281
  3
*A14
350
6F282
  3
*A15
350
6F283
  3
*A16
350
6F284
  3
*A17
350
7F62D
  3
*A2
350
6F285
  3
*A3
350
6F286
  3
*A4
350
6F287
  3
*A5
350
6F288
  3
*A6
350
6F289
  3
*A7
350
6F28A
  3
*A8
350
6F28B
  3
*A9
350
6F27D
  3
A0
350
16F82
  3
A1
350
16F83
  3
A2
350
16F84
  3
A3
350
16F85
  3
A4
350
16F86
  3
A5
350
16F87
  3
A6
350
16F88
  3
A7
350
16F89
  3
A8
350
16F8A
  3
A9
350
16F8B
  3
B0
350
16F8C
  3
B1
350
16F8D
  3
B2
350
16F8E
  3
B3
350
16F8F
  3
B4
350
16F90
  3
B5
350
16F91
  3
B6
350
16F92
  3
B7
350
16F93
  3
B8
350
16F94
  3
B9
350
16F95
  3
C0
350
16F96
  3
C1
350
16F97
  3
C2
350
16F98
  3
C3
350
16F99
  3
C4
350
16F9A
  3
C5
350
16F9B
  3
C6
350
16F9C
  3
C7
350
16F9D
  3
C8
350
16F9E
  3
C9
350
16F9F
  3
D0
350
16FA0
  3
D1
350
16FA1
  3
D2
350
16FA2
1001
ACAD
1000
TREAT_AS_HARD
1070
     0
  0
DICTIONARY
  5
16F70
102
{ACAD_REACTORS
330
C
102
}
330
C
100
AcDbDictionary
  3
2DWIREFRAME
350
16F76
  3
3D_HIDDEN
350
16F78
  3
3DWIREFRAME
350
16F77
  3
BASIC
350
16F75
  3
BRIGHTEN
350
16F7C
  3
COLORCHANGE
350
16F80
  3
CONCEPTUAL
350
16F79
  3
DIM
350
16F7B
  3
EDGECOLOROFF
350
62CA3
  3
FACEPATTERN
350
16F7F
  3
FLAT
350
16F71
  3
FLATWITHEDGES
350
16F72
  3
GOURAUD
350
16F73
  3
GOURAUDWITHEDGES
350
16F74
  3
HIDDEN
350
62C9B
  3
JITTEROFF
350
62CA1
  3
LINEPATTERN
350
16F7E
  3
MODELING
350
A3FDC
  3
OVERHANGOFF
350
62CA2
  3
REALISTIC
350
16F7A
  3
SHADED
350
62CA0
  3
SHADED_WITH_EDGES
350
62C9F
  3
SHADES_OF_GRAY
350
62C9C
  3
SKETCHY
350
62C9D
  3
THICKEN
350
16F7D
  3
WIREFRAME
350
62C9A
  3
X-RAY
350
62C9E
1001
ACAD
1000
TREAT_AS_HARD
1070
     0
  0
DICTIONARY
  5
A4120
102
{ACAD_REACTORS
330
C
102
}
330
C
100
AcDbDictionary
  3
COLORDICT
350
A4121
  3
MATERIALDICT
350
A4122
1001
ACAD
1000
TREAT_AS_HARD
1070
     0
  0
DICTIONARY
  5
6ED
102
{ACAD_REACTORS
330
C
102
}
330
C
100
AcDbDictionary
  3
CANNOSCALE
350
A42BE
  3
CMLEADERSTYLE
350
1710A
  3
CTABLESTYLE
350
141AE
  3
DIMADEC
350
6EE
  3
DIMASSOC
350
141AF
  3
FIELDEVAL
350
7CF14
  3
HIDETEXT
350
1485B
  3
INDEXCTL
350
1710C
  3
INTERSECTIONCOLOR
350
1485F
  3
INTERSECTIONDISPLAY
350
1485E
  3
LAYEREVAL
350
A348C
  3
LAYERNOTIFY
350
A348D
  3
MLEADERSCALE
350
7E56E
  3
MSLTSCALE
350
6D821
  3
OBSCOLOR
350
1485C
  3
OBSLTYPE
350
1485D
  3
PROJECTNAME
350
141B0
  3
SORTENTS
350
E97
  3
UPDATETHUMBNAIL
350
41A53
  3
XCLIPFRAME
350
A3FDB
1001
ACAD
1000
TREAT_AS_HARD
1070
     0
  0
DICTIONARY
  5
26DAC
102
{ACAD_REACTORS
330
C
102
}
330
C
100
AcDbDictionary
1001
ACAD
1000
TREAT_AS_HARD
1070
     0
  0
DICTIONARY
  5
60
102
{ACAD_REACTORS
330
C
102
}
330
C
100
AcDbDictionary
1001
CONTENTTABDATA
1070
     3
1000
CHILDREN.dwg
1000
D:\ACLT\家田Tab\CHILDREN.dwg
1070
     0
1070
     0
1070
     1
1000
REGION.dwg
1000
D:\ACLT\家田Tab\REGION.dwg
1070
     0
1070
     0
1070
     1
1000
std_sym_all.dwg
1000
D:\ACLT\家田Tab\std_sym_all.dwg
1070
     0
1070
     0
1070
     1
1001
CONTENTCURRENTTAB
1070
     0
1001
ACAD
1000
TREAT_AS_HARD
1070
     0
  0
DICTIONARY
  5
5F9
102
{ACAD_REACTORS
330
C
102
}
330
C
100
AcDbDictionary
1001
DRAWINGVARIABLESXDATA
1000
POLARMODE
1000
1
1000
POLARANG
1000
0.261799387799149410000000
1000
POLARSTYLE
1000
1
1001
ACAD
1000
TREAT_AS_HARD
1070
     0
  0
XRECORD
  5
A4123
102
{ACAD_REACTORS
330
C
102
}
330
C
100
AcDbXrecord
  1
DWGPROPS COOKIE
  2

  3

  4

  6

  7

  8
624
  9

300
=
301
=
302
=
303
=
304
=
305
=
306
=
307
=
308
=
309
=
 40
0.0
 41
2451027.252421285
 42
2458080.396233727
  1

 90
        0
  0
DICTIONARY
  5
1487A
102
{ACAD_REACTORS
330
14879
102
}
330
14879
100
AcDbDictionary
  3
_LAYISO_STATE
350
7A5FB
1001
ACLAYERTOOLS
1000
14191
1000
0
1001
ACAD
1000
TREAT_AS_HARD
1070
     0
  0
ACAD_PROXY_OBJECT
  5
16FBD
102
{ACAD_REACTORS
330
16FBC
102
}
330
16FBC
100
AcDbZombieObject
 90
      499
 91
      543
 93
       34
310
40C8804040
  0
SORTENTSTABLE
  5
6A56E
102
{ACAD_REACTORS
330
143BD
102
}
330
143BD
100
AcDbSortentsTable
330
18
331
0
  5
A3C12
331
A3C11
  5
A3C1F
331
A3C12
  5
A3C20
331
A3C13
  5
A3C21
331
A3C14
  5
A3C22
331
A3C15
  5
A3C23
331
A3C16
  5
A3C25
331
A3C17
  5
A3C26
331
A3C18
  5
A3C27
331
A3C19
  5
A3C28
331
A3C1A
  5
A3C29
331
A3C1B
  5
A3C2B
331
A3C1C
  5
A3C2C
331
A3C1D
  5
A3C2D
331
A3C1E
  5
A3C2E
331
A3C1F
  5
A3C2F
331
0
  5
A3C24
331
A3C21
  5
A3C66
331
A3C22
  5
A3C67
331
A3C23
  5
A3C68
331
A3C24
  5
A3C69
331
A3C25
  5
A3C6A
331
A3C26
  5
A3C6B
331
A3C27
  5
A3C6C
331
A3C28
  5
A3C6D
331
A3C29
  5
A3C6E
331
A3C2A
  5
A3C6F
331
A3C2B
  5
A3C70
331
A3C2C
  5
A3C71
331
A3C2D
  5
A3C72
331
A3C2E
  5
A3C73
331
A3C2F
  5
A3C74
331
A3C30
  5
A3C75
331
A3C31
  5
A3C76
331
A3C32
  5
A3C77
331
A3C33
  5
A3C78
331
A3C34
  5
A3C79
331
A3C35
  5
A3C7A
331
A3C36
  5
A3C7B
331
A3C37
  5
A3C7C
331
A3C38
  5
A3C7D
331
A3C39
  5
A3C7F
331
A3C3A
  5
A3C80
331
A3C3B
  5
A3C81
331
A3C3C
  5
A3C82
331
A3C3D
  5
A3C83
331
A3C3E
  5
A3C84
331
A3C3F
  5
A3C85
331
A3C40
  5
A3C86
331
A3C41
  5
A3C87
331
A3C42
  5
A3C88
331
A3C43
  5
A3C89
331
A3C44
  5
A3C8A
331
A3C45
  5
A3C8B
331
A3C46
  5
A3C8C
331
A3C47
  5
A3C8D
331
A3C48
  5
A3C8E
331
A3C49
  5
A3C8F
331
A3C4A
  5
A3C90
331
A3C4B
  5
A3C91
331
A3C4C
  5
A3C92
331
A3C4D
  5
A3C93
331
A3C4E
  5
A3C94
331
A3C4F
  5
A3C95
331
A3C50
  5
A3C96
331
A3C51
  5
A3C97
331
A3C52
  5
A3C98
331
A3C53
  5
A3C99
331
0
  5
A3C58
331
0
  5
A3C59
331
A3C56
  5
A3CAA
331
A3C57
  5
A3CAB
331
A3C58
  5
A3CAC
331
A3C59
  5
A3CAD
331
A3C5A
  5
A3CAE
331
A3C5B
  5
A3CAF
331
A3C5C
  5
A3CB0
331
A3C5D
  5
A3CB1
331
A3C5E
  5
A3CB2
331
A3C5F
  5
A3CB3
331
A3C60
  5
A3CB4
331
A3C61
  5
A3CB5
331
A3C62
  5
A3CB6
331
A3C63
  5
A3CB7
331
A3C64
  5
A3CB8
331
A3C65
  5
A3CB9
331
A3C66
  5
A3CBA
331
A3C67
  5
A3CBB
331
A3C68
  5
A3CBC
331
A3C69
  5
A3CBD
331
A3C6A
  5
A3CBE
331
A3C6B
  5
A3CBF
331
A3C6C
  5
A3CC1
331
A3C6D
  5
A3CC2
331
A3C6E
  5
A3CC3
331
A3C6F
  5
A3CC4
331
A3C70
  5
A3CC5
331
A3C71
  5
A3CC6
331
A3C72
  5
A3CC7
331
A3C73
  5
A3CC8
331
A3C74
  5
A3CC9
331
A3C75
  5
A3CCA
331
A3C76
  5
A3CCB
331
A3C77
  5
A3CCC
331
A3C78
  5
A3CCD
331
A3C79
  5
A3CCE
331
0
  5
A3C7E
331
A3C7B
  5
A3D03
331
A3C7C
  5
A3D04
331
A3C7D
  5
A3D05
331
A3C7E
  5
A3D06
331
A3C7F
  5
A3D07
331
A3C80
  5
A3D08
331
A3C81
  5
A3D09
331
A3C82
  5
A3D0A
331
A3C83
  5
A3D0B
331
A3C84
  5
A3D0C
331
A3C85
  5
A3D0D
331
A3C86
  5
A3D0E
331
A3C87
  5
A3D0F
331
A3C88
  5
A3D10
331
A3C89
  5
A3D11
331
A3C8A
  5
A3D12
331
A3C8B
  5
A3D13
331
A3C8C
  5
A3D14
331
A3C8D
  5
A3D15
331
A3C8E
  5
A3D16
331
A3C8F
  5
A3D17
331
A3C90
  5
A3D18
331
A3C91
  5
A3D19
331
A3C92
  5
A3D1A
331
A3C93
  5
A3D1B
331
A3C94
  5
A3D1C
331
A3C95
  5
A3D1D
331
A3C96
  5
A3D1E
331
A3C97
  5
A3D1F
331
A3C98
  5
A3D20
331
A3C99
  5
A3D21
331
A3C9A
  5
A3D22
331
A3C9B
  5
A3D23
331
A3C9C
  5
A3D24
331
A3C9D
  5
A3D25
331
A3C9E
  5
A3D26
331
A3C9F
  5
A3D27
331
A3CA0
  5
A3D28
331
A3CA1
  5
A3D29
331
A3CA2
  5
A3D2A
331
A3CA3
  5
A3D2B
331
A3CA4
  5
A3D2C
331
A3CA5
  5
A3D2D
331
A3CA6
  5
A3D2E
331
A3CA7
  5
A3D2F
331
A3CA8
  5
A3D30
331
A3CA9
  5
A3D31
331
A3CAA
  5
A3D32
331
A3CAB
  5
A3D33
331
A3CAC
  5
A3D34
331
A3CAD
  5
A3D35
331
A3CAE
  5
A3D36
331
A3CAF
  5
A3D37
331
A3CB0
  5
A3D38
331
A3CB1
  5
A3D39
331
A3CB2
  5
A3D3A
331
A3CB3
  5
A3D3B
331
A3CB4
  5
A3D3C
331
A3CB5
  5
A3D3D
331
A3CB6
  5
A3D3E
331
A3CB7
  5
A3D3F
331
A3CB8
  5
A3D40
331
A3CB9
  5
A3D41
331
A3CBA
  5
A3D42
331
A3CBB
  5
A3D43
331
A3CBC
  5
A3D44
331
A3CBD
  5
A3D45
331
A3CBE
  5
A3D46
331
A3CBF
  5
A3D47
331
A3CC0
  5
A3D48
331
A3CC1
  5
A3D49
331
A3CC2
  5
A3D4A
331
A3CC3
  5
A3D4B
331
A3CC4
  5
A3D4C
331
A3CC5
  5
A3D4D
331
A3CC6
  5
A3D4E
331
A3CC7
  5
A3D4F
331
A3CC8
  5
A3D50
331
A3CC9
  5
A3D51
331
A3CCA
  5
A3D52
331
A3CCB
  5
A3D53
331
A3CCC
  5
A3D54
331
A3CCD
  5
A3D55
331
A3CCE
  5
A3D56
331
A3CCF
  5
A3D57
331
A3CD0
  5
A3D58
331
A3CD1
  5
A3D59
331
A3CD2
  5
A3D5A
331
A3CD3
  5
A3D5B
331
A3CD4
  5
A3D5C
331
A3CD5
  5
A3D5D
331
A3CD6
  5
A3D5E
331
A3CD7
  5
A3D5F
331
A3CD8
  5
A3D60
331
A3CD9
  5
A3D61
331
A3CDA
  5
A3D62
331
A3CDB
  5
A3D63
331
A3CDC
  5
A3D64
331
A3CDD
  5
A3D65
331
A3CDE
  5
A3D66
331
A3CDF
  5
A3D67
331
A3CE0
  5
A3D68
331
A3CE1
  5
A3D69
331
A3CE2
  5
A3D6A
331
A3CE3
  5
A3D6B
331
A3CE4
  5
A3D6C
331
A3CE5
  5
A3D6D
331
A3CE6
  5
A3D6E
331
A3CE7
  5
A3D6F
331
A3CE8
  5
A3D70
331
A3CE9
  5
A3D71
331
A3CEA
  5
A3D72
331
A3CEB
  5
A3D73
331
A3CEC
  5
A3D74
331
A3CED
  5
A3D75
331
A3CEE
  5
A3D76
331
A3CEF
  5
A3D77
331
A3CF0
  5
A3D78
331
A3CF1
  5
A3D79
331
A3CF2
  5
A3D7A
331
A3CF3
  5
A3D7B
331
A3CF4
  5
A3D7C
331
A3CF5
  5
A3D7D
331
A3CF6
  5
A3D7E
331
A3CF7
  5
A3D88
331
A3CF8
  5
A3D89
331
A3CF9
  5
A3D8A
331
A3CFA
  5
A3D8B
331
A3CFB
  5
A3D8C
331
A3CFC
  5
A3D8D
331
A3CFD
  5
A3D8E
331
A3CFE
  5
A3D8F
331
A3CFF
  5
A400F
331
A3D00
  5
A4010
331
A3D01
  5
A4011
331
A3D02
  5
A4012
331
A3D03
  5
A4013
331
A3D04
  5
A4014
331
A3D05
  5
A4015
331
A3D06
  5
A4016
331
A3D07
  5
A4017
331
A3D08
  5
A4018
331
A3D09
  5
A4019
331
A3D0A
  5
A401A
331
A3D0B
  5
A401B
331
A3D0C
  5
A401C
331
A3D0D
  5
A401D
331
A3D0E
  5
A401E
331
A3D0F
  5
A401F
331
A3D10
  5
A4020
331
A3D11
  5
A4021
331
A3D12
  5
A4022
331
A3D13
  5
A4023
331
A3D14
  5
A4024
331
A3D15
  5
A4025
331
A3D16
  5
A4026
331
A3D17
  5
A4027
331
A3D18
  5
A4028
331
A3D19
  5
A4029
331
A3D1A
  5
A402A
331
A3D1B
  5
A402B
331
A3D1C
  5
A402C
331
A3D1D
  5
A402D
331
A3D1E
  5
A402E
331
A3D1F
  5
A402F
331
A3D20
  5
A4030
331
A3D21
  5
A4031
331
A3D22
  5
A4032
331
A3D23
  5
A4033
331
A3D24
  5
A4034
331
A3D25
  5
A4035
331
A3D26
  5
A4036
331
A3D27
  5
A4037
331
A3D28
  5
A4038
331
A3D29
  5
A4039
331
A3D2A
  5
A403A
331
A3D2B
  5
A403B
331
A3D2C
  5
A403C
331
A3D2D
  5
A403D
331
A3D2E
  5
A403E
331
A3D2F
  5
A403F
331
A3D30
  5
A4040
331
A3D31
  5
A4041
331
A3D32
  5
A4042
331
A3D33
  5
A4043
331
A3D34
  5
A4044
331
A3D35
  5
A4045
331
A3D36
  5
A4046
331
A3D37
  5
A4047
331
A3D38
  5
A4048
331
A3D39
  5
A4049
331
A3D3A
  5
A4052
331
A3D3B
  5
A4053
331
A3D3C
  5
A4054
331
A3D3D
  5
A4055
331
A3D3E
  5
A4056
331
A3D3F
  5
A4057
331
A3D40
  5
A4058
331
A3D41
  5
A4059
331
A3D42
  5
A405A
331
A3D43
  5
A405B
331
A3D44
  5
A405C
331
A3D45
  5
A405D
331
A3D46
  5
A405E
331
A3D47
  5
A405F
331
A3D48
  5
A4060
331
A3D49
  5
A4061
331
A3D4A
  5
A4062
331
A3D4B
  5
A4063
331
A3D4C
  5
A4064
331
A3D4D
  5
A4065
331
A3D4E
  5
A4066
331
A3D4F
  5
A4067
331
A3D50
  5
A4068
331
A3D51
  5
A4069
331
A3D52
  5
A406A
331
A3D53
  5
A406B
331
A3D54
  5
A406C
331
A3D55
  5
A406D
331
A3D56
  5
A406E
331
A3D57
  5
A406F
331
A3D58
  5
A4070
331
A3D59
  5
A4071
331
A3D5A
  5
A4072
331
A3D5B
  5
A4073
331
A3D5C
  5
A4074
331
A3D5D
  5
A4075
331
A3D5E
  5
A4076
331
A3D5F
  5
A4077
331
A3D60
  5
A4078
331
A3D61
  5
A4079
331
A3D62
  5
A407A
331
A3D63
  5
A407B
331
A3D64
  5
A407C
331
A3D65
  5
A407D
331
A3D66
  5
A4081
331
A3D67
  5
A4082
331
A3D68
  5
A4083
331
A3D69
  5
A4087
331
A3D6A
  5
A4088
331
A3D6B
  5
A4089
331
A3D6C
  5
A408D
331
A3D6D
  5
A408E
331
A3D6E
  5
A408F
331
A3D6F
  5
A4093
331
A3D70
  5
A4094
331
A3D71
  5
A4095
331
A3D72
  5
A4099
331
A3D73
  5
A409A
331
A3D74
  5
A409B
331
A3D75
  5
A409F
331
A3D76
  5
A40A0
331
A3D77
  5
A40A1
331
A3D78
  5
A40A5
331
A3D79
  5
A40A6
331
A3D7A
  5
A40A7
331
0
  5
A3D7F
331
0
  5
A3D80
331
0
  5
A3D81
331
0
  5
A3D82
331
0
  5
A3D83
331
0
  5
A3D84
331
0
  5
A3D85
331
0
  5
A3D86
331
0
  5
A3D87
331
A3D84
  5
A410B
331
A3D85
  5
A410C
331
A3D86
  5
A410D
331
A3D87
  5
A410E
331
A3D88
  5
A410F
331
A3D89
  5
A4110
331
A3D8A
  5
A4111
331
A3D8B
  5
A4112
331
0
  5
A400E
331
A3D8D
  5
A411D
331
A3D8E
  5
A411E
331
A3D8F
  5
A411F
331
A400E
  5
A3C17
331
A400F
  5
A3C18
331
A4010
  5
A3C1D
331
A4011
  5
A3C1E
331
0
  5
A33CC
331
A4013
  5
A3C16
331
0
  5
A3C15
331
A4015
  5
A3C1C
331
A4016
  5
A3C30
331
0
  5
A3C2A
331
A4018
  5
A3C3A
331
A4019
  5
A3C3B
331
A401A
  5
A3C3C
331
A401B
  5
A3C3D
331
A401C
  5
A3C3E
331
A401D
  5
A3C3F
331
A401E
  5
A3C40
331
A401F
  5
A3C41
331
A4020
  5
A3C42
331
A4021
  5
A3C43
331
A4022
  5
A3C44
331
A4023
  5
A3C45
331
A4024
  5
A3C46
331
A4025
  5
A3C47
331
A4026
  5
A3C48
331
A4027
  5
A3C49
331
A4028
  5
A3C4A
331
A4029
  5
A3C4B
331
A402A
  5
A3C4C
331
A402B
  5
A3C4D
331
A402C
  5
A3C4E
331
A402D
  5
A3C4F
331
A402E
  5
A3C50
331
A402F
  5
A3C51
331
A4030
  5
A3C52
331
A4031
  5
A3C53
331
A4032
  5
A3C54
331
A4033
  5
A3C55
331
A4034
  5
A3C56
331
A4035
  5
A3C57
331
A4036
  5
A3C5A
331
A4037
  5
A3C5B
331
A4038
  5
A3C5C
331
A4039
  5
A3C5D
331
A403A
  5
A3C5E
331
A403B
  5
A3C5F
331
A403C
  5
A3C60
331
A403D
  5
A3C61
331
A403E
  5
A3C62
331
A403F
  5
A3C63
331
A4040
  5
A3C64
331
A4041
  5
A3C65
331
A4042
  5
A3C9A
331
A4043
  5
A3C9B
331
A4044
  5
A3C9C
331
A4045
  5
A3C9D
331
A4046
  5
A3C9E
331
A4047
  5
A3C9F
331
A4048
  5
A3CA0
331
A4049
  5
A3CA1
331
A4052
  5
A3CA2
331
A4053
  5
A3CA3
331
A4054
  5
A3CA4
331
A4055
  5
A3CA5
331
A4056
  5
A3CA6
331
A4057
  5
A3CA7
331
A4058
  5
A3CA8
331
A4059
  5
A3CA9
331
A405A
  5
A3CCF
331
0
  5
A3CC0
331
A405C
  5
A3CD9
331
A405D
  5
A3CDA
331
A405E
  5
A3CDB
331
A405F
  5
A3CDC
331
A4060
  5
A3CDD
331
A4061
  5
A3CDE
331
A4062
  5
A3CDF
331
A4063
  5
A3CE0
331
A4064
  5
A3CE1
331
A4065
  5
A3CE2
331
A4066
  5
A3CE3
331
A4067
  5
A3CE4
331
A4068
  5
A3CE5
331
A4069
  5
A3CE6
331
A406A
  5
A3CE7
331
A406B
  5
A3CE8
331
A406C
  5
A3CE9
331
A406D
  5
A3CEA
331
A406E
  5
A3CEB
331
A406F
  5
A3CEC
331
A4070
  5
A3CED
331
A4071
  5
A3CEE
331
A4072
  5
A3CEF
331
A4073
  5
A3CF0
331
A4074
  5
A3CF1
331
A4075
  5
A3CF2
331
A4076
  5
A3CF3
331
A4077
  5
A3CF4
331
A4078
  5
A3CF5
331
A4079
  5
A3CF6
331
A407A
  5
A3CF7
331
A407B
  5
A3CF8
331
A407C
  5
A3CF9
331
A407D
  5
A3CFA
331
A407E
  5
A3CFB
331
A407F
  5
A3CFC
331
A4080
  5
A3CFD
331
A4081
  5
A3CFE
331
A4082
  5
A3CFF
331
A4083
  5
A3D00
331
A4084
  5
A3D01
331
A4085
  5
A3D02
331
A4086
  5
A40AB
331
A4087
  5
A40AC
331
A4088
  5
A40AD
331
0
  5
A407E
331
0
  5
A407F
331
0
  5
A4080
331
A408C
  5
A40B8
331
A408D
  5
A40B9
331
A408E
  5
A40BA
331
0
  5
A4084
331
0
  5
A4085
331
0
  5
A4086
331
A4092
  5
A40C5
331
A4093
  5
A40C6
331
A4094
  5
A40C7
331
0
  5
A408A
331
0
  5
A408B
331
0
  5
A408C
331
A4098
  5
A40CF
331
A4099
  5
A40D0
331
A409A
  5
A40D1
331
0
  5
A4090
331
0
  5
A4091
331
0
  5
A4092
331
A409E
  5
A40D9
331
A409F
  5
A40DA
331
A40A0
  5
A40DB
331
0
  5
A4096
331
0
  5
A4097
331
0
  5
A4098
331
A40A4
  5
A40E3
331
A40A5
  5
A40E4
331
A40A6
  5
A40E5
331
0
  5
A409C
331
0
  5
A409D
331
0
  5
A409E
331
A40AA
  5
A40ED
331
A40AB
  5
A40EE
331
A40AC
  5
A40EF
331
0
  5
A40A2
331
0
  5
A40A3
331
0
  5
A40A4
331
A40B0
  5
A40F7
331
A40B1
  5
A40F8
331
A40B2
  5
A40F9
331
0
  5
A40A8
331
0
  5
A40A9
331
0
  5
A40AA
331
A40B6
  5
A4101
331
A40B7
  5
A4102
331
A40B8
  5
A4103
331
0
  5
A40AE
331
0
  5
A40AF
331
0
  5
A40B0
331
A40BC
  5
A4113
331
A40BD
  5
A4114
331
A40BE
  5
A4115
331
0
  5
A40BC
331
0
  5
A40BD
331
0
  5
A40BE
331
A40C2
  5
A3C11
331
A40C3
  5
A3C13
331
A40C4
  5
A3C14
331
A40C5
  5
A3C19
331
A40C6
  5
A3C1A
331
A40C7
  5
A3C1B
331
A40C8
  5
A3C31
331
A40C9
  5
A3C32
331
A40CA
  5
A3C33
331
A40CB
  5
A3C34
331
A40CC
  5
A3C35
331
A40CD
  5
A3C36
331
A40CE
  5
A3C37
331
A40CF
  5
A3C38
331
A40D0
  5
A3C39
331
A40D1
  5
A3CD0
331
A40D2
  5
A3CD1
331
A40D3
  5
A3CD2
331
A40D4
  5
A3CD3
331
A40D5
  5
A3CD4
331
A40D6
  5
A3CD5
331
A40D7
  5
A3CD6
331
A40D8
  5
A3CD7
331
A40D9
  5
A3CD8
331
A40DA
  5
A40B1
331
A40DB
  5
A40B2
331
A40DC
  5
A40B3
331
A40DD
  5
A40B4
331
A40DE
  5
A40B5
331
A40DF
  5
A40B6
331
A40E0
  5
A40B7
331
A40E1
  5
A40BB
331
A40E2
  5
A40BF
331
A40E3
  5
A40C0
331
A40E4
  5
A40C1
331
A40E5
  5
A40C2
331
A40E6
  5
A40C3
331
A40E7
  5
A40C4
331
A40E8
  5
A40C8
331
A40E9
  5
A40C9
331
A40EA
  5
A40CA
331
A40EB
  5
A40CB
331
A40EC
  5
A40CC
331
A40ED
  5
A40CD
331
A40EE
  5
A40CE
331
A40EF
  5
A40D2
331
A40F0
  5
A40D3
331
A40F1
  5
A40D4
331
A40F2
  5
A40D5
331
A40F3
  5
A40D6
331
A40F4
  5
A40D7
331
A40F5
  5
A40D8
331
A40F6
  5
A40DC
331
A40F7
  5
A40DD
331
A40F8
  5
A40DE
331
A40F9
  5
A40DF
331
A40FA
  5
A40E0
331
A40FB
  5
A40E1
331
A40FC
  5
A40E2
331
A40FD
  5
A40E6
331
A40FE
  5
A40E7
331
A40FF
  5
A40E8
331
A4100
  5
A40E9
331
A4101
  5
A40EA
331
A4102
  5
A40EB
331
A4103
  5
A40EC
331
A4104
  5
A40F0
331
A4105
  5
A40F1
331
A4106
  5
A40F2
331
A4107
  5
A40F3
331
A4108
  5
A40F4
331
A4109
  5
A40F5
331
A410A
  5
A40F6
331
A410B
  5
A40FA
331
A410C
  5
A40FB
331
A410D
  5
A40FC
331
A410E
  5
A40FD
331
A410F
  5
A40FE
331
A4110
  5
A40FF
331
A4111
  5
A4100
331
A4112
  5
A4104
331
A4113
  5
A4105
331
A4114
  5
A4106
331
A4115
  5
A4107
331
A4116
  5
A4108
331
A4117
  5
A4109
331
A4118
  5
A410A
331
A4119
  5
A4116
331
A411A
  5
A4117
331
A411B
  5
A4118
331
A411C
  5
A4119
331
A411D
  5
A411A
331
A411E
  5
A411B
331
A411F
  5
A411C
  0
SORTENTSTABLE
  5
A337E
102
{ACAD_REACTORS
330
A337D
102
}
330
A337D
100
AcDbSortentsTable
330
7DA16
331
7DA1A
  5
7DA1A
331
0
  5
7E25F
331
0
  5
7E260
331
0
  5
7E261
331
0
  5
7E262
331
0
  5
7E263
331
0
  5
7E264
331
0
  5
7E265
331
0
  5
7E266
331
0
  5
7E267
331
0
  5
7E268
331
0
  5
7E26B
331
0
  5
7E6D4
  0
MATERIAL
  5
16F60
102
{ACAD_REACTORS
330
1418B
102
}
102
{ACAD_XDICTIONARY
360
A42BF
102
}
330
1418B
100
AcDbMaterial
  1
BYBLOCK
 72
     0
 73
     2
 43
0.020833
 43
0.0
 43
0.0
 43
0.0
 43
0.0
 43
0.020833
 43
0.0
 43
0.0
 43
0.0
 43
0.0
 43
1.0
 43
0.0
 43
0.0
 43
0.0
 43
0.0
 43
1.0
 77
     0
 78
     2
 47
0.020833
 47
0.0
 47
0.0
 47
0.0
 47
0.0
 47
0.020833
 47
0.0
 47
0.0
 47
0.0
 47
0.0
 47
1.0
 47
0.0
 47
0.0
 47
0.0
 47
0.0
 47
1.0
171
     0
172
     2
 49
0.020833
 49
0.0
 49
0.0
 49
0.0
 49
0.0
 49
0.020833
 49
0.0
 49
0.0
 49
0.0
 49
0.0
 49
1.0
 49
0.0
 49
0.0
 49
0.0
 49
0.0
 49
1.0
175
     0
176
     2
142
0.020833
142
0.0
142
0.0
142
0.0
142
0.0
142
0.020833
142
0.0
142
0.0
142
0.0
142
0.0
142
1.0
142
0.0
142
0.0
142
0.0
142
0.0
142
1.0
179
     0
270
     2
144
0.020833
144
0.0
144
0.0
144
0.0
144
0.0
144
0.020833
144
0.0
144
0.0
144
0.0
144
0.0
144
1.0
144
0.0
144
0.0
144
0.0
144
0.0
144
1.0
274
     2
147
0.020833
147
0.0
147
0.0
147
0.0
147
0.0
147
0.020833
147
0.0
147
0.0
147
0.0
147
0.0
147
1.0
147
0.0
147
0.0
147
0.0
147
0.0
147
1.0
  0
MATERIAL
  5
16F58
102
{ACAD_REACTORS
330
1418B
102
}
102
{ACAD_XDICTIONARY
360
A42C1
102
}
330
1418B
100
AcDbMaterial
  1
BYLAYER
 72
     0
 73
     2
 43
0.020833
 43
0.0
 43
0.0
 43
0.0
 43
0.0
 43
0.020833
 43
0.0
 43
0.0
 43
0.0
 43
0.0
 43
1.0
 43
0.0
 43
0.0
 43
0.0
 43
0.0
 43
1.0
 77
     0
 78
     2
 47
0.020833
 47
0.0
 47
0.0
 47
0.0
 47
0.0
 47
0.020833
 47
0.0
 47
0.0
 47
0.0
 47
0.0
 47
1.0
 47
0.0
 47
0.0
 47
0.0
 47
0.0
 47
1.0
171
     0
172
     2
 49
0.020833
 49
0.0
 49
0.0
 49
0.0
 49
0.0
 49
0.020833
 49
0.0
 49
0.0
 49
0.0
 49
0.0
 49
1.0
 49
0.0
 49
0.0
 49
0.0
 49
0.0
 49
1.0
175
     0
176
     2
142
0.020833
142
0.0
142
0.0
142
0.0
142
0.0
142
0.020833
142
0.0
142
0.0
142
0.0
142
0.0
142
1.0
142
0.0
142
0.0
142
0.0
142
0.0
142
1.0
179
     0
270
     2
144
0.020833
144
0.0
144
0.0
144
0.0
144
0.0
144
0.020833
144
0.0
144
0.0
144
0.0
144
0.0
144
1.0
144
0.0
144
0.0
144
0.0
144
0.0
144
1.0
274
     2
147
0.020833
147
0.0
147
0.0
147
0.0
147
0.0
147
0.020833
147
0.0
147
0.0
147
0.0
147
0.0
147
1.0
147
0.0
147
0.0
147
0.0
147
0.0
147
1.0
  0
MATERIAL
  5
16F68
102
{ACAD_REACTORS
330
1418B
102
}
102
{ACAD_XDICTIONARY
360
A42C3
102
}
330
1418B
100
AcDbMaterial
  1
GLOBAL
 72
     0
 73
     2
 43
0.020833
 43
0.0
 43
0.0
 43
0.0
 43
0.0
 43
0.020833
 43
0.0
 43
0.0
 43
0.0
 43
0.0
 43
1.0
 43
0.0
 43
0.0
 43
0.0
 43
0.0
 43
1.0
 77
     0
 78
     2
 47
0.020833
 47
0.0
 47
0.0
 47
0.0
 47
0.0
 47
0.020833
 47
0.0
 47
0.0
 47
0.0
 47
0.0
 47
1.0
 47
0.0
 47
0.0
 47
0.0
 47
0.0
 47
1.0
171
     0
172
     2
 49
0.020833
 49
0.0
 49
0.0
 49
0.0
 49
0.0
 49
0.020833
 49
0.0
 49
0.0
 49
0.0
 49
0.0
 49
1.0
 49
0.0
 49
0.0
 49
0.0
 49
0.0
 49
1.0
175
     0
176
     2
142
0.020833
142
0.0
142
0.0
142
0.0
142
0.0
142
0.020833
142
0.0
142
0.0
142
0.0
142
0.0
142
1.0
142
0.0
142
0.0
142
0.0
142
0.0
142
1.0
179
     0
270
     2
144
0.020833
144
0.0
144
0.0
144
0.0
144
0.0
144
0.020833
144
0.0
144
0.0
144
0.0
144
0.0
144
1.0
144
0.0
144
0.0
144
0.0
144
0.0
144
1.0
274
     2
147
0.020833
147
0.0
147
0.0
147
0.0
147
0.0
147
0.020833
147
0.0
147
0.0
147
0.0
147
0.0
147
1.0
147
0.0
147
0.0
147
0.0
147
0.0
147
1.0
  0
ACAD_PROXY_OBJECT
  5
16FA4
102
{ACAD_REACTORS
330
16FA3
102
}
330
16FA3
100
AcDbZombieObject
 90
      499
 91
      511
 93
      618
310
40901902A4073FBFFFFFE000000000000002040AD7A3703D0AD73F4214DD185B99185C9900000000000001040905415019C900000000000003100000000000000041025766000000000000300FC0
340
12
340
0
340
F
340
0
 94
        0
1001
ACAD
1000
AcRTDxfName
1000
MLEADERSTYLE
1000
AcRTDxfName
1000
MLEADERSTYLE
1000
AcRTDxfName
1000
MLEADERSTYLE
1000
AcRTDxfName
1000
MLEADERSTYLE
1000
AcRTDxfName
1000
MLEADERSTYLE
1000
AcRTDxfName
1000
MLEADERSTYLE
1001
ACAD_MLEADERVER
1070
     2
  0
MLINESTYLE
  5
1C
102
{ACAD_REACTORS
330
1B
102
}
330
1B
100
AcDbMlineStyle
  2
STANDARD
 70
     0
  3

 62
   256
 51
90.0
 52
90.0
 71
     2
 49
0.5
 62
   256
  6
BYLAYER
 49
-0.5
 62
   256
  6
BYLAYER
  0
ACAD_PROXY_OBJECT
  5
6F27C
102
{ACAD_REACTORS
330
16F81
102
}
330
16F81
100
AcDbZombieObject
 90
      499
 91
      510
 93
      153
310
909313A34305F585245464000000000000444000
  0
ACAD_PROXY_OBJECT
  5
6F27E
102
{ACAD_REACTORS
330
16F81
102
}
330
16F81
100
AcDbZombieObject
 90
      499
 91
      510
 93
      161
310
90A313A3130305F585245464000000000000594000
  0
ACAD_PROXY_OBJECT
  5
6F27F
102
{ACAD_REACTORS
330
16F81
102
}
330
16F81
100
AcDbZombieObject
 90
      499
 91
      510
 93
      145
310
908323A315F585245460000000000000010100
  0
ACAD_PROXY_OBJECT
  5
6F280
102
{ACAD_REACTORS
330
16F81
102
}
330
16F81
100
AcDbZombieObject
 90
      499
 91
      510
 93
      145
310
908343A315F585245460000000000000410100
  0
ACAD_PROXY_OBJECT
  5
6F281
102
{ACAD_REACTORS
330
16F81
102
}
330
16F81
100
AcDbZombieObject
 90
      499
 91
      510
 93
      145
310
908383A315F585245460000000000000810100
  0
ACAD_PROXY_OBJECT
  5
6F282
102
{ACAD_REACTORS
330
16F81
102
}
330
16F81
100
AcDbZombieObject
 90
      499
 91
      510
 93
      153
310
90931303A315F585245460000000000000910100
  0
ACAD_PROXY_OBJECT
  5
6F283
102
{ACAD_REACTORS
330
16F81
102
}
330
16F81
100
AcDbZombieObject
 90
      499
 91
      510
 93
      161
310
90A3130303A315F585245460000000000001650100
  0
ACAD_PROXY_OBJECT
  5
6F284
102
{ACAD_REACTORS
330
16F81
102
}
330
16F81
100
AcDbZombieObject
 90
      499
 91
      510
 93
      145
310
908313A325F585245464000000000000004000
  0
ACAD_PROXY_OBJECT
  5
7F62D
102
{ACAD_REACTORS
330
16F81
102
}
330
16F81
100
AcDbZombieObject
 90
      499
 91
      510
 93
      273
310
910312F31323822203D2031272D30225F31000000000000200FC000000000000284000
1001
ACAD
1000
AcRTDxfName
1000
SCALE
1000
AcRTDxfName
1000
SCALE
1000
AcRTDxfName
1000
SCALE
1000
AcRTDxfName
1000
SCALE
1000
AcRTDxfName
1000
SCALE
1000
AcRTDxfName
1000
SCALE
  0
ACAD_PROXY_OBJECT
  5
6F285
102
{ACAD_REACTORS
330
16F81
102
}
330
16F81
100
AcDbZombieObject
 90
      499
 91
      510
 93
      145
310
908313A345F585245464000000000000104000
  0
ACAD_PROXY_OBJECT
  5
6F286
102
{ACAD_REACTORS
330
16F81
102
}
330
16F81
100
AcDbZombieObject
 90
      499
 91
      510
 93
      145
310
908313A355F585245464000000000000144000
  0
ACAD_PROXY_OBJECT
  5
6F287
102
{ACAD_REACTORS
330
16F81
102
}
330
16F81
100
AcDbZombieObject
 90
      499
 91
      510
 93
      145
310
908313A385F585245464000000000000204000
  0
ACAD_PROXY_OBJECT
  5
6F288
102
{ACAD_REACTORS
330
16F81
102
}
330
16F81
100
AcDbZombieObject
 90
      499
 91
      510
 93
      153
310
909313A31305F585245464000000000000244000
  0
ACAD_PROXY_OBJECT
  5
6F289
102
{ACAD_REACTORS
330
16F81
102
}
330
16F81
100
AcDbZombieObject
 90
      499
 91
      510
 93
      153
310
909313A31365F585245464000000000000304000
  0
ACAD_PROXY_OBJECT
  5
6F28A
102
{ACAD_REACTORS
330
16F81
102
}
330
16F81
100
AcDbZombieObject
 90
      499
 91
      510
 93
      153
310
909313A32305F585245464000000000000344000
  0
ACAD_PROXY_OBJECT
  5
6F28B
102
{ACAD_REACTORS
330
16F81
102
}
330
16F81
100
AcDbZombieObject
 90
      499
 91
      510
 93
      153
310
909313A33305F5852454640000000000003E4000
  0
ACAD_PROXY_OBJECT
  5
6F27D
102
{ACAD_REACTORS
330
16F81
102
}
330
16F81
100
AcDbZombieObject
 90
      499
 91
      510
 93
      153
310
909313A35305F585245464000000000000494000
  0
ACAD_PROXY_OBJECT
  5
16F82
102
{ACAD_REACTORS
330
16F81
102
}
330
16F81
100
AcDbZombieObject
 90
      499
 91
      510
 93
       41
310
903313A31580
1001
ACAD
1000
AcRTDxfName
1000
SCALE
1000
AcRTDxfName
1000
SCALE
1000
AcRTDxfName
1000
SCALE
1000
AcRTDxfName
1000
SCALE
1000
AcRTDxfName
1000
SCALE
1000
AcRTDxfName
1000
SCALE
  0
ACAD_PROXY_OBJECT
  5
16F83
102
{ACAD_REACTORS
330
16F81
102
}
330
16F81
100
AcDbZombieObject
 90
      499
 91
      510
 93
      105
310
903313A324000000000000004000
1001
ACAD
1000
AcRTDxfName
1000
SCALE
1000
AcRTDxfName
1000
SCALE
1000
AcRTDxfName
1000
SCALE
1000
AcRTDxfName
1000
SCALE
1000
AcRTDxfName
1000
SCALE
1000
AcRTDxfName
1000
SCALE
  0
ACAD_PROXY_OBJECT
  5
16F84
102
{ACAD_REACTORS
330
16F81
102
}
330
16F81
100
AcDbZombieObject
 90
      499
 91
      510
 93
      105
310
903313A344000000000000104000
1001
ACAD
1000
AcRTDxfName
1000
SCALE
1000
AcRTDxfName
1000
SCALE
1000
AcRTDxfName
1000
SCALE
1000
AcRTDxfName
1000
SCALE
1000
AcRTDxfName
1000
SCALE
1000
AcRTDxfName
1000
SCALE
  0
ACAD_PROXY_OBJECT
  5
16F85
102
{ACAD_REACTORS
330
16F81
102
}
330
16F81
100
AcDbZombieObject
 90
      499
 91
      510
 93
      105
310
903313A354000000000000144000
1001
ACAD
1000
AcRTDxfName
1000
SCALE
1000
AcRTDxfName
1000
SCALE
1000
AcRTDxfName
1000
SCALE
1000
AcRTDxfName
1000
SCALE
1000
AcRTDxfName
1000
SCALE
1000
AcRTDxfName
1000
SCALE
  0
ACAD_PROXY_OBJECT
  5
16F86
102
{ACAD_REACTORS
330
16F81
102
}
330
16F81
100
AcDbZombieObject
 90
      499
 91
      510
 93
      105
310
903313A384000000000000204000
1001
ACAD
1000
AcRTDxfName
1000
SCALE
1000
AcRTDxfName
1000
SCALE
1000
AcRTDxfName
1000
SCALE
1000
AcRTDxfName
1000
SCALE
1000
AcRTDxfName
1000
SCALE
1000
AcRTDxfName
1000
SCALE
  0
ACAD_PROXY_OBJECT
  5
16F87
102
{ACAD_REACTORS
330
16F81
102
}
330
16F81
100
AcDbZombieObject
 90
      499
 91
      510
 93
      113
310
904313A31304000000000000244000
1001
ACAD
1000
AcRTDxfName
1000
SCALE
1000
AcRTDxfName
1000
SCALE
1000
AcRTDxfName
1000
SCALE
1000
AcRTDxfName
1000
SCALE
1000
AcRTDxfName
1000
SCALE
1000
AcRTDxfName
1000
SCALE
  0
ACAD_PROXY_OBJECT
  5
16F88
102
{ACAD_REACTORS
330
16F81
102
}
330
16F81
100
AcDbZombieObject
 90
      499
 91
      510
 93
      113
310
904313A31364000000000000304000
1001
ACAD
1000
AcRTDxfName
1000
SCALE
1000
AcRTDxfName
1000
SCALE
1000
AcRTDxfName
1000
SCALE
1000
AcRTDxfName
1000
SCALE
1000
AcRTDxfName
1000
SCALE
1000
AcRTDxfName
1000
SCALE
  0
ACAD_PROXY_OBJECT
  5
16F89
102
{ACAD_REACTORS
330
16F81
102
}
330
16F81
100
AcDbZombieObject
 90
      499
 91
      510
 93
      113
310
904313A32304000000000000344000
1001
ACAD
1000
AcRTDxfName
1000
SCALE
1000
AcRTDxfName
1000
SCALE
1000
AcRTDxfName
1000
SCALE
1000
AcRTDxfName
1000
SCALE
1000
AcRTDxfName
1000
SCALE
1000
AcRTDxfName
1000
SCALE
  0
ACAD_PROXY_OBJECT
  5
16F8A
102
{ACAD_REACTORS
330
16F81
102
}
330
16F81
100
AcDbZombieObject
 90
      499
 91
      510
 93
      113
310
904313A333040000000000003E4000
1001
ACAD
1000
AcRTDxfName
1000
SCALE
1000
AcRTDxfName
1000
SCALE
1000
AcRTDxfName
1000
SCALE
1000
AcRTDxfName
1000
SCALE
1000
AcRTDxfName
1000
SCALE
1000
AcRTDxfName
1000
SCALE
  0
ACAD_PROXY_OBJECT
  5
16F8B
102
{ACAD_REACTORS
330
16F81
102
}
330
16F81
100
AcDbZombieObject
 90
      499
 91
      510
 93
      113
310
904313A34304000000000000444000
1001
ACAD
1000
AcRTDxfName
1000
SCALE
1000
AcRTDxfName
1000
SCALE
1000
AcRTDxfName
1000
SCALE
1000
AcRTDxfName
1000
SCALE
1000
AcRTDxfName
1000
SCALE
1000
AcRTDxfName
1000
SCALE
  0
ACAD_PROXY_OBJECT
  5
16F8C
102
{ACAD_REACTORS
330
16F81
102
}
330
16F81
100
AcDbZombieObject
 90
      499
 91
      510
 93
      113
310
904313A35304000000000000494000
1001
ACAD
1000
AcRTDxfName
1000
SCALE
1000
AcRTDxfName
1000
SCALE
1000
AcRTDxfName
1000
SCALE
1000
AcRTDxfName
1000
SCALE
1000
AcRTDxfName
1000
SCALE
1000
AcRTDxfName
1000
SCALE
  0
ACAD_PROXY_OBJECT
  5
16F8D
102
{ACAD_REACTORS
330
16F81
102
}
330
16F81
100
AcDbZombieObject
 90
      499
 91
      510
 93
      121
310
905313A3130304000000000000594000
1001
ACAD
1000
AcRTDxfName
1000
SCALE
1000
AcRTDxfName
1000
SCALE
1000
AcRTDxfName
1000
SCALE
1000
AcRTDxfName
1000
SCALE
1000
AcRTDxfName
1000
SCALE
1000
AcRTDxfName
1000
SCALE
  0
ACAD_PROXY_OBJECT
  5
16F8E
102
{ACAD_REACTORS
330
16F81
102
}
330
16F81
100
AcDbZombieObject
 90
      499
 91
      510
 93
      105
310
903323A310000000000000010100
1001
ACAD
1000
AcRTDxfName
1000
SCALE
1000
AcRTDxfName
1000
SCALE
1000
AcRTDxfName
1000
SCALE
1000
AcRTDxfName
1000
SCALE
1000
AcRTDxfName
1000
SCALE
1000
AcRTDxfName
1000
SCALE
  0
ACAD_PROXY_OBJECT
  5
16F8F
102
{ACAD_REACTORS
330
16F81
102
}
330
16F81
100
AcDbZombieObject
 90
      499
 91
      510
 93
      105
310
903343A310000000000000410100
1001
ACAD
1000
AcRTDxfName
1000
SCALE
1000
AcRTDxfName
1000
SCALE
1000
AcRTDxfName
1000
SCALE
1000
AcRTDxfName
1000
SCALE
1000
AcRTDxfName
1000
SCALE
1000
AcRTDxfName
1000
SCALE
  0
ACAD_PROXY_OBJECT
  5
16F90
102
{ACAD_REACTORS
330
16F81
102
}
330
16F81
100
AcDbZombieObject
 90
      499
 91
      510
 93
      105
310
903383A310000000000000810100
1001
ACAD
1000
AcRTDxfName
1000
SCALE
1000
AcRTDxfName
1000
SCALE
1000
AcRTDxfName
1000
SCALE
1000
AcRTDxfName
1000
SCALE
1000
AcRTDxfName
1000
SCALE
1000
AcRTDxfName
1000
SCALE
  0
ACAD_PROXY_OBJECT
  5
16F91
102
{ACAD_REACTORS
330
16F81
102
}
330
16F81
100
AcDbZombieObject
 90
      499
 91
      510
 93
      113
310
90431303A310000000000000910100
1001
ACAD
1000
AcRTDxfName
1000
SCALE
1000
AcRTDxfName
1000
SCALE
1000
AcRTDxfName
1000
SCALE
1000
AcRTDxfName
1000
SCALE
1000
AcRTDxfName
1000
SCALE
1000
AcRTDxfName
1000
SCALE
  0
ACAD_PROXY_OBJECT
  5
16F92
102
{ACAD_REACTORS
330
16F81
102
}
330
16F81
100
AcDbZombieObject
 90
      499
 91
      510
 93
      121
310
9053130303A310000000000001650100
1001
ACAD
1000
AcRTDxfName
1000
SCALE
1000
AcRTDxfName
1000
SCALE
1000
AcRTDxfName
1000
SCALE
1000
AcRTDxfName
1000
SCALE
1000
AcRTDxfName
1000
SCALE
1000
AcRTDxfName
1000
SCALE
  0
ACAD_PROXY_OBJECT
  5
16F93
102
{ACAD_REACTORS
330
16F81
102
}
330
16F81
100
AcDbZombieObject
 90
      499
 91
      510
 93
      257
310
90E312F31323822203D2031272D3022147E90B21E7FDFCFC000000000000284000
1001
ACAD
1000
AcRTDxfName
1000
SCALE
1000
AcRTDxfName
1000
SCALE
1000
AcRTDxfName
1000
SCALE
1000
AcRTDxfName
1000
SCALE
1000
AcRTDxfName
1000
SCALE
1000
AcRTDxfName
1000
SCALE
  0
ACAD_PROXY_OBJECT
  5
16F94
102
{ACAD_REACTORS
330
16F81
102
}
330
16F81
100
AcDbZombieObject
 90
      499
 91
      510
 93
      249
310
90D312F363422203D2031272D3022000000000000240FC000000000000284000
1001
ACAD
1000
AcRTDxfName
1000
SCALE
1000
AcRTDxfName
1000
SCALE
1000
AcRTDxfName
1000
SCALE
1000
AcRTDxfName
1000
SCALE
1000
AcRTDxfName
1000
SCALE
1000
AcRTDxfName
1000
SCALE
  0
ACAD_PROXY_OBJECT
  5
16F95
102
{ACAD_REACTORS
330
16F81
102
}
330
16F81
100
AcDbZombieObject
 90
      499
 91
      510
 93
      249
310
90D312F333222203D2031272D3022000000000000280FC000000000000284000
1001
ACAD
1000
AcRTDxfName
1000
SCALE
1000
AcRTDxfName
1000
SCALE
1000
AcRTDxfName
1000
SCALE
1000
AcRTDxfName
1000
SCALE
1000
AcRTDxfName
1000
SCALE
1000
AcRTDxfName
1000
SCALE
  0
ACAD_PROXY_OBJECT
  5
16F96
102
{ACAD_REACTORS
330
16F81
102
}
330
16F81
100
AcDbZombieObject
 90
      499
 91
      510
 93
      249
310
90D312F313622203D2031272D30220000000000002C0FC000000000000284000
1001
ACAD
1000
AcRTDxfName
1000
SCALE
1000
AcRTDxfName
1000
SCALE
1000
AcRTDxfName
1000
SCALE
1000
AcRTDxfName
1000
SCALE
1000
AcRTDxfName
1000
SCALE
1000
AcRTDxfName
1000
SCALE
  0
ACAD_PROXY_OBJECT
  5
16F97
102
{ACAD_REACTORS
330
16F81
102
}
330
16F81
100
AcDbZombieObject
 90
      499
 91
      510
 93
      249
310
90D332F333222203D2031272D30220000000000002E0FC000000000000284000
1001
ACAD
1000
AcRTDxfName
1000
SCALE
1000
AcRTDxfName
1000
SCALE
1000
AcRTDxfName
1000
SCALE
1000
AcRTDxfName
1000
SCALE
1000
AcRTDxfName
1000
SCALE
1000
AcRTDxfName
1000
SCALE
  0
ACAD_PROXY_OBJECT
  5
16F98
102
{ACAD_REACTORS
330
16F81
102
}
330
16F81
100
AcDbZombieObject
 90
      499
 91
      510
 93
      241
310
90C312F3822203D2031272D3022000000000000300FC000000000000284000
1001
ACAD
1000
AcRTDxfName
1000
SCALE
1000
AcRTDxfName
1000
SCALE
1000
AcRTDxfName
1000
SCALE
1000
AcRTDxfName
1000
SCALE
1000
AcRTDxfName
1000
SCALE
1000
AcRTDxfName
1000
SCALE
  0
ACAD_PROXY_OBJECT
  5
16F99
102
{ACAD_REACTORS
330
16F81
102
}
330
16F81
100
AcDbZombieObject
 90
      499
 91
      510
 93
      249
310
90D332F313622203D2031272D3022000000000000320FC000000000000284000
1001
ACAD
1000
AcRTDxfName
1000
SCALE
1000
AcRTDxfName
1000
SCALE
1000
AcRTDxfName
1000
SCALE
1000
AcRTDxfName
1000
SCALE
1000
AcRTDxfName
1000
SCALE
1000
AcRTDxfName
1000
SCALE
  0
ACAD_PROXY_OBJECT
  5
16F9A
102
{ACAD_REACTORS
330
16F81
102
}
330
16F81
100
AcDbZombieObject
 90
      499
 91
      510
 93
      241
310
90C312F3422203D2031272D3022000000000000340FC000000000000284000
1001
ACAD
1000
AcRTDxfName
1000
SCALE
1000
AcRTDxfName
1000
SCALE
1000
AcRTDxfName
1000
SCALE
1000
AcRTDxfName
1000
SCALE
1000
AcRTDxfName
1000
SCALE
1000
AcRTDxfName
1000
SCALE
  0
ACAD_PROXY_OBJECT
  5
16F9B
102
{ACAD_REACTORS
330
16F81
102
}
330
16F81
100
AcDbZombieObject
 90
      499
 91
      510
 93
      241
310
90C332F3822203D2031272D3022000000000000360FC000000000000284000
1001
ACAD
1000
AcRTDxfName
1000
SCALE
1000
AcRTDxfName
1000
SCALE
1000
AcRTDxfName
1000
SCALE
1000
AcRTDxfName
1000
SCALE
1000
AcRTDxfName
1000
SCALE
1000
AcRTDxfName
1000
SCALE
  0
ACAD_PROXY_OBJECT
  5
16F9C
102
{ACAD_REACTORS
330
16F81
102
}
330
16F81
100
AcDbZombieObject
 90
      499
 91
      510
 93
      241
310
90C312F3222203D2031272D3022000000000000380FC000000000000284000
1001
ACAD
1000
AcRTDxfName
1000
SCALE
1000
AcRTDxfName
1000
SCALE
1000
AcRTDxfName
1000
SCALE
1000
AcRTDxfName
1000
SCALE
1000
AcRTDxfName
1000
SCALE
1000
AcRTDxfName
1000
SCALE
  0
ACAD_PROXY_OBJECT
  5
16F9D
102
{ACAD_REACTORS
330
16F81
102
}
330
16F81
100
AcDbZombieObject
 90
      499
 91
      510
 93
      241
310
90C332F3422203D2031272D30220000000000003A0FC000000000000284000
1001
ACAD
1000
AcRTDxfName
1000
SCALE
1000
AcRTDxfName
1000
SCALE
1000
AcRTDxfName
1000
SCALE
1000
AcRTDxfName
1000
SCALE
1000
AcRTDxfName
1000
SCALE
1000
AcRTDxfName
1000
SCALE
  0
ACAD_PROXY_OBJECT
  5
16F9E
102
{ACAD_REACTORS
330
16F81
102
}
330
16F81
100
AcDbZombieObject
 90
      499
 91
      510
 93
      161
310
90A3122203D2031272D30224000000000000284000
1001
ACAD
1000
AcRTDxfName
1000
SCALE
1000
AcRTDxfName
1000
SCALE
1000
AcRTDxfName
1000
SCALE
1000
AcRTDxfName
1000
SCALE
1000
AcRTDxfName
1000
SCALE
1000
AcRTDxfName
1000
SCALE
  0
ACAD_PROXY_OBJECT
  5
16F9F
102
{ACAD_REACTORS
330
16F81
102
}
330
16F81
100
AcDbZombieObject
 90
      499
 91
      510
 93
      257
310
90E312D312F3222203D2031272D30220000000000003E0FC000000000000284000
1001
ACAD
1000
AcRTDxfName
1000
SCALE
1000
AcRTDxfName
1000
SCALE
1000
AcRTDxfName
1000
SCALE
1000
AcRTDxfName
1000
SCALE
1000
AcRTDxfName
1000
SCALE
1000
AcRTDxfName
1000
SCALE
  0
ACAD_PROXY_OBJECT
  5
16FA0
102
{ACAD_REACTORS
330
16F81
102
}
330
16F81
100
AcDbZombieObject
 90
      499
 91
      510
 93
      225
310
90A3322203D2031272D302200000000000002100000000000000284000
1001
ACAD
1000
AcRTDxfName
1000
SCALE
1000
AcRTDxfName
1000
SCALE
1000
AcRTDxfName
1000
SCALE
1000
AcRTDxfName
1000
SCALE
1000
AcRTDxfName
1000
SCALE
1000
AcRTDxfName
1000
SCALE
  0
ACAD_PROXY_OBJECT
  5
16FA1
102
{ACAD_REACTORS
330
16F81
102
}
330
16F81
100
AcDbZombieObject
 90
      499
 91
      510
 93
      225
310
90A3622203D2031272D302200000000000006100000000000000284000
1001
ACAD
1000
AcRTDxfName
1000
SCALE
1000
AcRTDxfName
1000
SCALE
1000
AcRTDxfName
1000
SCALE
1000
AcRTDxfName
1000
SCALE
1000
AcRTDxfName
1000
SCALE
1000
AcRTDxfName
1000
SCALE
  0
ACAD_PROXY_OBJECT
  5
16FA2
102
{ACAD_REACTORS
330
16F81
102
}
330
16F81
100
AcDbZombieObject
 90
      499
 91
      510
 93
      249
310
90D31272D3022203D2031272D30220000000000000A100000000000000284000
1001
ACAD
1000
AcRTDxfName
1000
SCALE
1000
AcRTDxfName
1000
SCALE
1000
AcRTDxfName
1000
SCALE
1000
AcRTDxfName
1000
SCALE
1000
AcRTDxfName
1000
SCALE
1000
AcRTDxfName
1000
SCALE
  0
ACAD_PROXY_OBJECT
  5
16F76
102
{ACAD_REACTORS
330
16F70
102
}
330
16F70
100
AcDbZombieObject
 90
      499
 91
      509
 93
      436
310
42CC9915DA5C99599C985B595049028333333333333E3BF0000000000000FB0107901411070040501600405405064090741402480A0340
1001
ACAD
1000
AcRTDxfName
1000
VISUALSTYLE
1000
AcRTDxfName
1000
VISUALSTYLE
1000
AcRTDxfName
1000
VISUALSTYLE
1000
AcRTDxfName
1000
VISUALSTYLE
1000
AcRTDxfName
1000
VISUALSTYLE
1000
AcRTDxfName
1000
VISUALSTYLE
1000
AcDbSavedByObjectVersion
1070
     0
  0
ACAD_PROXY_OBJECT
  5
16F78
102
{ACAD_REACTORS
330
16F70
102
}
330
16F70
100
AcDbZombieObject
 90
      499
 91
      509
 93
      500
310
424CD108121A5919195B90640502408333333333333E3BF0000000000000FB01079024090700405020000000000001110200405405064090740C02480A0340
1001
ACAD
1000
AcRTDxfName
1000
VISUALSTYLE
1000
AcRTDxfName
1000
VISUALSTYLE
1000
AcRTDxfName
1000
VISUALSTYLE
1000
AcRTDxfName
1000
VISUALSTYLE
1000
AcRTDxfName
1000
VISUALSTYLE
1000
AcRTDxfName
1000
VISUALSTYLE
1000
AcDbSavedByObjectVersion
1070
     0
  0
ACAD_PROXY_OBJECT
  5
16F77
102
{ACAD_REACTORS
330
16F70
102
}
330
16F70
100
AcDbZombieObject
 90
      499
 91
      509
 93
      436
310
42CCD915DA5C99599C985B595059028333333333333E3BF0000000000000FB0107901411070040501600405405064090741402480A0340
1001
ACAD
1000
AcRTDxfName
1000
VISUALSTYLE
1000
AcRTDxfName
1000
VISUALSTYLE
1000
AcRTDxfName
1000
VISUALSTYLE
1000
AcRTDxfName
1000
VISUALSTYLE
1000
AcRTDxfName
1000
VISUALSTYLE
1000
AcRTDxfName
1000
VISUALSTYLE
1000
AcDbSavedByObjectVersion
1070
     0
  0
ACAD_PROXY_OBJECT
  5
16F75
102
{ACAD_REACTORS
330
16F70
102
}
330
16F70
100
AcDbZombieObject
 90
      499
 91
      509
 93
      388
310
4150985CDA58D07406404333333333333E3BF0000000000000FB0107A41107004050150841D405064090741402480A0350
1001
ACAD
1000
AcRTDxfName
1000
VISUALSTYLE
1000
AcRTDxfName
1000
VISUALSTYLE
1000
AcRTDxfName
1000
VISUALSTYLE
1000
AcRTDxfName
1000
VISUALSTYLE
1000
AcRTDxfName
1000
VISUALSTYLE
1000
AcRTDxfName
1000
VISUALSTYLE
1000
AcDbSavedByObjectVersion
1070
     0
  0
ACAD_PROXY_OBJECT
  5
16F7C
102
{ACAD_REACTORS
330
16F70
102
}
330
16F70
100
AcDbZombieObject
 90
      499
 91
      509
 93
      428
310
42109C9A59DA1D195B90C409028333333333333E3BF0000000000000FB010790141107004050150841D405064090741402480A029950
1001
ACAD
1000
AcRTDxfName
1000
VISUALSTYLE
1000
AcRTDxfName
1000
VISUALSTYLE
1000
AcRTDxfName
1000
VISUALSTYLE
1000
AcRTDxfName
1000
VISUALSTYLE
1000
AcRTDxfName
1000
VISUALSTYLE
1000
AcRTDxfName
1000
VISUALSTYLE
1000
AcDbSavedByObjectVersion
1070
     0
  0
ACAD_PROXY_OBJECT
  5
16F80
102
{ACAD_REACTORS
330
16F70
102
}
330
16F70
100
AcDbZombieObject
 90
      499
 91
      509
 93
      452
310
42D0DBDB1BDC90DA185B99D95104090240C333333333333E3BF0000000000000FB0108901411070040501508421405064090741402480A0350
1001
ACAD
1000
AcRTDxfName
1000
VISUALSTYLE
1000
AcRTDxfName
1000
VISUALSTYLE
1000
AcRTDxfName
1000
VISUALSTYLE
1000
AcRTDxfName
1000
VISUALSTYLE
1000
AcRTDxfName
1000
VISUALSTYLE
1000
AcRTDxfName
1000
VISUALSTYLE
1000
AcDbSavedByObjectVersion
1070
     0
  0
ACAD_PROXY_OBJECT
  5
16F79
102
{ACAD_REACTORS
330
16F70
102
}
330
16F70
100
AcDbZombieObject
 90
      499
 91
      509
 93
      500
310
4290DBDB98D95C1D1D585B10940D028333333333333E3BF0000000000000FB0107902409070040501000000000000111010841D405064090740C02480A0340
1001
ACAD
1000
AcRTDxfName
1000
VISUALSTYLE
1000
AcRTDxfName
1000
VISUALSTYLE
1000
AcRTDxfName
1000
VISUALSTYLE
1000
AcRTDxfName
1000
VISUALSTYLE
1000
AcRTDxfName
1000
VISUALSTYLE
1000
AcRTDxfName
1000
VISUALSTYLE
1000
AcDbSavedByObjectVersion
1070
     0
  0
ACAD_PROXY_OBJECT
  5
16F7B
102
{ACAD_REACTORS
330
16F70
102
}
330
16F70
100
AcDbZombieObject
 90
      499
 91
      509
 93
      412
310
40D11A5B50B409028333333333333E3BF0000000000000FB010790141107004050150841D405064090741402480A02677FFFFFD0
1001
ACAD
1000
AcRTDxfName
1000
VISUALSTYLE
1000
AcRTDxfName
1000
VISUALSTYLE
1000
AcRTDxfName
1000
VISUALSTYLE
1000
AcRTDxfName
1000
VISUALSTYLE
1000
AcRTDxfName
1000
VISUALSTYLE
1000
AcRTDxfName
1000
VISUALSTYLE
1000
AcDbSavedByObjectVersion
1070
     0
  0
ACAD_PROXY_OBJECT
  5
62CA3
102
{ACAD_REACTORS
330
16F70
102
}
330
16F70
100
AcDbZombieObject
 90
      499
 91
      509
 93
      452
310
43115919D950DBDB1BDC93D999916409028333333333333E3BF0000000000000FB010790141107004050150841D405064090741402480A0350
1001
ACAD
1000
AcDbSavedByObjectVersion
1070
     0
  0
ACAD_PROXY_OBJECT
  5
16F7F
102
{ACAD_REACTORS
330
16F70
102
}
330
16F70
100
AcDbZombieObject
 90
      499
 91
      509
 93
      444
310
42D19858D95C185D1D195C9B90F409028333333333333E3BF0000000000000FB010790141107004050150841D405064090741402480A0350
1001
ACAD
1000
AcRTDxfName
1000
VISUALSTYLE
1000
AcRTDxfName
1000
VISUALSTYLE
1000
AcRTDxfName
1000
VISUALSTYLE
1000
AcRTDxfName
1000
VISUALSTYLE
1000
AcRTDxfName
1000
VISUALSTYLE
1000
AcRTDxfName
1000
VISUALSTYLE
1000
AcDbSavedByObjectVersion
1070
     0
  0
ACAD_PROXY_OBJECT
  5
16F71
102
{ACAD_REACTORS
330
16F70
102
}
330
16F70
100
AcDbZombieObject
 90
      499
 91
      509
 93
      388
310
41119B185D240901404333333333333E3BF0000000000000F9010740A41107004050150841D405064090741402480A1B50
1001
ACAD
1000
AcRTDxfName
1000
VISUALSTYLE
1000
AcRTDxfName
1000
VISUALSTYLE
1000
AcRTDxfName
1000
VISUALSTYLE
1000
AcRTDxfName
1000
VISUALSTYLE
1000
AcRTDxfName
1000
VISUALSTYLE
1000
AcRTDxfName
1000
VISUALSTYLE
1000
AcDbSavedByObjectVersion
1070
     0
  0
ACAD_PROXY_OBJECT
  5
16F72
102
{ACAD_REACTORS
330
16F70
102
}
330
16F70
100
AcDbZombieObject
 90
      499
 91
      509
 93
      476
310
43519B185D15DA5D1A115919D95CD0140901404333333333333E3BF0000000000000F9010740901411070040501600405405064090741402480A1B50
1001
ACAD
1000
AcRTDxfName
1000
VISUALSTYLE
1000
AcRTDxfName
1000
VISUALSTYLE
1000
AcRTDxfName
1000
VISUALSTYLE
1000
AcRTDxfName
1000
VISUALSTYLE
1000
AcRTDxfName
1000
VISUALSTYLE
1000
AcRTDxfName
1000
VISUALSTYLE
1000
AcDbSavedByObjectVersion
1070
     0
  0
ACAD_PROXY_OBJECT
  5
16F73
102
{ACAD_REACTORS
330
16F70
102
}
330
16F70
100
AcDbZombieObject
 90
      499
 91
      509
 93
      412
310
41D1DBDD5C985D5910240902404333333333333E3BF0000000000000F9010740A411070040501641D405064090741402480A1B50
1001
ACAD
1000
AcRTDxfName
1000
VISUALSTYLE
1000
AcRTDxfName
1000
VISUALSTYLE
1000
AcRTDxfName
1000
VISUALSTYLE
1000
AcRTDxfName
1000
VISUALSTYLE
1000
AcRTDxfName
1000
VISUALSTYLE
1000
AcRTDxfName
1000
VISUALSTYLE
1000
AcDbSavedByObjectVersion
1070
     0
  0
ACAD_PROXY_OBJECT
  5
16F74
102
{ACAD_REACTORS
330
16F70
102
}
330
16F70
100
AcDbZombieObject
 90
      499
 91
      509
 93
      500
310
4411DBDD5C985D5915DA5D1A115919D95CD0340902404333333333333E3BF0000000000000F9010740901411070040501600405405064090741402480A1B50
1001
ACAD
1000
AcRTDxfName
1000
VISUALSTYLE
1000
AcRTDxfName
1000
VISUALSTYLE
1000
AcRTDxfName
1000
VISUALSTYLE
1000
AcRTDxfName
1000
VISUALSTYLE
1000
AcRTDxfName
1000
VISUALSTYLE
1000
AcRTDxfName
1000
VISUALSTYLE
1000
AcDbSavedByObjectVersion
1070
     0
  0
ACAD_PROXY_OBJECT
  5
62C9B
102
{ACAD_REACTORS
330
16F70
102
}
330
16F70
100
AcDbZombieObject
 90
      499
 91
      509
 93
      476
310
41921A5919195B90640502408333333333333E3BF0000000000000FB01079024090700405020000000000001110200405405064090740C02480A0340
1001
ACAD
1000
AcDbSavedByObjectVersion
1070
     0
  0
ACAD_PROXY_OBJECT
  5
62CA1
102
{ACAD_REACTORS
330
16F70
102
}
330
16F70
100
AcDbZombieObject
 90
      499
 91
      509
 93
      428
310
42529A5D1D195C93D999914409028333333333333E3BF0000000000000FB010790141107004050150A41D405064090741402480A0350
1001
ACAD
1000
AcDbSavedByObjectVersion
1070
     0
  0
ACAD_PROXY_OBJECT
  5
16F7E
102
{ACAD_REACTORS
330
16F70
102
}
330
16F70
100
AcDbZombieObject
 90
      499
 91
      509
 93
      444
310
42D31A5B995C185D1D195C9B90E409028333333333333E3BF0000000000000FB010790141107004050750841D405064090741402483A0350
1001
ACAD
1000
AcRTDxfName
1000
VISUALSTYLE
1000
AcRTDxfName
1000
VISUALSTYLE
1000
AcRTDxfName
1000
VISUALSTYLE
1000
AcRTDxfName
1000
VISUALSTYLE
1000
AcRTDxfName
1000
VISUALSTYLE
1000
AcRTDxfName
1000
VISUALSTYLE
1000
AcDbSavedByObjectVersion
1070
     0
  0
ACAD_PROXY_OBJECT
  5
A3FDC
102
{ACAD_REACTORS
330
16F70
102
}
330
16F70
100
AcDbZombieObject
 90
      499
 91
      509
 93
      484
310
42135BD9195B1A5B99D0A409038333333333333E33F0000000000000F901074090290700405010000000000201990108421405064090741402480A1B40
1001
ACAD
1000
AcDbSavedByObjectVersion
1070
     0
  0
ACAD_PROXY_OBJECT
  5
62CA2
102
{ACAD_REACTORS
330
16F70
102
}
330
16F70
100
AcDbZombieObject
 90
      499
 91
      509
 93
      444
310
42D3DD995C9A185B99D3D999915409028333333333333E3BF0000000000000FB010790141107004050150941D405064090741402480A0350
1001
ACAD
1000
AcDbSavedByObjectVersion
1070
     0
  0
ACAD_PROXY_OBJECT
  5
16F7A
102
{ACAD_REACTORS
330
16F70
102
}
330
16F70
100
AcDbZombieObject
 90
      499
 91
      509
 93
      420
310
425499585B1A5CDD1A58D08409028333333333333E3BF0000000000000FB01079019070040501508421405064090741402480A1B40
1001
ACAD
1000
AcRTDxfName
1000
VISUALSTYLE
1000
AcRTDxfName
1000
VISUALSTYLE
1000
AcRTDxfName
1000
VISUALSTYLE
1000
AcRTDxfName
1000
VISUALSTYLE
1000
AcRTDxfName
1000
VISUALSTYLE
1000
AcRTDxfName
1000
VISUALSTYLE
1000
AcDbSavedByObjectVersion
1070
     0
  0
ACAD_PROXY_OBJECT
  5
62CA0
102
{ACAD_REACTORS
330
16F70
102
}
330
16F70
100
AcDbZombieObject
 90
      499
 91
      509
 93
      420
310
4194DA1859195911B40902404333333333333E3BF0000000000000F9010740A41107004050150800405405064090840C02480A0B40
1001
ACAD
1000
AcDbSavedByObjectVersion
1070
     0
  0
ACAD_PROXY_OBJECT
  5
62C9F
102
{ACAD_REACTORS
330
16F70
102
}
330
16F70
100
AcDbZombieObject
 90
      499
 91
      509
 93
      516
310
4454DA18591959081DDA5D1A08195919D95CD1A40902404333333333333E3BF0000000000000F901074090142907004050250800405405064090740C02480A0B40
1001
ACAD
1000
AcDbSavedByObjectVersion
1070
     0
  0
ACAD_PROXY_OBJECT
  5
62C9C
102
{ACAD_REACTORS
330
16F70
102
}
330
16F70
100
AcDbZombieObject
 90
      499
 91
      509
 93
      532
310
4394DA1859195CC81BD98811DC985E5174090240C333333333333E3BF0000000000000FB01079024090741D01000000000000111010841D405064090740C02480A0340
1001
ACAD
1000
AcDbSavedByObjectVersion
1070
     0
  0
ACAD_PROXY_OBJECT
  5
62C9D
102
{ACAD_REACTORS
330
16F70
102
}
330
16F70
100
AcDbZombieObject
 90
      499
 91
      509
 93
      476
310
41D4DAD95D18DA1E51840502408333333333333E3BF0000000000000FB01079024090741D01000000000000111010B41D405064090741802480A0340
1001
ACAD
1000
AcDbSavedByObjectVersion
1070
     0
  0
ACAD_PROXY_OBJECT
  5
16F7D
102
{ACAD_REACTORS
330
16F70
102
}
330
16F70
100
AcDbZombieObject
 90
      499
 91
      509
 93
      412
310
41D51A1A58DAD95B90D409028333333333333E3BF0000000000000FB010790141107004050150C41D405064090741402480A0350
1001
ACAD
1000
AcRTDxfName
1000
VISUALSTYLE
1000
AcRTDxfName
1000
VISUALSTYLE
1000
AcRTDxfName
1000
VISUALSTYLE
1000
AcRTDxfName
1000
VISUALSTYLE
1000
AcRTDxfName
1000
VISUALSTYLE
1000
AcRTDxfName
1000
VISUALSTYLE
1000
AcDbSavedByObjectVersion
1070
     0
  0
ACAD_PROXY_OBJECT
  5
62C9A
102
{ACAD_REACTORS
330
16F70
102
}
330
16F70
100
AcDbZombieObject
 90
      499
 91
      509
 93
      420
310
4255DA5C99599C985B595059028333333333333E3BF0000000000000FB0107901411070040501600405405064090740C02480A0340
1001
ACAD
1000
AcDbSavedByObjectVersion
1070
     0
  0
ACAD_PROXY_OBJECT
  5
62C9E
102
{ACAD_REACTORS
330
16F70
102
}
330
16F70
100
AcDbZombieObject
 90
      499
 91
      509
 93
      404
310
41560B54985E51940902404000000000000E03F0000000000000FB010740501907004050150841D405064090740C02480A1B40
1001
ACAD
1000
AcDbSavedByObjectVersion
1070
     0
  0
XRECORD
  5
A4121
102
{ACAD_REACTORS
330
A4120
102
}
330
A4120
100
AcDbXrecord
340
1418C
  0
XRECORD
  5
A4122
102
{ACAD_REACTORS
330
A4120
102
}
330
A4120
100
AcDbXrecord
340
1418B
  0
DICTIONARYVAR
  5
A42BE
102
{ACAD_REACTORS
330
6ED
102
}
330
6ED
100
DictionaryVariables
280
     0
  1
1:1
  0
DICTIONARYVAR
  5
1710A
102
{ACAD_REACTORS
330
6ED
102
}
330
6ED
100
DictionaryVariables
280
     0
  1
Standard
  0
DICTIONARYVAR
  5
141AE
102
{ACAD_REACTORS
330
6ED
102
}
330
6ED
100
DictionaryVariables
280
     0
  1
Standard
  0
DICTIONARYVAR
  5
6EE
102
{ACAD_REACTORS
330
6ED
102
}
330
6ED
100
DictionaryVariables
280
     0
  1
-1
  0
DICTIONARYVAR
  5
141AF
102
{ACAD_REACTORS
330
6ED
102
}
330
6ED
100
DictionaryVariables
280
     0
  1
2
  0
DICTIONARYVAR
  5
7CF14
102
{ACAD_REACTORS
330
6ED
102
}
330
6ED
100
DictionaryVariables
280
     0
  1
2
  0
DICTIONARYVAR
  5
1485B
102
{ACAD_REACTORS
330
6ED
102
}
330
6ED
100
DictionaryVariables
280
     0
  1
1
  0
DICTIONARYVAR
  5
1710C
102
{ACAD_REACTORS
330
6ED
102
}
330
6ED
100
DictionaryVariables
280
     0
  1
0
  0
DICTIONARYVAR
  5
1485F
102
{ACAD_REACTORS
330
6ED
102
}
330
6ED
100
DictionaryVariables
280
     0
  1
8
  0
DICTIONARYVAR
  5
1485E
102
{ACAD_REACTORS
330
6ED
102
}
330
6ED
100
DictionaryVariables
280
     0
  1
1
  0
DICTIONARYVAR
  5
A348C
102
{ACAD_REACTORS
330
6ED
102
}
330
6ED
100
DictionaryVariables
280
     0
  1
0
  0
DICTIONARYVAR
  5
A348D
102
{ACAD_REACTORS
330
6ED
102
}
330
6ED
100
DictionaryVariables
280
     0
  1
0
  0
DICTIONARYVAR
  5
7E56E
102
{ACAD_REACTORS
330
6ED
102
}
330
6ED
100
DictionaryVariables
280
     0
  1
0.000000
  0
DICTIONARYVAR
  5
6D821
102
{ACAD_REACTORS
330
6ED
102
}
330
6ED
100
DictionaryVariables
280
     0
  1
0
  0
DICTIONARYVAR
  5
1485C
102
{ACAD_REACTORS
330
6ED
102
}
330
6ED
100
DictionaryVariables
280
     0
  1
120
  0
DICTIONARYVAR
  5
1485D
102
{ACAD_REACTORS
330
6ED
102
}
330
6ED
100
DictionaryVariables
280
     0
  1
0
  0
DICTIONARYVAR
  5
141B0
102
{ACAD_REACTORS
330
6ED
102
}
330
6ED
100
DictionaryVariables
280
     0
  1

  0
DICTIONARYVAR
  5
E97
102
{ACAD_REACTORS
330
6ED
102
}
330
6ED
100
DictionaryVariables
280
     0
  1
127
  0
DICTIONARYVAR
  5
41A53
102
{ACAD_REACTORS
330
6ED
102
}
330
6ED
100
DictionaryVariables
280
     0
  1
0
  0
DICTIONARYVAR
  5
A3FDB
102
{ACAD_REACTORS
330
6ED
102
}
330
6ED
100
DictionaryVariables
280
     0
  1
2
  0
ACAD_PROXY_OBJECT
  5
7A5FB
102
{ACAD_REACTORS
330
1487A
102
}
330
1487A
100
AcDbZombieObject
 90
      499
 91
      543
 93
    50146
310
1E06000016C005C080000B404000098880400B8041000996969616128043800000000000001680020000000F8001C01C80478012C04500000000000000004001C00990DBDB1BDC97CDEE0040000000128040000000000000001680020000000F8037401C80448012C04500000000000000004002400990DBDB1BDC97CC8C8C
310
6E0040000000128040000000000000001680020000000F8002001C80448012C04500000000000000004001C00990DBDB1BDC97CE2E0040000000128040000000000000001680020000000F8002001C80448012C04000000000000000004001C00990DBDB1BDC97CE2E0040000000128040000000000000001680020000000F
310
8032401C80464012C04500000000000000004002400990DBDB1BDC97CC8C0C6E0040000000128040000000000000001680020000000F8037401C80448012C04500000000000000004002400990DBDB1BDC97CC8C8C6E0040000000128040000000000000001680024000000F8000401C807F7FD2C045000000000000000040
310
01C00990DBDB1BDC97CC6E0040000000128040000000000000001680020000000F803F401C80434012C04500000000000000004002400990DBDB1BDC97CC8D4CEE0040000000128040000000000000001680000000000F8001C01C807F7FD2C04500000000000000004001C00990DBDB1BDC97CDEE00400000001280400000
310
00000000001680020000000F8002001C80448012C04500000000000000004001C00990DBDB1BDC97CE2E0040000000128040000000000000001680020000000F803F801C80434012C04000000000000000004002400990DBDB1BDC97CC8D4D2E0040000000128040000000000000001680020000000F8037401C80448012C0
310
4500000000000000004002400990DBDB1BDC97CC8C8C6E0040000000128040000000000000001680020000000F8000801C80478012C04500000000000000004001C00990DBDB1BDC97CCAE0040000000128040000000000000001680020000000F8035401C80478012C04500000000000000004002400990DBDB1BDC97CC8C
310
4CEE0040000000128040000000000000001680020000000F8038401C807F7FD2C04500000000000000004002400990DBDB1BDC97CC8C8D6E0040000000128040000000000000001680020000000F8001C01C807F7FD2C04500000000000000004001C00990DBDB1BDC97CDEE00400000001280400000000000000016800200
310
00000F8007801C807F7FD2C04500000000000000004002000990DBDB1BDC97CCCC2E0040000000128040000000000000001680020000000F803F001C804F0012C04500000000000000004002400990DBDB1BDC97CC8D4CAE0040000000128040000000000000001680024000000F8002001C807F7FD2C04500000000000000
310
004001C00990DBDB1BDC97CE2E0040000000128040000000000000001680020000000F8001801C80478012C04500000000000000004001C00990DBDB1BDC97CDAE0040000000128040000000000000001680020000000F8037801C807F7FD2C04500000000000000004002400990DBDB1BDC97CC8C8CAE0040000000128040
310
000000000000001680020000000F8000401C807F7FD2C04500000000000000004001C00990DBDB1BDC97CC6E0040000000128040000000000000001680020000000F8017C01C80478012C04500000000000000004002000990DBDB1BDC97CE4D6E0040000000128040000000000000001680000000000F803CC01C807F7FD2
310
C04500000000000000004002400990DBDB1BDC97CC8D0CEE0040000000128040000000000000001680020000000F8001001C80478012C04500000000000000004001C00990DBDB1BDC97CD2E0040000000128040000000000000001680020000000F8017401C80434012C04500000000000000004002000990DBDB1BDC97CE
310
4CEE0040000000128040000000000000001680020000000F8039C01C80434012C04500000000000000004002400990DBDB1BDC97CC8CCC6E0040000000128040000000000000001680020000000F8007C01C80434012C04500000000000000004002000990DBDB1BDC97CCCC6E004000000012804000000000000000168002
310
0000000F8001C01C80450012C04500000000000000004001C00990DBDB1BDC97CDEE0040000000128040000000000000001680020000000F8001401C80434012C04000000000000000004001C00990DBDB1BDC97CD6E0040000000128040000000000000001680020000000F8000401C80434012C040000000000000000040
310
01C00990DBDB1BDC97CC6E0040000000128040000000000000001680020000000F8002001C8043C012C04000000000000000004001C00990DBDB1BDC97CE2E0040000000128040000000000000001680020000000F8000401C80478012C04500000000000000004001C00990DBDB1BDC97CC6E004000000012804000000000
310
0000001680020000000F8000C01C80478012C04500000000000000004001C00990DBDB1BDC97CCEE0040000000128040000000000000001680020000000F8023401C80434012C04500000000000000004002400990DBDB1BDC97CC4D0C6E0040000000128040000000000000001680020000000F8014401C80434012C04500
310
000000000000004002000990DBDB1BDC97CE0C6E0040000000128040000000000000001680020000000F8003401C80434012C04500000000000000004002000990DBDB1BDC97CC4CEE0040000000128040000000000000001680020000000F800DC01C80434012C04500000000000000004002000990DBDB1BDC97CD4D6E00
310
40000000128040000000000000001680020000000F800D401C80434012C04500000000000000004002000990DBDB1BDC97CD4CEE0040000000128040000000000000001680020000000F8021801C80434012C04500000000000000004002400990DBDB1BDC97CC4CCD2E004000000012804000000000000000168002000000
310
0F800FC01C80434012C04500000000000000004002000990DBDB1BDC97CD8CEE0040000000128040000000000000001680020000000F803AC01C80434012C04500000000000000004002400990DBDB1BDC97CC8CCD6E0040000000128040000000000000001680020000000F8023401C80434012C045000000000000000040
310
02400990DBDB1BDC97CC4D0C6E0040000000128040000000000000001680020000000F8001401C80478012C04500000000000000004001C00990DBDB1BDC97CD6E0040000000128040000000000000001680020000000F8023C01C80478012C04500000000000000004002400990DBDB1BDC97CC4D0CEE0040000000128040
310
000000000000001680020000000F8003C01C80478012C04500000000000000004002000990DBDB1BDC97CC4D6E0040000000128040000000000000001680020000000F8001C01C80478012C04500000000000000004001C00990DBDB1BDC97CDEE0040000000128040000000000000001680020000000F803F801C80448012
310
C04500000000000000004002400990DBDB1BDC97CC8D4D2E0040000000128040000000000000001680020000000F8002001C80448012C04500000000000000004001C00990DBDB1BDC97CE2E0040000000128040000000000000001680020000000F8001C01C807F7FD2C04000000000000000004001C00990DBDB1BDC97CD
310
EE0040000000128040000000000000001680020000000F8001C01C807F7FD2C04000000000000000004001C00990DBDB1BDC97CDEE0040000000128040000000000000001680020000000F8001C01C807F7FD2C04000000000000000004001C00990DBDB1BDC97CDEE0040000000128040000000000000001680020000000F
310
8001C01C807F7FD2C04000000000000000004001C00990DBDB1BDC97CDEE0040000000128040000000000000001680020000000F8001C01C807F7FD2C04000000000000000004001C00990DBDB1BDC97CDEE0040000000128040000000000000001680020000000F8001C01C807F7FD2C04000000000000000004001C00990
310
DBDB1BDC97CDEE0040000000128040000000000000001680020000000F8002401C80450012C04500000000000000004001C00990DBDB1BDC97CE6E0040000000128040000000000000001680020000000F8001001C80400012C04000000000000000004001C00990DBDB1BDC97CD2E00400000001280400000000000000016
310
80020000000F8001001C80400012C04500000000000000004001C00990DBDB1BDC97CD2E0040000000128040000000000000001680020000000F8001001C80400012C04500000000000000004001C00990DBDB1BDC97CD2E0040000000128040000000000000001680020000000F8000401C80400012C04500000000000000
310
004001C00990DBDB1BDC97CC6E0040000000128040000000000000001680020000000F8001C01C80434012C04500000000000000004001C00990DBDB1BDC97CDEE0040000000128040000000000000001680020000000F8011801C80400012C04500000000000000004002000990DBDB1BDC97CDCC2E004000000012804000
310
0000000000001680020000000F8001001C80400012C04500000000000000004001C00990DBDB1BDC97CD2E0040000000128040000000000000001680020000000F8001C01C80448012C04500000000000000004001C00990DBDB1BDC97CDEE0040000000128040000000000000001680020000000F803F401C80434012C045
310
00000000000000004002400990DBDB1BDC97CC8D4CEE0040000000128040000000000000001680020000000F8000401C80478012C04500000000000000004001C00990DBDB1BDC97CC6E0040000000128040000000000000001680020000000F803F001C807F7FD2C04500000000000000004002400990DBDB1BDC97CC8D4C
310
AE0040000000128040000000000000001680020000000F800DC01C80434012C04500000000000000004002000990DBDB1BDC97CD4D6E0040000000128040000000000000001680020000000F8002801C807F7FD2C04500000000000000004002000990DBDB1BDC97CC4C2E0040000000128040000000000000001680020000
310
000F8002C01C807F7FD2C04500000000000000004002000990DBDB1BDC97CC4C6E0040000000128040000000000000001680020000000F8005401C807F7FD2C04500000000000000004002000990DBDB1BDC97CC8C6E0040000000128040000000000000001680020000000F8003001C807F7FD2C045000000000000000040
310
02000990DBDB1BDC97CC4CAE0040000000128040000000000000001680020000000F8005801C807F7FD2C04500000000000000004002000990DBDB1BDC97CC8CAE0040000000128040000000000000001680020000000F8008001C807F7FD2C04500000000000000004002000990DBDB1BDC97CCCCAE004000000012804000
310
0000000000001680020000000F8003C01C807F7FD2C04500000000000000004002000990DBDB1BDC97CC4D6E0040000000128040000000000000001680020000000F803C401C807F7FD2C04500000000000000004002400990DBDB1BDC97CC8D0C6E0040000000128040000000000000001680020000000F8000801C807F7F
310
D2C04500000000000000004001C00990DBDB1BDC97CCAE0040000000128040000000000000001680020000000F800D401C807F7FD2C04500000000000000004002000990DBDB1BDC97CD4CEE0040000000128040000000000000001680020000000F800DC01C807F7FD2C04500000000000000004002000990DBDB1BDC97CD
310
4D6E0040000000128040000000000000001680020000000F800D001C807F7FD2C04500000000000000004002000990DBDB1BDC97CD4CAE0040000000128040000000000000001680020000000F800A001C807F7FD2C04500000000000000004002000990DBDB1BDC97CD0C2E00400000001280400000000000000016800200
310
00000F800A401C807F7FD2C04500000000000000004002000990DBDB1BDC97CD0C6E0040000000128040000000000000001680020000000F800AC01C807F7FD2C04500000000000000004002000990DBDB1BDC97CD0CEE0040000000128040000000000000001680020000000F800A801C807F7FD2C0450000000000000000
310
4002000990DBDB1BDC97CD0CAE0040000000128040000000000000001680020000000F800B001C807F7FD2C04500000000000000004002000990DBDB1BDC97CD0D2E0040000000128040000000000000001680020000000F800B801C807F7FD2C04500000000000000004002000990DBDB1BDC97CD0DAE0040000000128040
310
000000000000001680020000000F800B401C807F7FD2C04500000000000000004002000990DBDB1BDC97CD0D6E0040000000128040000000000000001680020000000F800BC01C807F7FD2C04500000000000000004002000990DBDB1BDC97CD0DEE0040000000128040000000000000001680020000000F800E001C807F7F
310
D2C04500000000000000004002000990DBDB1BDC97CD4DAE0040000000128040000000000000001680020000000F8000C01C807F7FD2C04500000000000000004001C00990DBDB1BDC97CCEE0040000000128040000000000000001680020000000F800F001C807F7FD2C04500000000000000004002000990DBDB1BDC97CD
310
8C2E0040000000128040000000000000001680020000000F8014001C807F7FD2C04500000000000000004002000990DBDB1BDC97CE0C2E0040000000128040000000000000001680020000000F8019001C807F7FD2C04500000000000000004002400990DBDB1BDC97CC4C0C2E004000000012804000000000000000168002
310
0000000F800F401C807F7FD2C04500000000000000004002000990DBDB1BDC97CD8C6E0040000000128040000000000000001680020000000F8014401C807F7FD2C04500000000000000004002000990DBDB1BDC97CE0C6E0040000000128040000000000000001680020000000F8019401C807F7FD2C04500000000000000
310
004002400990DBDB1BDC97CC4C0C6E0040000000128040000000000000001680020000000F800FC01C807F7FD2C04500000000000000004002000990DBDB1BDC97CD8CEE0040000000128040000000000000001680020000000F8017401C807F7FD2C04500000000000000004002000990DBDB1BDC97CE4CEE004000000012
310
8040000000000000001680020000000F8012C01C807F7FD2C04500000000000000004002000990DBDB1BDC97CDCD6E0040000000128040000000000000001680020000000F801A401C807F7FD2C04500000000000000004002400990DBDB1BDC97CC4C0D6E0040000000128040000000000000001680020000000F8012801C
310
807F7FD2C04500000000000000004002000990DBDB1BDC97CDCD2E0040000000128040000000000000001680020000000F801A801C807F7FD2C04500000000000000004002400990DBDB1BDC97CC4C0DAE0040000000128040000000000000001680020000000F8001001C807F7FD2C04500000000000000004001C00990DB
310
DB1BDC97CD2E0040000000128040000000000000001680020000000F8021001C807F7FD2C04500000000000000004002400990DBDB1BDC97CC4CCCAE0040000000128040000000000000001680020000000F8022001C807F7FD2C04500000000000000004002400990DBDB1BDC97CC4CCDAE00400000001280400000000000
310
00001680020000000F8023001C807F7FD2C04500000000000000004002400990DBDB1BDC97CC4D0C2E0040000000128040000000000000001680020000000F8023801C807F7FD2C04500000000000000004002400990DBDB1BDC97CC4D0CAE0040000000128040000000000000001680020000000F8024001C807F7FD2C045
310
00000000000000004002400990DBDB1BDC97CC4D0D2E0040000000128040000000000000001680020000000F801EC01C807F7FD2C04500000000000000004002400990DBDB1BDC97CC4C8CEE0040000000128040000000000000001680020000000F8021C01C807F7FD2C04500000000000000004002400990DBDB1BDC97CC
310
4CCD6E0040000000128040000000000000001680020000000F8025C01C807F7FD2C04500000000000000004002400990DBDB1BDC97CC4D4C6E0040000000128040000000000000001680020000000F8028401C807F7FD2C04500000000000000004002400990DBDB1BDC97CC4D8C6E00400000001280400000000000000016
310
80020000000F8026001C807F7FD2C04500000000000000004002400990DBDB1BDC97CC4D4CAE0040000000128040000000000000001680020000000F8001401C807F7FD2C04500000000000000004001C00990DBDB1BDC97CD6E0040000000128040000000000000001680020000000F803F001C807F7FD2C0450000000000
310
0000004002400990DBDB1BDC97CC8D4CAE0040000000128040000000000000001680020000000F8001C01C807F7FD2C04500000000000000004001C00990DBDB1BDC97CDEE0040000000128040000000000000001680020000000F8001C01C80478012C045000000000000000040010009A41197CDEE004000000012804000
310
0000000000001680020000000F8001C01C80478012C045000000000000000040010009A41197CDEE004000000000
  0
DICTIONARY
  5
A42BF
330
16F60
100
AcDbDictionary
  3
ACAD_XREC_ROUNDTRIP
360
A42C0
1001
ACAD
1000
TREAT_AS_HARD
1070
     1
  0
DICTIONARY
  5
A42C1
330
16F58
100
AcDbDictionary
  3
ACAD_XREC_ROUNDTRIP
360
A42C2
1001
ACAD
1000
TREAT_AS_HARD
1070
     1
  0
DICTIONARY
  5
A42C3
330
16F68
100
AcDbDictionary
  3
ACAD_XREC_ROUNDTRIP
360
A42C4
1001
ACAD
1000
TREAT_AS_HARD
1070
     1
  0
XRECORD
  5
A42C0
102
{ACAD_REACTORS
330
A42BF
102
}
330
A42BF
100
AcDbXrecord
102
MATERIAL
148
0.0
149
0.0
149
0.0
 93
        0
 94
      127
282
     0
 72
     0
 77
     0
171
     0
175
     0
179
     0
273
     0
  0
XRECORD
  5
A42C2
102
{ACAD_REACTORS
330
A42C1
102
}
330
A42C1
100
AcDbXrecord
102
MATERIAL
148
0.0
149
0.0
149
0.0
 93
        0
 94
      127
282
     0
 72
     0
 77
     0
171
     0
175
     0
179
     0
273
     0
  0
XRECORD
  5
A42C4
102
{ACAD_REACTORS
330
A42C3
102
}
330
A42C3
100
AcDbXrecord
102
MATERIAL
148
0.0
149
0.0
149
0.0
 93
        0
 94
      127
282
     0
 72
     0
 77
     0
171
     0
175
     0
179
     0
273
     0
  0
ENDSEC
  0
EOF
