  0
SECTION
  2
HEADER
  9
$ACADVER
  1
AC1012
  9
$DWGCODEPAGE
  3
ansi_932
  9
$INSBASE
 10
0.0
 20
0.0
 30
0.0
  9
$EXTMIN
 10
-104.8260078138539
 20
-65.99642663674108
 30
0.0
  9
$EXTMAX
 10
72.59395866281996
 20
101.2493115782399
 30
0.0
  9
$LIMMIN
 10
0.0
 20
0.0
  9
$LIMMAX
 10
420.0
 20
297.0
  9
$ORTHOMODE
 70
     0
  9
$REGENMODE
 70
     1
  9
$FILLMODE
 70
     1
  9
$QTEXTMODE
 70
     0
  9
$MIRRTEXT
 70
     0
  9
$DRAGMODE
 70
     2
  9
$LTSCALE
 40
0.5
  9
$OSMODE
 70
  2351
  9
$ATTMODE
 70
     1
  9
$TEXTSIZE
 40
4.0
  9
$TRACEWID
 40
1.0
  9
$TEXTSTYLE
  7
STANDARD
  9
$CLAYER
  8
1TEXT
  9
$CELTYPE
  6
BYLAYER
  9
$CECOLOR
 62
   256
  9
$CELTSCALE
 40
1.0
  9
$DELOBJ
 70
     1
  9
$DISPSILH
 70
     0
  9
$DIMSCALE
 40
1.0
  9
$DIMASZ
 40
2.0
  9
$DIMEXO
 40
0.0
  9
$DIMDLI
 40
7.0
  9
$DIMRND
 40
0.0
  9
$DIMDLE
 40
0.0
  9
$DIMEXE
 40
1.0
  9
$DIMTP
 40
0.0
  9
$DIMTM
 40
0.0
  9
$DIMTXT
 40
3.5
  9
$DIMCEN
 40
0.0
  9
$DIMTSZ
 40
0.0
  9
$DIMTOL
 70
     0
  9
$DIMLIM
 70
     0
  9
$DIMTIH
 70
     0
  9
$DIMTOH
 70
     0
  9
$DIMSE1
 70
     0
  9
$DIMSE2
 70
     0
  9
$DIMTAD
 70
     1
  9
$DIMZIN
 70
     8
  9
$DIMBLK
  1

  9
$DIMASO
 70
     1
  9
$DIMSHO
 70
     1
  9
$DIMPOST
  1
 
  9
$DIMAPOST
  1

  9
$DIMALT
 70
     0
  9
$DIMALTD
 70
     2
  9
$DIMALTF
 40
25.4
  9
$DIMLFAC
 40
1.0
  9
$DIMTOFL
 70
     1
  9
$DIMTVP
 40
0.0
  9
$DIMTIX
 70
     0
  9
$DIMSOXD
 70
     0
  9
$DIMSAH
 70
     1
  9
$DIMBLK1
  1
OPEN30
  9
$DIMBLK2
  1
OPEN30
  9
$DIMSTYLE
  2
NEWX10
  9
$DIMCLRD
 70
   256
  9
$DIMCLRE
 70
   256
  9
$DIMCLRT
 70
   201
  9
$DIMTFAC
 40
0.7
  9
$DIMGAP
 40
0.7
  9
$DIMJUST
 70
     0
  9
$DIMSD1
 70
     0
  9
$DIMSD2
 70
     0
  9
$DIMTOLJ
 70
     1
  9
$DIMTZIN
 70
     8
  9
$DIMALTZ
 70
     0
  9
$DIMALTTZ
 70
     0
  9
$DIMFIT
 70
     3
  9
$DIMUPT
 70
     0
  9
$DIMUNIT
 70
     2
  9
$DIMDEC
 70
     2
  9
$DIMTDEC
 70
     4
  9
$DIMALTU
 70
     2
  9
$DIMALTTD
 70
     2
  9
$DIMTXSTY
  7
STANDARD
  9
$DIMAUNIT
 70
     0
  9
$LUNITS
 70
     2
  9
$LUPREC
 70
     4
  9
$SKETCHINC
 40
1.0
  9
$FILLETRAD
 40
0.0
  9
$AUNITS
 70
     0
  9
$AUPREC
 70
     2
  9
$MENU
  1
acad
  9
$ELEVATION
 40
0.0
  9
$PELEVATION
 40
0.0
  9
$THICKNESS
 40
0.0
  9
$LIMCHECK
 70
     0
  9
$CHAMFERA
 40
2.0
  9
$CHAMFERB
 40
2.0
  9
$CHAMFERC
 40
20.0
  9
$CHAMFERD
 40
0.0
  9
$SKPOLY
 70
     0
  9
$TDCREATE
 40
2451027.627421285
  9
$TDUPDATE
 40
2458080.771361377
  9
$TDINDWG
 40
12.1116786458
  9
$TDUSRTIMER
 40
12.1116782639
  9
$USRTIMER
 70
     1
  9
$ANGBASE
 50
0.0
  9
$ANGDIR
 70
     0
  9
$PDMODE
 70
     0
  9
$PDSIZE
 40
0.0
  9
$PLINEWID
 40
0.0
  9
$COORDS
 70
     3
  9
$SPLFRAME
 70
     0
  9
$SPLINETYPE
 70
     6
  9
$SPLINESEGS
 70
     8
  9
$ATTDIA
 70
     0
  9
$ATTREQ
 70
     1
  9
$HANDLING
 70
     1
  9
$HANDSEED
  5
A400B
  9
$SURFTAB1
 70
     6
  9
$SURFTAB2
 70
     6
  9
$SURFTYPE
 70
     6
  9
$SURFU
 70
     6
  9
$SURFV
 70
     6
  9
$UCSNAME
  2

  9
$UCSORG
 10
0.0
 20
0.0
 30
0.0
  9
$UCSXDIR
 10
1.0
 20
0.0
 30
0.0
  9
$UCSYDIR
 10
0.0
 20
1.0
 30
0.0
  9
$PUCSNAME
  2

  9
$PUCSORG
 10
0.0
 20
0.0
 30
0.0
  9
$PUCSXDIR
 10
1.0
 20
0.0
 30
0.0
  9
$PUCSYDIR
 10
0.0
 20
1.0
 30
0.0
  9
$USERI1
 70
     0
  9
$USERI2
 70
     0
  9
$USERI3
 70
     0
  9
$USERI4
 70
     0
  9
$USERI5
 70
     0
  9
$USERR1
 40
0.0
  9
$USERR2
 40
0.0
  9
$USERR3
 40
0.0
  9
$USERR4
 40
0.0
  9
$USERR5
 40
4.5
  9
$WORLDVIEW
 70
     1
  9
$SHADEDGE
 70
     1
  9
$SHADEDIF
 70
    70
  9
$TILEMODE
 70
     1
  9
$MAXACTVP
 70
    48
  9
$PINSBASE
 10
0.0
 20
0.0
 30
0.0
  9
$PLIMCHECK
 70
     0
  9
$PEXTMIN
 10
1.000000000000000E+20
 20
1.000000000000000E+20
 30
1.000000000000000E+20
  9
$PEXTMAX
 10
-1.000000000000000E+20
 20
-1.000000000000000E+20
 30
-1.000000000000000E+20
  9
$PLIMMIN
 10
-20.0
 20
-7.5
  9
$PLIMMAX
 10
277.0
 20
202.5
  9
$UNITMODE
 70
     0
  9
$VISRETAIN
 70
     1
  9
$PLINEGEN
 70
     0
  9
$PSLTSCALE
 70
     1
  9
$TREEDEPTH
 70
  3020
  9
$PICKSTYLE
 70
     1
  9
$CMLSTYLE
  2
STANDARD
  9
$CMLJUST
 70
     0
  9
$CMLSCALE
 40
20.0
  9
$SAVEIMAGES
 70
     1
  0
ENDSEC
  0
SECTION
  2
CLASSES
  0
CLASS
  1
IDBUFFER
  2
AcDbIdBuffer
  3
ObjectDBX Classes
 90
    32768
280
     0
281
     0
  0
CLASS
  1
DICTIONARYVAR
  2
AcDbDictionaryVar
  3
ObjectDBX Classes
 90
        0
280
     0
281
     0
  0
CLASS
  1
ACDBDICTIONARYWDFLT
  2
AcDbDictionaryWithDefault
  3
ObjectDBX Classes
 90
    32768
280
     0
281
     0
  0
CLASS
  1
TABLESTYLE
  2
AcDbTableStyle
  3
ObjectDBX Classes
 90
     4095
280
     0
281
     0
  0
CLASS
  1
ACDBPLACEHOLDER
  2
AcDbPlaceHolder
  3
ObjectDBX Classes
 90
        0
280
     0
281
     0
  0
CLASS
  1
LAYOUT
  2
AcDbLayout
  3
ObjectDBX Classes
 90
        0
280
     0
281
     0
  0
CLASS
  1
SORTENTSTABLE
  2
AcDbSortentsTable
  3
ObjectDBX Classes
 90
    32768
280
     0
281
     0
  0
CLASS
  1
DIMASSOC
  2
AcDbDimAssoc
  3
"AcDbDimAssoc|Product Desc:     AcDim ARX App For Dimension|Company:          Autodesk, Inc.|WEB Address:      www.autodesk.com"
 90
        0
280
     0
281
     0
  0
CLASS
  1
MATERIAL
  2
AcDbMaterial
  3
ObjectDBX Classes
 90
     1153
280
     0
281
     0
  0
CLASS
  1
VISUALSTYLE
  2
AcDbVisualStyle
  3
ObjectDBX Classes
 90
     4095
280
     0
281
     0
  0
CLASS
  1
SCALE
  2
AcDbScale
  3
ObjectDBX Classes
 90
     1153
280
     0
281
     0
  0
CLASS
  1
MLEADERSTYLE
  2
AcDbMLeaderStyle
  3
ACDB_MLEADERSTYLE_CLASS
 90
     4095
280
     0
281
     0
  0
CLASS
  1
CELLSTYLEMAP
  2
AcDbCellStyleMap
  3
ObjectDBX Classes
 90
     1152
280
     0
281
     0
  0
CLASS
  1
ACAD_EVALUATION_GRAPH
  2
AcDbEvalGraph
  3
ObjectDBX Classes
 90
     1153
280
     0
281
     0
  0
CLASS
  1
BLOCKLINEARPARAMETER
  2
AcDbBlockLinearParameter
  3
ObjectDBX Classes
 90
     1153
280
     0
281
     0
  0
CLASS
  1
BLOCKLINEARGRIP
  2
AcDbBlockLinearGrip
  3
ObjectDBX Classes
 90
     1153
280
     0
281
     0
  0
CLASS
  1
BLOCKGRIPLOCATIONCOMPONENT
  2
AcDbBlockGripExpr
  3
ObjectDBX Classes
 90
     1153
280
     0
281
     0
  0
CLASS
  1
BLOCKSTRETCHACTION
  2
AcDbBlockStretchAction
  3
ObjectDBX Classes
 90
     1153
280
     0
281
     0
  0
CLASS
  1
ACDB_DYNAMICBLOCKPURGEPREVENTER_VERSION
  2
AcDbDynamicBlockPurgePreventer
  3
ObjectDBX Classes
 90
     1153
280
     0
281
     0
  0
CLASS
  1
ACDB_BLOCKREPRESENTATION_DATA
  2
AcDbBlockRepresentationData
  3
ObjectDBX Classes
 90
     1153
280
     0
281
     0
  0
CLASS
  1
ACAECUSTOBJ
  2
AcAeEditorObj
  3
AcAeEditorObj
 90
   -31744
280
     1
281
     0
  0
CLASS
  1
LINEARPARAMETERENTITY
  2
AcDbBlockLinearParameterEntity
  3
ObjectDBX Classes
 90
   -31743
280
     1
281
     1
  0
CLASS
  1
ACAEEEMGROBJ
  2
AcAeEEMgrObj
  3
AcAeEEMgrObj
 90
   -31744
280
     1
281
     0
  0
CLASS
  1
LINEARGRIPENTITY
  2
AcDbBlockLinearGripEntity
  3
ObjectDBX Classes
 90
   -31743
280
     1
281
     1
  0
CLASS
  1
STRETCHACTIONENTITY
  2
AcDbBlockStretchActionEntity
  3
ObjectDBX Classes
 90
   -31743
280
     1
281
     1
  0
CLASS
  1
AEC_REFEDIT_STATUS_TRACKER
  2
AecDbRefEditStatusTracker
  3
AecArchBase60|Product Desc: Autodesk Architectural Desktop 2007 |Company: Autodesk,Inc. |WEB Address: www.autodesk.com
 90
   -32639
280
     1
281
     0
  0
CLASS
  1
NPOCOLLECTION
  2
AcDbImpNonPersistentObjectsCollection
  3
ObjectDBX Classes
 90
   -31615
280
     1
281
     0
  0
CLASS
  1
SOLID_BACKGROUND
  2
AcDbSolidBackground
  3
SCENEOE
 90
     4095
280
     0
281
     0
  0
CLASS
  1
IMAGE
  2
AcDbRasterImage
  3
ISM
 90
    32895
280
     0
281
     1
  0
CLASS
  1
IMAGEDEF_REACTOR
  2
AcDbRasterImageDefReactor
  3
ISM
 90
    32769
280
     0
281
     0
  0
CLASS
  1
IMAGEDEF
  2
AcDbRasterImageDef
  3
ISM
 90
    32768
280
     0
281
     0
  0
CLASS
  1
RASTERVARIABLES
  2
AcDbRasterVariables
  3
ISM
 90
    32768
280
     0
281
     0
  0
CLASS
  1
SUN
  2
AcDbSun
  3
SCENEOE
 90
     1153
280
     0
281
     0
  0
CLASS
  1
FIELD
  2
AcDbField
  3
ObjectDBX Classes
 90
     1152
280
     0
281
     0
  0
CLASS
  1
FIELDLIST
  2
AcDbFieldList
  3
ObjectDBX Classes
 90
     1152
280
     0
281
     0
  0
CLASS
  1

  2
CaLongTransaction
  3

 90
        0
280
     0
281
     0
  0
CLASS
  1
ACDB_BLKREFOBJECTCONTEXTDATA_CLASS
  2
AcDbBlkRefObjectContextData
  3
ObjectDBX Classes
 90
     1153
280
     0
281
     0
  0
CLASS
  1
MULTILEADER
  2
AcDbMLeader
  3
ACDB_MLEADER_CLASS
 90
     1025
280
     0
281
     1
  0
CLASS
  1
ACDB_MLEADEROBJECTCONTEXTDATA_CLASS
  2
AcDbMLeaderObjectContextData
  3
ObjectDBX Classes
 90
     1153
280
     0
281
     0
  0
CLASS
  1
ACDB_ALDIMOBJECTCONTEXTDATA_CLASS
  2
AcDbAlignedDimensionObjectContextData
  3
ObjectDBX Classes
 90
     1153
280
     0
281
     0
  0
CLASS
  1
MENTALRAYRENDERSETTINGS
  2
AcDbMentalRayRenderSettings
  3
SCENEOE
 90
     1024
280
     0
281
     0
  0
CLASS
  1
BLOCKVISIBILITYPARAMETER
  2
AcDbBlockVisibilityParameter
  3
ObjectDBX Classes
 90
     1153
280
     0
281
     0
  0
CLASS
  1
BLOCKVISIBILITYGRIP
  2
AcDbBlockVisibilityGrip
  3
ObjectDBX Classes
 90
     1153
280
     0
281
     0
  0
CLASS
  1
XRECORD
  2
AcDbXrecord
  3
ObjectDBX Classes
 90
    32768
280
     0
281
     0
  0
CLASS
  1
LWPOLYLINE
  2
AcDbPolyline
  3
ObjectDBX Classes
 90
    32768
280
     0
281
     1
  0
CLASS
  1
HATCH
  2
AcDbHatch
  3
ObjectDBX Classes
 90
    32768
280
     0
281
     1
  0
ENDSEC
  0
SECTION
  2
TABLES
  0
TABLE
  2
VPORT
  5
8
330
0
100
AcDbSymbolTable
 70
     1
  0
VPORT
  5
585BF
330
8
100
AcDbSymbolTableRecord
100
AcDbViewportTableRecord
  2
*ACTIVE
 70
     0
 10
0.0
 20
0.0
 11
1.0
 21
1.0
 12
-11077.77656957552
 22
-7468.95720652925
 13
0.0
 23
0.0
 14
10.0
 24
10.0
 15
10.0
 25
10.0
 16
0.0
 26
0.0
 36
1.0
 17
11061.660545
 27
7486.583649
 37
474.311593
 40
179.5691083992428
 41
2.122931442080378
 42
50.0
 43
0.0
 44
0.0
 50
0.0
 51
0.0
 71
    16
 72
  1000
 73
     1
 74
     1
 75
     0
 76
     0
 77
     0
 78
     0
1001
ACAD_NAV_VCDISPLAY
1070
     3
  0
ENDTAB
  0
TABLE
  2
LTYPE
  5
5
330
0
100
AcDbSymbolTable
 70
     3
  0
LTYPE
  5
12
330
5
100
AcDbSymbolTableRecord
100
AcDbLinetypeTableRecord
  2
BYBLOCK
 70
     0
  3

 72
    65
 73
     0
 40
0.0
  0
LTYPE
  5
13
330
5
100
AcDbSymbolTableRecord
100
AcDbLinetypeTableRecord
  2
BYLAYER
 70
     0
  3

 72
    65
 73
     0
 40
0.0
  0
LTYPE
  5
14
330
5
100
AcDbSymbolTableRecord
100
AcDbLinetypeTableRecord
  2
CONTINUOUS
 70
     0
  3
Solid line
 72
    65
 73
     0
 40
0.0
  0
LTYPE
  5
7E6BF
330
5
100
AcDbSymbolTableRecord
100
AcDbLinetypeTableRecord
  2
PHANTOM2
 70
     0
  3
Phantom (0.5x) ___ _ _ ___ _ _ ___ _ _ ___ _ _
 72
    65
 73
     6
 40
31.75
 49
15.875
 74
     0
 49
-3.175
 74
     0
 49
3.175
 74
     0
 49
-3.175
 74
     0
 49
3.175
 74
     0
 49
-3.175
 74
     0
  0
LTYPE
  5
A3CCA
330
5
100
AcDbSymbolTableRecord
100
AcDbLinetypeTableRecord
  2
CENTER2
 70
     0
  3
Center (.5x) ___ _ ___ _ ___ _ ___ _ ___ _ ___
 72
    65
 73
     4
 40
28.575
 49
19.05
 74
     0
 49
-3.175
 74
     0
 49
3.175
 74
     0
 49
-3.175
 74
     0
  0
ENDTAB
  0
TABLE
  2
LAYER
  5
2
102
{ACAD_XDICTIONARY
360
14879
102
}
330
0
100
AcDbSymbolTable
 70
     7
  0
LAYER
  5
E
102
{ACAD_XDICTIONARY
360
16FBC
102
}
330
2
100
AcDbSymbolTableRecord
100
AcDbLayerTableRecord
  2
0
 70
     0
 62
     7
  6
CONTINUOUS
  0
LAYER
  5
7CF1A
330
2
100
AcDbSymbolTableRecord
100
AcDbLayerTableRecord
  2
1CENTER
 70
     0
 62
     7
  6
CENTER2
  0
LAYER
  5
7CF1D
330
2
100
AcDbSymbolTableRecord
100
AcDbLayerTableRecord
  2
1DIM
 70
     0
 62
     7
  6
CONTINUOUS
  0
LAYER
  5
7CF54
330
2
100
AcDbSymbolTableRecord
100
AcDbLayerTableRecord
  2
1TEXT
 70
     0
 62
     7
  6
CONTINUOUS
  0
LAYER
  5
7E6CA
330
2
100
AcDbSymbolTableRecord
100
AcDbLayerTableRecord
  2
1PHANTOM
 70
     0
 62
     7
  6
PHANTOM2
  0
LAYER
  5
A394F
330
2
100
AcDbSymbolTableRecord
100
AcDbLayerTableRecord
  2
1HATCH
 70
     0
 62
     7
  6
CONTINUOUS
  0
LAYER
  5
A3D10
330
2
100
AcDbSymbolTableRecord
100
AcDbLayerTableRecord
  2
01
 70
     0
 62
     1
  6
CONTINUOUS
  0
ENDTAB
  0
TABLE
  2
STYLE
  5
3
330
0
100
AcDbSymbolTable
 70
     1
  0
STYLE
  5
F
330
3
100
AcDbSymbolTableRecord
100
AcDbTextStyleTableRecord
  2
STANDARD
 70
     0
 40
0.0
 41
1.0
 50
0.0
 71
     0
 42
4.0
  3
txt.shx
  4
extfont.shx
  0
ENDTAB
  0
TABLE
  2
VIEW
  5
6
330
0
100
AcDbSymbolTable
 70
     0
  0
ENDTAB
  0
TABLE
  2
UCS
  5
7
330
0
100
AcDbSymbolTable
 70
     5
  0
UCS
  5
150E1
330
7
100
AcDbSymbolTableRecord
100
AcDbUCSTableRecord
  2
U
 70
     0
 10
0.0
 20
0.0
 30
0.0
 11
1.0
 21
0.0
 31
0.0
 12
0.0
 22
2.220446049250313E-16
 32
1.0
 79
     0
146
0.0
  0
UCS
  5
150E2
330
7
100
AcDbSymbolTableRecord
100
AcDbUCSTableRecord
  2
L
 70
     0
 10
0.0
 20
0.0
 30
0.0
 11
-2.220446049250313E-16
 21
-1.0
 31
2.220446049250313E-16
 12
0.0
 22
2.220446049250313E-16
 32
1.0
 79
     0
146
0.0
  0
UCS
  5
150E3
330
7
100
AcDbSymbolTableRecord
100
AcDbUCSTableRecord
  2
R
 70
     0
 10
0.0
 20
0.0
 30
0.0
 11
3.445092848397667E-16
 21
1.0
 31
-2.220446049250313E-16
 12
0.0
 22
2.220446049250313E-16
 32
1.0
 79
     0
146
0.0
  0
UCS
  5
150E4
330
7
100
AcDbSymbolTableRecord
100
AcDbUCSTableRecord
  2
ISOME
 70
     0
 10
0.0
 20
0.0
 30
0.0
 11
0.7071450863198265
 21
-0.7070684729403536
 31
-3.830824619466267E-5
 12
0.4082704059428734
 22
0.4082704077401151
 32
0.8164744636514736
 79
     0
146
0.0
  0
UCS
  5
150E5
330
7
100
AcDbSymbolTableRecord
100
AcDbUCSTableRecord
  2
PERSPECTIVE
 70
     0
 10
0.0
 20
0.0
 30
0.0
 11
0.8191477691768964
 21
-0.5735823260466403
 31
-0.0004974931557765462
 12
0.1584844715982971
 22
0.225502028986108
 32
0.961265575782966
 79
     0
146
0.0
  0
ENDTAB
  0
TABLE
  2
APPID
  5
9
330
0
100
AcDbSymbolTable
 70
    32
  0
APPID
  5
10
330
9
100
AcDbSymbolTableRecord
100
AcDbRegAppTableRecord
  2
ACAD
 70
     0
  0
APPID
  5
39
330
9
100
AcDbSymbolTableRecord
100
AcDbRegAppTableRecord
  2
CONTENTTABDATA
 70
     0
  0
APPID
  5
3A
330
9
100
AcDbSymbolTableRecord
100
AcDbRegAppTableRecord
  2
CONTENTCURRENTTAB
 70
     0
  0
APPID
  5
3B
330
9
100
AcDbSymbolTableRecord
100
AcDbRegAppTableRecord
  2
CONTENTBLOCKICON
 70
     0
  0
APPID
  5
3C
330
9
100
AcDbSymbolTableRecord
100
AcDbRegAppTableRecord
  2
CONTENTBLOCKDESCRIPTION
 70
     0
  0
APPID
  5
5FA
330
9
100
AcDbSymbolTableRecord
100
AcDbRegAppTableRecord
  2
DRAWINGVARIABLESXDATA
 70
     0
  0
APPID
  5
6DE
330
9
100
AcDbSymbolTableRecord
100
AcDbRegAppTableRecord
  2
CONTENTLONGBLOCKNAME
 70
     0
  0
APPID
  5
1419A
330
9
100
AcDbSymbolTableRecord
100
AcDbRegAppTableRecord
  2
ACAD_PSEXT
 70
     0
  0
APPID
  5
16FA5
330
9
100
AcDbSymbolTableRecord
100
AcDbRegAppTableRecord
  2
ACAD_MLEADERVER
 70
     0
  0
APPID
  5
1786D
330
9
100
AcDbSymbolTableRecord
100
AcDbRegAppTableRecord
  2
ACAD_DSTYLE_DIMRADIAL_EXTE
 70
     0
  0
APPID
  5
194E7
330
9
100
AcDbSymbolTableRecord
100
AcDbRegAppTableRecord
  2
ACDBBLOCKREPETAG
 70
     0
  0
APPID
  5
194EE
330
9
100
AcDbSymbolTableRecord
100
AcDbRegAppTableRecord
  2
ACDBDYNAMICBLOCKTRUENAME
 70
     0
  0
APPID
  5
194EF
330
9
100
AcDbSymbolTableRecord
100
AcDbRegAppTableRecord
  2
ACDBDYNAMICBLOCKGUID
 70
     0
  0
APPID
  5
1955B
330
9
100
AcDbSymbolTableRecord
100
AcDbRegAppTableRecord
  2
ACDBBLOCKREPBTAG
 70
     0
  0
APPID
  5
1A99A
330
9
100
AcDbSymbolTableRecord
100
AcDbRegAppTableRecord
  2
ACADANNOTATIVE
 70
     0
  0
APPID
  5
1C397
330
9
100
AcDbSymbolTableRecord
100
AcDbRegAppTableRecord
  2
ACAUTHENVIRON
 70
     0
  0
APPID
  5
1C3F8
330
9
100
AcDbSymbolTableRecord
100
AcDbRegAppTableRecord
  2
ACADANNOPO
 70
     0
  0
APPID
  5
1E7E9
330
9
100
AcDbSymbolTableRecord
100
AcDbRegAppTableRecord
  2
ACLAYERTOOLS
 70
     0
  0
APPID
  5
25D98
330
9
100
AcDbSymbolTableRecord
100
AcDbRegAppTableRecord
  2
ACAD_EXEMPT_FROM_CAD_STAND
 70
     0
  0
APPID
  5
2992E
330
9
100
AcDbSymbolTableRecord
100
AcDbRegAppTableRecord
  2
ACAECLAYERSTANDARD
 70
     0
  0
APPID
  5
2992F
330
9
100
AcDbSymbolTableRecord
100
AcDbRegAppTableRecord
  2
ACAD_DSTYLE_DIMJOGGED_JOGA
 70
     0
  0
APPID
  5
2CC96
330
9
100
AcDbSymbolTableRecord
100
AcDbRegAppTableRecord
  2
ACAD_DSTYLE_DIM_LINETYPE
 70
     0
  0
APPID
  5
2CC97
330
9
100
AcDbSymbolTableRecord
100
AcDbRegAppTableRecord
  2
ACAD_DSTYLE_DIM_EXT1_LINET
 70
     0
  0
APPID
  5
2CC98
330
9
100
AcDbSymbolTableRecord
100
AcDbRegAppTableRecord
  2
ACAD_DSTYLE_DIM_EXT2_LINET
 70
     0
  0
APPID
  5
476E2
330
9
100
AcDbSymbolTableRecord
100
AcDbRegAppTableRecord
  2
ACAD_DIMASSOC_CALC_DIMLFAC
 70
     0
  0
APPID
  5
476E3
330
9
100
AcDbSymbolTableRecord
100
AcDbRegAppTableRecord
  2
ACAD_DIMASSOC_DIMLFAC
 70
     0
  0
APPID
  5
476E4
330
9
100
AcDbSymbolTableRecord
100
AcDbRegAppTableRecord
  2
ACAD_DIMASSOC_OVERRIDDEN_D
 70
     0
  0
APPID
  5
62D16
330
9
100
AcDbSymbolTableRecord
100
AcDbRegAppTableRecord
  2
ACAD_NAV_VCDISPLAY
 70
     0
  0
APPID
  5
6D82E
330
9
100
AcDbSymbolTableRecord
100
AcDbRegAppTableRecord
  2
ACAD_OBJECT_CHANGE_GUID
 70
     0
  0
APPID
  5
7E452
330
9
100
AcDbSymbolTableRecord
100
AcDbRegAppTableRecord
  2
ACADANNOTATIVEDECOMPOSITIO
 70
     0
  0
APPID
  5
7F000
330
9
100
AcDbSymbolTableRecord
100
AcDbRegAppTableRecord
  2
ACAD_DSTYLE_DIMJAG
 70
     0
  0
APPID
  5
7F001
330
9
100
AcDbSymbolTableRecord
100
AcDbRegAppTableRecord
  2
ACAD_DSTYLE_DIMTALN
 70
     0
  0
ENDTAB
  0
TABLE
  2
DIMSTYLE
  5
A
330
0
100
AcDbSymbolTable
 70
     1
  0
DIMSTYLE
105
49
330
A
100
AcDbSymbolTableRecord
100
AcDbDimStyleTableRecord
  2
NEWX10
 70
     0
  3
 
  4

  5

  6
OPEN30
  7
OPEN30
 40
1.0
 41
2.0
 42
0.0
 43
7.0
 44
1.0
 45
0.0
 46
0.0
 47
0.0
 48
0.0
140
3.5
141
0.0
142
0.0
143
25.4
144
1.0
145
0.0
146
0.7
147
0.7
 71
     0
 72
     0
 73
     0
 74
     0
 75
     0
 76
     0
 77
     1
 78
     8
170
     0
171
     2
172
     1
173
     1
174
     0
175
     0
176
   256
177
   256
178
   201
179
     1
270
     2
271
     2
272
     4
273
     2
274
     2
340
F
275
     0
280
     0
281
     0
282
     0
283
     1
284
     8
285
     0
286
     0
287
     3
288
     0
1001
ACADANNOTATIVE
1000
AnnotativeData
1002
{
1070
     1
1070
     0
1002
}
  0
ENDTAB
  0
TABLE
  2
BLOCK_RECORD
  5
1
330
0
100
AcDbSymbolTable
 70
     8
  0
BLOCK_RECORD
  5
18
102
{ACAD_XDICTIONARY
360
143BD
102
}
330
1
100
AcDbSymbolTableRecord
100
AcDbBlockTableRecord
  2
*MODEL_SPACE
  0
BLOCK_RECORD
  5
7DA16
102
{ACAD_XDICTIONARY
360
A337D
102
}
330
1
100
AcDbSymbolTableRecord
100
AcDbBlockTableRecord
  2
*PAPER_SPACE
  0
BLOCK_RECORD
  5
2EF
330
1
100
AcDbSymbolTableRecord
100
AcDbBlockTableRecord
  2
_OPEN30
  0
BLOCK_RECORD
  5
7CFD4
330
1
100
AcDbSymbolTableRecord
100
AcDbBlockTableRecord
  2
A3WAKUKAWAJUN2017_HYOUDAI_
  0
BLOCK_RECORD
  5
A3E6A
330
1
100
AcDbSymbolTableRecord
100
AcDbBlockTableRecord
  2
*X16
  0
BLOCK_RECORD
  5
A3EB8
330
1
100
AcDbSymbolTableRecord
100
AcDbBlockTableRecord
  2
*X17
  0
BLOCK_RECORD
  5
A3F0A
330
1
100
AcDbSymbolTableRecord
100
AcDbBlockTableRecord
  2
*X18
  0
BLOCK_RECORD
  5
A3F5B
330
1
100
AcDbSymbolTableRecord
100
AcDbBlockTableRecord
  2
*X19
  0
BLOCK_RECORD
  5
A3F98
330
1
100
AcDbSymbolTableRecord
100
AcDbBlockTableRecord
  2
*X20
  0
BLOCK_RECORD
  5
A3FD8
330
1
100
AcDbSymbolTableRecord
100
AcDbBlockTableRecord
  2
*X21
  0
ENDTAB
  0
ENDSEC
  0
SECTION
  2
BLOCKS
  0
BLOCK
  5
19
330
18
100
AcDbEntity
  8
0
100
AcDbBlockBegin
  2
*MODEL_SPACE
 70
     0
 10
0.0
 20
0.0
 30
0.0
  3
*MODEL_SPACE
  1

  0
ENDBLK
  5
1A
330
18
100
AcDbEntity
  8
0
100
AcDbBlockEnd
  0
BLOCK
  5
7DA18
330
7DA16
100
AcDbEntity
 67
     1
  8
0
100
AcDbBlockBegin
  2
*PAPER_SPACE
 70
     0
 10
0.0
 20
0.0
 30
0.0
  3
*PAPER_SPACE
  1

  0
ENDBLK
  5
7DA19
330
7DA16
100
AcDbEntity
 67
     1
  8
0
100
AcDbBlockEnd
  0
BLOCK
  5
2F0
330
2EF
100
AcDbEntity
  8
0
100
AcDbBlockBegin
  2
_OPEN30
 70
     0
 10
0.0
 20
0.0
 30
0.0
  3
_OPEN30
  1

  0
LINE
  5
2F1
330
2EF
100
AcDbEntity
  8
0
  6
BYBLOCK
 62
     0
100
AcDbLine
 10
-1.0
 20
0.267949
 30
0.0
 11
0.0
 21
0.0
 31
0.0
  0
LINE
  5
2F2
330
2EF
100
AcDbEntity
  8
0
  6
BYBLOCK
 62
     0
100
AcDbLine
 10
0.0
 20
0.0
 30
0.0
 11
-1.0
 21
-0.267949
 31
0.0
  0
LINE
  5
2F3
330
2EF
100
AcDbEntity
  8
0
  6
BYBLOCK
 62
     0
100
AcDbLine
 10
0.0
 20
0.0
 30
0.0
 11
-1.0
 21
0.0
 31
0.0
  0
ENDBLK
  5
2F4
330
2EF
100
AcDbEntity
  8
0
100
AcDbBlockEnd
  0
BLOCK
  5
9481F
330
7CFD4
100
AcDbEntity
  8
0
100
AcDbBlockBegin
  2
A3WAKUKAWAJUN2017_HYOUDAI_
 70
     0
 10
0.0
 20
0.0
 30
0.0
  3
A3WAKUKAWAJUN2017_HYOUDAI_
  1

  0
LINE
  5
940D1
330
7CFD4
100
AcDbEntity
  8
0
100
AcDbLine
 10
13.26299999998673
 20
-0.0001000000000317
 30
0.0
 11
9.236999999990758
 21
8.999899999990987
 31
0.0
1001
ACAD
1000
ASC_BOUNDS
1002
{
1070
    19
1005
94112
1002
}
  0
LINE
  5
940D2
330
7CFD4
100
AcDbEntity
  8
0
100
AcDbLine
 10
5.657999999994331
 20
0.9999999999989768
 30
0.0
 11
9.236999999990758
 21
8.999999999991019
 31
0.0
1001
ACAD
1000
ASC_BOUNDS
1002
{
1070
    19
1005
94112
1002
}
  0
LINE
  5
940D3
330
7CFD4
100
AcDbEntity
  8
0
100
AcDbLine
 10
18.59199999998134
 20
-0.2368999999997641
 30
0.0
 11
16.46099999998353
 21
5.432899999994561
 31
0.0
1001
ACAD
1000
ASC_BOUNDS
1002
{
1070
    19
1005
94113
1002
}
  0
LINE
  5
940D4
330
7CFD4
100
AcDbEntity
  8
0
100
AcDbLine
 10
18.59199999998134
 20
-0.2368999999997641
 30
0.0
 11
22.38199999997767
 21
8.763099999991255
 31
0.0
1001
ACAD
1000
ASC_BOUNDS
1002
{
1070
    19
1005
94113
1002
}
  0
LINE
  5
940D5
330
7CFD4
100
AcDbEntity
  8
0
100
AcDbLine
 10
14.32899999998563
 20
-0.2368999999997641
 30
0.0
 11
16.46099999998353
 21
5.432899999994561
 31
0.0
1001
ACAD
1000
ASC_BOUNDS
1002
{
1070
    19
1005
94113
1002
}
  0
LINE
  5
940D6
330
7CFD4
100
AcDbEntity
  8
0
100
AcDbLine
 10
14.32899999998563
 20
-0.2368999999997641
 30
0.0
 11
10.53899999998941
 21
8.763099999991255
 31
0.0
1001
ACAD
1000
ASC_BOUNDS
1002
{
1070
    19
1005
94113
1002
}
  0
LINE
  5
940D7
330
7CFD4
100
AcDbEntity
  8
0
100
AcDbLine
 10
19.53899999998043
 20
-0.0001000000000317
 30
0.0
 11
23.56599999997638
 21
8.999899999990987
 31
0.0
1001
ACAD
1000
ASC_BOUNDS
1002
{
1070
    19
1005
94114
1002
}
  0
LINE
  5
940D8
330
7CFD4
100
AcDbEntity
  8
0
100
AcDbLine
 10
26.97358892824991
 20
1.383099999991202
 30
0.0
 11
23.56599999997638
 21
8.999899999990987
 31
0.0
1001
ACAD
1000
ASC_BOUNDS
1002
{
1070
    19
1005
94114
1002
}
  0
LINE
  5
940D9
330
7CFD4
100
AcDbEntity
  8
0
100
AcDbLine
 10
5.657999999994331
 20
0.9999999999989768
 30
0.0
 11
3.181999999996833
 21
4.668599999995308
 31
0.0
1001
ACAD
1000
ASC_BOUNDS
1002
{
1070
    19
1005
94112
1002
}
  0
LINE
  5
940DA
330
7CFD4
100
AcDbEntity
  8
0
100
AcDbLine
 10
4.617999999995391
 20
-0.0001000000000317
 30
0.0
 11
1.420999999998571
 21
4.736799999995242
 31
0.0
1001
ACAD
1000
ASC_BOUNDS
1002
{
1070
    19
1005
94112
1002
}
  0
LINE
  5
940DB
330
7CFD4
100
AcDbEntity
  8
0
100
AcDbLine
 10
1.420999999998571
 20
8.763099999991255
 30
0.0
 11
1.420999999998571
 21
0.0
 31
0.0
1001
ACAD
1000
ASC_BOUNDS
1002
{
1070
    19
1005
94117
1002
}
  0
LINE
  5
940DC
330
7CFD4
100
AcDbEntity
  8
0
100
AcDbLine
 10
0.0
 20
8.763099999991255
 30
0.0
 11
0.0
 21
0.0
 31
0.0
1001
ACAD
1000
ASC_BOUNDS
1002
{
1070
    19
1005
94117
1002
}
  0
LINE
  5
940DD
330
7CFD4
100
AcDbEntity
  8
0
100
AcDbLine
 10
6.766999999993232
 20
-0.0001000000000317
 30
0.0
 11
7.826999999992154
 21
2.368399999997621
 31
0.0
1001
ACAD
1000
ASC_BOUNDS
1002
{
1070
    19
1005
94112
1002
}
  0
LINE
  5
940DE
330
7CFD4
100
AcDbEntity
  8
0
100
AcDbLine
 10
0.0
 20
0.0
 30
0.0
 11
1.420999999998571
 21
0.0
 31
0.0
1001
ACAD
1000
ASC_BOUNDS
1002
{
1070
    19
1005
94117
1002
}
  0
LINE
  5
940DF
330
7CFD4
100
AcDbEntity
  8
0
100
AcDbLine
 10
4.617999999995391
 20
0.0
 30
0.0
 11
6.766999999993232
 21
0.0
 31
0.0
1001
ACAD
1000
ASC_BOUNDS
1002
{
1070
    19
1005
94112
1002
}
  0
LINE
  5
940E0
330
7CFD4
100
AcDbEntity
  8
0
100
AcDbLine
 10
11.70599999998831
 20
-0.0001000000000317
 30
0.0
 11
10.64699999998936
 21
2.368399999997621
 31
0.0
1001
ACAD
1000
ASC_BOUNDS
1002
{
1070
    19
1005
94112
1002
}
  0
LINE
  5
940E1
330
7CFD4
100
AcDbEntity
  8
0
100
AcDbLine
 10
7.826999999992154
 20
2.368399999997621
 30
0.0
 11
10.64699999998936
 21
2.368399999997621
 31
0.0
1001
ACAD
1000
ASC_BOUNDS
1002
{
1070
    19
1005
94112
1002
}
  0
LINE
  5
940E2
330
7CFD4
100
AcDbEntity
  8
0
100
AcDbLine
 10
11.70599999998831
 20
0.0
 30
0.0
 11
13.26299999998673
 21
0.0
 31
0.0
1001
ACAD
1000
ASC_BOUNDS
1002
{
1070
    19
1005
94112
1002
}
  0
LINE
  5
940E3
330
7CFD4
100
AcDbEntity
  8
0
100
AcDbLine
 10
22.15599999997789
 20
2.368399999997621
 30
0.0
 11
24.97599999997499
 21
2.368399999997621
 31
0.0
1001
ACAD
1000
ASC_BOUNDS
1002
{
1070
    19
1005
94114
1002
}
  0
LINE
  5
940E4
330
7CFD4
100
AcDbEntity
  8
0
100
AcDbLine
 10
19.53899999998043
 20
0.0
 30
0.0
 11
21.09599999997886
 21
0.0
 31
0.0
1001
ACAD
1000
ASC_BOUNDS
1002
{
1070
    19
1005
94114
1002
}
  0
LINE
  5
940E5
330
7CFD4
100
AcDbEntity
  8
0
100
AcDbLine
 10
21.09599999997886
 20
-0.0001000000000317
 30
0.0
 11
22.15599999997789
 21
2.368399999997621
 31
0.0
1001
ACAD
1000
ASC_BOUNDS
1002
{
1070
    19
1005
94114
1002
}
  0
LINE
  5
940E6
330
7CFD4
100
AcDbEntity
  8
0
100
AcDbLine
 10
26.02015566812236
 20
0.0330999999912365
 30
0.0
 11
24.97599999997499
 21
2.368399999997621
 31
0.0
1001
ACAD
1000
ASC_BOUNDS
1002
{
1070
    19
1005
94114
1002
}
  0
LINE
  5
940E7
330
7CFD4
100
AcDbEntity
  8
0
100
AcDbLine
 10
14.32399999998563
 20
3.315799999996671
 30
0.0
 11
16.46099999998353
 21
8.999899999990987
 31
0.0
1001
ACAD
1000
ASC_BOUNDS
1002
{
1070
    19
1005
94113
1002
}
  0
LINE
  5
940E8
330
7CFD4
100
AcDbEntity
  8
0
100
AcDbLine
 10
6.432999999993513
 20
8.763099999991255
 30
0.0
 11
3.181999999996833
 21
4.668599999995308
 31
0.0
1001
ACAD
1000
ASC_BOUNDS
1002
{
1070
    19
1005
94112
1002
}
  0
LINE
  5
940E9
330
7CFD4
100
AcDbEntity
  8
0
100
AcDbLine
 10
4.617999999995391
 20
8.763099999991255
 30
0.0
 11
1.420999999998571
 21
4.736799999995242
 31
0.0
1001
ACAD
1000
ASC_BOUNDS
1002
{
1070
    19
1005
94112
1002
}
  0
LINE
  5
940EA
330
7CFD4
100
AcDbEntity
  8
0
100
AcDbLine
 10
0.0
 20
8.763099999991255
 30
0.0
 11
1.420999999998571
 21
8.763099999991255
 31
0.0
1001
ACAD
1000
ASC_BOUNDS
1002
{
1070
    19
1005
94117
1002
}
  0
LINE
  5
940EB
330
7CFD4
100
AcDbEntity
  8
0
100
AcDbLine
 10
4.617999999995391
 20
8.763099999991255
 30
0.0
 11
6.432999999993513
 21
8.763099999991255
 31
0.0
1001
ACAD
1000
ASC_BOUNDS
1002
{
1070
    19
1005
94112
1002
}
  0
LINE
  5
940EC
330
7CFD4
100
AcDbEntity
  8
0
100
AcDbLine
 10
14.32399999998563
 20
3.315799999996671
 30
0.0
 11
12.02999999998792
 21
8.763099999991255
 31
0.0
1001
ACAD
1000
ASC_BOUNDS
1002
{
1070
    19
1005
94113
1002
}
  0
LINE
  5
940ED
330
7CFD4
100
AcDbEntity
  8
0
100
AcDbLine
 10
10.06399999998996
 20
3.670999999996297
 30
0.0
 11
9.236999999990758
 21
5.5200999999945
 31
0.0
1001
ACAD
1000
ASC_BOUNDS
1002
{
1070
    19
1005
94112
1002
}
  0
LINE
  5
940EE
330
7CFD4
100
AcDbEntity
  8
0
100
AcDbLine
 10
8.409999999991555
 20
3.670999999996297
 30
0.0
 11
9.236999999990758
 21
5.5200999999945
 31
0.0
1001
ACAD
1000
ASC_BOUNDS
1002
{
1070
    19
1005
94112
1002
}
  0
LINE
  5
940EF
330
7CFD4
100
AcDbEntity
  8
0
100
AcDbLine
 10
8.409999999991555
 20
3.670999999996297
 30
0.0
 11
10.06399999998996
 21
3.670999999996297
 31
0.0
1001
ACAD
1000
ASC_BOUNDS
1002
{
1070
    19
1005
94112
1002
}
  0
LINE
  5
940F0
330
7CFD4
100
AcDbEntity
  8
0
100
AcDbLine
 10
10.53899999998941
 20
8.763099999991255
 30
0.0
 11
12.02999999998792
 21
8.763099999991255
 31
0.0
1001
ACAD
1000
ASC_BOUNDS
1002
{
1070
    19
1005
94113
1002
}
  0
LINE
  5
940F1
330
7CFD4
100
AcDbEntity
  8
0
100
AcDbLine
 10
22.7389999999773
 20
3.670999999996297
 30
0.0
 11
23.56599999997638
 21
5.5200999999945
 31
0.0
1001
ACAD
1000
ASC_BOUNDS
1002
{
1070
    19
1005
94114
1002
}
  0
LINE
  5
940F2
330
7CFD4
100
AcDbEntity
  8
0
100
AcDbLine
 10
22.7389999999773
 20
3.670999999996297
 30
0.0
 11
24.39299999997559
 21
3.670999999996297
 31
0.0
1001
ACAD
1000
ASC_BOUNDS
1002
{
1070
    19
1005
94114
1002
}
  0
LINE
  5
940F3
330
7CFD4
100
AcDbEntity
  8
0
100
AcDbLine
 10
18.59799999998143
 20
3.315799999996671
 30
0.0
 11
20.89099999997916
 21
8.763099999991255
 31
0.0
1001
ACAD
1000
ASC_BOUNDS
1002
{
1070
    19
1005
94113
1002
}
  0
LINE
  5
940F4
330
7CFD4
100
AcDbEntity
  8
0
100
AcDbLine
 10
18.59799999998143
 20
3.315799999996671
 30
0.0
 11
16.46099999998353
 21
8.999899999990987
 31
0.0
1001
ACAD
1000
ASC_BOUNDS
1002
{
1070
    19
1005
94113
1002
}
  0
LINE
  5
940F5
330
7CFD4
100
AcDbEntity
  8
0
100
AcDbLine
 10
20.89099999997916
 20
8.763099999991255
 30
0.0
 11
22.38199999997767
 21
8.763099999991255
 31
0.0
1001
ACAD
1000
ASC_BOUNDS
1002
{
1070
    19
1005
94113
1002
}
  0
LINE
  5
940F6
330
7CFD4
100
AcDbEntity
  8
0
100
AcDbLine
 10
24.39299999997559
 20
3.670999999996297
 30
0.0
 11
23.56599999997638
 21
5.5200999999945
 31
0.0
1001
ACAD
1000
ASC_BOUNDS
1002
{
1070
    19
1005
94114
1002
}
  0
LINE
  5
940F7
330
7CFD4
100
AcDbEntity
  8
0
100
AcDbLine
 10
44.99999999995498
 20
-0.2368999999997641
 30
0.0
 11
40.02599999995994
 21
5.341799999994635
 31
0.0
1001
ACAD
1000
ASC_BOUNDS
1002
{
1070
    19
1005
94116
1002
}
  0
LINE
  5
940F8
330
7CFD4
100
AcDbEntity
  8
0
100
AcDbLine
 10
40.02599999995994
 20
5.341799999994635
 30
0.0
 11
40.02599999995994
 21
0.0
 31
0.0
1001
ACAD
1000
ASC_BOUNDS
1002
{
1070
    19
1005
94116
1002
}
  0
LINE
  5
940F9
330
7CFD4
100
AcDbEntity
  8
0
100
AcDbLine
 10
38.60499999996136
 20
8.999999999991019
 30
0.0
 11
38.60499999996136
 21
0.0
 31
0.0
1001
ACAD
1000
ASC_BOUNDS
1002
{
1070
    19
1005
94116
1002
}
  0
LINE
  5
940FA
330
7CFD4
100
AcDbEntity
  8
0
100
AcDbLine
 10
44.99999999995498
 20
8.763099999991255
 30
0.0
 11
44.99999999995498
 21
-0.2368999999997641
 31
0.0
1001
ACAD
1000
ASC_BOUNDS
1002
{
1070
    19
1005
94116
1002
}
  0
LINE
  5
940FB
330
7CFD4
100
AcDbEntity
  8
0
100
AcDbLine
 10
38.60499999996136
 20
0.0
 30
0.0
 11
40.02599999995994
 21
0.0
 31
0.0
1001
ACAD
1000
ASC_BOUNDS
1002
{
1070
    19
1005
94116
1002
}
  0
LINE
  5
940FC
330
7CFD4
100
AcDbEntity
  8
0
100
AcDbLine
 10
43.57899999995641
 20
3.421199999996588
 30
0.0
 11
38.60499999996136
 21
8.999899999990987
 31
0.0
1001
ACAD
1000
ASC_BOUNDS
1002
{
1070
    19
1005
94116
1002
}
  0
LINE
  5
940FD
330
7CFD4
100
AcDbEntity
  8
0
100
AcDbLine
 10
43.57899999995641
 20
8.763099999991255
 30
0.0
 11
43.57899999995641
 21
3.421199999996588
 31
0.0
1001
ACAD
1000
ASC_BOUNDS
1002
{
1070
    19
1005
94116
1002
}
  0
LINE
  5
940FE
330
7CFD4
100
AcDbEntity
  8
0
100
AcDbLine
 10
43.57899999995641
 20
8.763099999991255
 30
0.0
 11
44.99999999995498
 21
8.763099999991255
 31
0.0
1001
ACAD
1000
ASC_BOUNDS
1002
{
1070
    19
1005
94116
1002
}
  0
LINE
  5
940FF
330
7CFD4
100
AcDbEntity
  8
0
100
AcDbLine
 10
37.67199999996831
 20
8.763099999991255
 30
0.0
 11
36.23199999996837
 21
8.763099999991255
 31
0.0
  0
LINE
  5
94100
330
7CFD4
100
AcDbEntity
  8
0
100
AcDbLine
 10
31.64199999996833
 20
8.763099999991255
 30
0.0
 11
31.64199999996833
 21
2.481619422925121
 31
0.0
  0
LINE
  5
94101
330
7CFD4
100
AcDbEntity
  8
0
100
AcDbLine
 10
37.67199999996831
 20
8.763099999991255
 30
0.0
 11
37.67199999996831
 21
2.481619422925121
 31
0.0
  0
LINE
  5
94102
330
7CFD4
100
AcDbEntity
  8
0
100
AcDbLine
 10
36.23199999996837
 20
8.763099999991255
 30
0.0
 11
36.23199999996837
 21
2.481619422925064
 31
0.0
  0
LINE
  5
94103
330
7CFD4
100
AcDbEntity
  8
0
100
AcDbLine
 10
33.08199999996839
 20
8.763099999991255
 30
0.0
 11
33.08199999996839
 21
2.481619422925121
 31
0.0
  0
ARC
  5
94104
330
7CFD4
100
AcDbEntity
  8
0
100
AcDbCircle
 10
34.65699999996832
 20
3.183099999991214
 30
0.0
 40
3.420000000000007
100
AcDbArc
 50
240.0000000000255
 51
299.9999999999766
  0
ARC
  5
94105
330
7CFD4
100
AcDbEntity
  8
0
100
AcDbCircle
 10
34.65699999996832
 20
3.183099999991214
 30
0.0
 40
1.97999999999999
100
AcDbArc
 50
240.000000000026
 51
299.9999999999703
  0
LINE
  5
94106
330
7CFD4
100
AcDbEntity
  8
0
100
AcDbLine
 10
33.08199999996828
 20
8.763099999991255
 30
0.0
 11
31.64199999996833
 21
8.763099999991255
 31
0.0
  0
ARC
  5
94107
330
7CFD4
100
AcDbEntity
  8
0
100
AcDbCircle
 10
35.06199999996829
 20
2.481619422925064
 30
0.0
 40
1.17
100
AcDbArc
 50
299.9999999999699
 51
0.0
  0
ARC
  5
94108
330
7CFD4
100
AcDbEntity
  8
0
100
AcDbCircle
 10
34.25199999996835
 20
2.481619422925121
 30
0.0
 40
1.17
100
AcDbArc
 50
180.0
 51
240.0000000000238
  0
ARC
  5
94109
330
7CFD4
100
AcDbEntity
  8
0
100
AcDbCircle
 10
35.06199999996841
 20
2.481619422925121
 30
0.0
 40
2.61
100
AcDbArc
 50
299.9999999999756
 51
0.0
  0
ARC
  5
9410A
330
7CFD4
100
AcDbEntity
  8
0
100
AcDbCircle
 10
34.25199999996835
 20
2.481619422925121
 30
0.0
 40
2.61
100
AcDbArc
 50
180.0
 51
240.0000000000244
  0
LINE
  5
9410B
330
7CFD4
100
AcDbEntity
  8
0
100
AcDbLine
 10
29.30199999996933
 20
8.763099999991255
 30
0.0
 11
30.74199999996927
 21
8.763099999991255
 31
0.0
1001
ACAD
1000
ASC_BOUNDS
1002
{
1070
    19
1005
94114
1002
}
  0
LINE
  5
9410C
330
7CFD4
100
AcDbEntity
  8
0
100
AcDbLine
 10
30.74199999996927
 20
8.763099999991255
 30
0.0
 11
30.74199999996927
 21
2.373099999991211
 31
0.0
1001
ACAD
1000
ASC_BOUNDS
1002
{
1070
    19
1005
94114
1002
}
  0
LINE
  5
9410D
330
7CFD4
100
AcDbEntity
  8
0
100
AcDbLine
 10
26.02015566812236
 20
0.0330999999912365
 30
0.0
 11
28.40199999996923
 21
0.0330999999912365
 31
0.0
1001
ACAD
1000
ASC_BOUNDS
1002
{
1070
    19
1005
94114
1002
}
  0
LINE
  5
9410E
330
7CFD4
100
AcDbEntity
  8
0
100
AcDbLine
 10
29.30199999996933
 20
8.763099999991255
 30
0.0
 11
29.30199999996933
 21
2.283099999991236
 31
0.0
1001
ACAD
1000
ASC_BOUNDS
1002
{
1070
    19
1005
94114
1002
}
  0
LINE
  5
9410F
330
7CFD4
100
AcDbEntity
  8
0
100
AcDbLine
 10
26.97358892824991
 20
1.383099999991202
 30
0.0
 11
28.40199999996923
 21
1.383099999991202
 31
0.0
1001
ACAD
1000
ASC_BOUNDS
1002
{
1070
    19
1005
94114
1002
}
  0
ARC
  5
94110
330
7CFD4
100
AcDbEntity
  8
0
100
AcDbCircle
 10
28.40199999996923
 20
2.283099999991236
 30
0.0
 40
0.9
100
AcDbArc
 50
270.0
 51
0.0
1001
ACAD
1000
ASC_BOUNDS
1002
{
1070
    19
1005
94114
1002
}
  0
ARC
  5
94111
330
7CFD4
100
AcDbEntity
  8
0
100
AcDbCircle
 10
28.40199999996923
 20
2.373099999991211
 30
0.0
 40
2.34
100
AcDbArc
 50
270.0
 51
0.0
1001
ACAD
1000
ASC_BOUNDS
1002
{
1070
    19
1005
94114
1002
}
  0
INSERT
  5
94112
330
7CFD4
100
AcDbEntity
  8
0
100
AcDbBlockReference
  2
*X16
 10
0.0
 20
0.0
 30
0.0
1001
ACAD
1000
HATCH
1002
{
1070
    19
1000
ANSI37
1040
0.15
1040
0.0
1000
ASC_BOUNDS
1070
     2
1070
     2
1070
    12
1005
940D1
1005
940D2
1005
940D9
1005
940E8
1005
940EB
1005
940E9
1005
940DA
1005
940DF
1005
940DD
1005
940E1
1005
940E0
1005
940E2
1070
     2
1070
     3
1005
940ED
1005
940EF
1005
940EE
1000
ASC_SEEDPOINT
1011
3.614004224891801
1021
2.996669441146025
1031
0.0
1000
R14_HATCH_DATA
1000
94112
1011
1.0
1021
0.0
1031
0.0
1011
0.0
1021
1.0
1031
0.0
1011
0.0
1021
0.0
1031
1.0
1040
0.0
1010
0.0
1020
0.0
1030
1.0
1000
ANSI37
1070
     0
1070
     1
1071
        2
1071
        7
1070
     0
1070
     1
1071
       17
1040
13.26299999998673
1040
-0.0001000000000317
1040
9.236999999990758
1040
8.999899999990987
1040
9.236999999990758
1040
8.999999999991019
1040
5.657999999994331
1040
0.9999999999989768
1040
3.181999999996833
1040
4.668599999995308
1040
6.432999999993513
1040
8.763099999991255
1040
4.617999999995391
1040
8.763099999991255
1040
1.420999999998571
1040
4.736799999995242
1040
4.617999999995391
1040
-0.0001000000000317
1040
4.617999999995391
1040
0.0
1040
6.766999999993232
1040
0.0
1040
6.766999999993232
1040
-0.0001000000000317
1040
7.826999999992154
1040
2.368399999997621
1040
10.64699999998936
1040
2.368399999997621
1040
11.70599999998831
1040
-0.0001000000000317
1040
11.70599999998831
1040
0.0
1040
13.26299999998673
1040
0.0
1071
       12
1005
940D1
1005
940D2
1005
940D9
1005
940E8
1005
940EB
1005
940E9
1005
940DA
1005
940DF
1005
940DD
1005
940E1
1005
940E0
1005
940E2
1071
       22
1070
     0
1070
     1
1071
        3
1040
9.236999999990758
1040
5.5200999999945
1040
10.06399999998996
1040
3.670999999996297
1040
8.409999999991555
1040
3.670999999996297
1071
        3
1005
940ED
1005
940EF
1005
940EE
1070
     0
1070
     1
1040
0.0
1040
0.15
1070
     0
1070
     2
1040
0.7853981633974483
1040
49.29960901727088
1040
-10.17736998311392
1040
-0.3367596045400932
1040
0.3367596045400932
1070
     0
1040
2.356194490192345
1040
49.29960901727088
1040
-10.17736998311392
1040
-0.3367596045400932
1040
-0.3367596045400932
1070
     0
1040
0.0110235143455945
1071
        2
1040
3.614004224891801
1040
2.996669441146025
1040
0.0
1040
3.614004224891801
1040
2.996669441146025
1040
0.0
1002
}
  0
INSERT
  5
94113
330
7CFD4
100
AcDbEntity
  8
0
100
AcDbBlockReference
  2
*X17
 10
0.0
 20
0.0
 30
0.0
1001
ACAD
1000
HATCH
1002
{
1070
    19
1000
ANSI37
1040
0.15
1040
0.0
1000
ASC_BOUNDS
1070
     1
1070
     2
1070
    10
1005
940D3
1005
940D4
1005
940F5
1005
940F3
1005
940F4
1005
940E7
1005
940EC
1005
940F0
1005
940D6
1005
940D5
1000
ASC_SEEDPOINT
1011
14.73245321214324
1021
2.798246178283421
1031
0.0
1000
R14_HATCH_DATA
1000
94113
1011
1.0
1021
0.0
1031
0.0
1011
0.0
1021
1.0
1031
0.0
1011
0.0
1021
0.0
1031
1.0
1040
0.0
1010
0.0
1020
0.0
1030
1.0
1000
ANSI37
1070
     0
1070
     1
1071
        1
1071
        7
1070
     0
1070
     1
1071
       10
1040
16.46099999998353
1040
5.432899999994561
1040
18.59199999998134
1040
-0.2368999999997641
1040
22.38199999997767
1040
8.763099999991255
1040
20.89099999997916
1040
8.763099999991255
1040
18.59799999998143
1040
3.315799999996671
1040
16.46099999998353
1040
8.999899999990987
1040
14.32399999998563
1040
3.315799999996671
1040
12.02999999998792
1040
8.763099999991255
1040
10.53899999998941
1040
8.763099999991255
1040
14.32899999998563
1040
-0.2368999999997641
1071
       10
1005
940D3
1005
940D4
1005
940F5
1005
940F3
1005
940F4
1005
940E7
1005
940EC
1005
940F0
1005
940D6
1005
940D5
1070
     0
1070
     1
1040
0.0
1040
0.15
1070
     0
1070
     2
1040
0.7853981633974483
1040
49.29960901727088
1040
-10.17736998311392
1040
-0.3367596045400932
1040
0.3367596045400932
1070
     0
1040
2.356194490192345
1040
49.29960901727088
1040
-10.17736998311392
1040
-0.3367596045400932
1040
-0.3367596045400932
1070
     0
1040
0.0110235143455945
1071
        1
1040
14.73245321214324
1040
2.798246178283421
1040
0.0
1002
}
  0
INSERT
  5
94114
330
7CFD4
100
AcDbEntity
  8
0
100
AcDbBlockReference
  2
*X18
 10
0.0
 20
0.0
 30
0.0
1001
ACAD
1000
HATCH
1002
{
1070
    19
1000
ANSI37
1040
0.15
1040
0.0
1000
ASC_BOUNDS
1070
     2
1070
     2
1070
    13
1005
940D7
1005
940E4
1005
940E5
1005
940E3
1005
940E6
1005
9410D
1005
94111
1005
9410C
1005
9410B
1005
9410E
1005
94110
1005
9410F
1005
940D8
1070
     2
1070
     3
1005
940F1
1005
940F6
1005
940F2
1000
ASC_SEEDPOINT
1011
21.97929957367762
1021
3.294304244259308
1031
0.0
1000
R14_HATCH_DATA
1000
94114
1011
1.0
1021
0.0
1031
0.0
1011
0.0
1021
1.0
1031
0.0
1011
0.0
1021
0.0
1031
1.0
1040
0.0
1010
0.0
1020
0.0
1030
1.0
1000
ANSI37
1070
     0
1070
     1
1071
        2
1071
        7
1070
     1
1070
     1
1071
       15
1040
23.56599999997638
1040
8.999899999990987
1040
0.0
1040
19.53899999998043
1040
-0.0001000000000317
1040
0.0
1040
19.53899999998043
1040
0.0
1040
0.0
1040
21.09599999997886
1040
0.0
1040
0.0
1040
21.09599999997886
1040
-0.0001000000000317
1040
0.0
1040
22.15599999997789
1040
2.368399999997621
1040
0.0
1040
24.97599999997499
1040
2.368399999997621
1040
0.0
1040
26.02015566812236
1040
0.0330999999912365
1040
0.0
1040
28.40199999996923
1040
0.0330999999912365
1040
0.414213562373095
1040
30.74199999996923
1040
2.373099999991211
1040
0.0
1040
30.74199999996927
1040
8.763099999991255
1040
0.0
1040
29.30199999996933
1040
8.763099999991255
1040
0.0
1040
29.30199999996933
1040
2.283099999991236
1040
-0.414213562373095
1040
28.40199999996923
1040
1.383099999991237
1040
0.0
1040
26.97358892824991
1040
1.383099999991202
1040
0.0
1071
       13
1005
940D7
1005
940E4
1005
940E5
1005
940E3
1005
940E6
1005
9410D
1005
94111
1005
9410C
1005
9410B
1005
9410E
1005
94110
1005
9410F
1005
940D8
1071
       22
1070
     0
1070
     1
1071
        3
1040
22.7389999999773
1040
3.670999999996297
1040
23.56599999997638
1040
5.5200999999945
1040
24.39299999997559
1040
3.670999999996297
1071
        3
1005
940F1
1005
940F6
1005
940F2
1070
     0
1070
     1
1040
0.0
1040
0.15
1070
     0
1070
     2
1040
0.7853981633974483
1040
49.29960901727088
1040
-10.17736998311392
1040
-0.3367596045400932
1040
0.3367596045400932
1070
     0
1040
2.356194490192345
1040
49.29960901727088
1040
-10.17736998311392
1040
-0.3367596045400932
1040
-0.3367596045400932
1070
     0
1040
0.0110235143455945
1071
        2
1040
21.97929957367762
1040
3.294304244259308
1040
0.0
1040
21.97929957367762
1040
3.294304244259308
1040
0.0
1002
}
  0
INSERT
  5
94115
330
7CFD4
100
AcDbEntity
  8
0
100
AcDbBlockReference
  2
*X19
 10
0.0
 20
0.0
 30
0.0
1001
ACAD
1000
HATCH
1002
{
1070
    19
1000
ANSI37
1040
0.15
1040
0.0
1000
R14_HATCH_DATA
1000
94115
1011
1.0
1021
0.0
1031
0.0
1011
0.0
1021
1.0
1031
0.0
1011
0.0
1021
0.0
1031
1.0
1040
0.0
1010
0.0
1020
0.0
1030
1.0
1000
ANSI37
1070
     0
1070
     1
1071
        1
1071
        7
1070
     1
1070
     1
1071
       12
1040
31.64199999996833
1040
2.481619422925121
1040
0.2679491924310942
1040
32.94699999997067
1040
0.2212931190493919
1040
0.2679491924301353
1040
36.36699999995983
1040
0.2212931190459813
1040
0.2679491924321411
1040
37.67199999996831
1040
2.481619422928361
1040
0.0
1040
37.67199999996831
1040
8.763099999991255
1040
0.0
1040
36.23199999996837
1040
8.763099999991255
1040
0.0
1040
36.23199999996837
1040
2.481619422925064
1040
-0.2679491924310291
1040
35.64699999996708
1040
1.468369700498386
1040
-0.267949192430519
1040
33.66699999997093
1040
1.468369700497703
1040
-0.267949192431809
1040
33.08199999996839
1040
2.481619422926997
1040
0.0
1040
33.08199999996839
1040
8.763099999991255
1040
0.0
1040
31.64199999996833
1040
8.763099999991255
1040
0.0
1071
        0
1070
     0
1070
     1
1040
0.0
1040
0.15
1070
     0
1070
     2
1040
0.7853981633974483
1040
49.29960901727088
1040
-10.17736998311392
1040
-0.3367596045400932
1040
0.3367596045400932
1070
     0
1040
2.356194490192345
1040
49.29960901727088
1040
-10.17736998311392
1040
-0.3367596045400932
1040
-0.3367596045400932
1070
     0
1040
0.0110235143455945
1071
        1
1040
32.30357378967278
1040
3.988785755459219
1040
0.0
1002
}
  0
INSERT
  5
94116
330
7CFD4
100
AcDbEntity
  8
0
100
AcDbBlockReference
  2
*X20
 10
0.0
 20
0.0
 30
0.0
1001
ACAD
1000
HATCH
1002
{
1070
    19
1000
ANSI37
1040
0.15
1040
0.0
1000
ASC_BOUNDS
1070
     1
1070
     2
1070
     8
1005
940F7
1005
940FA
1005
940FE
1005
940FD
1005
940FC
1005
940F9
1005
940FB
1005
940F8
1000
ASC_SEEDPOINT
1011
39.74896370716704
1021
4.484843821435049
1031
0.0
1000
R14_HATCH_DATA
1000
94116
1011
1.0
1021
0.0
1031
0.0
1011
0.0
1021
1.0
1031
0.0
1011
0.0
1021
0.0
1031
1.0
1040
0.0
1010
0.0
1020
0.0
1030
1.0
1000
ANSI37
1070
     0
1070
     1
1071
        1
1071
        7
1070
     0
1070
     1
1071
        9
1040
40.02599999995994
1040
5.341799999994635
1040
44.99999999995498
1040
-0.2368999999997641
1040
44.99999999995498
1040
8.763099999991255
1040
43.57899999995641
1040
8.763099999991255
1040
43.57899999995641
1040
3.421199999996588
1040
38.60499999996136
1040
8.999899999990987
1040
38.60499999996136
1040
8.999999999991019
1040
38.60499999996136
1040
0.0
1040
40.02599999995994
1040
0.0
1071
        8
1005
940F7
1005
940FA
1005
940FE
1005
940FD
1005
940FC
1005
940F9
1005
940FB
1005
940F8
1070
     0
1070
     1
1040
0.0
1040
0.15
1070
     0
1070
     2
1040
0.7853981633974483
1040
49.29960901727088
1040
-10.17736998311392
1040
-0.3367596045400932
1040
0.3367596045400932
1070
     0
1040
2.356194490192345
1040
49.29960901727088
1040
-10.17736998311392
1040
-0.3367596045400932
1040
-0.3367596045400932
1070
     0
1040
0.0110235143455945
1071
        1
1040
39.74896370716704
1040
4.484843821435049
1040
0.0
1002
}
  0
INSERT
  5
94117
330
7CFD4
100
AcDbEntity
  8
0
100
AcDbBlockReference
  2
*X21
 10
0.0
 20
0.0
 30
0.0
1001
ACAD
1000
HATCH
1002
{
1070
    19
1000
ANSI37
1040
0.15
1040
0.0
1000
ASC_BOUNDS
1070
     1
1070
     2
1070
     4
1005
940DB
1005
940EA
1005
940DC
1005
940DE
1000
ASC_SEEDPOINT
1011
1.079051535452663
1021
4.148538732891836
1031
0.0
1000
R14_HATCH_DATA
1000
94117
1011
1.0
1021
0.0
1031
0.0
1011
0.0
1021
1.0
1031
0.0
1011
0.0
1021
0.0
1031
1.0
1040
0.0
1010
0.0
1020
0.0
1030
1.0
1000
ANSI37
1070
     0
1070
     1
1071
        1
1071
        7
1070
     0
1070
     1
1071
        4
1040
1.420999999998571
1040
0.0
1040
1.420999999998571
1040
8.763099999991255
1040
0.0
1040
8.763099999991255
1040
0.0
1040
0.0
1071
        4
1005
940DB
1005
940EA
1005
940DC
1005
940DE
1070
     0
1070
     1
1040
0.0
1040
0.15
1070
     0
1070
     2
1040
0.7853981633974483
1040
49.29960901727088
1040
-10.17736998311392
1040
-0.3367596045400932
1040
0.3367596045400932
1070
     0
1040
2.356194490192345
1040
49.29960901727088
1040
-10.17736998311392
1040
-0.3367596045400932
1040
-0.3367596045400932
1070
     0
1040
0.0053004257112761
1071
        1
1040
1.079051535452663
1040
4.148538732891836
1040
0.0
1002
}
  0
ENDBLK
  5
94820
330
7CFD4
100
AcDbEntity
  8
0
100
AcDbBlockEnd
  0
BLOCK
  5
A3FF8
330
A3E6A
100
AcDbEntity
  8
0
100
AcDbBlockBegin
  2
*X16
 70
     1
 10
0.0
 20
0.0
 30
0.0
  3
*X16
  1

  0
LINE
  5
A3E6B
330
A3E6A
100
AcDbEntity
  8
0
  6
CONTINUOUS
100
AcDbLine
 10
3.418023043697893
 20
7.251849696850613
 30
0.0
 11
4.929273346838536
 21
8.763099999991255
 31
0.0
  0
LINE
  5
A3E6C
330
A3E6A
100
AcDbEntity
  8
0
  6
CONTINUOUS
100
AcDbLine
 10
1.483656411257782
 20
4.643963855330318
 30
0.0
 11
5.60279255591872
 21
8.763099999991255
 31
0.0
  0
LINE
  5
A3E6D
330
A3E6A
100
AcDbEntity
  8
0
  6
CONTINUOUS
100
AcDbLine
 10
1.755053947328235
 20
4.241842182320584
 30
0.0
 11
6.276311764998907
 21
8.763099999991255
 31
0.0
  0
LINE
  5
A3E6E
330
A3E6A
100
AcDbEntity
  8
0
  6
CONTINUOUS
100
AcDbLine
 10
2.026451483398688
 20
3.839720509310849
 30
0.0
 11
4.441040904851878
 21
6.254309930764039
 31
0.0
  0
LINE
  5
A3E6F
330
A3E6A
100
AcDbEntity
  8
0
  6
CONTINUOUS
100
AcDbLine
 10
2.297849019469139
 20
3.437598836301114
 30
0.0
 11
3.321765168359338
 21
4.461514985191313
 31
0.0
  0
LINE
  5
A3E70
330
A3E6A
100
AcDbEntity
  8
0
  6
CONTINUOUS
100
AcDbLine
 10
2.569246555539591
 20
3.03547716329138
 30
0.0
 11
3.593163397972743
 21
4.059394005724531
 31
0.0
  0
LINE
  5
A3E71
330
A3E6A
100
AcDbEntity
  8
0
  6
CONTINUOUS
100
AcDbLine
 10
2.840644091610043
 20
2.633355490281646
 30
0.0
 11
3.864561627586149
 21
3.657273026257751
 31
0.0
  0
LINE
  5
A3E72
330
A3E6A
100
AcDbEntity
  8
0
  6
CONTINUOUS
100
AcDbLine
 10
3.112041627680496
 20
2.231233817271911
 30
0.0
 11
4.135959857199554
 21
3.25515204679097
 31
0.0
  0
LINE
  5
A3E73
330
A3E6A
100
AcDbEntity
  8
0
  6
CONTINUOUS
100
AcDbLine
 10
3.383439163750948
 20
1.829112144262177
 30
0.0
 11
4.40735808681296
 21
2.853031067324189
 31
0.0
  0
LINE
  5
A3E74
330
A3E6A
100
AcDbEntity
  8
0
  6
CONTINUOUS
100
AcDbLine
 10
3.654836699821399
 20
1.426990471252442
 30
0.0
 11
4.678756316426365
 21
2.450910087857407
 31
0.0
  0
LINE
  5
A3E75
330
A3E6A
100
AcDbEntity
  8
0
  6
CONTINUOUS
100
AcDbLine
 10
3.926234235891853
 20
1.024868798242709
 30
0.0
 11
4.95015454603977
 21
2.048789108390626
 31
0.0
  0
LINE
  5
A3E76
330
A3E6A
100
AcDbEntity
  8
0
  6
CONTINUOUS
100
AcDbLine
 10
4.197631771962304
 20
0.6227471252329737
 30
0.0
 11
5.221552775653176
 21
1.646668128923846
 31
0.0
  0
LINE
  5
A3E77
330
A3E6A
100
AcDbEntity
  8
0
  6
CONTINUOUS
100
AcDbLine
 10
8.715877546767851
 20
7.835069736359266
 30
0.0
 11
9.435953450375058
 21
8.555145639966472
 31
0.0
  0
LINE
  5
A3E78
330
A3E6A
100
AcDbEntity
  8
0
  6
CONTINUOUS
100
AcDbLine
 10
8.170620868422267
 20
6.616293848933497
 30
0.0
 11
9.644120833743461
 21
8.08979381425469
 31
0.0
  0
LINE
  5
A3E79
330
A3E6A
100
AcDbEntity
  8
0
  6
CONTINUOUS
100
AcDbLine
 10
7.625364190076684
 20
5.397517961507727
 30
0.0
 11
9.852288217111864
 21
7.624441988542907
 31
0.0
  0
LINE
  5
A3E7A
330
A3E6A
100
AcDbEntity
  8
0
  6
CONTINUOUS
100
AcDbLine
 10
7.080107511731101
 20
4.178742074081957
 30
0.0
 11
10.06045560048027
 21
7.159090162831124
 31
0.0
  0
LINE
  5
A3E7B
330
A3E6A
100
AcDbEntity
  8
0
  6
CONTINUOUS
100
AcDbLine
 10
6.534850833385518
 20
2.959966186656187
 30
0.0
 11
10.26862298384867
 21
6.693738337119342
 31
0.0
  0
LINE
  5
A3E7C
330
A3E6A
100
AcDbEntity
  8
0
  6
CONTINUOUS
100
AcDbLine
 10
4.469029308032756
 20
0.2206254522232385
 30
0.0
 11
5.492951005266582
 21
1.244547149457064
 31
0.0
  0
LINE
  5
A3E7D
330
A3E6A
100
AcDbEntity
  8
0
  6
CONTINUOUS
100
AcDbLine
 10
5.989594155039935
 20
1.741190299230417
 30
0.0
 11
8.806950407233131
 21
4.558546551423613
 31
0.0
  0
LINE
  5
A3E7E
330
A3E6A
100
AcDbEntity
  8
0
  6
CONTINUOUS
100
AcDbLine
 10
9.401251593263643
 20
5.152847737454126
 30
0.0
 11
10.47679036721708
 21
6.228386511407559
 31
0.0
  0
LINE
  5
A3E7F
330
A3E6A
100
AcDbEntity
  8
0
  6
CONTINUOUS
100
AcDbLine
 10
4.921837203428691
 20
-0.0000858614610131
 30
0.0
 11
8.592923064886001
 21
3.670999999996297
 31
0.0
  0
LINE
  5
A3E80
330
A3E6A
100
AcDbEntity
  8
0
  6
CONTINUOUS
100
AcDbLine
 10
9.609390446785305
 20
4.6874673818956
 30
0.0
 11
10.68495775058548
 21
5.763034685695775
 31
0.0
  0
LINE
  5
A3E81
330
A3E6A
100
AcDbEntity
  8
0
  6
CONTINUOUS
100
AcDbLine
 10
5.595387755019432
 20
-0.0000545189504582
 30
0.0
 11
7.716137258923768
 21
2.120694984953879
 31
0.0
  0
LINE
  5
A3E82
330
A3E6A
100
AcDbEntity
  8
0
  6
CONTINUOUS
100
AcDbLine
 10
6.268938306610172
 20
-0.000023176439905
 30
0.0
 11
7.170485805526503
 21
0.9015243224764267
 31
0.0
  0
LINE
  5
A3E83
330
A3E6A
100
AcDbEntity
  8
0
  6
CONTINUOUS
100
AcDbLine
 10
7.963842273967511
 20
2.368399999997621
 30
0.0
 11
9.266442273966188
 21
3.670999999996297
 31
0.0
  0
LINE
  5
A3E84
330
A3E6A
100
AcDbEntity
  8
0
  6
CONTINUOUS
100
AcDbLine
 10
8.637361483047696
 20
2.368399999997621
 30
0.0
 11
9.939961483046375
 21
3.670999999996297
 31
0.0
  0
LINE
  5
A3E85
330
A3E6A
100
AcDbEntity
  8
0
  6
CONTINUOUS
100
AcDbLine
 10
9.817529300306965
 20
4.222087026337075
 30
0.0
 11
10.89312513395388
 21
5.297682859983993
 31
0.0
  0
LINE
  5
A3E86
330
A3E6A
100
AcDbEntity
  8
0
  6
CONTINUOUS
100
AcDbLine
 10
10.02566815382863
 20
3.756706670778549
 30
0.0
 11
11.10129251732229
 21
4.832331034272211
 31
0.0
  0
LINE
  5
A3E87
330
A3E6A
100
AcDbEntity
  8
0
  6
CONTINUOUS
100
AcDbLine
 10
9.310880692127883
 20
2.368399999997621
 30
0.0
 11
11.30945990069069
 21
4.366979208560428
 31
0.0
  0
LINE
  5
A3E88
330
A3E6A
100
AcDbEntity
  8
0
  6
CONTINUOUS
100
AcDbLine
 10
9.98439990120807
 20
2.36839999999762
 30
0.0
 11
11.5176272840591
 21
3.901627382848645
 31
0.0
  0
LINE
  5
A3E89
330
A3E6A
100
AcDbEntity
  8
0
  6
CONTINUOUS
100
AcDbLine
 10
10.65037369446246
 20
2.36085458417182
 30
0.0
 11
11.7257946674275
 21
3.436275557136862
 31
0.0
  0
LINE
  5
A3E8A
330
A3E6A
100
AcDbEntity
  8
0
  6
CONTINUOUS
100
AcDbLine
 10
10.85847197087848
 20
1.895433651507656
 30
0.0
 11
11.9339620507959
 21
2.97092373142508
 31
0.0
  0
LINE
  5
A3E8B
330
A3E6A
100
AcDbEntity
  8
0
  6
CONTINUOUS
100
AcDbLine
 10
11.0665702472945
 20
1.430012718843491
 30
0.0
 11
12.14212943416431
 21
2.505571905713296
 31
0.0
  0
LINE
  5
A3E8C
330
A3E6A
100
AcDbEntity
  8
0
  6
CONTINUOUS
100
AcDbLine
 10
11.27466852371052
 20
0.9645917861793256
 30
0.0
 11
12.35029681753271
 21
2.040220080001513
 31
0.0
  0
LINE
  5
A3E8D
330
A3E6A
100
AcDbEntity
  8
0
  6
CONTINUOUS
100
AcDbLine
 10
11.48276680012654
 20
0.4991708535151611
 30
0.0
 11
12.55846420090111
 21
1.57486825428973
 31
0.0
  0
LINE
  5
A3E8E
330
A3E6A
100
AcDbEntity
  8
0
  6
CONTINUOUS
100
AcDbLine
 10
11.69086507654257
 20
0.0337499208509957
 30
0.0
 11
12.76663158426952
 21
1.109516428577947
 31
0.0
  0
LINE
  5
A3E8F
330
A3E6A
100
AcDbEntity
  8
0
  6
CONTINUOUS
100
AcDbLine
 10
12.33057447873954
 20
-0.0000598860322123
 30
0.0
 11
12.97479896763792
 21
0.6441646028661663
 31
0.0
  0
LINE
  5
A3E90
330
A3E6A
100
AcDbEntity
  8
0
  6
CONTINUOUS
100
AcDbLine
 10
13.00413694809395
 20
-0.0000166257579952
 30
0.0
 11
13.18296635100632
 21
0.1788127771543824
 31
0.0
  0
LINE
  5
A3E91
330
A3E6A
100
AcDbEntity
  8
0
  6
CONTINUOUS
100
AcDbLine
 10
4.772852165289667
 20
-0.000092794222212
 30
0.0
 11
4.296495091028902
 21
0.4762642800385528
 31
0.0
  0
LINE
  5
A3E92
330
A3E6A
100
AcDbEntity
  8
0
  6
CONTINUOUS
100
AcDbLine
 10
5.446340034776103
 20
-0.0000614546284616
 30
0.0
 11
2.898195908335625
 21
2.548082671812017
 31
0.0
  0
LINE
  5
A3E93
330
A3E6A
100
AcDbEntity
  8
0
  6
CONTINUOUS
100
AcDbLine
 10
6.119827904262539
 20
-0.0000301150347113
 30
0.0
 11
1.499896725642348
 21
4.61990106358548
 31
0.0
  0
LINE
  5
A3E94
330
A3E6A
100
AcDbEntity
  8
0
  6
CONTINUOUS
100
AcDbLine
 10
6.775136745476159
 20
0.0181802528318542
 30
0.0
 11
5.699826040202669
 21
1.093490958105344
 31
0.0
  0
LINE
  5
A3E95
330
A3E6A
100
AcDbEntity
  8
0
  6
CONTINUOUS
100
AcDbLine
 10
6.983376846288489
 20
0.4834593610997118
 30
0.0
 11
5.908008617934405
 21
1.558827589453796
 31
0.0
  0
LINE
  5
A3E96
330
A3E6A
100
AcDbEntity
  8
0
  6
CONTINUOUS
100
AcDbLine
 10
5.377063484962296
 20
1.416253513345719
 30
0.0
 11
1.702276957014131
 21
5.091040041293883
 31
0.0
  0
LINE
  5
A3E97
330
A3E6A
100
AcDbEntity
  8
0
  6
CONTINUOUS
100
AcDbLine
 10
3.978745891735324
 20
3.488090315652877
 30
0.0
 11
2.000373521109399
 21
5.466462686278803
 31
0.0
  0
LINE
  5
A3E98
330
A3E6A
100
AcDbEntity
  8
0
  6
CONTINUOUS
100
AcDbLine
 10
7.191616947100819
 20
0.948738469367568
 30
0.0
 11
6.11619119566614
 21
2.024164220802247
 31
0.0
  0
LINE
  5
A3E99
330
A3E6A
100
AcDbEntity
  8
0
  6
CONTINUOUS
100
AcDbLine
 10
7.399857047913149
 20
1.414017577635424
 30
0.0
 11
6.324373773397875
 21
2.489500852150698
 31
0.0
  0
LINE
  5
A3E9A
330
A3E6A
100
AcDbEntity
  8
0
  6
CONTINUOUS
100
AcDbLine
 10
7.608097148725479
 20
1.879296685903281
 30
0.0
 11
6.53255635112961
 21
2.95483748349915
 31
0.0
  0
LINE
  5
A3E9B
330
A3E6A
100
AcDbEntity
  8
0
  6
CONTINUOUS
100
AcDbLine
 10
7.816337249537808
 20
2.344575794171138
 30
0.0
 11
6.740738928861345
 21
3.420174114847601
 31
0.0
  0
LINE
  5
A3E9C
330
A3E6A
100
AcDbEntity
  8
0
  6
CONTINUOUS
100
AcDbLine
 10
3.310241080789734
 20
4.830114335678653
 30
0.0
 11
2.298470085204666
 21
5.84188533126372
 31
0.0
  0
LINE
  5
A3E9D
330
A3E6A
100
AcDbEntity
  8
0
  6
CONTINUOUS
100
AcDbLine
 10
3.60832983563551
 20
5.205544789913063
 30
0.0
 11
2.596566649299935
 21
6.217307976248638
 31
0.0
  0
LINE
  5
A3E9E
330
A3E6A
100
AcDbEntity
  8
0
  6
CONTINUOUS
100
AcDbLine
 10
3.906418590481286
 20
5.580975244147473
 30
0.0
 11
2.894663213395203
 21
6.592730621233557
 31
0.0
  0
LINE
  5
A3E9F
330
A3E6A
100
AcDbEntity
  8
0
  6
CONTINUOUS
100
AcDbLine
 10
4.204507345327062
 20
5.956405698381884
 30
0.0
 11
3.192759777490472
 21
6.968153266218474
 31
0.0
  0
LINE
  5
A3EA0
330
A3E6A
100
AcDbEntity
  8
0
  6
CONTINUOUS
100
AcDbLine
 10
8.466032252791512
 20
2.368399999997621
 30
0.0
 11
6.948921506593081
 21
3.885510746196053
 31
0.0
  0
LINE
  5
A3EA1
330
A3E6A
100
AcDbEntity
  8
0
  6
CONTINUOUS
100
AcDbLine
 10
9.139551461871699
 20
2.36839999999762
 30
0.0
 11
7.157104084324816
 21
4.350847377544504
 31
0.0
  0
LINE
  5
A3EA2
330
A3E6A
100
AcDbEntity
  8
0
  6
CONTINUOUS
100
AcDbLine
 10
4.502596100172839
 20
6.331836152616295
 30
0.0
 11
3.49085634158574
 21
7.343575911203393
 31
0.0
  0
LINE
  5
A3EA3
330
A3E6A
100
AcDbEntity
  8
0
  6
CONTINUOUS
100
AcDbLine
 10
4.800684855018615
 20
6.707266606850705
 30
0.0
 11
3.788952905681008
 21
7.718998556188312
 31
0.0
  0
LINE
  5
A3EA4
330
A3E6A
100
AcDbEntity
  8
0
  6
CONTINUOUS
100
AcDbLine
 10
12.18154012887317
 20
-0.0000694579236642
 30
0.0
 11
11.32140332908496
 21
0.8600673418645499
 31
0.0
  0
LINE
  5
A3EA5
330
A3E6A
100
AcDbEntity
  8
0
  6
CONTINUOUS
100
AcDbLine
 10
12.85501608323566
 20
-0.0000262032059659
 30
0.0
 11
10.77672456435345
 21
2.078265315676246
 31
0.0
  0
LINE
  5
A3EA6
330
A3E6A
100
AcDbEntity
  8
0
  6
CONTINUOUS
100
AcDbLine
 10
9.813070670951886
 20
2.36839999999762
 30
0.0
 11
8.51047067095321
 21
3.670999999996297
 31
0.0
  0
LINE
  5
A3EA7
330
A3E6A
100
AcDbEntity
  8
0
  6
CONTINUOUS
100
AcDbLine
 10
10.48658988003207
 20
2.36839999999762
 30
0.0
 11
9.183989880033396
 21
3.670999999996297
 31
0.0
  0
LINE
  5
A3EA8
330
A3E6A
100
AcDbEntity
  8
0
  6
CONTINUOUS
100
AcDbLine
 10
8.441048632286794
 20
3.740422038662712
 30
0.0
 11
7.365286662056551
 21
4.816184008892956
 31
0.0
  0
LINE
  5
A3EA9
330
A3E6A
100
AcDbEntity
  8
0
  6
CONTINUOUS
100
AcDbLine
 10
8.649187485808454
 20
4.205802394221237
 30
0.0
 11
7.573469239788285
 21
5.281520640241407
 31
0.0
  0
LINE
  5
A3EAA
330
A3E6A
100
AcDbEntity
  8
0
  6
CONTINUOUS
100
AcDbLine
 10
5.098773609864391
 20
7.082697061085115
 30
0.0
 11
4.087049469776277
 21
8.09442120117323
 31
0.0
  0
LINE
  5
A3EAB
330
A3E6A
100
AcDbEntity
  8
0
  6
CONTINUOUS
100
AcDbLine
 10
5.396862364710167
 20
7.458127515319526
 30
0.0
 11
4.385146033871544
 21
8.469843846158149
 31
0.0
  0
LINE
  5
A3EAC
330
A3E6A
100
AcDbEntity
  8
0
  6
CONTINUOUS
100
AcDbLine
 10
13.04801363231285
 20
0.4804954567970334
 30
0.0
 11
9.85750908911358
 21
3.670999999996297
 31
0.0
  0
LINE
  5
A3EAD
330
A3E6A
100
AcDbEntity
  8
0
  6
CONTINUOUS
100
AcDbLine
 10
8.857326339330116
 20
4.671182749779763
 30
0.0
 11
7.781651817520021
 21
5.746857271589858
 31
0.0
  0
LINE
  5
A3EAE
330
A3E6A
100
AcDbEntity
  8
0
  6
CONTINUOUS
100
AcDbLine
 10
5.694951119555943
 20
7.833557969553937
 30
0.0
 11
4.765409089118624
 21
8.763099999991255
 31
0.0
  0
LINE
  5
A3EAF
330
A3E6A
100
AcDbEntity
  8
0
  6
CONTINUOUS
100
AcDbLine
 10
12.50286117236978
 20
1.699167125820288
 30
0.0
 11
9.68611877250287
 21
4.515909525687196
 31
0.0
  0
LINE
  5
A3EB0
330
A3E6A
100
AcDbEntity
  8
0
  6
CONTINUOUS
100
AcDbLine
 10
9.065465192851777
 20
5.136563105338288
 30
0.0
 11
7.989834395251757
 21
6.21219390293831
 31
0.0
  0
LINE
  5
A3EB1
330
A3E6A
100
AcDbEntity
  8
0
  6
CONTINUOUS
100
AcDbLine
 10
5.993039874401719
 20
8.208988423788346
 30
0.0
 11
5.43892829819881
 21
8.763099999991255
 31
0.0
  0
LINE
  5
A3EB2
330
A3E6A
100
AcDbEntity
  8
0
  6
CONTINUOUS
100
AcDbLine
 10
11.95770871242671
 20
2.917838794843543
 30
0.0
 11
8.19801697298349
 21
6.677530534286761
 31
0.0
  0
LINE
  5
A3EB3
330
A3E6A
100
AcDbEntity
  8
0
  6
CONTINUOUS
100
AcDbLine
 10
6.291128629247495
 20
8.584418878022756
 30
0.0
 11
6.112447507278997
 21
8.763099999991255
 31
0.0
  0
LINE
  5
A3EB4
330
A3E6A
100
AcDbEntity
  8
0
  6
CONTINUOUS
100
AcDbLine
 10
11.41255625248364
 20
4.136510463866797
 30
0.0
 11
8.406199550715227
 21
7.142867165635211
 31
0.0
  0
LINE
  5
A3EB5
330
A3E6A
100
AcDbEntity
  8
0
  6
CONTINUOUS
100
AcDbLine
 10
10.86740379254057
 20
5.355182132890051
 30
0.0
 11
8.614382128446962
 21
7.608203796983664
 31
0.0
  0
LINE
  5
A3EB6
330
A3E6A
100
AcDbEntity
  8
0
  6
CONTINUOUS
100
AcDbLine
 10
10.3222513325975
 20
6.573853801913305
 30
0.0
 11
8.822564706178696
 21
8.073540428332114
 31
0.0
  0
LINE
  5
A3EB7
330
A3E6A
100
AcDbEntity
  8
0
  6
CONTINUOUS
100
AcDbLine
 10
9.777098872654436
 20
7.792525470936562
 30
0.0
 11
9.030747283910433
 21
8.538877059680566
 31
0.0
  0
ENDBLK
  5
A3FF9
330
A3E6A
100
AcDbEntity
  8
0
100
AcDbBlockEnd
  0
BLOCK
  5
A3FFA
330
A3EB8
100
AcDbEntity
  8
0
100
AcDbBlockBegin
  2
*X17
 70
     1
 10
0.0
 20
0.0
 30
0.0
  3
*X17
  1

  0
LINE
  5
A3EB9
330
A3EB8
100
AcDbEntity
  8
0
  6
CONTINUOUS
100
AcDbLine
 10
10.67292308101235
 20
8.445076852443387
 30
0.0
 11
10.99094622856022
 21
8.763099999991255
 31
0.0
  0
LINE
  5
A3EBA
330
A3EB8
100
AcDbEntity
  8
0
  6
CONTINUOUS
100
AcDbLine
 10
10.87250383178748
 20
7.971138394138331
 30
0.0
 11
11.6644654376404
 21
8.763099999991255
 31
0.0
  0
LINE
  5
A3EBB
330
A3EB8
100
AcDbEntity
  8
0
  6
CONTINUOUS
100
AcDbLine
 10
11.07208458256261
 20
7.497199935833273
 30
0.0
 11
12.12126590876355
 21
8.546381262034211
 31
0.0
  0
LINE
  5
A3EBC
330
A3EB8
100
AcDbEntity
  8
0
  6
CONTINUOUS
100
AcDbLine
 10
11.27166533333774
 20
7.023261477528216
 30
0.0
 11
12.32085164573666
 21
8.072447789927136
 31
0.0
  0
LINE
  5
A3EBD
330
A3EB8
100
AcDbEntity
  8
0
  6
CONTINUOUS
100
AcDbLine
 10
11.47124608411287
 20
6.549323019223158
 30
0.0
 11
12.52043738270977
 21
7.59851431782006
 31
0.0
  0
LINE
  5
A3EBE
330
A3EB8
100
AcDbEntity
  8
0
  6
CONTINUOUS
100
AcDbLine
 10
11.670826834888
 20
6.075384560918101
 30
0.0
 11
12.72002311968288
 21
7.124580845712984
 31
0.0
  0
LINE
  5
A3EBF
330
A3EB8
100
AcDbEntity
  8
0
  6
CONTINUOUS
100
AcDbLine
 10
11.87040758566313
 20
5.601446102613043
 30
0.0
 11
12.91960885665599
 21
6.650647373605907
 31
0.0
  0
LINE
  5
A3EC0
330
A3EB8
100
AcDbEntity
  8
0
  6
CONTINUOUS
100
AcDbLine
 10
12.06998833643825
 20
5.127507644307986
 30
0.0
 11
13.1191945936291
 21
6.176713901498832
 31
0.0
  0
LINE
  5
A3EC1
330
A3EB8
100
AcDbEntity
  8
0
  6
CONTINUOUS
100
AcDbLine
 10
12.26956908721338
 20
4.65356918600293
 30
0.0
 11
13.31878033060221
 21
5.702780429391757
 31
0.0
  0
LINE
  5
A3EC2
330
A3EB8
100
AcDbEntity
  8
0
  6
CONTINUOUS
100
AcDbLine
 10
12.46914983798851
 20
4.179630727697873
 30
0.0
 11
13.51836606757532
 21
5.228846957284683
 31
0.0
  0
LINE
  5
A3EC3
330
A3EB8
100
AcDbEntity
  8
0
  6
CONTINUOUS
100
AcDbLine
 10
12.66873058876364
 20
3.705692269392816
 30
0.0
 11
13.71795180454843
 21
4.754913485177607
 31
0.0
  0
LINE
  5
A3EC4
330
A3EB8
100
AcDbEntity
  8
0
  6
CONTINUOUS
100
AcDbLine
 10
12.86831133953877
 20
3.231753811087759
 30
0.0
 11
13.91753754152154
 21
4.280980013070531
 31
0.0
  0
LINE
  5
A3EC5
330
A3EB8
100
AcDbEntity
  8
0
  6
CONTINUOUS
100
AcDbLine
 10
13.0678920903139
 20
2.757815352782702
 30
0.0
 11
14.11712327849465
 21
3.807046540963456
 31
0.0
  0
LINE
  5
A3EC6
330
A3EB8
100
AcDbEntity
  8
0
  6
CONTINUOUS
100
AcDbLine
 10
13.26747284108903
 20
2.283876894477644
 30
0.0
 11
14.31670901546777
 21
3.333113068856379
 31
0.0
  0
LINE
  5
A3EC7
330
A3EB8
100
AcDbEntity
  8
0
  6
CONTINUOUS
100
AcDbLine
 10
16.36767838827179
 20
8.751678487061342
 30
0.0
 11
16.50332410898388
 21
8.887324207773432
 31
0.0
  0
LINE
  5
A3EC8
330
A3EB8
100
AcDbEntity
  8
0
  6
CONTINUOUS
100
AcDbLine
 10
15.96190732182191
 20
7.67238821153127
 30
0.0
 11
16.68735328004734
 21
8.397834169756699
 31
0.0
  0
LINE
  5
A3EC9
330
A3EB8
100
AcDbEntity
  8
0
  6
CONTINUOUS
100
AcDbLine
 10
15.55613625537202
 20
6.593097936001196
 30
0.0
 11
16.87138245111079
 21
7.908344131739965
 31
0.0
  0
LINE
  5
A3ECA
330
A3EB8
100
AcDbEntity
  8
0
  6
CONTINUOUS
100
AcDbLine
 10
15.15036518892213
 20
5.513807660471122
 30
0.0
 11
17.05541162217424
 21
7.418854093723231
 31
0.0
  0
LINE
  5
A3ECB
330
A3EB8
100
AcDbEntity
  8
0
  6
CONTINUOUS
100
AcDbLine
 10
14.74459412247225
 20
4.434517384941048
 30
0.0
 11
17.2394407932377
 21
6.929364055706499
 31
0.0
  0
LINE
  5
A3ECC
330
A3EB8
100
AcDbEntity
  8
0
  6
CONTINUOUS
100
AcDbLine
 10
14.33882305602236
 20
3.355227109410975
 30
0.0
 11
17.42346996430115
 21
6.439874017689766
 31
0.0
  0
LINE
  5
A3ECD
330
A3EB8
100
AcDbEntity
  8
0
  6
CONTINUOUS
100
AcDbLine
 10
13.46705359186416
 20
1.809938436172586
 30
0.0
 11
16.0819338255367
 21
4.424818669845129
 31
0.0
  0
LINE
  5
A3ECE
330
A3EB8
100
AcDbEntity
  8
0
  6
CONTINUOUS
100
AcDbLine
 10
16.63283254238972
 20
4.975717386698149
 30
0.0
 11
17.60749913536461
 21
5.950383979673033
 31
0.0
  0
LINE
  5
A3ECF
330
A3EB8
100
AcDbEntity
  8
0
  6
CONTINUOUS
100
AcDbLine
 10
13.66663434263929
 20
1.335999977867529
 30
0.0
 11
15.67604797733754
 21
3.345413612565779
 31
0.0
  0
LINE
  5
A3ED0
330
A3EB8
100
AcDbEntity
  8
0
  6
CONTINUOUS
100
AcDbLine
 10
13.86621509341442
 20
0.8620615195624723
 30
0.0
 11
15.27016212913838
 21
2.26600855528643
 31
0.0
  0
LINE
  5
A3ED1
330
A3EB8
100
AcDbEntity
  8
0
  6
CONTINUOUS
100
AcDbLine
 10
16.81682257348267
 20
4.486188208710908
 30
0.0
 11
17.79152830642806
 21
5.460893941656299
 31
0.0
  0
LINE
  5
A3ED2
330
A3EB8
100
AcDbEntity
  8
0
  6
CONTINUOUS
100
AcDbLine
 10
17.00081260457561
 20
3.996659030723667
 30
0.0
 11
17.97555747749151
 21
4.971403903639565
 31
0.0
  0
LINE
  5
A3ED3
330
A3EB8
100
AcDbEntity
  8
0
  6
CONTINUOUS
100
AcDbLine
 10
20.74362343514722
 20
8.412989070375462
 30
0.0
 11
21.09373436476302
 21
8.763099999991256
 31
0.0
  0
LINE
  5
A3ED4
330
A3EB8
100
AcDbEntity
  8
0
  6
CONTINUOUS
100
AcDbLine
 10
20.25401257174777
 20
7.249858997895826
 30
0.0
 11
21.7672535738432
 21
8.763099999991255
 31
0.0
  0
LINE
  5
A3ED5
330
A3EB8
100
AcDbEntity
  8
0
  6
CONTINUOUS
100
AcDbLine
 10
14.06579584418955
 20
0.3881230612574149
 30
0.0
 11
14.86427628093921
 21
1.186603498007082
 31
0.0
  0
LINE
  5
A3ED6
330
A3EB8
100
AcDbEntity
  8
0
  6
CONTINUOUS
100
AcDbLine
 10
14.26537659496467
 20
-0.0858153970476412
 30
0.0
 11
14.45839043274005
 21
0.1071984407277329
 31
0.0
  0
LINE
  5
A3ED7
330
A3EB8
100
AcDbEntity
  8
0
  6
CONTINUOUS
100
AcDbLine
 10
17.18480263566856
 20
3.507129852736426
 30
0.0
 11
18.15958664855496
 21
4.481913865622833
 31
0.0
  0
LINE
  5
A3ED8
330
A3EB8
100
AcDbEntity
  8
0
  6
CONTINUOUS
100
AcDbLine
 10
17.3687926667615
 20
3.017600674749186
 30
0.0
 11
18.34361581961842
 21
3.9924238276061
 31
0.0
  0
LINE
  5
A3ED9
330
A3EB8
100
AcDbEntity
  8
0
  6
CONTINUOUS
100
AcDbLine
 10
19.76440170834832
 20
6.086728925416191
 30
0.0
 11
22.33924590259489
 21
8.661573119662755
 31
0.0
  0
LINE
  5
A3EDA
330
A3EB8
100
AcDbEntity
  8
0
  6
CONTINUOUS
100
AcDbLine
 10
19.27479084494887
 20
4.923598852936555
 30
0.0
 11
21.84929622842713
 21
7.498104236414807
 31
0.0
  0
LINE
  5
A3EDB
330
A3EB8
100
AcDbEntity
  8
0
  6
CONTINUOUS
100
AcDbLine
 10
17.55278269785445
 20
2.528071496761945
 30
0.0
 11
18.52764499068187
 21
3.502933789589366
 31
0.0
  0
LINE
  5
A3EDC
330
A3EB8
100
AcDbEntity
  8
0
  6
CONTINUOUS
100
AcDbLine
 10
18.78517998154942
 20
3.760468780456919
 30
0.0
 11
21.35934655425936
 21
6.33463535316686
 31
0.0
  0
LINE
  5
A3EDD
330
A3EB8
100
AcDbEntity
  8
0
  6
CONTINUOUS
100
AcDbLine
 10
17.73677272894739
 20
2.038542318774704
 30
0.0
 11
20.8693968800916
 21
5.171166469918914
 31
0.0
  0
LINE
  5
A3EDE
330
A3EB8
100
AcDbEntity
  8
0
  6
CONTINUOUS
100
AcDbLine
 10
17.92076276004034
 20
1.549013140787464
 30
0.0
 11
20.37944720592384
 21
4.007697586670968
 31
0.0
  0
LINE
  5
A3EDF
330
A3EB8
100
AcDbEntity
  8
0
  6
CONTINUOUS
100
AcDbLine
 10
18.10475279113329
 20
1.059483962800223
 30
0.0
 11
19.88949753175608
 21
2.84422870342302
 31
0.0
  0
LINE
  5
A3EE0
330
A3EB8
100
AcDbEntity
  8
0
  6
CONTINUOUS
100
AcDbLine
 10
18.28874282222623
 20
0.5699547848129822
 30
0.0
 11
19.39954785758832
 21
1.680759820175074
 31
0.0
  0
LINE
  5
A3EE1
330
A3EB8
100
AcDbEntity
  8
0
  6
CONTINUOUS
100
AcDbLine
 10
18.47273285331918
 20
0.0804256068257416
 30
0.0
 11
18.90959818342056
 21
0.517290936927127
 31
0.0
  0
LINE
  5
A3EE2
330
A3EB8
100
AcDbEntity
  8
0
  6
CONTINUOUS
100
AcDbLine
 10
14.3590401358224
 20
-0.1570118376323384
 30
0.0
 11
14.24903296539946
 21
-0.0470046672093929
 31
0.0
  0
LINE
  5
A3EE3
330
A3EB8
100
AcDbEntity
  8
0
  6
CONTINUOUS
100
AcDbLine
 10
14.54309291258661
 20
0.332454594683643
 30
0.0
 11
13.75908329123172
 21
1.116464216038529
 31
0.0
  0
LINE
  5
A3EE4
330
A3EB8
100
AcDbEntity
  8
0
  6
CONTINUOUS
100
AcDbLine
 10
14.72714568935081
 20
0.8219210269996244
 30
0.0
 11
13.26913361706399
 21
2.27993309928645
 31
0.0
  0
LINE
  5
A3EE5
330
A3EB8
100
AcDbEntity
  8
0
  6
CONTINUOUS
100
AcDbLine
 10
14.91119846611502
 20
1.311387459315606
 30
0.0
 11
12.77918394289625
 21
3.443401982534371
 31
0.0
  0
LINE
  5
A3EE6
330
A3EB8
100
AcDbEntity
  8
0
  6
CONTINUOUS
100
AcDbLine
 10
15.09525124287922
 20
1.800853891631587
 30
0.0
 11
12.28923426872852
 21
4.606870865782293
 31
0.0
  0
LINE
  5
A3EE7
330
A3EB8
100
AcDbEntity
  8
0
  6
CONTINUOUS
100
AcDbLine
 10
15.27930401964343
 20
2.290320323947569
 30
0.0
 11
11.79928459456078
 21
5.770339749030213
 31
0.0
  0
LINE
  5
A3EE8
330
A3EB8
100
AcDbEntity
  8
0
  6
CONTINUOUS
100
AcDbLine
 10
15.46335679640763
 20
2.77978675626355
 30
0.0
 11
14.48885470994921
 21
3.754288842721972
 31
0.0
  0
LINE
  5
A3EE9
330
A3EB8
100
AcDbEntity
  8
0
  6
CONTINUOUS
100
AcDbLine
 10
13.88507249233704
 20
4.358071060334137
 30
0.0
 11
11.30933492039305
 21
6.933808632278135
 31
0.0
  0
LINE
  5
A3EEA
330
A3EB8
100
AcDbEntity
  8
0
  6
CONTINUOUS
100
AcDbLine
 10
18.75840522805855
 20
0.1582575336928151
 30
0.0
 11
18.25383727664818
 21
0.6628254851031863
 31
0.0
  0
LINE
  5
A3EEB
330
A3EB8
100
AcDbEntity
  8
0
  6
CONTINUOUS
100
AcDbLine
 10
15.64740957317184
 20
3.269253188579531
 30
0.0
 11
14.67288388101266
 21
4.243778880738705
 31
0.0
  0
LINE
  5
A3EEC
330
A3EB8
100
AcDbEntity
  8
0
  6
CONTINUOUS
100
AcDbLine
 10
13.39509276772158
 20
5.521569994029786
 30
0.0
 11
10.81938524622531
 21
8.097277515526056
 31
0.0
  0
LINE
  5
A3EED
330
A3EB8
100
AcDbEntity
  8
0
  6
CONTINUOUS
100
AcDbLine
 10
18.95798597883369
 20
0.6321959919978686
 30
0.0
 11
17.84825644852853
 21
1.741925522303024
 31
0.0
  0
LINE
  5
A3EEE
330
A3EB8
100
AcDbEntity
  8
0
  6
CONTINUOUS
100
AcDbLine
 10
19.15756672960882
 20
1.106134450302922
 30
0.0
 11
17.44267562040888
 21
2.821025559502861
 31
0.0
  0
LINE
  5
A3EEF
330
A3EB8
100
AcDbEntity
  8
0
  6
CONTINUOUS
100
AcDbLine
 10
15.83146234993604
 20
3.758719620895513
 30
0.0
 11
14.85691305207612
 21
4.733268918755439
 31
0.0
  0
LINE
  5
A3EF0
330
A3EB8
100
AcDbEntity
  8
0
  6
CONTINUOUS
100
AcDbLine
 10
16.01551512670025
 20
4.248186053211494
 30
0.0
 11
15.04094222313957
 21
5.222758956772172
 31
0.0
  0
LINE
  5
A3EF1
330
A3EB8
100
AcDbEntity
  8
0
  6
CONTINUOUS
100
AcDbLine
 10
12.90511304310612
 20
6.685068927725435
 30
0.0
 11
10.8270819708403
 21
8.763099999991255
 31
0.0
  0
LINE
  5
A3EF2
330
A3EB8
100
AcDbEntity
  8
0
  6
CONTINUOUS
100
AcDbLine
 10
12.41513331849066
 20
7.848567861421083
 30
0.0
 11
11.50060117992049
 21
8.763099999991255
 31
0.0
  0
LINE
  5
A3EF3
330
A3EB8
100
AcDbEntity
  8
0
  6
CONTINUOUS
100
AcDbLine
 10
19.35714748038395
 20
1.580072908607975
 30
0.0
 11
17.03709479228923
 21
3.900125596702697
 31
0.0
  0
LINE
  5
A3EF4
330
A3EB8
100
AcDbEntity
  8
0
  6
CONTINUOUS
100
AcDbLine
 10
19.55672823115909
 20
2.054011366913028
 30
0.0
 11
16.63151396416958
 21
4.979225633902534
 31
0.0
  0
LINE
  5
A3EF5
330
A3EB8
100
AcDbEntity
  8
0
  6
CONTINUOUS
100
AcDbLine
 10
16.19956790346445
 20
4.737652485527476
 30
0.0
 11
15.22497139420302
 21
5.712248994788904
 31
0.0
  0
LINE
  5
A3EF6
330
A3EB8
100
AcDbEntity
  8
0
  6
CONTINUOUS
100
AcDbLine
 10
16.38362068022866
 20
5.227118917843457
 30
0.0
 11
15.40900056526648
 21
6.201739032805637
 31
0.0
  0
LINE
  5
A3EF7
330
A3EB8
100
AcDbEntity
  8
0
  6
CONTINUOUS
100
AcDbLine
 10
19.75630898193422
 20
2.527949825218081
 30
0.0
 11
18.70774536448286
 21
3.576513442669441
 31
0.0
  0
LINE
  5
A3EF8
330
A3EB8
100
AcDbEntity
  8
0
  6
CONTINUOUS
100
AcDbLine
 10
19.95588973270936
 20
3.001888283523134
 30
0.0
 11
18.90726987211446
 21
4.050508144118028
 31
0.0
  0
LINE
  5
A3EF9
330
A3EB8
100
AcDbEntity
  8
0
  6
CONTINUOUS
100
AcDbLine
 10
20.15547048348449
 20
3.475826741828186
 30
0.0
 11
19.10679437974606
 21
4.524502845566614
 31
0.0
  0
LINE
  5
A3EFA
330
A3EB8
100
AcDbEntity
  8
0
  6
CONTINUOUS
100
AcDbLine
 10
20.35505123425962
 20
3.94976520013324
 30
0.0
 11
19.30631888737766
 21
4.998497547015201
 31
0.0
  0
LINE
  5
A3EFB
330
A3EB8
100
AcDbEntity
  8
0
  6
CONTINUOUS
100
AcDbLine
 10
20.55463198503475
 20
4.423703658438292
 30
0.0
 11
19.50584339500926
 21
5.472492248463787
 31
0.0
  0
LINE
  5
A3EFC
330
A3EB8
100
AcDbEntity
  8
0
  6
CONTINUOUS
100
AcDbLine
 10
18.37481191085755
 20
3.909446896294752
 30
0.0
 11
15.59302973632993
 21
6.691229070822371
 31
0.0
  0
LINE
  5
A3EFD
330
A3EB8
100
AcDbEntity
  8
0
  6
CONTINUOUS
100
AcDbLine
 10
17.96904084440766
 20
4.988737171824825
 30
0.0
 11
15.77705890739338
 21
7.180719108839104
 31
0.0
  0
LINE
  5
A3EFE
330
A3EB8
100
AcDbEntity
  8
0
  6
CONTINUOUS
100
AcDbLine
 10
17.56326977795777
 20
6.068027447354899
 30
0.0
 11
15.96108807845684
 21
7.670209146855838
 31
0.0
  0
LINE
  5
A3EFF
330
A3EB8
100
AcDbEntity
  8
0
  6
CONTINUOUS
100
AcDbLine
 10
17.15749871150789
 20
7.147317722884972
 30
0.0
 11
16.14511724952029
 21
8.15969918487257
 31
0.0
  0
LINE
  5
A3F00
330
A3EB8
100
AcDbEntity
  8
0
  6
CONTINUOUS
100
AcDbLine
 10
16.751727645058
 20
8.226607998415046
 30
0.0
 11
16.32914642058374
 21
8.649189222889303
 31
0.0
  0
LINE
  5
A3F01
330
A3EB8
100
AcDbEntity
  8
0
  6
CONTINUOUS
100
AcDbLine
 10
20.75421273580989
 20
4.897642116743345
 30
0.0
 11
19.70536790264086
 21
5.946486949912374
 31
0.0
  0
LINE
  5
A3F02
330
A3EB8
100
AcDbEntity
  8
0
  6
CONTINUOUS
100
AcDbLine
 10
20.95379348658502
 20
5.371580575048398
 30
0.0
 11
19.90489241027246
 21
6.42048165136096
 31
0.0
  0
LINE
  5
A3F03
330
A3EB8
100
AcDbEntity
  8
0
  6
CONTINUOUS
100
AcDbLine
 10
21.15337423736015
 20
5.845519033353452
 30
0.0
 11
20.10441691790406
 21
6.894476352809547
 31
0.0
  0
LINE
  5
A3F04
330
A3EB8
100
AcDbEntity
  8
0
  6
CONTINUOUS
100
AcDbLine
 10
21.35295498813529
 20
6.319457491658505
 30
0.0
 11
20.30394142553566
 21
7.368471054258134
 31
0.0
  0
LINE
  5
A3F05
330
A3EB8
100
AcDbEntity
  8
0
  6
CONTINUOUS
100
AcDbLine
 10
21.55253573891042
 20
6.793395949963558
 30
0.0
 11
20.50346593316726
 21
7.842465755706721
 31
0.0
  0
LINE
  5
A3F06
330
A3EB8
100
AcDbEntity
  8
0
  6
CONTINUOUS
100
AcDbLine
 10
21.75211648968556
 20
7.267334408268612
 30
0.0
 11
20.70299044079886
 21
8.316460457155308
 31
0.0
  0
LINE
  5
A3F07
330
A3EB8
100
AcDbEntity
  8
0
  6
CONTINUOUS
100
AcDbLine
 10
21.95169724046069
 20
7.741272866573663
 30
0.0
 11
20.9298701070431
 21
8.763099999991256
 31
0.0
  0
LINE
  5
A3F08
330
A3EB8
100
AcDbEntity
  8
0
  6
CONTINUOUS
100
AcDbLine
 10
22.15127799123582
 20
8.215211324878716
 30
0.0
 11
21.60338931612328
 21
8.763099999991256
 31
0.0
  0
LINE
  5
A3F09
330
A3EB8
100
AcDbEntity
  8
0
  6
CONTINUOUS
100
AcDbLine
 10
22.35085874201096
 20
8.689149783183769
 30
0.0
 11
22.27690852520347
 21
8.763099999991255
 31
0.0
  0
ENDBLK
  5
A3FFB
330
A3EB8
100
AcDbEntity
  8
0
100
AcDbBlockEnd
  0
BLOCK
  5
A3FFC
330
A3F0A
100
AcDbEntity
  8
0
100
AcDbBlockBegin
  2
*X18
 70
     1
 10
0.0
 20
0.0
 30
0.0
  3
*X18
  1

  0
LINE
  5
A3F0B
330
A3F0A
100
AcDbEntity
  8
0
  6
CONTINUOUS
100
AcDbLine
 10
23.19462913593892
 20
8.169917934846424
 30
0.0
 11
23.70775465517246
 21
8.683043454079957
 31
0.0
  0
LINE
  5
A3F0C
330
A3F0A
100
AcDbEntity
  8
0
  6
CONTINUOUS
100
AcDbLine
 10
22.64923161835078
 20
6.951001208178088
 30
0.0
 11
23.9159364069932
 21
8.217705996820516
 31
0.0
  0
LINE
  5
A3F0D
330
A3F0A
100
AcDbEntity
  8
0
  6
CONTINUOUS
100
AcDbLine
 10
22.10383410076263
 20
5.732084481509751
 30
0.0
 11
24.12411815881395
 21
7.752368539561078
 31
0.0
  0
LINE
  5
A3F0E
330
A3F0A
100
AcDbEntity
  8
0
  6
CONTINUOUS
100
AcDbLine
 10
21.55843658317447
 20
4.513167754841414
 30
0.0
 11
24.3322999106347
 21
7.287031082301639
 31
0.0
  0
LINE
  5
A3F0F
330
A3F0A
100
AcDbEntity
  8
0
  6
CONTINUOUS
100
AcDbLine
 10
21.01303906558632
 20
3.294251028173077
 30
0.0
 11
24.54048166245544
 21
6.821693625042199
 31
0.0
  0
LINE
  5
A3F10
330
A3F0A
100
AcDbEntity
  8
0
  6
CONTINUOUS
100
AcDbLine
 10
20.46764154799817
 20
2.075334301504738
 30
0.0
 11
23.28571549467848
 21
4.89340824818505
 31
0.0
  0
LINE
  5
A3F11
330
A3F0A
100
AcDbEntity
  8
0
  6
CONTINUOUS
100
AcDbLine
 10
19.92224403041002
 20
0.8564175748364002
 30
0.0
 11
22.74075865492779
 21
3.674932199354171
 31
0.0
  0
LINE
  5
A3F12
330
A3F0A
100
AcDbEntity
  8
0
  6
CONTINUOUS
100
AcDbLine
 10
23.67305085490148
 20
5.280743608408048
 30
0.0
 11
24.74866341427619
 21
6.356356167782759
 31
0.0
  0
LINE
  5
A3F13
330
A3F0A
100
AcDbEntity
  8
0
  6
CONTINUOUS
100
AcDbLine
 10
23.88118970842314
 20
4.815363252849522
 30
0.0
 11
24.95684516609694
 21
5.89101871052332
 31
0.0
  0
LINE
  5
A3F14
330
A3F0A
100
AcDbEntity
  8
0
  6
CONTINUOUS
100
AcDbLine
 10
19.73925852647308
 20
-0.0000871381807288
 30
0.0
 11
23.4103456646501
 21
3.670999999996297
 31
0.0
  0
LINE
  5
A3F15
330
A3F0A
100
AcDbEntity
  8
0
  6
CONTINUOUS
100
AcDbLine
 10
24.0893285619448
 20
4.349982897290997
 30
0.0
 11
25.16502691791769
 21
5.42568125326388
 31
0.0
  0
LINE
  5
A3F16
330
A3F0A
100
AcDbEntity
  8
0
  6
CONTINUOUS
100
AcDbLine
 10
20.41282099582748
 20
-0.0000438779065108
 30
0.0
 11
21.64944178675636
 21
1.236576913022366
 31
0.0
  0
LINE
  5
A3F17
330
A3F0A
100
AcDbEntity
  8
0
  6
CONTINUOUS
100
AcDbLine
 10
22.78126487373161
 20
2.36839999999762
 30
0.0
 11
24.08386487373029
 21
3.670999999996297
 31
0.0
  0
LINE
  5
A3F18
330
A3F0A
100
AcDbEntity
  8
0
  6
CONTINUOUS
100
AcDbLine
 10
24.29746741546646
 20
3.884602541732471
 30
0.0
 11
25.37320866973843
 21
4.960343796004441
 31
0.0
  0
LINE
  5
A3F19
330
A3F0A
100
AcDbEntity
  8
0
  6
CONTINUOUS
100
AcDbLine
 10
21.08638346518189
 20
-0.0000006176322938
 30
0.0
 11
21.10379033335899
 21
0.0174062505448083
 31
0.0
  0
LINE
  5
A3F1A
330
A3F0A
100
AcDbEntity
  8
0
  6
CONTINUOUS
100
AcDbLine
 10
23.4547840828118
 20
2.36839999999762
 30
0.0
 11
25.58139042155918
 21
4.495006338745002
 31
0.0
  0
LINE
  5
A3F1B
330
A3F0A
100
AcDbEntity
  8
0
  6
CONTINUOUS
100
AcDbLine
 10
29.30199999996933
 20
8.215615917155148
 30
0.0
 11
29.84948408280543
 21
8.763099999991255
 31
0.0
  0
LINE
  5
A3F1C
330
A3F0A
100
AcDbEntity
  8
0
  6
CONTINUOUS
100
AcDbLine
 10
24.12830329189199
 20
2.36839999999762
 30
0.0
 11
25.78957217337993
 21
4.029668881485562
 31
0.0
  0
LINE
  5
A3F1D
330
A3F0A
100
AcDbEntity
  8
0
  6
CONTINUOUS
100
AcDbLine
 10
29.30199999996933
 20
7.54209670807496
 30
0.0
 11
30.52300329188562
 21
8.763099999991255
 31
0.0
  0
LINE
  5
A3F1E
330
A3F0A
100
AcDbEntity
  8
0
  6
CONTINUOUS
100
AcDbLine
 10
24.80182250097217
 20
2.36839999999762
 30
0.0
 11
25.99775392520067
 21
3.564331424226122
 31
0.0
  0
LINE
  5
A3F1F
330
A3F0A
100
AcDbEntity
  8
0
  6
CONTINUOUS
100
AcDbLine
 10
29.30199999996933
 20
6.868577498994774
 30
0.0
 11
30.74199999996926
 21
8.308577498994712
 31
0.0
  0
LINE
  5
A3F20
330
A3F0A
100
AcDbEntity
  8
0
  6
CONTINUOUS
100
AcDbLine
 10
25.13028238392013
 20
2.023340673865392
 30
0.0
 11
26.20593567702142
 21
3.098993966966683
 31
0.0
  0
LINE
  5
A3F21
330
A3F0A
100
AcDbEntity
  8
0
  6
CONTINUOUS
100
AcDbLine
 10
25.33838066033617
 20
1.557919741201244
 30
0.0
 11
26.41411742884217
 21
2.633656509707244
 31
0.0
  0
LINE
  5
A3F22
330
A3F0A
100
AcDbEntity
  8
0
  6
CONTINUOUS
100
AcDbLine
 10
25.54647893675221
 20
1.092498808537098
 30
0.0
 11
26.62229918066291
 21
2.168319052447804
 31
0.0
  0
LINE
  5
A3F23
330
A3F0A
100
AcDbEntity
  8
0
  6
CONTINUOUS
100
AcDbLine
 10
25.75457721316825
 20
0.62707787587295
 30
0.0
 11
26.83048093248366
 21
1.702981595188365
 31
0.0
  0
LINE
  5
A3F24
330
A3F0A
100
AcDbEntity
  8
0
  6
CONTINUOUS
100
AcDbLine
 10
29.30199999996933
 20
6.195058289914587
 30
0.0
 11
30.74199999996926
 21
7.635058289914522
 31
0.0
  0
LINE
  5
A3F25
330
A3F0A
100
AcDbEntity
  8
0
  6
CONTINUOUS
100
AcDbLine
 10
29.30199999996933
 20
5.521539080834401
 30
0.0
 11
30.74199999996926
 21
6.961539080834331
 31
0.0
  0
LINE
  5
A3F26
330
A3F0A
100
AcDbEntity
  8
0
  6
CONTINUOUS
100
AcDbLine
 10
29.30199999996933
 20
4.848019871754214
 30
0.0
 11
30.74199999996925
 21
6.288019871754143
 31
0.0
  0
LINE
  5
A3F27
330
A3F0A
100
AcDbEntity
  8
0
  6
CONTINUOUS
100
AcDbLine
 10
29.30199999996933
 20
4.174500662674028
 30
0.0
 11
30.74199999996925
 21
5.614500662673953
 31
0.0
  0
LINE
  5
A3F28
330
A3F0A
100
AcDbEntity
  8
0
  6
CONTINUOUS
100
AcDbLine
 10
25.96267548958429
 20
0.1616569432088024
 30
0.0
 11
27.18411854636669
 21
1.383099999991207
 31
0.0
  0
LINE
  5
A3F29
330
A3F0A
100
AcDbEntity
  8
0
  6
CONTINUOUS
100
AcDbLine
 10
29.30199999996933
 20
3.500981453593841
 30
0.0
 11
30.74199999996925
 21
4.940981453593762
 31
0.0
  0
LINE
  5
A3F2A
330
A3F0A
100
AcDbEntity
  8
0
  6
CONTINUOUS
100
AcDbLine
 10
26.50763775544691
 20
0.0330999999912356
 30
0.0
 11
27.85763775544689
 21
1.383099999991223
 31
0.0
  0
LINE
  5
A3F2B
330
A3F0A
100
AcDbEntity
  8
0
  6
CONTINUOUS
100
AcDbLine
 10
29.30199999996933
 20
2.827462244513656
 30
0.0
 11
30.74199999996925
 21
4.267462244513574
 31
0.0
  0
LINE
  5
A3F2C
330
A3F0A
100
AcDbEntity
  8
0
  6
CONTINUOUS
100
AcDbLine
 10
27.18115696452709
 20
0.0330999999912356
 30
0.0
 11
28.57843169463094
 21
1.430374730095086
 31
0.0
  0
LINE
  5
A3F2D
330
A3F0A
100
AcDbEntity
  8
0
  6
CONTINUOUS
100
AcDbLine
 10
29.2547252698654
 20
2.106668305329547
 30
0.0
 11
30.74199999996924
 21
3.593943035433384
 31
0.0
  0
LINE
  5
A3F2E
330
A3F0A
100
AcDbEntity
  8
0
  6
CONTINUOUS
100
AcDbLine
 10
27.85467617360728
 20
0.0330999999912356
 30
0.0
 11
30.74199999996924
 21
2.920423826353195
 31
0.0
  0
LINE
  5
A3F2F
330
A3F0A
100
AcDbEntity
  8
0
  6
CONTINUOUS
100
AcDbLine
 10
28.55194421293851
 20
0.0568488302422763
 30
0.0
 11
30.71825116971818
 21
2.223155787021951
 31
0.0
  0
LINE
  5
A3F30
330
A3F0A
100
AcDbEntity
  8
0
  6
CONTINUOUS
100
AcDbLine
 10
29.51480923620385
 20
0.346194644427432
 30
0.0
 11
30.42890535553301
 21
1.260290763756593
 31
0.0
  0
LINE
  5
A3F31
330
A3F0A
100
AcDbEntity
  8
0
  6
CONTINUOUS
100
AcDbLine
 10
19.59027867740337
 20
-0.0000967065718083
 30
0.0
 11
19.55485265190471
 21
0.035329318926844
 31
0.0
  0
LINE
  5
A3F32
330
A3F0A
100
AcDbEntity
  8
0
  6
CONTINUOUS
100
AcDbLine
 10
20.26375463176586
 20
-0.0000534518541091
 30
0.0
 11
19.76305575737534
 21
0.5006454225364014
 31
0.0
  0
LINE
  5
A3F33
330
A3F0A
100
AcDbEntity
  8
0
  6
CONTINUOUS
100
AcDbLine
 10
20.93723058612834
 20
-0.0000101971364099
 30
0.0
 11
19.97125886284597
 21
0.965961526145958
 31
0.0
  0
LINE
  5
A3F34
330
A3F0A
100
AcDbEntity
  8
0
  6
CONTINUOUS
100
AcDbLine
 10
21.25514828313686
 20
0.355591314935257
 30
0.0
 11
20.1794619683166
 21
1.431277629755512
 31
0.0
  0
LINE
  5
A3F35
330
A3F0A
100
AcDbEntity
  8
0
  6
CONTINUOUS
100
AcDbLine
 10
21.46338838394921
 20
0.8208704232030986
 30
0.0
 11
20.38766507378723
 21
1.896593733365069
 31
0.0
  0
LINE
  5
A3F36
330
A3F0A
100
AcDbEntity
  8
0
  6
CONTINUOUS
100
AcDbLine
 10
21.67162848476155
 20
1.28614953147094
 30
0.0
 11
20.59586817925786
 21
2.361909836974626
 31
0.0
  0
LINE
  5
A3F37
330
A3F0A
100
AcDbEntity
  8
0
  6
CONTINUOUS
100
AcDbLine
 10
21.8798685855739
 20
1.751428639738782
 30
0.0
 11
20.80407128472849
 21
2.827225940584183
 31
0.0
  0
LINE
  5
A3F38
330
A3F0A
100
AcDbEntity
  8
0
  6
CONTINUOUS
100
AcDbLine
 10
22.08810868638624
 20
2.216707748006623
 30
0.0
 11
21.01227439019912
 21
3.292542044193739
 31
0.0
  0
LINE
  5
A3F39
330
A3F0A
100
AcDbEntity
  8
0
  6
CONTINUOUS
100
AcDbLine
 10
22.60993564347543
 20
2.36839999999762
 30
0.0
 11
21.22047749566975
 21
3.757858147803296
 31
0.0
  0
LINE
  5
A3F3A
330
A3F0A
100
AcDbEntity
  8
0
  6
CONTINUOUS
100
AcDbLine
 10
23.28345485255561
 20
2.36839999999762
 30
0.0
 11
21.42868060114038
 21
4.223174251412853
 31
0.0
  0
LINE
  5
A3F3B
330
A3F0A
100
AcDbEntity
  8
0
  6
CONTINUOUS
100
AcDbLine
 10
26.29227406164219
 20
0.0330999999912356
 30
0.0
 11
25.80009199592872
 21
0.5252820657046957
 31
0.0
  0
LINE
  5
A3F3C
330
A3F0A
100
AcDbEntity
  8
0
  6
CONTINUOUS
100
AcDbLine
 10
23.9569740616358
 20
2.36839999999762
 30
0.0
 11
21.63688370661101
 21
4.688490355022409
 31
0.0
  0
LINE
  5
A3F3D
330
A3F0A
100
AcDbEntity
  8
0
  6
CONTINUOUS
100
AcDbLine
 10
26.96579327072237
 20
0.0330999999912356
 30
0.0
 11
25.2554132311971
 21
1.743480039516508
 31
0.0
  0
LINE
  5
A3F3E
330
A3F0A
100
AcDbEntity
  8
0
  6
CONTINUOUS
100
AcDbLine
 10
24.63049327071599
 20
2.36839999999762
 30
0.0
 11
23.32789327071731
 21
3.670999999996297
 31
0.0
  0
LINE
  5
A3F3F
330
A3F0A
100
AcDbEntity
  8
0
  6
CONTINUOUS
100
AcDbLine
 10
22.92098674744635
 20
4.077906523267254
 30
0.0
 11
21.84508681208164
 21
5.153806458631966
 31
0.0
  0
LINE
  5
A3F40
330
A3F0A
100
AcDbEntity
  8
0
  6
CONTINUOUS
100
AcDbLine
 10
27.63931247980256
 20
0.0330999999912356
 30
0.0
 11
24.0014124797975
 21
3.670999999996297
 31
0.0
  0
LINE
  5
A3F41
330
A3F0A
100
AcDbEntity
  8
0
  6
CONTINUOUS
100
AcDbLine
 10
23.129125600968
 20
4.5432868788258
 30
0.0
 11
22.05328991755227
 21
5.619122562241522
 31
0.0
  0
LINE
  5
A3F42
330
A3F0A
100
AcDbEntity
  8
0
  6
CONTINUOUS
100
AcDbLine
 10
28.31283168888275
 20
0.0330999999912356
 30
0.0
 11
24.16488385994816
 21
4.181047828925828
 31
0.0
  0
LINE
  5
A3F43
330
A3F0A
100
AcDbEntity
  8
0
  6
CONTINUOUS
100
AcDbLine
 10
23.33726445448964
 20
5.008667234384345
 30
0.0
 11
22.2614930230229
 21
6.084438665851079
 31
0.0
  0
LINE
  5
A3F44
330
A3F0A
100
AcDbEntity
  8
0
  6
CONTINUOUS
100
AcDbLine
 10
28.90645333830136
 20
0.1129975596528112
 30
0.0
 11
27.63635089796295
 21
1.383099999991217
 31
0.0
  0
LINE
  5
A3F45
330
A3F0A
100
AcDbEntity
  8
0
  6
CONTINUOUS
100
AcDbLine
 10
26.43704649509776
 20
2.582404402856405
 30
0.0
 11
23.61992702019732
 21
5.399523877756844
 31
0.0
  0
LINE
  5
A3F46
330
A3F0A
100
AcDbEntity
  8
0
  6
CONTINUOUS
100
AcDbLine
 10
23.54540330801128
 20
5.47404758994289
 30
0.0
 11
22.46969612849353
 21
6.549754769460635
 31
0.0
  0
LINE
  5
A3F47
330
A3F0A
100
AcDbEntity
  8
0
  6
CONTINUOUS
100
AcDbLine
 10
29.40349360806839
 20
0.2894764989659606
 30
0.0
 11
28.30987010704312
 21
1.383099999991234
 31
0.0
  0
LINE
  5
A3F48
330
A3F0A
100
AcDbEntity
  8
0
  6
CONTINUOUS
100
AcDbLine
 10
25.89179548232307
 20
3.801174624711282
 30
0.0
 11
22.67789923396416
 21
7.015070873070191
 31
0.0
  0
LINE
  5
A3F49
330
A3F0A
100
AcDbEntity
  8
0
  6
CONTINUOUS
100
AcDbLine
 10
29.83195328664716
 20
0.5345360294673855
 30
0.0
 11
28.85740608974929
 21
1.50908322636525
 31
0.0
  0
LINE
  5
A3F4A
330
A3F0A
100
AcDbEntity
  8
0
  6
CONTINUOUS
100
AcDbLine
 10
25.34654446954838
 20
5.01994484656616
 30
0.0
 11
22.88610233943479
 21
7.480386976679748
 31
0.0
  0
LINE
  5
A3F4B
330
A3F0A
100
AcDbEntity
  8
0
  6
CONTINUOUS
100
AcDbLine
 10
30.16871289118725
 20
0.8712956340074771
 30
0.0
 11
29.18680861743091
 21
1.853199907763824
 31
0.0
  0
LINE
  5
A3F4C
330
A3F0A
100
AcDbEntity
  8
0
  6
CONTINUOUS
100
AcDbLine
 10
24.80129345677369
 20
6.238715068421037
 30
0.0
 11
23.09430544490542
 21
7.945703080289305
 31
0.0
  0
LINE
  5
A3F4D
330
A3F0A
100
AcDbEntity
  8
0
  6
CONTINUOUS
100
AcDbLine
 10
30.43711825255073
 20
1.276409481724182
 30
0.0
 11
29.30199999996933
 21
2.411527734305588
 31
0.0
  0
LINE
  5
A3F4E
330
A3F0A
100
AcDbEntity
  8
0
  6
CONTINUOUS
100
AcDbLine
 10
24.256042443999
 20
7.457485290275915
 30
0.0
 11
23.30250855037605
 21
8.411019183898862
 31
0.0
  0
LINE
  5
A3F4F
330
A3F0A
100
AcDbEntity
  8
0
  6
CONTINUOUS
100
AcDbLine
 10
30.6424542258006
 20
1.744592717554502
 30
0.0
 11
29.30199999996933
 21
3.085046943385775
 31
0.0
  0
LINE
  5
A3F50
330
A3F0A
100
AcDbEntity
  8
0
  6
CONTINUOUS
100
AcDbLine
 10
23.71079143122431
 20
8.676255512130794
 30
0.0
 11
23.51071165584668
 21
8.876335287508416
 31
0.0
  0
LINE
  5
A3F51
330
A3F0A
100
AcDbEntity
  8
0
  6
CONTINUOUS
100
AcDbLine
 10
30.73454365592805
 20
2.326022496507238
 30
0.0
 11
29.30199999996933
 21
3.758566152465961
 31
0.0
  0
LINE
  5
A3F52
330
A3F0A
100
AcDbEntity
  8
0
  6
CONTINUOUS
100
AcDbLine
 10
30.74199999996924
 20
2.992085361546236
 30
0.0
 11
29.30199999996933
 21
4.432085361546148
 31
0.0
  0
LINE
  5
A3F53
330
A3F0A
100
AcDbEntity
  8
0
  6
CONTINUOUS
100
AcDbLine
 10
30.74199999996924
 20
3.665604570626419
 30
0.0
 11
29.30199999996933
 21
5.105604570626333
 31
0.0
  0
LINE
  5
A3F54
330
A3F0A
100
AcDbEntity
  8
0
  6
CONTINUOUS
100
AcDbLine
 10
30.74199999996925
 20
4.339123779706602
 30
0.0
 11
29.30199999996933
 21
5.77912377970652
 31
0.0
  0
LINE
  5
A3F55
330
A3F0A
100
AcDbEntity
  8
0
  6
CONTINUOUS
100
AcDbLine
 10
30.74199999996925
 20
5.012642988786785
 30
0.0
 11
29.30199999996933
 21
6.452642988786707
 31
0.0
  0
LINE
  5
A3F56
330
A3F0A
100
AcDbEntity
  8
0
  6
CONTINUOUS
100
AcDbLine
 10
30.74199999996925
 20
5.68616219786697
 30
0.0
 11
29.30199999996933
 21
7.126162197866894
 31
0.0
  0
LINE
  5
A3F57
330
A3F0A
100
AcDbEntity
  8
0
  6
CONTINUOUS
100
AcDbLine
 10
30.74199999996925
 20
6.359681406947153
 30
0.0
 11
29.30199999996933
 21
7.799681406947081
 31
0.0
  0
LINE
  5
A3F58
330
A3F0A
100
AcDbEntity
  8
0
  6
CONTINUOUS
100
AcDbLine
 10
30.74199999996926
 20
7.033200616027337
 30
0.0
 11
29.30199999996933
 21
8.473200616027269
 31
0.0
  0
LINE
  5
A3F59
330
A3F0A
100
AcDbEntity
  8
0
  6
CONTINUOUS
100
AcDbLine
 10
30.74199999996926
 20
7.706719825107518
 30
0.0
 11
29.68561982508552
 21
8.763099999991255
 31
0.0
  0
LINE
  5
A3F5A
330
A3F0A
100
AcDbEntity
  8
0
  6
CONTINUOUS
100
AcDbLine
 10
30.74199999996926
 20
8.380239034187703
 30
0.0
 11
30.35913903416571
 21
8.763099999991255
 31
0.0
  0
ENDBLK
  5
A3FFD
330
A3F0A
100
AcDbEntity
  8
0
100
AcDbBlockEnd
  0
BLOCK
  5
A3FFE
330
A3F5B
100
AcDbEntity
  8
0
100
AcDbBlockBegin
  2
*X19
 70
     1
 10
0.0
 20
0.0
 30
0.0
  3
*X19
  1

  0
LINE
  5
A3F5C
330
A3F5B
100
AcDbEntity
  8
0
  6
CONTINUOUS
100
AcDbLine
 10
31.64199999996833
 20
8.5350582899136
 30
0.0
 11
31.87004171004599
 21
8.763099999991255
 31
0.0
  0
LINE
  5
A3F5D
330
A3F5B
100
AcDbEntity
  8
0
  6
CONTINUOUS
100
AcDbLine
 10
31.64199999996833
 20
7.861539080833413
 30
0.0
 11
32.54356091912618
 21
8.763099999991255
 31
0.0
  0
LINE
  5
A3F5E
330
A3F5B
100
AcDbEntity
  8
0
  6
CONTINUOUS
100
AcDbLine
 10
31.64199999996833
 20
7.188019871753227
 30
0.0
 11
33.08199999996839
 21
8.628019871753281
 31
0.0
  0
LINE
  5
A3F5F
330
A3F5B
100
AcDbEntity
  8
0
  6
CONTINUOUS
100
AcDbLine
 10
31.64199999996833
 20
6.514500662673041
 30
0.0
 11
33.08199999996839
 21
7.954500662673095
 31
0.0
  0
LINE
  5
A3F60
330
A3F5B
100
AcDbEntity
  8
0
  6
CONTINUOUS
100
AcDbLine
 10
31.64199999996833
 20
5.840981453592855
 30
0.0
 11
33.08199999996839
 21
7.28098145359291
 31
0.0
  0
LINE
  5
A3F61
330
A3F5B
100
AcDbEntity
  8
0
  6
CONTINUOUS
100
AcDbLine
 10
31.64199999996833
 20
5.167462244512668
 30
0.0
 11
33.08199999996839
 21
6.607462244512723
 31
0.0
  0
LINE
  5
A3F62
330
A3F5B
100
AcDbEntity
  8
0
  6
CONTINUOUS
100
AcDbLine
 10
31.64199999996833
 20
4.493943035432482
 30
0.0
 11
33.08199999996839
 21
5.933943035432536
 31
0.0
  0
LINE
  5
A3F63
330
A3F5B
100
AcDbEntity
  8
0
  6
CONTINUOUS
100
AcDbLine
 10
31.64199999996833
 20
3.820423826352294
 30
0.0
 11
33.08199999996839
 21
5.260423826352349
 31
0.0
  0
LINE
  5
A3F64
330
A3F5B
100
AcDbEntity
  8
0
  6
CONTINUOUS
100
AcDbLine
 10
31.64199999996833
 20
3.146904617272108
 30
0.0
 11
33.08199999996839
 21
4.586904617272163
 31
0.0
  0
LINE
  5
A3F65
330
A3F5B
100
AcDbEntity
  8
0
  6
CONTINUOUS
100
AcDbLine
 10
36.23199999996837
 20
8.410423826352327
 30
0.0
 11
36.58467617360729
 21
8.763099999991255
 31
0.0
  0
LINE
  5
A3F66
330
A3F5B
100
AcDbEntity
  8
0
  6
CONTINUOUS
100
AcDbLine
 10
36.23199999996837
 20
7.73690461727214
 30
0.0
 11
37.25819538268748
 21
8.763099999991255
 31
0.0
  0
LINE
  5
A3F67
330
A3F5B
100
AcDbEntity
  8
0
  6
CONTINUOUS
100
AcDbLine
 10
31.64295791647285
 20
2.474343324696431
 30
0.0
 11
33.08199999996839
 21
3.913385408191976
 31
0.0
  0
LINE
  5
A3F68
330
A3F5B
100
AcDbEntity
  8
0
  6
CONTINUOUS
100
AcDbLine
 10
31.72131278798881
 20
1.879178987132208
 30
0.0
 11
33.08199999996839
 21
3.239866199111789
 31
0.0
  0
LINE
  5
A3F69
330
A3F5B
100
AcDbEntity
  8
0
  6
CONTINUOUS
100
AcDbLine
 10
36.23199999996837
 20
7.063385408191953
 30
0.0
 11
37.67199999996831
 21
8.503385408191894
 31
0.0
  0
LINE
  5
A3F6A
330
A3F5B
100
AcDbEntity
  8
0
  6
CONTINUOUS
100
AcDbLine
 10
36.23199999996837
 20
6.389866199111767
 30
0.0
 11
37.67199999996831
 21
7.829866199111708
 31
0.0
  0
LINE
  5
A3F6B
330
A3F5B
100
AcDbEntity
  8
0
  6
CONTINUOUS
100
AcDbLine
 10
31.90398109638795
 20
1.388328086451165
 30
0.0
 11
33.08199999996839
 21
2.566346990031603
 31
0.0
  0
LINE
  5
A3F6C
330
A3F5B
100
AcDbEntity
  8
0
  6
CONTINUOUS
100
AcDbLine
 10
36.23199999996837
 20
5.71634699003158
 30
0.0
 11
37.67199999996831
 21
7.156346990031522
 31
0.0
  0
LINE
  5
A3F6D
330
A3F5B
100
AcDbEntity
  8
0
  6
CONTINUOUS
100
AcDbLine
 10
32.15410588803598
 20
0.9649336690190076
 30
0.0
 11
33.19577568229511
 21
2.006603463278144
 31
0.0
  0
LINE
  5
A3F6E
330
A3F5B
100
AcDbEntity
  8
0
  6
CONTINUOUS
100
AcDbLine
 10
36.23199999996837
 20
5.042827780951393
 30
0.0
 11
37.67199999996831
 21
6.482827780951334
 31
0.0
  0
LINE
  5
A3F6F
330
A3F5B
100
AcDbEntity
  8
0
  6
CONTINUOUS
100
AcDbLine
 10
32.45868320364774
 20
0.5959917755505852
 30
0.0
 11
33.48433514284099
 21
1.621643714743831
 31
0.0
  0
LINE
  5
A3F70
330
A3F5B
100
AcDbEntity
  8
0
  6
CONTINUOUS
100
AcDbLine
 10
36.23199999996837
 20
4.369308571871207
 30
0.0
 11
37.67199999996831
 21
5.809308571871148
 31
0.0
  0
LINE
  5
A3F71
330
A3F5B
100
AcDbEntity
  8
0
  6
CONTINUOUS
100
AcDbLine
 10
32.83977805121244
 20
0.3035674140350983
 30
0.0
 11
33.9144983171802
 21
1.378287680002859
 31
0.0
  0
LINE
  5
A3F72
330
A3F5B
100
AcDbEntity
  8
0
  6
CONTINUOUS
100
AcDbLine
 10
36.23199999996837
 20
3.695789362791021
 30
0.0
 11
37.67199999996831
 21
5.135789362790963
 31
0.0
  0
LINE
  5
A3F73
330
A3F5B
100
AcDbEntity
  8
0
  6
CONTINUOUS
100
AcDbLine
 10
33.28925592101007
 20
0.0795260747525335
 30
0.0
 11
34.4429104952855
 21
1.233180649027971
 31
0.0
  0
LINE
  5
A3F74
330
A3F5B
100
AcDbEntity
  8
0
  6
CONTINUOUS
100
AcDbLine
 10
36.23199999996837
 20
3.022270153710834
 30
0.0
 11
37.67199999996831
 21
4.462270153710776
 31
0.0
  0
LINE
  5
A3F75
330
A3F5B
100
AcDbEntity
  8
0
  6
CONTINUOUS
100
AcDbLine
 10
33.76550592101022
 20
-0.1177431343275011
 30
0.0
 11
35.18258581678813
 21
1.299336761450407
 31
0.0
  0
LINE
  5
A3F76
330
A3F5B
100
AcDbEntity
  8
0
  6
CONTINUOUS
100
AcDbLine
 10
36.20355631289775
 20
2.320307257560033
 30
0.0
 11
37.67199999996831
 21
3.788750944630589
 31
0.0
  0
LINE
  5
A3F77
330
A3F5B
100
AcDbEntity
  8
0
  6
CONTINUOUS
100
AcDbLine
 10
34.35908899259119
 20
-0.1976792718267175
 30
0.0
 11
37.67199999996831
 21
3.115231735550402
 31
0.0
  0
LINE
  5
A3F78
330
A3F5B
100
AcDbEntity
  8
0
  6
CONTINUOUS
100
AcDbLine
 10
35.04438808203069
 20
-0.1858993914674008
 30
0.0
 11
37.66594960818956
 21
2.435662134691464
 31
0.0
  0
LINE
  5
A3F79
330
A3F5B
100
AcDbEntity
  8
0
  6
CONTINUOUS
100
AcDbLine
 10
35.95405053101277
 20
0.0502438484344916
 30
0.0
 11
37.49337557446166
 21
1.589568891883381
 31
0.0
  0
LINE
  5
A3F7A
330
A3F5B
100
AcDbEntity
  8
0
  6
CONTINUOUS
100
AcDbLine
 10
32.48400274193772
 20
0.5765634104975641
 30
0.0
 11
32.34694398754057
 21
0.7136221648947103
 31
0.0
  0
LINE
  5
A3F7B
330
A3F5B
100
AcDbEntity
  8
0
  6
CONTINUOUS
100
AcDbLine
 10
33.86697683926317
 20
-0.1328914777477044
 30
0.0
 11
31.70105830546678
 21
2.033027056048692
 31
0.0
  0
LINE
  5
A3F7C
330
A3F5B
100
AcDbEntity
  8
0
  6
CONTINUOUS
100
AcDbLine
 10
34.64261010498837
 20
-0.2350055343927187
 30
0.0
 11
31.64199999996833
 21
2.765604570627322
 31
0.0
  0
LINE
  5
A3F7D
330
A3F5B
100
AcDbEntity
  8
0
  6
CONTINUOUS
100
AcDbLine
 10
35.24112258276081
 20
-0.1599988030849646
 30
0.0
 11
31.64199999996833
 21
3.439123779707508
 31
0.0
  0
LINE
  5
A3F7E
330
A3F5B
100
AcDbEntity
  8
0
  6
CONTINUOUS
100
AcDbLine
 10
35.777520339722
 20
-0.0228773509659694
 30
0.0
 11
34.52146233972803
 21
1.233180649027998
 31
0.0
  0
LINE
  5
A3F7F
330
A3F5B
100
AcDbEntity
  8
0
  6
CONTINUOUS
100
AcDbLine
 10
33.08199999996839
 20
2.672642988787641
 30
0.0
 11
31.64199999996833
 21
4.112642988787695
 31
0.0
  0
LINE
  5
A3F80
330
A3F5B
100
AcDbEntity
  8
0
  6
CONTINUOUS
100
AcDbLine
 10
36.25377033972294
 20
0.1743918581132773
 30
0.0
 11
35.14317118804349
 21
1.284991009792725
 31
0.0
  0
LINE
  5
A3F81
330
A3F5B
100
AcDbEntity
  8
0
  6
CONTINUOUS
100
AcDbLine
 10
33.08199999996839
 20
3.346162197867827
 30
0.0
 11
31.64199999996833
 21
4.786162197867881
 31
0.0
  0
LINE
  5
A3F82
330
A3F5B
100
AcDbEntity
  8
0
  6
CONTINUOUS
100
AcDbLine
 10
36.65748856908375
 20
0.4441928378326456
 30
0.0
 11
35.63696437513804
 21
1.464717031778358
 31
0.0
  0
LINE
  5
A3F83
330
A3F5B
100
AcDbEntity
  8
0
  6
CONTINUOUS
100
AcDbLine
 10
33.08199999996839
 20
4.019681406948013
 30
0.0
 11
31.64199999996833
 21
5.459681406948068
 31
0.0
  0
LINE
  5
A3F84
330
A3F5B
100
AcDbEntity
  8
0
  6
CONTINUOUS
100
AcDbLine
 10
37.00809517418186
 20
0.7671054418147287
 30
0.0
 11
35.99025189342645
 21
1.784948722570141
 31
0.0
  0
LINE
  5
A3F85
330
A3F5B
100
AcDbEntity
  8
0
  6
CONTINUOUS
100
AcDbLine
 10
33.08199999996839
 20
4.6932006160282
 30
0.0
 11
31.64199999996833
 21
6.133200616028255
 31
0.0
  0
LINE
  5
A3F86
330
A3F5B
100
AcDbEntity
  8
0
  6
CONTINUOUS
100
AcDbLine
 10
37.30051953569851
 20
1.148200289378269
 30
0.0
 11
36.19229254868971
 21
2.256427276387067
 31
0.0
  0
LINE
  5
A3F87
330
A3F5B
100
AcDbEntity
  8
0
  6
CONTINUOUS
100
AcDbLine
 10
33.08199999996839
 20
5.366719825108387
 30
0.0
 11
31.64199999996833
 21
6.806719825108441
 31
0.0
  0
LINE
  5
A3F88
330
A3F5B
100
AcDbEntity
  8
0
  6
CONTINUOUS
100
AcDbLine
 10
37.50488468691001
 20
1.617354347246954
 30
0.0
 11
36.23199999996837
 21
2.890239034188595
 31
0.0
  0
LINE
  5
A3F89
330
A3F5B
100
AcDbEntity
  8
0
  6
CONTINUOUS
100
AcDbLine
 10
33.08199999996839
 20
6.040239034188573
 30
0.0
 11
31.64199999996833
 21
7.480239034188628
 31
0.0
  0
LINE
  5
A3F8A
330
A3F5B
100
AcDbEntity
  8
0
  6
CONTINUOUS
100
AcDbLine
 10
37.63036768068979
 20
2.165390562547355
 30
0.0
 11
36.23199999996837
 21
3.563758243268782
 31
0.0
  0
LINE
  5
A3F8B
330
A3F5B
100
AcDbEntity
  8
0
  6
CONTINUOUS
100
AcDbLine
 10
33.08199999996839
 20
6.713758243268759
 30
0.0
 11
31.64199999996833
 21
8.153758243268815
 31
0.0
  0
LINE
  5
A3F8C
330
A3F5B
100
AcDbEntity
  8
0
  6
CONTINUOUS
100
AcDbLine
 10
37.67199999996831
 20
2.797277452349027
 30
0.0
 11
36.23199999996837
 21
4.237277452348969
 31
0.0
  0
LINE
  5
A3F8D
330
A3F5B
100
AcDbEntity
  8
0
  6
CONTINUOUS
100
AcDbLine
 10
37.67199999996831
 20
3.470796661429214
 30
0.0
 11
36.23199999996837
 21
4.910796661429155
 31
0.0
  0
LINE
  5
A3F8E
330
A3F5B
100
AcDbEntity
  8
0
  6
CONTINUOUS
100
AcDbLine
 10
37.67199999996831
 20
4.1443158705094
 30
0.0
 11
36.23199999996837
 21
5.584315870509341
 31
0.0
  0
LINE
  5
A3F8F
330
A3F5B
100
AcDbEntity
  8
0
  6
CONTINUOUS
100
AcDbLine
 10
33.08199999996839
 20
7.387277452348947
 30
0.0
 11
31.70617745232608
 21
8.763099999991255
 31
0.0
  0
LINE
  5
A3F90
330
A3F5B
100
AcDbEntity
  8
0
  6
CONTINUOUS
100
AcDbLine
 10
33.08199999996839
 20
8.060796661429134
 30
0.0
 11
32.37969666140626
 21
8.763099999991255
 31
0.0
  0
LINE
  5
A3F91
330
A3F5B
100
AcDbEntity
  8
0
  6
CONTINUOUS
100
AcDbLine
 10
33.08199999996839
 20
8.73431587050932
 30
0.0
 11
33.05321587048645
 21
8.763099999991255
 31
0.0
  0
LINE
  5
A3F92
330
A3F5B
100
AcDbEntity
  8
0
  6
CONTINUOUS
100
AcDbLine
 10
37.67199999996831
 20
4.817835079589587
 30
0.0
 11
36.23199999996837
 21
6.257835079589528
 31
0.0
  0
LINE
  5
A3F93
330
A3F5B
100
AcDbEntity
  8
0
  6
CONTINUOUS
100
AcDbLine
 10
37.67199999996831
 20
5.491354288669773
 30
0.0
 11
36.23199999996837
 21
6.931354288669715
 31
0.0
  0
LINE
  5
A3F94
330
A3F5B
100
AcDbEntity
  8
0
  6
CONTINUOUS
100
AcDbLine
 10
37.67199999996831
 20
6.164873497749959
 30
0.0
 11
36.23199999996837
 21
7.6048734977499
 31
0.0
  0
LINE
  5
A3F95
330
A3F5B
100
AcDbEntity
  8
0
  6
CONTINUOUS
100
AcDbLine
 10
37.67199999996831
 20
6.838392706830145
 30
0.0
 11
36.23199999996837
 21
8.278392706830086
 31
0.0
  0
LINE
  5
A3F96
330
A3F5B
100
AcDbEntity
  8
0
  6
CONTINUOUS
100
AcDbLine
 10
37.67199999996831
 20
7.511911915910333
 30
0.0
 11
36.42081191588738
 21
8.763099999991255
 31
0.0
  0
LINE
  5
A3F97
330
A3F5B
100
AcDbEntity
  8
0
  6
CONTINUOUS
100
AcDbLine
 10
37.67199999996831
 20
8.18543112499052
 30
0.0
 11
37.09433112496757
 21
8.763099999991255
 31
0.0
  0
ENDBLK
  5
A3FFF
330
A3F5B
100
AcDbEntity
  8
0
100
AcDbBlockEnd
  0
BLOCK
  5
A4000
330
A3F98
100
AcDbEntity
  8
0
100
AcDbBlockBegin
  2
*X20
 70
     1
 10
0.0
 20
0.0
 30
0.0
  3
*X20
  1

  0
LINE
  5
A3F99
330
A3F98
100
AcDbEntity
  8
0
  6
CONTINUOUS
100
AcDbLine
 10
38.60499999996136
 20
8.762866199104765
 30
0.0
 11
38.71672554182345
 21
8.874591740966855
 31
0.0
  0
LINE
  5
A3F9A
330
A3F98
100
AcDbEntity
  8
0
  6
CONTINUOUS
100
AcDbLine
 10
38.60499999996136
 20
8.089346990024577
 30
0.0
 11
39.03418785440363
 21
8.518534844466847
 31
0.0
  0
LINE
  5
A3F9B
330
A3F98
100
AcDbEntity
  8
0
  6
CONTINUOUS
100
AcDbLine
 10
38.60499999996136
 20
7.41582778094439
 30
0.0
 11
39.35165016698382
 21
8.16247794796684
 31
0.0
  0
LINE
  5
A3F9C
330
A3F98
100
AcDbEntity
  8
0
  6
CONTINUOUS
100
AcDbLine
 10
38.60499999996136
 20
6.742308571864204
 30
0.0
 11
39.66911247956399
 21
7.806421051466834
 31
0.0
  0
LINE
  5
A3F9D
330
A3F98
100
AcDbEntity
  8
0
  6
CONTINUOUS
100
AcDbLine
 10
38.60499999996136
 20
6.068789362784018
 30
0.0
 11
39.98657479214418
 21
7.450364154966827
 31
0.0
  0
LINE
  5
A3F9E
330
A3F98
100
AcDbEntity
  8
0
  6
CONTINUOUS
100
AcDbLine
 10
38.60499999996136
 20
5.395270153703832
 30
0.0
 11
40.30403710472435
 21
7.09430725846682
 31
0.0
  0
LINE
  5
A3F9F
330
A3F98
100
AcDbEntity
  8
0
  6
CONTINUOUS
100
AcDbLine
 10
38.60499999996136
 20
4.721750944623645
 30
0.0
 11
40.62149941730453
 21
6.738250361966813
 31
0.0
  0
LINE
  5
A3FA0
330
A3F98
100
AcDbEntity
  8
0
  6
CONTINUOUS
100
AcDbLine
 10
38.60499999996136
 20
4.048231735543458
 30
0.0
 11
40.93896172988471
 21
6.382193465466806
 31
0.0
  0
LINE
  5
A3FA1
330
A3F98
100
AcDbEntity
  8
0
  6
CONTINUOUS
100
AcDbLine
 10
38.60499999996136
 20
3.374712526463272
 30
0.0
 11
40.02599999995994
 21
4.795712526461843
 31
0.0
  0
LINE
  5
A3FA2
330
A3F98
100
AcDbEntity
  8
0
  6
CONTINUOUS
100
AcDbLine
 10
38.60499999996136
 20
2.701193317383085
 30
0.0
 11
40.02599999995994
 21
4.122193317381657
 31
0.0
  0
LINE
  5
A3FA3
330
A3F98
100
AcDbEntity
  8
0
  6
CONTINUOUS
100
AcDbLine
 10
40.28339754687704
 20
5.053110073378947
 30
0.0
 11
41.25642404246489
 21
6.026136568966799
 31
0.0
  0
LINE
  5
A3FA4
330
A3F98
100
AcDbEntity
  8
0
  6
CONTINUOUS
100
AcDbLine
 10
40.60085985945722
 20
4.697053176878939
 30
0.0
 11
41.57388635504507
 21
5.670079672466793
 31
0.0
  0
LINE
  5
A3FA5
330
A3F98
100
AcDbEntity
  8
0
  6
CONTINUOUS
100
AcDbLine
 10
43.57899999995641
 20
8.348712526458318
 30
0.0
 11
43.99338747348935
 21
8.763099999991255
 31
0.0
  0
LINE
  5
A3FA6
330
A3F98
100
AcDbEntity
  8
0
  6
CONTINUOUS
100
AcDbLine
 10
43.57899999995641
 20
7.675193317378131
 30
0.0
 11
44.66690668256953
 21
8.763099999991255
 31
0.0
  0
LINE
  5
A3FA7
330
A3F98
100
AcDbEntity
  8
0
  6
CONTINUOUS
100
AcDbLine
 10
38.60499999996136
 20
2.027674108302898
 30
0.0
 11
40.02599999995994
 21
3.44867410830147
 31
0.0
  0
LINE
  5
A3FA8
330
A3F98
100
AcDbEntity
  8
0
  6
CONTINUOUS
100
AcDbLine
 10
38.60499999996136
 20
1.354154899222712
 30
0.0
 11
40.02599999995994
 21
2.775154899221284
 31
0.0
  0
LINE
  5
A3FA9
330
A3F98
100
AcDbEntity
  8
0
  6
CONTINUOUS
100
AcDbLine
 10
38.60499999996136
 20
0.6806356901425255
 30
0.0
 11
40.02599999995994
 21
2.101635690141098
 31
0.0
  0
LINE
  5
A3FAA
330
A3F98
100
AcDbEntity
  8
0
  6
CONTINUOUS
100
AcDbLine
 10
38.60499999996136
 20
0.0071164810623383
 30
0.0
 11
40.02599999995994
 21
1.428116481060911
 31
0.0
  0
LINE
  5
A3FAB
330
A3F98
100
AcDbEntity
  8
0
  6
CONTINUOUS
100
AcDbLine
 10
40.9183221720374
 20
4.340996280378933
 30
0.0
 11
41.89134866762525
 21
5.314022775966786
 31
0.0
  0
LINE
  5
A3FAC
330
A3F98
100
AcDbEntity
  8
0
  6
CONTINUOUS
100
AcDbLine
 10
41.23578448461758
 20
3.984939383878926
 30
0.0
 11
42.20881098020543
 21
4.957965879466778
 31
0.0
  0
LINE
  5
A3FAD
330
A3F98
100
AcDbEntity
  8
0
  6
CONTINUOUS
100
AcDbLine
 10
41.55324679719776
 20
3.628882487378919
 30
0.0
 11
42.52627329278561
 21
4.601908982966772
 31
0.0
  0
LINE
  5
A3FAE
330
A3F98
100
AcDbEntity
  8
0
  6
CONTINUOUS
100
AcDbLine
 10
41.87070910977793
 20
3.272825590878912
 30
0.0
 11
42.84373560536579
 21
4.245852086466765
 31
0.0
  0
LINE
  5
A3FAF
330
A3F98
100
AcDbEntity
  8
0
  6
CONTINUOUS
100
AcDbLine
 10
43.57899999995641
 20
7.001674108297943
 30
0.0
 11
44.99999999995498
 21
8.422674108296516
 31
0.0
  0
LINE
  5
A3FB0
330
A3F98
100
AcDbEntity
  8
0
  6
CONTINUOUS
100
AcDbLine
 10
43.57899999995641
 20
6.328154899217758
 30
0.0
 11
44.99999999995498
 21
7.749154899216329
 31
0.0
  0
LINE
  5
A3FB1
330
A3F98
100
AcDbEntity
  8
0
  6
CONTINUOUS
100
AcDbLine
 10
43.57899999995641
 20
5.654635690137571
 30
0.0
 11
44.99999999995498
 21
7.075635690136142
 31
0.0
  0
LINE
  5
A3FB2
330
A3F98
100
AcDbEntity
  8
0
  6
CONTINUOUS
100
AcDbLine
 10
43.57899999995641
 20
4.981116481057384
 30
0.0
 11
44.99999999995498
 21
6.402116481055955
 31
0.0
  0
LINE
  5
A3FB3
330
A3F98
100
AcDbEntity
  8
0
  6
CONTINUOUS
100
AcDbLine
 10
39.27140272797921
 20
-0.0000000000000009
 30
0.0
 11
40.02599999995994
 21
0.7545972719807246
 31
0.0
  0
LINE
  5
A3FB4
330
A3F98
100
AcDbEntity
  8
0
  6
CONTINUOUS
100
AcDbLine
 10
39.9449219370594
 20
-0.0000000000000009
 30
0.0
 11
40.02599999995994
 21
0.0810780629005379
 31
0.0
  0
LINE
  5
A3FB5
330
A3F98
100
AcDbEntity
  8
0
  6
CONTINUOUS
100
AcDbLine
 10
42.18817142235812
 20
2.916768694378905
 30
0.0
 11
43.16119791794597
 21
3.889795189966758
 31
0.0
  0
LINE
  5
A3FB6
330
A3F98
100
AcDbEntity
  8
0
  6
CONTINUOUS
100
AcDbLine
 10
42.50563373493829
 20
2.560711797878898
 30
0.0
 11
43.47866023052615
 21
3.533738293466751
 31
0.0
  0
LINE
  5
A3FB7
330
A3F98
100
AcDbEntity
  8
0
  6
CONTINUOUS
100
AcDbLine
 10
43.57899999995641
 20
4.307597271977198
 30
0.0
 11
44.99999999995498
 21
5.728597271975769
 31
0.0
  0
LINE
  5
A3FB8
330
A3F98
100
AcDbEntity
  8
0
  6
CONTINUOUS
100
AcDbLine
 10
43.57899999995641
 20
3.634078062897011
 30
0.0
 11
44.99999999995498
 21
5.055078062895582
 31
0.0
  0
LINE
  5
A3FB9
330
A3F98
100
AcDbEntity
  8
0
  6
CONTINUOUS
100
AcDbLine
 10
42.82309604751848
 20
2.204654901378891
 30
0.0
 11
44.99999999995498
 21
4.381558853815395
 31
0.0
  0
LINE
  5
A3FBA
330
A3F98
100
AcDbEntity
  8
0
  6
CONTINUOUS
100
AcDbLine
 10
43.14055836009865
 20
1.848598004878885
 30
0.0
 11
44.99999999995498
 21
3.70803964473521
 31
0.0
  0
LINE
  5
A3FBB
330
A3F98
100
AcDbEntity
  8
0
  6
CONTINUOUS
100
AcDbLine
 10
43.45802067267883
 20
1.492541108378878
 30
0.0
 11
44.99999999995498
 21
3.034520435655023
 31
0.0
  0
LINE
  5
A3FBC
330
A3F98
100
AcDbEntity
  8
0
  6
CONTINUOUS
100
AcDbLine
 10
43.77548298525902
 20
1.136484211878871
 30
0.0
 11
44.99999999995498
 21
2.361001226574837
 31
0.0
  0
LINE
  5
A3FBD
330
A3F98
100
AcDbEntity
  8
0
  6
CONTINUOUS
100
AcDbLine
 10
44.09294529783919
 20
0.7804273153788639
 30
0.0
 11
44.99999999995498
 21
1.687482017494649
 31
0.0
  0
LINE
  5
A3FBE
330
A3F98
100
AcDbEntity
  8
0
  6
CONTINUOUS
100
AcDbLine
 10
44.41040761041938
 20
0.4243704188788566
 30
0.0
 11
44.99999999995498
 21
1.013962808414463
 31
0.0
  0
LINE
  5
A3FBF
330
A3F98
100
AcDbEntity
  8
0
  6
CONTINUOUS
100
AcDbLine
 10
44.72786992299955
 20
0.0683135223788494
 30
0.0
 11
44.99999999995498
 21
0.340443599334276
 31
0.0
  0
LINE
  5
A3FC0
330
A3F98
100
AcDbEntity
  8
0
  6
CONTINUOUS
100
AcDbLine
 10
39.12223903415696
 20
-0.0000000000000009
 30
0.0
 11
38.60499999996136
 21
0.5172390341955961
 31
0.0
  0
LINE
  5
A3FC1
330
A3F98
100
AcDbEntity
  8
0
  6
CONTINUOUS
100
AcDbLine
 10
39.79575824323715
 20
-0.0000000000000009
 30
0.0
 11
38.60499999996136
 21
1.190758243275783
 31
0.0
  0
LINE
  5
A3FC2
330
A3F98
100
AcDbEntity
  8
0
  6
CONTINUOUS
100
AcDbLine
 10
40.02599999995994
 20
0.443277452357397
 30
0.0
 11
38.60499999996136
 21
1.864277452355969
 31
0.0
  0
LINE
  5
A3FC3
330
A3F98
100
AcDbEntity
  8
0
  6
CONTINUOUS
100
AcDbLine
 10
40.02599999995994
 20
1.116796661437583
 30
0.0
 11
38.60499999996136
 21
2.537796661436155
 31
0.0
  0
LINE
  5
A3FC4
330
A3F98
100
AcDbEntity
  8
0
  6
CONTINUOUS
100
AcDbLine
 10
40.02599999995994
 20
1.79031587051777
 30
0.0
 11
38.60499999996136
 21
3.211315870516341
 31
0.0
  0
LINE
  5
A3FC5
330
A3F98
100
AcDbEntity
  8
0
  6
CONTINUOUS
100
AcDbLine
 10
40.02599999995994
 20
2.463835079597956
 30
0.0
 11
38.60499999996136
 21
3.884835079596527
 31
0.0
  0
LINE
  5
A3FC6
330
A3F98
100
AcDbEntity
  8
0
  6
CONTINUOUS
100
AcDbLine
 10
40.02599999995994
 20
3.137354288678143
 30
0.0
 11
38.60499999996136
 21
4.558354288676714
 31
0.0
  0
LINE
  5
A3FC7
330
A3F98
100
AcDbEntity
  8
0
  6
CONTINUOUS
100
AcDbLine
 10
40.02599999995994
 20
3.810873497758329
 30
0.0
 11
38.60499999996136
 21
5.2318734977569
 31
0.0
  0
LINE
  5
A3FC8
330
A3F98
100
AcDbEntity
  8
0
  6
CONTINUOUS
100
AcDbLine
 10
40.02599999995994
 20
4.484392706838515
 30
0.0
 11
38.60499999996136
 21
5.905392706837086
 31
0.0
  0
LINE
  5
A3FC9
330
A3F98
100
AcDbEntity
  8
0
  6
CONTINUOUS
100
AcDbLine
 10
44.99999999995498
 20
0.183911915923658
 30
0.0
 11
41.53858364506288
 21
3.64532827081576
 31
0.0
  0
LINE
  5
A3FCA
330
A3F98
100
AcDbEntity
  8
0
  6
CONTINUOUS
100
AcDbLine
 10
40.02599999995994
 20
5.157911915918703
 30
0.0
 11
38.60499999996136
 21
6.578911915917274
 31
0.0
  0
LINE
  5
A3FCB
330
A3F98
100
AcDbEntity
  8
0
  6
CONTINUOUS
100
AcDbLine
 10
44.99999999995498
 20
0.8574311250038447
 30
0.0
 11
38.60499999996136
 21
7.25243112499746
 31
0.0
  0
LINE
  5
A3FCC
330
A3F98
100
AcDbEntity
  8
0
  6
CONTINUOUS
100
AcDbLine
 10
44.99999999995498
 20
1.530950334084031
 30
0.0
 11
38.60499999996136
 21
7.925950334077647
 31
0.0
  0
LINE
  5
A3FCD
330
A3F98
100
AcDbEntity
  8
0
  6
CONTINUOUS
100
AcDbLine
 10
44.99999999995498
 20
2.204469543164218
 30
0.0
 11
43.57899999995641
 21
3.625469543162789
 31
0.0
  0
LINE
  5
A3FCE
330
A3F98
100
AcDbEntity
  8
0
  6
CONTINUOUS
100
AcDbLine
 10
41.89876730984767
 20
5.305702233271528
 30
0.0
 11
38.60499999996136
 21
8.599469543157834
 31
0.0
  0
LINE
  5
A3FCF
330
A3F98
100
AcDbEntity
  8
0
  6
CONTINUOUS
100
AcDbLine
 10
44.99999999995498
 20
2.877988752244405
 30
0.0
 11
43.57899999995641
 21
4.298988752242975
 31
0.0
  0
LINE
  5
A3FD0
330
A3F98
100
AcDbEntity
  8
0
  6
CONTINUOUS
100
AcDbLine
 10
44.99999999995498
 20
3.551507961324591
 30
0.0
 11
43.57899999995641
 21
4.972507961323163
 31
0.0
  0
LINE
  5
A3FD1
330
A3F98
100
AcDbEntity
  8
0
  6
CONTINUOUS
100
AcDbLine
 10
44.99999999995498
 20
4.225027170404777
 30
0.0
 11
43.57899999995641
 21
5.646027170403348
 31
0.0
  0
LINE
  5
A3FD2
330
A3F98
100
AcDbEntity
  8
0
  6
CONTINUOUS
100
AcDbLine
 10
44.99999999995498
 20
4.898546379484964
 30
0.0
 11
43.57899999995641
 21
6.319546379483535
 31
0.0
  0
LINE
  5
A3FD3
330
A3F98
100
AcDbEntity
  8
0
  6
CONTINUOUS
100
AcDbLine
 10
44.99999999995498
 20
5.572065588565151
 30
0.0
 11
43.57899999995641
 21
6.993065588563722
 31
0.0
  0
LINE
  5
A3FD4
330
A3F98
100
AcDbEntity
  8
0
  6
CONTINUOUS
100
AcDbLine
 10
44.99999999995498
 20
6.245584797645336
 30
0.0
 11
43.57899999995641
 21
7.666584797643908
 31
0.0
  0
LINE
  5
A3FD5
330
A3F98
100
AcDbEntity
  8
0
  6
CONTINUOUS
100
AcDbLine
 10
44.99999999995498
 20
6.919104006725522
 30
0.0
 11
43.57899999995641
 21
8.340104006724093
 31
0.0
  0
LINE
  5
A3FD6
330
A3F98
100
AcDbEntity
  8
0
  6
CONTINUOUS
100
AcDbLine
 10
44.99999999995498
 20
7.592623215805709
 30
0.0
 11
43.82952321576943
 21
8.763099999991255
 31
0.0
  0
LINE
  5
A3FD7
330
A3F98
100
AcDbEntity
  8
0
  6
CONTINUOUS
100
AcDbLine
 10
44.99999999995498
 20
8.266142424885896
 30
0.0
 11
44.50304242484962
 21
8.763099999991255
 31
0.0
  0
ENDBLK
  5
A4001
330
A3F98
100
AcDbEntity
  8
0
100
AcDbBlockEnd
  0
BLOCK
  5
A4002
330
A3FD8
100
AcDbEntity
  8
0
100
AcDbBlockBegin
  2
*X21
 70
     1
 10
0.0
 20
0.0
 30
0.0
  3
*X21
  1

  0
LINE
  5
A3FD9
330
A3FD8
100
AcDbEntity
  8
0
  6
CONTINUOUS
100
AcDbLine
 10
0.0
 20
8.548461116714023
 30
0.0
 11
0.2146388832772324
 21
8.763099999991255
 31
0.0
  0
LINE
  5
A3FDA
330
A3FD8
100
AcDbEntity
  8
0
  6
CONTINUOUS
100
AcDbLine
 10
-0.0000000000000002
 20
7.874941907633837
 30
0.0
 11
0.8881580923574184
 21
8.763099999991255
 31
0.0
  0
LINE
  5
A3FDB
330
A3FD8
100
AcDbEntity
  8
0
  6
CONTINUOUS
100
AcDbLine
 10
0.0
 20
7.20142269855365
 30
0.0
 11
1.420999999998572
 21
8.622422698552223
 31
0.0
  0
LINE
  5
A3FDC
330
A3FD8
100
AcDbEntity
  8
0
  6
CONTINUOUS
100
AcDbLine
 10
-0.0000000000000001
 20
6.527903489473465
 30
0.0
 11
1.420999999998571
 21
7.948903489472036
 31
0.0
  0
LINE
  5
A3FDD
330
A3FD8
100
AcDbEntity
  8
0
  6
CONTINUOUS
100
AcDbLine
 10
-0.0000000000000002
 20
5.854384280393278
 30
0.0
 11
1.420999999998571
 21
7.275384280391849
 31
0.0
  0
LINE
  5
A3FDE
330
A3FD8
100
AcDbEntity
  8
0
  6
CONTINUOUS
100
AcDbLine
 10
-0.0000000000000002
 20
5.180865071313091
 30
0.0
 11
1.420999999998571
 21
6.601865071311663
 31
0.0
  0
LINE
  5
A3FDF
330
A3FD8
100
AcDbEntity
  8
0
  6
CONTINUOUS
100
AcDbLine
 10
0.0
 20
4.507345862232905
 30
0.0
 11
1.420999999998571
 21
5.928345862231477
 31
0.0
  0
LINE
  5
A3FE0
330
A3FD8
100
AcDbEntity
  8
0
  6
CONTINUOUS
100
AcDbLine
 10
-0.0000000000000003
 20
3.833826653152718
 30
0.0
 11
1.420999999998571
 21
5.25482665315129
 31
0.0
  0
LINE
  5
A3FE1
330
A3FD8
100
AcDbEntity
  8
0
  6
CONTINUOUS
100
AcDbLine
 10
-0.0000000000000002
 20
3.160307444072532
 30
0.0
 11
1.420999999998571
 21
4.581307444071103
 31
0.0
  0
LINE
  5
A3FE2
330
A3FD8
100
AcDbEntity
  8
0
  6
CONTINUOUS
100
AcDbLine
 10
-0.0000000000000001
 20
2.486788234992345
 30
0.0
 11
1.420999999998571
 21
3.907788234990917
 31
0.0
  0
LINE
  5
A3FE3
330
A3FD8
100
AcDbEntity
  8
0
  6
CONTINUOUS
100
AcDbLine
 10
-0.0000000000000006
 20
1.813269025912159
 30
0.0
 11
1.420999999998571
 21
3.234269025910731
 31
0.0
  0
LINE
  5
A3FE4
330
A3FD8
100
AcDbEntity
  8
0
  6
CONTINUOUS
100
AcDbLine
 10
0.0
 20
1.139749816831973
 30
0.0
 11
1.420999999998571
 21
2.560749816830544
 31
0.0
  0
LINE
  5
A3FE5
330
A3FD8
100
AcDbEntity
  8
0
  6
CONTINUOUS
100
AcDbLine
 10
0.0000000000000002
 20
0.466230607751787
 30
0.0
 11
1.420999999998571
 21
1.887230607750358
 31
0.0
  0
LINE
  5
A3FE6
330
A3FD8
100
AcDbEntity
  8
0
  6
CONTINUOUS
100
AcDbLine
 10
0.2072886013284003
 20
-0.0000000000000009
 30
0.0
 11
1.420999999998571
 21
1.213711398670171
 31
0.0
  0
LINE
  5
A3FE7
330
A3FD8
100
AcDbEntity
  8
0
  6
CONTINUOUS
100
AcDbLine
 10
0.8808078104085864
 20
-0.0000000000000009
 30
0.0
 11
1.420999999998571
 21
0.5401921895899839
 31
0.0
  0
LINE
  5
A3FE8
330
A3FD8
100
AcDbEntity
  8
0
  6
CONTINUOUS
100
AcDbLine
 10
0.0581249075061505
 20
-0.0000000000000009
 30
0.0
 11
-0.0000000000000002
 21
0.0581249075061496
 31
0.0
  0
LINE
  5
A3FE9
330
A3FD8
100
AcDbEntity
  8
0
  6
CONTINUOUS
100
AcDbLine
 10
0.7316441165863372
 20
-0.0000000000000009
 30
0.0
 11
-0.0000000000000002
 21
0.7316441165863363
 31
0.0
  0
LINE
  5
A3FEA
330
A3FD8
100
AcDbEntity
  8
0
  6
CONTINUOUS
100
AcDbLine
 10
1.405163325666523
 20
-0.0000000000000009
 30
0.0
 11
-0.0000000000000002
 21
1.405163325666523
 31
0.0
  0
LINE
  5
A3FEB
330
A3FD8
100
AcDbEntity
  8
0
  6
CONTINUOUS
100
AcDbLine
 10
1.420999999998572
 20
0.6576825347481381
 30
0.0
 11
-0.0000000000000001
 21
2.07868253474671
 31
0.0
  0
LINE
  5
A3FEC
330
A3FD8
100
AcDbEntity
  8
0
  6
CONTINUOUS
100
AcDbLine
 10
1.420999999998571
 20
1.331201743828324
 30
0.0
 11
-0.0000000000000001
 21
2.752201743826896
 31
0.0
  0
LINE
  5
A3FED
330
A3FD8
100
AcDbEntity
  8
0
  6
CONTINUOUS
100
AcDbLine
 10
1.420999999998571
 20
2.004720952908511
 30
0.0
 11
-0.0000000000000002
 21
3.425720952907082
 31
0.0
  0
LINE
  5
A3FEE
330
A3FD8
100
AcDbEntity
  8
0
  6
CONTINUOUS
100
AcDbLine
 10
1.420999999998571
 20
2.678240161988697
 30
0.0
 11
-0.0000000000000001
 21
4.099240161987269
 31
0.0
  0
LINE
  5
A3FEF
330
A3FD8
100
AcDbEntity
  8
0
  6
CONTINUOUS
100
AcDbLine
 10
1.420999999998572
 20
3.351759371068884
 30
0.0
 11
0.0
 21
4.772759371067455
 31
0.0
  0
LINE
  5
A3FF0
330
A3FD8
100
AcDbEntity
  8
0
  6
CONTINUOUS
100
AcDbLine
 10
1.420999999998571
 20
4.02527858014907
 30
0.0
 11
-0.0000000000000003
 21
5.446278580147642
 31
0.0
  0
LINE
  5
A3FF1
330
A3FD8
100
AcDbEntity
  8
0
  6
CONTINUOUS
100
AcDbLine
 10
1.420999999998571
 20
4.698797789229257
 30
0.0
 11
0.0
 21
6.119797789227828
 31
0.0
  0
LINE
  5
A3FF2
330
A3FD8
100
AcDbEntity
  8
0
  6
CONTINUOUS
100
AcDbLine
 10
1.420999999998571
 20
5.372316998309444
 30
0.0
 11
-0.0000000000000001
 21
6.793316998308015
 31
0.0
  0
LINE
  5
A3FF3
330
A3FD8
100
AcDbEntity
  8
0
  6
CONTINUOUS
100
AcDbLine
 10
1.420999999998572
 20
6.045836207389629
 30
0.0
 11
-0.0000000000000004
 21
7.466836207388202
 31
0.0
  0
LINE
  5
A3FF4
330
A3FD8
100
AcDbEntity
  8
0
  6
CONTINUOUS
100
AcDbLine
 10
1.420999999998571
 20
6.719355416469816
 30
0.0
 11
0.0
 21
8.140355416468388
 31
0.0
  0
LINE
  5
A3FF5
330
A3FD8
100
AcDbEntity
  8
0
  6
CONTINUOUS
100
AcDbLine
 10
1.420999999998571
 20
7.392874625550003
 30
0.0
 11
0.0507746255573185
 21
8.763099999991255
 31
0.0
  0
LINE
  5
A3FF6
330
A3FD8
100
AcDbEntity
  8
0
  6
CONTINUOUS
100
AcDbLine
 10
1.420999999998571
 20
8.06639383463019
 30
0.0
 11
0.7242938346375052
 21
8.763099999991255
 31
0.0
  0
LINE
  5
A3FF7
330
A3FD8
100
AcDbEntity
  8
0
  6
CONTINUOUS
100
AcDbLine
 10
1.420999999998571
 20
8.739913043710375
 30
0.0
 11
1.397813043717691
 21
8.763099999991255
 31
0.0
  0
ENDBLK
  5
A4003
330
A3FD8
100
AcDbEntity
  8
0
100
AcDbBlockEnd
  0
ENDSEC
  0
SECTION
  2
ENTITIES
  0
TEXT
  5
A3AFB
330
18
100
AcDbEntity
  8
1TEXT
100
AcDbText
 10
0.7864964810809862
 20
73.24611205635892
 30
0.0
 40
4.0
  1
表面処理：
 72
     1
 11
11.58649648108099
 21
73.24611205635892
 31
0.0
100
AcDbText
  0
TEXT
  5
A3AFC
330
18
100
AcDbEntity
  8
1TEXT
100
AcDbText
 10
-4.94683685225235
 20
59.41082339683453
 30
0.0
 40
4.0
  1
サテンニッケル
 72
     1
 11
11.58649648108099
 21
59.41082339683453
 31
0.0
100
AcDbText
  0
TEXT
  5
A3AFD
330
18
100
AcDbEntity
  8
1TEXT
100
AcDbText
 10
2.119829814414318
 20
66.26821703637461
 30
0.0
 40
4.0
  1
クローム
 72
     1
 11
11.58649648108099
 21
66.26821703637461
 31
0.0
100
AcDbText
  0
LINE
  5
A3AFE
330
18
100
AcDbEntity
  8
1DIM
100
AcDbLine
 10
-5.813503518919106
 20
78.74611205635892
 30
0.0
 11
64.1864964810809
 21
78.74611205635892
 31
0.0
  0
LINE
  5
A3AFF
330
18
100
AcDbEntity
  8
1DIM
100
AcDbLine
 10
-5.813503518919106
 20
64.74611205635892
 30
0.0
 11
64.1864964810809
 21
64.74611205635892
 31
0.0
  0
LINE
  5
A3B00
330
18
100
AcDbEntity
  8
1DIM
100
AcDbLine
 10
-5.813503518919106
 20
71.74611205635892
 30
0.0
 11
64.1864964810809
 21
71.74611205635892
 31
0.0
  0
LINE
  5
A3B01
330
18
100
AcDbEntity
  8
1DIM
100
AcDbLine
 10
-5.813503518919106
 20
57.74611205635892
 30
0.0
 11
64.1864964810809
 21
57.74611205635892
 31
0.0
  0
LINE
  5
A3B02
330
18
100
AcDbEntity
  8
1DIM
100
AcDbLine
 10
-5.813503518919106
 20
57.74611205635892
 30
0.0
 11
64.1864964810809
 21
57.74611205635892
 31
0.0
  0
LINE
  5
A3B03
330
18
100
AcDbEntity
  8
1DIM
100
AcDbLine
 10
29.18649648108089
 20
78.74611205635892
 30
0.0
 11
29.18649648108089
 21
50.74611205635892
 31
0.0
  0
TEXT
  5
A3B04
330
18
100
AcDbEntity
  8
1TEXT
100
AcDbText
 10
32.71982981441477
 20
66.03175507270953
 30
0.0
 40
4.0
  1
KH-374-XC
 41
0.8
 72
     1
 11
46.58649648108144
 21
66.03175507270953
 31
0.0
100
AcDbText
  0
TEXT
  5
A3B05
330
18
100
AcDbEntity
  8
1TEXT
100
AcDbText
 10
39.71982981441432
 20
73.24611205635892
 30
0.0
 40
4.0
  1
コード
 72
     1
 11
46.58649648108099
 21
73.24611205635892
 31
0.0
100
AcDbText
  0
LINE
  5
A3B06
330
18
100
AcDbEntity
  8
1DIM
100
AcDbLine
 10
-5.813503518919163
 20
50.74611205635892
 30
0.0
 11
-5.813503518919106
 21
78.74611205635892
 31
0.0
  0
LINE
  5
A3B07
330
18
100
AcDbEntity
  8
1DIM
100
AcDbLine
 10
64.1864964810809
 20
50.74611205635892
 30
0.0
 11
64.1864964810809
 21
78.74611205635892
 31
0.0
  0
TEXT
  5
A3B08
330
18
100
AcDbEntity
  8
1TEXT
100
AcDbText
 10
-5.813503518919106
 20
83.74611205635892
 30
0.0
 40
8.0
  1
KH-374-X
100
AcDbText
  0
TEXT
  5
A3B09
330
18
100
AcDbEntity
  8
1TEXT
100
AcDbText
 10
32.71982981441477
 20
59.03175507270953
 30
0.0
 40
4.0
  1
KH-374-XN
 41
0.8
 72
     1
 11
46.58649648108144
 21
59.03175507270953
 31
0.0
100
AcDbText
  0
LINE
  5
A3B0A
330
18
100
AcDbEntity
  8
01
100
AcDbLine
 10
-67.32600781385395
 20
32.54931157823808
 30
0.0
 11
-104.3260078138539
 21
32.54931157823808
 31
0.0
  0
LINE
  5
A3B0B
330
18
100
AcDbEntity
  8
1PHANTOM
100
AcDbLine
 10
-68.37600781385413
 20
37.54931157823808
 30
0.0
 11
-103.2760078138547
 21
37.54931157823808
 31
0.0
  0
LINE
  5
A3B0C
330
18
100
AcDbEntity
  8
1PHANTOM
100
AcDbLine
 10
-70.57600781385395
 20
40.04931157823808
 30
0.0
 11
-79.07600781385304
 21
40.04931157823808
 31
0.0
  0
LINE
  5
A3B0D
330
18
100
AcDbEntity
  8
1PHANTOM
100
AcDbLine
 10
-77.32600781385304
 20
38.29931157823989
 30
0.0
 11
-72.32600781385395
 21
38.29931157823808
 31
0.0
  0
LINE
  5
A3B0E
330
18
100
AcDbEntity
  8
1PHANTOM
100
AcDbLine
 10
-71.09795453872107
 20
43.04931157823944
 30
0.0
 11
-81.82600781385486
 21
43.04931157823944
 31
0.0
  0
LINE
  5
A3B0F
330
18
100
AcDbEntity
  8
01
100
AcDbLine
 10
-20.31350351892047
 20
-5.934511516230486
 30
0.0
 11
-20.31350351892047
 21
-42.93451151623049
 31
0.0
  0
LINE
  5
A3B10
330
18
100
AcDbEntity
  8
1PHANTOM
100
AcDbLine
 10
-15.31350351892047
 20
-6.984511516230668
 30
0.0
 11
-15.31350351892047
 21
-41.8845115162303
 31
0.0
  0
ARC
  5
A3B11
330
18
100
AcDbEntity
  8
1PHANTOM
100
AcDbCircle
 10
-15.61350351892065
 20
-41.8845115162303
 30
0.0
 40
0.3
100
AcDbArc
 50
270.0
 51
0.0
  0
ARC
  5
A3B12
330
18
100
AcDbEntity
  8
1PHANTOM
100
AcDbCircle
 10
-15.61350351892065
 20
-6.984511516230668
 30
0.0
 40
0.3
100
AcDbArc
 50
0.0
 51
90.0
  0
LINE
  5
A3B13
330
18
100
AcDbEntity
  8
01
100
AcDbLine
 10
-10.81350351892047
 20
-5.734511516230441
 30
0.0
 11
-10.81350351892064
 21
-43.13451151623053
 31
0.0
  0
LINE
  5
A3B14
330
18
100
AcDbEntity
  8
1PHANTOM
100
AcDbLine
 10
-1.81350351892047
 20
-11.93451151623049
 30
0.0
 11
-1.81350351892047
 21
-36.93451151623071
 31
0.0
  0
LINE
  5
A3B15
330
18
100
AcDbEntity
  8
1PHANTOM
100
AcDbLine
 10
-9.81350351892047
 20
-8.934511516230486
 30
0.0
 11
-9.81350351892047
 21
-11.43451151623049
 31
0.0
  0
LINE
  5
A3B16
330
18
100
AcDbEntity
  8
1PHANTOM
100
AcDbLine
 10
-9.81350351892047
 20
-37.43451151623071
 30
0.0
 11
-9.81350351892047
 21
-39.93451151623049
 31
0.0
  0
ARC
  5
A3B17
330
18
100
AcDbEntity
  8
01
100
AcDbCircle
 10
-11.11350351892065
 20
-43.13451151623053
 30
0.0
 40
0.3
100
AcDbArc
 50
270.0
 51
0.0
  0
ARC
  5
A3B18
330
18
100
AcDbEntity
  8
01
100
AcDbCircle
 10
-19.81350351892047
 20
-42.93451151623049
 30
0.0
 40
0.5
100
AcDbArc
 50
180.0
 51
270.0
  0
LINE
  5
A3B19
330
18
100
AcDbEntity
  8
01
100
AcDbLine
 10
-11.11350351892065
 20
-43.43451151623049
 30
0.0
 11
-19.81350351892047
 21
-43.43451151623049
 31
0.0
  0
LINE
  5
A3B1A
330
18
100
AcDbEntity
  8
1PHANTOM
100
AcDbLine
 10
37.23459901409456
 20
-41.93451151623049
 30
0.0
 11
-0.8093075080757899
 21
-41.93451151623049
 31
0.0
  0
LINE
  5
A3B1B
330
18
100
AcDbEntity
  8
1PHANTOM
100
AcDbLine
 10
-15.3176995297656
 20
-41.93451151623049
 30
0.0
 11
-55.01704300998631
 21
-41.93451151623049
 31
0.0
  0
LINE
  5
A3B1C
330
18
100
AcDbEntity
  8
1PHANTOM
100
AcDbLine
 10
37.23459901409456
 20
-6.934511516230486
 30
0.0
 11
-0.8093075080757899
 21
-6.934511516230486
 31
0.0
  0
LINE
  5
A3B1D
330
18
100
AcDbEntity
  8
1PHANTOM
100
AcDbLine
 10
-15.3176995297656
 20
-6.934511516230486
 30
0.0
 11
-55.01704300998631
 21
-6.934511516230486
 31
0.0
  0
LINE
  5
A3B1E
330
18
100
AcDbEntity
  8
1PHANTOM
100
AcDbLine
 10
-9.81350351892047
 20
-39.93451151623049
 30
0.0
 11
-10.81350351892047
 21
-39.93451151623049
 31
0.0
  0
ARC
  5
A3B1F
330
18
100
AcDbEntity
  8
01
100
AcDbCircle
 10
-67.12600781385504
 20
41.74931157823971
 30
0.0
 40
0.3
100
AcDbArc
 50
0.0
 51
90.0
  0
ARC
  5
A3B20
330
18
100
AcDbEntity
  8
01
100
AcDbCircle
 10
-11.11350351892065
 20
-5.734511516230441
 30
0.0
 40
0.3
100
AcDbArc
 50
0.0
 51
90.0
  0
ARC
  5
A3B21
330
18
100
AcDbEntity
  8
01
100
AcDbCircle
 10
-19.81350351892047
 20
-5.934511516230486
 30
0.0
 40
0.5
100
AcDbArc
 50
90.0
 51
180.0
  0
LINE
  5
A3B22
330
18
100
AcDbEntity
  8
1PHANTOM
100
AcDbLine
 10
-74.82600781385395
 20
44.36682877230919
 30
0.0
 11
-74.82600781385395
 21
34.95772226073473
 31
0.0
  0
ARC
  5
A3B23
330
18
100
AcDbEntity
  8
01
100
AcDbCircle
 10
-67.32600781385395
 20
33.04931157823762
 30
0.0
 40
0.5
100
AcDbArc
 50
270.0
 51
0.0
  0
LINE
  5
A3B24
330
18
100
AcDbEntity
  8
1PHANTOM
100
AcDbLine
 10
-68.07600781385395
 20
32.54931157823808
 30
0.0
 11
-68.07600781385395
 21
37.24931157823789
 31
0.0
  0
ARC
  5
A3B25
330
18
100
AcDbEntity
  8
1PHANTOM
100
AcDbCircle
 10
-68.37600781385322
 20
37.24931157823744
 30
0.0
 40
0.3
100
AcDbArc
 50
0.0
 51
90.0
  0
LINE
  5
A3B26
330
18
100
AcDbEntity
  8
1PHANTOM
100
AcDbLine
 10
-70.57600781385395
 20
42.04931157823899
 30
0.0
 11
-70.57600781385395
 21
40.04931157823808
 31
0.0
  0
LINE
  5
A3B27
330
18
100
AcDbEntity
  8
1PHANTOM
100
AcDbLine
 10
-72.32600781385395
 20
38.29931157823808
 30
0.0
 11
-72.32600781385395
 21
37.54931157823808
 31
0.0
  0
LINE
  5
A3B28
330
18
100
AcDbEntity
  8
1PHANTOM
100
AcDbLine
 10
-70.57600781385395
 20
40.04931157823808
 30
0.0
 11
-72.32600781385395
 21
38.29931157823808
 31
0.0
  0
LINE
  5
A3B29
330
18
100
AcDbEntity
  8
1PHANTOM
100
AcDbLine
 10
-15.61350351892065
 20
-6.684511516230714
 30
0.0
 11
-20.31350351892047
 21
-6.684511516230714
 31
0.0
  0
LINE
  5
A3B2A
330
18
100
AcDbEntity
  8
1PHANTOM
100
AcDbLine
 10
-10.81350351892047
 20
-8.934511516230486
 30
0.0
 11
-9.81350351892047
 21
-8.934511516230486
 31
0.0
  0
LINE
  5
A3B2B
330
18
100
AcDbEntity
  8
01
100
AcDbLine
 10
-66.82600781385486
 20
41.74931157823971
 30
0.0
 11
-66.82600781385304
 21
33.04931157823762
 31
0.0
  0
ARC
  5
A3B2C
330
18
100
AcDbEntity
  8
1PHANTOM
100
AcDbCircle
 10
-103.2760078138538
 20
37.24931157823744
 30
0.0
 40
0.3
100
AcDbArc
 50
90.0
 51
180.0
  0
ARC
  5
A3B2D
330
18
100
AcDbEntity
  8
01
100
AcDbCircle
 10
-104.5260078138538
 20
41.74931157823744
 30
0.0
 40
0.3
100
AcDbArc
 50
90.0
 51
180.0
  0
ARC
  5
A3B2E
330
18
100
AcDbEntity
  8
01
100
AcDbCircle
 10
-104.3260078138539
 20
33.04931157823762
 30
0.0
 40
0.5
100
AcDbArc
 50
180.0
 51
270.0
  0
LINE
  5
A3B2F
330
18
100
AcDbEntity
  8
1PHANTOM
100
AcDbLine
 10
-103.5760078138539
 20
32.54931157823808
 30
0.0
 11
-103.5760078138539
 21
37.24931157823789
 31
0.0
  0
LINE
  5
A3B30
330
18
100
AcDbEntity
  8
1PHANTOM
100
AcDbLine
 10
-94.32600781385486
 20
38.29931157823989
 30
0.0
 11
-99.32600781385395
 21
38.29931157823808
 31
0.0
  0
LINE
  5
A3B31
330
18
100
AcDbEntity
  8
1PHANTOM
100
AcDbLine
 10
-101.0760078138539
 20
40.04931157823808
 30
0.0
 11
-92.57600781385486
 21
40.04931157823808
 31
0.0
  0
LINE
  5
A3B32
330
18
100
AcDbEntity
  8
1PHANTOM
100
AcDbLine
 10
-101.076007813853
 20
42.04931157823717
 30
0.0
 11
-101.0760078138521
 21
40.04931157823899
 31
0.0
  0
LINE
  5
A3B33
330
18
100
AcDbEntity
  8
1PHANTOM
100
AcDbLine
 10
-101.0760078138539
 20
40.04931157823808
 30
0.0
 11
-99.32600781385395
 21
38.29931157823808
 31
0.0
  0
LINE
  5
A3B34
330
18
100
AcDbEntity
  8
1PHANTOM
100
AcDbLine
 10
-99.32600781385395
 20
38.29931157823808
 30
0.0
 11
-99.32600781385395
 21
37.54931157823808
 31
0.0
  0
LINE
  5
A3B35
330
18
100
AcDbEntity
  8
1PHANTOM
100
AcDbLine
 10
-92.57600781385486
 20
40.04931157823808
 30
0.0
 11
-94.32600781385486
 21
38.29931157823989
 31
0.0
  0
LINE
  5
A3B36
330
18
100
AcDbEntity
  8
1PHANTOM
100
AcDbLine
 10
-92.5760078138535
 20
43.04931157823944
 30
0.0
 11
-92.57600781385486
 21
40.04931157823808
 31
0.0
  0
LINE
  5
A3B37
330
18
100
AcDbEntity
  8
1PHANTOM
100
AcDbLine
 10
-94.32600781385486
 20
38.29931157823989
 30
0.0
 11
-94.32600781385486
 21
37.54931157823808
 31
0.0
  0
LINE
  5
A3B38
330
18
100
AcDbEntity
  8
1PHANTOM
100
AcDbLine
 10
-79.0760078138544
 20
43.04931157823944
 30
0.0
 11
-79.07600781385304
 21
40.04931157823808
 31
0.0
  0
LINE
  5
A3B39
330
18
100
AcDbEntity
  8
1PHANTOM
100
AcDbLine
 10
-79.07600781385304
 20
40.04931157823808
 30
0.0
 11
-77.32600781385304
 21
38.29931157823989
 31
0.0
  0
LINE
  5
A3B3A
330
18
100
AcDbEntity
  8
1PHANTOM
100
AcDbLine
 10
-77.32600781385304
 20
38.29931157823989
 30
0.0
 11
-77.32600781385304
 21
37.54931157823808
 31
0.0
  0
LINE
  5
A3B3B
330
18
100
AcDbEntity
  8
01
100
AcDbLine
 10
-104.8260078138539
 20
41.74931157823744
 30
0.0
 11
-104.8260078138539
 21
33.04931157823762
 31
0.0
  0
LINE
  5
A3B3C
330
18
100
AcDbEntity
  8
1PHANTOM
100
AcDbLine
 10
-81.82600781385486
 20
51.04931157823944
 30
0.0
 11
-89.82600781385395
 21
51.04931157823921
 31
0.0
  0
LINE
  5
A3B3D
330
18
100
AcDbEntity
  8
1PHANTOM
100
AcDbLine
 10
-89.82600781385395
 20
43.04931157823944
 30
0.0
 11
-100.5540610889868
 21
43.04931157823944
 31
0.0
  0
LINE
  5
A3B3E
330
18
100
AcDbEntity
  8
1PHANTOM
100
AcDbLine
 10
-100.5540610889868
 20
43.04931157823944
 30
0.0
 11
-100.5540610889868
 21
42.04931157823762
 31
0.0
  0
LINE
  5
A3B3F
330
18
100
AcDbEntity
  8
1PHANTOM
100
AcDbLine
 10
-71.09795453872107
 20
43.04931157823944
 30
0.0
 11
-71.09795453872107
 21
42.04931157823762
 31
0.0
  0
LINE
  5
A3B40
330
18
100
AcDbEntity
  8
01
100
AcDbLine
 10
-67.12600781385504
 20
42.04931157823921
 30
0.0
 11
-104.5260078138538
 21
42.04931157823717
 31
0.0
  0
LINE
  5
A3B41
330
18
100
AcDbEntity
  8
1PHANTOM
100
AcDbLine
 10
-89.82600781385395
 20
43.04931157823944
 30
0.0
 11
-89.82600781385395
 21
51.04931157823944
 31
0.0
  0
LINE
  5
A3B42
330
18
100
AcDbEntity
  8
1PHANTOM
100
AcDbLine
 10
-81.82600781385486
 20
43.04931157823944
 30
0.0
 11
-81.82600781385486
 21
51.04931157823944
 31
0.0
  0
CIRCLE
  5
A3B43
330
18
100
AcDbEntity
  8
01
100
AcDbCircle
 10
-96.82600781385395
 20
-24.43451151623049
 30
0.0
 40
2.499999999999091
  0
CIRCLE
  5
A3B44
330
18
100
AcDbEntity
  8
01
100
AcDbCircle
 10
-85.82600781385395
 20
-24.43451151623049
 30
0.0
 40
19.0
  0
CIRCLE
  5
A3B45
330
18
100
AcDbEntity
  8
01
100
AcDbCircle
 10
-74.82600781385395
 20
-24.43451151623049
 30
0.0
 40
2.499999999999091
  0
CIRCLE
  5
A3B46
330
18
100
AcDbEntity
  8
01
100
AcDbCircle
 10
-85.82600781385395
 20
-24.43451151623049
 30
0.0
 40
17.75
  0
ARC
  5
A3B47
330
18
100
AcDbEntity
  8
01
100
AcDbCircle
 10
-104.5260078138538
 20
42.34931157823962
 30
0.0
 40
0.3
100
AcDbArc
 50
180.0
 51
270.0
  0
ARC
  5
A3B48
330
18
100
AcDbEntity
  8
01
100
AcDbCircle
 10
-67.12600781385413
 20
42.34931157823962
 30
0.0
 40
0.3
100
AcDbArc
 50
270.0
 51
0.0
  0
LINE
  5
A3B49
330
18
100
AcDbEntity
  8
1PHANTOM
100
AcDbLine
 10
-69.82600781385395
 20
44.04931157823989
 30
0.0
 11
-69.82600781385395
 21
42.04931157823989
 31
0.0
  0
LINE
  5
A3B4A
330
18
100
AcDbEntity
  8
1PHANTOM
100
AcDbLine
 10
-101.826007813853
 20
44.04931157823989
 30
0.0
 11
-101.8260078138539
 21
42.04931157823989
 31
0.0
  0
LINE
  5
A3B4B
330
18
100
AcDbEntity
  8
1PHANTOM
100
AcDbLine
 10
-103.3260078138539
 20
95.50349981389695
 30
0.0
 11
-103.3260078138539
 21
52.05350758908526
 31
0.0
  0
LINE
  5
A3B4C
330
18
100
AcDbEntity
  8
1PHANTOM
100
AcDbLine
 10
-103.3260078138539
 20
37.54511556739226
 30
0.0
 11
-103.3260078138539
 21
4.020584430448025
 31
0.0
  0
LINE
  5
A3B4D
330
18
100
AcDbEntity
  8
1PHANTOM
100
AcDbLine
 10
-68.32600781385395
 20
95.50349981389695
 30
0.0
 11
-68.3260078138535
 21
52.05350758908503
 31
0.0
  0
LINE
  5
A3B4E
330
18
100
AcDbEntity
  8
1PHANTOM
100
AcDbLine
 10
-68.3260078138544
 20
37.54511556739249
 30
0.0
 11
-68.32600781385395
 21
4.020584430448025
 31
0.0
  0
ARC
  5
A3B4F
330
18
100
AcDbEntity
  8
01
100
AcDbCircle
 10
3.686496481080894
 20
-5.934511516231169
 30
0.0
 40
0.5
100
AcDbArc
 50
0.0
 51
90.0
  0
ARC
  5
A3B50
330
18
100
AcDbEntity
  8
01
100
AcDbCircle
 10
3.686496481079985
 20
-42.93451151623049
 30
0.0
 40
0.5
100
AcDbArc
 50
270.0
 51
0.0
  0
ARC
  5
A3B51
330
18
100
AcDbEntity
  8
01
100
AcDbCircle
 10
-10.51350351892074
 20
-43.13451151623053
 30
0.0
 40
0.3
100
AcDbArc
 50
180.0
 51
270.0
  0
ARC
  5
A3B52
330
18
100
AcDbEntity
  8
01
100
AcDbCircle
 10
-10.51350351891983
 20
-5.734511516230896
 30
0.0
 40
0.3
100
AcDbArc
 50
90.0
 51
180.0
  0
LINE
  5
A3B53
330
18
100
AcDbEntity
  8
1PHANTOM
100
AcDbLine
 10
-8.813503518919106
 20
-11.43451151623094
 30
0.0
 11
-0.8135035189200153
 21
-11.43451151623094
 31
0.0
  0
LINE
  5
A3B54
330
18
100
AcDbEntity
  8
1PHANTOM
100
AcDbLine
 10
-8.813503518920925
 20
-37.43451151623049
 30
0.0
 11
-0.8135035189200153
 21
-37.43451151623049
 31
0.0
  0
LINE
  5
A3B55
330
18
100
AcDbEntity
  8
01
100
AcDbLine
 10
-9.563503518921834
 20
-43.43451151623049
 30
0.0
 11
-10.51350351892074
 21
-43.43451151623049
 31
0.0
  0
ELLIPSE
  5
A3B56
330
18
100
AcDbEntity
  8
01
100
AcDbEllipse
 10
-5.313503518920925
 20
-43.43451151623049
 30
0.0
 11
-4.249999999999091
 21
0.0
 31
0.0
210
0.0
220
0.0
230
1.0
 40
0.1132772331334818
 41
3.141592653589793
 42
6.283185307179586
  0
LINE
  5
A3B57
330
18
100
AcDbEntity
  8
1PHANTOM
100
AcDbLine
 10
-8.813503518919106
 20
-8.434511516230714
 30
0.0
 11
-8.813503518919504
 21
-11.49701151623026
 31
0.0
  0
LINE
  5
A3B58
330
18
100
AcDbEntity
  8
1PHANTOM
100
AcDbLine
 10
-8.813503518920925
 20
-37.37201151623071
 30
0.0
 11
-8.813503518920925
 21
-40.43451151623071
 31
0.0
  0
LINE
  5
A3B59
330
18
100
AcDbEntity
  8
1PHANTOM
100
AcDbLine
 10
-8.813503518920925
 20
-40.43451151623071
 30
0.0
 11
-10.81350351892002
 21
-40.43451151623049
 31
0.0
  0
LINE
  5
A3B5A
330
18
100
AcDbEntity
  8
1PHANTOM
100
AcDbLine
 10
-8.813503518919106
 20
-8.434511516230714
 30
0.0
 11
-10.81350351892002
 21
-8.434511516230486
 31
0.0
  0
LINE
  5
A3B5B
330
18
100
AcDbEntity
  8
1PHANTOM
100
AcDbLine
 10
-7.563503518921834
 20
-40.63451151622985
 30
0.0
 11
-9.563503518921834
 21
-42.63451151623053
 31
0.0
  0
LINE
  5
A3B5C
330
18
100
AcDbEntity
  8
1PHANTOM
100
AcDbLine
 10
-3.063504473566582
 20
-40.63446855691132
 30
0.0
 11
-7.563503518921834
 21
-40.63451151622985
 31
0.0
  0
LINE
  5
A3B5D
330
18
100
AcDbEntity
  8
1PHANTOM
100
AcDbLine
 10
-3.063504473566582
 20
-40.63446855691132
 30
0.0
 11
-1.063503518920015
 21
-42.6344695115572
 31
0.0
  0
LINE
  5
A3B5E
330
18
100
AcDbEntity
  8
1PHANTOM
100
AcDbLine
 10
-1.063503518919106
 20
-42.6344303708338
 30
0.0
 11
-9.563503518921834
 21
-42.63451151623053
 31
0.0
  0
LINE
  5
A3B5F
330
18
100
AcDbEntity
  8
1PHANTOM
100
AcDbLine
 10
-1.063503518921834
 20
-43.43451151623071
 30
0.0
 11
-1.063503518919106
 21
-42.6344303708338
 31
0.0
  0
LINE
  5
A3B60
330
18
100
AcDbEntity
  8
1PHANTOM
100
AcDbLine
 10
-9.563503518921834
 20
-43.43451151623071
 30
0.0
 11
-9.563503518921834
 21
-42.63451151623053
 31
0.0
  0
LINE
  5
A3B61
330
18
100
AcDbEntity
  8
1PHANTOM
100
AcDbLine
 10
-3.063503518921834
 20
-37.43451151623049
 30
0.0
 11
-3.063503518920925
 21
-40.63446951155652
 31
0.0
  0
LINE
  5
A3B62
330
18
100
AcDbEntity
  8
1PHANTOM
100
AcDbLine
 10
-7.563503518921834
 20
-37.43451151623049
 30
0.0
 11
-7.563503518921834
 21
-40.63451151622985
 31
0.0
  0
LINE
  5
A3B63
330
18
100
AcDbEntity
  8
1PHANTOM
100
AcDbLine
 10
3.886496481079803
 20
-6.684511516230714
 30
0.0
 11
-0.5135035189207429
 21
-6.684511516230714
 31
0.0
  0
ARC
  5
A3B64
330
18
100
AcDbEntity
  8
1PHANTOM
100
AcDbCircle
 10
-0.5135035189207429
 20
-6.984511516230668
 30
0.0
 40
0.3
100
AcDbArc
 50
90.0
 51
180.0
  0
ARC
  5
A3B65
330
18
100
AcDbEntity
  8
1PHANTOM
100
AcDbCircle
 10
3.886496481079803
 20
-6.384511516230532
 30
0.0
 40
0.3
100
AcDbArc
 50
270.0
 51
0.0
  0
LINE
  5
A3B66
330
18
100
AcDbEntity
  8
01
100
AcDbLine
 10
3.686496481080894
 20
-5.434511516231169
 30
0.0
 11
-10.51350351891983
 21
-5.434511516230941
 31
0.0
  0
ARC
  5
A3B67
330
18
100
AcDbEntity
  8
1PHANTOM
100
AcDbCircle
 10
-0.5135035189207429
 20
-41.88451151623053
 30
0.0
 40
0.3
100
AcDbArc
 50
180.0
 51
270.0
  0
LINE
  5
A3B68
330
18
100
AcDbEntity
  8
1PHANTOM
100
AcDbLine
 10
3.886496481079803
 20
-42.18451151623049
 30
0.0
 11
-0.5135035189207429
 21
-42.18451151623049
 31
0.0
  0
LINE
  5
A3B69
330
18
100
AcDbEntity
  8
01
100
AcDbLine
 10
3.686496481079985
 20
-43.43451151623049
 30
0.0
 11
-1.063503518921834
 21
-43.43451151623049
 31
0.0
  0
ARC
  5
A3B6A
330
18
100
AcDbEntity
  8
1PHANTOM
100
AcDbCircle
 10
3.886496481079803
 20
-42.48451151623067
 30
0.0
 40
0.3
100
AcDbArc
 50
0.0
 51
90.0
  0
LINE
  5
A3B6B
330
18
100
AcDbEntity
  8
1PHANTOM
100
AcDbLine
 10
-0.8135035189200153
 20
-6.984511516230668
 30
0.0
 11
-0.8135035189200153
 21
-41.88451151623053
 31
0.0
  0
LINE
  5
A3B6C
330
18
100
AcDbEntity
  8
01
100
AcDbLine
 10
4.186496481080894
 20
-5.934511516231169
 30
0.0
 11
4.186496481079985
 21
-42.93451151623049
 31
0.0
  0
ARC
  5
A3B6D
330
18
100
AcDbEntity
  8
01
100
AcDbCircle
 10
-104.3260078138539
 20
56.54931157823989
 30
0.0
 40
0.5
100
AcDbArc
 50
90.0
 51
180.0
  0
ARC
  5
A3B6E
330
18
100
AcDbEntity
  8
01
100
AcDbCircle
 10
-67.32600781385395
 20
56.54931157823989
 30
0.0
 40
0.5
100
AcDbArc
 50
0.0
 51
90.0
  0
LINE
  5
A3B6F
330
18
100
AcDbEntity
  8
1PHANTOM
100
AcDbLine
 10
-91.07600781385395
 20
44.04931157823989
 30
0.0
 11
-91.07600781385395
 21
52.04931157823989
 31
0.0
  0
LINE
  5
A3B70
330
18
100
AcDbEntity
  8
1PHANTOM
100
AcDbLine
 10
-80.57600781385395
 20
44.04931157823989
 30
0.0
 11
-80.57600781385395
 21
52.04931157823989
 31
0.0
  0
LINE
  5
A3B71
330
18
100
AcDbEntity
  8
1PHANTOM
100
AcDbLine
 10
-70.57600781385486
 20
44.04931157823944
 30
0.0
 11
-70.57600781385577
 21
49.04931157823899
 31
0.0
  0
LINE
  5
A3B72
330
18
100
AcDbEntity
  8
1PHANTOM
100
AcDbLine
 10
-101.826007813853
 20
44.04931157823989
 30
0.0
 11
-91.07600781385395
 21
44.04931157823989
 31
0.0
  0
LINE
  5
A3B73
330
18
100
AcDbEntity
  8
1PHANTOM
100
AcDbLine
 10
-80.57600781385395
 20
44.04931157823989
 30
0.0
 11
-69.82600781385395
 21
44.04931157823989
 31
0.0
  0
LINE
  5
A3B74
330
18
100
AcDbEntity
  8
1PHANTOM
100
AcDbLine
 10
-92.57600781385486
 20
49.04931157823944
 30
0.0
 11
-94.32600781385486
 21
50.79931157823762
 31
0.0
  0
LINE
  5
A3B75
330
18
100
AcDbEntity
  8
1PHANTOM
100
AcDbLine
 10
-94.32600781385486
 20
50.79931157823762
 30
0.0
 11
-94.32600781385486
 21
52.04931157823989
 31
0.0
  0
LINE
  5
A3B76
330
18
100
AcDbEntity
  8
1PHANTOM
100
AcDbLine
 10
-92.57600781385395
 20
44.04931157823989
 30
0.0
 11
-92.57600781385486
 21
49.04931157823944
 31
0.0
  0
LINE
  5
A3B77
330
18
100
AcDbEntity
  8
1PHANTOM
100
AcDbLine
 10
-94.32600781385486
 20
50.79931157823762
 30
0.0
 11
-99.32600781385395
 21
50.79931157823899
 31
0.0
  0
LINE
  5
A3B78
330
18
100
AcDbEntity
  8
1PHANTOM
100
AcDbLine
 10
-101.0760078138539
 20
49.04931157823944
 30
0.0
 11
-92.57600781385486
 21
49.04931157823944
 31
0.0
  0
LINE
  5
A3B79
330
18
100
AcDbEntity
  8
1PHANTOM
100
AcDbLine
 10
-101.0760078138539
 20
49.04931157823944
 30
0.0
 11
-99.32600781385395
 21
50.79931157823899
 31
0.0
  0
LINE
  5
A3B7A
330
18
100
AcDbEntity
  8
1PHANTOM
100
AcDbLine
 10
-99.32600781385395
 20
50.79931157823899
 30
0.0
 11
-99.32600781385395
 21
52.04931157823989
 31
0.0
  0
LINE
  5
A3B7B
330
18
100
AcDbEntity
  8
1PHANTOM
100
AcDbLine
 10
-101.0760078138539
 20
44.04931157823989
 30
0.0
 11
-101.0760078138539
 21
49.04931157823944
 31
0.0
  0
LINE
  5
A3B7C
330
18
100
AcDbEntity
  8
1PHANTOM
100
AcDbLine
 10
-77.32600781385304
 20
50.79931157823762
 30
0.0
 11
-72.32600781385395
 21
50.79931157823899
 31
0.0
  0
LINE
  5
A3B7D
330
18
100
AcDbEntity
  8
1PHANTOM
100
AcDbLine
 10
-70.57600781385395
 20
49.04931157823944
 30
0.0
 11
-72.32600781385395
 21
50.79931157823899
 31
0.0
  0
LINE
  5
A3B7E
330
18
100
AcDbEntity
  8
1PHANTOM
100
AcDbLine
 10
-79.07600781385304
 20
49.04931157823944
 30
0.0
 11
-77.32600781385304
 21
50.79931157823762
 31
0.0
  0
LINE
  5
A3B7F
330
18
100
AcDbEntity
  8
1PHANTOM
100
AcDbLine
 10
-79.07600781385395
 20
44.04931157823989
 30
0.0
 11
-79.07600781385304
 21
49.04931157823944
 31
0.0
  0
LINE
  5
A3B80
330
18
100
AcDbEntity
  8
1PHANTOM
100
AcDbLine
 10
-103.2760078138538
 20
52.04931157823989
 30
0.0
 11
-68.37600781385322
 21
52.04931157823989
 31
0.0
  0
LINE
  5
A3B81
330
18
100
AcDbEntity
  8
01
100
AcDbLine
 10
-104.3260078138539
 20
57.04931157823989
 30
0.0
 11
-67.32600781385395
 21
57.04931157823989
 31
0.0
  0
LINE
  5
A3B82
330
18
100
AcDbEntity
  8
01
100
AcDbLine
 10
-104.8260078138539
 20
56.54931157823989
 30
0.0
 11
-104.8260078138539
 21
42.34931157823962
 31
0.0
  0
ARC
  5
A3B83
330
18
100
AcDbEntity
  8
1PHANTOM
100
AcDbCircle
 10
-103.2760078138538
 20
52.34931157824008
 30
0.0
 40
0.3
100
AcDbArc
 50
180.0
 51
270.0
  0
LINE
  5
A3B84
330
18
100
AcDbEntity
  8
1PHANTOM
100
AcDbLine
 10
-103.5760078138539
 20
57.04931157823989
 30
0.0
 11
-103.5760078138539
 21
52.34931157824008
 31
0.0
  0
LINE
  5
A3B85
330
18
100
AcDbEntity
  8
01
100
AcDbLine
 10
-66.82600781385395
 20
56.54931157823989
 30
0.0
 11
-66.82600781385395
 21
42.34931157823962
 31
0.0
  0
LINE
  5
A3B86
330
18
100
AcDbEntity
  8
1PHANTOM
100
AcDbLine
 10
-72.32600781385395
 20
50.79931157823899
 30
0.0
 11
-72.32600781385395
 21
52.04931157823989
 31
0.0
  0
LINE
  5
A3B87
330
18
100
AcDbEntity
  8
1PHANTOM
100
AcDbLine
 10
-77.32600781385304
 20
50.79931157823762
 30
0.0
 11
-77.32600781385304
 21
52.04931157823989
 31
0.0
  0
LINE
  5
A3B88
330
18
100
AcDbEntity
  8
1PHANTOM
100
AcDbLine
 10
-70.57600781385395
 20
49.04931157823944
 30
0.0
 11
-79.07600781385304
 21
49.04931157823944
 31
0.0
  0
ARC
  5
A3B89
330
18
100
AcDbEntity
  8
1PHANTOM
100
AcDbCircle
 10
-68.37600781385413
 20
52.34931157824008
 30
0.0
 40
0.3
100
AcDbArc
 50
270.0
 51
0.0
  0
LINE
  5
A3B8A
330
18
100
AcDbEntity
  8
1PHANTOM
100
AcDbLine
 10
-68.07600781385395
 20
57.04931157823989
 30
0.0
 11
-68.07600781385395
 21
52.34931157823962
 31
0.0
  0
LINE
  5
A3B8B
330
18
100
AcDbEntity
  8
01
100
AcDbLine
 10
-11.11350351892065
 20
-5.434511516230486
 30
0.0
 11
-19.81350351892047
 21
-5.434511516230486
 31
0.0
  0
LINE
  5
A3B8C
330
18
100
AcDbEntity
  8
1PHANTOM
100
AcDbLine
 10
-15.61350351892065
 20
-42.18451151623026
 30
0.0
 11
-20.31350351892047
 21
-42.18451151623026
 31
0.0
  0
LINE
  5
A3B92
330
18
100
AcDbEntity
  8
1PHANTOM
100
AcDbLine
 10
-9.81350351892138
 20
-37.43451151623071
 30
0.0
 11
-1.81350351892047
 21
-36.93451151623071
 31
0.0
  0
LINE
  5
A3B93
330
18
100
AcDbEntity
  8
1PHANTOM
100
AcDbLine
 10
-9.81350351892138
 20
-11.43451151623026
 30
0.0
 11
-1.81350351892047
 21
-11.93451151623026
 31
0.0
  0
LINE
  5
A3B9F
330
18
100
AcDbEntity
  8
1DIM
100
AcDbLine
 10
3.686496481080894
 20
-5.434511516231169
 30
0.0
 11
-41.84190134378071
 21
-5.434511516231169
 31
0.0
  0
TEXT
  5
A3BA0
330
18
100
AcDbEntity
  8
1TEXT
100
AcDbText
 10
-4.680170185585624
 20
52.41082339683453
 30
0.0
 40
4.0
  1
マットブラック
 72
     1
 11
11.58649648108104
 21
52.41082339683453
 31
0.0
100
AcDbText
  0
LINE
  5
A3BA1
330
18
100
AcDbEntity
  8
1DIM
100
AcDbLine
 10
-5.813503518919049
 20
50.74611205635892
 30
0.0
 11
64.18649648108095
 21
50.74611205635892
 31
0.0
  0
TEXT
  5
A3BA2
330
18
100
AcDbEntity
  8
1TEXT
100
AcDbText
 10
31.65316314774816
 20
52.03175507270953
 30
0.0
 40
4.0
  1
KH-374-003
 41
0.8
 72
     1
 11
46.5864964810815
 21
52.03175507270953
 31
0.0
100
AcDbText
  0
TEXT
  5
A3D36
330
18
100
AcDbEntity
  8
01
  6
CONTINUOUS
100
AcDbText
 10
-73.9322693872527
 20
-59.46309330340774
 30
0.0
 40
3.5
  1
材質：亜鉛ダイキャスト
100
AcDbText
  0
TEXT
  5
A3D37
330
18
100
AcDbEntity
  8
01
  6
CONTINUOUS
100
AcDbText
 10
-73.81560272058603
 20
-65.29642663674107
 30
0.0
 40
3.5
  1
仕上げ：各種仕上げ
100
AcDbText
  0
TEXT
  5
A3D38
330
18
100
AcDbEntity
  8
01
  6
CONTINUOUS
100
AcDbText
 10
27.79395866281995
 20
17.38828982696336
 30
0.0
 40
3.5
  1
材質：亜鉛ダイキャスト
100
AcDbText
  0
TEXT
  5
A3D39
330
18
100
AcDbEntity
  8
01
  6
CONTINUOUS
100
AcDbText
 10
27.91062532948661
 20
11.55495649363002
 30
0.0
 40
3.5
  1
仕上げ：各種仕上げ
100
AcDbText
  0
LINE
  5
A3D3B
330
18
100
AcDbEntity
  8
1HATCH
100
AcDbLine
 10
-6.963281345600191
 20
-27.68444353303494
 30
0.0
 11
-6.963489360852918
 21
-40.03442084581934
 31
0.0
  0
LINE
  5
A3D3C
330
18
100
AcDbEntity
  8
1HATCH
100
AcDbLine
 10
-3.663281345656512
 20
-27.68446493954798
 30
0.0
 11
-3.663489361229608
 21
-40.03447668899867
 31
0.0
  0
LINE
  5
A3D3D
330
18
100
AcDbEntity
  8
1CENTER
100
AcDbLine
 10
-5.313263089733706
 20
-25.72296907692896
 30
0.0
 11
-5.313532078731214
 21
-44.62420547880788
 31
0.0
  0
LINE
  5
A3D3E
330
18
100
AcDbEntity
  8
1HATCH
100
AcDbLine
 10
-3.313284015185897
 20
-28.03446819705061
 30
0.0
 11
-7.3132840150987
 21
-28.03444027551188
 31
0.0
  0
LINE
  5
A3D3F
330
18
100
AcDbEntity
  8
0
100
AcDbLine
 10
-1.31351402520454
 20
-42.68448215691001
 30
0.0
 11
-9.313514025031395
 21
-42.68442631383243
 31
0.0
  0
LINE
  5
A3D40
330
18
100
AcDbEntity
  8
0
100
AcDbLine
 10
-1.31351123305069
 20
-42.3844821569221
 30
0.0
 11
-9.313511232877545
 21
-42.38442631384464
 31
0.0
  0
LINE
  5
A3D41
330
18
100
AcDbEntity
  8
1HATCH
100
AcDbLine
 10
-3.663489361229608
 20
-40.03447668899867
 30
0.0
 11
-3.313492618734926
 21
-40.38447750337031
 31
0.0
  0
LINE
  5
A3D42
330
18
100
AcDbEntity
  8
1HATCH
100
AcDbLine
 10
-6.963489360852918
 20
-40.03442084581934
 30
0.0
 11
-7.313492618388409
 21
-40.38442166020607
 31
0.0
  0
LINE
  5
A3D43
330
18
100
AcDbEntity
  8
1CENTER
100
AcDbLine
 10
-96.8260078138544
 20
23.56263052772647
 30
0.0
 11
-96.8260078138544
 21
41.46279360377064
 31
0.0
  0
LINE
  5
A3D45
330
18
100
AcDbEntity
  8
0
100
AcDbLine
 10
-95.27882395591314
 20
28.79928354705924
 30
0.0
 11
-98.14678665724364
 21
27.99929022021814
 31
0.0
  0
LINE
  5
A3D46
330
18
100
AcDbEntity
  8
0
100
AcDbLine
 10
-95.7316374639613
 20
27.19928460066347
 30
0.0
 11
-97.69397255283684
 21
26.3992891666125
 31
0.0
  0
LINE
  5
A3D47
330
18
100
AcDbEntity
  8
0
100
AcDbLine
 10
-98.14678665724364
 20
27.99929022021814
 30
0.0
 11
-97.59503719344025
 21
27.81652607759013
 31
0.0
  0
LINE
  5
A3D48
330
18
100
AcDbEntity
  8
0
100
AcDbLine
 10
-96.1888093045925
 20
27.35072039710388
 30
0.0
 11
-95.7316374639613
 21
27.19928460066347
 31
0.0
  0
LINE
  5
A3D49
330
18
100
AcDbEntity
  8
0
100
AcDbLine
 10
-97.69397255283684
 20
26.3992891666125
 30
0.0
 11
-97.10569597779431
 21
26.08751931036038
 31
0.0
  0
LINE
  5
A3D4A
330
18
100
AcDbEntity
  8
0
100
AcDbLine
 10
-95.3260078138544
 20
35.29928365684616
 30
0.0
 11
-94.8260078138544
 21
35.19928249344905
 31
0.0
  0
LINE
  5
A3D4B
330
18
100
AcDbEntity
  8
0
100
AcDbLine
 10
-95.3260078138544
 20
30.49928365684621
 30
0.0
 11
-94.8260078138544
 21
30.3992824934491
 31
0.0
  0
LINE
  5
A3D4C
330
18
100
AcDbEntity
  8
0
100
AcDbLine
 10
-95.746922411063
 20
28.91205305940928
 30
0.0
 11
-95.27882395591314
 21
28.79928354705924
 31
0.0
  0
LINE
  5
A3D4D
330
18
100
AcDbEntity
  8
0
100
AcDbLine
 10
-94.8260078138544
 20
30.3992824934491
 30
0.0
 11
-98.59960076165044
 21
29.59929127382377
 31
0.0
  0
LINE
  5
A3D4E
330
18
100
AcDbEntity
  8
0
100
AcDbLine
 10
-98.59960076165044
 20
29.59929127382377
 30
0.0
 11
-98.06300702637918
 21
29.47002057619391
 31
0.0
  0
LINE
  5
A3D4F
330
18
100
AcDbEntity
  8
0
100
AcDbLine
 10
-98.8260078138544
 20
34.39929180062648
 30
0.0
 11
-98.3260078138544
 21
34.29929063722926
 31
0.0
  0
LINE
  5
A3D50
330
18
100
AcDbEntity
  8
0
100
AcDbLine
 10
-98.8260078138544
 20
32.79929180062646
 30
0.0
 11
-98.3260078138544
 21
32.69929063722946
 31
0.0
  0
LINE
  5
A3D51
330
18
100
AcDbEntity
  8
0
100
AcDbLine
 10
-98.8260078138544
 20
31.19929180062643
 30
0.0
 11
-98.3260078138544
 21
31.09929063722932
 31
0.0
  0
LINE
  5
A3D52
330
18
100
AcDbEntity
  8
0
100
AcDbLine
 10
-95.3260078138544
 20
33.69928365684626
 30
0.0
 11
-94.8260078138544
 21
33.59928249344903
 31
0.0
  0
LINE
  5
A3D53
330
18
100
AcDbEntity
  8
0
100
AcDbLine
 10
-95.3260078138544
 20
32.09928365684612
 30
0.0
 11
-94.8260078138544
 21
31.99928249344901
 31
0.0
  0
LINE
  5
A3D54
330
18
100
AcDbEntity
  8
0
100
AcDbLine
 10
-94.8260078138544
 20
33.59928249344903
 30
0.0
 11
-98.8260078138544
 21
32.79929180062646
 31
0.0
  0
LINE
  5
A3D55
330
18
100
AcDbEntity
  8
0
100
AcDbLine
 10
-94.8260078138544
 20
31.99928249344901
 30
0.0
 11
-98.8260078138544
 21
31.19929180062643
 31
0.0
  0
LINE
  5
A3D56
330
18
100
AcDbEntity
  8
0
100
AcDbLine
 10
-94.8260078138544
 20
35.19928249344905
 30
0.0
 11
-98.8260078138544
 21
34.39929180062648
 31
0.0
  0
LINE
  5
A3D57
330
18
100
AcDbEntity
  8
0
100
AcDbLine
 10
-92.82603108180342
 20
39.79927783991339
 30
0.0
 11
-100.8260310818033
 21
39.79929645427247
 31
0.0
  0
LINE
  5
A3D58
330
18
100
AcDbEntity
  8
0
100
AcDbLine
 10
-98.8260078138544
 20
35.99929180062639
 30
0.0
 11
-98.3260078138544
 21
35.89929063722928
 31
0.0
  0
LINE
  5
A3D59
330
18
100
AcDbEntity
  8
0
100
AcDbLine
 10
-95.3260078138544
 20
36.89928365684607
 30
0.0
 11
-94.8260078138544
 21
36.79928249344896
 31
0.0
  0
LINE
  5
A3D5A
330
18
100
AcDbEntity
  8
0
100
AcDbLine
 10
-94.8260078138544
 20
36.79928249344896
 30
0.0
 11
-98.8260078138544
 21
35.99929180062639
 31
0.0
  0
LINE
  5
A3D73
330
18
100
AcDbEntity
  8
1CENTER
100
AcDbLine
 10
-74.8260078138535
 20
23.56263052772647
 30
0.0
 11
-74.8260078138535
 21
41.46279360377064
 31
0.0
  0
LINE
  5
A3D75
330
18
100
AcDbEntity
  8
0
100
AcDbLine
 10
-76.37319167179476
 20
28.79928354705924
 30
0.0
 11
-73.50522897046426
 21
27.99929022021814
 31
0.0
  0
LINE
  5
A3D76
330
18
100
AcDbEntity
  8
0
100
AcDbLine
 10
-75.92037816374659
 20
27.19928460066347
 30
0.0
 11
-73.95804307487106
 21
26.3992891666125
 31
0.0
  0
LINE
  5
A3D77
330
18
100
AcDbEntity
  8
0
100
AcDbLine
 10
-73.50522897046426
 20
27.99929022021814
 30
0.0
 11
-74.05697843426765
 21
27.81652607759013
 31
0.0
  0
LINE
  5
A3D78
330
18
100
AcDbEntity
  8
0
100
AcDbLine
 10
-75.4632063231154
 20
27.35072039710388
 30
0.0
 11
-75.92037816374659
 21
27.19928460066347
 31
0.0
  0
LINE
  5
A3D79
330
18
100
AcDbEntity
  8
0
100
AcDbLine
 10
-73.95804307487106
 20
26.3992891666125
 30
0.0
 11
-74.54631964991358
 21
26.08751931036038
 31
0.0
  0
LINE
  5
A3D7A
330
18
100
AcDbEntity
  8
0
100
AcDbLine
 10
-76.3260078138535
 20
35.29928365684616
 30
0.0
 11
-76.8260078138535
 21
35.19928249344905
 31
0.0
  0
LINE
  5
A3D7B
330
18
100
AcDbEntity
  8
0
100
AcDbLine
 10
-76.3260078138535
 20
30.49928365684621
 30
0.0
 11
-76.8260078138535
 21
30.3992824934491
 31
0.0
  0
LINE
  5
A3D7C
330
18
100
AcDbEntity
  8
0
100
AcDbLine
 10
-75.9050932166449
 20
28.91205305940928
 30
0.0
 11
-76.37319167179476
 21
28.79928354705924
 31
0.0
  0
LINE
  5
A3D7D
330
18
100
AcDbEntity
  8
0
100
AcDbLine
 10
-76.8260078138535
 20
30.3992824934491
 30
0.0
 11
-73.05241486605746
 21
29.59929127382377
 31
0.0
  0
LINE
  5
A3D7E
330
18
100
AcDbEntity
  8
0
100
AcDbLine
 10
-73.05241486605746
 20
29.59929127382377
 30
0.0
 11
-73.58900860132871
 21
29.47002057619391
 31
0.0
  0
LINE
  5
A3D7F
330
18
100
AcDbEntity
  8
0
100
AcDbLine
 10
-72.8260078138535
 20
34.39929180062648
 30
0.0
 11
-73.3260078138535
 21
34.29929063722926
 31
0.0
  0
LINE
  5
A3D80
330
18
100
AcDbEntity
  8
0
100
AcDbLine
 10
-72.8260078138535
 20
32.79929180062646
 30
0.0
 11
-73.3260078138535
 21
32.69929063722946
 31
0.0
  0
LINE
  5
A3D81
330
18
100
AcDbEntity
  8
0
100
AcDbLine
 10
-72.8260078138535
 20
31.19929180062643
 30
0.0
 11
-73.3260078138535
 21
31.09929063722932
 31
0.0
  0
LINE
  5
A3D82
330
18
100
AcDbEntity
  8
0
100
AcDbLine
 10
-76.3260078138535
 20
33.69928365684626
 30
0.0
 11
-76.8260078138535
 21
33.59928249344903
 31
0.0
  0
LINE
  5
A3D83
330
18
100
AcDbEntity
  8
0
100
AcDbLine
 10
-76.3260078138535
 20
32.09928365684612
 30
0.0
 11
-76.8260078138535
 21
31.99928249344901
 31
0.0
  0
LINE
  5
A3D84
330
18
100
AcDbEntity
  8
0
100
AcDbLine
 10
-76.8260078138535
 20
33.59928249344903
 30
0.0
 11
-72.8260078138535
 21
32.79929180062646
 31
0.0
  0
LINE
  5
A3D85
330
18
100
AcDbEntity
  8
0
100
AcDbLine
 10
-76.8260078138535
 20
31.99928249344901
 30
0.0
 11
-72.8260078138535
 21
31.19929180062643
 31
0.0
  0
LINE
  5
A3D86
330
18
100
AcDbEntity
  8
0
100
AcDbLine
 10
-76.8260078138535
 20
35.19928249344905
 30
0.0
 11
-72.8260078138535
 21
34.39929180062648
 31
0.0
  0
LINE
  5
A3D87
330
18
100
AcDbEntity
  8
0
100
AcDbLine
 10
-78.82598454590448
 20
39.79927783991339
 30
0.0
 11
-70.82598454590459
 21
39.79929645427247
 31
0.0
  0
LINE
  5
A3D88
330
18
100
AcDbEntity
  8
0
100
AcDbLine
 10
-72.8260078138535
 20
35.99929180062639
 30
0.0
 11
-73.3260078138535
 21
35.89929063722928
 31
0.0
  0
LINE
  5
A3D89
330
18
100
AcDbEntity
  8
0
100
AcDbLine
 10
-76.3260078138535
 20
36.89928365684607
 30
0.0
 11
-76.8260078138535
 21
36.79928249344896
 31
0.0
  0
LINE
  5
A3D8A
330
18
100
AcDbEntity
  8
0
100
AcDbLine
 10
-76.8260078138535
 20
36.79928249344896
 30
0.0
 11
-72.8260078138535
 21
35.99929180062639
 31
0.0
  0
LINE
  5
A3DA3
330
18
100
AcDbEntity
  8
1CENTER
100
AcDbLine
 10
-96.8260078138544
 20
65.535954236836
 30
0.0
 11
-96.8260078138544
 21
47.63579116079183
 31
0.0
  0
LINE
  5
A3DA5
330
18
100
AcDbEntity
  8
0
100
AcDbLine
 10
-95.27882395591314
 20
60.29930121750323
 30
0.0
 11
-98.14678665724364
 21
61.09929454434434
 31
0.0
  0
LINE
  5
A3DA6
330
18
100
AcDbEntity
  8
0
100
AcDbLine
 10
-95.7316374639613
 20
61.89930016389901
 30
0.0
 11
-97.69397255283684
 21
62.69929559794998
 31
0.0
  0
LINE
  5
A3DA7
330
18
100
AcDbEntity
  8
0
100
AcDbLine
 10
-98.14678665724364
 20
61.09929454434434
 30
0.0
 11
-97.59503719344025
 21
61.28205868697234
 31
0.0
  0
LINE
  5
A3DA8
330
18
100
AcDbEntity
  8
0
100
AcDbLine
 10
-96.1888093045925
 20
61.7478643674586
 30
0.0
 11
-95.7316374639613
 21
61.89930016389901
 31
0.0
  0
LINE
  5
A3DA9
330
18
100
AcDbEntity
  8
0
100
AcDbLine
 10
-97.69397255283684
 20
62.69929559794998
 30
0.0
 11
-97.10569597779431
 21
63.01106545420209
 31
0.0
  0
LINE
  5
A3DAA
330
18
100
AcDbEntity
  8
0
100
AcDbLine
 10
-95.3260078138544
 20
53.79930110771631
 30
0.0
 11
-94.8260078138544
 21
53.89930227111342
 31
0.0
  0
LINE
  5
A3DAB
330
18
100
AcDbEntity
  8
0
100
AcDbLine
 10
-95.3260078138544
 20
58.59930110771626
 30
0.0
 11
-94.8260078138544
 21
58.69930227111337
 31
0.0
  0
LINE
  5
A3DAC
330
18
100
AcDbEntity
  8
0
100
AcDbLine
 10
-95.746922411063
 20
60.18653170515319
 30
0.0
 11
-95.27882395591314
 21
60.29930121750323
 31
0.0
  0
LINE
  5
A3DAD
330
18
100
AcDbEntity
  8
0
100
AcDbLine
 10
-94.8260078138544
 20
58.69930227111337
 30
0.0
 11
-98.59960076165044
 21
59.4992934907387
 31
0.0
  0
LINE
  5
A3DAE
330
18
100
AcDbEntity
  8
0
100
AcDbLine
 10
-98.59960076165044
 20
59.4992934907387
 30
0.0
 11
-98.06300702637918
 21
59.62856418836856
 31
0.0
  0
LINE
  5
A3DAF
330
18
100
AcDbEntity
  8
0
100
AcDbLine
 10
-98.8260078138544
 20
54.699292963936
 30
0.0
 11
-98.3260078138544
 21
54.79929412733322
 31
0.0
  0
LINE
  5
A3DB0
330
18
100
AcDbEntity
  8
0
100
AcDbLine
 10
-98.8260078138544
 20
56.29929296393602
 30
0.0
 11
-98.3260078138544
 21
56.39929412733301
 31
0.0
  0
LINE
  5
A3DB1
330
18
100
AcDbEntity
  8
0
100
AcDbLine
 10
-98.8260078138544
 20
57.89929296393604
 30
0.0
 11
-98.3260078138544
 21
57.99929412733315
 31
0.0
  0
LINE
  5
A3DB2
330
18
100
AcDbEntity
  8
0
100
AcDbLine
 10
-95.3260078138544
 20
55.39930110771622
 30
0.0
 11
-94.8260078138544
 21
55.49930227111344
 31
0.0
  0
LINE
  5
A3DB3
330
18
100
AcDbEntity
  8
0
100
AcDbLine
 10
-95.3260078138544
 20
56.99930110771636
 30
0.0
 11
-94.8260078138544
 21
57.09930227111347
 31
0.0
  0
LINE
  5
A3DB4
330
18
100
AcDbEntity
  8
0
100
AcDbLine
 10
-94.8260078138544
 20
55.49930227111344
 30
0.0
 11
-98.8260078138544
 21
56.29929296393602
 31
0.0
  0
LINE
  5
A3DB5
330
18
100
AcDbEntity
  8
0
100
AcDbLine
 10
-94.8260078138544
 20
57.09930227111347
 30
0.0
 11
-98.8260078138544
 21
57.89929296393604
 31
0.0
  0
LINE
  5
A3DB6
330
18
100
AcDbEntity
  8
0
100
AcDbLine
 10
-94.8260078138544
 20
53.89930227111342
 30
0.0
 11
-98.8260078138544
 21
54.699292963936
 31
0.0
  0
LINE
  5
A3DB7
330
18
100
AcDbEntity
  8
0
100
AcDbLine
 10
-92.82603108180342
 20
49.29930692464908
 30
0.0
 11
-100.8260310818033
 21
49.29928831029
 31
0.0
  0
LINE
  5
A3DB8
330
18
100
AcDbEntity
  8
0
100
AcDbLine
 10
-98.8260078138544
 20
53.09929296393609
 30
0.0
 11
-98.3260078138544
 21
53.1992941273332
 31
0.0
  0
LINE
  5
A3DB9
330
18
100
AcDbEntity
  8
0
100
AcDbLine
 10
-95.3260078138544
 20
52.1993011077164
 30
0.0
 11
-94.8260078138544
 21
52.29930227111351
 31
0.0
  0
LINE
  5
A3DBA
330
18
100
AcDbEntity
  8
0
100
AcDbLine
 10
-94.8260078138544
 20
52.29930227111351
 30
0.0
 11
-98.8260078138544
 21
53.09929296393609
 31
0.0
  0
LINE
  5
A3DBB
330
18
100
AcDbEntity
  8
1CENTER
100
AcDbLine
 10
-74.8260078138535
 20
65.535954236836
 30
0.0
 11
-74.8260078138535
 21
47.63579116079183
 31
0.0
  0
LINE
  5
A3DBD
330
18
100
AcDbEntity
  8
0
100
AcDbLine
 10
-76.37319167179476
 20
60.29930121750323
 30
0.0
 11
-73.50522897046426
 21
61.09929454434434
 31
0.0
  0
LINE
  5
A3DBE
330
18
100
AcDbEntity
  8
0
100
AcDbLine
 10
-75.92037816374659
 20
61.89930016389901
 30
0.0
 11
-73.95804307487106
 21
62.69929559794998
 31
0.0
  0
LINE
  5
A3DBF
330
18
100
AcDbEntity
  8
0
100
AcDbLine
 10
-73.50522897046426
 20
61.09929454434434
 30
0.0
 11
-74.05697843426765
 21
61.28205868697234
 31
0.0
  0
LINE
  5
A3DC0
330
18
100
AcDbEntity
  8
0
100
AcDbLine
 10
-75.4632063231154
 20
61.7478643674586
 30
0.0
 11
-75.92037816374659
 21
61.89930016389901
 31
0.0
  0
LINE
  5
A3DC1
330
18
100
AcDbEntity
  8
0
100
AcDbLine
 10
-73.95804307487106
 20
62.69929559794998
 30
0.0
 11
-74.54631964991358
 21
63.01106545420209
 31
0.0
  0
LINE
  5
A3DC2
330
18
100
AcDbEntity
  8
0
100
AcDbLine
 10
-76.3260078138535
 20
53.79930110771631
 30
0.0
 11
-76.8260078138535
 21
53.89930227111342
 31
0.0
  0
LINE
  5
A3DC3
330
18
100
AcDbEntity
  8
0
100
AcDbLine
 10
-76.3260078138535
 20
58.59930110771626
 30
0.0
 11
-76.8260078138535
 21
58.69930227111337
 31
0.0
  0
LINE
  5
A3DC4
330
18
100
AcDbEntity
  8
0
100
AcDbLine
 10
-75.9050932166449
 20
60.18653170515319
 30
0.0
 11
-76.37319167179476
 21
60.29930121750323
 31
0.0
  0
LINE
  5
A3DC5
330
18
100
AcDbEntity
  8
0
100
AcDbLine
 10
-76.8260078138535
 20
58.69930227111337
 30
0.0
 11
-73.05241486605746
 21
59.4992934907387
 31
0.0
  0
LINE
  5
A3DC6
330
18
100
AcDbEntity
  8
0
100
AcDbLine
 10
-73.05241486605746
 20
59.4992934907387
 30
0.0
 11
-73.58900860132871
 21
59.62856418836856
 31
0.0
  0
LINE
  5
A3DC7
330
18
100
AcDbEntity
  8
0
100
AcDbLine
 10
-72.8260078138535
 20
54.699292963936
 30
0.0
 11
-73.3260078138535
 21
54.79929412733322
 31
0.0
  0
LINE
  5
A3DC8
330
18
100
AcDbEntity
  8
0
100
AcDbLine
 10
-72.8260078138535
 20
56.29929296393602
 30
0.0
 11
-73.3260078138535
 21
56.39929412733301
 31
0.0
  0
LINE
  5
A3DC9
330
18
100
AcDbEntity
  8
0
100
AcDbLine
 10
-72.8260078138535
 20
57.89929296393604
 30
0.0
 11
-73.3260078138535
 21
57.99929412733315
 31
0.0
  0
LINE
  5
A3DCA
330
18
100
AcDbEntity
  8
0
100
AcDbLine
 10
-76.3260078138535
 20
55.39930110771622
 30
0.0
 11
-76.8260078138535
 21
55.49930227111344
 31
0.0
  0
LINE
  5
A3DCB
330
18
100
AcDbEntity
  8
0
100
AcDbLine
 10
-76.3260078138535
 20
56.99930110771636
 30
0.0
 11
-76.8260078138535
 21
57.09930227111347
 31
0.0
  0
LINE
  5
A3DCC
330
18
100
AcDbEntity
  8
0
100
AcDbLine
 10
-76.8260078138535
 20
55.49930227111344
 30
0.0
 11
-72.8260078138535
 21
56.29929296393602
 31
0.0
  0
LINE
  5
A3DCD
330
18
100
AcDbEntity
  8
0
100
AcDbLine
 10
-76.8260078138535
 20
57.09930227111347
 30
0.0
 11
-72.8260078138535
 21
57.89929296393604
 31
0.0
  0
LINE
  5
A3DCE
330
18
100
AcDbEntity
  8
0
100
AcDbLine
 10
-76.8260078138535
 20
53.89930227111342
 30
0.0
 11
-72.8260078138535
 21
54.699292963936
 31
0.0
  0
LINE
  5
A3DCF
330
18
100
AcDbEntity
  8
0
100
AcDbLine
 10
-78.82598454590448
 20
49.29930692464908
 30
0.0
 11
-70.82598454590459
 21
49.29928831029
 31
0.0
  0
LINE
  5
A3DD0
330
18
100
AcDbEntity
  8
0
100
AcDbLine
 10
-72.8260078138535
 20
53.09929296393609
 30
0.0
 11
-73.3260078138535
 21
53.1992941273332
 31
0.0
  0
LINE
  5
A3DD1
330
18
100
AcDbEntity
  8
0
100
AcDbLine
 10
-76.3260078138535
 20
52.1993011077164
 30
0.0
 11
-76.8260078138535
 21
52.29930227111351
 31
0.0
  0
LINE
  5
A3DD2
330
18
100
AcDbEntity
  8
0
100
AcDbLine
 10
-76.8260078138535
 20
52.29930227111351
 30
0.0
 11
-72.8260078138535
 21
53.09929296393609
 31
0.0
  0
LINE
  5
A3DD3
330
18
100
AcDbEntity
  8
1DIM
  6
CONTINUOUS
100
AcDbLine
 10
3.686496481080894
 20
-5.434511516231169
 30
0.0
 11
65.18649648108091
 21
-5.434511516231185
 31
0.0
1001
ACAD
1000
DSTYLE
1002
{
1070
     3
1000
φ<>
1002
}
  0
LINE
  5
A3DD4
330
18
100
AcDbEntity
  8
1DIM
  6
CONTINUOUS
100
AcDbLine
 10
3.686496481079985
 20
-43.43451151623049
 30
0.0
 11
65.1864964810809
 21
-43.43451151623051
 31
0.0
1001
ACAD
1000
DSTYLE
1002
{
1070
     3
1000
φ<>
1002
}
  0
LINE
  5
A3DD5
330
18
100
AcDbEntity
  8
1DIM
  6
CONTINUOUS
100
AcDbLine
 10
64.18649648108091
 20
-7.434511516231185
 30
0.0
 11
64.1864964810809
 21
-41.43451151623051
 31
0.0
1001
ACAD
1000
DSTYLE
1002
{
1070
     3
1000
φ<>
1002
}
  0
LINE
  5
A3DD9
330
18
100
AcDbEntity
  8
1DIM
  6
CONTINUOUS
100
AcDbLine
 10
3.886496481079803
 20
-42.18451151623071
 30
0.0
 11
55.18649648108089
 21
-42.18451151623073
 31
0.0
1001
ACAD
1000
DSTYLE
1002
{
1070
     3
1000
φ<>
1002
}
  0
LINE
  5
A3DDA
330
18
100
AcDbEntity
  8
1DIM
  6
CONTINUOUS
100
AcDbLine
 10
3.886496481079803
 20
-6.684511516230714
 30
0.0
 11
55.18649648108089
 21
-6.684511516230729
 31
0.0
1001
ACAD
1000
DSTYLE
1002
{
1070
     3
1000
φ<>
1002
}
  0
LINE
  5
A3DDB
330
18
100
AcDbEntity
  8
1DIM
  6
CONTINUOUS
100
AcDbLine
 10
54.18649648108089
 20
-40.18451151623073
 30
0.0
 11
54.18649648108089
 21
-8.684511516230728
 31
0.0
1001
ACAD
1000
DSTYLE
1002
{
1070
     3
1000
φ<>
1002
}
  0
LINE
  5
A3DDF
330
18
100
AcDbEntity
  8
1DIM
  6
CONTINUOUS
100
AcDbLine
 10
4.186496481080894
 20
-5.934511516231169
 30
0.0
 11
4.186496481080895
 21
15.56548848376883
 31
0.0
  0
LINE
  5
A3DE0
330
18
100
AcDbEntity
  8
1DIM
  6
CONTINUOUS
100
AcDbLine
 10
-20.31350351892047
 20
-5.934511516230486
 30
0.0
 11
-20.31350351892047
 21
15.56548848376883
 31
0.0
  0
LINE
  5
A3DE1
330
18
100
AcDbEntity
  8
1DIM
  6
CONTINUOUS
100
AcDbLine
 10
2.186496481080895
 20
14.56548848376883
 30
0.0
 11
-18.31350351892047
 21
14.56548848376883
 31
0.0
  0
LINE
  5
A3DE5
330
18
100
AcDbEntity
  8
1DIM
  6
CONTINUOUS
100
AcDbLine
 10
37.23459901409456
 20
-41.93451151623049
 30
0.0
 11
45.18649648108089
 21
-41.93451151623049
 31
0.0
1001
ACAD
1000
DSTYLE
1002
{
1070
     3
1000
φ<>
1002
}
  0
LINE
  5
A3DE6
330
18
100
AcDbEntity
  8
1DIM
  6
CONTINUOUS
100
AcDbLine
 10
37.23459901409456
 20
-6.934511516230486
 30
0.0
 11
45.18649648108089
 21
-6.934511516230489
 31
0.0
1001
ACAD
1000
DSTYLE
1002
{
1070
     3
1000
φ<>
1002
}
  0
LINE
  5
A3DE7
330
18
100
AcDbEntity
  8
1DIM
  6
CONTINUOUS
100
AcDbLine
 10
44.18649648108089
 20
-39.93451151623049
 30
0.0
 11
44.18649648108089
 21
-8.93451151623049
 31
0.0
1001
ACAD
1000
DSTYLE
1002
{
1070
     3
1000
φ<>
1002
}
  0
LINE
  5
A3DEB
330
18
100
AcDbEntity
  8
1DIM
  6
CONTINUOUS
100
AcDbLine
 10
-96.8260078138544
 20
65.535954236836
 30
0.0
 11
-96.8260078138544
 21
98.0493115782399
 31
0.0
  0
LINE
  5
A3DEC
330
18
100
AcDbEntity
  8
1DIM
  6
CONTINUOUS
100
AcDbLine
 10
-74.8260078138535
 20
65.535954236836
 30
0.0
 11
-74.8260078138535
 21
98.0493115782399
 31
0.0
  0
LINE
  5
A3DED
330
18
100
AcDbEntity
  8
1DIM
  6
CONTINUOUS
100
AcDbLine
 10
-94.8260078138544
 20
97.0493115782399
 30
0.0
 11
-76.8260078138535
 21
97.0493115782399
 31
0.0
  0
LINE
  5
A3DF1
330
18
100
AcDbEntity
  8
1DIM
  6
CONTINUOUS
100
AcDbLine
 10
-10.81350351891984
 20
-5.734511516230896
 30
0.0
 11
-10.81350351891984
 21
5.565488483768831
 31
0.0
  0
LINE
  5
A3DF2
330
18
100
AcDbEntity
  8
1DIM
  6
CONTINUOUS
100
AcDbLine
 10
-20.31350351892047
 20
-5.934511516230486
 30
0.0
 11
-20.31350351892047
 21
5.565488483768831
 31
0.0
  0
LINE
  5
A3DF3
330
18
100
AcDbEntity
  8
1DIM
  6
CONTINUOUS
100
AcDbLine
 10
-12.81350351891984
 20
4.565488483768831
 30
0.0
 11
-18.31350351892047
 21
4.565488483768831
 31
0.0
  0
LINE
  5
A3DF7
330
18
100
AcDbEntity
  8
1DIM
  6
CONTINUOUS
100
AcDbLine
 10
-10.81350351892047
 20
-5.734511516230896
 30
0.0
 11
-10.81350351892047
 21
5.565488483768831
 31
0.0
  0
LINE
  5
A3DF8
330
18
100
AcDbEntity
  8
1DIM
  6
CONTINUOUS
100
AcDbLine
 10
4.186496481080894
 20
-5.934511516231169
 30
0.0
 11
4.186496481080895
 21
5.565488483768831
 31
0.0
  0
LINE
  5
A3DF9
330
18
100
AcDbEntity
  8
1DIM
  6
CONTINUOUS
100
AcDbLine
 10
-8.81350351892047
 20
4.565488483768831
 30
0.0
 11
2.186496481080895
 21
4.565488483768831
 31
0.0
  0
LINE
  5
A3DFE
330
18
100
AcDbEntity
  8
1DIM
100
AcDbLine
 10
-13.73591227531963
 20
-39.46988974276386
 30
0.0
 11
-27.73226938725274
 21
-65.99642663674108
 31
0.0
1001
ACAD
1000
DSTYLE
1002
{
1070
    50
1040
1.570796326794897
1070
   345
1005
14
1070
   346
1005
14
1070
   347
1005
14
1002
}
  0
LINE
  5
A3E00
330
18
100
AcDbEntity
  8
1DIM
100
AcDbLine
 10
2.789157109687318
 20
-4.949333176277172
 30
0.0
 11
27.32729199615328
 21
10.85495649363002
 31
0.0
1001
ACAD
1000
DSTYLE
1002
{
1070
    50
1040
1.570796326794897
1070
   345
1005
14
1070
   346
1005
14
1070
   347
1005
14
1002
}
  0
LINE
  5
A3E01
330
18
100
AcDbEntity
  8
0
100
AcDbLine
 10
-3.313492618734926
 20
-40.38447750337031
 30
0.0
 11
-3.313284015185897
 21
-28.03446819705061
 31
0.0
  0
LINE
  5
A3E02
330
18
100
AcDbEntity
  8
0
100
AcDbLine
 10
-3.313284015185897
 20
-28.03446819705061
 30
0.0
 11
-3.663281345663106
 21
-27.68446575392619
 31
0.0
  0
LINE
  5
A3E03
330
18
100
AcDbEntity
  8
0
100
AcDbLine
 10
-3.663281345663106
 20
-27.68446575392619
 30
0.0
 11
-6.963281345593484
 21
-27.68444271865673
 31
0.0
  0
LINE
  5
A3E04
330
18
100
AcDbEntity
  8
0
100
AcDbLine
 10
-6.963281345593484
 20
-27.68444271865673
 30
0.0
 11
-7.3132840150987
 21
-28.03444027551188
 31
0.0
  0
LINE
  5
A3E05
330
18
100
AcDbEntity
  8
0
100
AcDbLine
 10
-7.3132840150987
 20
-28.03444027551188
 30
0.0
 11
-7.313492618388409
 21
-40.38442166020607
 31
0.0
  0
LINE
  5
A3E06
330
18
100
AcDbEntity
  8
0
100
AcDbLine
 10
-7.313492618388409
 20
-40.38442166020607
 30
0.0
 11
-9.313511232877545
 21
-42.38442631384464
 31
0.0
  0
LINE
  5
A3E07
330
18
100
AcDbEntity
  8
0
100
AcDbLine
 10
-9.313511232877545
 20
-42.38442631384464
 30
0.0
 11
-9.313514025031395
 21
-42.68442631383242
 31
0.0
  0
ARC
  5
A3E08
330
18
100
AcDbEntity
  8
0
100
AcDbCircle
 10
-5.313455118427099
 20
-34.24556534685394
 30
0.0
 40
9.338888888743533
100
AcDbArc
 50
244.6388330692812
 51
295.3603670375537
  0
LINE
  5
A3E09
330
18
100
AcDbEntity
  8
0
100
AcDbLine
 10
-1.31351402520454
 20
-42.68448215691001
 30
0.0
 11
-1.31351123305069
 21
-42.3844821569221
 31
0.0
  0
LINE
  5
A3E0A
330
18
100
AcDbEntity
  8
0
100
AcDbLine
 10
-1.31351123305069
 20
-42.3844821569221
 30
0.0
 11
-3.313492618734926
 21
-40.38447750337031
 31
0.0
  0
LINE
  5
A3E0B
330
18
100
AcDbEntity
  8
0
100
AcDbLine
 10
-98.3260078138544
 20
37.29924410094747
 30
0.0
 11
-98.3260078138544
 21
30.39929063723121
 31
0.0
  0
LINE
  5
A3E0C
330
18
100
AcDbEntity
  8
0
100
AcDbLine
 10
-98.3260078138544
 20
30.39929063723121
 30
0.0
 11
-96.8260078138544
 21
25.09928714698565
 31
0.0
  0
LINE
  5
A3E0D
330
18
100
AcDbEntity
  8
0
100
AcDbLine
 10
-96.8260078138544
 20
25.09928714698565
 30
0.0
 11
-95.3260078138544
 21
30.39928365684653
 31
0.0
  0
LINE
  5
A3E0E
330
18
100
AcDbEntity
  8
0
100
AcDbLine
 10
-95.3260078138544
 20
30.39928365684653
 30
0.0
 11
-95.3260078138544
 21
37.29931855860089
 31
0.0
  0
LINE
  5
A3E0F
330
18
100
AcDbEntity
  8
0
100
AcDbLine
 10
-95.3260078138544
 20
37.29931855860089
 30
0.0
 11
-92.82603108180342
 21
39.79927783991339
 31
0.0
  0
LINE
  5
A3E10
330
18
100
AcDbEntity
  8
0
100
AcDbLine
 10
-92.82603108180342
 20
39.79927783991339
 30
0.0
 11
-92.82603108180342
 21
40.09927783991437
 31
0.0
  0
LINE
  5
A3E11
330
18
100
AcDbEntity
  8
0
100
AcDbLine
 10
-92.82603108180342
 20
40.09927783991437
 30
0.0
 11
-100.8260310818034
 21
40.09929645427356
 31
0.0
  0
LINE
  5
A3E12
330
18
100
AcDbEntity
  8
0
100
AcDbLine
 10
-100.8260310818034
 20
40.09929645427356
 30
0.0
 11
-100.8260310818033
 21
39.79929645427247
 31
0.0
  0
LINE
  5
A3E13
330
18
100
AcDbEntity
  8
0
100
AcDbLine
 10
-100.8260310818033
 20
39.79929645427247
 30
0.0
 11
-98.3260078138544
 21
37.29924410094747
 31
0.0
  0
LINE
  5
A3E14
330
18
100
AcDbEntity
  8
0
100
AcDbLine
 10
-73.3260078138535
 20
30.39929063723121
 30
0.0
 11
-73.3260078138535
 21
37.29924410094747
 31
0.0
  0
LINE
  5
A3E15
330
18
100
AcDbEntity
  8
0
100
AcDbLine
 10
-73.3260078138535
 20
37.29924410094747
 30
0.0
 11
-70.82598454590459
 21
39.79929645427247
 31
0.0
  0
LINE
  5
A3E16
330
18
100
AcDbEntity
  8
0
100
AcDbLine
 10
-70.82598454590459
 20
39.79929645427247
 30
0.0
 11
-70.82598454590448
 21
40.09929645427356
 31
0.0
  0
LINE
  5
A3E17
330
18
100
AcDbEntity
  8
0
100
AcDbLine
 10
-70.82598454590448
 20
40.09929645427356
 30
0.0
 11
-78.82598454590448
 21
40.09927783991437
 31
0.0
  0
LINE
  5
A3E18
330
18
100
AcDbEntity
  8
0
100
AcDbLine
 10
-78.82598454590448
 20
40.09927783991437
 30
0.0
 11
-78.82598454590448
 21
39.79927783991339
 31
0.0
  0
LINE
  5
A3E19
330
18
100
AcDbEntity
  8
0
100
AcDbLine
 10
-78.82598454590448
 20
39.79927783991339
 30
0.0
 11
-76.3260078138535
 21
37.29931855860089
 31
0.0
  0
LINE
  5
A3E1A
330
18
100
AcDbEntity
  8
0
100
AcDbLine
 10
-76.3260078138535
 20
37.29931855860089
 30
0.0
 11
-76.3260078138535
 21
30.39928365684653
 31
0.0
  0
LINE
  5
A3E1B
330
18
100
AcDbEntity
  8
0
100
AcDbLine
 10
-76.3260078138535
 20
30.39928365684653
 30
0.0
 11
-74.8260078138535
 21
25.09928714698565
 31
0.0
  0
LINE
  5
A3E1C
330
18
100
AcDbEntity
  8
0
100
AcDbLine
 10
-74.8260078138535
 20
25.09928714698565
 30
0.0
 11
-73.3260078138535
 21
30.39929063723121
 31
0.0
  0
LINE
  5
A3E1D
330
18
100
AcDbEntity
  8
0
100
AcDbLine
 10
-98.3260078138544
 20
58.69929412733126
 30
0.0
 11
-98.3260078138544
 21
51.79934066361501
 31
0.0
  0
LINE
  5
A3E1E
330
18
100
AcDbEntity
  8
0
100
AcDbLine
 10
-98.3260078138544
 20
51.79934066361501
 30
0.0
 11
-100.8260310818033
 21
49.29928831029
 31
0.0
  0
LINE
  5
A3E1F
330
18
100
AcDbEntity
  8
0
100
AcDbLine
 10
-100.8260310818033
 20
49.29928831029
 30
0.0
 11
-100.8260310818034
 21
48.99928831028891
 31
0.0
  0
LINE
  5
A3E20
330
18
100
AcDbEntity
  8
0
100
AcDbLine
 10
-100.8260310818034
 20
48.99928831028891
 30
0.0
 11
-92.82603108180342
 21
48.9993069246481
 31
0.0
  0
LINE
  5
A3E21
330
18
100
AcDbEntity
  8
0
100
AcDbLine
 10
-92.82603108180342
 20
48.9993069246481
 30
0.0
 11
-92.82603108180342
 21
49.29930692464908
 31
0.0
  0
LINE
  5
A3E22
330
18
100
AcDbEntity
  8
0
100
AcDbLine
 10
-92.82603108180342
 20
49.29930692464908
 30
0.0
 11
-95.3260078138544
 21
51.79926620596159
 31
0.0
  0
LINE
  5
A3E23
330
18
100
AcDbEntity
  8
0
100
AcDbLine
 10
-95.3260078138544
 20
51.79926620596159
 30
0.0
 11
-95.3260078138544
 21
58.69930110771595
 31
0.0
  0
LINE
  5
A3E24
330
18
100
AcDbEntity
  8
0
100
AcDbLine
 10
-95.3260078138544
 20
58.69930110771595
 30
0.0
 11
-96.8260078138544
 21
63.99929761757682
 31
0.0
  0
LINE
  5
A3E25
330
18
100
AcDbEntity
  8
0
100
AcDbLine
 10
-96.8260078138544
 20
63.99929761757682
 30
0.0
 11
-98.3260078138544
 21
58.69929412733126
 31
0.0
  0
LINE
  5
A3E26
330
18
100
AcDbEntity
  8
0
100
AcDbLine
 10
-73.3260078138535
 20
51.79934066361501
 30
0.0
 11
-73.3260078138535
 21
58.69929412733126
 31
0.0
  0
LINE
  5
A3E27
330
18
100
AcDbEntity
  8
0
100
AcDbLine
 10
-73.3260078138535
 20
58.69929412733126
 30
0.0
 11
-74.8260078138535
 21
63.99929761757682
 31
0.0
  0
LINE
  5
A3E28
330
18
100
AcDbEntity
  8
0
100
AcDbLine
 10
-74.8260078138535
 20
63.99929761757682
 30
0.0
 11
-76.3260078138535
 21
58.69930110771595
 31
0.0
  0
LINE
  5
A3E29
330
18
100
AcDbEntity
  8
0
100
AcDbLine
 10
-76.3260078138535
 20
58.69930110771595
 30
0.0
 11
-76.3260078138535
 21
51.79926620596159
 31
0.0
  0
LINE
  5
A3E2A
330
18
100
AcDbEntity
  8
0
100
AcDbLine
 10
-76.3260078138535
 20
51.79926620596159
 30
0.0
 11
-78.82598454590448
 21
49.29930692464908
 31
0.0
  0
LINE
  5
A3E2B
330
18
100
AcDbEntity
  8
0
100
AcDbLine
 10
-78.82598454590448
 20
49.29930692464908
 30
0.0
 11
-78.82598454590448
 21
48.9993069246481
 31
0.0
  0
LINE
  5
A3E2C
330
18
100
AcDbEntity
  8
0
100
AcDbLine
 10
-78.82598454590448
 20
48.9993069246481
 30
0.0
 11
-70.82598454590448
 21
48.99928831028891
 31
0.0
  0
LINE
  5
A3E2D
330
18
100
AcDbEntity
  8
0
100
AcDbLine
 10
-70.82598454590448
 20
48.99928831028891
 30
0.0
 11
-70.82598454590459
 21
49.29928831029
 31
0.0
  0
LINE
  5
A3E2E
330
18
100
AcDbEntity
  8
0
100
AcDbLine
 10
-70.82598454590459
 20
49.29928831029
 30
0.0
 11
-73.3260078138535
 21
51.79934066361501
 31
0.0
  0
LINE
  5
A3E2F
330
18
100
AcDbEntity
  8
0
  6
BYBLOCK
100
AcDbLine
 10
63.65059848108091
 20
-7.434511516231185
 30
0.0
 11
64.18649648108091
 21
-5.434511516231185
 31
0.0
  0
LINE
  5
A3E30
330
18
100
AcDbEntity
  8
0
  6
BYBLOCK
100
AcDbLine
 10
64.18649648108091
 20
-5.434511516231185
 30
0.0
 11
64.72239448108091
 21
-7.434511516231185
 31
0.0
  0
LINE
  5
A3E31
330
18
100
AcDbEntity
  8
0
  6
BYBLOCK
100
AcDbLine
 10
64.18649648108091
 20
-5.434511516231185
 30
0.0
 11
64.18649648108091
 21
-7.434511516231185
 31
0.0
  0
LINE
  5
A3E32
330
18
100
AcDbEntity
  8
0
  6
BYBLOCK
100
AcDbLine
 10
64.7223944810809
 20
-41.43451151623051
 30
0.0
 11
64.1864964810809
 21
-43.43451151623051
 31
0.0
  0
LINE
  5
A3E33
330
18
100
AcDbEntity
  8
0
  6
BYBLOCK
100
AcDbLine
 10
64.1864964810809
 20
-43.43451151623051
 30
0.0
 11
63.65059848108089
 21
-41.43451151623051
 31
0.0
  0
LINE
  5
A3E34
330
18
100
AcDbEntity
  8
0
  6
BYBLOCK
100
AcDbLine
 10
64.1864964810809
 20
-43.43451151623051
 30
0.0
 11
64.1864964810809
 21
-41.43451151623051
 31
0.0
  0
TEXT
  5
A3E35
330
18
100
AcDbEntity
  8
1DIM
  6
CONTINUOUS
100
AcDbText
 10
63.48649648108091
 20
-29.91784484956415
 30
0.0
 40
3.5
  1
φ38
 50
90.0
100
AcDbText
1001
ACAD
1000
DSTYLE
1002
{
1070
     3
1000
φ<>
1002
}
  0
LINE
  5
A3E36
330
18
100
AcDbEntity
  8
0
  6
BYBLOCK
100
AcDbLine
 10
54.72239448108089
 20
-40.18451151623073
 30
0.0
 11
54.18649648108089
 21
-42.18451151623073
 31
0.0
  0
LINE
  5
A3E37
330
18
100
AcDbEntity
  8
0
  6
BYBLOCK
100
AcDbLine
 10
54.18649648108089
 20
-42.18451151623073
 30
0.0
 11
53.65059848108088
 21
-40.18451151623073
 31
0.0
  0
LINE
  5
A3E38
330
18
100
AcDbEntity
  8
0
  6
BYBLOCK
100
AcDbLine
 10
54.18649648108089
 20
-42.18451151623073
 30
0.0
 11
54.18649648108089
 21
-40.18451151623073
 31
0.0
  0
LINE
  5
A3E39
330
18
100
AcDbEntity
  8
0
  6
BYBLOCK
100
AcDbLine
 10
53.65059848108089
 20
-8.684511516230728
 30
0.0
 11
54.18649648108089
 21
-6.684511516230728
 31
0.0
  0
LINE
  5
A3E3A
330
18
100
AcDbEntity
  8
0
  6
BYBLOCK
100
AcDbLine
 10
54.18649648108089
 20
-6.684511516230728
 30
0.0
 11
54.7223944810809
 21
-8.684511516230728
 31
0.0
  0
LINE
  5
A3E3B
330
18
100
AcDbEntity
  8
0
  6
BYBLOCK
100
AcDbLine
 10
54.18649648108089
 20
-6.684511516230728
 30
0.0
 11
54.18649648108089
 21
-8.684511516230728
 31
0.0
  0
TEXT
  5
A3E3C
330
18
100
AcDbEntity
  8
1DIM
  6
CONTINUOUS
100
AcDbText
 10
53.48649648108089
 20
-32.26333096067516
 30
0.0
 40
3.5
  1
φ35.5
 50
90.0
100
AcDbText
1001
ACAD
1000
DSTYLE
1002
{
1070
     3
1000
φ<>
1002
}
  0
LINE
  5
A3E3D
330
18
100
AcDbEntity
  8
0
  6
BYBLOCK
100
AcDbLine
 10
2.186496481080895
 20
15.10138648376883
 30
0.0
 11
4.186496481080895
 21
14.56548848376883
 31
0.0
  0
LINE
  5
A3E3E
330
18
100
AcDbEntity
  8
0
  6
BYBLOCK
100
AcDbLine
 10
4.186496481080895
 20
14.56548848376883
 30
0.0
 11
2.186496481080895
 21
14.02959048376883
 31
0.0
  0
LINE
  5
A3E3F
330
18
100
AcDbEntity
  8
0
  6
BYBLOCK
100
AcDbLine
 10
4.186496481080895
 20
14.56548848376883
 30
0.0
 11
2.186496481080895
 21
14.56548848376883
 31
0.0
  0
LINE
  5
A3E40
330
18
100
AcDbEntity
  8
0
  6
BYBLOCK
100
AcDbLine
 10
-18.31350351892047
 20
14.02959048376883
 30
0.0
 11
-20.31350351892047
 21
14.56548848376883
 31
0.0
  0
LINE
  5
A3E41
330
18
100
AcDbEntity
  8
0
  6
BYBLOCK
100
AcDbLine
 10
-20.31350351892047
 20
14.56548848376883
 30
0.0
 11
-18.31350351892047
 21
15.10138648376883
 31
0.0
  0
LINE
  5
A3E42
330
18
100
AcDbEntity
  8
0
  6
BYBLOCK
100
AcDbLine
 10
-20.31350351892047
 20
14.56548848376883
 30
0.0
 11
-18.31350351892047
 21
14.56548848376883
 31
0.0
  0
TEXT
  5
A3E43
330
18
100
AcDbEntity
  8
1DIM
  6
CONTINUOUS
100
AcDbText
 10
-13.31350351891979
 20
15.26548848376883
 30
0.0
 40
3.5
  1
24.5
100
AcDbText
  0
LINE
  5
A3E44
330
18
100
AcDbEntity
  8
0
  6
BYBLOCK
100
AcDbLine
 10
44.72239448108089
 20
-39.93451151623049
 30
0.0
 11
44.18649648108089
 21
-41.93451151623049
 31
0.0
  0
LINE
  5
A3E45
330
18
100
AcDbEntity
  8
0
  6
BYBLOCK
100
AcDbLine
 10
44.18649648108089
 20
-41.93451151623049
 30
0.0
 11
43.65059848108088
 21
-39.93451151623049
 31
0.0
  0
LINE
  5
A3E46
330
18
100
AcDbEntity
  8
0
  6
BYBLOCK
100
AcDbLine
 10
44.18649648108089
 20
-41.93451151623049
 30
0.0
 11
44.18649648108089
 21
-39.93451151623049
 31
0.0
  0
LINE
  5
A3E47
330
18
100
AcDbEntity
  8
0
  6
BYBLOCK
100
AcDbLine
 10
43.65059848108089
 20
-8.934511516230488
 30
0.0
 11
44.18649648108089
 21
-6.934511516230488
 31
0.0
  0
LINE
  5
A3E48
330
18
100
AcDbEntity
  8
0
  6
BYBLOCK
100
AcDbLine
 10
44.18649648108089
 20
-6.934511516230488
 30
0.0
 11
44.7223944810809
 21
-8.934511516230488
 31
0.0
  0
LINE
  5
A3E49
330
18
100
AcDbEntity
  8
0
  6
BYBLOCK
100
AcDbLine
 10
44.18649648108089
 20
-6.934511516230488
 30
0.0
 11
44.18649648108089
 21
-8.934511516230488
 31
0.0
  0
TEXT
  5
A3E4A
330
18
100
AcDbEntity
  8
1DIM
  6
CONTINUOUS
100
AcDbText
 10
43.48649648108089
 20
-29.91784484956381
 30
0.0
 40
3.5
  1
φ35
 50
90.0
100
AcDbText
1001
ACAD
1000
DSTYLE
1002
{
1070
     3
1000
φ<>
1002
}
  0
LINE
  5
A3E4B
330
18
100
AcDbEntity
  8
0
  6
BYBLOCK
100
AcDbLine
 10
-94.8260078138544
 20
96.51341357823989
 30
0.0
 11
-96.8260078138544
 21
97.0493115782399
 31
0.0
  0
LINE
  5
A3E4C
330
18
100
AcDbEntity
  8
0
  6
BYBLOCK
100
AcDbLine
 10
-96.8260078138544
 20
97.0493115782399
 30
0.0
 11
-94.8260078138544
 21
97.5852095782399
 31
0.0
  0
LINE
  5
A3E4D
330
18
100
AcDbEntity
  8
0
  6
BYBLOCK
100
AcDbLine
 10
-96.8260078138544
 20
97.0493115782399
 30
0.0
 11
-94.8260078138544
 21
97.0493115782399
 31
0.0
  0
LINE
  5
A3E4E
330
18
100
AcDbEntity
  8
0
  6
BYBLOCK
100
AcDbLine
 10
-76.8260078138535
 20
97.5852095782399
 30
0.0
 11
-74.8260078138535
 21
97.0493115782399
 31
0.0
  0
LINE
  5
A3E4F
330
18
100
AcDbEntity
  8
0
  6
BYBLOCK
100
AcDbLine
 10
-74.8260078138535
 20
97.0493115782399
 30
0.0
 11
-76.8260078138535
 21
96.51341357823989
 31
0.0
  0
LINE
  5
A3E50
330
18
100
AcDbEntity
  8
0
  6
BYBLOCK
100
AcDbLine
 10
-74.8260078138535
 20
97.0493115782399
 30
0.0
 11
-76.8260078138535
 21
97.0493115782399
 31
0.0
  0
TEXT
  5
A3E51
330
18
100
AcDbEntity
  8
1DIM
  6
CONTINUOUS
100
AcDbText
 10
-88.74267448052062
 20
97.7493115782399
 30
0.0
 40
3.5
  1
22
100
AcDbText
  0
LINE
  5
A3E52
330
18
100
AcDbEntity
  8
0
  6
BYBLOCK
100
AcDbLine
 10
-12.81350351891984
 20
5.101386483768831
 30
0.0
 11
-10.81350351891984
 21
4.565488483768831
 31
0.0
  0
LINE
  5
A3E53
330
18
100
AcDbEntity
  8
0
  6
BYBLOCK
100
AcDbLine
 10
-10.81350351891984
 20
4.565488483768831
 30
0.0
 11
-12.81350351891984
 21
4.029590483768832
 31
0.0
  0
LINE
  5
A3E54
330
18
100
AcDbEntity
  8
0
  6
BYBLOCK
100
AcDbLine
 10
-10.81350351891984
 20
4.565488483768831
 30
0.0
 11
-12.81350351891984
 21
4.565488483768831
 31
0.0
  0
LINE
  5
A3E55
330
18
100
AcDbEntity
  8
0
  6
BYBLOCK
100
AcDbLine
 10
-18.31350351892047
 20
4.029590483768831
 30
0.0
 11
-20.31350351892047
 21
4.565488483768831
 31
0.0
  0
LINE
  5
A3E56
330
18
100
AcDbEntity
  8
0
  6
BYBLOCK
100
AcDbLine
 10
-20.31350351892047
 20
4.565488483768831
 30
0.0
 11
-18.31350351892047
 21
5.101386483768831
 31
0.0
  0
LINE
  5
A3E57
330
18
100
AcDbEntity
  8
0
  6
BYBLOCK
100
AcDbLine
 10
-20.31350351892047
 20
4.565488483768831
 30
0.0
 11
-18.31350351892047
 21
4.565488483768831
 31
0.0
  0
TEXT
  5
A3E58
330
18
100
AcDbEntity
  8
1DIM
  6
CONTINUOUS
100
AcDbText
 10
-19.06512388929053
 20
5.265488483768831
 30
0.0
 40
3.5
  1
9.5
100
AcDbText
  0
LINE
  5
A3E59
330
18
100
AcDbEntity
  8
0
  6
BYBLOCK
100
AcDbLine
 10
-8.81350351892047
 20
4.029590483768831
 30
0.0
 11
-10.81350351892047
 21
4.565488483768831
 31
0.0
  0
LINE
  5
A3E5A
330
18
100
AcDbEntity
  8
0
  6
BYBLOCK
100
AcDbLine
 10
-10.81350351892047
 20
4.565488483768831
 30
0.0
 11
-8.81350351892047
 21
5.101386483768831
 31
0.0
  0
LINE
  5
A3E5B
330
18
100
AcDbEntity
  8
0
  6
BYBLOCK
100
AcDbLine
 10
-10.81350351892047
 20
4.565488483768831
 30
0.0
 11
-8.81350351892047
 21
4.565488483768831
 31
0.0
  0
LINE
  5
A3E5C
330
18
100
AcDbEntity
  8
0
  6
BYBLOCK
100
AcDbLine
 10
2.186496481080895
 20
5.101386483768831
 30
0.0
 11
4.186496481080895
 21
4.565488483768831
 31
0.0
  0
LINE
  5
A3E5D
330
18
100
AcDbEntity
  8
0
  6
BYBLOCK
100
AcDbLine
 10
4.186496481080895
 20
4.565488483768831
 30
0.0
 11
2.186496481080895
 21
4.029590483768832
 31
0.0
  0
LINE
  5
A3E5E
330
18
100
AcDbEntity
  8
0
  6
BYBLOCK
100
AcDbLine
 10
4.186496481080895
 20
4.565488483768831
 30
0.0
 11
2.186496481080895
 21
4.565488483768831
 31
0.0
  0
TEXT
  5
A3E5F
330
18
100
AcDbEntity
  8
1DIM
  6
CONTINUOUS
100
AcDbText
 10
-5.646836852253121
 20
5.265488483768831
 30
0.0
 40
3.5
  1
15
100
AcDbText
  0
LINE
  5
A3E60
330
18
100
AcDbEntity
  8
0
  6
BYBLOCK
100
AcDbLine
 10
-14.20988002214788
 20
-39.21980727362509
 30
0.0
 11
-12.80259112413498
 21
-37.70101676011322
 31
0.0
  0
LINE
  5
A3E61
330
18
100
AcDbEntity
  8
0
  6
BYBLOCK
100
AcDbLine
 10
-12.80259112413498
 20
-37.70101676011322
 30
0.0
 11
-13.26194452849137
 21
-39.71997221190264
 31
0.0
  0
LINE
  5
A3E62
330
18
100
AcDbEntity
  8
0
  6
BYBLOCK
100
AcDbLine
 10
-12.80259112413498
 20
-37.70101676011322
 30
0.0
 11
-13.73591227531963
 21
-39.46988974276386
 31
0.0
  0
LINE
  5
A3E63
330
18
100
AcDbEntity
  8
0
  6
BYBLOCK
100
AcDbLine
 10
3.079334733892257
 20
-5.399870203406772
 30
0.0
 11
1.107728826209495
 21
-6.032291590770001
 31
0.0
  0
LINE
  5
A3E64
330
18
100
AcDbEntity
  8
0
  6
BYBLOCK
100
AcDbLine
 10
1.107728826209495
 20
-6.032291590770001
 30
0.0
 11
2.49897948548238
 21
-4.498796149147573
 31
0.0
  0
LINE
  5
A3E65
330
18
100
AcDbEntity
  8
0
  6
BYBLOCK
100
AcDbLine
 10
1.107728826209495
 20
-6.032291590770001
 30
0.0
 11
2.789157109687319
 21
-4.949333176277173
 31
0.0
  0
VIEWPORT
  5
7DA1A
330
7DA16
100
AcDbEntity
 67
     1
  8
0
100
AcDbViewport
 68
     1
 10
0.0
 20
0.0
 30
0.0
 40
630.5106382978724
 41
297.0
 68
     1
 69
     1
1001
ACAD
1000
MVIEW
1002
{
1070
    16
1010
0.0
1020
0.0
1030
0.0
1010
0.0
1020
0.0
1030
1.0
1040
0.0
1040
297.0
1040
-4.300000000000011
1040
12.7999999999999
1040
50.0
1040
0.0
1040
0.0
1070
    16
1070
   100
1070
     0
1070
     3
1070
     0
1070
     0
1070
     0
1070
     0
1040
0.0
1040
0.0
1040
0.0
1040
10.0
1040
10.0
1040
10.0
1040
10.0
1070
     0
1002
{
1002
}
1002
}
  0
ENDSEC
  0
SECTION
  2
OBJECTS
  0
DICTIONARY
  5
C
330
0
100
AcDbDictionary
  3
ACAD_BACKGROUND
350
3EB8B
  3
ACAD_CIP_PREVIOUS_PRODUCT_INFO
350
62CC3
  3
ACAD_COLOR
350
1418C
  3
ACAD_FIELDLIST
350
6F2BA
  3
ACAD_GROUP
350
D
  3
ACAD_IMAGE_DICT
350
47736
  3
ACAD_IMAGE_VARS
350
47739
  3
ACAD_LAYOUT
350
1418F
  3
ACAD_MATERIAL
350
1418B
  3
ACAD_MLEADERSTYLE
350
16FA3
  3
ACAD_MLINESTYLE
350
1B
  3
ACAD_PLOTSETTINGS
350
14190
  3
ACAD_RENDER_ACTIVE_SETTINGS
350
87F41
  3
ACAD_RENDER_SETTINGS
350
6EA4E
  3
ACAD_SCALELIST
350
16F81
  3
ACAD_VISUALSTYLE
350
16F70
  3
ACDBHEADERROUNDTRIPXREC
350
A3E66
  3
ACDBVARIABLEDICTIONARY
350
6ED
  3
AEC_PROPERTY_SET_DEFS
350
26DAC
  3
CONTENTDICTIONARY
350
60
  3
DRAWINGVARIABLESDICT
350
5F9
  3
DWGPROPS
350
A3E69
1001
ACAD
1000
TREAT_AS_HARD
1070
     0
  0
DICTIONARY
  5
14879
330
2
100
AcDbDictionary
  3
ACAD_LAYERSTATES
360
1487A
1001
ACAD
1000
TREAT_AS_HARD
1070
     1
  0
DICTIONARY
  5
16FBC
330
E
100
AcDbDictionary
  3
ADSK_XREC_LAYER_RECONCILED
360
16FBD
1001
ACAD
1000
TREAT_AS_HARD
1070
     1
  0
DICTIONARY
  5
143BD
330
18
100
AcDbDictionary
  3
ACAD_SORTENTS
360
6A56E
1001
ACAD
1000
TREAT_AS_HARD
1070
     1
  0
DICTIONARY
  5
A337D
330
7DA16
100
AcDbDictionary
  3
ACAD_SORTENTS
360
A337E
1001
ACAD
1000
TREAT_AS_HARD
1070
     1
  0
DICTIONARY
  5
3EB8B
102
{ACAD_REACTORS
330
C
102
}
330
C
100
AcDbDictionary
1001
ACAD
1000
TREAT_AS_HARD
1070
     0
  0
XRECORD
  5
62CC3
102
{ACAD_REACTORS
330
C
102
}
330
C
100
AcDbXrecord
300
ACDLT
300
2012
300
ACDLT_F_S
  0
DICTIONARY
  5
1418C
102
{ACAD_REACTORS
330
C
102
}
330
C
100
AcDbDictionary
1001
ACAD
1000
TREAT_AS_HARD
1070
     0
  0
ACAD_PROXY_OBJECT
  5
6F2BA
102
{ACAD_REACTORS
330
C
102
}
330
C
100
AcDbZombieObject
 90
      499
 91
      534
 93
        3
310
80
  0
DICTIONARY
  5
D
102
{ACAD_REACTORS
330
C
102
}
330
C
100
AcDbDictionary
1001
ACAD
1000
TREAT_AS_HARD
1070
     0
  0
DICTIONARY
  5
47736
102
{ACAD_REACTORS
330
C
102
}
330
C
100
AcDbDictionary
1001
ACAD
1000
TREAT_AS_HARD
1070
     0
  0
RASTERVARIABLES
  5
47739
102
{ACAD_REACTORS
330
C
102
}
330
C
100
AcDbRasterVariables
 90
        0
 70
     1
 71
     1
 72
     0
  0
DICTIONARY
  5
1418F
102
{ACAD_REACTORS
330
C
102
}
330
C
100
AcDbDictionary
1001
ACAD
1000
TREAT_AS_HARD
1070
     0
  0
DICTIONARY
  5
1418B
102
{ACAD_REACTORS
330
C
102
}
330
C
100
AcDbDictionary
  3
BYBLOCK
350
16F60
  3
BYLAYER
350
16F58
  3
GLOBAL
350
16F68
1001
ACAD
1000
TREAT_AS_HARD
1070
     0
  0
DICTIONARY
  5
16FA3
102
{ACAD_REACTORS
330
C
102
}
330
C
100
AcDbDictionary
  3
STANDARD
350
16FA4
1001
ACAD
1000
TREAT_AS_HARD
1070
     0
  0
DICTIONARY
  5
1B
102
{ACAD_REACTORS
330
C
102
}
330
C
100
AcDbDictionary
  3
STANDARD
350
1C
1001
ACAD
1000
TREAT_AS_HARD
1070
     0
  0
DICTIONARY
  5
14190
102
{ACAD_REACTORS
330
C
102
}
330
C
100
AcDbDictionary
1001
ACAD
1000
TREAT_AS_HARD
1070
     0
  0
ACAD_PROXY_OBJECT
  5
87F41
102
{ACAD_REACTORS
330
C
102
}
330
C
100
AcDbZombieObject
 90
      499
 91
      540
 93
      924
310
409064D656469756DFA40D02901408000000000000084000000000000002100000000A09999A93F0000002826666A4FC000000A09999A93F0000002826666A4FE505415051E802000041027000041505414E4026A6666666666E4FD00000000001C25D0280000000000002440A4C040C02000010
  0
DICTIONARY
  5
6EA4E
102
{ACAD_REACTORS
330
C
102
}
330
C
100
AcDbDictionary
1001
ACAD
1000
TREAT_AS_HARD
1070
     0
  0
DICTIONARY
  5
16F81
102
{ACAD_REACTORS
330
C
102
}
330
C
100
AcDbDictionary
  3
*A1
350
6F27C
  3
*A10
350
6F285
  3
*A11
350
6F286
  3
*A12
350
6F287
  3
*A13
350
6F288
  3
*A14
350
6F289
  3
*A15
350
6F28A
  3
*A16
350
6F28B
  3
*A17
350
6F27D
  3
*A2
350
6F27E
  3
*A3
350
6F27F
  3
*A4
350
6F280
  3
*A5
350
6F281
  3
*A6
350
6F282
  3
*A7
350
6F283
  3
*A8
350
6F284
  3
*A9
350
7F62D
  3
A0
350
16F82
  3
A1
350
16F83
  3
A2
350
16F84
  3
A3
350
16F85
  3
A4
350
16F86
  3
A5
350
16F87
  3
A6
350
16F88
  3
A7
350
16F89
  3
A8
350
16F8A
  3
A9
350
16F8B
  3
B0
350
16F8C
  3
B1
350
16F8D
  3
B2
350
16F8E
  3
B3
350
16F8F
  3
B4
350
16F90
  3
B5
350
16F91
  3
B6
350
16F92
  3
B7
350
16F93
  3
B8
350
16F94
  3
B9
350
16F95
  3
C0
350
16F96
  3
C1
350
16F97
  3
C2
350
16F98
  3
C3
350
16F99
  3
C4
350
16F9A
  3
C5
350
16F9B
  3
C6
350
16F9C
  3
C7
350
16F9D
  3
C8
350
16F9E
  3
C9
350
16F9F
  3
D0
350
16FA0
  3
D1
350
16FA1
  3
D2
350
16FA2
1001
ACAD
1000
TREAT_AS_HARD
1070
     0
  0
DICTIONARY
  5
16F70
102
{ACAD_REACTORS
330
C
102
}
330
C
100
AcDbDictionary
  3
2DWIREFRAME
350
16F76
  3
3D_HIDDEN
350
16F78
  3
3DWIREFRAME
350
16F77
  3
BASIC
350
16F75
  3
BRIGHTEN
350
16F7C
  3
COLORCHANGE
350
16F80
  3
CONCEPTUAL
350
16F79
  3
DIM
350
16F7B
  3
EDGECOLOROFF
350
62CA3
  3
FACEPATTERN
350
16F7F
  3
FLAT
350
16F71
  3
FLATWITHEDGES
350
16F72
  3
GOURAUD
350
16F73
  3
GOURAUDWITHEDGES
350
16F74
  3
HIDDEN
350
62C9B
  3
JITTEROFF
350
62CA1
  3
LINEPATTERN
350
16F7E
  3
MODELING
350
A3D05
  3
OVERHANGOFF
350
62CA2
  3
REALISTIC
350
16F7A
  3
SHADED
350
62CA0
  3
SHADED_WITH_EDGES
350
62C9F
  3
SHADES_OF_GRAY
350
62C9C
  3
SKETCHY
350
62C9D
  3
THICKEN
350
16F7D
  3
WIREFRAME
350
62C9A
  3
X-RAY
350
62C9E
1001
ACAD
1000
TREAT_AS_HARD
1070
     0
  0
DICTIONARY
  5
A3E66
102
{ACAD_REACTORS
330
C
102
}
330
C
100
AcDbDictionary
  3
COLORDICT
350
A3E67
  3
MATERIALDICT
350
A3E68
1001
ACAD
1000
TREAT_AS_HARD
1070
     0
  0
DICTIONARY
  5
6ED
102
{ACAD_REACTORS
330
C
102
}
330
C
100
AcDbDictionary
  3
CANNOSCALE
350
A4004
  3
CMLEADERSTYLE
350
1710A
  3
CTABLESTYLE
350
141AE
  3
DIMADEC
350
6EE
  3
DIMASSOC
350
141AF
  3
FIELDEVAL
350
7CF14
  3
HIDETEXT
350
1485B
  3
INDEXCTL
350
1710C
  3
INTERSECTIONCOLOR
350
1485F
  3
INTERSECTIONDISPLAY
350
1485E
  3
LAYEREVAL
350
A348C
  3
LAYERNOTIFY
350
A348D
  3
MLEADERSCALE
350
7E56E
  3
MSLTSCALE
350
6D821
  3
OBSCOLOR
350
1485C
  3
OBSLTYPE
350
1485D
  3
PROJECTNAME
350
141B0
  3
SORTENTS
350
E97
  3
UPDATETHUMBNAIL
350
41A53
  3
XCLIPFRAME
350
A3D04
1001
ACAD
1000
TREAT_AS_HARD
1070
     0
  0
DICTIONARY
  5
26DAC
102
{ACAD_REACTORS
330
C
102
}
330
C
100
AcDbDictionary
1001
ACAD
1000
TREAT_AS_HARD
1070
     0
  0
DICTIONARY
  5
60
102
{ACAD_REACTORS
330
C
102
}
330
C
100
AcDbDictionary
1001
CONTENTTABDATA
1070
     3
1000
CHILDREN.dwg
1000
D:\ACLT\家田Tab\CHILDREN.dwg
1070
     0
1070
     0
1070
     1
1000
REGION.dwg
1000
D:\ACLT\家田Tab\REGION.dwg
1070
     0
1070
     0
1070
     1
1000
std_sym_all.dwg
1000
D:\ACLT\家田Tab\std_sym_all.dwg
1070
     0
1070
     0
1070
     1
1001
CONTENTCURRENTTAB
1070
     0
1001
ACAD
1000
TREAT_AS_HARD
1070
     0
  0
DICTIONARY
  5
5F9
102
{ACAD_REACTORS
330
C
102
}
330
C
100
AcDbDictionary
1001
DRAWINGVARIABLESXDATA
1000
POLARMODE
1000
1
1000
POLARANG
1000
0.261799387799149410000000
1000
POLARSTYLE
1000
1
1001
ACAD
1000
TREAT_AS_HARD
1070
     0
  0
XRECORD
  5
A3E69
102
{ACAD_REACTORS
330
C
102
}
330
C
100
AcDbXrecord
  1
DWGPROPS COOKIE
  2

  3

  4

  6

  7

  8
624
  9

300
=
301
=
302
=
303
=
304
=
305
=
306
=
307
=
308
=
309
=
 40
0.0
 41
2451027.252421285
 42
2458080.396361377
  1

 90
        0
  0
DICTIONARY
  5
1487A
102
{ACAD_REACTORS
330
14879
102
}
330
14879
100
AcDbDictionary
  3
_LAYISO_STATE
350
7A5FB
1001
ACLAYERTOOLS
1000
14191
1000
0
1001
ACAD
1000
TREAT_AS_HARD
1070
     0
  0
ACAD_PROXY_OBJECT
  5
16FBD
102
{ACAD_REACTORS
330
16FBC
102
}
330
16FBC
100
AcDbZombieObject
 90
      499
 91
      543
 93
       34
310
40C8804040
  0
SORTENTSTABLE
  5
6A56E
102
{ACAD_REACTORS
330
143BD
102
}
330
143BD
100
AcDbSortentsTable
330
18
331
A3B92
  5
A3E0E
331
A3B93
  5
A3E0F
331
A3B9F
  5
A3E56
331
A3BA0
  5
A3E57
331
A3BA1
  5
A3E58
331
A3BA2
  5
A3E59
331
0
  5
A3D37
331
A3D36
  5
A3E5E
331
A3D37
  5
A3E5F
331
A3D38
  5
A3E64
331
A3D39
  5
A3E65
331
0
  5
A3B92
331
A3D3B
  5
A3D3C
331
A3D3C
  5
A3D3D
331
A3D3D
  5
A3D3E
331
A3D3E
  5
A3D3F
331
A3D3F
  5
A3D40
331
A3D40
  5
A3D41
331
A3D41
  5
A3D42
331
A3D42
  5
A3D43
331
A3D43
  5
A3D44
331
0
  5
A3D3A
331
A3D45
  5
A3D4E
331
A3D46
  5
A3D4F
331
A3D47
  5
A3D50
331
A3D48
  5
A3D51
331
A3D49
  5
A3D53
331
A3D4A
  5
A3D54
331
A3D4B
  5
A3D55
331
A3D4C
  5
A3D56
331
A3D4D
  5
A3D57
331
A3D4E
  5
A3D58
331
A3D4F
  5
A3D59
331
A3D50
  5
A3D5A
331
A3D51
  5
A3D73
331
A3D52
  5
A3D74
331
A3D53
  5
A3D75
331
A3D54
  5
A3D76
331
A3D55
  5
A3D77
331
A3D56
  5
A3D78
331
A3D57
  5
A3D79
331
A3D58
  5
A3D7A
331
A3D59
  5
A3D7B
331
A3D5A
  5
A3D7C
331
A3D73
  5
A3D7D
331
0
  5
A3D52
331
A3D75
  5
A3D88
331
A3D76
  5
A3D89
331
A3D77
  5
A3D8A
331
A3D78
  5
A3DA3
331
A3D79
  5
A3DA4
331
A3D7A
  5
A3DA5
331
A3D7B
  5
A3DA6
331
A3D7C
  5
A3DA7
331
A3D7D
  5
A3DA8
331
A3D7E
  5
A3DA9
331
A3D7F
  5
A3DAA
331
A3D80
  5
A3DAB
331
A3D81
  5
A3DAC
331
A3D82
  5
A3DAD
331
A3D83
  5
A3DAE
331
A3D84
  5
A3DAF
331
A3D85
  5
A3DB0
331
A3D86
  5
A3DB1
331
A3D87
  5
A3DB3
331
A3D88
  5
A3DB4
331
A3D89
  5
A3DB5
331
A3D8A
  5
A3DB6
331
A3DA3
  5
A3DB7
331
0
  5
A3D82
331
A3DA5
  5
A3DC1
331
A3DA6
  5
A3DC2
331
A3DA7
  5
A3DC3
331
A3DA8
  5
A3DC4
331
A3DA9
  5
A3DC5
331
A3DAA
  5
A3DC6
331
A3DAB
  5
A3DC7
331
A3DAC
  5
A3DC8
331
A3DAD
  5
A3DC9
331
A3DAE
  5
A3DCA
331
A3DAF
  5
A3DCB
331
A3DB0
  5
A3DCC
331
A3DB1
  5
A3DCD
331
A3DB2
  5
A3DD1
331
A3DB3
  5
A3DD2
331
A3DB4
  5
A3DD3
331
A3DB5
  5
A3DD7
331
A3DB6
  5
A3DD8
331
A3DB7
  5
A3DD9
331
A3DB8
  5
A3DDD
331
A3DB9
  5
A3DDE
331
A3DBA
  5
A3DDF
331
A3DBB
  5
A3DE3
331
0
  5
A3DB2
331
A3DBD
  5
A3DF6
331
A3DBE
  5
A3DF7
331
A3DBF
  5
A3DF8
331
A3DC0
  5
A3DFA
331
A3DC1
  5
A3DFB
331
A3DC2
  5
A3DFC
331
A3DC3
  5
A3DFE
331
A3DC4
  5
A3DFF
331
A3DC5
  5
A3E00
331
A3DC6
  5
A3E01
331
A3DC7
  5
A3E02
331
A3DC8
  5
A3E03
331
A3DC9
  5
A3E04
331
A3DCA
  5
A3E05
331
A3DCB
  5
A3E06
331
A3DCC
  5
A3E07
331
A3DCD
  5
A3E08
331
A3DCE
  5
A3E09
331
A3DCF
  5
A3E0A
331
A3DD0
  5
A3E0B
331
A3DD1
  5
A3E0C
331
A3DD2
  5
A3E0D
331
A3DD3
  5
A3E10
331
A3DD4
  5
A3E11
331
A3DD5
  5
A3E12
331
0
  5
A3DCE
331
0
  5
A3DCF
331
0
  5
A3DD0
331
A3DD9
  5
A3E1A
331
A3DDA
  5
A3E1B
331
A3DDB
  5
A3E1C
331
0
  5
A3DD4
331
0
  5
A3DD5
331
0
  5
A3DD6
331
A3DDF
  5
A3E24
331
A3DE0
  5
A3E25
331
A3DE1
  5
A3E26
331
0
  5
A3DDA
331
0
  5
A3DDB
331
0
  5
A3DDC
331
A3DE5
  5
A3E2E
331
A3DE6
  5
A3E2F
331
A3DE7
  5
A3E30
331
0
  5
A3DE0
331
0
  5
A3DE1
331
0
  5
A3DE2
331
A3DEB
  5
A3E38
331
A3DEC
  5
A3E39
331
A3DED
  5
A3E3A
331
0
  5
A3DE6
331
0
  5
A3DE7
331
0
  5
A3DE8
331
A3DF1
  5
A3E42
331
A3DF2
  5
A3E43
331
A3DF3
  5
A3E44
331
0
  5
A3DEC
331
0
  5
A3DED
331
0
  5
A3DEE
331
A3DF7
  5
A3E4C
331
A3DF8
  5
A3E4D
331
A3DF9
  5
A3E4E
331
0
  5
A3DF2
331
0
  5
A3DF3
331
0
  5
A3DF4
331
0
  5
A3DF9
331
A3DFE
  5
A3E5D
331
0
  5
A3DFD
331
A3E00
  5
A3E63
331
A3E01
  5
A3B93
331
A3E02
  5
A3B9F
331
A3E03
  5
A3BA0
331
A3E04
  5
A3BA1
331
A3E05
  5
A3BA2
331
A3E06
  5
A3CC8
331
A3E07
  5
A3D36
331
A3E08
  5
A3D38
331
A3E09
  5
A3D39
331
A3E0A
  5
A3D3B
331
A3E0B
  5
A3D45
331
A3E0C
  5
A3D46
331
A3E0D
  5
A3D47
331
A3E0E
  5
A3D48
331
A3E0F
  5
A3D49
331
A3E10
  5
A3D4A
331
A3E11
  5
A3D4B
331
A3E12
  5
A3D4C
331
A3E13
  5
A3D4D
331
A3E14
  5
A3D7E
331
A3E15
  5
A3D7F
331
A3E16
  5
A3D80
331
A3E17
  5
A3D81
331
A3E18
  5
A3D83
331
A3E19
  5
A3D84
331
A3E1A
  5
A3D85
331
A3E1B
  5
A3D86
331
A3E1C
  5
A3D87
331
A3E1D
  5
A3DB8
331
A3E1E
  5
A3DB9
331
A3E1F
  5
A3DBA
331
A3E20
  5
A3DBB
331
A3E21
  5
A3DBC
331
A3E22
  5
A3DBD
331
A3E23
  5
A3DBE
331
A3E24
  5
A3DBF
331
A3E25
  5
A3DC0
331
A3E26
  5
A3DE4
331
A3E27
  5
A3DE5
331
A3E28
  5
A3DE9
331
A3E29
  5
A3DEA
331
A3E2A
  5
A3DEB
331
A3E2B
  5
A3DEF
331
A3E2C
  5
A3DF0
331
A3E2D
  5
A3DF1
331
A3E2E
  5
A3DF5
331
A3E2F
  5
A3E13
331
A3E30
  5
A3E14
331
A3E31
  5
A3E15
331
A3E32
  5
A3E16
331
A3E33
  5
A3E17
331
A3E34
  5
A3E18
331
A3E35
  5
A3E19
331
A3E36
  5
A3E1D
331
A3E37
  5
A3E1E
331
A3E38
  5
A3E1F
331
A3E39
  5
A3E20
331
A3E3A
  5
A3E21
331
A3E3B
  5
A3E22
331
A3E3C
  5
A3E23
331
A3E3D
  5
A3E27
331
A3E3E
  5
A3E28
331
A3E3F
  5
A3E29
331
A3E40
  5
A3E2A
331
A3E41
  5
A3E2B
331
A3E42
  5
A3E2C
331
A3E43
  5
A3E2D
331
A3E44
  5
A3E31
331
A3E45
  5
A3E32
331
A3E46
  5
A3E33
331
A3E47
  5
A3E34
331
A3E48
  5
A3E35
331
A3E49
  5
A3E36
331
A3E4A
  5
A3E37
331
A3E4B
  5
A3E3B
331
A3E4C
  5
A3E3C
331
A3E4D
  5
A3E3D
331
A3E4E
  5
A3E3E
331
A3E4F
  5
A3E3F
331
A3E50
  5
A3E40
331
A3E51
  5
A3E41
331
A3E52
  5
A3E45
331
A3E53
  5
A3E46
331
A3E54
  5
A3E47
331
A3E55
  5
A3E48
331
A3E56
  5
A3E49
331
A3E57
  5
A3E4A
331
A3E58
  5
A3E4B
331
A3E59
  5
A3E4F
331
A3E5A
  5
A3E50
331
A3E5B
  5
A3E51
331
A3E5C
  5
A3E52
331
A3E5D
  5
A3E53
331
A3E5E
  5
A3E54
331
A3E5F
  5
A3E55
331
A3E60
  5
A3E5A
331
A3E61
  5
A3E5B
331
A3E62
  5
A3E5C
331
A3E63
  5
A3E60
331
A3E64
  5
A3E61
331
A3E65
  5
A3E62
  0
SORTENTSTABLE
  5
A337E
102
{ACAD_REACTORS
330
A337D
102
}
330
A337D
100
AcDbSortentsTable
330
7DA16
331
7DA1A
  5
7DA1A
331
0
  5
7E25F
331
0
  5
7E260
331
0
  5
7E261
331
0
  5
7E262
331
0
  5
7E263
331
0
  5
7E264
331
0
  5
7E265
331
0
  5
7E266
331
0
  5
7E267
331
0
  5
7E268
331
0
  5
7E26B
331
0
  5
7E6D4
  0
MATERIAL
  5
16F60
102
{ACAD_REACTORS
330
1418B
102
}
102
{ACAD_XDICTIONARY
360
A4005
102
}
330
1418B
100
AcDbMaterial
  1
BYBLOCK
 72
     0
 73
     2
 43
0.020833
 43
0.0
 43
0.0
 43
0.0
 43
0.0
 43
0.020833
 43
0.0
 43
0.0
 43
0.0
 43
0.0
 43
1.0
 43
0.0
 43
0.0
 43
0.0
 43
0.0
 43
1.0
 77
     0
 78
     2
 47
0.020833
 47
0.0
 47
0.0
 47
0.0
 47
0.0
 47
0.020833
 47
0.0
 47
0.0
 47
0.0
 47
0.0
 47
1.0
 47
0.0
 47
0.0
 47
0.0
 47
0.0
 47
1.0
171
     0
172
     2
 49
0.020833
 49
0.0
 49
0.0
 49
0.0
 49
0.0
 49
0.020833
 49
0.0
 49
0.0
 49
0.0
 49
0.0
 49
1.0
 49
0.0
 49
0.0
 49
0.0
 49
0.0
 49
1.0
175
     0
176
     2
142
0.020833
142
0.0
142
0.0
142
0.0
142
0.0
142
0.020833
142
0.0
142
0.0
142
0.0
142
0.0
142
1.0
142
0.0
142
0.0
142
0.0
142
0.0
142
1.0
179
     0
270
     2
144
0.020833
144
0.0
144
0.0
144
0.0
144
0.0
144
0.020833
144
0.0
144
0.0
144
0.0
144
0.0
144
1.0
144
0.0
144
0.0
144
0.0
144
0.0
144
1.0
274
     2
147
0.020833
147
0.0
147
0.0
147
0.0
147
0.0
147
0.020833
147
0.0
147
0.0
147
0.0
147
0.0
147
1.0
147
0.0
147
0.0
147
0.0
147
0.0
147
1.0
  0
MATERIAL
  5
16F58
102
{ACAD_REACTORS
330
1418B
102
}
102
{ACAD_XDICTIONARY
360
A4007
102
}
330
1418B
100
AcDbMaterial
  1
BYLAYER
 72
     0
 73
     2
 43
0.020833
 43
0.0
 43
0.0
 43
0.0
 43
0.0
 43
0.020833
 43
0.0
 43
0.0
 43
0.0
 43
0.0
 43
1.0
 43
0.0
 43
0.0
 43
0.0
 43
0.0
 43
1.0
 77
     0
 78
     2
 47
0.020833
 47
0.0
 47
0.0
 47
0.0
 47
0.0
 47
0.020833
 47
0.0
 47
0.0
 47
0.0
 47
0.0
 47
1.0
 47
0.0
 47
0.0
 47
0.0
 47
0.0
 47
1.0
171
     0
172
     2
 49
0.020833
 49
0.0
 49
0.0
 49
0.0
 49
0.0
 49
0.020833
 49
0.0
 49
0.0
 49
0.0
 49
0.0
 49
1.0
 49
0.0
 49
0.0
 49
0.0
 49
0.0
 49
1.0
175
     0
176
     2
142
0.020833
142
0.0
142
0.0
142
0.0
142
0.0
142
0.020833
142
0.0
142
0.0
142
0.0
142
0.0
142
1.0
142
0.0
142
0.0
142
0.0
142
0.0
142
1.0
179
     0
270
     2
144
0.020833
144
0.0
144
0.0
144
0.0
144
0.0
144
0.020833
144
0.0
144
0.0
144
0.0
144
0.0
144
1.0
144
0.0
144
0.0
144
0.0
144
0.0
144
1.0
274
     2
147
0.020833
147
0.0
147
0.0
147
0.0
147
0.0
147
0.020833
147
0.0
147
0.0
147
0.0
147
0.0
147
1.0
147
0.0
147
0.0
147
0.0
147
0.0
147
1.0
  0
MATERIAL
  5
16F68
102
{ACAD_REACTORS
330
1418B
102
}
102
{ACAD_XDICTIONARY
360
A4009
102
}
330
1418B
100
AcDbMaterial
  1
GLOBAL
 72
     0
 73
     2
 43
0.020833
 43
0.0
 43
0.0
 43
0.0
 43
0.0
 43
0.020833
 43
0.0
 43
0.0
 43
0.0
 43
0.0
 43
1.0
 43
0.0
 43
0.0
 43
0.0
 43
0.0
 43
1.0
 77
     0
 78
     2
 47
0.020833
 47
0.0
 47
0.0
 47
0.0
 47
0.0
 47
0.020833
 47
0.0
 47
0.0
 47
0.0
 47
0.0
 47
1.0
 47
0.0
 47
0.0
 47
0.0
 47
0.0
 47
1.0
171
     0
172
     2
 49
0.020833
 49
0.0
 49
0.0
 49
0.0
 49
0.0
 49
0.020833
 49
0.0
 49
0.0
 49
0.0
 49
0.0
 49
1.0
 49
0.0
 49
0.0
 49
0.0
 49
0.0
 49
1.0
175
     0
176
     2
142
0.020833
142
0.0
142
0.0
142
0.0
142
0.0
142
0.020833
142
0.0
142
0.0
142
0.0
142
0.0
142
1.0
142
0.0
142
0.0
142
0.0
142
0.0
142
1.0
179
     0
270
     2
144
0.020833
144
0.0
144
0.0
144
0.0
144
0.0
144
0.020833
144
0.0
144
0.0
144
0.0
144
0.0
144
1.0
144
0.0
144
0.0
144
0.0
144
0.0
144
1.0
274
     2
147
0.020833
147
0.0
147
0.0
147
0.0
147
0.0
147
0.020833
147
0.0
147
0.0
147
0.0
147
0.0
147
1.0
147
0.0
147
0.0
147
0.0
147
0.0
147
1.0
  0
ACAD_PROXY_OBJECT
  5
16FA4
102
{ACAD_REACTORS
330
16FA3
102
}
330
16FA3
100
AcDbZombieObject
 90
      499
 91
      511
 93
      618
310
40901902A4073FBFFFFFE000000000000002040AD7A3703D0AD73F4214DD185B99185C9900000000000001040905415019C900000000000003100000000000000041025766000000000000300FC0
340
12
340
0
340
F
340
0
 94
        0
1001
ACAD
1000
AcRTDxfName
1000
MLEADERSTYLE
1000
AcRTDxfName
1000
MLEADERSTYLE
1000
AcRTDxfName
1000
MLEADERSTYLE
1000
AcRTDxfName
1000
MLEADERSTYLE
1000
AcRTDxfName
1000
MLEADERSTYLE
1000
AcRTDxfName
1000
MLEADERSTYLE
1001
ACAD_MLEADERVER
1070
     2
  0
MLINESTYLE
  5
1C
102
{ACAD_REACTORS
330
1B
102
}
330
1B
100
AcDbMlineStyle
  2
STANDARD
 70
     0
  3

 62
   256
 51
90.0
 52
90.0
 71
     2
 49
0.5
 62
   256
  6
BYLAYER
 49
-0.5
 62
   256
  6
BYLAYER
  0
ACAD_PROXY_OBJECT
  5
6F27C
102
{ACAD_REACTORS
330
16F81
102
}
330
16F81
100
AcDbZombieObject
 90
      499
 91
      510
 93
      153
310
909313A34305F585245464000000000000444000
  0
ACAD_PROXY_OBJECT
  5
6F285
102
{ACAD_REACTORS
330
16F81
102
}
330
16F81
100
AcDbZombieObject
 90
      499
 91
      510
 93
      145
310
908313A345F585245464000000000000104000
  0
ACAD_PROXY_OBJECT
  5
6F286
102
{ACAD_REACTORS
330
16F81
102
}
330
16F81
100
AcDbZombieObject
 90
      499
 91
      510
 93
      145
310
908313A355F585245464000000000000144000
  0
ACAD_PROXY_OBJECT
  5
6F287
102
{ACAD_REACTORS
330
16F81
102
}
330
16F81
100
AcDbZombieObject
 90
      499
 91
      510
 93
      145
310
908313A385F585245464000000000000204000
  0
ACAD_PROXY_OBJECT
  5
6F288
102
{ACAD_REACTORS
330
16F81
102
}
330
16F81
100
AcDbZombieObject
 90
      499
 91
      510
 93
      153
310
909313A31305F585245464000000000000244000
  0
ACAD_PROXY_OBJECT
  5
6F289
102
{ACAD_REACTORS
330
16F81
102
}
330
16F81
100
AcDbZombieObject
 90
      499
 91
      510
 93
      153
310
909313A31365F585245464000000000000304000
  0
ACAD_PROXY_OBJECT
  5
6F28A
102
{ACAD_REACTORS
330
16F81
102
}
330
16F81
100
AcDbZombieObject
 90
      499
 91
      510
 93
      153
310
909313A32305F585245464000000000000344000
  0
ACAD_PROXY_OBJECT
  5
6F28B
102
{ACAD_REACTORS
330
16F81
102
}
330
16F81
100
AcDbZombieObject
 90
      499
 91
      510
 93
      153
310
909313A33305F5852454640000000000003E4000
  0
ACAD_PROXY_OBJECT
  5
6F27D
102
{ACAD_REACTORS
330
16F81
102
}
330
16F81
100
AcDbZombieObject
 90
      499
 91
      510
 93
      153
310
909313A35305F585245464000000000000494000
  0
ACAD_PROXY_OBJECT
  5
6F27E
102
{ACAD_REACTORS
330
16F81
102
}
330
16F81
100
AcDbZombieObject
 90
      499
 91
      510
 93
      161
310
90A313A3130305F585245464000000000000594000
  0
ACAD_PROXY_OBJECT
  5
6F27F
102
{ACAD_REACTORS
330
16F81
102
}
330
16F81
100
AcDbZombieObject
 90
      499
 91
      510
 93
      145
310
908323A315F585245460000000000000010100
  0
ACAD_PROXY_OBJECT
  5
6F280
102
{ACAD_REACTORS
330
16F81
102
}
330
16F81
100
AcDbZombieObject
 90
      499
 91
      510
 93
      145
310
908343A315F585245460000000000000410100
  0
ACAD_PROXY_OBJECT
  5
6F281
102
{ACAD_REACTORS
330
16F81
102
}
330
16F81
100
AcDbZombieObject
 90
      499
 91
      510
 93
      145
310
908383A315F585245460000000000000810100
  0
ACAD_PROXY_OBJECT
  5
6F282
102
{ACAD_REACTORS
330
16F81
102
}
330
16F81
100
AcDbZombieObject
 90
      499
 91
      510
 93
      153
310
90931303A315F585245460000000000000910100
  0
ACAD_PROXY_OBJECT
  5
6F283
102
{ACAD_REACTORS
330
16F81
102
}
330
16F81
100
AcDbZombieObject
 90
      499
 91
      510
 93
      161
310
90A3130303A315F585245460000000000001650100
  0
ACAD_PROXY_OBJECT
  5
6F284
102
{ACAD_REACTORS
330
16F81
102
}
330
16F81
100
AcDbZombieObject
 90
      499
 91
      510
 93
      145
310
908313A325F585245464000000000000004000
  0
ACAD_PROXY_OBJECT
  5
7F62D
102
{ACAD_REACTORS
330
16F81
102
}
330
16F81
100
AcDbZombieObject
 90
      499
 91
      510
 93
      273
310
910312F31323822203D2031272D30225F31000000000000200FC000000000000284000
1001
ACAD
1000
AcRTDxfName
1000
SCALE
1000
AcRTDxfName
1000
SCALE
1000
AcRTDxfName
1000
SCALE
1000
AcRTDxfName
1000
SCALE
1000
AcRTDxfName
1000
SCALE
1000
AcRTDxfName
1000
SCALE
  0
ACAD_PROXY_OBJECT
  5
16F82
102
{ACAD_REACTORS
330
16F81
102
}
330
16F81
100
AcDbZombieObject
 90
      499
 91
      510
 93
       41
310
903313A31580
1001
ACAD
1000
AcRTDxfName
1000
SCALE
1000
AcRTDxfName
1000
SCALE
1000
AcRTDxfName
1000
SCALE
1000
AcRTDxfName
1000
SCALE
1000
AcRTDxfName
1000
SCALE
1000
AcRTDxfName
1000
SCALE
  0
ACAD_PROXY_OBJECT
  5
16F83
102
{ACAD_REACTORS
330
16F81
102
}
330
16F81
100
AcDbZombieObject
 90
      499
 91
      510
 93
      105
310
903313A324000000000000004000
1001
ACAD
1000
AcRTDxfName
1000
SCALE
1000
AcRTDxfName
1000
SCALE
1000
AcRTDxfName
1000
SCALE
1000
AcRTDxfName
1000
SCALE
1000
AcRTDxfName
1000
SCALE
1000
AcRTDxfName
1000
SCALE
  0
ACAD_PROXY_OBJECT
  5
16F84
102
{ACAD_REACTORS
330
16F81
102
}
330
16F81
100
AcDbZombieObject
 90
      499
 91
      510
 93
      105
310
903313A344000000000000104000
1001
ACAD
1000
AcRTDxfName
1000
SCALE
1000
AcRTDxfName
1000
SCALE
1000
AcRTDxfName
1000
SCALE
1000
AcRTDxfName
1000
SCALE
1000
AcRTDxfName
1000
SCALE
1000
AcRTDxfName
1000
SCALE
  0
ACAD_PROXY_OBJECT
  5
16F85
102
{ACAD_REACTORS
330
16F81
102
}
330
16F81
100
AcDbZombieObject
 90
      499
 91
      510
 93
      105
310
903313A354000000000000144000
1001
ACAD
1000
AcRTDxfName
1000
SCALE
1000
AcRTDxfName
1000
SCALE
1000
AcRTDxfName
1000
SCALE
1000
AcRTDxfName
1000
SCALE
1000
AcRTDxfName
1000
SCALE
1000
AcRTDxfName
1000
SCALE
  0
ACAD_PROXY_OBJECT
  5
16F86
102
{ACAD_REACTORS
330
16F81
102
}
330
16F81
100
AcDbZombieObject
 90
      499
 91
      510
 93
      105
310
903313A384000000000000204000
1001
ACAD
1000
AcRTDxfName
1000
SCALE
1000
AcRTDxfName
1000
SCALE
1000
AcRTDxfName
1000
SCALE
1000
AcRTDxfName
1000
SCALE
1000
AcRTDxfName
1000
SCALE
1000
AcRTDxfName
1000
SCALE
  0
ACAD_PROXY_OBJECT
  5
16F87
102
{ACAD_REACTORS
330
16F81
102
}
330
16F81
100
AcDbZombieObject
 90
      499
 91
      510
 93
      113
310
904313A31304000000000000244000
1001
ACAD
1000
AcRTDxfName
1000
SCALE
1000
AcRTDxfName
1000
SCALE
1000
AcRTDxfName
1000
SCALE
1000
AcRTDxfName
1000
SCALE
1000
AcRTDxfName
1000
SCALE
1000
AcRTDxfName
1000
SCALE
  0
ACAD_PROXY_OBJECT
  5
16F88
102
{ACAD_REACTORS
330
16F81
102
}
330
16F81
100
AcDbZombieObject
 90
      499
 91
      510
 93
      113
310
904313A31364000000000000304000
1001
ACAD
1000
AcRTDxfName
1000
SCALE
1000
AcRTDxfName
1000
SCALE
1000
AcRTDxfName
1000
SCALE
1000
AcRTDxfName
1000
SCALE
1000
AcRTDxfName
1000
SCALE
1000
AcRTDxfName
1000
SCALE
  0
ACAD_PROXY_OBJECT
  5
16F89
102
{ACAD_REACTORS
330
16F81
102
}
330
16F81
100
AcDbZombieObject
 90
      499
 91
      510
 93
      113
310
904313A32304000000000000344000
1001
ACAD
1000
AcRTDxfName
1000
SCALE
1000
AcRTDxfName
1000
SCALE
1000
AcRTDxfName
1000
SCALE
1000
AcRTDxfName
1000
SCALE
1000
AcRTDxfName
1000
SCALE
1000
AcRTDxfName
1000
SCALE
  0
ACAD_PROXY_OBJECT
  5
16F8A
102
{ACAD_REACTORS
330
16F81
102
}
330
16F81
100
AcDbZombieObject
 90
      499
 91
      510
 93
      113
310
904313A333040000000000003E4000
1001
ACAD
1000
AcRTDxfName
1000
SCALE
1000
AcRTDxfName
1000
SCALE
1000
AcRTDxfName
1000
SCALE
1000
AcRTDxfName
1000
SCALE
1000
AcRTDxfName
1000
SCALE
1000
AcRTDxfName
1000
SCALE
  0
ACAD_PROXY_OBJECT
  5
16F8B
102
{ACAD_REACTORS
330
16F81
102
}
330
16F81
100
AcDbZombieObject
 90
      499
 91
      510
 93
      113
310
904313A34304000000000000444000
1001
ACAD
1000
AcRTDxfName
1000
SCALE
1000
AcRTDxfName
1000
SCALE
1000
AcRTDxfName
1000
SCALE
1000
AcRTDxfName
1000
SCALE
1000
AcRTDxfName
1000
SCALE
1000
AcRTDxfName
1000
SCALE
  0
ACAD_PROXY_OBJECT
  5
16F8C
102
{ACAD_REACTORS
330
16F81
102
}
330
16F81
100
AcDbZombieObject
 90
      499
 91
      510
 93
      113
310
904313A35304000000000000494000
1001
ACAD
1000
AcRTDxfName
1000
SCALE
1000
AcRTDxfName
1000
SCALE
1000
AcRTDxfName
1000
SCALE
1000
AcRTDxfName
1000
SCALE
1000
AcRTDxfName
1000
SCALE
1000
AcRTDxfName
1000
SCALE
  0
ACAD_PROXY_OBJECT
  5
16F8D
102
{ACAD_REACTORS
330
16F81
102
}
330
16F81
100
AcDbZombieObject
 90
      499
 91
      510
 93
      121
310
905313A3130304000000000000594000
1001
ACAD
1000
AcRTDxfName
1000
SCALE
1000
AcRTDxfName
1000
SCALE
1000
AcRTDxfName
1000
SCALE
1000
AcRTDxfName
1000
SCALE
1000
AcRTDxfName
1000
SCALE
1000
AcRTDxfName
1000
SCALE
  0
ACAD_PROXY_OBJECT
  5
16F8E
102
{ACAD_REACTORS
330
16F81
102
}
330
16F81
100
AcDbZombieObject
 90
      499
 91
      510
 93
      105
310
903323A310000000000000010100
1001
ACAD
1000
AcRTDxfName
1000
SCALE
1000
AcRTDxfName
1000
SCALE
1000
AcRTDxfName
1000
SCALE
1000
AcRTDxfName
1000
SCALE
1000
AcRTDxfName
1000
SCALE
1000
AcRTDxfName
1000
SCALE
  0
ACAD_PROXY_OBJECT
  5
16F8F
102
{ACAD_REACTORS
330
16F81
102
}
330
16F81
100
AcDbZombieObject
 90
      499
 91
      510
 93
      105
310
903343A310000000000000410100
1001
ACAD
1000
AcRTDxfName
1000
SCALE
1000
AcRTDxfName
1000
SCALE
1000
AcRTDxfName
1000
SCALE
1000
AcRTDxfName
1000
SCALE
1000
AcRTDxfName
1000
SCALE
1000
AcRTDxfName
1000
SCALE
  0
ACAD_PROXY_OBJECT
  5
16F90
102
{ACAD_REACTORS
330
16F81
102
}
330
16F81
100
AcDbZombieObject
 90
      499
 91
      510
 93
      105
310
903383A310000000000000810100
1001
ACAD
1000
AcRTDxfName
1000
SCALE
1000
AcRTDxfName
1000
SCALE
1000
AcRTDxfName
1000
SCALE
1000
AcRTDxfName
1000
SCALE
1000
AcRTDxfName
1000
SCALE
1000
AcRTDxfName
1000
SCALE
  0
ACAD_PROXY_OBJECT
  5
16F91
102
{ACAD_REACTORS
330
16F81
102
}
330
16F81
100
AcDbZombieObject
 90
      499
 91
      510
 93
      113
310
90431303A310000000000000910100
1001
ACAD
1000
AcRTDxfName
1000
SCALE
1000
AcRTDxfName
1000
SCALE
1000
AcRTDxfName
1000
SCALE
1000
AcRTDxfName
1000
SCALE
1000
AcRTDxfName
1000
SCALE
1000
AcRTDxfName
1000
SCALE
  0
ACAD_PROXY_OBJECT
  5
16F92
102
{ACAD_REACTORS
330
16F81
102
}
330
16F81
100
AcDbZombieObject
 90
      499
 91
      510
 93
      121
310
9053130303A310000000000001650100
1001
ACAD
1000
AcRTDxfName
1000
SCALE
1000
AcRTDxfName
1000
SCALE
1000
AcRTDxfName
1000
SCALE
1000
AcRTDxfName
1000
SCALE
1000
AcRTDxfName
1000
SCALE
1000
AcRTDxfName
1000
SCALE
  0
ACAD_PROXY_OBJECT
  5
16F93
102
{ACAD_REACTORS
330
16F81
102
}
330
16F81
100
AcDbZombieObject
 90
      499
 91
      510
 93
      257
310
90E312F31323822203D2031272D3022147E90B21E7FDFCFC000000000000284000
1001
ACAD
1000
AcRTDxfName
1000
SCALE
1000
AcRTDxfName
1000
SCALE
1000
AcRTDxfName
1000
SCALE
1000
AcRTDxfName
1000
SCALE
1000
AcRTDxfName
1000
SCALE
1000
AcRTDxfName
1000
SCALE
  0
ACAD_PROXY_OBJECT
  5
16F94
102
{ACAD_REACTORS
330
16F81
102
}
330
16F81
100
AcDbZombieObject
 90
      499
 91
      510
 93
      249
310
90D312F363422203D2031272D3022000000000000240FC000000000000284000
1001
ACAD
1000
AcRTDxfName
1000
SCALE
1000
AcRTDxfName
1000
SCALE
1000
AcRTDxfName
1000
SCALE
1000
AcRTDxfName
1000
SCALE
1000
AcRTDxfName
1000
SCALE
1000
AcRTDxfName
1000
SCALE
  0
ACAD_PROXY_OBJECT
  5
16F95
102
{ACAD_REACTORS
330
16F81
102
}
330
16F81
100
AcDbZombieObject
 90
      499
 91
      510
 93
      249
310
90D312F333222203D2031272D3022000000000000280FC000000000000284000
1001
ACAD
1000
AcRTDxfName
1000
SCALE
1000
AcRTDxfName
1000
SCALE
1000
AcRTDxfName
1000
SCALE
1000
AcRTDxfName
1000
SCALE
1000
AcRTDxfName
1000
SCALE
1000
AcRTDxfName
1000
SCALE
  0
ACAD_PROXY_OBJECT
  5
16F96
102
{ACAD_REACTORS
330
16F81
102
}
330
16F81
100
AcDbZombieObject
 90
      499
 91
      510
 93
      249
310
90D312F313622203D2031272D30220000000000002C0FC000000000000284000
1001
ACAD
1000
AcRTDxfName
1000
SCALE
1000
AcRTDxfName
1000
SCALE
1000
AcRTDxfName
1000
SCALE
1000
AcRTDxfName
1000
SCALE
1000
AcRTDxfName
1000
SCALE
1000
AcRTDxfName
1000
SCALE
  0
ACAD_PROXY_OBJECT
  5
16F97
102
{ACAD_REACTORS
330
16F81
102
}
330
16F81
100
AcDbZombieObject
 90
      499
 91
      510
 93
      249
310
90D332F333222203D2031272D30220000000000002E0FC000000000000284000
1001
ACAD
1000
AcRTDxfName
1000
SCALE
1000
AcRTDxfName
1000
SCALE
1000
AcRTDxfName
1000
SCALE
1000
AcRTDxfName
1000
SCALE
1000
AcRTDxfName
1000
SCALE
1000
AcRTDxfName
1000
SCALE
  0
ACAD_PROXY_OBJECT
  5
16F98
102
{ACAD_REACTORS
330
16F81
102
}
330
16F81
100
AcDbZombieObject
 90
      499
 91
      510
 93
      241
310
90C312F3822203D2031272D3022000000000000300FC000000000000284000
1001
ACAD
1000
AcRTDxfName
1000
SCALE
1000
AcRTDxfName
1000
SCALE
1000
AcRTDxfName
1000
SCALE
1000
AcRTDxfName
1000
SCALE
1000
AcRTDxfName
1000
SCALE
1000
AcRTDxfName
1000
SCALE
  0
ACAD_PROXY_OBJECT
  5
16F99
102
{ACAD_REACTORS
330
16F81
102
}
330
16F81
100
AcDbZombieObject
 90
      499
 91
      510
 93
      249
310
90D332F313622203D2031272D3022000000000000320FC000000000000284000
1001
ACAD
1000
AcRTDxfName
1000
SCALE
1000
AcRTDxfName
1000
SCALE
1000
AcRTDxfName
1000
SCALE
1000
AcRTDxfName
1000
SCALE
1000
AcRTDxfName
1000
SCALE
1000
AcRTDxfName
1000
SCALE
  0
ACAD_PROXY_OBJECT
  5
16F9A
102
{ACAD_REACTORS
330
16F81
102
}
330
16F81
100
AcDbZombieObject
 90
      499
 91
      510
 93
      241
310
90C312F3422203D2031272D3022000000000000340FC000000000000284000
1001
ACAD
1000
AcRTDxfName
1000
SCALE
1000
AcRTDxfName
1000
SCALE
1000
AcRTDxfName
1000
SCALE
1000
AcRTDxfName
1000
SCALE
1000
AcRTDxfName
1000
SCALE
1000
AcRTDxfName
1000
SCALE
  0
ACAD_PROXY_OBJECT
  5
16F9B
102
{ACAD_REACTORS
330
16F81
102
}
330
16F81
100
AcDbZombieObject
 90
      499
 91
      510
 93
      241
310
90C332F3822203D2031272D3022000000000000360FC000000000000284000
1001
ACAD
1000
AcRTDxfName
1000
SCALE
1000
AcRTDxfName
1000
SCALE
1000
AcRTDxfName
1000
SCALE
1000
AcRTDxfName
1000
SCALE
1000
AcRTDxfName
1000
SCALE
1000
AcRTDxfName
1000
SCALE
  0
ACAD_PROXY_OBJECT
  5
16F9C
102
{ACAD_REACTORS
330
16F81
102
}
330
16F81
100
AcDbZombieObject
 90
      499
 91
      510
 93
      241
310
90C312F3222203D2031272D3022000000000000380FC000000000000284000
1001
ACAD
1000
AcRTDxfName
1000
SCALE
1000
AcRTDxfName
1000
SCALE
1000
AcRTDxfName
1000
SCALE
1000
AcRTDxfName
1000
SCALE
1000
AcRTDxfName
1000
SCALE
1000
AcRTDxfName
1000
SCALE
  0
ACAD_PROXY_OBJECT
  5
16F9D
102
{ACAD_REACTORS
330
16F81
102
}
330
16F81
100
AcDbZombieObject
 90
      499
 91
      510
 93
      241
310
90C332F3422203D2031272D30220000000000003A0FC000000000000284000
1001
ACAD
1000
AcRTDxfName
1000
SCALE
1000
AcRTDxfName
1000
SCALE
1000
AcRTDxfName
1000
SCALE
1000
AcRTDxfName
1000
SCALE
1000
AcRTDxfName
1000
SCALE
1000
AcRTDxfName
1000
SCALE
  0
ACAD_PROXY_OBJECT
  5
16F9E
102
{ACAD_REACTORS
330
16F81
102
}
330
16F81
100
AcDbZombieObject
 90
      499
 91
      510
 93
      161
310
90A3122203D2031272D30224000000000000284000
1001
ACAD
1000
AcRTDxfName
1000
SCALE
1000
AcRTDxfName
1000
SCALE
1000
AcRTDxfName
1000
SCALE
1000
AcRTDxfName
1000
SCALE
1000
AcRTDxfName
1000
SCALE
1000
AcRTDxfName
1000
SCALE
  0
ACAD_PROXY_OBJECT
  5
16F9F
102
{ACAD_REACTORS
330
16F81
102
}
330
16F81
100
AcDbZombieObject
 90
      499
 91
      510
 93
      257
310
90E312D312F3222203D2031272D30220000000000003E0FC000000000000284000
1001
ACAD
1000
AcRTDxfName
1000
SCALE
1000
AcRTDxfName
1000
SCALE
1000
AcRTDxfName
1000
SCALE
1000
AcRTDxfName
1000
SCALE
1000
AcRTDxfName
1000
SCALE
1000
AcRTDxfName
1000
SCALE
  0
ACAD_PROXY_OBJECT
  5
16FA0
102
{ACAD_REACTORS
330
16F81
102
}
330
16F81
100
AcDbZombieObject
 90
      499
 91
      510
 93
      225
310
90A3322203D2031272D302200000000000002100000000000000284000
1001
ACAD
1000
AcRTDxfName
1000
SCALE
1000
AcRTDxfName
1000
SCALE
1000
AcRTDxfName
1000
SCALE
1000
AcRTDxfName
1000
SCALE
1000
AcRTDxfName
1000
SCALE
1000
AcRTDxfName
1000
SCALE
  0
ACAD_PROXY_OBJECT
  5
16FA1
102
{ACAD_REACTORS
330
16F81
102
}
330
16F81
100
AcDbZombieObject
 90
      499
 91
      510
 93
      225
310
90A3622203D2031272D302200000000000006100000000000000284000
1001
ACAD
1000
AcRTDxfName
1000
SCALE
1000
AcRTDxfName
1000
SCALE
1000
AcRTDxfName
1000
SCALE
1000
AcRTDxfName
1000
SCALE
1000
AcRTDxfName
1000
SCALE
1000
AcRTDxfName
1000
SCALE
  0
ACAD_PROXY_OBJECT
  5
16FA2
102
{ACAD_REACTORS
330
16F81
102
}
330
16F81
100
AcDbZombieObject
 90
      499
 91
      510
 93
      249
310
90D31272D3022203D2031272D30220000000000000A100000000000000284000
1001
ACAD
1000
AcRTDxfName
1000
SCALE
1000
AcRTDxfName
1000
SCALE
1000
AcRTDxfName
1000
SCALE
1000
AcRTDxfName
1000
SCALE
1000
AcRTDxfName
1000
SCALE
1000
AcRTDxfName
1000
SCALE
  0
ACAD_PROXY_OBJECT
  5
16F76
102
{ACAD_REACTORS
330
16F70
102
}
330
16F70
100
AcDbZombieObject
 90
      499
 91
      509
 93
      436
310
42CC9915DA5C99599C985B595049028333333333333E3BF0000000000000FB0107901411070040501600405405064090741402480A0340
1001
ACAD
1000
AcRTDxfName
1000
VISUALSTYLE
1000
AcRTDxfName
1000
VISUALSTYLE
1000
AcRTDxfName
1000
VISUALSTYLE
1000
AcRTDxfName
1000
VISUALSTYLE
1000
AcRTDxfName
1000
VISUALSTYLE
1000
AcRTDxfName
1000
VISUALSTYLE
1000
AcDbSavedByObjectVersion
1070
     0
  0
ACAD_PROXY_OBJECT
  5
16F78
102
{ACAD_REACTORS
330
16F70
102
}
330
16F70
100
AcDbZombieObject
 90
      499
 91
      509
 93
      500
310
424CD108121A5919195B90640502408333333333333E3BF0000000000000FB01079024090700405020000000000001110200405405064090740C02480A0340
1001
ACAD
1000
AcRTDxfName
1000
VISUALSTYLE
1000
AcRTDxfName
1000
VISUALSTYLE
1000
AcRTDxfName
1000
VISUALSTYLE
1000
AcRTDxfName
1000
VISUALSTYLE
1000
AcRTDxfName
1000
VISUALSTYLE
1000
AcRTDxfName
1000
VISUALSTYLE
1000
AcDbSavedByObjectVersion
1070
     0
  0
ACAD_PROXY_OBJECT
  5
16F77
102
{ACAD_REACTORS
330
16F70
102
}
330
16F70
100
AcDbZombieObject
 90
      499
 91
      509
 93
      436
310
42CCD915DA5C99599C985B595059028333333333333E3BF0000000000000FB0107901411070040501600405405064090741402480A0340
1001
ACAD
1000
AcRTDxfName
1000
VISUALSTYLE
1000
AcRTDxfName
1000
VISUALSTYLE
1000
AcRTDxfName
1000
VISUALSTYLE
1000
AcRTDxfName
1000
VISUALSTYLE
1000
AcRTDxfName
1000
VISUALSTYLE
1000
AcRTDxfName
1000
VISUALSTYLE
1000
AcDbSavedByObjectVersion
1070
     0
  0
ACAD_PROXY_OBJECT
  5
16F75
102
{ACAD_REACTORS
330
16F70
102
}
330
16F70
100
AcDbZombieObject
 90
      499
 91
      509
 93
      388
310
4150985CDA58D07406404333333333333E3BF0000000000000FB0107A41107004050150841D405064090741402480A0350
1001
ACAD
1000
AcRTDxfName
1000
VISUALSTYLE
1000
AcRTDxfName
1000
VISUALSTYLE
1000
AcRTDxfName
1000
VISUALSTYLE
1000
AcRTDxfName
1000
VISUALSTYLE
1000
AcRTDxfName
1000
VISUALSTYLE
1000
AcRTDxfName
1000
VISUALSTYLE
1000
AcDbSavedByObjectVersion
1070
     0
  0
ACAD_PROXY_OBJECT
  5
16F7C
102
{ACAD_REACTORS
330
16F70
102
}
330
16F70
100
AcDbZombieObject
 90
      499
 91
      509
 93
      428
310
42109C9A59DA1D195B90C409028333333333333E3BF0000000000000FB010790141107004050150841D405064090741402480A029950
1001
ACAD
1000
AcRTDxfName
1000
VISUALSTYLE
1000
AcRTDxfName
1000
VISUALSTYLE
1000
AcRTDxfName
1000
VISUALSTYLE
1000
AcRTDxfName
1000
VISUALSTYLE
1000
AcRTDxfName
1000
VISUALSTYLE
1000
AcRTDxfName
1000
VISUALSTYLE
1000
AcDbSavedByObjectVersion
1070
     0
  0
ACAD_PROXY_OBJECT
  5
16F80
102
{ACAD_REACTORS
330
16F70
102
}
330
16F70
100
AcDbZombieObject
 90
      499
 91
      509
 93
      452
310
42D0DBDB1BDC90DA185B99D95104090240C333333333333E3BF0000000000000FB0108901411070040501508421405064090741402480A0350
1001
ACAD
1000
AcRTDxfName
1000
VISUALSTYLE
1000
AcRTDxfName
1000
VISUALSTYLE
1000
AcRTDxfName
1000
VISUALSTYLE
1000
AcRTDxfName
1000
VISUALSTYLE
1000
AcRTDxfName
1000
VISUALSTYLE
1000
AcRTDxfName
1000
VISUALSTYLE
1000
AcDbSavedByObjectVersion
1070
     0
  0
ACAD_PROXY_OBJECT
  5
16F79
102
{ACAD_REACTORS
330
16F70
102
}
330
16F70
100
AcDbZombieObject
 90
      499
 91
      509
 93
      500
310
4290DBDB98D95C1D1D585B10940D028333333333333E3BF0000000000000FB0107902409070040501000000000000111010841D405064090740C02480A0340
1001
ACAD
1000
AcRTDxfName
1000
VISUALSTYLE
1000
AcRTDxfName
1000
VISUALSTYLE
1000
AcRTDxfName
1000
VISUALSTYLE
1000
AcRTDxfName
1000
VISUALSTYLE
1000
AcRTDxfName
1000
VISUALSTYLE
1000
AcRTDxfName
1000
VISUALSTYLE
1000
AcDbSavedByObjectVersion
1070
     0
  0
ACAD_PROXY_OBJECT
  5
16F7B
102
{ACAD_REACTORS
330
16F70
102
}
330
16F70
100
AcDbZombieObject
 90
      499
 91
      509
 93
      412
310
40D11A5B50B409028333333333333E3BF0000000000000FB010790141107004050150841D405064090741402480A02677FFFFFD0
1001
ACAD
1000
AcRTDxfName
1000
VISUALSTYLE
1000
AcRTDxfName
1000
VISUALSTYLE
1000
AcRTDxfName
1000
VISUALSTYLE
1000
AcRTDxfName
1000
VISUALSTYLE
1000
AcRTDxfName
1000
VISUALSTYLE
1000
AcRTDxfName
1000
VISUALSTYLE
1000
AcDbSavedByObjectVersion
1070
     0
  0
ACAD_PROXY_OBJECT
  5
62CA3
102
{ACAD_REACTORS
330
16F70
102
}
330
16F70
100
AcDbZombieObject
 90
      499
 91
      509
 93
      452
310
43115919D950DBDB1BDC93D999916409028333333333333E3BF0000000000000FB010790141107004050150841D405064090741402480A0350
1001
ACAD
1000
AcDbSavedByObjectVersion
1070
     0
  0
ACAD_PROXY_OBJECT
  5
16F7F
102
{ACAD_REACTORS
330
16F70
102
}
330
16F70
100
AcDbZombieObject
 90
      499
 91
      509
 93
      444
310
42D19858D95C185D1D195C9B90F409028333333333333E3BF0000000000000FB010790141107004050150841D405064090741402480A0350
1001
ACAD
1000
AcRTDxfName
1000
VISUALSTYLE
1000
AcRTDxfName
1000
VISUALSTYLE
1000
AcRTDxfName
1000
VISUALSTYLE
1000
AcRTDxfName
1000
VISUALSTYLE
1000
AcRTDxfName
1000
VISUALSTYLE
1000
AcRTDxfName
1000
VISUALSTYLE
1000
AcDbSavedByObjectVersion
1070
     0
  0
ACAD_PROXY_OBJECT
  5
16F71
102
{ACAD_REACTORS
330
16F70
102
}
330
16F70
100
AcDbZombieObject
 90
      499
 91
      509
 93
      388
310
41119B185D240901404333333333333E3BF0000000000000F9010740A41107004050150841D405064090741402480A1B50
1001
ACAD
1000
AcRTDxfName
1000
VISUALSTYLE
1000
AcRTDxfName
1000
VISUALSTYLE
1000
AcRTDxfName
1000
VISUALSTYLE
1000
AcRTDxfName
1000
VISUALSTYLE
1000
AcRTDxfName
1000
VISUALSTYLE
1000
AcRTDxfName
1000
VISUALSTYLE
1000
AcDbSavedByObjectVersion
1070
     0
  0
ACAD_PROXY_OBJECT
  5
16F72
102
{ACAD_REACTORS
330
16F70
102
}
330
16F70
100
AcDbZombieObject
 90
      499
 91
      509
 93
      476
310
43519B185D15DA5D1A115919D95CD0140901404333333333333E3BF0000000000000F9010740901411070040501600405405064090741402480A1B50
1001
ACAD
1000
AcRTDxfName
1000
VISUALSTYLE
1000
AcRTDxfName
1000
VISUALSTYLE
1000
AcRTDxfName
1000
VISUALSTYLE
1000
AcRTDxfName
1000
VISUALSTYLE
1000
AcRTDxfName
1000
VISUALSTYLE
1000
AcRTDxfName
1000
VISUALSTYLE
1000
AcDbSavedByObjectVersion
1070
     0
  0
ACAD_PROXY_OBJECT
  5
16F73
102
{ACAD_REACTORS
330
16F70
102
}
330
16F70
100
AcDbZombieObject
 90
      499
 91
      509
 93
      412
310
41D1DBDD5C985D5910240902404333333333333E3BF0000000000000F9010740A411070040501641D405064090741402480A1B50
1001
ACAD
1000
AcRTDxfName
1000
VISUALSTYLE
1000
AcRTDxfName
1000
VISUALSTYLE
1000
AcRTDxfName
1000
VISUALSTYLE
1000
AcRTDxfName
1000
VISUALSTYLE
1000
AcRTDxfName
1000
VISUALSTYLE
1000
AcRTDxfName
1000
VISUALSTYLE
1000
AcDbSavedByObjectVersion
1070
     0
  0
ACAD_PROXY_OBJECT
  5
16F74
102
{ACAD_REACTORS
330
16F70
102
}
330
16F70
100
AcDbZombieObject
 90
      499
 91
      509
 93
      500
310
4411DBDD5C985D5915DA5D1A115919D95CD0340902404333333333333E3BF0000000000000F9010740901411070040501600405405064090741402480A1B50
1001
ACAD
1000
AcRTDxfName
1000
VISUALSTYLE
1000
AcRTDxfName
1000
VISUALSTYLE
1000
AcRTDxfName
1000
VISUALSTYLE
1000
AcRTDxfName
1000
VISUALSTYLE
1000
AcRTDxfName
1000
VISUALSTYLE
1000
AcRTDxfName
1000
VISUALSTYLE
1000
AcDbSavedByObjectVersion
1070
     0
  0
ACAD_PROXY_OBJECT
  5
62C9B
102
{ACAD_REACTORS
330
16F70
102
}
330
16F70
100
AcDbZombieObject
 90
      499
 91
      509
 93
      476
310
41921A5919195B90640502408333333333333E3BF0000000000000FB01079024090700405020000000000001110200405405064090740C02480A0340
1001
ACAD
1000
AcDbSavedByObjectVersion
1070
     0
  0
ACAD_PROXY_OBJECT
  5
62CA1
102
{ACAD_REACTORS
330
16F70
102
}
330
16F70
100
AcDbZombieObject
 90
      499
 91
      509
 93
      428
310
42529A5D1D195C93D999914409028333333333333E3BF0000000000000FB010790141107004050150A41D405064090741402480A0350
1001
ACAD
1000
AcDbSavedByObjectVersion
1070
     0
  0
ACAD_PROXY_OBJECT
  5
16F7E
102
{ACAD_REACTORS
330
16F70
102
}
330
16F70
100
AcDbZombieObject
 90
      499
 91
      509
 93
      444
310
42D31A5B995C185D1D195C9B90E409028333333333333E3BF0000000000000FB010790141107004050750841D405064090741402483A0350
1001
ACAD
1000
AcRTDxfName
1000
VISUALSTYLE
1000
AcRTDxfName
1000
VISUALSTYLE
1000
AcRTDxfName
1000
VISUALSTYLE
1000
AcRTDxfName
1000
VISUALSTYLE
1000
AcRTDxfName
1000
VISUALSTYLE
1000
AcRTDxfName
1000
VISUALSTYLE
1000
AcDbSavedByObjectVersion
1070
     0
  0
ACAD_PROXY_OBJECT
  5
A3D05
102
{ACAD_REACTORS
330
16F70
102
}
330
16F70
100
AcDbZombieObject
 90
      499
 91
      509
 93
      484
310
42135BD9195B1A5B99D0A409038333333333333E33F0000000000000F901074090290700405010000000000201990108421405064090741402480A1B40
1001
ACAD
1000
AcDbSavedByObjectVersion
1070
     0
  0
ACAD_PROXY_OBJECT
  5
62CA2
102
{ACAD_REACTORS
330
16F70
102
}
330
16F70
100
AcDbZombieObject
 90
      499
 91
      509
 93
      444
310
42D3DD995C9A185B99D3D999915409028333333333333E3BF0000000000000FB010790141107004050150941D405064090741402480A0350
1001
ACAD
1000
AcDbSavedByObjectVersion
1070
     0
  0
ACAD_PROXY_OBJECT
  5
16F7A
102
{ACAD_REACTORS
330
16F70
102
}
330
16F70
100
AcDbZombieObject
 90
      499
 91
      509
 93
      420
310
425499585B1A5CDD1A58D08409028333333333333E3BF0000000000000FB01079019070040501508421405064090741402480A1B40
1001
ACAD
1000
AcRTDxfName
1000
VISUALSTYLE
1000
AcRTDxfName
1000
VISUALSTYLE
1000
AcRTDxfName
1000
VISUALSTYLE
1000
AcRTDxfName
1000
VISUALSTYLE
1000
AcRTDxfName
1000
VISUALSTYLE
1000
AcRTDxfName
1000
VISUALSTYLE
1000
AcDbSavedByObjectVersion
1070
     0
  0
ACAD_PROXY_OBJECT
  5
62CA0
102
{ACAD_REACTORS
330
16F70
102
}
330
16F70
100
AcDbZombieObject
 90
      499
 91
      509
 93
      420
310
4194DA1859195911B40902404333333333333E3BF0000000000000F9010740A41107004050150800405405064090840C02480A0B40
1001
ACAD
1000
AcDbSavedByObjectVersion
1070
     0
  0
ACAD_PROXY_OBJECT
  5
62C9F
102
{ACAD_REACTORS
330
16F70
102
}
330
16F70
100
AcDbZombieObject
 90
      499
 91
      509
 93
      516
310
4454DA18591959081DDA5D1A08195919D95CD1A40902404333333333333E3BF0000000000000F901074090142907004050250800405405064090740C02480A0B40
1001
ACAD
1000
AcDbSavedByObjectVersion
1070
     0
  0
ACAD_PROXY_OBJECT
  5
62C9C
102
{ACAD_REACTORS
330
16F70
102
}
330
16F70
100
AcDbZombieObject
 90
      499
 91
      509
 93
      532
310
4394DA1859195CC81BD98811DC985E5174090240C333333333333E3BF0000000000000FB01079024090741D01000000000000111010841D405064090740C02480A0340
1001
ACAD
1000
AcDbSavedByObjectVersion
1070
     0
  0
ACAD_PROXY_OBJECT
  5
62C9D
102
{ACAD_REACTORS
330
16F70
102
}
330
16F70
100
AcDbZombieObject
 90
      499
 91
      509
 93
      476
310
41D4DAD95D18DA1E51840502408333333333333E3BF0000000000000FB01079024090741D01000000000000111010B41D405064090741802480A0340
1001
ACAD
1000
AcDbSavedByObjectVersion
1070
     0
  0
ACAD_PROXY_OBJECT
  5
16F7D
102
{ACAD_REACTORS
330
16F70
102
}
330
16F70
100
AcDbZombieObject
 90
      499
 91
      509
 93
      412
310
41D51A1A58DAD95B90D409028333333333333E3BF0000000000000FB010790141107004050150C41D405064090741402480A0350
1001
ACAD
1000
AcRTDxfName
1000
VISUALSTYLE
1000
AcRTDxfName
1000
VISUALSTYLE
1000
AcRTDxfName
1000
VISUALSTYLE
1000
AcRTDxfName
1000
VISUALSTYLE
1000
AcRTDxfName
1000
VISUALSTYLE
1000
AcRTDxfName
1000
VISUALSTYLE
1000
AcDbSavedByObjectVersion
1070
     0
  0
ACAD_PROXY_OBJECT
  5
62C9A
102
{ACAD_REACTORS
330
16F70
102
}
330
16F70
100
AcDbZombieObject
 90
      499
 91
      509
 93
      420
310
4255DA5C99599C985B595059028333333333333E3BF0000000000000FB0107901411070040501600405405064090740C02480A0340
1001
ACAD
1000
AcDbSavedByObjectVersion
1070
     0
  0
ACAD_PROXY_OBJECT
  5
62C9E
102
{ACAD_REACTORS
330
16F70
102
}
330
16F70
100
AcDbZombieObject
 90
      499
 91
      509
 93
      404
310
41560B54985E51940902404000000000000E03F0000000000000FB010740501907004050150841D405064090740C02480A1B40
1001
ACAD
1000
AcDbSavedByObjectVersion
1070
     0
  0
XRECORD
  5
A3E67
102
{ACAD_REACTORS
330
A3E66
102
}
330
A3E66
100
AcDbXrecord
340
1418C
  0
XRECORD
  5
A3E68
102
{ACAD_REACTORS
330
A3E66
102
}
330
A3E66
100
AcDbXrecord
340
1418B
  0
DICTIONARYVAR
  5
A4004
102
{ACAD_REACTORS
330
6ED
102
}
330
6ED
100
DictionaryVariables
280
     0
  1
1:1
  0
DICTIONARYVAR
  5
1710A
102
{ACAD_REACTORS
330
6ED
102
}
330
6ED
100
DictionaryVariables
280
     0
  1
Standard
  0
DICTIONARYVAR
  5
141AE
102
{ACAD_REACTORS
330
6ED
102
}
330
6ED
100
DictionaryVariables
280
     0
  1
Standard
  0
DICTIONARYVAR
  5
6EE
102
{ACAD_REACTORS
330
6ED
102
}
330
6ED
100
DictionaryVariables
280
     0
  1
-1
  0
DICTIONARYVAR
  5
141AF
102
{ACAD_REACTORS
330
6ED
102
}
330
6ED
100
DictionaryVariables
280
     0
  1
2
  0
DICTIONARYVAR
  5
7CF14
102
{ACAD_REACTORS
330
6ED
102
}
330
6ED
100
DictionaryVariables
280
     0
  1
2
  0
DICTIONARYVAR
  5
1485B
102
{ACAD_REACTORS
330
6ED
102
}
330
6ED
100
DictionaryVariables
280
     0
  1
1
  0
DICTIONARYVAR
  5
1710C
102
{ACAD_REACTORS
330
6ED
102
}
330
6ED
100
DictionaryVariables
280
     0
  1
0
  0
DICTIONARYVAR
  5
1485F
102
{ACAD_REACTORS
330
6ED
102
}
330
6ED
100
DictionaryVariables
280
     0
  1
8
  0
DICTIONARYVAR
  5
1485E
102
{ACAD_REACTORS
330
6ED
102
}
330
6ED
100
DictionaryVariables
280
     0
  1
1
  0
DICTIONARYVAR
  5
A348C
102
{ACAD_REACTORS
330
6ED
102
}
330
6ED
100
DictionaryVariables
280
     0
  1
0
  0
DICTIONARYVAR
  5
A348D
102
{ACAD_REACTORS
330
6ED
102
}
330
6ED
100
DictionaryVariables
280
     0
  1
0
  0
DICTIONARYVAR
  5
7E56E
102
{ACAD_REACTORS
330
6ED
102
}
330
6ED
100
DictionaryVariables
280
     0
  1
0.000000
  0
DICTIONARYVAR
  5
6D821
102
{ACAD_REACTORS
330
6ED
102
}
330
6ED
100
DictionaryVariables
280
     0
  1
0
  0
DICTIONARYVAR
  5
1485C
102
{ACAD_REACTORS
330
6ED
102
}
330
6ED
100
DictionaryVariables
280
     0
  1
120
  0
DICTIONARYVAR
  5
1485D
102
{ACAD_REACTORS
330
6ED
102
}
330
6ED
100
DictionaryVariables
280
     0
  1
0
  0
DICTIONARYVAR
  5
141B0
102
{ACAD_REACTORS
330
6ED
102
}
330
6ED
100
DictionaryVariables
280
     0
  1

  0
DICTIONARYVAR
  5
E97
102
{ACAD_REACTORS
330
6ED
102
}
330
6ED
100
DictionaryVariables
280
     0
  1
127
  0
DICTIONARYVAR
  5
41A53
102
{ACAD_REACTORS
330
6ED
102
}
330
6ED
100
DictionaryVariables
280
     0
  1
0
  0
DICTIONARYVAR
  5
A3D04
102
{ACAD_REACTORS
330
6ED
102
}
330
6ED
100
DictionaryVariables
280
     0
  1
2
  0
ACAD_PROXY_OBJECT
  5
7A5FB
102
{ACAD_REACTORS
330
1487A
102
}
330
1487A
100
AcDbZombieObject
 90
      499
 91
      543
 93
    50146
310
1E06000016C005C080000B404000098880400B8041000996969616128043800000000000001680020000000F8001C01C80478012C04500000000000000004001C00990DBDB1BDC97CDEE0040000000128040000000000000001680020000000F8037401C80448012C04500000000000000004002400990DBDB1BDC97CC8C8C
310
6E0040000000128040000000000000001680020000000F8002001C80448012C04500000000000000004001C00990DBDB1BDC97CE2E0040000000128040000000000000001680020000000F8002001C80448012C04000000000000000004001C00990DBDB1BDC97CE2E0040000000128040000000000000001680020000000F
310
8032401C80464012C04500000000000000004002400990DBDB1BDC97CC8C0C6E0040000000128040000000000000001680020000000F8037401C80448012C04500000000000000004002400990DBDB1BDC97CC8C8C6E0040000000128040000000000000001680024000000F8000401C807F7FD2C045000000000000000040
310
01C00990DBDB1BDC97CC6E0040000000128040000000000000001680020000000F803F401C80434012C04500000000000000004002400990DBDB1BDC97CC8D4CEE0040000000128040000000000000001680000000000F8001C01C807F7FD2C04500000000000000004001C00990DBDB1BDC97CDEE00400000001280400000
310
00000000001680020000000F8002001C80448012C04500000000000000004001C00990DBDB1BDC97CE2E0040000000128040000000000000001680020000000F803F801C80434012C04000000000000000004002400990DBDB1BDC97CC8D4D2E0040000000128040000000000000001680020000000F8037401C80448012C0
310
4500000000000000004002400990DBDB1BDC97CC8C8C6E0040000000128040000000000000001680020000000F8000801C80478012C04500000000000000004001C00990DBDB1BDC97CCAE0040000000128040000000000000001680020000000F8035401C80478012C04500000000000000004002400990DBDB1BDC97CC8C
310
4CEE0040000000128040000000000000001680020000000F8038401C807F7FD2C04500000000000000004002400990DBDB1BDC97CC8C8D6E0040000000128040000000000000001680020000000F8001C01C807F7FD2C04500000000000000004001C00990DBDB1BDC97CDEE00400000001280400000000000000016800200
310
00000F8007801C807F7FD2C04500000000000000004002000990DBDB1BDC97CCCC2E0040000000128040000000000000001680020000000F803F001C804F0012C04500000000000000004002400990DBDB1BDC97CC8D4CAE0040000000128040000000000000001680024000000F8002001C807F7FD2C04500000000000000
310
004001C00990DBDB1BDC97CE2E0040000000128040000000000000001680020000000F8001801C80478012C04500000000000000004001C00990DBDB1BDC97CDAE0040000000128040000000000000001680020000000F8037801C807F7FD2C04500000000000000004002400990DBDB1BDC97CC8C8CAE0040000000128040
310
000000000000001680020000000F8000401C807F7FD2C04500000000000000004001C00990DBDB1BDC97CC6E0040000000128040000000000000001680020000000F8017C01C80478012C04500000000000000004002000990DBDB1BDC97CE4D6E0040000000128040000000000000001680000000000F803CC01C807F7FD2
310
C04500000000000000004002400990DBDB1BDC97CC8D0CEE0040000000128040000000000000001680020000000F8001001C80478012C04500000000000000004001C00990DBDB1BDC97CD2E0040000000128040000000000000001680020000000F8017401C80434012C04500000000000000004002000990DBDB1BDC97CE
310
4CEE0040000000128040000000000000001680020000000F8039C01C80434012C04500000000000000004002400990DBDB1BDC97CC8CCC6E0040000000128040000000000000001680020000000F8007C01C80434012C04500000000000000004002000990DBDB1BDC97CCCC6E004000000012804000000000000000168002
310
0000000F8001C01C80450012C04500000000000000004001C00990DBDB1BDC97CDEE0040000000128040000000000000001680020000000F8001401C80434012C04000000000000000004001C00990DBDB1BDC97CD6E0040000000128040000000000000001680020000000F8000401C80434012C040000000000000000040
310
01C00990DBDB1BDC97CC6E0040000000128040000000000000001680020000000F8002001C8043C012C04000000000000000004001C00990DBDB1BDC97CE2E0040000000128040000000000000001680020000000F8000401C80478012C04500000000000000004001C00990DBDB1BDC97CC6E004000000012804000000000
310
0000001680020000000F8000C01C80478012C04500000000000000004001C00990DBDB1BDC97CCEE0040000000128040000000000000001680020000000F8023401C80434012C04500000000000000004002400990DBDB1BDC97CC4D0C6E0040000000128040000000000000001680020000000F8014401C80434012C04500
310
000000000000004002000990DBDB1BDC97CE0C6E0040000000128040000000000000001680020000000F8003401C80434012C04500000000000000004002000990DBDB1BDC97CC4CEE0040000000128040000000000000001680020000000F800DC01C80434012C04500000000000000004002000990DBDB1BDC97CD4D6E00
310
40000000128040000000000000001680020000000F800D401C80434012C04500000000000000004002000990DBDB1BDC97CD4CEE0040000000128040000000000000001680020000000F8021801C80434012C04500000000000000004002400990DBDB1BDC97CC4CCD2E004000000012804000000000000000168002000000
310
0F800FC01C80434012C04500000000000000004002000990DBDB1BDC97CD8CEE0040000000128040000000000000001680020000000F803AC01C80434012C04500000000000000004002400990DBDB1BDC97CC8CCD6E0040000000128040000000000000001680020000000F8023401C80434012C045000000000000000040
310
02400990DBDB1BDC97CC4D0C6E0040000000128040000000000000001680020000000F8001401C80478012C04500000000000000004001C00990DBDB1BDC97CD6E0040000000128040000000000000001680020000000F8023C01C80478012C04500000000000000004002400990DBDB1BDC97CC4D0CEE0040000000128040
310
000000000000001680020000000F8003C01C80478012C04500000000000000004002000990DBDB1BDC97CC4D6E0040000000128040000000000000001680020000000F8001C01C80478012C04500000000000000004001C00990DBDB1BDC97CDEE0040000000128040000000000000001680020000000F803F801C80448012
310
C04500000000000000004002400990DBDB1BDC97CC8D4D2E0040000000128040000000000000001680020000000F8002001C80448012C04500000000000000004001C00990DBDB1BDC97CE2E0040000000128040000000000000001680020000000F8001C01C807F7FD2C04000000000000000004001C00990DBDB1BDC97CD
310
EE0040000000128040000000000000001680020000000F8001C01C807F7FD2C04000000000000000004001C00990DBDB1BDC97CDEE0040000000128040000000000000001680020000000F8001C01C807F7FD2C04000000000000000004001C00990DBDB1BDC97CDEE0040000000128040000000000000001680020000000F
310
8001C01C807F7FD2C04000000000000000004001C00990DBDB1BDC97CDEE0040000000128040000000000000001680020000000F8001C01C807F7FD2C04000000000000000004001C00990DBDB1BDC97CDEE0040000000128040000000000000001680020000000F8001C01C807F7FD2C04000000000000000004001C00990
310
DBDB1BDC97CDEE0040000000128040000000000000001680020000000F8002401C80450012C04500000000000000004001C00990DBDB1BDC97CE6E0040000000128040000000000000001680020000000F8001001C80400012C04000000000000000004001C00990DBDB1BDC97CD2E00400000001280400000000000000016
310
80020000000F8001001C80400012C04500000000000000004001C00990DBDB1BDC97CD2E0040000000128040000000000000001680020000000F8001001C80400012C04500000000000000004001C00990DBDB1BDC97CD2E0040000000128040000000000000001680020000000F8000401C80400012C04500000000000000
310
004001C00990DBDB1BDC97CC6E0040000000128040000000000000001680020000000F8001C01C80434012C04500000000000000004001C00990DBDB1BDC97CDEE0040000000128040000000000000001680020000000F8011801C80400012C04500000000000000004002000990DBDB1BDC97CDCC2E004000000012804000
310
0000000000001680020000000F8001001C80400012C04500000000000000004001C00990DBDB1BDC97CD2E0040000000128040000000000000001680020000000F8001C01C80448012C04500000000000000004001C00990DBDB1BDC97CDEE0040000000128040000000000000001680020000000F803F401C80434012C045
310
00000000000000004002400990DBDB1BDC97CC8D4CEE0040000000128040000000000000001680020000000F8000401C80478012C04500000000000000004001C00990DBDB1BDC97CC6E0040000000128040000000000000001680020000000F803F001C807F7FD2C04500000000000000004002400990DBDB1BDC97CC8D4C
310
AE0040000000128040000000000000001680020000000F800DC01C80434012C04500000000000000004002000990DBDB1BDC97CD4D6E0040000000128040000000000000001680020000000F8002801C807F7FD2C04500000000000000004002000990DBDB1BDC97CC4C2E0040000000128040000000000000001680020000
310
000F8002C01C807F7FD2C04500000000000000004002000990DBDB1BDC97CC4C6E0040000000128040000000000000001680020000000F8005401C807F7FD2C04500000000000000004002000990DBDB1BDC97CC8C6E0040000000128040000000000000001680020000000F8003001C807F7FD2C045000000000000000040
310
02000990DBDB1BDC97CC4CAE0040000000128040000000000000001680020000000F8005801C807F7FD2C04500000000000000004002000990DBDB1BDC97CC8CAE0040000000128040000000000000001680020000000F8008001C807F7FD2C04500000000000000004002000990DBDB1BDC97CCCCAE004000000012804000
310
0000000000001680020000000F8003C01C807F7FD2C04500000000000000004002000990DBDB1BDC97CC4D6E0040000000128040000000000000001680020000000F803C401C807F7FD2C04500000000000000004002400990DBDB1BDC97CC8D0C6E0040000000128040000000000000001680020000000F8000801C807F7F
310
D2C04500000000000000004001C00990DBDB1BDC97CCAE0040000000128040000000000000001680020000000F800D401C807F7FD2C04500000000000000004002000990DBDB1BDC97CD4CEE0040000000128040000000000000001680020000000F800DC01C807F7FD2C04500000000000000004002000990DBDB1BDC97CD
310
4D6E0040000000128040000000000000001680020000000F800D001C807F7FD2C04500000000000000004002000990DBDB1BDC97CD4CAE0040000000128040000000000000001680020000000F800A001C807F7FD2C04500000000000000004002000990DBDB1BDC97CD0C2E00400000001280400000000000000016800200
310
00000F800A401C807F7FD2C04500000000000000004002000990DBDB1BDC97CD0C6E0040000000128040000000000000001680020000000F800AC01C807F7FD2C04500000000000000004002000990DBDB1BDC97CD0CEE0040000000128040000000000000001680020000000F800A801C807F7FD2C0450000000000000000
310
4002000990DBDB1BDC97CD0CAE0040000000128040000000000000001680020000000F800B001C807F7FD2C04500000000000000004002000990DBDB1BDC97CD0D2E0040000000128040000000000000001680020000000F800B801C807F7FD2C04500000000000000004002000990DBDB1BDC97CD0DAE0040000000128040
310
000000000000001680020000000F800B401C807F7FD2C04500000000000000004002000990DBDB1BDC97CD0D6E0040000000128040000000000000001680020000000F800BC01C807F7FD2C04500000000000000004002000990DBDB1BDC97CD0DEE0040000000128040000000000000001680020000000F800E001C807F7F
310
D2C04500000000000000004002000990DBDB1BDC97CD4DAE0040000000128040000000000000001680020000000F8000C01C807F7FD2C04500000000000000004001C00990DBDB1BDC97CCEE0040000000128040000000000000001680020000000F800F001C807F7FD2C04500000000000000004002000990DBDB1BDC97CD
310
8C2E0040000000128040000000000000001680020000000F8014001C807F7FD2C04500000000000000004002000990DBDB1BDC97CE0C2E0040000000128040000000000000001680020000000F8019001C807F7FD2C04500000000000000004002400990DBDB1BDC97CC4C0C2E004000000012804000000000000000168002
310
0000000F800F401C807F7FD2C04500000000000000004002000990DBDB1BDC97CD8C6E0040000000128040000000000000001680020000000F8014401C807F7FD2C04500000000000000004002000990DBDB1BDC97CE0C6E0040000000128040000000000000001680020000000F8019401C807F7FD2C04500000000000000
310
004002400990DBDB1BDC97CC4C0C6E0040000000128040000000000000001680020000000F800FC01C807F7FD2C04500000000000000004002000990DBDB1BDC97CD8CEE0040000000128040000000000000001680020000000F8017401C807F7FD2C04500000000000000004002000990DBDB1BDC97CE4CEE004000000012
310
8040000000000000001680020000000F8012C01C807F7FD2C04500000000000000004002000990DBDB1BDC97CDCD6E0040000000128040000000000000001680020000000F801A401C807F7FD2C04500000000000000004002400990DBDB1BDC97CC4C0D6E0040000000128040000000000000001680020000000F8012801C
310
807F7FD2C04500000000000000004002000990DBDB1BDC97CDCD2E0040000000128040000000000000001680020000000F801A801C807F7FD2C04500000000000000004002400990DBDB1BDC97CC4C0DAE0040000000128040000000000000001680020000000F8001001C807F7FD2C04500000000000000004001C00990DB
310
DB1BDC97CD2E0040000000128040000000000000001680020000000F8021001C807F7FD2C04500000000000000004002400990DBDB1BDC97CC4CCCAE0040000000128040000000000000001680020000000F8022001C807F7FD2C04500000000000000004002400990DBDB1BDC97CC4CCDAE00400000001280400000000000
310
00001680020000000F8023001C807F7FD2C04500000000000000004002400990DBDB1BDC97CC4D0C2E0040000000128040000000000000001680020000000F8023801C807F7FD2C04500000000000000004002400990DBDB1BDC97CC4D0CAE0040000000128040000000000000001680020000000F8024001C807F7FD2C045
310
00000000000000004002400990DBDB1BDC97CC4D0D2E0040000000128040000000000000001680020000000F801EC01C807F7FD2C04500000000000000004002400990DBDB1BDC97CC4C8CEE0040000000128040000000000000001680020000000F8021C01C807F7FD2C04500000000000000004002400990DBDB1BDC97CC
310
4CCD6E0040000000128040000000000000001680020000000F8025C01C807F7FD2C04500000000000000004002400990DBDB1BDC97CC4D4C6E0040000000128040000000000000001680020000000F8028401C807F7FD2C04500000000000000004002400990DBDB1BDC97CC4D8C6E00400000001280400000000000000016
310
80020000000F8026001C807F7FD2C04500000000000000004002400990DBDB1BDC97CC4D4CAE0040000000128040000000000000001680020000000F8001401C807F7FD2C04500000000000000004001C00990DBDB1BDC97CD6E0040000000128040000000000000001680020000000F803F001C807F7FD2C0450000000000
310
0000004002400990DBDB1BDC97CC8D4CAE0040000000128040000000000000001680020000000F8001C01C807F7FD2C04500000000000000004001C00990DBDB1BDC97CDEE0040000000128040000000000000001680020000000F8001C01C80478012C045000000000000000040010009A41197CDEE004000000012804000
310
0000000000001680020000000F8001C01C80478012C045000000000000000040010009A41197CDEE004000000000
  0
DICTIONARY
  5
A4005
330
16F60
100
AcDbDictionary
  3
ACAD_XREC_ROUNDTRIP
360
A4006
1001
ACAD
1000
TREAT_AS_HARD
1070
     1
  0
DICTIONARY
  5
A4007
330
16F58
100
AcDbDictionary
  3
ACAD_XREC_ROUNDTRIP
360
A4008
1001
ACAD
1000
TREAT_AS_HARD
1070
     1
  0
DICTIONARY
  5
A4009
330
16F68
100
AcDbDictionary
  3
ACAD_XREC_ROUNDTRIP
360
A400A
1001
ACAD
1000
TREAT_AS_HARD
1070
     1
  0
XRECORD
  5
A4006
102
{ACAD_REACTORS
330
A4005
102
}
330
A4005
100
AcDbXrecord
102
MATERIAL
148
0.0
149
0.0
149
0.0
 93
        0
 94
      127
282
     0
 72
     0
 77
     0
171
     0
175
     0
179
     0
273
     0
  0
XRECORD
  5
A4008
102
{ACAD_REACTORS
330
A4007
102
}
330
A4007
100
AcDbXrecord
102
MATERIAL
148
0.0
149
0.0
149
0.0
 93
        0
 94
      127
282
     0
 72
     0
 77
     0
171
     0
175
     0
179
     0
273
     0
  0
XRECORD
  5
A400A
102
{ACAD_REACTORS
330
A4009
102
}
330
A4009
100
AcDbXrecord
102
MATERIAL
148
0.0
149
0.0
149
0.0
 93
        0
 94
      127
282
     0
 72
     0
 77
     0
171
     0
175
     0
179
     0
273
     0
  0
ENDSEC
  0
EOF
