  0
SECTION
  2
HEADER
  9
$ACADVER
  1
AC1012
  9
$DWGCODEPAGE
  3
ansi_932
  9
$INSBASE
 10
0.0
 20
0.0
 30
0.0
  9
$EXTMIN
 10
-289.487433014941
 20
-1034.176547556041
 30
0.0
  9
$EXTMAX
 10
497.1814605400372
 20
-818.8049666963552
 30
0.0
  9
$LIMMIN
 10
0.0
 20
0.0
  9
$LIMMAX
 10
420.0
 20
297.0
  9
$ORTHOMODE
 70
     0
  9
$REGENMODE
 70
     1
  9
$FILLMODE
 70
     1
  9
$QTEXTMODE
 70
     0
  9
$MIRRTEXT
 70
     0
  9
$DRAGMODE
 70
     2
  9
$LTSCALE
 40
0.5
  9
$OSMODE
 70
 14463
  9
$ATTMODE
 70
     1
  9
$TEXTSIZE
 40
4.0
  9
$TRACEWID
 40
1.0
  9
$TEXTSTYLE
  7
STANDARD
  9
$CLAYER
  8
1TEXT
  9
$CELTYPE
  6
BYLAYER
  9
$CECOLOR
 62
   256
  9
$CELTSCALE
 40
1.0
  9
$DELOBJ
 70
     1
  9
$DISPSILH
 70
     0
  9
$DIMSCALE
 40
1.0
  9
$DIMASZ
 40
2.0
  9
$DIMEXO
 40
0.0
  9
$DIMDLI
 40
7.0
  9
$DIMRND
 40
0.0
  9
$DIMDLE
 40
0.0
  9
$DIMEXE
 40
1.0
  9
$DIMTP
 40
0.0
  9
$DIMTM
 40
0.0
  9
$DIMTXT
 40
3.5
  9
$DIMCEN
 40
0.0
  9
$DIMTSZ
 40
0.0
  9
$DIMTOL
 70
     0
  9
$DIMLIM
 70
     0
  9
$DIMTIH
 70
     0
  9
$DIMTOH
 70
     0
  9
$DIMSE1
 70
     0
  9
$DIMSE2
 70
     0
  9
$DIMTAD
 70
     1
  9
$DIMZIN
 70
     8
  9
$DIMBLK
  1

  9
$DIMASO
 70
     1
  9
$DIMSHO
 70
     1
  9
$DIMPOST
  1
 
  9
$DIMAPOST
  1

  9
$DIMALT
 70
     0
  9
$DIMALTD
 70
     2
  9
$DIMALTF
 40
25.4
  9
$DIMLFAC
 40
1.0
  9
$DIMTOFL
 70
     1
  9
$DIMTVP
 40
0.0
  9
$DIMTIX
 70
     0
  9
$DIMSOXD
 70
     0
  9
$DIMSAH
 70
     1
  9
$DIMBLK1
  1
OPEN30
  9
$DIMBLK2
  1
OPEN30
  9
$DIMSTYLE
  2
NEWX10
  9
$DIMCLRD
 70
   256
  9
$DIMCLRE
 70
   256
  9
$DIMCLRT
 70
   201
  9
$DIMTFAC
 40
0.7
  9
$DIMGAP
 40
0.7
  9
$DIMJUST
 70
     0
  9
$DIMSD1
 70
     0
  9
$DIMSD2
 70
     0
  9
$DIMTOLJ
 70
     1
  9
$DIMTZIN
 70
     8
  9
$DIMALTZ
 70
     0
  9
$DIMALTTZ
 70
     0
  9
$DIMFIT
 70
     2
  9
$DIMUPT
 70
     0
  9
$DIMUNIT
 70
     2
  9
$DIMDEC
 70
     2
  9
$DIMTDEC
 70
     4
  9
$DIMALTU
 70
     2
  9
$DIMALTTD
 70
     2
  9
$DIMTXSTY
  7
STANDARD
  9
$DIMAUNIT
 70
     0
  9
$LUNITS
 70
     2
  9
$LUPREC
 70
     4
  9
$SKETCHINC
 40
1.0
  9
$FILLETRAD
 40
0.0
  9
$AUNITS
 70
     0
  9
$AUPREC
 70
     2
  9
$MENU
  1
acad
  9
$ELEVATION
 40
0.0
  9
$PELEVATION
 40
0.0
  9
$THICKNESS
 40
0.0
  9
$LIMCHECK
 70
     0
  9
$CHAMFERA
 40
1.0
  9
$CHAMFERB
 40
1.0
  9
$CHAMFERC
 40
20.0
  9
$CHAMFERD
 40
0.0
  9
$SKPOLY
 70
     0
  9
$TDCREATE
 40
2453033.732663484
  9
$TDUPDATE
 40
2458101.361508009
  9
$TDINDWG
 40
2.3694801389
  9
$TDUSRTIMER
 40
2.3694801389
  9
$USRTIMER
 70
     1
  9
$ANGBASE
 50
0.0
  9
$ANGDIR
 70
     0
  9
$PDMODE
 70
     0
  9
$PDSIZE
 40
0.0
  9
$PLINEWID
 40
0.0
  9
$COORDS
 70
     2
  9
$SPLFRAME
 70
     0
  9
$SPLINETYPE
 70
     6
  9
$SPLINESEGS
 70
     8
  9
$ATTDIA
 70
     0
  9
$ATTREQ
 70
     1
  9
$HANDLING
 70
     1
  9
$HANDSEED
  5
21E02
  9
$SURFTAB1
 70
     6
  9
$SURFTAB2
 70
     6
  9
$SURFTYPE
 70
     6
  9
$SURFU
 70
     6
  9
$SURFV
 70
     6
  9
$UCSNAME
  2

  9
$UCSORG
 10
0.0
 20
0.0
 30
0.0
  9
$UCSXDIR
 10
1.0
 20
0.0
 30
0.0
  9
$UCSYDIR
 10
0.0
 20
1.0
 30
0.0
  9
$PUCSNAME
  2

  9
$PUCSORG
 10
0.0
 20
0.0
 30
0.0
  9
$PUCSXDIR
 10
1.0
 20
0.0
 30
0.0
  9
$PUCSYDIR
 10
0.0
 20
1.0
 30
0.0
  9
$USERI1
 70
     0
  9
$USERI2
 70
     0
  9
$USERI3
 70
     0
  9
$USERI4
 70
     0
  9
$USERI5
 70
     0
  9
$USERR1
 40
0.0
  9
$USERR2
 40
0.0
  9
$USERR3
 40
0.0
  9
$USERR4
 40
0.0
  9
$USERR5
 40
0.0
  9
$WORLDVIEW
 70
     1
  9
$SHADEDGE
 70
     3
  9
$SHADEDIF
 70
    70
  9
$TILEMODE
 70
     1
  9
$MAXACTVP
 70
    48
  9
$PINSBASE
 10
0.0
 20
0.0
 30
0.0
  9
$PLIMCHECK
 70
     0
  9
$PEXTMIN
 10
1.000000000000000E+20
 20
1.000000000000000E+20
 30
1.000000000000000E+20
  9
$PEXTMAX
 10
-1.000000000000000E+20
 20
-1.000000000000000E+20
 30
-1.000000000000000E+20
  9
$PLIMMIN
 10
0.0
 20
0.0
  9
$PLIMMAX
 10
420.0
 20
297.0
  9
$UNITMODE
 70
     0
  9
$VISRETAIN
 70
     1
  9
$PLINEGEN
 70
     0
  9
$PSLTSCALE
 70
     1
  9
$TREEDEPTH
 70
  3020
  9
$PICKSTYLE
 70
     0
  9
$CMLSTYLE
  2
STANDARD
  9
$CMLJUST
 70
     0
  9
$CMLSCALE
 40
20.0
  9
$SAVEIMAGES
 70
     1
  0
ENDSEC
  0
SECTION
  2
CLASSES
  0
CLASS
  1
DICTIONARYVAR
  2
AcDbDictionaryVar
  3
ObjectDBX Classes
 90
        0
280
     0
281
     0
  0
CLASS
  1
IDBUFFER
  2
AcDbIdBuffer
  3
ObjectDBX Classes
 90
    32768
280
     0
281
     0
  0
CLASS
  1
LWPOLYLINE
  2
AcDbPolyline
  3
ObjectDBX Classes
 90
    32768
280
     0
281
     1
  0
CLASS
  1
ACDBDICTIONARYWDFLT
  2
AcDbDictionaryWithDefault
  3
ObjectDBX Classes
 90
    32768
280
     0
281
     0
  0
CLASS
  1
ACDBPLACEHOLDER
  2
AcDbPlaceHolder
  3
ObjectDBX Classes
 90
        0
280
     0
281
     0
  0
CLASS
  1
LAYOUT
  2
AcDbLayout
  3
ObjectDBX Classes
 90
        0
280
     0
281
     0
  0
CLASS
  1
TABLESTYLE
  2
AcDbTableStyle
  3
ObjectDBX Classes
 90
     4095
280
     0
281
     0
  0
CLASS
  1
SORTENTSTABLE
  2
AcDbSortentsTable
  3
ObjectDBX Classes
 90
    32768
280
     0
281
     0
  0
CLASS
  1
DIMASSOC
  2
AcDbDimAssoc
  3
"AcDbDimAssoc|Product Desc:     AcDim ARX App For Dimension|Company:          Autodesk, Inc.|WEB Address:      www.autodesk.com"
 90
        0
280
     0
281
     0
  0
CLASS
  1
MATERIAL
  2
AcDbMaterial
  3
ObjectDBX Classes
 90
     1153
280
     0
281
     0
  0
CLASS
  1
VISUALSTYLE
  2
AcDbVisualStyle
  3
ObjectDBX Classes
 90
     4095
280
     0
281
     0
  0
CLASS
  1
SCALE
  2
AcDbScale
  3
ObjectDBX Classes
 90
     1153
280
     0
281
     0
  0
CLASS
  1
MLEADERSTYLE
  2
AcDbMLeaderStyle
  3
ACDB_MLEADERSTYLE_CLASS
 90
     4095
280
     0
281
     0
  0
CLASS
  1
CELLSTYLEMAP
  2
AcDbCellStyleMap
  3
ObjectDBX Classes
 90
     1152
280
     0
281
     0
  0
CLASS
  1
EXACXREFPANELOBJECT
  2
ExAcXREFPanelObject
  3
EXAC_ESW
 90
     1025
280
     1
281
     0
  0
CLASS
  1
NPOCOLLECTION
  2
AcDbImpNonPersistentObjectsCollection
  3
ObjectDBX Classes
 90
     1153
280
     1
281
     0
  0
CLASS
  1
SUN
  2
AcDbSun
  3
SCENEOE
 90
     1153
280
     0
281
     0
  0
CLASS
  1
XRECORD
  2
AcDbXrecord
  3
ObjectDBX Classes
 90
    32768
280
     0
281
     0
  0
CLASS
  1
HATCH
  2
AcDbHatch
  3
ObjectDBX Classes
 90
    32768
280
     0
281
     1
  0
ENDSEC
  0
SECTION
  2
TABLES
  0
TABLE
  2
VPORT
  5
8
330
0
100
AcDbSymbolTable
 70
     1
  0
VPORT
  5
19DC2
330
8
100
AcDbSymbolTableRecord
100
AcDbViewportTableRecord
  2
*ACTIVE
 70
     0
 10
0.0
 20
0.0
 11
1.0
 21
1.0
 12
103.8470137625482
 22
-926.4907571261979
 13
0.0
 23
0.0
 14
10.0
 24
10.0
 15
10.0
 25
10.0
 16
0.0
 26
0.0
 36
1.0
 17
0.0
 27
0.0
 37
0.0
 40
451.3184783691478
 41
1.871481028151775
 42
50.0
 43
0.0
 44
0.0
 50
0.0
 51
0.0
 71
    16
 72
   100
 73
     1
 74
     1
 75
     0
 76
     0
 77
     0
 78
     0
  0
ENDTAB
  0
TABLE
  2
LTYPE
  5
5
330
0
100
AcDbSymbolTable
 70
     3
  0
LTYPE
  5
12
330
5
100
AcDbSymbolTableRecord
100
AcDbLinetypeTableRecord
  2
BYBLOCK
 70
     0
  3

 72
    65
 73
     0
 40
0.0
  0
LTYPE
  5
13
330
5
100
AcDbSymbolTableRecord
100
AcDbLinetypeTableRecord
  2
BYLAYER
 70
     0
  3

 72
    65
 73
     0
 40
0.0
  0
LTYPE
  5
14
330
5
100
AcDbSymbolTableRecord
100
AcDbLinetypeTableRecord
  2
CONTINUOUS
 70
     0
  3
Solid line
 72
    65
 73
     0
 40
0.0
  0
LTYPE
  5
26
330
5
100
AcDbSymbolTableRecord
100
AcDbLinetypeTableRecord
  2
CENTER2
 70
     0
  3
Center (.5x) ___ _ ___ _ ___ _ ___ _ ___ _ ___
 72
    65
 73
     4
 40
28.575
 49
19.05
 74
     0
 49
-3.175
 74
     0
 49
3.175
 74
     0
 49
-3.175
 74
     0
  0
LTYPE
  5
100
330
5
100
AcDbSymbolTableRecord
100
AcDbLinetypeTableRecord
  2
PHANTOM2
 70
     0
  3
Phantom (0.5x) ___ _ _ ___ _ _ ___ _ _ ___ _ _
 72
    65
 73
     6
 40
31.75
 49
15.875
 74
     0
 49
-3.175
 74
     0
 49
3.175
 74
     0
 49
-3.175
 74
     0
 49
3.175
 74
     0
 49
-3.175
 74
     0
  0
ENDTAB
  0
TABLE
  2
LAYER
  5
2
102
{ACAD_XDICTIONARY
360
18FE8
102
}
330
0
100
AcDbSymbolTable
 70
     8
  0
LAYER
  5
E
102
{ACAD_XDICTIONARY
360
1A20A
102
}
330
2
100
AcDbSymbolTableRecord
100
AcDbLayerTableRecord
  2
0
 70
     0
 62
     7
  6
CONTINUOUS
  0
LAYER
  5
29
102
{ACAD_XDICTIONARY
360
1A20C
102
}
330
2
100
AcDbSymbolTableRecord
100
AcDbLayerTableRecord
  2
1CENTER
 70
     0
 62
     7
  6
CENTER2
  0
LAYER
  5
31
102
{ACAD_XDICTIONARY
360
1A20E
102
}
330
2
100
AcDbSymbolTableRecord
100
AcDbLayerTableRecord
  2
1TEXT
 70
     0
 62
     7
  6
CONTINUOUS
  0
LAYER
  5
101
102
{ACAD_XDICTIONARY
360
1A218
102
}
330
2
100
AcDbSymbolTableRecord
100
AcDbLayerTableRecord
  2
1DIM
 70
     0
 62
     7
  6
CONTINUOUS
  0
LAYER
  5
103
102
{ACAD_XDICTIONARY
360
1A21C
102
}
330
2
100
AcDbSymbolTableRecord
100
AcDbLayerTableRecord
  2
1PHANTOM
 70
     0
 62
     7
  6
PHANTOM2
  0
LAYER
  5
25F
102
{ACAD_XDICTIONARY
360
1A220
102
}
330
2
100
AcDbSymbolTableRecord
100
AcDbLayerTableRecord
  2
01
 70
     0
 62
     1
  6
CONTINUOUS
  0
LAYER
  5
26A
102
{ACAD_XDICTIONARY
360
1A236
102
}
330
2
100
AcDbSymbolTableRecord
100
AcDbLayerTableRecord
  2
1DIM1
 70
     0
 62
     7
  6
CONTINUOUS
  0
LAYER
  5
26D
102
{ACAD_XDICTIONARY
360
1A23C
102
}
330
2
100
AcDbSymbolTableRecord
100
AcDbLayerTableRecord
  2
1HATCH
 70
     0
 62
     7
  6
CONTINUOUS
  0
ENDTAB
  0
TABLE
  2
STYLE
  5
3
330
0
100
AcDbSymbolTable
 70
     1
  0
STYLE
  5
F
330
3
100
AcDbSymbolTableRecord
100
AcDbTextStyleTableRecord
  2
STANDARD
 70
     0
 40
0.0
 41
1.0
 50
0.0
 71
     0
 42
4.0
  3
txt.shx
  4
extfont.shx
  0
ENDTAB
  0
TABLE
  2
VIEW
  5
6
330
0
100
AcDbSymbolTable
 70
     0
  0
ENDTAB
  0
TABLE
  2
UCS
  5
7
330
0
100
AcDbSymbolTable
 70
     0
  0
ENDTAB
  0
TABLE
  2
APPID
  5
9
330
0
100
AcDbSymbolTable
 70
    16
  0
APPID
  5
10
330
9
100
AcDbSymbolTableRecord
100
AcDbRegAppTableRecord
  2
ACAD
 70
     0
  0
APPID
  5
21
330
9
100
AcDbSymbolTableRecord
100
AcDbRegAppTableRecord
  2
DRAWINGVARIABLESXDATA
 70
     0
  0
APPID
  5
64
330
9
100
AcDbSymbolTableRecord
100
AcDbRegAppTableRecord
  2
CONTENTTABDATA
 70
     0
  0
APPID
  5
65
330
9
100
AcDbSymbolTableRecord
100
AcDbRegAppTableRecord
  2
CONTENTCURRENTTAB
 70
     0
  0
APPID
  5
66
330
9
100
AcDbSymbolTableRecord
100
AcDbRegAppTableRecord
  2
CONTENTBLOCKDESCRIPTION
 70
     0
  0
APPID
  5
67
330
9
100
AcDbSymbolTableRecord
100
AcDbRegAppTableRecord
  2
CONTENTBLOCKICON
 70
     0
  0
APPID
  5
68
330
9
100
AcDbSymbolTableRecord
100
AcDbRegAppTableRecord
  2
CONTENTLONGBLOCKNAME
 70
     0
  0
APPID
  5
5A9
330
9
100
AcDbSymbolTableRecord
100
AcDbRegAppTableRecord
  2
ACAD_PSEXT
 70
     0
  0
APPID
  5
18AC
330
9
100
AcDbSymbolTableRecord
100
AcDbRegAppTableRecord
  2
ACAD_DSTYLE_DIMTEXT_FILL
 70
     0
  0
APPID
  5
19E1A
330
9
100
AcDbSymbolTableRecord
100
AcDbRegAppTableRecord
  2
ACAD_MLEADERVER
 70
     0
  0
APPID
  5
1A2FA
330
9
100
AcDbSymbolTableRecord
100
AcDbRegAppTableRecord
  2
ACAD_DSTYLE_DIMRADIAL_EXTE
 70
     0
  0
APPID
  5
1DBC1
330
9
100
AcDbSymbolTableRecord
100
AcDbRegAppTableRecord
  2
ACADANNOTATIVE
 70
     0
  0
APPID
  5
1E991
330
9
100
AcDbSymbolTableRecord
100
AcDbRegAppTableRecord
  2
ACAD_EXEMPT_FROM_CAD_STAND
 70
     0
  0
APPID
  5
202C7
330
9
100
AcDbSymbolTableRecord
100
AcDbRegAppTableRecord
  2
ACDBBLOCKREPETAG
 70
     0
  0
APPID
  5
20AA7
330
9
100
AcDbSymbolTableRecord
100
AcDbRegAppTableRecord
  2
ACAD_OBJECT_CHANGE_GUID
 70
     0
  0
APPID
  5
20B2F
330
9
100
AcDbSymbolTableRecord
100
AcDbRegAppTableRecord
  2
ACAD_NAV_VCDISPLAY
 70
     0
  0
ENDTAB
  0
TABLE
  2
DIMSTYLE
  5
A
330
0
100
AcDbSymbolTable
 70
     1
  0
DIMSTYLE
105
48
330
A
100
AcDbSymbolTableRecord
100
AcDbDimStyleTableRecord
  2
NEWX10
 70
     0
  3
 
  4

  5

  6
OPEN30
  7
OPEN30
 40
1.0
 41
2.0
 42
0.0
 43
7.0
 44
1.0
 45
0.0
 46
0.0
 47
0.0
 48
0.0
140
3.5
141
0.0
142
0.0
143
25.4
144
1.0
145
0.0
146
0.7
147
0.7
 71
     0
 72
     0
 73
     0
 74
     0
 75
     0
 76
     0
 77
     1
 78
     8
170
     0
171
     2
172
     1
173
     1
174
     0
175
     0
176
   256
177
   256
178
   201
179
     2
270
     2
271
     2
272
     4
273
     2
274
     2
340
F
275
     0
280
     0
281
     0
282
     0
283
     1
284
     8
285
     0
286
     0
287
     2
288
     0
  0
ENDTAB
  0
TABLE
  2
BLOCK_RECORD
  5
1
330
0
100
AcDbSymbolTable
 70
     8
  0
BLOCK_RECORD
  5
18
102
{ACAD_XDICTIONARY
360
6E9
102
}
330
1
100
AcDbSymbolTableRecord
100
AcDbBlockTableRecord
  2
*MODEL_SPACE
  0
BLOCK_RECORD
  5
15
102
{ACAD_XDICTIONARY
360
59B
102
}
330
1
100
AcDbSymbolTableRecord
100
AcDbBlockTableRecord
  2
*PAPER_SPACE
  0
BLOCK_RECORD
  5
42
330
1
100
AcDbSymbolTableRecord
100
AcDbBlockTableRecord
  2
_OPEN30
  0
BLOCK_RECORD
  5
20316
330
1
100
AcDbSymbolTableRecord
100
AcDbBlockTableRecord
  2
A3WAKUKAWAJUN2017_HYOUDAI_
  0
BLOCK_RECORD
  5
21C62
330
1
100
AcDbSymbolTableRecord
100
AcDbBlockTableRecord
  2
*X127
  0
BLOCK_RECORD
  5
21CB0
330
1
100
AcDbSymbolTableRecord
100
AcDbBlockTableRecord
  2
*X128
  0
BLOCK_RECORD
  5
21D02
330
1
100
AcDbSymbolTableRecord
100
AcDbBlockTableRecord
  2
*X129
  0
BLOCK_RECORD
  5
21D53
330
1
100
AcDbSymbolTableRecord
100
AcDbBlockTableRecord
  2
*X130
  0
BLOCK_RECORD
  5
21D90
330
1
100
AcDbSymbolTableRecord
100
AcDbBlockTableRecord
  2
*X131
  0
BLOCK_RECORD
  5
21DD0
330
1
100
AcDbSymbolTableRecord
100
AcDbBlockTableRecord
  2
*X132
  0
ENDTAB
  0
ENDSEC
  0
SECTION
  2
BLOCKS
  0
BLOCK
  5
19
330
18
100
AcDbEntity
  8
0
100
AcDbBlockBegin
  2
*MODEL_SPACE
 70
     0
 10
0.0
 20
0.0
 30
0.0
  3
*MODEL_SPACE
  1

  0
ENDBLK
  5
1A
330
18
100
AcDbEntity
  8
0
100
AcDbBlockEnd
  0
BLOCK
  5
16
330
15
100
AcDbEntity
 67
     1
  8
0
100
AcDbBlockBegin
  2
*PAPER_SPACE
 70
     0
 10
0.0
 20
0.0
 30
0.0
  3
*PAPER_SPACE
  1

  0
ENDBLK
  5
17
330
15
100
AcDbEntity
 67
     1
  8
0
100
AcDbBlockEnd
  0
BLOCK
  5
43
330
42
100
AcDbEntity
  8
0
100
AcDbBlockBegin
  2
_OPEN30
 70
     0
 10
0.0
 20
0.0
 30
0.0
  3
_OPEN30
  1

  0
LINE
  5
44
330
42
100
AcDbEntity
  8
0
  6
BYBLOCK
 62
     0
100
AcDbLine
 10
-1.0
 20
0.26794919
 30
0.0
 11
0.0
 21
0.0
 31
0.0
  0
LINE
  5
45
330
42
100
AcDbEntity
  8
0
  6
BYBLOCK
 62
     0
100
AcDbLine
 10
0.0
 20
0.0
 30
0.0
 11
-1.0
 21
-0.26794919
 31
0.0
  0
LINE
  5
46
330
42
100
AcDbEntity
  8
0
  6
BYBLOCK
 62
     0
100
AcDbLine
 10
0.0
 20
0.0
 30
0.0
 11
-1.0
 21
0.0
 31
0.0
  0
ENDBLK
  5
47
330
42
100
AcDbEntity
  8
0
100
AcDbBlockEnd
  0
BLOCK
  5
20A15
330
20316
100
AcDbEntity
  8
0
100
AcDbBlockBegin
  2
A3WAKUKAWAJUN2017_HYOUDAI_
 70
     0
 10
0.0
 20
0.0
 30
0.0
  3
A3WAKUKAWAJUN2017_HYOUDAI_
  1

  0
LINE
  5
20318
330
20316
100
AcDbEntity
  8
0
100
AcDbLine
 10
13.26299999998673
 20
-0.0001000000000317
 30
0.0
 11
9.236999999990758
 21
8.999899999990987
 31
0.0
1001
ACAD
1000
ASC_BOUNDS
1002
{
1070
    19
1005
20359
1002
}
  0
LINE
  5
20319
330
20316
100
AcDbEntity
  8
0
100
AcDbLine
 10
5.657999999994331
 20
0.9999999999989768
 30
0.0
 11
9.236999999990758
 21
8.999999999991019
 31
0.0
1001
ACAD
1000
ASC_BOUNDS
1002
{
1070
    19
1005
20359
1002
}
  0
LINE
  5
2031A
330
20316
100
AcDbEntity
  8
0
100
AcDbLine
 10
18.59199999998134
 20
-0.2368999999997641
 30
0.0
 11
16.46099999998353
 21
5.432899999994561
 31
0.0
1001
ACAD
1000
ASC_BOUNDS
1002
{
1070
    19
1005
2035A
1002
}
  0
LINE
  5
2031B
330
20316
100
AcDbEntity
  8
0
100
AcDbLine
 10
18.59199999998134
 20
-0.2368999999997641
 30
0.0
 11
22.38199999997767
 21
8.763099999991255
 31
0.0
1001
ACAD
1000
ASC_BOUNDS
1002
{
1070
    19
1005
2035A
1002
}
  0
LINE
  5
2031C
330
20316
100
AcDbEntity
  8
0
100
AcDbLine
 10
14.32899999998563
 20
-0.2368999999997641
 30
0.0
 11
16.46099999998353
 21
5.432899999994561
 31
0.0
1001
ACAD
1000
ASC_BOUNDS
1002
{
1070
    19
1005
2035A
1002
}
  0
LINE
  5
2031D
330
20316
100
AcDbEntity
  8
0
100
AcDbLine
 10
14.32899999998563
 20
-0.2368999999997641
 30
0.0
 11
10.53899999998941
 21
8.763099999991255
 31
0.0
1001
ACAD
1000
ASC_BOUNDS
1002
{
1070
    19
1005
2035A
1002
}
  0
LINE
  5
2031E
330
20316
100
AcDbEntity
  8
0
100
AcDbLine
 10
19.53899999998043
 20
-0.0001000000000317
 30
0.0
 11
23.56599999997638
 21
8.999899999990987
 31
0.0
1001
ACAD
1000
ASC_BOUNDS
1002
{
1070
    19
1005
2035B
1002
}
  0
LINE
  5
2031F
330
20316
100
AcDbEntity
  8
0
100
AcDbLine
 10
26.97358892824991
 20
1.383099999991202
 30
0.0
 11
23.56599999997638
 21
8.999899999990987
 31
0.0
1001
ACAD
1000
ASC_BOUNDS
1002
{
1070
    19
1005
2035B
1002
}
  0
LINE
  5
20320
330
20316
100
AcDbEntity
  8
0
100
AcDbLine
 10
5.657999999994331
 20
0.9999999999989768
 30
0.0
 11
3.181999999996833
 21
4.668599999995308
 31
0.0
1001
ACAD
1000
ASC_BOUNDS
1002
{
1070
    19
1005
20359
1002
}
  0
LINE
  5
20321
330
20316
100
AcDbEntity
  8
0
100
AcDbLine
 10
4.617999999995391
 20
-0.0001000000000317
 30
0.0
 11
1.420999999998571
 21
4.736799999995242
 31
0.0
1001
ACAD
1000
ASC_BOUNDS
1002
{
1070
    19
1005
20359
1002
}
  0
LINE
  5
20322
330
20316
100
AcDbEntity
  8
0
100
AcDbLine
 10
1.420999999998571
 20
8.763099999991255
 30
0.0
 11
1.420999999998571
 21
0.0
 31
0.0
1001
ACAD
1000
ASC_BOUNDS
1002
{
1070
    19
1005
2035E
1002
}
  0
LINE
  5
20323
330
20316
100
AcDbEntity
  8
0
100
AcDbLine
 10
0.0
 20
8.763099999991255
 30
0.0
 11
0.0
 21
0.0
 31
0.0
1001
ACAD
1000
ASC_BOUNDS
1002
{
1070
    19
1005
2035E
1002
}
  0
LINE
  5
20324
330
20316
100
AcDbEntity
  8
0
100
AcDbLine
 10
6.766999999993232
 20
-0.0001000000000317
 30
0.0
 11
7.826999999992154
 21
2.368399999997621
 31
0.0
1001
ACAD
1000
ASC_BOUNDS
1002
{
1070
    19
1005
20359
1002
}
  0
LINE
  5
20325
330
20316
100
AcDbEntity
  8
0
100
AcDbLine
 10
0.0
 20
0.0
 30
0.0
 11
1.420999999998571
 21
0.0
 31
0.0
1001
ACAD
1000
ASC_BOUNDS
1002
{
1070
    19
1005
2035E
1002
}
  0
LINE
  5
20326
330
20316
100
AcDbEntity
  8
0
100
AcDbLine
 10
4.617999999995391
 20
0.0
 30
0.0
 11
6.766999999993232
 21
0.0
 31
0.0
1001
ACAD
1000
ASC_BOUNDS
1002
{
1070
    19
1005
20359
1002
}
  0
LINE
  5
20327
330
20316
100
AcDbEntity
  8
0
100
AcDbLine
 10
11.70599999998831
 20
-0.0001000000000317
 30
0.0
 11
10.64699999998936
 21
2.368399999997621
 31
0.0
1001
ACAD
1000
ASC_BOUNDS
1002
{
1070
    19
1005
20359
1002
}
  0
LINE
  5
20328
330
20316
100
AcDbEntity
  8
0
100
AcDbLine
 10
7.826999999992154
 20
2.368399999997621
 30
0.0
 11
10.64699999998936
 21
2.368399999997621
 31
0.0
1001
ACAD
1000
ASC_BOUNDS
1002
{
1070
    19
1005
20359
1002
}
  0
LINE
  5
20329
330
20316
100
AcDbEntity
  8
0
100
AcDbLine
 10
11.70599999998831
 20
0.0
 30
0.0
 11
13.26299999998673
 21
0.0
 31
0.0
1001
ACAD
1000
ASC_BOUNDS
1002
{
1070
    19
1005
20359
1002
}
  0
LINE
  5
2032A
330
20316
100
AcDbEntity
  8
0
100
AcDbLine
 10
22.15599999997789
 20
2.368399999997621
 30
0.0
 11
24.97599999997499
 21
2.368399999997621
 31
0.0
1001
ACAD
1000
ASC_BOUNDS
1002
{
1070
    19
1005
2035B
1002
}
  0
LINE
  5
2032B
330
20316
100
AcDbEntity
  8
0
100
AcDbLine
 10
19.53899999998043
 20
0.0
 30
0.0
 11
21.09599999997886
 21
0.0
 31
0.0
1001
ACAD
1000
ASC_BOUNDS
1002
{
1070
    19
1005
2035B
1002
}
  0
LINE
  5
2032C
330
20316
100
AcDbEntity
  8
0
100
AcDbLine
 10
21.09599999997886
 20
-0.0001000000000317
 30
0.0
 11
22.15599999997789
 21
2.368399999997621
 31
0.0
1001
ACAD
1000
ASC_BOUNDS
1002
{
1070
    19
1005
2035B
1002
}
  0
LINE
  5
2032D
330
20316
100
AcDbEntity
  8
0
100
AcDbLine
 10
26.02015566812236
 20
0.0330999999912365
 30
0.0
 11
24.97599999997499
 21
2.368399999997621
 31
0.0
1001
ACAD
1000
ASC_BOUNDS
1002
{
1070
    19
1005
2035B
1002
}
  0
LINE
  5
2032E
330
20316
100
AcDbEntity
  8
0
100
AcDbLine
 10
14.32399999998563
 20
3.315799999996671
 30
0.0
 11
16.46099999998353
 21
8.999899999990987
 31
0.0
1001
ACAD
1000
ASC_BOUNDS
1002
{
1070
    19
1005
2035A
1002
}
  0
LINE
  5
2032F
330
20316
100
AcDbEntity
  8
0
100
AcDbLine
 10
6.432999999993513
 20
8.763099999991255
 30
0.0
 11
3.181999999996833
 21
4.668599999995308
 31
0.0
1001
ACAD
1000
ASC_BOUNDS
1002
{
1070
    19
1005
20359
1002
}
  0
LINE
  5
20330
330
20316
100
AcDbEntity
  8
0
100
AcDbLine
 10
4.617999999995391
 20
8.763099999991255
 30
0.0
 11
1.420999999998571
 21
4.736799999995242
 31
0.0
1001
ACAD
1000
ASC_BOUNDS
1002
{
1070
    19
1005
20359
1002
}
  0
LINE
  5
20331
330
20316
100
AcDbEntity
  8
0
100
AcDbLine
 10
0.0
 20
8.763099999991255
 30
0.0
 11
1.420999999998571
 21
8.763099999991255
 31
0.0
1001
ACAD
1000
ASC_BOUNDS
1002
{
1070
    19
1005
2035E
1002
}
  0
LINE
  5
20332
330
20316
100
AcDbEntity
  8
0
100
AcDbLine
 10
4.617999999995391
 20
8.763099999991255
 30
0.0
 11
6.432999999993513
 21
8.763099999991255
 31
0.0
1001
ACAD
1000
ASC_BOUNDS
1002
{
1070
    19
1005
20359
1002
}
  0
LINE
  5
20333
330
20316
100
AcDbEntity
  8
0
100
AcDbLine
 10
14.32399999998563
 20
3.315799999996671
 30
0.0
 11
12.02999999998792
 21
8.763099999991255
 31
0.0
1001
ACAD
1000
ASC_BOUNDS
1002
{
1070
    19
1005
2035A
1002
}
  0
LINE
  5
20334
330
20316
100
AcDbEntity
  8
0
100
AcDbLine
 10
10.06399999998996
 20
3.670999999996297
 30
0.0
 11
9.236999999990758
 21
5.5200999999945
 31
0.0
1001
ACAD
1000
ASC_BOUNDS
1002
{
1070
    19
1005
20359
1002
}
  0
LINE
  5
20335
330
20316
100
AcDbEntity
  8
0
100
AcDbLine
 10
8.409999999991555
 20
3.670999999996297
 30
0.0
 11
9.236999999990758
 21
5.5200999999945
 31
0.0
1001
ACAD
1000
ASC_BOUNDS
1002
{
1070
    19
1005
20359
1002
}
  0
LINE
  5
20336
330
20316
100
AcDbEntity
  8
0
100
AcDbLine
 10
8.409999999991555
 20
3.670999999996297
 30
0.0
 11
10.06399999998996
 21
3.670999999996297
 31
0.0
1001
ACAD
1000
ASC_BOUNDS
1002
{
1070
    19
1005
20359
1002
}
  0
LINE
  5
20337
330
20316
100
AcDbEntity
  8
0
100
AcDbLine
 10
10.53899999998941
 20
8.763099999991255
 30
0.0
 11
12.02999999998792
 21
8.763099999991255
 31
0.0
1001
ACAD
1000
ASC_BOUNDS
1002
{
1070
    19
1005
2035A
1002
}
  0
LINE
  5
20338
330
20316
100
AcDbEntity
  8
0
100
AcDbLine
 10
22.7389999999773
 20
3.670999999996297
 30
0.0
 11
23.56599999997638
 21
5.5200999999945
 31
0.0
1001
ACAD
1000
ASC_BOUNDS
1002
{
1070
    19
1005
2035B
1002
}
  0
LINE
  5
20339
330
20316
100
AcDbEntity
  8
0
100
AcDbLine
 10
22.7389999999773
 20
3.670999999996297
 30
0.0
 11
24.39299999997559
 21
3.670999999996297
 31
0.0
1001
ACAD
1000
ASC_BOUNDS
1002
{
1070
    19
1005
2035B
1002
}
  0
LINE
  5
2033A
330
20316
100
AcDbEntity
  8
0
100
AcDbLine
 10
18.59799999998143
 20
3.315799999996671
 30
0.0
 11
20.89099999997916
 21
8.763099999991255
 31
0.0
1001
ACAD
1000
ASC_BOUNDS
1002
{
1070
    19
1005
2035A
1002
}
  0
LINE
  5
2033B
330
20316
100
AcDbEntity
  8
0
100
AcDbLine
 10
18.59799999998143
 20
3.315799999996671
 30
0.0
 11
16.46099999998353
 21
8.999899999990987
 31
0.0
1001
ACAD
1000
ASC_BOUNDS
1002
{
1070
    19
1005
2035A
1002
}
  0
LINE
  5
2033C
330
20316
100
AcDbEntity
  8
0
100
AcDbLine
 10
20.89099999997916
 20
8.763099999991255
 30
0.0
 11
22.38199999997767
 21
8.763099999991255
 31
0.0
1001
ACAD
1000
ASC_BOUNDS
1002
{
1070
    19
1005
2035A
1002
}
  0
LINE
  5
2033D
330
20316
100
AcDbEntity
  8
0
100
AcDbLine
 10
24.39299999997559
 20
3.670999999996297
 30
0.0
 11
23.56599999997638
 21
5.5200999999945
 31
0.0
1001
ACAD
1000
ASC_BOUNDS
1002
{
1070
    19
1005
2035B
1002
}
  0
LINE
  5
2033E
330
20316
100
AcDbEntity
  8
0
100
AcDbLine
 10
44.99999999995498
 20
-0.2368999999997641
 30
0.0
 11
40.02599999995994
 21
5.341799999994635
 31
0.0
1001
ACAD
1000
ASC_BOUNDS
1002
{
1070
    19
1005
2035D
1002
}
  0
LINE
  5
2033F
330
20316
100
AcDbEntity
  8
0
100
AcDbLine
 10
40.02599999995994
 20
5.341799999994635
 30
0.0
 11
40.02599999995994
 21
0.0
 31
0.0
1001
ACAD
1000
ASC_BOUNDS
1002
{
1070
    19
1005
2035D
1002
}
  0
LINE
  5
20340
330
20316
100
AcDbEntity
  8
0
100
AcDbLine
 10
38.60499999996136
 20
8.999999999991019
 30
0.0
 11
38.60499999996136
 21
0.0
 31
0.0
1001
ACAD
1000
ASC_BOUNDS
1002
{
1070
    19
1005
2035D
1002
}
  0
LINE
  5
20341
330
20316
100
AcDbEntity
  8
0
100
AcDbLine
 10
44.99999999995498
 20
8.763099999991255
 30
0.0
 11
44.99999999995498
 21
-0.2368999999997641
 31
0.0
1001
ACAD
1000
ASC_BOUNDS
1002
{
1070
    19
1005
2035D
1002
}
  0
LINE
  5
20342
330
20316
100
AcDbEntity
  8
0
100
AcDbLine
 10
38.60499999996136
 20
0.0
 30
0.0
 11
40.02599999995994
 21
0.0
 31
0.0
1001
ACAD
1000
ASC_BOUNDS
1002
{
1070
    19
1005
2035D
1002
}
  0
LINE
  5
20343
330
20316
100
AcDbEntity
  8
0
100
AcDbLine
 10
43.57899999995641
 20
3.421199999996588
 30
0.0
 11
38.60499999996136
 21
8.999899999990987
 31
0.0
1001
ACAD
1000
ASC_BOUNDS
1002
{
1070
    19
1005
2035D
1002
}
  0
LINE
  5
20344
330
20316
100
AcDbEntity
  8
0
100
AcDbLine
 10
43.57899999995641
 20
8.763099999991255
 30
0.0
 11
43.57899999995641
 21
3.421199999996588
 31
0.0
1001
ACAD
1000
ASC_BOUNDS
1002
{
1070
    19
1005
2035D
1002
}
  0
LINE
  5
20345
330
20316
100
AcDbEntity
  8
0
100
AcDbLine
 10
43.57899999995641
 20
8.763099999991255
 30
0.0
 11
44.99999999995498
 21
8.763099999991255
 31
0.0
1001
ACAD
1000
ASC_BOUNDS
1002
{
1070
    19
1005
2035D
1002
}
  0
LINE
  5
20346
330
20316
100
AcDbEntity
  8
0
100
AcDbLine
 10
37.67199999996831
 20
8.763099999991255
 30
0.0
 11
36.23199999996837
 21
8.763099999991255
 31
0.0
  0
LINE
  5
20347
330
20316
100
AcDbEntity
  8
0
100
AcDbLine
 10
31.64199999996833
 20
8.763099999991255
 30
0.0
 11
31.64199999996833
 21
2.481619422925121
 31
0.0
  0
LINE
  5
20348
330
20316
100
AcDbEntity
  8
0
100
AcDbLine
 10
37.67199999996831
 20
8.763099999991255
 30
0.0
 11
37.67199999996831
 21
2.481619422925121
 31
0.0
  0
LINE
  5
20349
330
20316
100
AcDbEntity
  8
0
100
AcDbLine
 10
36.23199999996837
 20
8.763099999991255
 30
0.0
 11
36.23199999996837
 21
2.481619422925064
 31
0.0
  0
LINE
  5
2034A
330
20316
100
AcDbEntity
  8
0
100
AcDbLine
 10
33.08199999996839
 20
8.763099999991255
 30
0.0
 11
33.08199999996839
 21
2.481619422925121
 31
0.0
  0
ARC
  5
2034B
330
20316
100
AcDbEntity
  8
0
100
AcDbCircle
 10
34.65699999996832
 20
3.183099999991214
 30
0.0
 40
3.420000000000007
100
AcDbArc
 50
240.0000000000255
 51
299.9999999999766
  0
ARC
  5
2034C
330
20316
100
AcDbEntity
  8
0
100
AcDbCircle
 10
34.65699999996832
 20
3.183099999991214
 30
0.0
 40
1.97999999999999
100
AcDbArc
 50
240.000000000026
 51
299.9999999999703
  0
LINE
  5
2034D
330
20316
100
AcDbEntity
  8
0
100
AcDbLine
 10
33.08199999996828
 20
8.763099999991255
 30
0.0
 11
31.64199999996833
 21
8.763099999991255
 31
0.0
  0
ARC
  5
2034E
330
20316
100
AcDbEntity
  8
0
100
AcDbCircle
 10
35.06199999996829
 20
2.481619422925064
 30
0.0
 40
1.17
100
AcDbArc
 50
299.9999999999699
 51
0.0
  0
ARC
  5
2034F
330
20316
100
AcDbEntity
  8
0
100
AcDbCircle
 10
34.25199999996835
 20
2.481619422925121
 30
0.0
 40
1.17
100
AcDbArc
 50
180.0
 51
240.0000000000238
  0
ARC
  5
20350
330
20316
100
AcDbEntity
  8
0
100
AcDbCircle
 10
35.06199999996841
 20
2.481619422925121
 30
0.0
 40
2.61
100
AcDbArc
 50
299.9999999999756
 51
0.0
  0
ARC
  5
20351
330
20316
100
AcDbEntity
  8
0
100
AcDbCircle
 10
34.25199999996835
 20
2.481619422925121
 30
0.0
 40
2.61
100
AcDbArc
 50
180.0
 51
240.0000000000244
  0
LINE
  5
20352
330
20316
100
AcDbEntity
  8
0
100
AcDbLine
 10
29.30199999996933
 20
8.763099999991255
 30
0.0
 11
30.74199999996927
 21
8.763099999991255
 31
0.0
1001
ACAD
1000
ASC_BOUNDS
1002
{
1070
    19
1005
2035B
1002
}
  0
LINE
  5
20353
330
20316
100
AcDbEntity
  8
0
100
AcDbLine
 10
30.74199999996927
 20
8.763099999991255
 30
0.0
 11
30.74199999996927
 21
2.373099999991211
 31
0.0
1001
ACAD
1000
ASC_BOUNDS
1002
{
1070
    19
1005
2035B
1002
}
  0
LINE
  5
20354
330
20316
100
AcDbEntity
  8
0
100
AcDbLine
 10
26.02015566812236
 20
0.0330999999912365
 30
0.0
 11
28.40199999996923
 21
0.0330999999912365
 31
0.0
1001
ACAD
1000
ASC_BOUNDS
1002
{
1070
    19
1005
2035B
1002
}
  0
LINE
  5
20355
330
20316
100
AcDbEntity
  8
0
100
AcDbLine
 10
29.30199999996933
 20
8.763099999991255
 30
0.0
 11
29.30199999996933
 21
2.283099999991236
 31
0.0
1001
ACAD
1000
ASC_BOUNDS
1002
{
1070
    19
1005
2035B
1002
}
  0
LINE
  5
20356
330
20316
100
AcDbEntity
  8
0
100
AcDbLine
 10
26.97358892824991
 20
1.383099999991202
 30
0.0
 11
28.40199999996923
 21
1.383099999991202
 31
0.0
1001
ACAD
1000
ASC_BOUNDS
1002
{
1070
    19
1005
2035B
1002
}
  0
ARC
  5
20357
330
20316
100
AcDbEntity
  8
0
100
AcDbCircle
 10
28.40199999996923
 20
2.283099999991236
 30
0.0
 40
0.9
100
AcDbArc
 50
270.0
 51
0.0
1001
ACAD
1000
ASC_BOUNDS
1002
{
1070
    19
1005
2035B
1002
}
  0
ARC
  5
20358
330
20316
100
AcDbEntity
  8
0
100
AcDbCircle
 10
28.40199999996923
 20
2.373099999991211
 30
0.0
 40
2.34
100
AcDbArc
 50
270.0
 51
0.0
1001
ACAD
1000
ASC_BOUNDS
1002
{
1070
    19
1005
2035B
1002
}
  0
INSERT
  5
20359
330
20316
100
AcDbEntity
  8
0
100
AcDbBlockReference
  2
*X127
 10
0.0
 20
0.0
 30
0.0
1001
ACAD
1000
HATCH
1002
{
1070
    19
1000
ANSI37
1040
0.15
1040
0.0
1000
ASC_BOUNDS
1070
     2
1070
     2
1070
    12
1005
20318
1005
20319
1005
20320
1005
2032F
1005
20332
1005
20330
1005
20321
1005
20326
1005
20324
1005
20328
1005
20327
1005
20329
1070
     2
1070
     3
1005
20334
1005
20336
1005
20335
1000
ASC_SEEDPOINT
1011
3.614004224891801
1021
2.996669441146025
1031
0.0
1000
R14_HATCH_DATA
1000
20359
1011
1.0
1021
0.0
1031
0.0
1011
0.0
1021
1.0
1031
0.0
1011
0.0
1021
0.0
1031
1.0
1040
0.0
1010
0.0
1020
0.0
1030
1.0
1000
ANSI37
1070
     0
1070
     1
1071
        2
1071
        7
1070
     0
1070
     1
1071
       17
1040
13.26299999998673
1040
-0.0001000000000317
1040
9.236999999990758
1040
8.999899999990987
1040
9.236999999990758
1040
8.999999999991019
1040
5.657999999994331
1040
0.9999999999989768
1040
3.181999999996833
1040
4.668599999995308
1040
6.432999999993513
1040
8.763099999991255
1040
4.617999999995391
1040
8.763099999991255
1040
1.420999999998571
1040
4.736799999995242
1040
4.617999999995391
1040
-0.0001000000000317
1040
4.617999999995391
1040
0.0
1040
6.766999999993232
1040
0.0
1040
6.766999999993232
1040
-0.0001000000000317
1040
7.826999999992154
1040
2.368399999997621
1040
10.64699999998936
1040
2.368399999997621
1040
11.70599999998831
1040
-0.0001000000000317
1040
11.70599999998831
1040
0.0
1040
13.26299999998673
1040
0.0
1071
       12
1005
20318
1005
20319
1005
20320
1005
2032F
1005
20332
1005
20330
1005
20321
1005
20326
1005
20324
1005
20328
1005
20327
1005
20329
1071
       22
1070
     0
1070
     1
1071
        3
1040
9.236999999990758
1040
5.5200999999945
1040
10.06399999998996
1040
3.670999999996297
1040
8.409999999991555
1040
3.670999999996297
1071
        3
1005
20334
1005
20336
1005
20335
1070
     0
1070
     1
1040
0.0
1040
0.15
1070
     0
1070
     2
1040
0.7853981633974483
1040
49.29960901727088
1040
-10.17736998311392
1040
-0.3367596045400932
1040
0.3367596045400932
1070
     0
1040
2.356194490192345
1040
49.29960901727088
1040
-10.17736998311392
1040
-0.3367596045400932
1040
-0.3367596045400932
1070
     0
1040
0.0110235143455945
1071
        2
1040
3.614004224891801
1040
2.996669441146025
1040
0.0
1040
3.614004224891801
1040
2.996669441146025
1040
0.0
1002
}
  0
INSERT
  5
2035A
330
20316
100
AcDbEntity
  8
0
100
AcDbBlockReference
  2
*X128
 10
0.0
 20
0.0
 30
0.0
1001
ACAD
1000
HATCH
1002
{
1070
    19
1000
ANSI37
1040
0.15
1040
0.0
1000
ASC_BOUNDS
1070
     1
1070
     2
1070
    10
1005
2031A
1005
2031B
1005
2033C
1005
2033A
1005
2033B
1005
2032E
1005
20333
1005
20337
1005
2031D
1005
2031C
1000
ASC_SEEDPOINT
1011
14.73245321214324
1021
2.798246178283421
1031
0.0
1000
R14_HATCH_DATA
1000
2035A
1011
1.0
1021
0.0
1031
0.0
1011
0.0
1021
1.0
1031
0.0
1011
0.0
1021
0.0
1031
1.0
1040
0.0
1010
0.0
1020
0.0
1030
1.0
1000
ANSI37
1070
     0
1070
     1
1071
        1
1071
        7
1070
     0
1070
     1
1071
       10
1040
16.46099999998353
1040
5.432899999994561
1040
18.59199999998134
1040
-0.2368999999997641
1040
22.38199999997767
1040
8.763099999991255
1040
20.89099999997916
1040
8.763099999991255
1040
18.59799999998143
1040
3.315799999996671
1040
16.46099999998353
1040
8.999899999990987
1040
14.32399999998563
1040
3.315799999996671
1040
12.02999999998792
1040
8.763099999991255
1040
10.53899999998941
1040
8.763099999991255
1040
14.32899999998563
1040
-0.2368999999997641
1071
       10
1005
2031A
1005
2031B
1005
2033C
1005
2033A
1005
2033B
1005
2032E
1005
20333
1005
20337
1005
2031D
1005
2031C
1070
     0
1070
     1
1040
0.0
1040
0.15
1070
     0
1070
     2
1040
0.7853981633974483
1040
49.29960901727088
1040
-10.17736998311392
1040
-0.3367596045400932
1040
0.3367596045400932
1070
     0
1040
2.356194490192345
1040
49.29960901727088
1040
-10.17736998311392
1040
-0.3367596045400932
1040
-0.3367596045400932
1070
     0
1040
0.0110235143455945
1071
        1
1040
14.73245321214324
1040
2.798246178283421
1040
0.0
1002
}
  0
INSERT
  5
2035B
330
20316
100
AcDbEntity
  8
0
100
AcDbBlockReference
  2
*X129
 10
0.0
 20
0.0
 30
0.0
1001
ACAD
1000
HATCH
1002
{
1070
    19
1000
ANSI37
1040
0.15
1040
0.0
1000
ASC_BOUNDS
1070
     2
1070
     2
1070
    13
1005
2031E
1005
2032B
1005
2032C
1005
2032A
1005
2032D
1005
20354
1005
20358
1005
20353
1005
20352
1005
20355
1005
20357
1005
20356
1005
2031F
1070
     2
1070
     3
1005
20338
1005
2033D
1005
20339
1000
ASC_SEEDPOINT
1011
21.97929957367762
1021
3.294304244259308
1031
0.0
1000
R14_HATCH_DATA
1000
2035B
1011
1.0
1021
0.0
1031
0.0
1011
0.0
1021
1.0
1031
0.0
1011
0.0
1021
0.0
1031
1.0
1040
0.0
1010
0.0
1020
0.0
1030
1.0
1000
ANSI37
1070
     0
1070
     1
1071
        2
1071
        7
1070
     1
1070
     1
1071
       15
1040
23.56599999997638
1040
8.999899999990987
1040
0.0
1040
19.53899999998043
1040
-0.0001000000000317
1040
0.0
1040
19.53899999998043
1040
0.0
1040
0.0
1040
21.09599999997886
1040
0.0
1040
0.0
1040
21.09599999997886
1040
-0.0001000000000317
1040
0.0
1040
22.15599999997789
1040
2.368399999997621
1040
0.0
1040
24.97599999997499
1040
2.368399999997621
1040
0.0
1040
26.02015566812236
1040
0.0330999999912365
1040
0.0
1040
28.40199999996923
1040
0.0330999999912365
1040
0.414213562373095
1040
30.74199999996923
1040
2.373099999991211
1040
0.0
1040
30.74199999996927
1040
8.763099999991255
1040
0.0
1040
29.30199999996933
1040
8.763099999991255
1040
0.0
1040
29.30199999996933
1040
2.283099999991236
1040
-0.414213562373095
1040
28.40199999996923
1040
1.383099999991237
1040
0.0
1040
26.97358892824991
1040
1.383099999991202
1040
0.0
1071
       13
1005
2031E
1005
2032B
1005
2032C
1005
2032A
1005
2032D
1005
20354
1005
20358
1005
20353
1005
20352
1005
20355
1005
20357
1005
20356
1005
2031F
1071
       22
1070
     0
1070
     1
1071
        3
1040
22.7389999999773
1040
3.670999999996297
1040
23.56599999997638
1040
5.5200999999945
1040
24.39299999997559
1040
3.670999999996297
1071
        3
1005
20338
1005
2033D
1005
20339
1070
     0
1070
     1
1040
0.0
1040
0.15
1070
     0
1070
     2
1040
0.7853981633974483
1040
49.29960901727088
1040
-10.17736998311392
1040
-0.3367596045400932
1040
0.3367596045400932
1070
     0
1040
2.356194490192345
1040
49.29960901727088
1040
-10.17736998311392
1040
-0.3367596045400932
1040
-0.3367596045400932
1070
     0
1040
0.0110235143455945
1071
        2
1040
21.97929957367762
1040
3.294304244259308
1040
0.0
1040
21.97929957367762
1040
3.294304244259308
1040
0.0
1002
}
  0
INSERT
  5
2035C
330
20316
100
AcDbEntity
  8
0
100
AcDbBlockReference
  2
*X130
 10
0.0
 20
0.0
 30
0.0
1001
ACAD
1000
HATCH
1002
{
1070
    19
1000
ANSI37
1040
0.15
1040
0.0
1000
R14_HATCH_DATA
1000
2035C
1011
1.0
1021
0.0
1031
0.0
1011
0.0
1021
1.0
1031
0.0
1011
0.0
1021
0.0
1031
1.0
1040
0.0
1010
0.0
1020
0.0
1030
1.0
1000
ANSI37
1070
     0
1070
     1
1071
        1
1071
        7
1070
     1
1070
     1
1071
       12
1040
31.64199999996833
1040
2.481619422925121
1040
0.2679491924310942
1040
32.94699999997067
1040
0.2212931190493919
1040
0.2679491924301353
1040
36.36699999995983
1040
0.2212931190459813
1040
0.2679491924321411
1040
37.67199999996831
1040
2.481619422928361
1040
0.0
1040
37.67199999996831
1040
8.763099999991255
1040
0.0
1040
36.23199999996837
1040
8.763099999991255
1040
0.0
1040
36.23199999996837
1040
2.481619422925064
1040
-0.2679491924310291
1040
35.64699999996708
1040
1.468369700498386
1040
-0.267949192430519
1040
33.66699999997093
1040
1.468369700497703
1040
-0.267949192431809
1040
33.08199999996839
1040
2.481619422926997
1040
0.0
1040
33.08199999996839
1040
8.763099999991255
1040
0.0
1040
31.64199999996833
1040
8.763099999991255
1040
0.0
1071
        0
1070
     0
1070
     1
1040
0.0
1040
0.15
1070
     0
1070
     2
1040
0.7853981633974483
1040
49.29960901727088
1040
-10.17736998311392
1040
-0.3367596045400932
1040
0.3367596045400932
1070
     0
1040
2.356194490192345
1040
49.29960901727088
1040
-10.17736998311392
1040
-0.3367596045400932
1040
-0.3367596045400932
1070
     0
1040
0.0110235143455945
1071
        1
1040
32.30357378967278
1040
3.988785755459219
1040
0.0
1002
}
  0
INSERT
  5
2035D
330
20316
100
AcDbEntity
  8
0
100
AcDbBlockReference
  2
*X131
 10
0.0
 20
0.0
 30
0.0
1001
ACAD
1000
HATCH
1002
{
1070
    19
1000
ANSI37
1040
0.15
1040
0.0
1000
ASC_BOUNDS
1070
     1
1070
     2
1070
     8
1005
2033E
1005
20341
1005
20345
1005
20344
1005
20343
1005
20340
1005
20342
1005
2033F
1000
ASC_SEEDPOINT
1011
39.74896370716704
1021
4.484843821435049
1031
0.0
1000
R14_HATCH_DATA
1000
2035D
1011
1.0
1021
0.0
1031
0.0
1011
0.0
1021
1.0
1031
0.0
1011
0.0
1021
0.0
1031
1.0
1040
0.0
1010
0.0
1020
0.0
1030
1.0
1000
ANSI37
1070
     0
1070
     1
1071
        1
1071
        7
1070
     0
1070
     1
1071
        9
1040
40.02599999995994
1040
5.341799999994635
1040
44.99999999995498
1040
-0.2368999999997641
1040
44.99999999995498
1040
8.763099999991255
1040
43.57899999995641
1040
8.763099999991255
1040
43.57899999995641
1040
3.421199999996588
1040
38.60499999996136
1040
8.999899999990987
1040
38.60499999996136
1040
8.999999999991019
1040
38.60499999996136
1040
0.0
1040
40.02599999995994
1040
0.0
1071
        8
1005
2033E
1005
20341
1005
20345
1005
20344
1005
20343
1005
20340
1005
20342
1005
2033F
1070
     0
1070
     1
1040
0.0
1040
0.15
1070
     0
1070
     2
1040
0.7853981633974483
1040
49.29960901727088
1040
-10.17736998311392
1040
-0.3367596045400932
1040
0.3367596045400932
1070
     0
1040
2.356194490192345
1040
49.29960901727088
1040
-10.17736998311392
1040
-0.3367596045400932
1040
-0.3367596045400932
1070
     0
1040
0.0110235143455945
1071
        1
1040
39.74896370716704
1040
4.484843821435049
1040
0.0
1002
}
  0
INSERT
  5
2035E
330
20316
100
AcDbEntity
  8
0
100
AcDbBlockReference
  2
*X132
 10
0.0
 20
0.0
 30
0.0
1001
ACAD
1000
HATCH
1002
{
1070
    19
1000
ANSI37
1040
0.15
1040
0.0
1000
ASC_BOUNDS
1070
     1
1070
     2
1070
     4
1005
20322
1005
20331
1005
20323
1005
20325
1000
ASC_SEEDPOINT
1011
1.079051535452663
1021
4.148538732891836
1031
0.0
1000
R14_HATCH_DATA
1000
2035E
1011
1.0
1021
0.0
1031
0.0
1011
0.0
1021
1.0
1031
0.0
1011
0.0
1021
0.0
1031
1.0
1040
0.0
1010
0.0
1020
0.0
1030
1.0
1000
ANSI37
1070
     0
1070
     1
1071
        1
1071
        7
1070
     0
1070
     1
1071
        4
1040
1.420999999998571
1040
0.0
1040
1.420999999998571
1040
8.763099999991255
1040
0.0
1040
8.763099999991255
1040
0.0
1040
0.0
1071
        4
1005
20322
1005
20331
1005
20323
1005
20325
1070
     0
1070
     1
1040
0.0
1040
0.15
1070
     0
1070
     2
1040
0.7853981633974483
1040
49.29960901727088
1040
-10.17736998311392
1040
-0.3367596045400932
1040
0.3367596045400932
1070
     0
1040
2.356194490192345
1040
49.29960901727088
1040
-10.17736998311392
1040
-0.3367596045400932
1040
-0.3367596045400932
1070
     0
1040
0.0053004257112761
1071
        1
1040
1.079051535452663
1040
4.148538732891836
1040
0.0
1002
}
  0
ENDBLK
  5
20A16
330
20316
100
AcDbEntity
  8
0
100
AcDbBlockEnd
  0
BLOCK
  5
21DF0
330
21C62
100
AcDbEntity
  8
0
100
AcDbBlockBegin
  2
*X127
 70
     1
 10
0.0
 20
0.0
 30
0.0
  3
*X127
  1

  0
LINE
  5
21C63
330
21C62
100
AcDbEntity
  8
0
  6
CONTINUOUS
100
AcDbLine
 10
3.418023043697893
 20
7.251849696850613
 30
0.0
 11
4.929273346838536
 21
8.763099999991255
 31
0.0
  0
LINE
  5
21C64
330
21C62
100
AcDbEntity
  8
0
  6
CONTINUOUS
100
AcDbLine
 10
1.483656411257782
 20
4.643963855330318
 30
0.0
 11
5.60279255591872
 21
8.763099999991255
 31
0.0
  0
LINE
  5
21C65
330
21C62
100
AcDbEntity
  8
0
  6
CONTINUOUS
100
AcDbLine
 10
1.755053947328235
 20
4.241842182320584
 30
0.0
 11
6.276311764998907
 21
8.763099999991255
 31
0.0
  0
LINE
  5
21C66
330
21C62
100
AcDbEntity
  8
0
  6
CONTINUOUS
100
AcDbLine
 10
2.026451483398688
 20
3.839720509310849
 30
0.0
 11
4.441040904851878
 21
6.254309930764039
 31
0.0
  0
LINE
  5
21C67
330
21C62
100
AcDbEntity
  8
0
  6
CONTINUOUS
100
AcDbLine
 10
2.297849019469139
 20
3.437598836301114
 30
0.0
 11
3.321765168359338
 21
4.461514985191313
 31
0.0
  0
LINE
  5
21C68
330
21C62
100
AcDbEntity
  8
0
  6
CONTINUOUS
100
AcDbLine
 10
2.569246555539591
 20
3.03547716329138
 30
0.0
 11
3.593163397972743
 21
4.059394005724531
 31
0.0
  0
LINE
  5
21C69
330
21C62
100
AcDbEntity
  8
0
  6
CONTINUOUS
100
AcDbLine
 10
2.840644091610043
 20
2.633355490281646
 30
0.0
 11
3.864561627586149
 21
3.657273026257751
 31
0.0
  0
LINE
  5
21C6A
330
21C62
100
AcDbEntity
  8
0
  6
CONTINUOUS
100
AcDbLine
 10
3.112041627680496
 20
2.231233817271911
 30
0.0
 11
4.135959857199554
 21
3.25515204679097
 31
0.0
  0
LINE
  5
21C6B
330
21C62
100
AcDbEntity
  8
0
  6
CONTINUOUS
100
AcDbLine
 10
3.383439163750948
 20
1.829112144262177
 30
0.0
 11
4.40735808681296
 21
2.853031067324189
 31
0.0
  0
LINE
  5
21C6C
330
21C62
100
AcDbEntity
  8
0
  6
CONTINUOUS
100
AcDbLine
 10
3.654836699821399
 20
1.426990471252442
 30
0.0
 11
4.678756316426365
 21
2.450910087857407
 31
0.0
  0
LINE
  5
21C6D
330
21C62
100
AcDbEntity
  8
0
  6
CONTINUOUS
100
AcDbLine
 10
3.926234235891853
 20
1.024868798242709
 30
0.0
 11
4.95015454603977
 21
2.048789108390626
 31
0.0
  0
LINE
  5
21C6E
330
21C62
100
AcDbEntity
  8
0
  6
CONTINUOUS
100
AcDbLine
 10
4.197631771962304
 20
0.6227471252329737
 30
0.0
 11
5.221552775653176
 21
1.646668128923846
 31
0.0
  0
LINE
  5
21C6F
330
21C62
100
AcDbEntity
  8
0
  6
CONTINUOUS
100
AcDbLine
 10
8.715877546767851
 20
7.835069736359266
 30
0.0
 11
9.435953450375058
 21
8.555145639966472
 31
0.0
  0
LINE
  5
21C70
330
21C62
100
AcDbEntity
  8
0
  6
CONTINUOUS
100
AcDbLine
 10
8.170620868422267
 20
6.616293848933497
 30
0.0
 11
9.644120833743461
 21
8.08979381425469
 31
0.0
  0
LINE
  5
21C71
330
21C62
100
AcDbEntity
  8
0
  6
CONTINUOUS
100
AcDbLine
 10
7.625364190076684
 20
5.397517961507727
 30
0.0
 11
9.852288217111864
 21
7.624441988542907
 31
0.0
  0
LINE
  5
21C72
330
21C62
100
AcDbEntity
  8
0
  6
CONTINUOUS
100
AcDbLine
 10
7.080107511731101
 20
4.178742074081957
 30
0.0
 11
10.06045560048027
 21
7.159090162831124
 31
0.0
  0
LINE
  5
21C73
330
21C62
100
AcDbEntity
  8
0
  6
CONTINUOUS
100
AcDbLine
 10
6.534850833385518
 20
2.959966186656187
 30
0.0
 11
10.26862298384867
 21
6.693738337119342
 31
0.0
  0
LINE
  5
21C74
330
21C62
100
AcDbEntity
  8
0
  6
CONTINUOUS
100
AcDbLine
 10
4.469029308032756
 20
0.2206254522232385
 30
0.0
 11
5.492951005266582
 21
1.244547149457064
 31
0.0
  0
LINE
  5
21C75
330
21C62
100
AcDbEntity
  8
0
  6
CONTINUOUS
100
AcDbLine
 10
5.989594155039935
 20
1.741190299230417
 30
0.0
 11
8.806950407233131
 21
4.558546551423613
 31
0.0
  0
LINE
  5
21C76
330
21C62
100
AcDbEntity
  8
0
  6
CONTINUOUS
100
AcDbLine
 10
9.401251593263643
 20
5.152847737454126
 30
0.0
 11
10.47679036721708
 21
6.228386511407559
 31
0.0
  0
LINE
  5
21C77
330
21C62
100
AcDbEntity
  8
0
  6
CONTINUOUS
100
AcDbLine
 10
4.921837203428691
 20
-0.0000858614610131
 30
0.0
 11
8.592923064886001
 21
3.670999999996297
 31
0.0
  0
LINE
  5
21C78
330
21C62
100
AcDbEntity
  8
0
  6
CONTINUOUS
100
AcDbLine
 10
9.609390446785305
 20
4.6874673818956
 30
0.0
 11
10.68495775058548
 21
5.763034685695775
 31
0.0
  0
LINE
  5
21C79
330
21C62
100
AcDbEntity
  8
0
  6
CONTINUOUS
100
AcDbLine
 10
5.595387755019432
 20
-0.0000545189504582
 30
0.0
 11
7.716137258923768
 21
2.120694984953879
 31
0.0
  0
LINE
  5
21C7A
330
21C62
100
AcDbEntity
  8
0
  6
CONTINUOUS
100
AcDbLine
 10
6.268938306610172
 20
-0.000023176439905
 30
0.0
 11
7.170485805526503
 21
0.9015243224764267
 31
0.0
  0
LINE
  5
21C7B
330
21C62
100
AcDbEntity
  8
0
  6
CONTINUOUS
100
AcDbLine
 10
7.963842273967511
 20
2.368399999997621
 30
0.0
 11
9.266442273966188
 21
3.670999999996297
 31
0.0
  0
LINE
  5
21C7C
330
21C62
100
AcDbEntity
  8
0
  6
CONTINUOUS
100
AcDbLine
 10
8.637361483047696
 20
2.368399999997621
 30
0.0
 11
9.939961483046375
 21
3.670999999996297
 31
0.0
  0
LINE
  5
21C7D
330
21C62
100
AcDbEntity
  8
0
  6
CONTINUOUS
100
AcDbLine
 10
9.817529300306965
 20
4.222087026337075
 30
0.0
 11
10.89312513395388
 21
5.297682859983993
 31
0.0
  0
LINE
  5
21C7E
330
21C62
100
AcDbEntity
  8
0
  6
CONTINUOUS
100
AcDbLine
 10
10.02566815382863
 20
3.756706670778549
 30
0.0
 11
11.10129251732229
 21
4.832331034272211
 31
0.0
  0
LINE
  5
21C7F
330
21C62
100
AcDbEntity
  8
0
  6
CONTINUOUS
100
AcDbLine
 10
9.310880692127883
 20
2.368399999997621
 30
0.0
 11
11.30945990069069
 21
4.366979208560428
 31
0.0
  0
LINE
  5
21C80
330
21C62
100
AcDbEntity
  8
0
  6
CONTINUOUS
100
AcDbLine
 10
9.98439990120807
 20
2.36839999999762
 30
0.0
 11
11.5176272840591
 21
3.901627382848645
 31
0.0
  0
LINE
  5
21C81
330
21C62
100
AcDbEntity
  8
0
  6
CONTINUOUS
100
AcDbLine
 10
10.65037369446246
 20
2.36085458417182
 30
0.0
 11
11.7257946674275
 21
3.436275557136862
 31
0.0
  0
LINE
  5
21C82
330
21C62
100
AcDbEntity
  8
0
  6
CONTINUOUS
100
AcDbLine
 10
10.85847197087848
 20
1.895433651507656
 30
0.0
 11
11.9339620507959
 21
2.97092373142508
 31
0.0
  0
LINE
  5
21C83
330
21C62
100
AcDbEntity
  8
0
  6
CONTINUOUS
100
AcDbLine
 10
11.0665702472945
 20
1.430012718843491
 30
0.0
 11
12.14212943416431
 21
2.505571905713296
 31
0.0
  0
LINE
  5
21C84
330
21C62
100
AcDbEntity
  8
0
  6
CONTINUOUS
100
AcDbLine
 10
11.27466852371052
 20
0.9645917861793256
 30
0.0
 11
12.35029681753271
 21
2.040220080001513
 31
0.0
  0
LINE
  5
21C85
330
21C62
100
AcDbEntity
  8
0
  6
CONTINUOUS
100
AcDbLine
 10
11.48276680012654
 20
0.4991708535151611
 30
0.0
 11
12.55846420090111
 21
1.57486825428973
 31
0.0
  0
LINE
  5
21C86
330
21C62
100
AcDbEntity
  8
0
  6
CONTINUOUS
100
AcDbLine
 10
11.69086507654257
 20
0.0337499208509957
 30
0.0
 11
12.76663158426952
 21
1.109516428577947
 31
0.0
  0
LINE
  5
21C87
330
21C62
100
AcDbEntity
  8
0
  6
CONTINUOUS
100
AcDbLine
 10
12.33057447873954
 20
-0.0000598860322123
 30
0.0
 11
12.97479896763792
 21
0.6441646028661663
 31
0.0
  0
LINE
  5
21C88
330
21C62
100
AcDbEntity
  8
0
  6
CONTINUOUS
100
AcDbLine
 10
13.00413694809395
 20
-0.0000166257579952
 30
0.0
 11
13.18296635100632
 21
0.1788127771543824
 31
0.0
  0
LINE
  5
21C89
330
21C62
100
AcDbEntity
  8
0
  6
CONTINUOUS
100
AcDbLine
 10
4.772852165289667
 20
-0.000092794222212
 30
0.0
 11
4.296495091028902
 21
0.4762642800385528
 31
0.0
  0
LINE
  5
21C8A
330
21C62
100
AcDbEntity
  8
0
  6
CONTINUOUS
100
AcDbLine
 10
5.446340034776103
 20
-0.0000614546284616
 30
0.0
 11
2.898195908335625
 21
2.548082671812017
 31
0.0
  0
LINE
  5
21C8B
330
21C62
100
AcDbEntity
  8
0
  6
CONTINUOUS
100
AcDbLine
 10
6.119827904262539
 20
-0.0000301150347113
 30
0.0
 11
1.499896725642348
 21
4.61990106358548
 31
0.0
  0
LINE
  5
21C8C
330
21C62
100
AcDbEntity
  8
0
  6
CONTINUOUS
100
AcDbLine
 10
6.775136745476159
 20
0.0181802528318542
 30
0.0
 11
5.699826040202669
 21
1.093490958105344
 31
0.0
  0
LINE
  5
21C8D
330
21C62
100
AcDbEntity
  8
0
  6
CONTINUOUS
100
AcDbLine
 10
6.983376846288489
 20
0.4834593610997118
 30
0.0
 11
5.908008617934405
 21
1.558827589453796
 31
0.0
  0
LINE
  5
21C8E
330
21C62
100
AcDbEntity
  8
0
  6
CONTINUOUS
100
AcDbLine
 10
5.377063484962296
 20
1.416253513345719
 30
0.0
 11
1.702276957014131
 21
5.091040041293883
 31
0.0
  0
LINE
  5
21C8F
330
21C62
100
AcDbEntity
  8
0
  6
CONTINUOUS
100
AcDbLine
 10
3.978745891735324
 20
3.488090315652877
 30
0.0
 11
2.000373521109399
 21
5.466462686278803
 31
0.0
  0
LINE
  5
21C90
330
21C62
100
AcDbEntity
  8
0
  6
CONTINUOUS
100
AcDbLine
 10
7.191616947100819
 20
0.948738469367568
 30
0.0
 11
6.11619119566614
 21
2.024164220802247
 31
0.0
  0
LINE
  5
21C91
330
21C62
100
AcDbEntity
  8
0
  6
CONTINUOUS
100
AcDbLine
 10
7.399857047913149
 20
1.414017577635424
 30
0.0
 11
6.324373773397875
 21
2.489500852150698
 31
0.0
  0
LINE
  5
21C92
330
21C62
100
AcDbEntity
  8
0
  6
CONTINUOUS
100
AcDbLine
 10
7.608097148725479
 20
1.879296685903281
 30
0.0
 11
6.53255635112961
 21
2.95483748349915
 31
0.0
  0
LINE
  5
21C93
330
21C62
100
AcDbEntity
  8
0
  6
CONTINUOUS
100
AcDbLine
 10
7.816337249537808
 20
2.344575794171138
 30
0.0
 11
6.740738928861345
 21
3.420174114847601
 31
0.0
  0
LINE
  5
21C94
330
21C62
100
AcDbEntity
  8
0
  6
CONTINUOUS
100
AcDbLine
 10
3.310241080789734
 20
4.830114335678653
 30
0.0
 11
2.298470085204666
 21
5.84188533126372
 31
0.0
  0
LINE
  5
21C95
330
21C62
100
AcDbEntity
  8
0
  6
CONTINUOUS
100
AcDbLine
 10
3.60832983563551
 20
5.205544789913063
 30
0.0
 11
2.596566649299935
 21
6.217307976248638
 31
0.0
  0
LINE
  5
21C96
330
21C62
100
AcDbEntity
  8
0
  6
CONTINUOUS
100
AcDbLine
 10
3.906418590481286
 20
5.580975244147473
 30
0.0
 11
2.894663213395203
 21
6.592730621233557
 31
0.0
  0
LINE
  5
21C97
330
21C62
100
AcDbEntity
  8
0
  6
CONTINUOUS
100
AcDbLine
 10
4.204507345327062
 20
5.956405698381884
 30
0.0
 11
3.192759777490472
 21
6.968153266218474
 31
0.0
  0
LINE
  5
21C98
330
21C62
100
AcDbEntity
  8
0
  6
CONTINUOUS
100
AcDbLine
 10
8.466032252791512
 20
2.368399999997621
 30
0.0
 11
6.948921506593081
 21
3.885510746196053
 31
0.0
  0
LINE
  5
21C99
330
21C62
100
AcDbEntity
  8
0
  6
CONTINUOUS
100
AcDbLine
 10
9.139551461871699
 20
2.36839999999762
 30
0.0
 11
7.157104084324816
 21
4.350847377544504
 31
0.0
  0
LINE
  5
21C9A
330
21C62
100
AcDbEntity
  8
0
  6
CONTINUOUS
100
AcDbLine
 10
4.502596100172839
 20
6.331836152616295
 30
0.0
 11
3.49085634158574
 21
7.343575911203393
 31
0.0
  0
LINE
  5
21C9B
330
21C62
100
AcDbEntity
  8
0
  6
CONTINUOUS
100
AcDbLine
 10
4.800684855018615
 20
6.707266606850705
 30
0.0
 11
3.788952905681008
 21
7.718998556188312
 31
0.0
  0
LINE
  5
21C9C
330
21C62
100
AcDbEntity
  8
0
  6
CONTINUOUS
100
AcDbLine
 10
12.18154012887317
 20
-0.0000694579236642
 30
0.0
 11
11.32140332908496
 21
0.8600673418645499
 31
0.0
  0
LINE
  5
21C9D
330
21C62
100
AcDbEntity
  8
0
  6
CONTINUOUS
100
AcDbLine
 10
12.85501608323566
 20
-0.0000262032059659
 30
0.0
 11
10.77672456435345
 21
2.078265315676246
 31
0.0
  0
LINE
  5
21C9E
330
21C62
100
AcDbEntity
  8
0
  6
CONTINUOUS
100
AcDbLine
 10
9.813070670951886
 20
2.36839999999762
 30
0.0
 11
8.51047067095321
 21
3.670999999996297
 31
0.0
  0
LINE
  5
21C9F
330
21C62
100
AcDbEntity
  8
0
  6
CONTINUOUS
100
AcDbLine
 10
10.48658988003207
 20
2.36839999999762
 30
0.0
 11
9.183989880033396
 21
3.670999999996297
 31
0.0
  0
LINE
  5
21CA0
330
21C62
100
AcDbEntity
  8
0
  6
CONTINUOUS
100
AcDbLine
 10
8.441048632286794
 20
3.740422038662712
 30
0.0
 11
7.365286662056551
 21
4.816184008892956
 31
0.0
  0
LINE
  5
21CA1
330
21C62
100
AcDbEntity
  8
0
  6
CONTINUOUS
100
AcDbLine
 10
8.649187485808454
 20
4.205802394221237
 30
0.0
 11
7.573469239788285
 21
5.281520640241407
 31
0.0
  0
LINE
  5
21CA2
330
21C62
100
AcDbEntity
  8
0
  6
CONTINUOUS
100
AcDbLine
 10
5.098773609864391
 20
7.082697061085115
 30
0.0
 11
4.087049469776277
 21
8.09442120117323
 31
0.0
  0
LINE
  5
21CA3
330
21C62
100
AcDbEntity
  8
0
  6
CONTINUOUS
100
AcDbLine
 10
5.396862364710167
 20
7.458127515319526
 30
0.0
 11
4.385146033871544
 21
8.469843846158149
 31
0.0
  0
LINE
  5
21CA4
330
21C62
100
AcDbEntity
  8
0
  6
CONTINUOUS
100
AcDbLine
 10
13.04801363231285
 20
0.4804954567970334
 30
0.0
 11
9.85750908911358
 21
3.670999999996297
 31
0.0
  0
LINE
  5
21CA5
330
21C62
100
AcDbEntity
  8
0
  6
CONTINUOUS
100
AcDbLine
 10
8.857326339330116
 20
4.671182749779763
 30
0.0
 11
7.781651817520021
 21
5.746857271589858
 31
0.0
  0
LINE
  5
21CA6
330
21C62
100
AcDbEntity
  8
0
  6
CONTINUOUS
100
AcDbLine
 10
5.694951119555943
 20
7.833557969553937
 30
0.0
 11
4.765409089118624
 21
8.763099999991255
 31
0.0
  0
LINE
  5
21CA7
330
21C62
100
AcDbEntity
  8
0
  6
CONTINUOUS
100
AcDbLine
 10
12.50286117236978
 20
1.699167125820288
 30
0.0
 11
9.68611877250287
 21
4.515909525687196
 31
0.0
  0
LINE
  5
21CA8
330
21C62
100
AcDbEntity
  8
0
  6
CONTINUOUS
100
AcDbLine
 10
9.065465192851777
 20
5.136563105338288
 30
0.0
 11
7.989834395251757
 21
6.21219390293831
 31
0.0
  0
LINE
  5
21CA9
330
21C62
100
AcDbEntity
  8
0
  6
CONTINUOUS
100
AcDbLine
 10
5.993039874401719
 20
8.208988423788346
 30
0.0
 11
5.43892829819881
 21
8.763099999991255
 31
0.0
  0
LINE
  5
21CAA
330
21C62
100
AcDbEntity
  8
0
  6
CONTINUOUS
100
AcDbLine
 10
11.95770871242671
 20
2.917838794843543
 30
0.0
 11
8.19801697298349
 21
6.677530534286761
 31
0.0
  0
LINE
  5
21CAB
330
21C62
100
AcDbEntity
  8
0
  6
CONTINUOUS
100
AcDbLine
 10
6.291128629247495
 20
8.584418878022756
 30
0.0
 11
6.112447507278997
 21
8.763099999991255
 31
0.0
  0
LINE
  5
21CAC
330
21C62
100
AcDbEntity
  8
0
  6
CONTINUOUS
100
AcDbLine
 10
11.41255625248364
 20
4.136510463866797
 30
0.0
 11
8.406199550715227
 21
7.142867165635211
 31
0.0
  0
LINE
  5
21CAD
330
21C62
100
AcDbEntity
  8
0
  6
CONTINUOUS
100
AcDbLine
 10
10.86740379254057
 20
5.355182132890051
 30
0.0
 11
8.614382128446962
 21
7.608203796983664
 31
0.0
  0
LINE
  5
21CAE
330
21C62
100
AcDbEntity
  8
0
  6
CONTINUOUS
100
AcDbLine
 10
10.3222513325975
 20
6.573853801913305
 30
0.0
 11
8.822564706178696
 21
8.073540428332114
 31
0.0
  0
LINE
  5
21CAF
330
21C62
100
AcDbEntity
  8
0
  6
CONTINUOUS
100
AcDbLine
 10
9.777098872654436
 20
7.792525470936562
 30
0.0
 11
9.030747283910433
 21
8.538877059680566
 31
0.0
  0
ENDBLK
  5
21DF1
330
21C62
100
AcDbEntity
  8
0
100
AcDbBlockEnd
  0
BLOCK
  5
21DF2
330
21CB0
100
AcDbEntity
  8
0
100
AcDbBlockBegin
  2
*X128
 70
     1
 10
0.0
 20
0.0
 30
0.0
  3
*X128
  1

  0
LINE
  5
21CB1
330
21CB0
100
AcDbEntity
  8
0
  6
CONTINUOUS
100
AcDbLine
 10
10.67292308101235
 20
8.445076852443387
 30
0.0
 11
10.99094622856022
 21
8.763099999991255
 31
0.0
  0
LINE
  5
21CB2
330
21CB0
100
AcDbEntity
  8
0
  6
CONTINUOUS
100
AcDbLine
 10
10.87250383178748
 20
7.971138394138331
 30
0.0
 11
11.6644654376404
 21
8.763099999991255
 31
0.0
  0
LINE
  5
21CB3
330
21CB0
100
AcDbEntity
  8
0
  6
CONTINUOUS
100
AcDbLine
 10
11.07208458256261
 20
7.497199935833273
 30
0.0
 11
12.12126590876355
 21
8.546381262034211
 31
0.0
  0
LINE
  5
21CB4
330
21CB0
100
AcDbEntity
  8
0
  6
CONTINUOUS
100
AcDbLine
 10
11.27166533333774
 20
7.023261477528216
 30
0.0
 11
12.32085164573666
 21
8.072447789927136
 31
0.0
  0
LINE
  5
21CB5
330
21CB0
100
AcDbEntity
  8
0
  6
CONTINUOUS
100
AcDbLine
 10
11.47124608411287
 20
6.549323019223158
 30
0.0
 11
12.52043738270977
 21
7.59851431782006
 31
0.0
  0
LINE
  5
21CB6
330
21CB0
100
AcDbEntity
  8
0
  6
CONTINUOUS
100
AcDbLine
 10
11.670826834888
 20
6.075384560918101
 30
0.0
 11
12.72002311968288
 21
7.124580845712984
 31
0.0
  0
LINE
  5
21CB7
330
21CB0
100
AcDbEntity
  8
0
  6
CONTINUOUS
100
AcDbLine
 10
11.87040758566313
 20
5.601446102613043
 30
0.0
 11
12.91960885665599
 21
6.650647373605907
 31
0.0
  0
LINE
  5
21CB8
330
21CB0
100
AcDbEntity
  8
0
  6
CONTINUOUS
100
AcDbLine
 10
12.06998833643825
 20
5.127507644307986
 30
0.0
 11
13.1191945936291
 21
6.176713901498832
 31
0.0
  0
LINE
  5
21CB9
330
21CB0
100
AcDbEntity
  8
0
  6
CONTINUOUS
100
AcDbLine
 10
12.26956908721338
 20
4.65356918600293
 30
0.0
 11
13.31878033060221
 21
5.702780429391757
 31
0.0
  0
LINE
  5
21CBA
330
21CB0
100
AcDbEntity
  8
0
  6
CONTINUOUS
100
AcDbLine
 10
12.46914983798851
 20
4.179630727697873
 30
0.0
 11
13.51836606757532
 21
5.228846957284683
 31
0.0
  0
LINE
  5
21CBB
330
21CB0
100
AcDbEntity
  8
0
  6
CONTINUOUS
100
AcDbLine
 10
12.66873058876364
 20
3.705692269392816
 30
0.0
 11
13.71795180454843
 21
4.754913485177607
 31
0.0
  0
LINE
  5
21CBC
330
21CB0
100
AcDbEntity
  8
0
  6
CONTINUOUS
100
AcDbLine
 10
12.86831133953877
 20
3.231753811087759
 30
0.0
 11
13.91753754152154
 21
4.280980013070531
 31
0.0
  0
LINE
  5
21CBD
330
21CB0
100
AcDbEntity
  8
0
  6
CONTINUOUS
100
AcDbLine
 10
13.0678920903139
 20
2.757815352782702
 30
0.0
 11
14.11712327849465
 21
3.807046540963456
 31
0.0
  0
LINE
  5
21CBE
330
21CB0
100
AcDbEntity
  8
0
  6
CONTINUOUS
100
AcDbLine
 10
13.26747284108903
 20
2.283876894477644
 30
0.0
 11
14.31670901546777
 21
3.333113068856379
 31
0.0
  0
LINE
  5
21CBF
330
21CB0
100
AcDbEntity
  8
0
  6
CONTINUOUS
100
AcDbLine
 10
16.36767838827179
 20
8.751678487061342
 30
0.0
 11
16.50332410898388
 21
8.887324207773432
 31
0.0
  0
LINE
  5
21CC0
330
21CB0
100
AcDbEntity
  8
0
  6
CONTINUOUS
100
AcDbLine
 10
15.96190732182191
 20
7.67238821153127
 30
0.0
 11
16.68735328004734
 21
8.397834169756699
 31
0.0
  0
LINE
  5
21CC1
330
21CB0
100
AcDbEntity
  8
0
  6
CONTINUOUS
100
AcDbLine
 10
15.55613625537202
 20
6.593097936001196
 30
0.0
 11
16.87138245111079
 21
7.908344131739965
 31
0.0
  0
LINE
  5
21CC2
330
21CB0
100
AcDbEntity
  8
0
  6
CONTINUOUS
100
AcDbLine
 10
15.15036518892213
 20
5.513807660471122
 30
0.0
 11
17.05541162217424
 21
7.418854093723231
 31
0.0
  0
LINE
  5
21CC3
330
21CB0
100
AcDbEntity
  8
0
  6
CONTINUOUS
100
AcDbLine
 10
14.74459412247225
 20
4.434517384941048
 30
0.0
 11
17.2394407932377
 21
6.929364055706499
 31
0.0
  0
LINE
  5
21CC4
330
21CB0
100
AcDbEntity
  8
0
  6
CONTINUOUS
100
AcDbLine
 10
14.33882305602236
 20
3.355227109410975
 30
0.0
 11
17.42346996430115
 21
6.439874017689766
 31
0.0
  0
LINE
  5
21CC5
330
21CB0
100
AcDbEntity
  8
0
  6
CONTINUOUS
100
AcDbLine
 10
13.46705359186416
 20
1.809938436172586
 30
0.0
 11
16.0819338255367
 21
4.424818669845129
 31
0.0
  0
LINE
  5
21CC6
330
21CB0
100
AcDbEntity
  8
0
  6
CONTINUOUS
100
AcDbLine
 10
16.63283254238972
 20
4.975717386698149
 30
0.0
 11
17.60749913536461
 21
5.950383979673033
 31
0.0
  0
LINE
  5
21CC7
330
21CB0
100
AcDbEntity
  8
0
  6
CONTINUOUS
100
AcDbLine
 10
13.66663434263929
 20
1.335999977867529
 30
0.0
 11
15.67604797733754
 21
3.345413612565779
 31
0.0
  0
LINE
  5
21CC8
330
21CB0
100
AcDbEntity
  8
0
  6
CONTINUOUS
100
AcDbLine
 10
13.86621509341442
 20
0.8620615195624723
 30
0.0
 11
15.27016212913838
 21
2.26600855528643
 31
0.0
  0
LINE
  5
21CC9
330
21CB0
100
AcDbEntity
  8
0
  6
CONTINUOUS
100
AcDbLine
 10
16.81682257348267
 20
4.486188208710908
 30
0.0
 11
17.79152830642806
 21
5.460893941656299
 31
0.0
  0
LINE
  5
21CCA
330
21CB0
100
AcDbEntity
  8
0
  6
CONTINUOUS
100
AcDbLine
 10
17.00081260457561
 20
3.996659030723667
 30
0.0
 11
17.97555747749151
 21
4.971403903639565
 31
0.0
  0
LINE
  5
21CCB
330
21CB0
100
AcDbEntity
  8
0
  6
CONTINUOUS
100
AcDbLine
 10
20.74362343514722
 20
8.412989070375462
 30
0.0
 11
21.09373436476302
 21
8.763099999991256
 31
0.0
  0
LINE
  5
21CCC
330
21CB0
100
AcDbEntity
  8
0
  6
CONTINUOUS
100
AcDbLine
 10
20.25401257174777
 20
7.249858997895826
 30
0.0
 11
21.7672535738432
 21
8.763099999991255
 31
0.0
  0
LINE
  5
21CCD
330
21CB0
100
AcDbEntity
  8
0
  6
CONTINUOUS
100
AcDbLine
 10
14.06579584418955
 20
0.3881230612574149
 30
0.0
 11
14.86427628093921
 21
1.186603498007082
 31
0.0
  0
LINE
  5
21CCE
330
21CB0
100
AcDbEntity
  8
0
  6
CONTINUOUS
100
AcDbLine
 10
14.26537659496467
 20
-0.0858153970476412
 30
0.0
 11
14.45839043274005
 21
0.1071984407277329
 31
0.0
  0
LINE
  5
21CCF
330
21CB0
100
AcDbEntity
  8
0
  6
CONTINUOUS
100
AcDbLine
 10
17.18480263566856
 20
3.507129852736426
 30
0.0
 11
18.15958664855496
 21
4.481913865622833
 31
0.0
  0
LINE
  5
21CD0
330
21CB0
100
AcDbEntity
  8
0
  6
CONTINUOUS
100
AcDbLine
 10
17.3687926667615
 20
3.017600674749186
 30
0.0
 11
18.34361581961842
 21
3.9924238276061
 31
0.0
  0
LINE
  5
21CD1
330
21CB0
100
AcDbEntity
  8
0
  6
CONTINUOUS
100
AcDbLine
 10
19.76440170834832
 20
6.086728925416191
 30
0.0
 11
22.33924590259489
 21
8.661573119662755
 31
0.0
  0
LINE
  5
21CD2
330
21CB0
100
AcDbEntity
  8
0
  6
CONTINUOUS
100
AcDbLine
 10
19.27479084494887
 20
4.923598852936555
 30
0.0
 11
21.84929622842713
 21
7.498104236414807
 31
0.0
  0
LINE
  5
21CD3
330
21CB0
100
AcDbEntity
  8
0
  6
CONTINUOUS
100
AcDbLine
 10
17.55278269785445
 20
2.528071496761945
 30
0.0
 11
18.52764499068187
 21
3.502933789589366
 31
0.0
  0
LINE
  5
21CD4
330
21CB0
100
AcDbEntity
  8
0
  6
CONTINUOUS
100
AcDbLine
 10
18.78517998154942
 20
3.760468780456919
 30
0.0
 11
21.35934655425936
 21
6.33463535316686
 31
0.0
  0
LINE
  5
21CD5
330
21CB0
100
AcDbEntity
  8
0
  6
CONTINUOUS
100
AcDbLine
 10
17.73677272894739
 20
2.038542318774704
 30
0.0
 11
20.8693968800916
 21
5.171166469918914
 31
0.0
  0
LINE
  5
21CD6
330
21CB0
100
AcDbEntity
  8
0
  6
CONTINUOUS
100
AcDbLine
 10
17.92076276004034
 20
1.549013140787464
 30
0.0
 11
20.37944720592384
 21
4.007697586670968
 31
0.0
  0
LINE
  5
21CD7
330
21CB0
100
AcDbEntity
  8
0
  6
CONTINUOUS
100
AcDbLine
 10
18.10475279113329
 20
1.059483962800223
 30
0.0
 11
19.88949753175608
 21
2.84422870342302
 31
0.0
  0
LINE
  5
21CD8
330
21CB0
100
AcDbEntity
  8
0
  6
CONTINUOUS
100
AcDbLine
 10
18.28874282222623
 20
0.5699547848129822
 30
0.0
 11
19.39954785758832
 21
1.680759820175074
 31
0.0
  0
LINE
  5
21CD9
330
21CB0
100
AcDbEntity
  8
0
  6
CONTINUOUS
100
AcDbLine
 10
18.47273285331918
 20
0.0804256068257416
 30
0.0
 11
18.90959818342056
 21
0.517290936927127
 31
0.0
  0
LINE
  5
21CDA
330
21CB0
100
AcDbEntity
  8
0
  6
CONTINUOUS
100
AcDbLine
 10
14.3590401358224
 20
-0.1570118376323384
 30
0.0
 11
14.24903296539946
 21
-0.0470046672093929
 31
0.0
  0
LINE
  5
21CDB
330
21CB0
100
AcDbEntity
  8
0
  6
CONTINUOUS
100
AcDbLine
 10
14.54309291258661
 20
0.332454594683643
 30
0.0
 11
13.75908329123172
 21
1.116464216038529
 31
0.0
  0
LINE
  5
21CDC
330
21CB0
100
AcDbEntity
  8
0
  6
CONTINUOUS
100
AcDbLine
 10
14.72714568935081
 20
0.8219210269996244
 30
0.0
 11
13.26913361706399
 21
2.27993309928645
 31
0.0
  0
LINE
  5
21CDD
330
21CB0
100
AcDbEntity
  8
0
  6
CONTINUOUS
100
AcDbLine
 10
14.91119846611502
 20
1.311387459315606
 30
0.0
 11
12.77918394289625
 21
3.443401982534371
 31
0.0
  0
LINE
  5
21CDE
330
21CB0
100
AcDbEntity
  8
0
  6
CONTINUOUS
100
AcDbLine
 10
15.09525124287922
 20
1.800853891631587
 30
0.0
 11
12.28923426872852
 21
4.606870865782293
 31
0.0
  0
LINE
  5
21CDF
330
21CB0
100
AcDbEntity
  8
0
  6
CONTINUOUS
100
AcDbLine
 10
15.27930401964343
 20
2.290320323947569
 30
0.0
 11
11.79928459456078
 21
5.770339749030213
 31
0.0
  0
LINE
  5
21CE0
330
21CB0
100
AcDbEntity
  8
0
  6
CONTINUOUS
100
AcDbLine
 10
15.46335679640763
 20
2.77978675626355
 30
0.0
 11
14.48885470994921
 21
3.754288842721972
 31
0.0
  0
LINE
  5
21CE1
330
21CB0
100
AcDbEntity
  8
0
  6
CONTINUOUS
100
AcDbLine
 10
13.88507249233704
 20
4.358071060334137
 30
0.0
 11
11.30933492039305
 21
6.933808632278135
 31
0.0
  0
LINE
  5
21CE2
330
21CB0
100
AcDbEntity
  8
0
  6
CONTINUOUS
100
AcDbLine
 10
18.75840522805855
 20
0.1582575336928151
 30
0.0
 11
18.25383727664818
 21
0.6628254851031863
 31
0.0
  0
LINE
  5
21CE3
330
21CB0
100
AcDbEntity
  8
0
  6
CONTINUOUS
100
AcDbLine
 10
15.64740957317184
 20
3.269253188579531
 30
0.0
 11
14.67288388101266
 21
4.243778880738705
 31
0.0
  0
LINE
  5
21CE4
330
21CB0
100
AcDbEntity
  8
0
  6
CONTINUOUS
100
AcDbLine
 10
13.39509276772158
 20
5.521569994029786
 30
0.0
 11
10.81938524622531
 21
8.097277515526056
 31
0.0
  0
LINE
  5
21CE5
330
21CB0
100
AcDbEntity
  8
0
  6
CONTINUOUS
100
AcDbLine
 10
18.95798597883369
 20
0.6321959919978686
 30
0.0
 11
17.84825644852853
 21
1.741925522303024
 31
0.0
  0
LINE
  5
21CE6
330
21CB0
100
AcDbEntity
  8
0
  6
CONTINUOUS
100
AcDbLine
 10
19.15756672960882
 20
1.106134450302922
 30
0.0
 11
17.44267562040888
 21
2.821025559502861
 31
0.0
  0
LINE
  5
21CE7
330
21CB0
100
AcDbEntity
  8
0
  6
CONTINUOUS
100
AcDbLine
 10
15.83146234993604
 20
3.758719620895513
 30
0.0
 11
14.85691305207612
 21
4.733268918755439
 31
0.0
  0
LINE
  5
21CE8
330
21CB0
100
AcDbEntity
  8
0
  6
CONTINUOUS
100
AcDbLine
 10
16.01551512670025
 20
4.248186053211494
 30
0.0
 11
15.04094222313957
 21
5.222758956772172
 31
0.0
  0
LINE
  5
21CE9
330
21CB0
100
AcDbEntity
  8
0
  6
CONTINUOUS
100
AcDbLine
 10
12.90511304310612
 20
6.685068927725435
 30
0.0
 11
10.8270819708403
 21
8.763099999991255
 31
0.0
  0
LINE
  5
21CEA
330
21CB0
100
AcDbEntity
  8
0
  6
CONTINUOUS
100
AcDbLine
 10
12.41513331849066
 20
7.848567861421083
 30
0.0
 11
11.50060117992049
 21
8.763099999991255
 31
0.0
  0
LINE
  5
21CEB
330
21CB0
100
AcDbEntity
  8
0
  6
CONTINUOUS
100
AcDbLine
 10
19.35714748038395
 20
1.580072908607975
 30
0.0
 11
17.03709479228923
 21
3.900125596702697
 31
0.0
  0
LINE
  5
21CEC
330
21CB0
100
AcDbEntity
  8
0
  6
CONTINUOUS
100
AcDbLine
 10
19.55672823115909
 20
2.054011366913028
 30
0.0
 11
16.63151396416958
 21
4.979225633902534
 31
0.0
  0
LINE
  5
21CED
330
21CB0
100
AcDbEntity
  8
0
  6
CONTINUOUS
100
AcDbLine
 10
16.19956790346445
 20
4.737652485527476
 30
0.0
 11
15.22497139420302
 21
5.712248994788904
 31
0.0
  0
LINE
  5
21CEE
330
21CB0
100
AcDbEntity
  8
0
  6
CONTINUOUS
100
AcDbLine
 10
16.38362068022866
 20
5.227118917843457
 30
0.0
 11
15.40900056526648
 21
6.201739032805637
 31
0.0
  0
LINE
  5
21CEF
330
21CB0
100
AcDbEntity
  8
0
  6
CONTINUOUS
100
AcDbLine
 10
19.75630898193422
 20
2.527949825218081
 30
0.0
 11
18.70774536448286
 21
3.576513442669441
 31
0.0
  0
LINE
  5
21CF0
330
21CB0
100
AcDbEntity
  8
0
  6
CONTINUOUS
100
AcDbLine
 10
19.95588973270936
 20
3.001888283523134
 30
0.0
 11
18.90726987211446
 21
4.050508144118028
 31
0.0
  0
LINE
  5
21CF1
330
21CB0
100
AcDbEntity
  8
0
  6
CONTINUOUS
100
AcDbLine
 10
20.15547048348449
 20
3.475826741828186
 30
0.0
 11
19.10679437974606
 21
4.524502845566614
 31
0.0
  0
LINE
  5
21CF2
330
21CB0
100
AcDbEntity
  8
0
  6
CONTINUOUS
100
AcDbLine
 10
20.35505123425962
 20
3.94976520013324
 30
0.0
 11
19.30631888737766
 21
4.998497547015201
 31
0.0
  0
LINE
  5
21CF3
330
21CB0
100
AcDbEntity
  8
0
  6
CONTINUOUS
100
AcDbLine
 10
20.55463198503475
 20
4.423703658438292
 30
0.0
 11
19.50584339500926
 21
5.472492248463787
 31
0.0
  0
LINE
  5
21CF4
330
21CB0
100
AcDbEntity
  8
0
  6
CONTINUOUS
100
AcDbLine
 10
18.37481191085755
 20
3.909446896294752
 30
0.0
 11
15.59302973632993
 21
6.691229070822371
 31
0.0
  0
LINE
  5
21CF5
330
21CB0
100
AcDbEntity
  8
0
  6
CONTINUOUS
100
AcDbLine
 10
17.96904084440766
 20
4.988737171824825
 30
0.0
 11
15.77705890739338
 21
7.180719108839104
 31
0.0
  0
LINE
  5
21CF6
330
21CB0
100
AcDbEntity
  8
0
  6
CONTINUOUS
100
AcDbLine
 10
17.56326977795777
 20
6.068027447354899
 30
0.0
 11
15.96108807845684
 21
7.670209146855838
 31
0.0
  0
LINE
  5
21CF7
330
21CB0
100
AcDbEntity
  8
0
  6
CONTINUOUS
100
AcDbLine
 10
17.15749871150789
 20
7.147317722884972
 30
0.0
 11
16.14511724952029
 21
8.15969918487257
 31
0.0
  0
LINE
  5
21CF8
330
21CB0
100
AcDbEntity
  8
0
  6
CONTINUOUS
100
AcDbLine
 10
16.751727645058
 20
8.226607998415046
 30
0.0
 11
16.32914642058374
 21
8.649189222889303
 31
0.0
  0
LINE
  5
21CF9
330
21CB0
100
AcDbEntity
  8
0
  6
CONTINUOUS
100
AcDbLine
 10
20.75421273580989
 20
4.897642116743345
 30
0.0
 11
19.70536790264086
 21
5.946486949912374
 31
0.0
  0
LINE
  5
21CFA
330
21CB0
100
AcDbEntity
  8
0
  6
CONTINUOUS
100
AcDbLine
 10
20.95379348658502
 20
5.371580575048398
 30
0.0
 11
19.90489241027246
 21
6.42048165136096
 31
0.0
  0
LINE
  5
21CFB
330
21CB0
100
AcDbEntity
  8
0
  6
CONTINUOUS
100
AcDbLine
 10
21.15337423736015
 20
5.845519033353452
 30
0.0
 11
20.10441691790406
 21
6.894476352809547
 31
0.0
  0
LINE
  5
21CFC
330
21CB0
100
AcDbEntity
  8
0
  6
CONTINUOUS
100
AcDbLine
 10
21.35295498813529
 20
6.319457491658505
 30
0.0
 11
20.30394142553566
 21
7.368471054258134
 31
0.0
  0
LINE
  5
21CFD
330
21CB0
100
AcDbEntity
  8
0
  6
CONTINUOUS
100
AcDbLine
 10
21.55253573891042
 20
6.793395949963558
 30
0.0
 11
20.50346593316726
 21
7.842465755706721
 31
0.0
  0
LINE
  5
21CFE
330
21CB0
100
AcDbEntity
  8
0
  6
CONTINUOUS
100
AcDbLine
 10
21.75211648968556
 20
7.267334408268612
 30
0.0
 11
20.70299044079886
 21
8.316460457155308
 31
0.0
  0
LINE
  5
21CFF
330
21CB0
100
AcDbEntity
  8
0
  6
CONTINUOUS
100
AcDbLine
 10
21.95169724046069
 20
7.741272866573663
 30
0.0
 11
20.9298701070431
 21
8.763099999991256
 31
0.0
  0
LINE
  5
21D00
330
21CB0
100
AcDbEntity
  8
0
  6
CONTINUOUS
100
AcDbLine
 10
22.15127799123582
 20
8.215211324878716
 30
0.0
 11
21.60338931612328
 21
8.763099999991256
 31
0.0
  0
LINE
  5
21D01
330
21CB0
100
AcDbEntity
  8
0
  6
CONTINUOUS
100
AcDbLine
 10
22.35085874201096
 20
8.689149783183769
 30
0.0
 11
22.27690852520347
 21
8.763099999991255
 31
0.0
  0
ENDBLK
  5
21DF3
330
21CB0
100
AcDbEntity
  8
0
100
AcDbBlockEnd
  0
BLOCK
  5
21DF4
330
21D02
100
AcDbEntity
  8
0
100
AcDbBlockBegin
  2
*X129
 70
     1
 10
0.0
 20
0.0
 30
0.0
  3
*X129
  1

  0
LINE
  5
21D03
330
21D02
100
AcDbEntity
  8
0
  6
CONTINUOUS
100
AcDbLine
 10
23.19462913593892
 20
8.169917934846424
 30
0.0
 11
23.70775465517246
 21
8.683043454079957
 31
0.0
  0
LINE
  5
21D04
330
21D02
100
AcDbEntity
  8
0
  6
CONTINUOUS
100
AcDbLine
 10
22.64923161835078
 20
6.951001208178088
 30
0.0
 11
23.9159364069932
 21
8.217705996820516
 31
0.0
  0
LINE
  5
21D05
330
21D02
100
AcDbEntity
  8
0
  6
CONTINUOUS
100
AcDbLine
 10
22.10383410076263
 20
5.732084481509751
 30
0.0
 11
24.12411815881395
 21
7.752368539561078
 31
0.0
  0
LINE
  5
21D06
330
21D02
100
AcDbEntity
  8
0
  6
CONTINUOUS
100
AcDbLine
 10
21.55843658317447
 20
4.513167754841414
 30
0.0
 11
24.3322999106347
 21
7.287031082301639
 31
0.0
  0
LINE
  5
21D07
330
21D02
100
AcDbEntity
  8
0
  6
CONTINUOUS
100
AcDbLine
 10
21.01303906558632
 20
3.294251028173077
 30
0.0
 11
24.54048166245544
 21
6.821693625042199
 31
0.0
  0
LINE
  5
21D08
330
21D02
100
AcDbEntity
  8
0
  6
CONTINUOUS
100
AcDbLine
 10
20.46764154799817
 20
2.075334301504738
 30
0.0
 11
23.28571549467848
 21
4.89340824818505
 31
0.0
  0
LINE
  5
21D09
330
21D02
100
AcDbEntity
  8
0
  6
CONTINUOUS
100
AcDbLine
 10
19.92224403041002
 20
0.8564175748364002
 30
0.0
 11
22.74075865492779
 21
3.674932199354171
 31
0.0
  0
LINE
  5
21D0A
330
21D02
100
AcDbEntity
  8
0
  6
CONTINUOUS
100
AcDbLine
 10
23.67305085490148
 20
5.280743608408048
 30
0.0
 11
24.74866341427619
 21
6.356356167782759
 31
0.0
  0
LINE
  5
21D0B
330
21D02
100
AcDbEntity
  8
0
  6
CONTINUOUS
100
AcDbLine
 10
23.88118970842314
 20
4.815363252849522
 30
0.0
 11
24.95684516609694
 21
5.89101871052332
 31
0.0
  0
LINE
  5
21D0C
330
21D02
100
AcDbEntity
  8
0
  6
CONTINUOUS
100
AcDbLine
 10
19.73925852647308
 20
-0.0000871381807288
 30
0.0
 11
23.4103456646501
 21
3.670999999996297
 31
0.0
  0
LINE
  5
21D0D
330
21D02
100
AcDbEntity
  8
0
  6
CONTINUOUS
100
AcDbLine
 10
24.0893285619448
 20
4.349982897290997
 30
0.0
 11
25.16502691791769
 21
5.42568125326388
 31
0.0
  0
LINE
  5
21D0E
330
21D02
100
AcDbEntity
  8
0
  6
CONTINUOUS
100
AcDbLine
 10
20.41282099582748
 20
-0.0000438779065108
 30
0.0
 11
21.64944178675636
 21
1.236576913022366
 31
0.0
  0
LINE
  5
21D0F
330
21D02
100
AcDbEntity
  8
0
  6
CONTINUOUS
100
AcDbLine
 10
22.78126487373161
 20
2.36839999999762
 30
0.0
 11
24.08386487373029
 21
3.670999999996297
 31
0.0
  0
LINE
  5
21D10
330
21D02
100
AcDbEntity
  8
0
  6
CONTINUOUS
100
AcDbLine
 10
24.29746741546646
 20
3.884602541732471
 30
0.0
 11
25.37320866973843
 21
4.960343796004441
 31
0.0
  0
LINE
  5
21D11
330
21D02
100
AcDbEntity
  8
0
  6
CONTINUOUS
100
AcDbLine
 10
21.08638346518189
 20
-0.0000006176322938
 30
0.0
 11
21.10379033335899
 21
0.0174062505448083
 31
0.0
  0
LINE
  5
21D12
330
21D02
100
AcDbEntity
  8
0
  6
CONTINUOUS
100
AcDbLine
 10
23.4547840828118
 20
2.36839999999762
 30
0.0
 11
25.58139042155918
 21
4.495006338745002
 31
0.0
  0
LINE
  5
21D13
330
21D02
100
AcDbEntity
  8
0
  6
CONTINUOUS
100
AcDbLine
 10
29.30199999996933
 20
8.215615917155148
 30
0.0
 11
29.84948408280543
 21
8.763099999991255
 31
0.0
  0
LINE
  5
21D14
330
21D02
100
AcDbEntity
  8
0
  6
CONTINUOUS
100
AcDbLine
 10
24.12830329189199
 20
2.36839999999762
 30
0.0
 11
25.78957217337993
 21
4.029668881485562
 31
0.0
  0
LINE
  5
21D15
330
21D02
100
AcDbEntity
  8
0
  6
CONTINUOUS
100
AcDbLine
 10
29.30199999996933
 20
7.54209670807496
 30
0.0
 11
30.52300329188562
 21
8.763099999991255
 31
0.0
  0
LINE
  5
21D16
330
21D02
100
AcDbEntity
  8
0
  6
CONTINUOUS
100
AcDbLine
 10
24.80182250097217
 20
2.36839999999762
 30
0.0
 11
25.99775392520067
 21
3.564331424226122
 31
0.0
  0
LINE
  5
21D17
330
21D02
100
AcDbEntity
  8
0
  6
CONTINUOUS
100
AcDbLine
 10
29.30199999996933
 20
6.868577498994774
 30
0.0
 11
30.74199999996926
 21
8.308577498994712
 31
0.0
  0
LINE
  5
21D18
330
21D02
100
AcDbEntity
  8
0
  6
CONTINUOUS
100
AcDbLine
 10
25.13028238392013
 20
2.023340673865392
 30
0.0
 11
26.20593567702142
 21
3.098993966966683
 31
0.0
  0
LINE
  5
21D19
330
21D02
100
AcDbEntity
  8
0
  6
CONTINUOUS
100
AcDbLine
 10
25.33838066033617
 20
1.557919741201244
 30
0.0
 11
26.41411742884217
 21
2.633656509707244
 31
0.0
  0
LINE
  5
21D1A
330
21D02
100
AcDbEntity
  8
0
  6
CONTINUOUS
100
AcDbLine
 10
25.54647893675221
 20
1.092498808537098
 30
0.0
 11
26.62229918066291
 21
2.168319052447804
 31
0.0
  0
LINE
  5
21D1B
330
21D02
100
AcDbEntity
  8
0
  6
CONTINUOUS
100
AcDbLine
 10
25.75457721316825
 20
0.62707787587295
 30
0.0
 11
26.83048093248366
 21
1.702981595188365
 31
0.0
  0
LINE
  5
21D1C
330
21D02
100
AcDbEntity
  8
0
  6
CONTINUOUS
100
AcDbLine
 10
29.30199999996933
 20
6.195058289914587
 30
0.0
 11
30.74199999996926
 21
7.635058289914522
 31
0.0
  0
LINE
  5
21D1D
330
21D02
100
AcDbEntity
  8
0
  6
CONTINUOUS
100
AcDbLine
 10
29.30199999996933
 20
5.521539080834401
 30
0.0
 11
30.74199999996926
 21
6.961539080834331
 31
0.0
  0
LINE
  5
21D1E
330
21D02
100
AcDbEntity
  8
0
  6
CONTINUOUS
100
AcDbLine
 10
29.30199999996933
 20
4.848019871754214
 30
0.0
 11
30.74199999996925
 21
6.288019871754143
 31
0.0
  0
LINE
  5
21D1F
330
21D02
100
AcDbEntity
  8
0
  6
CONTINUOUS
100
AcDbLine
 10
29.30199999996933
 20
4.174500662674028
 30
0.0
 11
30.74199999996925
 21
5.614500662673953
 31
0.0
  0
LINE
  5
21D20
330
21D02
100
AcDbEntity
  8
0
  6
CONTINUOUS
100
AcDbLine
 10
25.96267548958429
 20
0.1616569432088024
 30
0.0
 11
27.18411854636669
 21
1.383099999991207
 31
0.0
  0
LINE
  5
21D21
330
21D02
100
AcDbEntity
  8
0
  6
CONTINUOUS
100
AcDbLine
 10
29.30199999996933
 20
3.500981453593841
 30
0.0
 11
30.74199999996925
 21
4.940981453593762
 31
0.0
  0
LINE
  5
21D22
330
21D02
100
AcDbEntity
  8
0
  6
CONTINUOUS
100
AcDbLine
 10
26.50763775544691
 20
0.0330999999912356
 30
0.0
 11
27.85763775544689
 21
1.383099999991223
 31
0.0
  0
LINE
  5
21D23
330
21D02
100
AcDbEntity
  8
0
  6
CONTINUOUS
100
AcDbLine
 10
29.30199999996933
 20
2.827462244513656
 30
0.0
 11
30.74199999996925
 21
4.267462244513574
 31
0.0
  0
LINE
  5
21D24
330
21D02
100
AcDbEntity
  8
0
  6
CONTINUOUS
100
AcDbLine
 10
27.18115696452709
 20
0.0330999999912356
 30
0.0
 11
28.55073879889363
 21
1.402681834357775
 31
0.0
  0
LINE
  5
21D25
330
21D02
100
AcDbEntity
  8
0
  6
CONTINUOUS
100
AcDbLine
 10
29.28241816560272
 20
2.134361201066866
 30
0.0
 11
30.74199999996924
 21
3.593943035433383
 31
0.0
  0
LINE
  5
21D26
330
21D02
100
AcDbEntity
  8
0
  6
CONTINUOUS
100
AcDbLine
 10
27.85467617360728
 20
0.0330999999912356
 30
0.0
 11
30.74199999996924
 21
2.920423826353195
 31
0.0
  0
LINE
  5
21D27
330
21D02
100
AcDbEntity
  8
0
  6
CONTINUOUS
100
AcDbLine
 10
28.53897559587887
 20
0.0438802131826428
 30
0.0
 11
30.73121978677781
 21
2.236124404081585
 31
0.0
  0
LINE
  5
21D28
330
21D02
100
AcDbEntity
  8
0
  6
CONTINUOUS
100
AcDbLine
 10
29.45140055588722
 20
0.2827859641107988
 30
0.0
 11
30.49231403584965
 21
1.323699444073236
 31
0.0
  0
LINE
  5
21D29
330
21D02
100
AcDbEntity
  8
0
  6
CONTINUOUS
100
AcDbLine
 10
19.59027867740337
 20
-0.0000967065718083
 30
0.0
 11
19.55485265190471
 21
0.035329318926844
 31
0.0
  0
LINE
  5
21D2A
330
21D02
100
AcDbEntity
  8
0
  6
CONTINUOUS
100
AcDbLine
 10
20.26375463176586
 20
-0.0000534518541091
 30
0.0
 11
19.76305575737534
 21
0.5006454225364014
 31
0.0
  0
LINE
  5
21D2B
330
21D02
100
AcDbEntity
  8
0
  6
CONTINUOUS
100
AcDbLine
 10
20.93723058612834
 20
-0.0000101971364099
 30
0.0
 11
19.97125886284597
 21
0.965961526145958
 31
0.0
  0
LINE
  5
21D2C
330
21D02
100
AcDbEntity
  8
0
  6
CONTINUOUS
100
AcDbLine
 10
21.25514828313686
 20
0.355591314935257
 30
0.0
 11
20.1794619683166
 21
1.431277629755512
 31
0.0
  0
LINE
  5
21D2D
330
21D02
100
AcDbEntity
  8
0
  6
CONTINUOUS
100
AcDbLine
 10
21.46338838394921
 20
0.8208704232030986
 30
0.0
 11
20.38766507378723
 21
1.896593733365069
 31
0.0
  0
LINE
  5
21D2E
330
21D02
100
AcDbEntity
  8
0
  6
CONTINUOUS
100
AcDbLine
 10
21.67162848476155
 20
1.28614953147094
 30
0.0
 11
20.59586817925786
 21
2.361909836974626
 31
0.0
  0
LINE
  5
21D2F
330
21D02
100
AcDbEntity
  8
0
  6
CONTINUOUS
100
AcDbLine
 10
21.8798685855739
 20
1.751428639738782
 30
0.0
 11
20.80407128472849
 21
2.827225940584183
 31
0.0
  0
LINE
  5
21D30
330
21D02
100
AcDbEntity
  8
0
  6
CONTINUOUS
100
AcDbLine
 10
22.08810868638624
 20
2.216707748006623
 30
0.0
 11
21.01227439019912
 21
3.292542044193739
 31
0.0
  0
LINE
  5
21D31
330
21D02
100
AcDbEntity
  8
0
  6
CONTINUOUS
100
AcDbLine
 10
22.60993564347543
 20
2.36839999999762
 30
0.0
 11
21.22047749566975
 21
3.757858147803296
 31
0.0
  0
LINE
  5
21D32
330
21D02
100
AcDbEntity
  8
0
  6
CONTINUOUS
100
AcDbLine
 10
23.28345485255561
 20
2.36839999999762
 30
0.0
 11
21.42868060114038
 21
4.223174251412853
 31
0.0
  0
LINE
  5
21D33
330
21D02
100
AcDbEntity
  8
0
  6
CONTINUOUS
100
AcDbLine
 10
26.29227406164219
 20
0.0330999999912356
 30
0.0
 11
25.80009199592872
 21
0.5252820657046957
 31
0.0
  0
LINE
  5
21D34
330
21D02
100
AcDbEntity
  8
0
  6
CONTINUOUS
100
AcDbLine
 10
23.9569740616358
 20
2.36839999999762
 30
0.0
 11
21.63688370661101
 21
4.688490355022409
 31
0.0
  0
LINE
  5
21D35
330
21D02
100
AcDbEntity
  8
0
  6
CONTINUOUS
100
AcDbLine
 10
26.96579327072237
 20
0.0330999999912356
 30
0.0
 11
25.2554132311971
 21
1.743480039516508
 31
0.0
  0
LINE
  5
21D36
330
21D02
100
AcDbEntity
  8
0
  6
CONTINUOUS
100
AcDbLine
 10
24.63049327071599
 20
2.36839999999762
 30
0.0
 11
23.32789327071731
 21
3.670999999996297
 31
0.0
  0
LINE
  5
21D37
330
21D02
100
AcDbEntity
  8
0
  6
CONTINUOUS
100
AcDbLine
 10
22.92098674744635
 20
4.077906523267254
 30
0.0
 11
21.84508681208164
 21
5.153806458631966
 31
0.0
  0
LINE
  5
21D38
330
21D02
100
AcDbEntity
  8
0
  6
CONTINUOUS
100
AcDbLine
 10
27.63931247980256
 20
0.0330999999912356
 30
0.0
 11
24.0014124797975
 21
3.670999999996297
 31
0.0
  0
LINE
  5
21D39
330
21D02
100
AcDbEntity
  8
0
  6
CONTINUOUS
100
AcDbLine
 10
23.129125600968
 20
4.5432868788258
 30
0.0
 11
22.05328991755227
 21
5.619122562241522
 31
0.0
  0
LINE
  5
21D3A
330
21D02
100
AcDbEntity
  8
0
  6
CONTINUOUS
100
AcDbLine
 10
28.31283168888275
 20
0.0330999999912356
 30
0.0
 11
24.16488385994816
 21
4.181047828925828
 31
0.0
  0
LINE
  5
21D3B
330
21D02
100
AcDbEntity
  8
0
  6
CONTINUOUS
100
AcDbLine
 10
23.33726445448964
 20
5.008667234384345
 30
0.0
 11
22.2614930230229
 21
6.084438665851079
 31
0.0
  0
LINE
  5
21D3C
330
21D02
100
AcDbEntity
  8
0
  6
CONTINUOUS
100
AcDbLine
 10
28.92085740005492
 20
0.0985934978992438
 30
0.0
 11
27.63635089796295
 21
1.383099999991217
 31
0.0
  0
LINE
  5
21D3D
330
21D02
100
AcDbEntity
  8
0
  6
CONTINUOUS
100
AcDbLine
 10
26.43704649509776
 20
2.582404402856405
 30
0.0
 11
23.61992702019732
 21
5.399523877756844
 31
0.0
  0
LINE
  5
21D3E
330
21D02
100
AcDbEntity
  8
0
  6
CONTINUOUS
100
AcDbLine
 10
23.54540330801128
 20
5.47404758994289
 30
0.0
 11
22.46969612849353
 21
6.549754769460635
 31
0.0
  0
LINE
  5
21D3F
330
21D02
100
AcDbEntity
  8
0
  6
CONTINUOUS
100
AcDbLine
 10
29.42225615078443
 20
0.2707139562499279
 30
0.0
 11
28.30987010704312
 21
1.383099999991234
 31
0.0
  0
LINE
  5
21D40
330
21D02
100
AcDbEntity
  8
0
  6
CONTINUOUS
100
AcDbLine
 10
25.89179548232307
 20
3.801174624711282
 30
0.0
 11
22.67789923396416
 21
7.015070873070191
 31
0.0
  0
LINE
  5
21D41
330
21D02
100
AcDbEntity
  8
0
  6
CONTINUOUS
100
AcDbLine
 10
29.83624534690007
 20
0.5302439692144705
 30
0.0
 11
28.85811781497101
 21
1.508371501143527
 31
0.0
  0
LINE
  5
21D42
330
21D02
100
AcDbEntity
  8
0
  6
CONTINUOUS
100
AcDbLine
 10
25.34654446954838
 20
5.01994484656616
 30
0.0
 11
22.88610233943479
 21
7.480386976679748
 31
0.0
  0
LINE
  5
21D43
330
21D02
100
AcDbEntity
  8
0
  6
CONTINUOUS
100
AcDbLine
 10
30.17865975401872
 20
0.8613487711760022
 30
0.0
 11
29.18888744090175
 21
1.851121084292977
 31
0.0
  0
LINE
  5
21D44
330
21D02
100
AcDbEntity
  8
0
  6
CONTINUOUS
100
AcDbLine
 10
24.80129345677369
 20
6.238715068421037
 30
0.0
 11
23.09430544490542
 21
7.945703080289305
 31
0.0
  0
LINE
  5
21D45
330
21D02
100
AcDbEntity
  8
0
  6
CONTINUOUS
100
AcDbLine
 10
30.45496647202376
 20
1.258561262251155
 30
0.0
 11
29.30199999996933
 21
2.411527734305588
 31
0.0
  0
LINE
  5
21D46
330
21D02
100
AcDbEntity
  8
0
  6
CONTINUOUS
100
AcDbLine
 10
24.256042443999
 20
7.457485290275915
 30
0.0
 11
23.30250855037605
 21
8.411019183898862
 31
0.0
  0
LINE
  5
21D47
330
21D02
100
AcDbEntity
  8
0
  6
CONTINUOUS
100
AcDbLine
 10
30.64868582078271
 20
1.738361122572387
 30
0.0
 11
29.30199999996933
 21
3.085046943385775
 31
0.0
  0
LINE
  5
21D48
330
21D02
100
AcDbEntity
  8
0
  6
CONTINUOUS
100
AcDbLine
 10
23.71079143122431
 20
8.676255512130794
 30
0.0
 11
23.51071165584668
 21
8.876335287508416
 31
0.0
  0
LINE
  5
21D49
330
21D02
100
AcDbEntity
  8
0
  6
CONTINUOUS
100
AcDbLine
 10
30.73802122914428
 20
2.322544923291007
 30
0.0
 11
29.30199999996933
 21
3.758566152465961
 31
0.0
  0
LINE
  5
21D4A
330
21D02
100
AcDbEntity
  8
0
  6
CONTINUOUS
100
AcDbLine
 10
30.74199999996924
 20
2.992085361546236
 30
0.0
 11
29.30199999996933
 21
4.432085361546148
 31
0.0
  0
LINE
  5
21D4B
330
21D02
100
AcDbEntity
  8
0
  6
CONTINUOUS
100
AcDbLine
 10
30.74199999996924
 20
3.665604570626419
 30
0.0
 11
29.30199999996933
 21
5.105604570626333
 31
0.0
  0
LINE
  5
21D4C
330
21D02
100
AcDbEntity
  8
0
  6
CONTINUOUS
100
AcDbLine
 10
30.74199999996925
 20
4.339123779706602
 30
0.0
 11
29.30199999996933
 21
5.77912377970652
 31
0.0
  0
LINE
  5
21D4D
330
21D02
100
AcDbEntity
  8
0
  6
CONTINUOUS
100
AcDbLine
 10
30.74199999996925
 20
5.012642988786785
 30
0.0
 11
29.30199999996933
 21
6.452642988786707
 31
0.0
  0
LINE
  5
21D4E
330
21D02
100
AcDbEntity
  8
0
  6
CONTINUOUS
100
AcDbLine
 10
30.74199999996925
 20
5.68616219786697
 30
0.0
 11
29.30199999996933
 21
7.126162197866894
 31
0.0
  0
LINE
  5
21D4F
330
21D02
100
AcDbEntity
  8
0
  6
CONTINUOUS
100
AcDbLine
 10
30.74199999996925
 20
6.359681406947153
 30
0.0
 11
29.30199999996933
 21
7.799681406947081
 31
0.0
  0
LINE
  5
21D50
330
21D02
100
AcDbEntity
  8
0
  6
CONTINUOUS
100
AcDbLine
 10
30.74199999996926
 20
7.033200616027337
 30
0.0
 11
29.30199999996933
 21
8.473200616027269
 31
0.0
  0
LINE
  5
21D51
330
21D02
100
AcDbEntity
  8
0
  6
CONTINUOUS
100
AcDbLine
 10
30.74199999996926
 20
7.706719825107518
 30
0.0
 11
29.68561982508552
 21
8.763099999991255
 31
0.0
  0
LINE
  5
21D52
330
21D02
100
AcDbEntity
  8
0
  6
CONTINUOUS
100
AcDbLine
 10
30.74199999996926
 20
8.380239034187703
 30
0.0
 11
30.35913903416571
 21
8.763099999991255
 31
0.0
  0
ENDBLK
  5
21DF5
330
21D02
100
AcDbEntity
  8
0
100
AcDbBlockEnd
  0
BLOCK
  5
21DF6
330
21D53
100
AcDbEntity
  8
0
100
AcDbBlockBegin
  2
*X130
 70
     1
 10
0.0
 20
0.0
 30
0.0
  3
*X130
  1

  0
LINE
  5
21D54
330
21D53
100
AcDbEntity
  8
0
  6
CONTINUOUS
100
AcDbLine
 10
31.64199999996833
 20
8.535058289913598
 30
0.0
 11
31.87004171004599
 21
8.763099999991255
 31
0.0
  0
LINE
  5
21D55
330
21D53
100
AcDbEntity
  8
0
  6
CONTINUOUS
100
AcDbLine
 10
31.64199999996833
 20
7.861539080833412
 30
0.0
 11
32.54356091912618
 21
8.763099999991255
 31
0.0
  0
LINE
  5
21D56
330
21D53
100
AcDbEntity
  8
0
  6
CONTINUOUS
100
AcDbLine
 10
31.64199999996833
 20
7.188019871753226
 30
0.0
 11
33.08199999996839
 21
8.628019871753281
 31
0.0
  0
LINE
  5
21D57
330
21D53
100
AcDbEntity
  8
0
  6
CONTINUOUS
100
AcDbLine
 10
31.64199999996833
 20
6.51450066267304
 30
0.0
 11
33.08199999996839
 21
7.954500662673095
 31
0.0
  0
LINE
  5
21D58
330
21D53
100
AcDbEntity
  8
0
  6
CONTINUOUS
100
AcDbLine
 10
31.64199999996833
 20
5.840981453592853
 30
0.0
 11
33.08199999996839
 21
7.280981453592908
 31
0.0
  0
LINE
  5
21D59
330
21D53
100
AcDbEntity
  8
0
  6
CONTINUOUS
100
AcDbLine
 10
31.64199999996833
 20
5.167462244512667
 30
0.0
 11
33.08199999996839
 21
6.607462244512721
 31
0.0
  0
LINE
  5
21D5A
330
21D53
100
AcDbEntity
  8
0
  6
CONTINUOUS
100
AcDbLine
 10
31.64199999996833
 20
4.493943035432481
 30
0.0
 11
33.08199999996839
 21
5.933943035432535
 31
0.0
  0
LINE
  5
21D5B
330
21D53
100
AcDbEntity
  8
0
  6
CONTINUOUS
100
AcDbLine
 10
31.64199999996833
 20
3.820423826352293
 30
0.0
 11
33.08199999996839
 21
5.260423826352348
 31
0.0
  0
LINE
  5
21D5C
330
21D53
100
AcDbEntity
  8
0
  6
CONTINUOUS
100
AcDbLine
 10
31.64199999996833
 20
3.146904617272106
 30
0.0
 11
33.08199999996839
 21
4.586904617272161
 31
0.0
  0
LINE
  5
21D5D
330
21D53
100
AcDbEntity
  8
0
  6
CONTINUOUS
100
AcDbLine
 10
36.23199999996837
 20
8.410423826352325
 30
0.0
 11
36.5846761736073
 21
8.763099999991255
 31
0.0
  0
LINE
  5
21D5E
330
21D53
100
AcDbEntity
  8
0
  6
CONTINUOUS
100
AcDbLine
 10
36.23199999996837
 20
7.73690461727214
 30
0.0
 11
37.25819538268748
 21
8.763099999991255
 31
0.0
  0
LINE
  5
21D5F
330
21D53
100
AcDbEntity
  8
0
  6
CONTINUOUS
100
AcDbLine
 10
31.64257403601376
 20
2.473959444237348
 30
0.0
 11
33.08199999996839
 21
3.913385408191974
 31
0.0
  0
LINE
  5
21D60
330
21D53
100
AcDbEntity
  8
0
  6
CONTINUOUS
100
AcDbLine
 10
36.23199999996837
 20
7.063385408191953
 30
0.0
 11
37.67199999996831
 21
8.503385408191894
 31
0.0
  0
LINE
  5
21D61
330
21D53
100
AcDbEntity
  8
0
  6
CONTINUOUS
100
AcDbLine
 10
31.72013636841932
 20
1.87800256756272
 30
0.0
 11
33.08199999996839
 21
3.239866199111788
 31
0.0
  0
LINE
  5
21D62
330
21D53
100
AcDbEntity
  8
0
  6
CONTINUOUS
100
AcDbLine
 10
36.23199999996837
 20
6.389866199111767
 30
0.0
 11
37.67199999996831
 21
7.829866199111708
 31
0.0
  0
LINE
  5
21D63
330
21D53
100
AcDbEntity
  8
0
  6
CONTINUOUS
100
AcDbLine
 10
31.89042734314753
 20
1.374774333210744
 30
0.0
 11
33.08199999996839
 21
2.566346990031601
 31
0.0
  0
LINE
  5
21D64
330
21D53
100
AcDbEntity
  8
0
  6
CONTINUOUS
100
AcDbLine
 10
36.23199999996837
 20
5.71634699003158
 30
0.0
 11
37.67199999996831
 21
7.156346990031521
 31
0.0
  0
LINE
  5
21D65
330
21D53
100
AcDbEntity
  8
0
  6
CONTINUOUS
100
AcDbLine
 10
32.14210568064475
 20
0.952933461627778
 30
0.0
 11
33.18745552475986
 21
1.998283305742888
 31
0.0
  0
LINE
  5
21D66
330
21D53
100
AcDbEntity
  8
0
  6
CONTINUOUS
100
AcDbLine
 10
36.23199999996837
 20
5.042827780951393
 30
0.0
 11
37.67199999996831
 21
6.482827780951334
 31
0.0
  0
LINE
  5
21D67
330
21D53
100
AcDbEntity
  8
0
  6
CONTINUOUS
100
AcDbLine
 10
32.45820639400955
 20
0.5955149659123915
 30
0.0
 11
33.47242681921943
 21
1.60973539112227
 31
0.0
  0
LINE
  5
21D68
330
21D53
100
AcDbEntity
  8
0
  6
CONTINUOUS
100
AcDbLine
 10
36.23199999996837
 20
4.369308571871207
 30
0.0
 11
37.67199999996831
 21
5.809308571871147
 31
0.0
  0
LINE
  5
21D69
330
21D53
100
AcDbEntity
  8
0
  6
CONTINUOUS
100
AcDbLine
 10
32.83432456621412
 20
0.2981139290367771
 30
0.0
 11
33.89722476612215
 21
1.361014128944803
 31
0.0
  0
LINE
  5
21D6A
330
21D53
100
AcDbEntity
  8
0
  6
CONTINUOUS
100
AcDbLine
 10
36.23199999996837
 20
3.69578936279102
 30
0.0
 11
37.67199999996831
 21
5.135789362790962
 31
0.0
  0
LINE
  5
21D6B
330
21D53
100
AcDbEntity
  8
0
  6
CONTINUOUS
100
AcDbLine
 10
33.2711633111245
 20
0.0614334648669672
 30
0.0
 11
34.43247338014423
 21
1.222743533886696
 31
0.0
  0
LINE
  5
21D6C
330
21D53
100
AcDbEntity
  8
0
  6
CONTINUOUS
100
AcDbLine
 10
36.23199999996837
 20
3.022270153710834
 30
0.0
 11
37.67199999996831
 21
4.462270153710775
 31
0.0
  0
LINE
  5
21D6D
330
21D53
100
AcDbEntity
  8
0
  6
CONTINUOUS
100
AcDbLine
 10
33.76515245874577
 20
-0.1180965965919523
 30
0.0
 11
35.1587445516215
 21
1.27549549628378
 31
0.0
  0
LINE
  5
21D6E
330
21D53
100
AcDbEntity
  8
0
  6
CONTINUOUS
100
AcDbLine
 10
36.21639478609585
 20
2.333145730758136
 30
0.0
 11
37.67199999996831
 21
3.788750944630588
 31
0.0
  0
LINE
  5
21D6F
330
21D53
100
AcDbEntity
  8
0
  6
CONTINUOUS
100
AcDbLine
 10
34.34060583368432
 20
-0.2161624307335863
 30
0.0
 11
37.67199999996831
 21
3.115231735550401
 31
0.0
  0
LINE
  5
21D70
330
21D53
100
AcDbEntity
  8
0
  6
CONTINUOUS
100
AcDbLine
 10
35.01698193613905
 20
-0.2133055373590427
 30
0.0
 11
37.66876712070525
 21
2.438479647207154
 31
0.0
  0
LINE
  5
21D71
330
21D53
100
AcDbEntity
  8
0
  6
CONTINUOUS
100
AcDbLine
 10
35.90743367693304
 20
0.0036269943547609
 30
0.0
 11
37.51723902192366
 21
1.613432339345381
 31
0.0
  0
LINE
  5
21D72
330
21D53
100
AcDbEntity
  8
0
  6
CONTINUOUS
100
AcDbLine
 10
32.55309425579761
 20
0.5074718966376706
 30
0.0
 11
32.27784730925847
 21
0.7827188431768102
 31
0.0
  0
LINE
  5
21D73
330
21D53
100
AcDbEntity
  8
0
  6
CONTINUOUS
100
AcDbLine
 10
33.87496468909684
 20
-0.1408793275813673
 30
0.0
 11
31.67993083278052
 21
2.054154528734943
 31
0.0
  0
LINE
  5
21D74
330
21D53
100
AcDbEntity
  8
0
  6
CONTINUOUS
100
AcDbLine
 10
34.64362813207632
 20
-0.2360235614806649
 30
0.0
 11
31.64199999996833
 21
2.765604570627322
 31
0.0
  0
LINE
  5
21D75
330
21D53
100
AcDbEntity
  8
0
  6
CONTINUOUS
100
AcDbLine
 10
35.25801106796118
 20
-0.1768872882853429
 30
0.0
 11
31.64199999996833
 21
3.439123779707508
 31
0.0
  0
LINE
  5
21D76
330
21D53
100
AcDbEntity
  8
0
  6
CONTINUOUS
100
AcDbLine
 10
35.79065650332146
 20
-0.0360135145654361
 30
0.0
 11
34.54143210838231
 21
1.213210880373721
 31
0.0
  0
LINE
  5
21D77
330
21D53
100
AcDbEntity
  8
0
  6
CONTINUOUS
100
AcDbLine
 10
33.08199999996839
 20
2.67264298878764
 30
0.0
 11
31.64199999996833
 21
4.112642988787695
 31
0.0
  0
LINE
  5
21D78
330
21D53
100
AcDbEntity
  8
0
  6
CONTINUOUS
100
AcDbLine
 10
36.25975597779143
 20
0.1684062200447833
 30
0.0
 11
35.15395110240023
 21
1.274211095435983
 31
0.0
  0
LINE
  5
21D79
330
21D53
100
AcDbEntity
  8
0
  6
CONTINUOUS
100
AcDbLine
 10
33.08199999996839
 20
3.346162197867826
 30
0.0
 11
31.64199999996833
 21
4.786162197867881
 31
0.0
  0
LINE
  5
21D7A
330
21D53
100
AcDbEntity
  8
0
  6
CONTINUOUS
100
AcDbLine
 10
36.67226329638774
 20
0.4294181105286579
 30
0.0
 11
35.63766478748767
 21
1.464016619428737
 31
0.0
  0
LINE
  5
21D7B
330
21D53
100
AcDbEntity
  8
0
  6
CONTINUOUS
100
AcDbLine
 10
33.08199999996839
 20
4.019681406948012
 30
0.0
 11
31.64199999996833
 21
5.459681406948068
 31
0.0
  0
LINE
  5
21D7C
330
21D53
100
AcDbEntity
  8
0
  6
CONTINUOUS
100
AcDbLine
 10
37.01677749710036
 20
0.7584231188962329
 30
0.0
 11
35.99563422741351
 21
1.779566388583076
 31
0.0
  0
LINE
  5
21D7D
330
21D53
100
AcDbEntity
  8
0
  6
CONTINUOUS
100
AcDbLine
 10
33.08199999996839
 20
4.693200616028199
 30
0.0
 11
31.64199999996833
 21
6.133200616028255
 31
0.0
  0
LINE
  5
21D7E
330
21D53
100
AcDbEntity
  8
0
  6
CONTINUOUS
100
AcDbLine
 10
37.29859977568887
 20
1.1501200493879
 30
0.0
 11
36.20680593341555
 21
2.241913891661226
 31
0.0
  0
LINE
  5
21D7F
330
21D53
100
AcDbEntity
  8
0
  6
CONTINUOUS
100
AcDbLine
 10
33.08199999996839
 20
5.366719825108386
 30
0.0
 11
31.64199999996833
 21
6.80671982510844
 31
0.0
  0
LINE
  5
21D80
330
21D53
100
AcDbEntity
  8
0
  6
CONTINUOUS
100
AcDbLine
 10
37.5148623517228
 20
1.607376682434161
 30
0.0
 11
36.23199999996837
 21
2.890239034188594
 31
0.0
  0
LINE
  5
21D81
330
21D53
100
AcDbEntity
  8
0
  6
CONTINUOUS
100
AcDbLine
 10
33.08199999996839
 20
6.040239034188573
 30
0.0
 11
31.64199999996833
 21
7.480239034188627
 31
0.0
  0
LINE
  5
21D82
330
21D53
100
AcDbEntity
  8
0
  6
CONTINUOUS
100
AcDbLine
 10
37.64705163358367
 20
2.148706609653477
 30
0.0
 11
36.23199999996837
 21
3.56375824326878
 31
0.0
  0
LINE
  5
21D83
330
21D53
100
AcDbEntity
  8
0
  6
CONTINUOUS
100
AcDbLine
 10
33.08199999996839
 20
6.713758243268758
 30
0.0
 11
31.64199999996833
 21
8.153758243268815
 31
0.0
  0
LINE
  5
21D84
330
21D53
100
AcDbEntity
  8
0
  6
CONTINUOUS
100
AcDbLine
 10
37.67199999996831
 20
2.797277452349026
 30
0.0
 11
36.23199999996837
 21
4.237277452348967
 31
0.0
  0
LINE
  5
21D85
330
21D53
100
AcDbEntity
  8
0
  6
CONTINUOUS
100
AcDbLine
 10
37.67199999996831
 20
3.470796661429213
 30
0.0
 11
36.23199999996837
 21
4.910796661429154
 31
0.0
  0
LINE
  5
21D86
330
21D53
100
AcDbEntity
  8
0
  6
CONTINUOUS
100
AcDbLine
 10
37.67199999996831
 20
4.144315870509399
 30
0.0
 11
36.23199999996837
 21
5.58431587050934
 31
0.0
  0
LINE
  5
21D87
330
21D53
100
AcDbEntity
  8
0
  6
CONTINUOUS
100
AcDbLine
 10
33.08199999996839
 20
7.387277452348945
 30
0.0
 11
31.70617745232608
 21
8.763099999991255
 31
0.0
  0
LINE
  5
21D88
330
21D53
100
AcDbEntity
  8
0
  6
CONTINUOUS
100
AcDbLine
 10
33.08199999996839
 20
8.060796661429132
 30
0.0
 11
32.37969666140626
 21
8.763099999991255
 31
0.0
  0
LINE
  5
21D89
330
21D53
100
AcDbEntity
  8
0
  6
CONTINUOUS
100
AcDbLine
 10
33.08199999996839
 20
8.734315870509318
 30
0.0
 11
33.05321587048645
 21
8.763099999991255
 31
0.0
  0
LINE
  5
21D8A
330
21D53
100
AcDbEntity
  8
0
  6
CONTINUOUS
100
AcDbLine
 10
37.67199999996831
 20
4.817835079589585
 30
0.0
 11
36.23199999996837
 21
6.257835079589526
 31
0.0
  0
LINE
  5
21D8B
330
21D53
100
AcDbEntity
  8
0
  6
CONTINUOUS
100
AcDbLine
 10
37.67199999996831
 20
5.491354288669771
 30
0.0
 11
36.23199999996837
 21
6.931354288669713
 31
0.0
  0
LINE
  5
21D8C
330
21D53
100
AcDbEntity
  8
0
  6
CONTINUOUS
100
AcDbLine
 10
37.67199999996831
 20
6.164873497749958
 30
0.0
 11
36.23199999996837
 21
7.6048734977499
 31
0.0
  0
LINE
  5
21D8D
330
21D53
100
AcDbEntity
  8
0
  6
CONTINUOUS
100
AcDbLine
 10
37.67199999996831
 20
6.838392706830144
 30
0.0
 11
36.23199999996837
 21
8.278392706830086
 31
0.0
  0
LINE
  5
21D8E
330
21D53
100
AcDbEntity
  8
0
  6
CONTINUOUS
100
AcDbLine
 10
37.67199999996831
 20
7.511911915910332
 30
0.0
 11
36.42081191588738
 21
8.763099999991255
 31
0.0
  0
LINE
  5
21D8F
330
21D53
100
AcDbEntity
  8
0
  6
CONTINUOUS
100
AcDbLine
 10
37.67199999996831
 20
8.185431124990519
 30
0.0
 11
37.09433112496757
 21
8.763099999991255
 31
0.0
  0
ENDBLK
  5
21DF7
330
21D53
100
AcDbEntity
  8
0
100
AcDbBlockEnd
  0
BLOCK
  5
21DF8
330
21D90
100
AcDbEntity
  8
0
100
AcDbBlockBegin
  2
*X131
 70
     1
 10
0.0
 20
0.0
 30
0.0
  3
*X131
  1

  0
LINE
  5
21D91
330
21D90
100
AcDbEntity
  8
0
  6
CONTINUOUS
100
AcDbLine
 10
38.60499999996136
 20
8.762866199104765
 30
0.0
 11
38.71672554182345
 21
8.874591740966855
 31
0.0
  0
LINE
  5
21D92
330
21D90
100
AcDbEntity
  8
0
  6
CONTINUOUS
100
AcDbLine
 10
38.60499999996136
 20
8.089346990024577
 30
0.0
 11
39.03418785440363
 21
8.518534844466847
 31
0.0
  0
LINE
  5
21D93
330
21D90
100
AcDbEntity
  8
0
  6
CONTINUOUS
100
AcDbLine
 10
38.60499999996136
 20
7.41582778094439
 30
0.0
 11
39.35165016698382
 21
8.16247794796684
 31
0.0
  0
LINE
  5
21D94
330
21D90
100
AcDbEntity
  8
0
  6
CONTINUOUS
100
AcDbLine
 10
38.60499999996136
 20
6.742308571864204
 30
0.0
 11
39.66911247956399
 21
7.806421051466834
 31
0.0
  0
LINE
  5
21D95
330
21D90
100
AcDbEntity
  8
0
  6
CONTINUOUS
100
AcDbLine
 10
38.60499999996136
 20
6.068789362784018
 30
0.0
 11
39.98657479214418
 21
7.450364154966827
 31
0.0
  0
LINE
  5
21D96
330
21D90
100
AcDbEntity
  8
0
  6
CONTINUOUS
100
AcDbLine
 10
38.60499999996136
 20
5.395270153703832
 30
0.0
 11
40.30403710472435
 21
7.09430725846682
 31
0.0
  0
LINE
  5
21D97
330
21D90
100
AcDbEntity
  8
0
  6
CONTINUOUS
100
AcDbLine
 10
38.60499999996136
 20
4.721750944623645
 30
0.0
 11
40.62149941730453
 21
6.738250361966813
 31
0.0
  0
LINE
  5
21D98
330
21D90
100
AcDbEntity
  8
0
  6
CONTINUOUS
100
AcDbLine
 10
38.60499999996136
 20
4.048231735543458
 30
0.0
 11
40.93896172988471
 21
6.382193465466806
 31
0.0
  0
LINE
  5
21D99
330
21D90
100
AcDbEntity
  8
0
  6
CONTINUOUS
100
AcDbLine
 10
38.60499999996136
 20
3.374712526463272
 30
0.0
 11
40.02599999995994
 21
4.795712526461843
 31
0.0
  0
LINE
  5
21D9A
330
21D90
100
AcDbEntity
  8
0
  6
CONTINUOUS
100
AcDbLine
 10
38.60499999996136
 20
2.701193317383085
 30
0.0
 11
40.02599999995994
 21
4.122193317381657
 31
0.0
  0
LINE
  5
21D9B
330
21D90
100
AcDbEntity
  8
0
  6
CONTINUOUS
100
AcDbLine
 10
40.28339754687704
 20
5.053110073378947
 30
0.0
 11
41.25642404246489
 21
6.026136568966799
 31
0.0
  0
LINE
  5
21D9C
330
21D90
100
AcDbEntity
  8
0
  6
CONTINUOUS
100
AcDbLine
 10
40.60085985945722
 20
4.697053176878939
 30
0.0
 11
41.57388635504507
 21
5.670079672466793
 31
0.0
  0
LINE
  5
21D9D
330
21D90
100
AcDbEntity
  8
0
  6
CONTINUOUS
100
AcDbLine
 10
43.57899999995641
 20
8.348712526458318
 30
0.0
 11
43.99338747348935
 21
8.763099999991255
 31
0.0
  0
LINE
  5
21D9E
330
21D90
100
AcDbEntity
  8
0
  6
CONTINUOUS
100
AcDbLine
 10
43.57899999995641
 20
7.675193317378131
 30
0.0
 11
44.66690668256953
 21
8.763099999991255
 31
0.0
  0
LINE
  5
21D9F
330
21D90
100
AcDbEntity
  8
0
  6
CONTINUOUS
100
AcDbLine
 10
38.60499999996136
 20
2.027674108302898
 30
0.0
 11
40.02599999995994
 21
3.44867410830147
 31
0.0
  0
LINE
  5
21DA0
330
21D90
100
AcDbEntity
  8
0
  6
CONTINUOUS
100
AcDbLine
 10
38.60499999996136
 20
1.354154899222712
 30
0.0
 11
40.02599999995994
 21
2.775154899221284
 31
0.0
  0
LINE
  5
21DA1
330
21D90
100
AcDbEntity
  8
0
  6
CONTINUOUS
100
AcDbLine
 10
38.60499999996136
 20
0.6806356901425255
 30
0.0
 11
40.02599999995994
 21
2.101635690141098
 31
0.0
  0
LINE
  5
21DA2
330
21D90
100
AcDbEntity
  8
0
  6
CONTINUOUS
100
AcDbLine
 10
38.60499999996136
 20
0.0071164810623383
 30
0.0
 11
40.02599999995994
 21
1.428116481060911
 31
0.0
  0
LINE
  5
21DA3
330
21D90
100
AcDbEntity
  8
0
  6
CONTINUOUS
100
AcDbLine
 10
40.9183221720374
 20
4.340996280378933
 30
0.0
 11
41.89134866762525
 21
5.314022775966786
 31
0.0
  0
LINE
  5
21DA4
330
21D90
100
AcDbEntity
  8
0
  6
CONTINUOUS
100
AcDbLine
 10
41.23578448461758
 20
3.984939383878926
 30
0.0
 11
42.20881098020543
 21
4.957965879466778
 31
0.0
  0
LINE
  5
21DA5
330
21D90
100
AcDbEntity
  8
0
  6
CONTINUOUS
100
AcDbLine
 10
41.55324679719776
 20
3.628882487378919
 30
0.0
 11
42.52627329278561
 21
4.601908982966772
 31
0.0
  0
LINE
  5
21DA6
330
21D90
100
AcDbEntity
  8
0
  6
CONTINUOUS
100
AcDbLine
 10
41.87070910977793
 20
3.272825590878912
 30
0.0
 11
42.84373560536579
 21
4.245852086466765
 31
0.0
  0
LINE
  5
21DA7
330
21D90
100
AcDbEntity
  8
0
  6
CONTINUOUS
100
AcDbLine
 10
43.57899999995641
 20
7.001674108297943
 30
0.0
 11
44.99999999995498
 21
8.422674108296516
 31
0.0
  0
LINE
  5
21DA8
330
21D90
100
AcDbEntity
  8
0
  6
CONTINUOUS
100
AcDbLine
 10
43.57899999995641
 20
6.328154899217758
 30
0.0
 11
44.99999999995498
 21
7.749154899216329
 31
0.0
  0
LINE
  5
21DA9
330
21D90
100
AcDbEntity
  8
0
  6
CONTINUOUS
100
AcDbLine
 10
43.57899999995641
 20
5.654635690137571
 30
0.0
 11
44.99999999995498
 21
7.075635690136142
 31
0.0
  0
LINE
  5
21DAA
330
21D90
100
AcDbEntity
  8
0
  6
CONTINUOUS
100
AcDbLine
 10
43.57899999995641
 20
4.981116481057384
 30
0.0
 11
44.99999999995498
 21
6.402116481055955
 31
0.0
  0
LINE
  5
21DAB
330
21D90
100
AcDbEntity
  8
0
  6
CONTINUOUS
100
AcDbLine
 10
39.27140272797921
 20
-0.0000000000000009
 30
0.0
 11
40.02599999995994
 21
0.7545972719807246
 31
0.0
  0
LINE
  5
21DAC
330
21D90
100
AcDbEntity
  8
0
  6
CONTINUOUS
100
AcDbLine
 10
39.9449219370594
 20
-0.0000000000000009
 30
0.0
 11
40.02599999995994
 21
0.0810780629005379
 31
0.0
  0
LINE
  5
21DAD
330
21D90
100
AcDbEntity
  8
0
  6
CONTINUOUS
100
AcDbLine
 10
42.18817142235812
 20
2.916768694378905
 30
0.0
 11
43.16119791794597
 21
3.889795189966758
 31
0.0
  0
LINE
  5
21DAE
330
21D90
100
AcDbEntity
  8
0
  6
CONTINUOUS
100
AcDbLine
 10
42.50563373493829
 20
2.560711797878898
 30
0.0
 11
43.47866023052615
 21
3.533738293466751
 31
0.0
  0
LINE
  5
21DAF
330
21D90
100
AcDbEntity
  8
0
  6
CONTINUOUS
100
AcDbLine
 10
43.57899999995641
 20
4.307597271977198
 30
0.0
 11
44.99999999995498
 21
5.728597271975769
 31
0.0
  0
LINE
  5
21DB0
330
21D90
100
AcDbEntity
  8
0
  6
CONTINUOUS
100
AcDbLine
 10
43.57899999995641
 20
3.634078062897011
 30
0.0
 11
44.99999999995498
 21
5.055078062895582
 31
0.0
  0
LINE
  5
21DB1
330
21D90
100
AcDbEntity
  8
0
  6
CONTINUOUS
100
AcDbLine
 10
42.82309604751848
 20
2.204654901378891
 30
0.0
 11
44.99999999995498
 21
4.381558853815395
 31
0.0
  0
LINE
  5
21DB2
330
21D90
100
AcDbEntity
  8
0
  6
CONTINUOUS
100
AcDbLine
 10
43.14055836009865
 20
1.848598004878885
 30
0.0
 11
44.99999999995498
 21
3.70803964473521
 31
0.0
  0
LINE
  5
21DB3
330
21D90
100
AcDbEntity
  8
0
  6
CONTINUOUS
100
AcDbLine
 10
43.45802067267883
 20
1.492541108378878
 30
0.0
 11
44.99999999995498
 21
3.034520435655023
 31
0.0
  0
LINE
  5
21DB4
330
21D90
100
AcDbEntity
  8
0
  6
CONTINUOUS
100
AcDbLine
 10
43.77548298525902
 20
1.136484211878871
 30
0.0
 11
44.99999999995498
 21
2.361001226574837
 31
0.0
  0
LINE
  5
21DB5
330
21D90
100
AcDbEntity
  8
0
  6
CONTINUOUS
100
AcDbLine
 10
44.09294529783919
 20
0.7804273153788639
 30
0.0
 11
44.99999999995498
 21
1.687482017494649
 31
0.0
  0
LINE
  5
21DB6
330
21D90
100
AcDbEntity
  8
0
  6
CONTINUOUS
100
AcDbLine
 10
44.41040761041938
 20
0.4243704188788566
 30
0.0
 11
44.99999999995498
 21
1.013962808414463
 31
0.0
  0
LINE
  5
21DB7
330
21D90
100
AcDbEntity
  8
0
  6
CONTINUOUS
100
AcDbLine
 10
44.72786992299955
 20
0.0683135223788494
 30
0.0
 11
44.99999999995498
 21
0.340443599334276
 31
0.0
  0
LINE
  5
21DB8
330
21D90
100
AcDbEntity
  8
0
  6
CONTINUOUS
100
AcDbLine
 10
39.12223903415696
 20
-0.0000000000000009
 30
0.0
 11
38.60499999996136
 21
0.5172390341955961
 31
0.0
  0
LINE
  5
21DB9
330
21D90
100
AcDbEntity
  8
0
  6
CONTINUOUS
100
AcDbLine
 10
39.79575824323715
 20
-0.0000000000000009
 30
0.0
 11
38.60499999996136
 21
1.190758243275783
 31
0.0
  0
LINE
  5
21DBA
330
21D90
100
AcDbEntity
  8
0
  6
CONTINUOUS
100
AcDbLine
 10
40.02599999995994
 20
0.443277452357397
 30
0.0
 11
38.60499999996136
 21
1.864277452355969
 31
0.0
  0
LINE
  5
21DBB
330
21D90
100
AcDbEntity
  8
0
  6
CONTINUOUS
100
AcDbLine
 10
40.02599999995994
 20
1.116796661437583
 30
0.0
 11
38.60499999996136
 21
2.537796661436155
 31
0.0
  0
LINE
  5
21DBC
330
21D90
100
AcDbEntity
  8
0
  6
CONTINUOUS
100
AcDbLine
 10
40.02599999995994
 20
1.79031587051777
 30
0.0
 11
38.60499999996136
 21
3.211315870516341
 31
0.0
  0
LINE
  5
21DBD
330
21D90
100
AcDbEntity
  8
0
  6
CONTINUOUS
100
AcDbLine
 10
40.02599999995994
 20
2.463835079597956
 30
0.0
 11
38.60499999996136
 21
3.884835079596527
 31
0.0
  0
LINE
  5
21DBE
330
21D90
100
AcDbEntity
  8
0
  6
CONTINUOUS
100
AcDbLine
 10
40.02599999995994
 20
3.137354288678143
 30
0.0
 11
38.60499999996136
 21
4.558354288676714
 31
0.0
  0
LINE
  5
21DBF
330
21D90
100
AcDbEntity
  8
0
  6
CONTINUOUS
100
AcDbLine
 10
40.02599999995994
 20
3.810873497758329
 30
0.0
 11
38.60499999996136
 21
5.2318734977569
 31
0.0
  0
LINE
  5
21DC0
330
21D90
100
AcDbEntity
  8
0
  6
CONTINUOUS
100
AcDbLine
 10
40.02599999995994
 20
4.484392706838515
 30
0.0
 11
38.60499999996136
 21
5.905392706837086
 31
0.0
  0
LINE
  5
21DC1
330
21D90
100
AcDbEntity
  8
0
  6
CONTINUOUS
100
AcDbLine
 10
44.99999999995498
 20
0.183911915923658
 30
0.0
 11
41.53858364506288
 21
3.64532827081576
 31
0.0
  0
LINE
  5
21DC2
330
21D90
100
AcDbEntity
  8
0
  6
CONTINUOUS
100
AcDbLine
 10
40.02599999995994
 20
5.157911915918703
 30
0.0
 11
38.60499999996136
 21
6.578911915917274
 31
0.0
  0
LINE
  5
21DC3
330
21D90
100
AcDbEntity
  8
0
  6
CONTINUOUS
100
AcDbLine
 10
44.99999999995498
 20
0.8574311250038447
 30
0.0
 11
38.60499999996136
 21
7.25243112499746
 31
0.0
  0
LINE
  5
21DC4
330
21D90
100
AcDbEntity
  8
0
  6
CONTINUOUS
100
AcDbLine
 10
44.99999999995498
 20
1.530950334084031
 30
0.0
 11
38.60499999996136
 21
7.925950334077647
 31
0.0
  0
LINE
  5
21DC5
330
21D90
100
AcDbEntity
  8
0
  6
CONTINUOUS
100
AcDbLine
 10
44.99999999995498
 20
2.204469543164218
 30
0.0
 11
43.57899999995641
 21
3.625469543162789
 31
0.0
  0
LINE
  5
21DC6
330
21D90
100
AcDbEntity
  8
0
  6
CONTINUOUS
100
AcDbLine
 10
41.89876730984767
 20
5.305702233271528
 30
0.0
 11
38.60499999996136
 21
8.599469543157834
 31
0.0
  0
LINE
  5
21DC7
330
21D90
100
AcDbEntity
  8
0
  6
CONTINUOUS
100
AcDbLine
 10
44.99999999995498
 20
2.877988752244405
 30
0.0
 11
43.57899999995641
 21
4.298988752242975
 31
0.0
  0
LINE
  5
21DC8
330
21D90
100
AcDbEntity
  8
0
  6
CONTINUOUS
100
AcDbLine
 10
44.99999999995498
 20
3.551507961324591
 30
0.0
 11
43.57899999995641
 21
4.972507961323163
 31
0.0
  0
LINE
  5
21DC9
330
21D90
100
AcDbEntity
  8
0
  6
CONTINUOUS
100
AcDbLine
 10
44.99999999995498
 20
4.225027170404777
 30
0.0
 11
43.57899999995641
 21
5.646027170403348
 31
0.0
  0
LINE
  5
21DCA
330
21D90
100
AcDbEntity
  8
0
  6
CONTINUOUS
100
AcDbLine
 10
44.99999999995498
 20
4.898546379484964
 30
0.0
 11
43.57899999995641
 21
6.319546379483535
 31
0.0
  0
LINE
  5
21DCB
330
21D90
100
AcDbEntity
  8
0
  6
CONTINUOUS
100
AcDbLine
 10
44.99999999995498
 20
5.572065588565151
 30
0.0
 11
43.57899999995641
 21
6.993065588563722
 31
0.0
  0
LINE
  5
21DCC
330
21D90
100
AcDbEntity
  8
0
  6
CONTINUOUS
100
AcDbLine
 10
44.99999999995498
 20
6.245584797645336
 30
0.0
 11
43.57899999995641
 21
7.666584797643908
 31
0.0
  0
LINE
  5
21DCD
330
21D90
100
AcDbEntity
  8
0
  6
CONTINUOUS
100
AcDbLine
 10
44.99999999995498
 20
6.919104006725522
 30
0.0
 11
43.57899999995641
 21
8.340104006724093
 31
0.0
  0
LINE
  5
21DCE
330
21D90
100
AcDbEntity
  8
0
  6
CONTINUOUS
100
AcDbLine
 10
44.99999999995498
 20
7.592623215805709
 30
0.0
 11
43.82952321576943
 21
8.763099999991255
 31
0.0
  0
LINE
  5
21DCF
330
21D90
100
AcDbEntity
  8
0
  6
CONTINUOUS
100
AcDbLine
 10
44.99999999995498
 20
8.266142424885896
 30
0.0
 11
44.50304242484962
 21
8.763099999991255
 31
0.0
  0
ENDBLK
  5
21DF9
330
21D90
100
AcDbEntity
  8
0
100
AcDbBlockEnd
  0
BLOCK
  5
21DFA
330
21DD0
100
AcDbEntity
  8
0
100
AcDbBlockBegin
  2
*X132
 70
     1
 10
0.0
 20
0.0
 30
0.0
  3
*X132
  1

  0
LINE
  5
21DD1
330
21DD0
100
AcDbEntity
  8
0
  6
CONTINUOUS
100
AcDbLine
 10
0.0
 20
8.548461116714023
 30
0.0
 11
0.2146388832772324
 21
8.763099999991255
 31
0.0
  0
LINE
  5
21DD2
330
21DD0
100
AcDbEntity
  8
0
  6
CONTINUOUS
100
AcDbLine
 10
-0.0000000000000002
 20
7.874941907633837
 30
0.0
 11
0.8881580923574184
 21
8.763099999991255
 31
0.0
  0
LINE
  5
21DD3
330
21DD0
100
AcDbEntity
  8
0
  6
CONTINUOUS
100
AcDbLine
 10
0.0
 20
7.20142269855365
 30
0.0
 11
1.420999999998572
 21
8.622422698552223
 31
0.0
  0
LINE
  5
21DD4
330
21DD0
100
AcDbEntity
  8
0
  6
CONTINUOUS
100
AcDbLine
 10
-0.0000000000000001
 20
6.527903489473465
 30
0.0
 11
1.420999999998571
 21
7.948903489472036
 31
0.0
  0
LINE
  5
21DD5
330
21DD0
100
AcDbEntity
  8
0
  6
CONTINUOUS
100
AcDbLine
 10
-0.0000000000000002
 20
5.854384280393278
 30
0.0
 11
1.420999999998571
 21
7.275384280391849
 31
0.0
  0
LINE
  5
21DD6
330
21DD0
100
AcDbEntity
  8
0
  6
CONTINUOUS
100
AcDbLine
 10
-0.0000000000000002
 20
5.180865071313091
 30
0.0
 11
1.420999999998571
 21
6.601865071311663
 31
0.0
  0
LINE
  5
21DD7
330
21DD0
100
AcDbEntity
  8
0
  6
CONTINUOUS
100
AcDbLine
 10
0.0
 20
4.507345862232905
 30
0.0
 11
1.420999999998571
 21
5.928345862231477
 31
0.0
  0
LINE
  5
21DD8
330
21DD0
100
AcDbEntity
  8
0
  6
CONTINUOUS
100
AcDbLine
 10
-0.0000000000000003
 20
3.833826653152718
 30
0.0
 11
1.420999999998571
 21
5.25482665315129
 31
0.0
  0
LINE
  5
21DD9
330
21DD0
100
AcDbEntity
  8
0
  6
CONTINUOUS
100
AcDbLine
 10
-0.0000000000000002
 20
3.160307444072532
 30
0.0
 11
1.420999999998571
 21
4.581307444071103
 31
0.0
  0
LINE
  5
21DDA
330
21DD0
100
AcDbEntity
  8
0
  6
CONTINUOUS
100
AcDbLine
 10
-0.0000000000000001
 20
2.486788234992345
 30
0.0
 11
1.420999999998571
 21
3.907788234990917
 31
0.0
  0
LINE
  5
21DDB
330
21DD0
100
AcDbEntity
  8
0
  6
CONTINUOUS
100
AcDbLine
 10
-0.0000000000000006
 20
1.813269025912159
 30
0.0
 11
1.420999999998571
 21
3.234269025910731
 31
0.0
  0
LINE
  5
21DDC
330
21DD0
100
AcDbEntity
  8
0
  6
CONTINUOUS
100
AcDbLine
 10
0.0
 20
1.139749816831973
 30
0.0
 11
1.420999999998571
 21
2.560749816830544
 31
0.0
  0
LINE
  5
21DDD
330
21DD0
100
AcDbEntity
  8
0
  6
CONTINUOUS
100
AcDbLine
 10
0.0000000000000002
 20
0.466230607751787
 30
0.0
 11
1.420999999998571
 21
1.887230607750358
 31
0.0
  0
LINE
  5
21DDE
330
21DD0
100
AcDbEntity
  8
0
  6
CONTINUOUS
100
AcDbLine
 10
0.2072886013284003
 20
-0.0000000000000009
 30
0.0
 11
1.420999999998571
 21
1.213711398670171
 31
0.0
  0
LINE
  5
21DDF
330
21DD0
100
AcDbEntity
  8
0
  6
CONTINUOUS
100
AcDbLine
 10
0.8808078104085864
 20
-0.0000000000000009
 30
0.0
 11
1.420999999998571
 21
0.5401921895899839
 31
0.0
  0
LINE
  5
21DE0
330
21DD0
100
AcDbEntity
  8
0
  6
CONTINUOUS
100
AcDbLine
 10
0.0581249075061505
 20
-0.0000000000000009
 30
0.0
 11
-0.0000000000000002
 21
0.0581249075061496
 31
0.0
  0
LINE
  5
21DE1
330
21DD0
100
AcDbEntity
  8
0
  6
CONTINUOUS
100
AcDbLine
 10
0.7316441165863372
 20
-0.0000000000000009
 30
0.0
 11
-0.0000000000000002
 21
0.7316441165863363
 31
0.0
  0
LINE
  5
21DE2
330
21DD0
100
AcDbEntity
  8
0
  6
CONTINUOUS
100
AcDbLine
 10
1.405163325666523
 20
-0.0000000000000009
 30
0.0
 11
-0.0000000000000002
 21
1.405163325666523
 31
0.0
  0
LINE
  5
21DE3
330
21DD0
100
AcDbEntity
  8
0
  6
CONTINUOUS
100
AcDbLine
 10
1.420999999998572
 20
0.6576825347481381
 30
0.0
 11
-0.0000000000000001
 21
2.07868253474671
 31
0.0
  0
LINE
  5
21DE4
330
21DD0
100
AcDbEntity
  8
0
  6
CONTINUOUS
100
AcDbLine
 10
1.420999999998571
 20
1.331201743828324
 30
0.0
 11
-0.0000000000000001
 21
2.752201743826896
 31
0.0
  0
LINE
  5
21DE5
330
21DD0
100
AcDbEntity
  8
0
  6
CONTINUOUS
100
AcDbLine
 10
1.420999999998571
 20
2.004720952908511
 30
0.0
 11
-0.0000000000000002
 21
3.425720952907082
 31
0.0
  0
LINE
  5
21DE6
330
21DD0
100
AcDbEntity
  8
0
  6
CONTINUOUS
100
AcDbLine
 10
1.420999999998571
 20
2.678240161988697
 30
0.0
 11
-0.0000000000000001
 21
4.099240161987269
 31
0.0
  0
LINE
  5
21DE7
330
21DD0
100
AcDbEntity
  8
0
  6
CONTINUOUS
100
AcDbLine
 10
1.420999999998572
 20
3.351759371068884
 30
0.0
 11
0.0
 21
4.772759371067455
 31
0.0
  0
LINE
  5
21DE8
330
21DD0
100
AcDbEntity
  8
0
  6
CONTINUOUS
100
AcDbLine
 10
1.420999999998571
 20
4.02527858014907
 30
0.0
 11
-0.0000000000000003
 21
5.446278580147642
 31
0.0
  0
LINE
  5
21DE9
330
21DD0
100
AcDbEntity
  8
0
  6
CONTINUOUS
100
AcDbLine
 10
1.420999999998571
 20
4.698797789229257
 30
0.0
 11
0.0
 21
6.119797789227828
 31
0.0
  0
LINE
  5
21DEA
330
21DD0
100
AcDbEntity
  8
0
  6
CONTINUOUS
100
AcDbLine
 10
1.420999999998571
 20
5.372316998309444
 30
0.0
 11
-0.0000000000000001
 21
6.793316998308015
 31
0.0
  0
LINE
  5
21DEB
330
21DD0
100
AcDbEntity
  8
0
  6
CONTINUOUS
100
AcDbLine
 10
1.420999999998572
 20
6.045836207389629
 30
0.0
 11
-0.0000000000000004
 21
7.466836207388202
 31
0.0
  0
LINE
  5
21DEC
330
21DD0
100
AcDbEntity
  8
0
  6
CONTINUOUS
100
AcDbLine
 10
1.420999999998571
 20
6.719355416469816
 30
0.0
 11
0.0
 21
8.140355416468388
 31
0.0
  0
LINE
  5
21DED
330
21DD0
100
AcDbEntity
  8
0
  6
CONTINUOUS
100
AcDbLine
 10
1.420999999998571
 20
7.392874625550003
 30
0.0
 11
0.0507746255573185
 21
8.763099999991255
 31
0.0
  0
LINE
  5
21DEE
330
21DD0
100
AcDbEntity
  8
0
  6
CONTINUOUS
100
AcDbLine
 10
1.420999999998571
 20
8.06639383463019
 30
0.0
 11
0.7242938346375052
 21
8.763099999991255
 31
0.0
  0
LINE
  5
21DEF
330
21DD0
100
AcDbEntity
  8
0
  6
CONTINUOUS
100
AcDbLine
 10
1.420999999998571
 20
8.739913043710375
 30
0.0
 11
1.397813043717691
 21
8.763099999991255
 31
0.0
  0
ENDBLK
  5
21DFB
330
21DD0
100
AcDbEntity
  8
0
100
AcDbBlockEnd
  0
ENDSEC
  0
SECTION
  2
ENTITIES
  0
LINE
  5
217A3
330
18
100
AcDbEntity
  8
01
100
AcDbLine
 10
443.9425814471546
 20
-954.176547556041
 30
0.0
 11
443.9425814471546
 21
-1034.176547556041
 31
0.0
  0
LINE
  5
217A4
330
18
100
AcDbEntity
  8
01
100
AcDbLine
 10
455.9425814471546
 20
-954.176547556041
 30
0.0
 11
455.9425814471546
 21
-1034.176547556041
 31
0.0
  0
LINE
  5
217A5
330
18
100
AcDbEntity
  8
01
100
AcDbLine
 10
434.9425814471546
 20
-954.176547556041
 30
0.0
 11
434.9425814471546
 21
-1034.176547556041
 31
0.0
  0
LINE
  5
217AF
330
18
100
AcDbEntity
  8
1CENTER
100
AcDbLine
 10
414.7107813038552
 20
-994.176547556041
 30
0.0
 11
471.6468457983184
 21
-994.176547556041
 31
0.0
  0
TEXT
  5
217B0
330
18
100
AcDbEntity
  8
1TEXT
100
AcDbText
 10
371.2391006300379
 20
-890.6381296360953
 30
0.0
 40
8.0
  1
KH-43-X
100
AcDbText
  0
ARC
  5
217B3
330
18
100
AcDbEntity
  8
1PHANTOM
100
AcDbCircle
 10
414.9425814471557
 20
-1000.582284961954
 30
0.0
 40
1.0
100
AcDbArc
 50
179.9999999999935
 51
267.9999999999962
  0
LINE
  5
217B4
330
18
100
AcDbEntity
  8
1PHANTOM
100
AcDbLine
 10
431.9425814471555
 20
-1002.176547587613
 30
0.0
 11
414.9076819504534
 21
-1001.581675788973
 31
0.0
  0
LINE
  5
217B5
330
18
100
AcDbEntity
  8
1PHANTOM
100
AcDbLine
 10
431.9425814471555
 20
-986.1765475876127
 30
0.0
 11
414.9076819504534
 21
-986.7714193862521
 31
0.0
  0
LINE
  5
217B6
330
18
100
AcDbEntity
  8
1PHANTOM
100
AcDbLine
 10
413.9425814471557
 20
-994.1765475876127
 30
0.0
 11
413.9425814471557
 21
-987.7708102132713
 31
0.0
  0
LINE
  5
217B7
330
18
100
AcDbEntity
  8
1PHANTOM
100
AcDbLine
 10
413.9425814471557
 20
-994.1765475876127
 30
0.0
 11
413.9425814471559
 21
-1000.582284961954
 31
0.0
  0
ARC
  5
217B8
330
18
100
AcDbEntity
  8
1PHANTOM
100
AcDbCircle
 10
414.9425814471557
 20
-987.7708102132711
 30
0.0
 40
1.0
100
AcDbArc
 50
92.00000000000372
 51
180.0
  0
LINE
  5
217B9
330
18
100
AcDbEntity
  8
1CENTER
100
AcDbLine
 10
381.6446003170493
 20
-994.1765475876127
 30
0.0
 11
368.240562577261
 21
-994.1765475876127
 31
0.0
  0
LINE
  5
217BA
330
18
100
AcDbEntity
  8
1CENTER
100
AcDbLine
 10
374.9425814471551
 20
-987.4745287177186
 30
0.0
 11
374.9425814471551
 21
-1000.878566457507
 31
0.0
  0
LINE
  5
217BB
330
18
100
AcDbEntity
  8
01
100
AcDbLine
 10
-282.4874330149409
 20
-911.129029873232
 30
0.0
 11
313.5125669850588
 21
-911.1290298732297
 31
0.0
  0
ARC
  5
217BC
330
18
100
AcDbEntity
  8
01
100
AcDbCircle
 10
313.512566985059
 20
-881.1290298732306
 30
0.0
 40
2.0
100
AcDbArc
 50
0.0
 51
90.0
  0
ARC
  5
217BD
330
18
100
AcDbEntity
  8
01
100
AcDbCircle
 10
313.5125669850588
 20
-909.1290298732297
 30
0.0
 40
2.0
100
AcDbArc
 50
270.0
 51
0.0
  0
LINE
  5
217BE
330
18
100
AcDbEntity
  8
01
100
AcDbLine
 10
313.512566985059
 20
-879.1290298732306
 30
0.0
 11
283.5125669850586
 21
-879.1290298732301
 31
0.0
  0
LINE
  5
217BF
330
18
100
AcDbEntity
  8
01
100
AcDbLine
 10
235.5125669850586
 20
-879.1290298732301
 30
0.0
 11
-204.4874330149404
 21
-879.1290298732304
 31
0.0
  0
LINE
  5
217C0
330
18
100
AcDbEntity
  8
01
100
AcDbLine
 10
316.0300167334103
 20
-880.8970996166158
 30
0.0
 11
318.8203253960817
 21
-880.9945393422363
 31
0.0
  0
ARC
  5
217C1
330
18
100
AcDbEntity
  8
01
100
AcDbCircle
 10
316.012566985059
 20
-881.3967950301253
 30
0.0
 40
0.5
100
AcDbArc
 50
87.9999999999965
 51
180.0
  0
ARC
  5
217C2
330
18
100
AcDbEntity
  8
01
100
AcDbCircle
 10
200.5125669850591
 20
-895.1290298732301
 30
0.0
 40
120.0
100
AcDbArc
 50
353.6628369157618
 51
6.337163084238189
  0
ARC
  5
217C3
330
18
100
AcDbEntity
  8
01
100
AcDbCircle
 10
318.7854258993789
 20
-881.9939301692548
 30
0.0
 40
1.0
100
AcDbArc
 50
6.337163084238194
 51
87.99999999998325
  0
LINE
  5
217C4
330
18
100
AcDbEntity
  8
01
100
AcDbLine
 10
316.0300167334103
 20
-909.360960129844
 30
0.0
 11
318.8203253960817
 21
-909.263520404224
 31
0.0
  0
ARC
  5
217C5
330
18
100
AcDbEntity
  8
01
100
AcDbCircle
 10
318.7854258993789
 20
-908.2641295772055
 30
0.0
 40
1.0
100
AcDbArc
 50
272.0000000000168
 51
353.6628369157618
  0
ARC
  5
217C6
330
18
100
AcDbEntity
  8
01
100
AcDbCircle
 10
316.012566985059
 20
-908.861264716335
 30
0.0
 40
0.5
100
AcDbArc
 50
180.0
 51
272.0000000000035
  0
LINE
  5
217C7
330
18
100
AcDbEntity
  8
01
100
AcDbLine
 10
283.5125669850586
 20
-838.1290298732306
 30
0.0
 11
283.5125669850586
 21
-882.8306559969815
 31
0.0
  0
LINE
  5
217C8
330
18
100
AcDbEntity
  8
01
100
AcDbLine
 10
283.0125669850588
 20
-883.3306559969815
 30
0.0
 11
236.0125669850586
 21
-883.3306559969819
 31
0.0
  0
ARC
  5
217C9
330
18
100
AcDbEntity
  8
01
100
AcDbCircle
 10
236.0125669850586
 20
-882.8306559969819
 30
0.0
 40
0.5
100
AcDbArc
 50
180.0
 51
270.0
  0
LINE
  5
217CA
330
18
100
AcDbEntity
  8
01
100
AcDbLine
 10
235.5125669850586
 20
-882.8306559969819
 30
0.0
 11
235.5125669850586
 21
-838.1290298732306
 31
0.0
  0
LINE
  5
217CB
330
18
100
AcDbEntity
  8
01
100
AcDbLine
 10
235.5125669850586
 20
-838.1290298732306
 30
0.0
 11
283.5125669850586
 21
-838.1290298732306
 31
0.0
  0
ARC
  5
217CC
330
18
100
AcDbEntity
  8
01
100
AcDbCircle
 10
283.0125669850588
 20
-882.8306559969815
 30
0.0
 40
0.5
100
AcDbArc
 50
270.0
 51
0.0
  0
LINE
  5
217CD
330
18
100
AcDbEntity
  8
01
100
AcDbLine
 10
315.512566985059
 20
-881.1290298732306
 30
0.0
 11
315.5125669850588
 21
-909.1290298732297
 31
0.0
  0
ARC
  5
217CE
330
18
100
AcDbEntity
  8
01
100
AcDbCircle
 10
374.9425814471551
 20
-994.1765475560408
 30
0.0
 40
15.99999999999955
100
AcDbArc
 50
42.36051340200894
 51
317.6394865979905
  0
CIRCLE
  5
217CF
330
18
100
AcDbEntity
  8
01
100
AcDbCircle
 10
374.9425814471551
 20
-994.1765475560408
 30
0.0
 40
14.23193025661427
  0
ARC
  5
217D0
330
18
100
AcDbEntity
  8
01
100
AcDbCircle
 10
375.4425814471563
 20
-994.1765475560408
 30
0.0
 40
15.49999999999955
100
AcDbArc
 50
318.189685104208
 51
350.3434437147113
  0
ARC
  5
217D1
330
18
100
AcDbEntity
  8
01
100
AcDbCircle
 10
375.4425814471563
 20
-994.1765475560408
 30
0.0
 40
15.49999999999955
100
AcDbArc
 50
350.0383936456121
 51
9.656556285288715
  0
ARC
  5
217D2
330
18
100
AcDbEntity
  8
01
100
AcDbCircle
 10
375.4425814471563
 20
-994.1765475560408
 30
0.0
 40
15.49999999999955
100
AcDbArc
 50
9.656556285288715
 51
41.81031489577506
  0
ARC
  5
217D3
330
18
100
AcDbEntity
  8
01
100
AcDbCircle
 10
387.7409553234049
 20
-983.1765475560408
 30
0.0
 40
1.0
100
AcDbArc
 50
90.0
 51
221.8103148957934
  0
ARC
  5
217D4
330
18
100
AcDbEntity
  8
01
100
AcDbCircle
 10
387.7409553234049
 20
-1005.176547556041
 30
0.0
 40
1.0
100
AcDbArc
 50
138.1896851042066
 51
270.0
  0
LINE
  5
217D5
330
18
100
AcDbEntity
  8
01
100
AcDbLine
 10
431.9425814471558
 20
-1006.176547556041
 30
0.0
 11
431.9425814471533
 21
-982.1765475560408
 31
0.0
  0
LINE
  5
217D6
330
18
100
AcDbEntity
  8
01
100
AcDbLine
 10
431.9425814471533
 20
-982.1765475560408
 30
0.0
 11
387.7409553234052
 21
-982.1765475560408
 31
0.0
  0
LINE
  5
217D7
330
18
100
AcDbEntity
  8
01
100
AcDbLine
 10
431.9425814471558
 20
-1006.176547556041
 30
0.0
 11
387.7409553234052
 21
-1006.176547556041
 31
0.0
  0
ARC
  5
217D8
330
18
100
AcDbEntity
  8
01
100
AcDbCircle
 10
-282.4874330149409
 20
-881.1290298732306
 30
0.0
 40
2.0
100
AcDbArc
 50
90.0
 51
180.0
  0
ARC
  5
217D9
330
18
100
AcDbEntity
  8
01
100
AcDbCircle
 10
-282.4874330149409
 20
-909.1290298732297
 30
0.0
 40
2.0
100
AcDbArc
 50
180.0
 51
270.0
  0
LINE
  5
217DA
330
18
100
AcDbEntity
  8
01
100
AcDbLine
 10
-282.4874330149409
 20
-879.1290298732306
 30
0.0
 11
-252.4874330149406
 21
-879.1290298732301
 31
0.0
  0
LINE
  5
217DB
330
18
100
AcDbEntity
  8
01
100
AcDbLine
 10
-285.0048827632922
 20
-880.8970996166158
 30
0.0
 11
-287.7951914259635
 21
-880.9945393422363
 31
0.0
  0
ARC
  5
217DC
330
18
100
AcDbEntity
  8
01
100
AcDbCircle
 10
-284.9874330149409
 20
-881.3967950301253
 30
0.0
 40
0.5
100
AcDbArc
 50
0.0
 51
92.00000000000351
  0
ARC
  5
217DD
330
18
100
AcDbEntity
  8
01
100
AcDbCircle
 10
-169.487433014941
 20
-895.1290298732301
 30
0.0
 40
120.0
100
AcDbArc
 50
173.6628369157618
 51
186.3371630842382
  0
ARC
  5
217DE
330
18
100
AcDbEntity
  8
01
100
AcDbCircle
 10
-287.760291929261
 20
-881.9939301692548
 30
0.0
 40
1.0
100
AcDbArc
 50
92.00000000001025
 51
173.6628369157618
  0
LINE
  5
217DF
330
18
100
AcDbEntity
  8
01
100
AcDbLine
 10
-285.0048827632922
 20
-909.360960129844
 30
0.0
 11
-287.7951914259635
 21
-909.263520404224
 31
0.0
  0
ARC
  5
217E0
330
18
100
AcDbEntity
  8
01
100
AcDbCircle
 10
-287.760291929261
 20
-908.2641295772055
 30
0.0
 40
1.0
100
AcDbArc
 50
186.3371630842382
 51
267.9999999999897
  0
ARC
  5
217E1
330
18
100
AcDbEntity
  8
01
100
AcDbCircle
 10
-284.9874330149409
 20
-908.861264716335
 30
0.0
 40
0.5
100
AcDbArc
 50
267.9999999999965
 51
0.0
  0
LINE
  5
217E2
330
18
100
AcDbEntity
  8
01
100
AcDbLine
 10
-252.4874330149406
 20
-838.1290298732306
 30
0.0
 11
-252.4874330149406
 21
-882.8306559969815
 31
0.0
  0
LINE
  5
217E3
330
18
100
AcDbEntity
  8
01
100
AcDbLine
 10
-251.9874330149408
 20
-883.3306559969815
 30
0.0
 11
-204.9874330149406
 21
-883.3306559969819
 31
0.0
  0
ARC
  5
217E4
330
18
100
AcDbEntity
  8
01
100
AcDbCircle
 10
-204.9874330149406
 20
-882.8306559969819
 30
0.0
 40
0.5
100
AcDbArc
 50
270.0
 51
0.0
  0
LINE
  5
217E5
330
18
100
AcDbEntity
  8
01
100
AcDbLine
 10
-204.4874330149404
 20
-882.8306559969819
 30
0.0
 11
-204.4874330149406
 21
-838.1290298732306
 31
0.0
  0
LINE
  5
217E6
330
18
100
AcDbEntity
  8
01
100
AcDbLine
 10
-204.4874330149406
 20
-838.1290298732306
 30
0.0
 11
-252.4874330149406
 21
-838.1290298732306
 31
0.0
  0
ARC
  5
217E7
330
18
100
AcDbEntity
  8
01
100
AcDbCircle
 10
-251.9874330149408
 20
-882.8306559969815
 30
0.0
 40
0.5
100
AcDbArc
 50
180.0
 51
270.0
  0
LINE
  5
217E8
330
18
100
AcDbEntity
  8
01
100
AcDbLine
 10
-284.4874330149409
 20
-881.1290298732306
 30
0.0
 11
-284.4874330149409
 21
-909.1290298732297
 31
0.0
  0
LINE
  5
217E9
330
18
100
AcDbEntity
  8
01
100
AcDbLine
 10
-282.4874330149409
 20
-978.1765475876109
 30
0.0
 11
313.5125669850588
 21
-978.1765475876132
 31
0.0
  0
ARC
  5
217EA
330
18
100
AcDbEntity
  8
01
100
AcDbCircle
 10
-282.4874330149409
 20
-1008.176547587612
 30
0.0
 40
2.0
100
AcDbArc
 50
180.0
 51
270.0
  0
ARC
  5
217EB
330
18
100
AcDbEntity
  8
01
100
AcDbCircle
 10
-282.4874330149409
 20
-980.1765475876132
 30
0.0
 40
2.0
100
AcDbArc
 50
90.0
 51
180.0
  0
LINE
  5
217EC
330
18
100
AcDbEntity
  8
01
100
AcDbLine
 10
-282.4874330149409
 20
-1010.176547587612
 30
0.0
 11
313.512566985059
 21
-1010.176547587621
 31
0.0
  0
LINE
  5
217ED
330
18
100
AcDbEntity
  8
01
100
AcDbLine
 10
-285.0048827632922
 20
-1008.408477844227
 30
0.0
 11
-287.7951914259635
 21
-1008.311038118607
 31
0.0
  0
ARC
  5
217EE
330
18
100
AcDbEntity
  8
01
100
AcDbCircle
 10
-284.9874330149409
 20
-1007.908782430718
 30
0.0
 40
0.5
100
AcDbArc
 50
267.9999999999965
 51
0.0
  0
ARC
  5
217EF
330
18
100
AcDbEntity
  8
01
100
AcDbCircle
 10
-169.487433014941
 20
-994.1765475876127
 30
0.0
 40
120.0
100
AcDbArc
 50
173.6628369157618
 51
186.3371630842382
  0
ARC
  5
217F0
330
18
100
AcDbEntity
  8
01
100
AcDbCircle
 10
-287.760291929261
 20
-1007.311647291588
 30
0.0
 40
1.0
100
AcDbArc
 50
186.3371630842382
 51
267.9999999999897
  0
LINE
  5
217F1
330
18
100
AcDbEntity
  8
01
100
AcDbLine
 10
-285.0048827632922
 20
-979.9446173309989
 30
0.0
 11
-287.7951914259635
 21
-980.0420570566189
 31
0.0
  0
ARC
  5
217F2
330
18
100
AcDbEntity
  8
01
100
AcDbCircle
 10
-287.760291929261
 20
-981.0414478836374
 30
0.0
 40
1.0
100
AcDbArc
 50
92.00000000001025
 51
173.6628369157618
  0
ARC
  5
217F3
330
18
100
AcDbEntity
  8
01
100
AcDbCircle
 10
-284.9874330149409
 20
-980.4443127445079
 30
0.0
 40
0.5
100
AcDbArc
 50
0.0
 51
92.00000000000351
  0
LINE
  5
217F4
330
18
100
AcDbEntity
  8
01
100
AcDbLine
 10
-284.4874330149409
 20
-1008.176547587612
 30
0.0
 11
-284.4874330149409
 21
-980.1765475876132
 31
0.0
  0
ARC
  5
217F5
330
18
100
AcDbEntity
  8
01
100
AcDbCircle
 10
313.512566985059
 20
-1008.176547587612
 30
0.0
 40
2.0
100
AcDbArc
 50
270.0
 51
0.0
  0
ARC
  5
217F6
330
18
100
AcDbEntity
  8
01
100
AcDbCircle
 10
313.5125669850588
 20
-980.1765475876132
 30
0.0
 40
2.0
100
AcDbArc
 50
0.0
 51
90.0
  0
LINE
  5
217F7
330
18
100
AcDbEntity
  8
01
100
AcDbLine
 10
316.0300167334103
 20
-1008.408477844227
 30
0.0
 11
318.8203253960817
 21
-1008.311038118607
 31
0.0
  0
ARC
  5
217F8
330
18
100
AcDbEntity
  8
01
100
AcDbCircle
 10
316.012566985059
 20
-1007.908782430718
 30
0.0
 40
0.5
100
AcDbArc
 50
180.0
 51
272.0000000000035
  0
ARC
  5
217F9
330
18
100
AcDbEntity
  8
01
100
AcDbCircle
 10
200.5125669850591
 20
-994.1765475876127
 30
0.0
 40
120.0
100
AcDbArc
 50
353.6628369157618
 51
6.337163084238189
  0
ARC
  5
217FA
330
18
100
AcDbEntity
  8
01
100
AcDbCircle
 10
318.7854258993789
 20
-1007.311647291588
 30
0.0
 40
1.0
100
AcDbArc
 50
272.0000000000168
 51
353.6628369157618
  0
LINE
  5
217FB
330
18
100
AcDbEntity
  8
01
100
AcDbLine
 10
316.0300167334103
 20
-979.9446173309989
 30
0.0
 11
318.8203253960817
 21
-980.0420570566189
 31
0.0
  0
ARC
  5
217FC
330
18
100
AcDbEntity
  8
01
100
AcDbCircle
 10
318.7854258993789
 20
-981.0414478836374
 30
0.0
 40
1.0
100
AcDbArc
 50
6.337163084238194
 51
87.99999999998325
  0
ARC
  5
217FD
330
18
100
AcDbEntity
  8
01
100
AcDbCircle
 10
316.012566985059
 20
-980.4443127445079
 30
0.0
 40
0.5
100
AcDbArc
 50
87.9999999999965
 51
180.0
  0
LINE
  5
217FE
330
18
100
AcDbEntity
  8
01
100
AcDbLine
 10
315.512566985059
 20
-1008.176547587612
 30
0.0
 11
315.5125669850588
 21
-980.1765475876132
 31
0.0
  0
CIRCLE
  5
21800
330
18
100
AcDbEntity
  8
1PHANTOM
100
AcDbCircle
 10
-241.0791927417311
 20
-994.1765475876127
 30
0.0
 40
3.0
  0
CIRCLE
  5
21801
330
18
100
AcDbEntity
  8
1PHANTOM
100
AcDbCircle
 10
-216.0791927417311
 20
-994.1765475876127
 30
0.0
 40
3.0
  0
LINE
  5
21802
330
18
100
AcDbEntity
  8
1PHANTOM
100
AcDbLine
 10
-252.5791927417304
 20
-980.1765475876127
 30
0.0
 11
-252.5791927417304
 21
-1008.176547587613
 31
0.0
  0
LINE
  5
21803
330
18
100
AcDbEntity
  8
1PHANTOM
100
AcDbLine
 10
-204.5791927417307
 20
-980.1765475876127
 30
0.0
 11
-204.5791927417307
 21
-1008.176547587613
 31
0.0
  0
LINE
  5
21804
330
18
100
AcDbEntity
  8
1PHANTOM
100
AcDbLine
 10
-204.5791927417307
 20
-1008.176547587613
 30
0.0
 11
-252.5791927417304
 21
-1008.176547587613
 31
0.0
  0
LINE
  5
21805
330
18
100
AcDbEntity
  8
1PHANTOM
100
AcDbLine
 10
-204.5791927417307
 20
-980.1765475876127
 30
0.0
 11
-252.5791927417304
 21
-980.1765475876127
 31
0.0
  0
LINE
  5
21806
330
18
100
AcDbEntity
  8
1CENTER
100
AcDbLine
 10
-241.0791927417311
 20
-985.4768209697863
 30
0.0
 11
-241.0791927417311
 21
-1002.876274205439
 31
0.0
  0
LINE
  5
21807
330
18
100
AcDbEntity
  8
1CENTER
100
AcDbLine
 10
-249.7789193595575
 20
-994.1765475876127
 30
0.0
 11
-207.3794661239047
 21
-994.1765475876127
 31
0.0
  0
LINE
  5
21808
330
18
100
AcDbEntity
  8
1CENTER
100
AcDbLine
 10
-216.0791927417311
 20
-985.4768209697863
 30
0.0
 11
-216.0791927417311
 21
-1002.876274205439
 31
0.0
  0
CIRCLE
  5
21809
330
18
100
AcDbEntity
  8
1PHANTOM
100
AcDbCircle
 10
271.920807258269
 20
-994.1765475876132
 30
0.0
 40
3.0
  0
CIRCLE
  5
2180A
330
18
100
AcDbEntity
  8
1PHANTOM
100
AcDbCircle
 10
246.920807258269
 20
-994.176547587613
 30
0.0
 40
3.0
  0
LINE
  5
2180B
330
18
100
AcDbEntity
  8
1PHANTOM
100
AcDbLine
 10
283.4208072582683
 20
-980.1765475876132
 30
0.0
 11
283.4208072582683
 21
-1008.176547587613
 31
0.0
  0
LINE
  5
2180C
330
18
100
AcDbEntity
  8
1PHANTOM
100
AcDbLine
 10
235.4208072582685
 20
-980.176547587613
 30
0.0
 11
235.4208072582685
 21
-1008.176547587613
 31
0.0
  0
LINE
  5
2180D
330
18
100
AcDbEntity
  8
1PHANTOM
100
AcDbLine
 10
235.4208072582685
 20
-1008.176547587613
 30
0.0
 11
283.4208072582683
 21
-1008.176547587613
 31
0.0
  0
LINE
  5
2180E
330
18
100
AcDbEntity
  8
1PHANTOM
100
AcDbLine
 10
235.4208072582685
 20
-980.176547587613
 30
0.0
 11
283.4208072582683
 21
-980.1765475876132
 31
0.0
  0
LINE
  5
2180F
330
18
100
AcDbEntity
  8
1CENTER
100
AcDbLine
 10
271.920807258269
 20
-985.4768209697868
 30
0.0
 11
271.920807258269
 21
-1002.87627420544
 31
0.0
  0
LINE
  5
21810
330
18
100
AcDbEntity
  8
1CENTER
100
AcDbLine
 10
280.6205338760954
 20
-994.1765475876132
 30
0.0
 11
238.2210806404426
 21
-994.176547587613
 31
0.0
  0
LINE
  5
21811
330
18
100
AcDbEntity
  8
1CENTER
100
AcDbLine
 10
246.920807258269
 20
-985.4768209697866
 30
0.0
 11
246.920807258269
 21
-1002.876274205439
 31
0.0
  0
LINE
  5
21812
330
18
100
AcDbEntity
  8
1CENTER
100
AcDbLine
 10
-228.5791927417329
 20
-856.1290298732306
 30
0.0
 11
-228.5791927417329
 21
-838.1290298732308
 31
0.0
  0
LINE
  5
21813
330
18
100
AcDbEntity
  8
1PHANTOM
100
AcDbLine
 10
-245.1944547330241
 20
-850.1290298732306
 30
0.0
 11
-234.0620371291365
 21
-850.1290298732306
 31
0.0
  0
LINE
  5
21814
330
18
100
AcDbEntity
  8
1PHANTOM
100
AcDbLine
 10
-211.9639307504408
 20
-850.1290298732295
 30
0.0
 11
-223.0963483543286
 21
-850.1290298732304
 31
0.0
  0
ARC
  5
21815
330
18
100
AcDbEntity
  8
1PHANTOM
100
AcDbCircle
 10
-211.9639307504408
 20
-849.1290298732297
 30
0.0
 40
1.0
100
AcDbArc
 50
270.0
 51
358.0000000000094
  0
LINE
  5
21816
330
18
100
AcDbEntity
  8
1PHANTOM
100
AcDbLine
 10
-210.9645399234217
 20
-849.163929369932
 30
0.0
 11
-210.5791927417334
 21
-838.1290298732295
 31
0.0
  0
LINE
  5
21817
330
18
100
AcDbEntity
  8
1PHANTOM
100
AcDbLine
 10
-228.5791927417323
 20
-856.1290298732306
 30
0.0
 11
-232.4039793499752
 21
-856.1290298732308
 31
0.0
  0
ARC
  5
21818
330
18
100
AcDbEntity
  8
1PHANTOM
100
AcDbCircle
 10
-224.7544061334894
 20
-855.1290298732306
 30
0.0
 40
1.0
100
AcDbArc
 50
270.0000000000032
 51
357.9999999999964
  0
LINE
  5
21819
330
18
100
AcDbEntity
  8
1PHANTOM
100
AcDbLine
 10
-228.5791927417323
 20
-856.1290298732306
 30
0.0
 11
-224.7544061334894
 21
-856.1290298732306
 31
0.0
  0
ARC
  5
2181A
330
18
100
AcDbEntity
  8
1PHANTOM
100
AcDbCircle
 10
-223.0963483543286
 20
-850.6290298732304
 30
0.0
 40
0.5
100
AcDbArc
 50
89.99999999999675
 51
177.9999999999963
  0
LINE
  5
2181B
330
18
100
AcDbEntity
  8
1PHANTOM
100
AcDbLine
 10
-223.7550153064702
 20
-855.1639293699329
 30
0.0
 11
-223.5960437678381
 21
-850.6115801248791
 31
0.0
  0
ARC
  5
2181C
330
18
100
AcDbEntity
  8
1PHANTOM
100
AcDbCircle
 10
-232.4039793499752
 20
-855.1290298732308
 30
0.0
 40
1.0
100
AcDbArc
 50
182.0000000000037
 51
269.9999999999968
  0
ARC
  5
2181D
330
18
100
AcDbEntity
  8
1PHANTOM
100
AcDbCircle
 10
-234.0620371291363
 20
-850.6290298732308
 30
0.0
 40
0.5
100
AcDbArc
 50
2.000000000003613
 51
90.00000000000651
  0
LINE
  5
2181E
330
18
100
AcDbEntity
  8
1PHANTOM
100
AcDbLine
 10
-233.4033701769944
 20
-855.1639293699332
 30
0.0
 11
-233.5623417156268
 21
-850.6115801248793
 31
0.0
  0
ARC
  5
2181F
330
18
100
AcDbEntity
  8
1PHANTOM
100
AcDbCircle
 10
-245.1944547330243
 20
-849.1290298732306
 30
0.0
 40
1.0
100
AcDbArc
 50
182.0000000000037
 51
270.0
  0
LINE
  5
21820
330
18
100
AcDbEntity
  8
1PHANTOM
100
AcDbLine
 10
-246.1938455600433
 20
-849.1639293699332
 30
0.0
 11
-246.5791927417323
 21
-838.1290298732308
 31
0.0
  0
LINE
  5
21821
330
18
100
AcDbEntity
  8
01
100
AcDbLine
 10
-230.3469596946991
 20
-849.8612629202644
 30
0.0
 11
-226.8114257887667
 21
-853.3967968261968
 31
0.0
  0
LINE
  5
21822
330
18
100
AcDbEntity
  8
01
100
AcDbLine
 10
-230.3469596946991
 20
-853.3967968261968
 30
0.0
 11
-226.8114257887667
 21
-849.8612629202644
 31
0.0
  0
CIRCLE
  5
21823
330
18
100
AcDbEntity
  8
01
100
AcDbCircle
 10
-228.5791927417329
 20
-851.6290298732306
 30
0.0
 40
4.0
  0
LINE
  5
21824
330
18
100
AcDbEntity
  8
1PHANTOM
100
AcDbLine
 10
242.9890647205598
 20
-850.1290298732306
 30
0.0
 11
254.1214823244475
 21
-850.1290298732306
 31
0.0
  0
LINE
  5
21825
330
18
100
AcDbEntity
  8
1PHANTOM
100
AcDbLine
 10
276.219588703143
 20
-850.1290298732295
 30
0.0
 11
265.0871710992553
 21
-850.1290298732304
 31
0.0
  0
ARC
  5
21826
330
18
100
AcDbEntity
  8
1PHANTOM
100
AcDbCircle
 10
276.219588703143
 20
-849.1290298732297
 30
0.0
 40
1.0
100
AcDbArc
 50
270.0
 51
358.0000000000093
  0
LINE
  5
21827
330
18
100
AcDbEntity
  8
1PHANTOM
100
AcDbLine
 10
277.2189795301622
 20
-849.163929369932
 30
0.0
 11
277.6043267118505
 21
-838.1290298732295
 31
0.0
  0
LINE
  5
21828
330
18
100
AcDbEntity
  8
1PHANTOM
100
AcDbLine
 10
259.6043267118516
 20
-856.1290298732306
 30
0.0
 11
255.7795401036087
 21
-856.1290298732308
 31
0.0
  0
ARC
  5
21829
330
18
100
AcDbEntity
  8
1PHANTOM
100
AcDbCircle
 10
263.4291133200945
 20
-855.1290298732306
 30
0.0
 40
1.0
100
AcDbArc
 50
270.0
 51
357.9999999999962
  0
LINE
  5
2182A
330
18
100
AcDbEntity
  8
1PHANTOM
100
AcDbLine
 10
259.6043267118516
 20
-856.1290298732306
 30
0.0
 11
263.4291133200945
 21
-856.1290298732306
 31
0.0
  0
ARC
  5
2182B
330
18
100
AcDbEntity
  8
1PHANTOM
100
AcDbCircle
 10
265.0871710992553
 20
-850.6290298732304
 30
0.0
 40
0.5
100
AcDbArc
 50
90.0
 51
177.9999999999965
  0
LINE
  5
2182C
330
18
100
AcDbEntity
  8
1PHANTOM
100
AcDbLine
 10
264.4285041471137
 20
-855.1639293699329
 30
0.0
 11
264.5874756857459
 21
-850.6115801248791
 31
0.0
  0
ARC
  5
2182D
330
18
100
AcDbEntity
  8
1PHANTOM
100
AcDbCircle
 10
255.7795401036087
 20
-855.1290298732308
 30
0.0
 40
1.0
100
AcDbArc
 50
182.0000000000037
 51
269.9999999999935
  0
ARC
  5
2182E
330
18
100
AcDbEntity
  8
1PHANTOM
100
AcDbCircle
 10
254.1214823244475
 20
-850.6290298732308
 30
0.0
 40
0.5
100
AcDbArc
 50
2.000000000003499
 51
90.0
  0
LINE
  5
2182F
330
18
100
AcDbEntity
  8
1PHANTOM
100
AcDbLine
 10
254.7801492765896
 20
-855.1639293699332
 30
0.0
 11
254.6211777379572
 21
-850.6115801248793
 31
0.0
  0
ARC
  5
21830
330
18
100
AcDbEntity
  8
1PHANTOM
100
AcDbCircle
 10
242.9890647205596
 20
-849.1290298732306
 30
0.0
 40
1.0
100
AcDbArc
 50
182.0000000000037
 51
270.0
  0
LINE
  5
21831
330
18
100
AcDbEntity
  8
1PHANTOM
100
AcDbLine
 10
241.9896738935406
 20
-849.1639293699332
 30
0.0
 11
241.6043267118516
 21
-838.1290298732308
 31
0.0
  0
LINE
  5
21832
330
18
100
AcDbEntity
  8
01
100
AcDbLine
 10
257.8365597588847
 20
-849.8612629202644
 30
0.0
 11
261.3720936648172
 21
-853.3967968261968
 31
0.0
  0
LINE
  5
21833
330
18
100
AcDbEntity
  8
01
100
AcDbLine
 10
257.8365597588847
 20
-853.3967968261968
 30
0.0
 11
261.3720936648172
 21
-849.8612629202644
 31
0.0
  0
CIRCLE
  5
21834
330
18
100
AcDbEntity
  8
01
100
AcDbCircle
 10
259.6043267118509
 20
-851.6290298732306
 30
0.0
 40
4.0
  0
LINE
  5
21839
330
18
100
AcDbEntity
  8
1DIM
100
AcDbLine
 10
406.2428926932872
 20
-915.0378740329629
 30
0.0
 11
486.2428926932872
 21
-915.0378740329629
 31
0.0
  0
TEXT
  5
2183A
330
18
100
AcDbEntity
  8
1TEXT
100
AcDbText
 10
379.1762260266193
 20
-913.3487876445338
 30
0.0
 40
4.0
  1
クローム
 72
     1
 11
388.6428926932859
 21
-913.3487876445338
 31
0.0
100
AcDbText
  0
TEXT
  5
2183B
330
18
100
AcDbEntity
  8
1TEXT
100
AcDbText
 10
374.5762260266197
 20
-899.5378740329629
 30
0.0
 40
4.0
  1
仕上げ：脚部
 72
     1
 11
388.6428926932864
 21
-899.5378740329629
 31
0.0
100
AcDbText
  0
LINE
  5
2183C
330
18
100
AcDbEntity
  8
1DIM
100
AcDbLine
 10
371.2428926932868
 20
-894.0378740329629
 30
0.0
 11
486.2428926932868
 21
-894.0378740329629
 31
0.0
  0
LINE
  5
2183D
330
18
100
AcDbEntity
  8
1DIM
100
AcDbLine
 10
371.2428926932868
 20
-901.0378740329629
 30
0.0
 11
486.2428926932868
 21
-901.0378740329629
 31
0.0
  0
LINE
  5
2183E
330
18
100
AcDbEntity
  8
1DIM
100
AcDbLine
 10
406.2428926932872
 20
-908.0378740329629
 30
0.0
 11
486.2428926932872
 21
-908.0378740329629
 31
0.0
  0
LINE
  5
2183F
330
18
100
AcDbEntity
  8
1DIM
100
AcDbLine
 10
406.2428926932868
 20
-894.0378740329629
 30
0.0
 11
406.2428926932869
 21
-922.0378740329633
 31
0.0
  0
TEXT
  5
21840
330
18
100
AcDbEntity
  8
1TEXT
100
AcDbText
 10
412.5095593599535
 20
-906.7522310166123
 30
0.0
 40
4.0
  1
ベージュレザー
 72
     1
 11
428.6428926932869
 21
-906.7522310166123
 31
0.0
100
AcDbText
  0
TEXT
  5
21841
330
18
100
AcDbEntity
  8
1TEXT
100
AcDbText
 10
415.109559359953
 20
-899.5378740329629
 30
0.0
 40
4.0
  1
仕上げ：握り
 72
     1
 11
428.6428926932864
 21
-899.5378740329629
 31
0.0
100
AcDbText
  0
LINE
  5
21842
330
18
100
AcDbEntity
  8
1DIM
100
AcDbLine
 10
371.2428926932868
 20
-922.0378740329631
 30
0.0
 11
486.2428926932872
 21
-922.0378740329631
 31
0.0
  0
LINE
  5
21843
330
18
100
AcDbEntity
  8
1DIM
100
AcDbLine
 10
371.2428926932869
 20
-922.0378740329633
 30
0.0
 11
371.2428926932868
 21
-894.0378740329629
 31
0.0
  0
LINE
  5
21844
330
18
100
AcDbEntity
  8
1DIM
100
AcDbLine
 10
451.2428926932866
 20
-922.0378740329631
 30
0.0
 11
451.2428926932868
 21
-894.0378740329629
 31
0.0
  0
TEXT
  5
21845
330
18
100
AcDbEntity
  8
1TEXT
100
AcDbText
 10
453.3086334340276
 20
-906.7522310166123
 30
0.0
 40
4.0
  1
KH-43-9C
 72
     1
 11
468.6428926932869
 21
-906.7522310166123
 31
0.0
100
AcDbText
  0
TEXT
  5
21846
330
18
100
AcDbEntity
  8
1TEXT
100
AcDbText
 10
461.7762260266197
 20
-899.5378740329629
 30
0.0
 40
4.0
  1
コード
 72
     1
 11
468.6428926932864
 21
-899.5378740329629
 31
0.0
100
AcDbText
  0
LINE
  5
21847
330
18
100
AcDbEntity
  8
1DIM
100
AcDbLine
 10
486.2428926932871
 20
-922.0378740329633
 30
0.0
 11
486.2428926932868
 21
-894.0378740329629
 31
0.0
  0
TEXT
  5
21848
330
18
100
AcDbEntity
  8
1TEXT
100
AcDbText
 10
412.4428926932873
 20
-920.7522310166125
 30
0.0
 40
4.0
  1
ブラックレザー
 72
     1
 11
428.6428926932873
 21
-920.7522310166125
 31
0.0
100
AcDbText
  0
TEXT
  5
21849
330
18
100
AcDbEntity
  8
1TEXT
100
AcDbText
 10
453.3095593599535
 20
-913.7522310166123
 30
0.0
 40
4.0
  1
KH-43-8C
 72
     1
 11
468.6428926932869
 21
-913.7522310166123
 31
0.0
100
AcDbText
  0
TEXT
  5
2184A
330
18
100
AcDbEntity
  8
1TEXT
100
AcDbText
 10
453.3095593599535
 20
-920.7522310166125
 30
0.0
 40
4.0
  1
KH-43-7C
 72
     1
 11
468.6428926932869
 21
-920.7522310166125
 31
0.0
100
AcDbText
  0
TEXT
  5
2184B
330
18
100
AcDbEntity
  8
1TEXT
100
AcDbText
 10
407.5828926932873
 20
-913.7522310166123
 30
0.0
 40
4.0
  1
ダークブラウンレザー
 41
0.9
 72
     1
 11
428.6428926932873
 21
-913.7522310166123
 31
0.0
100
AcDbText
  0
LINE
  5
21850
330
18
100
AcDbEntity
  8
01
100
AcDbLine
 10
235.6043267118511
 20
-835.1290298732306
 30
0.0
 11
235.6043267118511
 21
-837.8290298732306
 31
0.0
  0
LINE
  5
21851
330
18
100
AcDbEntity
  8
01
100
AcDbLine
 10
283.6043267118511
 20
-835.1290298732306
 30
0.0
 11
283.6043267118509
 21
-837.8290298732306
 31
0.0
  0
LINE
  5
21852
330
18
100
AcDbEntity
  8
01
100
AcDbLine
 10
283.3043267118509
 20
-838.1290298732306
 30
0.0
 11
235.9043267118511
 21
-838.1290298732306
 31
0.0
  0
LINE
  5
21853
330
18
100
AcDbEntity
  8
01
100
AcDbLine
 10
235.6043267118511
 20
-835.1290298732306
 30
0.0
 11
283.6043267118511
 21
-835.1290298732306
 31
0.0
  0
ARC
  5
21854
330
18
100
AcDbEntity
  8
01
100
AcDbCircle
 10
283.3043267118509
 20
-837.8290298732306
 30
0.0
 40
0.3
100
AcDbArc
 50
270.0
 51
0.0
  0
ARC
  5
21855
330
18
100
AcDbEntity
  8
01
100
AcDbCircle
 10
235.9043267118511
 20
-837.8290298732306
 30
0.0
 40
0.3
100
AcDbArc
 50
180.0
 51
270.0
  0
LINE
  5
21856
330
18
100
AcDbEntity
  8
01
100
AcDbLine
 10
434.9425814471546
 20
-980.176547556041
 30
0.0
 11
434.9425814471546
 21
-1008.176547556041
 31
0.0
  0
LINE
  5
21857
330
18
100
AcDbEntity
  8
01
100
AcDbLine
 10
431.9425814471546
 20
-1007.676547556041
 30
0.0
 11
431.9425814471546
 21
-980.676547556041
 31
0.0
  0
LINE
  5
21858
330
18
100
AcDbEntity
  8
01
100
AcDbLine
 10
432.4425814471546
 20
-1008.176547556041
 30
0.0
 11
434.9425814471546
 21
-1008.176547556041
 31
0.0
  0
LINE
  5
21859
330
18
100
AcDbEntity
  8
01
100
AcDbLine
 10
432.4425814471546
 20
-980.176547556041
 30
0.0
 11
434.9425814471546
 21
-980.176547556041
 31
0.0
  0
ARC
  5
2185A
330
18
100
AcDbEntity
  8
01
100
AcDbCircle
 10
432.4425814471546
 20
-980.676547556041
 30
0.0
 40
0.5
100
AcDbArc
 50
90.0
 51
180.0
  0
ARC
  5
2185B
330
18
100
AcDbEntity
  8
01
100
AcDbCircle
 10
432.4425814471546
 20
-1007.676547556041
 30
0.0
 40
0.5
100
AcDbArc
 50
180.0
 51
270.0
  0
TEXT
  5
2185D
330
18
100
AcDbEntity
  8
1TEXT
100
AcDbText
 10
187.4651707058367
 20
-874.6449112985606
 30
0.0
 40
3.5
  1
仕上げ：クローム
100
AcDbText
  0
TEXT
  5
2185E
330
18
100
AcDbEntity
  8
1TEXT
100
AcDbText
 10
279.5855457445933
 20
-929.3876121412643
 30
0.0
 40
3.5
  1
仕上げ：クローム
100
AcDbText
  0
TEXT
  5
21861
330
18
100
AcDbEntity
  8
1TEXT
100
AcDbText
 10
196.8127154506135
 20
-854.4386562538756
 30
0.0
 40
3.5
  1
仕上げ：クローム
100
AcDbText
  0
LINE
  5
21862
330
18
100
AcDbEntity
  8
1PHANTOM
100
AcDbLine
 10
418.9425916158052
 20
-989.8015475876132
 30
0.0
 11
418.9425712341472
 21
-998.5610896566182
 31
0.0
  0
LINE
  5
21863
330
18
100
AcDbEntity
  8
1PHANTOM
100
AcDbLine
 10
418.9425915936026
 20
-989.8110896566182
 30
0.0
 11
419.9425814360775
 21
-989.8110896566182
 31
0.0
  0
LINE
  5
21864
330
18
100
AcDbEntity
  8
1PHANTOM
100
AcDbLine
 10
418.9425915936026
 20
-991.5110896566184
 30
0.0
 11
419.9425814360775
 21
-991.5110896566184
 31
0.0
  0
LINE
  5
21865
330
18
100
AcDbEntity
  8
1PHANTOM
100
AcDbLine
 10
418.9425712341472
 20
-998.5610896566182
 30
0.0
 11
419.9425814582801
 21
-998.5610896566177
 31
0.0
  0
LINE
  5
21866
330
18
100
AcDbEntity
  8
1PHANTOM
100
AcDbLine
 10
418.9425712341472
 20
-996.8610896566179
 30
0.0
 11
419.9425814360775
 21
-996.8610896566179
 31
0.0
  0
LINE
  5
21868
330
18
100
AcDbEntity
  8
1PHANTOM
100
AcDbLine
 10
451.0604470221233
 20
-991.6765475876127
 30
0.0
 11
452.0604470221233
 21
-996.6765475876127
 31
0.0
  0
LINE
  5
21869
330
18
100
AcDbEntity
  8
1PHANTOM
100
AcDbLine
 10
467.923118359512
 20
-994.4899042745565
 30
0.0
 11
467.7731183595122
 21
-995.2399042745565
 31
0.0
  0
LINE
  5
2186A
330
18
100
AcDbEntity
  8
1PHANTOM
100
AcDbLine
 10
457.0604470221233
 20
-991.6765475876127
 30
0.0
 11
458.0604470221233
 21
-996.6765475876127
 31
0.0
  0
LINE
  5
2186B
330
18
100
AcDbEntity
  8
1PHANTOM
100
AcDbLine
 10
458.2104470221234
 20
-995.9265475876127
 30
0.0
 11
458.0604470221233
 21
-996.6765475876127
 31
0.0
  0
LINE
  5
2186C
330
18
100
AcDbEntity
  8
1PHANTOM
100
AcDbLine
 10
460.2104470221234
 20
-995.9265475876127
 30
0.0
 11
460.0604470221233
 21
-996.6765475876127
 31
0.0
  0
LINE
  5
2186D
330
18
100
AcDbEntity
  8
1PHANTOM
100
AcDbLine
 10
459.0604470221233
 20
-991.6765475876127
 30
0.0
 11
458.9104470221234
 21
-992.4265475876127
 31
0.0
  0
LINE
  5
2186E
330
18
100
AcDbEntity
  8
1PHANTOM
100
AcDbLine
 10
459.0604470221233
 20
-991.6765475876127
 30
0.0
 11
460.0604470221233
 21
-996.6765475876127
 31
0.0
  0
LINE
  5
2186F
330
18
100
AcDbEntity
  8
1PHANTOM
100
AcDbLine
 10
464.1265745301343
 20
-995.5071851276675
 30
0.0
 11
463.9765745301343
 21
-996.2571851276675
 31
0.0
  0
LINE
  5
21870
330
18
100
AcDbEntity
  8
1PHANTOM
100
AcDbLine
 10
466.0248464448232
 20
-994.9985447011122
 30
0.0
 11
465.8748464448231
 21
-995.7485447011122
 31
0.0
  0
LINE
  5
21871
330
18
100
AcDbEntity
  8
1PHANTOM
100
AcDbLine
 10
465.2104422879681
 20
-992.4265239168362
 30
0.0
 11
465.060442287968
 21
-993.1765239168362
 31
0.0
  0
LINE
  5
21872
330
18
100
AcDbEntity
  8
1PHANTOM
100
AcDbLine
 10
465.2104422879681
 20
-992.4265239168362
 30
0.0
 11
465.8748464448231
 21
-995.7485447011122
 31
0.0
  0
LINE
  5
21873
330
18
100
AcDbEntity
  8
1PHANTOM
100
AcDbLine
 10
467.32369094202
 20
-992.9927671870955
 30
0.0
 11
467.1736909420199
 21
-993.7427671870955
 31
0.0
  0
LINE
  5
21874
330
18
100
AcDbEntity
  8
1PHANTOM
100
AcDbLine
 10
462.2104470221234
 20
-995.9265475876127
 30
0.0
 11
462.0604470221233
 21
-996.6765475876127
 31
0.0
  0
LINE
  5
21875
330
18
100
AcDbEntity
  8
1PHANTOM
100
AcDbLine
 10
461.0604470221233
 20
-991.6765475876127
 30
0.0
 11
460.9104470221234
 21
-992.4265475876127
 31
0.0
  0
LINE
  5
21876
330
18
100
AcDbEntity
  8
1PHANTOM
100
AcDbLine
 10
461.0604470221233
 20
-991.6765475876127
 30
0.0
 11
462.0604470221233
 21
-996.6765475876127
 31
0.0
  0
LINE
  5
21877
330
18
100
AcDbEntity
  8
1PHANTOM
100
AcDbLine
 10
463.097193633916
 20
-991.8602806465769
 30
0.0
 11
462.9471936339162
 21
-992.6102806465769
 31
0.0
  0
LINE
  5
21878
330
18
100
AcDbEntity
  8
1PHANTOM
100
AcDbLine
 10
463.097193633916
 20
-991.8602806465769
 30
0.0
 11
463.9765745301343
 21
-996.2571851276675
 31
0.0
  0
LINE
  5
21879
330
18
100
AcDbEntity
  8
1PHANTOM
100
AcDbLine
 10
467.32369094202
 20
-992.9927671870955
 30
0.0
 11
467.7731183595122
 21
-995.2399042745565
 31
0.0
  0
LINE
  5
2187A
330
18
100
AcDbEntity
  8
1PHANTOM
100
AcDbLine
 10
452.2104470221234
 20
-995.9265475876127
 30
0.0
 11
452.0604470221233
 21
-996.6765475876127
 31
0.0
  0
LINE
  5
2187B
330
18
100
AcDbEntity
  8
1PHANTOM
100
AcDbLine
 10
453.0604470221233
 20
-991.6765475876127
 30
0.0
 11
452.9104470221234
 21
-992.4265475876127
 31
0.0
  0
LINE
  5
2187C
330
18
100
AcDbEntity
  8
1PHANTOM
100
AcDbLine
 10
453.0604470221233
 20
-991.6765475876127
 30
0.0
 11
454.0604470221233
 21
-996.6765475876127
 31
0.0
  0
LINE
  5
2187D
330
18
100
AcDbEntity
  8
1PHANTOM
100
AcDbLine
 10
456.2104470221234
 20
-995.9265475876127
 30
0.0
 11
456.0604470221233
 21
-996.6765475876127
 31
0.0
  0
LINE
  5
2187E
330
18
100
AcDbEntity
  8
1PHANTOM
100
AcDbLine
 10
455.0604470221233
 20
-991.6765475876127
 30
0.0
 11
454.9104470221234
 21
-992.4265475876127
 31
0.0
  0
LINE
  5
2187F
330
18
100
AcDbEntity
  8
1PHANTOM
100
AcDbLine
 10
457.0604470221233
 20
-991.6765475876127
 30
0.0
 11
456.9104470221234
 21
-992.4265475876127
 31
0.0
  0
LINE
  5
21880
330
18
100
AcDbEntity
  8
1PHANTOM
100
AcDbLine
 10
455.0604470221233
 20
-991.6765475876127
 30
0.0
 11
456.0604470221233
 21
-996.6765475876127
 31
0.0
  0
LINE
  5
21881
330
18
100
AcDbEntity
  8
1PHANTOM
100
AcDbLine
 10
454.2104470221234
 20
-995.9265475876127
 30
0.0
 11
454.0604470221233
 21
-996.6765475876127
 31
0.0
  0
LINE
  5
21882
330
18
100
AcDbEntity
  8
1PHANTOM
100
AcDbLine
 10
420.2104470221234
 20
-995.9265475876127
 30
0.0
 11
420.0604470221233
 21
-996.6765475876127
 31
0.0
  0
LINE
  5
21883
330
18
100
AcDbEntity
  8
1PHANTOM
100
AcDbLine
 10
419.0604470221233
 20
-991.6765475876127
 30
0.0
 11
418.9104470221234
 21
-992.4265475876127
 31
0.0
  0
LINE
  5
21884
330
18
100
AcDbEntity
  8
1PHANTOM
100
AcDbLine
 10
419.0604470221233
 20
-991.6765475876127
 30
0.0
 11
420.0604470221233
 21
-996.6765475876127
 31
0.0
  0
LINE
  5
21885
330
18
100
AcDbEntity
  8
1PHANTOM
100
AcDbLine
 10
422.2104470221234
 20
-995.9265475876127
 30
0.0
 11
422.0604470221233
 21
-996.6765475876127
 31
0.0
  0
LINE
  5
21886
330
18
100
AcDbEntity
  8
1PHANTOM
100
AcDbLine
 10
421.0604470221233
 20
-991.6765475876127
 30
0.0
 11
420.9104470221234
 21
-992.4265475876127
 31
0.0
  0
LINE
  5
21887
330
18
100
AcDbEntity
  8
1PHANTOM
100
AcDbLine
 10
421.0604470221233
 20
-991.6765475876127
 30
0.0
 11
422.0604470221233
 21
-996.6765475876127
 31
0.0
  0
LINE
  5
21888
330
18
100
AcDbEntity
  8
1PHANTOM
100
AcDbLine
 10
424.2104470221234
 20
-995.9265475876127
 30
0.0
 11
424.0604470221233
 21
-996.6765475876127
 31
0.0
  0
LINE
  5
21889
330
18
100
AcDbEntity
  8
1PHANTOM
100
AcDbLine
 10
423.0604470221233
 20
-991.6765475876127
 30
0.0
 11
422.9104470221234
 21
-992.4265475876127
 31
0.0
  0
LINE
  5
2188A
330
18
100
AcDbEntity
  8
1PHANTOM
100
AcDbLine
 10
423.0604470221233
 20
-991.6765475876127
 30
0.0
 11
424.0604470221233
 21
-996.6765475876127
 31
0.0
  0
LINE
  5
2188B
330
18
100
AcDbEntity
  8
1PHANTOM
100
AcDbLine
 10
426.2104470221234
 20
-995.9265475876127
 30
0.0
 11
426.0604470221233
 21
-996.6765475876127
 31
0.0
  0
LINE
  5
2188C
330
18
100
AcDbEntity
  8
1PHANTOM
100
AcDbLine
 10
425.0604470221233
 20
-991.6765475876127
 30
0.0
 11
424.9104470221234
 21
-992.4265475876127
 31
0.0
  0
LINE
  5
2188D
330
18
100
AcDbEntity
  8
1PHANTOM
100
AcDbLine
 10
425.0604470221233
 20
-991.6765475876127
 30
0.0
 11
426.0604470221233
 21
-996.6765475876127
 31
0.0
  0
LINE
  5
2188E
330
18
100
AcDbEntity
  8
1PHANTOM
100
AcDbLine
 10
428.2104470221234
 20
-995.9265475876127
 30
0.0
 11
428.0604470221233
 21
-996.6765475876127
 31
0.0
  0
LINE
  5
2188F
330
18
100
AcDbEntity
  8
1PHANTOM
100
AcDbLine
 10
427.0604470221233
 20
-991.6765475876127
 30
0.0
 11
426.9104470221234
 21
-992.4265475876127
 31
0.0
  0
LINE
  5
21890
330
18
100
AcDbEntity
  8
1PHANTOM
100
AcDbLine
 10
427.0604470221233
 20
-991.6765475876127
 30
0.0
 11
428.0604470221233
 21
-996.6765475876127
 31
0.0
  0
LINE
  5
21891
330
18
100
AcDbEntity
  8
1PHANTOM
100
AcDbLine
 10
418.9425814360775
 20
-995.9265475876127
 30
0.0
 11
418.9425814360775
 21
-992.4265475876127
 31
0.0
  0
LINE
  5
21892
330
18
100
AcDbEntity
  8
1PHANTOM
100
AcDbLine
 10
447.0604470221233
 20
-991.6765475876127
 30
0.0
 11
446.9104470221234
 21
-992.4265475876127
 31
0.0
  0
LINE
  5
21893
330
18
100
AcDbEntity
  8
1PHANTOM
100
AcDbLine
 10
448.2104470221234
 20
-995.9265475876127
 30
0.0
 11
448.0604470221233
 21
-996.6765475876127
 31
0.0
  0
LINE
  5
21894
330
18
100
AcDbEntity
  8
1PHANTOM
100
AcDbLine
 10
449.0604470221233
 20
-991.6765475876127
 30
0.0
 11
448.9104470221234
 21
-992.4265475876127
 31
0.0
  0
LINE
  5
21895
330
18
100
AcDbEntity
  8
1PHANTOM
100
AcDbLine
 10
447.0604470221233
 20
-991.6765475876127
 30
0.0
 11
448.0604470221233
 21
-996.6765475876127
 31
0.0
  0
LINE
  5
21896
330
18
100
AcDbEntity
  8
1PHANTOM
100
AcDbLine
 10
435.0604470221233
 20
-991.6765475876127
 30
0.0
 11
436.0604470221233
 21
-996.6765475876127
 31
0.0
  0
LINE
  5
21897
330
18
100
AcDbEntity
  8
1PHANTOM
100
AcDbLine
 10
440.2104470221234
 20
-995.9265475876127
 30
0.0
 11
440.0604470221233
 21
-996.6765475876127
 31
0.0
  0
LINE
  5
21898
330
18
100
AcDbEntity
  8
1PHANTOM
100
AcDbLine
 10
439.0604470221233
 20
-991.6765475876127
 30
0.0
 11
438.9104470221234
 21
-992.4265475876127
 31
0.0
  0
LINE
  5
21899
330
18
100
AcDbEntity
  8
1PHANTOM
100
AcDbLine
 10
439.0604470221233
 20
-991.6765475876127
 30
0.0
 11
440.0604470221233
 21
-996.6765475876127
 31
0.0
  0
LINE
  5
2189A
330
18
100
AcDbEntity
  8
1PHANTOM
100
AcDbLine
 10
437.0604470221233
 20
-991.6765475876127
 30
0.0
 11
438.0604470221233
 21
-996.6765475876127
 31
0.0
  0
LINE
  5
2189B
330
18
100
AcDbEntity
  8
1PHANTOM
100
AcDbLine
 10
437.0604470221233
 20
-991.6765475876127
 30
0.0
 11
436.9104470221234
 21
-992.4265475876127
 31
0.0
  0
LINE
  5
2189C
330
18
100
AcDbEntity
  8
1PHANTOM
100
AcDbLine
 10
438.2104470221234
 20
-995.9265475876127
 30
0.0
 11
438.0604470221233
 21
-996.6765475876127
 31
0.0
  0
LINE
  5
2189D
330
18
100
AcDbEntity
  8
1PHANTOM
100
AcDbLine
 10
436.2104470221234
 20
-995.9265475876127
 30
0.0
 11
436.0604470221233
 21
-996.6765475876127
 31
0.0
  0
LINE
  5
2189E
330
18
100
AcDbEntity
  8
1PHANTOM
100
AcDbLine
 10
443.0604470221233
 20
-991.6765475876127
 30
0.0
 11
444.0604470221233
 21
-996.6765475876127
 31
0.0
  0
LINE
  5
2189F
330
18
100
AcDbEntity
  8
1PHANTOM
100
AcDbLine
 10
444.2104470221234
 20
-995.9265475876127
 30
0.0
 11
444.0604470221233
 21
-996.6765475876127
 31
0.0
  0
LINE
  5
218A0
330
18
100
AcDbEntity
  8
1PHANTOM
100
AcDbLine
 10
445.0604470221233
 20
-991.6765475876127
 30
0.0
 11
444.9104470221234
 21
-992.4265475876127
 31
0.0
  0
LINE
  5
218A1
330
18
100
AcDbEntity
  8
1PHANTOM
100
AcDbLine
 10
446.2104470221234
 20
-995.9265475876127
 30
0.0
 11
446.0604470221233
 21
-996.6765475876127
 31
0.0
  0
LINE
  5
218A2
330
18
100
AcDbEntity
  8
1PHANTOM
100
AcDbLine
 10
445.0604470221233
 20
-991.6765475876127
 30
0.0
 11
446.0604470221233
 21
-996.6765475876127
 31
0.0
  0
LINE
  5
218A3
330
18
100
AcDbEntity
  8
1PHANTOM
100
AcDbLine
 10
442.2104470221234
 20
-995.9265475876127
 30
0.0
 11
442.0604470221233
 21
-996.6765475876127
 31
0.0
  0
LINE
  5
218A4
330
18
100
AcDbEntity
  8
1PHANTOM
100
AcDbLine
 10
441.0604470221233
 20
-991.6765475876127
 30
0.0
 11
440.9104470221234
 21
-992.4265475876127
 31
0.0
  0
LINE
  5
218A5
330
18
100
AcDbEntity
  8
1PHANTOM
100
AcDbLine
 10
443.0604470221233
 20
-991.6765475876127
 30
0.0
 11
442.9104470221234
 21
-992.4265475876127
 31
0.0
  0
LINE
  5
218A6
330
18
100
AcDbEntity
  8
1PHANTOM
100
AcDbLine
 10
441.0604470221233
 20
-991.6765475876127
 30
0.0
 11
442.0604470221233
 21
-996.6765475876127
 31
0.0
  0
LINE
  5
218A7
330
18
100
AcDbEntity
  8
1PHANTOM
100
AcDbLine
 10
433.0604470221233
 20
-991.6765475876127
 30
0.0
 11
432.9104470221234
 21
-992.4265475876127
 31
0.0
  0
LINE
  5
218A8
330
18
100
AcDbEntity
  8
1PHANTOM
100
AcDbLine
 10
431.0604470221233
 20
-991.6765475876127
 30
0.0
 11
432.0604470221233
 21
-996.6765475876127
 31
0.0
  0
LINE
  5
218A9
330
18
100
AcDbEntity
  8
1PHANTOM
100
AcDbLine
 10
431.0604470221233
 20
-991.6765475876127
 30
0.0
 11
430.9104470221234
 21
-992.4265475876127
 31
0.0
  0
LINE
  5
218AA
330
18
100
AcDbEntity
  8
1PHANTOM
100
AcDbLine
 10
432.2104470221234
 20
-995.9265475876127
 30
0.0
 11
432.0604470221233
 21
-996.6765475876127
 31
0.0
  0
LINE
  5
218AB
330
18
100
AcDbEntity
  8
1PHANTOM
100
AcDbLine
 10
429.0604470221233
 20
-991.6765475876127
 30
0.0
 11
430.0604470221233
 21
-996.6765475876127
 31
0.0
  0
LINE
  5
218AC
330
18
100
AcDbEntity
  8
1PHANTOM
100
AcDbLine
 10
429.0604470221233
 20
-991.6765475876127
 30
0.0
 11
428.9104470221234
 21
-992.4265475876127
 31
0.0
  0
LINE
  5
218AD
330
18
100
AcDbEntity
  8
1PHANTOM
100
AcDbLine
 10
430.2104470221234
 20
-995.9265475876127
 30
0.0
 11
430.0604470221233
 21
-996.6765475876127
 31
0.0
  0
LINE
  5
218AE
330
18
100
AcDbEntity
  8
1PHANTOM
100
AcDbLine
 10
435.0604470221233
 20
-991.6765475876127
 30
0.0
 11
434.9104470221234
 21
-992.4265475876127
 31
0.0
  0
LINE
  5
218AF
330
18
100
AcDbEntity
  8
1PHANTOM
100
AcDbLine
 10
434.2104470221234
 20
-995.9265475876127
 30
0.0
 11
434.0604470221233
 21
-996.6765475876127
 31
0.0
  0
LINE
  5
218B0
330
18
100
AcDbEntity
  8
1PHANTOM
100
AcDbLine
 10
433.0604470221233
 20
-991.6765475876127
 30
0.0
 11
434.0604470221233
 21
-996.6765475876127
 31
0.0
  0
LINE
  5
218B1
330
18
100
AcDbEntity
  8
1PHANTOM
100
AcDbLine
 10
451.0604470221233
 20
-991.6765475876127
 30
0.0
 11
450.9104470221234
 21
-992.4265475876127
 31
0.0
  0
LINE
  5
218B2
330
18
100
AcDbEntity
  8
1PHANTOM
100
AcDbLine
 10
450.2104470221234
 20
-995.9265475876127
 30
0.0
 11
450.0604470221233
 21
-996.6765475876127
 31
0.0
  0
LINE
  5
218B3
330
18
100
AcDbEntity
  8
1PHANTOM
100
AcDbLine
 10
449.0604470221233
 20
-991.6765475876127
 30
0.0
 11
450.0604470221233
 21
-996.6765475876127
 31
0.0
  0
LINE
  5
218B4
330
18
100
AcDbEntity
  8
1PHANTOM
100
AcDbLine
 10
419.9425814582801
 20
-998.5610896566177
 30
0.0
 11
419.9425814360775
 21
-989.8110896566182
 31
0.0
  0
LINE
  5
218B8
330
18
100
AcDbEntity
  8
01
100
AcDbLine
 10
-204.4874330149406
 20
-838.1290298732305
 30
0.0
 11
-252.4874330149405
 21
-838.1290298732305
 31
0.0
  0
LINE
  5
218B9
330
18
100
AcDbEntity
  8
01
100
AcDbLine
 10
-204.579192741733
 20
-835.1290298732305
 30
0.0
 11
-204.579192741733
 21
-837.8290298732305
 31
0.0
  0
LINE
  5
218BA
330
18
100
AcDbEntity
  8
01
100
AcDbLine
 10
-252.5791927417329
 20
-835.1290298732305
 30
0.0
 11
-252.5791927417328
 21
-837.8290298732305
 31
0.0
  0
LINE
  5
218BB
330
18
100
AcDbEntity
  8
01
100
AcDbLine
 10
-252.2791927417327
 20
-838.1290298732305
 30
0.0
 11
-204.879192741733
 21
-838.1290298732305
 31
0.0
  0
LINE
  5
218BC
330
18
100
AcDbEntity
  8
01
100
AcDbLine
 10
-204.579192741733
 20
-835.1290298732305
 30
0.0
 11
-252.5791927417329
 21
-835.1290298732305
 31
0.0
  0
ARC
  5
218BD
330
18
100
AcDbEntity
  8
01
100
AcDbCircle
 10
-252.2791927417327
 20
-837.8290298732305
 30
0.0
 40
0.3
100
AcDbArc
 50
180.0
 51
270.0
  0
ARC
  5
218BE
330
18
100
AcDbEntity
  8
01
100
AcDbCircle
 10
-204.879192741733
 20
-837.8290298732305
 30
0.0
 40
0.3
100
AcDbArc
 50
270.0
 51
0.0
  0
LINE
  5
21B44
330
18
100
AcDbEntity
  8
1DIM
100
AcDbLine
 10
271.920807258269
 20
-1002.87627420544
 30
0.0
 11
271.920807258269
 21
-1020.950828940548
 31
0.0
  0
LINE
  5
21B45
330
18
100
AcDbEntity
  8
1DIM
100
AcDbLine
 10
246.920807258269
 20
-1002.87627420544
 30
0.0
 11
246.920807258269
 21
-1020.950828940548
 31
0.0
  0
LINE
  5
21B46
330
18
100
AcDbEntity
  8
1DIM
100
AcDbLine
 10
269.920807258269
 20
-1019.950828940548
 30
0.0
 11
248.920807258269
 21
-1019.950828940548
 31
0.0
  0
LINE
  5
21B4A
330
18
100
AcDbEntity
  8
1DIM
100
AcDbLine
 10
434.9425814471546
 20
-964.176547556041
 30
0.0
 11
434.9425814471546
 21
-963.176547556041
 31
0.0
1001
ACAD
1000
DSTYLE
1002
{
1070
   271
1070
     0
1002
}
  0
LINE
  5
21B4B
330
18
100
AcDbEntity
  8
1DIM
100
AcDbLine
 10
374.9425814471551
 20
-987.4745287177186
 30
0.0
 11
374.9425814471551
 21
-963.176547556041
 31
0.0
1001
ACAD
1000
DSTYLE
1002
{
1070
   271
1070
     0
1002
}
  0
LINE
  5
21B4C
330
18
100
AcDbEntity
  8
1DIM
100
AcDbLine
 10
432.9425814471546
 20
-964.176547556041
 30
0.0
 11
376.9425814471551
 21
-964.176547556041
 31
0.0
1001
ACAD
1000
DSTYLE
1002
{
1070
   271
1070
     0
1002
}
  0
LINE
  5
21B50
330
18
100
AcDbEntity
  8
1DIM
100
AcDbLine
 10
434.9425814471546
 20
-954.1765475560405
 30
0.0
 11
434.9425814471546
 21
-953.1765475560405
 31
0.0
1001
ACAD
1000
DSTYLE
1002
{
1070
   271
1070
     0
1002
}
  0
LINE
  5
21B51
330
18
100
AcDbEntity
  8
1DIM
100
AcDbLine
 10
358.9425814471556
 20
-994.1765475560408
 30
0.0
 11
358.9425814471556
 21
-953.1765475560405
 31
0.0
1001
ACAD
1000
DSTYLE
1002
{
1070
   271
1070
     0
1002
}
  0
LINE
  5
21B52
330
18
100
AcDbEntity
  8
1DIM
100
AcDbLine
 10
432.9425814471546
 20
-954.1765475560405
 30
0.0
 11
360.9425814471556
 21
-954.1765475560405
 31
0.0
1001
ACAD
1000
DSTYLE
1002
{
1070
   271
1070
     0
1002
}
  0
LINE
  5
21B56
330
18
100
AcDbEntity
  8
1DIM
100
AcDbLine
 10
387.7409553234052
 20
-982.1765475560408
 30
0.0
 11
351.9505980777083
 21
-982.1765475560408
 31
0.0
  0
LINE
  5
21B57
330
18
100
AcDbEntity
  8
1DIM
100
AcDbLine
 10
387.7409553234049
 20
-1006.176547556041
 30
0.0
 11
351.9505980777083
 21
-1006.176547556041
 31
0.0
  0
LINE
  5
21B58
330
18
100
AcDbEntity
  8
1DIM
100
AcDbLine
 10
352.9505980777083
 20
-984.1765475560408
 30
0.0
 11
352.9505980777083
 21
-1004.176547556041
 31
0.0
  0
LINE
  5
21B5C
330
18
100
AcDbEntity
  8
1DIM
100
AcDbLine
 10
313.5125669850589
 20
-978.1765475876132
 30
0.0
 11
337.2954456477073
 21
-978.1765475876132
 31
0.0
1001
ACAD
1000
DSTYLE
1002
{
1070
     3
1000
φ<>
1070
   271
1070
     1
1002
}
  0
LINE
  5
21B5D
330
18
100
AcDbEntity
  8
1DIM
100
AcDbLine
 10
313.512566985059
 20
-1010.176547587621
 30
0.0
 11
337.2954456477073
 21
-1010.176547587621
 31
0.0
1001
ACAD
1000
DSTYLE
1002
{
1070
     3
1000
φ<>
1070
   271
1070
     1
1002
}
  0
LINE
  5
21B5E
330
18
100
AcDbEntity
  8
1DIM
100
AcDbLine
 10
336.2954456477073
 20
-980.1765475876132
 30
0.0
 11
336.2954456477073
 21
-1008.176547587621
 31
0.0
1001
ACAD
1000
DSTYLE
1002
{
1070
     3
1000
φ<>
1070
   271
1070
     1
1002
}
  0
LINE
  5
21B62
330
18
100
AcDbEntity
  8
1DIM
100
AcDbLine
 10
431.9425814471558
 20
-1006.176547556041
 30
0.0
 11
431.9425814471558
 21
-1020.950828940548
 31
0.0
  0
LINE
  5
21B63
330
18
100
AcDbEntity
  8
1DIM
100
AcDbLine
 10
418.4425814471557
 20
-1006.535316497612
 30
0.0
 11
418.4425814471557
 21
-1020.950828940548
 31
0.0
  0
LINE
  5
21B64
330
18
100
AcDbEntity
  8
1DIM
100
AcDbLine
 10
429.9425814471558
 20
-1019.950828940548
 30
0.0
 11
420.4425814471557
 21
-1019.950828940548
 31
0.0
  0
LINE
  5
21B68
330
18
100
AcDbEntity
  8
1DIM1
100
AcDbLine
 10
-289.487433014941
 20
-994.1765475876127
 30
0.0
 11
-289.487433014941
 21
-933.9955421452592
 31
0.0
1001
ACAD
1000
DSTYLE
1002
{
1070
    40
1040
3.0
1002
}
  0
LINE
  5
21B69
330
18
100
AcDbEntity
  8
1DIM1
100
AcDbLine
 10
320.512566985059
 20
-994.1765475876127
 30
0.0
 11
320.512566985059
 21
-933.9955421452592
 31
0.0
1001
ACAD
1000
DSTYLE
1002
{
1070
    40
1040
3.0
1002
}
  0
LINE
  5
21B6A
330
18
100
AcDbEntity
  8
1DIM1
100
AcDbLine
 10
-283.487433014941
 20
-936.9955421452592
 30
0.0
 11
314.512566985059
 21
-936.9955421452592
 31
0.0
1001
ACAD
1000
DSTYLE
1002
{
1070
    40
1040
3.0
1002
}
  0
TEXT
  5
21B6E
330
18
100
AcDbEntity
  8
1DIM
  6
CONTINUOUS
100
AcDbText
 10
186.5464944126199
 20
-868.4375389478248
 30
0.0
 40
3.5
  1
材質：亜鉛ダイキャスト
100
AcDbText
  0
SOLID
  5
21B6F
330
18
100
AcDbEntity
  8
1DIM
100
AcDbTrace
 10
249.3876794387927
 20
-854.2460603450949
 30
0.0
 11
251.0727277048925
 21
-853.1183531791935
 31
0.0
 12
249.8445059934689
 22
-854.7316053413488
 32
0.0
 13
249.8445059934689
 23
-854.7316053413488
 33
0.0
  0
LINE
  5
21B70
330
18
100
AcDbEntity
  8
1DIM
100
AcDbLine
 10
249.6160927161308
 20
-854.4888328432219
 30
0.0
 11
234.0464944126199
 21
-869.1375389478249
 31
0.0
  0
LINE
  5
21B71
330
18
100
AcDbEntity
  8
1DIM
100
AcDbLine
 10
234.0464944126199
 20
-869.1375389478249
 30
0.0
 11
186.7798277459532
 21
-869.1375389478249
 31
0.0
  0
LINE
  5
21B72
330
18
100
AcDbEntity
  8
1HATCH
100
AcDbLine
 10
416.7925814471557
 20
-983.8265475560407
 30
0.0
 11
416.4425814471557
 21
-983.4765477301148
 31
0.0
  0
LINE
  5
21B73
330
18
100
AcDbEntity
  8
1HATCH
100
AcDbLine
 10
420.4425814471557
 20
-983.4765477301148
 30
0.0
 11
420.0925814471557
 21
-983.8265475560407
 31
0.0
  0
LINE
  5
21B74
330
18
100
AcDbEntity
  8
1HATCH
100
AcDbLine
 10
415.4425814471557
 20
-982.4765475660407
 30
0.0
 11
421.4425814471557
 21
-982.4765475660408
 31
0.0
  0
LINE
  5
21B75
330
18
100
AcDbEntity
  8
1HATCH
100
AcDbLine
 10
416.4425814471557
 20
-989.8265475560407
 30
0.0
 11
420.4425814471557
 21
-989.8265475560407
 31
0.0
  0
LINE
  5
21B77
330
18
100
AcDbEntity
  8
1HATCH
100
AcDbLine
 10
420.0925814471557
 20
-990.1765475560408
 30
0.0
 11
420.0925814471557
 21
-983.8265475560407
 31
0.0
  0
LINE
  5
21B78
330
18
100
AcDbEntity
  8
1HATCH
100
AcDbLine
 10
416.7925814471557
 20
-990.1765475560408
 30
0.0
 11
416.7925814471557
 21
-983.8265475560407
 31
0.0
  0
LINE
  5
21B79
330
18
100
AcDbEntity
  8
1CENTER
100
AcDbLine
 10
418.4425814471557
 20
-991.7782225560408
 30
0.0
 11
418.4425814471557
 21
-980.6177786560407
 31
0.0
  0
LINE
  5
21B82
330
18
100
AcDbEntity
  8
1HATCH
100
AcDbLine
 10
416.7925814471557
 20
-1004.526547556041
 30
0.0
 11
416.4425814471557
 21
-1004.876547381967
 31
0.0
  0
LINE
  5
21B83
330
18
100
AcDbEntity
  8
1HATCH
100
AcDbLine
 10
420.4425814471557
 20
-1004.876547381967
 30
0.0
 11
420.0925814471557
 21
-1004.526547556041
 31
0.0
  0
LINE
  5
21B84
330
18
100
AcDbEntity
  8
1HATCH
100
AcDbLine
 10
415.4425814471557
 20
-1005.876547546041
 30
0.0
 11
421.4425814471557
 21
-1005.876547546041
 31
0.0
  0
LINE
  5
21B85
330
18
100
AcDbEntity
  8
1HATCH
100
AcDbLine
 10
416.4425814471557
 20
-998.5265475560408
 30
0.0
 11
420.4425814471557
 21
-998.5265475560408
 31
0.0
  0
LINE
  5
21B87
330
18
100
AcDbEntity
  8
1HATCH
100
AcDbLine
 10
420.0925814471557
 20
-998.1765475560408
 30
0.0
 11
420.0925814471557
 21
-1004.526547556041
 31
0.0
  0
LINE
  5
21B88
330
18
100
AcDbEntity
  8
1HATCH
100
AcDbLine
 10
416.7925814471557
 20
-998.1765475560408
 30
0.0
 11
416.7925814471557
 21
-1004.526547556041
 31
0.0
  0
LINE
  5
21B89
330
18
100
AcDbEntity
  8
1CENTER
100
AcDbLine
 10
418.4425814471557
 20
-996.5748725560408
 30
0.0
 11
418.4425814471557
 21
-1007.735316456041
 31
0.0
  0
LINE
  5
21B8A
330
18
100
AcDbEntity
  8
1DIM1
100
AcDbLine
 10
-228.5791927417311
 20
-994.1765475876127
 30
0.0
 11
-228.5791927417311
 21
-961.176547556041
 31
0.0
1001
ACAD
1000
DSTYLE
1002
{
1070
    40
1040
3.0
1002
}
  0
LINE
  5
21B8B
330
18
100
AcDbEntity
  8
1DIM1
100
AcDbLine
 10
259.420807258269
 20
-994.1765475876132
 30
0.0
 11
259.420807258269
 21
-961.176547556041
 31
0.0
1001
ACAD
1000
DSTYLE
1002
{
1070
    40
1040
3.0
1002
}
  0
LINE
  5
21B8C
330
18
100
AcDbEntity
  8
1DIM1
100
AcDbLine
 10
-222.5791927417311
 20
-964.176547556041
 30
0.0
 11
253.420807258269
 21
-964.176547556041
 31
0.0
1001
ACAD
1000
DSTYLE
1002
{
1070
    40
1040
3.0
1002
}
  0
TEXT
  5
21B90
330
18
100
AcDbEntity
  8
1DIM
  6
CONTINUOUS
100
AcDbText
 10
275.5368012560373
 20
-923.5292360916155
 30
0.0
 40
3.5
  1
材質：亜鉛ダイキャスト
100
AcDbText
  0
LINE
  5
21B92
330
18
100
AcDbEntity
  8
1DIM
100
AcDbLine
 10
317.8581672250633
 20
-908.3884559351499
 30
0.0
 11
323.0368012560373
 21
-924.2292360916156
 31
0.0
1001
ACAD
1000
DSTYLE
1002
{
1070
   341
1005
42
1002
}
  0
LINE
  5
21B93
330
18
100
AcDbEntity
  8
1DIM
100
AcDbLine
 10
323.0368012560373
 20
-924.2292360916156
 30
0.0
 11
275.7701345893706
 21
-924.2292360916156
 31
0.0
1001
ACAD
1000
DSTYLE
1002
{
1070
   341
1005
42
1002
}
  0
TEXT
  5
21B94
330
18
100
AcDbEntity
  8
1DIM
  6
CONTINUOUS
100
AcDbText
 10
219.4416867790467
 20
-923.4037514548006
 30
0.0
 40
3.5
  1
材質：天然皮革
100
AcDbText
  0
SOLID
  5
21B95
330
18
100
AcDbEntity
  8
1DIM
100
AcDbTrace
 10
196.8511021105867
 20
-902.5778844018514
 30
0.0
 11
195.7479366845953
 21
-900.876668027016
 31
0.0
 12
197.3432173983176
 22
-902.1281433785658
 32
0.0
 13
197.3432173983176
 23
-902.1281433785658
 33
0.0
  0
LINE
  5
21B96
330
18
100
AcDbEntity
  8
1DIM
100
AcDbLine
 10
197.0971597544521
 20
-902.3530138902087
 30
0.0
 11
216.9750201123801
 21
-924.1037514548007
 31
0.0
  0
LINE
  5
21B97
330
18
100
AcDbEntity
  8
1DIM
100
AcDbLine
 10
216.9750201123801
 20
-924.1037514548007
 30
0.0
 11
248.02502011238
 21
-924.1037514548007
 31
0.0
  0
TEXT
  5
21B98
330
18
100
AcDbEntity
  8
1DIM
  6
CONTINUOUS
100
AcDbText
 10
461.4981272067039
 20
-937.399392344169
 30
0.0
 40
3.5
  1
合板12mm以上
100
AcDbText
  0
TEXT
  5
21B99
330
18
100
AcDbEntity
  8
1DIM
  6
CONTINUOUS
100
AcDbText
 10
458.6981272067039
 20
-943.2375867886134
 30
0.0
 40
3.5
  1
（15mm以上推奨）
100
AcDbText
  0
SOLID
  5
21B9A
330
18
100
AcDbEntity
  8
1DIM
100
AcDbTrace
 10
449.3420839682675
 20
-958.6865127618788
 30
0.0
 11
447.953645099714
 21
-960.1641286183858
 31
0.0
 12
448.7878064543434
 22
-958.3160793913484
 32
0.0
 13
448.7878064543434
 23
-958.3160793913484
 33
0.0
  0
LINE
  5
21B9B
330
18
100
AcDbEntity
  8
1DIM
100
AcDbLine
 10
449.0649452113054
 20
-958.5012960766136
 30
0.0
 11
458.7981272067039
 21
-943.9375867886134
 31
0.0
  0
LINE
  5
21B9C
330
18
100
AcDbEntity
  8
1DIM
100
AcDbLine
 10
458.7981272067039
 20
-943.9375867886134
 30
0.0
 11
497.1814605400372
 21
-943.9375867886134
 31
0.0
  0
TEXT
  5
21B9D
330
18
100
AcDbEntity
  8
1DIM
  6
CONTINUOUS
100
AcDbText
 10
459.4866593131734
 20
-929.0860273752089
 30
0.0
 40
3.5
  1
PB
100
AcDbText
  0
SOLID
  5
21B9E
330
18
100
AcDbEntity
  8
1DIM
100
AcDbTrace
 10
440.9219484694132
 20
-961.0259802823344
 30
0.0
 11
439.7036829185791
 21
-962.6467640923356
 31
0.0
 12
440.3304366634218
 22
-960.7184770663882
 32
0.0
 13
440.3304366634218
 23
-960.7184770663882
 33
0.0
  0
LINE
  5
21B9F
330
18
100
AcDbEntity
  8
1DIM
100
AcDbLine
 10
440.6261925664175
 20
-960.8722286743614
 30
0.0
 11
456.7866593131734
 21
-929.786027375209
 31
0.0
  0
LINE
  5
21BA0
330
18
100
AcDbEntity
  8
1DIM
100
AcDbLine
 10
456.7866593131734
 20
-929.786027375209
 30
0.0
 11
465.3199926465068
 21
-929.786027375209
 31
0.0
  0
LINE
  5
21BA1
330
18
100
AcDbEntity
  8
1DIM
100
AcDbLine
 10
431.9425814471546
 20
-1007.676547556041
 30
0.0
 11
431.9425814471546
 21
-1020.950828940548
 31
0.0
  0
LINE
  5
21BA2
330
18
100
AcDbEntity
  8
1DIM
100
AcDbLine
 10
434.9425814471546
 20
-1008.176547556041
 30
0.0
 11
434.9425814471546
 21
-1020.950828940548
 31
0.0
  0
LINE
  5
21BA3
330
18
100
AcDbEntity
  8
1DIM
100
AcDbLine
 10
436.9425814471546
 20
-1019.950828940548
 30
0.0
 11
442.6759147804879
 21
-1019.950828940548
 31
0.0
  0
LINE
  5
21BA4
330
18
100
AcDbEntity
  8
1DIM
100
AcDbLine
 10
431.9425814471546
 20
-1019.950828940548
 30
0.0
 11
434.9425814471546
 21
-1019.950828940548
 31
0.0
  0
LINE
  5
21BA5
330
18
100
AcDbEntity
  8
1DIM
100
AcDbLine
 10
429.9425814471546
 20
-1019.950828940548
 30
0.0
 11
427.9425814471546
 21
-1019.950828940548
 31
0.0
  0
TEXT
  5
21BA9
330
18
100
AcDbEntity
  8
1TEXT
  6
CONTINUOUS
100
AcDbText
 10
201.1201566316185
 20
-848.9107445116003
 30
0.0
 40
3.5
  1
材質：真鍮
100
AcDbText
  0
SOLID
  5
21BAA
330
18
100
AcDbEntity
  8
1DIM
100
AcDbTrace
 10
233.0436782208397
 20
-838.463373802726
 30
0.0
 11
234.5849482422196
 21
-837.1459529009992
 31
0.0
 12
233.5542617576905
 22
-838.8920332203775
 32
0.0
 13
233.5542617576905
 23
-838.8920332203775
 33
0.0
  0
LINE
  5
21BAB
330
18
100
AcDbEntity
  8
1DIM
100
AcDbLine
 10
233.2989699892651
 20
-838.6777035115517
 30
0.0
 11
224.1201566316184
 21
-849.6107445116004
 31
0.0
  0
LINE
  5
21BAC
330
18
100
AcDbEntity
  8
1DIM
100
AcDbLine
 10
224.1201566316184
 20
-849.6107445116004
 30
0.0
 11
201.3534899649518
 21
-849.6107445116004
 31
0.0
  0
LINE
  5
21BAD
330
18
100
AcDbEntity
  8
1PHANTOM
100
AcDbLine
 10
468.9425814360774
 20
-994.1765475244692
 30
0.0
 11
462.411492522832
 21
-995.9265475244692
 31
0.0
  0
LINE
  5
21BAE
330
18
100
AcDbEntity
  8
1PHANTOM
100
AcDbLine
 10
468.9425814360774
 20
-994.1765475244692
 30
0.0
 11
462.411492522832
 21
-992.4265475244692
 31
0.0
  0
LINE
  5
21BAF
330
18
100
AcDbEntity
  8
1PHANTOM
100
AcDbLine
 10
462.411492522832
 20
-992.4265475244692
 30
0.0
 11
418.9425814360774
 21
-992.4265475244692
 31
0.0
  0
LINE
  5
21BB0
330
18
100
AcDbEntity
  8
1PHANTOM
100
AcDbLine
 10
418.9425814360774
 20
-989.6765475244692
 30
0.0
 11
418.9425814360774
 21
-992.4265475244692
 31
0.0
  0
LINE
  5
21BB1
330
18
100
AcDbEntity
  8
1PHANTOM
100
AcDbLine
 10
418.9425814360774
 20
-989.6765475244692
 30
0.0
 11
418.1425814360775
 21
-989.6765475244692
 31
0.0
  0
ARC
  5
21BB2
330
18
100
AcDbEntity
  8
1PHANTOM
100
AcDbCircle
 10
-418.1425814360775
 20
-992.1765475244692
 30
0.0
 40
2.5
210
0.0
220
0.0
230
-1.0
100
AcDbArc
 50
0.0
 51
90.0
  0
LINE
  5
21BB3
330
18
100
AcDbEntity
  8
1PHANTOM
100
AcDbLine
 10
415.6425814360775
 20
-992.1765475244692
 30
0.0
 11
415.6425814360775
 21
-996.1765475244692
 31
0.0
  0
ARC
  5
21BB4
330
18
100
AcDbEntity
  8
1PHANTOM
100
AcDbCircle
 10
-418.1425814360775
 20
-996.1765475244692
 30
0.0
 40
2.5
210
0.0
220
0.0
230
-1.0
100
AcDbArc
 50
269.9999999999948
 51
0.0
  0
LINE
  5
21BB5
330
18
100
AcDbEntity
  8
1PHANTOM
100
AcDbLine
 10
418.9425814360774
 20
-998.6765475244692
 30
0.0
 11
418.1425814360777
 21
-998.6765475244692
 31
0.0
  0
LINE
  5
21BB6
330
18
100
AcDbEntity
  8
1PHANTOM
100
AcDbLine
 10
418.9425814360774
 20
-995.9265475244692
 30
0.0
 11
418.9425814360774
 21
-998.6765475244692
 31
0.0
  0
LINE
  5
21BB7
330
18
100
AcDbEntity
  8
1PHANTOM
100
AcDbLine
 10
462.411492522832
 20
-995.9265475244692
 30
0.0
 11
418.9425814360774
 21
-995.9265475244692
 31
0.0
  0
LINE
  5
21BB8
330
18
100
AcDbEntity
  8
1DIM
100
AcDbLine
 10
235.6043267118511
 20
-835.1290298732306
 30
0.0
 11
235.6043267118511
 21
-822.0049666963553
 31
0.0
  0
LINE
  5
21BB9
330
18
100
AcDbEntity
  8
1DIM
100
AcDbLine
 10
283.6043267118511
 20
-835.1290298732306
 30
0.0
 11
283.6043267118511
 21
-822.0049666963553
 31
0.0
  0
LINE
  5
21BBA
330
18
100
AcDbEntity
  8
1DIM
100
AcDbLine
 10
237.6043267118511
 20
-823.0049666963553
 30
0.0
 11
281.6043267118511
 21
-823.0049666963553
 31
0.0
  0
LINE
  5
21BBE
330
18
100
AcDbEntity
  8
1DIM
100
AcDbLine
 10
283.3043267118509
 20
-838.1290298732306
 30
0.0
 11
338.8481747358429
 21
-838.1290298732306
 31
0.0
  0
LINE
  5
21BBF
330
18
100
AcDbEntity
  8
1DIM
100
AcDbLine
 10
313.5125669850588
 20
-911.1290298732297
 30
0.0
 11
338.8481747358429
 21
-911.1290298732297
 31
0.0
  0
LINE
  5
21BC0
330
18
100
AcDbEntity
  8
1DIM
100
AcDbLine
 10
337.8481747358429
 20
-840.1290298732306
 30
0.0
 11
337.8481747358429
 21
-909.1290298732297
 31
0.0
  0
LINE
  5
21BC4
330
18
100
AcDbEntity
  8
1DIM
100
AcDbLine
 10
283.6043267118511
 20
-835.1290298732306
 30
0.0
 11
348.8227580050435
 21
-835.1290298732306
 31
0.0
  0
LINE
  5
21BC5
330
18
100
AcDbEntity
  8
1DIM
100
AcDbLine
 10
313.5125669850588
 20
-911.1290298732297
 30
0.0
 11
348.8227580050435
 21
-911.1290298732297
 31
0.0
  0
LINE
  5
21BC6
330
18
100
AcDbEntity
  8
1DIM
100
AcDbLine
 10
347.8227580050435
 20
-837.1290298732306
 30
0.0
 11
347.8227580050435
 21
-909.1290298732297
 31
0.0
  0
LINE
  5
21BCA
330
18
100
AcDbEntity
  8
1DIM
100
AcDbLine
 10
431.9425814471533
 20
-982.1765475560408
 30
0.0
 11
484.1915118858541
 21
-982.1765475560408
 31
0.0
  0
LINE
  5
21BCB
330
18
100
AcDbEntity
  8
1DIM
100
AcDbLine
 10
431.9425814471533
 20
-1006.176547556041
 30
0.0
 11
484.1915118858541
 21
-1006.176547556041
 31
0.0
  0
LINE
  5
21BCC
330
18
100
AcDbEntity
  8
1DIM
100
AcDbLine
 10
483.1915118858541
 20
-982.1765475560408
 30
0.0
 11
483.1915118858541
 21
-948.7852601861434
 31
0.0
  0
LINE
  5
21BCD
330
18
100
AcDbEntity
  8
1DIM
100
AcDbLine
 10
483.1915118858541
 20
-984.1765475560408
 30
0.0
 11
483.1915118858541
 21
-1004.176547556041
 31
0.0
  0
LINE
  5
21BD1
330
18
100
AcDbEntity
  8
1DIM
100
AcDbLine
 10
434.9425814471546
 20
-980.176547556041
 30
0.0
 11
491.1250225416351
 21
-980.176547556041
 31
0.0
  0
LINE
  5
21BD2
330
18
100
AcDbEntity
  8
1DIM
100
AcDbLine
 10
434.9425814471546
 20
-1008.176547556041
 30
0.0
 11
491.1250225416351
 21
-1008.176547556041
 31
0.0
  0
LINE
  5
21BD3
330
18
100
AcDbEntity
  8
1DIM
100
AcDbLine
 10
490.1250225416351
 20
-980.176547556041
 30
0.0
 11
490.1250225416351
 21
-948.7348808893743
 31
0.0
  0
LINE
  5
21BD4
330
18
100
AcDbEntity
  8
1DIM
100
AcDbLine
 10
490.1250225416351
 20
-982.176547556041
 30
0.0
 11
490.1250225416351
 21
-1006.176547556041
 31
0.0
  0
LINE
  5
21BD8
330
18
100
AcDbEntity
  8
1DIM1
100
AcDbLine
 10
-216.0791927417311
 20
-1002.876274205439
 30
0.0
 11
-216.0791927417311
 21
-1032.069715869841
 31
0.0
1001
ACAD
1000
DSTYLE
1002
{
1070
    40
1040
3.0
1002
}
  0
LINE
  5
21BD9
330
18
100
AcDbEntity
  8
1DIM1
100
AcDbLine
 10
246.920807258269
 20
-1002.876274205439
 30
0.0
 11
246.920807258269
 21
-1032.069715869841
 31
0.0
1001
ACAD
1000
DSTYLE
1002
{
1070
    40
1040
3.0
1002
}
  0
LINE
  5
21BDA
330
18
100
AcDbEntity
  8
1DIM1
100
AcDbLine
 10
-210.0791927417311
 20
-1029.069715869841
 30
0.0
 11
240.920807258269
 21
-1029.069715869841
 31
0.0
1001
ACAD
1000
DSTYLE
1002
{
1070
    40
1040
3.0
1002
}
  0
LINE
  5
21BDE
330
18
100
AcDbEntity
  8
0
  6
BYBLOCK
100
AcDbLine
 10
269.920807258269
 20
-1019.414930560548
 30
0.0
 11
271.920807258269
 21
-1019.950828940548
 31
0.0
  0
LINE
  5
21BDF
330
18
100
AcDbEntity
  8
0
  6
BYBLOCK
100
AcDbLine
 10
271.920807258269
 20
-1019.950828940548
 30
0.0
 11
269.920807258269
 21
-1020.486727320549
 31
0.0
  0
LINE
  5
21BE0
330
18
100
AcDbEntity
  8
0
  6
BYBLOCK
100
AcDbLine
 10
271.920807258269
 20
-1019.950828940548
 30
0.0
 11
269.920807258269
 21
-1019.950828940548
 31
0.0
  0
LINE
  5
21BE1
330
18
100
AcDbEntity
  8
0
  6
BYBLOCK
100
AcDbLine
 10
248.920807258269
 20
-1020.486727320549
 30
0.0
 11
246.920807258269
 21
-1019.950828940548
 31
0.0
  0
LINE
  5
21BE2
330
18
100
AcDbEntity
  8
0
  6
BYBLOCK
100
AcDbLine
 10
246.920807258269
 20
-1019.950828940548
 30
0.0
 11
248.920807258269
 21
-1019.414930560548
 31
0.0
  0
LINE
  5
21BE3
330
18
100
AcDbEntity
  8
0
  6
BYBLOCK
100
AcDbLine
 10
246.920807258269
 20
-1019.950828940548
 30
0.0
 11
248.920807258269
 21
-1019.950828940548
 31
0.0
  0
TEXT
  5
21BE4
330
18
100
AcDbEntity
  8
1DIM
  6
CONTINUOUS
100
AcDbText
 10
256.254140623174
 20
-1019.250828940549
 30
0.0
 40
3.5
  1
P25
100
AcDbText
  0
LINE
  5
21BE5
330
18
100
AcDbEntity
  8
0
  6
BYBLOCK
100
AcDbLine
 10
432.9425814471546
 20
-963.6406491760409
 30
0.0
 11
434.9425814471546
 21
-964.176547556041
 31
0.0
  0
LINE
  5
21BE6
330
18
100
AcDbEntity
  8
0
  6
BYBLOCK
100
AcDbLine
 10
434.9425814471546
 20
-964.176547556041
 30
0.0
 11
432.9425814471546
 21
-964.712445936041
 31
0.0
  0
LINE
  5
21BE7
330
18
100
AcDbEntity
  8
0
  6
BYBLOCK
100
AcDbLine
 10
434.9425814471546
 20
-964.176547556041
 30
0.0
 11
432.9425814471546
 21
-964.176547556041
 31
0.0
  0
LINE
  5
21BE8
330
18
100
AcDbEntity
  8
0
  6
BYBLOCK
100
AcDbLine
 10
376.9425814471551
 20
-964.712445936041
 30
0.0
 11
374.9425814471551
 21
-964.176547556041
 31
0.0
  0
LINE
  5
21BE9
330
18
100
AcDbEntity
  8
0
  6
BYBLOCK
100
AcDbLine
 10
374.9425814471551
 20
-964.176547556041
 30
0.0
 11
376.9425814471551
 21
-963.6406491760409
 31
0.0
  0
LINE
  5
21BEA
330
18
100
AcDbEntity
  8
0
  6
BYBLOCK
100
AcDbLine
 10
374.9425814471551
 20
-964.176547556041
 30
0.0
 11
376.9425814471551
 21
-964.176547556041
 31
0.0
  0
TEXT
  5
21BEB
330
18
100
AcDbEntity
  8
1DIM
  6
CONTINUOUS
100
AcDbText
 10
391.8637620027104
 20
-963.4765475560409
 30
0.0
 40
3.5
  1
60 （横施工）
100
AcDbText
1001
ACAD
1000
DSTYLE
1002
{
1070
   271
1070
     0
1002
}
  0
LINE
  5
21BEC
330
18
100
AcDbEntity
  8
0
  6
BYBLOCK
100
AcDbLine
 10
432.9425814471546
 20
-953.6406491760405
 30
0.0
 11
434.9425814471546
 21
-954.1765475560405
 31
0.0
  0
LINE
  5
21BED
330
18
100
AcDbEntity
  8
0
  6
BYBLOCK
100
AcDbLine
 10
434.9425814471546
 20
-954.1765475560405
 30
0.0
 11
432.9425814471546
 21
-954.7124459360406
 31
0.0
  0
LINE
  5
21BEE
330
18
100
AcDbEntity
  8
0
  6
BYBLOCK
100
AcDbLine
 10
434.9425814471546
 20
-954.1765475560405
 30
0.0
 11
432.9425814471546
 21
-954.1765475560405
 31
0.0
  0
LINE
  5
21BEF
330
18
100
AcDbEntity
  8
0
  6
BYBLOCK
100
AcDbLine
 10
360.9425814471556
 20
-954.7124459360406
 30
0.0
 11
358.9425814471556
 21
-954.1765475560405
 31
0.0
  0
LINE
  5
21BF0
330
18
100
AcDbEntity
  8
0
  6
BYBLOCK
100
AcDbLine
 10
358.9425814471556
 20
-954.1765475560405
 30
0.0
 11
360.9425814471556
 21
-953.6406491760405
 31
0.0
  0
LINE
  5
21BF1
330
18
100
AcDbEntity
  8
0
  6
BYBLOCK
100
AcDbLine
 10
358.9425814471556
 20
-954.1765475560405
 30
0.0
 11
360.9425814471556
 21
-954.1765475560405
 31
0.0
  0
TEXT
  5
21BF2
330
18
100
AcDbEntity
  8
1DIM
  6
CONTINUOUS
100
AcDbText
 10
383.572095336044
 20
-953.4765475560405
 30
0.0
 40
3.5
  1
76 （横施工）
100
AcDbText
1001
ACAD
1000
DSTYLE
1002
{
1070
   271
1070
     0
1002
}
  0
LINE
  5
21BF3
330
18
100
AcDbEntity
  8
0
  6
BYBLOCK
100
AcDbLine
 10
352.4146996977083
 20
-984.1765475560408
 30
0.0
 11
352.9505980777083
 21
-982.1765475560408
 31
0.0
  0
LINE
  5
21BF4
330
18
100
AcDbEntity
  8
0
  6
BYBLOCK
100
AcDbLine
 10
352.9505980777083
 20
-982.1765475560408
 30
0.0
 11
353.4864964577083
 21
-984.1765475560408
 31
0.0
  0
LINE
  5
21BF5
330
18
100
AcDbEntity
  8
0
  6
BYBLOCK
100
AcDbLine
 10
352.9505980777083
 20
-982.1765475560408
 30
0.0
 11
352.9505980777083
 21
-984.1765475560408
 31
0.0
  0
LINE
  5
21BF6
330
18
100
AcDbEntity
  8
0
  6
BYBLOCK
100
AcDbLine
 10
353.4864964577083
 20
-1004.176547556041
 30
0.0
 11
352.9505980777083
 21
-1006.176547556041
 31
0.0
  0
LINE
  5
21BF7
330
18
100
AcDbEntity
  8
0
  6
BYBLOCK
100
AcDbLine
 10
352.9505980777083
 20
-1006.176547556041
 30
0.0
 11
352.4146996977083
 21
-1004.176547556041
 31
0.0
  0
LINE
  5
21BF8
330
18
100
AcDbEntity
  8
0
  6
BYBLOCK
100
AcDbLine
 10
352.9505980777083
 20
-1006.176547556041
 30
0.0
 11
352.9505980777083
 21
-1004.176547556041
 31
0.0
  0
TEXT
  5
21BF9
330
18
100
AcDbEntity
  8
1DIM
  6
CONTINUOUS
100
AcDbText
 10
352.2505980777082
 20
-997.0932142227074
 30
0.0
 40
3.5
  1
24
 50
90.0
100
AcDbText
  0
LINE
  5
21BFA
330
18
100
AcDbEntity
  8
0
  6
BYBLOCK
100
AcDbLine
 10
335.7595472677073
 20
-980.1765475876132
 30
0.0
 11
336.2954456477073
 21
-978.1765475876132
 31
0.0
  0
LINE
  5
21BFB
330
18
100
AcDbEntity
  8
0
  6
BYBLOCK
100
AcDbLine
 10
336.2954456477073
 20
-978.1765475876132
 30
0.0
 11
336.8313440277073
 21
-980.1765475876132
 31
0.0
  0
LINE
  5
21BFC
330
18
100
AcDbEntity
  8
0
  6
BYBLOCK
100
AcDbLine
 10
336.2954456477073
 20
-978.1765475876132
 30
0.0
 11
336.2954456477073
 21
-980.1765475876132
 31
0.0
  0
LINE
  5
21BFD
330
18
100
AcDbEntity
  8
0
  6
BYBLOCK
100
AcDbLine
 10
336.8313440277073
 20
-1008.176547587621
 30
0.0
 11
336.2954456477073
 21
-1010.176547587621
 31
0.0
  0
LINE
  5
21BFE
330
18
100
AcDbEntity
  8
0
  6
BYBLOCK
100
AcDbLine
 10
336.2954456477073
 20
-1010.176547587621
 30
0.0
 11
335.7595472677073
 21
-1008.176547587621
 31
0.0
  0
LINE
  5
21BFF
330
18
100
AcDbEntity
  8
0
  6
BYBLOCK
100
AcDbLine
 10
336.2954456477073
 20
-1010.176547587621
 30
0.0
 11
336.2954456477073
 21
-1008.176547587621
 31
0.0
  0
TEXT
  5
21C00
330
18
100
AcDbEntity
  8
1DIM
  6
CONTINUOUS
100
AcDbText
 10
335.5954456477073
 20
-999.6598809209506
 30
0.0
 40
3.5
  1
φ32
 50
90.0
100
AcDbText
1001
ACAD
1000
DSTYLE
1002
{
1070
     3
1000
φ<>
1070
   271
1070
     1
1002
}
  0
LINE
  5
21C01
330
18
100
AcDbEntity
  8
0
  6
BYBLOCK
100
AcDbLine
 10
429.9425814471558
 20
-1019.414930560548
 30
0.0
 11
431.9425814471558
 21
-1019.950828940548
 31
0.0
  0
LINE
  5
21C02
330
18
100
AcDbEntity
  8
0
  6
BYBLOCK
100
AcDbLine
 10
431.9425814471558
 20
-1019.950828940548
 30
0.0
 11
429.9425814471558
 21
-1020.486727320548
 31
0.0
  0
LINE
  5
21C03
330
18
100
AcDbEntity
  8
0
  6
BYBLOCK
100
AcDbLine
 10
431.9425814471558
 20
-1019.950828940548
 30
0.0
 11
429.9425814471558
 21
-1019.950828940548
 31
0.0
  0
LINE
  5
21C04
330
18
100
AcDbEntity
  8
0
  6
BYBLOCK
100
AcDbLine
 10
420.4425814471557
 20
-1020.486727320548
 30
0.0
 11
418.4425814471557
 21
-1019.950828940548
 31
0.0
  0
LINE
  5
21C05
330
18
100
AcDbEntity
  8
0
  6
BYBLOCK
100
AcDbLine
 10
418.4425814471557
 20
-1019.950828940548
 30
0.0
 11
420.4425814471557
 21
-1019.414930560548
 31
0.0
  0
LINE
  5
21C06
330
18
100
AcDbEntity
  8
0
  6
BYBLOCK
100
AcDbLine
 10
418.4425814471557
 20
-1019.950828940548
 30
0.0
 11
420.4425814471557
 21
-1019.950828940548
 31
0.0
  0
TEXT
  5
21C07
330
18
100
AcDbEntity
  8
1DIM
  6
CONTINUOUS
100
AcDbText
 10
420.5259147804891
 20
-1019.250828940548
 30
0.0
 40
3.5
  1
13.5
100
AcDbText
  0
LINE
  5
21C08
330
18
100
AcDbEntity
  8
0
  6
BYBLOCK
100
AcDbLine
 10
-283.487433014941
 20
-938.6032372852592
 30
0.0
 11
-289.487433014941
 21
-936.9955421452592
 31
0.0
  0
LINE
  5
21C09
330
18
100
AcDbEntity
  8
0
  6
BYBLOCK
100
AcDbLine
 10
-289.487433014941
 20
-936.9955421452592
 30
0.0
 11
-283.487433014941
 21
-935.3878470052591
 31
0.0
  0
LINE
  5
21C0A
330
18
100
AcDbEntity
  8
0
  6
BYBLOCK
100
AcDbLine
 10
-289.487433014941
 20
-936.9955421452592
 30
0.0
 11
-283.487433014941
 21
-936.9955421452592
 31
0.0
  0
LINE
  5
21C0B
330
18
100
AcDbEntity
  8
0
  6
BYBLOCK
100
AcDbLine
 10
314.512566985059
 20
-935.3878470052591
 30
0.0
 11
320.512566985059
 21
-936.9955421452592
 31
0.0
  0
LINE
  5
21C0C
330
18
100
AcDbEntity
  8
0
  6
BYBLOCK
100
AcDbLine
 10
320.512566985059
 20
-936.9955421452592
 30
0.0
 11
314.512566985059
 21
-938.6032372852592
 31
0.0
  0
LINE
  5
21C0D
330
18
100
AcDbEntity
  8
0
  6
BYBLOCK
100
AcDbLine
 10
320.512566985059
 20
-936.9955421452592
 30
0.0
 11
314.512566985059
 21
-936.9955421452592
 31
0.0
  0
TEXT
  5
21C0E
330
18
100
AcDbEntity
  8
1DIM1
  6
CONTINUOUS
100
AcDbText
 10
3.882358651725706
 20
-934.8955421452591
 30
0.0
 40
10.5
  1
610
100
AcDbText
1001
ACAD
1000
DSTYLE
1002
{
1070
    40
1040
3.0
1002
}
  0
LINE
  5
21C0F
330
18
100
AcDbEntity
  8
0
100
AcDbLine
 10
416.4425814471557
 20
-983.4765477301148
 30
0.0
 11
416.4425814471557
 21
-989.8265475560409
 31
0.0
  0
LINE
  5
21C10
330
18
100
AcDbEntity
  8
0
100
AcDbLine
 10
416.4425814471557
 20
-989.8265475560409
 30
0.0
 11
416.7925814471557
 21
-990.1765475560408
 31
0.0
  0
LINE
  5
21C11
330
18
100
AcDbEntity
  8
0
100
AcDbLine
 10
416.7925814471557
 20
-990.1765475560408
 30
0.0
 11
420.0925814471556
 21
-990.1765475560408
 31
0.0
  0
LINE
  5
21C12
330
18
100
AcDbEntity
  8
0
100
AcDbLine
 10
420.0925814471556
 20
-990.1765475560408
 30
0.0
 11
420.4425814471557
 21
-989.8265475560409
 31
0.0
  0
LINE
  5
21C13
330
18
100
AcDbEntity
  8
0
100
AcDbLine
 10
420.4425814471557
 20
-989.8265475560409
 30
0.0
 11
420.4425814471557
 21
-983.4765477301148
 31
0.0
  0
LINE
  5
21C14
330
18
100
AcDbEntity
  8
0
100
AcDbLine
 10
420.4425814471557
 20
-983.4765477301148
 30
0.0
 11
421.4425814471557
 21
-982.4765475660408
 31
0.0
  0
LINE
  5
21C15
330
18
100
AcDbEntity
  8
0
100
AcDbLine
 10
421.4425814471557
 20
-982.4765475660408
 30
0.0
 11
421.4425814471557
 21
-982.1765475560408
 31
0.0
  0
LINE
  5
21C16
330
18
100
AcDbEntity
  8
0
100
AcDbLine
 10
421.4425814471557
 20
-982.1765475560408
 30
0.0
 11
415.4425814471557
 21
-982.1765475560408
 31
0.0
  0
LINE
  5
21C17
330
18
100
AcDbEntity
  8
0
100
AcDbLine
 10
415.4425814471557
 20
-982.1765475560408
 30
0.0
 11
415.4425814471557
 21
-982.4765476560408
 31
0.0
  0
LINE
  5
21C18
330
18
100
AcDbEntity
  8
0
100
AcDbLine
 10
415.4425814471557
 20
-982.4765476560408
 30
0.0
 11
416.4425814471557
 21
-983.4765477301148
 31
0.0
  0
LINE
  5
21C19
330
18
100
AcDbEntity
  8
0
100
AcDbLine
 10
416.4425814471557
 20
-998.5265475560407
 30
0.0
 11
416.4425814471557
 21
-1004.876547381967
 31
0.0
  0
LINE
  5
21C1A
330
18
100
AcDbEntity
  8
0
100
AcDbLine
 10
416.4425814471557
 20
-1004.876547381967
 30
0.0
 11
415.4425814471557
 21
-1005.876547456041
 31
0.0
  0
LINE
  5
21C1B
330
18
100
AcDbEntity
  8
0
100
AcDbLine
 10
415.4425814471557
 20
-1005.876547456041
 30
0.0
 11
415.4425814471557
 21
-1006.176547556041
 31
0.0
  0
LINE
  5
21C1C
330
18
100
AcDbEntity
  8
0
100
AcDbLine
 10
415.4425814471557
 20
-1006.176547556041
 30
0.0
 11
421.4425814471557
 21
-1006.176547556041
 31
0.0
  0
LINE
  5
21C1D
330
18
100
AcDbEntity
  8
0
100
AcDbLine
 10
421.4425814471557
 20
-1006.176547556041
 30
0.0
 11
421.4425814471557
 21
-1005.876547546041
 31
0.0
  0
LINE
  5
21C1E
330
18
100
AcDbEntity
  8
0
100
AcDbLine
 10
421.4425814471557
 20
-1005.876547546041
 30
0.0
 11
420.4425814471557
 21
-1004.876547381967
 31
0.0
  0
LINE
  5
21C1F
330
18
100
AcDbEntity
  8
0
100
AcDbLine
 10
420.4425814471557
 20
-1004.876547381967
 30
0.0
 11
420.4425814471557
 21
-998.5265475560407
 31
0.0
  0
LINE
  5
21C20
330
18
100
AcDbEntity
  8
0
100
AcDbLine
 10
420.4425814471557
 20
-998.5265475560407
 30
0.0
 11
420.0925814471556
 21
-998.1765475560408
 31
0.0
  0
LINE
  5
21C21
330
18
100
AcDbEntity
  8
0
100
AcDbLine
 10
420.0925814471556
 20
-998.1765475560408
 30
0.0
 11
416.7925814471557
 21
-998.1765475560408
 31
0.0
  0
LINE
  5
21C22
330
18
100
AcDbEntity
  8
0
100
AcDbLine
 10
416.7925814471557
 20
-998.1765475560408
 30
0.0
 11
416.4425814471557
 21
-998.5265475560407
 31
0.0
  0
LINE
  5
21C23
330
18
100
AcDbEntity
  8
0
  6
BYBLOCK
100
AcDbLine
 10
-222.5791927417311
 20
-965.784242696041
 30
0.0
 11
-228.5791927417311
 21
-964.176547556041
 31
0.0
  0
LINE
  5
21C24
330
18
100
AcDbEntity
  8
0
  6
BYBLOCK
100
AcDbLine
 10
-228.5791927417311
 20
-964.176547556041
 30
0.0
 11
-222.5791927417311
 21
-962.568852416041
 31
0.0
  0
LINE
  5
21C25
330
18
100
AcDbEntity
  8
0
  6
BYBLOCK
100
AcDbLine
 10
-228.5791927417311
 20
-964.176547556041
 30
0.0
 11
-222.5791927417311
 21
-964.176547556041
 31
0.0
  0
LINE
  5
21C26
330
18
100
AcDbEntity
  8
0
  6
BYBLOCK
100
AcDbLine
 10
253.420807258269
 20
-962.568852416041
 30
0.0
 11
259.420807258269
 21
-964.176547556041
 31
0.0
  0
LINE
  5
21C27
330
18
100
AcDbEntity
  8
0
  6
BYBLOCK
100
AcDbLine
 10
259.420807258269
 20
-964.176547556041
 30
0.0
 11
253.420807258269
 21
-965.784242696041
 31
0.0
  0
LINE
  5
21C28
330
18
100
AcDbEntity
  8
0
  6
BYBLOCK
100
AcDbLine
 10
259.420807258269
 20
-964.176547556041
 30
0.0
 11
253.420807258269
 21
-964.176547556041
 31
0.0
  0
TEXT
  5
21C29
330
18
100
AcDbEntity
  8
1DIM1
  6
CONTINUOUS
100
AcDbText
 10
-3.829192741731063
 20
-962.076547556041
 30
0.0
 40
10.5
  1
P488
100
AcDbText
1001
ACAD
1000
DSTYLE
1002
{
1070
    40
1040
3.0
1002
}
  0
LINE
  5
21C2A
330
18
100
AcDbEntity
  8
0
  6
BYBLOCK
100
AcDbLine
 10
317.3487975360221
 20
-908.5549779864605
 30
0.0
 11
317.2366984633528
 21
-906.4874623585647
 31
0.0
  0
LINE
  5
21C2B
330
18
100
AcDbEntity
  8
0
  6
BYBLOCK
100
AcDbLine
 10
317.2366984633528
 20
-906.4874623585647
 30
0.0
 11
318.3675369141045
 21
-908.2219338838393
 31
0.0
  0
LINE
  5
21C2C
330
18
100
AcDbEntity
  8
0
  6
BYBLOCK
100
AcDbLine
 10
317.2366984633528
 20
-906.4874623585647
 30
0.0
 11
317.8581672250633
 21
-908.3884559351499
 31
0.0
  0
LINE
  5
21C2D
330
18
100
AcDbEntity
  8
0
  6
BYBLOCK
100
AcDbLine
 10
429.9425814471546
 20
-1019.414930560548
 30
0.0
 11
431.9425814471546
 21
-1019.950828940548
 31
0.0
  0
LINE
  5
21C2E
330
18
100
AcDbEntity
  8
0
  6
BYBLOCK
100
AcDbLine
 10
431.9425814471546
 20
-1019.950828940548
 30
0.0
 11
429.9425814471546
 21
-1020.486727320548
 31
0.0
  0
LINE
  5
21C2F
330
18
100
AcDbEntity
  8
0
  6
BYBLOCK
100
AcDbLine
 10
431.9425814471546
 20
-1019.950828940548
 30
0.0
 11
429.9425814471546
 21
-1019.950828940548
 31
0.0
  0
LINE
  5
21C30
330
18
100
AcDbEntity
  8
0
  6
BYBLOCK
100
AcDbLine
 10
436.9425814471546
 20
-1020.486727320548
 30
0.0
 11
434.9425814471546
 21
-1019.950828940548
 31
0.0
  0
LINE
  5
21C31
330
18
100
AcDbEntity
  8
0
  6
BYBLOCK
100
AcDbLine
 10
434.9425814471546
 20
-1019.950828940548
 30
0.0
 11
436.9425814471546
 21
-1019.414930560548
 31
0.0
  0
LINE
  5
21C32
330
18
100
AcDbEntity
  8
0
  6
BYBLOCK
100
AcDbLine
 10
434.9425814471546
 20
-1019.950828940548
 30
0.0
 11
436.9425814471546
 21
-1019.950828940548
 31
0.0
  0
TEXT
  5
21C33
330
18
100
AcDbEntity
  8
1DIM
  6
CONTINUOUS
100
AcDbText
 10
439.6425814471546
 20
-1019.250828940548
 30
0.0
 40
3.5
  1
3
100
AcDbText
  0
LINE
  5
21C34
330
18
100
AcDbEntity
  8
0
  6
BYBLOCK
100
AcDbLine
 10
237.6043267118511
 20
-823.5408650763553
 30
0.0
 11
235.6043267118511
 21
-823.0049666963553
 31
0.0
  0
LINE
  5
21C35
330
18
100
AcDbEntity
  8
0
  6
BYBLOCK
100
AcDbLine
 10
235.6043267118511
 20
-823.0049666963553
 30
0.0
 11
237.6043267118511
 21
-822.4690683163552
 31
0.0
  0
LINE
  5
21C36
330
18
100
AcDbEntity
  8
0
  6
BYBLOCK
100
AcDbLine
 10
235.6043267118511
 20
-823.0049666963553
 30
0.0
 11
237.6043267118511
 21
-823.0049666963553
 31
0.0
  0
LINE
  5
21C37
330
18
100
AcDbEntity
  8
0
  6
BYBLOCK
100
AcDbLine
 10
281.6043267118511
 20
-822.4690683163552
 30
0.0
 11
283.6043267118511
 21
-823.0049666963553
 31
0.0
  0
LINE
  5
21C38
330
18
100
AcDbEntity
  8
0
  6
BYBLOCK
100
AcDbLine
 10
283.6043267118511
 20
-823.0049666963553
 30
0.0
 11
281.6043267118511
 21
-823.5408650763553
 31
0.0
  0
LINE
  5
21C39
330
18
100
AcDbEntity
  8
0
  6
BYBLOCK
100
AcDbLine
 10
283.6043267118511
 20
-823.0049666963553
 30
0.0
 11
281.6043267118511
 21
-823.0049666963553
 31
0.0
  0
TEXT
  5
21C3A
330
18
100
AcDbEntity
  8
1DIM
  6
CONTINUOUS
100
AcDbText
 10
256.6876600451844
 20
-822.3049666963552
 30
0.0
 40
3.5
  1
48
100
AcDbText
  0
LINE
  5
21C3B
330
18
100
AcDbEntity
  8
0
  6
BYBLOCK
100
AcDbLine
 10
337.3122763558429
 20
-840.1290298732306
 30
0.0
 11
337.8481747358429
 21
-838.1290298732306
 31
0.0
  0
LINE
  5
21C3C
330
18
100
AcDbEntity
  8
0
  6
BYBLOCK
100
AcDbLine
 10
337.8481747358429
 20
-838.1290298732306
 30
0.0
 11
338.3840731158429
 21
-840.1290298732306
 31
0.0
  0
LINE
  5
21C3D
330
18
100
AcDbEntity
  8
0
  6
BYBLOCK
100
AcDbLine
 10
337.8481747358429
 20
-838.1290298732306
 30
0.0
 11
337.8481747358429
 21
-840.1290298732306
 31
0.0
  0
LINE
  5
21C3E
330
18
100
AcDbEntity
  8
0
  6
BYBLOCK
100
AcDbLine
 10
338.3840731158429
 20
-909.1290298732297
 30
0.0
 11
337.8481747358429
 21
-911.1290298732297
 31
0.0
  0
LINE
  5
21C3F
330
18
100
AcDbEntity
  8
0
  6
BYBLOCK
100
AcDbLine
 10
337.8481747358429
 20
-911.1290298732297
 30
0.0
 11
337.3122763558429
 21
-909.1290298732297
 31
0.0
  0
LINE
  5
21C40
330
18
100
AcDbEntity
  8
0
  6
BYBLOCK
100
AcDbLine
 10
337.8481747358429
 20
-911.1290298732297
 30
0.0
 11
337.8481747358429
 21
-909.1290298732297
 31
0.0
  0
TEXT
  5
21C41
330
18
100
AcDbEntity
  8
1DIM
  6
CONTINUOUS
100
AcDbText
 10
337.1481747358429
 20
-887.9873632065633
 30
0.0
 40
3.5
  1
73 （縦施工）
 50
90.0
100
AcDbText
  0
LINE
  5
21C42
330
18
100
AcDbEntity
  8
0
  6
BYBLOCK
100
AcDbLine
 10
347.2868596250435
 20
-837.1290298732306
 30
0.0
 11
347.8227580050435
 21
-835.1290298732306
 31
0.0
  0
LINE
  5
21C43
330
18
100
AcDbEntity
  8
0
  6
BYBLOCK
100
AcDbLine
 10
347.8227580050435
 20
-835.1290298732306
 30
0.0
 11
348.3586563850435
 21
-837.1290298732306
 31
0.0
  0
LINE
  5
21C44
330
18
100
AcDbEntity
  8
0
  6
BYBLOCK
100
AcDbLine
 10
347.8227580050435
 20
-835.1290298732306
 30
0.0
 11
347.8227580050435
 21
-837.1290298732306
 31
0.0
  0
LINE
  5
21C45
330
18
100
AcDbEntity
  8
0
  6
BYBLOCK
100
AcDbLine
 10
348.3586563850435
 20
-909.1290298732297
 30
0.0
 11
347.8227580050435
 21
-911.1290298732297
 31
0.0
  0
LINE
  5
21C46
330
18
100
AcDbEntity
  8
0
  6
BYBLOCK
100
AcDbLine
 10
347.8227580050435
 20
-911.1290298732297
 30
0.0
 11
347.2868596250435
 21
-909.1290298732297
 31
0.0
  0
LINE
  5
21C47
330
18
100
AcDbEntity
  8
0
  6
BYBLOCK
100
AcDbLine
 10
347.8227580050435
 20
-911.1290298732297
 30
0.0
 11
347.8227580050435
 21
-909.1290298732297
 31
0.0
  0
TEXT
  5
21C48
330
18
100
AcDbEntity
  8
1DIM
  6
CONTINUOUS
100
AcDbText
 10
347.1227580050435
 20
-886.4995159843411
 30
0.0
 40
3.5
  1
76 （横施工）
 50
90.0
100
AcDbText
  0
LINE
  5
21C49
330
18
100
AcDbEntity
  8
0
  6
BYBLOCK
100
AcDbLine
 10
482.6556135058541
 20
-984.1765475560408
 30
0.0
 11
483.1915118858541
 21
-982.1765475560408
 31
0.0
  0
LINE
  5
21C4A
330
18
100
AcDbEntity
  8
0
  6
BYBLOCK
100
AcDbLine
 10
483.1915118858541
 20
-982.1765475560408
 30
0.0
 11
483.7274102658541
 21
-984.1765475560408
 31
0.0
  0
LINE
  5
21C4B
330
18
100
AcDbEntity
  8
0
  6
BYBLOCK
100
AcDbLine
 10
483.1915118858541
 20
-982.1765475560408
 30
0.0
 11
483.1915118858541
 21
-984.1765475560408
 31
0.0
  0
LINE
  5
21C4C
330
18
100
AcDbEntity
  8
0
  6
BYBLOCK
100
AcDbLine
 10
483.7274102658541
 20
-1004.176547556041
 30
0.0
 11
483.1915118858541
 21
-1006.176547556041
 31
0.0
  0
LINE
  5
21C4D
330
18
100
AcDbEntity
  8
0
  6
BYBLOCK
100
AcDbLine
 10
483.1915118858541
 20
-1006.176547556041
 30
0.0
 11
482.6556135058541
 21
-1004.176547556041
 31
0.0
  0
LINE
  5
21C4E
330
18
100
AcDbEntity
  8
0
  6
BYBLOCK
100
AcDbLine
 10
483.1915118858541
 20
-1006.176547556041
 30
0.0
 11
483.1915118858541
 21
-1004.176547556041
 31
0.0
  0
TEXT
  5
21C4F
330
18
100
AcDbEntity
  8
1DIM
  6
CONTINUOUS
100
AcDbText
 10
482.4915118858541
 20
-975.7852601861434
 30
0.0
 40
3.5
  1
24 （縦施工）
 50
90.0
100
AcDbText
  0
LINE
  5
21C50
330
18
100
AcDbEntity
  8
0
  6
BYBLOCK
100
AcDbLine
 10
489.5891241616351
 20
-982.176547556041
 30
0.0
 11
490.1250225416351
 21
-980.176547556041
 31
0.0
  0
LINE
  5
21C51
330
18
100
AcDbEntity
  8
0
  6
BYBLOCK
100
AcDbLine
 10
490.1250225416351
 20
-980.176547556041
 30
0.0
 11
490.6609209216351
 21
-982.176547556041
 31
0.0
  0
LINE
  5
21C52
330
18
100
AcDbEntity
  8
0
  6
BYBLOCK
100
AcDbLine
 10
490.1250225416351
 20
-980.176547556041
 30
0.0
 11
490.1250225416351
 21
-982.176547556041
 31
0.0
  0
LINE
  5
21C53
330
18
100
AcDbEntity
  8
0
  6
BYBLOCK
100
AcDbLine
 10
490.6609209216351
 20
-1006.176547556041
 30
0.0
 11
490.1250225416351
 21
-1008.176547556041
 31
0.0
  0
LINE
  5
21C54
330
18
100
AcDbEntity
  8
0
  6
BYBLOCK
100
AcDbLine
 10
490.1250225416351
 20
-1008.176547556041
 30
0.0
 11
489.5891241616351
 21
-1006.176547556041
 31
0.0
  0
LINE
  5
21C55
330
18
100
AcDbEntity
  8
0
  6
BYBLOCK
100
AcDbLine
 10
490.1250225416351
 20
-1008.176547556041
 30
0.0
 11
490.1250225416351
 21
-1006.176547556041
 31
0.0
  0
TEXT
  5
21C56
330
18
100
AcDbEntity
  8
1DIM
  6
CONTINUOUS
100
AcDbText
 10
489.4250225416351
 20
-975.7348808893742
 30
0.0
 40
3.5
  1
28 （横施工）
 50
90.0
100
AcDbText
  0
LINE
  5
21C57
330
18
100
AcDbEntity
  8
0
  6
BYBLOCK
100
AcDbLine
 10
-210.0791927417311
 20
-1030.677411009841
 30
0.0
 11
-216.0791927417311
 21
-1029.069715869841
 31
0.0
  0
LINE
  5
21C58
330
18
100
AcDbEntity
  8
0
  6
BYBLOCK
100
AcDbLine
 10
-216.0791927417311
 20
-1029.069715869841
 30
0.0
 11
-210.0791927417311
 21
-1027.462020729841
 31
0.0
  0
LINE
  5
21C59
330
18
100
AcDbEntity
  8
0
  6
BYBLOCK
100
AcDbLine
 10
-216.0791927417311
 20
-1029.069715869841
 30
0.0
 11
-210.0791927417311
 21
-1029.069715869841
 31
0.0
  0
LINE
  5
21C5A
330
18
100
AcDbEntity
  8
0
  6
BYBLOCK
100
AcDbLine
 10
240.920807258269
 20
-1027.462020729841
 30
0.0
 11
246.920807258269
 21
-1029.069715869841
 31
0.0
  0
LINE
  5
21C5B
330
18
100
AcDbEntity
  8
0
  6
BYBLOCK
100
AcDbLine
 10
246.920807258269
 20
-1029.069715869841
 30
0.0
 11
240.920807258269
 21
-1030.677411009841
 31
0.0
  0
LINE
  5
21C5C
330
18
100
AcDbEntity
  8
0
  6
BYBLOCK
100
AcDbLine
 10
246.920807258269
 20
-1029.069715869841
 30
0.0
 11
240.920807258269
 21
-1029.069715869841
 31
0.0
  0
TEXT
  5
21C5D
330
18
100
AcDbEntity
  8
1DIM1
  6
CONTINUOUS
100
AcDbText
 10
1.38434892493559
 20
-1026.96971586984
 30
0.0
 40
10.5
  1
463
100
AcDbText
1001
ACAD
1000
DSTYLE
1002
{
1070
    40
1040
3.0
1002
}
  0
VIEWPORT
  5
57
330
15
100
AcDbEntity
 67
     1
  8
0
100
AcDbViewport
 68
     1
 10
0.0
 20
0.0
 30
0.0
 40
555.8298653610772
 41
297.0
 68
     1
 69
     1
1001
ACAD
1000
MVIEW
1002
{
1070
    16
1010
0.0
1020
0.0
1030
0.0
1010
0.0
1020
0.0
1030
1.0
1040
0.0
1040
297.0
1040
-4.171999999925333
1040
12.83903210976956
1040
50.0
1040
0.0
1040
0.0
1070
    16
1070
   100
1070
     0
1070
     1
1070
     0
1070
     0
1070
     0
1070
     0
1040
0.0
1040
0.0
1040
0.0
1040
10.0
1040
10.0
1040
10.0
1040
10.0
1070
     0
1002
{
1002
}
1002
}
  0
ENDSEC
  0
SECTION
  2
OBJECTS
  0
DICTIONARY
  5
C
330
0
100
AcDbDictionary
  3
ACAD_COLOR
350
2D0
  3
ACAD_GROUP
350
D
  3
ACAD_LAYOUT
350
2D1
  3
ACAD_MATERIAL
350
2CF
  3
ACAD_MLEADERSTYLE
350
19E18
  3
ACAD_MLINESTYLE
350
1B
  3
ACAD_PLOTSETTINGS
350
2D2
  3
ACAD_SCALELIST
350
19DF6
  3
ACAD_VISUALSTYLE
350
19DE5
  3
ACDBHEADERROUNDTRIPXREC
350
21C5E
  3
ACDBVARIABLEDICTIONARY
350
37
  3
CONTENTDICTIONARY
350
D8
  3
DRAWINGVARIABLESDICT
350
20
  3
DWGPROPS
350
21C61
1001
ACAD
1000
TREAT_AS_HARD
1070
     0
  0
DICTIONARY
  5
18FE8
330
2
100
AcDbDictionary
  3
ACAD_LAYERSTATES
360
18FE9
1001
ACAD
1000
TREAT_AS_HARD
1070
     1
  0
DICTIONARY
  5
1A20A
330
E
100
AcDbDictionary
  3
ADSK_XREC_LAYER_RECONCILED
360
1A20B
1001
ACAD
1000
TREAT_AS_HARD
1070
     1
  0
DICTIONARY
  5
1A20C
330
29
100
AcDbDictionary
  3
ADSK_XREC_LAYER_RECONCILED
360
1A20D
1001
ACAD
1000
TREAT_AS_HARD
1070
     1
  0
DICTIONARY
  5
1A20E
330
31
100
AcDbDictionary
  3
ADSK_XREC_LAYER_RECONCILED
360
1A20F
1001
ACAD
1000
TREAT_AS_HARD
1070
     1
  0
DICTIONARY
  5
1A218
330
101
100
AcDbDictionary
  3
ADSK_XREC_LAYER_RECONCILED
360
1A219
1001
ACAD
1000
TREAT_AS_HARD
1070
     1
  0
DICTIONARY
  5
1A21C
330
103
100
AcDbDictionary
  3
ADSK_XREC_LAYER_RECONCILED
360
1A21D
1001
ACAD
1000
TREAT_AS_HARD
1070
     1
  0
DICTIONARY
  5
1A220
330
25F
100
AcDbDictionary
  3
ADSK_XREC_LAYER_RECONCILED
360
1A221
1001
ACAD
1000
TREAT_AS_HARD
1070
     1
  0
DICTIONARY
  5
1A236
330
26A
100
AcDbDictionary
  3
ADSK_XREC_LAYER_RECONCILED
360
1A237
1001
ACAD
1000
TREAT_AS_HARD
1070
     1
  0
DICTIONARY
  5
1A23C
330
26D
100
AcDbDictionary
  3
ADSK_XREC_LAYER_RECONCILED
360
1A23D
1001
ACAD
1000
TREAT_AS_HARD
1070
     1
  0
DICTIONARY
  5
6E9
330
18
100
AcDbDictionary
  3
ACAD_SORTENTS
360
6EA
1001
ACAD
1000
TREAT_AS_HARD
1070
     1
  0
DICTIONARY
  5
59B
330
15
100
AcDbDictionary
  3
ACAD_SORTENTS
360
59C
1001
ACAD
1000
TREAT_AS_HARD
1070
     1
  0
DICTIONARY
  5
2D0
102
{ACAD_REACTORS
330
C
102
}
330
C
100
AcDbDictionary
1001
ACAD
1000
TREAT_AS_HARD
1070
     0
  0
DICTIONARY
  5
D
102
{ACAD_REACTORS
330
C
102
}
330
C
100
AcDbDictionary
1001
ACAD
1000
TREAT_AS_HARD
1070
     0
  0
DICTIONARY
  5
2D1
102
{ACAD_REACTORS
330
C
102
}
330
C
100
AcDbDictionary
1001
ACAD
1000
TREAT_AS_HARD
1070
     0
  0
DICTIONARY
  5
2CF
102
{ACAD_REACTORS
330
C
102
}
330
C
100
AcDbDictionary
  3
BYBLOCK
350
19DD5
  3
BYLAYER
350
19DCD
  3
GLOBAL
350
19DDD
1001
ACAD
1000
TREAT_AS_HARD
1070
     0
  0
DICTIONARY
  5
19E18
102
{ACAD_REACTORS
330
C
102
}
330
C
100
AcDbDictionary
  3
STANDARD
350
19E19
1001
ACAD
1000
TREAT_AS_HARD
1070
     0
  0
DICTIONARY
  5
1B
102
{ACAD_REACTORS
330
C
102
}
330
C
100
AcDbDictionary
  3
STANDARD
350
1C
1001
ACAD
1000
TREAT_AS_HARD
1070
     0
  0
DICTIONARY
  5
2D2
102
{ACAD_REACTORS
330
C
102
}
330
C
100
AcDbDictionary
1001
ACAD
1000
TREAT_AS_HARD
1070
     0
  0
DICTIONARY
  5
19DF6
102
{ACAD_REACTORS
330
C
102
}
330
C
100
AcDbDictionary
  3
A0
350
19DF7
  3
A1
350
19DF8
  3
A2
350
19DF9
  3
A3
350
19DFA
  3
A4
350
19DFB
  3
A5
350
19DFC
  3
A6
350
19DFD
  3
A7
350
19DFE
  3
A8
350
19DFF
  3
A9
350
19E00
  3
B0
350
19E01
  3
B1
350
19E02
  3
B2
350
19E03
  3
B3
350
19E04
  3
B4
350
19E05
  3
B5
350
19E06
  3
B6
350
19E07
  3
B7
350
19E08
  3
B8
350
19E09
  3
B9
350
19E0A
  3
C0
350
19E0B
  3
C1
350
19E0C
  3
C2
350
19E0D
  3
C3
350
19E0E
  3
C4
350
19E0F
  3
C5
350
19E10
  3
C6
350
19E11
  3
C7
350
19E12
  3
C8
350
19E13
  3
C9
350
19E14
  3
D0
350
19E15
  3
D1
350
19E16
  3
D2
350
19E17
1001
ACAD
1000
TREAT_AS_HARD
1070
     0
  0
DICTIONARY
  5
19DE5
102
{ACAD_REACTORS
330
C
102
}
330
C
100
AcDbDictionary
  3
2DWIREFRAME
350
19DEB
  3
3D_HIDDEN
350
19DED
  3
3DWIREFRAME
350
19DEC
  3
BASIC
350
19DEA
  3
BRIGHTEN
350
19DF1
  3
COLORCHANGE
350
19DF5
  3
CONCEPTUAL
350
19DEE
  3
DIM
350
19DF0
  3
EDGECOLOROFF
350
1E02A
  3
FACEPATTERN
350
19DF4
  3
FLAT
350
19DE6
  3
FLATWITHEDGES
350
19DE7
  3
GOURAUD
350
19DE8
  3
GOURAUDWITHEDGES
350
19DE9
  3
HIDDEN
350
1F381
  3
JITTEROFF
350
1E028
  3
LINEPATTERN
350
19DF3
  3
MODELING
350
1F387
  3
OVERHANGOFF
350
1E029
  3
REALISTIC
350
19DEF
  3
SHADED
350
1F386
  3
SHADED_WITH_EDGES
350
1F385
  3
SHADES_OF_GRAY
350
1F382
  3
SKETCHY
350
1F383
  3
THICKEN
350
19DF2
  3
WIREFRAME
350
1F380
  3
X-RAY
350
1F384
1001
ACAD
1000
TREAT_AS_HARD
1070
     0
  0
DICTIONARY
  5
21C5E
102
{ACAD_REACTORS
330
C
102
}
330
C
100
AcDbDictionary
  3
COLORDICT
350
21C5F
  3
MATERIALDICT
350
21C60
1001
ACAD
1000
TREAT_AS_HARD
1070
     0
  0
DICTIONARY
  5
37
102
{ACAD_REACTORS
330
C
102
}
330
C
100
AcDbDictionary
  3
CANNOSCALE
350
20A45
  3
CMLEADERSTYLE
350
1AC19
  3
CTABLESTYLE
350
4F1
  3
DIMADEC
350
38
  3
DIMASSOC
350
408
  3
HIDETEXT
350
1891
  3
INDEXCTL
350
1AC1C
  3
INTERSECTIONCOLOR
350
1895
  3
INTERSECTIONDISPLAY
350
1894
  3
MSLTSCALE
350
20A9B
  3
OBSCOLOR
350
1892
  3
OBSLTYPE
350
1893
  3
PROJECTNAME
350
409
  3
SORTENTS
350
1AC1B
  3
XCLIPFRAME
350
1F37F
1001
ACAD
1000
TREAT_AS_HARD
1070
     0
  0
DICTIONARY
  5
D8
102
{ACAD_REACTORS
330
C
102
}
330
C
100
AcDbDictionary
1001
CONTENTTABDATA
1070
    11
1000
Child
1000
D:\ACLT\TABset\CHILDREN.dwg
1070
     0
1070
     0
1070
     1
1000
PK
1000
D:\ACLT\TABset\PK.dwg
1070
     0
1070
     0
1070
     1
1000
Lev1
1000
D:\ACLT\TABset\Lever01.dwg
1070
     0
1070
     0
1070
     1
1000
Lev2
1000
D:\ACLT\TABset\Lever02.dwg
1070
     0
1070
     0
1070
     1
1000
L3
1000
D:\Aclt\TABset\Lever03.dwg
1070
     0
1070
     0
1070
     1
1000
Form
1000
D:\ACLT\FORMAT
1070
     1
1070
     0
1070
     1
1000
Jnt
1000
D:\ACLT\TABset\JOINTPARTS.dwg
1070
     0
1070
     0
1070
     1
1000
ISO
1000
D:\ACLT\TABset\Isome01.dwg
1070
     0
1070
     0
1070
     1
1000
R
1000
D:\ACLT\TABset\REGION.dwg
1070
     0
1070
     0
1070
     1
1000
std
1000
D:\ACLT\TABset\std_sym_all.dwg
1070
     0
1070
     0
1070
     1
1000
丸
1000
D:\Aclt\TABset\MARU.dwg
1070
     0
1070
     0
1070
     1
1001
CONTENTCURRENTTAB
1070
     0
1001
ACAD
1000
TREAT_AS_HARD
1070
     0
  0
DICTIONARY
  5
20
102
{ACAD_REACTORS
330
C
102
}
330
C
100
AcDbDictionary
1001
DRAWINGVARIABLESXDATA
1000
POLARANG
1000
0.261799387799149410000000
1000
POLARMODE
1000
1
1000
POLARSTYLE
1000
1
1001
ACAD
1000
TREAT_AS_HARD
1070
     0
  0
XRECORD
  5
21C61
102
{ACAD_REACTORS
330
C
102
}
330
C
100
AcDbXrecord
  1
DWGPROPS COOKIE
  2

  3

  4

  6

  7

  8
3684
  9

300
=
301
=
302
=
303
=
304
=
305
=
306
=
307
=
308
=
309
=
 40
0.0
 41
2453033.357663484
 42
2458100.986508009
  1

 90
        0
  0
DICTIONARY
  5
18FE9
102
{ACAD_REACTORS
330
18FE8
102
}
330
18FE8
100
AcDbDictionary
1001
ACAD
1000
TREAT_AS_HARD
1070
     0
  0
ACAD_PROXY_OBJECT
  5
1A20B
102
{ACAD_REACTORS
330
1A20A
102
}
330
1A20A
100
AcDbZombieObject
 90
      499
 91
      517
 93
       34
310
40C8804040
  0
ACAD_PROXY_OBJECT
  5
1A20D
102
{ACAD_REACTORS
330
1A20C
102
}
330
1A20C
100
AcDbZombieObject
 90
      499
 91
      517
 93
       34
310
40C8804040
  0
ACAD_PROXY_OBJECT
  5
1A20F
102
{ACAD_REACTORS
330
1A20E
102
}
330
1A20E
100
AcDbZombieObject
 90
      499
 91
      517
 93
       34
310
40C8804040
  0
ACAD_PROXY_OBJECT
  5
1A219
102
{ACAD_REACTORS
330
1A218
102
}
330
1A218
100
AcDbZombieObject
 90
      499
 91
      517
 93
       34
310
40C8804040
  0
ACAD_PROXY_OBJECT
  5
1A21D
102
{ACAD_REACTORS
330
1A21C
102
}
330
1A21C
100
AcDbZombieObject
 90
      499
 91
      517
 93
       34
310
40C8804040
  0
ACAD_PROXY_OBJECT
  5
1A221
102
{ACAD_REACTORS
330
1A220
102
}
330
1A220
100
AcDbZombieObject
 90
      499
 91
      517
 93
       34
310
40C8804040
  0
ACAD_PROXY_OBJECT
  5
1A237
102
{ACAD_REACTORS
330
1A236
102
}
330
1A236
100
AcDbZombieObject
 90
      499
 91
      517
 93
       34
310
40C8804040
  0
ACAD_PROXY_OBJECT
  5
1A23D
102
{ACAD_REACTORS
330
1A23C
102
}
330
1A23C
100
AcDbZombieObject
 90
      499
 91
      517
 93
       34
310
40C8804040
  0
SORTENTSTABLE
  5
6EA
102
{ACAD_REACTORS
330
6E9
102
}
330
6E9
100
AcDbSortentsTable
330
18
331
0
  5
99AB
331
0
  5
AB53
331
0
  5
AB54
331
0
  5
ECB5
331
217AF
  5
21813
331
217B0
  5
21814
331
217B3
  5
2183B
331
217B4
  5
2183C
331
217B5
  5
2183D
331
217B6
  5
2183E
331
217B7
  5
2183F
331
217B8
  5
21840
331
217B9
  5
21841
331
217BA
  5
21842
331
217BB
  5
21843
331
217BC
  5
21844
331
217BD
  5
21848
331
217BE
  5
21849
331
217BF
  5
2184A
331
217C0
  5
2184B
331
217C1
  5
21850
331
217C2
  5
21851
331
217C3
  5
21852
331
217C4
  5
21853
331
217C5
  5
21854
331
217C6
  5
21855
331
217C7
  5
21856
331
217C8
  5
21857
331
217C9
  5
21858
331
217CA
  5
21859
331
217CB
  5
2185A
331
217CC
  5
2185B
331
217CD
  5
2185D
331
217CE
  5
2185E
331
217CF
  5
21861
331
217D0
  5
21862
331
217D1
  5
21863
331
217D2
  5
21864
331
217D3
  5
21865
331
217D4
  5
21866
331
217D5
  5
21868
331
217D6
  5
21869
331
217D7
  5
2186A
331
217D8
  5
2186B
331
217D9
  5
2186C
331
217DA
  5
2186D
331
217DB
  5
2186E
331
217DC
  5
2186F
331
217DD
  5
21870
331
217DE
  5
21871
331
217DF
  5
21872
331
217E0
  5
21873
331
217E1
  5
21874
331
217E2
  5
21875
331
217E3
  5
21876
331
217E4
  5
21877
331
217E5
  5
21878
331
217E6
  5
21879
331
217E7
  5
2187A
331
217E8
  5
2187B
331
217E9
  5
2187C
331
217EA
  5
2187D
331
217EB
  5
2187E
331
217EC
  5
2187F
331
217ED
  5
21880
331
217EE
  5
21881
331
217EF
  5
21882
331
217F0
  5
21883
331
217F1
  5
21884
331
217F2
  5
21885
331
217F3
  5
21887
331
217F4
  5
21888
331
217F5
  5
21889
331
217F6
  5
2188A
331
217F7
  5
2188B
331
217F8
  5
2188C
331
217F9
  5
2188D
331
217FA
  5
2188E
331
217FB
  5
2188F
331
217FC
  5
21890
331
217FD
  5
21891
331
217FE
  5
21892
331
21800
  5
2189D
331
21801
  5
2189E
331
21802
  5
2189F
331
21803
  5
218A0
331
21804
  5
218A1
331
21805
  5
218A2
331
21806
  5
218A3
331
21807
  5
218A4
331
21808
  5
218A5
331
21809
  5
218A6
331
2180A
  5
218A7
331
2180B
  5
218A8
331
2180C
  5
218A9
331
2180D
  5
218AA
331
2180E
  5
218AB
331
2180F
  5
218AC
331
21810
  5
218AD
331
21811
  5
218AE
331
21812
  5
218AF
331
21813
  5
218B0
331
21814
  5
218B1
331
21815
  5
218B2
331
21816
  5
218B3
331
21817
  5
218B4
331
21818
  5
218B8
331
21819
  5
218B9
331
2181A
  5
218BA
331
2181B
  5
218BB
331
2181C
  5
218BC
331
2181D
  5
21B45
331
2181E
  5
21B46
331
2181F
  5
21B47
331
21820
  5
21B48
331
21821
  5
21B49
331
21822
  5
21B4A
331
21823
  5
21B4B
331
21824
  5
21B4C
331
21825
  5
21B4D
331
21826
  5
21B4E
331
21827
  5
21B4F
331
21828
  5
21B50
331
21829
  5
21B51
331
2182A
  5
21B52
331
2182B
  5
21B53
331
2182C
  5
21B54
331
2182D
  5
21B55
331
2182E
  5
21B56
331
2182F
  5
21B57
331
21830
  5
21B58
331
21831
  5
21B59
331
21832
  5
21B5A
331
21833
  5
21B5B
331
21834
  5
21B5C
331
21839
  5
21B67
331
2183A
  5
21B68
331
2183B
  5
21B69
331
2183C
  5
21B6A
331
2183D
  5
21B6B
331
2183E
  5
21B6C
331
2183F
  5
21B6D
331
21840
  5
21B6E
331
21841
  5
21B6F
331
21842
  5
21B70
331
21843
  5
21B71
331
21844
  5
21B72
331
21845
  5
21B73
331
21846
  5
21B74
331
21847
  5
21B75
331
21848
  5
21B76
331
21849
  5
21B77
331
2184A
  5
21B78
331
2184B
  5
21B79
331
21850
  5
21B8B
331
21851
  5
21B8C
331
21852
  5
21B8D
331
21853
  5
21B8E
331
21854
  5
21B8F
331
21855
  5
21B90
331
21856
  5
21B91
331
21857
  5
21B92
331
21858
  5
21B93
331
21859
  5
21B94
331
2185A
  5
21B95
331
2185B
  5
21B96
331
2185D
  5
21BA3
331
2185E
  5
21BA4
331
21861
  5
21BA9
331
21862
  5
21BAA
331
21863
  5
21BAB
331
21864
  5
21BAC
331
21865
  5
21BAD
331
21866
  5
21BAE
331
21868
  5
21BC3
331
21869
  5
21BC4
331
2186A
  5
21BC5
331
2186B
  5
21BC6
331
2186C
  5
21BC7
331
2186D
  5
21BC8
331
2186E
  5
21BC9
331
2186F
  5
21BCA
331
21870
  5
21BCB
331
21871
  5
21BCC
331
21872
  5
21BCD
331
21873
  5
21BD1
331
21874
  5
21BD2
331
21875
  5
21BD3
331
21876
  5
21BD4
331
21877
  5
21BD8
331
21878
  5
21BD9
331
21879
  5
21BDA
331
2187A
  5
21BDE
331
2187B
  5
21BDF
331
2187C
  5
21BE0
331
2187D
  5
21BE1
331
2187E
  5
21BE2
331
2187F
  5
21BE3
331
21880
  5
21BE4
331
21881
  5
21BE5
331
21882
  5
21BE6
331
21883
  5
21BE7
331
21884
  5
21BE8
331
21885
  5
21BE9
331
21886
  5
21BEA
331
21887
  5
21BEB
331
21888
  5
21BEC
331
21889
  5
21BED
331
2188A
  5
21BEE
331
2188B
  5
21BEF
331
2188C
  5
21BF0
331
2188D
  5
21BF1
331
2188E
  5
21BF2
331
2188F
  5
21BF3
331
21890
  5
21BF4
331
21891
  5
21BF5
331
21892
  5
21BF6
331
21893
  5
21BF7
331
21894
  5
21BF8
331
21895
  5
21BF9
331
21896
  5
21BFA
331
21897
  5
21BFB
331
21898
  5
21BFC
331
21899
  5
21BFD
331
2189A
  5
21BFE
331
2189B
  5
21BFF
331
2189C
  5
21C00
331
2189D
  5
21C01
331
2189E
  5
21C02
331
2189F
  5
21C03
331
218A0
  5
21C04
331
218A1
  5
21C05
331
218A2
  5
21C06
331
218A3
  5
21C07
331
218A4
  5
21C08
331
218A5
  5
21C09
331
218A6
  5
21C0A
331
218A7
  5
21C0B
331
218A8
  5
21C0C
331
218A9
  5
21C0D
331
218AA
  5
21C0E
331
218AB
  5
21C0F
331
218AC
  5
21C10
331
218AD
  5
21C11
331
218AE
  5
21C12
331
218AF
  5
21C13
331
218B0
  5
21C14
331
218B1
  5
21C15
331
218B2
  5
21C16
331
218B3
  5
21C17
331
218B4
  5
21C18
331
218B8
  5
21C37
331
218B9
  5
21C38
331
218BA
  5
21C39
331
218BB
  5
21C3A
331
218BC
  5
21C3B
331
218BD
  5
21C3C
331
218BE
  5
21C3D
331
21B44
  5
217AF
331
21B45
  5
217B0
331
21B46
  5
217B3
331
0
  5
217B4
331
0
  5
217B5
331
0
  5
217B6
331
21B4A
  5
217C4
331
21B4B
  5
217C5
331
21B4C
  5
217C9
331
0
  5
217BA
331
0
  5
217BB
331
0
  5
217BC
331
21B50
  5
217D7
331
21B51
  5
217DB
331
21B52
  5
217DC
331
0
  5
217C0
331
0
  5
217C1
331
0
  5
217C2
331
21B56
  5
217E4
331
21B57
  5
217E6
331
21B58
  5
217E7
331
0
  5
217C6
331
0
  5
217C7
331
0
  5
217C8
331
21B5C
  5
217F0
331
21B5D
  5
217F1
331
21B5E
  5
217F2
331
0
  5
217CC
331
0
  5
217CD
331
0
  5
217CE
331
21B62
  5
217FA
331
21B63
  5
217FB
331
21B64
  5
217FC
331
0
  5
217D2
331
0
  5
217D3
331
0
  5
217D4
331
21B68
  5
21805
331
21B69
  5
21806
331
21B6A
  5
21807
331
0
  5
217D8
331
0
  5
217D9
331
0
  5
217DA
331
21B6E
  5
2180F
331
21B6F
  5
21810
331
21B70
  5
21811
331
21B71
  5
21812
331
21B72
  5
21815
331
21B73
  5
21816
331
21B74
  5
21817
331
21B75
  5
21818
331
0
  5
217E5
331
21B77
  5
21823
331
21B78
  5
21824
331
21B79
  5
21825
331
21B82
  5
21826
331
21B83
  5
21827
331
21B84
  5
21828
331
21B85
  5
21829
331
0
  5
217ED
331
21B87
  5
21834
331
21B88
  5
21839
331
21B89
  5
2183A
331
21B8A
  5
21893
331
21B8B
  5
21894
331
21B8C
  5
21895
331
0
  5
21845
331
0
  5
21846
331
0
  5
21847
331
21B90
  5
21B5D
331
0
  5
21886
331
21B92
  5
21B61
331
21B93
  5
21B62
331
21B94
  5
21B63
331
21B95
  5
21B64
331
21B96
  5
21B65
331
21B97
  5
21B66
331
21B98
  5
21B82
331
21B99
  5
21B83
331
21B9A
  5
21B84
331
21B9B
  5
21B85
331
21B9C
  5
21B86
331
21B9D
  5
21B87
331
21B9E
  5
21B88
331
21B9F
  5
21B89
331
21BA0
  5
21B8A
331
21BA1
  5
21B97
331
21BA2
  5
21B98
331
21BA3
  5
21B99
331
21BA4
  5
21B9A
331
21BA5
  5
21B9B
331
0
  5
218BD
331
0
  5
218BE
331
0
  5
21B44
331
21BA9
  5
21BA5
331
21BAA
  5
21BA6
331
21BAB
  5
21BA7
331
21BAC
  5
21BA8
331
21BAD
  5
21BAF
331
21BAE
  5
21BB0
331
21BAF
  5
21BB1
331
21BB0
  5
21BB2
331
21BB1
  5
21BB3
331
21BB2
  5
21BB7
331
21BB3
  5
21BB8
331
21BB4
  5
21BB9
331
21BB5
  5
21BBD
331
21BB6
  5
21BBE
331
21BB7
  5
21BBF
331
21BB8
  5
21C19
331
21BB9
  5
21C1A
331
21BBA
  5
21C1B
331
0
  5
21BB4
331
0
  5
21BB5
331
0
  5
21BB6
331
21BBE
  5
21C23
331
21BBF
  5
21C24
331
21BC0
  5
21C25
331
0
  5
21BBA
331
0
  5
21BBB
331
0
  5
21BBC
331
21BC4
  5
21C2D
331
21BC5
  5
21C2E
331
21BC6
  5
21C2F
331
0
  5
21BC0
331
0
  5
21BC1
331
0
  5
21BC2
331
21BCA
  5
21C3E
331
21BCB
  5
21C3F
331
21BCC
  5
21C40
331
21BCD
  5
21C41
331
21BD1
  5
21C49
331
21BD2
  5
21C4A
331
21BD3
  5
21C4B
331
21BD4
  5
21C4C
331
21BD8
  5
21C54
331
21BD9
  5
21C55
331
21BDA
  5
21C56
331
21BDE
  5
217B7
331
21BDF
  5
217B8
331
21BE0
  5
217B9
331
21BE1
  5
217BD
331
21BE2
  5
217BE
331
21BE3
  5
217BF
331
21BE4
  5
217C3
331
21BE5
  5
217CA
331
21BE6
  5
217CB
331
21BE7
  5
217CF
331
21BE8
  5
217D0
331
21BE9
  5
217D1
331
21BEA
  5
217D5
331
21BEB
  5
217D6
331
21BEC
  5
217DD
331
21BED
  5
217DE
331
21BEE
  5
217DF
331
21BEF
  5
217E0
331
21BF0
  5
217E1
331
21BF1
  5
217E2
331
21BF2
  5
217E3
331
21BF3
  5
217E8
331
21BF4
  5
217E9
331
21BF5
  5
217EA
331
21BF6
  5
217EB
331
21BF7
  5
217EC
331
21BF8
  5
217EE
331
21BF9
  5
217EF
331
21BFA
  5
217F3
331
21BFB
  5
217F4
331
21BFC
  5
217F5
331
21BFD
  5
217F6
331
21BFE
  5
217F7
331
21BFF
  5
217F8
331
21C00
  5
217F9
331
21C01
  5
217FD
331
21C02
  5
217FE
331
21C03
  5
21800
331
21C04
  5
21801
331
21C05
  5
21802
331
21C06
  5
21803
331
21C07
  5
21804
331
21C08
  5
21808
331
21C09
  5
21809
331
21C0A
  5
2180A
331
21C0B
  5
2180B
331
21C0C
  5
2180C
331
21C0D
  5
2180D
331
21C0E
  5
2180E
331
21C0F
  5
21819
331
21C10
  5
2181A
331
21C11
  5
2181B
331
21C12
  5
2181C
331
21C13
  5
2181D
331
21C14
  5
2181E
331
21C15
  5
2181F
331
21C16
  5
21820
331
21C17
  5
21821
331
21C18
  5
21822
331
21C19
  5
2182A
331
21C1A
  5
2182B
331
21C1B
  5
2182C
331
21C1C
  5
2182D
331
21C1D
  5
2182E
331
21C1E
  5
2182F
331
21C1F
  5
21830
331
21C20
  5
21831
331
21C21
  5
21832
331
21C22
  5
21833
331
21C23
  5
21896
331
21C24
  5
21897
331
21C25
  5
21898
331
21C26
  5
21899
331
21C27
  5
2189A
331
21C28
  5
2189B
331
21C29
  5
2189C
331
21C2A
  5
21B5E
331
21C2B
  5
21B5F
331
21C2C
  5
21B60
331
21C2D
  5
21B9C
331
21C2E
  5
21B9D
331
21C2F
  5
21B9E
331
21C30
  5
21B9F
331
21C31
  5
21BA0
331
21C32
  5
21BA1
331
21C33
  5
21BA2
331
21C34
  5
21C1C
331
21C35
  5
21C1D
331
21C36
  5
21C1E
331
21C37
  5
21C1F
331
21C38
  5
21C20
331
21C39
  5
21C21
331
21C3A
  5
21C22
331
21C3B
  5
21C26
331
21C3C
  5
21C27
331
21C3D
  5
21C28
331
21C3E
  5
21C29
331
21C3F
  5
21C2A
331
21C40
  5
21C2B
331
21C41
  5
21C2C
331
21C42
  5
21C30
331
21C43
  5
21C31
331
21C44
  5
21C32
331
21C45
  5
21C33
331
21C46
  5
21C34
331
21C47
  5
21C35
331
21C48
  5
21C36
331
21C49
  5
21C42
331
21C4A
  5
21C43
331
21C4B
  5
21C44
331
21C4C
  5
21C45
331
21C4D
  5
21C46
331
21C4E
  5
21C47
331
21C4F
  5
21C48
331
21C50
  5
21C4D
331
21C51
  5
21C4E
331
21C52
  5
21C4F
331
21C53
  5
21C50
331
21C54
  5
21C51
331
21C55
  5
21C52
331
21C56
  5
21C53
  0
SORTENTSTABLE
  5
59C
102
{ACAD_REACTORS
330
59B
102
}
330
59B
100
AcDbSortentsTable
330
15
  0
MATERIAL
  5
19DD5
102
{ACAD_REACTORS
330
2CF
102
}
102
{ACAD_XDICTIONARY
360
21DFC
102
}
330
2CF
100
AcDbMaterial
  1
BYBLOCK
 72
     0
 73
     2
 43
0.0208333333333333
 43
0.0
 43
0.0
 43
0.0
 43
0.0
 43
0.0208333333333333
 43
0.0
 43
0.0
 43
0.0
 43
0.0
 43
1.0
 43
0.0
 43
0.0
 43
0.0
 43
0.0
 43
1.0
 77
     0
 78
     2
 47
0.0208333333333333
 47
0.0
 47
0.0
 47
0.0
 47
0.0
 47
0.0208333333333333
 47
0.0
 47
0.0
 47
0.0
 47
0.0
 47
1.0
 47
0.0
 47
0.0
 47
0.0
 47
0.0
 47
1.0
171
     0
172
     2
 49
0.0208333333333333
 49
0.0
 49
0.0
 49
0.0
 49
0.0
 49
0.0208333333333333
 49
0.0
 49
0.0
 49
0.0
 49
0.0
 49
1.0
 49
0.0
 49
0.0
 49
0.0
 49
0.0
 49
1.0
175
     0
176
     2
142
0.0208333333333333
142
0.0
142
0.0
142
0.0
142
0.0
142
0.0208333333333333
142
0.0
142
0.0
142
0.0
142
0.0
142
1.0
142
0.0
142
0.0
142
0.0
142
0.0
142
1.0
179
     0
270
     2
144
0.0208333333333333
144
0.0
144
0.0
144
0.0
144
0.0
144
0.0208333333333333
144
0.0
144
0.0
144
0.0
144
0.0
144
1.0
144
0.0
144
0.0
144
0.0
144
0.0
144
1.0
274
     2
147
0.0208333333333333
147
0.0
147
0.0
147
0.0
147
0.0
147
0.0208333333333333
147
0.0
147
0.0
147
0.0
147
0.0
147
1.0
147
0.0
147
0.0
147
0.0
147
0.0
147
1.0
  0
MATERIAL
  5
19DCD
102
{ACAD_REACTORS
330
2CF
102
}
102
{ACAD_XDICTIONARY
360
21DFE
102
}
330
2CF
100
AcDbMaterial
  1
BYLAYER
 72
     0
 73
     2
 43
0.0208333333333333
 43
0.0
 43
0.0
 43
0.0
 43
0.0
 43
0.0208333333333333
 43
0.0
 43
0.0
 43
0.0
 43
0.0
 43
1.0
 43
0.0
 43
0.0
 43
0.0
 43
0.0
 43
1.0
 77
     0
 78
     2
 47
0.0208333333333333
 47
0.0
 47
0.0
 47
0.0
 47
0.0
 47
0.0208333333333333
 47
0.0
 47
0.0
 47
0.0
 47
0.0
 47
1.0
 47
0.0
 47
0.0
 47
0.0
 47
0.0
 47
1.0
171
     0
172
     2
 49
0.0208333333333333
 49
0.0
 49
0.0
 49
0.0
 49
0.0
 49
0.0208333333333333
 49
0.0
 49
0.0
 49
0.0
 49
0.0
 49
1.0
 49
0.0
 49
0.0
 49
0.0
 49
0.0
 49
1.0
175
     0
176
     2
142
0.0208333333333333
142
0.0
142
0.0
142
0.0
142
0.0
142
0.0208333333333333
142
0.0
142
0.0
142
0.0
142
0.0
142
1.0
142
0.0
142
0.0
142
0.0
142
0.0
142
1.0
179
     0
270
     2
144
0.0208333333333333
144
0.0
144
0.0
144
0.0
144
0.0
144
0.0208333333333333
144
0.0
144
0.0
144
0.0
144
0.0
144
1.0
144
0.0
144
0.0
144
0.0
144
0.0
144
1.0
274
     2
147
0.0208333333333333
147
0.0
147
0.0
147
0.0
147
0.0
147
0.0208333333333333
147
0.0
147
0.0
147
0.0
147
0.0
147
1.0
147
0.0
147
0.0
147
0.0
147
0.0
147
1.0
  0
MATERIAL
  5
19DDD
102
{ACAD_REACTORS
330
2CF
102
}
102
{ACAD_XDICTIONARY
360
21E00
102
}
330
2CF
100
AcDbMaterial
  1
GLOBAL
 72
     0
 73
     2
 43
0.0208333333333333
 43
0.0
 43
0.0
 43
0.0
 43
0.0
 43
0.0208333333333333
 43
0.0
 43
0.0
 43
0.0
 43
0.0
 43
1.0
 43
0.0
 43
0.0
 43
0.0
 43
0.0
 43
1.0
 77
     0
 78
     2
 47
0.0208333333333333
 47
0.0
 47
0.0
 47
0.0
 47
0.0
 47
0.0208333333333333
 47
0.0
 47
0.0
 47
0.0
 47
0.0
 47
1.0
 47
0.0
 47
0.0
 47
0.0
 47
0.0
 47
1.0
171
     0
172
     2
 49
0.0208333333333333
 49
0.0
 49
0.0
 49
0.0
 49
0.0
 49
0.0208333333333333
 49
0.0
 49
0.0
 49
0.0
 49
0.0
 49
1.0
 49
0.0
 49
0.0
 49
0.0
 49
0.0
 49
1.0
175
     0
176
     2
142
0.0208333333333333
142
0.0
142
0.0
142
0.0
142
0.0
142
0.0208333333333333
142
0.0
142
0.0
142
0.0
142
0.0
142
1.0
142
0.0
142
0.0
142
0.0
142
0.0
142
1.0
179
     0
270
     2
144
0.0208333333333333
144
0.0
144
0.0
144
0.0
144
0.0
144
0.0208333333333333
144
0.0
144
0.0
144
0.0
144
0.0
144
1.0
144
0.0
144
0.0
144
0.0
144
0.0
144
1.0
274
     2
147
0.0208333333333333
147
0.0
147
0.0
147
0.0
147
0.0
147
0.0208333333333333
147
0.0
147
0.0
147
0.0
147
0.0
147
1.0
147
0.0
147
0.0
147
0.0
147
0.0
147
1.0
  0
ACAD_PROXY_OBJECT
  5
19E19
102
{ACAD_REACTORS
330
19E18
102
}
330
19E18
100
AcDbZombieObject
 90
      499
 91
      512
 93
      610
310
40901902A4063FBFFFFFE000000000000002040AD7A3703D0AD73F4214DD185B99185C990000000000000104090141901A00000000000004100000000000000041025764000000000000300FC0
340
12
340
0
340
F
340
0
 94
        0
1001
ACAD_MLEADERVER
1070
     2
  0
MLINESTYLE
  5
1C
102
{ACAD_REACTORS
330
1B
102
}
330
1B
100
AcDbMlineStyle
  2
STANDARD
 70
     0
  3

 62
   256
 51
90.0
 52
90.0
 71
     2
 49
0.5
 62
   256
  6
BYLAYER
 49
-0.5
 62
   256
  6
BYLAYER
  0
ACAD_PROXY_OBJECT
  5
19DF7
102
{ACAD_REACTORS
330
19DF6
102
}
330
19DF6
100
AcDbZombieObject
 90
      499
 91
      511
 93
       41
310
903313A31580
  0
ACAD_PROXY_OBJECT
  5
19DF8
102
{ACAD_REACTORS
330
19DF6
102
}
330
19DF6
100
AcDbZombieObject
 90
      499
 91
      511
 93
      105
310
903313A324000000000000004000
  0
ACAD_PROXY_OBJECT
  5
19DF9
102
{ACAD_REACTORS
330
19DF6
102
}
330
19DF6
100
AcDbZombieObject
 90
      499
 91
      511
 93
      105
310
903313A344000000000000104000
  0
ACAD_PROXY_OBJECT
  5
19DFA
102
{ACAD_REACTORS
330
19DF6
102
}
330
19DF6
100
AcDbZombieObject
 90
      499
 91
      511
 93
      105
310
903313A354000000000000144000
  0
ACAD_PROXY_OBJECT
  5
19DFB
102
{ACAD_REACTORS
330
19DF6
102
}
330
19DF6
100
AcDbZombieObject
 90
      499
 91
      511
 93
      105
310
903313A384000000000000204000
  0
ACAD_PROXY_OBJECT
  5
19DFC
102
{ACAD_REACTORS
330
19DF6
102
}
330
19DF6
100
AcDbZombieObject
 90
      499
 91
      511
 93
      113
310
904313A31304000000000000244000
  0
ACAD_PROXY_OBJECT
  5
19DFD
102
{ACAD_REACTORS
330
19DF6
102
}
330
19DF6
100
AcDbZombieObject
 90
      499
 91
      511
 93
      113
310
904313A31364000000000000304000
  0
ACAD_PROXY_OBJECT
  5
19DFE
102
{ACAD_REACTORS
330
19DF6
102
}
330
19DF6
100
AcDbZombieObject
 90
      499
 91
      511
 93
      113
310
904313A32304000000000000344000
  0
ACAD_PROXY_OBJECT
  5
19DFF
102
{ACAD_REACTORS
330
19DF6
102
}
330
19DF6
100
AcDbZombieObject
 90
      499
 91
      511
 93
      113
310
904313A333040000000000003E4000
  0
ACAD_PROXY_OBJECT
  5
19E00
102
{ACAD_REACTORS
330
19DF6
102
}
330
19DF6
100
AcDbZombieObject
 90
      499
 91
      511
 93
      113
310
904313A34304000000000000444000
  0
ACAD_PROXY_OBJECT
  5
19E01
102
{ACAD_REACTORS
330
19DF6
102
}
330
19DF6
100
AcDbZombieObject
 90
      499
 91
      511
 93
      113
310
904313A35304000000000000494000
  0
ACAD_PROXY_OBJECT
  5
19E02
102
{ACAD_REACTORS
330
19DF6
102
}
330
19DF6
100
AcDbZombieObject
 90
      499
 91
      511
 93
      121
310
905313A3130304000000000000594000
  0
ACAD_PROXY_OBJECT
  5
19E03
102
{ACAD_REACTORS
330
19DF6
102
}
330
19DF6
100
AcDbZombieObject
 90
      499
 91
      511
 93
      105
310
903323A310000000000000010100
  0
ACAD_PROXY_OBJECT
  5
19E04
102
{ACAD_REACTORS
330
19DF6
102
}
330
19DF6
100
AcDbZombieObject
 90
      499
 91
      511
 93
      105
310
903343A310000000000000410100
  0
ACAD_PROXY_OBJECT
  5
19E05
102
{ACAD_REACTORS
330
19DF6
102
}
330
19DF6
100
AcDbZombieObject
 90
      499
 91
      511
 93
      105
310
903383A310000000000000810100
  0
ACAD_PROXY_OBJECT
  5
19E06
102
{ACAD_REACTORS
330
19DF6
102
}
330
19DF6
100
AcDbZombieObject
 90
      499
 91
      511
 93
      113
310
90431303A310000000000000910100
  0
ACAD_PROXY_OBJECT
  5
19E07
102
{ACAD_REACTORS
330
19DF6
102
}
330
19DF6
100
AcDbZombieObject
 90
      499
 91
      511
 93
      121
310
9053130303A310000000000001650100
  0
ACAD_PROXY_OBJECT
  5
19E08
102
{ACAD_REACTORS
330
19DF6
102
}
330
19DF6
100
AcDbZombieObject
 90
      499
 91
      511
 93
      257
310
90E312F31323822203D2031272D3022000000000000200FC000000000000284000
  0
ACAD_PROXY_OBJECT
  5
19E09
102
{ACAD_REACTORS
330
19DF6
102
}
330
19DF6
100
AcDbZombieObject
 90
      499
 91
      511
 93
      249
310
90D312F363422203D2031272D3022000000000000240FC000000000000284000
  0
ACAD_PROXY_OBJECT
  5
19E0A
102
{ACAD_REACTORS
330
19DF6
102
}
330
19DF6
100
AcDbZombieObject
 90
      499
 91
      511
 93
      249
310
90D312F333222203D2031272D3022000000000000280FC000000000000284000
  0
ACAD_PROXY_OBJECT
  5
19E0B
102
{ACAD_REACTORS
330
19DF6
102
}
330
19DF6
100
AcDbZombieObject
 90
      499
 91
      511
 93
      249
310
90D312F313622203D2031272D30220000000000002C0FC000000000000284000
  0
ACAD_PROXY_OBJECT
  5
19E0C
102
{ACAD_REACTORS
330
19DF6
102
}
330
19DF6
100
AcDbZombieObject
 90
      499
 91
      511
 93
      249
310
90D332F333222203D2031272D30220000000000002E0FC000000000000284000
  0
ACAD_PROXY_OBJECT
  5
19E0D
102
{ACAD_REACTORS
330
19DF6
102
}
330
19DF6
100
AcDbZombieObject
 90
      499
 91
      511
 93
      241
310
90C312F3822203D2031272D3022000000000000300FC000000000000284000
  0
ACAD_PROXY_OBJECT
  5
19E0E
102
{ACAD_REACTORS
330
19DF6
102
}
330
19DF6
100
AcDbZombieObject
 90
      499
 91
      511
 93
      249
310
90D332F313622203D2031272D3022000000000000320FC000000000000284000
  0
ACAD_PROXY_OBJECT
  5
19E0F
102
{ACAD_REACTORS
330
19DF6
102
}
330
19DF6
100
AcDbZombieObject
 90
      499
 91
      511
 93
      241
310
90C312F3422203D2031272D3022000000000000340FC000000000000284000
  0
ACAD_PROXY_OBJECT
  5
19E10
102
{ACAD_REACTORS
330
19DF6
102
}
330
19DF6
100
AcDbZombieObject
 90
      499
 91
      511
 93
      241
310
90C332F3822203D2031272D3022000000000000360FC000000000000284000
  0
ACAD_PROXY_OBJECT
  5
19E11
102
{ACAD_REACTORS
330
19DF6
102
}
330
19DF6
100
AcDbZombieObject
 90
      499
 91
      511
 93
      241
310
90C312F3222203D2031272D3022000000000000380FC000000000000284000
  0
ACAD_PROXY_OBJECT
  5
19E12
102
{ACAD_REACTORS
330
19DF6
102
}
330
19DF6
100
AcDbZombieObject
 90
      499
 91
      511
 93
      241
310
90C332F3422203D2031272D30220000000000003A0FC000000000000284000
  0
ACAD_PROXY_OBJECT
  5
19E13
102
{ACAD_REACTORS
330
19DF6
102
}
330
19DF6
100
AcDbZombieObject
 90
      499
 91
      511
 93
      161
310
90A3122203D2031272D30224000000000000284000
  0
ACAD_PROXY_OBJECT
  5
19E14
102
{ACAD_REACTORS
330
19DF6
102
}
330
19DF6
100
AcDbZombieObject
 90
      499
 91
      511
 93
      257
310
90E312D312F3222203D2031272D30220000000000003E0FC000000000000284000
  0
ACAD_PROXY_OBJECT
  5
19E15
102
{ACAD_REACTORS
330
19DF6
102
}
330
19DF6
100
AcDbZombieObject
 90
      499
 91
      511
 93
      225
310
90A3322203D2031272D302200000000000002100000000000000284000
  0
ACAD_PROXY_OBJECT
  5
19E16
102
{ACAD_REACTORS
330
19DF6
102
}
330
19DF6
100
AcDbZombieObject
 90
      499
 91
      511
 93
      225
310
90A3622203D2031272D302200000000000006100000000000000284000
  0
ACAD_PROXY_OBJECT
  5
19E17
102
{ACAD_REACTORS
330
19DF6
102
}
330
19DF6
100
AcDbZombieObject
 90
      499
 91
      511
 93
      249
310
90D31272D3022203D2031272D30220000000000000A100000000000000284000
  0
ACAD_PROXY_OBJECT
  5
19DEB
102
{ACAD_REACTORS
330
19DE5
102
}
330
19DE5
100
AcDbZombieObject
 90
      499
 91
      510
 93
      436
310
42CC9915DA5C99599C985B595049028333333333333E3BF0000000000000FB0107901411070040501600405405064090741402480A0340
1001
ACAD
1000
AcDbSavedByObjectVersion
1070
     0
  0
ACAD_PROXY_OBJECT
  5
19DED
102
{ACAD_REACTORS
330
19DE5
102
}
330
19DE5
100
AcDbZombieObject
 90
      499
 91
      510
 93
      500
310
424CD108121A5919195B90640502408333333333333E3BF0000000000000FB01079024090700405020000000000001110200405405064090740C02480A0340
1001
ACAD
1000
AcDbSavedByObjectVersion
1070
     0
  0
ACAD_PROXY_OBJECT
  5
19DEC
102
{ACAD_REACTORS
330
19DE5
102
}
330
19DE5
100
AcDbZombieObject
 90
      499
 91
      510
 93
      436
310
42CCD915DA5C99599C985B595059028333333333333E3BF0000000000000FB0107901411070040501600405405064090741402480A0340
1001
ACAD
1000
AcDbSavedByObjectVersion
1070
     0
  0
ACAD_PROXY_OBJECT
  5
19DEA
102
{ACAD_REACTORS
330
19DE5
102
}
330
19DE5
100
AcDbZombieObject
 90
      499
 91
      510
 93
      388
310
4150985CDA58D07406404333333333333E3BF0000000000000FB0107A41107004050150841D405064090741402480A0350
1001
ACAD
1000
AcDbSavedByObjectVersion
1070
     0
  0
ACAD_PROXY_OBJECT
  5
19DF1
102
{ACAD_REACTORS
330
19DE5
102
}
330
19DE5
100
AcDbZombieObject
 90
      499
 91
      510
 93
      428
310
42109C9A59DA1D195B90C409028333333333333E3BF0000000000000FB010790141107004050150841D405064090741402480A029950
1001
ACAD
1000
AcDbSavedByObjectVersion
1070
     0
  0
ACAD_PROXY_OBJECT
  5
19DF5
102
{ACAD_REACTORS
330
19DE5
102
}
330
19DE5
100
AcDbZombieObject
 90
      499
 91
      510
 93
      452
310
42D0DBDB1BDC90DA185B99D95104090240C333333333333E3BF0000000000000FB0108901411070040501508421405064090741402480A0350
1001
ACAD
1000
AcDbSavedByObjectVersion
1070
     0
  0
ACAD_PROXY_OBJECT
  5
19DEE
102
{ACAD_REACTORS
330
19DE5
102
}
330
19DE5
100
AcDbZombieObject
 90
      499
 91
      510
 93
      500
310
4290DBDB98D95C1D1D585B10940D028333333333333E3BF0000000000000FB0107902409070040501000000000000111010841D405064090740C02480A0340
1001
ACAD
1000
AcDbSavedByObjectVersion
1070
     0
  0
ACAD_PROXY_OBJECT
  5
19DF0
102
{ACAD_REACTORS
330
19DE5
102
}
330
19DE5
100
AcDbZombieObject
 90
      499
 91
      510
 93
      412
310
40D11A5B50B409028333333333333E3BF0000000000000FB010790141107004050150841D405064090741402480A02677FFFFFD0
1001
ACAD
1000
AcDbSavedByObjectVersion
1070
     0
  0
ACAD_PROXY_OBJECT
  5
1E02A
102
{ACAD_REACTORS
330
19DE5
102
}
330
19DE5
100
AcDbZombieObject
 90
      499
 91
      510
 93
      452
310
43115919D950DBDB1BDC93D999916409028333333333333E3BF0000000000000FB010790141107004050150841D405064090741402480A0350
1001
ACAD
1000
AcDbSavedByObjectVersion
1070
     0
  0
ACAD_PROXY_OBJECT
  5
19DF4
102
{ACAD_REACTORS
330
19DE5
102
}
330
19DE5
100
AcDbZombieObject
 90
      499
 91
      510
 93
      444
310
42D19858D95C185D1D195C9B90F409028333333333333E3BF0000000000000FB010790141107004050150841D405064090741402480A0350
1001
ACAD
1000
AcDbSavedByObjectVersion
1070
     0
  0
ACAD_PROXY_OBJECT
  5
19DE6
102
{ACAD_REACTORS
330
19DE5
102
}
330
19DE5
100
AcDbZombieObject
 90
      499
 91
      510
 93
      388
310
41119B185D240901404333333333333E3BF0000000000000F9010740A41107004050150841D405064090741402480A1B50
1001
ACAD
1000
AcDbSavedByObjectVersion
1070
     0
  0
ACAD_PROXY_OBJECT
  5
19DE7
102
{ACAD_REACTORS
330
19DE5
102
}
330
19DE5
100
AcDbZombieObject
 90
      499
 91
      510
 93
      476
310
43519B185D15DA5D1A115919D95CD0140901404333333333333E3BF0000000000000F9010740901411070040501600405405064090741402480A1B50
1001
ACAD
1000
AcDbSavedByObjectVersion
1070
     0
  0
ACAD_PROXY_OBJECT
  5
19DE8
102
{ACAD_REACTORS
330
19DE5
102
}
330
19DE5
100
AcDbZombieObject
 90
      499
 91
      510
 93
      412
310
41D1DBDD5C985D5910240902404333333333333E3BF0000000000000F9010740A411070040501641D405064090741402480A1B50
1001
ACAD
1000
AcDbSavedByObjectVersion
1070
     0
  0
ACAD_PROXY_OBJECT
  5
19DE9
102
{ACAD_REACTORS
330
19DE5
102
}
330
19DE5
100
AcDbZombieObject
 90
      499
 91
      510
 93
      500
310
4411DBDD5C985D5915DA5D1A115919D95CD0340902404333333333333E3BF0000000000000F9010740901411070040501600405405064090741402480A1B50
1001
ACAD
1000
AcDbSavedByObjectVersion
1070
     0
  0
ACAD_PROXY_OBJECT
  5
1F381
102
{ACAD_REACTORS
330
19DE5
102
}
330
19DE5
100
AcDbZombieObject
 90
      499
 91
      510
 93
      476
310
41921A5919195B90640502408333333333333E33F0000000000000F901079024090700405020000000000001110200405405064090740C02480A0340
1001
ACAD
1000
AcDbSavedByObjectVersion
1070
     0
  0
ACAD_PROXY_OBJECT
  5
1E028
102
{ACAD_REACTORS
330
19DE5
102
}
330
19DE5
100
AcDbZombieObject
 90
      499
 91
      510
 93
      428
310
42529A5D1D195C93D999914409028333333333333E3BF0000000000000FB010790141107004050150A41D405064090741402480A0350
1001
ACAD
1000
AcDbSavedByObjectVersion
1070
     0
  0
ACAD_PROXY_OBJECT
  5
19DF3
102
{ACAD_REACTORS
330
19DE5
102
}
330
19DE5
100
AcDbZombieObject
 90
      499
 91
      510
 93
      444
310
42D31A5B995C185D1D195C9B90E409028333333333333E3BF0000000000000FB010790141107004050750841D405064090741402483A0350
1001
ACAD
1000
AcDbSavedByObjectVersion
1070
     0
  0
ACAD_PROXY_OBJECT
  5
1F387
102
{ACAD_REACTORS
330
19DE5
102
}
330
19DE5
100
AcDbZombieObject
 90
      499
 91
      510
 93
      484
310
42135BD9195B1A5B99D0A409038333333333333E33F0000000000000F901074090290700405010000000000201990108421405064090741402480A1B40
1001
ACAD
1000
AcDbSavedByObjectVersion
1070
     0
  0
ACAD_PROXY_OBJECT
  5
1E029
102
{ACAD_REACTORS
330
19DE5
102
}
330
19DE5
100
AcDbZombieObject
 90
      499
 91
      510
 93
      444
310
42D3DD995C9A185B99D3D999915409028333333333333E3BF0000000000000FB010790141107004050150941D405064090741402480A0350
1001
ACAD
1000
AcDbSavedByObjectVersion
1070
     0
  0
ACAD_PROXY_OBJECT
  5
19DEF
102
{ACAD_REACTORS
330
19DE5
102
}
330
19DE5
100
AcDbZombieObject
 90
      499
 91
      510
 93
      420
310
425499585B1A5CDD1A58D08409028333333333333E3BF0000000000000FB01079019070040501508421405064090741402480A1B40
1001
ACAD
1000
AcDbSavedByObjectVersion
1070
     0
  0
ACAD_PROXY_OBJECT
  5
1F386
102
{ACAD_REACTORS
330
19DE5
102
}
330
19DE5
100
AcDbZombieObject
 90
      499
 91
      510
 93
      420
310
4194DA1859195911B40902404333333333333E33F0000000000000F9010740A41107004050150800405405064090840C02480A0B40
1001
ACAD
1000
AcDbSavedByObjectVersion
1070
     0
  0
ACAD_PROXY_OBJECT
  5
1F385
102
{ACAD_REACTORS
330
19DE5
102
}
330
19DE5
100
AcDbZombieObject
 90
      499
 91
      510
 93
      516
310
4454DA18591959081DDA5D1A08195919D95CD1A40902404333333333333E33F0000000000000F901074090142907004050250800405405064090740C02480A0B40
1001
ACAD
1000
AcDbSavedByObjectVersion
1070
     0
  0
ACAD_PROXY_OBJECT
  5
1F382
102
{ACAD_REACTORS
330
19DE5
102
}
330
19DE5
100
AcDbZombieObject
 90
      499
 91
      510
 93
      532
310
4394DA1859195CC81BD98811DC985E5174090240C333333333333E33F0000000000000F901079024090741D01000000000000111010841D405064090740C02480A0340
1001
ACAD
1000
AcDbSavedByObjectVersion
1070
     0
  0
ACAD_PROXY_OBJECT
  5
1F383
102
{ACAD_REACTORS
330
19DE5
102
}
330
19DE5
100
AcDbZombieObject
 90
      499
 91
      510
 93
      476
310
41D4DAD95D18DA1E51840502408333333333333E33F0000000000000F901079024090741D01000000000000111010B41D405064090741802480A0340
1001
ACAD
1000
AcDbSavedByObjectVersion
1070
     0
  0
ACAD_PROXY_OBJECT
  5
19DF2
102
{ACAD_REACTORS
330
19DE5
102
}
330
19DE5
100
AcDbZombieObject
 90
      499
 91
      510
 93
      412
310
41D51A1A58DAD95B90D409028333333333333E3BF0000000000000FB010790141107004050150C41D405064090741402480A0350
1001
ACAD
1000
AcDbSavedByObjectVersion
1070
     0
  0
ACAD_PROXY_OBJECT
  5
1F380
102
{ACAD_REACTORS
330
19DE5
102
}
330
19DE5
100
AcDbZombieObject
 90
      499
 91
      510
 93
      420
310
4255DA5C99599C985B595059028333333333333E33F0000000000000F90107901411070040501600405405064090740C02480A0340
1001
ACAD
1000
AcDbSavedByObjectVersion
1070
     0
  0
ACAD_PROXY_OBJECT
  5
1F384
102
{ACAD_REACTORS
330
19DE5
102
}
330
19DE5
100
AcDbZombieObject
 90
      499
 91
      510
 93
      404
310
41560B54985E51940902404000000000000E03F0000000000000F9010740501907004050150841D405064090740C02480A1B40
1001
ACAD
1000
AcDbSavedByObjectVersion
1070
     0
  0
XRECORD
  5
21C5F
102
{ACAD_REACTORS
330
21C5E
102
}
330
21C5E
100
AcDbXrecord
340
2D0
  0
XRECORD
  5
21C60
102
{ACAD_REACTORS
330
21C5E
102
}
330
21C5E
100
AcDbXrecord
340
2CF
  0
DICTIONARYVAR
  5
20A45
102
{ACAD_REACTORS
330
37
102
}
330
37
100
DictionaryVariables
280
     0
  1
1:1
  0
DICTIONARYVAR
  5
1AC19
102
{ACAD_REACTORS
330
37
102
}
330
37
100
DictionaryVariables
280
     0
  1
Standard
  0
DICTIONARYVAR
  5
4F1
102
{ACAD_REACTORS
330
37
102
}
330
37
100
DictionaryVariables
280
     0
  1
Standard
  0
DICTIONARYVAR
  5
38
102
{ACAD_REACTORS
330
37
102
}
330
37
100
DictionaryVariables
280
     0
  1
-1
  0
DICTIONARYVAR
  5
408
102
{ACAD_REACTORS
330
37
102
}
330
37
100
DictionaryVariables
280
     0
  1
2
  0
DICTIONARYVAR
  5
1891
102
{ACAD_REACTORS
330
37
102
}
330
37
100
DictionaryVariables
280
     0
  1
1
  0
DICTIONARYVAR
  5
1AC1C
102
{ACAD_REACTORS
330
37
102
}
330
37
100
DictionaryVariables
280
     0
  1
0
  0
DICTIONARYVAR
  5
1895
102
{ACAD_REACTORS
330
37
102
}
330
37
100
DictionaryVariables
280
     0
  1
8
  0
DICTIONARYVAR
  5
1894
102
{ACAD_REACTORS
330
37
102
}
330
37
100
DictionaryVariables
280
     0
  1
1
  0
DICTIONARYVAR
  5
20A9B
102
{ACAD_REACTORS
330
37
102
}
330
37
100
DictionaryVariables
280
     0
  1
0
  0
DICTIONARYVAR
  5
1892
102
{ACAD_REACTORS
330
37
102
}
330
37
100
DictionaryVariables
280
     0
  1
8
  0
DICTIONARYVAR
  5
1893
102
{ACAD_REACTORS
330
37
102
}
330
37
100
DictionaryVariables
280
     0
  1
2
  0
DICTIONARYVAR
  5
409
102
{ACAD_REACTORS
330
37
102
}
330
37
100
DictionaryVariables
280
     0
  1

  0
DICTIONARYVAR
  5
1AC1B
102
{ACAD_REACTORS
330
37
102
}
330
37
100
DictionaryVariables
280
     0
  1
127
  0
DICTIONARYVAR
  5
1F37F
102
{ACAD_REACTORS
330
37
102
}
330
37
100
DictionaryVariables
280
     0
  1
2
  0
DICTIONARY
  5
21DFC
330
19DD5
100
AcDbDictionary
  3
ACAD_XREC_ROUNDTRIP
360
21DFD
1001
ACAD
1000
TREAT_AS_HARD
1070
     1
  0
DICTIONARY
  5
21DFE
330
19DCD
100
AcDbDictionary
  3
ACAD_XREC_ROUNDTRIP
360
21DFF
1001
ACAD
1000
TREAT_AS_HARD
1070
     1
  0
DICTIONARY
  5
21E00
330
19DDD
100
AcDbDictionary
  3
ACAD_XREC_ROUNDTRIP
360
21E01
1001
ACAD
1000
TREAT_AS_HARD
1070
     1
  0
XRECORD
  5
21DFD
102
{ACAD_REACTORS
330
21DFC
102
}
330
21DFC
100
AcDbXrecord
102
MATERIAL
148
0.0
149
0.0
149
0.0
 93
        0
 94
      127
282
     0
 72
     0
 77
     0
171
     0
175
     0
179
     0
273
     0
  0
XRECORD
  5
21DFF
102
{ACAD_REACTORS
330
21DFE
102
}
330
21DFE
100
AcDbXrecord
102
MATERIAL
148
0.0
149
0.0
149
0.0
 93
        0
 94
      127
282
     0
 72
     0
 77
     0
171
     0
175
     0
179
     0
273
     0
  0
XRECORD
  5
21E01
102
{ACAD_REACTORS
330
21E00
102
}
330
21E00
100
AcDbXrecord
102
MATERIAL
148
0.0
149
0.0
149
0.0
 93
        0
 94
      127
282
     0
 72
     0
 77
     0
171
     0
175
     0
179
     0
273
     0
  0
ENDSEC
  0
EOF
