  0
SECTION
  2
HEADER
  9
$ACADVER
  1
AC1012
  9
$DWGCODEPAGE
  3
ansi_932
  9
$INSBASE
 10
0.0
 20
0.0
 30
0.0
  9
$EXTMIN
 10
-136.7814740514964
 20
-124.5738123703584
 30
0.0
  9
$EXTMAX
 10
100.5853103129809
 20
121.2408528751159
 30
0.0
  9
$LIMMIN
 10
0.0
 20
0.0
  9
$LIMMAX
 10
420.0
 20
297.0
  9
$ORTHOMODE
 70
     0
  9
$REGENMODE
 70
     1
  9
$FILLMODE
 70
     1
  9
$QTEXTMODE
 70
     0
  9
$MIRRTEXT
 70
     0
  9
$DRAGMODE
 70
     2
  9
$LTSCALE
 40
0.5
  9
$OSMODE
 70
  2351
  9
$ATTMODE
 70
     1
  9
$TEXTSIZE
 40
4.0
  9
$TRACEWID
 40
1.0
  9
$TEXTSTYLE
  7
STANDARD
  9
$CLAYER
  8
1TEXT
  9
$CELTYPE
  6
BYLAYER
  9
$CECOLOR
 62
   256
  9
$CELTSCALE
 40
1.0
  9
$DELOBJ
 70
     1
  9
$DISPSILH
 70
     0
  9
$DIMSCALE
 40
1.0
  9
$DIMASZ
 40
2.0
  9
$DIMEXO
 40
0.0
  9
$DIMDLI
 40
7.0
  9
$DIMRND
 40
0.0
  9
$DIMDLE
 40
0.0
  9
$DIMEXE
 40
1.0
  9
$DIMTP
 40
0.0
  9
$DIMTM
 40
0.0
  9
$DIMTXT
 40
3.5
  9
$DIMCEN
 40
0.0
  9
$DIMTSZ
 40
0.0
  9
$DIMTOL
 70
     0
  9
$DIMLIM
 70
     0
  9
$DIMTIH
 70
     0
  9
$DIMTOH
 70
     0
  9
$DIMSE1
 70
     0
  9
$DIMSE2
 70
     0
  9
$DIMTAD
 70
     1
  9
$DIMZIN
 70
     8
  9
$DIMBLK
  1

  9
$DIMASO
 70
     1
  9
$DIMSHO
 70
     1
  9
$DIMPOST
  1
 
  9
$DIMAPOST
  1

  9
$DIMALT
 70
     0
  9
$DIMALTD
 70
     2
  9
$DIMALTF
 40
25.4
  9
$DIMLFAC
 40
1.0
  9
$DIMTOFL
 70
     1
  9
$DIMTVP
 40
0.0
  9
$DIMTIX
 70
     0
  9
$DIMSOXD
 70
     0
  9
$DIMSAH
 70
     1
  9
$DIMBLK1
  1
OPEN30
  9
$DIMBLK2
  1
OPEN30
  9
$DIMSTYLE
  2
NEWX10
  9
$DIMCLRD
 70
   256
  9
$DIMCLRE
 70
   256
  9
$DIMCLRT
 70
   201
  9
$DIMTFAC
 40
0.7
  9
$DIMGAP
 40
0.7
  9
$DIMJUST
 70
     0
  9
$DIMSD1
 70
     0
  9
$DIMSD2
 70
     0
  9
$DIMTOLJ
 70
     1
  9
$DIMTZIN
 70
     8
  9
$DIMALTZ
 70
     0
  9
$DIMALTTZ
 70
     0
  9
$DIMFIT
 70
     3
  9
$DIMUPT
 70
     0
  9
$DIMUNIT
 70
     2
  9
$DIMDEC
 70
     2
  9
$DIMTDEC
 70
     4
  9
$DIMALTU
 70
     2
  9
$DIMALTTD
 70
     2
  9
$DIMTXSTY
  7
STANDARD
  9
$DIMAUNIT
 70
     0
  9
$LUNITS
 70
     2
  9
$LUPREC
 70
     4
  9
$SKETCHINC
 40
1.0
  9
$FILLETRAD
 40
0.0
  9
$AUNITS
 70
     0
  9
$AUPREC
 70
     2
  9
$MENU
  1
acad
  9
$ELEVATION
 40
0.0
  9
$PELEVATION
 40
0.0
  9
$THICKNESS
 40
0.0
  9
$LIMCHECK
 70
     0
  9
$CHAMFERA
 40
2.0
  9
$CHAMFERB
 40
2.0
  9
$CHAMFERC
 40
20.0
  9
$CHAMFERD
 40
0.0
  9
$SKPOLY
 70
     0
  9
$TDCREATE
 40
2451027.627421285
  9
$TDUPDATE
 40
2458080.774314664
  9
$TDINDWG
 40
12.0039635995
  9
$TDUSRTIMER
 40
12.0039632176
  9
$USRTIMER
 70
     1
  9
$ANGBASE
 50
0.0
  9
$ANGDIR
 70
     0
  9
$PDMODE
 70
     0
  9
$PDSIZE
 40
0.0
  9
$PLINEWID
 40
0.0
  9
$COORDS
 70
     3
  9
$SPLFRAME
 70
     0
  9
$SPLINETYPE
 70
     6
  9
$SPLINESEGS
 70
     8
  9
$ATTDIA
 70
     0
  9
$ATTREQ
 70
     1
  9
$HANDLING
 70
     1
  9
$HANDSEED
  5
A3DF6
  9
$SURFTAB1
 70
     6
  9
$SURFTAB2
 70
     6
  9
$SURFTYPE
 70
     6
  9
$SURFU
 70
     6
  9
$SURFV
 70
     6
  9
$UCSNAME
  2

  9
$UCSORG
 10
0.0
 20
0.0
 30
0.0
  9
$UCSXDIR
 10
1.0
 20
0.0
 30
0.0
  9
$UCSYDIR
 10
0.0
 20
1.0
 30
0.0
  9
$PUCSNAME
  2

  9
$PUCSORG
 10
0.0
 20
0.0
 30
0.0
  9
$PUCSXDIR
 10
1.0
 20
0.0
 30
0.0
  9
$PUCSYDIR
 10
0.0
 20
1.0
 30
0.0
  9
$USERI1
 70
     0
  9
$USERI2
 70
     0
  9
$USERI3
 70
     0
  9
$USERI4
 70
     0
  9
$USERI5
 70
     0
  9
$USERR1
 40
0.0
  9
$USERR2
 40
0.0
  9
$USERR3
 40
0.0
  9
$USERR4
 40
0.0
  9
$USERR5
 40
4.5
  9
$WORLDVIEW
 70
     1
  9
$SHADEDGE
 70
     1
  9
$SHADEDIF
 70
    70
  9
$TILEMODE
 70
     1
  9
$MAXACTVP
 70
    48
  9
$PINSBASE
 10
0.0
 20
0.0
 30
0.0
  9
$PLIMCHECK
 70
     0
  9
$PEXTMIN
 10
1.000000000000000E+20
 20
1.000000000000000E+20
 30
1.000000000000000E+20
  9
$PEXTMAX
 10
-1.000000000000000E+20
 20
-1.000000000000000E+20
 30
-1.000000000000000E+20
  9
$PLIMMIN
 10
-20.0
 20
-7.5
  9
$PLIMMAX
 10
277.0
 20
202.5
  9
$UNITMODE
 70
     0
  9
$VISRETAIN
 70
     1
  9
$PLINEGEN
 70
     0
  9
$PSLTSCALE
 70
     1
  9
$TREEDEPTH
 70
  3020
  9
$PICKSTYLE
 70
     1
  9
$CMLSTYLE
  2
STANDARD
  9
$CMLJUST
 70
     0
  9
$CMLSCALE
 40
20.0
  9
$SAVEIMAGES
 70
     1
  0
ENDSEC
  0
SECTION
  2
CLASSES
  0
CLASS
  1
IDBUFFER
  2
AcDbIdBuffer
  3
ObjectDBX Classes
 90
    32768
280
     0
281
     0
  0
CLASS
  1
DICTIONARYVAR
  2
AcDbDictionaryVar
  3
ObjectDBX Classes
 90
        0
280
     0
281
     0
  0
CLASS
  1
ACDBDICTIONARYWDFLT
  2
AcDbDictionaryWithDefault
  3
ObjectDBX Classes
 90
    32768
280
     0
281
     0
  0
CLASS
  1
TABLESTYLE
  2
AcDbTableStyle
  3
ObjectDBX Classes
 90
     4095
280
     0
281
     0
  0
CLASS
  1
ACDBPLACEHOLDER
  2
AcDbPlaceHolder
  3
ObjectDBX Classes
 90
        0
280
     0
281
     0
  0
CLASS
  1
LAYOUT
  2
AcDbLayout
  3
ObjectDBX Classes
 90
        0
280
     0
281
     0
  0
CLASS
  1
SORTENTSTABLE
  2
AcDbSortentsTable
  3
ObjectDBX Classes
 90
    32768
280
     0
281
     0
  0
CLASS
  1
DIMASSOC
  2
AcDbDimAssoc
  3
"AcDbDimAssoc|Product Desc:     AcDim ARX App For Dimension|Company:          Autodesk, Inc.|WEB Address:      www.autodesk.com"
 90
        0
280
     0
281
     0
  0
CLASS
  1
MATERIAL
  2
AcDbMaterial
  3
ObjectDBX Classes
 90
     1153
280
     0
281
     0
  0
CLASS
  1
VISUALSTYLE
  2
AcDbVisualStyle
  3
ObjectDBX Classes
 90
     4095
280
     0
281
     0
  0
CLASS
  1
SCALE
  2
AcDbScale
  3
ObjectDBX Classes
 90
     1153
280
     0
281
     0
  0
CLASS
  1
MLEADERSTYLE
  2
AcDbMLeaderStyle
  3
ACDB_MLEADERSTYLE_CLASS
 90
     4095
280
     0
281
     0
  0
CLASS
  1
CELLSTYLEMAP
  2
AcDbCellStyleMap
  3
ObjectDBX Classes
 90
     1152
280
     0
281
     0
  0
CLASS
  1
ACAD_EVALUATION_GRAPH
  2
AcDbEvalGraph
  3
ObjectDBX Classes
 90
     1153
280
     0
281
     0
  0
CLASS
  1
BLOCKLINEARPARAMETER
  2
AcDbBlockLinearParameter
  3
ObjectDBX Classes
 90
     1153
280
     0
281
     0
  0
CLASS
  1
BLOCKLINEARGRIP
  2
AcDbBlockLinearGrip
  3
ObjectDBX Classes
 90
     1153
280
     0
281
     0
  0
CLASS
  1
BLOCKGRIPLOCATIONCOMPONENT
  2
AcDbBlockGripExpr
  3
ObjectDBX Classes
 90
     1153
280
     0
281
     0
  0
CLASS
  1
BLOCKSTRETCHACTION
  2
AcDbBlockStretchAction
  3
ObjectDBX Classes
 90
     1153
280
     0
281
     0
  0
CLASS
  1
ACDB_DYNAMICBLOCKPURGEPREVENTER_VERSION
  2
AcDbDynamicBlockPurgePreventer
  3
ObjectDBX Classes
 90
     1153
280
     0
281
     0
  0
CLASS
  1
ACDB_BLOCKREPRESENTATION_DATA
  2
AcDbBlockRepresentationData
  3
ObjectDBX Classes
 90
     1153
280
     0
281
     0
  0
CLASS
  1
ACAECUSTOBJ
  2
AcAeEditorObj
  3
AcAeEditorObj
 90
   -31744
280
     1
281
     0
  0
CLASS
  1
LINEARPARAMETERENTITY
  2
AcDbBlockLinearParameterEntity
  3
ObjectDBX Classes
 90
   -31743
280
     1
281
     1
  0
CLASS
  1
ACAEEEMGROBJ
  2
AcAeEEMgrObj
  3
AcAeEEMgrObj
 90
   -31744
280
     1
281
     0
  0
CLASS
  1
LINEARGRIPENTITY
  2
AcDbBlockLinearGripEntity
  3
ObjectDBX Classes
 90
   -31743
280
     1
281
     1
  0
CLASS
  1
STRETCHACTIONENTITY
  2
AcDbBlockStretchActionEntity
  3
ObjectDBX Classes
 90
   -31743
280
     1
281
     1
  0
CLASS
  1
AEC_REFEDIT_STATUS_TRACKER
  2
AecDbRefEditStatusTracker
  3
AecArchBase60|Product Desc: Autodesk Architectural Desktop 2007 |Company: Autodesk,Inc. |WEB Address: www.autodesk.com
 90
   -32639
280
     1
281
     0
  0
CLASS
  1
NPOCOLLECTION
  2
AcDbImpNonPersistentObjectsCollection
  3
ObjectDBX Classes
 90
   -31615
280
     1
281
     0
  0
CLASS
  1
SOLID_BACKGROUND
  2
AcDbSolidBackground
  3
SCENEOE
 90
     4095
280
     0
281
     0
  0
CLASS
  1
IMAGE
  2
AcDbRasterImage
  3
ISM
 90
    32895
280
     0
281
     1
  0
CLASS
  1
IMAGEDEF_REACTOR
  2
AcDbRasterImageDefReactor
  3
ISM
 90
    32769
280
     0
281
     0
  0
CLASS
  1
IMAGEDEF
  2
AcDbRasterImageDef
  3
ISM
 90
    32768
280
     0
281
     0
  0
CLASS
  1
RASTERVARIABLES
  2
AcDbRasterVariables
  3
ISM
 90
    32768
280
     0
281
     0
  0
CLASS
  1
SUN
  2
AcDbSun
  3
SCENEOE
 90
     1153
280
     0
281
     0
  0
CLASS
  1
FIELD
  2
AcDbField
  3
ObjectDBX Classes
 90
     1152
280
     0
281
     0
  0
CLASS
  1
FIELDLIST
  2
AcDbFieldList
  3
ObjectDBX Classes
 90
     1152
280
     0
281
     0
  0
CLASS
  1

  2
CaLongTransaction
  3

 90
        0
280
     0
281
     0
  0
CLASS
  1
ACDB_BLKREFOBJECTCONTEXTDATA_CLASS
  2
AcDbBlkRefObjectContextData
  3
ObjectDBX Classes
 90
     1153
280
     0
281
     0
  0
CLASS
  1
MULTILEADER
  2
AcDbMLeader
  3
ACDB_MLEADER_CLASS
 90
     1025
280
     0
281
     1
  0
CLASS
  1
ACDB_MLEADEROBJECTCONTEXTDATA_CLASS
  2
AcDbMLeaderObjectContextData
  3
ObjectDBX Classes
 90
     1153
280
     0
281
     0
  0
CLASS
  1
ACDB_ALDIMOBJECTCONTEXTDATA_CLASS
  2
AcDbAlignedDimensionObjectContextData
  3
ObjectDBX Classes
 90
     1153
280
     0
281
     0
  0
CLASS
  1
MENTALRAYRENDERSETTINGS
  2
AcDbMentalRayRenderSettings
  3
SCENEOE
 90
     1024
280
     0
281
     0
  0
CLASS
  1
BLOCKVISIBILITYPARAMETER
  2
AcDbBlockVisibilityParameter
  3
ObjectDBX Classes
 90
     1153
280
     0
281
     0
  0
CLASS
  1
BLOCKVISIBILITYGRIP
  2
AcDbBlockVisibilityGrip
  3
ObjectDBX Classes
 90
     1153
280
     0
281
     0
  0
CLASS
  1
XRECORD
  2
AcDbXrecord
  3
ObjectDBX Classes
 90
    32768
280
     0
281
     0
  0
CLASS
  1
LWPOLYLINE
  2
AcDbPolyline
  3
ObjectDBX Classes
 90
    32768
280
     0
281
     1
  0
CLASS
  1
HATCH
  2
AcDbHatch
  3
ObjectDBX Classes
 90
    32768
280
     0
281
     1
  0
ENDSEC
  0
SECTION
  2
TABLES
  0
TABLE
  2
VPORT
  5
8
330
0
100
AcDbSymbolTable
 70
     1
  0
VPORT
  5
585BF
330
8
100
AcDbSymbolTableRecord
100
AcDbViewportTableRecord
  2
*ACTIVE
 70
     0
 10
0.0
 20
0.0
 11
1.0
 21
1.0
 12
-11079.75862686926
 22
-7488.250128747622
 13
0.0
 23
0.0
 14
10.0
 24
10.0
 15
10.0
 25
10.0
 16
0.0
 26
0.0
 36
1.0
 17
11061.660545
 27
7486.583649
 37
474.311593
 40
263.9273247898777
 41
2.122931442080378
 42
50.0
 43
0.0
 44
0.0
 50
0.0
 51
0.0
 71
    16
 72
  1000
 73
     1
 74
     1
 75
     0
 76
     0
 77
     0
 78
     0
1001
ACAD_NAV_VCDISPLAY
1070
     3
  0
ENDTAB
  0
TABLE
  2
LTYPE
  5
5
330
0
100
AcDbSymbolTable
 70
     3
  0
LTYPE
  5
12
330
5
100
AcDbSymbolTableRecord
100
AcDbLinetypeTableRecord
  2
BYBLOCK
 70
     0
  3

 72
    65
 73
     0
 40
0.0
  0
LTYPE
  5
13
330
5
100
AcDbSymbolTableRecord
100
AcDbLinetypeTableRecord
  2
BYLAYER
 70
     0
  3

 72
    65
 73
     0
 40
0.0
  0
LTYPE
  5
14
330
5
100
AcDbSymbolTableRecord
100
AcDbLinetypeTableRecord
  2
CONTINUOUS
 70
     0
  3
Solid line
 72
    65
 73
     0
 40
0.0
  0
LTYPE
  5
7E6BF
330
5
100
AcDbSymbolTableRecord
100
AcDbLinetypeTableRecord
  2
PHANTOM2
 70
     0
  3
Phantom (0.5x) ___ _ _ ___ _ _ ___ _ _ ___ _ _
 72
    65
 73
     6
 40
31.75
 49
15.875
 74
     0
 49
-3.175
 74
     0
 49
3.175
 74
     0
 49
-3.175
 74
     0
 49
3.175
 74
     0
 49
-3.175
 74
     0
  0
LTYPE
  5
A398A
330
5
100
AcDbSymbolTableRecord
100
AcDbLinetypeTableRecord
  2
CENTER2
 70
     0
  3
Center (.5x) ___ _ ___ _ ___ _ ___ _ ___ _ ___
 72
    65
 73
     4
 40
28.575
 49
19.05
 74
     0
 49
-3.175
 74
     0
 49
3.175
 74
     0
 49
-3.175
 74
     0
  0
ENDTAB
  0
TABLE
  2
LAYER
  5
2
102
{ACAD_XDICTIONARY
360
14879
102
}
330
0
100
AcDbSymbolTable
 70
     7
  0
LAYER
  5
E
102
{ACAD_XDICTIONARY
360
16FBC
102
}
330
2
100
AcDbSymbolTableRecord
100
AcDbLayerTableRecord
  2
0
 70
     0
 62
     7
  6
CONTINUOUS
  0
LAYER
  5
7CF1A
330
2
100
AcDbSymbolTableRecord
100
AcDbLayerTableRecord
  2
1CENTER
 70
     0
 62
     7
  6
CENTER2
  0
LAYER
  5
7CF1D
330
2
100
AcDbSymbolTableRecord
100
AcDbLayerTableRecord
  2
1DIM
 70
     0
 62
     7
  6
CONTINUOUS
  0
LAYER
  5
7CF54
330
2
100
AcDbSymbolTableRecord
100
AcDbLayerTableRecord
  2
1TEXT
 70
     0
 62
     7
  6
CONTINUOUS
  0
LAYER
  5
7CF56
330
2
100
AcDbSymbolTableRecord
100
AcDbLayerTableRecord
  2
1HATCH
 70
     0
 62
     7
  6
CONTINUOUS
  0
LAYER
  5
7E6CA
330
2
100
AcDbSymbolTableRecord
100
AcDbLayerTableRecord
  2
1PHANTOM
 70
     0
 62
     7
  6
PHANTOM2
  0
LAYER
  5
A3AAD
330
2
100
AcDbSymbolTableRecord
100
AcDbLayerTableRecord
  2
01
 70
     0
 62
     1
  6
CONTINUOUS
  0
ENDTAB
  0
TABLE
  2
STYLE
  5
3
330
0
100
AcDbSymbolTable
 70
     1
  0
STYLE
  5
F
330
3
100
AcDbSymbolTableRecord
100
AcDbTextStyleTableRecord
  2
STANDARD
 70
     0
 40
0.0
 41
1.0
 50
0.0
 71
     0
 42
4.0
  3
txt.shx
  4
extfont.shx
  0
ENDTAB
  0
TABLE
  2
VIEW
  5
6
330
0
100
AcDbSymbolTable
 70
     0
  0
ENDTAB
  0
TABLE
  2
UCS
  5
7
330
0
100
AcDbSymbolTable
 70
     5
  0
UCS
  5
150E1
330
7
100
AcDbSymbolTableRecord
100
AcDbUCSTableRecord
  2
U
 70
     0
 10
0.0
 20
0.0
 30
0.0
 11
1.0
 21
0.0
 31
0.0
 12
0.0
 22
2.220446049250313E-16
 32
1.0
 79
     0
146
0.0
  0
UCS
  5
150E2
330
7
100
AcDbSymbolTableRecord
100
AcDbUCSTableRecord
  2
L
 70
     0
 10
0.0
 20
0.0
 30
0.0
 11
-2.220446049250313E-16
 21
-1.0
 31
2.220446049250313E-16
 12
0.0
 22
2.220446049250313E-16
 32
1.0
 79
     0
146
0.0
  0
UCS
  5
150E3
330
7
100
AcDbSymbolTableRecord
100
AcDbUCSTableRecord
  2
R
 70
     0
 10
0.0
 20
0.0
 30
0.0
 11
3.445092848397667E-16
 21
1.0
 31
-2.220446049250313E-16
 12
0.0
 22
2.220446049250313E-16
 32
1.0
 79
     0
146
0.0
  0
UCS
  5
150E4
330
7
100
AcDbSymbolTableRecord
100
AcDbUCSTableRecord
  2
ISOME
 70
     0
 10
0.0
 20
0.0
 30
0.0
 11
0.7071450863198265
 21
-0.7070684729403536
 31
-3.830824619466267E-5
 12
0.4082704059428734
 22
0.4082704077401151
 32
0.8164744636514736
 79
     0
146
0.0
  0
UCS
  5
150E5
330
7
100
AcDbSymbolTableRecord
100
AcDbUCSTableRecord
  2
PERSPECTIVE
 70
     0
 10
0.0
 20
0.0
 30
0.0
 11
0.8191477691768964
 21
-0.5735823260466403
 31
-0.0004974931557765462
 12
0.1584844715982971
 22
0.225502028986108
 32
0.961265575782966
 79
     0
146
0.0
  0
ENDTAB
  0
TABLE
  2
APPID
  5
9
330
0
100
AcDbSymbolTable
 70
    32
  0
APPID
  5
10
330
9
100
AcDbSymbolTableRecord
100
AcDbRegAppTableRecord
  2
ACAD
 70
     0
  0
APPID
  5
39
330
9
100
AcDbSymbolTableRecord
100
AcDbRegAppTableRecord
  2
CONTENTTABDATA
 70
     0
  0
APPID
  5
3A
330
9
100
AcDbSymbolTableRecord
100
AcDbRegAppTableRecord
  2
CONTENTCURRENTTAB
 70
     0
  0
APPID
  5
3B
330
9
100
AcDbSymbolTableRecord
100
AcDbRegAppTableRecord
  2
CONTENTBLOCKICON
 70
     0
  0
APPID
  5
3C
330
9
100
AcDbSymbolTableRecord
100
AcDbRegAppTableRecord
  2
CONTENTBLOCKDESCRIPTION
 70
     0
  0
APPID
  5
5FA
330
9
100
AcDbSymbolTableRecord
100
AcDbRegAppTableRecord
  2
DRAWINGVARIABLESXDATA
 70
     0
  0
APPID
  5
6DE
330
9
100
AcDbSymbolTableRecord
100
AcDbRegAppTableRecord
  2
CONTENTLONGBLOCKNAME
 70
     0
  0
APPID
  5
1419A
330
9
100
AcDbSymbolTableRecord
100
AcDbRegAppTableRecord
  2
ACAD_PSEXT
 70
     0
  0
APPID
  5
16FA5
330
9
100
AcDbSymbolTableRecord
100
AcDbRegAppTableRecord
  2
ACAD_MLEADERVER
 70
     0
  0
APPID
  5
1786D
330
9
100
AcDbSymbolTableRecord
100
AcDbRegAppTableRecord
  2
ACAD_DSTYLE_DIMRADIAL_EXTE
 70
     0
  0
APPID
  5
194E7
330
9
100
AcDbSymbolTableRecord
100
AcDbRegAppTableRecord
  2
ACDBBLOCKREPETAG
 70
     0
  0
APPID
  5
194EE
330
9
100
AcDbSymbolTableRecord
100
AcDbRegAppTableRecord
  2
ACDBDYNAMICBLOCKTRUENAME
 70
     0
  0
APPID
  5
194EF
330
9
100
AcDbSymbolTableRecord
100
AcDbRegAppTableRecord
  2
ACDBDYNAMICBLOCKGUID
 70
     0
  0
APPID
  5
1955B
330
9
100
AcDbSymbolTableRecord
100
AcDbRegAppTableRecord
  2
ACDBBLOCKREPBTAG
 70
     0
  0
APPID
  5
1A99A
330
9
100
AcDbSymbolTableRecord
100
AcDbRegAppTableRecord
  2
ACADANNOTATIVE
 70
     0
  0
APPID
  5
1C397
330
9
100
AcDbSymbolTableRecord
100
AcDbRegAppTableRecord
  2
ACAUTHENVIRON
 70
     0
  0
APPID
  5
1C3F8
330
9
100
AcDbSymbolTableRecord
100
AcDbRegAppTableRecord
  2
ACADANNOPO
 70
     0
  0
APPID
  5
1E7E9
330
9
100
AcDbSymbolTableRecord
100
AcDbRegAppTableRecord
  2
ACLAYERTOOLS
 70
     0
  0
APPID
  5
25D98
330
9
100
AcDbSymbolTableRecord
100
AcDbRegAppTableRecord
  2
ACAD_EXEMPT_FROM_CAD_STAND
 70
     0
  0
APPID
  5
2992E
330
9
100
AcDbSymbolTableRecord
100
AcDbRegAppTableRecord
  2
ACAECLAYERSTANDARD
 70
     0
  0
APPID
  5
2992F
330
9
100
AcDbSymbolTableRecord
100
AcDbRegAppTableRecord
  2
ACAD_DSTYLE_DIMJOGGED_JOGA
 70
     0
  0
APPID
  5
2CC96
330
9
100
AcDbSymbolTableRecord
100
AcDbRegAppTableRecord
  2
ACAD_DSTYLE_DIM_LINETYPE
 70
     0
  0
APPID
  5
2CC97
330
9
100
AcDbSymbolTableRecord
100
AcDbRegAppTableRecord
  2
ACAD_DSTYLE_DIM_EXT1_LINET
 70
     0
  0
APPID
  5
2CC98
330
9
100
AcDbSymbolTableRecord
100
AcDbRegAppTableRecord
  2
ACAD_DSTYLE_DIM_EXT2_LINET
 70
     0
  0
APPID
  5
476E2
330
9
100
AcDbSymbolTableRecord
100
AcDbRegAppTableRecord
  2
ACAD_DIMASSOC_CALC_DIMLFAC
 70
     0
  0
APPID
  5
476E3
330
9
100
AcDbSymbolTableRecord
100
AcDbRegAppTableRecord
  2
ACAD_DIMASSOC_DIMLFAC
 70
     0
  0
APPID
  5
476E4
330
9
100
AcDbSymbolTableRecord
100
AcDbRegAppTableRecord
  2
ACAD_DIMASSOC_OVERRIDDEN_D
 70
     0
  0
APPID
  5
62D16
330
9
100
AcDbSymbolTableRecord
100
AcDbRegAppTableRecord
  2
ACAD_NAV_VCDISPLAY
 70
     0
  0
APPID
  5
6D82E
330
9
100
AcDbSymbolTableRecord
100
AcDbRegAppTableRecord
  2
ACAD_OBJECT_CHANGE_GUID
 70
     0
  0
APPID
  5
7E452
330
9
100
AcDbSymbolTableRecord
100
AcDbRegAppTableRecord
  2
ACADANNOTATIVEDECOMPOSITIO
 70
     0
  0
APPID
  5
7F000
330
9
100
AcDbSymbolTableRecord
100
AcDbRegAppTableRecord
  2
ACAD_DSTYLE_DIMJAG
 70
     0
  0
APPID
  5
7F001
330
9
100
AcDbSymbolTableRecord
100
AcDbRegAppTableRecord
  2
ACAD_DSTYLE_DIMTALN
 70
     0
  0
ENDTAB
  0
TABLE
  2
DIMSTYLE
  5
A
330
0
100
AcDbSymbolTable
 70
     1
  0
DIMSTYLE
105
49
102
{ACAD_REACTORS
102
}
330
A
100
AcDbSymbolTableRecord
100
AcDbDimStyleTableRecord
  2
NEWX10
 70
     0
  3
 
  4

  5

  6
OPEN30
  7
OPEN30
 40
1.0
 41
2.0
 42
0.0
 43
7.0
 44
1.0
 45
0.0
 46
0.0
 47
0.0
 48
0.0
140
3.5
141
0.0
142
0.0
143
25.4
144
1.0
145
0.0
146
0.7
147
0.7
 71
     0
 72
     0
 73
     0
 74
     0
 75
     0
 76
     0
 77
     1
 78
     8
170
     0
171
     2
172
     1
173
     1
174
     0
175
     0
176
   256
177
   256
178
   201
179
     1
270
     2
271
     2
272
     4
273
     2
274
     2
340
F
275
     0
280
     0
281
     0
282
     0
283
     1
284
     8
285
     0
286
     0
287
     3
288
     0
1001
ACADANNOTATIVE
1000
AnnotativeData
1002
{
1070
     1
1070
     0
1002
}
  0
ENDTAB
  0
TABLE
  2
BLOCK_RECORD
  5
1
330
0
100
AcDbSymbolTable
 70
     8
  0
BLOCK_RECORD
  5
18
102
{ACAD_XDICTIONARY
360
143BD
102
}
330
1
100
AcDbSymbolTableRecord
100
AcDbBlockTableRecord
  2
*MODEL_SPACE
  0
BLOCK_RECORD
  5
7DA16
102
{ACAD_XDICTIONARY
360
A337D
102
}
330
1
100
AcDbSymbolTableRecord
100
AcDbBlockTableRecord
  2
*PAPER_SPACE
  0
BLOCK_RECORD
  5
2EF
330
1
100
AcDbSymbolTableRecord
100
AcDbBlockTableRecord
  2
_OPEN30
  0
BLOCK_RECORD
  5
7CFD4
330
1
100
AcDbSymbolTableRecord
100
AcDbBlockTableRecord
  2
A3WAKUKAWAJUN2017_HYOUDAI_
  0
BLOCK_RECORD
  5
A3C55
330
1
100
AcDbSymbolTableRecord
100
AcDbBlockTableRecord
  2
*X184
  0
BLOCK_RECORD
  5
A3CA3
330
1
100
AcDbSymbolTableRecord
100
AcDbBlockTableRecord
  2
*X185
  0
BLOCK_RECORD
  5
A3CF5
330
1
100
AcDbSymbolTableRecord
100
AcDbBlockTableRecord
  2
*X186
  0
BLOCK_RECORD
  5
A3D46
330
1
100
AcDbSymbolTableRecord
100
AcDbBlockTableRecord
  2
*X187
  0
BLOCK_RECORD
  5
A3D83
330
1
100
AcDbSymbolTableRecord
100
AcDbBlockTableRecord
  2
*X188
  0
BLOCK_RECORD
  5
A3DC3
330
1
100
AcDbSymbolTableRecord
100
AcDbBlockTableRecord
  2
*X189
  0
ENDTAB
  0
ENDSEC
  0
SECTION
  2
BLOCKS
  0
BLOCK
  5
19
330
18
100
AcDbEntity
  8
0
100
AcDbBlockBegin
  2
*MODEL_SPACE
 70
     0
 10
0.0
 20
0.0
 30
0.0
  3
*MODEL_SPACE
  1

  0
ENDBLK
  5
1A
330
18
100
AcDbEntity
  8
0
100
AcDbBlockEnd
  0
BLOCK
  5
7DA18
330
7DA16
100
AcDbEntity
 67
     1
  8
0
100
AcDbBlockBegin
  2
*PAPER_SPACE
 70
     0
 10
0.0
 20
0.0
 30
0.0
  3
*PAPER_SPACE
  1

  0
ENDBLK
  5
7DA19
330
7DA16
100
AcDbEntity
 67
     1
  8
0
100
AcDbBlockEnd
  0
BLOCK
  5
2F0
330
2EF
100
AcDbEntity
  8
0
100
AcDbBlockBegin
  2
_OPEN30
 70
     0
 10
0.0
 20
0.0
 30
0.0
  3
_OPEN30
  1

  0
LINE
  5
2F1
330
2EF
100
AcDbEntity
  8
0
  6
BYBLOCK
 62
     0
100
AcDbLine
 10
-1.0
 20
0.267949
 30
0.0
 11
0.0
 21
0.0
 31
0.0
  0
LINE
  5
2F2
330
2EF
100
AcDbEntity
  8
0
  6
BYBLOCK
 62
     0
100
AcDbLine
 10
0.0
 20
0.0
 30
0.0
 11
-1.0
 21
-0.267949
 31
0.0
  0
LINE
  5
2F3
330
2EF
100
AcDbEntity
  8
0
  6
BYBLOCK
 62
     0
100
AcDbLine
 10
0.0
 20
0.0
 30
0.0
 11
-1.0
 21
0.0
 31
0.0
  0
ENDBLK
  5
2F4
330
2EF
100
AcDbEntity
  8
0
100
AcDbBlockEnd
  0
BLOCK
  5
9481F
330
7CFD4
100
AcDbEntity
  8
0
100
AcDbBlockBegin
  2
A3WAKUKAWAJUN2017_HYOUDAI_
 70
     0
 10
0.0
 20
0.0
 30
0.0
  3
A3WAKUKAWAJUN2017_HYOUDAI_
  1

  0
LINE
  5
940D1
330
7CFD4
100
AcDbEntity
  8
0
100
AcDbLine
 10
13.26299999998673
 20
-0.0001000000000317
 30
0.0
 11
9.236999999990758
 21
8.999899999990987
 31
0.0
1001
ACAD
1000
ASC_BOUNDS
1002
{
1070
    19
1005
94112
1002
}
  0
LINE
  5
940D2
330
7CFD4
100
AcDbEntity
  8
0
100
AcDbLine
 10
5.657999999994331
 20
0.9999999999989768
 30
0.0
 11
9.236999999990758
 21
8.999999999991019
 31
0.0
1001
ACAD
1000
ASC_BOUNDS
1002
{
1070
    19
1005
94112
1002
}
  0
LINE
  5
940D3
330
7CFD4
100
AcDbEntity
  8
0
100
AcDbLine
 10
18.59199999998134
 20
-0.2368999999997641
 30
0.0
 11
16.46099999998353
 21
5.432899999994561
 31
0.0
1001
ACAD
1000
ASC_BOUNDS
1002
{
1070
    19
1005
94113
1002
}
  0
LINE
  5
940D4
330
7CFD4
100
AcDbEntity
  8
0
100
AcDbLine
 10
18.59199999998134
 20
-0.2368999999997641
 30
0.0
 11
22.38199999997767
 21
8.763099999991255
 31
0.0
1001
ACAD
1000
ASC_BOUNDS
1002
{
1070
    19
1005
94113
1002
}
  0
LINE
  5
940D5
330
7CFD4
100
AcDbEntity
  8
0
100
AcDbLine
 10
14.32899999998563
 20
-0.2368999999997641
 30
0.0
 11
16.46099999998353
 21
5.432899999994561
 31
0.0
1001
ACAD
1000
ASC_BOUNDS
1002
{
1070
    19
1005
94113
1002
}
  0
LINE
  5
940D6
330
7CFD4
100
AcDbEntity
  8
0
100
AcDbLine
 10
14.32899999998563
 20
-0.2368999999997641
 30
0.0
 11
10.53899999998941
 21
8.763099999991255
 31
0.0
1001
ACAD
1000
ASC_BOUNDS
1002
{
1070
    19
1005
94113
1002
}
  0
LINE
  5
940D7
330
7CFD4
100
AcDbEntity
  8
0
100
AcDbLine
 10
19.53899999998043
 20
-0.0001000000000317
 30
0.0
 11
23.56599999997638
 21
8.999899999990987
 31
0.0
1001
ACAD
1000
ASC_BOUNDS
1002
{
1070
    19
1005
94114
1002
}
  0
LINE
  5
940D8
330
7CFD4
100
AcDbEntity
  8
0
100
AcDbLine
 10
26.97358892824991
 20
1.383099999991202
 30
0.0
 11
23.56599999997638
 21
8.999899999990987
 31
0.0
1001
ACAD
1000
ASC_BOUNDS
1002
{
1070
    19
1005
94114
1002
}
  0
LINE
  5
940D9
330
7CFD4
100
AcDbEntity
  8
0
100
AcDbLine
 10
5.657999999994331
 20
0.9999999999989768
 30
0.0
 11
3.181999999996833
 21
4.668599999995308
 31
0.0
1001
ACAD
1000
ASC_BOUNDS
1002
{
1070
    19
1005
94112
1002
}
  0
LINE
  5
940DA
330
7CFD4
100
AcDbEntity
  8
0
100
AcDbLine
 10
4.617999999995391
 20
-0.0001000000000317
 30
0.0
 11
1.420999999998571
 21
4.736799999995242
 31
0.0
1001
ACAD
1000
ASC_BOUNDS
1002
{
1070
    19
1005
94112
1002
}
  0
LINE
  5
940DB
330
7CFD4
100
AcDbEntity
  8
0
100
AcDbLine
 10
1.420999999998571
 20
8.763099999991255
 30
0.0
 11
1.420999999998571
 21
0.0
 31
0.0
1001
ACAD
1000
ASC_BOUNDS
1002
{
1070
    19
1005
94117
1002
}
  0
LINE
  5
940DC
330
7CFD4
100
AcDbEntity
  8
0
100
AcDbLine
 10
0.0
 20
8.763099999991255
 30
0.0
 11
0.0
 21
0.0
 31
0.0
1001
ACAD
1000
ASC_BOUNDS
1002
{
1070
    19
1005
94117
1002
}
  0
LINE
  5
940DD
330
7CFD4
100
AcDbEntity
  8
0
100
AcDbLine
 10
6.766999999993232
 20
-0.0001000000000317
 30
0.0
 11
7.826999999992154
 21
2.368399999997621
 31
0.0
1001
ACAD
1000
ASC_BOUNDS
1002
{
1070
    19
1005
94112
1002
}
  0
LINE
  5
940DE
330
7CFD4
100
AcDbEntity
  8
0
100
AcDbLine
 10
0.0
 20
0.0
 30
0.0
 11
1.420999999998571
 21
0.0
 31
0.0
1001
ACAD
1000
ASC_BOUNDS
1002
{
1070
    19
1005
94117
1002
}
  0
LINE
  5
940DF
330
7CFD4
100
AcDbEntity
  8
0
100
AcDbLine
 10
4.617999999995391
 20
0.0
 30
0.0
 11
6.766999999993232
 21
0.0
 31
0.0
1001
ACAD
1000
ASC_BOUNDS
1002
{
1070
    19
1005
94112
1002
}
  0
LINE
  5
940E0
330
7CFD4
100
AcDbEntity
  8
0
100
AcDbLine
 10
11.70599999998831
 20
-0.0001000000000317
 30
0.0
 11
10.64699999998936
 21
2.368399999997621
 31
0.0
1001
ACAD
1000
ASC_BOUNDS
1002
{
1070
    19
1005
94112
1002
}
  0
LINE
  5
940E1
330
7CFD4
100
AcDbEntity
  8
0
100
AcDbLine
 10
7.826999999992154
 20
2.368399999997621
 30
0.0
 11
10.64699999998936
 21
2.368399999997621
 31
0.0
1001
ACAD
1000
ASC_BOUNDS
1002
{
1070
    19
1005
94112
1002
}
  0
LINE
  5
940E2
330
7CFD4
100
AcDbEntity
  8
0
100
AcDbLine
 10
11.70599999998831
 20
0.0
 30
0.0
 11
13.26299999998673
 21
0.0
 31
0.0
1001
ACAD
1000
ASC_BOUNDS
1002
{
1070
    19
1005
94112
1002
}
  0
LINE
  5
940E3
330
7CFD4
100
AcDbEntity
  8
0
100
AcDbLine
 10
22.15599999997789
 20
2.368399999997621
 30
0.0
 11
24.97599999997499
 21
2.368399999997621
 31
0.0
1001
ACAD
1000
ASC_BOUNDS
1002
{
1070
    19
1005
94114
1002
}
  0
LINE
  5
940E4
330
7CFD4
100
AcDbEntity
  8
0
100
AcDbLine
 10
19.53899999998043
 20
0.0
 30
0.0
 11
21.09599999997886
 21
0.0
 31
0.0
1001
ACAD
1000
ASC_BOUNDS
1002
{
1070
    19
1005
94114
1002
}
  0
LINE
  5
940E5
330
7CFD4
100
AcDbEntity
  8
0
100
AcDbLine
 10
21.09599999997886
 20
-0.0001000000000317
 30
0.0
 11
22.15599999997789
 21
2.368399999997621
 31
0.0
1001
ACAD
1000
ASC_BOUNDS
1002
{
1070
    19
1005
94114
1002
}
  0
LINE
  5
940E6
330
7CFD4
100
AcDbEntity
  8
0
100
AcDbLine
 10
26.02015566812236
 20
0.0330999999912365
 30
0.0
 11
24.97599999997499
 21
2.368399999997621
 31
0.0
1001
ACAD
1000
ASC_BOUNDS
1002
{
1070
    19
1005
94114
1002
}
  0
LINE
  5
940E7
330
7CFD4
100
AcDbEntity
  8
0
100
AcDbLine
 10
14.32399999998563
 20
3.315799999996671
 30
0.0
 11
16.46099999998353
 21
8.999899999990987
 31
0.0
1001
ACAD
1000
ASC_BOUNDS
1002
{
1070
    19
1005
94113
1002
}
  0
LINE
  5
940E8
330
7CFD4
100
AcDbEntity
  8
0
100
AcDbLine
 10
6.432999999993513
 20
8.763099999991255
 30
0.0
 11
3.181999999996833
 21
4.668599999995308
 31
0.0
1001
ACAD
1000
ASC_BOUNDS
1002
{
1070
    19
1005
94112
1002
}
  0
LINE
  5
940E9
330
7CFD4
100
AcDbEntity
  8
0
100
AcDbLine
 10
4.617999999995391
 20
8.763099999991255
 30
0.0
 11
1.420999999998571
 21
4.736799999995242
 31
0.0
1001
ACAD
1000
ASC_BOUNDS
1002
{
1070
    19
1005
94112
1002
}
  0
LINE
  5
940EA
330
7CFD4
100
AcDbEntity
  8
0
100
AcDbLine
 10
0.0
 20
8.763099999991255
 30
0.0
 11
1.420999999998571
 21
8.763099999991255
 31
0.0
1001
ACAD
1000
ASC_BOUNDS
1002
{
1070
    19
1005
94117
1002
}
  0
LINE
  5
940EB
330
7CFD4
100
AcDbEntity
  8
0
100
AcDbLine
 10
4.617999999995391
 20
8.763099999991255
 30
0.0
 11
6.432999999993513
 21
8.763099999991255
 31
0.0
1001
ACAD
1000
ASC_BOUNDS
1002
{
1070
    19
1005
94112
1002
}
  0
LINE
  5
940EC
330
7CFD4
100
AcDbEntity
  8
0
100
AcDbLine
 10
14.32399999998563
 20
3.315799999996671
 30
0.0
 11
12.02999999998792
 21
8.763099999991255
 31
0.0
1001
ACAD
1000
ASC_BOUNDS
1002
{
1070
    19
1005
94113
1002
}
  0
LINE
  5
940ED
330
7CFD4
100
AcDbEntity
  8
0
100
AcDbLine
 10
10.06399999998996
 20
3.670999999996297
 30
0.0
 11
9.236999999990758
 21
5.5200999999945
 31
0.0
1001
ACAD
1000
ASC_BOUNDS
1002
{
1070
    19
1005
94112
1002
}
  0
LINE
  5
940EE
330
7CFD4
100
AcDbEntity
  8
0
100
AcDbLine
 10
8.409999999991555
 20
3.670999999996297
 30
0.0
 11
9.236999999990758
 21
5.5200999999945
 31
0.0
1001
ACAD
1000
ASC_BOUNDS
1002
{
1070
    19
1005
94112
1002
}
  0
LINE
  5
940EF
330
7CFD4
100
AcDbEntity
  8
0
100
AcDbLine
 10
8.409999999991555
 20
3.670999999996297
 30
0.0
 11
10.06399999998996
 21
3.670999999996297
 31
0.0
1001
ACAD
1000
ASC_BOUNDS
1002
{
1070
    19
1005
94112
1002
}
  0
LINE
  5
940F0
330
7CFD4
100
AcDbEntity
  8
0
100
AcDbLine
 10
10.53899999998941
 20
8.763099999991255
 30
0.0
 11
12.02999999998792
 21
8.763099999991255
 31
0.0
1001
ACAD
1000
ASC_BOUNDS
1002
{
1070
    19
1005
94113
1002
}
  0
LINE
  5
940F1
330
7CFD4
100
AcDbEntity
  8
0
100
AcDbLine
 10
22.7389999999773
 20
3.670999999996297
 30
0.0
 11
23.56599999997638
 21
5.5200999999945
 31
0.0
1001
ACAD
1000
ASC_BOUNDS
1002
{
1070
    19
1005
94114
1002
}
  0
LINE
  5
940F2
330
7CFD4
100
AcDbEntity
  8
0
100
AcDbLine
 10
22.7389999999773
 20
3.670999999996297
 30
0.0
 11
24.39299999997559
 21
3.670999999996297
 31
0.0
1001
ACAD
1000
ASC_BOUNDS
1002
{
1070
    19
1005
94114
1002
}
  0
LINE
  5
940F3
330
7CFD4
100
AcDbEntity
  8
0
100
AcDbLine
 10
18.59799999998143
 20
3.315799999996671
 30
0.0
 11
20.89099999997916
 21
8.763099999991255
 31
0.0
1001
ACAD
1000
ASC_BOUNDS
1002
{
1070
    19
1005
94113
1002
}
  0
LINE
  5
940F4
330
7CFD4
100
AcDbEntity
  8
0
100
AcDbLine
 10
18.59799999998143
 20
3.315799999996671
 30
0.0
 11
16.46099999998353
 21
8.999899999990987
 31
0.0
1001
ACAD
1000
ASC_BOUNDS
1002
{
1070
    19
1005
94113
1002
}
  0
LINE
  5
940F5
330
7CFD4
100
AcDbEntity
  8
0
100
AcDbLine
 10
20.89099999997916
 20
8.763099999991255
 30
0.0
 11
22.38199999997767
 21
8.763099999991255
 31
0.0
1001
ACAD
1000
ASC_BOUNDS
1002
{
1070
    19
1005
94113
1002
}
  0
LINE
  5
940F6
330
7CFD4
100
AcDbEntity
  8
0
100
AcDbLine
 10
24.39299999997559
 20
3.670999999996297
 30
0.0
 11
23.56599999997638
 21
5.5200999999945
 31
0.0
1001
ACAD
1000
ASC_BOUNDS
1002
{
1070
    19
1005
94114
1002
}
  0
LINE
  5
940F7
330
7CFD4
100
AcDbEntity
  8
0
100
AcDbLine
 10
44.99999999995498
 20
-0.2368999999997641
 30
0.0
 11
40.02599999995994
 21
5.341799999994635
 31
0.0
1001
ACAD
1000
ASC_BOUNDS
1002
{
1070
    19
1005
94116
1002
}
  0
LINE
  5
940F8
330
7CFD4
100
AcDbEntity
  8
0
100
AcDbLine
 10
40.02599999995994
 20
5.341799999994635
 30
0.0
 11
40.02599999995994
 21
0.0
 31
0.0
1001
ACAD
1000
ASC_BOUNDS
1002
{
1070
    19
1005
94116
1002
}
  0
LINE
  5
940F9
330
7CFD4
100
AcDbEntity
  8
0
100
AcDbLine
 10
38.60499999996136
 20
8.999999999991019
 30
0.0
 11
38.60499999996136
 21
0.0
 31
0.0
1001
ACAD
1000
ASC_BOUNDS
1002
{
1070
    19
1005
94116
1002
}
  0
LINE
  5
940FA
330
7CFD4
100
AcDbEntity
  8
0
100
AcDbLine
 10
44.99999999995498
 20
8.763099999991255
 30
0.0
 11
44.99999999995498
 21
-0.2368999999997641
 31
0.0
1001
ACAD
1000
ASC_BOUNDS
1002
{
1070
    19
1005
94116
1002
}
  0
LINE
  5
940FB
330
7CFD4
100
AcDbEntity
  8
0
100
AcDbLine
 10
38.60499999996136
 20
0.0
 30
0.0
 11
40.02599999995994
 21
0.0
 31
0.0
1001
ACAD
1000
ASC_BOUNDS
1002
{
1070
    19
1005
94116
1002
}
  0
LINE
  5
940FC
330
7CFD4
100
AcDbEntity
  8
0
100
AcDbLine
 10
43.57899999995641
 20
3.421199999996588
 30
0.0
 11
38.60499999996136
 21
8.999899999990987
 31
0.0
1001
ACAD
1000
ASC_BOUNDS
1002
{
1070
    19
1005
94116
1002
}
  0
LINE
  5
940FD
330
7CFD4
100
AcDbEntity
  8
0
100
AcDbLine
 10
43.57899999995641
 20
8.763099999991255
 30
0.0
 11
43.57899999995641
 21
3.421199999996588
 31
0.0
1001
ACAD
1000
ASC_BOUNDS
1002
{
1070
    19
1005
94116
1002
}
  0
LINE
  5
940FE
330
7CFD4
100
AcDbEntity
  8
0
100
AcDbLine
 10
43.57899999995641
 20
8.763099999991255
 30
0.0
 11
44.99999999995498
 21
8.763099999991255
 31
0.0
1001
ACAD
1000
ASC_BOUNDS
1002
{
1070
    19
1005
94116
1002
}
  0
LINE
  5
940FF
330
7CFD4
100
AcDbEntity
  8
0
100
AcDbLine
 10
37.67199999996831
 20
8.763099999991255
 30
0.0
 11
36.23199999996837
 21
8.763099999991255
 31
0.0
  0
LINE
  5
94100
330
7CFD4
100
AcDbEntity
  8
0
100
AcDbLine
 10
31.64199999996833
 20
8.763099999991255
 30
0.0
 11
31.64199999996833
 21
2.481619422925121
 31
0.0
  0
LINE
  5
94101
330
7CFD4
100
AcDbEntity
  8
0
100
AcDbLine
 10
37.67199999996831
 20
8.763099999991255
 30
0.0
 11
37.67199999996831
 21
2.481619422925121
 31
0.0
  0
LINE
  5
94102
330
7CFD4
100
AcDbEntity
  8
0
100
AcDbLine
 10
36.23199999996837
 20
8.763099999991255
 30
0.0
 11
36.23199999996837
 21
2.481619422925064
 31
0.0
  0
LINE
  5
94103
330
7CFD4
100
AcDbEntity
  8
0
100
AcDbLine
 10
33.08199999996839
 20
8.763099999991255
 30
0.0
 11
33.08199999996839
 21
2.481619422925121
 31
0.0
  0
ARC
  5
94104
330
7CFD4
100
AcDbEntity
  8
0
100
AcDbCircle
 10
34.65699999996832
 20
3.183099999991214
 30
0.0
 40
3.420000000000007
100
AcDbArc
 50
240.0000000000255
 51
299.9999999999766
  0
ARC
  5
94105
330
7CFD4
100
AcDbEntity
  8
0
100
AcDbCircle
 10
34.65699999996832
 20
3.183099999991214
 30
0.0
 40
1.97999999999999
100
AcDbArc
 50
240.000000000026
 51
299.9999999999703
  0
LINE
  5
94106
330
7CFD4
100
AcDbEntity
  8
0
100
AcDbLine
 10
33.08199999996828
 20
8.763099999991255
 30
0.0
 11
31.64199999996833
 21
8.763099999991255
 31
0.0
  0
ARC
  5
94107
330
7CFD4
100
AcDbEntity
  8
0
100
AcDbCircle
 10
35.06199999996829
 20
2.481619422925064
 30
0.0
 40
1.17
100
AcDbArc
 50
299.9999999999699
 51
0.0
  0
ARC
  5
94108
330
7CFD4
100
AcDbEntity
  8
0
100
AcDbCircle
 10
34.25199999996835
 20
2.481619422925121
 30
0.0
 40
1.17
100
AcDbArc
 50
180.0
 51
240.0000000000238
  0
ARC
  5
94109
330
7CFD4
100
AcDbEntity
  8
0
100
AcDbCircle
 10
35.06199999996841
 20
2.481619422925121
 30
0.0
 40
2.61
100
AcDbArc
 50
299.9999999999756
 51
0.0
  0
ARC
  5
9410A
330
7CFD4
100
AcDbEntity
  8
0
100
AcDbCircle
 10
34.25199999996835
 20
2.481619422925121
 30
0.0
 40
2.61
100
AcDbArc
 50
180.0
 51
240.0000000000244
  0
LINE
  5
9410B
330
7CFD4
100
AcDbEntity
  8
0
100
AcDbLine
 10
29.30199999996933
 20
8.763099999991255
 30
0.0
 11
30.74199999996927
 21
8.763099999991255
 31
0.0
1001
ACAD
1000
ASC_BOUNDS
1002
{
1070
    19
1005
94114
1002
}
  0
LINE
  5
9410C
330
7CFD4
100
AcDbEntity
  8
0
100
AcDbLine
 10
30.74199999996927
 20
8.763099999991255
 30
0.0
 11
30.74199999996927
 21
2.373099999991211
 31
0.0
1001
ACAD
1000
ASC_BOUNDS
1002
{
1070
    19
1005
94114
1002
}
  0
LINE
  5
9410D
330
7CFD4
100
AcDbEntity
  8
0
100
AcDbLine
 10
26.02015566812236
 20
0.0330999999912365
 30
0.0
 11
28.40199999996923
 21
0.0330999999912365
 31
0.0
1001
ACAD
1000
ASC_BOUNDS
1002
{
1070
    19
1005
94114
1002
}
  0
LINE
  5
9410E
330
7CFD4
100
AcDbEntity
  8
0
100
AcDbLine
 10
29.30199999996933
 20
8.763099999991255
 30
0.0
 11
29.30199999996933
 21
2.283099999991236
 31
0.0
1001
ACAD
1000
ASC_BOUNDS
1002
{
1070
    19
1005
94114
1002
}
  0
LINE
  5
9410F
330
7CFD4
100
AcDbEntity
  8
0
100
AcDbLine
 10
26.97358892824991
 20
1.383099999991202
 30
0.0
 11
28.40199999996923
 21
1.383099999991202
 31
0.0
1001
ACAD
1000
ASC_BOUNDS
1002
{
1070
    19
1005
94114
1002
}
  0
ARC
  5
94110
330
7CFD4
100
AcDbEntity
  8
0
100
AcDbCircle
 10
28.40199999996923
 20
2.283099999991236
 30
0.0
 40
0.9
100
AcDbArc
 50
270.0
 51
0.0
1001
ACAD
1000
ASC_BOUNDS
1002
{
1070
    19
1005
94114
1002
}
  0
ARC
  5
94111
330
7CFD4
100
AcDbEntity
  8
0
100
AcDbCircle
 10
28.40199999996923
 20
2.373099999991211
 30
0.0
 40
2.34
100
AcDbArc
 50
270.0
 51
0.0
1001
ACAD
1000
ASC_BOUNDS
1002
{
1070
    19
1005
94114
1002
}
  0
INSERT
  5
94112
330
7CFD4
100
AcDbEntity
  8
0
100
AcDbBlockReference
  2
*X184
 10
0.0
 20
0.0
 30
0.0
1001
ACAD
1000
HATCH
1002
{
1070
    19
1000
ANSI37
1040
0.15
1040
0.0
1000
ASC_BOUNDS
1070
     2
1070
     2
1070
    12
1005
940D1
1005
940D2
1005
940D9
1005
940E8
1005
940EB
1005
940E9
1005
940DA
1005
940DF
1005
940DD
1005
940E1
1005
940E0
1005
940E2
1070
     2
1070
     3
1005
940ED
1005
940EF
1005
940EE
1000
ASC_SEEDPOINT
1011
3.614004224891801
1021
2.996669441146025
1031
0.0
1000
R14_HATCH_DATA
1000
94112
1011
1.0
1021
0.0
1031
0.0
1011
0.0
1021
1.0
1031
0.0
1011
0.0
1021
0.0
1031
1.0
1040
0.0
1010
0.0
1020
0.0
1030
1.0
1000
ANSI37
1070
     0
1070
     1
1071
        2
1071
        7
1070
     0
1070
     1
1071
       17
1040
13.26299999998673
1040
-0.0001000000000317
1040
9.236999999990758
1040
8.999899999990987
1040
9.236999999990758
1040
8.999999999991019
1040
5.657999999994331
1040
0.9999999999989768
1040
3.181999999996833
1040
4.668599999995308
1040
6.432999999993513
1040
8.763099999991255
1040
4.617999999995391
1040
8.763099999991255
1040
1.420999999998571
1040
4.736799999995242
1040
4.617999999995391
1040
-0.0001000000000317
1040
4.617999999995391
1040
0.0
1040
6.766999999993232
1040
0.0
1040
6.766999999993232
1040
-0.0001000000000317
1040
7.826999999992154
1040
2.368399999997621
1040
10.64699999998936
1040
2.368399999997621
1040
11.70599999998831
1040
-0.0001000000000317
1040
11.70599999998831
1040
0.0
1040
13.26299999998673
1040
0.0
1071
       12
1005
940D1
1005
940D2
1005
940D9
1005
940E8
1005
940EB
1005
940E9
1005
940DA
1005
940DF
1005
940DD
1005
940E1
1005
940E0
1005
940E2
1071
       22
1070
     0
1070
     1
1071
        3
1040
9.236999999990758
1040
5.5200999999945
1040
10.06399999998996
1040
3.670999999996297
1040
8.409999999991555
1040
3.670999999996297
1071
        3
1005
940ED
1005
940EF
1005
940EE
1070
     0
1070
     1
1040
0.0
1040
0.15
1070
     0
1070
     2
1040
0.7853981633974483
1040
49.29960901727088
1040
-10.17736998311392
1040
-0.3367596045400932
1040
0.3367596045400932
1070
     0
1040
2.356194490192345
1040
49.29960901727088
1040
-10.17736998311392
1040
-0.3367596045400932
1040
-0.3367596045400932
1070
     0
1040
0.0110235143455945
1071
        2
1040
3.614004224891801
1040
2.996669441146025
1040
0.0
1040
3.614004224891801
1040
2.996669441146025
1040
0.0
1002
}
  0
INSERT
  5
94113
330
7CFD4
100
AcDbEntity
  8
0
100
AcDbBlockReference
  2
*X185
 10
0.0
 20
0.0
 30
0.0
1001
ACAD
1000
HATCH
1002
{
1070
    19
1000
ANSI37
1040
0.15
1040
0.0
1000
ASC_BOUNDS
1070
     1
1070
     2
1070
    10
1005
940D3
1005
940D4
1005
940F5
1005
940F3
1005
940F4
1005
940E7
1005
940EC
1005
940F0
1005
940D6
1005
940D5
1000
ASC_SEEDPOINT
1011
14.73245321214324
1021
2.798246178283421
1031
0.0
1000
R14_HATCH_DATA
1000
94113
1011
1.0
1021
0.0
1031
0.0
1011
0.0
1021
1.0
1031
0.0
1011
0.0
1021
0.0
1031
1.0
1040
0.0
1010
0.0
1020
0.0
1030
1.0
1000
ANSI37
1070
     0
1070
     1
1071
        1
1071
        7
1070
     0
1070
     1
1071
       10
1040
16.46099999998353
1040
5.432899999994561
1040
18.59199999998134
1040
-0.2368999999997641
1040
22.38199999997767
1040
8.763099999991255
1040
20.89099999997916
1040
8.763099999991255
1040
18.59799999998143
1040
3.315799999996671
1040
16.46099999998353
1040
8.999899999990987
1040
14.32399999998563
1040
3.315799999996671
1040
12.02999999998792
1040
8.763099999991255
1040
10.53899999998941
1040
8.763099999991255
1040
14.32899999998563
1040
-0.2368999999997641
1071
       10
1005
940D3
1005
940D4
1005
940F5
1005
940F3
1005
940F4
1005
940E7
1005
940EC
1005
940F0
1005
940D6
1005
940D5
1070
     0
1070
     1
1040
0.0
1040
0.15
1070
     0
1070
     2
1040
0.7853981633974483
1040
49.29960901727088
1040
-10.17736998311392
1040
-0.3367596045400932
1040
0.3367596045400932
1070
     0
1040
2.356194490192345
1040
49.29960901727088
1040
-10.17736998311392
1040
-0.3367596045400932
1040
-0.3367596045400932
1070
     0
1040
0.0110235143455945
1071
        1
1040
14.73245321214324
1040
2.798246178283421
1040
0.0
1002
}
  0
INSERT
  5
94114
330
7CFD4
100
AcDbEntity
  8
0
100
AcDbBlockReference
  2
*X186
 10
0.0
 20
0.0
 30
0.0
1001
ACAD
1000
HATCH
1002
{
1070
    19
1000
ANSI37
1040
0.15
1040
0.0
1000
ASC_BOUNDS
1070
     2
1070
     2
1070
    13
1005
940D7
1005
940E4
1005
940E5
1005
940E3
1005
940E6
1005
9410D
1005
94111
1005
9410C
1005
9410B
1005
9410E
1005
94110
1005
9410F
1005
940D8
1070
     2
1070
     3
1005
940F1
1005
940F6
1005
940F2
1000
ASC_SEEDPOINT
1011
21.97929957367762
1021
3.294304244259308
1031
0.0
1000
R14_HATCH_DATA
1000
94114
1011
1.0
1021
0.0
1031
0.0
1011
0.0
1021
1.0
1031
0.0
1011
0.0
1021
0.0
1031
1.0
1040
0.0
1010
0.0
1020
0.0
1030
1.0
1000
ANSI37
1070
     0
1070
     1
1071
        2
1071
        7
1070
     1
1070
     1
1071
       15
1040
23.56599999997638
1040
8.999899999990987
1040
0.0
1040
19.53899999998043
1040
-0.0001000000000317
1040
0.0
1040
19.53899999998043
1040
0.0
1040
0.0
1040
21.09599999997886
1040
0.0
1040
0.0
1040
21.09599999997886
1040
-0.0001000000000317
1040
0.0
1040
22.15599999997789
1040
2.368399999997621
1040
0.0
1040
24.97599999997499
1040
2.368399999997621
1040
0.0
1040
26.02015566812236
1040
0.0330999999912365
1040
0.0
1040
28.40199999996923
1040
0.0330999999912365
1040
0.414213562373095
1040
30.74199999996923
1040
2.373099999991211
1040
0.0
1040
30.74199999996927
1040
8.763099999991255
1040
0.0
1040
29.30199999996933
1040
8.763099999991255
1040
0.0
1040
29.30199999996933
1040
2.283099999991236
1040
-0.414213562373095
1040
28.40199999996923
1040
1.383099999991237
1040
0.0
1040
26.97358892824991
1040
1.383099999991202
1040
0.0
1071
       13
1005
940D7
1005
940E4
1005
940E5
1005
940E3
1005
940E6
1005
9410D
1005
94111
1005
9410C
1005
9410B
1005
9410E
1005
94110
1005
9410F
1005
940D8
1071
       22
1070
     0
1070
     1
1071
        3
1040
22.7389999999773
1040
3.670999999996297
1040
23.56599999997638
1040
5.5200999999945
1040
24.39299999997559
1040
3.670999999996297
1071
        3
1005
940F1
1005
940F6
1005
940F2
1070
     0
1070
     1
1040
0.0
1040
0.15
1070
     0
1070
     2
1040
0.7853981633974483
1040
49.29960901727088
1040
-10.17736998311392
1040
-0.3367596045400932
1040
0.3367596045400932
1070
     0
1040
2.356194490192345
1040
49.29960901727088
1040
-10.17736998311392
1040
-0.3367596045400932
1040
-0.3367596045400932
1070
     0
1040
0.0110235143455945
1071
        2
1040
21.97929957367762
1040
3.294304244259308
1040
0.0
1040
21.97929957367762
1040
3.294304244259308
1040
0.0
1002
}
  0
INSERT
  5
94115
330
7CFD4
100
AcDbEntity
  8
0
100
AcDbBlockReference
  2
*X187
 10
0.0
 20
0.0
 30
0.0
1001
ACAD
1000
HATCH
1002
{
1070
    19
1000
ANSI37
1040
0.15
1040
0.0
1000
R14_HATCH_DATA
1000
94115
1011
1.0
1021
0.0
1031
0.0
1011
0.0
1021
1.0
1031
0.0
1011
0.0
1021
0.0
1031
1.0
1040
0.0
1010
0.0
1020
0.0
1030
1.0
1000
ANSI37
1070
     0
1070
     1
1071
        1
1071
        7
1070
     1
1070
     1
1071
       12
1040
31.64199999996833
1040
2.481619422925121
1040
0.2679491924310942
1040
32.94699999997067
1040
0.2212931190493919
1040
0.2679491924301353
1040
36.36699999995983
1040
0.2212931190459813
1040
0.2679491924321411
1040
37.67199999996831
1040
2.481619422928361
1040
0.0
1040
37.67199999996831
1040
8.763099999991255
1040
0.0
1040
36.23199999996837
1040
8.763099999991255
1040
0.0
1040
36.23199999996837
1040
2.481619422925064
1040
-0.2679491924310291
1040
35.64699999996708
1040
1.468369700498386
1040
-0.267949192430519
1040
33.66699999997093
1040
1.468369700497703
1040
-0.267949192431809
1040
33.08199999996839
1040
2.481619422926997
1040
0.0
1040
33.08199999996839
1040
8.763099999991255
1040
0.0
1040
31.64199999996833
1040
8.763099999991255
1040
0.0
1071
        0
1070
     0
1070
     1
1040
0.0
1040
0.15
1070
     0
1070
     2
1040
0.7853981633974483
1040
49.29960901727088
1040
-10.17736998311392
1040
-0.3367596045400932
1040
0.3367596045400932
1070
     0
1040
2.356194490192345
1040
49.29960901727088
1040
-10.17736998311392
1040
-0.3367596045400932
1040
-0.3367596045400932
1070
     0
1040
0.0110235143455945
1071
        1
1040
32.30357378967278
1040
3.988785755459219
1040
0.0
1002
}
  0
INSERT
  5
94116
330
7CFD4
100
AcDbEntity
  8
0
100
AcDbBlockReference
  2
*X188
 10
0.0
 20
0.0
 30
0.0
1001
ACAD
1000
HATCH
1002
{
1070
    19
1000
ANSI37
1040
0.15
1040
0.0
1000
ASC_BOUNDS
1070
     1
1070
     2
1070
     8
1005
940F7
1005
940FA
1005
940FE
1005
940FD
1005
940FC
1005
940F9
1005
940FB
1005
940F8
1000
ASC_SEEDPOINT
1011
39.74896370716704
1021
4.484843821435049
1031
0.0
1000
R14_HATCH_DATA
1000
94116
1011
1.0
1021
0.0
1031
0.0
1011
0.0
1021
1.0
1031
0.0
1011
0.0
1021
0.0
1031
1.0
1040
0.0
1010
0.0
1020
0.0
1030
1.0
1000
ANSI37
1070
     0
1070
     1
1071
        1
1071
        7
1070
     0
1070
     1
1071
        9
1040
40.02599999995994
1040
5.341799999994635
1040
44.99999999995498
1040
-0.2368999999997641
1040
44.99999999995498
1040
8.763099999991255
1040
43.57899999995641
1040
8.763099999991255
1040
43.57899999995641
1040
3.421199999996588
1040
38.60499999996136
1040
8.999899999990987
1040
38.60499999996136
1040
8.999999999991019
1040
38.60499999996136
1040
0.0
1040
40.02599999995994
1040
0.0
1071
        8
1005
940F7
1005
940FA
1005
940FE
1005
940FD
1005
940FC
1005
940F9
1005
940FB
1005
940F8
1070
     0
1070
     1
1040
0.0
1040
0.15
1070
     0
1070
     2
1040
0.7853981633974483
1040
49.29960901727088
1040
-10.17736998311392
1040
-0.3367596045400932
1040
0.3367596045400932
1070
     0
1040
2.356194490192345
1040
49.29960901727088
1040
-10.17736998311392
1040
-0.3367596045400932
1040
-0.3367596045400932
1070
     0
1040
0.0110235143455945
1071
        1
1040
39.74896370716704
1040
4.484843821435049
1040
0.0
1002
}
  0
INSERT
  5
94117
330
7CFD4
100
AcDbEntity
  8
0
100
AcDbBlockReference
  2
*X189
 10
0.0
 20
0.0
 30
0.0
1001
ACAD
1000
HATCH
1002
{
1070
    19
1000
ANSI37
1040
0.15
1040
0.0
1000
ASC_BOUNDS
1070
     1
1070
     2
1070
     4
1005
940DB
1005
940EA
1005
940DC
1005
940DE
1000
ASC_SEEDPOINT
1011
1.079051535452663
1021
4.148538732891836
1031
0.0
1000
R14_HATCH_DATA
1000
94117
1011
1.0
1021
0.0
1031
0.0
1011
0.0
1021
1.0
1031
0.0
1011
0.0
1021
0.0
1031
1.0
1040
0.0
1010
0.0
1020
0.0
1030
1.0
1000
ANSI37
1070
     0
1070
     1
1071
        1
1071
        7
1070
     0
1070
     1
1071
        4
1040
1.420999999998571
1040
0.0
1040
1.420999999998571
1040
8.763099999991255
1040
0.0
1040
8.763099999991255
1040
0.0
1040
0.0
1071
        4
1005
940DB
1005
940EA
1005
940DC
1005
940DE
1070
     0
1070
     1
1040
0.0
1040
0.15
1070
     0
1070
     2
1040
0.7853981633974483
1040
49.29960901727088
1040
-10.17736998311392
1040
-0.3367596045400932
1040
0.3367596045400932
1070
     0
1040
2.356194490192345
1040
49.29960901727088
1040
-10.17736998311392
1040
-0.3367596045400932
1040
-0.3367596045400932
1070
     0
1040
0.0053004257112761
1071
        1
1040
1.079051535452663
1040
4.148538732891836
1040
0.0
1002
}
  0
ENDBLK
  5
94820
330
7CFD4
100
AcDbEntity
  8
0
100
AcDbBlockEnd
  0
BLOCK
  5
A3DE3
330
A3C55
100
AcDbEntity
  8
0
100
AcDbBlockBegin
  2
*X184
 70
     1
 10
0.0
 20
0.0
 30
0.0
  3
*X184
  1

  0
LINE
  5
A3C56
330
A3C55
100
AcDbEntity
  8
0
  6
CONTINUOUS
100
AcDbLine
 10
3.418023043697893
 20
7.251849696850613
 30
0.0
 11
4.929273346838536
 21
8.763099999991255
 31
0.0
  0
LINE
  5
A3C57
330
A3C55
100
AcDbEntity
  8
0
  6
CONTINUOUS
100
AcDbLine
 10
1.483656411257782
 20
4.643963855330318
 30
0.0
 11
5.60279255591872
 21
8.763099999991255
 31
0.0
  0
LINE
  5
A3C58
330
A3C55
100
AcDbEntity
  8
0
  6
CONTINUOUS
100
AcDbLine
 10
1.755053947328235
 20
4.241842182320584
 30
0.0
 11
6.276311764998907
 21
8.763099999991255
 31
0.0
  0
LINE
  5
A3C59
330
A3C55
100
AcDbEntity
  8
0
  6
CONTINUOUS
100
AcDbLine
 10
2.026451483398688
 20
3.839720509310849
 30
0.0
 11
4.441040904851878
 21
6.254309930764039
 31
0.0
  0
LINE
  5
A3C5A
330
A3C55
100
AcDbEntity
  8
0
  6
CONTINUOUS
100
AcDbLine
 10
2.297849019469139
 20
3.437598836301114
 30
0.0
 11
3.321765168359338
 21
4.461514985191313
 31
0.0
  0
LINE
  5
A3C5B
330
A3C55
100
AcDbEntity
  8
0
  6
CONTINUOUS
100
AcDbLine
 10
2.569246555539591
 20
3.03547716329138
 30
0.0
 11
3.593163397972743
 21
4.059394005724531
 31
0.0
  0
LINE
  5
A3C5C
330
A3C55
100
AcDbEntity
  8
0
  6
CONTINUOUS
100
AcDbLine
 10
2.840644091610043
 20
2.633355490281646
 30
0.0
 11
3.864561627586149
 21
3.657273026257751
 31
0.0
  0
LINE
  5
A3C5D
330
A3C55
100
AcDbEntity
  8
0
  6
CONTINUOUS
100
AcDbLine
 10
3.112041627680496
 20
2.231233817271911
 30
0.0
 11
4.135959857199554
 21
3.25515204679097
 31
0.0
  0
LINE
  5
A3C5E
330
A3C55
100
AcDbEntity
  8
0
  6
CONTINUOUS
100
AcDbLine
 10
3.383439163750948
 20
1.829112144262177
 30
0.0
 11
4.40735808681296
 21
2.853031067324189
 31
0.0
  0
LINE
  5
A3C5F
330
A3C55
100
AcDbEntity
  8
0
  6
CONTINUOUS
100
AcDbLine
 10
3.654836699821399
 20
1.426990471252442
 30
0.0
 11
4.678756316426365
 21
2.450910087857407
 31
0.0
  0
LINE
  5
A3C60
330
A3C55
100
AcDbEntity
  8
0
  6
CONTINUOUS
100
AcDbLine
 10
3.926234235891853
 20
1.024868798242709
 30
0.0
 11
4.95015454603977
 21
2.048789108390626
 31
0.0
  0
LINE
  5
A3C61
330
A3C55
100
AcDbEntity
  8
0
  6
CONTINUOUS
100
AcDbLine
 10
4.197631771962304
 20
0.6227471252329737
 30
0.0
 11
5.221552775653176
 21
1.646668128923846
 31
0.0
  0
LINE
  5
A3C62
330
A3C55
100
AcDbEntity
  8
0
  6
CONTINUOUS
100
AcDbLine
 10
8.715877546767851
 20
7.835069736359266
 30
0.0
 11
9.435953450375058
 21
8.555145639966472
 31
0.0
  0
LINE
  5
A3C63
330
A3C55
100
AcDbEntity
  8
0
  6
CONTINUOUS
100
AcDbLine
 10
8.170620868422267
 20
6.616293848933497
 30
0.0
 11
9.644120833743461
 21
8.08979381425469
 31
0.0
  0
LINE
  5
A3C64
330
A3C55
100
AcDbEntity
  8
0
  6
CONTINUOUS
100
AcDbLine
 10
7.625364190076684
 20
5.397517961507727
 30
0.0
 11
9.852288217111864
 21
7.624441988542907
 31
0.0
  0
LINE
  5
A3C65
330
A3C55
100
AcDbEntity
  8
0
  6
CONTINUOUS
100
AcDbLine
 10
7.080107511731101
 20
4.178742074081957
 30
0.0
 11
10.06045560048027
 21
7.159090162831124
 31
0.0
  0
LINE
  5
A3C66
330
A3C55
100
AcDbEntity
  8
0
  6
CONTINUOUS
100
AcDbLine
 10
6.534850833385518
 20
2.959966186656187
 30
0.0
 11
10.26862298384867
 21
6.693738337119342
 31
0.0
  0
LINE
  5
A3C67
330
A3C55
100
AcDbEntity
  8
0
  6
CONTINUOUS
100
AcDbLine
 10
4.469029308032756
 20
0.2206254522232385
 30
0.0
 11
5.492951005266582
 21
1.244547149457064
 31
0.0
  0
LINE
  5
A3C68
330
A3C55
100
AcDbEntity
  8
0
  6
CONTINUOUS
100
AcDbLine
 10
5.989594155039935
 20
1.741190299230417
 30
0.0
 11
8.806950407233131
 21
4.558546551423613
 31
0.0
  0
LINE
  5
A3C69
330
A3C55
100
AcDbEntity
  8
0
  6
CONTINUOUS
100
AcDbLine
 10
9.401251593263643
 20
5.152847737454126
 30
0.0
 11
10.47679036721708
 21
6.228386511407559
 31
0.0
  0
LINE
  5
A3C6A
330
A3C55
100
AcDbEntity
  8
0
  6
CONTINUOUS
100
AcDbLine
 10
4.921837203428691
 20
-0.0000858614610131
 30
0.0
 11
8.592923064886001
 21
3.670999999996297
 31
0.0
  0
LINE
  5
A3C6B
330
A3C55
100
AcDbEntity
  8
0
  6
CONTINUOUS
100
AcDbLine
 10
9.609390446785305
 20
4.6874673818956
 30
0.0
 11
10.68495775058548
 21
5.763034685695775
 31
0.0
  0
LINE
  5
A3C6C
330
A3C55
100
AcDbEntity
  8
0
  6
CONTINUOUS
100
AcDbLine
 10
5.595387755019432
 20
-0.0000545189504582
 30
0.0
 11
7.716137258923768
 21
2.120694984953879
 31
0.0
  0
LINE
  5
A3C6D
330
A3C55
100
AcDbEntity
  8
0
  6
CONTINUOUS
100
AcDbLine
 10
6.268938306610172
 20
-0.000023176439905
 30
0.0
 11
7.170485805526503
 21
0.9015243224764267
 31
0.0
  0
LINE
  5
A3C6E
330
A3C55
100
AcDbEntity
  8
0
  6
CONTINUOUS
100
AcDbLine
 10
7.963842273967511
 20
2.368399999997621
 30
0.0
 11
9.266442273966188
 21
3.670999999996297
 31
0.0
  0
LINE
  5
A3C6F
330
A3C55
100
AcDbEntity
  8
0
  6
CONTINUOUS
100
AcDbLine
 10
8.637361483047696
 20
2.368399999997621
 30
0.0
 11
9.939961483046375
 21
3.670999999996297
 31
0.0
  0
LINE
  5
A3C70
330
A3C55
100
AcDbEntity
  8
0
  6
CONTINUOUS
100
AcDbLine
 10
9.817529300306965
 20
4.222087026337075
 30
0.0
 11
10.89312513395388
 21
5.297682859983993
 31
0.0
  0
LINE
  5
A3C71
330
A3C55
100
AcDbEntity
  8
0
  6
CONTINUOUS
100
AcDbLine
 10
10.02566815382863
 20
3.756706670778549
 30
0.0
 11
11.10129251732229
 21
4.832331034272211
 31
0.0
  0
LINE
  5
A3C72
330
A3C55
100
AcDbEntity
  8
0
  6
CONTINUOUS
100
AcDbLine
 10
9.310880692127883
 20
2.368399999997621
 30
0.0
 11
11.30945990069069
 21
4.366979208560428
 31
0.0
  0
LINE
  5
A3C73
330
A3C55
100
AcDbEntity
  8
0
  6
CONTINUOUS
100
AcDbLine
 10
9.98439990120807
 20
2.36839999999762
 30
0.0
 11
11.5176272840591
 21
3.901627382848645
 31
0.0
  0
LINE
  5
A3C74
330
A3C55
100
AcDbEntity
  8
0
  6
CONTINUOUS
100
AcDbLine
 10
10.65037369446246
 20
2.36085458417182
 30
0.0
 11
11.7257946674275
 21
3.436275557136862
 31
0.0
  0
LINE
  5
A3C75
330
A3C55
100
AcDbEntity
  8
0
  6
CONTINUOUS
100
AcDbLine
 10
10.85847197087848
 20
1.895433651507656
 30
0.0
 11
11.9339620507959
 21
2.97092373142508
 31
0.0
  0
LINE
  5
A3C76
330
A3C55
100
AcDbEntity
  8
0
  6
CONTINUOUS
100
AcDbLine
 10
11.0665702472945
 20
1.430012718843491
 30
0.0
 11
12.14212943416431
 21
2.505571905713296
 31
0.0
  0
LINE
  5
A3C77
330
A3C55
100
AcDbEntity
  8
0
  6
CONTINUOUS
100
AcDbLine
 10
11.27466852371052
 20
0.9645917861793256
 30
0.0
 11
12.35029681753271
 21
2.040220080001513
 31
0.0
  0
LINE
  5
A3C78
330
A3C55
100
AcDbEntity
  8
0
  6
CONTINUOUS
100
AcDbLine
 10
11.48276680012654
 20
0.4991708535151611
 30
0.0
 11
12.55846420090111
 21
1.57486825428973
 31
0.0
  0
LINE
  5
A3C79
330
A3C55
100
AcDbEntity
  8
0
  6
CONTINUOUS
100
AcDbLine
 10
11.69086507654257
 20
0.0337499208509957
 30
0.0
 11
12.76663158426952
 21
1.109516428577947
 31
0.0
  0
LINE
  5
A3C7A
330
A3C55
100
AcDbEntity
  8
0
  6
CONTINUOUS
100
AcDbLine
 10
12.33057447873954
 20
-0.0000598860322123
 30
0.0
 11
12.97479896763792
 21
0.6441646028661663
 31
0.0
  0
LINE
  5
A3C7B
330
A3C55
100
AcDbEntity
  8
0
  6
CONTINUOUS
100
AcDbLine
 10
13.00413694809395
 20
-0.0000166257579952
 30
0.0
 11
13.18296635100632
 21
0.1788127771543824
 31
0.0
  0
LINE
  5
A3C7C
330
A3C55
100
AcDbEntity
  8
0
  6
CONTINUOUS
100
AcDbLine
 10
4.772852165289667
 20
-0.000092794222212
 30
0.0
 11
4.296495091028902
 21
0.4762642800385528
 31
0.0
  0
LINE
  5
A3C7D
330
A3C55
100
AcDbEntity
  8
0
  6
CONTINUOUS
100
AcDbLine
 10
5.446340034776103
 20
-0.0000614546284616
 30
0.0
 11
2.898195908335625
 21
2.548082671812017
 31
0.0
  0
LINE
  5
A3C7E
330
A3C55
100
AcDbEntity
  8
0
  6
CONTINUOUS
100
AcDbLine
 10
6.119827904262539
 20
-0.0000301150347113
 30
0.0
 11
1.499896725642348
 21
4.61990106358548
 31
0.0
  0
LINE
  5
A3C7F
330
A3C55
100
AcDbEntity
  8
0
  6
CONTINUOUS
100
AcDbLine
 10
6.775136745476159
 20
0.0181802528318542
 30
0.0
 11
5.699826040202669
 21
1.093490958105344
 31
0.0
  0
LINE
  5
A3C80
330
A3C55
100
AcDbEntity
  8
0
  6
CONTINUOUS
100
AcDbLine
 10
6.983376846288489
 20
0.4834593610997118
 30
0.0
 11
5.908008617934405
 21
1.558827589453796
 31
0.0
  0
LINE
  5
A3C81
330
A3C55
100
AcDbEntity
  8
0
  6
CONTINUOUS
100
AcDbLine
 10
5.377063484962296
 20
1.416253513345719
 30
0.0
 11
1.702276957014131
 21
5.091040041293883
 31
0.0
  0
LINE
  5
A3C82
330
A3C55
100
AcDbEntity
  8
0
  6
CONTINUOUS
100
AcDbLine
 10
3.978745891735324
 20
3.488090315652877
 30
0.0
 11
2.000373521109399
 21
5.466462686278803
 31
0.0
  0
LINE
  5
A3C83
330
A3C55
100
AcDbEntity
  8
0
  6
CONTINUOUS
100
AcDbLine
 10
7.191616947100819
 20
0.948738469367568
 30
0.0
 11
6.11619119566614
 21
2.024164220802247
 31
0.0
  0
LINE
  5
A3C84
330
A3C55
100
AcDbEntity
  8
0
  6
CONTINUOUS
100
AcDbLine
 10
7.399857047913149
 20
1.414017577635424
 30
0.0
 11
6.324373773397875
 21
2.489500852150698
 31
0.0
  0
LINE
  5
A3C85
330
A3C55
100
AcDbEntity
  8
0
  6
CONTINUOUS
100
AcDbLine
 10
7.608097148725479
 20
1.879296685903281
 30
0.0
 11
6.53255635112961
 21
2.95483748349915
 31
0.0
  0
LINE
  5
A3C86
330
A3C55
100
AcDbEntity
  8
0
  6
CONTINUOUS
100
AcDbLine
 10
7.816337249537808
 20
2.344575794171138
 30
0.0
 11
6.740738928861345
 21
3.420174114847601
 31
0.0
  0
LINE
  5
A3C87
330
A3C55
100
AcDbEntity
  8
0
  6
CONTINUOUS
100
AcDbLine
 10
3.310241080789734
 20
4.830114335678653
 30
0.0
 11
2.298470085204666
 21
5.84188533126372
 31
0.0
  0
LINE
  5
A3C88
330
A3C55
100
AcDbEntity
  8
0
  6
CONTINUOUS
100
AcDbLine
 10
3.60832983563551
 20
5.205544789913063
 30
0.0
 11
2.596566649299935
 21
6.217307976248638
 31
0.0
  0
LINE
  5
A3C89
330
A3C55
100
AcDbEntity
  8
0
  6
CONTINUOUS
100
AcDbLine
 10
3.906418590481286
 20
5.580975244147473
 30
0.0
 11
2.894663213395203
 21
6.592730621233557
 31
0.0
  0
LINE
  5
A3C8A
330
A3C55
100
AcDbEntity
  8
0
  6
CONTINUOUS
100
AcDbLine
 10
4.204507345327062
 20
5.956405698381884
 30
0.0
 11
3.192759777490472
 21
6.968153266218474
 31
0.0
  0
LINE
  5
A3C8B
330
A3C55
100
AcDbEntity
  8
0
  6
CONTINUOUS
100
AcDbLine
 10
8.466032252791512
 20
2.368399999997621
 30
0.0
 11
6.948921506593081
 21
3.885510746196053
 31
0.0
  0
LINE
  5
A3C8C
330
A3C55
100
AcDbEntity
  8
0
  6
CONTINUOUS
100
AcDbLine
 10
9.139551461871699
 20
2.36839999999762
 30
0.0
 11
7.157104084324816
 21
4.350847377544504
 31
0.0
  0
LINE
  5
A3C8D
330
A3C55
100
AcDbEntity
  8
0
  6
CONTINUOUS
100
AcDbLine
 10
4.502596100172839
 20
6.331836152616295
 30
0.0
 11
3.49085634158574
 21
7.343575911203393
 31
0.0
  0
LINE
  5
A3C8E
330
A3C55
100
AcDbEntity
  8
0
  6
CONTINUOUS
100
AcDbLine
 10
4.800684855018615
 20
6.707266606850705
 30
0.0
 11
3.788952905681008
 21
7.718998556188312
 31
0.0
  0
LINE
  5
A3C8F
330
A3C55
100
AcDbEntity
  8
0
  6
CONTINUOUS
100
AcDbLine
 10
12.18154012887317
 20
-0.0000694579236642
 30
0.0
 11
11.32140332908496
 21
0.8600673418645499
 31
0.0
  0
LINE
  5
A3C90
330
A3C55
100
AcDbEntity
  8
0
  6
CONTINUOUS
100
AcDbLine
 10
12.85501608323566
 20
-0.0000262032059659
 30
0.0
 11
10.77672456435345
 21
2.078265315676246
 31
0.0
  0
LINE
  5
A3C91
330
A3C55
100
AcDbEntity
  8
0
  6
CONTINUOUS
100
AcDbLine
 10
9.813070670951886
 20
2.36839999999762
 30
0.0
 11
8.51047067095321
 21
3.670999999996297
 31
0.0
  0
LINE
  5
A3C92
330
A3C55
100
AcDbEntity
  8
0
  6
CONTINUOUS
100
AcDbLine
 10
10.48658988003207
 20
2.36839999999762
 30
0.0
 11
9.183989880033396
 21
3.670999999996297
 31
0.0
  0
LINE
  5
A3C93
330
A3C55
100
AcDbEntity
  8
0
  6
CONTINUOUS
100
AcDbLine
 10
8.441048632286794
 20
3.740422038662712
 30
0.0
 11
7.365286662056551
 21
4.816184008892956
 31
0.0
  0
LINE
  5
A3C94
330
A3C55
100
AcDbEntity
  8
0
  6
CONTINUOUS
100
AcDbLine
 10
8.649187485808454
 20
4.205802394221237
 30
0.0
 11
7.573469239788285
 21
5.281520640241407
 31
0.0
  0
LINE
  5
A3C95
330
A3C55
100
AcDbEntity
  8
0
  6
CONTINUOUS
100
AcDbLine
 10
5.098773609864391
 20
7.082697061085115
 30
0.0
 11
4.087049469776277
 21
8.09442120117323
 31
0.0
  0
LINE
  5
A3C96
330
A3C55
100
AcDbEntity
  8
0
  6
CONTINUOUS
100
AcDbLine
 10
5.396862364710167
 20
7.458127515319526
 30
0.0
 11
4.385146033871544
 21
8.469843846158149
 31
0.0
  0
LINE
  5
A3C97
330
A3C55
100
AcDbEntity
  8
0
  6
CONTINUOUS
100
AcDbLine
 10
13.04801363231285
 20
0.4804954567970334
 30
0.0
 11
9.85750908911358
 21
3.670999999996297
 31
0.0
  0
LINE
  5
A3C98
330
A3C55
100
AcDbEntity
  8
0
  6
CONTINUOUS
100
AcDbLine
 10
8.857326339330116
 20
4.671182749779763
 30
0.0
 11
7.781651817520021
 21
5.746857271589858
 31
0.0
  0
LINE
  5
A3C99
330
A3C55
100
AcDbEntity
  8
0
  6
CONTINUOUS
100
AcDbLine
 10
5.694951119555943
 20
7.833557969553937
 30
0.0
 11
4.765409089118624
 21
8.763099999991255
 31
0.0
  0
LINE
  5
A3C9A
330
A3C55
100
AcDbEntity
  8
0
  6
CONTINUOUS
100
AcDbLine
 10
12.50286117236978
 20
1.699167125820288
 30
0.0
 11
9.68611877250287
 21
4.515909525687196
 31
0.0
  0
LINE
  5
A3C9B
330
A3C55
100
AcDbEntity
  8
0
  6
CONTINUOUS
100
AcDbLine
 10
9.065465192851777
 20
5.136563105338288
 30
0.0
 11
7.989834395251757
 21
6.21219390293831
 31
0.0
  0
LINE
  5
A3C9C
330
A3C55
100
AcDbEntity
  8
0
  6
CONTINUOUS
100
AcDbLine
 10
5.993039874401719
 20
8.208988423788346
 30
0.0
 11
5.43892829819881
 21
8.763099999991255
 31
0.0
  0
LINE
  5
A3C9D
330
A3C55
100
AcDbEntity
  8
0
  6
CONTINUOUS
100
AcDbLine
 10
11.95770871242671
 20
2.917838794843543
 30
0.0
 11
8.19801697298349
 21
6.677530534286761
 31
0.0
  0
LINE
  5
A3C9E
330
A3C55
100
AcDbEntity
  8
0
  6
CONTINUOUS
100
AcDbLine
 10
6.291128629247495
 20
8.584418878022756
 30
0.0
 11
6.112447507278997
 21
8.763099999991255
 31
0.0
  0
LINE
  5
A3C9F
330
A3C55
100
AcDbEntity
  8
0
  6
CONTINUOUS
100
AcDbLine
 10
11.41255625248364
 20
4.136510463866797
 30
0.0
 11
8.406199550715227
 21
7.142867165635211
 31
0.0
  0
LINE
  5
A3CA0
330
A3C55
100
AcDbEntity
  8
0
  6
CONTINUOUS
100
AcDbLine
 10
10.86740379254057
 20
5.355182132890051
 30
0.0
 11
8.614382128446962
 21
7.608203796983664
 31
0.0
  0
LINE
  5
A3CA1
330
A3C55
100
AcDbEntity
  8
0
  6
CONTINUOUS
100
AcDbLine
 10
10.3222513325975
 20
6.573853801913305
 30
0.0
 11
8.822564706178696
 21
8.073540428332114
 31
0.0
  0
LINE
  5
A3CA2
330
A3C55
100
AcDbEntity
  8
0
  6
CONTINUOUS
100
AcDbLine
 10
9.777098872654436
 20
7.792525470936562
 30
0.0
 11
9.030747283910433
 21
8.538877059680566
 31
0.0
  0
ENDBLK
  5
A3DE4
330
A3C55
100
AcDbEntity
  8
0
100
AcDbBlockEnd
  0
BLOCK
  5
A3DE5
330
A3CA3
100
AcDbEntity
  8
0
100
AcDbBlockBegin
  2
*X185
 70
     1
 10
0.0
 20
0.0
 30
0.0
  3
*X185
  1

  0
LINE
  5
A3CA4
330
A3CA3
100
AcDbEntity
  8
0
  6
CONTINUOUS
100
AcDbLine
 10
10.67292308101235
 20
8.445076852443387
 30
0.0
 11
10.99094622856022
 21
8.763099999991255
 31
0.0
  0
LINE
  5
A3CA5
330
A3CA3
100
AcDbEntity
  8
0
  6
CONTINUOUS
100
AcDbLine
 10
10.87250383178748
 20
7.971138394138331
 30
0.0
 11
11.6644654376404
 21
8.763099999991255
 31
0.0
  0
LINE
  5
A3CA6
330
A3CA3
100
AcDbEntity
  8
0
  6
CONTINUOUS
100
AcDbLine
 10
11.07208458256261
 20
7.497199935833273
 30
0.0
 11
12.12126590876355
 21
8.546381262034211
 31
0.0
  0
LINE
  5
A3CA7
330
A3CA3
100
AcDbEntity
  8
0
  6
CONTINUOUS
100
AcDbLine
 10
11.27166533333774
 20
7.023261477528216
 30
0.0
 11
12.32085164573666
 21
8.072447789927136
 31
0.0
  0
LINE
  5
A3CA8
330
A3CA3
100
AcDbEntity
  8
0
  6
CONTINUOUS
100
AcDbLine
 10
11.47124608411287
 20
6.549323019223158
 30
0.0
 11
12.52043738270977
 21
7.59851431782006
 31
0.0
  0
LINE
  5
A3CA9
330
A3CA3
100
AcDbEntity
  8
0
  6
CONTINUOUS
100
AcDbLine
 10
11.670826834888
 20
6.075384560918101
 30
0.0
 11
12.72002311968288
 21
7.124580845712984
 31
0.0
  0
LINE
  5
A3CAA
330
A3CA3
100
AcDbEntity
  8
0
  6
CONTINUOUS
100
AcDbLine
 10
11.87040758566313
 20
5.601446102613043
 30
0.0
 11
12.91960885665599
 21
6.650647373605907
 31
0.0
  0
LINE
  5
A3CAB
330
A3CA3
100
AcDbEntity
  8
0
  6
CONTINUOUS
100
AcDbLine
 10
12.06998833643825
 20
5.127507644307986
 30
0.0
 11
13.1191945936291
 21
6.176713901498832
 31
0.0
  0
LINE
  5
A3CAC
330
A3CA3
100
AcDbEntity
  8
0
  6
CONTINUOUS
100
AcDbLine
 10
12.26956908721338
 20
4.65356918600293
 30
0.0
 11
13.31878033060221
 21
5.702780429391757
 31
0.0
  0
LINE
  5
A3CAD
330
A3CA3
100
AcDbEntity
  8
0
  6
CONTINUOUS
100
AcDbLine
 10
12.46914983798851
 20
4.179630727697873
 30
0.0
 11
13.51836606757532
 21
5.228846957284683
 31
0.0
  0
LINE
  5
A3CAE
330
A3CA3
100
AcDbEntity
  8
0
  6
CONTINUOUS
100
AcDbLine
 10
12.66873058876364
 20
3.705692269392816
 30
0.0
 11
13.71795180454843
 21
4.754913485177607
 31
0.0
  0
LINE
  5
A3CAF
330
A3CA3
100
AcDbEntity
  8
0
  6
CONTINUOUS
100
AcDbLine
 10
12.86831133953877
 20
3.231753811087759
 30
0.0
 11
13.91753754152154
 21
4.280980013070531
 31
0.0
  0
LINE
  5
A3CB0
330
A3CA3
100
AcDbEntity
  8
0
  6
CONTINUOUS
100
AcDbLine
 10
13.0678920903139
 20
2.757815352782702
 30
0.0
 11
14.11712327849465
 21
3.807046540963456
 31
0.0
  0
LINE
  5
A3CB1
330
A3CA3
100
AcDbEntity
  8
0
  6
CONTINUOUS
100
AcDbLine
 10
13.26747284108903
 20
2.283876894477644
 30
0.0
 11
14.31670901546777
 21
3.333113068856379
 31
0.0
  0
LINE
  5
A3CB2
330
A3CA3
100
AcDbEntity
  8
0
  6
CONTINUOUS
100
AcDbLine
 10
16.36767838827179
 20
8.751678487061342
 30
0.0
 11
16.50332410898388
 21
8.887324207773432
 31
0.0
  0
LINE
  5
A3CB3
330
A3CA3
100
AcDbEntity
  8
0
  6
CONTINUOUS
100
AcDbLine
 10
15.96190732182191
 20
7.67238821153127
 30
0.0
 11
16.68735328004734
 21
8.397834169756699
 31
0.0
  0
LINE
  5
A3CB4
330
A3CA3
100
AcDbEntity
  8
0
  6
CONTINUOUS
100
AcDbLine
 10
15.55613625537202
 20
6.593097936001196
 30
0.0
 11
16.87138245111079
 21
7.908344131739965
 31
0.0
  0
LINE
  5
A3CB5
330
A3CA3
100
AcDbEntity
  8
0
  6
CONTINUOUS
100
AcDbLine
 10
15.15036518892213
 20
5.513807660471122
 30
0.0
 11
17.05541162217424
 21
7.418854093723231
 31
0.0
  0
LINE
  5
A3CB6
330
A3CA3
100
AcDbEntity
  8
0
  6
CONTINUOUS
100
AcDbLine
 10
14.74459412247225
 20
4.434517384941048
 30
0.0
 11
17.2394407932377
 21
6.929364055706499
 31
0.0
  0
LINE
  5
A3CB7
330
A3CA3
100
AcDbEntity
  8
0
  6
CONTINUOUS
100
AcDbLine
 10
14.33882305602236
 20
3.355227109410975
 30
0.0
 11
17.42346996430115
 21
6.439874017689766
 31
0.0
  0
LINE
  5
A3CB8
330
A3CA3
100
AcDbEntity
  8
0
  6
CONTINUOUS
100
AcDbLine
 10
13.46705359186416
 20
1.809938436172586
 30
0.0
 11
16.0819338255367
 21
4.424818669845129
 31
0.0
  0
LINE
  5
A3CB9
330
A3CA3
100
AcDbEntity
  8
0
  6
CONTINUOUS
100
AcDbLine
 10
16.63283254238972
 20
4.975717386698149
 30
0.0
 11
17.60749913536461
 21
5.950383979673033
 31
0.0
  0
LINE
  5
A3CBA
330
A3CA3
100
AcDbEntity
  8
0
  6
CONTINUOUS
100
AcDbLine
 10
13.66663434263929
 20
1.335999977867529
 30
0.0
 11
15.67604797733754
 21
3.345413612565779
 31
0.0
  0
LINE
  5
A3CBB
330
A3CA3
100
AcDbEntity
  8
0
  6
CONTINUOUS
100
AcDbLine
 10
13.86621509341442
 20
0.8620615195624723
 30
0.0
 11
15.27016212913838
 21
2.26600855528643
 31
0.0
  0
LINE
  5
A3CBC
330
A3CA3
100
AcDbEntity
  8
0
  6
CONTINUOUS
100
AcDbLine
 10
16.81682257348267
 20
4.486188208710908
 30
0.0
 11
17.79152830642806
 21
5.460893941656299
 31
0.0
  0
LINE
  5
A3CBD
330
A3CA3
100
AcDbEntity
  8
0
  6
CONTINUOUS
100
AcDbLine
 10
17.00081260457561
 20
3.996659030723667
 30
0.0
 11
17.97555747749151
 21
4.971403903639565
 31
0.0
  0
LINE
  5
A3CBE
330
A3CA3
100
AcDbEntity
  8
0
  6
CONTINUOUS
100
AcDbLine
 10
20.74362343514722
 20
8.412989070375462
 30
0.0
 11
21.09373436476302
 21
8.763099999991256
 31
0.0
  0
LINE
  5
A3CBF
330
A3CA3
100
AcDbEntity
  8
0
  6
CONTINUOUS
100
AcDbLine
 10
20.25401257174777
 20
7.249858997895826
 30
0.0
 11
21.7672535738432
 21
8.763099999991255
 31
0.0
  0
LINE
  5
A3CC0
330
A3CA3
100
AcDbEntity
  8
0
  6
CONTINUOUS
100
AcDbLine
 10
14.06579584418955
 20
0.3881230612574149
 30
0.0
 11
14.86427628093921
 21
1.186603498007082
 31
0.0
  0
LINE
  5
A3CC1
330
A3CA3
100
AcDbEntity
  8
0
  6
CONTINUOUS
100
AcDbLine
 10
14.26537659496467
 20
-0.0858153970476412
 30
0.0
 11
14.45839043274005
 21
0.1071984407277329
 31
0.0
  0
LINE
  5
A3CC2
330
A3CA3
100
AcDbEntity
  8
0
  6
CONTINUOUS
100
AcDbLine
 10
17.18480263566856
 20
3.507129852736426
 30
0.0
 11
18.15958664855496
 21
4.481913865622833
 31
0.0
  0
LINE
  5
A3CC3
330
A3CA3
100
AcDbEntity
  8
0
  6
CONTINUOUS
100
AcDbLine
 10
17.3687926667615
 20
3.017600674749186
 30
0.0
 11
18.34361581961842
 21
3.9924238276061
 31
0.0
  0
LINE
  5
A3CC4
330
A3CA3
100
AcDbEntity
  8
0
  6
CONTINUOUS
100
AcDbLine
 10
19.76440170834832
 20
6.086728925416191
 30
0.0
 11
22.33924590259489
 21
8.661573119662755
 31
0.0
  0
LINE
  5
A3CC5
330
A3CA3
100
AcDbEntity
  8
0
  6
CONTINUOUS
100
AcDbLine
 10
19.27479084494887
 20
4.923598852936555
 30
0.0
 11
21.84929622842713
 21
7.498104236414807
 31
0.0
  0
LINE
  5
A3CC6
330
A3CA3
100
AcDbEntity
  8
0
  6
CONTINUOUS
100
AcDbLine
 10
17.55278269785445
 20
2.528071496761945
 30
0.0
 11
18.52764499068187
 21
3.502933789589366
 31
0.0
  0
LINE
  5
A3CC7
330
A3CA3
100
AcDbEntity
  8
0
  6
CONTINUOUS
100
AcDbLine
 10
18.78517998154942
 20
3.760468780456919
 30
0.0
 11
21.35934655425936
 21
6.33463535316686
 31
0.0
  0
LINE
  5
A3CC8
330
A3CA3
100
AcDbEntity
  8
0
  6
CONTINUOUS
100
AcDbLine
 10
17.73677272894739
 20
2.038542318774704
 30
0.0
 11
20.8693968800916
 21
5.171166469918914
 31
0.0
  0
LINE
  5
A3CC9
330
A3CA3
100
AcDbEntity
  8
0
  6
CONTINUOUS
100
AcDbLine
 10
17.92076276004034
 20
1.549013140787464
 30
0.0
 11
20.37944720592384
 21
4.007697586670968
 31
0.0
  0
LINE
  5
A3CCA
330
A3CA3
100
AcDbEntity
  8
0
  6
CONTINUOUS
100
AcDbLine
 10
18.10475279113329
 20
1.059483962800223
 30
0.0
 11
19.88949753175608
 21
2.84422870342302
 31
0.0
  0
LINE
  5
A3CCB
330
A3CA3
100
AcDbEntity
  8
0
  6
CONTINUOUS
100
AcDbLine
 10
18.28874282222623
 20
0.5699547848129822
 30
0.0
 11
19.39954785758832
 21
1.680759820175074
 31
0.0
  0
LINE
  5
A3CCC
330
A3CA3
100
AcDbEntity
  8
0
  6
CONTINUOUS
100
AcDbLine
 10
18.47273285331918
 20
0.0804256068257416
 30
0.0
 11
18.90959818342056
 21
0.517290936927127
 31
0.0
  0
LINE
  5
A3CCD
330
A3CA3
100
AcDbEntity
  8
0
  6
CONTINUOUS
100
AcDbLine
 10
14.3590401358224
 20
-0.1570118376323384
 30
0.0
 11
14.24903296539946
 21
-0.0470046672093929
 31
0.0
  0
LINE
  5
A3CCE
330
A3CA3
100
AcDbEntity
  8
0
  6
CONTINUOUS
100
AcDbLine
 10
14.54309291258661
 20
0.332454594683643
 30
0.0
 11
13.75908329123172
 21
1.116464216038529
 31
0.0
  0
LINE
  5
A3CCF
330
A3CA3
100
AcDbEntity
  8
0
  6
CONTINUOUS
100
AcDbLine
 10
14.72714568935081
 20
0.8219210269996244
 30
0.0
 11
13.26913361706399
 21
2.27993309928645
 31
0.0
  0
LINE
  5
A3CD0
330
A3CA3
100
AcDbEntity
  8
0
  6
CONTINUOUS
100
AcDbLine
 10
14.91119846611502
 20
1.311387459315606
 30
0.0
 11
12.77918394289625
 21
3.443401982534371
 31
0.0
  0
LINE
  5
A3CD1
330
A3CA3
100
AcDbEntity
  8
0
  6
CONTINUOUS
100
AcDbLine
 10
15.09525124287922
 20
1.800853891631587
 30
0.0
 11
12.28923426872852
 21
4.606870865782293
 31
0.0
  0
LINE
  5
A3CD2
330
A3CA3
100
AcDbEntity
  8
0
  6
CONTINUOUS
100
AcDbLine
 10
15.27930401964343
 20
2.290320323947569
 30
0.0
 11
11.79928459456078
 21
5.770339749030213
 31
0.0
  0
LINE
  5
A3CD3
330
A3CA3
100
AcDbEntity
  8
0
  6
CONTINUOUS
100
AcDbLine
 10
15.46335679640763
 20
2.77978675626355
 30
0.0
 11
14.48885470994921
 21
3.754288842721972
 31
0.0
  0
LINE
  5
A3CD4
330
A3CA3
100
AcDbEntity
  8
0
  6
CONTINUOUS
100
AcDbLine
 10
13.88507249233704
 20
4.358071060334137
 30
0.0
 11
11.30933492039305
 21
6.933808632278135
 31
0.0
  0
LINE
  5
A3CD5
330
A3CA3
100
AcDbEntity
  8
0
  6
CONTINUOUS
100
AcDbLine
 10
18.75840522805855
 20
0.1582575336928151
 30
0.0
 11
18.25383727664818
 21
0.6628254851031863
 31
0.0
  0
LINE
  5
A3CD6
330
A3CA3
100
AcDbEntity
  8
0
  6
CONTINUOUS
100
AcDbLine
 10
15.64740957317184
 20
3.269253188579531
 30
0.0
 11
14.67288388101266
 21
4.243778880738705
 31
0.0
  0
LINE
  5
A3CD7
330
A3CA3
100
AcDbEntity
  8
0
  6
CONTINUOUS
100
AcDbLine
 10
13.39509276772158
 20
5.521569994029786
 30
0.0
 11
10.81938524622531
 21
8.097277515526056
 31
0.0
  0
LINE
  5
A3CD8
330
A3CA3
100
AcDbEntity
  8
0
  6
CONTINUOUS
100
AcDbLine
 10
18.95798597883369
 20
0.6321959919978686
 30
0.0
 11
17.84825644852853
 21
1.741925522303024
 31
0.0
  0
LINE
  5
A3CD9
330
A3CA3
100
AcDbEntity
  8
0
  6
CONTINUOUS
100
AcDbLine
 10
19.15756672960882
 20
1.106134450302922
 30
0.0
 11
17.44267562040888
 21
2.821025559502861
 31
0.0
  0
LINE
  5
A3CDA
330
A3CA3
100
AcDbEntity
  8
0
  6
CONTINUOUS
100
AcDbLine
 10
15.83146234993604
 20
3.758719620895513
 30
0.0
 11
14.85691305207612
 21
4.733268918755439
 31
0.0
  0
LINE
  5
A3CDB
330
A3CA3
100
AcDbEntity
  8
0
  6
CONTINUOUS
100
AcDbLine
 10
16.01551512670025
 20
4.248186053211494
 30
0.0
 11
15.04094222313957
 21
5.222758956772172
 31
0.0
  0
LINE
  5
A3CDC
330
A3CA3
100
AcDbEntity
  8
0
  6
CONTINUOUS
100
AcDbLine
 10
12.90511304310612
 20
6.685068927725435
 30
0.0
 11
10.8270819708403
 21
8.763099999991255
 31
0.0
  0
LINE
  5
A3CDD
330
A3CA3
100
AcDbEntity
  8
0
  6
CONTINUOUS
100
AcDbLine
 10
12.41513331849066
 20
7.848567861421083
 30
0.0
 11
11.50060117992049
 21
8.763099999991255
 31
0.0
  0
LINE
  5
A3CDE
330
A3CA3
100
AcDbEntity
  8
0
  6
CONTINUOUS
100
AcDbLine
 10
19.35714748038395
 20
1.580072908607975
 30
0.0
 11
17.03709479228923
 21
3.900125596702697
 31
0.0
  0
LINE
  5
A3CDF
330
A3CA3
100
AcDbEntity
  8
0
  6
CONTINUOUS
100
AcDbLine
 10
19.55672823115909
 20
2.054011366913028
 30
0.0
 11
16.63151396416958
 21
4.979225633902534
 31
0.0
  0
LINE
  5
A3CE0
330
A3CA3
100
AcDbEntity
  8
0
  6
CONTINUOUS
100
AcDbLine
 10
16.19956790346445
 20
4.737652485527476
 30
0.0
 11
15.22497139420302
 21
5.712248994788904
 31
0.0
  0
LINE
  5
A3CE1
330
A3CA3
100
AcDbEntity
  8
0
  6
CONTINUOUS
100
AcDbLine
 10
16.38362068022866
 20
5.227118917843457
 30
0.0
 11
15.40900056526648
 21
6.201739032805637
 31
0.0
  0
LINE
  5
A3CE2
330
A3CA3
100
AcDbEntity
  8
0
  6
CONTINUOUS
100
AcDbLine
 10
19.75630898193422
 20
2.527949825218081
 30
0.0
 11
18.70774536448286
 21
3.576513442669441
 31
0.0
  0
LINE
  5
A3CE3
330
A3CA3
100
AcDbEntity
  8
0
  6
CONTINUOUS
100
AcDbLine
 10
19.95588973270936
 20
3.001888283523134
 30
0.0
 11
18.90726987211446
 21
4.050508144118028
 31
0.0
  0
LINE
  5
A3CE4
330
A3CA3
100
AcDbEntity
  8
0
  6
CONTINUOUS
100
AcDbLine
 10
20.15547048348449
 20
3.475826741828186
 30
0.0
 11
19.10679437974606
 21
4.524502845566614
 31
0.0
  0
LINE
  5
A3CE5
330
A3CA3
100
AcDbEntity
  8
0
  6
CONTINUOUS
100
AcDbLine
 10
20.35505123425962
 20
3.94976520013324
 30
0.0
 11
19.30631888737766
 21
4.998497547015201
 31
0.0
  0
LINE
  5
A3CE6
330
A3CA3
100
AcDbEntity
  8
0
  6
CONTINUOUS
100
AcDbLine
 10
20.55463198503475
 20
4.423703658438292
 30
0.0
 11
19.50584339500926
 21
5.472492248463787
 31
0.0
  0
LINE
  5
A3CE7
330
A3CA3
100
AcDbEntity
  8
0
  6
CONTINUOUS
100
AcDbLine
 10
18.37481191085755
 20
3.909446896294752
 30
0.0
 11
15.59302973632993
 21
6.691229070822371
 31
0.0
  0
LINE
  5
A3CE8
330
A3CA3
100
AcDbEntity
  8
0
  6
CONTINUOUS
100
AcDbLine
 10
17.96904084440766
 20
4.988737171824825
 30
0.0
 11
15.77705890739338
 21
7.180719108839104
 31
0.0
  0
LINE
  5
A3CE9
330
A3CA3
100
AcDbEntity
  8
0
  6
CONTINUOUS
100
AcDbLine
 10
17.56326977795777
 20
6.068027447354899
 30
0.0
 11
15.96108807845684
 21
7.670209146855838
 31
0.0
  0
LINE
  5
A3CEA
330
A3CA3
100
AcDbEntity
  8
0
  6
CONTINUOUS
100
AcDbLine
 10
17.15749871150789
 20
7.147317722884972
 30
0.0
 11
16.14511724952029
 21
8.15969918487257
 31
0.0
  0
LINE
  5
A3CEB
330
A3CA3
100
AcDbEntity
  8
0
  6
CONTINUOUS
100
AcDbLine
 10
16.751727645058
 20
8.226607998415046
 30
0.0
 11
16.32914642058374
 21
8.649189222889303
 31
0.0
  0
LINE
  5
A3CEC
330
A3CA3
100
AcDbEntity
  8
0
  6
CONTINUOUS
100
AcDbLine
 10
20.75421273580989
 20
4.897642116743345
 30
0.0
 11
19.70536790264086
 21
5.946486949912374
 31
0.0
  0
LINE
  5
A3CED
330
A3CA3
100
AcDbEntity
  8
0
  6
CONTINUOUS
100
AcDbLine
 10
20.95379348658502
 20
5.371580575048398
 30
0.0
 11
19.90489241027246
 21
6.42048165136096
 31
0.0
  0
LINE
  5
A3CEE
330
A3CA3
100
AcDbEntity
  8
0
  6
CONTINUOUS
100
AcDbLine
 10
21.15337423736015
 20
5.845519033353452
 30
0.0
 11
20.10441691790406
 21
6.894476352809547
 31
0.0
  0
LINE
  5
A3CEF
330
A3CA3
100
AcDbEntity
  8
0
  6
CONTINUOUS
100
AcDbLine
 10
21.35295498813529
 20
6.319457491658505
 30
0.0
 11
20.30394142553566
 21
7.368471054258134
 31
0.0
  0
LINE
  5
A3CF0
330
A3CA3
100
AcDbEntity
  8
0
  6
CONTINUOUS
100
AcDbLine
 10
21.55253573891042
 20
6.793395949963558
 30
0.0
 11
20.50346593316726
 21
7.842465755706721
 31
0.0
  0
LINE
  5
A3CF1
330
A3CA3
100
AcDbEntity
  8
0
  6
CONTINUOUS
100
AcDbLine
 10
21.75211648968556
 20
7.267334408268612
 30
0.0
 11
20.70299044079886
 21
8.316460457155308
 31
0.0
  0
LINE
  5
A3CF2
330
A3CA3
100
AcDbEntity
  8
0
  6
CONTINUOUS
100
AcDbLine
 10
21.95169724046069
 20
7.741272866573663
 30
0.0
 11
20.9298701070431
 21
8.763099999991256
 31
0.0
  0
LINE
  5
A3CF3
330
A3CA3
100
AcDbEntity
  8
0
  6
CONTINUOUS
100
AcDbLine
 10
22.15127799123582
 20
8.215211324878716
 30
0.0
 11
21.60338931612328
 21
8.763099999991256
 31
0.0
  0
LINE
  5
A3CF4
330
A3CA3
100
AcDbEntity
  8
0
  6
CONTINUOUS
100
AcDbLine
 10
22.35085874201096
 20
8.689149783183769
 30
0.0
 11
22.27690852520347
 21
8.763099999991255
 31
0.0
  0
ENDBLK
  5
A3DE6
330
A3CA3
100
AcDbEntity
  8
0
100
AcDbBlockEnd
  0
BLOCK
  5
A3DE7
330
A3CF5
100
AcDbEntity
  8
0
100
AcDbBlockBegin
  2
*X186
 70
     1
 10
0.0
 20
0.0
 30
0.0
  3
*X186
  1

  0
LINE
  5
A3CF6
330
A3CF5
100
AcDbEntity
  8
0
  6
CONTINUOUS
100
AcDbLine
 10
23.19462913593892
 20
8.169917934846424
 30
0.0
 11
23.70775465517246
 21
8.683043454079957
 31
0.0
  0
LINE
  5
A3CF7
330
A3CF5
100
AcDbEntity
  8
0
  6
CONTINUOUS
100
AcDbLine
 10
22.64923161835078
 20
6.951001208178088
 30
0.0
 11
23.9159364069932
 21
8.217705996820516
 31
0.0
  0
LINE
  5
A3CF8
330
A3CF5
100
AcDbEntity
  8
0
  6
CONTINUOUS
100
AcDbLine
 10
22.10383410076263
 20
5.732084481509751
 30
0.0
 11
24.12411815881395
 21
7.752368539561078
 31
0.0
  0
LINE
  5
A3CF9
330
A3CF5
100
AcDbEntity
  8
0
  6
CONTINUOUS
100
AcDbLine
 10
21.55843658317447
 20
4.513167754841414
 30
0.0
 11
24.3322999106347
 21
7.287031082301639
 31
0.0
  0
LINE
  5
A3CFA
330
A3CF5
100
AcDbEntity
  8
0
  6
CONTINUOUS
100
AcDbLine
 10
21.01303906558632
 20
3.294251028173077
 30
0.0
 11
24.54048166245544
 21
6.821693625042199
 31
0.0
  0
LINE
  5
A3CFB
330
A3CF5
100
AcDbEntity
  8
0
  6
CONTINUOUS
100
AcDbLine
 10
20.46764154799817
 20
2.075334301504738
 30
0.0
 11
23.28571549467848
 21
4.89340824818505
 31
0.0
  0
LINE
  5
A3CFC
330
A3CF5
100
AcDbEntity
  8
0
  6
CONTINUOUS
100
AcDbLine
 10
19.92224403041002
 20
0.8564175748364002
 30
0.0
 11
22.74075865492779
 21
3.674932199354171
 31
0.0
  0
LINE
  5
A3CFD
330
A3CF5
100
AcDbEntity
  8
0
  6
CONTINUOUS
100
AcDbLine
 10
23.67305085490148
 20
5.280743608408048
 30
0.0
 11
24.74866341427619
 21
6.356356167782759
 31
0.0
  0
LINE
  5
A3CFE
330
A3CF5
100
AcDbEntity
  8
0
  6
CONTINUOUS
100
AcDbLine
 10
23.88118970842314
 20
4.815363252849522
 30
0.0
 11
24.95684516609694
 21
5.89101871052332
 31
0.0
  0
LINE
  5
A3CFF
330
A3CF5
100
AcDbEntity
  8
0
  6
CONTINUOUS
100
AcDbLine
 10
19.73925852647308
 20
-0.0000871381807288
 30
0.0
 11
23.4103456646501
 21
3.670999999996297
 31
0.0
  0
LINE
  5
A3D00
330
A3CF5
100
AcDbEntity
  8
0
  6
CONTINUOUS
100
AcDbLine
 10
24.0893285619448
 20
4.349982897290997
 30
0.0
 11
25.16502691791769
 21
5.42568125326388
 31
0.0
  0
LINE
  5
A3D01
330
A3CF5
100
AcDbEntity
  8
0
  6
CONTINUOUS
100
AcDbLine
 10
20.41282099582748
 20
-0.0000438779065108
 30
0.0
 11
21.64944178675636
 21
1.236576913022366
 31
0.0
  0
LINE
  5
A3D02
330
A3CF5
100
AcDbEntity
  8
0
  6
CONTINUOUS
100
AcDbLine
 10
22.78126487373161
 20
2.36839999999762
 30
0.0
 11
24.08386487373029
 21
3.670999999996297
 31
0.0
  0
LINE
  5
A3D03
330
A3CF5
100
AcDbEntity
  8
0
  6
CONTINUOUS
100
AcDbLine
 10
24.29746741546646
 20
3.884602541732471
 30
0.0
 11
25.37320866973843
 21
4.960343796004441
 31
0.0
  0
LINE
  5
A3D04
330
A3CF5
100
AcDbEntity
  8
0
  6
CONTINUOUS
100
AcDbLine
 10
21.08638346518189
 20
-0.0000006176322938
 30
0.0
 11
21.10379033335899
 21
0.0174062505448083
 31
0.0
  0
LINE
  5
A3D05
330
A3CF5
100
AcDbEntity
  8
0
  6
CONTINUOUS
100
AcDbLine
 10
23.4547840828118
 20
2.36839999999762
 30
0.0
 11
25.58139042155918
 21
4.495006338745002
 31
0.0
  0
LINE
  5
A3D06
330
A3CF5
100
AcDbEntity
  8
0
  6
CONTINUOUS
100
AcDbLine
 10
29.30199999996933
 20
8.215615917155148
 30
0.0
 11
29.84948408280543
 21
8.763099999991255
 31
0.0
  0
LINE
  5
A3D07
330
A3CF5
100
AcDbEntity
  8
0
  6
CONTINUOUS
100
AcDbLine
 10
24.12830329189199
 20
2.36839999999762
 30
0.0
 11
25.78957217337993
 21
4.029668881485562
 31
0.0
  0
LINE
  5
A3D08
330
A3CF5
100
AcDbEntity
  8
0
  6
CONTINUOUS
100
AcDbLine
 10
29.30199999996933
 20
7.54209670807496
 30
0.0
 11
30.52300329188562
 21
8.763099999991255
 31
0.0
  0
LINE
  5
A3D09
330
A3CF5
100
AcDbEntity
  8
0
  6
CONTINUOUS
100
AcDbLine
 10
24.80182250097217
 20
2.36839999999762
 30
0.0
 11
25.99775392520067
 21
3.564331424226122
 31
0.0
  0
LINE
  5
A3D0A
330
A3CF5
100
AcDbEntity
  8
0
  6
CONTINUOUS
100
AcDbLine
 10
29.30199999996933
 20
6.868577498994774
 30
0.0
 11
30.74199999996926
 21
8.308577498994712
 31
0.0
  0
LINE
  5
A3D0B
330
A3CF5
100
AcDbEntity
  8
0
  6
CONTINUOUS
100
AcDbLine
 10
25.13028238392013
 20
2.023340673865392
 30
0.0
 11
26.20593567702142
 21
3.098993966966683
 31
0.0
  0
LINE
  5
A3D0C
330
A3CF5
100
AcDbEntity
  8
0
  6
CONTINUOUS
100
AcDbLine
 10
25.33838066033617
 20
1.557919741201244
 30
0.0
 11
26.41411742884217
 21
2.633656509707244
 31
0.0
  0
LINE
  5
A3D0D
330
A3CF5
100
AcDbEntity
  8
0
  6
CONTINUOUS
100
AcDbLine
 10
25.54647893675221
 20
1.092498808537098
 30
0.0
 11
26.62229918066291
 21
2.168319052447804
 31
0.0
  0
LINE
  5
A3D0E
330
A3CF5
100
AcDbEntity
  8
0
  6
CONTINUOUS
100
AcDbLine
 10
25.75457721316825
 20
0.62707787587295
 30
0.0
 11
26.83048093248366
 21
1.702981595188365
 31
0.0
  0
LINE
  5
A3D0F
330
A3CF5
100
AcDbEntity
  8
0
  6
CONTINUOUS
100
AcDbLine
 10
29.30199999996933
 20
6.195058289914587
 30
0.0
 11
30.74199999996926
 21
7.635058289914522
 31
0.0
  0
LINE
  5
A3D10
330
A3CF5
100
AcDbEntity
  8
0
  6
CONTINUOUS
100
AcDbLine
 10
29.30199999996933
 20
5.521539080834401
 30
0.0
 11
30.74199999996926
 21
6.961539080834331
 31
0.0
  0
LINE
  5
A3D11
330
A3CF5
100
AcDbEntity
  8
0
  6
CONTINUOUS
100
AcDbLine
 10
29.30199999996933
 20
4.848019871754214
 30
0.0
 11
30.74199999996925
 21
6.288019871754143
 31
0.0
  0
LINE
  5
A3D12
330
A3CF5
100
AcDbEntity
  8
0
  6
CONTINUOUS
100
AcDbLine
 10
29.30199999996933
 20
4.174500662674028
 30
0.0
 11
30.74199999996925
 21
5.614500662673953
 31
0.0
  0
LINE
  5
A3D13
330
A3CF5
100
AcDbEntity
  8
0
  6
CONTINUOUS
100
AcDbLine
 10
25.96267548958429
 20
0.1616569432088024
 30
0.0
 11
27.18411854636669
 21
1.383099999991207
 31
0.0
  0
LINE
  5
A3D14
330
A3CF5
100
AcDbEntity
  8
0
  6
CONTINUOUS
100
AcDbLine
 10
29.30199999996933
 20
3.500981453593841
 30
0.0
 11
30.74199999996925
 21
4.940981453593762
 31
0.0
  0
LINE
  5
A3D15
330
A3CF5
100
AcDbEntity
  8
0
  6
CONTINUOUS
100
AcDbLine
 10
26.50763775544691
 20
0.0330999999912356
 30
0.0
 11
27.85763775544689
 21
1.383099999991223
 31
0.0
  0
LINE
  5
A3D16
330
A3CF5
100
AcDbEntity
  8
0
  6
CONTINUOUS
100
AcDbLine
 10
29.30199999996933
 20
2.827462244513656
 30
0.0
 11
30.74199999996925
 21
4.267462244513574
 31
0.0
  0
LINE
  5
A3D17
330
A3CF5
100
AcDbEntity
  8
0
  6
CONTINUOUS
100
AcDbLine
 10
27.18115696452709
 20
0.0330999999912356
 30
0.0
 11
28.57843169463094
 21
1.430374730095086
 31
0.0
  0
LINE
  5
A3D18
330
A3CF5
100
AcDbEntity
  8
0
  6
CONTINUOUS
100
AcDbLine
 10
29.2547252698654
 20
2.106668305329547
 30
0.0
 11
30.74199999996924
 21
3.593943035433384
 31
0.0
  0
LINE
  5
A3D19
330
A3CF5
100
AcDbEntity
  8
0
  6
CONTINUOUS
100
AcDbLine
 10
27.85467617360728
 20
0.0330999999912356
 30
0.0
 11
30.74199999996924
 21
2.920423826353195
 31
0.0
  0
LINE
  5
A3D1A
330
A3CF5
100
AcDbEntity
  8
0
  6
CONTINUOUS
100
AcDbLine
 10
28.55194421293851
 20
0.0568488302422763
 30
0.0
 11
30.71825116971818
 21
2.223155787021951
 31
0.0
  0
LINE
  5
A3D1B
330
A3CF5
100
AcDbEntity
  8
0
  6
CONTINUOUS
100
AcDbLine
 10
29.51480923620385
 20
0.346194644427432
 30
0.0
 11
30.42890535553301
 21
1.260290763756593
 31
0.0
  0
LINE
  5
A3D1C
330
A3CF5
100
AcDbEntity
  8
0
  6
CONTINUOUS
100
AcDbLine
 10
19.59027867740337
 20
-0.0000967065718083
 30
0.0
 11
19.55485265190471
 21
0.035329318926844
 31
0.0
  0
LINE
  5
A3D1D
330
A3CF5
100
AcDbEntity
  8
0
  6
CONTINUOUS
100
AcDbLine
 10
20.26375463176586
 20
-0.0000534518541091
 30
0.0
 11
19.76305575737534
 21
0.5006454225364014
 31
0.0
  0
LINE
  5
A3D1E
330
A3CF5
100
AcDbEntity
  8
0
  6
CONTINUOUS
100
AcDbLine
 10
20.93723058612834
 20
-0.0000101971364099
 30
0.0
 11
19.97125886284597
 21
0.965961526145958
 31
0.0
  0
LINE
  5
A3D1F
330
A3CF5
100
AcDbEntity
  8
0
  6
CONTINUOUS
100
AcDbLine
 10
21.25514828313686
 20
0.355591314935257
 30
0.0
 11
20.1794619683166
 21
1.431277629755512
 31
0.0
  0
LINE
  5
A3D20
330
A3CF5
100
AcDbEntity
  8
0
  6
CONTINUOUS
100
AcDbLine
 10
21.46338838394921
 20
0.8208704232030986
 30
0.0
 11
20.38766507378723
 21
1.896593733365069
 31
0.0
  0
LINE
  5
A3D21
330
A3CF5
100
AcDbEntity
  8
0
  6
CONTINUOUS
100
AcDbLine
 10
21.67162848476155
 20
1.28614953147094
 30
0.0
 11
20.59586817925786
 21
2.361909836974626
 31
0.0
  0
LINE
  5
A3D22
330
A3CF5
100
AcDbEntity
  8
0
  6
CONTINUOUS
100
AcDbLine
 10
21.8798685855739
 20
1.751428639738782
 30
0.0
 11
20.80407128472849
 21
2.827225940584183
 31
0.0
  0
LINE
  5
A3D23
330
A3CF5
100
AcDbEntity
  8
0
  6
CONTINUOUS
100
AcDbLine
 10
22.08810868638624
 20
2.216707748006623
 30
0.0
 11
21.01227439019912
 21
3.292542044193739
 31
0.0
  0
LINE
  5
A3D24
330
A3CF5
100
AcDbEntity
  8
0
  6
CONTINUOUS
100
AcDbLine
 10
22.60993564347543
 20
2.36839999999762
 30
0.0
 11
21.22047749566975
 21
3.757858147803296
 31
0.0
  0
LINE
  5
A3D25
330
A3CF5
100
AcDbEntity
  8
0
  6
CONTINUOUS
100
AcDbLine
 10
23.28345485255561
 20
2.36839999999762
 30
0.0
 11
21.42868060114038
 21
4.223174251412853
 31
0.0
  0
LINE
  5
A3D26
330
A3CF5
100
AcDbEntity
  8
0
  6
CONTINUOUS
100
AcDbLine
 10
26.29227406164219
 20
0.0330999999912356
 30
0.0
 11
25.80009199592872
 21
0.5252820657046957
 31
0.0
  0
LINE
  5
A3D27
330
A3CF5
100
AcDbEntity
  8
0
  6
CONTINUOUS
100
AcDbLine
 10
23.9569740616358
 20
2.36839999999762
 30
0.0
 11
21.63688370661101
 21
4.688490355022409
 31
0.0
  0
LINE
  5
A3D28
330
A3CF5
100
AcDbEntity
  8
0
  6
CONTINUOUS
100
AcDbLine
 10
26.96579327072237
 20
0.0330999999912356
 30
0.0
 11
25.2554132311971
 21
1.743480039516508
 31
0.0
  0
LINE
  5
A3D29
330
A3CF5
100
AcDbEntity
  8
0
  6
CONTINUOUS
100
AcDbLine
 10
24.63049327071599
 20
2.36839999999762
 30
0.0
 11
23.32789327071731
 21
3.670999999996297
 31
0.0
  0
LINE
  5
A3D2A
330
A3CF5
100
AcDbEntity
  8
0
  6
CONTINUOUS
100
AcDbLine
 10
22.92098674744635
 20
4.077906523267254
 30
0.0
 11
21.84508681208164
 21
5.153806458631966
 31
0.0
  0
LINE
  5
A3D2B
330
A3CF5
100
AcDbEntity
  8
0
  6
CONTINUOUS
100
AcDbLine
 10
27.63931247980256
 20
0.0330999999912356
 30
0.0
 11
24.0014124797975
 21
3.670999999996297
 31
0.0
  0
LINE
  5
A3D2C
330
A3CF5
100
AcDbEntity
  8
0
  6
CONTINUOUS
100
AcDbLine
 10
23.129125600968
 20
4.5432868788258
 30
0.0
 11
22.05328991755227
 21
5.619122562241522
 31
0.0
  0
LINE
  5
A3D2D
330
A3CF5
100
AcDbEntity
  8
0
  6
CONTINUOUS
100
AcDbLine
 10
28.31283168888275
 20
0.0330999999912356
 30
0.0
 11
24.16488385994816
 21
4.181047828925828
 31
0.0
  0
LINE
  5
A3D2E
330
A3CF5
100
AcDbEntity
  8
0
  6
CONTINUOUS
100
AcDbLine
 10
23.33726445448964
 20
5.008667234384345
 30
0.0
 11
22.2614930230229
 21
6.084438665851079
 31
0.0
  0
LINE
  5
A3D2F
330
A3CF5
100
AcDbEntity
  8
0
  6
CONTINUOUS
100
AcDbLine
 10
28.90645333830136
 20
0.1129975596528112
 30
0.0
 11
27.63635089796295
 21
1.383099999991217
 31
0.0
  0
LINE
  5
A3D30
330
A3CF5
100
AcDbEntity
  8
0
  6
CONTINUOUS
100
AcDbLine
 10
26.43704649509776
 20
2.582404402856405
 30
0.0
 11
23.61992702019732
 21
5.399523877756844
 31
0.0
  0
LINE
  5
A3D31
330
A3CF5
100
AcDbEntity
  8
0
  6
CONTINUOUS
100
AcDbLine
 10
23.54540330801128
 20
5.47404758994289
 30
0.0
 11
22.46969612849353
 21
6.549754769460635
 31
0.0
  0
LINE
  5
A3D32
330
A3CF5
100
AcDbEntity
  8
0
  6
CONTINUOUS
100
AcDbLine
 10
29.40349360806839
 20
0.2894764989659606
 30
0.0
 11
28.30987010704312
 21
1.383099999991234
 31
0.0
  0
LINE
  5
A3D33
330
A3CF5
100
AcDbEntity
  8
0
  6
CONTINUOUS
100
AcDbLine
 10
25.89179548232307
 20
3.801174624711282
 30
0.0
 11
22.67789923396416
 21
7.015070873070191
 31
0.0
  0
LINE
  5
A3D34
330
A3CF5
100
AcDbEntity
  8
0
  6
CONTINUOUS
100
AcDbLine
 10
29.83195328664716
 20
0.5345360294673855
 30
0.0
 11
28.85740608974929
 21
1.50908322636525
 31
0.0
  0
LINE
  5
A3D35
330
A3CF5
100
AcDbEntity
  8
0
  6
CONTINUOUS
100
AcDbLine
 10
25.34654446954838
 20
5.01994484656616
 30
0.0
 11
22.88610233943479
 21
7.480386976679748
 31
0.0
  0
LINE
  5
A3D36
330
A3CF5
100
AcDbEntity
  8
0
  6
CONTINUOUS
100
AcDbLine
 10
30.16871289118725
 20
0.8712956340074771
 30
0.0
 11
29.18680861743091
 21
1.853199907763824
 31
0.0
  0
LINE
  5
A3D37
330
A3CF5
100
AcDbEntity
  8
0
  6
CONTINUOUS
100
AcDbLine
 10
24.80129345677369
 20
6.238715068421037
 30
0.0
 11
23.09430544490542
 21
7.945703080289305
 31
0.0
  0
LINE
  5
A3D38
330
A3CF5
100
AcDbEntity
  8
0
  6
CONTINUOUS
100
AcDbLine
 10
30.43711825255073
 20
1.276409481724182
 30
0.0
 11
29.30199999996933
 21
2.411527734305588
 31
0.0
  0
LINE
  5
A3D39
330
A3CF5
100
AcDbEntity
  8
0
  6
CONTINUOUS
100
AcDbLine
 10
24.256042443999
 20
7.457485290275915
 30
0.0
 11
23.30250855037605
 21
8.411019183898862
 31
0.0
  0
LINE
  5
A3D3A
330
A3CF5
100
AcDbEntity
  8
0
  6
CONTINUOUS
100
AcDbLine
 10
30.6424542258006
 20
1.744592717554502
 30
0.0
 11
29.30199999996933
 21
3.085046943385775
 31
0.0
  0
LINE
  5
A3D3B
330
A3CF5
100
AcDbEntity
  8
0
  6
CONTINUOUS
100
AcDbLine
 10
23.71079143122431
 20
8.676255512130794
 30
0.0
 11
23.51071165584668
 21
8.876335287508416
 31
0.0
  0
LINE
  5
A3D3C
330
A3CF5
100
AcDbEntity
  8
0
  6
CONTINUOUS
100
AcDbLine
 10
30.73454365592805
 20
2.326022496507238
 30
0.0
 11
29.30199999996933
 21
3.758566152465961
 31
0.0
  0
LINE
  5
A3D3D
330
A3CF5
100
AcDbEntity
  8
0
  6
CONTINUOUS
100
AcDbLine
 10
30.74199999996924
 20
2.992085361546236
 30
0.0
 11
29.30199999996933
 21
4.432085361546148
 31
0.0
  0
LINE
  5
A3D3E
330
A3CF5
100
AcDbEntity
  8
0
  6
CONTINUOUS
100
AcDbLine
 10
30.74199999996924
 20
3.665604570626419
 30
0.0
 11
29.30199999996933
 21
5.105604570626333
 31
0.0
  0
LINE
  5
A3D3F
330
A3CF5
100
AcDbEntity
  8
0
  6
CONTINUOUS
100
AcDbLine
 10
30.74199999996925
 20
4.339123779706602
 30
0.0
 11
29.30199999996933
 21
5.77912377970652
 31
0.0
  0
LINE
  5
A3D40
330
A3CF5
100
AcDbEntity
  8
0
  6
CONTINUOUS
100
AcDbLine
 10
30.74199999996925
 20
5.012642988786785
 30
0.0
 11
29.30199999996933
 21
6.452642988786707
 31
0.0
  0
LINE
  5
A3D41
330
A3CF5
100
AcDbEntity
  8
0
  6
CONTINUOUS
100
AcDbLine
 10
30.74199999996925
 20
5.68616219786697
 30
0.0
 11
29.30199999996933
 21
7.126162197866894
 31
0.0
  0
LINE
  5
A3D42
330
A3CF5
100
AcDbEntity
  8
0
  6
CONTINUOUS
100
AcDbLine
 10
30.74199999996925
 20
6.359681406947153
 30
0.0
 11
29.30199999996933
 21
7.799681406947081
 31
0.0
  0
LINE
  5
A3D43
330
A3CF5
100
AcDbEntity
  8
0
  6
CONTINUOUS
100
AcDbLine
 10
30.74199999996926
 20
7.033200616027337
 30
0.0
 11
29.30199999996933
 21
8.473200616027269
 31
0.0
  0
LINE
  5
A3D44
330
A3CF5
100
AcDbEntity
  8
0
  6
CONTINUOUS
100
AcDbLine
 10
30.74199999996926
 20
7.706719825107518
 30
0.0
 11
29.68561982508552
 21
8.763099999991255
 31
0.0
  0
LINE
  5
A3D45
330
A3CF5
100
AcDbEntity
  8
0
  6
CONTINUOUS
100
AcDbLine
 10
30.74199999996926
 20
8.380239034187703
 30
0.0
 11
30.35913903416571
 21
8.763099999991255
 31
0.0
  0
ENDBLK
  5
A3DE8
330
A3CF5
100
AcDbEntity
  8
0
100
AcDbBlockEnd
  0
BLOCK
  5
A3DE9
330
A3D46
100
AcDbEntity
  8
0
100
AcDbBlockBegin
  2
*X187
 70
     1
 10
0.0
 20
0.0
 30
0.0
  3
*X187
  1

  0
LINE
  5
A3D47
330
A3D46
100
AcDbEntity
  8
0
  6
CONTINUOUS
100
AcDbLine
 10
31.64199999996833
 20
8.5350582899136
 30
0.0
 11
31.87004171004599
 21
8.763099999991255
 31
0.0
  0
LINE
  5
A3D48
330
A3D46
100
AcDbEntity
  8
0
  6
CONTINUOUS
100
AcDbLine
 10
31.64199999996833
 20
7.861539080833413
 30
0.0
 11
32.54356091912618
 21
8.763099999991255
 31
0.0
  0
LINE
  5
A3D49
330
A3D46
100
AcDbEntity
  8
0
  6
CONTINUOUS
100
AcDbLine
 10
31.64199999996833
 20
7.188019871753227
 30
0.0
 11
33.08199999996839
 21
8.628019871753281
 31
0.0
  0
LINE
  5
A3D4A
330
A3D46
100
AcDbEntity
  8
0
  6
CONTINUOUS
100
AcDbLine
 10
31.64199999996833
 20
6.514500662673041
 30
0.0
 11
33.08199999996839
 21
7.954500662673095
 31
0.0
  0
LINE
  5
A3D4B
330
A3D46
100
AcDbEntity
  8
0
  6
CONTINUOUS
100
AcDbLine
 10
31.64199999996833
 20
5.840981453592855
 30
0.0
 11
33.08199999996839
 21
7.28098145359291
 31
0.0
  0
LINE
  5
A3D4C
330
A3D46
100
AcDbEntity
  8
0
  6
CONTINUOUS
100
AcDbLine
 10
31.64199999996833
 20
5.167462244512668
 30
0.0
 11
33.08199999996839
 21
6.607462244512723
 31
0.0
  0
LINE
  5
A3D4D
330
A3D46
100
AcDbEntity
  8
0
  6
CONTINUOUS
100
AcDbLine
 10
31.64199999996833
 20
4.493943035432482
 30
0.0
 11
33.08199999996839
 21
5.933943035432536
 31
0.0
  0
LINE
  5
A3D4E
330
A3D46
100
AcDbEntity
  8
0
  6
CONTINUOUS
100
AcDbLine
 10
31.64199999996833
 20
3.820423826352294
 30
0.0
 11
33.08199999996839
 21
5.260423826352349
 31
0.0
  0
LINE
  5
A3D4F
330
A3D46
100
AcDbEntity
  8
0
  6
CONTINUOUS
100
AcDbLine
 10
31.64199999996833
 20
3.146904617272108
 30
0.0
 11
33.08199999996839
 21
4.586904617272163
 31
0.0
  0
LINE
  5
A3D50
330
A3D46
100
AcDbEntity
  8
0
  6
CONTINUOUS
100
AcDbLine
 10
36.23199999996837
 20
8.410423826352327
 30
0.0
 11
36.58467617360729
 21
8.763099999991255
 31
0.0
  0
LINE
  5
A3D51
330
A3D46
100
AcDbEntity
  8
0
  6
CONTINUOUS
100
AcDbLine
 10
36.23199999996837
 20
7.73690461727214
 30
0.0
 11
37.25819538268748
 21
8.763099999991255
 31
0.0
  0
LINE
  5
A3D52
330
A3D46
100
AcDbEntity
  8
0
  6
CONTINUOUS
100
AcDbLine
 10
31.64295791647285
 20
2.474343324696431
 30
0.0
 11
33.08199999996839
 21
3.913385408191976
 31
0.0
  0
LINE
  5
A3D53
330
A3D46
100
AcDbEntity
  8
0
  6
CONTINUOUS
100
AcDbLine
 10
31.72131278798881
 20
1.879178987132208
 30
0.0
 11
33.08199999996839
 21
3.239866199111789
 31
0.0
  0
LINE
  5
A3D54
330
A3D46
100
AcDbEntity
  8
0
  6
CONTINUOUS
100
AcDbLine
 10
36.23199999996837
 20
7.063385408191953
 30
0.0
 11
37.67199999996831
 21
8.503385408191894
 31
0.0
  0
LINE
  5
A3D55
330
A3D46
100
AcDbEntity
  8
0
  6
CONTINUOUS
100
AcDbLine
 10
36.23199999996837
 20
6.389866199111767
 30
0.0
 11
37.67199999996831
 21
7.829866199111708
 31
0.0
  0
LINE
  5
A3D56
330
A3D46
100
AcDbEntity
  8
0
  6
CONTINUOUS
100
AcDbLine
 10
31.90398109638795
 20
1.388328086451165
 30
0.0
 11
33.08199999996839
 21
2.566346990031603
 31
0.0
  0
LINE
  5
A3D57
330
A3D46
100
AcDbEntity
  8
0
  6
CONTINUOUS
100
AcDbLine
 10
36.23199999996837
 20
5.71634699003158
 30
0.0
 11
37.67199999996831
 21
7.156346990031522
 31
0.0
  0
LINE
  5
A3D58
330
A3D46
100
AcDbEntity
  8
0
  6
CONTINUOUS
100
AcDbLine
 10
32.15410588803598
 20
0.9649336690190076
 30
0.0
 11
33.19577568229511
 21
2.006603463278144
 31
0.0
  0
LINE
  5
A3D59
330
A3D46
100
AcDbEntity
  8
0
  6
CONTINUOUS
100
AcDbLine
 10
36.23199999996837
 20
5.042827780951393
 30
0.0
 11
37.67199999996831
 21
6.482827780951334
 31
0.0
  0
LINE
  5
A3D5A
330
A3D46
100
AcDbEntity
  8
0
  6
CONTINUOUS
100
AcDbLine
 10
32.45868320364774
 20
0.5959917755505852
 30
0.0
 11
33.48433514284099
 21
1.621643714743831
 31
0.0
  0
LINE
  5
A3D5B
330
A3D46
100
AcDbEntity
  8
0
  6
CONTINUOUS
100
AcDbLine
 10
36.23199999996837
 20
4.369308571871207
 30
0.0
 11
37.67199999996831
 21
5.809308571871148
 31
0.0
  0
LINE
  5
A3D5C
330
A3D46
100
AcDbEntity
  8
0
  6
CONTINUOUS
100
AcDbLine
 10
32.83977805121244
 20
0.3035674140350983
 30
0.0
 11
33.9144983171802
 21
1.378287680002859
 31
0.0
  0
LINE
  5
A3D5D
330
A3D46
100
AcDbEntity
  8
0
  6
CONTINUOUS
100
AcDbLine
 10
36.23199999996837
 20
3.695789362791021
 30
0.0
 11
37.67199999996831
 21
5.135789362790963
 31
0.0
  0
LINE
  5
A3D5E
330
A3D46
100
AcDbEntity
  8
0
  6
CONTINUOUS
100
AcDbLine
 10
33.28925592101007
 20
0.0795260747525335
 30
0.0
 11
34.4429104952855
 21
1.233180649027971
 31
0.0
  0
LINE
  5
A3D5F
330
A3D46
100
AcDbEntity
  8
0
  6
CONTINUOUS
100
AcDbLine
 10
36.23199999996837
 20
3.022270153710834
 30
0.0
 11
37.67199999996831
 21
4.462270153710776
 31
0.0
  0
LINE
  5
A3D60
330
A3D46
100
AcDbEntity
  8
0
  6
CONTINUOUS
100
AcDbLine
 10
33.76550592101022
 20
-0.1177431343275011
 30
0.0
 11
35.18258581678813
 21
1.299336761450407
 31
0.0
  0
LINE
  5
A3D61
330
A3D46
100
AcDbEntity
  8
0
  6
CONTINUOUS
100
AcDbLine
 10
36.20355631289775
 20
2.320307257560033
 30
0.0
 11
37.67199999996831
 21
3.788750944630589
 31
0.0
  0
LINE
  5
A3D62
330
A3D46
100
AcDbEntity
  8
0
  6
CONTINUOUS
100
AcDbLine
 10
34.35908899259119
 20
-0.1976792718267175
 30
0.0
 11
37.67199999996831
 21
3.115231735550402
 31
0.0
  0
LINE
  5
A3D63
330
A3D46
100
AcDbEntity
  8
0
  6
CONTINUOUS
100
AcDbLine
 10
35.04438808203069
 20
-0.1858993914674008
 30
0.0
 11
37.66594960818956
 21
2.435662134691464
 31
0.0
  0
LINE
  5
A3D64
330
A3D46
100
AcDbEntity
  8
0
  6
CONTINUOUS
100
AcDbLine
 10
35.95405053101277
 20
0.0502438484344916
 30
0.0
 11
37.49337557446166
 21
1.589568891883381
 31
0.0
  0
LINE
  5
A3D65
330
A3D46
100
AcDbEntity
  8
0
  6
CONTINUOUS
100
AcDbLine
 10
32.48400274193772
 20
0.5765634104975641
 30
0.0
 11
32.34694398754057
 21
0.7136221648947103
 31
0.0
  0
LINE
  5
A3D66
330
A3D46
100
AcDbEntity
  8
0
  6
CONTINUOUS
100
AcDbLine
 10
33.86697683926317
 20
-0.1328914777477044
 30
0.0
 11
31.70105830546678
 21
2.033027056048692
 31
0.0
  0
LINE
  5
A3D67
330
A3D46
100
AcDbEntity
  8
0
  6
CONTINUOUS
100
AcDbLine
 10
34.64261010498837
 20
-0.2350055343927187
 30
0.0
 11
31.64199999996833
 21
2.765604570627322
 31
0.0
  0
LINE
  5
A3D68
330
A3D46
100
AcDbEntity
  8
0
  6
CONTINUOUS
100
AcDbLine
 10
35.24112258276081
 20
-0.1599988030849646
 30
0.0
 11
31.64199999996833
 21
3.439123779707508
 31
0.0
  0
LINE
  5
A3D69
330
A3D46
100
AcDbEntity
  8
0
  6
CONTINUOUS
100
AcDbLine
 10
35.777520339722
 20
-0.0228773509659694
 30
0.0
 11
34.52146233972803
 21
1.233180649027998
 31
0.0
  0
LINE
  5
A3D6A
330
A3D46
100
AcDbEntity
  8
0
  6
CONTINUOUS
100
AcDbLine
 10
33.08199999996839
 20
2.672642988787641
 30
0.0
 11
31.64199999996833
 21
4.112642988787695
 31
0.0
  0
LINE
  5
A3D6B
330
A3D46
100
AcDbEntity
  8
0
  6
CONTINUOUS
100
AcDbLine
 10
36.25377033972294
 20
0.1743918581132773
 30
0.0
 11
35.14317118804349
 21
1.284991009792725
 31
0.0
  0
LINE
  5
A3D6C
330
A3D46
100
AcDbEntity
  8
0
  6
CONTINUOUS
100
AcDbLine
 10
33.08199999996839
 20
3.346162197867827
 30
0.0
 11
31.64199999996833
 21
4.786162197867881
 31
0.0
  0
LINE
  5
A3D6D
330
A3D46
100
AcDbEntity
  8
0
  6
CONTINUOUS
100
AcDbLine
 10
36.65748856908375
 20
0.4441928378326456
 30
0.0
 11
35.63696437513804
 21
1.464717031778358
 31
0.0
  0
LINE
  5
A3D6E
330
A3D46
100
AcDbEntity
  8
0
  6
CONTINUOUS
100
AcDbLine
 10
33.08199999996839
 20
4.019681406948013
 30
0.0
 11
31.64199999996833
 21
5.459681406948068
 31
0.0
  0
LINE
  5
A3D6F
330
A3D46
100
AcDbEntity
  8
0
  6
CONTINUOUS
100
AcDbLine
 10
37.00809517418186
 20
0.7671054418147287
 30
0.0
 11
35.99025189342645
 21
1.784948722570141
 31
0.0
  0
LINE
  5
A3D70
330
A3D46
100
AcDbEntity
  8
0
  6
CONTINUOUS
100
AcDbLine
 10
33.08199999996839
 20
4.6932006160282
 30
0.0
 11
31.64199999996833
 21
6.133200616028255
 31
0.0
  0
LINE
  5
A3D71
330
A3D46
100
AcDbEntity
  8
0
  6
CONTINUOUS
100
AcDbLine
 10
37.30051953569851
 20
1.148200289378269
 30
0.0
 11
36.19229254868971
 21
2.256427276387067
 31
0.0
  0
LINE
  5
A3D72
330
A3D46
100
AcDbEntity
  8
0
  6
CONTINUOUS
100
AcDbLine
 10
33.08199999996839
 20
5.366719825108387
 30
0.0
 11
31.64199999996833
 21
6.806719825108441
 31
0.0
  0
LINE
  5
A3D73
330
A3D46
100
AcDbEntity
  8
0
  6
CONTINUOUS
100
AcDbLine
 10
37.50488468691001
 20
1.617354347246954
 30
0.0
 11
36.23199999996837
 21
2.890239034188595
 31
0.0
  0
LINE
  5
A3D74
330
A3D46
100
AcDbEntity
  8
0
  6
CONTINUOUS
100
AcDbLine
 10
33.08199999996839
 20
6.040239034188573
 30
0.0
 11
31.64199999996833
 21
7.480239034188628
 31
0.0
  0
LINE
  5
A3D75
330
A3D46
100
AcDbEntity
  8
0
  6
CONTINUOUS
100
AcDbLine
 10
37.63036768068979
 20
2.165390562547355
 30
0.0
 11
36.23199999996837
 21
3.563758243268782
 31
0.0
  0
LINE
  5
A3D76
330
A3D46
100
AcDbEntity
  8
0
  6
CONTINUOUS
100
AcDbLine
 10
33.08199999996839
 20
6.713758243268759
 30
0.0
 11
31.64199999996833
 21
8.153758243268815
 31
0.0
  0
LINE
  5
A3D77
330
A3D46
100
AcDbEntity
  8
0
  6
CONTINUOUS
100
AcDbLine
 10
37.67199999996831
 20
2.797277452349027
 30
0.0
 11
36.23199999996837
 21
4.237277452348969
 31
0.0
  0
LINE
  5
A3D78
330
A3D46
100
AcDbEntity
  8
0
  6
CONTINUOUS
100
AcDbLine
 10
37.67199999996831
 20
3.470796661429214
 30
0.0
 11
36.23199999996837
 21
4.910796661429155
 31
0.0
  0
LINE
  5
A3D79
330
A3D46
100
AcDbEntity
  8
0
  6
CONTINUOUS
100
AcDbLine
 10
37.67199999996831
 20
4.1443158705094
 30
0.0
 11
36.23199999996837
 21
5.584315870509341
 31
0.0
  0
LINE
  5
A3D7A
330
A3D46
100
AcDbEntity
  8
0
  6
CONTINUOUS
100
AcDbLine
 10
33.08199999996839
 20
7.387277452348947
 30
0.0
 11
31.70617745232608
 21
8.763099999991255
 31
0.0
  0
LINE
  5
A3D7B
330
A3D46
100
AcDbEntity
  8
0
  6
CONTINUOUS
100
AcDbLine
 10
33.08199999996839
 20
8.060796661429134
 30
0.0
 11
32.37969666140626
 21
8.763099999991255
 31
0.0
  0
LINE
  5
A3D7C
330
A3D46
100
AcDbEntity
  8
0
  6
CONTINUOUS
100
AcDbLine
 10
33.08199999996839
 20
8.73431587050932
 30
0.0
 11
33.05321587048645
 21
8.763099999991255
 31
0.0
  0
LINE
  5
A3D7D
330
A3D46
100
AcDbEntity
  8
0
  6
CONTINUOUS
100
AcDbLine
 10
37.67199999996831
 20
4.817835079589587
 30
0.0
 11
36.23199999996837
 21
6.257835079589528
 31
0.0
  0
LINE
  5
A3D7E
330
A3D46
100
AcDbEntity
  8
0
  6
CONTINUOUS
100
AcDbLine
 10
37.67199999996831
 20
5.491354288669773
 30
0.0
 11
36.23199999996837
 21
6.931354288669715
 31
0.0
  0
LINE
  5
A3D7F
330
A3D46
100
AcDbEntity
  8
0
  6
CONTINUOUS
100
AcDbLine
 10
37.67199999996831
 20
6.164873497749959
 30
0.0
 11
36.23199999996837
 21
7.6048734977499
 31
0.0
  0
LINE
  5
A3D80
330
A3D46
100
AcDbEntity
  8
0
  6
CONTINUOUS
100
AcDbLine
 10
37.67199999996831
 20
6.838392706830145
 30
0.0
 11
36.23199999996837
 21
8.278392706830086
 31
0.0
  0
LINE
  5
A3D81
330
A3D46
100
AcDbEntity
  8
0
  6
CONTINUOUS
100
AcDbLine
 10
37.67199999996831
 20
7.511911915910333
 30
0.0
 11
36.42081191588738
 21
8.763099999991255
 31
0.0
  0
LINE
  5
A3D82
330
A3D46
100
AcDbEntity
  8
0
  6
CONTINUOUS
100
AcDbLine
 10
37.67199999996831
 20
8.18543112499052
 30
0.0
 11
37.09433112496757
 21
8.763099999991255
 31
0.0
  0
ENDBLK
  5
A3DEA
330
A3D46
100
AcDbEntity
  8
0
100
AcDbBlockEnd
  0
BLOCK
  5
A3DEB
330
A3D83
100
AcDbEntity
  8
0
100
AcDbBlockBegin
  2
*X188
 70
     1
 10
0.0
 20
0.0
 30
0.0
  3
*X188
  1

  0
LINE
  5
A3D84
330
A3D83
100
AcDbEntity
  8
0
  6
CONTINUOUS
100
AcDbLine
 10
38.60499999996136
 20
8.762866199104765
 30
0.0
 11
38.71672554182345
 21
8.874591740966855
 31
0.0
  0
LINE
  5
A3D85
330
A3D83
100
AcDbEntity
  8
0
  6
CONTINUOUS
100
AcDbLine
 10
38.60499999996136
 20
8.089346990024577
 30
0.0
 11
39.03418785440363
 21
8.518534844466847
 31
0.0
  0
LINE
  5
A3D86
330
A3D83
100
AcDbEntity
  8
0
  6
CONTINUOUS
100
AcDbLine
 10
38.60499999996136
 20
7.41582778094439
 30
0.0
 11
39.35165016698382
 21
8.16247794796684
 31
0.0
  0
LINE
  5
A3D87
330
A3D83
100
AcDbEntity
  8
0
  6
CONTINUOUS
100
AcDbLine
 10
38.60499999996136
 20
6.742308571864204
 30
0.0
 11
39.66911247956399
 21
7.806421051466834
 31
0.0
  0
LINE
  5
A3D88
330
A3D83
100
AcDbEntity
  8
0
  6
CONTINUOUS
100
AcDbLine
 10
38.60499999996136
 20
6.068789362784018
 30
0.0
 11
39.98657479214418
 21
7.450364154966827
 31
0.0
  0
LINE
  5
A3D89
330
A3D83
100
AcDbEntity
  8
0
  6
CONTINUOUS
100
AcDbLine
 10
38.60499999996136
 20
5.395270153703832
 30
0.0
 11
40.30403710472435
 21
7.09430725846682
 31
0.0
  0
LINE
  5
A3D8A
330
A3D83
100
AcDbEntity
  8
0
  6
CONTINUOUS
100
AcDbLine
 10
38.60499999996136
 20
4.721750944623645
 30
0.0
 11
40.62149941730453
 21
6.738250361966813
 31
0.0
  0
LINE
  5
A3D8B
330
A3D83
100
AcDbEntity
  8
0
  6
CONTINUOUS
100
AcDbLine
 10
38.60499999996136
 20
4.048231735543458
 30
0.0
 11
40.93896172988471
 21
6.382193465466806
 31
0.0
  0
LINE
  5
A3D8C
330
A3D83
100
AcDbEntity
  8
0
  6
CONTINUOUS
100
AcDbLine
 10
38.60499999996136
 20
3.374712526463272
 30
0.0
 11
40.02599999995994
 21
4.795712526461843
 31
0.0
  0
LINE
  5
A3D8D
330
A3D83
100
AcDbEntity
  8
0
  6
CONTINUOUS
100
AcDbLine
 10
38.60499999996136
 20
2.701193317383085
 30
0.0
 11
40.02599999995994
 21
4.122193317381657
 31
0.0
  0
LINE
  5
A3D8E
330
A3D83
100
AcDbEntity
  8
0
  6
CONTINUOUS
100
AcDbLine
 10
40.28339754687704
 20
5.053110073378947
 30
0.0
 11
41.25642404246489
 21
6.026136568966799
 31
0.0
  0
LINE
  5
A3D8F
330
A3D83
100
AcDbEntity
  8
0
  6
CONTINUOUS
100
AcDbLine
 10
40.60085985945722
 20
4.697053176878939
 30
0.0
 11
41.57388635504507
 21
5.670079672466793
 31
0.0
  0
LINE
  5
A3D90
330
A3D83
100
AcDbEntity
  8
0
  6
CONTINUOUS
100
AcDbLine
 10
43.57899999995641
 20
8.348712526458318
 30
0.0
 11
43.99338747348935
 21
8.763099999991255
 31
0.0
  0
LINE
  5
A3D91
330
A3D83
100
AcDbEntity
  8
0
  6
CONTINUOUS
100
AcDbLine
 10
43.57899999995641
 20
7.675193317378131
 30
0.0
 11
44.66690668256953
 21
8.763099999991255
 31
0.0
  0
LINE
  5
A3D92
330
A3D83
100
AcDbEntity
  8
0
  6
CONTINUOUS
100
AcDbLine
 10
38.60499999996136
 20
2.027674108302898
 30
0.0
 11
40.02599999995994
 21
3.44867410830147
 31
0.0
  0
LINE
  5
A3D93
330
A3D83
100
AcDbEntity
  8
0
  6
CONTINUOUS
100
AcDbLine
 10
38.60499999996136
 20
1.354154899222712
 30
0.0
 11
40.02599999995994
 21
2.775154899221284
 31
0.0
  0
LINE
  5
A3D94
330
A3D83
100
AcDbEntity
  8
0
  6
CONTINUOUS
100
AcDbLine
 10
38.60499999996136
 20
0.6806356901425255
 30
0.0
 11
40.02599999995994
 21
2.101635690141098
 31
0.0
  0
LINE
  5
A3D95
330
A3D83
100
AcDbEntity
  8
0
  6
CONTINUOUS
100
AcDbLine
 10
38.60499999996136
 20
0.0071164810623383
 30
0.0
 11
40.02599999995994
 21
1.428116481060911
 31
0.0
  0
LINE
  5
A3D96
330
A3D83
100
AcDbEntity
  8
0
  6
CONTINUOUS
100
AcDbLine
 10
40.9183221720374
 20
4.340996280378933
 30
0.0
 11
41.89134866762525
 21
5.314022775966786
 31
0.0
  0
LINE
  5
A3D97
330
A3D83
100
AcDbEntity
  8
0
  6
CONTINUOUS
100
AcDbLine
 10
41.23578448461758
 20
3.984939383878926
 30
0.0
 11
42.20881098020543
 21
4.957965879466778
 31
0.0
  0
LINE
  5
A3D98
330
A3D83
100
AcDbEntity
  8
0
  6
CONTINUOUS
100
AcDbLine
 10
41.55324679719776
 20
3.628882487378919
 30
0.0
 11
42.52627329278561
 21
4.601908982966772
 31
0.0
  0
LINE
  5
A3D99
330
A3D83
100
AcDbEntity
  8
0
  6
CONTINUOUS
100
AcDbLine
 10
41.87070910977793
 20
3.272825590878912
 30
0.0
 11
42.84373560536579
 21
4.245852086466765
 31
0.0
  0
LINE
  5
A3D9A
330
A3D83
100
AcDbEntity
  8
0
  6
CONTINUOUS
100
AcDbLine
 10
43.57899999995641
 20
7.001674108297943
 30
0.0
 11
44.99999999995498
 21
8.422674108296516
 31
0.0
  0
LINE
  5
A3D9B
330
A3D83
100
AcDbEntity
  8
0
  6
CONTINUOUS
100
AcDbLine
 10
43.57899999995641
 20
6.328154899217758
 30
0.0
 11
44.99999999995498
 21
7.749154899216329
 31
0.0
  0
LINE
  5
A3D9C
330
A3D83
100
AcDbEntity
  8
0
  6
CONTINUOUS
100
AcDbLine
 10
43.57899999995641
 20
5.654635690137571
 30
0.0
 11
44.99999999995498
 21
7.075635690136142
 31
0.0
  0
LINE
  5
A3D9D
330
A3D83
100
AcDbEntity
  8
0
  6
CONTINUOUS
100
AcDbLine
 10
43.57899999995641
 20
4.981116481057384
 30
0.0
 11
44.99999999995498
 21
6.402116481055955
 31
0.0
  0
LINE
  5
A3D9E
330
A3D83
100
AcDbEntity
  8
0
  6
CONTINUOUS
100
AcDbLine
 10
39.27140272797921
 20
-0.0000000000000009
 30
0.0
 11
40.02599999995994
 21
0.7545972719807246
 31
0.0
  0
LINE
  5
A3D9F
330
A3D83
100
AcDbEntity
  8
0
  6
CONTINUOUS
100
AcDbLine
 10
39.9449219370594
 20
-0.0000000000000009
 30
0.0
 11
40.02599999995994
 21
0.0810780629005379
 31
0.0
  0
LINE
  5
A3DA0
330
A3D83
100
AcDbEntity
  8
0
  6
CONTINUOUS
100
AcDbLine
 10
42.18817142235812
 20
2.916768694378905
 30
0.0
 11
43.16119791794597
 21
3.889795189966758
 31
0.0
  0
LINE
  5
A3DA1
330
A3D83
100
AcDbEntity
  8
0
  6
CONTINUOUS
100
AcDbLine
 10
42.50563373493829
 20
2.560711797878898
 30
0.0
 11
43.47866023052615
 21
3.533738293466751
 31
0.0
  0
LINE
  5
A3DA2
330
A3D83
100
AcDbEntity
  8
0
  6
CONTINUOUS
100
AcDbLine
 10
43.57899999995641
 20
4.307597271977198
 30
0.0
 11
44.99999999995498
 21
5.728597271975769
 31
0.0
  0
LINE
  5
A3DA3
330
A3D83
100
AcDbEntity
  8
0
  6
CONTINUOUS
100
AcDbLine
 10
43.57899999995641
 20
3.634078062897011
 30
0.0
 11
44.99999999995498
 21
5.055078062895582
 31
0.0
  0
LINE
  5
A3DA4
330
A3D83
100
AcDbEntity
  8
0
  6
CONTINUOUS
100
AcDbLine
 10
42.82309604751848
 20
2.204654901378891
 30
0.0
 11
44.99999999995498
 21
4.381558853815395
 31
0.0
  0
LINE
  5
A3DA5
330
A3D83
100
AcDbEntity
  8
0
  6
CONTINUOUS
100
AcDbLine
 10
43.14055836009865
 20
1.848598004878885
 30
0.0
 11
44.99999999995498
 21
3.70803964473521
 31
0.0
  0
LINE
  5
A3DA6
330
A3D83
100
AcDbEntity
  8
0
  6
CONTINUOUS
100
AcDbLine
 10
43.45802067267883
 20
1.492541108378878
 30
0.0
 11
44.99999999995498
 21
3.034520435655023
 31
0.0
  0
LINE
  5
A3DA7
330
A3D83
100
AcDbEntity
  8
0
  6
CONTINUOUS
100
AcDbLine
 10
43.77548298525902
 20
1.136484211878871
 30
0.0
 11
44.99999999995498
 21
2.361001226574837
 31
0.0
  0
LINE
  5
A3DA8
330
A3D83
100
AcDbEntity
  8
0
  6
CONTINUOUS
100
AcDbLine
 10
44.09294529783919
 20
0.7804273153788639
 30
0.0
 11
44.99999999995498
 21
1.687482017494649
 31
0.0
  0
LINE
  5
A3DA9
330
A3D83
100
AcDbEntity
  8
0
  6
CONTINUOUS
100
AcDbLine
 10
44.41040761041938
 20
0.4243704188788566
 30
0.0
 11
44.99999999995498
 21
1.013962808414463
 31
0.0
  0
LINE
  5
A3DAA
330
A3D83
100
AcDbEntity
  8
0
  6
CONTINUOUS
100
AcDbLine
 10
44.72786992299955
 20
0.0683135223788494
 30
0.0
 11
44.99999999995498
 21
0.340443599334276
 31
0.0
  0
LINE
  5
A3DAB
330
A3D83
100
AcDbEntity
  8
0
  6
CONTINUOUS
100
AcDbLine
 10
39.12223903415696
 20
-0.0000000000000009
 30
0.0
 11
38.60499999996136
 21
0.5172390341955961
 31
0.0
  0
LINE
  5
A3DAC
330
A3D83
100
AcDbEntity
  8
0
  6
CONTINUOUS
100
AcDbLine
 10
39.79575824323715
 20
-0.0000000000000009
 30
0.0
 11
38.60499999996136
 21
1.190758243275783
 31
0.0
  0
LINE
  5
A3DAD
330
A3D83
100
AcDbEntity
  8
0
  6
CONTINUOUS
100
AcDbLine
 10
40.02599999995994
 20
0.443277452357397
 30
0.0
 11
38.60499999996136
 21
1.864277452355969
 31
0.0
  0
LINE
  5
A3DAE
330
A3D83
100
AcDbEntity
  8
0
  6
CONTINUOUS
100
AcDbLine
 10
40.02599999995994
 20
1.116796661437583
 30
0.0
 11
38.60499999996136
 21
2.537796661436155
 31
0.0
  0
LINE
  5
A3DAF
330
A3D83
100
AcDbEntity
  8
0
  6
CONTINUOUS
100
AcDbLine
 10
40.02599999995994
 20
1.79031587051777
 30
0.0
 11
38.60499999996136
 21
3.211315870516341
 31
0.0
  0
LINE
  5
A3DB0
330
A3D83
100
AcDbEntity
  8
0
  6
CONTINUOUS
100
AcDbLine
 10
40.02599999995994
 20
2.463835079597956
 30
0.0
 11
38.60499999996136
 21
3.884835079596527
 31
0.0
  0
LINE
  5
A3DB1
330
A3D83
100
AcDbEntity
  8
0
  6
CONTINUOUS
100
AcDbLine
 10
40.02599999995994
 20
3.137354288678143
 30
0.0
 11
38.60499999996136
 21
4.558354288676714
 31
0.0
  0
LINE
  5
A3DB2
330
A3D83
100
AcDbEntity
  8
0
  6
CONTINUOUS
100
AcDbLine
 10
40.02599999995994
 20
3.810873497758329
 30
0.0
 11
38.60499999996136
 21
5.2318734977569
 31
0.0
  0
LINE
  5
A3DB3
330
A3D83
100
AcDbEntity
  8
0
  6
CONTINUOUS
100
AcDbLine
 10
40.02599999995994
 20
4.484392706838515
 30
0.0
 11
38.60499999996136
 21
5.905392706837086
 31
0.0
  0
LINE
  5
A3DB4
330
A3D83
100
AcDbEntity
  8
0
  6
CONTINUOUS
100
AcDbLine
 10
44.99999999995498
 20
0.183911915923658
 30
0.0
 11
41.53858364506288
 21
3.64532827081576
 31
0.0
  0
LINE
  5
A3DB5
330
A3D83
100
AcDbEntity
  8
0
  6
CONTINUOUS
100
AcDbLine
 10
40.02599999995994
 20
5.157911915918703
 30
0.0
 11
38.60499999996136
 21
6.578911915917274
 31
0.0
  0
LINE
  5
A3DB6
330
A3D83
100
AcDbEntity
  8
0
  6
CONTINUOUS
100
AcDbLine
 10
44.99999999995498
 20
0.8574311250038447
 30
0.0
 11
38.60499999996136
 21
7.25243112499746
 31
0.0
  0
LINE
  5
A3DB7
330
A3D83
100
AcDbEntity
  8
0
  6
CONTINUOUS
100
AcDbLine
 10
44.99999999995498
 20
1.530950334084031
 30
0.0
 11
38.60499999996136
 21
7.925950334077647
 31
0.0
  0
LINE
  5
A3DB8
330
A3D83
100
AcDbEntity
  8
0
  6
CONTINUOUS
100
AcDbLine
 10
44.99999999995498
 20
2.204469543164218
 30
0.0
 11
43.57899999995641
 21
3.625469543162789
 31
0.0
  0
LINE
  5
A3DB9
330
A3D83
100
AcDbEntity
  8
0
  6
CONTINUOUS
100
AcDbLine
 10
41.89876730984767
 20
5.305702233271528
 30
0.0
 11
38.60499999996136
 21
8.599469543157834
 31
0.0
  0
LINE
  5
A3DBA
330
A3D83
100
AcDbEntity
  8
0
  6
CONTINUOUS
100
AcDbLine
 10
44.99999999995498
 20
2.877988752244405
 30
0.0
 11
43.57899999995641
 21
4.298988752242975
 31
0.0
  0
LINE
  5
A3DBB
330
A3D83
100
AcDbEntity
  8
0
  6
CONTINUOUS
100
AcDbLine
 10
44.99999999995498
 20
3.551507961324591
 30
0.0
 11
43.57899999995641
 21
4.972507961323163
 31
0.0
  0
LINE
  5
A3DBC
330
A3D83
100
AcDbEntity
  8
0
  6
CONTINUOUS
100
AcDbLine
 10
44.99999999995498
 20
4.225027170404777
 30
0.0
 11
43.57899999995641
 21
5.646027170403348
 31
0.0
  0
LINE
  5
A3DBD
330
A3D83
100
AcDbEntity
  8
0
  6
CONTINUOUS
100
AcDbLine
 10
44.99999999995498
 20
4.898546379484964
 30
0.0
 11
43.57899999995641
 21
6.319546379483535
 31
0.0
  0
LINE
  5
A3DBE
330
A3D83
100
AcDbEntity
  8
0
  6
CONTINUOUS
100
AcDbLine
 10
44.99999999995498
 20
5.572065588565151
 30
0.0
 11
43.57899999995641
 21
6.993065588563722
 31
0.0
  0
LINE
  5
A3DBF
330
A3D83
100
AcDbEntity
  8
0
  6
CONTINUOUS
100
AcDbLine
 10
44.99999999995498
 20
6.245584797645336
 30
0.0
 11
43.57899999995641
 21
7.666584797643908
 31
0.0
  0
LINE
  5
A3DC0
330
A3D83
100
AcDbEntity
  8
0
  6
CONTINUOUS
100
AcDbLine
 10
44.99999999995498
 20
6.919104006725522
 30
0.0
 11
43.57899999995641
 21
8.340104006724093
 31
0.0
  0
LINE
  5
A3DC1
330
A3D83
100
AcDbEntity
  8
0
  6
CONTINUOUS
100
AcDbLine
 10
44.99999999995498
 20
7.592623215805709
 30
0.0
 11
43.82952321576943
 21
8.763099999991255
 31
0.0
  0
LINE
  5
A3DC2
330
A3D83
100
AcDbEntity
  8
0
  6
CONTINUOUS
100
AcDbLine
 10
44.99999999995498
 20
8.266142424885896
 30
0.0
 11
44.50304242484962
 21
8.763099999991255
 31
0.0
  0
ENDBLK
  5
A3DEC
330
A3D83
100
AcDbEntity
  8
0
100
AcDbBlockEnd
  0
BLOCK
  5
A3DED
330
A3DC3
100
AcDbEntity
  8
0
100
AcDbBlockBegin
  2
*X189
 70
     1
 10
0.0
 20
0.0
 30
0.0
  3
*X189
  1

  0
LINE
  5
A3DC4
330
A3DC3
100
AcDbEntity
  8
0
  6
CONTINUOUS
100
AcDbLine
 10
0.0
 20
8.548461116714023
 30
0.0
 11
0.2146388832772324
 21
8.763099999991255
 31
0.0
  0
LINE
  5
A3DC5
330
A3DC3
100
AcDbEntity
  8
0
  6
CONTINUOUS
100
AcDbLine
 10
-0.0000000000000002
 20
7.874941907633837
 30
0.0
 11
0.8881580923574184
 21
8.763099999991255
 31
0.0
  0
LINE
  5
A3DC6
330
A3DC3
100
AcDbEntity
  8
0
  6
CONTINUOUS
100
AcDbLine
 10
0.0
 20
7.20142269855365
 30
0.0
 11
1.420999999998572
 21
8.622422698552223
 31
0.0
  0
LINE
  5
A3DC7
330
A3DC3
100
AcDbEntity
  8
0
  6
CONTINUOUS
100
AcDbLine
 10
-0.0000000000000001
 20
6.527903489473465
 30
0.0
 11
1.420999999998571
 21
7.948903489472036
 31
0.0
  0
LINE
  5
A3DC8
330
A3DC3
100
AcDbEntity
  8
0
  6
CONTINUOUS
100
AcDbLine
 10
-0.0000000000000002
 20
5.854384280393278
 30
0.0
 11
1.420999999998571
 21
7.275384280391849
 31
0.0
  0
LINE
  5
A3DC9
330
A3DC3
100
AcDbEntity
  8
0
  6
CONTINUOUS
100
AcDbLine
 10
-0.0000000000000002
 20
5.180865071313091
 30
0.0
 11
1.420999999998571
 21
6.601865071311663
 31
0.0
  0
LINE
  5
A3DCA
330
A3DC3
100
AcDbEntity
  8
0
  6
CONTINUOUS
100
AcDbLine
 10
0.0
 20
4.507345862232905
 30
0.0
 11
1.420999999998571
 21
5.928345862231477
 31
0.0
  0
LINE
  5
A3DCB
330
A3DC3
100
AcDbEntity
  8
0
  6
CONTINUOUS
100
AcDbLine
 10
-0.0000000000000003
 20
3.833826653152718
 30
0.0
 11
1.420999999998571
 21
5.25482665315129
 31
0.0
  0
LINE
  5
A3DCC
330
A3DC3
100
AcDbEntity
  8
0
  6
CONTINUOUS
100
AcDbLine
 10
-0.0000000000000002
 20
3.160307444072532
 30
0.0
 11
1.420999999998571
 21
4.581307444071103
 31
0.0
  0
LINE
  5
A3DCD
330
A3DC3
100
AcDbEntity
  8
0
  6
CONTINUOUS
100
AcDbLine
 10
-0.0000000000000001
 20
2.486788234992345
 30
0.0
 11
1.420999999998571
 21
3.907788234990917
 31
0.0
  0
LINE
  5
A3DCE
330
A3DC3
100
AcDbEntity
  8
0
  6
CONTINUOUS
100
AcDbLine
 10
-0.0000000000000006
 20
1.813269025912159
 30
0.0
 11
1.420999999998571
 21
3.234269025910731
 31
0.0
  0
LINE
  5
A3DCF
330
A3DC3
100
AcDbEntity
  8
0
  6
CONTINUOUS
100
AcDbLine
 10
0.0
 20
1.139749816831973
 30
0.0
 11
1.420999999998571
 21
2.560749816830544
 31
0.0
  0
LINE
  5
A3DD0
330
A3DC3
100
AcDbEntity
  8
0
  6
CONTINUOUS
100
AcDbLine
 10
0.0000000000000002
 20
0.466230607751787
 30
0.0
 11
1.420999999998571
 21
1.887230607750358
 31
0.0
  0
LINE
  5
A3DD1
330
A3DC3
100
AcDbEntity
  8
0
  6
CONTINUOUS
100
AcDbLine
 10
0.2072886013284003
 20
-0.0000000000000009
 30
0.0
 11
1.420999999998571
 21
1.213711398670171
 31
0.0
  0
LINE
  5
A3DD2
330
A3DC3
100
AcDbEntity
  8
0
  6
CONTINUOUS
100
AcDbLine
 10
0.8808078104085864
 20
-0.0000000000000009
 30
0.0
 11
1.420999999998571
 21
0.5401921895899839
 31
0.0
  0
LINE
  5
A3DD3
330
A3DC3
100
AcDbEntity
  8
0
  6
CONTINUOUS
100
AcDbLine
 10
0.0581249075061505
 20
-0.0000000000000009
 30
0.0
 11
-0.0000000000000002
 21
0.0581249075061496
 31
0.0
  0
LINE
  5
A3DD4
330
A3DC3
100
AcDbEntity
  8
0
  6
CONTINUOUS
100
AcDbLine
 10
0.7316441165863372
 20
-0.0000000000000009
 30
0.0
 11
-0.0000000000000002
 21
0.7316441165863363
 31
0.0
  0
LINE
  5
A3DD5
330
A3DC3
100
AcDbEntity
  8
0
  6
CONTINUOUS
100
AcDbLine
 10
1.405163325666523
 20
-0.0000000000000009
 30
0.0
 11
-0.0000000000000002
 21
1.405163325666523
 31
0.0
  0
LINE
  5
A3DD6
330
A3DC3
100
AcDbEntity
  8
0
  6
CONTINUOUS
100
AcDbLine
 10
1.420999999998572
 20
0.6576825347481381
 30
0.0
 11
-0.0000000000000001
 21
2.07868253474671
 31
0.0
  0
LINE
  5
A3DD7
330
A3DC3
100
AcDbEntity
  8
0
  6
CONTINUOUS
100
AcDbLine
 10
1.420999999998571
 20
1.331201743828324
 30
0.0
 11
-0.0000000000000001
 21
2.752201743826896
 31
0.0
  0
LINE
  5
A3DD8
330
A3DC3
100
AcDbEntity
  8
0
  6
CONTINUOUS
100
AcDbLine
 10
1.420999999998571
 20
2.004720952908511
 30
0.0
 11
-0.0000000000000002
 21
3.425720952907082
 31
0.0
  0
LINE
  5
A3DD9
330
A3DC3
100
AcDbEntity
  8
0
  6
CONTINUOUS
100
AcDbLine
 10
1.420999999998571
 20
2.678240161988697
 30
0.0
 11
-0.0000000000000001
 21
4.099240161987269
 31
0.0
  0
LINE
  5
A3DDA
330
A3DC3
100
AcDbEntity
  8
0
  6
CONTINUOUS
100
AcDbLine
 10
1.420999999998572
 20
3.351759371068884
 30
0.0
 11
0.0
 21
4.772759371067455
 31
0.0
  0
LINE
  5
A3DDB
330
A3DC3
100
AcDbEntity
  8
0
  6
CONTINUOUS
100
AcDbLine
 10
1.420999999998571
 20
4.02527858014907
 30
0.0
 11
-0.0000000000000003
 21
5.446278580147642
 31
0.0
  0
LINE
  5
A3DDC
330
A3DC3
100
AcDbEntity
  8
0
  6
CONTINUOUS
100
AcDbLine
 10
1.420999999998571
 20
4.698797789229257
 30
0.0
 11
0.0
 21
6.119797789227828
 31
0.0
  0
LINE
  5
A3DDD
330
A3DC3
100
AcDbEntity
  8
0
  6
CONTINUOUS
100
AcDbLine
 10
1.420999999998571
 20
5.372316998309444
 30
0.0
 11
-0.0000000000000001
 21
6.793316998308015
 31
0.0
  0
LINE
  5
A3DDE
330
A3DC3
100
AcDbEntity
  8
0
  6
CONTINUOUS
100
AcDbLine
 10
1.420999999998572
 20
6.045836207389629
 30
0.0
 11
-0.0000000000000004
 21
7.466836207388202
 31
0.0
  0
LINE
  5
A3DDF
330
A3DC3
100
AcDbEntity
  8
0
  6
CONTINUOUS
100
AcDbLine
 10
1.420999999998571
 20
6.719355416469816
 30
0.0
 11
0.0
 21
8.140355416468388
 31
0.0
  0
LINE
  5
A3DE0
330
A3DC3
100
AcDbEntity
  8
0
  6
CONTINUOUS
100
AcDbLine
 10
1.420999999998571
 20
7.392874625550003
 30
0.0
 11
0.0507746255573185
 21
8.763099999991255
 31
0.0
  0
LINE
  5
A3DE1
330
A3DC3
100
AcDbEntity
  8
0
  6
CONTINUOUS
100
AcDbLine
 10
1.420999999998571
 20
8.06639383463019
 30
0.0
 11
0.7242938346375052
 21
8.763099999991255
 31
0.0
  0
LINE
  5
A3DE2
330
A3DC3
100
AcDbEntity
  8
0
  6
CONTINUOUS
100
AcDbLine
 10
1.420999999998571
 20
8.739913043710375
 30
0.0
 11
1.397813043717691
 21
8.763099999991255
 31
0.0
  0
ENDBLK
  5
A3DEE
330
A3DC3
100
AcDbEntity
  8
0
100
AcDbBlockEnd
  0
ENDSEC
  0
SECTION
  2
ENTITIES
  0
LINE
  5
A3698
330
18
100
AcDbEntity
  8
01
100
AcDbLine
 10
58.58531031298105
 20
-14.98237000585777
 30
0.0
 11
58.58531031298105
 21
-94.98237000585732
 31
0.0
  0
LINE
  5
A3699
330
18
100
AcDbEntity
  8
01
100
AcDbLine
 10
70.58531031298116
 20
-14.98237000585777
 30
0.0
 11
70.58531031298105
 21
-94.98237000585732
 31
0.0
  0
LINE
  5
A369A
330
18
100
AcDbEntity
  8
01
100
AcDbLine
 10
49.58531031298105
 20
-14.98237000585777
 30
0.0
 11
49.58531031298105
 21
-94.98237000585732
 31
0.0
  0
LINE
  5
A369F
330
18
100
AcDbEntity
  8
1PHANTOM
100
AcDbLine
 10
-65.5020072730955
 20
-3.461520572565632
 30
0.0
 11
-121.3076747988167
 21
-3.461520572565632
 31
0.0
  0
LINE
  5
A36A0
330
18
100
AcDbEntity
  8
1PHANTOM
100
AcDbLine
 10
-64.57512385006441
 20
-38.46152057256563
 30
0.0
 11
-71.07661294038519
 21
-38.46152057256563
 31
0.0
  0
LINE
  5
A36A1
330
18
100
AcDbEntity
  8
1PHANTOM
100
AcDbLine
 10
-111.0766129403852
 20
-38.46152057256563
 30
0.0
 11
-120.3807913757861
 21
-38.46152057256563
 31
0.0
  0
ARC
  5
A36A2
330
18
100
AcDbEntity
  8
1PHANTOM
100
AcDbCircle
 10
-142.8363544044447
 20
-30.35225135510996
 30
0.0
 40
23.8749357732201
100
AcDbArc
 50
340.1440725874382
 51
23.02461945291678
  0
ARC
  5
A36A3
330
18
100
AcDbEntity
  8
1PHANTOM
100
AcDbCircle
 10
-98.8903868427775
 20
-11.67600527163677
 30
0.0
 40
23.8749357732201
100
AcDbArc
 50
159.8753848684289
 51
203.0246194529168
  0
ARC
  5
A36A4
330
18
100
AcDbEntity
  8
1PHANTOM
100
AcDbCircle
 10
-87.03068687872349
 20
-30.35225135510996
 30
0.0
 40
23.8749357732201
100
AcDbArc
 50
340.1440725874382
 51
23.02461945291678
  0
ARC
  5
A36A5
330
18
100
AcDbEntity
  8
1PHANTOM
100
AcDbCircle
 10
-43.08471931705628
 20
-11.67600527163677
 30
0.0
 40
23.8749357732201
100
AcDbArc
 50
159.8753848684289
 51
203.0246194529168
  0
TEXT
  5
A36A6
330
18
100
AcDbEntity
  8
1TEXT
100
AcDbText
 10
-14.86951885745707
 20
81.6237504861806
 30
0.0
 40
4.0
  1
表面処理：
 72
     1
 11
-4.069518857457069
 21
81.6237504861806
 31
0.0
100
AcDbText
  0
TEXT
  5
A36A7
330
18
100
AcDbEntity
  8
1TEXT
100
AcDbText
 10
-20.6028521907904
 20
67.7884618266562
 30
0.0
 40
4.0
  1
サテンニッケル
 72
     1
 11
-4.069518857457069
 21
67.7884618266562
 31
0.0
100
AcDbText
  0
TEXT
  5
A36A8
330
18
100
AcDbEntity
  8
1TEXT
100
AcDbText
 10
-13.53618552412374
 20
74.64585546619628
 30
0.0
 40
4.0
  1
クローム
 72
     1
 11
-4.069518857457069
 21
74.64585546619628
 31
0.0
100
AcDbText
  0
LINE
  5
A36A9
330
18
100
AcDbEntity
  8
1DIM
100
AcDbLine
 10
-21.46951885745716
 20
87.1237504861806
 30
0.0
 11
48.53048114254284
 21
87.1237504861806
 31
0.0
  0
LINE
  5
A36AA
330
18
100
AcDbEntity
  8
1DIM
100
AcDbLine
 10
-21.46951885745716
 20
73.1237504861806
 30
0.0
 11
48.53048114254284
 21
73.1237504861806
 31
0.0
  0
LINE
  5
A36AB
330
18
100
AcDbEntity
  8
1DIM
100
AcDbLine
 10
-21.46951885745716
 20
80.1237504861806
 30
0.0
 11
48.53048114254284
 21
80.1237504861806
 31
0.0
  0
LINE
  5
A36AC
330
18
100
AcDbEntity
  8
1DIM
100
AcDbLine
 10
-21.46951885745716
 20
66.1237504861806
 30
0.0
 11
48.53048114254284
 21
66.1237504861806
 31
0.0
  0
LINE
  5
A36AD
330
18
100
AcDbEntity
  8
1DIM
100
AcDbLine
 10
-21.46951885745716
 20
66.1237504861806
 30
0.0
 11
48.53048114254284
 21
66.1237504861806
 31
0.0
  0
LINE
  5
A36AE
330
18
100
AcDbEntity
  8
1DIM
100
AcDbLine
 10
13.53048114254284
 20
87.1237504861806
 30
0.0
 11
13.53048114254284
 21
59.1237504861806
 31
0.0
  0
TEXT
  5
A36AF
330
18
100
AcDbEntity
  8
1TEXT
100
AcDbText
 10
17.58603669809894
 20
74.4093935025312
 30
0.0
 40
4.0
  1
KH-451-XC
 41
0.8
 72
     1
 11
30.93048114254339
 21
74.4093935025312
 31
0.0
100
AcDbText
  0
TEXT
  5
A36B0
330
18
100
AcDbEntity
  8
1TEXT
100
AcDbText
 10
24.06381447587626
 20
81.6237504861806
 30
0.0
 40
4.0
  1
コード
 72
     1
 11
30.93048114254293
 21
81.6237504861806
 31
0.0
100
AcDbText
  0
LINE
  5
A36B1
330
18
100
AcDbEntity
  8
1DIM
100
AcDbLine
 10
-21.46951885745716
 20
59.1237504861806
 30
0.0
 11
-21.46951885745716
 21
87.1237504861806
 31
0.0
  0
LINE
  5
A36B2
330
18
100
AcDbEntity
  8
1DIM
100
AcDbLine
 10
48.53048114254284
 20
59.1237504861806
 30
0.0
 11
48.53048114254284
 21
87.1237504861806
 31
0.0
  0
TEXT
  5
A36B3
330
18
100
AcDbEntity
  8
1TEXT
100
AcDbText
 10
-21.46951885745716
 20
92.1237504861806
 30
0.0
 40
8.0
  1
KH-451-X
100
AcDbText
  0
TEXT
  5
A36B4
330
18
100
AcDbEntity
  8
1TEXT
100
AcDbText
 10
17.58603669809894
 20
67.4093935025312
 30
0.0
 40
4.0
  1
KH-451-XN
 41
0.8
 72
     1
 11
30.93048114254339
 21
67.4093935025312
 31
0.0
100
AcDbText
  0
ARC
  5
A36B8
330
18
100
AcDbEntity
  8
01
  6
BYBLOCK
100
AcDbCircle
 10
-3.414689687018949
 20
-20.98237000585732
 30
0.0
 40
17.5
100
AcDbArc
 50
240.0000000000035
 51
296.9785067848603
  0
ARC
  5
A36B9
330
18
100
AcDbEntity
  8
01
  6
BYBLOCK
100
AcDbCircle
 10
-3.414689687018949
 20
-20.98237000585732
 30
0.0
 40
20.0
100
AcDbArc
 50
244.6507090007042
 51
244.6648773382591
  0
ARC
  5
A36BA
330
18
100
AcDbEntity
  8
01
  6
BYBLOCK
100
AcDbCircle
 10
-3.414689687018949
 20
-20.98237000585732
 30
0.0
 40
20.0
100
AcDbArc
 50
257.1614318590121
 51
295.8847181139465
  0
ARC
  5
A36BB
330
18
100
AcDbEntity
  8
01
  6
BYBLOCK
100
AcDbCircle
 10
-3.414689687018949
 20
-20.98237000585732
 30
0.0
 40
20.25
100
AcDbArc
 50
257.2412595831132
 51
295.8847181139465
  0
ARC
  5
A36BC
330
18
100
AcDbEntity
  8
01
  6
BYBLOCK
100
AcDbCircle
 10
5.185578629495353
 20
-38.70595273858407
 30
0.0
 40
0.3
100
AcDbArc
 50
295.8847181139396
 51
25.00000000000825
  0
LINE
  5
A36BD
330
18
100
AcDbEntity
  8
01
  6
BYBLOCK
100
AcDbLine
 10
49.58531031298105
 20
-41.48237000585755
 30
0.0
 11
49.58531031298105
 21
-91.98237000585732
 31
0.0
  0
LINE
  5
A36BE
330
18
100
AcDbEntity
  8
01
  6
BYBLOCK
100
AcDbLine
 10
44.58531031298185
 20
-41.78237000585705
 30
0.0
 11
44.58531031298435
 21
-91.68237000585691
 31
0.0
  0
ARC
  5
A36BF
330
18
100
AcDbEntity
  8
01
  6
BYBLOCK
100
AcDbCircle
 10
44.88531031298305
 20
-91.68237000585691
 30
0.0
 40
0.3
100
AcDbArc
 50
180.0
 51
270.0
  0
LINE
  5
A36C0
330
18
100
AcDbEntity
  8
01
  6
BYBLOCK
100
AcDbLine
 10
-7.858786895678122
 20
-40.48237000585732
 30
0.0
 11
-11.11797664416565
 21
-40.48237000585732
 31
0.0
  0
ARC
  5
A36C1
330
18
100
AcDbEntity
  8
01
  6
BYBLOCK
100
AcDbCircle
 10
-11.11797664416565
 20
-40.18237000585714
 30
0.0
 40
0.3
100
AcDbArc
 50
205.0000000000488
 51
270.0
  0
LINE
  5
A36C2
330
18
100
AcDbEntity
  8
01
  6
BYBLOCK
100
AcDbLine
 10
49.58531031298105
 20
-41.48237000585732
 30
0.0
 11
44.88531031298214
 21
-41.48237000585709
 31
0.0
  0
ARC
  5
A36C3
330
18
100
AcDbEntity
  8
01
  6
BYBLOCK
100
AcDbCircle
 10
44.88531031298214
 20
-41.78237000585705
 30
0.0
 40
0.3
100
AcDbArc
 50
90.0
 51
180.0
  0
LINE
  5
A36C4
330
18
100
AcDbEntity
  8
01
  6
BYBLOCK
100
AcDbLine
 10
44.58531031298196
 20
-42.98237000585732
 30
0.0
 11
44.33531031298287
 21
-42.98237000585732
 31
0.0
  0
LINE
  5
A36C5
330
18
100
AcDbEntity
  8
01
  6
BYBLOCK
100
AcDbLine
 10
44.58531031298287
 20
-91.48237000585732
 30
0.0
 11
44.33531031298276
 21
-91.48237000585732
 31
0.0
  0
LINE
  5
A36C6
330
18
100
AcDbEntity
  8
01
  6
BYBLOCK
100
AcDbLine
 10
-10.75740876292741
 20
-40.48237000585709
 30
0.0
 11
-10.64083184838876
 21
-40.73237000585732
 31
0.0
  0
LINE
  5
A36C7
330
18
100
AcDbEntity
  8
01
  6
BYBLOCK
100
AcDbLine
 10
-11.97292951032352
 20
-39.0587781426193
 30
0.0
 11
-11.38986898027645
 21
-40.30915548437952
 31
0.0
  0
LINE
  5
A36C8
330
18
100
AcDbEntity
  8
01
  6
BYBLOCK
100
AcDbLine
 10
4.524294283198174
 20
-36.57796340657887
 30
0.0
 11
5.457470965606149
 21
-38.57916726006169
 31
0.0
  0
LINE
  5
A36C9
330
18
100
AcDbEntity
  8
01
  6
BYBLOCK
100
AcDbLine
 10
5.13198039968745
 20
-39.06425128046476
 30
0.0
 11
5.237636380865069
 21
-39.29083126329351
 31
0.0
  0
LINE
  5
A36CA
330
18
100
AcDbEntity
  8
01
  6
BYBLOCK
100
AcDbLine
 10
44.88531031298305
 20
-91.98237000585686
 30
0.0
 11
49.58531031298105
 21
-91.98237000585732
 31
0.0
  0
LINE
  5
A36CB
330
18
100
AcDbEntity
  8
01
  6
BYBLOCK
100
AcDbLine
 10
-12.16468968701804
 20
-36.13781457208529
 30
0.0
 11
-12.66468968701804
 21
-37.00383997586982
 31
0.0
  0
LINE
  5
A36CC
330
18
100
AcDbEntity
  8
01
  6
BYBLOCK
100
AcDbLine
 10
-11.9773992576512
 20
-39.05666127298559
 30
0.0
 11
-12.66468968701804
 21
-37.00383997587005
 31
0.0
  0
ARC
  5
A36CE
330
18
100
AcDbEntity
  8
01
  6
BYBLOCK
100
AcDbCircle
 10
5.544845209805203
 20
-39.47640240636383
 30
0.0
 40
0.3
100
AcDbArc
 50
25.00000000006215
 51
115.8481212033771
  0
LINE
  5
A36CF
330
18
100
AcDbEntity
  8
01
  6
BYBLOCK
100
AcDbLine
 10
44.33531031298287
 20
-42.48237000585732
 30
0.0
 11
44.33531031298287
 21
-91.98237000585732
 31
0.0
  0
LINE
  5
A36D0
330
18
100
AcDbEntity
  8
01
  6
BYBLOCK
100
AcDbLine
 10
39.08531031298196
 20
-43.98237000585709
 30
0.0
 11
39.08531031298014
 21
-66.98237000585755
 31
0.0
  0
LINE
  5
A36D1
330
18
100
AcDbEntity
  8
01
  6
BYBLOCK
100
AcDbLine
 10
39.58531031298207
 20
-42.86433601710723
 30
0.0
 11
39.58531031298014
 21
-66.98237000585755
 31
0.0
  0
ARC
  5
A36D2
330
18
100
AcDbEntity
  8
01
  6
BYBLOCK
100
AcDbCircle
 10
40.58531031298196
 20
-43.98237000585732
 30
0.0
 40
1.5
100
AcDbArc
 50
90.0
 51
179.999999999987
  0
ARC
  5
A36D3
330
18
100
AcDbEntity
  8
01
  6
BYBLOCK
100
AcDbCircle
 10
40.58531031298196
 20
-43.98237000585732
 30
0.0
 40
1.0
100
AcDbArc
 50
90.0
 51
179.999999999987
  0
LINE
  5
A36D4
330
18
100
AcDbEntity
  8
01
  6
BYBLOCK
100
AcDbLine
 10
44.33531031298287
 20
-91.98237000585732
 30
0.0
 11
13.66135206378556
 21
-91.98237000585732
 31
0.0
  0
LINE
  5
A36D5
330
18
100
AcDbEntity
  8
01
  6
BYBLOCK
100
AcDbLine
 10
44.33531031298287
 20
-91.48237000585732
 30
0.0
 11
13.66135206378556
 21
-91.48237000585732
 31
0.0
  0
LINE
  5
A36D6
330
18
100
AcDbEntity
  8
01
  6
BYBLOCK
100
AcDbLine
 10
37.08531031298014
 20
-68.98237000585732
 30
0.0
 11
20.90885776002403
 21
-68.98237000585732
 31
0.0
  0
LINE
  5
A36D7
330
18
100
AcDbEntity
  8
01
  6
BYBLOCK
100
AcDbLine
 10
37.08531031298014
 20
-69.48237000585732
 30
0.0
 11
20.90885776002403
 21
-69.48237000585732
 31
0.0
  0
ARC
  5
A36D8
330
18
100
AcDbEntity
  8
01
  6
BYBLOCK
100
AcDbCircle
 10
37.08531031298014
 20
-66.98237000585732
 30
0.0
 40
2.0
100
AcDbArc
 50
270.0
 51
359.999999999987
  0
ARC
  5
A36D9
330
18
100
AcDbEntity
  8
01
  6
BYBLOCK
100
AcDbCircle
 10
37.08531031298014
 20
-66.98237000585732
 30
0.0
 40
2.5
100
AcDbArc
 50
270.0
 51
359.999999999987
  0
LINE
  5
A36DA
330
18
100
AcDbEntity
  8
01
  6
BYBLOCK
100
AcDbLine
 10
5.816737545915998
 20
-39.34961692784145
 30
0.0
 11
19.09624218595025
 21
-67.82760652933871
 31
0.0
  0
LINE
  5
A36DB
330
18
100
AcDbEntity
  8
01
  6
BYBLOCK
100
AcDbLine
 10
5.237636380865638
 20
-39.2908312632926
 30
0.0
 11
18.64308829243191
 21
-68.03891566020911
 31
0.0
  0
ARC
  5
A36DC
330
18
100
AcDbEntity
  8
01
  6
BYBLOCK
100
AcDbCircle
 10
20.90885776002403
 20
-66.98237000585732
 30
0.0
 40
2.0
100
AcDbArc
 50
204.9999999999948
 51
270.0
  0
ARC
  5
A36DD
330
18
100
AcDbEntity
  8
01
  6
BYBLOCK
100
AcDbCircle
 10
20.90885776002403
 20
-66.98237000585732
 30
0.0
 40
2.5
100
AcDbArc
 50
204.9999999999948
 51
270.0
  0
LINE
  5
A36DE
330
18
100
AcDbEntity
  8
01
  6
BYBLOCK
100
AcDbLine
 10
44.33531031298287
 20
-42.48237000585732
 30
0.0
 11
40.58531031298196
 21
-42.48237000585732
 31
0.0
  0
LINE
  5
A36DF
330
18
100
AcDbEntity
  8
01
  6
BYBLOCK
100
AcDbLine
 10
44.33531031298287
 20
-42.98237000585732
 30
0.0
 11
40.58531031298196
 21
-42.98237000585732
 31
0.0
  0
LINE
  5
A36E0
330
18
100
AcDbEntity
  8
01
  6
BYBLOCK
100
AcDbLine
 10
-10.99350747084384
 20
-41.15915548437965
 30
0.0
 11
12.30189038323067
 21
-91.1162973984683
 31
0.0
  0
LINE
  5
A36E1
330
18
100
AcDbEntity
  8
01
  6
BYBLOCK
100
AcDbLine
 10
-10.64083184838648
 20
-40.73237000585732
 30
0.0
 11
12.755044276749
 21
-90.9049882675979
 31
0.0
  0
ARC
  5
A36E2
330
18
100
AcDbEntity
  8
01
  6
BYBLOCK
100
AcDbCircle
 10
13.66135206378556
 20
-90.48237000585732
 30
0.0
 40
1.5
100
AcDbArc
 50
204.9999999999948
 51
270.0
  0
ARC
  5
A36E3
330
18
100
AcDbEntity
  8
01
  6
BYBLOCK
100
AcDbCircle
 10
13.66135206378556
 20
-90.48237000585732
 30
0.0
 40
1.0
100
AcDbArc
 50
204.9999999999948
 51
270.0
  0
LINE
  5
A36E4
330
18
100
AcDbEntity
  8
01
  6
BYBLOCK
100
AcDbLine
 10
-10.72161513473304
 20
-40.73237000585732
 30
0.0
 11
-7.886825642018266
 21
-40.73237000585732
 31
0.0
  0
ARC
  5
A36E5
330
18
100
AcDbEntity
  8
01
  6
BYBLOCK
100
AcDbCircle
 10
-10.72161513473304
 20
-41.0323700058575
 30
0.0
 40
0.3
100
AcDbArc
 50
90.0
 51
204.9999999999948
  0
LINE
  5
A36E6
330
18
100
AcDbEntity
  8
01
100
AcDbLine
 10
-84.57661294038587
 20
-39.05877814261953
 30
0.0
 11
-96.32661294038496
 21
-39.05877814261953
 31
0.0
  0
LINE
  5
A36E7
330
18
100
AcDbEntity
  8
01
100
AcDbLine
 10
-84.87661294038605
 20
-40.48237000585709
 30
0.0
 11
-96.02661294038478
 21
-40.48237000585732
 31
0.0
  0
ARC
  5
A36E8
330
18
100
AcDbEntity
  8
01
100
AcDbCircle
 10
-84.87661294038605
 20
-40.18237000585714
 30
0.0
 40
0.3
100
AcDbArc
 50
270.0
 51
0.0
  0
LINE
  5
A36E9
330
18
100
AcDbEntity
  8
1CENTER
100
AcDbLine
 10
-94.59945762229086
 20
-84.48237000585686
 30
0.0
 11
-87.55376825847907
 21
-84.48237000585686
 31
0.0
  0
LINE
  5
A36EA
330
18
100
AcDbEntity
  8
01
100
AcDbLine
 10
-84.57661294038587
 20
-39.05877814261953
 30
0.0
 11
-84.57661294038576
 21
-40.73237000585732
 31
0.0
  0
LINE
  5
A36EB
330
18
100
AcDbEntity
  8
01
100
AcDbLine
 10
-96.32661294038496
 20
-39.05877814261953
 30
0.0
 11
-96.32661294038496
 21
-91.68237000585759
 31
0.0
  0
ARC
  5
A36EC
330
18
100
AcDbEntity
  8
01
100
AcDbCircle
 10
-96.02661294038478
 20
-40.18237000585714
 30
0.0
 40
0.3
100
AcDbArc
 50
180.0
 51
270.0
  0
LINE
  5
A36ED
330
18
100
AcDbEntity
  8
01
100
AcDbLine
 10
-97.57661294038405
 20
-39.54314487286547
 30
0.0
 11
-97.57661294038496
 21
-91.18237000585714
 31
0.0
  0
LINE
  5
A36EE
330
18
100
AcDbEntity
  8
01
100
AcDbLine
 10
-81.57661294038508
 20
-42.48237000585709
 30
0.0
 11
-81.57661294038496
 21
-90.98237000585686
 31
0.0
  0
ARC
  5
A36EF
330
18
100
AcDbEntity
  8
01
100
AcDbCircle
 10
-82.57661294038496
 20
-90.98237000585686
 30
0.0
 40
1.0
100
AcDbArc
 50
270.0
 51
0.0
  0
LINE
  5
A36F0
330
18
100
AcDbEntity
  8
01
100
AcDbLine
 10
-99.07661294038496
 20
-42.48237000585641
 30
0.0
 11
-99.07661294038496
 21
-90.98237000585686
 31
0.0
  0
ARC
  5
A36F1
330
18
100
AcDbEntity
  8
01
100
AcDbCircle
 10
-98.07661294038496
 20
-90.98237000585686
 30
0.0
 40
1.0
100
AcDbArc
 50
180.0
 51
270.0
  0
ARC
  5
A36F2
330
18
100
AcDbEntity
  8
01
100
AcDbCircle
 10
-98.07661294038496
 20
-42.48237000585641
 30
0.0
 40
1.0
100
AcDbArc
 50
90.0
 51
180.0
  0
LINE
  5
A36F3
330
18
100
AcDbEntity
  8
01
100
AcDbLine
 10
-96.32661294038496
 20
-91.48237000585709
 30
0.0
 11
-97.27661294038478
 21
-91.48237000585709
 31
0.0
  0
ARC
  5
A36F4
330
18
100
AcDbEntity
  8
01
100
AcDbCircle
 10
-97.27661294038478
 20
-91.18237000585714
 30
0.0
 40
0.3
100
AcDbArc
 50
180.0
 51
270.0
  0
LINE
  5
A36F5
330
18
100
AcDbEntity
  8
01
100
AcDbLine
 10
-82.57661294038496
 20
-91.98237000585686
 30
0.0
 11
-98.07661294038496
 21
-91.98237000585686
 31
0.0
  0
ARC
  5
A36F6
330
18
100
AcDbEntity
  8
01
100
AcDbCircle
 10
-82.57661294038496
 20
-42.48237000585709
 30
0.0
 40
1.0
100
AcDbArc
 50
0.0
 51
90.0
  0
LINE
  5
A36F7
330
18
100
AcDbEntity
  8
01
100
AcDbLine
 10
-97.57661294038405
 20
-40.98237000585732
 30
0.0
 11
-101.326612940385
 21
-40.98237000585732
 31
0.0
  0
LINE
  5
A36F8
330
18
100
AcDbEntity
  8
01
100
AcDbLine
 10
-108.826612940385
 20
-40.98237000585732
 30
0.0
 11
-109.5766129403859
 21
-40.98237000585732
 31
0.0
  0
LINE
  5
A36F9
330
18
100
AcDbEntity
  8
01
100
AcDbLine
 10
-83.07661294038576
 20
-40.98237000585732
 30
0.0
 11
-80.82661294038496
 21
-40.98237000585732
 31
0.0
  0
LINE
  5
A36FA
330
18
100
AcDbEntity
  8
01
100
AcDbLine
 10
-73.32661294038496
 20
-40.98237000585709
 30
0.0
 11
-72.57661294038587
 21
-40.98237000585732
 31
0.0
  0
ELLIPSE
  5
A36FB
330
18
100
AcDbEntity
  8
01
100
AcDbEllipse
 10
-105.076612940385
 20
-40.98237000585732
 30
0.0
 11
-3.75
 21
0.0
 31
0.0
210
0.0
220
0.0
230
1.0
 40
0.0945887848327554
 41
3.141592653589793
 42
6.283185307179586
  0
ELLIPSE
  5
A36FC
330
18
100
AcDbEntity
  8
01
100
AcDbEllipse
 10
-77.07661294038496
 20
-40.98237000585732
 30
0.0
 11
3.75
 21
0.0
 31
0.0
210
0.0
220
0.0
230
-1.0
 40
0.0945887848327554
 41
3.141592653589793
 42
6.283185307179586
  0
LINE
  5
A36FD
330
18
100
AcDbEntity
  8
01
100
AcDbLine
 10
-81.57661294038485
 20
77.16173481539772
 30
0.0
 11
-99.07661294038496
 21
77.16173481539772
 31
0.0
  0
CIRCLE
  5
A36FE
330
18
100
AcDbEntity
  8
01
100
AcDbCircle
 10
-105.076612940385
 20
24.16173481539818
 30
0.0
 40
2.25
  0
CIRCLE
  5
A36FF
330
18
100
AcDbEntity
  8
01
100
AcDbCircle
 10
-77.07661294038314
 20
24.16173481539818
 30
0.0
 40
2.25
  0
LINE
  5
A3700
330
18
100
AcDbEntity
  8
01
100
AcDbLine
 10
-81.87661294038423
 20
72.16173481539863
 30
0.0
 11
-98.77661294038478
 21
72.16173481539863
 31
0.0
  0
ARC
  5
A3701
330
18
100
AcDbEntity
  8
01
100
AcDbCircle
 10
-81.87661294038423
 20
72.46173481539881
 30
0.0
 40
0.3
100
AcDbArc
 50
270.0
 51
0.0000000000130276
  0
LINE
  5
A3702
330
18
100
AcDbEntity
  8
01
100
AcDbLine
 10
-99.07661294038496
 20
72.46173481539881
 30
0.0
 11
-99.07661294038496
 21
77.16173481539772
 31
0.0
  0
ARC
  5
A3703
330
18
100
AcDbEntity
  8
01
100
AcDbCircle
 10
-98.77661294038478
 20
72.46173481539881
 30
0.0
 40
0.3
100
AcDbArc
 50
180.0
 51
270.0
  0
LINE
  5
A3704
330
18
100
AcDbEntity
  8
01
100
AcDbLine
 10
-81.57661294038405
 20
72.46173481539881
 30
0.0
 11
-81.57661294038496
 21
77.16173481539772
 31
0.0
  0
LINE
  5
A3705
330
18
100
AcDbEntity
  8
01
100
AcDbLine
 10
-97.57661294038405
 20
32.51857453291495
 30
0.0
 11
-97.57661294038405
 21
72.16173481539863
 31
0.0
  0
ARC
  5
A3706
330
18
100
AcDbEntity
  8
01
100
AcDbCircle
 10
-97.27661294038387
 20
67.4617348153979
 30
0.0
 40
0.3
100
AcDbArc
 50
180.0
 51
270.0
  0
LINE
  5
A3707
330
18
100
AcDbEntity
  8
01
100
AcDbLine
 10
-96.32661294038405
 20
33.15781583826674
 30
0.0
 11
-96.32661294038405
 21
72.16173481539863
 31
0.0
  0
LINE
  5
A3708
330
18
100
AcDbEntity
  8
01
100
AcDbLine
 10
-96.32661294038405
 20
67.16173481539772
 30
0.0
 11
-97.27661294038387
 21
67.16173481539772
 31
0.0
  0
LINE
  5
A3709
330
18
100
AcDbEntity
  8
01
100
AcDbLine
 10
-96.32661294038405
 20
47.8252219267315
 30
0.0
 11
-97.57661294038405
 21
47.8252219267315
 31
0.0
  0
SPLINE
  5
A370A
330
18
100
AcDbEntity
  8
01
100
AcDbSpline
210
0.0
220
0.0
230
1.0
 70
     8
 71
     3
 72
    15
 73
    11
 74
     0
 42
0.0000000001
 43
0.0000000001
 40
0.0
 40
0.0
 40
0.0
 40
0.0
 40
1.65207836665011
 40
3.213715097787865
 40
4.789109147914409
 40
6.346380277418402
 40
7.853913087402291
 40
9.384252383368937
 40
10.91757253413465
 40
12.54597775375193
 40
12.54597775375193
 40
12.54597775375193
 40
12.54597775375193
 10
-79.07661300018242
 20
32.51857453291564
 30
0.0
 10
-78.5259196232413
 20
32.51857155905986
 30
0.0
 10
-77.45463224942921
 20
32.41648362093611
 30
0.0
 10
-75.91518327438132
 20
31.96853419637137
 30
0.0
 10
-74.51677197574497
 20
31.24947590678562
 30
0.0
 10
-73.30463331495355
 20
30.27554563655372
 30
0.0
 10
-72.32617068584057
 20
29.08670492898455
 30
0.0
 10
-71.61354804452947
 20
27.73086195898759
 30
0.0
 10
-71.17303647767619
 20
26.22245392069863
 30
0.0
 10
-71.07657574649
 20
25.16808652497866
 30
0.0
 10
-71.07661300018242
 20
24.62533490947567
 30
0.0
  0
SPLINE
  5
A370B
330
18
100
AcDbEntity
  8
01
100
AcDbSpline
210
0.0
220
0.0
230
1.0
 70
     8
 71
     3
 72
    14
 73
    10
 74
     0
 42
0.0000000001
 43
0.0000000001
 40
0.0
 40
0.0
 40
0.0
 40
0.0
 40
1.634090261055468
 40
3.16848319164552
 40
4.690823739795473
 40
6.165624591803823
 40
7.687363084182726
 40
9.251037889776907
 40
12.49301505670537
 40
12.49301505670537
 40
12.49301505670537
 40
12.49301505670537
 10
-71.07661300018242
 20
22.74952870864081
 30
0.0
 10
-71.07659123809515
 20
22.20489209701555
 30
0.0
 10
-71.17267301258687
 20
21.14816854161495
 30
0.0
 10
-71.61599013091325
 20
19.64070707651808
 30
0.0
 10
-72.33063750043709
 20
18.3006210399567
 30
0.0
 10
-73.30290931349498
 20
17.1397304110933
 30
0.0
 10
-74.50122965778553
 20
16.19195581900476
 30
0.0
 10
-76.39203998577102
 20
15.2338870819674
 30
0.0
 10
-77.99647568655689
 20
14.94216087221457
 30
0.0
 10
-79.07661300018151
 20
14.94219035808487
 30
0.0
  0
SPLINE
  5
A370C
330
18
100
AcDbEntity
  8
01
100
AcDbSpline
210
0.0
220
0.0
230
1.0
 70
     8
 71
     3
 72
    14
 73
    10
 74
     0
 42
0.0000000001
 43
0.0000000001
 40
0.0
 40
0.0
 40
0.0
 40
0.0
 40
1.63408206705041
 40
3.168474508089766
 40
4.690815056239088
 40
6.165615908247727
 40
7.687354400626808
 40
9.251029206221052
 40
12.49300637314948
 40
12.49300637314948
 40
12.49300637314948
 40
12.49300637314948
 10
-111.0766130001815
 20
22.74952001156635
 30
0.0
 10
-111.0766344438492
 20
22.20488612215559
 30
0.0
 10
-110.9805520648164
 20
21.14816559211886
 30
0.0
 10
-110.5372358212165
 20
19.64070692992073
 30
0.0
 10
-109.8225884856751
 20
18.30062104082344
 30
0.0
 10
-108.8503166941695
 20
17.13973041065401
 30
0.0
 10
-107.6519963390195
 20
16.19195581921872
 30
0.0
 10
-105.7611860176406
 20
15.23388708178481
 30
0.0
 10
-104.1567503122582
 20
14.94216087230666
 30
0.0
 10
-103.0766130001815
 20
14.94219035808601
 30
0.0
  0
SPLINE
  5
A370D
330
18
100
AcDbEntity
  8
01
100
AcDbSpline
210
0.0
220
0.0
230
1.0
 70
     8
 71
     3
 72
    15
 73
    11
 74
     0
 42
0.0000000001
 43
0.0000000001
 40
0.0
 40
0.0
 40
0.0
 40
0.0
 40
1.652078366649948
 40
3.213715097787654
 40
4.78910914791484
 40
6.346380277418894
 40
7.853913087402892
 40
9.384252383369379
 40
10.9175727349394
 40
12.54598512216297
 40
12.54598512216297
 40
12.54598512216297
 40
12.54598512216297
 10
-103.0766130001815
 20
32.51857453291495
 30
0.0
 10
-103.6273063760658
 20
32.51857155899575
 30
0.0
 10
-104.6985937530557
 20
32.41648362106434
 30
0.0
 10
-106.2380427231423
 20
31.96853419620038
 30
0.0
 10
-107.6364540294611
 20
31.24947590707689
 30
0.0
 10
-108.8485926766874
 20
30.27554563602416
 30
0.0
 10
-109.8270553308261
 20
29.08670492997862
 30
0.0
 10
-110.5396779545557
 20
27.73086189736728
 30
0.0
 10
-110.9801903080401
 20
26.22245149041396
 30
0.0
 10
-111.076650471355
 20
25.16808152149406
 30
0.0
 10
-111.0766130001815
 20
24.62532752605034
 30
0.0
  0
SPLINE
  5
A370E
330
18
100
AcDbEntity
  8
01
100
AcDbSpline
210
0.0
220
0.0
230
1.0
 70
     8
 71
     3
 72
    15
 73
    11
 74
     0
 42
0.0000000001
 43
0.0000000001
 40
0.0
 40
0.0
 40
0.0
 40
0.0
 40
1.618050425320939
 40
3.188848469726526
 40
4.76752300656605
 40
6.274399984243082
 40
7.847191417749568
 40
9.401461135380714
 40
10.98284587868975
 40
12.61906223406566
 40
12.61906223406566
 40
12.61906223406566
 40
12.61906223406566
 10
-71.07661300018242
 20
24.16173481540091
 30
0.0
 10
-71.07666262534292
 20
24.70102720703767
 30
0.0
 10
-71.16498731645822
 20
25.76455217971329
 30
0.0
 10
-71.58951430099603
 20
27.303785070309
 30
0.0
 10
-72.30215116527086
 20
28.6926667212972
 30
0.0
 10
-73.29330685788625
 20
29.89924804320412
 30
0.0
 10
-74.5109401220974
 20
30.86393757347014
 30
0.0
 10
-75.92079618146488
 20
31.57070355193423
 30
0.0
 10
-77.4585987106833
 20
32.00312923936667
 30
0.0
 10
-78.53121040535314
 20
32.10064814750922
 30
0.0
 10
-79.07661300018242
 20
32.10071878561553
 30
0.0
  0
SPLINE
  5
A370F
330
18
100
AcDbEntity
  8
01
100
AcDbSpline
210
0.0
220
0.0
230
1.0
 70
     8
 71
     3
 72
    15
 73
    11
 74
     0
 42
0.0000000001
 43
0.0000000001
 40
0.0
 40
0.0
 40
0.0
 40
0.0
 40
1.638334516601119
 40
3.214528253303465
 40
4.71624386850382
 40
6.213059945917118
 40
7.775484670064923
 40
9.323530165007844
 40
10.97175307600369
 40
12.60746594655584
 40
12.60746594655584
 40
12.60746594655584
 40
12.60746594655584
 10
-111.0766130001815
 20
23.30774683753771
 30
0.0
 10
-111.0765368189781
 20
22.76170634429218
 30
0.0
 10
-110.9896420038871
 20
21.68950038130765
 30
0.0
 10
-110.572288069386
 20
20.1659687325332
 30
0.0
 10
-109.8770619845458
 20
18.79944325066526
 30
0.0
 10
-108.9115919020772
 20
17.61360795888208
 30
0.0
 10
-107.7011971446694
 20
16.65375263960959
 30
0.0
 10
-106.2756148798156
 20
15.94083899075895
 30
0.0
 10
-104.7165511875886
 20
15.50832026152148
 30
0.0
 10
-103.6218627617994
 20
15.41181688702682
 30
0.0
 10
-103.0766130001815
 20
15.41173481539931
 30
0.0
  0
SPLINE
  5
A3710
330
18
100
AcDbEntity
  8
01
100
AcDbSpline
210
0.0
220
0.0
230
1.0
 70
     8
 71
     3
 72
    15
 73
    11
 74
     0
 42
0.0000000001
 43
0.0000000001
 40
0.0
 40
0.0
 40
0.0
 40
0.0
 40
1.635712870552149
 40
3.283935781547949
 40
4.831981276490916
 40
6.394406000638781
 40
7.891222078052155
 40
9.392937693252488
 40
10.96913142995482
 40
12.60746594655589
 40
12.60746594655589
 40
12.60746594655589
 40
12.60746594655589
 10
-79.07661300018242
 20
15.41173481539931
 30
0.0
 10
-78.5313632385645
 20
15.41181688702682
 30
0.0
 10
-77.43667481277623
 20
15.50832026152148
 30
0.0
 10
-75.8776111205483
 20
15.94083899075872
 30
0.0
 10
-74.4520288556945
 20
16.65375263960959
 30
0.0
 10
-73.24163409828577
 20
17.61360795888208
 30
0.0
 10
-72.27616401581815
 20
18.79944325066526
 30
0.0
 10
-71.58093793097794
 20
20.16596873253343
 30
0.0
 10
-71.16358399647686
 20
21.68950038130788
 30
0.0
 10
-71.07668918138586
 20
22.76170634429218
 30
0.0
 10
-71.07661300018242
 20
23.30774683753771
 30
0.0
  0
SPLINE
  5
A3711
330
18
100
AcDbEntity
  8
01
100
AcDbSpline
210
0.0
220
0.0
230
1.0
 70
     8
 71
     3
 72
    15
 73
    11
 74
     0
 42
0.0000000001
 43
0.0000000001
 40
0.0
 40
0.0
 40
0.0
 40
0.0
 40
1.63621635537589
 40
3.217601098684852
 40
4.771870816316071
 40
6.344662249822617
 40
7.851539227499726
 40
9.430213764339216
 40
11.00101180874483
 40
12.61906223406585
 40
12.61906223406585
 40
12.61906223406585
 40
12.61906223406585
 10
-103.0766130001815
 20
32.10071878561553
 30
0.0
 10
-103.6220155950108
 20
32.10064814750922
 30
0.0
 10
-104.6946272896797
 20
32.0031292393669
 30
0.0
 10
-106.232429818899
 20
31.57070355193446
 30
0.0
 10
-107.6422858782665
 20
30.86393757347014
 30
0.0
 10
-108.8599191424777
 20
29.89924804320412
 30
0.0
 10
-109.8510748350931
 20
28.69266672129743
 30
0.0
 10
-110.5637116993679
 20
27.303785070309
 30
0.0
 10
-110.9882386839057
 20
25.76455217971306
 30
0.0
 10
-111.076563375021
 20
24.70102720703744
 30
0.0
 10
-111.0766130001815
 20
24.16173481540068
 30
0.0
  0
LINE
  5
A3712
330
18
100
AcDbEntity
  8
01
100
AcDbLine
 10
-103.0766130001815
 20
32.10071878561553
 30
0.0
 11
-79.07661300018333
 21
32.10071878561553
 31
0.0
  0
LINE
  5
A3713
330
18
100
AcDbEntity
  8
01
100
AcDbLine
 10
-79.07661300018242
 20
32.51857453291564
 30
0.0
 11
-83.07661294038496
 21
32.51857453291541
 31
0.0
  0
LINE
  5
A3714
330
18
100
AcDbEntity
  8
01
100
AcDbLine
 10
-97.57661294038405
 20
32.51857453291495
 30
0.0
 11
-103.0766130001815
 21
32.51857453291495
 31
0.0
  0
LINE
  5
A3715
330
18
100
AcDbEntity
  8
01
100
AcDbLine
 10
-103.0766130001824
 20
15.41173481539931
 30
0.0
 11
-79.07661300018242
 21
15.41173481539931
 31
0.0
  0
LINE
  5
A3716
330
18
100
AcDbEntity
  8
01
100
AcDbLine
 10
-79.07661300018151
 20
14.94219035808487
 30
0.0
 11
-103.0766130001815
 21
14.94219035808601
 31
0.0
  0
LINE
  5
A3717
330
18
100
AcDbEntity
  8
01
100
AcDbLine
 10
-111.0766130001815
 20
22.74952001156635
 30
0.0
 11
-111.0766130001815
 21
24.62532752605034
 31
0.0
  0
LINE
  5
A3718
330
18
100
AcDbEntity
  8
01
100
AcDbLine
 10
-71.07661300018242
 20
22.74952870864081
 30
0.0
 11
-71.07661300018242
 21
24.62533490947567
 31
0.0
  0
LINE
  5
A3719
330
18
100
AcDbEntity
  8
01
100
AcDbLine
 10
-83.07661294038496
 20
33.1578158382631
 30
0.0
 11
-97.57661294038314
 21
33.1578158382631
 31
0.0
  0
LINE
  5
A371A
330
18
100
AcDbEntity
  8
01
100
AcDbLine
 10
-96.32661294038496
 20
-39.37315982566793
 30
0.0
 11
-97.27661294038387
 21
-39.3731598256677
 31
0.0
  0
SPLINE
  5
A371B
330
18
100
AcDbEntity
  8
01
100
AcDbSpline
210
0.0
220
0.0
230
1.0
 70
    24
 71
     2
 72
     6
 73
     3
 74
     0
 42
0.0000000001
 43
0.0000000001
 40
0.0
 40
0.0
 40
0.0
 40
2.121321538209232
 40
2.121321538209232
 40
2.121321538209232
 10
-71.07661294037405
 20
-39.48240738442428
 30
0.0
 10
-71.82661265828517
 20
-40.23240851125752
 30
0.0
 10
-72.5766123761963
 20
-40.98240963809053
 30
0.0
  0
SPLINE
  5
A371C
330
18
100
AcDbEntity
  8
01
100
AcDbSpline
210
0.0
220
0.0
230
1.0
 70
    24
 71
     2
 72
     6
 73
     3
 74
     0
 42
0.0000000001
 43
0.0000000001
 40
0.0
 40
0.0
 40
0.0
 40
0.948186232745897
 40
0.948186232745897
 40
0.948186232745897
 10
-71.07661294037405
 20
-39.40970680531154
 30
0.0
 10
-71.07661294037405
 20
-38.93561368893847
 30
0.0
 10
-71.07661294037405
 20
-38.46152057256563
 30
0.0
  0
SPLINE
  5
A371D
330
18
100
AcDbEntity
  8
01
100
AcDbSpline
210
0.0
220
0.0
230
1.0
 70
    28
 71
     2
 72
     6
 73
     3
 74
     0
 42
0.0000000001
 43
0.0000000001
 40
0.0
 40
0.0
 40
0.0
 40
0.0540238927272938
 40
0.0540238927272938
 40
0.0540238927272938
 10
-71.07661316325209
 20
-39.48240662624926
 30
0.0
 41
1.0
 10
-71.07661316325209
 20
-39.45539467988556
 30
0.0
 41
1.0
 10
-71.07661316325209
 20
-39.42838273352186
 30
0.0
 41
1.0
  0
SPLINE
  5
A371E
330
18
100
AcDbEntity
  8
01
100
AcDbSpline
210
0.0
220
0.0
230
1.0
 70
     8
 71
     3
 72
    19
 73
    15
 74
     0
 42
0.0000000001
 43
0.0000000001
 40
0.0
 40
0.0
 40
0.0
 40
0.0
 40
1.163709376315124
 40
2.29776119558683
 40
4.531845000155339
 40
5.727371172931941
 40
6.846828064116144
 40
7.420918131327312
 40
7.900853265743116
 40
8.117437816307037
 40
8.298139015577634
 40
8.415317028883731
 40
8.452346285651652
 40
8.48036006295931
 40
8.48036006295931
 40
8.48036006295931
 40
8.48036006295931
 10
-79.07661294037405
 20
-36.13781457208506
 30
0.0
 10
-78.68872429334567
 20
-36.13788525863583
 30
0.0
 10
-77.92276267095838
 20
-36.16563048225362
 30
0.0
 10
-76.42009690894463
 20
-36.32888934039806
 30
0.0
 10
-74.92949199376596
 20
-36.65080760974161
 30
0.0
 10
-73.48972868403632
 20
-37.13019528946279
 30
0.0
 10
-72.60187028552934
 20
-37.50528276835485
 30
0.0
 10
-71.95532250164831
 20
-37.83280009596047
 30
0.0
 10
-71.58875850044967
 20
-38.04535348522404
 30
0.0
 10
-71.3447759946406
 20
-38.20674231008911
 30
0.0
 10
-71.20757192670897
 20
-38.30970715074409
 30
0.0
 10
-71.12427895689086
 20
-38.38442396239543
 30
0.0
 10
-71.08622863923517
 20
-38.43200760767741
 30
0.0
 10
-71.07705487896908
 20
-38.45206830352072
 30
0.0
 10
-71.07661294037405
 20
-38.46152057256563
 30
0.0
  0
SPLINE
  5
A371F
330
18
100
AcDbEntity
  8
01
100
AcDbSpline
210
0.0
220
0.0
230
1.0
 70
     8
 71
     3
 72
    17
 73
    13
 74
     0
 42
0.0000000001
 43
0.0000000001
 40
0.0
 40
0.0
 40
0.0
 40
0.0
 40
0.0610286376992226
 40
0.1428204594260513
 40
0.2560549158763747
 40
0.3910096165890771
 40
0.7297854946562198
 40
1.165561670539971
 40
2.094601367392232
 40
3.103072730745963
 40
4.986805372741794
 40
6.907503573856063
 40
6.907503573856063
 40
6.907503573856063
 40
6.907503573856063
 10
-72.57661293678154
 20
-40.92401363385784
 30
0.0
 10
-72.57722112272984
 20
-40.90329116113116
 30
0.0
 10
-72.59867239187076
 20
-40.85968655195302
 30
0.0
 10
-72.65481533851778
 20
-40.79520236784106
 30
0.0
 10
-72.73704535960894
 20
-40.72187000644317
 30
0.0
 10
-72.89374936016463
 20
-40.60451181365238
 30
0.0
 10
-73.15100415073209
 20
-40.44357646078515
 30
0.0
 10
-73.65361542478911
 20
-40.17855741636981
 30
0.0
 10
-74.38244276708645
 20
-39.8686706962701
 30
0.0
 10
-75.59382514250262
 20
-39.47157968244937
 30
0.0
 10
-77.16833843942857
 20
-39.14386991552487
 30
0.0
 10
-78.43632947654203
 20
-39.0565676953197
 30
0.0
 10
-79.07661294227489
 20
-39.05666127298559
 30
0.0
  0
SPLINE
  5
A3720
330
18
100
AcDbEntity
  8
01
100
AcDbSpline
210
0.0
220
0.0
230
1.0
 70
     8
 71
     3
 72
    18
 73
    14
 74
     0
 42
0.0000000001
 43
0.0000000001
 40
0.0
 40
0.0
 40
0.0
 40
0.0
 40
0.097374242009401
 40
0.1974144796342623
 40
0.3189729751501668
 40
0.4570387942859647
 40
0.819194454559751
 40
1.280529372662611
 40
2.33754593371245
 40
3.567705155411695
 40
4.794364368792747
 40
6.049610109444145
 40
8.638941162522327
 40
8.638941162522327
 40
8.638941162522327
 40
8.638941162522327
 10
-71.07661294037405
 20
-39.42838273352186
 30
0.0
 10
-71.0766321113091
 20
-39.39583260488507
 30
0.0
 10
-71.09162366063663
 20
-39.33081317684355
 30
0.0
 10
-71.14155668387991
 20
-39.23644869783448
 30
0.0
 10
-71.21354091894352
 20
-39.1402331305967
 30
0.0
 10
-71.35731233748481
 20
-38.99045567544044
 30
0.0
 10
-71.60794208408731
 20
-38.78955583116294
 30
0.0
 10
-72.13869457635826
 20
-38.45451115366586
 30
0.0
 10
-72.96666069334913
 20
-38.05823638974925
 30
0.0
 10
-74.07051199092109
 20
-37.6631351866622
 30
0.0
 10
-75.26801310819735
 20
-37.34749427201655
 30
0.0
 10
-76.93178918698175
 20
-37.04231510747468
 30
0.0
 10
-78.21355907445957
 20
-36.95123574905574
 30
0.0
 10
-79.07661294037405
 20
-36.95108942856632
 30
0.0
  0
SPLINE
  5
A3721
330
18
100
AcDbEntity
  8
01
100
AcDbSpline
210
0.0
220
0.0
230
1.0
 70
    12
 71
     2
 72
     6
 73
     3
 74
     0
 42
0.0000000001
 43
0.0000000001
 40
0.0
 40
0.0
 40
0.0
 40
0.0583955150533333
 40
0.0583955150533333
 40
0.0583955150533333
 10
-72.57661286537711
 20
-40.98240914891085
 30
0.0
 41
1.0
 10
-72.57661305433373
 20
-40.95321139138468
 30
0.0
 41
0.9999999999862249
 10
-72.57661293678154
 20
-40.92401363385784
 30
0.0
 41
1.0
  0
SPLINE
  5
A3722
330
18
100
AcDbEntity
  8
01
100
AcDbSpline
210
0.0
220
0.0
230
1.0
 70
    24
 71
     2
 72
     6
 73
     3
 74
     0
 42
0.0000000001
 43
0.0000000001
 40
0.0
 40
0.0
 40
0.0
 40
2.121321538209232
 40
2.121321538209232
 40
2.121321538209232
 10
-111.0766129403959
 20
-39.48240738442428
 30
0.0
 10
-110.3266132224848
 20
-40.23240851125752
 30
0.0
 10
-109.5766135045736
 20
-40.98240963809053
 30
0.0
  0
SPLINE
  5
A3723
330
18
100
AcDbEntity
  8
01
100
AcDbSpline
210
0.0
220
0.0
230
1.0
 70
    24
 71
     2
 72
     6
 73
     3
 74
     0
 42
0.0000000001
 43
0.0000000001
 40
0.0
 40
0.0
 40
0.0
 40
0.948186232745897
 40
0.948186232745897
 40
0.948186232745897
 10
-111.0766129403959
 20
-39.40970680531154
 30
0.0
 10
-111.0766129403959
 20
-38.93561368893847
 30
0.0
 10
-111.0766129403959
 20
-38.46152057256563
 30
0.0
  0
SPLINE
  5
A3724
330
18
100
AcDbEntity
  8
01
100
AcDbSpline
210
0.0
220
0.0
230
1.0
 70
    28
 71
     2
 72
     6
 73
     3
 74
     0
 42
0.0000000001
 43
0.0000000001
 40
0.0
 40
0.0
 40
0.0
 40
0.0540238927272938
 40
0.0540238927272938
 40
0.0540238927272938
 10
-111.0766127175178
 20
-39.48240662624926
 30
0.0
 41
1.0
 10
-111.0766127175178
 20
-39.45539467988556
 30
0.0
 41
1.0
 10
-111.0766127175178
 20
-39.42838273352186
 30
0.0
 41
1.0
  0
SPLINE
  5
A3725
330
18
100
AcDbEntity
  8
01
100
AcDbSpline
210
0.0
220
0.0
230
1.0
 70
     8
 71
     3
 72
    19
 73
    15
 74
     0
 42
0.0000000001
 43
0.0000000001
 40
0.0
 40
0.0
 40
0.0
 40
0.0
 40
1.163709376315124
 40
2.29776119558683
 40
4.531845000155339
 40
5.727371172931941
 40
6.846828064116144
 40
7.420918131327312
 40
7.900853265743116
 40
8.117437816307037
 40
8.298139015577634
 40
8.415317028883731
 40
8.452346285651652
 40
8.48036006295931
 40
8.48036006295931
 40
8.48036006295931
 40
8.48036006295931
 10
-103.0766129403959
 20
-36.13781457208506
 30
0.0
 10
-103.4645015874243
 20
-36.13788525863583
 30
0.0
 10
-104.2304632098115
 20
-36.16563048225362
 30
0.0
 10
-105.7331289718253
 20
-36.32888934039806
 30
0.0
 10
-107.223733887004
 20
-36.65080760974161
 30
0.0
 10
-108.6634971967336
 20
-37.13019528946279
 30
0.0
 10
-109.5513555952406
 20
-37.50528276835485
 30
0.0
 10
-110.1979033791216
 20
-37.83280009596047
 30
0.0
 10
-110.5644673803203
 20
-38.04535348522404
 30
0.0
 10
-110.8084498861293
 20
-38.20674231008911
 30
0.0
 10
-110.945653954061
 20
-38.30970715074409
 30
0.0
 10
-111.0289469238791
 20
-38.38442396239543
 30
0.0
 10
-111.0669972415348
 20
-38.43200760767741
 30
0.0
 10
-111.0761710018008
 20
-38.45206830352072
 30
0.0
 10
-111.0766129403959
 20
-38.46152057256563
 30
0.0
  0
SPLINE
  5
A3726
330
18
100
AcDbEntity
  8
01
100
AcDbSpline
210
0.0
220
0.0
230
1.0
 70
     8
 71
     3
 72
    17
 73
    13
 74
     0
 42
0.0000000001
 43
0.0000000001
 40
0.0
 40
0.0
 40
0.0
 40
0.0
 40
0.0610286376992226
 40
0.1428204594260513
 40
0.2560549158763747
 40
0.3910096165890771
 40
0.7297854946562198
 40
1.165561670539971
 40
2.094601367392232
 40
3.103072730745963
 40
4.986805372741794
 40
6.907503573856063
 40
6.907503573856063
 40
6.907503573856063
 40
6.907503573856063
 10
-109.5766129439884
 20
-40.92401363385784
 30
0.0
 10
-109.5760047580401
 20
-40.90329116113116
 30
0.0
 10
-109.5545534888992
 20
-40.85968655195302
 30
0.0
 10
-109.4984105422521
 20
-40.79520236784106
 30
0.0
 10
-109.416180521161
 20
-40.72187000644317
 30
0.0
 10
-109.2594765206053
 20
-40.60451181365238
 30
0.0
 10
-109.0022217300378
 20
-40.44357646078515
 30
0.0
 10
-108.4996104559808
 20
-40.17855741636981
 30
0.0
 10
-107.7707831136835
 20
-39.8686706962701
 30
0.0
 10
-106.5594007382673
 20
-39.47157968244937
 30
0.0
 10
-104.9848874413414
 20
-39.14386991552487
 30
0.0
 10
-103.7168964042279
 20
-39.0565676953197
 30
0.0
 10
-103.076612938495
 20
-39.05666127298559
 30
0.0
  0
SPLINE
  5
A3727
330
18
100
AcDbEntity
  8
01
100
AcDbSpline
210
0.0
220
0.0
230
1.0
 70
     8
 71
     3
 72
    18
 73
    14
 74
     0
 42
0.0000000001
 43
0.0000000001
 40
0.0
 40
0.0
 40
0.0
 40
0.0
 40
0.097374242009401
 40
0.1974144796342623
 40
0.3189729751501668
 40
0.4570387942859647
 40
0.819194454559751
 40
1.280529372662611
 40
2.33754593371245
 40
3.567705155411695
 40
4.794364368792747
 40
6.049610109444145
 40
8.638941162522327
 40
8.638941162522327
 40
8.638941162522327
 40
8.638941162522327
 10
-111.0766129403959
 20
-39.42838273352186
 30
0.0
 10
-111.0765937694608
 20
-39.39583260488507
 30
0.0
 10
-111.0616022201333
 20
-39.33081317684355
 30
0.0
 10
-111.01166919689
 20
-39.23644869783448
 30
0.0
 10
-110.9396849618264
 20
-39.1402331305967
 30
0.0
 10
-110.7959135432851
 20
-38.99045567544044
 30
0.0
 10
-110.5452837966826
 20
-38.78955583116294
 30
0.0
 10
-110.0145313044117
 20
-38.45451115366586
 30
0.0
 10
-109.1865651874208
 20
-38.05823638974925
 30
0.0
 10
-108.0827138898488
 20
-37.6631351866622
 30
0.0
 10
-106.8852127725726
 20
-37.34749427201655
 30
0.0
 10
-105.2214366937882
 20
-37.04231510747468
 30
0.0
 10
-103.9396668063104
 20
-36.95123574905574
 30
0.0
 10
-103.0766129403959
 20
-36.95108942856632
 30
0.0
  0
SPLINE
  5
A3728
330
18
100
AcDbEntity
  8
01
100
AcDbSpline
210
0.0
220
0.0
230
1.0
 70
    12
 71
     2
 72
     6
 73
     3
 74
     0
 42
0.0000000001
 43
0.0000000001
 40
0.0
 40
0.0
 40
0.0
 40
0.0583955150533333
 40
0.0583955150533333
 40
0.0583955150533333
 10
-109.5766130153928
 20
-40.98240914891085
 30
0.0
 41
1.0
 10
-109.5766128264362
 20
-40.95321139138468
 30
0.0
 41
0.9999999999862249
 10
-109.5766129439884
 20
-40.92401363385784
 30
0.0
 41
1.0
  0
LINE
  5
A3729
330
18
100
AcDbEntity
  8
01
  6
BYBLOCK
100
AcDbLine
 10
-103.076612938495
 20
-39.05666127298559
 30
0.0
 11
-79.07661294227489
 21
-39.05666127298559
 31
0.0
  0
LINE
  5
A372A
330
18
100
AcDbEntity
  8
01
  6
BYBLOCK
100
AcDbLine
 10
-103.0766129403959
 20
-36.95108942856632
 30
0.0
 11
-79.07661294417574
 21
-36.95108942856632
 31
0.0
  0
LINE
  5
A372B
330
18
100
AcDbEntity
  8
01
  6
BYBLOCK
100
AcDbLine
 10
-103.0766129403959
 20
-36.13781457208506
 30
0.0
 11
-79.07661294417574
 21
-36.13781457208506
 31
0.0
  0
ELLIPSE
  5
A372C
330
18
100
AcDbEntity
  8
01
100
AcDbEllipse
 10
-97.27661294038387
 20
-39.54314487286547
 30
0.0
 11
-0.3000000000001819
 21
0.0
 31
0.0
210
0.0
220
0.0
230
1.0
 40
0.5666168239920327
 41
4.71238898038469
 42
6.283185307179586
  0
LINE
  5
A372D
330
18
100
AcDbEntity
  8
01
  6
BYBLOCK
100
AcDbLine
 10
-84.32661294038496
 20
-91.68237000585759
 30
0.0
 11
-84.32661294038496
 21
-40.73237000585732
 31
0.0
  0
ARC
  5
A372E
330
18
100
AcDbEntity
  8
01
  6
BYBLOCK
100
AcDbCircle
 10
-84.62661294038514
 20
-91.68237000585759
 30
0.0
 40
0.3
100
AcDbArc
 50
270.0
 51
0.0
  0
LINE
  5
A372F
330
18
100
AcDbEntity
  8
01
  6
BYBLOCK
100
AcDbLine
 10
-83.07661294038496
 20
-91.18237000585759
 30
0.0
 11
-83.07661294038576
 21
-40.73237000585732
 31
0.0
  0
ARC
  5
A3730
330
18
100
AcDbEntity
  8
01
  6
BYBLOCK
100
AcDbCircle
 10
-83.37661294038514
 20
-91.18237000585759
 30
0.0
 40
0.3
100
AcDbArc
 50
270.0
 51
0.0
  0
ARC
  5
A3731
330
18
100
AcDbEntity
  8
01
  6
BYBLOCK
100
AcDbCircle
 10
-96.02661294038478
 20
-91.68237000585759
 30
0.0
 40
0.3
100
AcDbArc
 50
180.0
 51
270.0
  0
LINE
  5
A3732
330
18
100
AcDbEntity
  8
01
  6
BYBLOCK
100
AcDbLine
 10
-84.32661294038496
 20
-91.48237000585732
 30
0.0
 11
-83.37661294038514
 21
-91.48237000585732
 31
0.0
  0
LINE
  5
A3733
330
18
100
AcDbEntity
  8
01
  6
BYBLOCK
100
AcDbLine
 10
-96.32661294038496
 20
-40.73237000585732
 30
0.0
 11
-84.32661294038496
 21
-40.73237000585732
 31
0.0
  0
LINE
  5
A3734
330
18
100
AcDbEntity
  8
01
  6
BYBLOCK
100
AcDbLine
 10
-84.32661294038496
 20
-40.73237000585732
 30
0.0
 11
-83.07661294038405
 21
-40.73237000585732
 31
0.0
  0
LINE
  5
A3735
330
18
100
AcDbEntity
  8
01
100
AcDbLine
 10
-96.32661294038405
 20
66.66173481539795
 30
0.0
 11
-84.32661294038598
 21
66.6617348153984
 31
0.0
  0
LINE
  5
A3736
330
18
100
AcDbEntity
  8
01
100
AcDbLine
 10
-84.32661294038598
 20
47.21114174082322
 30
0.0
 11
-96.32661294038405
 21
47.21114174082322
 31
0.0
  0
LINE
  5
A3737
330
18
100
AcDbEntity
  8
01
100
AcDbLine
 10
-83.07661294038587
 20
32.51857453291495
 30
0.0
 11
-83.07661294038587
 21
72.16173481539863
 31
0.0
  0
ARC
  5
A3738
330
18
100
AcDbEntity
  8
01
100
AcDbCircle
 10
-83.37661294038605
 20
67.4617348153979
 30
0.0
 40
0.3
100
AcDbArc
 50
270.0
 51
0.0
  0
LINE
  5
A3739
330
18
100
AcDbEntity
  8
01
100
AcDbLine
 10
-84.32661294038587
 20
33.15781583826674
 30
0.0
 11
-84.32661294038587
 21
72.16173481539863
 31
0.0
  0
LINE
  5
A373A
330
18
100
AcDbEntity
  8
01
100
AcDbLine
 10
-84.32661294038587
 20
67.16173481539772
 30
0.0
 11
-83.37661294038605
 21
67.16173481539772
 31
0.0
  0
LINE
  5
A373B
330
18
100
AcDbEntity
  8
01
100
AcDbLine
 10
-84.32661294038587
 20
47.8252219267315
 30
0.0
 11
-83.07661294038587
 21
47.8252219267315
 31
0.0
  0
LINE
  5
A373C
330
18
100
AcDbEntity
  8
01
  6
BYBLOCK
100
AcDbLine
 10
-82.57661294038508
 20
-41.48237000585709
 30
0.0
 11
-83.07661294038576
 21
-41.48237000585686
 31
0.0
  0
LINE
  5
A373D
330
18
100
AcDbEntity
  8
01
  6
BYBLOCK
100
AcDbLine
 10
-97.57661294038394
 20
-41.48237000585709
 30
0.0
 11
-98.07661294038496
 21
-41.48237000585709
 31
0.0
  0
CIRCLE
  5
A3741
330
18
100
AcDbEntity
  8
1PHANTOM
100
AcDbCircle
 10
-3.414689687018949
 20
-20.98237000585732
 30
0.0
 40
17.49391695706663
  0
LINE
  5
A3742
330
18
100
AcDbEntity
  8
1CENTER
100
AcDbLine
 10
-12.16164816555192
 20
-20.98237000585686
 30
0.0
 11
5.33226879151448
 21
-20.98237000585664
 31
0.0
  0
LINE
  5
A3743
330
18
100
AcDbEntity
  8
1CENTER
100
AcDbLine
 10
-3.414689687018722
 20
-29.73237000585732
 30
0.0
 11
-3.414689687018722
 21
-12.23237000585664
 31
0.0
  0
LINE
  5
A3744
330
18
100
AcDbEntity
  8
1CENTER
100
AcDbLine
 10
-91.07661294038496
 20
-80.95952532395086
 30
0.0
 11
-91.07661294038496
 21
-88.00521468776265
 31
0.0
  0
LINE
  5
A3745
330
18
100
AcDbEntity
  8
1CENTER
100
AcDbLine
 10
-94.59945762229086
 20
-49.48237000585686
 30
0.0
 11
-87.55376825847907
 21
-49.48237000585686
 31
0.0
  0
LINE
  5
A3746
330
18
100
AcDbEntity
  8
1CENTER
100
AcDbLine
 10
-91.07661294038496
 20
-45.95952532395086
 30
0.0
 11
-91.07661294038496
 21
-53.00521468776265
 31
0.0
  0
LINE
  5
A3753
330
18
100
AcDbEntity
  8
1PHANTOM
100
AcDbLine
 10
-6.914875416604332
 20
-40.58750880210846
 30
0.0
 11
0.0851269101823391
 21
-40.58752508967814
 31
0.0
  0
LINE
  5
A3754
330
18
100
AcDbEntity
  8
1PHANTOM
100
AcDbLine
 10
0.0851269101823391
 20
-40.28752508967705
 30
0.0
 11
0.0851269101823391
 21
-40.58752508967814
 31
0.0
  0
LINE
  5
A3755
330
18
100
AcDbEntity
  8
1PHANTOM
100
AcDbLine
 10
-6.914875416604332
 20
-40.28750880210737
 30
0.0
 11
-6.914875416604332
 21
-40.58750880210846
 31
0.0
  0
LINE
  5
A3756
330
18
100
AcDbEntity
  8
1PHANTOM
100
AcDbLine
 10
0.0851269101827938
 20
-40.28752508967705
 30
0.0
 11
-1.914877743397824
 21
-38.28749716795824
 31
0.0
  0
LINE
  5
A3757
330
18
100
AcDbEntity
  8
1PHANTOM
100
AcDbLine
 10
-6.914875416604332
 20
-40.28750880210737
 30
0.0
 11
-4.914877743397824
 21
-38.28752508960542
 31
0.0
  0
LINE
  5
A3758
330
18
100
AcDbEntity
  8
1PHANTOM
100
AcDbLine
 10
-1.914877743397824
 20
-26.38752043607656
 30
0.0
 11
-1.914877743397824
 21
-38.28749716795824
 31
0.0
  0
LINE
  5
A3759
330
18
100
AcDbEntity
  8
1PHANTOM
100
AcDbLine
 10
-4.914877743397824
 20
-26.38751345569176
 30
0.0
 11
-4.914877743397824
 21
-38.28752508960542
 31
0.0
  0
LINE
  5
A375A
330
18
100
AcDbEntity
  8
1PHANTOM
100
AcDbLine
 10
-3.414877743397824
 20
-21.08751694583088
 30
0.0
 11
-1.914877743397824
 21
-26.38752043607656
 31
0.0
  0
LINE
  5
A375B
330
18
100
AcDbEntity
  8
1PHANTOM
100
AcDbLine
 10
-3.414877743397824
 20
-21.08751694583088
 30
0.0
 11
-4.914877743397824
 21
-26.38751345569176
 31
0.0
  0
LINE
  5
A375C
330
18
100
AcDbEntity
  8
1PHANTOM
100
AcDbLine
 10
-6.914875416604332
 20
-40.28750880210737
 30
0.0
 11
0.0851269101827938
 21
-40.28752508967705
 31
0.0
  0
LINE
  5
A375D
330
18
100
AcDbEntity
  8
1PHANTOM
100
AcDbLine
 10
-5.414877743397824
 20
-37.58751229229438
 30
0.0
 11
-1.414877743397824
 21
-36.78752159947612
 31
0.0
  0
LINE
  5
A375E
330
18
100
AcDbEntity
  8
1PHANTOM
100
AcDbLine
 10
-1.414877743397824
 20
-36.78752159947612
 30
0.0
 11
-1.914877743397824
 21
-36.68752043607833
 31
0.0
  0
LINE
  5
A375F
330
18
100
AcDbEntity
  8
1PHANTOM
100
AcDbLine
 10
-5.414877743397824
 20
-34.38751229229433
 30
0.0
 11
-1.414877743397824
 21
-33.58752159947176
 31
0.0
  0
LINE
  5
A3760
330
18
100
AcDbEntity
  8
1PHANTOM
100
AcDbLine
 10
-5.414877743397824
 20
-35.98751229229424
 30
0.0
 11
-1.414877743397824
 21
-35.18752159947167
 31
0.0
  0
LINE
  5
A3761
330
18
100
AcDbEntity
  8
1PHANTOM
100
AcDbLine
 10
-5.414877743397824
 20
-31.18751229229429
 30
0.0
 11
-1.414877743397824
 21
-30.38752159947171
 31
0.0
  0
LINE
  5
A3762
330
18
100
AcDbEntity
  8
1PHANTOM
100
AcDbLine
 10
-5.414877743397824
 20
-32.7875122922942
 30
0.0
 11
-1.414877743397824
 21
-31.98752159947162
 31
0.0
  0
LINE
  5
A3763
330
18
100
AcDbEntity
  8
1PHANTOM
100
AcDbLine
 10
-5.414877743397824
 20
-27.98751229229424
 30
0.0
 11
-1.414877743397824
 21
-27.18752159947167
 31
0.0
  0
LINE
  5
A3764
330
18
100
AcDbEntity
  8
1PHANTOM
100
AcDbLine
 10
-1.641284795601564
 20
-25.58752107266901
 30
0.0
 11
-2.177878530872817
 21
-25.45825037503914
 31
0.0
  0
LINE
  5
A3765
330
18
100
AcDbEntity
  8
1PHANTOM
100
AcDbLine
 10
-5.414877743397824
 20
-26.38751229229433
 30
0.0
 11
-1.641284795601564
 21
-25.58752107266901
 31
0.0
  0
LINE
  5
A3766
330
18
100
AcDbEntity
  8
1PHANTOM
100
AcDbLine
 10
-5.414877743397824
 20
-29.58751229229438
 30
0.0
 11
-1.414877743397824
 21
-28.7875215994718
 31
0.0
  0
LINE
  5
A3767
330
18
100
AcDbEntity
  8
1PHANTOM
100
AcDbLine
 10
-1.414877743397824
 20
-33.58752159947176
 30
0.0
 11
-1.914877743397824
 21
-33.48752043607465
 31
0.0
  0
LINE
  5
A3768
330
18
100
AcDbEntity
  8
1PHANTOM
100
AcDbLine
 10
-1.414877743397824
 20
-35.18752159947167
 30
0.0
 11
-1.914877743397824
 21
-35.08752043607456
 31
0.0
  0
LINE
  5
A3769
330
18
100
AcDbEntity
  8
1PHANTOM
100
AcDbLine
 10
-1.414877743397824
 20
-30.38752159947171
 30
0.0
 11
-1.914877743397824
 21
-30.2875204360746
 31
0.0
  0
LINE
  5
A376A
330
18
100
AcDbEntity
  8
1PHANTOM
100
AcDbLine
 10
-1.414877743397824
 20
-31.98752159947162
 30
0.0
 11
-1.914877743397824
 21
-31.88752043607451
 31
0.0
  0
LINE
  5
A376B
330
18
100
AcDbEntity
  8
1PHANTOM
100
AcDbLine
 10
-1.414877743397824
 20
-27.18752159947167
 30
0.0
 11
-1.914877743397824
 21
-27.08752043607456
 31
0.0
  0
LINE
  5
A376C
330
18
100
AcDbEntity
  8
1PHANTOM
100
AcDbLine
 10
-1.414877743397824
 20
-28.7875215994718
 30
0.0
 11
-1.914877743397824
 21
-28.68752043607469
 31
0.0
  0
LINE
  5
A376D
330
18
100
AcDbEntity
  8
1PHANTOM
100
AcDbLine
 10
-4.49396314618923
 20
-24.90028285825451
 30
0.0
 11
-4.96206160133886
 21
-24.78751334590447
 31
0.0
  0
LINE
  5
A376E
330
18
100
AcDbEntity
  8
1PHANTOM
100
AcDbLine
 10
-2.54691300441516
 20
-22.38751896545773
 30
0.0
 11
-3.135189579457688
 21
-22.07574910920562
 31
0.0
  0
LINE
  5
A376F
330
18
100
AcDbEntity
  8
1PHANTOM
100
AcDbLine
 10
-4.052076252659731
 20
-23.33895019594911
 30
0.0
 11
-4.509248093290694
 21
-23.1875143995087
 31
0.0
  0
LINE
  5
A3770
330
18
100
AcDbEntity
  8
1PHANTOM
100
AcDbLine
 10
-2.094098900008589
 20
-23.98752001906337
 30
0.0
 11
-2.645848363811979
 21
-23.80475587643537
 31
0.0
  0
LINE
  5
A3771
330
18
100
AcDbEntity
  8
1PHANTOM
100
AcDbLine
 10
-4.509248093290694
 20
-23.1875143995087
 30
0.0
 11
-2.54691300441516
 21
-22.38751896545773
 31
0.0
  0
LINE
  5
A3772
330
18
100
AcDbEntity
  8
1PHANTOM
100
AcDbLine
 10
-4.96206160133886
 20
-24.78751334590447
 30
0.0
 11
-2.094098900008589
 21
-23.98752001906337
 31
0.0
  0
LINE
  5
A3773
330
18
100
AcDbEntity
  8
1PHANTOM
100
AcDbLine
 10
-4.914877743397824
 20
-34.48751345569144
 30
0.0
 11
-5.414877743397824
 21
-34.38751229229433
 31
0.0
  0
LINE
  5
A3774
330
18
100
AcDbEntity
  8
1PHANTOM
100
AcDbLine
 10
-4.914877743397824
 20
-36.08751345569203
 30
0.0
 11
-5.414877743397824
 21
-35.98751229229424
 31
0.0
  0
LINE
  5
A3775
330
18
100
AcDbEntity
  8
1PHANTOM
100
AcDbLine
 10
-4.914877743397824
 20
-29.68751345569149
 30
0.0
 11
-5.414877743397824
 21
-29.58751229229438
 31
0.0
  0
LINE
  5
A3776
330
18
100
AcDbEntity
  8
1PHANTOM
100
AcDbLine
 10
-4.914877743397824
 20
-31.2875134556914
 30
0.0
 11
-5.414877743397824
 21
-31.18751229229429
 31
0.0
  0
LINE
  5
A3777
330
18
100
AcDbEntity
  8
1PHANTOM
100
AcDbLine
 10
-4.914877743397824
 20
-32.88751345569131
 30
0.0
 11
-5.414877743397824
 21
-32.7875122922942
 31
0.0
  0
LINE
  5
A3778
330
18
100
AcDbEntity
  8
1PHANTOM
100
AcDbLine
 10
-4.914877743397824
 20
-28.08751345569135
 30
0.0
 11
-5.414877743397824
 21
-27.98751229229424
 31
0.0
  0
LINE
  5
A3779
330
18
100
AcDbEntity
  8
1PHANTOM
100
AcDbLine
 10
-4.914877743397824
 20
-26.48751345569144
 30
0.0
 11
-5.414877743397824
 21
-26.38751229229433
 31
0.0
  0
LINE
  5
A377A
330
18
100
AcDbEntity
  8
1PHANTOM
100
AcDbLine
 10
-4.914877743397824
 20
-37.68751345569194
 30
0.0
 11
-5.414877743397824
 21
-37.58751229229438
 31
0.0
  0
TEXT
  5
A377B
330
18
100
AcDbEntity
  8
1TEXT
100
AcDbText
 10
-20.33618552412374
 20
60.7884618266562
 30
0.0
 40
4.0
  1
マットブラック
 72
     1
 11
-4.069518857457069
 21
60.7884618266562
 31
0.0
100
AcDbText
  0
LINE
  5
A377C
330
18
100
AcDbEntity
  8
1DIM
100
AcDbLine
 10
-21.46951885745716
 20
59.1237504861806
 30
0.0
 11
48.53048114254284
 21
59.1237504861806
 31
0.0
  0
TEXT
  5
A377D
330
18
100
AcDbEntity
  8
1TEXT
100
AcDbText
 10
16.51937003143227
 20
60.4093935025312
 30
0.0
 40
4.0
  1
KH-451-003
 41
0.8
 72
     1
 11
30.93048114254339
 21
60.4093935025312
 31
0.0
100
AcDbText
  0
TEXT
  5
A3AC8
330
18
100
AcDbEntity
  8
01
  6
CONTINUOUS
100
AcDbText
 10
-47.63400772676435
 20
-101.1480869754027
 30
0.0
 40
3.5
  1
材質：亜鉛ダイキャスト
100
AcDbText
  0
TEXT
  5
A3AC9
330
18
100
AcDbEntity
  8
01
  6
CONTINUOUS
100
AcDbText
 10
-47.51734106009769
 20
-106.981420308736
 30
0.0
 40
3.5
  1
仕上げ：各種仕上げ
100
AcDbText
  0
TEXT
  5
A3ACA
330
18
100
AcDbEntity
  8
01
  6
CONTINUOUS
100
AcDbText
 10
-16.67623447563822
 20
-118.0404790370251
 30
0.0
 40
3.5
  1
材質：亜鉛ダイキャスト
100
AcDbText
  0
TEXT
  5
A3ACB
330
18
100
AcDbEntity
  8
01
  6
CONTINUOUS
100
AcDbText
 10
-16.55956780897156
 20
-123.8738123703584
 30
0.0
 40
3.5
  1
仕上げ：各種仕上げ
100
AcDbText
  0
TEXT
  5
A3ACC
330
18
100
AcDbEntity
  8
1DIM
  6
CONTINUOUS
100
AcDbText
 10
59.40775604991063
 20
-0.6918732163176173
 30
0.0
 40
3.5
  1
合板12mm以上
100
AcDbText
  0
LINE
  5
A3ACE
330
18
100
AcDbEntity
  8
1DIM
100
AcDbLine
 10
61.9003344888573
 20
-13.9748291763398
 30
0.0
 11
56.70775604991063
 21
-1.391873216317618
 31
0.0
  0
LINE
  5
A3ACF
330
18
100
AcDbEntity
  8
1DIM
100
AcDbLine
 10
56.70775604991063
 20
-1.391873216317618
 30
0.0
 11
92.1744227165773
 21
-1.391873216317618
 31
0.0
  0
LINE
  5
A3AD1
330
18
100
AcDbEntity
  8
1HATCH
100
AcDbLine
 10
53.81670988831885
 20
-13.90138304400687
 30
0.0
 11
50.54041155537202
 21
4.609472800806361
 31
0.0
  0
LINE
  5
A3AD2
330
18
100
AcDbEntity
  8
1HATCH
100
AcDbLine
 10
50.54041155537202
 20
4.609472800806361
 30
0.0
 11
59.07374488870535
 21
4.609472800806361
 31
0.0
  0
TEXT
  5
A3AD3
330
18
100
AcDbEntity
  8
1HATCH
  6
CONTINUOUS
100
AcDbText
 10
53.24041155537202
 20
5.309472800806361
 30
0.0
 40
3.5
  1
PB
100
AcDbText
  0
LINE
  5
A3AD4
330
18
100
AcDbEntity
  8
1DIM
  6
CONTINUOUS
100
AcDbLine
 10
-120.3807913757832
 20
-38.461520572567
 30
0.0
 11
-133.5766129403853
 21
-38.461520572567
 31
0.0
1001
ACAD
1000
DSTYLE
1002
{
1070
     3
1000
φ<>
1002
}
  0
LINE
  5
A3AD5
330
18
100
AcDbEntity
  8
1DIM
  6
CONTINUOUS
100
AcDbLine
 10
-120.3807913757832
 20
-3.461520572565632
 30
0.0
 11
-133.5766129403853
 21
-3.461520572565628
 31
0.0
1001
ACAD
1000
DSTYLE
1002
{
1070
     3
1000
φ<>
1002
}
  0
LINE
  5
A3AD6
330
18
100
AcDbEntity
  8
1DIM
  6
CONTINUOUS
100
AcDbLine
 10
-132.5766129403853
 20
-36.461520572567
 30
0.0
 11
-132.5766129403853
 21
-5.461520572565629
 31
0.0
1001
ACAD
1000
DSTYLE
1002
{
1070
     3
1000
φ<>
1002
}
  0
LINE
  5
A3ADA
330
18
100
AcDbEntity
  8
1DIM
  6
CONTINUOUS
100
AcDbLine
 10
-71.07661294037405
 20
-38.46152057248401
 30
0.0
 11
-71.07661294037405
 21
-108.4314727586084
 31
0.0
  0
LINE
  5
A3ADB
330
18
100
AcDbEntity
  8
1DIM
  6
CONTINUOUS
100
AcDbLine
 10
-111.0766129403959
 20
-38.46152057256563
 30
0.0
 11
-111.0766129403959
 21
-108.4314727586084
 31
0.0
  0
LINE
  5
A3ADC
330
18
100
AcDbEntity
  8
1DIM
  6
CONTINUOUS
100
AcDbLine
 10
-73.07661294037405
 20
-107.4314727586084
 30
0.0
 11
-109.0766129403959
 21
-107.4314727586084
 31
0.0
  0
LINE
  5
A3AE0
330
18
100
AcDbEntity
  8
0
100
AcDbLine
 10
60.70317589902811
 20
-46.98237000585686
 30
0.0
 11
61.70317589902811
 21
-51.98237000585686
 31
0.0
  0
LINE
  5
A3AE1
330
18
100
AcDbEntity
  8
1CENTER
100
AcDbLine
 10
86.03166354353033
 20
-49.48237000585687
 30
0.0
 11
39.60235756283623
 21
-49.48237000585686
 31
0.0
  0
LINE
  5
A3AE3
330
18
100
AcDbEntity
  8
0
100
AcDbLine
 10
78.73992251082092
 20
-47.16610306482102
 30
0.0
 11
78.58992251082091
 21
-47.91610306482102
 31
0.0
  0
LINE
  5
A3AE4
330
18
100
AcDbEntity
  8
0
100
AcDbLine
 10
78.73992251082092
 20
-47.16610306482097
 30
0.0
 11
79.6193034070391
 21
-51.56300754591172
 31
0.0
  0
LINE
  5
A3AE5
330
18
100
AcDbEntity
  8
0
100
AcDbLine
 10
83.56584723641686
 20
-49.79572669280061
 30
0.0
 11
83.41584723641685
 21
-50.54572669280061
 31
0.0
  0
LINE
  5
A3AE6
330
18
100
AcDbEntity
  8
0
100
AcDbLine
 10
82.96641981892466
 20
-48.29858960533972
 30
0.0
 11
82.81641981892466
 21
-49.04858960533972
 31
0.0
  0
LINE
  5
A3AE7
330
18
100
AcDbEntity
  8
0
100
AcDbLine
 10
82.96641981892466
 20
-48.29858960533972
 30
0.0
 11
83.41584723641688
 21
-50.54572669280055
 31
0.0
  0
LINE
  5
A3AE8
330
18
100
AcDbEntity
  8
0
100
AcDbLine
 10
79.7693034070391
 20
-50.81300754591172
 30
0.0
 11
79.6193034070391
 21
-51.56300754591172
 31
0.0
  0
LINE
  5
A3AE9
330
18
100
AcDbEntity
  8
0
100
AcDbLine
 10
81.66757532172798
 20
-50.30436711935614
 30
0.0
 11
81.51757532172797
 21
-51.05436711935614
 31
0.0
  0
LINE
  5
A3AEA
330
18
100
AcDbEntity
  8
0
100
AcDbLine
 10
80.8531711648728
 20
-47.73234633508037
 30
0.0
 11
80.7031711648728
 21
-48.48234633508037
 31
0.0
  0
LINE
  5
A3AEB
330
18
100
AcDbEntity
  8
0
100
AcDbLine
 10
80.8531711648728
 20
-47.73234633508032
 30
0.0
 11
81.51757532172797
 21
-51.05436711935619
 31
0.0
  0
LINE
  5
A3AEC
330
18
100
AcDbEntity
  8
0
100
AcDbLine
 10
69.85317589902812
 20
-51.23237000585686
 30
0.0
 11
69.70317589902811
 21
-51.98237000585686
 31
0.0
  0
LINE
  5
A3AED
330
18
100
AcDbEntity
  8
0
100
AcDbLine
 10
72.70317589902811
 20
-46.98237000585686
 30
0.0
 11
72.5531758990281
 21
-47.73237000585686
 31
0.0
  0
LINE
  5
A3AEE
330
18
100
AcDbEntity
  8
0
100
AcDbLine
 10
70.70317589902811
 20
-46.98237000585686
 30
0.0
 11
70.5531758990281
 21
-47.73237000585686
 31
0.0
  0
LINE
  5
A3AEF
330
18
100
AcDbEntity
  8
0
100
AcDbLine
 10
70.70317589902811
 20
-46.98237000585686
 30
0.0
 11
71.70317589902811
 21
-51.98237000585686
 31
0.0
  0
LINE
  5
A3AF0
330
18
100
AcDbEntity
  8
0
100
AcDbLine
 10
74.70317589902811
 20
-46.98237000585686
 30
0.0
 11
74.5531758990281
 21
-47.73237000585687
 31
0.0
  0
LINE
  5
A3AF1
330
18
100
AcDbEntity
  8
0
100
AcDbLine
 10
76.70317589902811
 20
-46.98237000585687
 30
0.0
 11
76.5531758990281
 21
-47.73237000585687
 31
0.0
  0
LINE
  5
A3AF2
330
18
100
AcDbEntity
  8
0
100
AcDbLine
 10
76.70317589902811
 20
-46.98237000585687
 30
0.0
 11
77.70317589902811
 21
-51.98237000585687
 31
0.0
  0
LINE
  5
A3AF3
330
18
100
AcDbEntity
  8
0
100
AcDbLine
 10
74.70317589902811
 20
-46.98237000585686
 30
0.0
 11
75.70317589902811
 21
-51.98237000585687
 31
0.0
  0
LINE
  5
A3AF4
330
18
100
AcDbEntity
  8
0
100
AcDbLine
 10
72.70317589902811
 20
-46.98237000585686
 30
0.0
 11
73.70317589902811
 21
-51.98237000585686
 31
0.0
  0
LINE
  5
A3AF5
330
18
100
AcDbEntity
  8
0
100
AcDbLine
 10
77.85317589902812
 20
-51.23237000585687
 30
0.0
 11
77.70317589902811
 21
-51.98237000585687
 31
0.0
  0
LINE
  5
A3AF6
330
18
100
AcDbEntity
  8
0
100
AcDbLine
 10
75.85317589902812
 20
-51.23237000585687
 30
0.0
 11
75.70317589902811
 21
-51.98237000585687
 31
0.0
  0
LINE
  5
A3AF7
330
18
100
AcDbEntity
  8
0
100
AcDbLine
 10
71.85317589902812
 20
-51.23237000585686
 30
0.0
 11
71.70317589902811
 21
-51.98237000585686
 31
0.0
  0
LINE
  5
A3AF8
330
18
100
AcDbEntity
  8
0
100
AcDbLine
 10
73.85317589902812
 20
-51.23237000585686
 30
0.0
 11
73.70317589902811
 21
-51.98237000585686
 31
0.0
  0
LINE
  5
A3AF9
330
18
100
AcDbEntity
  8
0
100
AcDbLine
 10
66.70317589902811
 20
-46.98237000585686
 30
0.0
 11
66.5531758990281
 21
-47.73237000585686
 31
0.0
  0
LINE
  5
A3AFA
330
18
100
AcDbEntity
  8
0
100
AcDbLine
 10
68.70317589902811
 20
-46.98237000585686
 30
0.0
 11
68.5531758990281
 21
-47.73237000585686
 31
0.0
  0
LINE
  5
A3AFB
330
18
100
AcDbEntity
  8
0
100
AcDbLine
 10
62.70317589902811
 20
-46.98237000585686
 30
0.0
 11
62.5531758990281
 21
-47.73237000585686
 31
0.0
  0
LINE
  5
A3AFC
330
18
100
AcDbEntity
  8
0
100
AcDbLine
 10
64.70317589902811
 20
-46.98237000585686
 30
0.0
 11
64.5531758990281
 21
-47.73237000585686
 31
0.0
  0
LINE
  5
A3AFD
330
18
100
AcDbEntity
  8
0
100
AcDbLine
 10
68.70317589902811
 20
-46.98237000585686
 30
0.0
 11
69.70317589902811
 21
-51.98237000585686
 31
0.0
  0
LINE
  5
A3AFE
330
18
100
AcDbEntity
  8
0
100
AcDbLine
 10
66.70317589902811
 20
-46.98237000585686
 30
0.0
 11
67.70317589902811
 21
-51.98237000585686
 31
0.0
  0
LINE
  5
A3AFF
330
18
100
AcDbEntity
  8
0
100
AcDbLine
 10
64.70317589902811
 20
-46.98237000585686
 30
0.0
 11
65.70317589902811
 21
-51.98237000585686
 31
0.0
  0
LINE
  5
A3B00
330
18
100
AcDbEntity
  8
0
100
AcDbLine
 10
62.70317589902811
 20
-46.98237000585686
 30
0.0
 11
63.70317589902811
 21
-51.98237000585686
 31
0.0
  0
LINE
  5
A3B01
330
18
100
AcDbEntity
  8
0
100
AcDbLine
 10
65.85317589902812
 20
-51.23237000585686
 30
0.0
 11
65.70317589902811
 21
-51.98237000585686
 31
0.0
  0
LINE
  5
A3B02
330
18
100
AcDbEntity
  8
0
100
AcDbLine
 10
67.85317589902812
 20
-51.23237000585686
 30
0.0
 11
67.70317589902811
 21
-51.98237000585686
 31
0.0
  0
LINE
  5
A3B03
330
18
100
AcDbEntity
  8
0
100
AcDbLine
 10
61.85317589902812
 20
-51.23237000585686
 30
0.0
 11
61.70317589902811
 21
-51.98237000585686
 31
0.0
  0
LINE
  5
A3B04
330
18
100
AcDbEntity
  8
0
100
AcDbLine
 10
63.85317589902812
 20
-51.23237000585686
 30
0.0
 11
63.70317589902811
 21
-51.98237000585686
 31
0.0
  0
LINE
  5
A3B05
330
18
100
AcDbEntity
  8
0
100
AcDbLine
 10
44.70317589902811
 20
-46.98237000585686
 30
0.0
 11
45.70317589902811
 21
-51.98237000585686
 31
0.0
  0
LINE
  5
A3B06
330
18
100
AcDbEntity
  8
0
100
AcDbLine
 10
52.70317589902811
 20
-46.98237000585686
 30
0.0
 11
53.70317589902811
 21
-51.98237000585686
 31
0.0
  0
LINE
  5
A3B07
330
18
100
AcDbEntity
  8
0
100
AcDbLine
 10
60.70317589902811
 20
-46.98237000585686
 30
0.0
 11
60.5531758990281
 21
-47.73237000585686
 31
0.0
  0
LINE
  5
A3B08
330
18
100
AcDbEntity
  8
0
100
AcDbLine
 10
58.70317589902811
 20
-46.98237000585686
 30
0.0
 11
58.5531758990281
 21
-47.73237000585686
 31
0.0
  0
LINE
  5
A3B09
330
18
100
AcDbEntity
  8
0
100
AcDbLine
 10
56.70317589902811
 20
-46.98237000585686
 30
0.0
 11
56.5531758990281
 21
-47.73237000585686
 31
0.0
  0
LINE
  5
A3B0A
330
18
100
AcDbEntity
  8
0
100
AcDbLine
 10
54.70317589902811
 20
-46.98237000585686
 30
0.0
 11
54.5531758990281
 21
-47.73237000585686
 31
0.0
  0
LINE
  5
A3B0B
330
18
100
AcDbEntity
  8
0
100
AcDbLine
 10
58.70317589902811
 20
-46.98237000585686
 30
0.0
 11
59.70317589902811
 21
-51.98237000585686
 31
0.0
  0
LINE
  5
A3B0C
330
18
100
AcDbEntity
  8
0
100
AcDbLine
 10
56.70317589902811
 20
-46.98237000585686
 30
0.0
 11
57.70317589902811
 21
-51.98237000585686
 31
0.0
  0
LINE
  5
A3B0D
330
18
100
AcDbEntity
  8
0
100
AcDbLine
 10
54.70317589902811
 20
-46.98237000585686
 30
0.0
 11
55.70317589902811
 21
-51.98237000585686
 31
0.0
  0
LINE
  5
A3B0E
330
18
100
AcDbEntity
  8
0
100
AcDbLine
 10
59.85317589902812
 20
-51.23237000585686
 30
0.0
 11
59.70317589902811
 21
-51.98237000585686
 31
0.0
  0
LINE
  5
A3B0F
330
18
100
AcDbEntity
  8
0
100
AcDbLine
 10
57.85317589902812
 20
-51.23237000585686
 30
0.0
 11
57.70317589902811
 21
-51.98237000585686
 31
0.0
  0
LINE
  5
A3B10
330
18
100
AcDbEntity
  8
0
100
AcDbLine
 10
55.85317589902812
 20
-51.23237000585686
 30
0.0
 11
55.70317589902811
 21
-51.98237000585686
 31
0.0
  0
LINE
  5
A3B11
330
18
100
AcDbEntity
  8
0
100
AcDbLine
 10
53.85317589902812
 20
-51.23237000585686
 30
0.0
 11
53.70317589902811
 21
-51.98237000585686
 31
0.0
  0
LINE
  5
A3B12
330
18
100
AcDbEntity
  8
0
100
AcDbLine
 10
48.70317589902811
 20
-46.98237000585686
 30
0.0
 11
48.5531758990281
 21
-47.73237000585686
 31
0.0
  0
LINE
  5
A3B13
330
18
100
AcDbEntity
  8
0
100
AcDbLine
 10
50.70317589902811
 20
-46.98237000585686
 30
0.0
 11
50.5531758990281
 21
-47.73237000585686
 31
0.0
  0
LINE
  5
A3B14
330
18
100
AcDbEntity
  8
0
100
AcDbLine
 10
52.70317589902811
 20
-46.98237000585686
 30
0.0
 11
52.5531758990281
 21
-47.73237000585686
 31
0.0
  0
LINE
  5
A3B15
330
18
100
AcDbEntity
  8
0
100
AcDbLine
 10
46.70317589902811
 20
-46.98237000585686
 30
0.0
 11
46.5531758990281
 21
-47.73237000585686
 31
0.0
  0
LINE
  5
A3B16
330
18
100
AcDbEntity
  8
0
100
AcDbLine
 10
50.70317589902811
 20
-46.98237000585686
 30
0.0
 11
51.70317589902811
 21
-51.98237000585686
 31
0.0
  0
LINE
  5
A3B17
330
18
100
AcDbEntity
  8
0
100
AcDbLine
 10
48.70317589902811
 20
-46.98237000585686
 30
0.0
 11
49.70317589902811
 21
-51.98237000585686
 31
0.0
  0
LINE
  5
A3B18
330
18
100
AcDbEntity
  8
0
100
AcDbLine
 10
46.70317589902811
 20
-46.98237000585686
 30
0.0
 11
47.70317589902811
 21
-51.98237000585686
 31
0.0
  0
LINE
  5
A3B19
330
18
100
AcDbEntity
  8
0
100
AcDbLine
 10
49.85317589902812
 20
-51.23237000585686
 30
0.0
 11
49.70317589902811
 21
-51.98237000585686
 31
0.0
  0
LINE
  5
A3B1A
330
18
100
AcDbEntity
  8
0
100
AcDbLine
 10
51.85317589902812
 20
-51.23237000585686
 30
0.0
 11
51.70317589902811
 21
-51.98237000585686
 31
0.0
  0
LINE
  5
A3B1B
330
18
100
AcDbEntity
  8
0
100
AcDbLine
 10
47.85317589902812
 20
-51.23237000585686
 30
0.0
 11
47.70317589902811
 21
-51.98237000585686
 31
0.0
  0
LINE
  5
A3B1C
330
18
100
AcDbEntity
  8
0
100
AcDbLine
 10
45.85317589902812
 20
-51.23237000585686
 30
0.0
 11
45.70317589902811
 21
-51.98237000585686
 31
0.0
  0
LINE
  5
A3B1D
330
18
100
AcDbEntity
  8
0
100
AcDbLine
 10
44.70317589902811
 20
-46.98237000585686
 30
0.0
 11
44.5531758990281
 21
-47.73237000585686
 31
0.0
  0
LINE
  5
A3B1E
330
18
100
AcDbEntity
  8
0
100
AcDbLine
 10
44.58531031298224
 20
-51.23237000585686
 30
0.0
 11
44.58531031298224
 21
-47.73237000585686
 31
0.0
  0
LINE
  5
A3B1F
330
18
100
AcDbEntity
  8
0
100
AcDbLine
 10
60.70317589902987
 20
-81.98237000585686
 30
0.0
 11
61.70317589902987
 21
-86.98237000585686
 31
0.0
  0
LINE
  5
A3B20
330
18
100
AcDbEntity
  8
1CENTER
100
AcDbLine
 10
86.03166354353209
 20
-84.48237000585686
 30
0.0
 11
39.60235756283799
 21
-84.48237000585686
 31
0.0
  0
LINE
  5
A3B22
330
18
100
AcDbEntity
  8
0
100
AcDbLine
 10
78.73992251082268
 20
-82.16610306482102
 30
0.0
 11
78.58992251082267
 21
-82.91610306482102
 31
0.0
  0
LINE
  5
A3B23
330
18
100
AcDbEntity
  8
0
100
AcDbLine
 10
78.73992251082268
 20
-82.16610306482096
 30
0.0
 11
79.61930340704086
 21
-86.56300754591172
 31
0.0
  0
LINE
  5
A3B24
330
18
100
AcDbEntity
  8
0
100
AcDbLine
 10
83.56584723641862
 20
-84.7957266928006
 30
0.0
 11
83.41584723641861
 21
-85.5457266928006
 31
0.0
  0
LINE
  5
A3B25
330
18
100
AcDbEntity
  8
0
100
AcDbLine
 10
82.96641981892643
 20
-83.29858960533971
 30
0.0
 11
82.81641981892642
 21
-84.04858960533971
 31
0.0
  0
LINE
  5
A3B26
330
18
100
AcDbEntity
  8
0
100
AcDbLine
 10
82.96641981892643
 20
-83.29858960533971
 30
0.0
 11
83.41584723641864
 21
-85.54572669280054
 31
0.0
  0
LINE
  5
A3B27
330
18
100
AcDbEntity
  8
0
100
AcDbLine
 10
79.76930340704087
 20
-85.81300754591172
 30
0.0
 11
79.61930340704086
 21
-86.56300754591172
 31
0.0
  0
LINE
  5
A3B28
330
18
100
AcDbEntity
  8
0
100
AcDbLine
 10
81.66757532172974
 20
-85.30436711935613
 30
0.0
 11
81.51757532172974
 21
-86.05436711935613
 31
0.0
  0
LINE
  5
A3B29
330
18
100
AcDbEntity
  8
0
100
AcDbLine
 10
80.85317116487457
 20
-82.73234633508036
 30
0.0
 11
80.70317116487456
 21
-83.48234633508036
 31
0.0
  0
LINE
  5
A3B2A
330
18
100
AcDbEntity
  8
0
100
AcDbLine
 10
80.85317116487457
 20
-82.73234633508031
 30
0.0
 11
81.51757532172974
 21
-86.05436711935619
 31
0.0
  0
LINE
  5
A3B2B
330
18
100
AcDbEntity
  8
0
100
AcDbLine
 10
69.85317589902988
 20
-86.23237000585686
 30
0.0
 11
69.70317589902987
 21
-86.98237000585686
 31
0.0
  0
LINE
  5
A3B2C
330
18
100
AcDbEntity
  8
0
100
AcDbLine
 10
72.70317589902987
 20
-81.98237000585686
 30
0.0
 11
72.55317589902987
 21
-82.73237000585686
 31
0.0
  0
LINE
  5
A3B2D
330
18
100
AcDbEntity
  8
0
100
AcDbLine
 10
70.70317589902987
 20
-81.98237000585686
 30
0.0
 11
70.55317589902987
 21
-82.73237000585686
 31
0.0
  0
LINE
  5
A3B2E
330
18
100
AcDbEntity
  8
0
100
AcDbLine
 10
70.70317589902987
 20
-81.98237000585686
 30
0.0
 11
71.70317589902987
 21
-86.98237000585686
 31
0.0
  0
LINE
  5
A3B2F
330
18
100
AcDbEntity
  8
0
100
AcDbLine
 10
74.70317589902987
 20
-81.98237000585686
 30
0.0
 11
74.55317589902987
 21
-82.73237000585686
 31
0.0
  0
LINE
  5
A3B30
330
18
100
AcDbEntity
  8
0
100
AcDbLine
 10
76.70317589902987
 20
-81.98237000585686
 30
0.0
 11
76.55317589902987
 21
-82.73237000585686
 31
0.0
  0
LINE
  5
A3B31
330
18
100
AcDbEntity
  8
0
100
AcDbLine
 10
76.70317589902987
 20
-81.98237000585686
 30
0.0
 11
77.70317589902987
 21
-86.98237000585686
 31
0.0
  0
LINE
  5
A3B32
330
18
100
AcDbEntity
  8
0
100
AcDbLine
 10
74.70317589902987
 20
-81.98237000585686
 30
0.0
 11
75.70317589902987
 21
-86.98237000585686
 31
0.0
  0
LINE
  5
A3B33
330
18
100
AcDbEntity
  8
0
100
AcDbLine
 10
72.70317589902987
 20
-81.98237000585686
 30
0.0
 11
73.70317589902987
 21
-86.98237000585686
 31
0.0
  0
LINE
  5
A3B34
330
18
100
AcDbEntity
  8
0
100
AcDbLine
 10
77.85317589902988
 20
-86.23237000585686
 30
0.0
 11
77.70317589902987
 21
-86.98237000585686
 31
0.0
  0
LINE
  5
A3B35
330
18
100
AcDbEntity
  8
0
100
AcDbLine
 10
75.85317589902988
 20
-86.23237000585686
 30
0.0
 11
75.70317589902987
 21
-86.98237000585686
 31
0.0
  0
LINE
  5
A3B36
330
18
100
AcDbEntity
  8
0
100
AcDbLine
 10
71.85317589902988
 20
-86.23237000585686
 30
0.0
 11
71.70317589902987
 21
-86.98237000585686
 31
0.0
  0
LINE
  5
A3B37
330
18
100
AcDbEntity
  8
0
100
AcDbLine
 10
73.85317589902988
 20
-86.23237000585686
 30
0.0
 11
73.70317589902987
 21
-86.98237000585686
 31
0.0
  0
LINE
  5
A3B38
330
18
100
AcDbEntity
  8
0
100
AcDbLine
 10
66.70317589902987
 20
-81.98237000585686
 30
0.0
 11
66.55317589902987
 21
-82.73237000585686
 31
0.0
  0
LINE
  5
A3B39
330
18
100
AcDbEntity
  8
0
100
AcDbLine
 10
68.70317589902987
 20
-81.98237000585686
 30
0.0
 11
68.55317589902987
 21
-82.73237000585686
 31
0.0
  0
LINE
  5
A3B3A
330
18
100
AcDbEntity
  8
0
100
AcDbLine
 10
62.70317589902987
 20
-81.98237000585686
 30
0.0
 11
62.55317589902987
 21
-82.73237000585686
 31
0.0
  0
LINE
  5
A3B3B
330
18
100
AcDbEntity
  8
0
100
AcDbLine
 10
64.70317589902987
 20
-81.98237000585686
 30
0.0
 11
64.55317589902987
 21
-82.73237000585686
 31
0.0
  0
LINE
  5
A3B3C
330
18
100
AcDbEntity
  8
0
100
AcDbLine
 10
68.70317589902987
 20
-81.98237000585686
 30
0.0
 11
69.70317589902987
 21
-86.98237000585686
 31
0.0
  0
LINE
  5
A3B3D
330
18
100
AcDbEntity
  8
0
100
AcDbLine
 10
66.70317589902987
 20
-81.98237000585686
 30
0.0
 11
67.70317589902987
 21
-86.98237000585686
 31
0.0
  0
LINE
  5
A3B3E
330
18
100
AcDbEntity
  8
0
100
AcDbLine
 10
64.70317589902987
 20
-81.98237000585686
 30
0.0
 11
65.70317589902987
 21
-86.98237000585686
 31
0.0
  0
LINE
  5
A3B3F
330
18
100
AcDbEntity
  8
0
100
AcDbLine
 10
62.70317589902987
 20
-81.98237000585686
 30
0.0
 11
63.70317589902987
 21
-86.98237000585686
 31
0.0
  0
LINE
  5
A3B40
330
18
100
AcDbEntity
  8
0
100
AcDbLine
 10
65.85317589902988
 20
-86.23237000585686
 30
0.0
 11
65.70317589902987
 21
-86.98237000585686
 31
0.0
  0
LINE
  5
A3B41
330
18
100
AcDbEntity
  8
0
100
AcDbLine
 10
67.85317589902988
 20
-86.23237000585686
 30
0.0
 11
67.70317589902987
 21
-86.98237000585686
 31
0.0
  0
LINE
  5
A3B42
330
18
100
AcDbEntity
  8
0
100
AcDbLine
 10
61.85317589902988
 20
-86.23237000585686
 30
0.0
 11
61.70317589902987
 21
-86.98237000585686
 31
0.0
  0
LINE
  5
A3B43
330
18
100
AcDbEntity
  8
0
100
AcDbLine
 10
63.85317589902988
 20
-86.23237000585686
 30
0.0
 11
63.70317589902987
 21
-86.98237000585686
 31
0.0
  0
LINE
  5
A3B44
330
18
100
AcDbEntity
  8
0
100
AcDbLine
 10
44.70317589902987
 20
-81.98237000585686
 30
0.0
 11
45.70317589902987
 21
-86.98237000585686
 31
0.0
  0
LINE
  5
A3B45
330
18
100
AcDbEntity
  8
0
100
AcDbLine
 10
52.70317589902987
 20
-81.98237000585686
 30
0.0
 11
53.70317589902987
 21
-86.98237000585686
 31
0.0
  0
LINE
  5
A3B46
330
18
100
AcDbEntity
  8
0
100
AcDbLine
 10
60.70317589902987
 20
-81.98237000585686
 30
0.0
 11
60.55317589902987
 21
-82.73237000585686
 31
0.0
  0
LINE
  5
A3B47
330
18
100
AcDbEntity
  8
0
100
AcDbLine
 10
58.70317589902987
 20
-81.98237000585686
 30
0.0
 11
58.55317589902987
 21
-82.73237000585686
 31
0.0
  0
LINE
  5
A3B48
330
18
100
AcDbEntity
  8
0
100
AcDbLine
 10
56.70317589902987
 20
-81.98237000585686
 30
0.0
 11
56.55317589902987
 21
-82.73237000585686
 31
0.0
  0
LINE
  5
A3B49
330
18
100
AcDbEntity
  8
0
100
AcDbLine
 10
54.70317589902987
 20
-81.98237000585686
 30
0.0
 11
54.55317589902987
 21
-82.73237000585686
 31
0.0
  0
LINE
  5
A3B4A
330
18
100
AcDbEntity
  8
0
100
AcDbLine
 10
58.70317589902987
 20
-81.98237000585686
 30
0.0
 11
59.70317589902987
 21
-86.98237000585686
 31
0.0
  0
LINE
  5
A3B4B
330
18
100
AcDbEntity
  8
0
100
AcDbLine
 10
56.70317589902987
 20
-81.98237000585686
 30
0.0
 11
57.70317589902987
 21
-86.98237000585686
 31
0.0
  0
LINE
  5
A3B4C
330
18
100
AcDbEntity
  8
0
100
AcDbLine
 10
54.70317589902987
 20
-81.98237000585686
 30
0.0
 11
55.70317589902987
 21
-86.98237000585686
 31
0.0
  0
LINE
  5
A3B4D
330
18
100
AcDbEntity
  8
0
100
AcDbLine
 10
59.85317589902988
 20
-86.23237000585686
 30
0.0
 11
59.70317589902987
 21
-86.98237000585686
 31
0.0
  0
LINE
  5
A3B4E
330
18
100
AcDbEntity
  8
0
100
AcDbLine
 10
57.85317589902988
 20
-86.23237000585686
 30
0.0
 11
57.70317589902987
 21
-86.98237000585686
 31
0.0
  0
LINE
  5
A3B4F
330
18
100
AcDbEntity
  8
0
100
AcDbLine
 10
55.85317589902988
 20
-86.23237000585686
 30
0.0
 11
55.70317589902987
 21
-86.98237000585686
 31
0.0
  0
LINE
  5
A3B50
330
18
100
AcDbEntity
  8
0
100
AcDbLine
 10
53.85317589902988
 20
-86.23237000585686
 30
0.0
 11
53.70317589902987
 21
-86.98237000585686
 31
0.0
  0
LINE
  5
A3B51
330
18
100
AcDbEntity
  8
0
100
AcDbLine
 10
48.70317589902987
 20
-81.98237000585686
 30
0.0
 11
48.55317589902987
 21
-82.73237000585686
 31
0.0
  0
LINE
  5
A3B52
330
18
100
AcDbEntity
  8
0
100
AcDbLine
 10
50.70317589902987
 20
-81.98237000585686
 30
0.0
 11
50.55317589902987
 21
-82.73237000585686
 31
0.0
  0
LINE
  5
A3B53
330
18
100
AcDbEntity
  8
0
100
AcDbLine
 10
52.70317589902987
 20
-81.98237000585686
 30
0.0
 11
52.55317589902987
 21
-82.73237000585686
 31
0.0
  0
LINE
  5
A3B54
330
18
100
AcDbEntity
  8
0
100
AcDbLine
 10
46.70317589902987
 20
-81.98237000585686
 30
0.0
 11
46.55317589902987
 21
-82.73237000585686
 31
0.0
  0
LINE
  5
A3B55
330
18
100
AcDbEntity
  8
0
100
AcDbLine
 10
50.70317589902987
 20
-81.98237000585686
 30
0.0
 11
51.70317589902987
 21
-86.98237000585686
 31
0.0
  0
LINE
  5
A3B56
330
18
100
AcDbEntity
  8
0
100
AcDbLine
 10
48.70317589902987
 20
-81.98237000585686
 30
0.0
 11
49.70317589902987
 21
-86.98237000585686
 31
0.0
  0
LINE
  5
A3B57
330
18
100
AcDbEntity
  8
0
100
AcDbLine
 10
46.70317589902987
 20
-81.98237000585686
 30
0.0
 11
47.70317589902987
 21
-86.98237000585686
 31
0.0
  0
LINE
  5
A3B58
330
18
100
AcDbEntity
  8
0
100
AcDbLine
 10
49.85317589902988
 20
-86.23237000585686
 30
0.0
 11
49.70317589902987
 21
-86.98237000585686
 31
0.0
  0
LINE
  5
A3B59
330
18
100
AcDbEntity
  8
0
100
AcDbLine
 10
51.85317589902988
 20
-86.23237000585686
 30
0.0
 11
51.70317589902987
 21
-86.98237000585686
 31
0.0
  0
LINE
  5
A3B5A
330
18
100
AcDbEntity
  8
0
100
AcDbLine
 10
47.85317589902988
 20
-86.23237000585686
 30
0.0
 11
47.70317589902987
 21
-86.98237000585686
 31
0.0
  0
LINE
  5
A3B5B
330
18
100
AcDbEntity
  8
0
100
AcDbLine
 10
45.85317589902988
 20
-86.23237000585686
 30
0.0
 11
45.70317589902987
 21
-86.98237000585686
 31
0.0
  0
LINE
  5
A3B5C
330
18
100
AcDbEntity
  8
0
100
AcDbLine
 10
44.70317589902987
 20
-81.98237000585686
 30
0.0
 11
44.55317589902987
 21
-82.73237000585686
 31
0.0
  0
LINE
  5
A3B5D
330
18
100
AcDbEntity
  8
0
100
AcDbLine
 10
44.58531031298401
 20
-86.23237000585686
 30
0.0
 11
44.58531031298401
 21
-82.73237000585686
 31
0.0
  0
LINE
  5
A3B5E
330
18
100
AcDbEntity
  8
1DIM
  6
CONTINUOUS
100
AcDbLine
 10
13.66135206378556
 20
-91.98237000585732
 30
0.0
 11
-40.48849097764152
 21
-91.9823700058573
 31
0.0
1001
ACAD
1000
DSTYLE
1002
{
1070
   271
1070
     0
1002
}
  0
LINE
  5
A3B5F
330
18
100
AcDbEntity
  8
1DIM
  6
CONTINUOUS
100
AcDbLine
 10
-12.24923886617466
 20
-20.98237000585686
 30
0.0
 11
-40.4884909776415
 21
-20.98237000585686
 31
0.0
1001
ACAD
1000
DSTYLE
1002
{
1070
   271
1070
     0
1002
}
  0
LINE
  5
A3B60
330
18
100
AcDbEntity
  8
1DIM
  6
CONTINUOUS
100
AcDbLine
 10
-39.48849097764152
 20
-89.9823700058573
 30
0.0
 11
-39.4884909776415
 21
-22.98237000585686
 31
0.0
1001
ACAD
1000
DSTYLE
1002
{
1070
   271
1070
     0
1002
}
  0
LINE
  5
A3B64
330
18
100
AcDbEntity
  8
1DIM
  6
CONTINUOUS
100
AcDbLine
 10
-12.16468968701827
 20
-36.13781457208552
 30
0.0
 11
-30.48849097764149
 21
-36.13781457208551
 31
0.0
1001
ACAD
1000
DSTYLE
1002
{
1070
   271
1070
     0
1002
}
  0
LINE
  5
A3B65
330
18
100
AcDbEntity
  8
1DIM
  6
CONTINUOUS
100
AcDbLine
 10
13.66135206378556
 20
-91.98237000585732
 30
0.0
 11
-30.4884909776415
 21
-91.98237000585732
 31
0.0
1001
ACAD
1000
DSTYLE
1002
{
1070
   271
1070
     0
1002
}
  0
LINE
  5
A3B66
330
18
100
AcDbEntity
  8
1DIM
  6
CONTINUOUS
100
AcDbLine
 10
-29.48849097764149
 20
-38.13781457208551
 30
0.0
 11
-29.4884909776415
 21
-89.98237000585732
 31
0.0
1001
ACAD
1000
DSTYLE
1002
{
1070
   271
1070
     0
1002
}
  0
LINE
  5
A3B6A
330
18
100
AcDbEntity
  8
1DIM
  6
CONTINUOUS
100
AcDbLine
 10
-3.414689687018722
 20
-12.23237000585664
 30
0.0
 11
-3.41468968701872
 21
14.51762999414314
 31
0.0
  0
LINE
  5
A3B6B
330
18
100
AcDbEntity
  8
1DIM
  6
CONTINUOUS
100
AcDbLine
 10
49.58531031298048
 20
-14.98237000585755
 30
0.0
 11
49.58531031298048
 21
14.51762999414314
 31
0.0
  0
LINE
  5
A3B6C
330
18
100
AcDbEntity
  8
1DIM
  6
CONTINUOUS
100
AcDbLine
 10
-1.41468968701872
 20
13.51762999414314
 30
0.0
 11
47.58531031298048
 21
13.51762999414314
 31
0.0
  0
LINE
  5
A3B70
330
18
100
AcDbEntity
  8
1DIM
  6
CONTINUOUS
100
AcDbLine
 10
-12.66468968701804
 20
-37.00383997586982
 30
0.0
 11
-12.66468968701804
 21
24.51762999414314
 31
0.0
1001
ACAD
1000
DSTYLE
1002
{
1070
   271
1070
     0
1002
}
  0
LINE
  5
A3B71
330
18
100
AcDbEntity
  8
1DIM
  6
CONTINUOUS
100
AcDbLine
 10
49.58531031298048
 20
-14.98237000585755
 30
0.0
 11
49.58531031298048
 21
24.51762999414314
 31
0.0
1001
ACAD
1000
DSTYLE
1002
{
1070
   271
1070
     0
1002
}
  0
LINE
  5
A3B72
330
18
100
AcDbEntity
  8
1DIM
  6
CONTINUOUS
100
AcDbLine
 10
-10.66468968701804
 20
23.51762999414314
 30
0.0
 11
47.58531031298048
 21
23.51762999414314
 31
0.0
1001
ACAD
1000
DSTYLE
1002
{
1070
   271
1070
     0
1002
}
  0
LINE
  5
A3B76
330
18
100
AcDbEntity
  8
1DIM
  6
CONTINUOUS
100
AcDbLine
 10
86.03166354353209
 20
-84.48237000585686
 30
0.0
 11
100.5853103129809
 21
-84.48237000585688
 31
0.0
  0
LINE
  5
A3B77
330
18
100
AcDbEntity
  8
1DIM
  6
CONTINUOUS
100
AcDbLine
 10
86.03166354353033
 20
-49.48237000585686
 30
0.0
 11
100.5853103129809
 21
-49.48237000585686
 31
0.0
  0
LINE
  5
A3B78
330
18
100
AcDbEntity
  8
1DIM
  6
CONTINUOUS
100
AcDbLine
 10
99.58531031298094
 20
-82.48237000585688
 30
0.0
 11
99.58531031298094
 21
-51.48237000585686
 31
0.0
  0
LINE
  5
A3B7C
330
18
100
AcDbEntity
  8
1DIM
  6
CONTINUOUS
100
AcDbLine
 10
-20.90860664408558
 20
-20.98237000585686
 30
0.0
 11
-20.90860664408558
 21
34.51762999414314
 31
0.0
1001
ACAD
1000
DSTYLE
1002
{
1070
   271
1070
     1
1002
}
  0
LINE
  5
A3B7D
330
18
100
AcDbEntity
  8
1DIM
  6
CONTINUOUS
100
AcDbLine
 10
49.58531031298048
 20
-14.98237000585755
 30
0.0
 11
49.58531031298048
 21
34.51762999414314
 31
0.0
1001
ACAD
1000
DSTYLE
1002
{
1070
   271
1070
     1
1002
}
  0
LINE
  5
A3B7E
330
18
100
AcDbEntity
  8
1DIM
  6
CONTINUOUS
100
AcDbLine
 10
-18.90860664408558
 20
33.51762999414314
 30
0.0
 11
47.58531031298048
 21
33.51762999414314
 31
0.0
1001
ACAD
1000
DSTYLE
1002
{
1070
   271
1070
     1
1002
}
  0
LINE
  5
A3B82
330
18
100
AcDbEntity
  8
1DIM
  6
CONTINUOUS
100
AcDbLine
 10
-3.251148590336015
 20
-3.501345527201011
 30
0.0
 11
-50.48849097764148
 21
-3.501345527200997
 31
0.0
1001
ACAD
1000
DSTYLE
1002
{
1070
   271
1070
     1
1002
}
  0
LINE
  5
A3B83
330
18
100
AcDbEntity
  8
1DIM
  6
CONTINUOUS
100
AcDbLine
 10
13.66135206378556
 20
-91.98237000585732
 30
0.0
 11
-50.4884909776415
 21
-91.9823700058573
 31
0.0
1001
ACAD
1000
DSTYLE
1002
{
1070
   271
1070
     1
1002
}
  0
LINE
  5
A3B84
330
18
100
AcDbEntity
  8
1DIM
  6
CONTINUOUS
100
AcDbLine
 10
-49.48849097764148
 20
-5.501345527200998
 30
0.0
 11
-49.4884909776415
 21
-89.9823700058573
 31
0.0
1001
ACAD
1000
DSTYLE
1002
{
1070
   271
1070
     1
1002
}
  0
LINE
  5
A3B88
330
18
100
AcDbEntity
  8
0
100
AcDbLine
 10
-93.57661294038508
 20
88.2796004014445
 30
0.0
 11
-88.57661294038508
 21
89.2796004014445
 31
0.0
  0
LINE
  5
A3B89
330
18
100
AcDbEntity
  8
1CENTER
100
AcDbLine
 10
-91.07661294038506
 20
113.6080880459467
 30
0.0
 11
-91.07661294038508
 21
67.17878206525262
 31
0.0
  0
LINE
  5
A3B8B
330
18
100
AcDbEntity
  8
0
100
AcDbLine
 10
-93.39287988142092
 20
106.3163470132373
 30
0.0
 11
-92.64287988142092
 21
106.1663470132373
 31
0.0
  0
LINE
  5
A3B8C
330
18
100
AcDbEntity
  8
0
100
AcDbLine
 10
-93.39287988142098
 20
106.3163470132373
 30
0.0
 11
-88.99597540033022
 21
107.1957279094555
 31
0.0
  0
LINE
  5
A3B8D
330
18
100
AcDbEntity
  8
0
100
AcDbLine
 10
-90.76325625344133
 20
111.1422717388332
 30
0.0
 11
-90.01325625344134
 21
110.9922717388332
 31
0.0
  0
LINE
  5
A3B8E
330
18
100
AcDbEntity
  8
0
100
AcDbLine
 10
-92.26039334090223
 20
110.5428443213411
 30
0.0
 11
-91.51039334090223
 21
110.392844321341
 31
0.0
  0
LINE
  5
A3B8F
330
18
100
AcDbEntity
  8
0
100
AcDbLine
 10
-92.26039334090223
 20
110.5428443213411
 30
0.0
 11
-90.0132562534414
 21
110.9922717388333
 31
0.0
  0
LINE
  5
A3B90
330
18
100
AcDbEntity
  8
0
100
AcDbLine
 10
-89.74597540033022
 20
107.3457279094555
 30
0.0
 11
-88.99597540033022
 21
107.1957279094555
 31
0.0
  0
LINE
  5
A3B91
330
18
100
AcDbEntity
  8
0
100
AcDbLine
 10
-90.25461582688581
 20
109.2439998241444
 30
0.0
 11
-89.50461582688581
 21
109.0939998241444
 31
0.0
  0
LINE
  5
A3B92
330
18
100
AcDbEntity
  8
0
100
AcDbLine
 10
-92.82663661116158
 20
108.4295956672892
 30
0.0
 11
-92.07663661116158
 21
108.2795956672892
 31
0.0
  0
LINE
  5
A3B93
330
18
100
AcDbEntity
  8
0
100
AcDbLine
 10
-92.82663661116163
 20
108.4295956672892
 30
0.0
 11
-89.50461582688575
 21
109.0939998241444
 31
0.0
  0
LINE
  5
A3B94
330
18
100
AcDbEntity
  8
0
100
AcDbLine
 10
-89.32661294038508
 20
97.4296004014445
 30
0.0
 11
-88.57661294038508
 21
97.2796004014445
 31
0.0
  0
LINE
  5
A3B95
330
18
100
AcDbEntity
  8
0
100
AcDbLine
 10
-93.57661294038508
 20
100.2796004014445
 30
0.0
 11
-92.82661294038508
 21
100.1296004014445
 31
0.0
  0
LINE
  5
A3B96
330
18
100
AcDbEntity
  8
0
100
AcDbLine
 10
-93.57661294038508
 20
98.2796004014445
 30
0.0
 11
-92.82661294038508
 21
98.12960040144449
 31
0.0
  0
LINE
  5
A3B97
330
18
100
AcDbEntity
  8
0
100
AcDbLine
 10
-93.57661294038508
 20
98.2796004014445
 30
0.0
 11
-88.57661294038508
 21
99.2796004014445
 31
0.0
  0
LINE
  5
A3B98
330
18
100
AcDbEntity
  8
0
100
AcDbLine
 10
-93.57661294038508
 20
102.2796004014445
 30
0.0
 11
-92.82661294038508
 21
102.1296004014445
 31
0.0
  0
LINE
  5
A3B99
330
18
100
AcDbEntity
  8
0
100
AcDbLine
 10
-93.57661294038508
 20
104.2796004014445
 30
0.0
 11
-92.82661294038508
 21
104.1296004014445
 31
0.0
  0
LINE
  5
A3B9A
330
18
100
AcDbEntity
  8
0
100
AcDbLine
 10
-93.57661294038508
 20
104.2796004014445
 30
0.0
 11
-88.57661294038508
 21
105.2796004014445
 31
0.0
  0
LINE
  5
A3B9B
330
18
100
AcDbEntity
  8
0
100
AcDbLine
 10
-93.57661294038508
 20
102.2796004014445
 30
0.0
 11
-88.57661294038508
 21
103.2796004014445
 31
0.0
  0
LINE
  5
A3B9C
330
18
100
AcDbEntity
  8
0
100
AcDbLine
 10
-93.57661294038508
 20
100.2796004014445
 30
0.0
 11
-88.57661294038508
 21
101.2796004014445
 31
0.0
  0
LINE
  5
A3B9D
330
18
100
AcDbEntity
  8
0
100
AcDbLine
 10
-89.32661294038508
 20
105.4296004014445
 30
0.0
 11
-88.57661294038508
 21
105.2796004014445
 31
0.0
  0
LINE
  5
A3B9E
330
18
100
AcDbEntity
  8
0
100
AcDbLine
 10
-89.32661294038508
 20
103.4296004014445
 30
0.0
 11
-88.57661294038508
 21
103.2796004014445
 31
0.0
  0
LINE
  5
A3B9F
330
18
100
AcDbEntity
  8
0
100
AcDbLine
 10
-89.32661294038508
 20
99.4296004014445
 30
0.0
 11
-88.57661294038508
 21
99.2796004014445
 31
0.0
  0
LINE
  5
A3BA0
330
18
100
AcDbEntity
  8
0
100
AcDbLine
 10
-89.32661294038508
 20
101.4296004014445
 30
0.0
 11
-88.57661294038508
 21
101.2796004014445
 31
0.0
  0
LINE
  5
A3BA1
330
18
100
AcDbEntity
  8
0
100
AcDbLine
 10
-93.57661294038508
 20
94.2796004014445
 30
0.0
 11
-92.82661294038508
 21
94.12960040144449
 31
0.0
  0
LINE
  5
A3BA2
330
18
100
AcDbEntity
  8
0
100
AcDbLine
 10
-93.57661294038508
 20
96.2796004014445
 30
0.0
 11
-92.82661294038508
 21
96.12960040144449
 31
0.0
  0
LINE
  5
A3BA3
330
18
100
AcDbEntity
  8
0
100
AcDbLine
 10
-93.57661294038508
 20
90.2796004014445
 30
0.0
 11
-92.82661294038508
 21
90.12960040144449
 31
0.0
  0
LINE
  5
A3BA4
330
18
100
AcDbEntity
  8
0
100
AcDbLine
 10
-93.57661294038508
 20
92.2796004014445
 30
0.0
 11
-92.82661294038508
 21
92.12960040144449
 31
0.0
  0
LINE
  5
A3BA5
330
18
100
AcDbEntity
  8
0
100
AcDbLine
 10
-93.57661294038508
 20
96.2796004014445
 30
0.0
 11
-88.57661294038508
 21
97.2796004014445
 31
0.0
  0
LINE
  5
A3BA6
330
18
100
AcDbEntity
  8
0
100
AcDbLine
 10
-93.57661294038508
 20
94.2796004014445
 30
0.0
 11
-88.57661294038508
 21
95.2796004014445
 31
0.0
  0
LINE
  5
A3BA7
330
18
100
AcDbEntity
  8
0
100
AcDbLine
 10
-93.57661294038508
 20
92.2796004014445
 30
0.0
 11
-88.57661294038508
 21
93.2796004014445
 31
0.0
  0
LINE
  5
A3BA8
330
18
100
AcDbEntity
  8
0
100
AcDbLine
 10
-93.57661294038508
 20
90.2796004014445
 30
0.0
 11
-88.57661294038508
 21
91.2796004014445
 31
0.0
  0
LINE
  5
A3BA9
330
18
100
AcDbEntity
  8
0
100
AcDbLine
 10
-89.32661294038508
 20
93.4296004014445
 30
0.0
 11
-88.57661294038508
 21
93.2796004014445
 31
0.0
  0
LINE
  5
A3BAA
330
18
100
AcDbEntity
  8
0
100
AcDbLine
 10
-89.32661294038508
 20
95.4296004014445
 30
0.0
 11
-88.57661294038508
 21
95.2796004014445
 31
0.0
  0
LINE
  5
A3BAB
330
18
100
AcDbEntity
  8
0
100
AcDbLine
 10
-89.32661294038508
 20
89.4296004014445
 30
0.0
 11
-88.57661294038508
 21
89.2796004014445
 31
0.0
  0
LINE
  5
A3BAC
330
18
100
AcDbEntity
  8
0
100
AcDbLine
 10
-89.32661294038508
 20
91.4296004014445
 30
0.0
 11
-88.57661294038508
 21
91.2796004014445
 31
0.0
  0
LINE
  5
A3BAD
330
18
100
AcDbEntity
  8
0
100
AcDbLine
 10
-93.57661294038508
 20
72.2796004014445
 30
0.0
 11
-88.57661294038508
 21
73.2796004014445
 31
0.0
  0
LINE
  5
A3BAE
330
18
100
AcDbEntity
  8
0
100
AcDbLine
 10
-93.57661294038508
 20
80.2796004014445
 30
0.0
 11
-88.57661294038508
 21
81.2796004014445
 31
0.0
  0
LINE
  5
A3BAF
330
18
100
AcDbEntity
  8
0
100
AcDbLine
 10
-93.57661294038508
 20
88.2796004014445
 30
0.0
 11
-92.82661294038508
 21
88.12960040144449
 31
0.0
  0
LINE
  5
A3BB0
330
18
100
AcDbEntity
  8
0
100
AcDbLine
 10
-93.57661294038508
 20
86.2796004014445
 30
0.0
 11
-92.82661294038508
 21
86.12960040144449
 31
0.0
  0
LINE
  5
A3BB1
330
18
100
AcDbEntity
  8
0
100
AcDbLine
 10
-93.57661294038508
 20
84.2796004014445
 30
0.0
 11
-92.82661294038508
 21
84.12960040144449
 31
0.0
  0
LINE
  5
A3BB2
330
18
100
AcDbEntity
  8
0
100
AcDbLine
 10
-93.57661294038508
 20
82.2796004014445
 30
0.0
 11
-92.82661294038508
 21
82.12960040144449
 31
0.0
  0
LINE
  5
A3BB3
330
18
100
AcDbEntity
  8
0
100
AcDbLine
 10
-93.57661294038508
 20
86.2796004014445
 30
0.0
 11
-88.57661294038508
 21
87.2796004014445
 31
0.0
  0
LINE
  5
A3BB4
330
18
100
AcDbEntity
  8
0
100
AcDbLine
 10
-93.57661294038508
 20
84.2796004014445
 30
0.0
 11
-88.57661294038508
 21
85.2796004014445
 31
0.0
  0
LINE
  5
A3BB5
330
18
100
AcDbEntity
  8
0
100
AcDbLine
 10
-93.57661294038508
 20
82.2796004014445
 30
0.0
 11
-88.57661294038508
 21
83.2796004014445
 31
0.0
  0
LINE
  5
A3BB6
330
18
100
AcDbEntity
  8
0
100
AcDbLine
 10
-89.32661294038508
 20
87.4296004014445
 30
0.0
 11
-88.57661294038508
 21
87.2796004014445
 31
0.0
  0
LINE
  5
A3BB7
330
18
100
AcDbEntity
  8
0
100
AcDbLine
 10
-89.32661294038508
 20
85.4296004014445
 30
0.0
 11
-88.57661294038508
 21
85.2796004014445
 31
0.0
  0
LINE
  5
A3BB8
330
18
100
AcDbEntity
  8
0
100
AcDbLine
 10
-89.32661294038508
 20
83.4296004014445
 30
0.0
 11
-88.57661294038508
 21
83.2796004014445
 31
0.0
  0
LINE
  5
A3BB9
330
18
100
AcDbEntity
  8
0
100
AcDbLine
 10
-89.32661294038508
 20
81.4296004014445
 30
0.0
 11
-88.57661294038508
 21
81.2796004014445
 31
0.0
  0
LINE
  5
A3BBA
330
18
100
AcDbEntity
  8
0
100
AcDbLine
 10
-93.57661294038508
 20
76.2796004014445
 30
0.0
 11
-92.82661294038508
 21
76.12960040144449
 31
0.0
  0
LINE
  5
A3BBB
330
18
100
AcDbEntity
  8
0
100
AcDbLine
 10
-93.57661294038508
 20
78.2796004014445
 30
0.0
 11
-92.82661294038508
 21
78.12960040144449
 31
0.0
  0
LINE
  5
A3BBC
330
18
100
AcDbEntity
  8
0
100
AcDbLine
 10
-93.57661294038508
 20
80.2796004014445
 30
0.0
 11
-92.82661294038508
 21
80.12960040144449
 31
0.0
  0
LINE
  5
A3BBD
330
18
100
AcDbEntity
  8
0
100
AcDbLine
 10
-93.57661294038508
 20
74.2796004014445
 30
0.0
 11
-92.82661294038508
 21
74.12960040144449
 31
0.0
  0
LINE
  5
A3BBE
330
18
100
AcDbEntity
  8
0
100
AcDbLine
 10
-93.57661294038508
 20
78.2796004014445
 30
0.0
 11
-88.57661294038508
 21
79.2796004014445
 31
0.0
  0
LINE
  5
A3BBF
330
18
100
AcDbEntity
  8
0
100
AcDbLine
 10
-93.57661294038508
 20
76.2796004014445
 30
0.0
 11
-88.57661294038508
 21
77.2796004014445
 31
0.0
  0
LINE
  5
A3BC0
330
18
100
AcDbEntity
  8
0
100
AcDbLine
 10
-93.57661294038508
 20
74.2796004014445
 30
0.0
 11
-88.57661294038508
 21
75.2796004014445
 31
0.0
  0
LINE
  5
A3BC1
330
18
100
AcDbEntity
  8
0
100
AcDbLine
 10
-89.32661294038508
 20
77.4296004014445
 30
0.0
 11
-88.57661294038508
 21
77.2796004014445
 31
0.0
  0
LINE
  5
A3BC2
330
18
100
AcDbEntity
  8
0
100
AcDbLine
 10
-89.32661294038508
 20
79.4296004014445
 30
0.0
 11
-88.57661294038508
 21
79.2796004014445
 31
0.0
  0
LINE
  5
A3BC3
330
18
100
AcDbEntity
  8
0
100
AcDbLine
 10
-89.32661294038508
 20
75.4296004014445
 30
0.0
 11
-88.57661294038508
 21
75.2796004014445
 31
0.0
  0
LINE
  5
A3BC4
330
18
100
AcDbEntity
  8
0
100
AcDbLine
 10
-89.32661294038508
 20
73.4296004014445
 30
0.0
 11
-88.57661294038508
 21
73.2796004014445
 31
0.0
  0
LINE
  5
A3BC5
330
18
100
AcDbEntity
  8
0
100
AcDbLine
 10
-93.57661294038508
 20
72.2796004014445
 30
0.0
 11
-92.82661294038508
 21
72.12960040144449
 31
0.0
  0
LINE
  5
A3BC6
330
18
100
AcDbEntity
  8
0
100
AcDbLine
 10
-89.32661294038508
 20
72.16173481539863
 30
0.0
 11
-92.82661294038508
 21
72.16173481539863
 31
0.0
  0
LINE
  5
A3BC7
330
18
100
AcDbEntity
  8
1DIM
  6
CONTINUOUS
100
AcDbLine
 10
-91.07661294038508
 20
113.6080880459467
 30
0.0
 11
-91.07661294038508
 21
118.0359917640048
 31
0.0
  0
LINE
  5
A3BC8
330
18
100
AcDbEntity
  8
1DIM
  6
CONTINUOUS
100
AcDbLine
 10
-81.57661294038496
 20
77.16173481539772
 30
0.0
 11
-81.57661294038496
 21
118.0359917640048
 31
0.0
  0
LINE
  5
A3BC9
330
18
100
AcDbEntity
  8
1DIM
  6
CONTINUOUS
100
AcDbLine
 10
-89.07661294038508
 20
117.0359917640048
 30
0.0
 11
-83.57661294038496
 21
117.0359917640048
 31
0.0
  0
LINE
  5
A3BCD
330
18
100
AcDbEntity
  8
1DIM
  6
CONTINUOUS
100
AcDbLine
 10
-91.07661294038508
 20
113.6080880459467
 30
0.0
 11
-91.07661294038508
 21
118.0359917640048
 31
0.0
  0
LINE
  5
A3BCE
330
18
100
AcDbEntity
  8
1DIM
  6
CONTINUOUS
100
AcDbLine
 10
-99.07661294038496
 20
77.16173481539772
 30
0.0
 11
-99.07661294038496
 21
118.0359917640048
 31
0.0
  0
LINE
  5
A3BCF
330
18
100
AcDbEntity
  8
1DIM
  6
CONTINUOUS
100
AcDbLine
 10
-93.07661294038508
 20
117.0359917640048
 30
0.0
 11
-97.07661294038496
 21
117.0359917640048
 31
0.0
  0
LINE
  5
A3BD4
330
18
100
AcDbEntity
  8
1DIM
100
AcDbLine
 10
10.07918083050114
 20
-85.48398448299015
 30
0.0
 11
-1.434007726764388
 21
-107.681420308736
 31
0.0
1001
ACAD
1000
DSTYLE
1002
{
1070
    50
1040
1.570796326794897
1070
   345
1005
14
1070
   346
1005
14
1070
   347
1005
14
1002
}
  0
LINE
  5
A3BD6
330
18
100
AcDbEntity
  8
1DIM
100
AcDbLine
 10
45.37991932718437
 20
-93.09590659982209
 30
0.0
 11
29.52376552436174
 21
-124.5738123703584
 31
0.0
1001
ACAD
1000
DSTYLE
1002
{
1070
    50
1040
1.570796326794897
1070
   345
1005
14
1070
   346
1005
14
1070
   347
1005
14
1002
}
  0
LINE
  5
A3BD7
330
18
100
AcDbEntity
  8
0
  6
BYBLOCK
100
AcDbLine
 10
62.39571001071903
 20
-13.77040374068115
 30
0.0
 11
62.66326114900028
 21
-15.82359712046991
 31
0.0
  0
LINE
  5
A3BD8
330
18
100
AcDbEntity
  8
0
  6
BYBLOCK
100
AcDbLine
 10
62.66326114900028
 20
-15.82359712046991
 30
0.0
 11
61.40495896699559
 21
-14.17925461199845
 31
0.0
  0
LINE
  5
A3BD9
330
18
100
AcDbEntity
  8
0
  6
BYBLOCK
100
AcDbLine
 10
62.66326114900028
 20
-15.82359712046991
 30
0.0
 11
61.9003344888573
 21
-13.9748291763398
 31
0.0
  0
LINE
  5
A3BDA
330
18
100
AcDbEntity
  8
0
  6
BYBLOCK
100
AcDbLine
 10
54.3444061495378
 20
-13.80798431650187
 30
0.0
 11
54.16527893505906
 21
-15.87077371618307
 31
0.0
  0
LINE
  5
A3BDB
330
18
100
AcDbEntity
  8
0
  6
BYBLOCK
100
AcDbLine
 10
54.16527893505906
 20
-15.87077371618307
 30
0.0
 11
53.28901362709992
 21
-13.99478177151186
 31
0.0
  0
LINE
  5
A3BDC
330
18
100
AcDbEntity
  8
0
  6
BYBLOCK
100
AcDbLine
 10
54.16527893505906
 20
-15.87077371618307
 30
0.0
 11
53.81670988831885
 21
-13.90138304400687
 31
0.0
  0
LINE
  5
A3BDD
330
18
100
AcDbEntity
  8
0
  6
BYBLOCK
100
AcDbLine
 10
-132.0407149403853
 20
-36.461520572567
 30
0.0
 11
-132.5766129403853
 21
-38.461520572567
 31
0.0
  0
LINE
  5
A3BDE
330
18
100
AcDbEntity
  8
0
  6
BYBLOCK
100
AcDbLine
 10
-132.5766129403853
 20
-38.461520572567
 30
0.0
 11
-133.1125109403853
 21
-36.461520572567
 31
0.0
  0
LINE
  5
A3BDF
330
18
100
AcDbEntity
  8
0
  6
BYBLOCK
100
AcDbLine
 10
-132.5766129403853
 20
-38.461520572567
 30
0.0
 11
-132.5766129403853
 21
-36.461520572567
 31
0.0
  0
LINE
  5
A3BE0
330
18
100
AcDbEntity
  8
0
  6
BYBLOCK
100
AcDbLine
 10
-133.1125109403853
 20
-5.461520572565629
 30
0.0
 11
-132.5766129403853
 21
-3.461520572565629
 31
0.0
  0
LINE
  5
A3BE1
330
18
100
AcDbEntity
  8
0
  6
BYBLOCK
100
AcDbLine
 10
-132.5766129403853
 20
-3.461520572565629
 30
0.0
 11
-132.0407149403853
 21
-5.461520572565629
 31
0.0
  0
LINE
  5
A3BE2
330
18
100
AcDbEntity
  8
0
  6
BYBLOCK
100
AcDbLine
 10
-132.5766129403853
 20
-3.461520572565629
 30
0.0
 11
-132.5766129403853
 21
-5.461520572565629
 31
0.0
  0
TEXT
  5
A3BE3
330
18
100
AcDbEntity
  8
1DIM
  6
CONTINUOUS
100
AcDbText
 10
-133.2766129403853
 20
-26.44485390589969
 30
0.0
 40
3.5
  1
φ35
 50
90.0
100
AcDbText
1001
ACAD
1000
DSTYLE
1002
{
1070
     3
1000
φ<>
1002
}
  0
LINE
  5
A3BE4
330
18
100
AcDbEntity
  8
0
  6
BYBLOCK
100
AcDbLine
 10
-73.07661294037405
 20
-106.8955747586084
 30
0.0
 11
-71.07661294037405
 21
-107.4314727586084
 31
0.0
  0
LINE
  5
A3BE5
330
18
100
AcDbEntity
  8
0
  6
BYBLOCK
100
AcDbLine
 10
-71.07661294037405
 20
-107.4314727586084
 30
0.0
 11
-73.07661294037405
 21
-107.9673707586084
 31
0.0
  0
LINE
  5
A3BE6
330
18
100
AcDbEntity
  8
0
  6
BYBLOCK
100
AcDbLine
 10
-71.07661294037405
 20
-107.4314727586084
 30
0.0
 11
-73.07661294037405
 21
-107.4314727586084
 31
0.0
  0
LINE
  5
A3BE7
330
18
100
AcDbEntity
  8
0
  6
BYBLOCK
100
AcDbLine
 10
-109.0766129403959
 20
-107.9673707586084
 30
0.0
 11
-111.0766129403959
 21
-107.4314727586084
 31
0.0
  0
LINE
  5
A3BE8
330
18
100
AcDbEntity
  8
0
  6
BYBLOCK
100
AcDbLine
 10
-111.0766129403959
 20
-107.4314727586084
 30
0.0
 11
-109.0766129403959
 21
-106.8955747586084
 31
0.0
  0
LINE
  5
A3BE9
330
18
100
AcDbEntity
  8
0
  6
BYBLOCK
100
AcDbLine
 10
-111.0766129403959
 20
-107.4314727586084
 30
0.0
 11
-109.0766129403959
 21
-107.4314727586084
 31
0.0
  0
TEXT
  5
A3BEA
330
18
100
AcDbEntity
  8
1DIM
  6
CONTINUOUS
100
AcDbText
 10
-93.77452960705163
 20
-106.7314727586084
 30
0.0
 40
3.5
  1
40
100
AcDbText
  0
LINE
  5
A3BEB
330
18
100
AcDbEntity
  8
0
100
AcDbLine
 10
78.05422139973683
 20
-47.73237000585687
 30
0.0
 11
44.58531031298224
 21
-47.73237000585686
 31
0.0
  0
LINE
  5
A3BEC
330
18
100
AcDbEntity
  8
0
100
AcDbLine
 10
44.58531031298224
 20
-47.73237000585686
 30
0.0
 11
44.58531031298224
 21
-44.98237000585686
 31
0.0
  0
LINE
  5
A3BED
330
18
100
AcDbEntity
  8
0
100
AcDbLine
 10
44.58531031298224
 20
-44.98237000585686
 30
0.0
 11
43.78531031298246
 21
-44.98237000585686
 31
0.0
  0
ARC
  5
A3BEE
330
18
100
AcDbEntity
  8
0
100
AcDbCircle
 10
43.78531031298226
 20
-47.48237000585686
 30
0.0
 40
2.5
100
AcDbArc
 50
89.99999999999544
 51
180.0
  0
LINE
  5
A3BEF
330
18
100
AcDbEntity
  8
0
100
AcDbLine
 10
41.28531031298226
 20
-47.48237000585686
 30
0.0
 11
41.28531031298223
 21
-51.48237000585686
 31
0.0
  0
ARC
  5
A3BF0
330
18
100
AcDbEntity
  8
0
100
AcDbCircle
 10
43.78531031298223
 20
-51.48237000585686
 30
0.0
 40
2.5
100
AcDbArc
 50
180.0
 51
270.0
  0
LINE
  5
A3BF1
330
18
100
AcDbEntity
  8
0
100
AcDbLine
 10
43.78531031298223
 20
-53.98237000585686
 30
0.0
 11
44.58531031298224
 21
-53.98237000585686
 31
0.0
  0
LINE
  5
A3BF2
330
18
100
AcDbEntity
  8
0
100
AcDbLine
 10
44.58531031298224
 20
-53.98237000585686
 30
0.0
 11
44.58531031298224
 21
-51.23237000585686
 31
0.0
  0
LINE
  5
A3BF3
330
18
100
AcDbEntity
  8
0
100
AcDbLine
 10
44.58531031298224
 20
-51.23237000585686
 30
0.0
 11
78.05422139973678
 21
-51.23237000585687
 31
0.0
  0
LINE
  5
A3BF4
330
18
100
AcDbEntity
  8
0
100
AcDbLine
 10
78.05422139973678
 20
-51.23237000585687
 30
0.0
 11
84.58531031298224
 21
-49.48237000585687
 31
0.0
  0
LINE
  5
A3BF5
330
18
100
AcDbEntity
  8
0
100
AcDbLine
 10
84.58531031298224
 20
-49.48237000585687
 30
0.0
 11
78.05422139973683
 21
-47.73237000585687
 31
0.0
  0
LINE
  5
A3BF6
330
18
100
AcDbEntity
  8
0
100
AcDbLine
 10
78.0542213997386
 20
-82.73237000585686
 30
0.0
 11
44.58531031298401
 21
-82.73237000585686
 31
0.0
  0
LINE
  5
A3BF7
330
18
100
AcDbEntity
  8
0
100
AcDbLine
 10
44.58531031298401
 20
-82.73237000585686
 30
0.0
 11
44.58531031298401
 21
-79.98237000585686
 31
0.0
  0
LINE
  5
A3BF8
330
18
100
AcDbEntity
  8
0
100
AcDbLine
 10
44.58531031298401
 20
-79.98237000585686
 30
0.0
 11
43.78531031298422
 21
-79.98237000585686
 31
0.0
  0
ARC
  5
A3BF9
330
18
100
AcDbEntity
  8
0
100
AcDbCircle
 10
43.78531031298402
 20
-82.48237000585686
 30
0.0
 40
2.5
100
AcDbArc
 50
89.99999999999544
 51
180.0
  0
LINE
  5
A3BFA
330
18
100
AcDbEntity
  8
0
100
AcDbLine
 10
41.28531031298402
 20
-82.48237000585686
 30
0.0
 11
41.285310312984
 21
-86.48237000585686
 31
0.0
  0
ARC
  5
A3BFB
330
18
100
AcDbEntity
  8
0
100
AcDbCircle
 10
43.785310312984
 20
-86.48237000585686
 30
0.0
 40
2.5
100
AcDbArc
 50
180.0
 51
270.0
  0
LINE
  5
A3BFC
330
18
100
AcDbEntity
  8
0
100
AcDbLine
 10
43.785310312984
 20
-88.98237000585686
 30
0.0
 11
44.58531031298401
 21
-88.98237000585686
 31
0.0
  0
LINE
  5
A3BFD
330
18
100
AcDbEntity
  8
0
100
AcDbLine
 10
44.58531031298401
 20
-88.98237000585686
 30
0.0
 11
44.58531031298401
 21
-86.23237000585686
 31
0.0
  0
LINE
  5
A3BFE
330
18
100
AcDbEntity
  8
0
100
AcDbLine
 10
44.58531031298401
 20
-86.23237000585686
 30
0.0
 11
78.05422139973854
 21
-86.23237000585686
 31
0.0
  0
LINE
  5
A3BFF
330
18
100
AcDbEntity
  8
0
100
AcDbLine
 10
78.05422139973854
 20
-86.23237000585686
 30
0.0
 11
84.585310312984
 21
-84.48237000585686
 31
0.0
  0
LINE
  5
A3C00
330
18
100
AcDbEntity
  8
0
100
AcDbLine
 10
84.585310312984
 20
-84.48237000585686
 30
0.0
 11
78.0542213997386
 21
-82.73237000585686
 31
0.0
  0
LINE
  5
A3C01
330
18
100
AcDbEntity
  8
0
  6
BYBLOCK
100
AcDbLine
 10
-38.95259297764152
 20
-89.9823700058573
 30
0.0
 11
-39.48849097764152
 21
-91.9823700058573
 31
0.0
  0
LINE
  5
A3C02
330
18
100
AcDbEntity
  8
0
  6
BYBLOCK
100
AcDbLine
 10
-39.48849097764152
 20
-91.9823700058573
 30
0.0
 11
-40.02438897764152
 21
-89.9823700058573
 31
0.0
  0
LINE
  5
A3C03
330
18
100
AcDbEntity
  8
0
  6
BYBLOCK
100
AcDbLine
 10
-39.48849097764152
 20
-91.9823700058573
 30
0.0
 11
-39.48849097764152
 21
-89.9823700058573
 31
0.0
  0
LINE
  5
A3C04
330
18
100
AcDbEntity
  8
0
  6
BYBLOCK
100
AcDbLine
 10
-40.02438897764151
 20
-22.98237000585686
 30
0.0
 11
-39.4884909776415
 21
-20.98237000585686
 31
0.0
  0
LINE
  5
A3C05
330
18
100
AcDbEntity
  8
0
  6
BYBLOCK
100
AcDbLine
 10
-39.4884909776415
 20
-20.98237000585686
 30
0.0
 11
-38.9525929776415
 21
-22.98237000585686
 31
0.0
  0
LINE
  5
A3C06
330
18
100
AcDbEntity
  8
0
  6
BYBLOCK
100
AcDbLine
 10
-39.4884909776415
 20
-20.98237000585686
 30
0.0
 11
-39.4884909776415
 21
-22.98237000585686
 31
0.0
  0
TEXT
  5
A3C07
330
18
100
AcDbEntity
  8
1DIM
  6
CONTINUOUS
100
AcDbText
 10
-40.18849097764149
 20
-58.81570333919043
 30
0.0
 40
3.5
  1
71
 50
90.0
100
AcDbText
1001
ACAD
1000
DSTYLE
1002
{
1070
   271
1070
     0
1002
}
  0
LINE
  5
A3C08
330
18
100
AcDbEntity
  8
0
  6
BYBLOCK
100
AcDbLine
 10
-30.02438897764149
 20
-38.13781457208551
 30
0.0
 11
-29.48849097764149
 21
-36.13781457208551
 31
0.0
  0
LINE
  5
A3C09
330
18
100
AcDbEntity
  8
0
  6
BYBLOCK
100
AcDbLine
 10
-29.48849097764149
 20
-36.13781457208551
 30
0.0
 11
-28.95259297764149
 21
-38.13781457208551
 31
0.0
  0
LINE
  5
A3C0A
330
18
100
AcDbEntity
  8
0
  6
BYBLOCK
100
AcDbLine
 10
-29.48849097764149
 20
-36.13781457208551
 30
0.0
 11
-29.48849097764149
 21
-38.13781457208551
 31
0.0
  0
LINE
  5
A3C0B
330
18
100
AcDbEntity
  8
0
  6
BYBLOCK
100
AcDbLine
 10
-28.9525929776415
 20
-89.98237000585732
 30
0.0
 11
-29.4884909776415
 21
-91.98237000585732
 31
0.0
  0
LINE
  5
A3C0C
330
18
100
AcDbEntity
  8
0
  6
BYBLOCK
100
AcDbLine
 10
-29.4884909776415
 20
-91.98237000585732
 30
0.0
 11
-30.0243889776415
 21
-89.98237000585732
 31
0.0
  0
LINE
  5
A3C0D
330
18
100
AcDbEntity
  8
0
  6
BYBLOCK
100
AcDbLine
 10
-29.4884909776415
 20
-91.98237000585732
 30
0.0
 11
-29.4884909776415
 21
-89.98237000585732
 31
0.0
  0
TEXT
  5
A3C0E
330
18
100
AcDbEntity
  8
1DIM
  6
CONTINUOUS
100
AcDbText
 10
-30.18849097764149
 20
-66.98891173341586
 30
0.0
 40
3.5
  1
56
 50
90.0
100
AcDbText
1001
ACAD
1000
DSTYLE
1002
{
1070
   271
1070
     0
1002
}
  0
LINE
  5
A3C0F
330
18
100
AcDbEntity
  8
0
  6
BYBLOCK
100
AcDbLine
 10
-1.41468968701872
 20
12.98173199414314
 30
0.0
 11
-3.41468968701872
 21
13.51762999414314
 31
0.0
  0
LINE
  5
A3C10
330
18
100
AcDbEntity
  8
0
  6
BYBLOCK
100
AcDbLine
 10
-3.41468968701872
 20
13.51762999414314
 30
0.0
 11
-1.41468968701872
 21
14.05352799414313
 31
0.0
  0
LINE
  5
A3C11
330
18
100
AcDbEntity
  8
0
  6
BYBLOCK
100
AcDbLine
 10
-3.41468968701872
 20
13.51762999414314
 30
0.0
 11
-1.41468968701872
 21
13.51762999414314
 31
0.0
  0
LINE
  5
A3C12
330
18
100
AcDbEntity
  8
0
  6
BYBLOCK
100
AcDbLine
 10
47.58531031298048
 20
14.05352799414313
 30
0.0
 11
49.58531031298048
 21
13.51762999414314
 31
0.0
  0
LINE
  5
A3C13
330
18
100
AcDbEntity
  8
0
  6
BYBLOCK
100
AcDbLine
 10
49.58531031298048
 20
13.51762999414314
 30
0.0
 11
47.58531031298048
 21
12.98173199414314
 31
0.0
  0
LINE
  5
A3C14
330
18
100
AcDbEntity
  8
0
  6
BYBLOCK
100
AcDbLine
 10
49.58531031298048
 20
13.51762999414314
 30
0.0
 11
47.58531031298048
 21
13.51762999414314
 31
0.0
  0
TEXT
  5
A3C15
330
18
100
AcDbEntity
  8
1DIM
  6
CONTINUOUS
100
AcDbText
 10
20.15649086853644
 20
14.21762999414313
 30
0.0
 40
3.5
  1
53
100
AcDbText
  0
LINE
  5
A3C16
330
18
100
AcDbEntity
  8
0
  6
BYBLOCK
100
AcDbLine
 10
-10.66468968701804
 20
22.98173199414314
 30
0.0
 11
-12.66468968701804
 21
23.51762999414314
 31
0.0
  0
LINE
  5
A3C17
330
18
100
AcDbEntity
  8
0
  6
BYBLOCK
100
AcDbLine
 10
-12.66468968701804
 20
23.51762999414314
 30
0.0
 11
-10.66468968701804
 21
24.05352799414313
 31
0.0
  0
LINE
  5
A3C18
330
18
100
AcDbEntity
  8
0
  6
BYBLOCK
100
AcDbLine
 10
-12.66468968701804
 20
23.51762999414314
 30
0.0
 11
-10.66468968701804
 21
23.51762999414314
 31
0.0
  0
LINE
  5
A3C19
330
18
100
AcDbEntity
  8
0
  6
BYBLOCK
100
AcDbLine
 10
47.58531031298048
 20
24.05352799414313
 30
0.0
 11
49.58531031298048
 21
23.51762999414314
 31
0.0
  0
LINE
  5
A3C1A
330
18
100
AcDbEntity
  8
0
  6
BYBLOCK
100
AcDbLine
 10
49.58531031298048
 20
23.51762999414314
 30
0.0
 11
47.58531031298048
 21
22.98173199414314
 31
0.0
  0
LINE
  5
A3C1B
330
18
100
AcDbEntity
  8
0
  6
BYBLOCK
100
AcDbLine
 10
49.58531031298048
 20
23.51762999414314
 30
0.0
 11
47.58531031298048
 21
23.51762999414314
 31
0.0
  0
TEXT
  5
A3C1C
330
18
100
AcDbEntity
  8
1DIM
  6
CONTINUOUS
100
AcDbText
 10
15.53149086853678
 20
24.21762999414313
 30
0.0
 40
3.5
  1
62
100
AcDbText
1001
ACAD
1000
DSTYLE
1002
{
1070
   271
1070
     0
1002
}
  0
LINE
  5
A3C1D
330
18
100
AcDbEntity
  8
0
  6
BYBLOCK
100
AcDbLine
 10
100.1212083129809
 20
-82.48237000585688
 30
0.0
 11
99.58531031298094
 21
-84.48237000585688
 31
0.0
  0
LINE
  5
A3C1E
330
18
100
AcDbEntity
  8
0
  6
BYBLOCK
100
AcDbLine
 10
99.58531031298094
 20
-84.48237000585688
 30
0.0
 11
99.04941231298093
 21
-82.48237000585688
 31
0.0
  0
LINE
  5
A3C1F
330
18
100
AcDbEntity
  8
0
  6
BYBLOCK
100
AcDbLine
 10
99.58531031298094
 20
-84.48237000585688
 30
0.0
 11
99.58531031298094
 21
-82.48237000585688
 31
0.0
  0
LINE
  5
A3C20
330
18
100
AcDbEntity
  8
0
  6
BYBLOCK
100
AcDbLine
 10
99.04941231298093
 20
-51.48237000585686
 30
0.0
 11
99.58531031298094
 21
-49.48237000585686
 31
0.0
  0
LINE
  5
A3C21
330
18
100
AcDbEntity
  8
0
  6
BYBLOCK
100
AcDbLine
 10
99.58531031298094
 20
-49.48237000585686
 30
0.0
 11
100.1212083129809
 21
-51.48237000585686
 31
0.0
  0
LINE
  5
A3C22
330
18
100
AcDbEntity
  8
0
  6
BYBLOCK
100
AcDbLine
 10
99.58531031298094
 20
-49.48237000585686
 30
0.0
 11
99.58531031298094
 21
-51.48237000585686
 31
0.0
  0
TEXT
  5
A3C23
330
18
100
AcDbEntity
  8
1DIM
  6
CONTINUOUS
100
AcDbText
 10
98.88531031298096
 20
-69.89903667252354
 30
0.0
 40
3.5
  1
35
 50
90.0
100
AcDbText
  0
LINE
  5
A3C24
330
18
100
AcDbEntity
  8
0
  6
BYBLOCK
100
AcDbLine
 10
-18.90860664408558
 20
32.98173199414313
 30
0.0
 11
-20.90860664408558
 21
33.51762999414314
 31
0.0
  0
LINE
  5
A3C25
330
18
100
AcDbEntity
  8
0
  6
BYBLOCK
100
AcDbLine
 10
-20.90860664408558
 20
33.51762999414314
 30
0.0
 11
-18.90860664408558
 21
34.05352799414314
 31
0.0
  0
LINE
  5
A3C26
330
18
100
AcDbEntity
  8
0
  6
BYBLOCK
100
AcDbLine
 10
-20.90860664408558
 20
33.51762999414314
 30
0.0
 11
-18.90860664408558
 21
33.51762999414314
 31
0.0
  0
LINE
  5
A3C27
330
18
100
AcDbEntity
  8
0
  6
BYBLOCK
100
AcDbLine
 10
47.58531031298048
 20
34.05352799414314
 30
0.0
 11
49.58531031298048
 21
33.51762999414314
 31
0.0
  0
LINE
  5
A3C28
330
18
100
AcDbEntity
  8
0
  6
BYBLOCK
100
AcDbLine
 10
49.58531031298048
 20
33.51762999414314
 30
0.0
 11
47.58531031298048
 21
32.98173199414313
 31
0.0
  0
LINE
  5
A3C29
330
18
100
AcDbEntity
  8
0
  6
BYBLOCK
100
AcDbLine
 10
49.58531031298048
 20
33.51762999414314
 30
0.0
 11
47.58531031298048
 21
33.51762999414314
 31
0.0
  0
TEXT
  5
A3C2A
330
18
100
AcDbEntity
  8
1DIM
  6
CONTINUOUS
100
AcDbText
 10
9.380018501114119
 20
34.21762999414314
 30
0.0
 40
3.5
  1
70.5
100
AcDbText
1001
ACAD
1000
DSTYLE
1002
{
1070
   271
1070
     1
1002
}
  0
LINE
  5
A3C2B
330
18
100
AcDbEntity
  8
0
  6
BYBLOCK
100
AcDbLine
 10
-50.02438897764149
 20
-5.501345527200998
 30
0.0
 11
-49.48849097764148
 21
-3.501345527200998
 31
0.0
  0
LINE
  5
A3C2C
330
18
100
AcDbEntity
  8
0
  6
BYBLOCK
100
AcDbLine
 10
-49.48849097764148
 20
-3.501345527200998
 30
0.0
 11
-48.95259297764148
 21
-5.501345527200998
 31
0.0
  0
LINE
  5
A3C2D
330
18
100
AcDbEntity
  8
0
  6
BYBLOCK
100
AcDbLine
 10
-49.48849097764148
 20
-3.501345527200998
 30
0.0
 11
-49.48849097764148
 21
-5.501345527200998
 31
0.0
  0
LINE
  5
A3C2E
330
18
100
AcDbEntity
  8
0
  6
BYBLOCK
100
AcDbLine
 10
-48.9525929776415
 20
-89.9823700058573
 30
0.0
 11
-49.4884909776415
 21
-91.9823700058573
 31
0.0
  0
LINE
  5
A3C2F
330
18
100
AcDbEntity
  8
0
  6
BYBLOCK
100
AcDbLine
 10
-49.4884909776415
 20
-91.9823700058573
 30
0.0
 11
-50.02438897764151
 21
-89.9823700058573
 31
0.0
  0
LINE
  5
A3C30
330
18
100
AcDbEntity
  8
0
  6
BYBLOCK
100
AcDbLine
 10
-49.4884909776415
 20
-91.9823700058573
 30
0.0
 11
-49.4884909776415
 21
-89.9823700058573
 31
0.0
  0
TEXT
  5
A3C31
330
18
100
AcDbEntity
  8
1DIM
  6
CONTINUOUS
100
AcDbText
 10
-50.18849097764149
 20
-52.99185776652917
 30
0.0
 40
3.5
  1
88.5
 50
90.0
100
AcDbText
1001
ACAD
1000
DSTYLE
1002
{
1070
   271
1070
     1
1002
}
  0
LINE
  5
A3C32
330
18
100
AcDbEntity
  8
0
100
AcDbLine
 10
-92.82661294038508
 20
105.6306459021532
 30
0.0
 11
-92.82661294038508
 21
72.16173481539863
 31
0.0
  0
LINE
  5
A3C33
330
18
100
AcDbEntity
  8
0
100
AcDbLine
 10
-92.82661294038508
 20
72.16173481539863
 30
0.0
 11
-95.57661294038508
 21
72.16173481539863
 31
0.0
  0
LINE
  5
A3C34
330
18
100
AcDbEntity
  8
0
100
AcDbLine
 10
-95.57661294038508
 20
72.16173481539863
 30
0.0
 11
-95.57661294038508
 21
71.36173481539885
 31
0.0
  0
ARC
  5
A3C35
330
18
100
AcDbEntity
  8
0
100
AcDbCircle
 10
-93.07661294038508
 20
71.36173481539865
 30
0.0
 40
2.5
100
AcDbArc
 50
179.9999999999955
 51
270.0
  0
LINE
  5
A3C36
330
18
100
AcDbEntity
  8
0
100
AcDbLine
 10
-93.07661294038508
 20
68.86173481539865
 30
0.0
 11
-89.07661294038508
 21
68.86173481539862
 31
0.0
  0
ARC
  5
A3C37
330
18
100
AcDbEntity
  8
0
100
AcDbCircle
 10
-89.07661294038508
 20
71.36173481539862
 30
0.0
 40
2.5
100
AcDbArc
 50
270.0
 51
0.0
  0
LINE
  5
A3C38
330
18
100
AcDbEntity
  8
0
100
AcDbLine
 10
-86.57661294038508
 20
71.36173481539862
 30
0.0
 11
-86.57661294038508
 21
72.16173481539863
 31
0.0
  0
LINE
  5
A3C39
330
18
100
AcDbEntity
  8
0
100
AcDbLine
 10
-86.57661294038508
 20
72.16173481539863
 30
0.0
 11
-89.32661294038508
 21
72.16173481539863
 31
0.0
  0
LINE
  5
A3C3A
330
18
100
AcDbEntity
  8
0
100
AcDbLine
 10
-89.32661294038508
 20
72.16173481539863
 30
0.0
 11
-89.32661294038508
 21
105.6306459021532
 31
0.0
  0
LINE
  5
A3C3B
330
18
100
AcDbEntity
  8
0
100
AcDbLine
 10
-89.32661294038508
 20
105.6306459021532
 30
0.0
 11
-91.07661294038506
 21
112.1617348153986
 31
0.0
  0
LINE
  5
A3C3C
330
18
100
AcDbEntity
  8
0
100
AcDbLine
 10
-91.07661294038506
 20
112.1617348153986
 30
0.0
 11
-92.82661294038508
 21
105.6306459021532
 31
0.0
  0
LINE
  5
A3C3D
330
18
100
AcDbEntity
  8
0
  6
BYBLOCK
100
AcDbLine
 10
-89.07661294038508
 20
116.5000937640048
 30
0.0
 11
-91.07661294038508
 21
117.0359917640048
 31
0.0
  0
LINE
  5
A3C3E
330
18
100
AcDbEntity
  8
0
  6
BYBLOCK
100
AcDbLine
 10
-91.07661294038508
 20
117.0359917640048
 30
0.0
 11
-89.07661294038508
 21
117.5718897640049
 31
0.0
  0
LINE
  5
A3C3F
330
18
100
AcDbEntity
  8
0
  6
BYBLOCK
100
AcDbLine
 10
-91.07661294038508
 20
117.0359917640048
 30
0.0
 11
-89.07661294038508
 21
117.0359917640048
 31
0.0
  0
LINE
  5
A3C40
330
18
100
AcDbEntity
  8
0
  6
BYBLOCK
100
AcDbLine
 10
-83.57661294038496
 20
117.5718897640049
 30
0.0
 11
-81.57661294038496
 21
117.0359917640048
 31
0.0
  0
LINE
  5
A3C41
330
18
100
AcDbEntity
  8
0
  6
BYBLOCK
100
AcDbLine
 10
-81.57661294038496
 20
117.0359917640048
 30
0.0
 11
-83.57661294038496
 21
116.5000937640048
 31
0.0
  0
LINE
  5
A3C42
330
18
100
AcDbEntity
  8
0
  6
BYBLOCK
100
AcDbLine
 10
-81.57661294038496
 20
117.0359917640048
 30
0.0
 11
-83.57661294038496
 21
117.0359917640048
 31
0.0
  0
TEXT
  5
A3C43
330
18
100
AcDbEntity
  8
1DIM
  6
CONTINUOUS
100
AcDbText
 10
-89.8282333107554
 20
117.7359917640048
 30
0.0
 40
3.5
  1
9.5
100
AcDbText
  0
LINE
  5
A3C44
330
18
100
AcDbEntity
  8
0
  6
BYBLOCK
100
AcDbLine
 10
-93.07661294038508
 20
117.5718897640049
 30
0.0
 11
-91.07661294038508
 21
117.0359917640048
 31
0.0
  0
LINE
  5
A3C45
330
18
100
AcDbEntity
  8
0
  6
BYBLOCK
100
AcDbLine
 10
-91.07661294038508
 20
117.0359917640048
 30
0.0
 11
-93.07661294038508
 21
116.5000937640048
 31
0.0
  0
LINE
  5
A3C46
330
18
100
AcDbEntity
  8
0
  6
BYBLOCK
100
AcDbLine
 10
-91.07661294038508
 20
117.0359917640048
 30
0.0
 11
-93.07661294038508
 21
117.0359917640048
 31
0.0
  0
LINE
  5
A3C47
330
18
100
AcDbEntity
  8
0
  6
BYBLOCK
100
AcDbLine
 10
-97.07661294038496
 20
116.5000937640048
 30
0.0
 11
-99.07661294038496
 21
117.0359917640048
 31
0.0
  0
LINE
  5
A3C48
330
18
100
AcDbEntity
  8
0
  6
BYBLOCK
100
AcDbLine
 10
-99.07661294038496
 20
117.0359917640048
 30
0.0
 11
-97.07661294038496
 21
117.5718897640049
 31
0.0
  0
LINE
  5
A3C49
330
18
100
AcDbEntity
  8
0
  6
BYBLOCK
100
AcDbLine
 10
-99.07661294038496
 20
117.0359917640048
 30
0.0
 11
-97.07661294038496
 21
117.0359917640048
 31
0.0
  0
TEXT
  5
A3C4A
330
18
100
AcDbEntity
  8
1DIM
  6
CONTINUOUS
100
AcDbText
 10
-96.24327960705169
 20
117.7359917640049
 30
0.0
 40
3.5
  1
8
100
AcDbText
  0
LINE
  5
A3C4B
330
18
100
AcDbEntity
  8
0
  6
BYBLOCK
100
AcDbLine
 10
9.603464794070913
 20
-85.2372438923142
 30
0.0
 11
11.00002991251284
 21
-83.70858679003283
 31
0.0
  0
LINE
  5
A3C4C
330
18
100
AcDbEntity
  8
0
  6
BYBLOCK
100
AcDbLine
 10
11.00002991251284
 20
-83.70858679003283
 30
0.0
 11
10.55489686693136
 21
-85.73072507366611
 31
0.0
  0
LINE
  5
A3C4D
330
18
100
AcDbEntity
  8
0
  6
BYBLOCK
100
AcDbLine
 10
11.00002991251284
 20
-83.70858679003283
 30
0.0
 11
10.07918083050114
 21
-85.48398448299015
 31
0.0
  0
LINE
  5
A3C4E
330
18
100
AcDbEntity
  8
0
  6
BYBLOCK
100
AcDbLine
 10
44.90131249840813
 20
-92.85482120032069
 30
0.0
 11
46.27966293324897
 21
-91.30972031520733
 31
0.0
  0
LINE
  5
A3C4F
330
18
100
AcDbEntity
  8
0
  6
BYBLOCK
100
AcDbLine
 10
46.27966293324897
 20
-91.30972031520733
 30
0.0
 11
45.85852615596061
 21
-93.33699199932349
 31
0.0
  0
LINE
  5
A3C50
330
18
100
AcDbEntity
  8
0
  6
BYBLOCK
100
AcDbLine
 10
46.27966293324897
 20
-91.30972031520733
 30
0.0
 11
45.37991932718437
 21
-93.09590659982209
 31
0.0
  0
VIEWPORT
  5
7DA1A
330
7DA16
100
AcDbEntity
 67
     1
  8
0
100
AcDbViewport
 68
     1
 10
0.0
 20
0.0
 30
0.0
 40
630.5106382978723
 41
297.0
 68
     1
 69
     1
1001
ACAD
1000
MVIEW
1002
{
1070
    16
1010
0.0
1020
0.0
1030
0.0
1010
0.0
1020
0.0
1030
1.0
1040
0.0
1040
297.0
1040
-4.300000000000011
1040
12.7999999999999
1040
50.0
1040
0.0
1040
0.0
1070
    16
1070
  1000
1070
     0
1070
     3
1070
     0
1070
     0
1070
     0
1070
     0
1040
0.0
1040
0.0
1040
0.0
1040
10.0
1040
10.0
1040
10.0
1040
10.0
1070
     0
1002
{
1002
}
1002
}
  0
ENDSEC
  0
SECTION
  2
OBJECTS
  0
DICTIONARY
  5
C
330
0
100
AcDbDictionary
  3
ACAD_BACKGROUND
350
3EB8B
  3
ACAD_CIP_PREVIOUS_PRODUCT_INFO
350
62CC3
  3
ACAD_COLOR
350
1418C
  3
ACAD_FIELDLIST
350
6F2BA
  3
ACAD_GROUP
350
D
  3
ACAD_IMAGE_DICT
350
47736
  3
ACAD_IMAGE_VARS
350
47739
  3
ACAD_LAYOUT
350
1418F
  3
ACAD_MATERIAL
350
1418B
  3
ACAD_MLEADERSTYLE
350
16FA3
  3
ACAD_MLINESTYLE
350
1B
  3
ACAD_PLOTSETTINGS
350
14190
  3
ACAD_RENDER_ACTIVE_SETTINGS
350
87F41
  3
ACAD_RENDER_SETTINGS
350
6EA4E
  3
ACAD_SCALELIST
350
16F81
  3
ACAD_VISUALSTYLE
350
16F70
  3
ACDBHEADERROUNDTRIPXREC
350
A3C51
  3
ACDBVARIABLEDICTIONARY
350
6ED
  3
AEC_PROPERTY_SET_DEFS
350
26DAC
  3
CONTENTDICTIONARY
350
60
  3
DRAWINGVARIABLESDICT
350
5F9
  3
DWGPROPS
350
A3C54
1001
ACAD
1000
TREAT_AS_HARD
1070
     0
  0
DICTIONARY
  5
14879
330
2
100
AcDbDictionary
  3
ACAD_LAYERSTATES
360
1487A
1001
ACAD
1000
TREAT_AS_HARD
1070
     1
  0
DICTIONARY
  5
16FBC
330
E
100
AcDbDictionary
  3
ADSK_XREC_LAYER_RECONCILED
360
16FBD
1001
ACAD
1000
TREAT_AS_HARD
1070
     1
  0
DICTIONARY
  5
143BD
330
18
100
AcDbDictionary
  3
ACAD_SORTENTS
360
6A56E
1001
ACAD
1000
TREAT_AS_HARD
1070
     1
  0
DICTIONARY
  5
A337D
330
7DA16
100
AcDbDictionary
  3
ACAD_SORTENTS
360
A337E
1001
ACAD
1000
TREAT_AS_HARD
1070
     1
  0
DICTIONARY
  5
3EB8B
102
{ACAD_REACTORS
330
C
102
}
330
C
100
AcDbDictionary
1001
ACAD
1000
TREAT_AS_HARD
1070
     0
  0
XRECORD
  5
62CC3
102
{ACAD_REACTORS
330
C
102
}
330
C
100
AcDbXrecord
300
ACDLT
300
2012
300
ACDLT_F_S
  0
DICTIONARY
  5
1418C
102
{ACAD_REACTORS
330
C
102
}
330
C
100
AcDbDictionary
1001
ACAD
1000
TREAT_AS_HARD
1070
     0
  0
ACAD_PROXY_OBJECT
  5
6F2BA
102
{ACAD_REACTORS
330
C
102
}
330
C
100
AcDbZombieObject
 90
      499
 91
      534
 93
        3
310
80
  0
DICTIONARY
  5
D
102
{ACAD_REACTORS
330
C
102
}
330
C
100
AcDbDictionary
1001
ACAD
1000
TREAT_AS_HARD
1070
     0
  0
DICTIONARY
  5
47736
102
{ACAD_REACTORS
330
C
102
}
330
C
100
AcDbDictionary
1001
ACAD
1000
TREAT_AS_HARD
1070
     0
  0
RASTERVARIABLES
  5
47739
102
{ACAD_REACTORS
330
C
102
}
330
C
100
AcDbRasterVariables
 90
        0
 70
     1
 71
     1
 72
     0
  0
DICTIONARY
  5
1418F
102
{ACAD_REACTORS
330
C
102
}
330
C
100
AcDbDictionary
1001
ACAD
1000
TREAT_AS_HARD
1070
     0
  0
DICTIONARY
  5
1418B
102
{ACAD_REACTORS
330
C
102
}
330
C
100
AcDbDictionary
  3
BYBLOCK
350
16F60
  3
BYLAYER
350
16F58
  3
GLOBAL
350
16F68
1001
ACAD
1000
TREAT_AS_HARD
1070
     0
  0
DICTIONARY
  5
16FA3
102
{ACAD_REACTORS
330
C
102
}
330
C
100
AcDbDictionary
  3
STANDARD
350
16FA4
1001
ACAD
1000
TREAT_AS_HARD
1070
     0
  0
DICTIONARY
  5
1B
102
{ACAD_REACTORS
330
C
102
}
330
C
100
AcDbDictionary
  3
STANDARD
350
1C
1001
ACAD
1000
TREAT_AS_HARD
1070
     0
  0
DICTIONARY
  5
14190
102
{ACAD_REACTORS
330
C
102
}
330
C
100
AcDbDictionary
1001
ACAD
1000
TREAT_AS_HARD
1070
     0
  0
ACAD_PROXY_OBJECT
  5
87F41
102
{ACAD_REACTORS
330
C
102
}
330
C
100
AcDbZombieObject
 90
      499
 91
      540
 93
      924
310
409064D656469756DFA40D02901408000000000000084000000000000002100000000A09999A93F0000002826666A4FC000000A09999A93F0000002826666A4FE505415051E802000041027000041505414E4026A6666666666E4FD00000000001C25D0280000000000002440A4C040C02000010
  0
DICTIONARY
  5
6EA4E
102
{ACAD_REACTORS
330
C
102
}
330
C
100
AcDbDictionary
1001
ACAD
1000
TREAT_AS_HARD
1070
     0
  0
DICTIONARY
  5
16F81
102
{ACAD_REACTORS
330
C
102
}
330
C
100
AcDbDictionary
  3
*A1
350
6F27C
  3
*A10
350
6F285
  3
*A11
350
6F286
  3
*A12
350
6F287
  3
*A13
350
6F288
  3
*A14
350
6F289
  3
*A15
350
6F28A
  3
*A16
350
6F28B
  3
*A17
350
6F27D
  3
*A2
350
6F27E
  3
*A3
350
6F27F
  3
*A4
350
6F280
  3
*A5
350
6F281
  3
*A6
350
6F282
  3
*A7
350
6F283
  3
*A8
350
6F284
  3
*A9
350
7F62D
  3
A0
350
16F82
  3
A1
350
16F83
  3
A2
350
16F84
  3
A3
350
16F85
  3
A4
350
16F86
  3
A5
350
16F87
  3
A6
350
16F88
  3
A7
350
16F89
  3
A8
350
16F8A
  3
A9
350
16F8B
  3
B0
350
16F8C
  3
B1
350
16F8D
  3
B2
350
16F8E
  3
B3
350
16F8F
  3
B4
350
16F90
  3
B5
350
16F91
  3
B6
350
16F92
  3
B7
350
16F93
  3
B8
350
16F94
  3
B9
350
16F95
  3
C0
350
16F96
  3
C1
350
16F97
  3
C2
350
16F98
  3
C3
350
16F99
  3
C4
350
16F9A
  3
C5
350
16F9B
  3
C6
350
16F9C
  3
C7
350
16F9D
  3
C8
350
16F9E
  3
C9
350
16F9F
  3
D0
350
16FA0
  3
D1
350
16FA1
  3
D2
350
16FA2
1001
ACAD
1000
TREAT_AS_HARD
1070
     0
  0
DICTIONARY
  5
16F70
102
{ACAD_REACTORS
330
C
102
}
330
C
100
AcDbDictionary
  3
2DWIREFRAME
350
16F76
  3
3D_HIDDEN
350
16F78
  3
3DWIREFRAME
350
16F77
  3
BASIC
350
16F75
  3
BRIGHTEN
350
16F7C
  3
COLORCHANGE
350
16F80
  3
CONCEPTUAL
350
16F79
  3
DIM
350
16F7B
  3
EDGECOLOROFF
350
62CA3
  3
FACEPATTERN
350
16F7F
  3
FLAT
350
16F71
  3
FLATWITHEDGES
350
16F72
  3
GOURAUD
350
16F73
  3
GOURAUDWITHEDGES
350
16F74
  3
HIDDEN
350
62C9B
  3
JITTEROFF
350
62CA1
  3
LINEPATTERN
350
16F7E
  3
MODELING
350
A3AAC
  3
OVERHANGOFF
350
62CA2
  3
REALISTIC
350
16F7A
  3
SHADED
350
62CA0
  3
SHADED_WITH_EDGES
350
62C9F
  3
SHADES_OF_GRAY
350
62C9C
  3
SKETCHY
350
62C9D
  3
THICKEN
350
16F7D
  3
WIREFRAME
350
62C9A
  3
X-RAY
350
62C9E
1001
ACAD
1000
TREAT_AS_HARD
1070
     0
  0
DICTIONARY
  5
A3C51
102
{ACAD_REACTORS
330
C
102
}
330
C
100
AcDbDictionary
  3
COLORDICT
350
A3C52
  3
MATERIALDICT
350
A3C53
1001
ACAD
1000
TREAT_AS_HARD
1070
     0
  0
DICTIONARY
  5
6ED
102
{ACAD_REACTORS
330
C
102
}
330
C
100
AcDbDictionary
  3
CANNOSCALE
350
A3DEF
  3
CMLEADERSTYLE
350
1710A
  3
CTABLESTYLE
350
141AE
  3
DIMADEC
350
6EE
  3
DIMASSOC
350
141AF
  3
FIELDEVAL
350
7CF14
  3
HIDETEXT
350
1485B
  3
INDEXCTL
350
1710C
  3
INTERSECTIONCOLOR
350
1485F
  3
INTERSECTIONDISPLAY
350
1485E
  3
LAYEREVAL
350
A348C
  3
LAYERNOTIFY
350
A348D
  3
MLEADERSCALE
350
7E56E
  3
MSLTSCALE
350
6D821
  3
OBSCOLOR
350
1485C
  3
OBSLTYPE
350
1485D
  3
PROJECTNAME
350
141B0
  3
SORTENTS
350
E97
  3
UPDATETHUMBNAIL
350
41A53
  3
XCLIPFRAME
350
A3AAB
1001
ACAD
1000
TREAT_AS_HARD
1070
     0
  0
DICTIONARY
  5
26DAC
102
{ACAD_REACTORS
330
C
102
}
330
C
100
AcDbDictionary
1001
ACAD
1000
TREAT_AS_HARD
1070
     0
  0
DICTIONARY
  5
60
102
{ACAD_REACTORS
330
C
102
}
330
C
100
AcDbDictionary
1001
CONTENTTABDATA
1070
     3
1000
CHILDREN.dwg
1000
D:\ACLT\家田Tab\CHILDREN.dwg
1070
     0
1070
     0
1070
     1
1000
REGION.dwg
1000
D:\ACLT\家田Tab\REGION.dwg
1070
     0
1070
     0
1070
     1
1000
std_sym_all.dwg
1000
D:\ACLT\家田Tab\std_sym_all.dwg
1070
     0
1070
     0
1070
     1
1001
CONTENTCURRENTTAB
1070
     0
1001
ACAD
1000
TREAT_AS_HARD
1070
     0
  0
DICTIONARY
  5
5F9
102
{ACAD_REACTORS
330
C
102
}
330
C
100
AcDbDictionary
1001
DRAWINGVARIABLESXDATA
1000
POLARMODE
1000
1
1000
POLARANG
1000
0.261799387799149410000000
1000
POLARSTYLE
1000
1
1001
ACAD
1000
TREAT_AS_HARD
1070
     0
  0
XRECORD
  5
A3C54
102
{ACAD_REACTORS
330
C
102
}
330
C
100
AcDbXrecord
  1
DWGPROPS COOKIE
  2

  3

  4

  6

  7

  8
624
  9

300
=
301
=
302
=
303
=
304
=
305
=
306
=
307
=
308
=
309
=
 40
0.0
 41
2451027.252421285
 42
2458080.399314664
  1

 90
        0
  0
DICTIONARY
  5
1487A
102
{ACAD_REACTORS
330
14879
102
}
330
14879
100
AcDbDictionary
  3
_LAYISO_STATE
350
7A5FB
1001
ACLAYERTOOLS
1000
14191
1000
0
1001
ACAD
1000
TREAT_AS_HARD
1070
     0
  0
ACAD_PROXY_OBJECT
  5
16FBD
102
{ACAD_REACTORS
330
16FBC
102
}
330
16FBC
100
AcDbZombieObject
 90
      499
 91
      543
 93
       34
310
40C8804040
  0
SORTENTSTABLE
  5
6A56E
102
{ACAD_REACTORS
330
143BD
102
}
330
143BD
100
AcDbSortentsTable
330
18
331
A369F
  5
A36AD
331
A36A0
  5
A36AE
331
A36A1
  5
A36AF
331
A36A2
  5
A36B0
331
A36A3
  5
A36B1
331
A36A4
  5
A36B2
331
A36A5
  5
A36B3
331
A36A6
  5
A36B4
331
A36A7
  5
A36B8
331
A36A8
  5
A36B9
331
A36A9
  5
A36BA
331
A36AA
  5
A36BB
331
A36AB
  5
A36BC
331
A36AC
  5
A36BD
331
A36AD
  5
A36BE
331
A36AE
  5
A36BF
331
A36AF
  5
A36C0
331
A36B0
  5
A36C1
331
A36B1
  5
A36C2
331
A36B2
  5
A36C6
331
A36B3
  5
A36C7
331
A36B4
  5
A36C8
331
A36B8
  5
A36D4
331
A36B9
  5
A36D5
331
A36BA
  5
A36D6
331
A36BB
  5
A36D7
331
A36BC
  5
A36D8
331
A36BD
  5
A36D9
331
A36BE
  5
A36DA
331
A36BF
  5
A36DB
331
A36C0
  5
A36DC
331
A36C1
  5
A36DD
331
A36C2
  5
A36DE
331
A36C3
  5
A36DF
331
A36C4
  5
A36E0
331
A36C5
  5
A36E1
331
A36C6
  5
A36E2
331
A36C7
  5
A36E3
331
A36C8
  5
A36E4
331
A36C9
  5
A36E5
331
A36CA
  5
A36E6
331
A36CB
  5
A36E7
331
A36CC
  5
A36E8
331
A36CE
  5
A36E9
331
A36CF
  5
A36EA
331
A36D0
  5
A36EB
331
A36D1
  5
A36EC
331
A36D2
  5
A36ED
331
A36D3
  5
A36EE
331
A36D4
  5
A36EF
331
A36D5
  5
A36F0
331
A36D6
  5
A36F1
331
A36D7
  5
A36F2
331
A36D8
  5
A36F3
331
A36D9
  5
A36F4
331
A36DA
  5
A36F5
331
A36DB
  5
A36F6
331
A36DC
  5
A36F7
331
A36DD
  5
A36F8
331
A36DE
  5
A36F9
331
A36DF
  5
A36FA
331
A36E0
  5
A36FB
331
A36E1
  5
A36FC
331
A36E2
  5
A36FD
331
A36E3
  5
A36FE
331
A36E4
  5
A36FF
331
A36E5
  5
A3700
331
A36E6
  5
A3701
331
A36E7
  5
A3702
331
A36E8
  5
A3703
331
A36E9
  5
A3704
331
A36EA
  5
A3705
331
A36EB
  5
A3706
331
A36EC
  5
A3707
331
A36ED
  5
A3708
331
A36EE
  5
A3709
331
A36EF
  5
A370A
331
A36F0
  5
A370B
331
A36F1
  5
A370C
331
A36F2
  5
A370D
331
A36F3
  5
A370E
331
A36F4
  5
A370F
331
A36F5
  5
A3710
331
A36F6
  5
A3711
331
A36F7
  5
A3712
331
A36F8
  5
A3713
331
A36F9
  5
A3714
331
A36FA
  5
A3715
331
A36FB
  5
A3716
331
A36FC
  5
A3717
331
A36FD
  5
A3718
331
A36FE
  5
A3719
331
A36FF
  5
A371A
331
A3700
  5
A371B
331
A3701
  5
A371C
331
A3702
  5
A371D
331
A3703
  5
A371E
331
A3704
  5
A371F
331
A3705
  5
A3720
331
A3706
  5
A3721
331
A3707
  5
A3722
331
A3708
  5
A3723
331
A3709
  5
A3724
331
A370A
  5
A3725
331
A370B
  5
A3726
331
A370C
  5
A3727
331
A370D
  5
A3728
331
A370E
  5
A3729
331
A370F
  5
A372A
331
A3710
  5
A372B
331
A3711
  5
A372C
331
A3712
  5
A372D
331
A3713
  5
A372E
331
A3714
  5
A372F
331
A3715
  5
A3730
331
A3716
  5
A3731
331
A3717
  5
A3732
331
A3718
  5
A3733
331
A3719
  5
A3734
331
A371A
  5
A3735
331
A371B
  5
A3736
331
A371C
  5
A3737
331
A371D
  5
A3738
331
A371E
  5
A3739
331
A371F
  5
A373A
331
A3720
  5
A373B
331
A3721
  5
A373C
331
A3722
  5
A373D
331
A3723
  5
A3741
331
A3724
  5
A3742
331
A3725
  5
A3743
331
A3726
  5
A3744
331
A3727
  5
A3745
331
A3728
  5
A3746
331
A3729
  5
A3753
331
A372A
  5
A3754
331
A372B
  5
A3755
331
A372C
  5
A3756
331
A372D
  5
A3757
331
A372E
  5
A3758
331
A372F
  5
A3759
331
A3730
  5
A375A
331
A3731
  5
A375B
331
A3732
  5
A375C
331
A3733
  5
A375D
331
A3734
  5
A3761
331
A3735
  5
A3762
331
A3736
  5
A3764
331
A3737
  5
A3765
331
A3738
  5
A3766
331
A3739
  5
A3767
331
A373A
  5
A3768
331
A373B
  5
A3769
331
A373C
  5
A376A
331
A373D
  5
A376B
331
A3741
  5
A3B69
331
A3742
  5
A3B6A
331
A3743
  5
A3B6B
331
A3744
  5
A3B6C
331
A3745
  5
A3B6D
331
A3746
  5
A3B6E
331
A3753
  5
A3C1A
331
A3754
  5
A3C1B
331
A3755
  5
A3C1C
331
A3756
  5
A3C1D
331
A3757
  5
A3C1E
331
A3758
  5
A3C1F
331
A3759
  5
A3C20
331
A375A
  5
A3C21
331
A375B
  5
A3C22
331
A375C
  5
A3C23
331
A375D
  5
A3C24
331
A375E
  5
A3C25
331
A375F
  5
A3C26
331
A3760
  5
A3C27
331
A3761
  5
A3C28
331
A3762
  5
A3C29
331
A3763
  5
A3C2A
331
A3764
  5
A3C2B
331
A3765
  5
A3C2C
331
A3766
  5
A3C2D
331
A3767
  5
A3C2E
331
A3768
  5
A3C2F
331
A3769
  5
A3C30
331
A376A
  5
A3C31
331
A376B
  5
A3C32
331
A376C
  5
A3C33
331
A376D
  5
A3C34
331
A376E
  5
A3C35
331
A376F
  5
A3C36
331
A3770
  5
A3C37
331
A3771
  5
A3C38
331
A3772
  5
A3C39
331
A3773
  5
A3C3A
331
A3774
  5
A3C3B
331
A3775
  5
A3C3C
331
A3776
  5
A3C3D
331
A3777
  5
A3C3E
331
A3778
  5
A3C3F
331
A3779
  5
A3C40
331
A377A
  5
A3C41
331
A377B
  5
A3C42
331
A377C
  5
A3C43
331
A377D
  5
A3C44
331
0
  5
A3AC9
331
A3AC8
  5
A3C49
331
A3AC9
  5
A3C4A
331
A3ACA
  5
A3C4F
331
A3ACB
  5
A3C50
331
A3ACC
  5
A369F
331
0
  5
A36A0
331
A3ACE
  5
A36A5
331
A3ACF
  5
A36A6
331
0
  5
A36A3
331
A3AD1
  5
A36AA
331
A3AD2
  5
A36AB
331
A3AD3
  5
A36AC
331
A3AD4
  5
A36C9
331
A3AD5
  5
A36CA
331
A3AD6
  5
A36CB
331
0
  5
A36C3
331
0
  5
A36C4
331
0
  5
A36C5
331
A3ADA
  5
A376C
331
A3ADB
  5
A376D
331
A3ADC
  5
A376E
331
0
  5
A375E
331
0
  5
A375F
331
0
  5
A3760
331
A3AE0
  5
A3776
331
A3AE1
  5
A3777
331
0
  5
A3763
331
A3AE3
  5
A3ACD
331
A3AE4
  5
A3ACE
331
A3AE5
  5
A3ACF
331
A3AE6
  5
A3AD0
331
A3AE7
  5
A3AD1
331
A3AE8
  5
A3AD2
331
A3AE9
  5
A3AD3
331
A3AEA
  5
A3AD4
331
A3AEB
  5
A3AD5
331
A3AEC
  5
A3AD6
331
A3AED
  5
A3AD7
331
A3AEE
  5
A3AD8
331
A3AEF
  5
A3AD9
331
A3AF0
  5
A3ADA
331
A3AF1
  5
A3ADB
331
A3AF2
  5
A3ADC
331
A3AF3
  5
A3ADD
331
A3AF4
  5
A3ADE
331
A3AF5
  5
A3ADF
331
A3AF6
  5
A3AE0
331
A3AF7
  5
A3AE1
331
A3AF8
  5
A3AE2
331
A3AF9
  5
A3AE3
331
A3AFA
  5
A3AE4
331
A3AFB
  5
A3AE5
331
A3AFC
  5
A3AE6
331
A3AFD
  5
A3AE7
331
A3AFE
  5
A3AE8
331
A3AFF
  5
A3AE9
331
A3B00
  5
A3AEA
331
A3B01
  5
A3AEB
331
A3B02
  5
A3AED
331
A3B03
  5
A3AEE
331
A3B04
  5
A3AEF
331
A3B05
  5
A3AF0
331
A3B06
  5
A3AF1
331
A3B07
  5
A3AF2
331
A3B08
  5
A3AF3
331
A3B09
  5
A3AF4
331
A3B0A
  5
A3AF5
331
A3B0B
  5
A3AF6
331
A3B0C
  5
A3AF7
331
A3B0D
  5
A3AF8
331
A3B0E
  5
A3AF9
331
A3B0F
  5
A3AFA
331
A3B10
  5
A3AFB
331
A3B11
  5
A3AFC
331
A3B12
  5
A3AFD
331
A3B13
  5
A3AFE
331
A3B14
  5
A3AFF
331
A3B15
  5
A3B00
331
A3B16
  5
A3B01
331
A3B17
  5
A3B02
331
A3B18
  5
A3B03
331
A3B19
  5
A3B04
331
A3B1A
  5
A3B05
331
A3B1B
  5
A3B06
331
A3B1C
  5
A3B07
331
A3B1D
  5
A3B08
331
A3B1E
  5
A3B09
331
A3B1F
  5
A3B0A
331
A3B20
  5
A3B0B
331
0
  5
A3AEC
331
A3B22
  5
A3B17
331
A3B23
  5
A3B18
331
A3B24
  5
A3B19
331
A3B25
  5
A3B1A
331
A3B26
  5
A3B1B
331
A3B27
  5
A3B1C
331
A3B28
  5
A3B1D
331
A3B29
  5
A3B1E
331
A3B2A
  5
A3B1F
331
A3B2B
  5
A3B20
331
A3B2C
  5
A3B21
331
A3B2D
  5
A3B22
331
A3B2E
  5
A3B23
331
A3B2F
  5
A3B24
331
A3B30
  5
A3B25
331
A3B31
  5
A3B26
331
A3B32
  5
A3B27
331
A3B33
  5
A3B28
331
A3B34
  5
A3B29
331
A3B35
  5
A3B2A
331
A3B36
  5
A3B2B
331
A3B37
  5
A3B2C
331
A3B38
  5
A3B2D
331
A3B39
  5
A3B2E
331
A3B3A
  5
A3B2F
331
A3B3B
  5
A3B30
331
A3B3C
  5
A3B31
331
A3B3D
  5
A3B35
331
A3B3E
  5
A3B36
331
A3B3F
  5
A3B37
331
A3B40
  5
A3B3B
331
A3B41
  5
A3B3C
331
A3B42
  5
A3B3D
331
A3B43
  5
A3B41
331
A3B44
  5
A3B42
331
A3B45
  5
A3B43
331
A3B46
  5
A3B47
331
A3B47
  5
A3B48
331
A3B48
  5
A3B49
331
A3B49
  5
A3B4D
331
A3B4A
  5
A3B4E
331
A3B4B
  5
A3B4F
331
A3B4C
  5
A3B53
331
A3B4D
  5
A3B54
331
A3B4E
  5
A3B55
331
A3B4F
  5
A3B59
331
A3B50
  5
A3B5A
331
A3B51
  5
A3B5C
331
A3B52
  5
A3B5D
331
A3B53
  5
A3B5E
331
A3B54
  5
A3B5F
331
A3B55
  5
A3B60
331
A3B56
  5
A3B61
331
A3B57
  5
A3B62
331
A3B58
  5
A3B63
331
A3B59
  5
A3B64
331
A3B5A
  5
A3B65
331
A3B5B
  5
A3B66
331
A3B5C
  5
A3B67
331
A3B5D
  5
A3B68
331
A3B5E
  5
A3B6F
331
A3B5F
  5
A3B70
331
A3B60
  5
A3B71
331
0
  5
A3B32
331
0
  5
A3B33
331
0
  5
A3B34
331
A3B64
  5
A3B79
331
A3B65
  5
A3B7A
331
A3B66
  5
A3B7B
331
0
  5
A3B38
331
0
  5
A3B39
331
0
  5
A3B3A
331
A3B6A
  5
A3B83
331
A3B6B
  5
A3B84
331
A3B6C
  5
A3B85
331
0
  5
A3B3E
331
0
  5
A3B3F
331
0
  5
A3B40
331
A3B70
  5
A3B8D
331
A3B71
  5
A3B8E
331
A3B72
  5
A3B8F
331
0
  5
A3B44
331
0
  5
A3B45
331
0
  5
A3B46
331
A3B76
  5
A3B97
331
A3B77
  5
A3B98
331
A3B78
  5
A3B99
331
0
  5
A3B4A
331
0
  5
A3B4B
331
0
  5
A3B4C
331
A3B7C
  5
A3BA7
331
A3B7D
  5
A3BA8
331
A3B7E
  5
A3BA9
331
0
  5
A3B50
331
0
  5
A3B51
331
0
  5
A3B52
331
A3B82
  5
A3BB1
331
A3B83
  5
A3BB2
331
A3B84
  5
A3BB3
331
0
  5
A3B56
331
0
  5
A3B57
331
0
  5
A3B58
331
A3B88
  5
A3BBB
331
A3B89
  5
A3BBC
331
0
  5
A3B5B
331
A3B8B
  5
A3BC8
331
A3B8C
  5
A3BC9
331
A3B8D
  5
A3BCA
331
A3B8E
  5
A3BCB
331
A3B8F
  5
A3BCC
331
A3B90
  5
A3BCD
331
A3B91
  5
A3BCE
331
A3B92
  5
A3BD0
331
A3B93
  5
A3BD1
331
A3B94
  5
A3BD2
331
A3B95
  5
A3BD4
331
A3B96
  5
A3BD5
331
A3B97
  5
A3BD6
331
A3B98
  5
A3BD7
331
A3B99
  5
A3BD8
331
A3B9A
  5
A3BD9
331
A3B9B
  5
A3BDA
331
A3B9C
  5
A3BDB
331
A3B9D
  5
A3BDC
331
A3B9E
  5
A3BDD
331
A3B9F
  5
A3BDE
331
A3BA0
  5
A3BDF
331
A3BA1
  5
A3BE0
331
A3BA2
  5
A3BE1
331
A3BA3
  5
A3BE2
331
A3BA4
  5
A3BE3
331
A3BA5
  5
A3BE4
331
A3BA6
  5
A3BE5
331
A3BA7
  5
A3BE6
331
A3BA8
  5
A3BE7
331
A3BA9
  5
A3BE8
331
A3BAA
  5
A3BE9
331
A3BAB
  5
A3BEA
331
A3BAC
  5
A3BEB
331
A3BAD
  5
A3BEC
331
A3BAE
  5
A3BED
331
A3BAF
  5
A3BEE
331
A3BB0
  5
A3BEF
331
A3BB1
  5
A3BF0
331
A3BB2
  5
A3BF1
331
A3BB3
  5
A3BF2
331
A3BB4
  5
A3BF3
331
A3BB5
  5
A3BF4
331
A3BB6
  5
A3BF5
331
A3BB7
  5
A3BF6
331
A3BB8
  5
A3BF7
331
A3BB9
  5
A3BF8
331
A3BBA
  5
A3BF9
331
A3BBB
  5
A3BFA
331
A3BBC
  5
A3BFB
331
A3BBD
  5
A3BFC
331
A3BBE
  5
A3BFD
331
A3BBF
  5
A3BFE
331
A3BC0
  5
A3BFF
331
A3BC1
  5
A3C00
331
A3BC2
  5
A3C01
331
A3BC3
  5
A3C02
331
A3BC4
  5
A3C03
331
A3BC5
  5
A3C04
331
A3BC6
  5
A3C05
331
A3BC7
  5
A3C06
331
A3BC8
  5
A3C07
331
A3BC9
  5
A3C08
331
0
  5
A3B9B
331
0
  5
A3B9C
331
0
  5
A3B9D
331
A3BCD
  5
A3C10
331
A3BCE
  5
A3C11
331
A3BCF
  5
A3C12
331
0
  5
A3BA1
331
0
  5
A3BA2
331
0
  5
A3BA3
331
0
  5
A3BCF
331
A3BD4
  5
A3C48
331
0
  5
A3BD3
331
A3BD6
  5
A3C4E
331
A3BD7
  5
A36A1
331
A3BD8
  5
A36A2
331
A3BD9
  5
A36A4
331
A3BDA
  5
A36A7
331
A3BDB
  5
A36A8
331
A3BDC
  5
A36A9
331
A3BDD
  5
A36CC
331
A3BDE
  5
A36CE
331
A3BDF
  5
A36CF
331
A3BE0
  5
A36D0
331
A3BE1
  5
A36D1
331
A3BE2
  5
A36D2
331
A3BE3
  5
A36D3
331
A3BE4
  5
A376F
331
A3BE5
  5
A3770
331
A3BE6
  5
A3771
331
A3BE7
  5
A3772
331
A3BE8
  5
A3773
331
A3BE9
  5
A3774
331
A3BEA
  5
A3775
331
A3BEB
  5
A3778
331
A3BEC
  5
A3779
331
A3BED
  5
A377A
331
A3BEE
  5
A377B
331
A3BEF
  5
A377C
331
A3BF0
  5
A377D
331
A3BF1
  5
A3867
331
A3BF2
  5
A3AC8
331
A3BF3
  5
A3ACA
331
A3BF4
  5
A3ACB
331
A3BF5
  5
A3ACC
331
A3BF6
  5
A3B0C
331
A3BF7
  5
A3B0D
331
A3BF8
  5
A3B0E
331
A3BF9
  5
A3B0F
331
A3BFA
  5
A3B10
331
A3BFB
  5
A3B11
331
A3BFC
  5
A3B12
331
A3BFD
  5
A3B13
331
A3BFE
  5
A3B14
331
A3BFF
  5
A3B15
331
A3C00
  5
A3B16
331
A3C01
  5
A3B72
331
A3C02
  5
A3B73
331
A3C03
  5
A3B74
331
A3C04
  5
A3B75
331
A3C05
  5
A3B76
331
A3C06
  5
A3B77
331
A3C07
  5
A3B78
331
A3C08
  5
A3B7C
331
A3C09
  5
A3B7D
331
A3C0A
  5
A3B7E
331
A3C0B
  5
A3B7F
331
A3C0C
  5
A3B80
331
A3C0D
  5
A3B81
331
A3C0E
  5
A3B82
331
A3C0F
  5
A3B86
331
A3C10
  5
A3B87
331
A3C11
  5
A3B88
331
A3C12
  5
A3B89
331
A3C13
  5
A3B8A
331
A3C14
  5
A3B8B
331
A3C15
  5
A3B8C
331
A3C16
  5
A3B90
331
A3C17
  5
A3B91
331
A3C18
  5
A3B92
331
A3C19
  5
A3B93
331
A3C1A
  5
A3B94
331
A3C1B
  5
A3B95
331
A3C1C
  5
A3B96
331
A3C1D
  5
A3B9A
331
A3C1E
  5
A3B9E
331
A3C1F
  5
A3B9F
331
A3C20
  5
A3BA0
331
A3C21
  5
A3BA4
331
A3C22
  5
A3BA5
331
A3C23
  5
A3BA6
331
A3C24
  5
A3BAA
331
A3C25
  5
A3BAB
331
A3C26
  5
A3BAC
331
A3C27
  5
A3BAD
331
A3C28
  5
A3BAE
331
A3C29
  5
A3BAF
331
A3C2A
  5
A3BB0
331
A3C2B
  5
A3BB4
331
A3C2C
  5
A3BB5
331
A3C2D
  5
A3BB6
331
A3C2E
  5
A3BB7
331
A3C2F
  5
A3BB8
331
A3C30
  5
A3BB9
331
A3C31
  5
A3BBA
331
A3C32
  5
A3BBD
331
A3C33
  5
A3BBE
331
A3C34
  5
A3BBF
331
A3C35
  5
A3BC0
331
A3C36
  5
A3BC1
331
A3C37
  5
A3BC2
331
A3C38
  5
A3BC3
331
A3C39
  5
A3BC4
331
A3C3A
  5
A3BC5
331
A3C3B
  5
A3BC6
331
A3C3C
  5
A3BC7
331
A3C3D
  5
A3C09
331
A3C3E
  5
A3C0A
331
A3C3F
  5
A3C0B
331
A3C40
  5
A3C0C
331
A3C41
  5
A3C0D
331
A3C42
  5
A3C0E
331
A3C43
  5
A3C0F
331
A3C44
  5
A3C13
331
A3C45
  5
A3C14
331
A3C46
  5
A3C15
331
A3C47
  5
A3C16
331
A3C48
  5
A3C17
331
A3C49
  5
A3C18
331
A3C4A
  5
A3C19
331
A3C4B
  5
A3C45
331
A3C4C
  5
A3C46
331
A3C4D
  5
A3C47
331
A3C4E
  5
A3C4B
331
A3C4F
  5
A3C4C
331
A3C50
  5
A3C4D
  0
SORTENTSTABLE
  5
A337E
102
{ACAD_REACTORS
330
A337D
102
}
330
A337D
100
AcDbSortentsTable
330
7DA16
331
7DA1A
  5
7DA1A
331
0
  5
7E25F
331
0
  5
7E260
331
0
  5
7E261
331
0
  5
7E262
331
0
  5
7E263
331
0
  5
7E264
331
0
  5
7E265
331
0
  5
7E266
331
0
  5
7E267
331
0
  5
7E268
331
0
  5
7E26B
331
0
  5
7E6D4
  0
MATERIAL
  5
16F60
102
{ACAD_REACTORS
330
1418B
102
}
102
{ACAD_XDICTIONARY
360
A3DF0
102
}
330
1418B
100
AcDbMaterial
  1
BYBLOCK
 72
     0
 73
     2
 43
0.020833
 43
0.0
 43
0.0
 43
0.0
 43
0.0
 43
0.020833
 43
0.0
 43
0.0
 43
0.0
 43
0.0
 43
1.0
 43
0.0
 43
0.0
 43
0.0
 43
0.0
 43
1.0
 77
     0
 78
     2
 47
0.020833
 47
0.0
 47
0.0
 47
0.0
 47
0.0
 47
0.020833
 47
0.0
 47
0.0
 47
0.0
 47
0.0
 47
1.0
 47
0.0
 47
0.0
 47
0.0
 47
0.0
 47
1.0
171
     0
172
     2
 49
0.020833
 49
0.0
 49
0.0
 49
0.0
 49
0.0
 49
0.020833
 49
0.0
 49
0.0
 49
0.0
 49
0.0
 49
1.0
 49
0.0
 49
0.0
 49
0.0
 49
0.0
 49
1.0
175
     0
176
     2
142
0.020833
142
0.0
142
0.0
142
0.0
142
0.0
142
0.020833
142
0.0
142
0.0
142
0.0
142
0.0
142
1.0
142
0.0
142
0.0
142
0.0
142
0.0
142
1.0
179
     0
270
     2
144
0.020833
144
0.0
144
0.0
144
0.0
144
0.0
144
0.020833
144
0.0
144
0.0
144
0.0
144
0.0
144
1.0
144
0.0
144
0.0
144
0.0
144
0.0
144
1.0
274
     2
147
0.020833
147
0.0
147
0.0
147
0.0
147
0.0
147
0.020833
147
0.0
147
0.0
147
0.0
147
0.0
147
1.0
147
0.0
147
0.0
147
0.0
147
0.0
147
1.0
  0
MATERIAL
  5
16F58
102
{ACAD_REACTORS
330
1418B
102
}
102
{ACAD_XDICTIONARY
360
A3DF2
102
}
330
1418B
100
AcDbMaterial
  1
BYLAYER
 72
     0
 73
     2
 43
0.020833
 43
0.0
 43
0.0
 43
0.0
 43
0.0
 43
0.020833
 43
0.0
 43
0.0
 43
0.0
 43
0.0
 43
1.0
 43
0.0
 43
0.0
 43
0.0
 43
0.0
 43
1.0
 77
     0
 78
     2
 47
0.020833
 47
0.0
 47
0.0
 47
0.0
 47
0.0
 47
0.020833
 47
0.0
 47
0.0
 47
0.0
 47
0.0
 47
1.0
 47
0.0
 47
0.0
 47
0.0
 47
0.0
 47
1.0
171
     0
172
     2
 49
0.020833
 49
0.0
 49
0.0
 49
0.0
 49
0.0
 49
0.020833
 49
0.0
 49
0.0
 49
0.0
 49
0.0
 49
1.0
 49
0.0
 49
0.0
 49
0.0
 49
0.0
 49
1.0
175
     0
176
     2
142
0.020833
142
0.0
142
0.0
142
0.0
142
0.0
142
0.020833
142
0.0
142
0.0
142
0.0
142
0.0
142
1.0
142
0.0
142
0.0
142
0.0
142
0.0
142
1.0
179
     0
270
     2
144
0.020833
144
0.0
144
0.0
144
0.0
144
0.0
144
0.020833
144
0.0
144
0.0
144
0.0
144
0.0
144
1.0
144
0.0
144
0.0
144
0.0
144
0.0
144
1.0
274
     2
147
0.020833
147
0.0
147
0.0
147
0.0
147
0.0
147
0.020833
147
0.0
147
0.0
147
0.0
147
0.0
147
1.0
147
0.0
147
0.0
147
0.0
147
0.0
147
1.0
  0
MATERIAL
  5
16F68
102
{ACAD_REACTORS
330
1418B
102
}
102
{ACAD_XDICTIONARY
360
A3DF4
102
}
330
1418B
100
AcDbMaterial
  1
GLOBAL
 72
     0
 73
     2
 43
0.020833
 43
0.0
 43
0.0
 43
0.0
 43
0.0
 43
0.020833
 43
0.0
 43
0.0
 43
0.0
 43
0.0
 43
1.0
 43
0.0
 43
0.0
 43
0.0
 43
0.0
 43
1.0
 77
     0
 78
     2
 47
0.020833
 47
0.0
 47
0.0
 47
0.0
 47
0.0
 47
0.020833
 47
0.0
 47
0.0
 47
0.0
 47
0.0
 47
1.0
 47
0.0
 47
0.0
 47
0.0
 47
0.0
 47
1.0
171
     0
172
     2
 49
0.020833
 49
0.0
 49
0.0
 49
0.0
 49
0.0
 49
0.020833
 49
0.0
 49
0.0
 49
0.0
 49
0.0
 49
1.0
 49
0.0
 49
0.0
 49
0.0
 49
0.0
 49
1.0
175
     0
176
     2
142
0.020833
142
0.0
142
0.0
142
0.0
142
0.0
142
0.020833
142
0.0
142
0.0
142
0.0
142
0.0
142
1.0
142
0.0
142
0.0
142
0.0
142
0.0
142
1.0
179
     0
270
     2
144
0.020833
144
0.0
144
0.0
144
0.0
144
0.0
144
0.020833
144
0.0
144
0.0
144
0.0
144
0.0
144
1.0
144
0.0
144
0.0
144
0.0
144
0.0
144
1.0
274
     2
147
0.020833
147
0.0
147
0.0
147
0.0
147
0.0
147
0.020833
147
0.0
147
0.0
147
0.0
147
0.0
147
1.0
147
0.0
147
0.0
147
0.0
147
0.0
147
1.0
  0
ACAD_PROXY_OBJECT
  5
16FA4
102
{ACAD_REACTORS
330
16FA3
102
}
330
16FA3
100
AcDbZombieObject
 90
      499
 91
      511
 93
      618
310
40901902A4073FBFFFFFE000000000000002040AD7A3703D0AD73F4214DD185B99185C9900000000000001040905415019C900000000000003100000000000000041025766000000000000300FC0
340
12
340
0
340
F
340
0
 94
        0
1001
ACAD
1000
AcRTDxfName
1000
MLEADERSTYLE
1000
AcRTDxfName
1000
MLEADERSTYLE
1000
AcRTDxfName
1000
MLEADERSTYLE
1000
AcRTDxfName
1000
MLEADERSTYLE
1000
AcRTDxfName
1000
MLEADERSTYLE
1000
AcRTDxfName
1000
MLEADERSTYLE
1001
ACAD_MLEADERVER
1070
     2
  0
MLINESTYLE
  5
1C
102
{ACAD_REACTORS
330
1B
102
}
330
1B
100
AcDbMlineStyle
  2
STANDARD
 70
     0
  3

 62
   256
 51
90.0
 52
90.0
 71
     2
 49
0.5
 62
   256
  6
BYLAYER
 49
-0.5
 62
   256
  6
BYLAYER
  0
ACAD_PROXY_OBJECT
  5
6F27C
102
{ACAD_REACTORS
330
16F81
102
}
330
16F81
100
AcDbZombieObject
 90
      499
 91
      510
 93
      153
310
909313A34305F585245464000000000000444000
  0
ACAD_PROXY_OBJECT
  5
6F285
102
{ACAD_REACTORS
330
16F81
102
}
330
16F81
100
AcDbZombieObject
 90
      499
 91
      510
 93
      145
310
908313A345F585245464000000000000104000
  0
ACAD_PROXY_OBJECT
  5
6F286
102
{ACAD_REACTORS
330
16F81
102
}
330
16F81
100
AcDbZombieObject
 90
      499
 91
      510
 93
      145
310
908313A355F585245464000000000000144000
  0
ACAD_PROXY_OBJECT
  5
6F287
102
{ACAD_REACTORS
330
16F81
102
}
330
16F81
100
AcDbZombieObject
 90
      499
 91
      510
 93
      145
310
908313A385F585245464000000000000204000
  0
ACAD_PROXY_OBJECT
  5
6F288
102
{ACAD_REACTORS
330
16F81
102
}
330
16F81
100
AcDbZombieObject
 90
      499
 91
      510
 93
      153
310
909313A31305F585245464000000000000244000
  0
ACAD_PROXY_OBJECT
  5
6F289
102
{ACAD_REACTORS
330
16F81
102
}
330
16F81
100
AcDbZombieObject
 90
      499
 91
      510
 93
      153
310
909313A31365F585245464000000000000304000
  0
ACAD_PROXY_OBJECT
  5
6F28A
102
{ACAD_REACTORS
330
16F81
102
}
330
16F81
100
AcDbZombieObject
 90
      499
 91
      510
 93
      153
310
909313A32305F585245464000000000000344000
  0
ACAD_PROXY_OBJECT
  5
6F28B
102
{ACAD_REACTORS
330
16F81
102
}
330
16F81
100
AcDbZombieObject
 90
      499
 91
      510
 93
      153
310
909313A33305F5852454640000000000003E4000
  0
ACAD_PROXY_OBJECT
  5
6F27D
102
{ACAD_REACTORS
330
16F81
102
}
330
16F81
100
AcDbZombieObject
 90
      499
 91
      510
 93
      153
310
909313A35305F585245464000000000000494000
  0
ACAD_PROXY_OBJECT
  5
6F27E
102
{ACAD_REACTORS
330
16F81
102
}
330
16F81
100
AcDbZombieObject
 90
      499
 91
      510
 93
      161
310
90A313A3130305F585245464000000000000594000
  0
ACAD_PROXY_OBJECT
  5
6F27F
102
{ACAD_REACTORS
330
16F81
102
}
330
16F81
100
AcDbZombieObject
 90
      499
 91
      510
 93
      145
310
908323A315F585245460000000000000010100
  0
ACAD_PROXY_OBJECT
  5
6F280
102
{ACAD_REACTORS
330
16F81
102
}
330
16F81
100
AcDbZombieObject
 90
      499
 91
      510
 93
      145
310
908343A315F585245460000000000000410100
  0
ACAD_PROXY_OBJECT
  5
6F281
102
{ACAD_REACTORS
330
16F81
102
}
330
16F81
100
AcDbZombieObject
 90
      499
 91
      510
 93
      145
310
908383A315F585245460000000000000810100
  0
ACAD_PROXY_OBJECT
  5
6F282
102
{ACAD_REACTORS
330
16F81
102
}
330
16F81
100
AcDbZombieObject
 90
      499
 91
      510
 93
      153
310
90931303A315F585245460000000000000910100
  0
ACAD_PROXY_OBJECT
  5
6F283
102
{ACAD_REACTORS
330
16F81
102
}
330
16F81
100
AcDbZombieObject
 90
      499
 91
      510
 93
      161
310
90A3130303A315F585245460000000000001650100
  0
ACAD_PROXY_OBJECT
  5
6F284
102
{ACAD_REACTORS
330
16F81
102
}
330
16F81
100
AcDbZombieObject
 90
      499
 91
      510
 93
      145
310
908313A325F585245464000000000000004000
  0
ACAD_PROXY_OBJECT
  5
7F62D
102
{ACAD_REACTORS
330
16F81
102
}
330
16F81
100
AcDbZombieObject
 90
      499
 91
      510
 93
      273
310
910312F31323822203D2031272D30225F31000000000000200FC000000000000284000
1001
ACAD
1000
AcRTDxfName
1000
SCALE
1000
AcRTDxfName
1000
SCALE
1000
AcRTDxfName
1000
SCALE
1000
AcRTDxfName
1000
SCALE
1000
AcRTDxfName
1000
SCALE
1000
AcRTDxfName
1000
SCALE
  0
ACAD_PROXY_OBJECT
  5
16F82
102
{ACAD_REACTORS
330
16F81
102
}
330
16F81
100
AcDbZombieObject
 90
      499
 91
      510
 93
       41
310
903313A31580
1001
ACAD
1000
AcRTDxfName
1000
SCALE
1000
AcRTDxfName
1000
SCALE
1000
AcRTDxfName
1000
SCALE
1000
AcRTDxfName
1000
SCALE
1000
AcRTDxfName
1000
SCALE
1000
AcRTDxfName
1000
SCALE
  0
ACAD_PROXY_OBJECT
  5
16F83
102
{ACAD_REACTORS
330
16F81
102
}
330
16F81
100
AcDbZombieObject
 90
      499
 91
      510
 93
      105
310
903313A324000000000000004000
1001
ACAD
1000
AcRTDxfName
1000
SCALE
1000
AcRTDxfName
1000
SCALE
1000
AcRTDxfName
1000
SCALE
1000
AcRTDxfName
1000
SCALE
1000
AcRTDxfName
1000
SCALE
1000
AcRTDxfName
1000
SCALE
  0
ACAD_PROXY_OBJECT
  5
16F84
102
{ACAD_REACTORS
330
16F81
102
}
330
16F81
100
AcDbZombieObject
 90
      499
 91
      510
 93
      105
310
903313A344000000000000104000
1001
ACAD
1000
AcRTDxfName
1000
SCALE
1000
AcRTDxfName
1000
SCALE
1000
AcRTDxfName
1000
SCALE
1000
AcRTDxfName
1000
SCALE
1000
AcRTDxfName
1000
SCALE
1000
AcRTDxfName
1000
SCALE
  0
ACAD_PROXY_OBJECT
  5
16F85
102
{ACAD_REACTORS
330
16F81
102
}
330
16F81
100
AcDbZombieObject
 90
      499
 91
      510
 93
      105
310
903313A354000000000000144000
1001
ACAD
1000
AcRTDxfName
1000
SCALE
1000
AcRTDxfName
1000
SCALE
1000
AcRTDxfName
1000
SCALE
1000
AcRTDxfName
1000
SCALE
1000
AcRTDxfName
1000
SCALE
1000
AcRTDxfName
1000
SCALE
  0
ACAD_PROXY_OBJECT
  5
16F86
102
{ACAD_REACTORS
330
16F81
102
}
330
16F81
100
AcDbZombieObject
 90
      499
 91
      510
 93
      105
310
903313A384000000000000204000
1001
ACAD
1000
AcRTDxfName
1000
SCALE
1000
AcRTDxfName
1000
SCALE
1000
AcRTDxfName
1000
SCALE
1000
AcRTDxfName
1000
SCALE
1000
AcRTDxfName
1000
SCALE
1000
AcRTDxfName
1000
SCALE
  0
ACAD_PROXY_OBJECT
  5
16F87
102
{ACAD_REACTORS
330
16F81
102
}
330
16F81
100
AcDbZombieObject
 90
      499
 91
      510
 93
      113
310
904313A31304000000000000244000
1001
ACAD
1000
AcRTDxfName
1000
SCALE
1000
AcRTDxfName
1000
SCALE
1000
AcRTDxfName
1000
SCALE
1000
AcRTDxfName
1000
SCALE
1000
AcRTDxfName
1000
SCALE
1000
AcRTDxfName
1000
SCALE
  0
ACAD_PROXY_OBJECT
  5
16F88
102
{ACAD_REACTORS
330
16F81
102
}
330
16F81
100
AcDbZombieObject
 90
      499
 91
      510
 93
      113
310
904313A31364000000000000304000
1001
ACAD
1000
AcRTDxfName
1000
SCALE
1000
AcRTDxfName
1000
SCALE
1000
AcRTDxfName
1000
SCALE
1000
AcRTDxfName
1000
SCALE
1000
AcRTDxfName
1000
SCALE
1000
AcRTDxfName
1000
SCALE
  0
ACAD_PROXY_OBJECT
  5
16F89
102
{ACAD_REACTORS
330
16F81
102
}
330
16F81
100
AcDbZombieObject
 90
      499
 91
      510
 93
      113
310
904313A32304000000000000344000
1001
ACAD
1000
AcRTDxfName
1000
SCALE
1000
AcRTDxfName
1000
SCALE
1000
AcRTDxfName
1000
SCALE
1000
AcRTDxfName
1000
SCALE
1000
AcRTDxfName
1000
SCALE
1000
AcRTDxfName
1000
SCALE
  0
ACAD_PROXY_OBJECT
  5
16F8A
102
{ACAD_REACTORS
330
16F81
102
}
330
16F81
100
AcDbZombieObject
 90
      499
 91
      510
 93
      113
310
904313A333040000000000003E4000
1001
ACAD
1000
AcRTDxfName
1000
SCALE
1000
AcRTDxfName
1000
SCALE
1000
AcRTDxfName
1000
SCALE
1000
AcRTDxfName
1000
SCALE
1000
AcRTDxfName
1000
SCALE
1000
AcRTDxfName
1000
SCALE
  0
ACAD_PROXY_OBJECT
  5
16F8B
102
{ACAD_REACTORS
330
16F81
102
}
330
16F81
100
AcDbZombieObject
 90
      499
 91
      510
 93
      113
310
904313A34304000000000000444000
1001
ACAD
1000
AcRTDxfName
1000
SCALE
1000
AcRTDxfName
1000
SCALE
1000
AcRTDxfName
1000
SCALE
1000
AcRTDxfName
1000
SCALE
1000
AcRTDxfName
1000
SCALE
1000
AcRTDxfName
1000
SCALE
  0
ACAD_PROXY_OBJECT
  5
16F8C
102
{ACAD_REACTORS
330
16F81
102
}
330
16F81
100
AcDbZombieObject
 90
      499
 91
      510
 93
      113
310
904313A35304000000000000494000
1001
ACAD
1000
AcRTDxfName
1000
SCALE
1000
AcRTDxfName
1000
SCALE
1000
AcRTDxfName
1000
SCALE
1000
AcRTDxfName
1000
SCALE
1000
AcRTDxfName
1000
SCALE
1000
AcRTDxfName
1000
SCALE
  0
ACAD_PROXY_OBJECT
  5
16F8D
102
{ACAD_REACTORS
330
16F81
102
}
330
16F81
100
AcDbZombieObject
 90
      499
 91
      510
 93
      121
310
905313A3130304000000000000594000
1001
ACAD
1000
AcRTDxfName
1000
SCALE
1000
AcRTDxfName
1000
SCALE
1000
AcRTDxfName
1000
SCALE
1000
AcRTDxfName
1000
SCALE
1000
AcRTDxfName
1000
SCALE
1000
AcRTDxfName
1000
SCALE
  0
ACAD_PROXY_OBJECT
  5
16F8E
102
{ACAD_REACTORS
330
16F81
102
}
330
16F81
100
AcDbZombieObject
 90
      499
 91
      510
 93
      105
310
903323A310000000000000010100
1001
ACAD
1000
AcRTDxfName
1000
SCALE
1000
AcRTDxfName
1000
SCALE
1000
AcRTDxfName
1000
SCALE
1000
AcRTDxfName
1000
SCALE
1000
AcRTDxfName
1000
SCALE
1000
AcRTDxfName
1000
SCALE
  0
ACAD_PROXY_OBJECT
  5
16F8F
102
{ACAD_REACTORS
330
16F81
102
}
330
16F81
100
AcDbZombieObject
 90
      499
 91
      510
 93
      105
310
903343A310000000000000410100
1001
ACAD
1000
AcRTDxfName
1000
SCALE
1000
AcRTDxfName
1000
SCALE
1000
AcRTDxfName
1000
SCALE
1000
AcRTDxfName
1000
SCALE
1000
AcRTDxfName
1000
SCALE
1000
AcRTDxfName
1000
SCALE
  0
ACAD_PROXY_OBJECT
  5
16F90
102
{ACAD_REACTORS
330
16F81
102
}
330
16F81
100
AcDbZombieObject
 90
      499
 91
      510
 93
      105
310
903383A310000000000000810100
1001
ACAD
1000
AcRTDxfName
1000
SCALE
1000
AcRTDxfName
1000
SCALE
1000
AcRTDxfName
1000
SCALE
1000
AcRTDxfName
1000
SCALE
1000
AcRTDxfName
1000
SCALE
1000
AcRTDxfName
1000
SCALE
  0
ACAD_PROXY_OBJECT
  5
16F91
102
{ACAD_REACTORS
330
16F81
102
}
330
16F81
100
AcDbZombieObject
 90
      499
 91
      510
 93
      113
310
90431303A310000000000000910100
1001
ACAD
1000
AcRTDxfName
1000
SCALE
1000
AcRTDxfName
1000
SCALE
1000
AcRTDxfName
1000
SCALE
1000
AcRTDxfName
1000
SCALE
1000
AcRTDxfName
1000
SCALE
1000
AcRTDxfName
1000
SCALE
  0
ACAD_PROXY_OBJECT
  5
16F92
102
{ACAD_REACTORS
330
16F81
102
}
330
16F81
100
AcDbZombieObject
 90
      499
 91
      510
 93
      121
310
9053130303A310000000000001650100
1001
ACAD
1000
AcRTDxfName
1000
SCALE
1000
AcRTDxfName
1000
SCALE
1000
AcRTDxfName
1000
SCALE
1000
AcRTDxfName
1000
SCALE
1000
AcRTDxfName
1000
SCALE
1000
AcRTDxfName
1000
SCALE
  0
ACAD_PROXY_OBJECT
  5
16F93
102
{ACAD_REACTORS
330
16F81
102
}
330
16F81
100
AcDbZombieObject
 90
      499
 91
      510
 93
      257
310
90E312F31323822203D2031272D3022147E90B21E7FDFCFC000000000000284000
1001
ACAD
1000
AcRTDxfName
1000
SCALE
1000
AcRTDxfName
1000
SCALE
1000
AcRTDxfName
1000
SCALE
1000
AcRTDxfName
1000
SCALE
1000
AcRTDxfName
1000
SCALE
1000
AcRTDxfName
1000
SCALE
  0
ACAD_PROXY_OBJECT
  5
16F94
102
{ACAD_REACTORS
330
16F81
102
}
330
16F81
100
AcDbZombieObject
 90
      499
 91
      510
 93
      249
310
90D312F363422203D2031272D3022000000000000240FC000000000000284000
1001
ACAD
1000
AcRTDxfName
1000
SCALE
1000
AcRTDxfName
1000
SCALE
1000
AcRTDxfName
1000
SCALE
1000
AcRTDxfName
1000
SCALE
1000
AcRTDxfName
1000
SCALE
1000
AcRTDxfName
1000
SCALE
  0
ACAD_PROXY_OBJECT
  5
16F95
102
{ACAD_REACTORS
330
16F81
102
}
330
16F81
100
AcDbZombieObject
 90
      499
 91
      510
 93
      249
310
90D312F333222203D2031272D3022000000000000280FC000000000000284000
1001
ACAD
1000
AcRTDxfName
1000
SCALE
1000
AcRTDxfName
1000
SCALE
1000
AcRTDxfName
1000
SCALE
1000
AcRTDxfName
1000
SCALE
1000
AcRTDxfName
1000
SCALE
1000
AcRTDxfName
1000
SCALE
  0
ACAD_PROXY_OBJECT
  5
16F96
102
{ACAD_REACTORS
330
16F81
102
}
330
16F81
100
AcDbZombieObject
 90
      499
 91
      510
 93
      249
310
90D312F313622203D2031272D30220000000000002C0FC000000000000284000
1001
ACAD
1000
AcRTDxfName
1000
SCALE
1000
AcRTDxfName
1000
SCALE
1000
AcRTDxfName
1000
SCALE
1000
AcRTDxfName
1000
SCALE
1000
AcRTDxfName
1000
SCALE
1000
AcRTDxfName
1000
SCALE
  0
ACAD_PROXY_OBJECT
  5
16F97
102
{ACAD_REACTORS
330
16F81
102
}
330
16F81
100
AcDbZombieObject
 90
      499
 91
      510
 93
      249
310
90D332F333222203D2031272D30220000000000002E0FC000000000000284000
1001
ACAD
1000
AcRTDxfName
1000
SCALE
1000
AcRTDxfName
1000
SCALE
1000
AcRTDxfName
1000
SCALE
1000
AcRTDxfName
1000
SCALE
1000
AcRTDxfName
1000
SCALE
1000
AcRTDxfName
1000
SCALE
  0
ACAD_PROXY_OBJECT
  5
16F98
102
{ACAD_REACTORS
330
16F81
102
}
330
16F81
100
AcDbZombieObject
 90
      499
 91
      510
 93
      241
310
90C312F3822203D2031272D3022000000000000300FC000000000000284000
1001
ACAD
1000
AcRTDxfName
1000
SCALE
1000
AcRTDxfName
1000
SCALE
1000
AcRTDxfName
1000
SCALE
1000
AcRTDxfName
1000
SCALE
1000
AcRTDxfName
1000
SCALE
1000
AcRTDxfName
1000
SCALE
  0
ACAD_PROXY_OBJECT
  5
16F99
102
{ACAD_REACTORS
330
16F81
102
}
330
16F81
100
AcDbZombieObject
 90
      499
 91
      510
 93
      249
310
90D332F313622203D2031272D3022000000000000320FC000000000000284000
1001
ACAD
1000
AcRTDxfName
1000
SCALE
1000
AcRTDxfName
1000
SCALE
1000
AcRTDxfName
1000
SCALE
1000
AcRTDxfName
1000
SCALE
1000
AcRTDxfName
1000
SCALE
1000
AcRTDxfName
1000
SCALE
  0
ACAD_PROXY_OBJECT
  5
16F9A
102
{ACAD_REACTORS
330
16F81
102
}
330
16F81
100
AcDbZombieObject
 90
      499
 91
      510
 93
      241
310
90C312F3422203D2031272D3022000000000000340FC000000000000284000
1001
ACAD
1000
AcRTDxfName
1000
SCALE
1000
AcRTDxfName
1000
SCALE
1000
AcRTDxfName
1000
SCALE
1000
AcRTDxfName
1000
SCALE
1000
AcRTDxfName
1000
SCALE
1000
AcRTDxfName
1000
SCALE
  0
ACAD_PROXY_OBJECT
  5
16F9B
102
{ACAD_REACTORS
330
16F81
102
}
330
16F81
100
AcDbZombieObject
 90
      499
 91
      510
 93
      241
310
90C332F3822203D2031272D3022000000000000360FC000000000000284000
1001
ACAD
1000
AcRTDxfName
1000
SCALE
1000
AcRTDxfName
1000
SCALE
1000
AcRTDxfName
1000
SCALE
1000
AcRTDxfName
1000
SCALE
1000
AcRTDxfName
1000
SCALE
1000
AcRTDxfName
1000
SCALE
  0
ACAD_PROXY_OBJECT
  5
16F9C
102
{ACAD_REACTORS
330
16F81
102
}
330
16F81
100
AcDbZombieObject
 90
      499
 91
      510
 93
      241
310
90C312F3222203D2031272D3022000000000000380FC000000000000284000
1001
ACAD
1000
AcRTDxfName
1000
SCALE
1000
AcRTDxfName
1000
SCALE
1000
AcRTDxfName
1000
SCALE
1000
AcRTDxfName
1000
SCALE
1000
AcRTDxfName
1000
SCALE
1000
AcRTDxfName
1000
SCALE
  0
ACAD_PROXY_OBJECT
  5
16F9D
102
{ACAD_REACTORS
330
16F81
102
}
330
16F81
100
AcDbZombieObject
 90
      499
 91
      510
 93
      241
310
90C332F3422203D2031272D30220000000000003A0FC000000000000284000
1001
ACAD
1000
AcRTDxfName
1000
SCALE
1000
AcRTDxfName
1000
SCALE
1000
AcRTDxfName
1000
SCALE
1000
AcRTDxfName
1000
SCALE
1000
AcRTDxfName
1000
SCALE
1000
AcRTDxfName
1000
SCALE
  0
ACAD_PROXY_OBJECT
  5
16F9E
102
{ACAD_REACTORS
330
16F81
102
}
330
16F81
100
AcDbZombieObject
 90
      499
 91
      510
 93
      161
310
90A3122203D2031272D30224000000000000284000
1001
ACAD
1000
AcRTDxfName
1000
SCALE
1000
AcRTDxfName
1000
SCALE
1000
AcRTDxfName
1000
SCALE
1000
AcRTDxfName
1000
SCALE
1000
AcRTDxfName
1000
SCALE
1000
AcRTDxfName
1000
SCALE
  0
ACAD_PROXY_OBJECT
  5
16F9F
102
{ACAD_REACTORS
330
16F81
102
}
330
16F81
100
AcDbZombieObject
 90
      499
 91
      510
 93
      257
310
90E312D312F3222203D2031272D30220000000000003E0FC000000000000284000
1001
ACAD
1000
AcRTDxfName
1000
SCALE
1000
AcRTDxfName
1000
SCALE
1000
AcRTDxfName
1000
SCALE
1000
AcRTDxfName
1000
SCALE
1000
AcRTDxfName
1000
SCALE
1000
AcRTDxfName
1000
SCALE
  0
ACAD_PROXY_OBJECT
  5
16FA0
102
{ACAD_REACTORS
330
16F81
102
}
330
16F81
100
AcDbZombieObject
 90
      499
 91
      510
 93
      225
310
90A3322203D2031272D302200000000000002100000000000000284000
1001
ACAD
1000
AcRTDxfName
1000
SCALE
1000
AcRTDxfName
1000
SCALE
1000
AcRTDxfName
1000
SCALE
1000
AcRTDxfName
1000
SCALE
1000
AcRTDxfName
1000
SCALE
1000
AcRTDxfName
1000
SCALE
  0
ACAD_PROXY_OBJECT
  5
16FA1
102
{ACAD_REACTORS
330
16F81
102
}
330
16F81
100
AcDbZombieObject
 90
      499
 91
      510
 93
      225
310
90A3622203D2031272D302200000000000006100000000000000284000
1001
ACAD
1000
AcRTDxfName
1000
SCALE
1000
AcRTDxfName
1000
SCALE
1000
AcRTDxfName
1000
SCALE
1000
AcRTDxfName
1000
SCALE
1000
AcRTDxfName
1000
SCALE
1000
AcRTDxfName
1000
SCALE
  0
ACAD_PROXY_OBJECT
  5
16FA2
102
{ACAD_REACTORS
330
16F81
102
}
330
16F81
100
AcDbZombieObject
 90
      499
 91
      510
 93
      249
310
90D31272D3022203D2031272D30220000000000000A100000000000000284000
1001
ACAD
1000
AcRTDxfName
1000
SCALE
1000
AcRTDxfName
1000
SCALE
1000
AcRTDxfName
1000
SCALE
1000
AcRTDxfName
1000
SCALE
1000
AcRTDxfName
1000
SCALE
1000
AcRTDxfName
1000
SCALE
  0
ACAD_PROXY_OBJECT
  5
16F76
102
{ACAD_REACTORS
330
16F70
102
}
330
16F70
100
AcDbZombieObject
 90
      499
 91
      509
 93
      436
310
42CC9915DA5C99599C985B595049028333333333333E3BF0000000000000FB0107901411070040501600405405064090741402480A0340
1001
ACAD
1000
AcRTDxfName
1000
VISUALSTYLE
1000
AcRTDxfName
1000
VISUALSTYLE
1000
AcRTDxfName
1000
VISUALSTYLE
1000
AcRTDxfName
1000
VISUALSTYLE
1000
AcRTDxfName
1000
VISUALSTYLE
1000
AcRTDxfName
1000
VISUALSTYLE
1000
AcDbSavedByObjectVersion
1070
     0
  0
ACAD_PROXY_OBJECT
  5
16F78
102
{ACAD_REACTORS
330
16F70
102
}
330
16F70
100
AcDbZombieObject
 90
      499
 91
      509
 93
      500
310
424CD108121A5919195B90640502408333333333333E3BF0000000000000FB01079024090700405020000000000001110200405405064090740C02480A0340
1001
ACAD
1000
AcRTDxfName
1000
VISUALSTYLE
1000
AcRTDxfName
1000
VISUALSTYLE
1000
AcRTDxfName
1000
VISUALSTYLE
1000
AcRTDxfName
1000
VISUALSTYLE
1000
AcRTDxfName
1000
VISUALSTYLE
1000
AcRTDxfName
1000
VISUALSTYLE
1000
AcDbSavedByObjectVersion
1070
     0
  0
ACAD_PROXY_OBJECT
  5
16F77
102
{ACAD_REACTORS
330
16F70
102
}
330
16F70
100
AcDbZombieObject
 90
      499
 91
      509
 93
      436
310
42CCD915DA5C99599C985B595059028333333333333E3BF0000000000000FB0107901411070040501600405405064090741402480A0340
1001
ACAD
1000
AcRTDxfName
1000
VISUALSTYLE
1000
AcRTDxfName
1000
VISUALSTYLE
1000
AcRTDxfName
1000
VISUALSTYLE
1000
AcRTDxfName
1000
VISUALSTYLE
1000
AcRTDxfName
1000
VISUALSTYLE
1000
AcRTDxfName
1000
VISUALSTYLE
1000
AcDbSavedByObjectVersion
1070
     0
  0
ACAD_PROXY_OBJECT
  5
16F75
102
{ACAD_REACTORS
330
16F70
102
}
330
16F70
100
AcDbZombieObject
 90
      499
 91
      509
 93
      388
310
4150985CDA58D07406404333333333333E3BF0000000000000FB0107A41107004050150841D405064090741402480A0350
1001
ACAD
1000
AcRTDxfName
1000
VISUALSTYLE
1000
AcRTDxfName
1000
VISUALSTYLE
1000
AcRTDxfName
1000
VISUALSTYLE
1000
AcRTDxfName
1000
VISUALSTYLE
1000
AcRTDxfName
1000
VISUALSTYLE
1000
AcRTDxfName
1000
VISUALSTYLE
1000
AcDbSavedByObjectVersion
1070
     0
  0
ACAD_PROXY_OBJECT
  5
16F7C
102
{ACAD_REACTORS
330
16F70
102
}
330
16F70
100
AcDbZombieObject
 90
      499
 91
      509
 93
      428
310
42109C9A59DA1D195B90C409028333333333333E3BF0000000000000FB010790141107004050150841D405064090741402480A029950
1001
ACAD
1000
AcRTDxfName
1000
VISUALSTYLE
1000
AcRTDxfName
1000
VISUALSTYLE
1000
AcRTDxfName
1000
VISUALSTYLE
1000
AcRTDxfName
1000
VISUALSTYLE
1000
AcRTDxfName
1000
VISUALSTYLE
1000
AcRTDxfName
1000
VISUALSTYLE
1000
AcDbSavedByObjectVersion
1070
     0
  0
ACAD_PROXY_OBJECT
  5
16F80
102
{ACAD_REACTORS
330
16F70
102
}
330
16F70
100
AcDbZombieObject
 90
      499
 91
      509
 93
      452
310
42D0DBDB1BDC90DA185B99D95104090240C333333333333E3BF0000000000000FB0108901411070040501508421405064090741402480A0350
1001
ACAD
1000
AcRTDxfName
1000
VISUALSTYLE
1000
AcRTDxfName
1000
VISUALSTYLE
1000
AcRTDxfName
1000
VISUALSTYLE
1000
AcRTDxfName
1000
VISUALSTYLE
1000
AcRTDxfName
1000
VISUALSTYLE
1000
AcRTDxfName
1000
VISUALSTYLE
1000
AcDbSavedByObjectVersion
1070
     0
  0
ACAD_PROXY_OBJECT
  5
16F79
102
{ACAD_REACTORS
330
16F70
102
}
330
16F70
100
AcDbZombieObject
 90
      499
 91
      509
 93
      500
310
4290DBDB98D95C1D1D585B10940D028333333333333E3BF0000000000000FB0107902409070040501000000000000111010841D405064090740C02480A0340
1001
ACAD
1000
AcRTDxfName
1000
VISUALSTYLE
1000
AcRTDxfName
1000
VISUALSTYLE
1000
AcRTDxfName
1000
VISUALSTYLE
1000
AcRTDxfName
1000
VISUALSTYLE
1000
AcRTDxfName
1000
VISUALSTYLE
1000
AcRTDxfName
1000
VISUALSTYLE
1000
AcDbSavedByObjectVersion
1070
     0
  0
ACAD_PROXY_OBJECT
  5
16F7B
102
{ACAD_REACTORS
330
16F70
102
}
330
16F70
100
AcDbZombieObject
 90
      499
 91
      509
 93
      412
310
40D11A5B50B409028333333333333E3BF0000000000000FB010790141107004050150841D405064090741402480A02677FFFFFD0
1001
ACAD
1000
AcRTDxfName
1000
VISUALSTYLE
1000
AcRTDxfName
1000
VISUALSTYLE
1000
AcRTDxfName
1000
VISUALSTYLE
1000
AcRTDxfName
1000
VISUALSTYLE
1000
AcRTDxfName
1000
VISUALSTYLE
1000
AcRTDxfName
1000
VISUALSTYLE
1000
AcDbSavedByObjectVersion
1070
     0
  0
ACAD_PROXY_OBJECT
  5
62CA3
102
{ACAD_REACTORS
330
16F70
102
}
330
16F70
100
AcDbZombieObject
 90
      499
 91
      509
 93
      452
310
43115919D950DBDB1BDC93D999916409028333333333333E3BF0000000000000FB010790141107004050150841D405064090741402480A0350
1001
ACAD
1000
AcDbSavedByObjectVersion
1070
     0
  0
ACAD_PROXY_OBJECT
  5
16F7F
102
{ACAD_REACTORS
330
16F70
102
}
330
16F70
100
AcDbZombieObject
 90
      499
 91
      509
 93
      444
310
42D19858D95C185D1D195C9B90F409028333333333333E3BF0000000000000FB010790141107004050150841D405064090741402480A0350
1001
ACAD
1000
AcRTDxfName
1000
VISUALSTYLE
1000
AcRTDxfName
1000
VISUALSTYLE
1000
AcRTDxfName
1000
VISUALSTYLE
1000
AcRTDxfName
1000
VISUALSTYLE
1000
AcRTDxfName
1000
VISUALSTYLE
1000
AcRTDxfName
1000
VISUALSTYLE
1000
AcDbSavedByObjectVersion
1070
     0
  0
ACAD_PROXY_OBJECT
  5
16F71
102
{ACAD_REACTORS
330
16F70
102
}
330
16F70
100
AcDbZombieObject
 90
      499
 91
      509
 93
      388
310
41119B185D240901404333333333333E3BF0000000000000F9010740A41107004050150841D405064090741402480A1B50
1001
ACAD
1000
AcRTDxfName
1000
VISUALSTYLE
1000
AcRTDxfName
1000
VISUALSTYLE
1000
AcRTDxfName
1000
VISUALSTYLE
1000
AcRTDxfName
1000
VISUALSTYLE
1000
AcRTDxfName
1000
VISUALSTYLE
1000
AcRTDxfName
1000
VISUALSTYLE
1000
AcDbSavedByObjectVersion
1070
     0
  0
ACAD_PROXY_OBJECT
  5
16F72
102
{ACAD_REACTORS
330
16F70
102
}
330
16F70
100
AcDbZombieObject
 90
      499
 91
      509
 93
      476
310
43519B185D15DA5D1A115919D95CD0140901404333333333333E3BF0000000000000F9010740901411070040501600405405064090741402480A1B50
1001
ACAD
1000
AcRTDxfName
1000
VISUALSTYLE
1000
AcRTDxfName
1000
VISUALSTYLE
1000
AcRTDxfName
1000
VISUALSTYLE
1000
AcRTDxfName
1000
VISUALSTYLE
1000
AcRTDxfName
1000
VISUALSTYLE
1000
AcRTDxfName
1000
VISUALSTYLE
1000
AcDbSavedByObjectVersion
1070
     0
  0
ACAD_PROXY_OBJECT
  5
16F73
102
{ACAD_REACTORS
330
16F70
102
}
330
16F70
100
AcDbZombieObject
 90
      499
 91
      509
 93
      412
310
41D1DBDD5C985D5910240902404333333333333E3BF0000000000000F9010740A411070040501641D405064090741402480A1B50
1001
ACAD
1000
AcRTDxfName
1000
VISUALSTYLE
1000
AcRTDxfName
1000
VISUALSTYLE
1000
AcRTDxfName
1000
VISUALSTYLE
1000
AcRTDxfName
1000
VISUALSTYLE
1000
AcRTDxfName
1000
VISUALSTYLE
1000
AcRTDxfName
1000
VISUALSTYLE
1000
AcDbSavedByObjectVersion
1070
     0
  0
ACAD_PROXY_OBJECT
  5
16F74
102
{ACAD_REACTORS
330
16F70
102
}
330
16F70
100
AcDbZombieObject
 90
      499
 91
      509
 93
      500
310
4411DBDD5C985D5915DA5D1A115919D95CD0340902404333333333333E3BF0000000000000F9010740901411070040501600405405064090741402480A1B50
1001
ACAD
1000
AcRTDxfName
1000
VISUALSTYLE
1000
AcRTDxfName
1000
VISUALSTYLE
1000
AcRTDxfName
1000
VISUALSTYLE
1000
AcRTDxfName
1000
VISUALSTYLE
1000
AcRTDxfName
1000
VISUALSTYLE
1000
AcRTDxfName
1000
VISUALSTYLE
1000
AcDbSavedByObjectVersion
1070
     0
  0
ACAD_PROXY_OBJECT
  5
62C9B
102
{ACAD_REACTORS
330
16F70
102
}
330
16F70
100
AcDbZombieObject
 90
      499
 91
      509
 93
      476
310
41921A5919195B90640502408333333333333E3BF0000000000000FB01079024090700405020000000000001110200405405064090740C02480A0340
1001
ACAD
1000
AcDbSavedByObjectVersion
1070
     0
  0
ACAD_PROXY_OBJECT
  5
62CA1
102
{ACAD_REACTORS
330
16F70
102
}
330
16F70
100
AcDbZombieObject
 90
      499
 91
      509
 93
      428
310
42529A5D1D195C93D999914409028333333333333E3BF0000000000000FB010790141107004050150A41D405064090741402480A0350
1001
ACAD
1000
AcDbSavedByObjectVersion
1070
     0
  0
ACAD_PROXY_OBJECT
  5
16F7E
102
{ACAD_REACTORS
330
16F70
102
}
330
16F70
100
AcDbZombieObject
 90
      499
 91
      509
 93
      444
310
42D31A5B995C185D1D195C9B90E409028333333333333E3BF0000000000000FB010790141107004050750841D405064090741402483A0350
1001
ACAD
1000
AcRTDxfName
1000
VISUALSTYLE
1000
AcRTDxfName
1000
VISUALSTYLE
1000
AcRTDxfName
1000
VISUALSTYLE
1000
AcRTDxfName
1000
VISUALSTYLE
1000
AcRTDxfName
1000
VISUALSTYLE
1000
AcRTDxfName
1000
VISUALSTYLE
1000
AcDbSavedByObjectVersion
1070
     0
  0
ACAD_PROXY_OBJECT
  5
A3AAC
102
{ACAD_REACTORS
330
16F70
102
}
330
16F70
100
AcDbZombieObject
 90
      499
 91
      509
 93
      484
310
42135BD9195B1A5B99D0A409038333333333333E33F0000000000000F901074090290700405010000000000201990108421405064090741402480A1B40
1001
ACAD
1000
AcDbSavedByObjectVersion
1070
     0
  0
ACAD_PROXY_OBJECT
  5
62CA2
102
{ACAD_REACTORS
330
16F70
102
}
330
16F70
100
AcDbZombieObject
 90
      499
 91
      509
 93
      444
310
42D3DD995C9A185B99D3D999915409028333333333333E3BF0000000000000FB010790141107004050150941D405064090741402480A0350
1001
ACAD
1000
AcDbSavedByObjectVersion
1070
     0
  0
ACAD_PROXY_OBJECT
  5
16F7A
102
{ACAD_REACTORS
330
16F70
102
}
330
16F70
100
AcDbZombieObject
 90
      499
 91
      509
 93
      420
310
425499585B1A5CDD1A58D08409028333333333333E3BF0000000000000FB01079019070040501508421405064090741402480A1B40
1001
ACAD
1000
AcRTDxfName
1000
VISUALSTYLE
1000
AcRTDxfName
1000
VISUALSTYLE
1000
AcRTDxfName
1000
VISUALSTYLE
1000
AcRTDxfName
1000
VISUALSTYLE
1000
AcRTDxfName
1000
VISUALSTYLE
1000
AcRTDxfName
1000
VISUALSTYLE
1000
AcDbSavedByObjectVersion
1070
     0
  0
ACAD_PROXY_OBJECT
  5
62CA0
102
{ACAD_REACTORS
330
16F70
102
}
330
16F70
100
AcDbZombieObject
 90
      499
 91
      509
 93
      420
310
4194DA1859195911B40902404333333333333E3BF0000000000000F9010740A41107004050150800405405064090840C02480A0B40
1001
ACAD
1000
AcDbSavedByObjectVersion
1070
     0
  0
ACAD_PROXY_OBJECT
  5
62C9F
102
{ACAD_REACTORS
330
16F70
102
}
330
16F70
100
AcDbZombieObject
 90
      499
 91
      509
 93
      516
310
4454DA18591959081DDA5D1A08195919D95CD1A40902404333333333333E3BF0000000000000F901074090142907004050250800405405064090740C02480A0B40
1001
ACAD
1000
AcDbSavedByObjectVersion
1070
     0
  0
ACAD_PROXY_OBJECT
  5
62C9C
102
{ACAD_REACTORS
330
16F70
102
}
330
16F70
100
AcDbZombieObject
 90
      499
 91
      509
 93
      532
310
4394DA1859195CC81BD98811DC985E5174090240C333333333333E3BF0000000000000FB01079024090741D01000000000000111010841D405064090740C02480A0340
1001
ACAD
1000
AcDbSavedByObjectVersion
1070
     0
  0
ACAD_PROXY_OBJECT
  5
62C9D
102
{ACAD_REACTORS
330
16F70
102
}
330
16F70
100
AcDbZombieObject
 90
      499
 91
      509
 93
      476
310
41D4DAD95D18DA1E51840502408333333333333E3BF0000000000000FB01079024090741D01000000000000111010B41D405064090741802480A0340
1001
ACAD
1000
AcDbSavedByObjectVersion
1070
     0
  0
ACAD_PROXY_OBJECT
  5
16F7D
102
{ACAD_REACTORS
330
16F70
102
}
330
16F70
100
AcDbZombieObject
 90
      499
 91
      509
 93
      412
310
41D51A1A58DAD95B90D409028333333333333E3BF0000000000000FB010790141107004050150C41D405064090741402480A0350
1001
ACAD
1000
AcRTDxfName
1000
VISUALSTYLE
1000
AcRTDxfName
1000
VISUALSTYLE
1000
AcRTDxfName
1000
VISUALSTYLE
1000
AcRTDxfName
1000
VISUALSTYLE
1000
AcRTDxfName
1000
VISUALSTYLE
1000
AcRTDxfName
1000
VISUALSTYLE
1000
AcDbSavedByObjectVersion
1070
     0
  0
ACAD_PROXY_OBJECT
  5
62C9A
102
{ACAD_REACTORS
330
16F70
102
}
330
16F70
100
AcDbZombieObject
 90
      499
 91
      509
 93
      420
310
4255DA5C99599C985B595059028333333333333E3BF0000000000000FB0107901411070040501600405405064090740C02480A0340
1001
ACAD
1000
AcDbSavedByObjectVersion
1070
     0
  0
ACAD_PROXY_OBJECT
  5
62C9E
102
{ACAD_REACTORS
330
16F70
102
}
330
16F70
100
AcDbZombieObject
 90
      499
 91
      509
 93
      404
310
41560B54985E51940902404000000000000E03F0000000000000FB010740501907004050150841D405064090740C02480A1B40
1001
ACAD
1000
AcDbSavedByObjectVersion
1070
     0
  0
XRECORD
  5
A3C52
102
{ACAD_REACTORS
330
A3C51
102
}
330
A3C51
100
AcDbXrecord
340
1418C
  0
XRECORD
  5
A3C53
102
{ACAD_REACTORS
330
A3C51
102
}
330
A3C51
100
AcDbXrecord
340
1418B
  0
DICTIONARYVAR
  5
A3DEF
102
{ACAD_REACTORS
330
6ED
102
}
330
6ED
100
DictionaryVariables
280
     0
  1
1:1
  0
DICTIONARYVAR
  5
1710A
102
{ACAD_REACTORS
330
6ED
102
}
330
6ED
100
DictionaryVariables
280
     0
  1
Standard
  0
DICTIONARYVAR
  5
141AE
102
{ACAD_REACTORS
330
6ED
102
}
330
6ED
100
DictionaryVariables
280
     0
  1
Standard
  0
DICTIONARYVAR
  5
6EE
102
{ACAD_REACTORS
330
6ED
102
}
330
6ED
100
DictionaryVariables
280
     0
  1
-1
  0
DICTIONARYVAR
  5
141AF
102
{ACAD_REACTORS
330
6ED
102
}
330
6ED
100
DictionaryVariables
280
     0
  1
2
  0
DICTIONARYVAR
  5
7CF14
102
{ACAD_REACTORS
330
6ED
102
}
330
6ED
100
DictionaryVariables
280
     0
  1
2
  0
DICTIONARYVAR
  5
1485B
102
{ACAD_REACTORS
330
6ED
102
}
330
6ED
100
DictionaryVariables
280
     0
  1
1
  0
DICTIONARYVAR
  5
1710C
102
{ACAD_REACTORS
330
6ED
102
}
330
6ED
100
DictionaryVariables
280
     0
  1
0
  0
DICTIONARYVAR
  5
1485F
102
{ACAD_REACTORS
330
6ED
102
}
330
6ED
100
DictionaryVariables
280
     0
  1
8
  0
DICTIONARYVAR
  5
1485E
102
{ACAD_REACTORS
330
6ED
102
}
330
6ED
100
DictionaryVariables
280
     0
  1
1
  0
DICTIONARYVAR
  5
A348C
102
{ACAD_REACTORS
330
6ED
102
}
330
6ED
100
DictionaryVariables
280
     0
  1
0
  0
DICTIONARYVAR
  5
A348D
102
{ACAD_REACTORS
330
6ED
102
}
330
6ED
100
DictionaryVariables
280
     0
  1
0
  0
DICTIONARYVAR
  5
7E56E
102
{ACAD_REACTORS
330
6ED
102
}
330
6ED
100
DictionaryVariables
280
     0
  1
0.000000
  0
DICTIONARYVAR
  5
6D821
102
{ACAD_REACTORS
330
6ED
102
}
330
6ED
100
DictionaryVariables
280
     0
  1
0
  0
DICTIONARYVAR
  5
1485C
102
{ACAD_REACTORS
330
6ED
102
}
330
6ED
100
DictionaryVariables
280
     0
  1
120
  0
DICTIONARYVAR
  5
1485D
102
{ACAD_REACTORS
330
6ED
102
}
330
6ED
100
DictionaryVariables
280
     0
  1
0
  0
DICTIONARYVAR
  5
141B0
102
{ACAD_REACTORS
330
6ED
102
}
330
6ED
100
DictionaryVariables
280
     0
  1

  0
DICTIONARYVAR
  5
E97
102
{ACAD_REACTORS
330
6ED
102
}
330
6ED
100
DictionaryVariables
280
     0
  1
127
  0
DICTIONARYVAR
  5
41A53
102
{ACAD_REACTORS
330
6ED
102
}
330
6ED
100
DictionaryVariables
280
     0
  1
0
  0
DICTIONARYVAR
  5
A3AAB
102
{ACAD_REACTORS
330
6ED
102
}
330
6ED
100
DictionaryVariables
280
     0
  1
2
  0
ACAD_PROXY_OBJECT
  5
7A5FB
102
{ACAD_REACTORS
330
1487A
102
}
330
1487A
100
AcDbZombieObject
 90
      499
 91
      543
 93
    50146
310
1E06000016C005C080000B404000098880400B8041000996969616128043800000000000001680020000000F8001C01C80478012C04500000000000000004001C00990DBDB1BDC97CDEE0040000000128040000000000000001680020000000F8037401C80448012C04500000000000000004002400990DBDB1BDC97CC8C8C
310
6E0040000000128040000000000000001680020000000F8002001C80448012C04500000000000000004001C00990DBDB1BDC97CE2E0040000000128040000000000000001680020000000F8002001C80448012C04000000000000000004001C00990DBDB1BDC97CE2E0040000000128040000000000000001680020000000F
310
8032401C80464012C04500000000000000004002400990DBDB1BDC97CC8C0C6E0040000000128040000000000000001680020000000F8037401C80448012C04500000000000000004002400990DBDB1BDC97CC8C8C6E0040000000128040000000000000001680024000000F8000401C807F7FD2C045000000000000000040
310
01C00990DBDB1BDC97CC6E0040000000128040000000000000001680020000000F803F401C80434012C04500000000000000004002400990DBDB1BDC97CC8D4CEE0040000000128040000000000000001680000000000F8001C01C807F7FD2C04500000000000000004001C00990DBDB1BDC97CDEE00400000001280400000
310
00000000001680020000000F8002001C80448012C04500000000000000004001C00990DBDB1BDC97CE2E0040000000128040000000000000001680020000000F803F801C80434012C04000000000000000004002400990DBDB1BDC97CC8D4D2E0040000000128040000000000000001680020000000F8037401C80448012C0
310
4500000000000000004002400990DBDB1BDC97CC8C8C6E0040000000128040000000000000001680020000000F8000801C80478012C04500000000000000004001C00990DBDB1BDC97CCAE0040000000128040000000000000001680020000000F8035401C80478012C04500000000000000004002400990DBDB1BDC97CC8C
310
4CEE0040000000128040000000000000001680020000000F8038401C807F7FD2C04500000000000000004002400990DBDB1BDC97CC8C8D6E0040000000128040000000000000001680020000000F8001C01C807F7FD2C04500000000000000004001C00990DBDB1BDC97CDEE00400000001280400000000000000016800200
310
00000F8007801C807F7FD2C04500000000000000004002000990DBDB1BDC97CCCC2E0040000000128040000000000000001680020000000F803F001C804F0012C04500000000000000004002400990DBDB1BDC97CC8D4CAE0040000000128040000000000000001680024000000F8002001C807F7FD2C04500000000000000
310
004001C00990DBDB1BDC97CE2E0040000000128040000000000000001680020000000F8001801C80478012C04500000000000000004001C00990DBDB1BDC97CDAE0040000000128040000000000000001680020000000F8037801C807F7FD2C04500000000000000004002400990DBDB1BDC97CC8C8CAE0040000000128040
310
000000000000001680020000000F8000401C807F7FD2C04500000000000000004001C00990DBDB1BDC97CC6E0040000000128040000000000000001680020000000F8017C01C80478012C04500000000000000004002000990DBDB1BDC97CE4D6E0040000000128040000000000000001680000000000F803CC01C807F7FD2
310
C04500000000000000004002400990DBDB1BDC97CC8D0CEE0040000000128040000000000000001680020000000F8001001C80478012C04500000000000000004001C00990DBDB1BDC97CD2E0040000000128040000000000000001680020000000F8017401C80434012C04500000000000000004002000990DBDB1BDC97CE
310
4CEE0040000000128040000000000000001680020000000F8039C01C80434012C04500000000000000004002400990DBDB1BDC97CC8CCC6E0040000000128040000000000000001680020000000F8007C01C80434012C04500000000000000004002000990DBDB1BDC97CCCC6E004000000012804000000000000000168002
310
0000000F8001C01C80450012C04500000000000000004001C00990DBDB1BDC97CDEE0040000000128040000000000000001680020000000F8001401C80434012C04000000000000000004001C00990DBDB1BDC97CD6E0040000000128040000000000000001680020000000F8000401C80434012C040000000000000000040
310
01C00990DBDB1BDC97CC6E0040000000128040000000000000001680020000000F8002001C8043C012C04000000000000000004001C00990DBDB1BDC97CE2E0040000000128040000000000000001680020000000F8000401C80478012C04500000000000000004001C00990DBDB1BDC97CC6E004000000012804000000000
310
0000001680020000000F8000C01C80478012C04500000000000000004001C00990DBDB1BDC97CCEE0040000000128040000000000000001680020000000F8023401C80434012C04500000000000000004002400990DBDB1BDC97CC4D0C6E0040000000128040000000000000001680020000000F8014401C80434012C04500
310
000000000000004002000990DBDB1BDC97CE0C6E0040000000128040000000000000001680020000000F8003401C80434012C04500000000000000004002000990DBDB1BDC97CC4CEE0040000000128040000000000000001680020000000F800DC01C80434012C04500000000000000004002000990DBDB1BDC97CD4D6E00
310
40000000128040000000000000001680020000000F800D401C80434012C04500000000000000004002000990DBDB1BDC97CD4CEE0040000000128040000000000000001680020000000F8021801C80434012C04500000000000000004002400990DBDB1BDC97CC4CCD2E004000000012804000000000000000168002000000
310
0F800FC01C80434012C04500000000000000004002000990DBDB1BDC97CD8CEE0040000000128040000000000000001680020000000F803AC01C80434012C04500000000000000004002400990DBDB1BDC97CC8CCD6E0040000000128040000000000000001680020000000F8023401C80434012C045000000000000000040
310
02400990DBDB1BDC97CC4D0C6E0040000000128040000000000000001680020000000F8001401C80478012C04500000000000000004001C00990DBDB1BDC97CD6E0040000000128040000000000000001680020000000F8023C01C80478012C04500000000000000004002400990DBDB1BDC97CC4D0CEE0040000000128040
310
000000000000001680020000000F8003C01C80478012C04500000000000000004002000990DBDB1BDC97CC4D6E0040000000128040000000000000001680020000000F8001C01C80478012C04500000000000000004001C00990DBDB1BDC97CDEE0040000000128040000000000000001680020000000F803F801C80448012
310
C04500000000000000004002400990DBDB1BDC97CC8D4D2E0040000000128040000000000000001680020000000F8002001C80448012C04500000000000000004001C00990DBDB1BDC97CE2E0040000000128040000000000000001680020000000F8001C01C807F7FD2C04000000000000000004001C00990DBDB1BDC97CD
310
EE0040000000128040000000000000001680020000000F8001C01C807F7FD2C04000000000000000004001C00990DBDB1BDC97CDEE0040000000128040000000000000001680020000000F8001C01C807F7FD2C04000000000000000004001C00990DBDB1BDC97CDEE0040000000128040000000000000001680020000000F
310
8001C01C807F7FD2C04000000000000000004001C00990DBDB1BDC97CDEE0040000000128040000000000000001680020000000F8001C01C807F7FD2C04000000000000000004001C00990DBDB1BDC97CDEE0040000000128040000000000000001680020000000F8001C01C807F7FD2C04000000000000000004001C00990
310
DBDB1BDC97CDEE0040000000128040000000000000001680020000000F8002401C80450012C04500000000000000004001C00990DBDB1BDC97CE6E0040000000128040000000000000001680020000000F8001001C80400012C04000000000000000004001C00990DBDB1BDC97CD2E00400000001280400000000000000016
310
80020000000F8001001C80400012C04500000000000000004001C00990DBDB1BDC97CD2E0040000000128040000000000000001680020000000F8001001C80400012C04500000000000000004001C00990DBDB1BDC97CD2E0040000000128040000000000000001680020000000F8000401C80400012C04500000000000000
310
004001C00990DBDB1BDC97CC6E0040000000128040000000000000001680020000000F8001C01C80434012C04500000000000000004001C00990DBDB1BDC97CDEE0040000000128040000000000000001680020000000F8011801C80400012C04500000000000000004002000990DBDB1BDC97CDCC2E004000000012804000
310
0000000000001680020000000F8001001C80400012C04500000000000000004001C00990DBDB1BDC97CD2E0040000000128040000000000000001680020000000F8001C01C80448012C04500000000000000004001C00990DBDB1BDC97CDEE0040000000128040000000000000001680020000000F803F401C80434012C045
310
00000000000000004002400990DBDB1BDC97CC8D4CEE0040000000128040000000000000001680020000000F8000401C80478012C04500000000000000004001C00990DBDB1BDC97CC6E0040000000128040000000000000001680020000000F803F001C807F7FD2C04500000000000000004002400990DBDB1BDC97CC8D4C
310
AE0040000000128040000000000000001680020000000F800DC01C80434012C04500000000000000004002000990DBDB1BDC97CD4D6E0040000000128040000000000000001680020000000F8002801C807F7FD2C04500000000000000004002000990DBDB1BDC97CC4C2E0040000000128040000000000000001680020000
310
000F8002C01C807F7FD2C04500000000000000004002000990DBDB1BDC97CC4C6E0040000000128040000000000000001680020000000F8005401C807F7FD2C04500000000000000004002000990DBDB1BDC97CC8C6E0040000000128040000000000000001680020000000F8003001C807F7FD2C045000000000000000040
310
02000990DBDB1BDC97CC4CAE0040000000128040000000000000001680020000000F8005801C807F7FD2C04500000000000000004002000990DBDB1BDC97CC8CAE0040000000128040000000000000001680020000000F8008001C807F7FD2C04500000000000000004002000990DBDB1BDC97CCCCAE004000000012804000
310
0000000000001680020000000F8003C01C807F7FD2C04500000000000000004002000990DBDB1BDC97CC4D6E0040000000128040000000000000001680020000000F803C401C807F7FD2C04500000000000000004002400990DBDB1BDC97CC8D0C6E0040000000128040000000000000001680020000000F8000801C807F7F
310
D2C04500000000000000004001C00990DBDB1BDC97CCAE0040000000128040000000000000001680020000000F800D401C807F7FD2C04500000000000000004002000990DBDB1BDC97CD4CEE0040000000128040000000000000001680020000000F800DC01C807F7FD2C04500000000000000004002000990DBDB1BDC97CD
310
4D6E0040000000128040000000000000001680020000000F800D001C807F7FD2C04500000000000000004002000990DBDB1BDC97CD4CAE0040000000128040000000000000001680020000000F800A001C807F7FD2C04500000000000000004002000990DBDB1BDC97CD0C2E00400000001280400000000000000016800200
310
00000F800A401C807F7FD2C04500000000000000004002000990DBDB1BDC97CD0C6E0040000000128040000000000000001680020000000F800AC01C807F7FD2C04500000000000000004002000990DBDB1BDC97CD0CEE0040000000128040000000000000001680020000000F800A801C807F7FD2C0450000000000000000
310
4002000990DBDB1BDC97CD0CAE0040000000128040000000000000001680020000000F800B001C807F7FD2C04500000000000000004002000990DBDB1BDC97CD0D2E0040000000128040000000000000001680020000000F800B801C807F7FD2C04500000000000000004002000990DBDB1BDC97CD0DAE0040000000128040
310
000000000000001680020000000F800B401C807F7FD2C04500000000000000004002000990DBDB1BDC97CD0D6E0040000000128040000000000000001680020000000F800BC01C807F7FD2C04500000000000000004002000990DBDB1BDC97CD0DEE0040000000128040000000000000001680020000000F800E001C807F7F
310
D2C04500000000000000004002000990DBDB1BDC97CD4DAE0040000000128040000000000000001680020000000F8000C01C807F7FD2C04500000000000000004001C00990DBDB1BDC97CCEE0040000000128040000000000000001680020000000F800F001C807F7FD2C04500000000000000004002000990DBDB1BDC97CD
310
8C2E0040000000128040000000000000001680020000000F8014001C807F7FD2C04500000000000000004002000990DBDB1BDC97CE0C2E0040000000128040000000000000001680020000000F8019001C807F7FD2C04500000000000000004002400990DBDB1BDC97CC4C0C2E004000000012804000000000000000168002
310
0000000F800F401C807F7FD2C04500000000000000004002000990DBDB1BDC97CD8C6E0040000000128040000000000000001680020000000F8014401C807F7FD2C04500000000000000004002000990DBDB1BDC97CE0C6E0040000000128040000000000000001680020000000F8019401C807F7FD2C04500000000000000
310
004002400990DBDB1BDC97CC4C0C6E0040000000128040000000000000001680020000000F800FC01C807F7FD2C04500000000000000004002000990DBDB1BDC97CD8CEE0040000000128040000000000000001680020000000F8017401C807F7FD2C04500000000000000004002000990DBDB1BDC97CE4CEE004000000012
310
8040000000000000001680020000000F8012C01C807F7FD2C04500000000000000004002000990DBDB1BDC97CDCD6E0040000000128040000000000000001680020000000F801A401C807F7FD2C04500000000000000004002400990DBDB1BDC97CC4C0D6E0040000000128040000000000000001680020000000F8012801C
310
807F7FD2C04500000000000000004002000990DBDB1BDC97CDCD2E0040000000128040000000000000001680020000000F801A801C807F7FD2C04500000000000000004002400990DBDB1BDC97CC4C0DAE0040000000128040000000000000001680020000000F8001001C807F7FD2C04500000000000000004001C00990DB
310
DB1BDC97CD2E0040000000128040000000000000001680020000000F8021001C807F7FD2C04500000000000000004002400990DBDB1BDC97CC4CCCAE0040000000128040000000000000001680020000000F8022001C807F7FD2C04500000000000000004002400990DBDB1BDC97CC4CCDAE00400000001280400000000000
310
00001680020000000F8023001C807F7FD2C04500000000000000004002400990DBDB1BDC97CC4D0C2E0040000000128040000000000000001680020000000F8023801C807F7FD2C04500000000000000004002400990DBDB1BDC97CC4D0CAE0040000000128040000000000000001680020000000F8024001C807F7FD2C045
310
00000000000000004002400990DBDB1BDC97CC4D0D2E0040000000128040000000000000001680020000000F801EC01C807F7FD2C04500000000000000004002400990DBDB1BDC97CC4C8CEE0040000000128040000000000000001680020000000F8021C01C807F7FD2C04500000000000000004002400990DBDB1BDC97CC
310
4CCD6E0040000000128040000000000000001680020000000F8025C01C807F7FD2C04500000000000000004002400990DBDB1BDC97CC4D4C6E0040000000128040000000000000001680020000000F8028401C807F7FD2C04500000000000000004002400990DBDB1BDC97CC4D8C6E00400000001280400000000000000016
310
80020000000F8026001C807F7FD2C04500000000000000004002400990DBDB1BDC97CC4D4CAE0040000000128040000000000000001680020000000F8001401C807F7FD2C04500000000000000004001C00990DBDB1BDC97CD6E0040000000128040000000000000001680020000000F803F001C807F7FD2C0450000000000
310
0000004002400990DBDB1BDC97CC8D4CAE0040000000128040000000000000001680020000000F8001C01C807F7FD2C04500000000000000004001C00990DBDB1BDC97CDEE0040000000128040000000000000001680020000000F8001C01C80478012C045000000000000000040010009A41197CDEE00400000001280700D
310
0280000000001680020000000F8001C01C80478012C045000000000000000040010009A41197CDEE004000000000
  0
DICTIONARY
  5
A3DF0
330
16F60
100
AcDbDictionary
  3
ACAD_XREC_ROUNDTRIP
360
A3DF1
1001
ACAD
1000
TREAT_AS_HARD
1070
     1
  0
DICTIONARY
  5
A3DF2
330
16F58
100
AcDbDictionary
  3
ACAD_XREC_ROUNDTRIP
360
A3DF3
1001
ACAD
1000
TREAT_AS_HARD
1070
     1
  0
DICTIONARY
  5
A3DF4
330
16F68
100
AcDbDictionary
  3
ACAD_XREC_ROUNDTRIP
360
A3DF5
1001
ACAD
1000
TREAT_AS_HARD
1070
     1
  0
XRECORD
  5
A3DF1
102
{ACAD_REACTORS
330
A3DF0
102
}
330
A3DF0
100
AcDbXrecord
102
MATERIAL
148
0.0
149
0.0
149
0.0
 93
        0
 94
      127
282
     0
 72
     0
 77
     0
171
     0
175
     0
179
     0
273
     0
  0
XRECORD
  5
A3DF3
102
{ACAD_REACTORS
330
A3DF2
102
}
330
A3DF2
100
AcDbXrecord
102
MATERIAL
148
0.0
149
0.0
149
0.0
 93
        0
 94
      127
282
     0
 72
     0
 77
     0
171
     0
175
     0
179
     0
273
     0
  0
XRECORD
  5
A3DF5
102
{ACAD_REACTORS
330
A3DF4
102
}
330
A3DF4
100
AcDbXrecord
102
MATERIAL
148
0.0
149
0.0
149
0.0
 93
        0
 94
      127
282
     0
 72
     0
 77
     0
171
     0
175
     0
179
     0
273
     0
  0
ENDSEC
  0
EOF
