  0
SECTION
  2
HEADER
  9
$ACADVER
  1
AC1012
  9
$DWGCODEPAGE
  3
ansi_932
  9
$INSBASE
 10
0.0
 20
0.0
 30
0.0
  9
$EXTMIN
 10
-140.1801853104066
 20
-116.4331102129216
 30
0.0
  9
$EXTMAX
 10
110.4921232929498
 20
115.0107135617897
 30
0.0
  9
$LIMMIN
 10
0.0
 20
0.0
  9
$LIMMAX
 10
420.0
 20
297.0
  9
$ORTHOMODE
 70
     0
  9
$REGENMODE
 70
     1
  9
$FILLMODE
 70
     1
  9
$QTEXTMODE
 70
     0
  9
$MIRRTEXT
 70
     0
  9
$DRAGMODE
 70
     2
  9
$LTSCALE
 40
0.5
  9
$OSMODE
 70
  2351
  9
$ATTMODE
 70
     1
  9
$TEXTSIZE
 40
4.0
  9
$TRACEWID
 40
1.0
  9
$TEXTSTYLE
  7
STANDARD
  9
$CLAYER
  8
1TEXT
  9
$CELTYPE
  6
BYLAYER
  9
$CECOLOR
 62
   256
  9
$CELTSCALE
 40
1.0
  9
$DELOBJ
 70
     1
  9
$DISPSILH
 70
     0
  9
$DIMSCALE
 40
1.0
  9
$DIMASZ
 40
2.0
  9
$DIMEXO
 40
0.0
  9
$DIMDLI
 40
7.0
  9
$DIMRND
 40
0.0
  9
$DIMDLE
 40
0.0
  9
$DIMEXE
 40
1.0
  9
$DIMTP
 40
0.0
  9
$DIMTM
 40
0.0
  9
$DIMTXT
 40
3.5
  9
$DIMCEN
 40
0.0
  9
$DIMTSZ
 40
0.0
  9
$DIMTOL
 70
     0
  9
$DIMLIM
 70
     0
  9
$DIMTIH
 70
     0
  9
$DIMTOH
 70
     0
  9
$DIMSE1
 70
     0
  9
$DIMSE2
 70
     0
  9
$DIMTAD
 70
     1
  9
$DIMZIN
 70
     8
  9
$DIMBLK
  1

  9
$DIMASO
 70
     1
  9
$DIMSHO
 70
     1
  9
$DIMPOST
  1
 
  9
$DIMAPOST
  1

  9
$DIMALT
 70
     0
  9
$DIMALTD
 70
     2
  9
$DIMALTF
 40
25.4
  9
$DIMLFAC
 40
1.0
  9
$DIMTOFL
 70
     1
  9
$DIMTVP
 40
0.0
  9
$DIMTIX
 70
     0
  9
$DIMSOXD
 70
     0
  9
$DIMSAH
 70
     1
  9
$DIMBLK1
  1
OPEN30
  9
$DIMBLK2
  1
OPEN30
  9
$DIMSTYLE
  2
NEWX10
  9
$DIMCLRD
 70
   256
  9
$DIMCLRE
 70
   256
  9
$DIMCLRT
 70
   201
  9
$DIMTFAC
 40
0.7
  9
$DIMGAP
 40
0.7
  9
$DIMJUST
 70
     0
  9
$DIMSD1
 70
     0
  9
$DIMSD2
 70
     0
  9
$DIMTOLJ
 70
     1
  9
$DIMTZIN
 70
     8
  9
$DIMALTZ
 70
     0
  9
$DIMALTTZ
 70
     0
  9
$DIMFIT
 70
     3
  9
$DIMUPT
 70
     0
  9
$DIMUNIT
 70
     2
  9
$DIMDEC
 70
     2
  9
$DIMTDEC
 70
     4
  9
$DIMALTU
 70
     2
  9
$DIMALTTD
 70
     2
  9
$DIMTXSTY
  7
STANDARD
  9
$DIMAUNIT
 70
     0
  9
$LUNITS
 70
     2
  9
$LUPREC
 70
     4
  9
$SKETCHINC
 40
1.0
  9
$FILLETRAD
 40
0.0
  9
$AUNITS
 70
     0
  9
$AUPREC
 70
     2
  9
$MENU
  1
acad
  9
$ELEVATION
 40
0.0
  9
$PELEVATION
 40
0.0
  9
$THICKNESS
 40
0.0
  9
$LIMCHECK
 70
     0
  9
$CHAMFERA
 40
2.0
  9
$CHAMFERB
 40
2.0
  9
$CHAMFERC
 40
20.0
  9
$CHAMFERD
 40
0.0
  9
$SKPOLY
 70
     0
  9
$TDCREATE
 40
2451027.627421285
  9
$TDUPDATE
 40
2458080.774253461
  9
$TDINDWG
 40
12.0066521528
  9
$TDUSRTIMER
 40
12.0066517708
  9
$USRTIMER
 70
     1
  9
$ANGBASE
 50
0.0
  9
$ANGDIR
 70
     0
  9
$PDMODE
 70
     0
  9
$PDSIZE
 40
0.0
  9
$PLINEWID
 40
0.0
  9
$COORDS
 70
     3
  9
$SPLFRAME
 70
     0
  9
$SPLINETYPE
 70
     6
  9
$SPLINESEGS
 70
     8
  9
$ATTDIA
 70
     0
  9
$ATTREQ
 70
     1
  9
$HANDLING
 70
     1
  9
$HANDSEED
  5
A4722
  9
$SURFTAB1
 70
     6
  9
$SURFTAB2
 70
     6
  9
$SURFTYPE
 70
     6
  9
$SURFU
 70
     6
  9
$SURFV
 70
     6
  9
$UCSNAME
  2

  9
$UCSORG
 10
0.0
 20
0.0
 30
0.0
  9
$UCSXDIR
 10
1.0
 20
0.0
 30
0.0
  9
$UCSYDIR
 10
0.0
 20
1.0
 30
0.0
  9
$PUCSNAME
  2

  9
$PUCSORG
 10
0.0
 20
0.0
 30
0.0
  9
$PUCSXDIR
 10
1.0
 20
0.0
 30
0.0
  9
$PUCSYDIR
 10
0.0
 20
1.0
 30
0.0
  9
$USERI1
 70
     0
  9
$USERI2
 70
     0
  9
$USERI3
 70
     0
  9
$USERI4
 70
     0
  9
$USERI5
 70
     0
  9
$USERR1
 40
0.0
  9
$USERR2
 40
0.0
  9
$USERR3
 40
0.0
  9
$USERR4
 40
0.0
  9
$USERR5
 40
4.5
  9
$WORLDVIEW
 70
     1
  9
$SHADEDGE
 70
     1
  9
$SHADEDIF
 70
    70
  9
$TILEMODE
 70
     1
  9
$MAXACTVP
 70
    48
  9
$PINSBASE
 10
0.0
 20
0.0
 30
0.0
  9
$PLIMCHECK
 70
     0
  9
$PEXTMIN
 10
1.000000000000000E+20
 20
1.000000000000000E+20
 30
1.000000000000000E+20
  9
$PEXTMAX
 10
-1.000000000000000E+20
 20
-1.000000000000000E+20
 30
-1.000000000000000E+20
  9
$PLIMMIN
 10
-20.0
 20
-7.5
  9
$PLIMMAX
 10
277.0
 20
202.5
  9
$UNITMODE
 70
     0
  9
$VISRETAIN
 70
     1
  9
$PLINEGEN
 70
     0
  9
$PSLTSCALE
 70
     1
  9
$TREEDEPTH
 70
  3020
  9
$PICKSTYLE
 70
     1
  9
$CMLSTYLE
  2
STANDARD
  9
$CMLJUST
 70
     0
  9
$CMLSCALE
 40
20.0
  9
$SAVEIMAGES
 70
     1
  0
ENDSEC
  0
SECTION
  2
CLASSES
  0
CLASS
  1
IDBUFFER
  2
AcDbIdBuffer
  3
ObjectDBX Classes
 90
    32768
280
     0
281
     0
  0
CLASS
  1
DICTIONARYVAR
  2
AcDbDictionaryVar
  3
ObjectDBX Classes
 90
        0
280
     0
281
     0
  0
CLASS
  1
ACDBDICTIONARYWDFLT
  2
AcDbDictionaryWithDefault
  3
ObjectDBX Classes
 90
    32768
280
     0
281
     0
  0
CLASS
  1
TABLESTYLE
  2
AcDbTableStyle
  3
ObjectDBX Classes
 90
     4095
280
     0
281
     0
  0
CLASS
  1
ACDBPLACEHOLDER
  2
AcDbPlaceHolder
  3
ObjectDBX Classes
 90
        0
280
     0
281
     0
  0
CLASS
  1
LAYOUT
  2
AcDbLayout
  3
ObjectDBX Classes
 90
        0
280
     0
281
     0
  0
CLASS
  1
SORTENTSTABLE
  2
AcDbSortentsTable
  3
ObjectDBX Classes
 90
    32768
280
     0
281
     0
  0
CLASS
  1
DIMASSOC
  2
AcDbDimAssoc
  3
"AcDbDimAssoc|Product Desc:     AcDim ARX App For Dimension|Company:          Autodesk, Inc.|WEB Address:      www.autodesk.com"
 90
        0
280
     0
281
     0
  0
CLASS
  1
MATERIAL
  2
AcDbMaterial
  3
ObjectDBX Classes
 90
     1153
280
     0
281
     0
  0
CLASS
  1
VISUALSTYLE
  2
AcDbVisualStyle
  3
ObjectDBX Classes
 90
     4095
280
     0
281
     0
  0
CLASS
  1
SCALE
  2
AcDbScale
  3
ObjectDBX Classes
 90
     1153
280
     0
281
     0
  0
CLASS
  1
MLEADERSTYLE
  2
AcDbMLeaderStyle
  3
ACDB_MLEADERSTYLE_CLASS
 90
     4095
280
     0
281
     0
  0
CLASS
  1
CELLSTYLEMAP
  2
AcDbCellStyleMap
  3
ObjectDBX Classes
 90
     1152
280
     0
281
     0
  0
CLASS
  1
ACAD_EVALUATION_GRAPH
  2
AcDbEvalGraph
  3
ObjectDBX Classes
 90
     1153
280
     0
281
     0
  0
CLASS
  1
BLOCKLINEARPARAMETER
  2
AcDbBlockLinearParameter
  3
ObjectDBX Classes
 90
     1153
280
     0
281
     0
  0
CLASS
  1
BLOCKLINEARGRIP
  2
AcDbBlockLinearGrip
  3
ObjectDBX Classes
 90
     1153
280
     0
281
     0
  0
CLASS
  1
BLOCKGRIPLOCATIONCOMPONENT
  2
AcDbBlockGripExpr
  3
ObjectDBX Classes
 90
     1153
280
     0
281
     0
  0
CLASS
  1
BLOCKSTRETCHACTION
  2
AcDbBlockStretchAction
  3
ObjectDBX Classes
 90
     1153
280
     0
281
     0
  0
CLASS
  1
ACDB_DYNAMICBLOCKPURGEPREVENTER_VERSION
  2
AcDbDynamicBlockPurgePreventer
  3
ObjectDBX Classes
 90
     1153
280
     0
281
     0
  0
CLASS
  1
ACDB_BLOCKREPRESENTATION_DATA
  2
AcDbBlockRepresentationData
  3
ObjectDBX Classes
 90
     1153
280
     0
281
     0
  0
CLASS
  1
ACAECUSTOBJ
  2
AcAeEditorObj
  3
AcAeEditorObj
 90
   -31744
280
     1
281
     0
  0
CLASS
  1
LINEARPARAMETERENTITY
  2
AcDbBlockLinearParameterEntity
  3
ObjectDBX Classes
 90
   -31743
280
     1
281
     1
  0
CLASS
  1
ACAEEEMGROBJ
  2
AcAeEEMgrObj
  3
AcAeEEMgrObj
 90
   -31744
280
     1
281
     0
  0
CLASS
  1
LINEARGRIPENTITY
  2
AcDbBlockLinearGripEntity
  3
ObjectDBX Classes
 90
   -31743
280
     1
281
     1
  0
CLASS
  1
STRETCHACTIONENTITY
  2
AcDbBlockStretchActionEntity
  3
ObjectDBX Classes
 90
   -31743
280
     1
281
     1
  0
CLASS
  1
AEC_REFEDIT_STATUS_TRACKER
  2
AecDbRefEditStatusTracker
  3
AecArchBase60|Product Desc: Autodesk Architectural Desktop 2007 |Company: Autodesk,Inc. |WEB Address: www.autodesk.com
 90
   -32639
280
     1
281
     0
  0
CLASS
  1
NPOCOLLECTION
  2
AcDbImpNonPersistentObjectsCollection
  3
ObjectDBX Classes
 90
   -31615
280
     1
281
     0
  0
CLASS
  1
SOLID_BACKGROUND
  2
AcDbSolidBackground
  3
SCENEOE
 90
     4095
280
     0
281
     0
  0
CLASS
  1
IMAGE
  2
AcDbRasterImage
  3
ISM
 90
    32895
280
     0
281
     1
  0
CLASS
  1
IMAGEDEF_REACTOR
  2
AcDbRasterImageDefReactor
  3
ISM
 90
    32769
280
     0
281
     0
  0
CLASS
  1
IMAGEDEF
  2
AcDbRasterImageDef
  3
ISM
 90
    32768
280
     0
281
     0
  0
CLASS
  1
RASTERVARIABLES
  2
AcDbRasterVariables
  3
ISM
 90
    32768
280
     0
281
     0
  0
CLASS
  1
SUN
  2
AcDbSun
  3
SCENEOE
 90
     1153
280
     0
281
     0
  0
CLASS
  1
FIELD
  2
AcDbField
  3
ObjectDBX Classes
 90
     1152
280
     0
281
     0
  0
CLASS
  1
FIELDLIST
  2
AcDbFieldList
  3
ObjectDBX Classes
 90
     1152
280
     0
281
     0
  0
CLASS
  1

  2
CaLongTransaction
  3

 90
        0
280
     0
281
     0
  0
CLASS
  1
ACDB_BLKREFOBJECTCONTEXTDATA_CLASS
  2
AcDbBlkRefObjectContextData
  3
ObjectDBX Classes
 90
     1153
280
     0
281
     0
  0
CLASS
  1
MULTILEADER
  2
AcDbMLeader
  3
ACDB_MLEADER_CLASS
 90
     1025
280
     0
281
     1
  0
CLASS
  1
ACDB_MLEADEROBJECTCONTEXTDATA_CLASS
  2
AcDbMLeaderObjectContextData
  3
ObjectDBX Classes
 90
     1153
280
     0
281
     0
  0
CLASS
  1
ACDB_ALDIMOBJECTCONTEXTDATA_CLASS
  2
AcDbAlignedDimensionObjectContextData
  3
ObjectDBX Classes
 90
     1153
280
     0
281
     0
  0
CLASS
  1
MENTALRAYRENDERSETTINGS
  2
AcDbMentalRayRenderSettings
  3
SCENEOE
 90
     1024
280
     0
281
     0
  0
CLASS
  1
BLOCKVISIBILITYPARAMETER
  2
AcDbBlockVisibilityParameter
  3
ObjectDBX Classes
 90
     1153
280
     0
281
     0
  0
CLASS
  1
BLOCKVISIBILITYGRIP
  2
AcDbBlockVisibilityGrip
  3
ObjectDBX Classes
 90
     1153
280
     0
281
     0
  0
CLASS
  1
XRECORD
  2
AcDbXrecord
  3
ObjectDBX Classes
 90
    32768
280
     0
281
     0
  0
CLASS
  1
LWPOLYLINE
  2
AcDbPolyline
  3
ObjectDBX Classes
 90
    32768
280
     0
281
     1
  0
CLASS
  1
HATCH
  2
AcDbHatch
  3
ObjectDBX Classes
 90
    32768
280
     0
281
     1
  0
ENDSEC
  0
SECTION
  2
TABLES
  0
TABLE
  2
VPORT
  5
8
330
0
100
AcDbSymbolTable
 70
     1
  0
VPORT
  5
585BF
330
8
100
AcDbSymbolTableRecord
100
AcDbViewportTableRecord
  2
*ACTIVE
 70
     0
 10
0.0
 20
0.0
 11
1.0
 21
1.0
 12
-11076.50457600873
 22
-7487.294847325566
 13
0.0
 23
0.0
 14
10.0
 24
10.0
 15
10.0
 25
10.0
 16
0.0
 26
0.0
 36
1.0
 17
11061.660545
 27
7486.583649
 37
474.311593
 40
248.4975792107427
 41
2.122931442080378
 42
50.0
 43
0.0
 44
0.0
 50
0.0
 51
0.0
 71
    16
 72
  1000
 73
     1
 74
     1
 75
     0
 76
     0
 77
     0
 78
     0
1001
ACAD_NAV_VCDISPLAY
1070
     3
  0
ENDTAB
  0
TABLE
  2
LTYPE
  5
5
330
0
100
AcDbSymbolTable
 70
     3
  0
LTYPE
  5
12
330
5
100
AcDbSymbolTableRecord
100
AcDbLinetypeTableRecord
  2
BYBLOCK
 70
     0
  3

 72
    65
 73
     0
 40
0.0
  0
LTYPE
  5
13
330
5
100
AcDbSymbolTableRecord
100
AcDbLinetypeTableRecord
  2
BYLAYER
 70
     0
  3

 72
    65
 73
     0
 40
0.0
  0
LTYPE
  5
14
330
5
100
AcDbSymbolTableRecord
100
AcDbLinetypeTableRecord
  2
CONTINUOUS
 70
     0
  3
Solid line
 72
    65
 73
     0
 40
0.0
  0
LTYPE
  5
7E6BF
330
5
100
AcDbSymbolTableRecord
100
AcDbLinetypeTableRecord
  2
PHANTOM2
 70
     0
  3
Phantom (0.5x) ___ _ _ ___ _ _ ___ _ _ ___ _ _
 72
    65
 73
     6
 40
31.75
 49
15.875
 74
     0
 49
-3.175
 74
     0
 49
3.175
 74
     0
 49
-3.175
 74
     0
 49
3.175
 74
     0
 49
-3.175
 74
     0
  0
LTYPE
  5
A4308
330
5
100
AcDbSymbolTableRecord
100
AcDbLinetypeTableRecord
  2
CENTER2
 70
     0
  3
Center (.5x) ___ _ ___ _ ___ _ ___ _ ___ _ ___
 72
    65
 73
     4
 40
28.575
 49
19.05
 74
     0
 49
-3.175
 74
     0
 49
3.175
 74
     0
 49
-3.175
 74
     0
  0
ENDTAB
  0
TABLE
  2
LAYER
  5
2
102
{ACAD_XDICTIONARY
360
14879
102
}
330
0
100
AcDbSymbolTable
 70
     7
  0
LAYER
  5
E
102
{ACAD_XDICTIONARY
360
16FBC
102
}
330
2
100
AcDbSymbolTableRecord
100
AcDbLayerTableRecord
  2
0
 70
     0
 62
     7
  6
CONTINUOUS
  0
LAYER
  5
7CF1A
330
2
100
AcDbSymbolTableRecord
100
AcDbLayerTableRecord
  2
1CENTER
 70
     0
 62
     7
  6
CENTER2
  0
LAYER
  5
7CF1D
330
2
100
AcDbSymbolTableRecord
100
AcDbLayerTableRecord
  2
1DIM
 70
     0
 62
     7
  6
CONTINUOUS
  0
LAYER
  5
7CF54
330
2
100
AcDbSymbolTableRecord
100
AcDbLayerTableRecord
  2
1TEXT
 70
     0
 62
     7
  6
CONTINUOUS
  0
LAYER
  5
7E6CA
330
2
100
AcDbSymbolTableRecord
100
AcDbLayerTableRecord
  2
1PHANTOM
 70
     0
 62
     7
  6
PHANTOM2
  0
LAYER
  5
A4084
330
2
100
AcDbSymbolTableRecord
100
AcDbLayerTableRecord
  2
1HATCH
 70
     0
 62
     7
  6
CONTINUOUS
  0
LAYER
  5
A43CB
330
2
100
AcDbSymbolTableRecord
100
AcDbLayerTableRecord
  2
01
 70
     0
 62
     1
  6
CONTINUOUS
  0
ENDTAB
  0
TABLE
  2
STYLE
  5
3
330
0
100
AcDbSymbolTable
 70
     1
  0
STYLE
  5
F
330
3
100
AcDbSymbolTableRecord
100
AcDbTextStyleTableRecord
  2
STANDARD
 70
     0
 40
0.0
 41
1.0
 50
0.0
 71
     0
 42
4.0
  3
txt.shx
  4
extfont.shx
  0
ENDTAB
  0
TABLE
  2
VIEW
  5
6
330
0
100
AcDbSymbolTable
 70
     0
  0
ENDTAB
  0
TABLE
  2
UCS
  5
7
330
0
100
AcDbSymbolTable
 70
     5
  0
UCS
  5
150E1
330
7
100
AcDbSymbolTableRecord
100
AcDbUCSTableRecord
  2
U
 70
     0
 10
0.0
 20
0.0
 30
0.0
 11
1.0
 21
0.0
 31
0.0
 12
0.0
 22
2.220446049250313E-16
 32
1.0
 79
     0
146
0.0
  0
UCS
  5
150E2
330
7
100
AcDbSymbolTableRecord
100
AcDbUCSTableRecord
  2
L
 70
     0
 10
0.0
 20
0.0
 30
0.0
 11
-2.220446049250313E-16
 21
-1.0
 31
2.220446049250313E-16
 12
0.0
 22
2.220446049250313E-16
 32
1.0
 79
     0
146
0.0
  0
UCS
  5
150E3
330
7
100
AcDbSymbolTableRecord
100
AcDbUCSTableRecord
  2
R
 70
     0
 10
0.0
 20
0.0
 30
0.0
 11
3.445092848397667E-16
 21
1.0
 31
-2.220446049250313E-16
 12
0.0
 22
2.220446049250313E-16
 32
1.0
 79
     0
146
0.0
  0
UCS
  5
150E4
330
7
100
AcDbSymbolTableRecord
100
AcDbUCSTableRecord
  2
ISOME
 70
     0
 10
0.0
 20
0.0
 30
0.0
 11
0.7071450863198265
 21
-0.7070684729403536
 31
-3.830824619466267E-5
 12
0.4082704059428734
 22
0.4082704077401151
 32
0.8164744636514736
 79
     0
146
0.0
  0
UCS
  5
150E5
330
7
100
AcDbSymbolTableRecord
100
AcDbUCSTableRecord
  2
PERSPECTIVE
 70
     0
 10
0.0
 20
0.0
 30
0.0
 11
0.8191477691768964
 21
-0.5735823260466403
 31
-0.0004974931557765462
 12
0.1584844715982971
 22
0.225502028986108
 32
0.961265575782966
 79
     0
146
0.0
  0
ENDTAB
  0
TABLE
  2
APPID
  5
9
330
0
100
AcDbSymbolTable
 70
    32
  0
APPID
  5
10
330
9
100
AcDbSymbolTableRecord
100
AcDbRegAppTableRecord
  2
ACAD
 70
     0
  0
APPID
  5
39
330
9
100
AcDbSymbolTableRecord
100
AcDbRegAppTableRecord
  2
CONTENTTABDATA
 70
     0
  0
APPID
  5
3A
330
9
100
AcDbSymbolTableRecord
100
AcDbRegAppTableRecord
  2
CONTENTCURRENTTAB
 70
     0
  0
APPID
  5
3B
330
9
100
AcDbSymbolTableRecord
100
AcDbRegAppTableRecord
  2
CONTENTBLOCKICON
 70
     0
  0
APPID
  5
3C
330
9
100
AcDbSymbolTableRecord
100
AcDbRegAppTableRecord
  2
CONTENTBLOCKDESCRIPTION
 70
     0
  0
APPID
  5
5FA
330
9
100
AcDbSymbolTableRecord
100
AcDbRegAppTableRecord
  2
DRAWINGVARIABLESXDATA
 70
     0
  0
APPID
  5
6DE
330
9
100
AcDbSymbolTableRecord
100
AcDbRegAppTableRecord
  2
CONTENTLONGBLOCKNAME
 70
     0
  0
APPID
  5
1419A
330
9
100
AcDbSymbolTableRecord
100
AcDbRegAppTableRecord
  2
ACAD_PSEXT
 70
     0
  0
APPID
  5
16FA5
330
9
100
AcDbSymbolTableRecord
100
AcDbRegAppTableRecord
  2
ACAD_MLEADERVER
 70
     0
  0
APPID
  5
1786D
330
9
100
AcDbSymbolTableRecord
100
AcDbRegAppTableRecord
  2
ACAD_DSTYLE_DIMRADIAL_EXTE
 70
     0
  0
APPID
  5
194E7
330
9
100
AcDbSymbolTableRecord
100
AcDbRegAppTableRecord
  2
ACDBBLOCKREPETAG
 70
     0
  0
APPID
  5
194EE
330
9
100
AcDbSymbolTableRecord
100
AcDbRegAppTableRecord
  2
ACDBDYNAMICBLOCKTRUENAME
 70
     0
  0
APPID
  5
194EF
330
9
100
AcDbSymbolTableRecord
100
AcDbRegAppTableRecord
  2
ACDBDYNAMICBLOCKGUID
 70
     0
  0
APPID
  5
1955B
330
9
100
AcDbSymbolTableRecord
100
AcDbRegAppTableRecord
  2
ACDBBLOCKREPBTAG
 70
     0
  0
APPID
  5
1A99A
330
9
100
AcDbSymbolTableRecord
100
AcDbRegAppTableRecord
  2
ACADANNOTATIVE
 70
     0
  0
APPID
  5
1C397
330
9
100
AcDbSymbolTableRecord
100
AcDbRegAppTableRecord
  2
ACAUTHENVIRON
 70
     0
  0
APPID
  5
1C3F8
330
9
100
AcDbSymbolTableRecord
100
AcDbRegAppTableRecord
  2
ACADANNOPO
 70
     0
  0
APPID
  5
1E7E9
330
9
100
AcDbSymbolTableRecord
100
AcDbRegAppTableRecord
  2
ACLAYERTOOLS
 70
     0
  0
APPID
  5
25D98
330
9
100
AcDbSymbolTableRecord
100
AcDbRegAppTableRecord
  2
ACAD_EXEMPT_FROM_CAD_STAND
 70
     0
  0
APPID
  5
2992E
330
9
100
AcDbSymbolTableRecord
100
AcDbRegAppTableRecord
  2
ACAECLAYERSTANDARD
 70
     0
  0
APPID
  5
2992F
330
9
100
AcDbSymbolTableRecord
100
AcDbRegAppTableRecord
  2
ACAD_DSTYLE_DIMJOGGED_JOGA
 70
     0
  0
APPID
  5
2CC96
330
9
100
AcDbSymbolTableRecord
100
AcDbRegAppTableRecord
  2
ACAD_DSTYLE_DIM_LINETYPE
 70
     0
  0
APPID
  5
2CC97
330
9
100
AcDbSymbolTableRecord
100
AcDbRegAppTableRecord
  2
ACAD_DSTYLE_DIM_EXT1_LINET
 70
     0
  0
APPID
  5
2CC98
330
9
100
AcDbSymbolTableRecord
100
AcDbRegAppTableRecord
  2
ACAD_DSTYLE_DIM_EXT2_LINET
 70
     0
  0
APPID
  5
476E2
330
9
100
AcDbSymbolTableRecord
100
AcDbRegAppTableRecord
  2
ACAD_DIMASSOC_CALC_DIMLFAC
 70
     0
  0
APPID
  5
476E3
330
9
100
AcDbSymbolTableRecord
100
AcDbRegAppTableRecord
  2
ACAD_DIMASSOC_DIMLFAC
 70
     0
  0
APPID
  5
476E4
330
9
100
AcDbSymbolTableRecord
100
AcDbRegAppTableRecord
  2
ACAD_DIMASSOC_OVERRIDDEN_D
 70
     0
  0
APPID
  5
62D16
330
9
100
AcDbSymbolTableRecord
100
AcDbRegAppTableRecord
  2
ACAD_NAV_VCDISPLAY
 70
     0
  0
APPID
  5
6D82E
330
9
100
AcDbSymbolTableRecord
100
AcDbRegAppTableRecord
  2
ACAD_OBJECT_CHANGE_GUID
 70
     0
  0
APPID
  5
7E452
330
9
100
AcDbSymbolTableRecord
100
AcDbRegAppTableRecord
  2
ACADANNOTATIVEDECOMPOSITIO
 70
     0
  0
APPID
  5
7F000
330
9
100
AcDbSymbolTableRecord
100
AcDbRegAppTableRecord
  2
ACAD_DSTYLE_DIMJAG
 70
     0
  0
APPID
  5
7F001
330
9
100
AcDbSymbolTableRecord
100
AcDbRegAppTableRecord
  2
ACAD_DSTYLE_DIMTALN
 70
     0
  0
ENDTAB
  0
TABLE
  2
DIMSTYLE
  5
A
330
0
100
AcDbSymbolTable
 70
     1
  0
DIMSTYLE
105
49
102
{ACAD_REACTORS
102
}
330
A
100
AcDbSymbolTableRecord
100
AcDbDimStyleTableRecord
  2
NEWX10
 70
     0
  3
 
  4

  5

  6
OPEN30
  7
OPEN30
 40
1.0
 41
2.0
 42
0.0
 43
7.0
 44
1.0
 45
0.0
 46
0.0
 47
0.0
 48
0.0
140
3.5
141
0.0
142
0.0
143
25.4
144
1.0
145
0.0
146
0.7
147
0.7
 71
     0
 72
     0
 73
     0
 74
     0
 75
     0
 76
     0
 77
     1
 78
     8
170
     0
171
     2
172
     1
173
     1
174
     0
175
     0
176
   256
177
   256
178
   201
179
     1
270
     2
271
     2
272
     4
273
     2
274
     2
340
F
275
     0
280
     0
281
     0
282
     0
283
     1
284
     8
285
     0
286
     0
287
     3
288
     0
1001
ACADANNOTATIVE
1000
AnnotativeData
1002
{
1070
     1
1070
     0
1002
}
  0
ENDTAB
  0
TABLE
  2
BLOCK_RECORD
  5
1
330
0
100
AcDbSymbolTable
 70
     8
  0
BLOCK_RECORD
  5
18
102
{ACAD_XDICTIONARY
360
143BD
102
}
330
1
100
AcDbSymbolTableRecord
100
AcDbBlockTableRecord
  2
*MODEL_SPACE
  0
BLOCK_RECORD
  5
7DA16
102
{ACAD_XDICTIONARY
360
A337D
102
}
330
1
100
AcDbSymbolTableRecord
100
AcDbBlockTableRecord
  2
*PAPER_SPACE
  0
BLOCK_RECORD
  5
2EF
330
1
100
AcDbSymbolTableRecord
100
AcDbBlockTableRecord
  2
_OPEN30
  0
BLOCK_RECORD
  5
7CFD4
330
1
100
AcDbSymbolTableRecord
100
AcDbBlockTableRecord
  2
A3WAKUKAWAJUN2017_HYOUDAI_
  0
BLOCK_RECORD
  5
A4581
330
1
100
AcDbSymbolTableRecord
100
AcDbBlockTableRecord
  2
*X38
  0
BLOCK_RECORD
  5
A45CF
330
1
100
AcDbSymbolTableRecord
100
AcDbBlockTableRecord
  2
*X39
  0
BLOCK_RECORD
  5
A4621
330
1
100
AcDbSymbolTableRecord
100
AcDbBlockTableRecord
  2
*X40
  0
BLOCK_RECORD
  5
A4672
330
1
100
AcDbSymbolTableRecord
100
AcDbBlockTableRecord
  2
*X41
  0
BLOCK_RECORD
  5
A46AF
330
1
100
AcDbSymbolTableRecord
100
AcDbBlockTableRecord
  2
*X42
  0
BLOCK_RECORD
  5
A46EF
330
1
100
AcDbSymbolTableRecord
100
AcDbBlockTableRecord
  2
*X43
  0
ENDTAB
  0
ENDSEC
  0
SECTION
  2
BLOCKS
  0
BLOCK
  5
19
330
18
100
AcDbEntity
  8
0
100
AcDbBlockBegin
  2
*MODEL_SPACE
 70
     0
 10
0.0
 20
0.0
 30
0.0
  3
*MODEL_SPACE
  1

  0
ENDBLK
  5
1A
330
18
100
AcDbEntity
  8
0
100
AcDbBlockEnd
  0
BLOCK
  5
7DA18
330
7DA16
100
AcDbEntity
 67
     1
  8
0
100
AcDbBlockBegin
  2
*PAPER_SPACE
 70
     0
 10
0.0
 20
0.0
 30
0.0
  3
*PAPER_SPACE
  1

  0
ENDBLK
  5
7DA19
330
7DA16
100
AcDbEntity
 67
     1
  8
0
100
AcDbBlockEnd
  0
BLOCK
  5
2F0
330
2EF
100
AcDbEntity
  8
0
100
AcDbBlockBegin
  2
_OPEN30
 70
     0
 10
0.0
 20
0.0
 30
0.0
  3
_OPEN30
  1

  0
LINE
  5
2F1
330
2EF
100
AcDbEntity
  8
0
  6
BYBLOCK
 62
     0
100
AcDbLine
 10
-1.0
 20
0.267949
 30
0.0
 11
0.0
 21
0.0
 31
0.0
  0
LINE
  5
2F2
330
2EF
100
AcDbEntity
  8
0
  6
BYBLOCK
 62
     0
100
AcDbLine
 10
0.0
 20
0.0
 30
0.0
 11
-1.0
 21
-0.267949
 31
0.0
  0
LINE
  5
2F3
330
2EF
100
AcDbEntity
  8
0
  6
BYBLOCK
 62
     0
100
AcDbLine
 10
0.0
 20
0.0
 30
0.0
 11
-1.0
 21
0.0
 31
0.0
  0
ENDBLK
  5
2F4
330
2EF
100
AcDbEntity
  8
0
100
AcDbBlockEnd
  0
BLOCK
  5
9481F
330
7CFD4
100
AcDbEntity
  8
0
100
AcDbBlockBegin
  2
A3WAKUKAWAJUN2017_HYOUDAI_
 70
     0
 10
0.0
 20
0.0
 30
0.0
  3
A3WAKUKAWAJUN2017_HYOUDAI_
  1

  0
LINE
  5
940D1
330
7CFD4
100
AcDbEntity
  8
0
100
AcDbLine
 10
13.26299999998673
 20
-0.0001000000000317
 30
0.0
 11
9.236999999990758
 21
8.999899999990987
 31
0.0
1001
ACAD
1000
ASC_BOUNDS
1002
{
1070
    19
1005
94112
1002
}
  0
LINE
  5
940D2
330
7CFD4
100
AcDbEntity
  8
0
100
AcDbLine
 10
5.657999999994331
 20
0.9999999999989768
 30
0.0
 11
9.236999999990758
 21
8.999999999991019
 31
0.0
1001
ACAD
1000
ASC_BOUNDS
1002
{
1070
    19
1005
94112
1002
}
  0
LINE
  5
940D3
330
7CFD4
100
AcDbEntity
  8
0
100
AcDbLine
 10
18.59199999998134
 20
-0.2368999999997641
 30
0.0
 11
16.46099999998353
 21
5.432899999994561
 31
0.0
1001
ACAD
1000
ASC_BOUNDS
1002
{
1070
    19
1005
94113
1002
}
  0
LINE
  5
940D4
330
7CFD4
100
AcDbEntity
  8
0
100
AcDbLine
 10
18.59199999998134
 20
-0.2368999999997641
 30
0.0
 11
22.38199999997767
 21
8.763099999991255
 31
0.0
1001
ACAD
1000
ASC_BOUNDS
1002
{
1070
    19
1005
94113
1002
}
  0
LINE
  5
940D5
330
7CFD4
100
AcDbEntity
  8
0
100
AcDbLine
 10
14.32899999998563
 20
-0.2368999999997641
 30
0.0
 11
16.46099999998353
 21
5.432899999994561
 31
0.0
1001
ACAD
1000
ASC_BOUNDS
1002
{
1070
    19
1005
94113
1002
}
  0
LINE
  5
940D6
330
7CFD4
100
AcDbEntity
  8
0
100
AcDbLine
 10
14.32899999998563
 20
-0.2368999999997641
 30
0.0
 11
10.53899999998941
 21
8.763099999991255
 31
0.0
1001
ACAD
1000
ASC_BOUNDS
1002
{
1070
    19
1005
94113
1002
}
  0
LINE
  5
940D7
330
7CFD4
100
AcDbEntity
  8
0
100
AcDbLine
 10
19.53899999998043
 20
-0.0001000000000317
 30
0.0
 11
23.56599999997638
 21
8.999899999990987
 31
0.0
1001
ACAD
1000
ASC_BOUNDS
1002
{
1070
    19
1005
94114
1002
}
  0
LINE
  5
940D8
330
7CFD4
100
AcDbEntity
  8
0
100
AcDbLine
 10
26.97358892824991
 20
1.383099999991202
 30
0.0
 11
23.56599999997638
 21
8.999899999990987
 31
0.0
1001
ACAD
1000
ASC_BOUNDS
1002
{
1070
    19
1005
94114
1002
}
  0
LINE
  5
940D9
330
7CFD4
100
AcDbEntity
  8
0
100
AcDbLine
 10
5.657999999994331
 20
0.9999999999989768
 30
0.0
 11
3.181999999996833
 21
4.668599999995308
 31
0.0
1001
ACAD
1000
ASC_BOUNDS
1002
{
1070
    19
1005
94112
1002
}
  0
LINE
  5
940DA
330
7CFD4
100
AcDbEntity
  8
0
100
AcDbLine
 10
4.617999999995391
 20
-0.0001000000000317
 30
0.0
 11
1.420999999998571
 21
4.736799999995242
 31
0.0
1001
ACAD
1000
ASC_BOUNDS
1002
{
1070
    19
1005
94112
1002
}
  0
LINE
  5
940DB
330
7CFD4
100
AcDbEntity
  8
0
100
AcDbLine
 10
1.420999999998571
 20
8.763099999991255
 30
0.0
 11
1.420999999998571
 21
0.0
 31
0.0
1001
ACAD
1000
ASC_BOUNDS
1002
{
1070
    19
1005
94117
1002
}
  0
LINE
  5
940DC
330
7CFD4
100
AcDbEntity
  8
0
100
AcDbLine
 10
0.0
 20
8.763099999991255
 30
0.0
 11
0.0
 21
0.0
 31
0.0
1001
ACAD
1000
ASC_BOUNDS
1002
{
1070
    19
1005
94117
1002
}
  0
LINE
  5
940DD
330
7CFD4
100
AcDbEntity
  8
0
100
AcDbLine
 10
6.766999999993232
 20
-0.0001000000000317
 30
0.0
 11
7.826999999992154
 21
2.368399999997621
 31
0.0
1001
ACAD
1000
ASC_BOUNDS
1002
{
1070
    19
1005
94112
1002
}
  0
LINE
  5
940DE
330
7CFD4
100
AcDbEntity
  8
0
100
AcDbLine
 10
0.0
 20
0.0
 30
0.0
 11
1.420999999998571
 21
0.0
 31
0.0
1001
ACAD
1000
ASC_BOUNDS
1002
{
1070
    19
1005
94117
1002
}
  0
LINE
  5
940DF
330
7CFD4
100
AcDbEntity
  8
0
100
AcDbLine
 10
4.617999999995391
 20
0.0
 30
0.0
 11
6.766999999993232
 21
0.0
 31
0.0
1001
ACAD
1000
ASC_BOUNDS
1002
{
1070
    19
1005
94112
1002
}
  0
LINE
  5
940E0
330
7CFD4
100
AcDbEntity
  8
0
100
AcDbLine
 10
11.70599999998831
 20
-0.0001000000000317
 30
0.0
 11
10.64699999998936
 21
2.368399999997621
 31
0.0
1001
ACAD
1000
ASC_BOUNDS
1002
{
1070
    19
1005
94112
1002
}
  0
LINE
  5
940E1
330
7CFD4
100
AcDbEntity
  8
0
100
AcDbLine
 10
7.826999999992154
 20
2.368399999997621
 30
0.0
 11
10.64699999998936
 21
2.368399999997621
 31
0.0
1001
ACAD
1000
ASC_BOUNDS
1002
{
1070
    19
1005
94112
1002
}
  0
LINE
  5
940E2
330
7CFD4
100
AcDbEntity
  8
0
100
AcDbLine
 10
11.70599999998831
 20
0.0
 30
0.0
 11
13.26299999998673
 21
0.0
 31
0.0
1001
ACAD
1000
ASC_BOUNDS
1002
{
1070
    19
1005
94112
1002
}
  0
LINE
  5
940E3
330
7CFD4
100
AcDbEntity
  8
0
100
AcDbLine
 10
22.15599999997789
 20
2.368399999997621
 30
0.0
 11
24.97599999997499
 21
2.368399999997621
 31
0.0
1001
ACAD
1000
ASC_BOUNDS
1002
{
1070
    19
1005
94114
1002
}
  0
LINE
  5
940E4
330
7CFD4
100
AcDbEntity
  8
0
100
AcDbLine
 10
19.53899999998043
 20
0.0
 30
0.0
 11
21.09599999997886
 21
0.0
 31
0.0
1001
ACAD
1000
ASC_BOUNDS
1002
{
1070
    19
1005
94114
1002
}
  0
LINE
  5
940E5
330
7CFD4
100
AcDbEntity
  8
0
100
AcDbLine
 10
21.09599999997886
 20
-0.0001000000000317
 30
0.0
 11
22.15599999997789
 21
2.368399999997621
 31
0.0
1001
ACAD
1000
ASC_BOUNDS
1002
{
1070
    19
1005
94114
1002
}
  0
LINE
  5
940E6
330
7CFD4
100
AcDbEntity
  8
0
100
AcDbLine
 10
26.02015566812236
 20
0.0330999999912365
 30
0.0
 11
24.97599999997499
 21
2.368399999997621
 31
0.0
1001
ACAD
1000
ASC_BOUNDS
1002
{
1070
    19
1005
94114
1002
}
  0
LINE
  5
940E7
330
7CFD4
100
AcDbEntity
  8
0
100
AcDbLine
 10
14.32399999998563
 20
3.315799999996671
 30
0.0
 11
16.46099999998353
 21
8.999899999990987
 31
0.0
1001
ACAD
1000
ASC_BOUNDS
1002
{
1070
    19
1005
94113
1002
}
  0
LINE
  5
940E8
330
7CFD4
100
AcDbEntity
  8
0
100
AcDbLine
 10
6.432999999993513
 20
8.763099999991255
 30
0.0
 11
3.181999999996833
 21
4.668599999995308
 31
0.0
1001
ACAD
1000
ASC_BOUNDS
1002
{
1070
    19
1005
94112
1002
}
  0
LINE
  5
940E9
330
7CFD4
100
AcDbEntity
  8
0
100
AcDbLine
 10
4.617999999995391
 20
8.763099999991255
 30
0.0
 11
1.420999999998571
 21
4.736799999995242
 31
0.0
1001
ACAD
1000
ASC_BOUNDS
1002
{
1070
    19
1005
94112
1002
}
  0
LINE
  5
940EA
330
7CFD4
100
AcDbEntity
  8
0
100
AcDbLine
 10
0.0
 20
8.763099999991255
 30
0.0
 11
1.420999999998571
 21
8.763099999991255
 31
0.0
1001
ACAD
1000
ASC_BOUNDS
1002
{
1070
    19
1005
94117
1002
}
  0
LINE
  5
940EB
330
7CFD4
100
AcDbEntity
  8
0
100
AcDbLine
 10
4.617999999995391
 20
8.763099999991255
 30
0.0
 11
6.432999999993513
 21
8.763099999991255
 31
0.0
1001
ACAD
1000
ASC_BOUNDS
1002
{
1070
    19
1005
94112
1002
}
  0
LINE
  5
940EC
330
7CFD4
100
AcDbEntity
  8
0
100
AcDbLine
 10
14.32399999998563
 20
3.315799999996671
 30
0.0
 11
12.02999999998792
 21
8.763099999991255
 31
0.0
1001
ACAD
1000
ASC_BOUNDS
1002
{
1070
    19
1005
94113
1002
}
  0
LINE
  5
940ED
330
7CFD4
100
AcDbEntity
  8
0
100
AcDbLine
 10
10.06399999998996
 20
3.670999999996297
 30
0.0
 11
9.236999999990758
 21
5.5200999999945
 31
0.0
1001
ACAD
1000
ASC_BOUNDS
1002
{
1070
    19
1005
94112
1002
}
  0
LINE
  5
940EE
330
7CFD4
100
AcDbEntity
  8
0
100
AcDbLine
 10
8.409999999991555
 20
3.670999999996297
 30
0.0
 11
9.236999999990758
 21
5.5200999999945
 31
0.0
1001
ACAD
1000
ASC_BOUNDS
1002
{
1070
    19
1005
94112
1002
}
  0
LINE
  5
940EF
330
7CFD4
100
AcDbEntity
  8
0
100
AcDbLine
 10
8.409999999991555
 20
3.670999999996297
 30
0.0
 11
10.06399999998996
 21
3.670999999996297
 31
0.0
1001
ACAD
1000
ASC_BOUNDS
1002
{
1070
    19
1005
94112
1002
}
  0
LINE
  5
940F0
330
7CFD4
100
AcDbEntity
  8
0
100
AcDbLine
 10
10.53899999998941
 20
8.763099999991255
 30
0.0
 11
12.02999999998792
 21
8.763099999991255
 31
0.0
1001
ACAD
1000
ASC_BOUNDS
1002
{
1070
    19
1005
94113
1002
}
  0
LINE
  5
940F1
330
7CFD4
100
AcDbEntity
  8
0
100
AcDbLine
 10
22.7389999999773
 20
3.670999999996297
 30
0.0
 11
23.56599999997638
 21
5.5200999999945
 31
0.0
1001
ACAD
1000
ASC_BOUNDS
1002
{
1070
    19
1005
94114
1002
}
  0
LINE
  5
940F2
330
7CFD4
100
AcDbEntity
  8
0
100
AcDbLine
 10
22.7389999999773
 20
3.670999999996297
 30
0.0
 11
24.39299999997559
 21
3.670999999996297
 31
0.0
1001
ACAD
1000
ASC_BOUNDS
1002
{
1070
    19
1005
94114
1002
}
  0
LINE
  5
940F3
330
7CFD4
100
AcDbEntity
  8
0
100
AcDbLine
 10
18.59799999998143
 20
3.315799999996671
 30
0.0
 11
20.89099999997916
 21
8.763099999991255
 31
0.0
1001
ACAD
1000
ASC_BOUNDS
1002
{
1070
    19
1005
94113
1002
}
  0
LINE
  5
940F4
330
7CFD4
100
AcDbEntity
  8
0
100
AcDbLine
 10
18.59799999998143
 20
3.315799999996671
 30
0.0
 11
16.46099999998353
 21
8.999899999990987
 31
0.0
1001
ACAD
1000
ASC_BOUNDS
1002
{
1070
    19
1005
94113
1002
}
  0
LINE
  5
940F5
330
7CFD4
100
AcDbEntity
  8
0
100
AcDbLine
 10
20.89099999997916
 20
8.763099999991255
 30
0.0
 11
22.38199999997767
 21
8.763099999991255
 31
0.0
1001
ACAD
1000
ASC_BOUNDS
1002
{
1070
    19
1005
94113
1002
}
  0
LINE
  5
940F6
330
7CFD4
100
AcDbEntity
  8
0
100
AcDbLine
 10
24.39299999997559
 20
3.670999999996297
 30
0.0
 11
23.56599999997638
 21
5.5200999999945
 31
0.0
1001
ACAD
1000
ASC_BOUNDS
1002
{
1070
    19
1005
94114
1002
}
  0
LINE
  5
940F7
330
7CFD4
100
AcDbEntity
  8
0
100
AcDbLine
 10
44.99999999995498
 20
-0.2368999999997641
 30
0.0
 11
40.02599999995994
 21
5.341799999994635
 31
0.0
1001
ACAD
1000
ASC_BOUNDS
1002
{
1070
    19
1005
94116
1002
}
  0
LINE
  5
940F8
330
7CFD4
100
AcDbEntity
  8
0
100
AcDbLine
 10
40.02599999995994
 20
5.341799999994635
 30
0.0
 11
40.02599999995994
 21
0.0
 31
0.0
1001
ACAD
1000
ASC_BOUNDS
1002
{
1070
    19
1005
94116
1002
}
  0
LINE
  5
940F9
330
7CFD4
100
AcDbEntity
  8
0
100
AcDbLine
 10
38.60499999996136
 20
8.999999999991019
 30
0.0
 11
38.60499999996136
 21
0.0
 31
0.0
1001
ACAD
1000
ASC_BOUNDS
1002
{
1070
    19
1005
94116
1002
}
  0
LINE
  5
940FA
330
7CFD4
100
AcDbEntity
  8
0
100
AcDbLine
 10
44.99999999995498
 20
8.763099999991255
 30
0.0
 11
44.99999999995498
 21
-0.2368999999997641
 31
0.0
1001
ACAD
1000
ASC_BOUNDS
1002
{
1070
    19
1005
94116
1002
}
  0
LINE
  5
940FB
330
7CFD4
100
AcDbEntity
  8
0
100
AcDbLine
 10
38.60499999996136
 20
0.0
 30
0.0
 11
40.02599999995994
 21
0.0
 31
0.0
1001
ACAD
1000
ASC_BOUNDS
1002
{
1070
    19
1005
94116
1002
}
  0
LINE
  5
940FC
330
7CFD4
100
AcDbEntity
  8
0
100
AcDbLine
 10
43.57899999995641
 20
3.421199999996588
 30
0.0
 11
38.60499999996136
 21
8.999899999990987
 31
0.0
1001
ACAD
1000
ASC_BOUNDS
1002
{
1070
    19
1005
94116
1002
}
  0
LINE
  5
940FD
330
7CFD4
100
AcDbEntity
  8
0
100
AcDbLine
 10
43.57899999995641
 20
8.763099999991255
 30
0.0
 11
43.57899999995641
 21
3.421199999996588
 31
0.0
1001
ACAD
1000
ASC_BOUNDS
1002
{
1070
    19
1005
94116
1002
}
  0
LINE
  5
940FE
330
7CFD4
100
AcDbEntity
  8
0
100
AcDbLine
 10
43.57899999995641
 20
8.763099999991255
 30
0.0
 11
44.99999999995498
 21
8.763099999991255
 31
0.0
1001
ACAD
1000
ASC_BOUNDS
1002
{
1070
    19
1005
94116
1002
}
  0
LINE
  5
940FF
330
7CFD4
100
AcDbEntity
  8
0
100
AcDbLine
 10
37.67199999996831
 20
8.763099999991255
 30
0.0
 11
36.23199999996837
 21
8.763099999991255
 31
0.0
  0
LINE
  5
94100
330
7CFD4
100
AcDbEntity
  8
0
100
AcDbLine
 10
31.64199999996833
 20
8.763099999991255
 30
0.0
 11
31.64199999996833
 21
2.481619422925121
 31
0.0
  0
LINE
  5
94101
330
7CFD4
100
AcDbEntity
  8
0
100
AcDbLine
 10
37.67199999996831
 20
8.763099999991255
 30
0.0
 11
37.67199999996831
 21
2.481619422925121
 31
0.0
  0
LINE
  5
94102
330
7CFD4
100
AcDbEntity
  8
0
100
AcDbLine
 10
36.23199999996837
 20
8.763099999991255
 30
0.0
 11
36.23199999996837
 21
2.481619422925064
 31
0.0
  0
LINE
  5
94103
330
7CFD4
100
AcDbEntity
  8
0
100
AcDbLine
 10
33.08199999996839
 20
8.763099999991255
 30
0.0
 11
33.08199999996839
 21
2.481619422925121
 31
0.0
  0
ARC
  5
94104
330
7CFD4
100
AcDbEntity
  8
0
100
AcDbCircle
 10
34.65699999996832
 20
3.183099999991214
 30
0.0
 40
3.420000000000007
100
AcDbArc
 50
240.0000000000255
 51
299.9999999999766
  0
ARC
  5
94105
330
7CFD4
100
AcDbEntity
  8
0
100
AcDbCircle
 10
34.65699999996832
 20
3.183099999991214
 30
0.0
 40
1.97999999999999
100
AcDbArc
 50
240.000000000026
 51
299.9999999999703
  0
LINE
  5
94106
330
7CFD4
100
AcDbEntity
  8
0
100
AcDbLine
 10
33.08199999996828
 20
8.763099999991255
 30
0.0
 11
31.64199999996833
 21
8.763099999991255
 31
0.0
  0
ARC
  5
94107
330
7CFD4
100
AcDbEntity
  8
0
100
AcDbCircle
 10
35.06199999996829
 20
2.481619422925064
 30
0.0
 40
1.17
100
AcDbArc
 50
299.9999999999699
 51
0.0
  0
ARC
  5
94108
330
7CFD4
100
AcDbEntity
  8
0
100
AcDbCircle
 10
34.25199999996835
 20
2.481619422925121
 30
0.0
 40
1.17
100
AcDbArc
 50
180.0
 51
240.0000000000238
  0
ARC
  5
94109
330
7CFD4
100
AcDbEntity
  8
0
100
AcDbCircle
 10
35.06199999996841
 20
2.481619422925121
 30
0.0
 40
2.61
100
AcDbArc
 50
299.9999999999756
 51
0.0
  0
ARC
  5
9410A
330
7CFD4
100
AcDbEntity
  8
0
100
AcDbCircle
 10
34.25199999996835
 20
2.481619422925121
 30
0.0
 40
2.61
100
AcDbArc
 50
180.0
 51
240.0000000000244
  0
LINE
  5
9410B
330
7CFD4
100
AcDbEntity
  8
0
100
AcDbLine
 10
29.30199999996933
 20
8.763099999991255
 30
0.0
 11
30.74199999996927
 21
8.763099999991255
 31
0.0
1001
ACAD
1000
ASC_BOUNDS
1002
{
1070
    19
1005
94114
1002
}
  0
LINE
  5
9410C
330
7CFD4
100
AcDbEntity
  8
0
100
AcDbLine
 10
30.74199999996927
 20
8.763099999991255
 30
0.0
 11
30.74199999996927
 21
2.373099999991211
 31
0.0
1001
ACAD
1000
ASC_BOUNDS
1002
{
1070
    19
1005
94114
1002
}
  0
LINE
  5
9410D
330
7CFD4
100
AcDbEntity
  8
0
100
AcDbLine
 10
26.02015566812236
 20
0.0330999999912365
 30
0.0
 11
28.40199999996923
 21
0.0330999999912365
 31
0.0
1001
ACAD
1000
ASC_BOUNDS
1002
{
1070
    19
1005
94114
1002
}
  0
LINE
  5
9410E
330
7CFD4
100
AcDbEntity
  8
0
100
AcDbLine
 10
29.30199999996933
 20
8.763099999991255
 30
0.0
 11
29.30199999996933
 21
2.283099999991236
 31
0.0
1001
ACAD
1000
ASC_BOUNDS
1002
{
1070
    19
1005
94114
1002
}
  0
LINE
  5
9410F
330
7CFD4
100
AcDbEntity
  8
0
100
AcDbLine
 10
26.97358892824991
 20
1.383099999991202
 30
0.0
 11
28.40199999996923
 21
1.383099999991202
 31
0.0
1001
ACAD
1000
ASC_BOUNDS
1002
{
1070
    19
1005
94114
1002
}
  0
ARC
  5
94110
330
7CFD4
100
AcDbEntity
  8
0
100
AcDbCircle
 10
28.40199999996923
 20
2.283099999991236
 30
0.0
 40
0.9
100
AcDbArc
 50
270.0
 51
0.0
1001
ACAD
1000
ASC_BOUNDS
1002
{
1070
    19
1005
94114
1002
}
  0
ARC
  5
94111
330
7CFD4
100
AcDbEntity
  8
0
100
AcDbCircle
 10
28.40199999996923
 20
2.373099999991211
 30
0.0
 40
2.34
100
AcDbArc
 50
270.0
 51
0.0
1001
ACAD
1000
ASC_BOUNDS
1002
{
1070
    19
1005
94114
1002
}
  0
INSERT
  5
94112
330
7CFD4
100
AcDbEntity
  8
0
100
AcDbBlockReference
  2
*X38
 10
0.0
 20
0.0
 30
0.0
1001
ACAD
1000
HATCH
1002
{
1070
    19
1000
ANSI37
1040
0.15
1040
0.0
1000
ASC_BOUNDS
1070
     2
1070
     2
1070
    12
1005
940D1
1005
940D2
1005
940D9
1005
940E8
1005
940EB
1005
940E9
1005
940DA
1005
940DF
1005
940DD
1005
940E1
1005
940E0
1005
940E2
1070
     2
1070
     3
1005
940ED
1005
940EF
1005
940EE
1000
ASC_SEEDPOINT
1011
3.614004224891801
1021
2.996669441146025
1031
0.0
1000
R14_HATCH_DATA
1000
94112
1011
1.0
1021
0.0
1031
0.0
1011
0.0
1021
1.0
1031
0.0
1011
0.0
1021
0.0
1031
1.0
1040
0.0
1010
0.0
1020
0.0
1030
1.0
1000
ANSI37
1070
     0
1070
     1
1071
        2
1071
        7
1070
     0
1070
     1
1071
       17
1040
13.26299999998673
1040
-0.0001000000000317
1040
9.236999999990758
1040
8.999899999990987
1040
9.236999999990758
1040
8.999999999991019
1040
5.657999999994331
1040
0.9999999999989768
1040
3.181999999996833
1040
4.668599999995308
1040
6.432999999993513
1040
8.763099999991255
1040
4.617999999995391
1040
8.763099999991255
1040
1.420999999998571
1040
4.736799999995242
1040
4.617999999995391
1040
-0.0001000000000317
1040
4.617999999995391
1040
0.0
1040
6.766999999993232
1040
0.0
1040
6.766999999993232
1040
-0.0001000000000317
1040
7.826999999992154
1040
2.368399999997621
1040
10.64699999998936
1040
2.368399999997621
1040
11.70599999998831
1040
-0.0001000000000317
1040
11.70599999998831
1040
0.0
1040
13.26299999998673
1040
0.0
1071
       12
1005
940D1
1005
940D2
1005
940D9
1005
940E8
1005
940EB
1005
940E9
1005
940DA
1005
940DF
1005
940DD
1005
940E1
1005
940E0
1005
940E2
1071
       22
1070
     0
1070
     1
1071
        3
1040
9.236999999990758
1040
5.5200999999945
1040
10.06399999998996
1040
3.670999999996297
1040
8.409999999991555
1040
3.670999999996297
1071
        3
1005
940ED
1005
940EF
1005
940EE
1070
     0
1070
     1
1040
0.0
1040
0.15
1070
     0
1070
     2
1040
0.7853981633974483
1040
49.29960901727088
1040
-10.17736998311392
1040
-0.3367596045400932
1040
0.3367596045400932
1070
     0
1040
2.356194490192345
1040
49.29960901727088
1040
-10.17736998311392
1040
-0.3367596045400932
1040
-0.3367596045400932
1070
     0
1040
0.0110235143455945
1071
        2
1040
3.614004224891801
1040
2.996669441146025
1040
0.0
1040
3.614004224891801
1040
2.996669441146025
1040
0.0
1002
}
  0
INSERT
  5
94113
330
7CFD4
100
AcDbEntity
  8
0
100
AcDbBlockReference
  2
*X39
 10
0.0
 20
0.0
 30
0.0
1001
ACAD
1000
HATCH
1002
{
1070
    19
1000
ANSI37
1040
0.15
1040
0.0
1000
ASC_BOUNDS
1070
     1
1070
     2
1070
    10
1005
940D3
1005
940D4
1005
940F5
1005
940F3
1005
940F4
1005
940E7
1005
940EC
1005
940F0
1005
940D6
1005
940D5
1000
ASC_SEEDPOINT
1011
14.73245321214324
1021
2.798246178283421
1031
0.0
1000
R14_HATCH_DATA
1000
94113
1011
1.0
1021
0.0
1031
0.0
1011
0.0
1021
1.0
1031
0.0
1011
0.0
1021
0.0
1031
1.0
1040
0.0
1010
0.0
1020
0.0
1030
1.0
1000
ANSI37
1070
     0
1070
     1
1071
        1
1071
        7
1070
     0
1070
     1
1071
       10
1040
16.46099999998353
1040
5.432899999994561
1040
18.59199999998134
1040
-0.2368999999997641
1040
22.38199999997767
1040
8.763099999991255
1040
20.89099999997916
1040
8.763099999991255
1040
18.59799999998143
1040
3.315799999996671
1040
16.46099999998353
1040
8.999899999990987
1040
14.32399999998563
1040
3.315799999996671
1040
12.02999999998792
1040
8.763099999991255
1040
10.53899999998941
1040
8.763099999991255
1040
14.32899999998563
1040
-0.2368999999997641
1071
       10
1005
940D3
1005
940D4
1005
940F5
1005
940F3
1005
940F4
1005
940E7
1005
940EC
1005
940F0
1005
940D6
1005
940D5
1070
     0
1070
     1
1040
0.0
1040
0.15
1070
     0
1070
     2
1040
0.7853981633974483
1040
49.29960901727088
1040
-10.17736998311392
1040
-0.3367596045400932
1040
0.3367596045400932
1070
     0
1040
2.356194490192345
1040
49.29960901727088
1040
-10.17736998311392
1040
-0.3367596045400932
1040
-0.3367596045400932
1070
     0
1040
0.0110235143455945
1071
        1
1040
14.73245321214324
1040
2.798246178283421
1040
0.0
1002
}
  0
INSERT
  5
94114
330
7CFD4
100
AcDbEntity
  8
0
100
AcDbBlockReference
  2
*X40
 10
0.0
 20
0.0
 30
0.0
1001
ACAD
1000
HATCH
1002
{
1070
    19
1000
ANSI37
1040
0.15
1040
0.0
1000
ASC_BOUNDS
1070
     2
1070
     2
1070
    13
1005
940D7
1005
940E4
1005
940E5
1005
940E3
1005
940E6
1005
9410D
1005
94111
1005
9410C
1005
9410B
1005
9410E
1005
94110
1005
9410F
1005
940D8
1070
     2
1070
     3
1005
940F1
1005
940F6
1005
940F2
1000
ASC_SEEDPOINT
1011
21.97929957367762
1021
3.294304244259308
1031
0.0
1000
R14_HATCH_DATA
1000
94114
1011
1.0
1021
0.0
1031
0.0
1011
0.0
1021
1.0
1031
0.0
1011
0.0
1021
0.0
1031
1.0
1040
0.0
1010
0.0
1020
0.0
1030
1.0
1000
ANSI37
1070
     0
1070
     1
1071
        2
1071
        7
1070
     1
1070
     1
1071
       15
1040
23.56599999997638
1040
8.999899999990987
1040
0.0
1040
19.53899999998043
1040
-0.0001000000000317
1040
0.0
1040
19.53899999998043
1040
0.0
1040
0.0
1040
21.09599999997886
1040
0.0
1040
0.0
1040
21.09599999997886
1040
-0.0001000000000317
1040
0.0
1040
22.15599999997789
1040
2.368399999997621
1040
0.0
1040
24.97599999997499
1040
2.368399999997621
1040
0.0
1040
26.02015566812236
1040
0.0330999999912365
1040
0.0
1040
28.40199999996923
1040
0.0330999999912365
1040
0.414213562373095
1040
30.74199999996923
1040
2.373099999991211
1040
0.0
1040
30.74199999996927
1040
8.763099999991255
1040
0.0
1040
29.30199999996933
1040
8.763099999991255
1040
0.0
1040
29.30199999996933
1040
2.283099999991236
1040
-0.414213562373095
1040
28.40199999996923
1040
1.383099999991237
1040
0.0
1040
26.97358892824991
1040
1.383099999991202
1040
0.0
1071
       13
1005
940D7
1005
940E4
1005
940E5
1005
940E3
1005
940E6
1005
9410D
1005
94111
1005
9410C
1005
9410B
1005
9410E
1005
94110
1005
9410F
1005
940D8
1071
       22
1070
     0
1070
     1
1071
        3
1040
22.7389999999773
1040
3.670999999996297
1040
23.56599999997638
1040
5.5200999999945
1040
24.39299999997559
1040
3.670999999996297
1071
        3
1005
940F1
1005
940F6
1005
940F2
1070
     0
1070
     1
1040
0.0
1040
0.15
1070
     0
1070
     2
1040
0.7853981633974483
1040
49.29960901727088
1040
-10.17736998311392
1040
-0.3367596045400932
1040
0.3367596045400932
1070
     0
1040
2.356194490192345
1040
49.29960901727088
1040
-10.17736998311392
1040
-0.3367596045400932
1040
-0.3367596045400932
1070
     0
1040
0.0110235143455945
1071
        2
1040
21.97929957367762
1040
3.294304244259308
1040
0.0
1040
21.97929957367762
1040
3.294304244259308
1040
0.0
1002
}
  0
INSERT
  5
94115
330
7CFD4
100
AcDbEntity
  8
0
100
AcDbBlockReference
  2
*X41
 10
0.0
 20
0.0
 30
0.0
1001
ACAD
1000
HATCH
1002
{
1070
    19
1000
ANSI37
1040
0.15
1040
0.0
1000
R14_HATCH_DATA
1000
94115
1011
1.0
1021
0.0
1031
0.0
1011
0.0
1021
1.0
1031
0.0
1011
0.0
1021
0.0
1031
1.0
1040
0.0
1010
0.0
1020
0.0
1030
1.0
1000
ANSI37
1070
     0
1070
     1
1071
        1
1071
        7
1070
     1
1070
     1
1071
       12
1040
31.64199999996833
1040
2.481619422925121
1040
0.2679491924310942
1040
32.94699999997067
1040
0.2212931190493919
1040
0.2679491924301353
1040
36.36699999995983
1040
0.2212931190459813
1040
0.2679491924321411
1040
37.67199999996831
1040
2.481619422928361
1040
0.0
1040
37.67199999996831
1040
8.763099999991255
1040
0.0
1040
36.23199999996837
1040
8.763099999991255
1040
0.0
1040
36.23199999996837
1040
2.481619422925064
1040
-0.2679491924310291
1040
35.64699999996708
1040
1.468369700498386
1040
-0.267949192430519
1040
33.66699999997093
1040
1.468369700497703
1040
-0.267949192431809
1040
33.08199999996839
1040
2.481619422926997
1040
0.0
1040
33.08199999996839
1040
8.763099999991255
1040
0.0
1040
31.64199999996833
1040
8.763099999991255
1040
0.0
1071
        0
1070
     0
1070
     1
1040
0.0
1040
0.15
1070
     0
1070
     2
1040
0.7853981633974483
1040
49.29960901727088
1040
-10.17736998311392
1040
-0.3367596045400932
1040
0.3367596045400932
1070
     0
1040
2.356194490192345
1040
49.29960901727088
1040
-10.17736998311392
1040
-0.3367596045400932
1040
-0.3367596045400932
1070
     0
1040
0.0110235143455945
1071
        1
1040
32.30357378967278
1040
3.988785755459219
1040
0.0
1002
}
  0
INSERT
  5
94116
330
7CFD4
100
AcDbEntity
  8
0
100
AcDbBlockReference
  2
*X42
 10
0.0
 20
0.0
 30
0.0
1001
ACAD
1000
HATCH
1002
{
1070
    19
1000
ANSI37
1040
0.15
1040
0.0
1000
ASC_BOUNDS
1070
     1
1070
     2
1070
     8
1005
940F7
1005
940FA
1005
940FE
1005
940FD
1005
940FC
1005
940F9
1005
940FB
1005
940F8
1000
ASC_SEEDPOINT
1011
39.74896370716704
1021
4.484843821435049
1031
0.0
1000
R14_HATCH_DATA
1000
94116
1011
1.0
1021
0.0
1031
0.0
1011
0.0
1021
1.0
1031
0.0
1011
0.0
1021
0.0
1031
1.0
1040
0.0
1010
0.0
1020
0.0
1030
1.0
1000
ANSI37
1070
     0
1070
     1
1071
        1
1071
        7
1070
     0
1070
     1
1071
        9
1040
40.02599999995994
1040
5.341799999994635
1040
44.99999999995498
1040
-0.2368999999997641
1040
44.99999999995498
1040
8.763099999991255
1040
43.57899999995641
1040
8.763099999991255
1040
43.57899999995641
1040
3.421199999996588
1040
38.60499999996136
1040
8.999899999990987
1040
38.60499999996136
1040
8.999999999991019
1040
38.60499999996136
1040
0.0
1040
40.02599999995994
1040
0.0
1071
        8
1005
940F7
1005
940FA
1005
940FE
1005
940FD
1005
940FC
1005
940F9
1005
940FB
1005
940F8
1070
     0
1070
     1
1040
0.0
1040
0.15
1070
     0
1070
     2
1040
0.7853981633974483
1040
49.29960901727088
1040
-10.17736998311392
1040
-0.3367596045400932
1040
0.3367596045400932
1070
     0
1040
2.356194490192345
1040
49.29960901727088
1040
-10.17736998311392
1040
-0.3367596045400932
1040
-0.3367596045400932
1070
     0
1040
0.0110235143455945
1071
        1
1040
39.74896370716704
1040
4.484843821435049
1040
0.0
1002
}
  0
INSERT
  5
94117
330
7CFD4
100
AcDbEntity
  8
0
100
AcDbBlockReference
  2
*X43
 10
0.0
 20
0.0
 30
0.0
1001
ACAD
1000
HATCH
1002
{
1070
    19
1000
ANSI37
1040
0.15
1040
0.0
1000
ASC_BOUNDS
1070
     1
1070
     2
1070
     4
1005
940DB
1005
940EA
1005
940DC
1005
940DE
1000
ASC_SEEDPOINT
1011
1.079051535452663
1021
4.148538732891836
1031
0.0
1000
R14_HATCH_DATA
1000
94117
1011
1.0
1021
0.0
1031
0.0
1011
0.0
1021
1.0
1031
0.0
1011
0.0
1021
0.0
1031
1.0
1040
0.0
1010
0.0
1020
0.0
1030
1.0
1000
ANSI37
1070
     0
1070
     1
1071
        1
1071
        7
1070
     0
1070
     1
1071
        4
1040
1.420999999998571
1040
0.0
1040
1.420999999998571
1040
8.763099999991255
1040
0.0
1040
8.763099999991255
1040
0.0
1040
0.0
1071
        4
1005
940DB
1005
940EA
1005
940DC
1005
940DE
1070
     0
1070
     1
1040
0.0
1040
0.15
1070
     0
1070
     2
1040
0.7853981633974483
1040
49.29960901727088
1040
-10.17736998311392
1040
-0.3367596045400932
1040
0.3367596045400932
1070
     0
1040
2.356194490192345
1040
49.29960901727088
1040
-10.17736998311392
1040
-0.3367596045400932
1040
-0.3367596045400932
1070
     0
1040
0.0053004257112761
1071
        1
1040
1.079051535452663
1040
4.148538732891836
1040
0.0
1002
}
  0
ENDBLK
  5
94820
330
7CFD4
100
AcDbEntity
  8
0
100
AcDbBlockEnd
  0
BLOCK
  5
A470F
330
A4581
100
AcDbEntity
  8
0
100
AcDbBlockBegin
  2
*X38
 70
     1
 10
0.0
 20
0.0
 30
0.0
  3
*X38
  1

  0
LINE
  5
A4582
330
A4581
100
AcDbEntity
  8
0
  6
CONTINUOUS
100
AcDbLine
 10
3.418023043697893
 20
7.251849696850613
 30
0.0
 11
4.929273346838536
 21
8.763099999991255
 31
0.0
  0
LINE
  5
A4583
330
A4581
100
AcDbEntity
  8
0
  6
CONTINUOUS
100
AcDbLine
 10
1.483656411257782
 20
4.643963855330318
 30
0.0
 11
5.60279255591872
 21
8.763099999991255
 31
0.0
  0
LINE
  5
A4584
330
A4581
100
AcDbEntity
  8
0
  6
CONTINUOUS
100
AcDbLine
 10
1.755053947328235
 20
4.241842182320584
 30
0.0
 11
6.276311764998907
 21
8.763099999991255
 31
0.0
  0
LINE
  5
A4585
330
A4581
100
AcDbEntity
  8
0
  6
CONTINUOUS
100
AcDbLine
 10
2.026451483398688
 20
3.839720509310849
 30
0.0
 11
4.441040904851878
 21
6.254309930764039
 31
0.0
  0
LINE
  5
A4586
330
A4581
100
AcDbEntity
  8
0
  6
CONTINUOUS
100
AcDbLine
 10
2.297849019469139
 20
3.437598836301114
 30
0.0
 11
3.321765168359338
 21
4.461514985191313
 31
0.0
  0
LINE
  5
A4587
330
A4581
100
AcDbEntity
  8
0
  6
CONTINUOUS
100
AcDbLine
 10
2.569246555539591
 20
3.03547716329138
 30
0.0
 11
3.593163397972743
 21
4.059394005724531
 31
0.0
  0
LINE
  5
A4588
330
A4581
100
AcDbEntity
  8
0
  6
CONTINUOUS
100
AcDbLine
 10
2.840644091610043
 20
2.633355490281646
 30
0.0
 11
3.864561627586149
 21
3.657273026257751
 31
0.0
  0
LINE
  5
A4589
330
A4581
100
AcDbEntity
  8
0
  6
CONTINUOUS
100
AcDbLine
 10
3.112041627680496
 20
2.231233817271911
 30
0.0
 11
4.135959857199554
 21
3.25515204679097
 31
0.0
  0
LINE
  5
A458A
330
A4581
100
AcDbEntity
  8
0
  6
CONTINUOUS
100
AcDbLine
 10
3.383439163750948
 20
1.829112144262177
 30
0.0
 11
4.40735808681296
 21
2.853031067324189
 31
0.0
  0
LINE
  5
A458B
330
A4581
100
AcDbEntity
  8
0
  6
CONTINUOUS
100
AcDbLine
 10
3.654836699821399
 20
1.426990471252442
 30
0.0
 11
4.678756316426365
 21
2.450910087857407
 31
0.0
  0
LINE
  5
A458C
330
A4581
100
AcDbEntity
  8
0
  6
CONTINUOUS
100
AcDbLine
 10
3.926234235891853
 20
1.024868798242709
 30
0.0
 11
4.95015454603977
 21
2.048789108390626
 31
0.0
  0
LINE
  5
A458D
330
A4581
100
AcDbEntity
  8
0
  6
CONTINUOUS
100
AcDbLine
 10
4.197631771962304
 20
0.6227471252329737
 30
0.0
 11
5.221552775653176
 21
1.646668128923846
 31
0.0
  0
LINE
  5
A458E
330
A4581
100
AcDbEntity
  8
0
  6
CONTINUOUS
100
AcDbLine
 10
8.715877546767851
 20
7.835069736359266
 30
0.0
 11
9.435953450375058
 21
8.555145639966472
 31
0.0
  0
LINE
  5
A458F
330
A4581
100
AcDbEntity
  8
0
  6
CONTINUOUS
100
AcDbLine
 10
8.170620868422267
 20
6.616293848933497
 30
0.0
 11
9.644120833743461
 21
8.08979381425469
 31
0.0
  0
LINE
  5
A4590
330
A4581
100
AcDbEntity
  8
0
  6
CONTINUOUS
100
AcDbLine
 10
7.625364190076684
 20
5.397517961507727
 30
0.0
 11
9.852288217111864
 21
7.624441988542907
 31
0.0
  0
LINE
  5
A4591
330
A4581
100
AcDbEntity
  8
0
  6
CONTINUOUS
100
AcDbLine
 10
7.080107511731101
 20
4.178742074081957
 30
0.0
 11
10.06045560048027
 21
7.159090162831124
 31
0.0
  0
LINE
  5
A4592
330
A4581
100
AcDbEntity
  8
0
  6
CONTINUOUS
100
AcDbLine
 10
6.534850833385518
 20
2.959966186656187
 30
0.0
 11
10.26862298384867
 21
6.693738337119342
 31
0.0
  0
LINE
  5
A4593
330
A4581
100
AcDbEntity
  8
0
  6
CONTINUOUS
100
AcDbLine
 10
4.469029308032756
 20
0.2206254522232385
 30
0.0
 11
5.492951005266582
 21
1.244547149457064
 31
0.0
  0
LINE
  5
A4594
330
A4581
100
AcDbEntity
  8
0
  6
CONTINUOUS
100
AcDbLine
 10
5.989594155039935
 20
1.741190299230417
 30
0.0
 11
8.806950407233131
 21
4.558546551423613
 31
0.0
  0
LINE
  5
A4595
330
A4581
100
AcDbEntity
  8
0
  6
CONTINUOUS
100
AcDbLine
 10
9.401251593263643
 20
5.152847737454126
 30
0.0
 11
10.47679036721708
 21
6.228386511407559
 31
0.0
  0
LINE
  5
A4596
330
A4581
100
AcDbEntity
  8
0
  6
CONTINUOUS
100
AcDbLine
 10
4.921837203428691
 20
-0.0000858614610131
 30
0.0
 11
8.592923064886001
 21
3.670999999996297
 31
0.0
  0
LINE
  5
A4597
330
A4581
100
AcDbEntity
  8
0
  6
CONTINUOUS
100
AcDbLine
 10
9.609390446785305
 20
4.6874673818956
 30
0.0
 11
10.68495775058548
 21
5.763034685695775
 31
0.0
  0
LINE
  5
A4598
330
A4581
100
AcDbEntity
  8
0
  6
CONTINUOUS
100
AcDbLine
 10
5.595387755019432
 20
-0.0000545189504582
 30
0.0
 11
7.716137258923768
 21
2.120694984953879
 31
0.0
  0
LINE
  5
A4599
330
A4581
100
AcDbEntity
  8
0
  6
CONTINUOUS
100
AcDbLine
 10
6.268938306610172
 20
-0.000023176439905
 30
0.0
 11
7.170485805526503
 21
0.9015243224764267
 31
0.0
  0
LINE
  5
A459A
330
A4581
100
AcDbEntity
  8
0
  6
CONTINUOUS
100
AcDbLine
 10
7.963842273967511
 20
2.368399999997621
 30
0.0
 11
9.266442273966188
 21
3.670999999996297
 31
0.0
  0
LINE
  5
A459B
330
A4581
100
AcDbEntity
  8
0
  6
CONTINUOUS
100
AcDbLine
 10
8.637361483047696
 20
2.368399999997621
 30
0.0
 11
9.939961483046375
 21
3.670999999996297
 31
0.0
  0
LINE
  5
A459C
330
A4581
100
AcDbEntity
  8
0
  6
CONTINUOUS
100
AcDbLine
 10
9.817529300306965
 20
4.222087026337075
 30
0.0
 11
10.89312513395388
 21
5.297682859983993
 31
0.0
  0
LINE
  5
A459D
330
A4581
100
AcDbEntity
  8
0
  6
CONTINUOUS
100
AcDbLine
 10
10.02566815382863
 20
3.756706670778549
 30
0.0
 11
11.10129251732229
 21
4.832331034272211
 31
0.0
  0
LINE
  5
A459E
330
A4581
100
AcDbEntity
  8
0
  6
CONTINUOUS
100
AcDbLine
 10
9.310880692127883
 20
2.368399999997621
 30
0.0
 11
11.30945990069069
 21
4.366979208560428
 31
0.0
  0
LINE
  5
A459F
330
A4581
100
AcDbEntity
  8
0
  6
CONTINUOUS
100
AcDbLine
 10
9.98439990120807
 20
2.36839999999762
 30
0.0
 11
11.5176272840591
 21
3.901627382848645
 31
0.0
  0
LINE
  5
A45A0
330
A4581
100
AcDbEntity
  8
0
  6
CONTINUOUS
100
AcDbLine
 10
10.65037369446246
 20
2.36085458417182
 30
0.0
 11
11.7257946674275
 21
3.436275557136862
 31
0.0
  0
LINE
  5
A45A1
330
A4581
100
AcDbEntity
  8
0
  6
CONTINUOUS
100
AcDbLine
 10
10.85847197087848
 20
1.895433651507656
 30
0.0
 11
11.9339620507959
 21
2.97092373142508
 31
0.0
  0
LINE
  5
A45A2
330
A4581
100
AcDbEntity
  8
0
  6
CONTINUOUS
100
AcDbLine
 10
11.0665702472945
 20
1.430012718843491
 30
0.0
 11
12.14212943416431
 21
2.505571905713296
 31
0.0
  0
LINE
  5
A45A3
330
A4581
100
AcDbEntity
  8
0
  6
CONTINUOUS
100
AcDbLine
 10
11.27466852371052
 20
0.9645917861793256
 30
0.0
 11
12.35029681753271
 21
2.040220080001513
 31
0.0
  0
LINE
  5
A45A4
330
A4581
100
AcDbEntity
  8
0
  6
CONTINUOUS
100
AcDbLine
 10
11.48276680012654
 20
0.4991708535151611
 30
0.0
 11
12.55846420090111
 21
1.57486825428973
 31
0.0
  0
LINE
  5
A45A5
330
A4581
100
AcDbEntity
  8
0
  6
CONTINUOUS
100
AcDbLine
 10
11.69086507654257
 20
0.0337499208509957
 30
0.0
 11
12.76663158426952
 21
1.109516428577947
 31
0.0
  0
LINE
  5
A45A6
330
A4581
100
AcDbEntity
  8
0
  6
CONTINUOUS
100
AcDbLine
 10
12.33057447873954
 20
-0.0000598860322123
 30
0.0
 11
12.97479896763792
 21
0.6441646028661663
 31
0.0
  0
LINE
  5
A45A7
330
A4581
100
AcDbEntity
  8
0
  6
CONTINUOUS
100
AcDbLine
 10
13.00413694809395
 20
-0.0000166257579952
 30
0.0
 11
13.18296635100632
 21
0.1788127771543824
 31
0.0
  0
LINE
  5
A45A8
330
A4581
100
AcDbEntity
  8
0
  6
CONTINUOUS
100
AcDbLine
 10
4.772852165289667
 20
-0.000092794222212
 30
0.0
 11
4.296495091028902
 21
0.4762642800385528
 31
0.0
  0
LINE
  5
A45A9
330
A4581
100
AcDbEntity
  8
0
  6
CONTINUOUS
100
AcDbLine
 10
5.446340034776103
 20
-0.0000614546284616
 30
0.0
 11
2.898195908335625
 21
2.548082671812017
 31
0.0
  0
LINE
  5
A45AA
330
A4581
100
AcDbEntity
  8
0
  6
CONTINUOUS
100
AcDbLine
 10
6.119827904262539
 20
-0.0000301150347113
 30
0.0
 11
1.499896725642348
 21
4.61990106358548
 31
0.0
  0
LINE
  5
A45AB
330
A4581
100
AcDbEntity
  8
0
  6
CONTINUOUS
100
AcDbLine
 10
6.775136745476159
 20
0.0181802528318542
 30
0.0
 11
5.699826040202669
 21
1.093490958105344
 31
0.0
  0
LINE
  5
A45AC
330
A4581
100
AcDbEntity
  8
0
  6
CONTINUOUS
100
AcDbLine
 10
6.983376846288489
 20
0.4834593610997118
 30
0.0
 11
5.908008617934405
 21
1.558827589453796
 31
0.0
  0
LINE
  5
A45AD
330
A4581
100
AcDbEntity
  8
0
  6
CONTINUOUS
100
AcDbLine
 10
5.377063484962296
 20
1.416253513345719
 30
0.0
 11
1.702276957014131
 21
5.091040041293883
 31
0.0
  0
LINE
  5
A45AE
330
A4581
100
AcDbEntity
  8
0
  6
CONTINUOUS
100
AcDbLine
 10
3.978745891735324
 20
3.488090315652877
 30
0.0
 11
2.000373521109399
 21
5.466462686278803
 31
0.0
  0
LINE
  5
A45AF
330
A4581
100
AcDbEntity
  8
0
  6
CONTINUOUS
100
AcDbLine
 10
7.191616947100819
 20
0.948738469367568
 30
0.0
 11
6.11619119566614
 21
2.024164220802247
 31
0.0
  0
LINE
  5
A45B0
330
A4581
100
AcDbEntity
  8
0
  6
CONTINUOUS
100
AcDbLine
 10
7.399857047913149
 20
1.414017577635424
 30
0.0
 11
6.324373773397875
 21
2.489500852150698
 31
0.0
  0
LINE
  5
A45B1
330
A4581
100
AcDbEntity
  8
0
  6
CONTINUOUS
100
AcDbLine
 10
7.608097148725479
 20
1.879296685903281
 30
0.0
 11
6.53255635112961
 21
2.95483748349915
 31
0.0
  0
LINE
  5
A45B2
330
A4581
100
AcDbEntity
  8
0
  6
CONTINUOUS
100
AcDbLine
 10
7.816337249537808
 20
2.344575794171138
 30
0.0
 11
6.740738928861345
 21
3.420174114847601
 31
0.0
  0
LINE
  5
A45B3
330
A4581
100
AcDbEntity
  8
0
  6
CONTINUOUS
100
AcDbLine
 10
3.310241080789734
 20
4.830114335678653
 30
0.0
 11
2.298470085204666
 21
5.84188533126372
 31
0.0
  0
LINE
  5
A45B4
330
A4581
100
AcDbEntity
  8
0
  6
CONTINUOUS
100
AcDbLine
 10
3.60832983563551
 20
5.205544789913063
 30
0.0
 11
2.596566649299935
 21
6.217307976248638
 31
0.0
  0
LINE
  5
A45B5
330
A4581
100
AcDbEntity
  8
0
  6
CONTINUOUS
100
AcDbLine
 10
3.906418590481286
 20
5.580975244147473
 30
0.0
 11
2.894663213395203
 21
6.592730621233557
 31
0.0
  0
LINE
  5
A45B6
330
A4581
100
AcDbEntity
  8
0
  6
CONTINUOUS
100
AcDbLine
 10
4.204507345327062
 20
5.956405698381884
 30
0.0
 11
3.192759777490472
 21
6.968153266218474
 31
0.0
  0
LINE
  5
A45B7
330
A4581
100
AcDbEntity
  8
0
  6
CONTINUOUS
100
AcDbLine
 10
8.466032252791512
 20
2.368399999997621
 30
0.0
 11
6.948921506593081
 21
3.885510746196053
 31
0.0
  0
LINE
  5
A45B8
330
A4581
100
AcDbEntity
  8
0
  6
CONTINUOUS
100
AcDbLine
 10
9.139551461871699
 20
2.36839999999762
 30
0.0
 11
7.157104084324816
 21
4.350847377544504
 31
0.0
  0
LINE
  5
A45B9
330
A4581
100
AcDbEntity
  8
0
  6
CONTINUOUS
100
AcDbLine
 10
4.502596100172839
 20
6.331836152616295
 30
0.0
 11
3.49085634158574
 21
7.343575911203393
 31
0.0
  0
LINE
  5
A45BA
330
A4581
100
AcDbEntity
  8
0
  6
CONTINUOUS
100
AcDbLine
 10
4.800684855018615
 20
6.707266606850705
 30
0.0
 11
3.788952905681008
 21
7.718998556188312
 31
0.0
  0
LINE
  5
A45BB
330
A4581
100
AcDbEntity
  8
0
  6
CONTINUOUS
100
AcDbLine
 10
12.18154012887317
 20
-0.0000694579236642
 30
0.0
 11
11.32140332908496
 21
0.8600673418645499
 31
0.0
  0
LINE
  5
A45BC
330
A4581
100
AcDbEntity
  8
0
  6
CONTINUOUS
100
AcDbLine
 10
12.85501608323566
 20
-0.0000262032059659
 30
0.0
 11
10.77672456435345
 21
2.078265315676246
 31
0.0
  0
LINE
  5
A45BD
330
A4581
100
AcDbEntity
  8
0
  6
CONTINUOUS
100
AcDbLine
 10
9.813070670951886
 20
2.36839999999762
 30
0.0
 11
8.51047067095321
 21
3.670999999996297
 31
0.0
  0
LINE
  5
A45BE
330
A4581
100
AcDbEntity
  8
0
  6
CONTINUOUS
100
AcDbLine
 10
10.48658988003207
 20
2.36839999999762
 30
0.0
 11
9.183989880033396
 21
3.670999999996297
 31
0.0
  0
LINE
  5
A45BF
330
A4581
100
AcDbEntity
  8
0
  6
CONTINUOUS
100
AcDbLine
 10
8.441048632286794
 20
3.740422038662712
 30
0.0
 11
7.365286662056551
 21
4.816184008892956
 31
0.0
  0
LINE
  5
A45C0
330
A4581
100
AcDbEntity
  8
0
  6
CONTINUOUS
100
AcDbLine
 10
8.649187485808454
 20
4.205802394221237
 30
0.0
 11
7.573469239788285
 21
5.281520640241407
 31
0.0
  0
LINE
  5
A45C1
330
A4581
100
AcDbEntity
  8
0
  6
CONTINUOUS
100
AcDbLine
 10
5.098773609864391
 20
7.082697061085115
 30
0.0
 11
4.087049469776277
 21
8.09442120117323
 31
0.0
  0
LINE
  5
A45C2
330
A4581
100
AcDbEntity
  8
0
  6
CONTINUOUS
100
AcDbLine
 10
5.396862364710167
 20
7.458127515319526
 30
0.0
 11
4.385146033871544
 21
8.469843846158149
 31
0.0
  0
LINE
  5
A45C3
330
A4581
100
AcDbEntity
  8
0
  6
CONTINUOUS
100
AcDbLine
 10
13.04801363231285
 20
0.4804954567970334
 30
0.0
 11
9.85750908911358
 21
3.670999999996297
 31
0.0
  0
LINE
  5
A45C4
330
A4581
100
AcDbEntity
  8
0
  6
CONTINUOUS
100
AcDbLine
 10
8.857326339330116
 20
4.671182749779763
 30
0.0
 11
7.781651817520021
 21
5.746857271589858
 31
0.0
  0
LINE
  5
A45C5
330
A4581
100
AcDbEntity
  8
0
  6
CONTINUOUS
100
AcDbLine
 10
5.694951119555943
 20
7.833557969553937
 30
0.0
 11
4.765409089118624
 21
8.763099999991255
 31
0.0
  0
LINE
  5
A45C6
330
A4581
100
AcDbEntity
  8
0
  6
CONTINUOUS
100
AcDbLine
 10
12.50286117236978
 20
1.699167125820288
 30
0.0
 11
9.68611877250287
 21
4.515909525687196
 31
0.0
  0
LINE
  5
A45C7
330
A4581
100
AcDbEntity
  8
0
  6
CONTINUOUS
100
AcDbLine
 10
9.065465192851777
 20
5.136563105338288
 30
0.0
 11
7.989834395251757
 21
6.21219390293831
 31
0.0
  0
LINE
  5
A45C8
330
A4581
100
AcDbEntity
  8
0
  6
CONTINUOUS
100
AcDbLine
 10
5.993039874401719
 20
8.208988423788346
 30
0.0
 11
5.43892829819881
 21
8.763099999991255
 31
0.0
  0
LINE
  5
A45C9
330
A4581
100
AcDbEntity
  8
0
  6
CONTINUOUS
100
AcDbLine
 10
11.95770871242671
 20
2.917838794843543
 30
0.0
 11
8.19801697298349
 21
6.677530534286761
 31
0.0
  0
LINE
  5
A45CA
330
A4581
100
AcDbEntity
  8
0
  6
CONTINUOUS
100
AcDbLine
 10
6.291128629247495
 20
8.584418878022756
 30
0.0
 11
6.112447507278997
 21
8.763099999991255
 31
0.0
  0
LINE
  5
A45CB
330
A4581
100
AcDbEntity
  8
0
  6
CONTINUOUS
100
AcDbLine
 10
11.41255625248364
 20
4.136510463866797
 30
0.0
 11
8.406199550715227
 21
7.142867165635211
 31
0.0
  0
LINE
  5
A45CC
330
A4581
100
AcDbEntity
  8
0
  6
CONTINUOUS
100
AcDbLine
 10
10.86740379254057
 20
5.355182132890051
 30
0.0
 11
8.614382128446962
 21
7.608203796983664
 31
0.0
  0
LINE
  5
A45CD
330
A4581
100
AcDbEntity
  8
0
  6
CONTINUOUS
100
AcDbLine
 10
10.3222513325975
 20
6.573853801913305
 30
0.0
 11
8.822564706178696
 21
8.073540428332114
 31
0.0
  0
LINE
  5
A45CE
330
A4581
100
AcDbEntity
  8
0
  6
CONTINUOUS
100
AcDbLine
 10
9.777098872654436
 20
7.792525470936562
 30
0.0
 11
9.030747283910433
 21
8.538877059680566
 31
0.0
  0
ENDBLK
  5
A4710
330
A4581
100
AcDbEntity
  8
0
100
AcDbBlockEnd
  0
BLOCK
  5
A4711
330
A45CF
100
AcDbEntity
  8
0
100
AcDbBlockBegin
  2
*X39
 70
     1
 10
0.0
 20
0.0
 30
0.0
  3
*X39
  1

  0
LINE
  5
A45D0
330
A45CF
100
AcDbEntity
  8
0
  6
CONTINUOUS
100
AcDbLine
 10
10.67292308101235
 20
8.445076852443387
 30
0.0
 11
10.99094622856022
 21
8.763099999991255
 31
0.0
  0
LINE
  5
A45D1
330
A45CF
100
AcDbEntity
  8
0
  6
CONTINUOUS
100
AcDbLine
 10
10.87250383178748
 20
7.971138394138331
 30
0.0
 11
11.6644654376404
 21
8.763099999991255
 31
0.0
  0
LINE
  5
A45D2
330
A45CF
100
AcDbEntity
  8
0
  6
CONTINUOUS
100
AcDbLine
 10
11.07208458256261
 20
7.497199935833273
 30
0.0
 11
12.12126590876355
 21
8.546381262034211
 31
0.0
  0
LINE
  5
A45D3
330
A45CF
100
AcDbEntity
  8
0
  6
CONTINUOUS
100
AcDbLine
 10
11.27166533333774
 20
7.023261477528216
 30
0.0
 11
12.32085164573666
 21
8.072447789927136
 31
0.0
  0
LINE
  5
A45D4
330
A45CF
100
AcDbEntity
  8
0
  6
CONTINUOUS
100
AcDbLine
 10
11.47124608411287
 20
6.549323019223158
 30
0.0
 11
12.52043738270977
 21
7.59851431782006
 31
0.0
  0
LINE
  5
A45D5
330
A45CF
100
AcDbEntity
  8
0
  6
CONTINUOUS
100
AcDbLine
 10
11.670826834888
 20
6.075384560918101
 30
0.0
 11
12.72002311968288
 21
7.124580845712984
 31
0.0
  0
LINE
  5
A45D6
330
A45CF
100
AcDbEntity
  8
0
  6
CONTINUOUS
100
AcDbLine
 10
11.87040758566313
 20
5.601446102613043
 30
0.0
 11
12.91960885665599
 21
6.650647373605907
 31
0.0
  0
LINE
  5
A45D7
330
A45CF
100
AcDbEntity
  8
0
  6
CONTINUOUS
100
AcDbLine
 10
12.06998833643825
 20
5.127507644307986
 30
0.0
 11
13.1191945936291
 21
6.176713901498832
 31
0.0
  0
LINE
  5
A45D8
330
A45CF
100
AcDbEntity
  8
0
  6
CONTINUOUS
100
AcDbLine
 10
12.26956908721338
 20
4.65356918600293
 30
0.0
 11
13.31878033060221
 21
5.702780429391757
 31
0.0
  0
LINE
  5
A45D9
330
A45CF
100
AcDbEntity
  8
0
  6
CONTINUOUS
100
AcDbLine
 10
12.46914983798851
 20
4.179630727697873
 30
0.0
 11
13.51836606757532
 21
5.228846957284683
 31
0.0
  0
LINE
  5
A45DA
330
A45CF
100
AcDbEntity
  8
0
  6
CONTINUOUS
100
AcDbLine
 10
12.66873058876364
 20
3.705692269392816
 30
0.0
 11
13.71795180454843
 21
4.754913485177607
 31
0.0
  0
LINE
  5
A45DB
330
A45CF
100
AcDbEntity
  8
0
  6
CONTINUOUS
100
AcDbLine
 10
12.86831133953877
 20
3.231753811087759
 30
0.0
 11
13.91753754152154
 21
4.280980013070531
 31
0.0
  0
LINE
  5
A45DC
330
A45CF
100
AcDbEntity
  8
0
  6
CONTINUOUS
100
AcDbLine
 10
13.0678920903139
 20
2.757815352782702
 30
0.0
 11
14.11712327849465
 21
3.807046540963456
 31
0.0
  0
LINE
  5
A45DD
330
A45CF
100
AcDbEntity
  8
0
  6
CONTINUOUS
100
AcDbLine
 10
13.26747284108903
 20
2.283876894477644
 30
0.0
 11
14.31670901546777
 21
3.333113068856379
 31
0.0
  0
LINE
  5
A45DE
330
A45CF
100
AcDbEntity
  8
0
  6
CONTINUOUS
100
AcDbLine
 10
16.36767838827179
 20
8.751678487061342
 30
0.0
 11
16.50332410898388
 21
8.887324207773432
 31
0.0
  0
LINE
  5
A45DF
330
A45CF
100
AcDbEntity
  8
0
  6
CONTINUOUS
100
AcDbLine
 10
15.96190732182191
 20
7.67238821153127
 30
0.0
 11
16.68735328004734
 21
8.397834169756699
 31
0.0
  0
LINE
  5
A45E0
330
A45CF
100
AcDbEntity
  8
0
  6
CONTINUOUS
100
AcDbLine
 10
15.55613625537202
 20
6.593097936001196
 30
0.0
 11
16.87138245111079
 21
7.908344131739965
 31
0.0
  0
LINE
  5
A45E1
330
A45CF
100
AcDbEntity
  8
0
  6
CONTINUOUS
100
AcDbLine
 10
15.15036518892213
 20
5.513807660471122
 30
0.0
 11
17.05541162217424
 21
7.418854093723231
 31
0.0
  0
LINE
  5
A45E2
330
A45CF
100
AcDbEntity
  8
0
  6
CONTINUOUS
100
AcDbLine
 10
14.74459412247225
 20
4.434517384941048
 30
0.0
 11
17.2394407932377
 21
6.929364055706499
 31
0.0
  0
LINE
  5
A45E3
330
A45CF
100
AcDbEntity
  8
0
  6
CONTINUOUS
100
AcDbLine
 10
14.33882305602236
 20
3.355227109410975
 30
0.0
 11
17.42346996430115
 21
6.439874017689766
 31
0.0
  0
LINE
  5
A45E4
330
A45CF
100
AcDbEntity
  8
0
  6
CONTINUOUS
100
AcDbLine
 10
13.46705359186416
 20
1.809938436172586
 30
0.0
 11
16.0819338255367
 21
4.424818669845129
 31
0.0
  0
LINE
  5
A45E5
330
A45CF
100
AcDbEntity
  8
0
  6
CONTINUOUS
100
AcDbLine
 10
16.63283254238972
 20
4.975717386698149
 30
0.0
 11
17.60749913536461
 21
5.950383979673033
 31
0.0
  0
LINE
  5
A45E6
330
A45CF
100
AcDbEntity
  8
0
  6
CONTINUOUS
100
AcDbLine
 10
13.66663434263929
 20
1.335999977867529
 30
0.0
 11
15.67604797733754
 21
3.345413612565779
 31
0.0
  0
LINE
  5
A45E7
330
A45CF
100
AcDbEntity
  8
0
  6
CONTINUOUS
100
AcDbLine
 10
13.86621509341442
 20
0.8620615195624723
 30
0.0
 11
15.27016212913838
 21
2.26600855528643
 31
0.0
  0
LINE
  5
A45E8
330
A45CF
100
AcDbEntity
  8
0
  6
CONTINUOUS
100
AcDbLine
 10
16.81682257348267
 20
4.486188208710908
 30
0.0
 11
17.79152830642806
 21
5.460893941656299
 31
0.0
  0
LINE
  5
A45E9
330
A45CF
100
AcDbEntity
  8
0
  6
CONTINUOUS
100
AcDbLine
 10
17.00081260457561
 20
3.996659030723667
 30
0.0
 11
17.97555747749151
 21
4.971403903639565
 31
0.0
  0
LINE
  5
A45EA
330
A45CF
100
AcDbEntity
  8
0
  6
CONTINUOUS
100
AcDbLine
 10
20.74362343514722
 20
8.412989070375462
 30
0.0
 11
21.09373436476302
 21
8.763099999991256
 31
0.0
  0
LINE
  5
A45EB
330
A45CF
100
AcDbEntity
  8
0
  6
CONTINUOUS
100
AcDbLine
 10
20.25401257174777
 20
7.249858997895826
 30
0.0
 11
21.7672535738432
 21
8.763099999991255
 31
0.0
  0
LINE
  5
A45EC
330
A45CF
100
AcDbEntity
  8
0
  6
CONTINUOUS
100
AcDbLine
 10
14.06579584418955
 20
0.3881230612574149
 30
0.0
 11
14.86427628093921
 21
1.186603498007082
 31
0.0
  0
LINE
  5
A45ED
330
A45CF
100
AcDbEntity
  8
0
  6
CONTINUOUS
100
AcDbLine
 10
14.26537659496467
 20
-0.0858153970476412
 30
0.0
 11
14.45839043274005
 21
0.1071984407277329
 31
0.0
  0
LINE
  5
A45EE
330
A45CF
100
AcDbEntity
  8
0
  6
CONTINUOUS
100
AcDbLine
 10
17.18480263566856
 20
3.507129852736426
 30
0.0
 11
18.15958664855496
 21
4.481913865622833
 31
0.0
  0
LINE
  5
A45EF
330
A45CF
100
AcDbEntity
  8
0
  6
CONTINUOUS
100
AcDbLine
 10
17.3687926667615
 20
3.017600674749186
 30
0.0
 11
18.34361581961842
 21
3.9924238276061
 31
0.0
  0
LINE
  5
A45F0
330
A45CF
100
AcDbEntity
  8
0
  6
CONTINUOUS
100
AcDbLine
 10
19.76440170834832
 20
6.086728925416191
 30
0.0
 11
22.33924590259489
 21
8.661573119662755
 31
0.0
  0
LINE
  5
A45F1
330
A45CF
100
AcDbEntity
  8
0
  6
CONTINUOUS
100
AcDbLine
 10
19.27479084494887
 20
4.923598852936555
 30
0.0
 11
21.84929622842713
 21
7.498104236414807
 31
0.0
  0
LINE
  5
A45F2
330
A45CF
100
AcDbEntity
  8
0
  6
CONTINUOUS
100
AcDbLine
 10
17.55278269785445
 20
2.528071496761945
 30
0.0
 11
18.52764499068187
 21
3.502933789589366
 31
0.0
  0
LINE
  5
A45F3
330
A45CF
100
AcDbEntity
  8
0
  6
CONTINUOUS
100
AcDbLine
 10
18.78517998154942
 20
3.760468780456919
 30
0.0
 11
21.35934655425936
 21
6.33463535316686
 31
0.0
  0
LINE
  5
A45F4
330
A45CF
100
AcDbEntity
  8
0
  6
CONTINUOUS
100
AcDbLine
 10
17.73677272894739
 20
2.038542318774704
 30
0.0
 11
20.8693968800916
 21
5.171166469918914
 31
0.0
  0
LINE
  5
A45F5
330
A45CF
100
AcDbEntity
  8
0
  6
CONTINUOUS
100
AcDbLine
 10
17.92076276004034
 20
1.549013140787464
 30
0.0
 11
20.37944720592384
 21
4.007697586670968
 31
0.0
  0
LINE
  5
A45F6
330
A45CF
100
AcDbEntity
  8
0
  6
CONTINUOUS
100
AcDbLine
 10
18.10475279113329
 20
1.059483962800223
 30
0.0
 11
19.88949753175608
 21
2.84422870342302
 31
0.0
  0
LINE
  5
A45F7
330
A45CF
100
AcDbEntity
  8
0
  6
CONTINUOUS
100
AcDbLine
 10
18.28874282222623
 20
0.5699547848129822
 30
0.0
 11
19.39954785758832
 21
1.680759820175074
 31
0.0
  0
LINE
  5
A45F8
330
A45CF
100
AcDbEntity
  8
0
  6
CONTINUOUS
100
AcDbLine
 10
18.47273285331918
 20
0.0804256068257416
 30
0.0
 11
18.90959818342056
 21
0.517290936927127
 31
0.0
  0
LINE
  5
A45F9
330
A45CF
100
AcDbEntity
  8
0
  6
CONTINUOUS
100
AcDbLine
 10
14.3590401358224
 20
-0.1570118376323384
 30
0.0
 11
14.24903296539946
 21
-0.0470046672093929
 31
0.0
  0
LINE
  5
A45FA
330
A45CF
100
AcDbEntity
  8
0
  6
CONTINUOUS
100
AcDbLine
 10
14.54309291258661
 20
0.332454594683643
 30
0.0
 11
13.75908329123172
 21
1.116464216038529
 31
0.0
  0
LINE
  5
A45FB
330
A45CF
100
AcDbEntity
  8
0
  6
CONTINUOUS
100
AcDbLine
 10
14.72714568935081
 20
0.8219210269996244
 30
0.0
 11
13.26913361706399
 21
2.27993309928645
 31
0.0
  0
LINE
  5
A45FC
330
A45CF
100
AcDbEntity
  8
0
  6
CONTINUOUS
100
AcDbLine
 10
14.91119846611502
 20
1.311387459315606
 30
0.0
 11
12.77918394289625
 21
3.443401982534371
 31
0.0
  0
LINE
  5
A45FD
330
A45CF
100
AcDbEntity
  8
0
  6
CONTINUOUS
100
AcDbLine
 10
15.09525124287922
 20
1.800853891631587
 30
0.0
 11
12.28923426872852
 21
4.606870865782293
 31
0.0
  0
LINE
  5
A45FE
330
A45CF
100
AcDbEntity
  8
0
  6
CONTINUOUS
100
AcDbLine
 10
15.27930401964343
 20
2.290320323947569
 30
0.0
 11
11.79928459456078
 21
5.770339749030213
 31
0.0
  0
LINE
  5
A45FF
330
A45CF
100
AcDbEntity
  8
0
  6
CONTINUOUS
100
AcDbLine
 10
15.46335679640763
 20
2.77978675626355
 30
0.0
 11
14.48885470994921
 21
3.754288842721972
 31
0.0
  0
LINE
  5
A4600
330
A45CF
100
AcDbEntity
  8
0
  6
CONTINUOUS
100
AcDbLine
 10
13.88507249233704
 20
4.358071060334137
 30
0.0
 11
11.30933492039305
 21
6.933808632278135
 31
0.0
  0
LINE
  5
A4601
330
A45CF
100
AcDbEntity
  8
0
  6
CONTINUOUS
100
AcDbLine
 10
18.75840522805855
 20
0.1582575336928151
 30
0.0
 11
18.25383727664818
 21
0.6628254851031863
 31
0.0
  0
LINE
  5
A4602
330
A45CF
100
AcDbEntity
  8
0
  6
CONTINUOUS
100
AcDbLine
 10
15.64740957317184
 20
3.269253188579531
 30
0.0
 11
14.67288388101266
 21
4.243778880738705
 31
0.0
  0
LINE
  5
A4603
330
A45CF
100
AcDbEntity
  8
0
  6
CONTINUOUS
100
AcDbLine
 10
13.39509276772158
 20
5.521569994029786
 30
0.0
 11
10.81938524622531
 21
8.097277515526056
 31
0.0
  0
LINE
  5
A4604
330
A45CF
100
AcDbEntity
  8
0
  6
CONTINUOUS
100
AcDbLine
 10
18.95798597883369
 20
0.6321959919978686
 30
0.0
 11
17.84825644852853
 21
1.741925522303024
 31
0.0
  0
LINE
  5
A4605
330
A45CF
100
AcDbEntity
  8
0
  6
CONTINUOUS
100
AcDbLine
 10
19.15756672960882
 20
1.106134450302922
 30
0.0
 11
17.44267562040888
 21
2.821025559502861
 31
0.0
  0
LINE
  5
A4606
330
A45CF
100
AcDbEntity
  8
0
  6
CONTINUOUS
100
AcDbLine
 10
15.83146234993604
 20
3.758719620895513
 30
0.0
 11
14.85691305207612
 21
4.733268918755439
 31
0.0
  0
LINE
  5
A4607
330
A45CF
100
AcDbEntity
  8
0
  6
CONTINUOUS
100
AcDbLine
 10
16.01551512670025
 20
4.248186053211494
 30
0.0
 11
15.04094222313957
 21
5.222758956772172
 31
0.0
  0
LINE
  5
A4608
330
A45CF
100
AcDbEntity
  8
0
  6
CONTINUOUS
100
AcDbLine
 10
12.90511304310612
 20
6.685068927725435
 30
0.0
 11
10.8270819708403
 21
8.763099999991255
 31
0.0
  0
LINE
  5
A4609
330
A45CF
100
AcDbEntity
  8
0
  6
CONTINUOUS
100
AcDbLine
 10
12.41513331849066
 20
7.848567861421083
 30
0.0
 11
11.50060117992049
 21
8.763099999991255
 31
0.0
  0
LINE
  5
A460A
330
A45CF
100
AcDbEntity
  8
0
  6
CONTINUOUS
100
AcDbLine
 10
19.35714748038395
 20
1.580072908607975
 30
0.0
 11
17.03709479228923
 21
3.900125596702697
 31
0.0
  0
LINE
  5
A460B
330
A45CF
100
AcDbEntity
  8
0
  6
CONTINUOUS
100
AcDbLine
 10
19.55672823115909
 20
2.054011366913028
 30
0.0
 11
16.63151396416958
 21
4.979225633902534
 31
0.0
  0
LINE
  5
A460C
330
A45CF
100
AcDbEntity
  8
0
  6
CONTINUOUS
100
AcDbLine
 10
16.19956790346445
 20
4.737652485527476
 30
0.0
 11
15.22497139420302
 21
5.712248994788904
 31
0.0
  0
LINE
  5
A460D
330
A45CF
100
AcDbEntity
  8
0
  6
CONTINUOUS
100
AcDbLine
 10
16.38362068022866
 20
5.227118917843457
 30
0.0
 11
15.40900056526648
 21
6.201739032805637
 31
0.0
  0
LINE
  5
A460E
330
A45CF
100
AcDbEntity
  8
0
  6
CONTINUOUS
100
AcDbLine
 10
19.75630898193422
 20
2.527949825218081
 30
0.0
 11
18.70774536448286
 21
3.576513442669441
 31
0.0
  0
LINE
  5
A460F
330
A45CF
100
AcDbEntity
  8
0
  6
CONTINUOUS
100
AcDbLine
 10
19.95588973270936
 20
3.001888283523134
 30
0.0
 11
18.90726987211446
 21
4.050508144118028
 31
0.0
  0
LINE
  5
A4610
330
A45CF
100
AcDbEntity
  8
0
  6
CONTINUOUS
100
AcDbLine
 10
20.15547048348449
 20
3.475826741828186
 30
0.0
 11
19.10679437974606
 21
4.524502845566614
 31
0.0
  0
LINE
  5
A4611
330
A45CF
100
AcDbEntity
  8
0
  6
CONTINUOUS
100
AcDbLine
 10
20.35505123425962
 20
3.94976520013324
 30
0.0
 11
19.30631888737766
 21
4.998497547015201
 31
0.0
  0
LINE
  5
A4612
330
A45CF
100
AcDbEntity
  8
0
  6
CONTINUOUS
100
AcDbLine
 10
20.55463198503475
 20
4.423703658438292
 30
0.0
 11
19.50584339500926
 21
5.472492248463787
 31
0.0
  0
LINE
  5
A4613
330
A45CF
100
AcDbEntity
  8
0
  6
CONTINUOUS
100
AcDbLine
 10
18.37481191085755
 20
3.909446896294752
 30
0.0
 11
15.59302973632993
 21
6.691229070822371
 31
0.0
  0
LINE
  5
A4614
330
A45CF
100
AcDbEntity
  8
0
  6
CONTINUOUS
100
AcDbLine
 10
17.96904084440766
 20
4.988737171824825
 30
0.0
 11
15.77705890739338
 21
7.180719108839104
 31
0.0
  0
LINE
  5
A4615
330
A45CF
100
AcDbEntity
  8
0
  6
CONTINUOUS
100
AcDbLine
 10
17.56326977795777
 20
6.068027447354899
 30
0.0
 11
15.96108807845684
 21
7.670209146855838
 31
0.0
  0
LINE
  5
A4616
330
A45CF
100
AcDbEntity
  8
0
  6
CONTINUOUS
100
AcDbLine
 10
17.15749871150789
 20
7.147317722884972
 30
0.0
 11
16.14511724952029
 21
8.15969918487257
 31
0.0
  0
LINE
  5
A4617
330
A45CF
100
AcDbEntity
  8
0
  6
CONTINUOUS
100
AcDbLine
 10
16.751727645058
 20
8.226607998415046
 30
0.0
 11
16.32914642058374
 21
8.649189222889303
 31
0.0
  0
LINE
  5
A4618
330
A45CF
100
AcDbEntity
  8
0
  6
CONTINUOUS
100
AcDbLine
 10
20.75421273580989
 20
4.897642116743345
 30
0.0
 11
19.70536790264086
 21
5.946486949912374
 31
0.0
  0
LINE
  5
A4619
330
A45CF
100
AcDbEntity
  8
0
  6
CONTINUOUS
100
AcDbLine
 10
20.95379348658502
 20
5.371580575048398
 30
0.0
 11
19.90489241027246
 21
6.42048165136096
 31
0.0
  0
LINE
  5
A461A
330
A45CF
100
AcDbEntity
  8
0
  6
CONTINUOUS
100
AcDbLine
 10
21.15337423736015
 20
5.845519033353452
 30
0.0
 11
20.10441691790406
 21
6.894476352809547
 31
0.0
  0
LINE
  5
A461B
330
A45CF
100
AcDbEntity
  8
0
  6
CONTINUOUS
100
AcDbLine
 10
21.35295498813529
 20
6.319457491658505
 30
0.0
 11
20.30394142553566
 21
7.368471054258134
 31
0.0
  0
LINE
  5
A461C
330
A45CF
100
AcDbEntity
  8
0
  6
CONTINUOUS
100
AcDbLine
 10
21.55253573891042
 20
6.793395949963558
 30
0.0
 11
20.50346593316726
 21
7.842465755706721
 31
0.0
  0
LINE
  5
A461D
330
A45CF
100
AcDbEntity
  8
0
  6
CONTINUOUS
100
AcDbLine
 10
21.75211648968556
 20
7.267334408268612
 30
0.0
 11
20.70299044079886
 21
8.316460457155308
 31
0.0
  0
LINE
  5
A461E
330
A45CF
100
AcDbEntity
  8
0
  6
CONTINUOUS
100
AcDbLine
 10
21.95169724046069
 20
7.741272866573663
 30
0.0
 11
20.9298701070431
 21
8.763099999991256
 31
0.0
  0
LINE
  5
A461F
330
A45CF
100
AcDbEntity
  8
0
  6
CONTINUOUS
100
AcDbLine
 10
22.15127799123582
 20
8.215211324878716
 30
0.0
 11
21.60338931612328
 21
8.763099999991256
 31
0.0
  0
LINE
  5
A4620
330
A45CF
100
AcDbEntity
  8
0
  6
CONTINUOUS
100
AcDbLine
 10
22.35085874201096
 20
8.689149783183769
 30
0.0
 11
22.27690852520347
 21
8.763099999991255
 31
0.0
  0
ENDBLK
  5
A4712
330
A45CF
100
AcDbEntity
  8
0
100
AcDbBlockEnd
  0
BLOCK
  5
A4713
330
A4621
100
AcDbEntity
  8
0
100
AcDbBlockBegin
  2
*X40
 70
     1
 10
0.0
 20
0.0
 30
0.0
  3
*X40
  1

  0
LINE
  5
A4622
330
A4621
100
AcDbEntity
  8
0
  6
CONTINUOUS
100
AcDbLine
 10
23.19462913593892
 20
8.169917934846424
 30
0.0
 11
23.70775465517246
 21
8.683043454079957
 31
0.0
  0
LINE
  5
A4623
330
A4621
100
AcDbEntity
  8
0
  6
CONTINUOUS
100
AcDbLine
 10
22.64923161835078
 20
6.951001208178088
 30
0.0
 11
23.9159364069932
 21
8.217705996820516
 31
0.0
  0
LINE
  5
A4624
330
A4621
100
AcDbEntity
  8
0
  6
CONTINUOUS
100
AcDbLine
 10
22.10383410076263
 20
5.732084481509751
 30
0.0
 11
24.12411815881395
 21
7.752368539561078
 31
0.0
  0
LINE
  5
A4625
330
A4621
100
AcDbEntity
  8
0
  6
CONTINUOUS
100
AcDbLine
 10
21.55843658317447
 20
4.513167754841414
 30
0.0
 11
24.3322999106347
 21
7.287031082301639
 31
0.0
  0
LINE
  5
A4626
330
A4621
100
AcDbEntity
  8
0
  6
CONTINUOUS
100
AcDbLine
 10
21.01303906558632
 20
3.294251028173077
 30
0.0
 11
24.54048166245544
 21
6.821693625042199
 31
0.0
  0
LINE
  5
A4627
330
A4621
100
AcDbEntity
  8
0
  6
CONTINUOUS
100
AcDbLine
 10
20.46764154799817
 20
2.075334301504738
 30
0.0
 11
23.28571549467848
 21
4.89340824818505
 31
0.0
  0
LINE
  5
A4628
330
A4621
100
AcDbEntity
  8
0
  6
CONTINUOUS
100
AcDbLine
 10
19.92224403041002
 20
0.8564175748364002
 30
0.0
 11
22.74075865492779
 21
3.674932199354171
 31
0.0
  0
LINE
  5
A4629
330
A4621
100
AcDbEntity
  8
0
  6
CONTINUOUS
100
AcDbLine
 10
23.67305085490148
 20
5.280743608408048
 30
0.0
 11
24.74866341427619
 21
6.356356167782759
 31
0.0
  0
LINE
  5
A462A
330
A4621
100
AcDbEntity
  8
0
  6
CONTINUOUS
100
AcDbLine
 10
23.88118970842314
 20
4.815363252849522
 30
0.0
 11
24.95684516609694
 21
5.89101871052332
 31
0.0
  0
LINE
  5
A462B
330
A4621
100
AcDbEntity
  8
0
  6
CONTINUOUS
100
AcDbLine
 10
19.73925852647308
 20
-0.0000871381807288
 30
0.0
 11
23.4103456646501
 21
3.670999999996297
 31
0.0
  0
LINE
  5
A462C
330
A4621
100
AcDbEntity
  8
0
  6
CONTINUOUS
100
AcDbLine
 10
24.0893285619448
 20
4.349982897290997
 30
0.0
 11
25.16502691791769
 21
5.42568125326388
 31
0.0
  0
LINE
  5
A462D
330
A4621
100
AcDbEntity
  8
0
  6
CONTINUOUS
100
AcDbLine
 10
20.41282099582748
 20
-0.0000438779065108
 30
0.0
 11
21.64944178675636
 21
1.236576913022366
 31
0.0
  0
LINE
  5
A462E
330
A4621
100
AcDbEntity
  8
0
  6
CONTINUOUS
100
AcDbLine
 10
22.78126487373161
 20
2.36839999999762
 30
0.0
 11
24.08386487373029
 21
3.670999999996297
 31
0.0
  0
LINE
  5
A462F
330
A4621
100
AcDbEntity
  8
0
  6
CONTINUOUS
100
AcDbLine
 10
24.29746741546646
 20
3.884602541732471
 30
0.0
 11
25.37320866973843
 21
4.960343796004441
 31
0.0
  0
LINE
  5
A4630
330
A4621
100
AcDbEntity
  8
0
  6
CONTINUOUS
100
AcDbLine
 10
21.08638346518189
 20
-0.0000006176322938
 30
0.0
 11
21.10379033335899
 21
0.0174062505448083
 31
0.0
  0
LINE
  5
A4631
330
A4621
100
AcDbEntity
  8
0
  6
CONTINUOUS
100
AcDbLine
 10
23.4547840828118
 20
2.36839999999762
 30
0.0
 11
25.58139042155918
 21
4.495006338745002
 31
0.0
  0
LINE
  5
A4632
330
A4621
100
AcDbEntity
  8
0
  6
CONTINUOUS
100
AcDbLine
 10
29.30199999996933
 20
8.215615917155148
 30
0.0
 11
29.84948408280543
 21
8.763099999991255
 31
0.0
  0
LINE
  5
A4633
330
A4621
100
AcDbEntity
  8
0
  6
CONTINUOUS
100
AcDbLine
 10
24.12830329189199
 20
2.36839999999762
 30
0.0
 11
25.78957217337993
 21
4.029668881485562
 31
0.0
  0
LINE
  5
A4634
330
A4621
100
AcDbEntity
  8
0
  6
CONTINUOUS
100
AcDbLine
 10
29.30199999996933
 20
7.54209670807496
 30
0.0
 11
30.52300329188562
 21
8.763099999991255
 31
0.0
  0
LINE
  5
A4635
330
A4621
100
AcDbEntity
  8
0
  6
CONTINUOUS
100
AcDbLine
 10
24.80182250097217
 20
2.36839999999762
 30
0.0
 11
25.99775392520067
 21
3.564331424226122
 31
0.0
  0
LINE
  5
A4636
330
A4621
100
AcDbEntity
  8
0
  6
CONTINUOUS
100
AcDbLine
 10
29.30199999996933
 20
6.868577498994774
 30
0.0
 11
30.74199999996926
 21
8.308577498994712
 31
0.0
  0
LINE
  5
A4637
330
A4621
100
AcDbEntity
  8
0
  6
CONTINUOUS
100
AcDbLine
 10
25.13028238392013
 20
2.023340673865392
 30
0.0
 11
26.20593567702142
 21
3.098993966966683
 31
0.0
  0
LINE
  5
A4638
330
A4621
100
AcDbEntity
  8
0
  6
CONTINUOUS
100
AcDbLine
 10
25.33838066033617
 20
1.557919741201244
 30
0.0
 11
26.41411742884217
 21
2.633656509707244
 31
0.0
  0
LINE
  5
A4639
330
A4621
100
AcDbEntity
  8
0
  6
CONTINUOUS
100
AcDbLine
 10
25.54647893675221
 20
1.092498808537098
 30
0.0
 11
26.62229918066291
 21
2.168319052447804
 31
0.0
  0
LINE
  5
A463A
330
A4621
100
AcDbEntity
  8
0
  6
CONTINUOUS
100
AcDbLine
 10
25.75457721316825
 20
0.62707787587295
 30
0.0
 11
26.83048093248366
 21
1.702981595188365
 31
0.0
  0
LINE
  5
A463B
330
A4621
100
AcDbEntity
  8
0
  6
CONTINUOUS
100
AcDbLine
 10
29.30199999996933
 20
6.195058289914587
 30
0.0
 11
30.74199999996926
 21
7.635058289914522
 31
0.0
  0
LINE
  5
A463C
330
A4621
100
AcDbEntity
  8
0
  6
CONTINUOUS
100
AcDbLine
 10
29.30199999996933
 20
5.521539080834401
 30
0.0
 11
30.74199999996926
 21
6.961539080834331
 31
0.0
  0
LINE
  5
A463D
330
A4621
100
AcDbEntity
  8
0
  6
CONTINUOUS
100
AcDbLine
 10
29.30199999996933
 20
4.848019871754214
 30
0.0
 11
30.74199999996925
 21
6.288019871754143
 31
0.0
  0
LINE
  5
A463E
330
A4621
100
AcDbEntity
  8
0
  6
CONTINUOUS
100
AcDbLine
 10
29.30199999996933
 20
4.174500662674028
 30
0.0
 11
30.74199999996925
 21
5.614500662673953
 31
0.0
  0
LINE
  5
A463F
330
A4621
100
AcDbEntity
  8
0
  6
CONTINUOUS
100
AcDbLine
 10
25.96267548958429
 20
0.1616569432088024
 30
0.0
 11
27.18411854636669
 21
1.383099999991207
 31
0.0
  0
LINE
  5
A4640
330
A4621
100
AcDbEntity
  8
0
  6
CONTINUOUS
100
AcDbLine
 10
29.30199999996933
 20
3.500981453593841
 30
0.0
 11
30.74199999996925
 21
4.940981453593762
 31
0.0
  0
LINE
  5
A4641
330
A4621
100
AcDbEntity
  8
0
  6
CONTINUOUS
100
AcDbLine
 10
26.50763775544691
 20
0.0330999999912356
 30
0.0
 11
27.85763775544689
 21
1.383099999991223
 31
0.0
  0
LINE
  5
A4642
330
A4621
100
AcDbEntity
  8
0
  6
CONTINUOUS
100
AcDbLine
 10
29.30199999996933
 20
2.827462244513656
 30
0.0
 11
30.74199999996925
 21
4.267462244513574
 31
0.0
  0
LINE
  5
A4643
330
A4621
100
AcDbEntity
  8
0
  6
CONTINUOUS
100
AcDbLine
 10
27.18115696452709
 20
0.0330999999912356
 30
0.0
 11
28.57843169463094
 21
1.430374730095086
 31
0.0
  0
LINE
  5
A4644
330
A4621
100
AcDbEntity
  8
0
  6
CONTINUOUS
100
AcDbLine
 10
29.2547252698654
 20
2.106668305329547
 30
0.0
 11
30.74199999996924
 21
3.593943035433384
 31
0.0
  0
LINE
  5
A4645
330
A4621
100
AcDbEntity
  8
0
  6
CONTINUOUS
100
AcDbLine
 10
27.85467617360728
 20
0.0330999999912356
 30
0.0
 11
30.74199999996924
 21
2.920423826353195
 31
0.0
  0
LINE
  5
A4646
330
A4621
100
AcDbEntity
  8
0
  6
CONTINUOUS
100
AcDbLine
 10
28.55194421293851
 20
0.0568488302422763
 30
0.0
 11
30.71825116971818
 21
2.223155787021951
 31
0.0
  0
LINE
  5
A4647
330
A4621
100
AcDbEntity
  8
0
  6
CONTINUOUS
100
AcDbLine
 10
29.51480923620385
 20
0.346194644427432
 30
0.0
 11
30.42890535553301
 21
1.260290763756593
 31
0.0
  0
LINE
  5
A4648
330
A4621
100
AcDbEntity
  8
0
  6
CONTINUOUS
100
AcDbLine
 10
19.59027867740337
 20
-0.0000967065718083
 30
0.0
 11
19.55485265190471
 21
0.035329318926844
 31
0.0
  0
LINE
  5
A4649
330
A4621
100
AcDbEntity
  8
0
  6
CONTINUOUS
100
AcDbLine
 10
20.26375463176586
 20
-0.0000534518541091
 30
0.0
 11
19.76305575737534
 21
0.5006454225364014
 31
0.0
  0
LINE
  5
A464A
330
A4621
100
AcDbEntity
  8
0
  6
CONTINUOUS
100
AcDbLine
 10
20.93723058612834
 20
-0.0000101971364099
 30
0.0
 11
19.97125886284597
 21
0.965961526145958
 31
0.0
  0
LINE
  5
A464B
330
A4621
100
AcDbEntity
  8
0
  6
CONTINUOUS
100
AcDbLine
 10
21.25514828313686
 20
0.355591314935257
 30
0.0
 11
20.1794619683166
 21
1.431277629755512
 31
0.0
  0
LINE
  5
A464C
330
A4621
100
AcDbEntity
  8
0
  6
CONTINUOUS
100
AcDbLine
 10
21.46338838394921
 20
0.8208704232030986
 30
0.0
 11
20.38766507378723
 21
1.896593733365069
 31
0.0
  0
LINE
  5
A464D
330
A4621
100
AcDbEntity
  8
0
  6
CONTINUOUS
100
AcDbLine
 10
21.67162848476155
 20
1.28614953147094
 30
0.0
 11
20.59586817925786
 21
2.361909836974626
 31
0.0
  0
LINE
  5
A464E
330
A4621
100
AcDbEntity
  8
0
  6
CONTINUOUS
100
AcDbLine
 10
21.8798685855739
 20
1.751428639738782
 30
0.0
 11
20.80407128472849
 21
2.827225940584183
 31
0.0
  0
LINE
  5
A464F
330
A4621
100
AcDbEntity
  8
0
  6
CONTINUOUS
100
AcDbLine
 10
22.08810868638624
 20
2.216707748006623
 30
0.0
 11
21.01227439019912
 21
3.292542044193739
 31
0.0
  0
LINE
  5
A4650
330
A4621
100
AcDbEntity
  8
0
  6
CONTINUOUS
100
AcDbLine
 10
22.60993564347543
 20
2.36839999999762
 30
0.0
 11
21.22047749566975
 21
3.757858147803296
 31
0.0
  0
LINE
  5
A4651
330
A4621
100
AcDbEntity
  8
0
  6
CONTINUOUS
100
AcDbLine
 10
23.28345485255561
 20
2.36839999999762
 30
0.0
 11
21.42868060114038
 21
4.223174251412853
 31
0.0
  0
LINE
  5
A4652
330
A4621
100
AcDbEntity
  8
0
  6
CONTINUOUS
100
AcDbLine
 10
26.29227406164219
 20
0.0330999999912356
 30
0.0
 11
25.80009199592872
 21
0.5252820657046957
 31
0.0
  0
LINE
  5
A4653
330
A4621
100
AcDbEntity
  8
0
  6
CONTINUOUS
100
AcDbLine
 10
23.9569740616358
 20
2.36839999999762
 30
0.0
 11
21.63688370661101
 21
4.688490355022409
 31
0.0
  0
LINE
  5
A4654
330
A4621
100
AcDbEntity
  8
0
  6
CONTINUOUS
100
AcDbLine
 10
26.96579327072237
 20
0.0330999999912356
 30
0.0
 11
25.2554132311971
 21
1.743480039516508
 31
0.0
  0
LINE
  5
A4655
330
A4621
100
AcDbEntity
  8
0
  6
CONTINUOUS
100
AcDbLine
 10
24.63049327071599
 20
2.36839999999762
 30
0.0
 11
23.32789327071731
 21
3.670999999996297
 31
0.0
  0
LINE
  5
A4656
330
A4621
100
AcDbEntity
  8
0
  6
CONTINUOUS
100
AcDbLine
 10
22.92098674744635
 20
4.077906523267254
 30
0.0
 11
21.84508681208164
 21
5.153806458631966
 31
0.0
  0
LINE
  5
A4657
330
A4621
100
AcDbEntity
  8
0
  6
CONTINUOUS
100
AcDbLine
 10
27.63931247980256
 20
0.0330999999912356
 30
0.0
 11
24.0014124797975
 21
3.670999999996297
 31
0.0
  0
LINE
  5
A4658
330
A4621
100
AcDbEntity
  8
0
  6
CONTINUOUS
100
AcDbLine
 10
23.129125600968
 20
4.5432868788258
 30
0.0
 11
22.05328991755227
 21
5.619122562241522
 31
0.0
  0
LINE
  5
A4659
330
A4621
100
AcDbEntity
  8
0
  6
CONTINUOUS
100
AcDbLine
 10
28.31283168888275
 20
0.0330999999912356
 30
0.0
 11
24.16488385994816
 21
4.181047828925828
 31
0.0
  0
LINE
  5
A465A
330
A4621
100
AcDbEntity
  8
0
  6
CONTINUOUS
100
AcDbLine
 10
23.33726445448964
 20
5.008667234384345
 30
0.0
 11
22.2614930230229
 21
6.084438665851079
 31
0.0
  0
LINE
  5
A465B
330
A4621
100
AcDbEntity
  8
0
  6
CONTINUOUS
100
AcDbLine
 10
28.90645333830136
 20
0.1129975596528112
 30
0.0
 11
27.63635089796295
 21
1.383099999991217
 31
0.0
  0
LINE
  5
A465C
330
A4621
100
AcDbEntity
  8
0
  6
CONTINUOUS
100
AcDbLine
 10
26.43704649509776
 20
2.582404402856405
 30
0.0
 11
23.61992702019732
 21
5.399523877756844
 31
0.0
  0
LINE
  5
A465D
330
A4621
100
AcDbEntity
  8
0
  6
CONTINUOUS
100
AcDbLine
 10
23.54540330801128
 20
5.47404758994289
 30
0.0
 11
22.46969612849353
 21
6.549754769460635
 31
0.0
  0
LINE
  5
A465E
330
A4621
100
AcDbEntity
  8
0
  6
CONTINUOUS
100
AcDbLine
 10
29.40349360806839
 20
0.2894764989659606
 30
0.0
 11
28.30987010704312
 21
1.383099999991234
 31
0.0
  0
LINE
  5
A465F
330
A4621
100
AcDbEntity
  8
0
  6
CONTINUOUS
100
AcDbLine
 10
25.89179548232307
 20
3.801174624711282
 30
0.0
 11
22.67789923396416
 21
7.015070873070191
 31
0.0
  0
LINE
  5
A4660
330
A4621
100
AcDbEntity
  8
0
  6
CONTINUOUS
100
AcDbLine
 10
29.83195328664716
 20
0.5345360294673855
 30
0.0
 11
28.85740608974929
 21
1.50908322636525
 31
0.0
  0
LINE
  5
A4661
330
A4621
100
AcDbEntity
  8
0
  6
CONTINUOUS
100
AcDbLine
 10
25.34654446954838
 20
5.01994484656616
 30
0.0
 11
22.88610233943479
 21
7.480386976679748
 31
0.0
  0
LINE
  5
A4662
330
A4621
100
AcDbEntity
  8
0
  6
CONTINUOUS
100
AcDbLine
 10
30.16871289118725
 20
0.8712956340074771
 30
0.0
 11
29.18680861743091
 21
1.853199907763824
 31
0.0
  0
LINE
  5
A4663
330
A4621
100
AcDbEntity
  8
0
  6
CONTINUOUS
100
AcDbLine
 10
24.80129345677369
 20
6.238715068421037
 30
0.0
 11
23.09430544490542
 21
7.945703080289305
 31
0.0
  0
LINE
  5
A4664
330
A4621
100
AcDbEntity
  8
0
  6
CONTINUOUS
100
AcDbLine
 10
30.43711825255073
 20
1.276409481724182
 30
0.0
 11
29.30199999996933
 21
2.411527734305588
 31
0.0
  0
LINE
  5
A4665
330
A4621
100
AcDbEntity
  8
0
  6
CONTINUOUS
100
AcDbLine
 10
24.256042443999
 20
7.457485290275915
 30
0.0
 11
23.30250855037605
 21
8.411019183898862
 31
0.0
  0
LINE
  5
A4666
330
A4621
100
AcDbEntity
  8
0
  6
CONTINUOUS
100
AcDbLine
 10
30.6424542258006
 20
1.744592717554502
 30
0.0
 11
29.30199999996933
 21
3.085046943385775
 31
0.0
  0
LINE
  5
A4667
330
A4621
100
AcDbEntity
  8
0
  6
CONTINUOUS
100
AcDbLine
 10
23.71079143122431
 20
8.676255512130794
 30
0.0
 11
23.51071165584668
 21
8.876335287508416
 31
0.0
  0
LINE
  5
A4668
330
A4621
100
AcDbEntity
  8
0
  6
CONTINUOUS
100
AcDbLine
 10
30.73454365592805
 20
2.326022496507238
 30
0.0
 11
29.30199999996933
 21
3.758566152465961
 31
0.0
  0
LINE
  5
A4669
330
A4621
100
AcDbEntity
  8
0
  6
CONTINUOUS
100
AcDbLine
 10
30.74199999996924
 20
2.992085361546236
 30
0.0
 11
29.30199999996933
 21
4.432085361546148
 31
0.0
  0
LINE
  5
A466A
330
A4621
100
AcDbEntity
  8
0
  6
CONTINUOUS
100
AcDbLine
 10
30.74199999996924
 20
3.665604570626419
 30
0.0
 11
29.30199999996933
 21
5.105604570626333
 31
0.0
  0
LINE
  5
A466B
330
A4621
100
AcDbEntity
  8
0
  6
CONTINUOUS
100
AcDbLine
 10
30.74199999996925
 20
4.339123779706602
 30
0.0
 11
29.30199999996933
 21
5.77912377970652
 31
0.0
  0
LINE
  5
A466C
330
A4621
100
AcDbEntity
  8
0
  6
CONTINUOUS
100
AcDbLine
 10
30.74199999996925
 20
5.012642988786785
 30
0.0
 11
29.30199999996933
 21
6.452642988786707
 31
0.0
  0
LINE
  5
A466D
330
A4621
100
AcDbEntity
  8
0
  6
CONTINUOUS
100
AcDbLine
 10
30.74199999996925
 20
5.68616219786697
 30
0.0
 11
29.30199999996933
 21
7.126162197866894
 31
0.0
  0
LINE
  5
A466E
330
A4621
100
AcDbEntity
  8
0
  6
CONTINUOUS
100
AcDbLine
 10
30.74199999996925
 20
6.359681406947153
 30
0.0
 11
29.30199999996933
 21
7.799681406947081
 31
0.0
  0
LINE
  5
A466F
330
A4621
100
AcDbEntity
  8
0
  6
CONTINUOUS
100
AcDbLine
 10
30.74199999996926
 20
7.033200616027337
 30
0.0
 11
29.30199999996933
 21
8.473200616027269
 31
0.0
  0
LINE
  5
A4670
330
A4621
100
AcDbEntity
  8
0
  6
CONTINUOUS
100
AcDbLine
 10
30.74199999996926
 20
7.706719825107518
 30
0.0
 11
29.68561982508552
 21
8.763099999991255
 31
0.0
  0
LINE
  5
A4671
330
A4621
100
AcDbEntity
  8
0
  6
CONTINUOUS
100
AcDbLine
 10
30.74199999996926
 20
8.380239034187703
 30
0.0
 11
30.35913903416571
 21
8.763099999991255
 31
0.0
  0
ENDBLK
  5
A4714
330
A4621
100
AcDbEntity
  8
0
100
AcDbBlockEnd
  0
BLOCK
  5
A4715
330
A4672
100
AcDbEntity
  8
0
100
AcDbBlockBegin
  2
*X41
 70
     1
 10
0.0
 20
0.0
 30
0.0
  3
*X41
  1

  0
LINE
  5
A4673
330
A4672
100
AcDbEntity
  8
0
  6
CONTINUOUS
100
AcDbLine
 10
31.64199999996833
 20
8.5350582899136
 30
0.0
 11
31.87004171004599
 21
8.763099999991255
 31
0.0
  0
LINE
  5
A4674
330
A4672
100
AcDbEntity
  8
0
  6
CONTINUOUS
100
AcDbLine
 10
31.64199999996833
 20
7.861539080833413
 30
0.0
 11
32.54356091912618
 21
8.763099999991255
 31
0.0
  0
LINE
  5
A4675
330
A4672
100
AcDbEntity
  8
0
  6
CONTINUOUS
100
AcDbLine
 10
31.64199999996833
 20
7.188019871753227
 30
0.0
 11
33.08199999996839
 21
8.628019871753281
 31
0.0
  0
LINE
  5
A4676
330
A4672
100
AcDbEntity
  8
0
  6
CONTINUOUS
100
AcDbLine
 10
31.64199999996833
 20
6.514500662673041
 30
0.0
 11
33.08199999996839
 21
7.954500662673095
 31
0.0
  0
LINE
  5
A4677
330
A4672
100
AcDbEntity
  8
0
  6
CONTINUOUS
100
AcDbLine
 10
31.64199999996833
 20
5.840981453592855
 30
0.0
 11
33.08199999996839
 21
7.28098145359291
 31
0.0
  0
LINE
  5
A4678
330
A4672
100
AcDbEntity
  8
0
  6
CONTINUOUS
100
AcDbLine
 10
31.64199999996833
 20
5.167462244512668
 30
0.0
 11
33.08199999996839
 21
6.607462244512723
 31
0.0
  0
LINE
  5
A4679
330
A4672
100
AcDbEntity
  8
0
  6
CONTINUOUS
100
AcDbLine
 10
31.64199999996833
 20
4.493943035432482
 30
0.0
 11
33.08199999996839
 21
5.933943035432536
 31
0.0
  0
LINE
  5
A467A
330
A4672
100
AcDbEntity
  8
0
  6
CONTINUOUS
100
AcDbLine
 10
31.64199999996833
 20
3.820423826352294
 30
0.0
 11
33.08199999996839
 21
5.260423826352349
 31
0.0
  0
LINE
  5
A467B
330
A4672
100
AcDbEntity
  8
0
  6
CONTINUOUS
100
AcDbLine
 10
31.64199999996833
 20
3.146904617272108
 30
0.0
 11
33.08199999996839
 21
4.586904617272163
 31
0.0
  0
LINE
  5
A467C
330
A4672
100
AcDbEntity
  8
0
  6
CONTINUOUS
100
AcDbLine
 10
36.23199999996837
 20
8.410423826352327
 30
0.0
 11
36.58467617360729
 21
8.763099999991255
 31
0.0
  0
LINE
  5
A467D
330
A4672
100
AcDbEntity
  8
0
  6
CONTINUOUS
100
AcDbLine
 10
36.23199999996837
 20
7.73690461727214
 30
0.0
 11
37.25819538268748
 21
8.763099999991255
 31
0.0
  0
LINE
  5
A467E
330
A4672
100
AcDbEntity
  8
0
  6
CONTINUOUS
100
AcDbLine
 10
31.64295791647285
 20
2.474343324696431
 30
0.0
 11
33.08199999996839
 21
3.913385408191976
 31
0.0
  0
LINE
  5
A467F
330
A4672
100
AcDbEntity
  8
0
  6
CONTINUOUS
100
AcDbLine
 10
31.72131278798881
 20
1.879178987132208
 30
0.0
 11
33.08199999996839
 21
3.239866199111789
 31
0.0
  0
LINE
  5
A4680
330
A4672
100
AcDbEntity
  8
0
  6
CONTINUOUS
100
AcDbLine
 10
36.23199999996837
 20
7.063385408191953
 30
0.0
 11
37.67199999996831
 21
8.503385408191894
 31
0.0
  0
LINE
  5
A4681
330
A4672
100
AcDbEntity
  8
0
  6
CONTINUOUS
100
AcDbLine
 10
36.23199999996837
 20
6.389866199111767
 30
0.0
 11
37.67199999996831
 21
7.829866199111708
 31
0.0
  0
LINE
  5
A4682
330
A4672
100
AcDbEntity
  8
0
  6
CONTINUOUS
100
AcDbLine
 10
31.90398109638795
 20
1.388328086451165
 30
0.0
 11
33.08199999996839
 21
2.566346990031603
 31
0.0
  0
LINE
  5
A4683
330
A4672
100
AcDbEntity
  8
0
  6
CONTINUOUS
100
AcDbLine
 10
36.23199999996837
 20
5.71634699003158
 30
0.0
 11
37.67199999996831
 21
7.156346990031522
 31
0.0
  0
LINE
  5
A4684
330
A4672
100
AcDbEntity
  8
0
  6
CONTINUOUS
100
AcDbLine
 10
32.15410588803598
 20
0.9649336690190076
 30
0.0
 11
33.19577568229511
 21
2.006603463278144
 31
0.0
  0
LINE
  5
A4685
330
A4672
100
AcDbEntity
  8
0
  6
CONTINUOUS
100
AcDbLine
 10
36.23199999996837
 20
5.042827780951393
 30
0.0
 11
37.67199999996831
 21
6.482827780951334
 31
0.0
  0
LINE
  5
A4686
330
A4672
100
AcDbEntity
  8
0
  6
CONTINUOUS
100
AcDbLine
 10
32.45868320364774
 20
0.5959917755505852
 30
0.0
 11
33.48433514284099
 21
1.621643714743831
 31
0.0
  0
LINE
  5
A4687
330
A4672
100
AcDbEntity
  8
0
  6
CONTINUOUS
100
AcDbLine
 10
36.23199999996837
 20
4.369308571871207
 30
0.0
 11
37.67199999996831
 21
5.809308571871148
 31
0.0
  0
LINE
  5
A4688
330
A4672
100
AcDbEntity
  8
0
  6
CONTINUOUS
100
AcDbLine
 10
32.83977805121244
 20
0.3035674140350983
 30
0.0
 11
33.9144983171802
 21
1.378287680002859
 31
0.0
  0
LINE
  5
A4689
330
A4672
100
AcDbEntity
  8
0
  6
CONTINUOUS
100
AcDbLine
 10
36.23199999996837
 20
3.695789362791021
 30
0.0
 11
37.67199999996831
 21
5.135789362790963
 31
0.0
  0
LINE
  5
A468A
330
A4672
100
AcDbEntity
  8
0
  6
CONTINUOUS
100
AcDbLine
 10
33.28925592101007
 20
0.0795260747525335
 30
0.0
 11
34.4429104952855
 21
1.233180649027971
 31
0.0
  0
LINE
  5
A468B
330
A4672
100
AcDbEntity
  8
0
  6
CONTINUOUS
100
AcDbLine
 10
36.23199999996837
 20
3.022270153710834
 30
0.0
 11
37.67199999996831
 21
4.462270153710776
 31
0.0
  0
LINE
  5
A468C
330
A4672
100
AcDbEntity
  8
0
  6
CONTINUOUS
100
AcDbLine
 10
33.76550592101022
 20
-0.1177431343275011
 30
0.0
 11
35.18258581678813
 21
1.299336761450407
 31
0.0
  0
LINE
  5
A468D
330
A4672
100
AcDbEntity
  8
0
  6
CONTINUOUS
100
AcDbLine
 10
36.20355631289775
 20
2.320307257560033
 30
0.0
 11
37.67199999996831
 21
3.788750944630589
 31
0.0
  0
LINE
  5
A468E
330
A4672
100
AcDbEntity
  8
0
  6
CONTINUOUS
100
AcDbLine
 10
34.35908899259119
 20
-0.1976792718267175
 30
0.0
 11
37.67199999996831
 21
3.115231735550402
 31
0.0
  0
LINE
  5
A468F
330
A4672
100
AcDbEntity
  8
0
  6
CONTINUOUS
100
AcDbLine
 10
35.04438808203069
 20
-0.1858993914674008
 30
0.0
 11
37.66594960818956
 21
2.435662134691464
 31
0.0
  0
LINE
  5
A4690
330
A4672
100
AcDbEntity
  8
0
  6
CONTINUOUS
100
AcDbLine
 10
35.95405053101277
 20
0.0502438484344916
 30
0.0
 11
37.49337557446166
 21
1.589568891883381
 31
0.0
  0
LINE
  5
A4691
330
A4672
100
AcDbEntity
  8
0
  6
CONTINUOUS
100
AcDbLine
 10
32.48400274193772
 20
0.5765634104975641
 30
0.0
 11
32.34694398754057
 21
0.7136221648947103
 31
0.0
  0
LINE
  5
A4692
330
A4672
100
AcDbEntity
  8
0
  6
CONTINUOUS
100
AcDbLine
 10
33.86697683926317
 20
-0.1328914777477044
 30
0.0
 11
31.70105830546678
 21
2.033027056048692
 31
0.0
  0
LINE
  5
A4693
330
A4672
100
AcDbEntity
  8
0
  6
CONTINUOUS
100
AcDbLine
 10
34.64261010498837
 20
-0.2350055343927187
 30
0.0
 11
31.64199999996833
 21
2.765604570627322
 31
0.0
  0
LINE
  5
A4694
330
A4672
100
AcDbEntity
  8
0
  6
CONTINUOUS
100
AcDbLine
 10
35.24112258276081
 20
-0.1599988030849646
 30
0.0
 11
31.64199999996833
 21
3.439123779707508
 31
0.0
  0
LINE
  5
A4695
330
A4672
100
AcDbEntity
  8
0
  6
CONTINUOUS
100
AcDbLine
 10
35.777520339722
 20
-0.0228773509659694
 30
0.0
 11
34.52146233972803
 21
1.233180649027998
 31
0.0
  0
LINE
  5
A4696
330
A4672
100
AcDbEntity
  8
0
  6
CONTINUOUS
100
AcDbLine
 10
33.08199999996839
 20
2.672642988787641
 30
0.0
 11
31.64199999996833
 21
4.112642988787695
 31
0.0
  0
LINE
  5
A4697
330
A4672
100
AcDbEntity
  8
0
  6
CONTINUOUS
100
AcDbLine
 10
36.25377033972294
 20
0.1743918581132773
 30
0.0
 11
35.14317118804349
 21
1.284991009792725
 31
0.0
  0
LINE
  5
A4698
330
A4672
100
AcDbEntity
  8
0
  6
CONTINUOUS
100
AcDbLine
 10
33.08199999996839
 20
3.346162197867827
 30
0.0
 11
31.64199999996833
 21
4.786162197867881
 31
0.0
  0
LINE
  5
A4699
330
A4672
100
AcDbEntity
  8
0
  6
CONTINUOUS
100
AcDbLine
 10
36.65748856908375
 20
0.4441928378326456
 30
0.0
 11
35.63696437513804
 21
1.464717031778358
 31
0.0
  0
LINE
  5
A469A
330
A4672
100
AcDbEntity
  8
0
  6
CONTINUOUS
100
AcDbLine
 10
33.08199999996839
 20
4.019681406948013
 30
0.0
 11
31.64199999996833
 21
5.459681406948068
 31
0.0
  0
LINE
  5
A469B
330
A4672
100
AcDbEntity
  8
0
  6
CONTINUOUS
100
AcDbLine
 10
37.00809517418186
 20
0.7671054418147287
 30
0.0
 11
35.99025189342645
 21
1.784948722570141
 31
0.0
  0
LINE
  5
A469C
330
A4672
100
AcDbEntity
  8
0
  6
CONTINUOUS
100
AcDbLine
 10
33.08199999996839
 20
4.6932006160282
 30
0.0
 11
31.64199999996833
 21
6.133200616028255
 31
0.0
  0
LINE
  5
A469D
330
A4672
100
AcDbEntity
  8
0
  6
CONTINUOUS
100
AcDbLine
 10
37.30051953569851
 20
1.148200289378269
 30
0.0
 11
36.19229254868971
 21
2.256427276387067
 31
0.0
  0
LINE
  5
A469E
330
A4672
100
AcDbEntity
  8
0
  6
CONTINUOUS
100
AcDbLine
 10
33.08199999996839
 20
5.366719825108387
 30
0.0
 11
31.64199999996833
 21
6.806719825108441
 31
0.0
  0
LINE
  5
A469F
330
A4672
100
AcDbEntity
  8
0
  6
CONTINUOUS
100
AcDbLine
 10
37.50488468691001
 20
1.617354347246954
 30
0.0
 11
36.23199999996837
 21
2.890239034188595
 31
0.0
  0
LINE
  5
A46A0
330
A4672
100
AcDbEntity
  8
0
  6
CONTINUOUS
100
AcDbLine
 10
33.08199999996839
 20
6.040239034188573
 30
0.0
 11
31.64199999996833
 21
7.480239034188628
 31
0.0
  0
LINE
  5
A46A1
330
A4672
100
AcDbEntity
  8
0
  6
CONTINUOUS
100
AcDbLine
 10
37.63036768068979
 20
2.165390562547355
 30
0.0
 11
36.23199999996837
 21
3.563758243268782
 31
0.0
  0
LINE
  5
A46A2
330
A4672
100
AcDbEntity
  8
0
  6
CONTINUOUS
100
AcDbLine
 10
33.08199999996839
 20
6.713758243268759
 30
0.0
 11
31.64199999996833
 21
8.153758243268815
 31
0.0
  0
LINE
  5
A46A3
330
A4672
100
AcDbEntity
  8
0
  6
CONTINUOUS
100
AcDbLine
 10
37.67199999996831
 20
2.797277452349027
 30
0.0
 11
36.23199999996837
 21
4.237277452348969
 31
0.0
  0
LINE
  5
A46A4
330
A4672
100
AcDbEntity
  8
0
  6
CONTINUOUS
100
AcDbLine
 10
37.67199999996831
 20
3.470796661429214
 30
0.0
 11
36.23199999996837
 21
4.910796661429155
 31
0.0
  0
LINE
  5
A46A5
330
A4672
100
AcDbEntity
  8
0
  6
CONTINUOUS
100
AcDbLine
 10
37.67199999996831
 20
4.1443158705094
 30
0.0
 11
36.23199999996837
 21
5.584315870509341
 31
0.0
  0
LINE
  5
A46A6
330
A4672
100
AcDbEntity
  8
0
  6
CONTINUOUS
100
AcDbLine
 10
33.08199999996839
 20
7.387277452348947
 30
0.0
 11
31.70617745232608
 21
8.763099999991255
 31
0.0
  0
LINE
  5
A46A7
330
A4672
100
AcDbEntity
  8
0
  6
CONTINUOUS
100
AcDbLine
 10
33.08199999996839
 20
8.060796661429134
 30
0.0
 11
32.37969666140626
 21
8.763099999991255
 31
0.0
  0
LINE
  5
A46A8
330
A4672
100
AcDbEntity
  8
0
  6
CONTINUOUS
100
AcDbLine
 10
33.08199999996839
 20
8.73431587050932
 30
0.0
 11
33.05321587048645
 21
8.763099999991255
 31
0.0
  0
LINE
  5
A46A9
330
A4672
100
AcDbEntity
  8
0
  6
CONTINUOUS
100
AcDbLine
 10
37.67199999996831
 20
4.817835079589587
 30
0.0
 11
36.23199999996837
 21
6.257835079589528
 31
0.0
  0
LINE
  5
A46AA
330
A4672
100
AcDbEntity
  8
0
  6
CONTINUOUS
100
AcDbLine
 10
37.67199999996831
 20
5.491354288669773
 30
0.0
 11
36.23199999996837
 21
6.931354288669715
 31
0.0
  0
LINE
  5
A46AB
330
A4672
100
AcDbEntity
  8
0
  6
CONTINUOUS
100
AcDbLine
 10
37.67199999996831
 20
6.164873497749959
 30
0.0
 11
36.23199999996837
 21
7.6048734977499
 31
0.0
  0
LINE
  5
A46AC
330
A4672
100
AcDbEntity
  8
0
  6
CONTINUOUS
100
AcDbLine
 10
37.67199999996831
 20
6.838392706830145
 30
0.0
 11
36.23199999996837
 21
8.278392706830086
 31
0.0
  0
LINE
  5
A46AD
330
A4672
100
AcDbEntity
  8
0
  6
CONTINUOUS
100
AcDbLine
 10
37.67199999996831
 20
7.511911915910333
 30
0.0
 11
36.42081191588738
 21
8.763099999991255
 31
0.0
  0
LINE
  5
A46AE
330
A4672
100
AcDbEntity
  8
0
  6
CONTINUOUS
100
AcDbLine
 10
37.67199999996831
 20
8.18543112499052
 30
0.0
 11
37.09433112496757
 21
8.763099999991255
 31
0.0
  0
ENDBLK
  5
A4716
330
A4672
100
AcDbEntity
  8
0
100
AcDbBlockEnd
  0
BLOCK
  5
A4717
330
A46AF
100
AcDbEntity
  8
0
100
AcDbBlockBegin
  2
*X42
 70
     1
 10
0.0
 20
0.0
 30
0.0
  3
*X42
  1

  0
LINE
  5
A46B0
330
A46AF
100
AcDbEntity
  8
0
  6
CONTINUOUS
100
AcDbLine
 10
38.60499999996136
 20
8.762866199104765
 30
0.0
 11
38.71672554182345
 21
8.874591740966855
 31
0.0
  0
LINE
  5
A46B1
330
A46AF
100
AcDbEntity
  8
0
  6
CONTINUOUS
100
AcDbLine
 10
38.60499999996136
 20
8.089346990024577
 30
0.0
 11
39.03418785440363
 21
8.518534844466847
 31
0.0
  0
LINE
  5
A46B2
330
A46AF
100
AcDbEntity
  8
0
  6
CONTINUOUS
100
AcDbLine
 10
38.60499999996136
 20
7.41582778094439
 30
0.0
 11
39.35165016698382
 21
8.16247794796684
 31
0.0
  0
LINE
  5
A46B3
330
A46AF
100
AcDbEntity
  8
0
  6
CONTINUOUS
100
AcDbLine
 10
38.60499999996136
 20
6.742308571864204
 30
0.0
 11
39.66911247956399
 21
7.806421051466834
 31
0.0
  0
LINE
  5
A46B4
330
A46AF
100
AcDbEntity
  8
0
  6
CONTINUOUS
100
AcDbLine
 10
38.60499999996136
 20
6.068789362784018
 30
0.0
 11
39.98657479214418
 21
7.450364154966827
 31
0.0
  0
LINE
  5
A46B5
330
A46AF
100
AcDbEntity
  8
0
  6
CONTINUOUS
100
AcDbLine
 10
38.60499999996136
 20
5.395270153703832
 30
0.0
 11
40.30403710472435
 21
7.09430725846682
 31
0.0
  0
LINE
  5
A46B6
330
A46AF
100
AcDbEntity
  8
0
  6
CONTINUOUS
100
AcDbLine
 10
38.60499999996136
 20
4.721750944623645
 30
0.0
 11
40.62149941730453
 21
6.738250361966813
 31
0.0
  0
LINE
  5
A46B7
330
A46AF
100
AcDbEntity
  8
0
  6
CONTINUOUS
100
AcDbLine
 10
38.60499999996136
 20
4.048231735543458
 30
0.0
 11
40.93896172988471
 21
6.382193465466806
 31
0.0
  0
LINE
  5
A46B8
330
A46AF
100
AcDbEntity
  8
0
  6
CONTINUOUS
100
AcDbLine
 10
38.60499999996136
 20
3.374712526463272
 30
0.0
 11
40.02599999995994
 21
4.795712526461843
 31
0.0
  0
LINE
  5
A46B9
330
A46AF
100
AcDbEntity
  8
0
  6
CONTINUOUS
100
AcDbLine
 10
38.60499999996136
 20
2.701193317383085
 30
0.0
 11
40.02599999995994
 21
4.122193317381657
 31
0.0
  0
LINE
  5
A46BA
330
A46AF
100
AcDbEntity
  8
0
  6
CONTINUOUS
100
AcDbLine
 10
40.28339754687704
 20
5.053110073378947
 30
0.0
 11
41.25642404246489
 21
6.026136568966799
 31
0.0
  0
LINE
  5
A46BB
330
A46AF
100
AcDbEntity
  8
0
  6
CONTINUOUS
100
AcDbLine
 10
40.60085985945722
 20
4.697053176878939
 30
0.0
 11
41.57388635504507
 21
5.670079672466793
 31
0.0
  0
LINE
  5
A46BC
330
A46AF
100
AcDbEntity
  8
0
  6
CONTINUOUS
100
AcDbLine
 10
43.57899999995641
 20
8.348712526458318
 30
0.0
 11
43.99338747348935
 21
8.763099999991255
 31
0.0
  0
LINE
  5
A46BD
330
A46AF
100
AcDbEntity
  8
0
  6
CONTINUOUS
100
AcDbLine
 10
43.57899999995641
 20
7.675193317378131
 30
0.0
 11
44.66690668256953
 21
8.763099999991255
 31
0.0
  0
LINE
  5
A46BE
330
A46AF
100
AcDbEntity
  8
0
  6
CONTINUOUS
100
AcDbLine
 10
38.60499999996136
 20
2.027674108302898
 30
0.0
 11
40.02599999995994
 21
3.44867410830147
 31
0.0
  0
LINE
  5
A46BF
330
A46AF
100
AcDbEntity
  8
0
  6
CONTINUOUS
100
AcDbLine
 10
38.60499999996136
 20
1.354154899222712
 30
0.0
 11
40.02599999995994
 21
2.775154899221284
 31
0.0
  0
LINE
  5
A46C0
330
A46AF
100
AcDbEntity
  8
0
  6
CONTINUOUS
100
AcDbLine
 10
38.60499999996136
 20
0.6806356901425255
 30
0.0
 11
40.02599999995994
 21
2.101635690141098
 31
0.0
  0
LINE
  5
A46C1
330
A46AF
100
AcDbEntity
  8
0
  6
CONTINUOUS
100
AcDbLine
 10
38.60499999996136
 20
0.0071164810623383
 30
0.0
 11
40.02599999995994
 21
1.428116481060911
 31
0.0
  0
LINE
  5
A46C2
330
A46AF
100
AcDbEntity
  8
0
  6
CONTINUOUS
100
AcDbLine
 10
40.9183221720374
 20
4.340996280378933
 30
0.0
 11
41.89134866762525
 21
5.314022775966786
 31
0.0
  0
LINE
  5
A46C3
330
A46AF
100
AcDbEntity
  8
0
  6
CONTINUOUS
100
AcDbLine
 10
41.23578448461758
 20
3.984939383878926
 30
0.0
 11
42.20881098020543
 21
4.957965879466778
 31
0.0
  0
LINE
  5
A46C4
330
A46AF
100
AcDbEntity
  8
0
  6
CONTINUOUS
100
AcDbLine
 10
41.55324679719776
 20
3.628882487378919
 30
0.0
 11
42.52627329278561
 21
4.601908982966772
 31
0.0
  0
LINE
  5
A46C5
330
A46AF
100
AcDbEntity
  8
0
  6
CONTINUOUS
100
AcDbLine
 10
41.87070910977793
 20
3.272825590878912
 30
0.0
 11
42.84373560536579
 21
4.245852086466765
 31
0.0
  0
LINE
  5
A46C6
330
A46AF
100
AcDbEntity
  8
0
  6
CONTINUOUS
100
AcDbLine
 10
43.57899999995641
 20
7.001674108297943
 30
0.0
 11
44.99999999995498
 21
8.422674108296516
 31
0.0
  0
LINE
  5
A46C7
330
A46AF
100
AcDbEntity
  8
0
  6
CONTINUOUS
100
AcDbLine
 10
43.57899999995641
 20
6.328154899217758
 30
0.0
 11
44.99999999995498
 21
7.749154899216329
 31
0.0
  0
LINE
  5
A46C8
330
A46AF
100
AcDbEntity
  8
0
  6
CONTINUOUS
100
AcDbLine
 10
43.57899999995641
 20
5.654635690137571
 30
0.0
 11
44.99999999995498
 21
7.075635690136142
 31
0.0
  0
LINE
  5
A46C9
330
A46AF
100
AcDbEntity
  8
0
  6
CONTINUOUS
100
AcDbLine
 10
43.57899999995641
 20
4.981116481057384
 30
0.0
 11
44.99999999995498
 21
6.402116481055955
 31
0.0
  0
LINE
  5
A46CA
330
A46AF
100
AcDbEntity
  8
0
  6
CONTINUOUS
100
AcDbLine
 10
39.27140272797921
 20
-0.0000000000000009
 30
0.0
 11
40.02599999995994
 21
0.7545972719807246
 31
0.0
  0
LINE
  5
A46CB
330
A46AF
100
AcDbEntity
  8
0
  6
CONTINUOUS
100
AcDbLine
 10
39.9449219370594
 20
-0.0000000000000009
 30
0.0
 11
40.02599999995994
 21
0.0810780629005379
 31
0.0
  0
LINE
  5
A46CC
330
A46AF
100
AcDbEntity
  8
0
  6
CONTINUOUS
100
AcDbLine
 10
42.18817142235812
 20
2.916768694378905
 30
0.0
 11
43.16119791794597
 21
3.889795189966758
 31
0.0
  0
LINE
  5
A46CD
330
A46AF
100
AcDbEntity
  8
0
  6
CONTINUOUS
100
AcDbLine
 10
42.50563373493829
 20
2.560711797878898
 30
0.0
 11
43.47866023052615
 21
3.533738293466751
 31
0.0
  0
LINE
  5
A46CE
330
A46AF
100
AcDbEntity
  8
0
  6
CONTINUOUS
100
AcDbLine
 10
43.57899999995641
 20
4.307597271977198
 30
0.0
 11
44.99999999995498
 21
5.728597271975769
 31
0.0
  0
LINE
  5
A46CF
330
A46AF
100
AcDbEntity
  8
0
  6
CONTINUOUS
100
AcDbLine
 10
43.57899999995641
 20
3.634078062897011
 30
0.0
 11
44.99999999995498
 21
5.055078062895582
 31
0.0
  0
LINE
  5
A46D0
330
A46AF
100
AcDbEntity
  8
0
  6
CONTINUOUS
100
AcDbLine
 10
42.82309604751848
 20
2.204654901378891
 30
0.0
 11
44.99999999995498
 21
4.381558853815395
 31
0.0
  0
LINE
  5
A46D1
330
A46AF
100
AcDbEntity
  8
0
  6
CONTINUOUS
100
AcDbLine
 10
43.14055836009865
 20
1.848598004878885
 30
0.0
 11
44.99999999995498
 21
3.70803964473521
 31
0.0
  0
LINE
  5
A46D2
330
A46AF
100
AcDbEntity
  8
0
  6
CONTINUOUS
100
AcDbLine
 10
43.45802067267883
 20
1.492541108378878
 30
0.0
 11
44.99999999995498
 21
3.034520435655023
 31
0.0
  0
LINE
  5
A46D3
330
A46AF
100
AcDbEntity
  8
0
  6
CONTINUOUS
100
AcDbLine
 10
43.77548298525902
 20
1.136484211878871
 30
0.0
 11
44.99999999995498
 21
2.361001226574837
 31
0.0
  0
LINE
  5
A46D4
330
A46AF
100
AcDbEntity
  8
0
  6
CONTINUOUS
100
AcDbLine
 10
44.09294529783919
 20
0.7804273153788639
 30
0.0
 11
44.99999999995498
 21
1.687482017494649
 31
0.0
  0
LINE
  5
A46D5
330
A46AF
100
AcDbEntity
  8
0
  6
CONTINUOUS
100
AcDbLine
 10
44.41040761041938
 20
0.4243704188788566
 30
0.0
 11
44.99999999995498
 21
1.013962808414463
 31
0.0
  0
LINE
  5
A46D6
330
A46AF
100
AcDbEntity
  8
0
  6
CONTINUOUS
100
AcDbLine
 10
44.72786992299955
 20
0.0683135223788494
 30
0.0
 11
44.99999999995498
 21
0.340443599334276
 31
0.0
  0
LINE
  5
A46D7
330
A46AF
100
AcDbEntity
  8
0
  6
CONTINUOUS
100
AcDbLine
 10
39.12223903415696
 20
-0.0000000000000009
 30
0.0
 11
38.60499999996136
 21
0.5172390341955961
 31
0.0
  0
LINE
  5
A46D8
330
A46AF
100
AcDbEntity
  8
0
  6
CONTINUOUS
100
AcDbLine
 10
39.79575824323715
 20
-0.0000000000000009
 30
0.0
 11
38.60499999996136
 21
1.190758243275783
 31
0.0
  0
LINE
  5
A46D9
330
A46AF
100
AcDbEntity
  8
0
  6
CONTINUOUS
100
AcDbLine
 10
40.02599999995994
 20
0.443277452357397
 30
0.0
 11
38.60499999996136
 21
1.864277452355969
 31
0.0
  0
LINE
  5
A46DA
330
A46AF
100
AcDbEntity
  8
0
  6
CONTINUOUS
100
AcDbLine
 10
40.02599999995994
 20
1.116796661437583
 30
0.0
 11
38.60499999996136
 21
2.537796661436155
 31
0.0
  0
LINE
  5
A46DB
330
A46AF
100
AcDbEntity
  8
0
  6
CONTINUOUS
100
AcDbLine
 10
40.02599999995994
 20
1.79031587051777
 30
0.0
 11
38.60499999996136
 21
3.211315870516341
 31
0.0
  0
LINE
  5
A46DC
330
A46AF
100
AcDbEntity
  8
0
  6
CONTINUOUS
100
AcDbLine
 10
40.02599999995994
 20
2.463835079597956
 30
0.0
 11
38.60499999996136
 21
3.884835079596527
 31
0.0
  0
LINE
  5
A46DD
330
A46AF
100
AcDbEntity
  8
0
  6
CONTINUOUS
100
AcDbLine
 10
40.02599999995994
 20
3.137354288678143
 30
0.0
 11
38.60499999996136
 21
4.558354288676714
 31
0.0
  0
LINE
  5
A46DE
330
A46AF
100
AcDbEntity
  8
0
  6
CONTINUOUS
100
AcDbLine
 10
40.02599999995994
 20
3.810873497758329
 30
0.0
 11
38.60499999996136
 21
5.2318734977569
 31
0.0
  0
LINE
  5
A46DF
330
A46AF
100
AcDbEntity
  8
0
  6
CONTINUOUS
100
AcDbLine
 10
40.02599999995994
 20
4.484392706838515
 30
0.0
 11
38.60499999996136
 21
5.905392706837086
 31
0.0
  0
LINE
  5
A46E0
330
A46AF
100
AcDbEntity
  8
0
  6
CONTINUOUS
100
AcDbLine
 10
44.99999999995498
 20
0.183911915923658
 30
0.0
 11
41.53858364506288
 21
3.64532827081576
 31
0.0
  0
LINE
  5
A46E1
330
A46AF
100
AcDbEntity
  8
0
  6
CONTINUOUS
100
AcDbLine
 10
40.02599999995994
 20
5.157911915918703
 30
0.0
 11
38.60499999996136
 21
6.578911915917274
 31
0.0
  0
LINE
  5
A46E2
330
A46AF
100
AcDbEntity
  8
0
  6
CONTINUOUS
100
AcDbLine
 10
44.99999999995498
 20
0.8574311250038447
 30
0.0
 11
38.60499999996136
 21
7.25243112499746
 31
0.0
  0
LINE
  5
A46E3
330
A46AF
100
AcDbEntity
  8
0
  6
CONTINUOUS
100
AcDbLine
 10
44.99999999995498
 20
1.530950334084031
 30
0.0
 11
38.60499999996136
 21
7.925950334077647
 31
0.0
  0
LINE
  5
A46E4
330
A46AF
100
AcDbEntity
  8
0
  6
CONTINUOUS
100
AcDbLine
 10
44.99999999995498
 20
2.204469543164218
 30
0.0
 11
43.57899999995641
 21
3.625469543162789
 31
0.0
  0
LINE
  5
A46E5
330
A46AF
100
AcDbEntity
  8
0
  6
CONTINUOUS
100
AcDbLine
 10
41.89876730984767
 20
5.305702233271528
 30
0.0
 11
38.60499999996136
 21
8.599469543157834
 31
0.0
  0
LINE
  5
A46E6
330
A46AF
100
AcDbEntity
  8
0
  6
CONTINUOUS
100
AcDbLine
 10
44.99999999995498
 20
2.877988752244405
 30
0.0
 11
43.57899999995641
 21
4.298988752242975
 31
0.0
  0
LINE
  5
A46E7
330
A46AF
100
AcDbEntity
  8
0
  6
CONTINUOUS
100
AcDbLine
 10
44.99999999995498
 20
3.551507961324591
 30
0.0
 11
43.57899999995641
 21
4.972507961323163
 31
0.0
  0
LINE
  5
A46E8
330
A46AF
100
AcDbEntity
  8
0
  6
CONTINUOUS
100
AcDbLine
 10
44.99999999995498
 20
4.225027170404777
 30
0.0
 11
43.57899999995641
 21
5.646027170403348
 31
0.0
  0
LINE
  5
A46E9
330
A46AF
100
AcDbEntity
  8
0
  6
CONTINUOUS
100
AcDbLine
 10
44.99999999995498
 20
4.898546379484964
 30
0.0
 11
43.57899999995641
 21
6.319546379483535
 31
0.0
  0
LINE
  5
A46EA
330
A46AF
100
AcDbEntity
  8
0
  6
CONTINUOUS
100
AcDbLine
 10
44.99999999995498
 20
5.572065588565151
 30
0.0
 11
43.57899999995641
 21
6.993065588563722
 31
0.0
  0
LINE
  5
A46EB
330
A46AF
100
AcDbEntity
  8
0
  6
CONTINUOUS
100
AcDbLine
 10
44.99999999995498
 20
6.245584797645336
 30
0.0
 11
43.57899999995641
 21
7.666584797643908
 31
0.0
  0
LINE
  5
A46EC
330
A46AF
100
AcDbEntity
  8
0
  6
CONTINUOUS
100
AcDbLine
 10
44.99999999995498
 20
6.919104006725522
 30
0.0
 11
43.57899999995641
 21
8.340104006724093
 31
0.0
  0
LINE
  5
A46ED
330
A46AF
100
AcDbEntity
  8
0
  6
CONTINUOUS
100
AcDbLine
 10
44.99999999995498
 20
7.592623215805709
 30
0.0
 11
43.82952321576943
 21
8.763099999991255
 31
0.0
  0
LINE
  5
A46EE
330
A46AF
100
AcDbEntity
  8
0
  6
CONTINUOUS
100
AcDbLine
 10
44.99999999995498
 20
8.266142424885896
 30
0.0
 11
44.50304242484962
 21
8.763099999991255
 31
0.0
  0
ENDBLK
  5
A4718
330
A46AF
100
AcDbEntity
  8
0
100
AcDbBlockEnd
  0
BLOCK
  5
A4719
330
A46EF
100
AcDbEntity
  8
0
100
AcDbBlockBegin
  2
*X43
 70
     1
 10
0.0
 20
0.0
 30
0.0
  3
*X43
  1

  0
LINE
  5
A46F0
330
A46EF
100
AcDbEntity
  8
0
  6
CONTINUOUS
100
AcDbLine
 10
0.0
 20
8.548461116714023
 30
0.0
 11
0.2146388832772324
 21
8.763099999991255
 31
0.0
  0
LINE
  5
A46F1
330
A46EF
100
AcDbEntity
  8
0
  6
CONTINUOUS
100
AcDbLine
 10
-0.0000000000000002
 20
7.874941907633837
 30
0.0
 11
0.8881580923574184
 21
8.763099999991255
 31
0.0
  0
LINE
  5
A46F2
330
A46EF
100
AcDbEntity
  8
0
  6
CONTINUOUS
100
AcDbLine
 10
0.0
 20
7.20142269855365
 30
0.0
 11
1.420999999998572
 21
8.622422698552223
 31
0.0
  0
LINE
  5
A46F3
330
A46EF
100
AcDbEntity
  8
0
  6
CONTINUOUS
100
AcDbLine
 10
-0.0000000000000001
 20
6.527903489473465
 30
0.0
 11
1.420999999998571
 21
7.948903489472036
 31
0.0
  0
LINE
  5
A46F4
330
A46EF
100
AcDbEntity
  8
0
  6
CONTINUOUS
100
AcDbLine
 10
-0.0000000000000002
 20
5.854384280393278
 30
0.0
 11
1.420999999998571
 21
7.275384280391849
 31
0.0
  0
LINE
  5
A46F5
330
A46EF
100
AcDbEntity
  8
0
  6
CONTINUOUS
100
AcDbLine
 10
-0.0000000000000002
 20
5.180865071313091
 30
0.0
 11
1.420999999998571
 21
6.601865071311663
 31
0.0
  0
LINE
  5
A46F6
330
A46EF
100
AcDbEntity
  8
0
  6
CONTINUOUS
100
AcDbLine
 10
0.0
 20
4.507345862232905
 30
0.0
 11
1.420999999998571
 21
5.928345862231477
 31
0.0
  0
LINE
  5
A46F7
330
A46EF
100
AcDbEntity
  8
0
  6
CONTINUOUS
100
AcDbLine
 10
-0.0000000000000003
 20
3.833826653152718
 30
0.0
 11
1.420999999998571
 21
5.25482665315129
 31
0.0
  0
LINE
  5
A46F8
330
A46EF
100
AcDbEntity
  8
0
  6
CONTINUOUS
100
AcDbLine
 10
-0.0000000000000002
 20
3.160307444072532
 30
0.0
 11
1.420999999998571
 21
4.581307444071103
 31
0.0
  0
LINE
  5
A46F9
330
A46EF
100
AcDbEntity
  8
0
  6
CONTINUOUS
100
AcDbLine
 10
-0.0000000000000001
 20
2.486788234992345
 30
0.0
 11
1.420999999998571
 21
3.907788234990917
 31
0.0
  0
LINE
  5
A46FA
330
A46EF
100
AcDbEntity
  8
0
  6
CONTINUOUS
100
AcDbLine
 10
-0.0000000000000006
 20
1.813269025912159
 30
0.0
 11
1.420999999998571
 21
3.234269025910731
 31
0.0
  0
LINE
  5
A46FB
330
A46EF
100
AcDbEntity
  8
0
  6
CONTINUOUS
100
AcDbLine
 10
0.0
 20
1.139749816831973
 30
0.0
 11
1.420999999998571
 21
2.560749816830544
 31
0.0
  0
LINE
  5
A46FC
330
A46EF
100
AcDbEntity
  8
0
  6
CONTINUOUS
100
AcDbLine
 10
0.0000000000000002
 20
0.466230607751787
 30
0.0
 11
1.420999999998571
 21
1.887230607750358
 31
0.0
  0
LINE
  5
A46FD
330
A46EF
100
AcDbEntity
  8
0
  6
CONTINUOUS
100
AcDbLine
 10
0.2072886013284003
 20
-0.0000000000000009
 30
0.0
 11
1.420999999998571
 21
1.213711398670171
 31
0.0
  0
LINE
  5
A46FE
330
A46EF
100
AcDbEntity
  8
0
  6
CONTINUOUS
100
AcDbLine
 10
0.8808078104085864
 20
-0.0000000000000009
 30
0.0
 11
1.420999999998571
 21
0.5401921895899839
 31
0.0
  0
LINE
  5
A46FF
330
A46EF
100
AcDbEntity
  8
0
  6
CONTINUOUS
100
AcDbLine
 10
0.0581249075061505
 20
-0.0000000000000009
 30
0.0
 11
-0.0000000000000002
 21
0.0581249075061496
 31
0.0
  0
LINE
  5
A4700
330
A46EF
100
AcDbEntity
  8
0
  6
CONTINUOUS
100
AcDbLine
 10
0.7316441165863372
 20
-0.0000000000000009
 30
0.0
 11
-0.0000000000000002
 21
0.7316441165863363
 31
0.0
  0
LINE
  5
A4701
330
A46EF
100
AcDbEntity
  8
0
  6
CONTINUOUS
100
AcDbLine
 10
1.405163325666523
 20
-0.0000000000000009
 30
0.0
 11
-0.0000000000000002
 21
1.405163325666523
 31
0.0
  0
LINE
  5
A4702
330
A46EF
100
AcDbEntity
  8
0
  6
CONTINUOUS
100
AcDbLine
 10
1.420999999998572
 20
0.6576825347481381
 30
0.0
 11
-0.0000000000000001
 21
2.07868253474671
 31
0.0
  0
LINE
  5
A4703
330
A46EF
100
AcDbEntity
  8
0
  6
CONTINUOUS
100
AcDbLine
 10
1.420999999998571
 20
1.331201743828324
 30
0.0
 11
-0.0000000000000001
 21
2.752201743826896
 31
0.0
  0
LINE
  5
A4704
330
A46EF
100
AcDbEntity
  8
0
  6
CONTINUOUS
100
AcDbLine
 10
1.420999999998571
 20
2.004720952908511
 30
0.0
 11
-0.0000000000000002
 21
3.425720952907082
 31
0.0
  0
LINE
  5
A4705
330
A46EF
100
AcDbEntity
  8
0
  6
CONTINUOUS
100
AcDbLine
 10
1.420999999998571
 20
2.678240161988697
 30
0.0
 11
-0.0000000000000001
 21
4.099240161987269
 31
0.0
  0
LINE
  5
A4706
330
A46EF
100
AcDbEntity
  8
0
  6
CONTINUOUS
100
AcDbLine
 10
1.420999999998572
 20
3.351759371068884
 30
0.0
 11
0.0
 21
4.772759371067455
 31
0.0
  0
LINE
  5
A4707
330
A46EF
100
AcDbEntity
  8
0
  6
CONTINUOUS
100
AcDbLine
 10
1.420999999998571
 20
4.02527858014907
 30
0.0
 11
-0.0000000000000003
 21
5.446278580147642
 31
0.0
  0
LINE
  5
A4708
330
A46EF
100
AcDbEntity
  8
0
  6
CONTINUOUS
100
AcDbLine
 10
1.420999999998571
 20
4.698797789229257
 30
0.0
 11
0.0
 21
6.119797789227828
 31
0.0
  0
LINE
  5
A4709
330
A46EF
100
AcDbEntity
  8
0
  6
CONTINUOUS
100
AcDbLine
 10
1.420999999998571
 20
5.372316998309444
 30
0.0
 11
-0.0000000000000001
 21
6.793316998308015
 31
0.0
  0
LINE
  5
A470A
330
A46EF
100
AcDbEntity
  8
0
  6
CONTINUOUS
100
AcDbLine
 10
1.420999999998572
 20
6.045836207389629
 30
0.0
 11
-0.0000000000000004
 21
7.466836207388202
 31
0.0
  0
LINE
  5
A470B
330
A46EF
100
AcDbEntity
  8
0
  6
CONTINUOUS
100
AcDbLine
 10
1.420999999998571
 20
6.719355416469816
 30
0.0
 11
0.0
 21
8.140355416468388
 31
0.0
  0
LINE
  5
A470C
330
A46EF
100
AcDbEntity
  8
0
  6
CONTINUOUS
100
AcDbLine
 10
1.420999999998571
 20
7.392874625550003
 30
0.0
 11
0.0507746255573185
 21
8.763099999991255
 31
0.0
  0
LINE
  5
A470D
330
A46EF
100
AcDbEntity
  8
0
  6
CONTINUOUS
100
AcDbLine
 10
1.420999999998571
 20
8.06639383463019
 30
0.0
 11
0.7242938346375052
 21
8.763099999991255
 31
0.0
  0
LINE
  5
A470E
330
A46EF
100
AcDbEntity
  8
0
  6
CONTINUOUS
100
AcDbLine
 10
1.420999999998571
 20
8.739913043710375
 30
0.0
 11
1.397813043717691
 21
8.763099999991255
 31
0.0
  0
ENDBLK
  5
A471A
330
A46EF
100
AcDbEntity
  8
0
100
AcDbBlockEnd
  0
ENDSEC
  0
SECTION
  2
ENTITIES
  0
TEXT
  5
A411C
330
18
100
AcDbEntity
  8
1TEXT
100
AcDbText
 10
47.09212329294992
 20
96.4996024506786
 30
0.0
 40
4.0
  1
表面処理：
 72
     1
 11
57.89212329294992
 21
96.4996024506786
 31
0.0
100
AcDbText
  0
TEXT
  5
A411D
330
18
100
AcDbEntity
  8
1TEXT
100
AcDbText
 10
41.35878995961659
 20
82.6643137911542
 30
0.0
 40
4.0
  1
サテンニッケル
 72
     1
 11
57.89212329294992
 21
82.6643137911542
 31
0.0
100
AcDbText
  0
TEXT
  5
A411E
330
18
100
AcDbEntity
  8
1TEXT
100
AcDbText
 10
48.42545662628325
 20
89.52170743069428
 30
0.0
 40
4.0
  1
クローム
 72
     1
 11
57.89212329294992
 21
89.52170743069428
 31
0.0
100
AcDbText
  0
LINE
  5
A411F
330
18
100
AcDbEntity
  8
1DIM
100
AcDbLine
 10
40.49212329294983
 20
101.9996024506786
 30
0.0
 11
110.4921232929498
 21
101.9996024506786
 31
0.0
  0
LINE
  5
A4120
330
18
100
AcDbEntity
  8
1DIM
100
AcDbLine
 10
40.49212329294983
 20
87.9996024506786
 30
0.0
 11
110.4921232929498
 21
87.9996024506786
 31
0.0
  0
LINE
  5
A4121
330
18
100
AcDbEntity
  8
1DIM
100
AcDbLine
 10
40.49212329294983
 20
94.9996024506786
 30
0.0
 11
110.4921232929498
 21
94.9996024506786
 31
0.0
  0
LINE
  5
A4122
330
18
100
AcDbEntity
  8
1DIM
100
AcDbLine
 10
40.49212329294983
 20
80.9996024506786
 30
0.0
 11
110.4921232929498
 21
80.9996024506786
 31
0.0
  0
LINE
  5
A4123
330
18
100
AcDbEntity
  8
1DIM
100
AcDbLine
 10
40.49212329294983
 20
80.9996024506786
 30
0.0
 11
110.4921232929498
 21
80.9996024506786
 31
0.0
  0
LINE
  5
A4124
330
18
100
AcDbEntity
  8
1DIM
100
AcDbLine
 10
75.49212329294983
 20
101.9996024506786
 30
0.0
 11
75.49212329294983
 21
73.9996024506786
 31
0.0
  0
TEXT
  5
A4125
330
18
100
AcDbEntity
  8
1TEXT
100
AcDbText
 10
79.0143455151726
 20
89.2852454670292
 30
0.0
 40
4.0
  1
KH-453-XC
 41
0.8
 72
     1
 11
92.89212329295037
 21
89.2852454670292
 31
0.0
100
AcDbText
  0
TEXT
  5
A4126
330
18
100
AcDbEntity
  8
1TEXT
100
AcDbText
 10
86.02545662628326
 20
96.4996024506786
 30
0.0
 40
4.0
  1
コード
 72
     1
 11
92.89212329294992
 21
96.4996024506786
 31
0.0
100
AcDbText
  0
LINE
  5
A4127
330
18
100
AcDbEntity
  8
1DIM
100
AcDbLine
 10
40.49212329294983
 20
73.9996024506786
 30
0.0
 11
40.49212329294983
 21
101.9996024506786
 31
0.0
  0
LINE
  5
A4128
330
18
100
AcDbEntity
  8
1DIM
100
AcDbLine
 10
110.4921232929498
 20
73.9996024506786
 30
0.0
 11
110.4921232929498
 21
101.9996024506786
 31
0.0
  0
TEXT
  5
A4129
330
18
100
AcDbEntity
  8
1TEXT
100
AcDbText
 10
40.49212329294983
 20
106.9996024506786
 30
0.0
 40
8.0
  1
KH-453-X
100
AcDbText
  0
TEXT
  5
A412A
330
18
100
AcDbEntity
  8
1TEXT
100
AcDbText
 10
79.0143455151726
 20
82.2852454670292
 30
0.0
 40
4.0
  1
KH-453-XN
 41
0.8
 72
     1
 11
92.89212329295037
 21
82.2852454670292
 31
0.0
100
AcDbText
  0
LINE
  5
A412C
330
18
100
AcDbEntity
  8
1PHANTOM
100
AcDbLine
 10
-32.54640015291113
 20
-4.451524739891283
 30
0.0
 11
-25.34640015291177
 21
-4.451524739891283
 31
0.0
  0
ARC
  5
A412D
330
18
100
AcDbEntity
  8
1PHANTOM
100
AcDbCircle
 10
-25.34640015291177
 20
-4.951524739891283
 30
0.0
 40
0.5
100
AcDbArc
 50
0.0
 51
90.0
  0
LINE
  5
A412E
330
18
100
AcDbEntity
  8
01
100
AcDbLine
 10
-31.84640015291177
 20
-2.701524739891283
 30
0.0
 11
-14.69874116969493
 21
-2.701524739891283
 31
0.0
  0
LINE
  5
A412F
330
18
100
AcDbEntity
  8
01
100
AcDbLine
 10
-32.84640015291177
 20
-3.701524739891283
 30
0.0
 11
-31.84640015291177
 21
-2.701524739891283
 31
0.0
  0
LINE
  5
A4130
330
18
100
AcDbEntity
  8
01
100
AcDbLine
 10
4.642492848157531
 20
30.79847526010917
 30
0.0
 11
19.65359984708721
 21
30.79847526010917
 31
0.0
  0
LINE
  5
A4131
330
18
100
AcDbEntity
  8
1PHANTOM
100
AcDbLine
 10
6.08586852113342
 20
28.29847526011099
 30
0.0
 11
18.03701909335814
 21
28.29847526011099
 31
0.0
  0
ARC
  5
A4132
330
18
100
AcDbEntity
  8
01
100
AcDbCircle
 10
18.03701909335814
 20
28.59847526011094
 30
0.0
 40
0.3
100
AcDbArc
 50
270.0
 51
329.9999999999991
  0
ARC
  5
A4133
330
18
100
AcDbEntity
  8
1PHANTOM
100
AcDbCircle
 10
6.08586852113342
 20
27.29847526011099
 30
0.0
 40
1.0
100
AcDbArc
 50
90.0
 51
149.999999999999
  0
LINE
  5
A4134
330
18
100
AcDbEntity
  8
1PHANTOM
100
AcDbLine
 10
-12.38934009293217
 20
-3.201524739891056
 30
0.0
 11
-9.346400152910405
 21
-3.201524739891283
 31
0.0
  0
ARC
  5
A4135
330
18
100
AcDbEntity
  8
1PHANTOM
100
AcDbCircle
 10
-9.346400152910405
 20
-2.701524739891283
 30
0.0
 40
0.5
100
AcDbArc
 50
270.0
 51
0.0
  0
LINE
  5
A4136
330
18
100
AcDbEntity
  8
1PHANTOM
100
AcDbLine
 10
-32.54640015291068
 20
-39.95152473989128
 30
0.0
 11
-25.34640015291177
 21
-39.95152473989128
 31
0.0
  0
LINE
  5
A4137
330
18
100
AcDbEntity
  8
01
100
AcDbLine
 10
-31.84640015291131
 20
-41.70152473989106
 30
0.0
 11
-22.49296980375527
 21
-41.70152473989128
 31
0.0
  0
ARC
  5
A4138
330
18
100
AcDbEntity
  8
01
100
AcDbCircle
 10
-22.49296980375527
 20
-41.20152473989128
 30
0.0
 40
0.5
100
AcDbArc
 50
270.0
 51
329.9999999999991
  0
LINE
  5
A4139
330
18
100
AcDbEntity
  8
1PHANTOM
100
AcDbLine
 10
-24.84640015291177
 20
-39.45152473989128
 30
0.0
 11
-24.84640015291177
 21
-4.951524739891283
 31
0.0
  0
ARC
  5
A413A
330
18
100
AcDbEntity
  8
1PHANTOM
100
AcDbCircle
 10
-25.34640015291177
 20
-39.45152473989128
 30
0.0
 40
0.5
100
AcDbArc
 50
270.0
 51
0.0
  0
LINE
  5
A413B
330
18
100
AcDbEntity
  8
1PHANTOM
100
AcDbLine
 10
-22.34640015291131
 20
-39.40152473989065
 30
0.0
 11
-22.34640015291222
 21
-8.251524739893739
 31
0.0
  0
ARC
  5
A413C
330
18
100
AcDbEntity
  8
1PHANTOM
100
AcDbCircle
 10
-22.04640015291113
 20
-39.40152473989065
 30
0.0
 40
0.3
100
AcDbArc
 50
180.0
 51
270.0000000000521
  0
LINE
  5
A413D
330
18
100
AcDbEntity
  8
1PHANTOM
100
AcDbLine
 10
-20.34640015291222
 20
-7.65152473989383
 30
0.0
 11
-20.34640015291222
 21
-5.001524739891238
 31
0.0
  0
ARC
  5
A413E
330
18
100
AcDbEntity
  8
1PHANTOM
100
AcDbCircle
 10
-20.64640015291241
 20
-7.65152473989383
 30
0.0
 40
0.3
100
AcDbArc
 50
270.0
 51
0.0
  0
LINE
  5
A413F
330
18
100
AcDbEntity
  8
1PHANTOM
100
AcDbLine
 10
-8.846400152910405
 20
-2.701524739891283
 30
0.0
 11
-8.846400152910405
 21
3.435027244399407
 31
0.0
  0
LINE
  5
A4140
330
18
100
AcDbEntity
  8
01
100
AcDbLine
 10
-32.84640015291131
 20
-40.70152473989106
 30
0.0
 11
-32.84640015291177
 21
-3.701524739891283
 31
0.0
  0
ARC
  5
A4141
330
18
100
AcDbEntity
  8
1PHANTOM
100
AcDbCircle
 10
-32.54640015291068
 20
-40.25152473989124
 30
0.0
 40
0.3
100
AcDbArc
 50
90.0
 51
180.0
  0
ARC
  5
A4142
330
18
100
AcDbEntity
  8
1PHANTOM
100
AcDbCircle
 10
-32.54640015291113
 20
-4.151524739891101
 30
0.0
 40
0.3
100
AcDbArc
 50
180.0
 51
270.0
  0
LINE
  5
A4143
330
18
100
AcDbEntity
  8
01
100
AcDbLine
 10
-31.84640015291131
 20
-41.70152473989106
 30
0.0
 11
-32.84640015291131
 21
-40.70152473989106
 31
0.0
  0
LINE
  5
A4144
330
18
100
AcDbEntity
  8
01
  6
BYBLOCK
100
AcDbLine
 10
-31.52182663345536
 20
-61.45319510890022
 30
0.0
 11
-27.09804659977033
 21
-61.45319510890045
 31
0.0
  0
LINE
  5
A4145
330
18
100
AcDbEntity
  8
01
  6
BYBLOCK
100
AcDbLine
 10
-31.52182663345536
 20
-100.4531951089002
 30
0.0
 11
-27.09804659977033
 21
-100.4531951089002
 31
0.0
  0
LINE
  5
A4146
330
18
100
AcDbEntity
  8
01
  6
BYBLOCK
100
AcDbLine
 10
-32.52182663345536
 20
-99.45319510890022
 30
0.0
 11
-32.52182663345536
 21
-62.45319510890022
 31
0.0
  0
LINE
  5
A4147
330
18
100
AcDbEntity
  8
01
100
AcDbLine
 10
-22.05995710186323
 20
-41.45152473989128
 30
0.0
 11
18.02976194005885
 21
27.98590550188055
 31
0.0
  0
LINE
  5
A4148
330
18
100
AcDbEntity
  8
01
100
AcDbLine
 10
18.02976194005942
 20
27.98590550188032
 30
0.0
 11
19.65359984708721
 21
30.79847526010917
 31
0.0
  0
ARC
  5
A4149
330
18
100
AcDbEntity
  8
1PHANTOM
100
AcDbCircle
 10
-12.38934009293223
 20
-3.701524739891056
 30
0.0
 40
0.5
100
AcDbArc
 50
90.0
 51
149.999999999999
  0
LINE
  5
A414A
330
18
100
AcDbEntity
  8
1PHANTOM
100
AcDbLine
 10
-8.846400152910405
 20
3.435027244399407
 30
0.0
 11
5.219843117347978
 21
27.79847526011145
 31
0.0
  0
LINE
  5
A414B
330
18
100
AcDbEntity
  8
1PHANTOM
100
AcDbLine
 10
-22.04640015291068
 20
-39.70152473989083
 30
0.0
 11
-21.56920937305165
 21
-39.70152473989037
 31
0.0
  0
ARC
  5
A414C
330
18
100
AcDbEntity
  8
1PHANTOM
100
AcDbCircle
 10
-21.56920937305165
 20
-40.00152473989078
 30
0.0
 40
0.3
100
AcDbArc
 50
329.9999999999991
 51
90.00000000005213
  0
LINE
  5
A414D
330
18
100
AcDbEntity
  8
1PHANTOM
100
AcDbLine
 10
-20.04640015291204
 20
-4.701524739891283
 30
0.0
 11
-13.83271576590766
 21
-4.701524739891283
 31
0.0
  0
ARC
  5
A414E
330
18
100
AcDbEntity
  8
1PHANTOM
100
AcDbCircle
 10
-20.04640015291204
 20
-5.001524739891238
 30
0.0
 40
0.3
100
AcDbArc
 50
90.0
 51
180.0
  0
ARC
  5
A414F
330
18
100
AcDbEntity
  8
1PHANTOM
100
AcDbCircle
 10
-13.83271576590766
 20
-4.201524739891283
 30
0.0
 40
0.5
100
AcDbArc
 50
270.0
 51
329.9999999999991
  0
LINE
  5
A4150
330
18
100
AcDbEntity
  8
01
  6
BYBLOCK
100
AcDbLine
 10
19.65359984708766
 20
-55.95319510889976
 30
0.0
 11
19.65359984708721
 21
-105.9531951089007
 31
0.0
  0
ARC
  5
A4151
330
18
100
AcDbEntity
  8
01
  6
BYBLOCK
100
AcDbCircle
 10
19.15359984708721
 20
-105.4531951089007
 30
0.0
 40
0.5
100
AcDbArc
 50
270.0
 51
0.0
  0
LINE
  5
A4152
330
18
100
AcDbEntity
  8
01
  6
BYBLOCK
100
AcDbLine
 10
18.21022417411177
 20
-58.21821937380582
 30
0.0
 11
18.21022417411177
 21
-58.52877210610609
 31
0.0
  0
LINE
  5
A4153
330
18
100
AcDbEntity
  8
01
  6
BYBLOCK
100
AcDbLine
 10
18.21022417411268
 20
-103.3776181116923
 30
0.0
 11
18.21022417411223
 21
-103.6881708439946
 31
0.0
  0
ELLIPSE
  5
A4154
330
18
100
AcDbEntity
  8
01
  6
BYBLOCK
100
AcDbEllipse
 10
-10.94596441996407
 20
-80.95319510890022
 30
0.0
 11
0.0
 21
-19.50000000000011
 31
0.0
210
0.0
220
0.0
230
1.0
 40
0.5773502691896389
 41
3.243111916236881
 42
6.181666044532498
  0
LINE
  5
A4155
330
18
100
AcDbEntity
  8
01
  6
BYBLOCK
100
AcDbLine
 10
19.65359984708766
 20
-55.95319510889976
 30
0.0
 11
4.642492848156166
 21
-55.95319510889976
 31
0.0
  0
ARC
  5
A4156
330
18
100
AcDbEntity
  8
01
  6
BYBLOCK
100
AcDbCircle
 10
19.15359984708721
 20
-56.45319510889976
 30
0.0
 40
0.5
100
AcDbArc
 50
0.0
 51
90.0
  0
LINE
  5
A4157
330
18
100
AcDbEntity
  8
01
  6
BYBLOCK
100
AcDbLine
 10
19.65359984708721
 20
-105.9531951089007
 30
0.0
 11
4.642492848156166
 21
-105.9531951089007
 31
0.0
  0
LINE
  5
A4158
330
18
100
AcDbEntity
  8
1PHANTOM
100
AcDbLine
 10
8.903599847089595
 20
28.29847526011076
 30
0.0
 11
8.90359984708914
 21
30.79847526011099
 31
0.0
  0
LINE
  5
A4159
330
18
100
AcDbEntity
  8
1PHANTOM
100
AcDbLine
 10
14.40359984708914
 20
28.29847526011076
 30
0.0
 11
14.40359984708869
 21
30.79847526011099
 31
0.0
  0
CIRCLE
  5
A415A
330
18
100
AcDbEntity
  8
01
100
AcDbCircle
 10
-126.1801853104066
 20
-22.20152473989356
 30
0.0
 40
2.25
  0
CIRCLE
  5
A415B
330
18
100
AcDbEntity
  8
01
100
AcDbCircle
 10
-104.1801853104066
 20
-22.20152473989401
 30
0.0
 40
2.25
  0
LINE
  5
A415C
330
18
100
AcDbEntity
  8
1CENTER
100
AcDbLine
 10
-100.1351692638787
 20
-22.20152473989401
 30
0.0
 11
-108.2252013569346
 21
-22.20152473989401
 31
0.0
  0
LINE
  5
A415D
330
18
100
AcDbEntity
  8
1CENTER
100
AcDbLine
 10
-104.1801853104066
 20
-18.15650869336628
 30
0.0
 11
-104.1801853104066
 21
-26.24654078642175
 31
0.0
  0
LINE
  5
A415E
330
18
100
AcDbEntity
  8
1CENTER
100
AcDbLine
 10
-122.1351692638787
 20
-22.20152473989356
 30
0.0
 11
-130.2252013569346
 21
-22.20152473989356
 31
0.0
  0
LINE
  5
A415F
330
18
100
AcDbEntity
  8
1CENTER
100
AcDbLine
 10
-126.1801853104066
 20
-18.15650869336582
 30
0.0
 11
-126.1801853104066
 21
-26.24654078642129
 31
0.0
  0
CIRCLE
  5
A4160
330
18
100
AcDbEntity
  8
01
100
AcDbCircle
 10
-115.1801853104066
 20
-13.20152473989378
 30
0.0
 40
1.25
  0
CIRCLE
  5
A4161
330
18
100
AcDbEntity
  8
1HATCH
100
AcDbCircle
 10
-115.1801853104066
 20
-13.20152473989378
 30
0.0
 40
1.5
  0
CIRCLE
  5
A4162
330
18
100
AcDbEntity
  8
01
100
AcDbCircle
 10
-115.1801853104066
 20
-13.20152473989378
 30
0.0
 40
1.699999999999989
  0
LINE
  5
A4163
330
18
100
AcDbEntity
  8
1CENTER
100
AcDbLine
 10
-112.1801853104066
 20
-13.20152473989378
 30
0.0
 11
-118.1801853104066
 21
-13.20152473989378
 31
0.0
  0
LINE
  5
A4164
330
18
100
AcDbEntity
  8
1CENTER
100
AcDbLine
 10
-115.1801853104066
 20
32.06737133079787
 30
0.0
 11
-115.1801853104066
 21
-44.44906482724082
 31
0.0
  0
CIRCLE
  5
A4165
330
18
100
AcDbEntity
  8
01
100
AcDbCircle
 10
-115.1801853104066
 20
-22.2015247398931
 30
0.0
 40
19.49999999999795
  0
CIRCLE
  5
A4166
330
18
100
AcDbEntity
  8
01
100
AcDbCircle
 10
-115.1801853104066
 20
-22.2015247398931
 30
0.0
 40
17.74999999999807
  0
LINE
  5
A4167
330
18
100
AcDbEntity
  8
1DIM
100
AcDbLine
 10
-31.52182663345536
 20
-100.4531951089002
 30
0.0
 11
-31.52182663345491
 21
-61.45319510890022
 31
0.0
  0
LINE
  5
A4168
330
18
100
AcDbEntity
  8
01
100
AcDbLine
 10
-111.1801853104071
 20
2.498475260108762
 30
0.0
 11
-111.1801853104071
 21
0.5984752601088985
 31
0.0
  0
ARC
  5
A4169
330
18
100
AcDbEntity
  8
01
100
AcDbCircle
 10
-111.4801853104073
 20
2.498475260108762
 30
0.0
 40
0.3
100
AcDbArc
 50
0.0000000000130276
 51
90.0
  0
LINE
  5
A416A
330
18
100
AcDbEntity
  8
01
  6
BYBLOCK
100
AcDbLine
 10
-119.1801853104075
 20
2.498475260108762
 30
0.0
 11
-119.1801853104075
 21
0.5984752601086711
 31
0.0
  0
ARC
  5
A416B
330
18
100
AcDbEntity
  8
01
  6
BYBLOCK
100
AcDbCircle
 10
-118.8801853104073
 20
0.5984752601086711
 30
0.0
 40
0.3
100
AcDbArc
 50
180.000000000013
 51
270.0
  0
LINE
  5
A416C
330
18
100
AcDbEntity
  8
01
  6
BYBLOCK
100
AcDbLine
 10
-118.8801853104073
 20
2.798475260108717
 30
0.0
 11
-111.4801853104073
 21
2.798475260108717
 31
0.0
  0
ARC
  5
A416D
330
18
100
AcDbEntity
  8
01
  6
BYBLOCK
100
AcDbCircle
 10
-118.8801853104073
 20
2.498475260108762
 30
0.0
 40
0.3
100
AcDbArc
 50
90.0
 51
179.999999999987
  0
LINE
  5
A416E
330
18
100
AcDbEntity
  8
01
  6
BYBLOCK
100
AcDbLine
 10
-118.8801853104073
 20
0.2984752601087166
 30
0.0
 11
-111.4801853104073
 21
0.2984752601087166
 31
0.0
  0
ARC
  5
A416F
330
18
100
AcDbEntity
  8
01
100
AcDbCircle
 10
-111.4801853104073
 20
0.5984752601088985
 30
0.0
 40
0.3
100
AcDbArc
 50
270.0
 51
0.0000000000130276
  0
ELLIPSE
  5
A4170
330
18
100
AcDbEntity
  8
01
  6
BYBLOCK
100
AcDbEllipse
 10
-10.94596441996407
 20
-80.95319510890022
 30
0.0
 11
0.0
 21
-17.49999999999755
 31
0.0
210
0.0
220
0.0
230
1.0
 40
0.5773502691897089
 41
3.243111916235536
 42
6.181666044533842
  0
LINE
  5
A4171
330
18
100
AcDbEntity
  8
01
  6
BYBLOCK
100
AcDbLine
 10
-32.52182663345536
 20
-99.45319510890022
 30
0.0
 11
-31.52182663345536
 21
-100.4531951089002
 31
0.0
  0
LINE
  5
A4172
330
18
100
AcDbEntity
  8
01
  6
BYBLOCK
100
AcDbLine
 10
-31.52182663345491
 20
-61.45319510890022
 30
0.0
 11
-32.52182663345536
 21
-62.45319510890022
 31
0.0
  0
LINE
  5
A4173
330
18
100
AcDbEntity
  8
01
100
AcDbLine
 10
-14.69874116969493
 20
-2.701524739891283
 30
0.0
 11
4.642492848157531
 21
30.79847526010917
 31
0.0
  0
CIRCLE
  5
A4174
330
18
100
AcDbEntity
  8
01
  6
BYBLOCK
100
AcDbCircle
 10
-115.1801853104066
 20
-22.2015247398931
 30
0.0
 40
18.50000000000193
  0
LINE
  5
A4175
330
18
100
AcDbEntity
  8
01
  6
BYBLOCK
100
AcDbLine
 10
-24.34640015291268
 20
-24.45152473989151
 30
0.0
 11
-24.84640015291131
 21
-24.45152473989151
 31
0.0
  0
LINE
  5
A4176
330
18
100
AcDbEntity
  8
01
  6
BYBLOCK
100
AcDbLine
 10
-24.34640015291222
 20
-19.95152473989151
 30
0.0
 11
-24.84640015291131
 21
-19.95152473989151
 31
0.0
  0
LINE
  5
A4177
330
18
100
AcDbEntity
  8
01
100
AcDbLine
 10
-22.34640015291268
 20
-26.45152473989151
 30
0.0
 11
-24.34640015291268
 21
-24.45152473989151
 31
0.0
  0
LINE
  5
A4178
330
18
100
AcDbEntity
  8
01
100
AcDbLine
 10
-22.34640015291268
 20
-17.95152473989151
 30
0.0
 11
-24.34640015291222
 21
-19.95152473989151
 31
0.0
  0
LINE
  5
A4179
330
18
100
AcDbEntity
  8
01
100
AcDbLine
 10
-24.34640015291222
 20
-19.95152473989151
 30
0.0
 11
-24.34640015291268
 21
-24.45152473989151
 31
0.0
  0
LINE
  5
A417A
330
18
100
AcDbEntity
  8
1PHANTOM
100
AcDbLine
 10
-20.64640015291241
 20
-7.951524739893784
 30
0.0
 11
-22.04640015291204
 21
-7.951524739893784
 31
0.0
  0
ARC
  5
A417B
330
18
100
AcDbEntity
  8
1PHANTOM
100
AcDbCircle
 10
-22.04640015291204
 20
-8.251524739893739
 30
0.0
 40
0.3
100
AcDbArc
 50
90.0
 51
180.0
  0
LINE
  5
A417C
330
18
100
AcDbEntity
  8
01
  6
BYBLOCK
100
AcDbLine
 10
-12.08693960085418
 20
-61.55359390398417
 30
0.0
 11
19.65359984708766
 21
-55.95319510889976
 31
0.0
  0
LINE
  5
A417D
330
18
100
AcDbEntity
  8
01
  6
BYBLOCK
100
AcDbLine
 10
18.21022417411177
 20
-58.21821937380582
 30
0.0
 11
-11.96991650536472
 21
-63.54329659166797
 31
0.0
  0
LINE
  5
A417E
330
18
100
AcDbEntity
  8
01
  6
BYBLOCK
100
AcDbLine
 10
-11.96991650536472
 20
-98.36309362613247
 30
0.0
 11
18.21022417411223
 21
-103.6881708439946
 31
0.0
  0
LINE
  5
A417F
330
18
100
AcDbEntity
  8
01
  6
BYBLOCK
100
AcDbLine
 10
19.65359984708721
 20
-105.9531951089007
 30
0.0
 11
-12.08693960085418
 21
-100.3527963138163
 31
0.0
  0
LINE
  5
A4180
330
18
100
AcDbEntity
  8
01
  6
BYBLOCK
100
AcDbLine
 10
4.642492848156166
 20
-105.9531951089007
 30
0.0
 11
-27.09804659977033
 21
-100.4531951089002
 31
0.0
  0
LINE
  5
A4181
330
18
100
AcDbEntity
  8
01
  6
BYBLOCK
100
AcDbLine
 10
-27.09804659977033
 20
-61.45319510890045
 30
0.0
 11
4.642492848156166
 21
-55.95319510889976
 31
0.0
  0
LINE
  5
A4182
330
18
100
AcDbEntity
  8
01
100
AcDbLine
 10
-140.1801853104066
 20
30.79847526010894
 30
0.0
 11
-90.18018531040616
 21
30.79847526010872
 31
0.0
  0
LINE
  5
A4183
330
18
100
AcDbEntity
  8
01
100
AcDbLine
 10
-90.18018531040661
 20
30.79847526010872
 30
0.0
 11
-95.78058410549056
 21
-24.17775172334632
 31
0.0
  0
LINE
  5
A4184
330
18
100
AcDbEntity
  8
01
100
AcDbLine
 10
-140.1801853104066
 20
30.79847526010872
 30
0.0
 11
-134.5797865153227
 21
-24.17775172334632
 31
0.0
  0
ARC
  5
A4185
330
18
100
AcDbEntity
  8
01
  6
BYBLOCK
100
AcDbCircle
 10
17.78757444330267
 20
27.54847526011054
 30
0.0
 40
0.5
100
AcDbArc
 50
330.0000000000127
 51
61.02846820118499
  0
LINE
  5
A4186
330
18
100
AcDbEntity
  8
01
  6
BYBLOCK
100
AcDbLine
 10
-20.90525656348325
 20
-39.45152473989015
 30
0.0
 11
-20.60621845780668
 21
-39.45152473989015
 31
0.0
  0
LINE
  5
A4187
330
18
100
AcDbEntity
  8
01
  6
BYBLOCK
100
AcDbLine
 10
18.22058714519471
 20
27.29847526011054
 30
0.0
 11
-20.17320575591464
 21
-39.20152473989015
 31
0.0
  0
ARC
  5
A4188
330
18
100
AcDbEntity
  8
01
  6
BYBLOCK
100
AcDbCircle
 10
-20.60621845780668
 20
-38.95152473989015
 30
0.0
 40
0.5
100
AcDbArc
 50
270.0
 51
330.0000000000127
  0
LINE
  5
A4189
330
18
100
AcDbEntity
  8
01
  6
BYBLOCK
100
AcDbLine
 10
18.65359984708675
 20
-58.52877210610632
 30
0.0
 11
18.65359984708766
 21
-103.3776181116923
 31
0.0
  0
LINE
  5
A418A
330
18
100
AcDbEntity
  8
01
  6
BYBLOCK
100
AcDbLine
 10
16.45015107736185
 20
-103.3776181116923
 30
0.0
 11
18.65359984708766
 21
-103.3776181116923
 31
0.0
  0
LINE
  5
A418B
330
18
100
AcDbEntity
  8
01
  6
BYBLOCK
100
AcDbLine
 10
16.45015107737163
 20
-58.52877210610609
 30
0.0
 11
18.65359984708675
 21
-58.52877210610632
 31
0.0
  0
LINE
  5
A418C
330
18
100
AcDbEntity
  8
01
  6
BYBLOCK
100
AcDbLine
 10
18.65359984708766
 20
-103.3776181116923
 30
0.0
 11
-11.36120138744525
 21
-98.11550184902694
 31
0.0
  0
LINE
  5
A418D
330
18
100
AcDbEntity
  8
01
  6
BYBLOCK
100
AcDbLine
 10
18.65359984708766
 20
-58.52877210610814
 30
0.0
 11
-11.36120138744525
 21
-63.79088836877372
 31
0.0
  0
ELLIPSE
  5
A418E
330
18
100
AcDbEntity
  8
01
  6
BYBLOCK
100
AcDbEllipse
 10
-10.3582511796925
 20
-80.95319510890022
 30
0.0
 11
0.0
 21
17.25
 31
0.0
210
0.0
220
0.0
230
-1.0
 40
0.5773502691895439
 41
3.242468620662041
 42
6.182309340107338
  0
LINE
  5
A4192
330
18
100
AcDbEntity
  8
1PHANTOM
100
AcDbLine
 10
-13.39970306401545
 20
-4.451524739891283
 30
0.0
 11
-12.82235279482444
 21
-3.451524739891056
 31
0.0
  0
LINE
  5
A4194
330
18
100
AcDbEntity
  8
1PHANTOM
100
AcDbLine
 10
-90.43485897129483
 20
28.29847526011099
 30
0.0
 11
-139.9255116495185
 21
28.29847526011099
 31
0.0
  0
LINE
  5
A4198
330
18
100
AcDbEntity
  8
01
100
AcDbLine
 10
-25.59640015291109
 20
39.79847526010917
 30
0.0
 11
54.40359984708846
 21
39.79847526010917
 31
0.0
  0
LINE
  5
A4199
330
18
100
AcDbEntity
  8
01
100
AcDbLine
 10
-25.59640015291109
 20
51.79847526010917
 30
0.0
 11
54.40359984708846
 21
51.79847526010917
 31
0.0
  0
LINE
  5
A419A
330
18
100
AcDbEntity
  8
01
100
AcDbLine
 10
-25.59640015291109
 20
30.79847526010917
 30
0.0
 11
54.40359984708846
 21
30.79847526010917
 31
0.0
  0
TEXT
  5
A41A5
330
18
100
AcDbEntity
  8
1TEXT
100
AcDbText
 10
41.62545662628325
 20
75.6643137911542
 30
0.0
 40
4.0
  1
マットブラック
 72
     1
 11
57.89212329294992
 21
75.6643137911542
 31
0.0
100
AcDbText
  0
LINE
  5
A41A6
330
18
100
AcDbEntity
  8
1DIM
100
AcDbLine
 10
40.49212329294983
 20
73.9996024506786
 30
0.0
 11
110.4921232929498
 21
73.9996024506786
 31
0.0
  0
TEXT
  5
A41A7
330
18
100
AcDbEntity
  8
1TEXT
100
AcDbText
 10
77.94767884850593
 20
75.2852454670292
 30
0.0
 40
4.0
  1
KH-453-003
 41
0.8
 72
     1
 11
92.89212329295037
 21
75.2852454670292
 31
0.0
100
AcDbText
  0
LINE
  5
A43E6
330
18
100
AcDbEntity
  8
1CENTER
100
AcDbLine
 10
-49.02303225628307
 20
-22.20152473989128
 30
0.0
 11
-20.27253529924806
 21
-22.20152473989128
 31
0.0
  0
LINE
  5
A43E8
330
18
100
AcDbEntity
  8
01
100
AcDbLine
 10
-37.19639957118278
 20
-24.20147820399336
 30
0.0
 11
-37.99639026400536
 21
-20.20147820399336
 31
0.0
  0
LINE
  5
A43E9
330
18
100
AcDbEntity
  8
01
100
AcDbLine
 10
-37.99639026400536
 20
-20.20147820399336
 30
0.0
 11
-38.09639142740258
 21
-20.70147820399336
 31
0.0
  0
LINE
  5
A43EA
330
18
100
AcDbEntity
  8
01
100
AcDbLine
 10
-43.48362900522255
 20
-23.28056360678465
 30
0.0
 11
-43.5963985175726
 21
-23.74866206193462
 31
0.0
  0
LINE
  5
A43EB
330
18
100
AcDbEntity
  8
01
100
AcDbLine
 10
-45.99639289801934
 20
-21.33351346501092
 30
0.0
 11
-46.30816275427145
 21
-21.92179004005334
 31
0.0
  0
LINE
  5
A43EC
330
18
100
AcDbEntity
  8
01
100
AcDbLine
 10
-45.04496166752796
 20
-22.83867671325527
 30
0.0
 11
-45.19639746396837
 21
-23.29584855388634
 31
0.0
  0
LINE
  5
A43ED
330
18
100
AcDbEntity
  8
01
100
AcDbLine
 10
-44.3963918444137
 20
-20.88069936060413
 30
0.0
 11
-44.5791559870417
 21
-21.4324488244074
 31
0.0
  0
LINE
  5
A43EE
330
18
100
AcDbEntity
  8
01
100
AcDbLine
 10
-45.19639746396837
 20
-23.29584855388634
 30
0.0
 11
-45.99639289801934
 21
-21.33351346501092
 31
0.0
  0
LINE
  5
A43EF
330
18
100
AcDbEntity
  8
01
100
AcDbLine
 10
-43.5963985175726
 20
-23.74866206193462
 30
0.0
 11
-44.3963918444137
 21
-20.88069936060413
 31
0.0
  0
LINE
  5
A43F0
330
18
100
AcDbEntity
  8
01
100
AcDbLine
 10
-38.7963995711828
 20
-24.20147820399336
 30
0.0
 11
-39.59639026400538
 21
-20.20147820399336
 31
0.0
  0
LINE
  5
A43F1
330
18
100
AcDbEntity
  8
01
100
AcDbLine
 10
-40.39639957118283
 20
-24.20147820399336
 30
0.0
 11
-41.1963902640054
 21
-20.20147820399336
 31
0.0
  0
LINE
  5
A43F2
330
18
100
AcDbEntity
  8
01
100
AcDbLine
 10
-40.29639840778572
 20
-23.70147820399336
 30
0.0
 11
-40.39639957118283
 21
-24.20147820399336
 31
0.0
  0
LINE
  5
A43F3
330
18
100
AcDbEntity
  8
01
100
AcDbLine
 10
-41.1963902640054
 20
-20.20147820399336
 30
0.0
 11
-41.29639142740251
 21
-20.70147820399336
 31
0.0
  0
LINE
  5
A43F4
330
18
100
AcDbEntity
  8
01
100
AcDbLine
 10
-39.59639026400538
 20
-20.20147820399336
 30
0.0
 11
-39.69639142740238
 21
-20.70147820399336
 31
0.0
  0
LINE
  5
A43F5
330
18
100
AcDbEntity
  8
01
100
AcDbLine
 10
-42.79639079080806
 20
-20.42788525619733
 30
0.0
 11
-42.92566148843792
 21
-20.96447899146847
 31
0.0
  0
LINE
  5
A43F6
330
18
100
AcDbEntity
  8
01
100
AcDbLine
 10
-41.99639957118274
 20
-24.20147820399336
 30
0.0
 11
-42.79639079080806
 21
-20.42788525619733
 31
0.0
  0
LINE
  5
A43F7
330
18
100
AcDbEntity
  8
01
100
AcDbLine
 10
-41.89639840778563
 20
-23.70147820399336
 30
0.0
 11
-41.99639957118274
 21
-24.20147820399336
 31
0.0
  0
LINE
  5
A43F8
330
18
100
AcDbEntity
  8
01
100
AcDbLine
 10
-38.69639840778558
 20
-23.70147820399336
 30
0.0
 11
-38.7963995711828
 21
-24.20147820399336
 31
0.0
  0
LINE
  5
A43F9
330
18
100
AcDbEntity
  8
01
100
AcDbLine
 10
-25.99639957117842
 20
-24.20147820399336
 30
0.0
 11
-26.79639026399667
 21
-20.20147820399336
 31
0.0
  0
LINE
  5
A43FA
330
18
100
AcDbEntity
  8
01
100
AcDbLine
 10
-33.99639957118274
 20
-24.20147820399336
 30
0.0
 11
-34.79639026400531
 21
-20.20147820399336
 31
0.0
  0
LINE
  5
A43FB
330
18
100
AcDbEntity
  8
01
100
AcDbLine
 10
-35.59639957118287
 20
-24.20147820399336
 30
0.0
 11
-36.39639026400545
 21
-20.20147820399336
 31
0.0
  0
LINE
  5
A43FC
330
18
100
AcDbEntity
  8
01
100
AcDbLine
 10
-37.09639840778567
 20
-23.70147820399336
 30
0.0
 11
-37.19639957118278
 21
-24.20147820399336
 31
0.0
  0
LINE
  5
A43FD
330
18
100
AcDbEntity
  8
01
100
AcDbLine
 10
-35.49639840778576
 20
-23.70147820399336
 30
0.0
 11
-35.59639957118287
 21
-24.20147820399336
 31
0.0
  0
LINE
  5
A43FE
330
18
100
AcDbEntity
  8
01
100
AcDbLine
 10
-36.39639026400545
 20
-20.20147820399336
 30
0.0
 11
-36.49639142740256
 21
-20.70147820399336
 31
0.0
  0
LINE
  5
A43FF
330
18
100
AcDbEntity
  8
01
100
AcDbLine
 10
-34.79639026400531
 20
-20.20147820399336
 30
0.0
 11
-34.89639142740253
 21
-20.70147820399336
 31
0.0
  0
LINE
  5
A4400
330
18
100
AcDbEntity
  8
01
100
AcDbLine
 10
-27.59639957118276
 20
-24.20147820399336
 30
0.0
 11
-28.39639026400101
 21
-20.20147820399336
 31
0.0
  0
LINE
  5
A4401
330
18
100
AcDbEntity
  8
01
100
AcDbLine
 10
-30.7963995711828
 20
-24.20147820399336
 30
0.0
 11
-31.59639026400106
 21
-20.20147820399336
 31
0.0
  0
LINE
  5
A4402
330
18
100
AcDbEntity
  8
01
100
AcDbLine
 10
-32.39639957118283
 20
-24.20147820399336
 30
0.0
 11
-33.1963902640054
 21
-20.20147820399336
 31
0.0
  0
LINE
  5
A4403
330
18
100
AcDbEntity
  8
01
100
AcDbLine
 10
-33.89639840778563
 20
-23.70147820399336
 30
0.0
 11
-33.99639957118274
 21
-24.20147820399336
 31
0.0
  0
LINE
  5
A4404
330
18
100
AcDbEntity
  8
01
100
AcDbLine
 10
-32.29639840778503
 20
-23.70147820399336
 30
0.0
 11
-32.39639957118283
 21
-24.20147820399336
 31
0.0
  0
LINE
  5
A4405
330
18
100
AcDbEntity
  8
01
100
AcDbLine
 10
-31.59639026400106
 20
-20.20147820399336
 30
0.0
 11
-31.69639142739874
 21
-20.70147820399336
 31
0.0
  0
LINE
  5
A4406
330
18
100
AcDbEntity
  8
01
100
AcDbLine
 10
-33.1963902640054
 20
-20.20147820399336
 30
0.0
 11
-33.29639142740251
 21
-20.70147820399336
 31
0.0
  0
LINE
  5
A4407
330
18
100
AcDbEntity
  8
01
100
AcDbLine
 10
-28.39639026400101
 20
-20.20147820399336
 30
0.0
 11
-28.49639142739869
 21
-20.70147820399336
 31
0.0
  0
LINE
  5
A4408
330
18
100
AcDbEntity
  8
01
100
AcDbLine
 10
-29.09639840778499
 20
-23.70147820399336
 30
0.0
 11
-29.19639957118267
 21
-24.20147820399336
 31
0.0
  0
LINE
  5
A4409
330
18
100
AcDbEntity
  8
01
100
AcDbLine
 10
-29.99639026400092
 20
-20.20147820399336
 30
0.0
 11
-30.0963914273986
 21
-20.70147820399336
 31
0.0
  0
LINE
  5
A440A
330
18
100
AcDbEntity
  8
01
100
AcDbLine
 10
-29.19639957118267
 20
-24.20147820399336
 30
0.0
 11
-29.99639026400092
 21
-20.20147820399336
 31
0.0
  0
LINE
  5
A440B
330
18
100
AcDbEntity
  8
01
100
AcDbLine
 10
-30.69639840778513
 20
-23.70147820399336
 30
0.0
 11
-30.7963995711828
 21
-24.20147820399336
 31
0.0
  0
LINE
  5
A440C
330
18
100
AcDbEntity
  8
01
100
AcDbLine
 10
-26.79639026399667
 20
-20.20147820399336
 30
0.0
 11
-26.89639142739435
 21
-20.70147820399336
 31
0.0
  0
LINE
  5
A440D
330
18
100
AcDbEntity
  8
01
100
AcDbLine
 10
-27.49639840778508
 20
-23.70147820399336
 30
0.0
 11
-27.59639957118276
 21
-24.20147820399336
 31
0.0
  0
LINE
  5
A440E
330
18
100
AcDbEntity
  8
01
100
AcDbLine
 10
-22.59640422498916
 20
-26.20152473989128
 30
0.0
 11
-22.59638561063008
 21
-18.20152473989128
 31
0.0
  0
LINE
  5
A440F
330
18
100
AcDbEntity
  8
01
100
AcDbLine
 10
-25.09639142739428
 20
-20.70147820399336
 30
0.0
 11
-25.19639026399653
 21
-20.20147820399336
 31
0.0
  0
LINE
  5
A4410
330
18
100
AcDbEntity
  8
01
100
AcDbLine
 10
-25.19639026399653
 20
-20.20147820399336
 30
0.0
 11
-25.29639142739421
 21
-20.70147820399336
 31
0.0
  0
LINE
  5
A4411
330
18
100
AcDbEntity
  8
01
100
AcDbLine
 10
-25.89639840778074
 20
-23.70147820399336
 30
0.0
 11
-25.99639957117842
 21
-24.20147820399336
 31
0.0
  0
TEXT
  5
A4412
330
18
100
AcDbEntity
  8
01
  6
CONTINUOUS
100
AcDbText
 10
-90.55821644483284
 20
-93.0888423796288
 30
0.0
 40
3.5
  1
材質：亜鉛ダイキャスト
100
AcDbText
  0
TEXT
  5
A4413
330
18
100
AcDbEntity
  8
01
  6
CONTINUOUS
100
AcDbText
 10
-90.44154977816616
 20
-98.92217571296213
 30
0.0
 40
3.5
  1
仕上げ：各種仕上げ
100
AcDbText
  0
TEXT
  5
A4414
330
18
100
AcDbEntity
  8
01
  6
CONTINUOUS
100
AcDbText
 10
-75.06818202961149
 20
-109.8997768795882
 30
0.0
 40
3.5
  1
材質：亜鉛ダイキャスト
100
AcDbText
  0
TEXT
  5
A4415
330
18
100
AcDbEntity
  8
01
  6
CONTINUOUS
100
AcDbText
 10
-74.95151536294482
 20
-115.7331102129216
 30
0.0
 40
3.5
  1
仕上げ：各種仕上げ
100
AcDbText
  0
LINE
  5
A4416
330
18
100
AcDbEntity
  8
01
100
AcDbLine
 10
-41.99639840778531
 20
-23.70147820399336
 30
0.0
 11
-25.09643330966128
 21
-23.70147820399336
 31
0.0
  0
LINE
  5
A4417
330
18
100
AcDbEntity
  8
01
100
AcDbLine
 10
-25.09643330966128
 20
-23.70147820399336
 30
0.0
 11
-22.59640422498916
 21
-26.20152473989128
 31
0.0
  0
LINE
  5
A4418
330
18
100
AcDbEntity
  8
01
100
AcDbLine
 10
-22.59640422498916
 20
-26.20152473989128
 30
0.0
 11
-22.29640422498818
 21
-26.20152473989128
 31
0.0
  0
LINE
  5
A4419
330
18
100
AcDbEntity
  8
01
100
AcDbLine
 10
-22.29640422498818
 20
-26.20152473989128
 30
0.0
 11
-22.29638561062899
 21
-18.20152473989128
 31
0.0
  0
LINE
  5
A441A
330
18
100
AcDbEntity
  8
01
100
AcDbLine
 10
-22.29638561062899
 20
-18.20152473989128
 30
0.0
 11
-22.59638561063008
 21
-18.20152473989128
 31
0.0
  0
LINE
  5
A441B
330
18
100
AcDbEntity
  8
01
100
AcDbLine
 10
-22.59638561063008
 20
-18.20152473989128
 30
0.0
 11
-25.09636815929608
 21
-20.70147820399336
 31
0.0
  0
LINE
  5
A441C
330
18
100
AcDbEntity
  8
01
100
AcDbLine
 10
-25.09636815929608
 20
-20.70147820399336
 30
0.0
 11
-41.99639142740062
 21
-20.70147820399336
 31
0.0
  0
LINE
  5
A441D
330
18
100
AcDbEntity
  8
01
100
AcDbLine
 10
-41.99639142740062
 20
-20.70147820399336
 30
0.0
 11
-47.29639491764618
 21
-22.20147820399336
 31
0.0
  0
LINE
  5
A441E
330
18
100
AcDbEntity
  8
01
100
AcDbLine
 10
-47.29639491764618
 20
-22.20147820399336
 30
0.0
 11
-41.99639840778531
 21
-23.70147820399336
 31
0.0
  0
LINE
  5
A441F
330
18
100
AcDbEntity
  8
1DIM
  6
CONTINUOUS
100
AcDbLine
 10
-31.84640015291131
 20
-41.70152473989106
 30
0.0
 11
-75.23050664199833
 21
-41.70152473989105
 31
0.0
  0
LINE
  5
A4420
330
18
100
AcDbEntity
  8
1DIM
  6
CONTINUOUS
100
AcDbLine
 10
-25.59640015291109
 20
30.79847526010917
 30
0.0
 11
-75.23050664199832
 21
30.79847526010919
 31
0.0
  0
LINE
  5
A4421
330
18
100
AcDbEntity
  8
1DIM
  6
CONTINUOUS
100
AcDbLine
 10
-74.23050664199833
 20
-39.70152473989105
 30
0.0
 11
-74.23050664199832
 21
28.79847526010919
 31
0.0
  0
LINE
  5
A4425
330
18
100
AcDbEntity
  8
1DIM
  6
CONTINUOUS
100
AcDbLine
 10
-32.84640015291177
 20
-3.701524739891283
 30
0.0
 11
-32.84640015291176
 21
92.25294593224862
 31
0.0
  0
LINE
  5
A4426
330
18
100
AcDbEntity
  8
1DIM
  6
CONTINUOUS
100
AcDbLine
 10
19.65359984708721
 20
30.79847526010917
 30
0.0
 11
19.65359984708721
 21
92.25294593224862
 31
0.0
  0
LINE
  5
A4427
330
18
100
AcDbEntity
  8
1DIM
  6
CONTINUOUS
100
AcDbLine
 10
-30.84640015291176
 20
91.25294593224862
 30
0.0
 11
17.65359984708721
 21
91.25294593224862
 31
0.0
  0
LINE
  5
A442B
330
18
100
AcDbEntity
  8
1DIM
  6
CONTINUOUS
100
AcDbLine
 10
-140.1801853104066
 20
30.79847526010872
 30
0.0
 11
-140.1801853104066
 21
88.35205994016769
 31
0.0
  0
LINE
  5
A442C
330
18
100
AcDbEntity
  8
1DIM
  6
CONTINUOUS
100
AcDbLine
 10
-90.18018531040661
 20
30.79847526010872
 30
0.0
 11
-90.18018531040661
 21
88.35205994016769
 31
0.0
  0
LINE
  5
A442D
330
18
100
AcDbEntity
  8
1DIM
  6
CONTINUOUS
100
AcDbLine
 10
-138.1801853104066
 20
87.35205994016769
 30
0.0
 11
-92.18018531040661
 21
87.35205994016769
 31
0.0
  0
LINE
  5
A4431
330
18
100
AcDbEntity
  8
0
100
AcDbLine
 10
9.153599847088234
 20
44.41634084615686
 30
0.0
 11
14.15359984708823
 21
45.41634084615686
 31
0.0
  0
LINE
  5
A4432
330
18
100
AcDbEntity
  8
1CENTER
100
AcDbLine
 10
11.65359984708824
 20
69.74482849065907
 30
0.0
 11
11.65359984708823
 21
23.31552250996498
 31
0.0
  0
LINE
  5
A4434
330
18
100
AcDbEntity
  8
0
100
AcDbLine
 10
9.337332906052389
 20
62.45308745794966
 30
0.0
 11
10.08733290605239
 21
62.30308745794966
 31
0.0
  0
LINE
  5
A4435
330
18
100
AcDbEntity
  8
0
100
AcDbLine
 10
9.337332906052332
 20
62.45308745794966
 30
0.0
 11
13.73423738714309
 21
63.33246835416784
 31
0.0
  0
LINE
  5
A4436
330
18
100
AcDbEntity
  8
0
100
AcDbLine
 10
11.96695653403197
 20
67.2790121835456
 30
0.0
 11
12.71695653403197
 21
67.1290121835456
 31
0.0
  0
LINE
  5
A4437
330
18
100
AcDbEntity
  8
0
100
AcDbLine
 10
10.46981944657109
 20
66.67958476605341
 30
0.0
 11
11.21981944657109
 21
66.5295847660534
 31
0.0
  0
LINE
  5
A4438
330
18
100
AcDbEntity
  8
0
100
AcDbLine
 10
10.46981944657109
 20
66.67958476605341
 30
0.0
 11
12.71695653403192
 21
67.12901218354563
 31
0.0
  0
LINE
  5
A4439
330
18
100
AcDbEntity
  8
0
100
AcDbLine
 10
12.98423738714309
 20
63.48246835416785
 30
0.0
 11
13.73423738714309
 21
63.33246835416784
 31
0.0
  0
LINE
  5
A443A
330
18
100
AcDbEntity
  8
0
100
AcDbLine
 10
12.4755969605875
 20
65.38074026885673
 30
0.0
 11
13.2255969605875
 21
65.23074026885672
 31
0.0
  0
LINE
  5
A443B
330
18
100
AcDbEntity
  8
0
100
AcDbLine
 10
9.903576176311738
 20
64.56633611200155
 30
0.0
 11
10.65357617631174
 21
64.41633611200155
 31
0.0
  0
LINE
  5
A443C
330
18
100
AcDbEntity
  8
0
100
AcDbLine
 10
9.903576176311681
 20
64.56633611200155
 30
0.0
 11
13.22559696058756
 21
65.23074026885672
 31
0.0
  0
LINE
  5
A443D
330
18
100
AcDbEntity
  8
0
100
AcDbLine
 10
13.40359984708824
 20
53.56634084615686
 30
0.0
 11
14.15359984708823
 21
53.41634084615686
 31
0.0
  0
LINE
  5
A443E
330
18
100
AcDbEntity
  8
0
100
AcDbLine
 10
9.153599847088236
 20
56.41634084615686
 30
0.0
 11
9.903599847088236
 21
56.26634084615685
 31
0.0
  0
LINE
  5
A443F
330
18
100
AcDbEntity
  8
0
100
AcDbLine
 10
9.153599847088236
 20
54.41634084615686
 30
0.0
 11
9.903599847088236
 21
54.26634084615685
 31
0.0
  0
LINE
  5
A4440
330
18
100
AcDbEntity
  8
0
100
AcDbLine
 10
9.153599847088236
 20
54.41634084615686
 30
0.0
 11
14.15359984708824
 21
55.41634084615686
 31
0.0
  0
LINE
  5
A4441
330
18
100
AcDbEntity
  8
0
100
AcDbLine
 10
9.153599847088236
 20
58.41634084615686
 30
0.0
 11
9.903599847088236
 21
58.26634084615685
 31
0.0
  0
LINE
  5
A4442
330
18
100
AcDbEntity
  8
0
100
AcDbLine
 10
9.153599847088236
 20
60.41634084615686
 30
0.0
 11
9.903599847088236
 21
60.26634084615685
 31
0.0
  0
LINE
  5
A4443
330
18
100
AcDbEntity
  8
0
100
AcDbLine
 10
9.153599847088236
 20
60.41634084615686
 30
0.0
 11
14.15359984708824
 21
61.41634084615686
 31
0.0
  0
LINE
  5
A4444
330
18
100
AcDbEntity
  8
0
100
AcDbLine
 10
9.153599847088236
 20
58.41634084615686
 30
0.0
 11
14.15359984708824
 21
59.41634084615686
 31
0.0
  0
LINE
  5
A4445
330
18
100
AcDbEntity
  8
0
100
AcDbLine
 10
9.153599847088236
 20
56.41634084615686
 30
0.0
 11
14.15359984708824
 21
57.41634084615686
 31
0.0
  0
LINE
  5
A4446
330
18
100
AcDbEntity
  8
0
100
AcDbLine
 10
13.40359984708824
 20
61.56634084615686
 30
0.0
 11
14.15359984708824
 21
61.41634084615686
 31
0.0
  0
LINE
  5
A4447
330
18
100
AcDbEntity
  8
0
100
AcDbLine
 10
13.40359984708824
 20
59.56634084615686
 30
0.0
 11
14.15359984708824
 21
59.41634084615686
 31
0.0
  0
LINE
  5
A4448
330
18
100
AcDbEntity
  8
0
100
AcDbLine
 10
13.40359984708824
 20
55.56634084615686
 30
0.0
 11
14.15359984708824
 21
55.41634084615686
 31
0.0
  0
LINE
  5
A4449
330
18
100
AcDbEntity
  8
0
100
AcDbLine
 10
13.40359984708824
 20
57.56634084615686
 30
0.0
 11
14.15359984708824
 21
57.41634084615686
 31
0.0
  0
LINE
  5
A444A
330
18
100
AcDbEntity
  8
0
100
AcDbLine
 10
9.153599847088234
 20
50.41634084615686
 30
0.0
 11
9.903599847088234
 21
50.26634084615685
 31
0.0
  0
LINE
  5
A444B
330
18
100
AcDbEntity
  8
0
100
AcDbLine
 10
9.153599847088234
 20
52.41634084615686
 30
0.0
 11
9.903599847088234
 21
52.26634084615685
 31
0.0
  0
LINE
  5
A444C
330
18
100
AcDbEntity
  8
0
100
AcDbLine
 10
9.153599847088234
 20
46.41634084615686
 30
0.0
 11
9.903599847088234
 21
46.26634084615685
 31
0.0
  0
LINE
  5
A444D
330
18
100
AcDbEntity
  8
0
100
AcDbLine
 10
9.153599847088234
 20
48.41634084615686
 30
0.0
 11
9.903599847088234
 21
48.26634084615685
 31
0.0
  0
LINE
  5
A444E
330
18
100
AcDbEntity
  8
0
100
AcDbLine
 10
9.153599847088234
 20
52.41634084615686
 30
0.0
 11
14.15359984708823
 21
53.41634084615686
 31
0.0
  0
LINE
  5
A444F
330
18
100
AcDbEntity
  8
0
100
AcDbLine
 10
9.153599847088234
 20
50.41634084615686
 30
0.0
 11
14.15359984708823
 21
51.41634084615686
 31
0.0
  0
LINE
  5
A4450
330
18
100
AcDbEntity
  8
0
100
AcDbLine
 10
9.153599847088234
 20
48.41634084615686
 30
0.0
 11
14.15359984708823
 21
49.41634084615686
 31
0.0
  0
LINE
  5
A4451
330
18
100
AcDbEntity
  8
0
100
AcDbLine
 10
9.153599847088234
 20
46.41634084615686
 30
0.0
 11
14.15359984708823
 21
47.41634084615686
 31
0.0
  0
LINE
  5
A4452
330
18
100
AcDbEntity
  8
0
100
AcDbLine
 10
13.40359984708823
 20
49.56634084615686
 30
0.0
 11
14.15359984708823
 21
49.41634084615686
 31
0.0
  0
LINE
  5
A4453
330
18
100
AcDbEntity
  8
0
100
AcDbLine
 10
13.40359984708823
 20
51.56634084615686
 30
0.0
 11
14.15359984708823
 21
51.41634084615686
 31
0.0
  0
LINE
  5
A4454
330
18
100
AcDbEntity
  8
0
100
AcDbLine
 10
13.40359984708823
 20
45.56634084615686
 30
0.0
 11
14.15359984708823
 21
45.41634084615686
 31
0.0
  0
LINE
  5
A4455
330
18
100
AcDbEntity
  8
0
100
AcDbLine
 10
13.40359984708823
 20
47.56634084615686
 30
0.0
 11
14.15359984708823
 21
47.41634084615686
 31
0.0
  0
LINE
  5
A4456
330
18
100
AcDbEntity
  8
0
100
AcDbLine
 10
9.15359984708823
 20
28.41634084615686
 30
0.0
 11
14.15359984708823
 21
29.41634084615686
 31
0.0
  0
LINE
  5
A4457
330
18
100
AcDbEntity
  8
0
100
AcDbLine
 10
9.153599847088232
 20
36.41634084615686
 30
0.0
 11
14.15359984708823
 21
37.41634084615686
 31
0.0
  0
LINE
  5
A4458
330
18
100
AcDbEntity
  8
0
100
AcDbLine
 10
9.153599847088234
 20
44.41634084615686
 30
0.0
 11
9.903599847088234
 21
44.26634084615685
 31
0.0
  0
LINE
  5
A4459
330
18
100
AcDbEntity
  8
0
100
AcDbLine
 10
9.153599847088234
 20
42.41634084615686
 30
0.0
 11
9.903599847088234
 21
42.26634084615685
 31
0.0
  0
LINE
  5
A445A
330
18
100
AcDbEntity
  8
0
100
AcDbLine
 10
9.153599847088232
 20
40.41634084615686
 30
0.0
 11
9.903599847088232
 21
40.26634084615685
 31
0.0
  0
LINE
  5
A445B
330
18
100
AcDbEntity
  8
0
100
AcDbLine
 10
9.153599847088232
 20
38.41634084615686
 30
0.0
 11
9.903599847088232
 21
38.26634084615685
 31
0.0
  0
LINE
  5
A445C
330
18
100
AcDbEntity
  8
0
100
AcDbLine
 10
9.153599847088234
 20
42.41634084615686
 30
0.0
 11
14.15359984708823
 21
43.41634084615686
 31
0.0
  0
LINE
  5
A445D
330
18
100
AcDbEntity
  8
0
100
AcDbLine
 10
9.153599847088232
 20
40.41634084615686
 30
0.0
 11
14.15359984708823
 21
41.41634084615686
 31
0.0
  0
LINE
  5
A445E
330
18
100
AcDbEntity
  8
0
100
AcDbLine
 10
9.153599847088232
 20
38.41634084615686
 30
0.0
 11
14.15359984708823
 21
39.41634084615686
 31
0.0
  0
LINE
  5
A445F
330
18
100
AcDbEntity
  8
0
100
AcDbLine
 10
13.40359984708823
 20
43.56634084615686
 30
0.0
 11
14.15359984708823
 21
43.41634084615686
 31
0.0
  0
LINE
  5
A4460
330
18
100
AcDbEntity
  8
0
100
AcDbLine
 10
13.40359984708823
 20
41.56634084615686
 30
0.0
 11
14.15359984708823
 21
41.41634084615686
 31
0.0
  0
LINE
  5
A4461
330
18
100
AcDbEntity
  8
0
100
AcDbLine
 10
13.40359984708823
 20
39.56634084615686
 30
0.0
 11
14.15359984708823
 21
39.41634084615686
 31
0.0
  0
LINE
  5
A4462
330
18
100
AcDbEntity
  8
0
100
AcDbLine
 10
13.40359984708823
 20
37.56634084615686
 30
0.0
 11
14.15359984708823
 21
37.41634084615686
 31
0.0
  0
LINE
  5
A4463
330
18
100
AcDbEntity
  8
0
100
AcDbLine
 10
9.15359984708823
 20
32.41634084615686
 30
0.0
 11
9.90359984708823
 21
32.26634084615685
 31
0.0
  0
LINE
  5
A4464
330
18
100
AcDbEntity
  8
0
100
AcDbLine
 10
9.153599847088232
 20
34.41634084615686
 30
0.0
 11
9.903599847088232
 21
34.26634084615685
 31
0.0
  0
LINE
  5
A4465
330
18
100
AcDbEntity
  8
0
100
AcDbLine
 10
9.153599847088232
 20
36.41634084615686
 30
0.0
 11
9.903599847088232
 21
36.26634084615685
 31
0.0
  0
LINE
  5
A4466
330
18
100
AcDbEntity
  8
0
100
AcDbLine
 10
9.15359984708823
 20
30.41634084615686
 30
0.0
 11
9.90359984708823
 21
30.26634084615685
 31
0.0
  0
LINE
  5
A4467
330
18
100
AcDbEntity
  8
0
100
AcDbLine
 10
9.153599847088232
 20
34.41634084615686
 30
0.0
 11
14.15359984708823
 21
35.41634084615686
 31
0.0
  0
LINE
  5
A4468
330
18
100
AcDbEntity
  8
0
100
AcDbLine
 10
9.15359984708823
 20
32.41634084615686
 30
0.0
 11
14.15359984708823
 21
33.41634084615686
 31
0.0
  0
LINE
  5
A4469
330
18
100
AcDbEntity
  8
0
100
AcDbLine
 10
9.15359984708823
 20
30.41634084615686
 30
0.0
 11
14.15359984708823
 21
31.41634084615686
 31
0.0
  0
LINE
  5
A446A
330
18
100
AcDbEntity
  8
0
100
AcDbLine
 10
13.40359984708823
 20
33.56634084615686
 30
0.0
 11
14.15359984708823
 21
33.41634084615686
 31
0.0
  0
LINE
  5
A446B
330
18
100
AcDbEntity
  8
0
100
AcDbLine
 10
13.40359984708823
 20
35.56634084615686
 30
0.0
 11
14.15359984708823
 21
35.41634084615686
 31
0.0
  0
LINE
  5
A446C
330
18
100
AcDbEntity
  8
0
100
AcDbLine
 10
13.40359984708823
 20
31.56634084615686
 30
0.0
 11
14.15359984708823
 21
31.41634084615686
 31
0.0
  0
LINE
  5
A446D
330
18
100
AcDbEntity
  8
0
100
AcDbLine
 10
13.40359984708823
 20
29.56634084615686
 30
0.0
 11
14.15359984708823
 21
29.41634084615686
 31
0.0
  0
LINE
  5
A446E
330
18
100
AcDbEntity
  8
0
100
AcDbLine
 10
9.15359984708823
 20
28.41634084615686
 30
0.0
 11
9.90359984708823
 21
28.26634084615685
 31
0.0
  0
LINE
  5
A446F
330
18
100
AcDbEntity
  8
0
100
AcDbLine
 10
13.40359984708823
 20
28.29847526011099
 30
0.0
 11
9.90359984708823
 21
28.29847526011099
 31
0.0
  0
LINE
  5
A4470
330
18
100
AcDbEntity
  8
0
100
AcDbLine
 10
-100.1801853104066
 20
44.41634084615686
 30
0.0
 11
-95.18018531040661
 21
45.41634084615686
 31
0.0
  0
LINE
  5
A4471
330
18
100
AcDbEntity
  8
1CENTER
100
AcDbLine
 10
-97.6801853104066
 20
69.74482849065907
 30
0.0
 11
-97.68018531040661
 21
23.31552250996498
 31
0.0
  0
LINE
  5
A4473
330
18
100
AcDbEntity
  8
0
100
AcDbLine
 10
-99.99645225144246
 20
62.45308745794966
 30
0.0
 11
-99.24645225144246
 21
62.30308745794966
 31
0.0
  0
LINE
  5
A4474
330
18
100
AcDbEntity
  8
0
100
AcDbLine
 10
-99.99645225144252
 20
62.45308745794966
 30
0.0
 11
-95.59954777035176
 21
63.33246835416784
 31
0.0
  0
LINE
  5
A4475
330
18
100
AcDbEntity
  8
0
100
AcDbLine
 10
-97.36682862346287
 20
67.2790121835456
 30
0.0
 11
-96.61682862346288
 21
67.1290121835456
 31
0.0
  0
LINE
  5
A4476
330
18
100
AcDbEntity
  8
0
100
AcDbLine
 10
-98.86396571092376
 20
66.67958476605341
 30
0.0
 11
-98.11396571092376
 21
66.5295847660534
 31
0.0
  0
LINE
  5
A4477
330
18
100
AcDbEntity
  8
0
100
AcDbLine
 10
-98.86396571092376
 20
66.67958476605341
 30
0.0
 11
-96.61682862346294
 21
67.12901218354563
 31
0.0
  0
LINE
  5
A4478
330
18
100
AcDbEntity
  8
0
100
AcDbLine
 10
-96.34954777035176
 20
63.48246835416785
 30
0.0
 11
-95.59954777035176
 21
63.33246835416784
 31
0.0
  0
LINE
  5
A4479
330
18
100
AcDbEntity
  8
0
100
AcDbLine
 10
-96.85818819690735
 20
65.38074026885673
 30
0.0
 11
-96.10818819690735
 21
65.23074026885672
 31
0.0
  0
LINE
  5
A447A
330
18
100
AcDbEntity
  8
0
100
AcDbLine
 10
-99.43020898118311
 20
64.56633611200155
 30
0.0
 11
-98.68020898118311
 21
64.41633611200155
 31
0.0
  0
LINE
  5
A447B
330
18
100
AcDbEntity
  8
0
100
AcDbLine
 10
-99.43020898118317
 20
64.56633611200155
 30
0.0
 11
-96.10818819690729
 21
65.23074026885672
 31
0.0
  0
LINE
  5
A447C
330
18
100
AcDbEntity
  8
0
100
AcDbLine
 10
-95.93018531040661
 20
53.56634084615686
 30
0.0
 11
-95.18018531040661
 21
53.41634084615686
 31
0.0
  0
LINE
  5
A447D
330
18
100
AcDbEntity
  8
0
100
AcDbLine
 10
-100.1801853104066
 20
56.41634084615686
 30
0.0
 11
-99.43018531040661
 21
56.26634084615685
 31
0.0
  0
LINE
  5
A447E
330
18
100
AcDbEntity
  8
0
100
AcDbLine
 10
-100.1801853104066
 20
54.41634084615686
 30
0.0
 11
-99.43018531040661
 21
54.26634084615685
 31
0.0
  0
LINE
  5
A447F
330
18
100
AcDbEntity
  8
0
100
AcDbLine
 10
-100.1801853104066
 20
54.41634084615686
 30
0.0
 11
-95.18018531040661
 21
55.41634084615686
 31
0.0
  0
LINE
  5
A4480
330
18
100
AcDbEntity
  8
0
100
AcDbLine
 10
-100.1801853104066
 20
58.41634084615686
 30
0.0
 11
-99.43018531040661
 21
58.26634084615685
 31
0.0
  0
LINE
  5
A4481
330
18
100
AcDbEntity
  8
0
100
AcDbLine
 10
-100.1801853104066
 20
60.41634084615686
 30
0.0
 11
-99.43018531040661
 21
60.26634084615685
 31
0.0
  0
LINE
  5
A4482
330
18
100
AcDbEntity
  8
0
100
AcDbLine
 10
-100.1801853104066
 20
60.41634084615686
 30
0.0
 11
-95.18018531040661
 21
61.41634084615686
 31
0.0
  0
LINE
  5
A4483
330
18
100
AcDbEntity
  8
0
100
AcDbLine
 10
-100.1801853104066
 20
58.41634084615686
 30
0.0
 11
-95.18018531040661
 21
59.41634084615686
 31
0.0
  0
LINE
  5
A4484
330
18
100
AcDbEntity
  8
0
100
AcDbLine
 10
-100.1801853104066
 20
56.41634084615686
 30
0.0
 11
-95.18018531040661
 21
57.41634084615686
 31
0.0
  0
LINE
  5
A4485
330
18
100
AcDbEntity
  8
0
100
AcDbLine
 10
-95.93018531040661
 20
61.56634084615686
 30
0.0
 11
-95.18018531040661
 21
61.41634084615686
 31
0.0
  0
LINE
  5
A4486
330
18
100
AcDbEntity
  8
0
100
AcDbLine
 10
-95.93018531040661
 20
59.56634084615686
 30
0.0
 11
-95.18018531040661
 21
59.41634084615686
 31
0.0
  0
LINE
  5
A4487
330
18
100
AcDbEntity
  8
0
100
AcDbLine
 10
-95.93018531040661
 20
55.56634084615686
 30
0.0
 11
-95.18018531040661
 21
55.41634084615686
 31
0.0
  0
LINE
  5
A4488
330
18
100
AcDbEntity
  8
0
100
AcDbLine
 10
-95.93018531040661
 20
57.56634084615686
 30
0.0
 11
-95.18018531040661
 21
57.41634084615686
 31
0.0
  0
LINE
  5
A4489
330
18
100
AcDbEntity
  8
0
100
AcDbLine
 10
-100.1801853104066
 20
50.41634084615686
 30
0.0
 11
-99.43018531040661
 21
50.26634084615685
 31
0.0
  0
LINE
  5
A448A
330
18
100
AcDbEntity
  8
0
100
AcDbLine
 10
-100.1801853104066
 20
52.41634084615686
 30
0.0
 11
-99.43018531040661
 21
52.26634084615685
 31
0.0
  0
LINE
  5
A448B
330
18
100
AcDbEntity
  8
0
100
AcDbLine
 10
-100.1801853104066
 20
46.41634084615686
 30
0.0
 11
-99.43018531040661
 21
46.26634084615685
 31
0.0
  0
LINE
  5
A448C
330
18
100
AcDbEntity
  8
0
100
AcDbLine
 10
-100.1801853104066
 20
48.41634084615686
 30
0.0
 11
-99.43018531040661
 21
48.26634084615685
 31
0.0
  0
LINE
  5
A448D
330
18
100
AcDbEntity
  8
0
100
AcDbLine
 10
-100.1801853104066
 20
52.41634084615686
 30
0.0
 11
-95.18018531040661
 21
53.41634084615686
 31
0.0
  0
LINE
  5
A448E
330
18
100
AcDbEntity
  8
0
100
AcDbLine
 10
-100.1801853104066
 20
50.41634084615686
 30
0.0
 11
-95.18018531040661
 21
51.41634084615686
 31
0.0
  0
LINE
  5
A448F
330
18
100
AcDbEntity
  8
0
100
AcDbLine
 10
-100.1801853104066
 20
48.41634084615686
 30
0.0
 11
-95.18018531040661
 21
49.41634084615686
 31
0.0
  0
LINE
  5
A4490
330
18
100
AcDbEntity
  8
0
100
AcDbLine
 10
-100.1801853104066
 20
46.41634084615686
 30
0.0
 11
-95.18018531040661
 21
47.41634084615686
 31
0.0
  0
LINE
  5
A4491
330
18
100
AcDbEntity
  8
0
100
AcDbLine
 10
-95.93018531040661
 20
49.56634084615686
 30
0.0
 11
-95.18018531040661
 21
49.41634084615686
 31
0.0
  0
LINE
  5
A4492
330
18
100
AcDbEntity
  8
0
100
AcDbLine
 10
-95.93018531040661
 20
51.56634084615686
 30
0.0
 11
-95.18018531040661
 21
51.41634084615686
 31
0.0
  0
LINE
  5
A4493
330
18
100
AcDbEntity
  8
0
100
AcDbLine
 10
-95.93018531040661
 20
45.56634084615686
 30
0.0
 11
-95.18018531040661
 21
45.41634084615686
 31
0.0
  0
LINE
  5
A4494
330
18
100
AcDbEntity
  8
0
100
AcDbLine
 10
-95.93018531040661
 20
47.56634084615686
 30
0.0
 11
-95.18018531040661
 21
47.41634084615686
 31
0.0
  0
LINE
  5
A4495
330
18
100
AcDbEntity
  8
0
100
AcDbLine
 10
-100.1801853104066
 20
28.41634084615686
 30
0.0
 11
-95.18018531040661
 21
29.41634084615686
 31
0.0
  0
LINE
  5
A4496
330
18
100
AcDbEntity
  8
0
100
AcDbLine
 10
-100.1801853104066
 20
36.41634084615686
 30
0.0
 11
-95.18018531040661
 21
37.41634084615686
 31
0.0
  0
LINE
  5
A4497
330
18
100
AcDbEntity
  8
0
100
AcDbLine
 10
-100.1801853104066
 20
44.41634084615686
 30
0.0
 11
-99.43018531040661
 21
44.26634084615685
 31
0.0
  0
LINE
  5
A4498
330
18
100
AcDbEntity
  8
0
100
AcDbLine
 10
-100.1801853104066
 20
42.41634084615686
 30
0.0
 11
-99.43018531040661
 21
42.26634084615685
 31
0.0
  0
LINE
  5
A4499
330
18
100
AcDbEntity
  8
0
100
AcDbLine
 10
-100.1801853104066
 20
40.41634084615686
 30
0.0
 11
-99.43018531040661
 21
40.26634084615685
 31
0.0
  0
LINE
  5
A449A
330
18
100
AcDbEntity
  8
0
100
AcDbLine
 10
-100.1801853104066
 20
38.41634084615686
 30
0.0
 11
-99.43018531040661
 21
38.26634084615685
 31
0.0
  0
LINE
  5
A449B
330
18
100
AcDbEntity
  8
0
100
AcDbLine
 10
-100.1801853104066
 20
42.41634084615686
 30
0.0
 11
-95.18018531040661
 21
43.41634084615686
 31
0.0
  0
LINE
  5
A449C
330
18
100
AcDbEntity
  8
0
100
AcDbLine
 10
-100.1801853104066
 20
40.41634084615686
 30
0.0
 11
-95.18018531040661
 21
41.41634084615686
 31
0.0
  0
LINE
  5
A449D
330
18
100
AcDbEntity
  8
0
100
AcDbLine
 10
-100.1801853104066
 20
38.41634084615686
 30
0.0
 11
-95.18018531040661
 21
39.41634084615686
 31
0.0
  0
LINE
  5
A449E
330
18
100
AcDbEntity
  8
0
100
AcDbLine
 10
-95.93018531040661
 20
43.56634084615686
 30
0.0
 11
-95.18018531040661
 21
43.41634084615686
 31
0.0
  0
LINE
  5
A449F
330
18
100
AcDbEntity
  8
0
100
AcDbLine
 10
-95.93018531040661
 20
41.56634084615686
 30
0.0
 11
-95.18018531040661
 21
41.41634084615686
 31
0.0
  0
LINE
  5
A44A0
330
18
100
AcDbEntity
  8
0
100
AcDbLine
 10
-95.93018531040661
 20
39.56634084615686
 30
0.0
 11
-95.18018531040661
 21
39.41634084615686
 31
0.0
  0
LINE
  5
A44A1
330
18
100
AcDbEntity
  8
0
100
AcDbLine
 10
-95.93018531040661
 20
37.56634084615686
 30
0.0
 11
-95.18018531040661
 21
37.41634084615686
 31
0.0
  0
LINE
  5
A44A2
330
18
100
AcDbEntity
  8
0
100
AcDbLine
 10
-100.1801853104066
 20
32.41634084615686
 30
0.0
 11
-99.43018531040661
 21
32.26634084615685
 31
0.0
  0
LINE
  5
A44A3
330
18
100
AcDbEntity
  8
0
100
AcDbLine
 10
-100.1801853104066
 20
34.41634084615686
 30
0.0
 11
-99.43018531040661
 21
34.26634084615685
 31
0.0
  0
LINE
  5
A44A4
330
18
100
AcDbEntity
  8
0
100
AcDbLine
 10
-100.1801853104066
 20
36.41634084615686
 30
0.0
 11
-99.43018531040661
 21
36.26634084615685
 31
0.0
  0
LINE
  5
A44A5
330
18
100
AcDbEntity
  8
0
100
AcDbLine
 10
-100.1801853104066
 20
30.41634084615686
 30
0.0
 11
-99.43018531040661
 21
30.26634084615685
 31
0.0
  0
LINE
  5
A44A6
330
18
100
AcDbEntity
  8
0
100
AcDbLine
 10
-100.1801853104066
 20
34.41634084615686
 30
0.0
 11
-95.18018531040661
 21
35.41634084615686
 31
0.0
  0
LINE
  5
A44A7
330
18
100
AcDbEntity
  8
0
100
AcDbLine
 10
-100.1801853104066
 20
32.41634084615686
 30
0.0
 11
-95.18018531040661
 21
33.41634084615686
 31
0.0
  0
LINE
  5
A44A8
330
18
100
AcDbEntity
  8
0
100
AcDbLine
 10
-100.1801853104066
 20
30.41634084615686
 30
0.0
 11
-95.18018531040661
 21
31.41634084615686
 31
0.0
  0
LINE
  5
A44A9
330
18
100
AcDbEntity
  8
0
100
AcDbLine
 10
-95.93018531040661
 20
33.56634084615686
 30
0.0
 11
-95.18018531040661
 21
33.41634084615686
 31
0.0
  0
LINE
  5
A44AA
330
18
100
AcDbEntity
  8
0
100
AcDbLine
 10
-95.93018531040661
 20
35.56634084615686
 30
0.0
 11
-95.18018531040661
 21
35.41634084615686
 31
0.0
  0
LINE
  5
A44AB
330
18
100
AcDbEntity
  8
0
100
AcDbLine
 10
-95.93018531040661
 20
31.56634084615686
 30
0.0
 11
-95.18018531040661
 21
31.41634084615686
 31
0.0
  0
LINE
  5
A44AC
330
18
100
AcDbEntity
  8
0
100
AcDbLine
 10
-95.93018531040661
 20
29.56634084615686
 30
0.0
 11
-95.18018531040661
 21
29.41634084615686
 31
0.0
  0
LINE
  5
A44AD
330
18
100
AcDbEntity
  8
0
100
AcDbLine
 10
-100.1801853104066
 20
28.41634084615686
 30
0.0
 11
-99.43018531040661
 21
28.26634084615685
 31
0.0
  0
LINE
  5
A44AE
330
18
100
AcDbEntity
  8
0
100
AcDbLine
 10
-95.93018531040661
 20
28.29847526011099
 30
0.0
 11
-99.43018531040661
 21
28.29847526011099
 31
0.0
  0
LINE
  5
A44AF
330
18
100
AcDbEntity
  8
0
100
AcDbLine
 10
-135.1801853104066
 20
44.41634084615686
 30
0.0
 11
-130.1801853104066
 21
45.41634084615686
 31
0.0
  0
LINE
  5
A44B0
330
18
100
AcDbEntity
  8
1CENTER
100
AcDbLine
 10
-132.6801853104066
 20
69.74482849065907
 30
0.0
 11
-132.6801853104066
 21
23.31552250996498
 31
0.0
  0
LINE
  5
A44B2
330
18
100
AcDbEntity
  8
0
100
AcDbLine
 10
-134.9964522514425
 20
62.45308745794966
 30
0.0
 11
-134.2464522514425
 21
62.30308745794966
 31
0.0
  0
LINE
  5
A44B3
330
18
100
AcDbEntity
  8
0
100
AcDbLine
 10
-134.9964522514425
 20
62.45308745794966
 30
0.0
 11
-130.5995477703518
 21
63.33246835416784
 31
0.0
  0
LINE
  5
A44B4
330
18
100
AcDbEntity
  8
0
100
AcDbLine
 10
-132.3668286234629
 20
67.2790121835456
 30
0.0
 11
-131.6168286234629
 21
67.1290121835456
 31
0.0
  0
LINE
  5
A44B5
330
18
100
AcDbEntity
  8
0
100
AcDbLine
 10
-133.8639657109238
 20
66.67958476605341
 30
0.0
 11
-133.1139657109238
 21
66.5295847660534
 31
0.0
  0
LINE
  5
A44B6
330
18
100
AcDbEntity
  8
0
100
AcDbLine
 10
-133.8639657109238
 20
66.67958476605341
 30
0.0
 11
-131.6168286234629
 21
67.12901218354563
 31
0.0
  0
LINE
  5
A44B7
330
18
100
AcDbEntity
  8
0
100
AcDbLine
 10
-131.3495477703518
 20
63.48246835416785
 30
0.0
 11
-130.5995477703518
 21
63.33246835416784
 31
0.0
  0
LINE
  5
A44B8
330
18
100
AcDbEntity
  8
0
100
AcDbLine
 10
-131.8581881969073
 20
65.38074026885673
 30
0.0
 11
-131.1081881969073
 21
65.23074026885672
 31
0.0
  0
LINE
  5
A44B9
330
18
100
AcDbEntity
  8
0
100
AcDbLine
 10
-134.4302089811831
 20
64.56633611200155
 30
0.0
 11
-133.6802089811831
 21
64.41633611200155
 31
0.0
  0
LINE
  5
A44BA
330
18
100
AcDbEntity
  8
0
100
AcDbLine
 10
-134.4302089811832
 20
64.56633611200155
 30
0.0
 11
-131.1081881969073
 21
65.23074026885672
 31
0.0
  0
LINE
  5
A44BB
330
18
100
AcDbEntity
  8
0
100
AcDbLine
 10
-130.9301853104066
 20
53.56634084615686
 30
0.0
 11
-130.1801853104066
 21
53.41634084615686
 31
0.0
  0
LINE
  5
A44BC
330
18
100
AcDbEntity
  8
0
100
AcDbLine
 10
-135.1801853104066
 20
56.41634084615686
 30
0.0
 11
-134.4301853104066
 21
56.26634084615685
 31
0.0
  0
LINE
  5
A44BD
330
18
100
AcDbEntity
  8
0
100
AcDbLine
 10
-135.1801853104066
 20
54.41634084615686
 30
0.0
 11
-134.4301853104066
 21
54.26634084615685
 31
0.0
  0
LINE
  5
A44BE
330
18
100
AcDbEntity
  8
0
100
AcDbLine
 10
-135.1801853104066
 20
54.41634084615686
 30
0.0
 11
-130.1801853104066
 21
55.41634084615686
 31
0.0
  0
LINE
  5
A44BF
330
18
100
AcDbEntity
  8
0
100
AcDbLine
 10
-135.1801853104066
 20
58.41634084615686
 30
0.0
 11
-134.4301853104066
 21
58.26634084615685
 31
0.0
  0
LINE
  5
A44C0
330
18
100
AcDbEntity
  8
0
100
AcDbLine
 10
-135.1801853104066
 20
60.41634084615686
 30
0.0
 11
-134.4301853104066
 21
60.26634084615685
 31
0.0
  0
LINE
  5
A44C1
330
18
100
AcDbEntity
  8
0
100
AcDbLine
 10
-135.1801853104066
 20
60.41634084615686
 30
0.0
 11
-130.1801853104066
 21
61.41634084615686
 31
0.0
  0
LINE
  5
A44C2
330
18
100
AcDbEntity
  8
0
100
AcDbLine
 10
-135.1801853104066
 20
58.41634084615686
 30
0.0
 11
-130.1801853104066
 21
59.41634084615686
 31
0.0
  0
LINE
  5
A44C3
330
18
100
AcDbEntity
  8
0
100
AcDbLine
 10
-135.1801853104066
 20
56.41634084615686
 30
0.0
 11
-130.1801853104066
 21
57.41634084615686
 31
0.0
  0
LINE
  5
A44C4
330
18
100
AcDbEntity
  8
0
100
AcDbLine
 10
-130.9301853104066
 20
61.56634084615686
 30
0.0
 11
-130.1801853104066
 21
61.41634084615686
 31
0.0
  0
LINE
  5
A44C5
330
18
100
AcDbEntity
  8
0
100
AcDbLine
 10
-130.9301853104066
 20
59.56634084615686
 30
0.0
 11
-130.1801853104066
 21
59.41634084615686
 31
0.0
  0
LINE
  5
A44C6
330
18
100
AcDbEntity
  8
0
100
AcDbLine
 10
-130.9301853104066
 20
55.56634084615686
 30
0.0
 11
-130.1801853104066
 21
55.41634084615686
 31
0.0
  0
LINE
  5
A44C7
330
18
100
AcDbEntity
  8
0
100
AcDbLine
 10
-130.9301853104066
 20
57.56634084615686
 30
0.0
 11
-130.1801853104066
 21
57.41634084615686
 31
0.0
  0
LINE
  5
A44C8
330
18
100
AcDbEntity
  8
0
100
AcDbLine
 10
-135.1801853104066
 20
50.41634084615686
 30
0.0
 11
-134.4301853104066
 21
50.26634084615685
 31
0.0
  0
LINE
  5
A44C9
330
18
100
AcDbEntity
  8
0
100
AcDbLine
 10
-135.1801853104066
 20
52.41634084615686
 30
0.0
 11
-134.4301853104066
 21
52.26634084615685
 31
0.0
  0
LINE
  5
A44CA
330
18
100
AcDbEntity
  8
0
100
AcDbLine
 10
-135.1801853104066
 20
46.41634084615686
 30
0.0
 11
-134.4301853104066
 21
46.26634084615685
 31
0.0
  0
LINE
  5
A44CB
330
18
100
AcDbEntity
  8
0
100
AcDbLine
 10
-135.1801853104066
 20
48.41634084615686
 30
0.0
 11
-134.4301853104066
 21
48.26634084615685
 31
0.0
  0
LINE
  5
A44CC
330
18
100
AcDbEntity
  8
0
100
AcDbLine
 10
-135.1801853104066
 20
52.41634084615686
 30
0.0
 11
-130.1801853104066
 21
53.41634084615686
 31
0.0
  0
LINE
  5
A44CD
330
18
100
AcDbEntity
  8
0
100
AcDbLine
 10
-135.1801853104066
 20
50.41634084615686
 30
0.0
 11
-130.1801853104066
 21
51.41634084615686
 31
0.0
  0
LINE
  5
A44CE
330
18
100
AcDbEntity
  8
0
100
AcDbLine
 10
-135.1801853104066
 20
48.41634084615686
 30
0.0
 11
-130.1801853104066
 21
49.41634084615686
 31
0.0
  0
LINE
  5
A44CF
330
18
100
AcDbEntity
  8
0
100
AcDbLine
 10
-135.1801853104066
 20
46.41634084615686
 30
0.0
 11
-130.1801853104066
 21
47.41634084615686
 31
0.0
  0
LINE
  5
A44D0
330
18
100
AcDbEntity
  8
0
100
AcDbLine
 10
-130.9301853104066
 20
49.56634084615686
 30
0.0
 11
-130.1801853104066
 21
49.41634084615686
 31
0.0
  0
LINE
  5
A44D1
330
18
100
AcDbEntity
  8
0
100
AcDbLine
 10
-130.9301853104066
 20
51.56634084615686
 30
0.0
 11
-130.1801853104066
 21
51.41634084615686
 31
0.0
  0
LINE
  5
A44D2
330
18
100
AcDbEntity
  8
0
100
AcDbLine
 10
-130.9301853104066
 20
45.56634084615686
 30
0.0
 11
-130.1801853104066
 21
45.41634084615686
 31
0.0
  0
LINE
  5
A44D3
330
18
100
AcDbEntity
  8
0
100
AcDbLine
 10
-130.9301853104066
 20
47.56634084615686
 30
0.0
 11
-130.1801853104066
 21
47.41634084615686
 31
0.0
  0
LINE
  5
A44D4
330
18
100
AcDbEntity
  8
0
100
AcDbLine
 10
-135.1801853104066
 20
28.41634084615686
 30
0.0
 11
-130.1801853104066
 21
29.41634084615686
 31
0.0
  0
LINE
  5
A44D5
330
18
100
AcDbEntity
  8
0
100
AcDbLine
 10
-135.1801853104066
 20
36.41634084615686
 30
0.0
 11
-130.1801853104066
 21
37.41634084615686
 31
0.0
  0
LINE
  5
A44D6
330
18
100
AcDbEntity
  8
0
100
AcDbLine
 10
-135.1801853104066
 20
44.41634084615686
 30
0.0
 11
-134.4301853104066
 21
44.26634084615685
 31
0.0
  0
LINE
  5
A44D7
330
18
100
AcDbEntity
  8
0
100
AcDbLine
 10
-135.1801853104066
 20
42.41634084615686
 30
0.0
 11
-134.4301853104066
 21
42.26634084615685
 31
0.0
  0
LINE
  5
A44D8
330
18
100
AcDbEntity
  8
0
100
AcDbLine
 10
-135.1801853104066
 20
40.41634084615686
 30
0.0
 11
-134.4301853104066
 21
40.26634084615685
 31
0.0
  0
LINE
  5
A44D9
330
18
100
AcDbEntity
  8
0
100
AcDbLine
 10
-135.1801853104066
 20
38.41634084615686
 30
0.0
 11
-134.4301853104066
 21
38.26634084615685
 31
0.0
  0
LINE
  5
A44DA
330
18
100
AcDbEntity
  8
0
100
AcDbLine
 10
-135.1801853104066
 20
42.41634084615686
 30
0.0
 11
-130.1801853104066
 21
43.41634084615686
 31
0.0
  0
LINE
  5
A44DB
330
18
100
AcDbEntity
  8
0
100
AcDbLine
 10
-135.1801853104066
 20
40.41634084615686
 30
0.0
 11
-130.1801853104066
 21
41.41634084615686
 31
0.0
  0
LINE
  5
A44DC
330
18
100
AcDbEntity
  8
0
100
AcDbLine
 10
-135.1801853104066
 20
38.41634084615686
 30
0.0
 11
-130.1801853104066
 21
39.41634084615686
 31
0.0
  0
LINE
  5
A44DD
330
18
100
AcDbEntity
  8
0
100
AcDbLine
 10
-130.9301853104066
 20
43.56634084615686
 30
0.0
 11
-130.1801853104066
 21
43.41634084615686
 31
0.0
  0
LINE
  5
A44DE
330
18
100
AcDbEntity
  8
0
100
AcDbLine
 10
-130.9301853104066
 20
41.56634084615686
 30
0.0
 11
-130.1801853104066
 21
41.41634084615686
 31
0.0
  0
LINE
  5
A44DF
330
18
100
AcDbEntity
  8
0
100
AcDbLine
 10
-130.9301853104066
 20
39.56634084615686
 30
0.0
 11
-130.1801853104066
 21
39.41634084615686
 31
0.0
  0
LINE
  5
A44E0
330
18
100
AcDbEntity
  8
0
100
AcDbLine
 10
-130.9301853104066
 20
37.56634084615686
 30
0.0
 11
-130.1801853104066
 21
37.41634084615686
 31
0.0
  0
LINE
  5
A44E1
330
18
100
AcDbEntity
  8
0
100
AcDbLine
 10
-135.1801853104066
 20
32.41634084615686
 30
0.0
 11
-134.4301853104066
 21
32.26634084615685
 31
0.0
  0
LINE
  5
A44E2
330
18
100
AcDbEntity
  8
0
100
AcDbLine
 10
-135.1801853104066
 20
34.41634084615686
 30
0.0
 11
-134.4301853104066
 21
34.26634084615685
 31
0.0
  0
LINE
  5
A44E3
330
18
100
AcDbEntity
  8
0
100
AcDbLine
 10
-135.1801853104066
 20
36.41634084615686
 30
0.0
 11
-134.4301853104066
 21
36.26634084615685
 31
0.0
  0
LINE
  5
A44E4
330
18
100
AcDbEntity
  8
0
100
AcDbLine
 10
-135.1801853104066
 20
30.41634084615686
 30
0.0
 11
-134.4301853104066
 21
30.26634084615685
 31
0.0
  0
LINE
  5
A44E5
330
18
100
AcDbEntity
  8
0
100
AcDbLine
 10
-135.1801853104066
 20
34.41634084615686
 30
0.0
 11
-130.1801853104066
 21
35.41634084615686
 31
0.0
  0
LINE
  5
A44E6
330
18
100
AcDbEntity
  8
0
100
AcDbLine
 10
-135.1801853104066
 20
32.41634084615686
 30
0.0
 11
-130.1801853104066
 21
33.41634084615686
 31
0.0
  0
LINE
  5
A44E7
330
18
100
AcDbEntity
  8
0
100
AcDbLine
 10
-135.1801853104066
 20
30.41634084615686
 30
0.0
 11
-130.1801853104066
 21
31.41634084615686
 31
0.0
  0
LINE
  5
A44E8
330
18
100
AcDbEntity
  8
0
100
AcDbLine
 10
-130.9301853104066
 20
33.56634084615686
 30
0.0
 11
-130.1801853104066
 21
33.41634084615686
 31
0.0
  0
LINE
  5
A44E9
330
18
100
AcDbEntity
  8
0
100
AcDbLine
 10
-130.9301853104066
 20
35.56634084615686
 30
0.0
 11
-130.1801853104066
 21
35.41634084615686
 31
0.0
  0
LINE
  5
A44EA
330
18
100
AcDbEntity
  8
0
100
AcDbLine
 10
-130.9301853104066
 20
31.56634084615686
 30
0.0
 11
-130.1801853104066
 21
31.41634084615686
 31
0.0
  0
LINE
  5
A44EB
330
18
100
AcDbEntity
  8
0
100
AcDbLine
 10
-130.9301853104066
 20
29.56634084615686
 30
0.0
 11
-130.1801853104066
 21
29.41634084615686
 31
0.0
  0
LINE
  5
A44EC
330
18
100
AcDbEntity
  8
0
100
AcDbLine
 10
-135.1801853104066
 20
28.41634084615686
 30
0.0
 11
-134.4301853104066
 21
28.26634084615685
 31
0.0
  0
LINE
  5
A44ED
330
18
100
AcDbEntity
  8
0
100
AcDbLine
 10
-130.9301853104066
 20
28.29847526011099
 30
0.0
 11
-134.4301853104066
 21
28.29847526011099
 31
0.0
  0
LINE
  5
A44EE
330
18
100
AcDbEntity
  8
1DIM
  6
CONTINUOUS
100
AcDbLine
 10
-132.6801853104066
 20
69.74482849065907
 30
0.0
 11
-132.6801853104066
 21
76.8496049758885
 31
0.0
  0
LINE
  5
A44EF
330
18
100
AcDbEntity
  8
1DIM
  6
CONTINUOUS
100
AcDbLine
 10
-97.68018531040661
 20
69.74482849065907
 30
0.0
 11
-97.68018531040661
 21
76.8496049758885
 31
0.0
  0
LINE
  5
A44F0
330
18
100
AcDbEntity
  8
1DIM
  6
CONTINUOUS
100
AcDbLine
 10
-130.6801853104066
 20
75.8496049758885
 30
0.0
 11
-99.68018531040661
 21
75.8496049758885
 31
0.0
  0
TEXT
  5
A44F4
330
18
100
AcDbEntity
  8
1DIM
  6
CONTINUOUS
100
AcDbText
 10
61.4119386210657
 20
60.75573485492487
 30
0.0
 40
3.5
  1
合板12mm以上
100
AcDbText
  0
LINE
  5
A44F6
330
18
100
AcDbEntity
  8
1DIM
100
AcDbLine
 10
53.08004886777708
 20
47.45005193034071
 30
0.0
 11
58.7119386210657
 21
60.05573485492486
 31
0.0
  0
LINE
  5
A44F7
330
18
100
AcDbEntity
  8
1DIM
100
AcDbLine
 10
58.7119386210657
 20
60.05573485492486
 30
0.0
 11
94.17860528773237
 21
60.05573485492486
 31
0.0
  0
LINE
  5
A44F9
330
18
100
AcDbEntity
  8
1HATCH
100
AcDbLine
 10
53.89581183335305
 20
35.18943246991558
 30
0.0
 11
63.77014829334
 21
23.32520109399688
 31
0.0
  0
LINE
  5
A44FA
330
18
100
AcDbEntity
  8
1HATCH
100
AcDbLine
 10
63.77014829334
 20
23.32520109399688
 30
0.0
 11
72.30348162667333
 21
23.32520109399688
 31
0.0
  0
TEXT
  5
A44FB
330
18
100
AcDbEntity
  8
1HATCH
  6
CONTINUOUS
100
AcDbText
 10
66.47014829334
 20
24.02520109399688
 30
0.0
 40
3.5
  1
PB
100
AcDbText
  0
LINE
  5
A44FC
330
18
100
AcDbEntity
  8
1DIM
  6
CONTINUOUS
100
AcDbLine
 10
-32.54640015291068
 20
-39.95152473989128
 30
0.0
 11
-54.99058675475374
 21
-39.95152473989128
 31
0.0
1001
ACAD
1000
DSTYLE
1002
{
1070
     3
1000
φ<>
1002
}
  0
LINE
  5
A44FD
330
18
100
AcDbEntity
  8
1DIM
  6
CONTINUOUS
100
AcDbLine
 10
-32.54640015291113
 20
-4.451524739891283
 30
0.0
 11
-54.99058675475374
 21
-4.451524739891276
 31
0.0
1001
ACAD
1000
DSTYLE
1002
{
1070
     3
1000
φ<>
1002
}
  0
LINE
  5
A44FE
330
18
100
AcDbEntity
  8
1DIM
  6
CONTINUOUS
100
AcDbLine
 10
-53.99058675475374
 20
-37.95152473989128
 30
0.0
 11
-53.99058675475374
 21
-6.451524739891278
 31
0.0
1001
ACAD
1000
DSTYLE
1002
{
1070
     3
1000
φ<>
1002
}
  0
LINE
  5
A4502
330
18
100
AcDbEntity
  8
1DIM
  6
CONTINUOUS
100
AcDbLine
 10
-49.02303225628305
 20
-22.20152473989128
 30
0.0
 11
-65.1096743877307
 21
-22.20152473989128
 31
0.0
  0
LINE
  5
A4503
330
18
100
AcDbEntity
  8
1DIM
  6
CONTINUOUS
100
AcDbLine
 10
-25.59640015291109
 20
30.79847526010917
 30
0.0
 11
-65.1096743877307
 21
30.79847526010918
 31
0.0
  0
LINE
  5
A4504
330
18
100
AcDbEntity
  8
1DIM
  6
CONTINUOUS
100
AcDbLine
 10
-64.1096743877307
 20
-20.20152473989128
 30
0.0
 11
-64.1096743877307
 21
28.79847526010918
 31
0.0
  0
LINE
  5
A4508
330
18
100
AcDbEntity
  8
1DIM
  6
CONTINUOUS
100
AcDbLine
 10
4.642492848157531
 20
30.79847526010917
 30
0.0
 11
4.642492848157534
 21
84.28197013614135
 31
0.0
1001
ACAD
1000
DSTYLE
1002
{
1070
   271
1070
     0
1002
}
  0
LINE
  5
A4509
330
18
100
AcDbEntity
  8
1DIM
  6
CONTINUOUS
100
AcDbLine
 10
19.65359984708721
 20
30.79847526010917
 30
0.0
 11
19.65359984708721
 21
84.28197013614135
 31
0.0
1001
ACAD
1000
DSTYLE
1002
{
1070
   271
1070
     0
1002
}
  0
LINE
  5
A450A
330
18
100
AcDbEntity
  8
1DIM
  6
CONTINUOUS
100
AcDbLine
 10
6.642492848157534
 20
83.28197013614135
 30
0.0
 11
17.65359984708721
 21
83.28197013614135
 31
0.0
1001
ACAD
1000
DSTYLE
1002
{
1070
   271
1070
     0
1002
}
  0
LINE
  5
A450E
330
18
100
AcDbEntity
  8
1DIM
  6
CONTINUOUS
100
AcDbLine
 10
11.65359984708823
 20
69.74482849065907
 30
0.0
 11
11.65359984708823
 21
76.13215007250119
 31
0.0
  0
LINE
  5
A450F
330
18
100
AcDbEntity
  8
1DIM
  6
CONTINUOUS
100
AcDbLine
 10
19.65359984708721
 20
30.79847526010917
 30
0.0
 11
19.65359984708721
 21
76.13215007250119
 31
0.0
  0
LINE
  5
A4510
330
18
100
AcDbEntity
  8
1DIM
  6
CONTINUOUS
100
AcDbLine
 10
13.65359984708823
 20
75.13215007250119
 30
0.0
 11
17.65359984708721
 21
75.13215007250119
 31
0.0
  0
LINE
  5
A4515
330
18
100
AcDbEntity
  8
1DIM
100
AcDbLine
 10
-32.05305804707005
 20
-76.75727333768383
 30
0.0
 11
-44.35821644483287
 21
-99.62217571296215
 31
0.0
1001
ACAD
1000
DSTYLE
1002
{
1070
    50
1040
1.570796326794897
1070
   345
1005
14
1070
   346
1005
14
1070
   347
1005
14
1002
}
  0
LINE
  5
A4517
330
18
100
AcDbEntity
  8
1DIM
100
AcDbLine
 10
-13.02774100748777
 20
-96.11133951447904
 30
0.0
 11
-28.86818202961153
 21
-116.4331102129216
 31
0.0
1001
ACAD
1000
DSTYLE
1002
{
1070
    50
1040
1.570796326794897
1070
   345
1005
14
1070
   346
1005
14
1070
   347
1005
14
1002
}
  0
LINE
  5
A4518
330
18
100
AcDbEntity
  8
0
  6
BYBLOCK
100
AcDbLine
 10
-73.69460864199833
 20
-39.70152473989105
 30
0.0
 11
-74.23050664199833
 21
-41.70152473989105
 31
0.0
  0
LINE
  5
A4519
330
18
100
AcDbEntity
  8
0
  6
BYBLOCK
100
AcDbLine
 10
-74.23050664199833
 20
-41.70152473989105
 30
0.0
 11
-74.76640464199834
 21
-39.70152473989105
 31
0.0
  0
LINE
  5
A451A
330
18
100
AcDbEntity
  8
0
  6
BYBLOCK
100
AcDbLine
 10
-74.23050664199833
 20
-41.70152473989105
 30
0.0
 11
-74.23050664199833
 21
-39.70152473989105
 31
0.0
  0
LINE
  5
A451B
330
18
100
AcDbEntity
  8
0
  6
BYBLOCK
100
AcDbLine
 10
-74.76640464199832
 20
28.79847526010919
 30
0.0
 11
-74.23050664199832
 21
30.79847526010919
 31
0.0
  0
LINE
  5
A451C
330
18
100
AcDbEntity
  8
0
  6
BYBLOCK
100
AcDbLine
 10
-74.23050664199832
 20
30.79847526010919
 30
0.0
 11
-73.69460864199831
 21
28.79847526010919
 31
0.0
  0
LINE
  5
A451D
330
18
100
AcDbEntity
  8
0
  6
BYBLOCK
100
AcDbLine
 10
-74.23050664199832
 20
30.79847526010919
 30
0.0
 11
-74.23050664199832
 21
28.79847526010919
 31
0.0
  0
TEXT
  5
A451E
330
18
100
AcDbEntity
  8
1DIM
  6
CONTINUOUS
100
AcDbText
 10
-74.93050664199832
 20
-10.70152473989094
 30
0.0
 40
3.5
  1
72.5
 50
90.0
100
AcDbText
  0
LINE
  5
A451F
330
18
100
AcDbEntity
  8
0
  6
BYBLOCK
100
AcDbLine
 10
-30.84640015291176
 20
90.71704793224862
 30
0.0
 11
-32.84640015291176
 21
91.25294593224862
 31
0.0
  0
LINE
  5
A4520
330
18
100
AcDbEntity
  8
0
  6
BYBLOCK
100
AcDbLine
 10
-32.84640015291176
 20
91.25294593224862
 30
0.0
 11
-30.84640015291176
 21
91.78884393224862
 31
0.0
  0
LINE
  5
A4521
330
18
100
AcDbEntity
  8
0
  6
BYBLOCK
100
AcDbLine
 10
-32.84640015291176
 20
91.25294593224862
 30
0.0
 11
-30.84640015291176
 21
91.25294593224862
 31
0.0
  0
LINE
  5
A4522
330
18
100
AcDbEntity
  8
0
  6
BYBLOCK
100
AcDbLine
 10
17.65359984708721
 20
91.78884393224862
 30
0.0
 11
19.65359984708721
 21
91.25294593224862
 31
0.0
  0
LINE
  5
A4523
330
18
100
AcDbEntity
  8
0
  6
BYBLOCK
100
AcDbLine
 10
19.65359984708721
 20
91.25294593224862
 30
0.0
 11
17.65359984708721
 21
90.71704793224862
 31
0.0
  0
LINE
  5
A4524
330
18
100
AcDbEntity
  8
0
  6
BYBLOCK
100
AcDbLine
 10
19.65359984708721
 20
91.25294593224862
 30
0.0
 11
17.65359984708721
 21
91.25294593224862
 31
0.0
  0
TEXT
  5
A4525
330
18
100
AcDbEntity
  8
1DIM
  6
CONTINUOUS
100
AcDbText
 10
-11.85855293069005
 20
91.95294593224862
 30
0.0
 40
3.5
  1
52.5
100
AcDbText
  0
LINE
  5
A4526
330
18
100
AcDbEntity
  8
0
  6
BYBLOCK
100
AcDbLine
 10
-138.1801853104066
 20
86.81616194016769
 30
0.0
 11
-140.1801853104066
 21
87.35205994016769
 31
0.0
  0
LINE
  5
A4527
330
18
100
AcDbEntity
  8
0
  6
BYBLOCK
100
AcDbLine
 10
-140.1801853104066
 20
87.35205994016769
 30
0.0
 11
-138.1801853104066
 21
87.8879579401677
 31
0.0
  0
LINE
  5
A4528
330
18
100
AcDbEntity
  8
0
  6
BYBLOCK
100
AcDbLine
 10
-140.1801853104066
 20
87.35205994016769
 30
0.0
 11
-138.1801853104066
 21
87.35205994016769
 31
0.0
  0
LINE
  5
A4529
330
18
100
AcDbEntity
  8
0
  6
BYBLOCK
100
AcDbLine
 10
-92.18018531040661
 20
87.8879579401677
 30
0.0
 11
-90.18018531040661
 21
87.35205994016769
 31
0.0
  0
LINE
  5
A452A
330
18
100
AcDbEntity
  8
0
  6
BYBLOCK
100
AcDbLine
 10
-90.18018531040661
 20
87.35205994016769
 30
0.0
 11
-92.18018531040661
 21
86.81616194016769
 31
0.0
  0
LINE
  5
A452B
330
18
100
AcDbEntity
  8
0
  6
BYBLOCK
100
AcDbLine
 10
-90.18018531040661
 20
87.35205994016769
 30
0.0
 11
-92.18018531040661
 21
87.35205994016769
 31
0.0
  0
TEXT
  5
A452C
330
18
100
AcDbEntity
  8
1DIM
  6
CONTINUOUS
100
AcDbText
 10
-117.8902547548511
 20
88.05205994016768
 30
0.0
 40
3.5
  1
50
100
AcDbText
  0
LINE
  5
A452D
330
18
100
AcDbEntity
  8
0
100
AcDbLine
 10
9.903599847088238
 20
61.76738634686558
 30
0.0
 11
9.90359984708823
 21
28.29847526011099
 31
0.0
  0
LINE
  5
A452E
330
18
100
AcDbEntity
  8
0
100
AcDbLine
 10
9.90359984708823
 20
28.29847526011099
 30
0.0
 11
7.15359984708823
 21
28.29847526011099
 31
0.0
  0
LINE
  5
A452F
330
18
100
AcDbEntity
  8
0
100
AcDbLine
 10
7.15359984708823
 20
28.29847526011099
 30
0.0
 11
7.15359984708823
 21
27.49847526011121
 31
0.0
  0
ARC
  5
A4530
330
18
100
AcDbEntity
  8
0
100
AcDbCircle
 10
9.65359984708823
 20
27.49847526011101
 30
0.0
 40
2.5
100
AcDbArc
 50
179.9999999999955
 51
270.0
  0
LINE
  5
A4531
330
18
100
AcDbEntity
  8
0
100
AcDbLine
 10
9.65359984708823
 20
24.99847526011101
 30
0.0
 11
13.65359984708823
 21
24.99847526011098
 31
0.0
  0
ARC
  5
A4532
330
18
100
AcDbEntity
  8
0
100
AcDbCircle
 10
13.65359984708823
 20
27.49847526011098
 30
0.0
 40
2.5
100
AcDbArc
 50
270.0
 51
0.0
  0
LINE
  5
A4533
330
18
100
AcDbEntity
  8
0
100
AcDbLine
 10
16.15359984708823
 20
27.49847526011098
 30
0.0
 11
16.15359984708823
 21
28.29847526011099
 31
0.0
  0
LINE
  5
A4534
330
18
100
AcDbEntity
  8
0
100
AcDbLine
 10
16.15359984708823
 20
28.29847526011099
 30
0.0
 11
13.40359984708823
 21
28.29847526011099
 31
0.0
  0
LINE
  5
A4535
330
18
100
AcDbEntity
  8
0
100
AcDbLine
 10
13.40359984708823
 20
28.29847526011099
 30
0.0
 11
13.40359984708824
 21
61.76738634686552
 31
0.0
  0
LINE
  5
A4536
330
18
100
AcDbEntity
  8
0
100
AcDbLine
 10
13.40359984708824
 20
61.76738634686552
 30
0.0
 11
11.65359984708824
 21
68.29847526011099
 31
0.0
  0
LINE
  5
A4537
330
18
100
AcDbEntity
  8
0
100
AcDbLine
 10
11.65359984708824
 20
68.29847526011099
 30
0.0
 11
9.903599847088238
 21
61.76738634686558
 31
0.0
  0
LINE
  5
A4538
330
18
100
AcDbEntity
  8
0
100
AcDbLine
 10
-99.43018531040661
 20
61.76738634686558
 30
0.0
 11
-99.43018531040661
 21
28.29847526011099
 31
0.0
  0
LINE
  5
A4539
330
18
100
AcDbEntity
  8
0
100
AcDbLine
 10
-99.43018531040661
 20
28.29847526011099
 30
0.0
 11
-102.1801853104066
 21
28.29847526011099
 31
0.0
  0
LINE
  5
A453A
330
18
100
AcDbEntity
  8
0
100
AcDbLine
 10
-102.1801853104066
 20
28.29847526011099
 30
0.0
 11
-102.1801853104066
 21
27.49847526011121
 31
0.0
  0
ARC
  5
A453B
330
18
100
AcDbEntity
  8
0
100
AcDbCircle
 10
-99.68018531040661
 20
27.49847526011101
 30
0.0
 40
2.5
100
AcDbArc
 50
179.9999999999955
 51
270.0
  0
LINE
  5
A453C
330
18
100
AcDbEntity
  8
0
100
AcDbLine
 10
-99.68018531040661
 20
24.99847526011101
 30
0.0
 11
-95.68018531040661
 21
24.99847526011098
 31
0.0
  0
ARC
  5
A453D
330
18
100
AcDbEntity
  8
0
100
AcDbCircle
 10
-95.68018531040661
 20
27.49847526011098
 30
0.0
 40
2.5
100
AcDbArc
 50
270.0
 51
0.0
  0
LINE
  5
A453E
330
18
100
AcDbEntity
  8
0
100
AcDbLine
 10
-93.18018531040661
 20
27.49847526011098
 30
0.0
 11
-93.18018531040661
 21
28.29847526011099
 31
0.0
  0
LINE
  5
A453F
330
18
100
AcDbEntity
  8
0
100
AcDbLine
 10
-93.18018531040661
 20
28.29847526011099
 30
0.0
 11
-95.93018531040661
 21
28.29847526011099
 31
0.0
  0
LINE
  5
A4540
330
18
100
AcDbEntity
  8
0
100
AcDbLine
 10
-95.93018531040661
 20
28.29847526011099
 30
0.0
 11
-95.93018531040661
 21
61.76738634686552
 31
0.0
  0
LINE
  5
A4541
330
18
100
AcDbEntity
  8
0
100
AcDbLine
 10
-95.93018531040661
 20
61.76738634686552
 30
0.0
 11
-97.6801853104066
 21
68.29847526011099
 31
0.0
  0
LINE
  5
A4542
330
18
100
AcDbEntity
  8
0
100
AcDbLine
 10
-97.6801853104066
 20
68.29847526011099
 30
0.0
 11
-99.43018531040661
 21
61.76738634686558
 31
0.0
  0
LINE
  5
A4543
330
18
100
AcDbEntity
  8
0
100
AcDbLine
 10
-134.4301853104066
 20
61.76738634686558
 30
0.0
 11
-134.4301853104066
 21
28.29847526011099
 31
0.0
  0
LINE
  5
A4544
330
18
100
AcDbEntity
  8
0
100
AcDbLine
 10
-134.4301853104066
 20
28.29847526011099
 30
0.0
 11
-137.1801853104066
 21
28.29847526011099
 31
0.0
  0
LINE
  5
A4545
330
18
100
AcDbEntity
  8
0
100
AcDbLine
 10
-137.1801853104066
 20
28.29847526011099
 30
0.0
 11
-137.1801853104066
 21
27.49847526011121
 31
0.0
  0
ARC
  5
A4546
330
18
100
AcDbEntity
  8
0
100
AcDbCircle
 10
-134.6801853104066
 20
27.49847526011101
 30
0.0
 40
2.5
100
AcDbArc
 50
179.9999999999955
 51
270.0
  0
LINE
  5
A4547
330
18
100
AcDbEntity
  8
0
100
AcDbLine
 10
-134.6801853104066
 20
24.99847526011101
 30
0.0
 11
-130.6801853104066
 21
24.99847526011098
 31
0.0
  0
ARC
  5
A4548
330
18
100
AcDbEntity
  8
0
100
AcDbCircle
 10
-130.6801853104066
 20
27.49847526011098
 30
0.0
 40
2.5
100
AcDbArc
 50
270.0
 51
0.0
  0
LINE
  5
A4549
330
18
100
AcDbEntity
  8
0
100
AcDbLine
 10
-128.1801853104066
 20
27.49847526011098
 30
0.0
 11
-128.1801853104066
 21
28.29847526011099
 31
0.0
  0
LINE
  5
A454A
330
18
100
AcDbEntity
  8
0
100
AcDbLine
 10
-128.1801853104066
 20
28.29847526011099
 30
0.0
 11
-130.9301853104066
 21
28.29847526011099
 31
0.0
  0
LINE
  5
A454B
330
18
100
AcDbEntity
  8
0
100
AcDbLine
 10
-130.9301853104066
 20
28.29847526011099
 30
0.0
 11
-130.9301853104066
 21
61.76738634686552
 31
0.0
  0
LINE
  5
A454C
330
18
100
AcDbEntity
  8
0
100
AcDbLine
 10
-130.9301853104066
 20
61.76738634686552
 30
0.0
 11
-132.6801853104066
 21
68.29847526011099
 31
0.0
  0
LINE
  5
A454D
330
18
100
AcDbEntity
  8
0
100
AcDbLine
 10
-132.6801853104066
 20
68.29847526011099
 30
0.0
 11
-134.4301853104066
 21
61.76738634686558
 31
0.0
  0
LINE
  5
A454E
330
18
100
AcDbEntity
  8
0
  6
BYBLOCK
100
AcDbLine
 10
-130.6801853104066
 20
75.3137069758885
 30
0.0
 11
-132.6801853104066
 21
75.8496049758885
 31
0.0
  0
LINE
  5
A454F
330
18
100
AcDbEntity
  8
0
  6
BYBLOCK
100
AcDbLine
 10
-132.6801853104066
 20
75.8496049758885
 30
0.0
 11
-130.6801853104066
 21
76.3855029758885
 31
0.0
  0
LINE
  5
A4550
330
18
100
AcDbEntity
  8
0
  6
BYBLOCK
100
AcDbLine
 10
-132.6801853104066
 20
75.8496049758885
 30
0.0
 11
-130.6801853104066
 21
75.8496049758885
 31
0.0
  0
LINE
  5
A4551
330
18
100
AcDbEntity
  8
0
  6
BYBLOCK
100
AcDbLine
 10
-99.68018531040661
 20
76.3855029758885
 30
0.0
 11
-97.68018531040661
 21
75.8496049758885
 31
0.0
  0
LINE
  5
A4552
330
18
100
AcDbEntity
  8
0
  6
BYBLOCK
100
AcDbLine
 10
-97.68018531040661
 20
75.8496049758885
 30
0.0
 11
-99.68018531040661
 21
75.3137069758885
 31
0.0
  0
LINE
  5
A4553
330
18
100
AcDbEntity
  8
0
  6
BYBLOCK
100
AcDbLine
 10
-97.68018531040661
 20
75.8496049758885
 30
0.0
 11
-99.68018531040661
 21
75.8496049758885
 31
0.0
  0
TEXT
  5
A4554
330
18
100
AcDbEntity
  8
1DIM
  6
CONTINUOUS
100
AcDbText
 10
-118.0968519770733
 20
76.54960497588849
 30
0.0
 40
3.5
  1
35
100
AcDbText
  0
LINE
  5
A4555
330
18
100
AcDbEntity
  8
0
  6
BYBLOCK
100
AcDbLine
 10
53.56933472221139
 20
47.23145179526644
 30
0.0
 11
52.26422147124163
 21
45.62401095077257
 31
0.0
  0
LINE
  5
A4556
330
18
100
AcDbEntity
  8
0
  6
BYBLOCK
100
AcDbLine
 10
52.26422147124163
 20
45.62401095077257
 30
0.0
 11
52.59076301334278
 21
47.668652065415
 31
0.0
  0
LINE
  5
A4557
330
18
100
AcDbEntity
  8
0
  6
BYBLOCK
100
AcDbLine
 10
52.26422147124163
 20
45.62401095077257
 30
0.0
 11
53.08004886777708
 21
47.45005193034071
 31
0.0
  0
LINE
  5
A4558
330
18
100
AcDbEntity
  8
0
  6
BYBLOCK
100
AcDbLine
 10
53.48390984284404
 20
34.84661558494823
 30
0.0
 11
52.61640088213716
 21
36.72667273022262
 31
0.0
  0
LINE
  5
A4559
330
18
100
AcDbEntity
  8
0
  6
BYBLOCK
100
AcDbLine
 10
52.61640088213716
 20
36.72667273022262
 30
0.0
 11
54.30771382386206
 21
35.53224935488293
 31
0.0
  0
LINE
  5
A455A
330
18
100
AcDbEntity
  8
0
  6
BYBLOCK
100
AcDbLine
 10
52.61640088213716
 20
36.72667273022262
 30
0.0
 11
53.89581183335305
 21
35.18943246991558
 31
0.0
  0
LINE
  5
A455B
330
18
100
AcDbEntity
  8
0
  6
BYBLOCK
100
AcDbLine
 10
-53.45468875475374
 20
-37.95152473989128
 30
0.0
 11
-53.99058675475374
 21
-39.95152473989128
 31
0.0
  0
LINE
  5
A455C
330
18
100
AcDbEntity
  8
0
  6
BYBLOCK
100
AcDbLine
 10
-53.99058675475374
 20
-39.95152473989128
 30
0.0
 11
-54.52648475475375
 21
-37.95152473989128
 31
0.0
  0
LINE
  5
A455D
330
18
100
AcDbEntity
  8
0
  6
BYBLOCK
100
AcDbLine
 10
-53.99058675475374
 20
-39.95152473989128
 30
0.0
 11
-53.99058675475374
 21
-37.95152473989128
 31
0.0
  0
LINE
  5
A455E
330
18
100
AcDbEntity
  8
0
  6
BYBLOCK
100
AcDbLine
 10
-54.52648475475374
 20
-6.451524739891278
 30
0.0
 11
-53.99058675475374
 21
-4.451524739891278
 31
0.0
  0
LINE
  5
A455F
330
18
100
AcDbEntity
  8
0
  6
BYBLOCK
100
AcDbLine
 10
-53.99058675475374
 20
-4.451524739891278
 30
0.0
 11
-53.45468875475373
 21
-6.451524739891278
 31
0.0
  0
LINE
  5
A4560
330
18
100
AcDbEntity
  8
0
  6
BYBLOCK
100
AcDbLine
 10
-53.99058675475374
 20
-4.451524739891278
 30
0.0
 11
-53.99058675475374
 21
-6.451524739891278
 31
0.0
  0
TEXT
  5
A4561
330
18
100
AcDbEntity
  8
1DIM
  6
CONTINUOUS
100
AcDbText
 10
-54.69058675475374
 20
-30.03034418433573
 30
0.0
 40
3.5
  1
φ35.5
 50
90.0
100
AcDbText
1001
ACAD
1000
DSTYLE
1002
{
1070
     3
1000
φ<>
1002
}
  0
LINE
  5
A4562
330
18
100
AcDbEntity
  8
0
  6
BYBLOCK
100
AcDbLine
 10
-63.5737763877307
 20
-20.20152473989128
 30
0.0
 11
-64.1096743877307
 21
-22.20152473989128
 31
0.0
  0
LINE
  5
A4563
330
18
100
AcDbEntity
  8
0
  6
BYBLOCK
100
AcDbLine
 10
-64.1096743877307
 20
-22.20152473989128
 30
0.0
 11
-64.64557238773071
 21
-20.20152473989128
 31
0.0
  0
LINE
  5
A4564
330
18
100
AcDbEntity
  8
0
  6
BYBLOCK
100
AcDbLine
 10
-64.1096743877307
 20
-22.20152473989128
 30
0.0
 11
-64.1096743877307
 21
-20.20152473989128
 31
0.0
  0
LINE
  5
A4565
330
18
100
AcDbEntity
  8
0
  6
BYBLOCK
100
AcDbLine
 10
-64.64557238773071
 20
28.79847526010918
 30
0.0
 11
-64.1096743877307
 21
30.79847526010918
 31
0.0
  0
LINE
  5
A4566
330
18
100
AcDbEntity
  8
0
  6
BYBLOCK
100
AcDbLine
 10
-64.1096743877307
 20
30.79847526010918
 30
0.0
 11
-63.5737763877307
 21
28.79847526010918
 31
0.0
  0
LINE
  5
A4567
330
18
100
AcDbEntity
  8
0
  6
BYBLOCK
100
AcDbLine
 10
-64.1096743877307
 20
30.79847526010918
 30
0.0
 11
-64.1096743877307
 21
28.79847526010918
 31
0.0
  0
TEXT
  5
A4568
330
18
100
AcDbEntity
  8
1DIM
  6
CONTINUOUS
100
AcDbText
 10
-64.80967438773071
 20
1.369655815664501
 30
0.0
 40
3.5
  1
53
 50
90.0
100
AcDbText
  0
LINE
  5
A4569
330
18
100
AcDbEntity
  8
0
  6
BYBLOCK
100
AcDbLine
 10
6.642492848157534
 20
82.74607213614135
 30
0.0
 11
4.642492848157534
 21
83.28197013614135
 31
0.0
  0
LINE
  5
A456A
330
18
100
AcDbEntity
  8
0
  6
BYBLOCK
100
AcDbLine
 10
4.642492848157534
 20
83.28197013614135
 30
0.0
 11
6.642492848157534
 21
83.81786813614136
 31
0.0
  0
LINE
  5
A456B
330
18
100
AcDbEntity
  8
0
  6
BYBLOCK
100
AcDbLine
 10
4.642492848157534
 20
83.28197013614135
 30
0.0
 11
6.642492848157534
 21
83.28197013614135
 31
0.0
  0
LINE
  5
A456C
330
18
100
AcDbEntity
  8
0
  6
BYBLOCK
100
AcDbLine
 10
17.65359984708721
 20
83.81786813614136
 30
0.0
 11
19.65359984708721
 21
83.28197013614135
 31
0.0
  0
LINE
  5
A456D
330
18
100
AcDbEntity
  8
0
  6
BYBLOCK
100
AcDbLine
 10
19.65359984708721
 20
83.28197013614135
 30
0.0
 11
17.65359984708721
 21
82.74607213614135
 31
0.0
  0
LINE
  5
A456E
330
18
100
AcDbEntity
  8
0
  6
BYBLOCK
100
AcDbLine
 10
19.65359984708721
 20
83.28197013614135
 30
0.0
 11
17.65359984708721
 21
83.28197013614135
 31
0.0
  0
TEXT
  5
A456F
330
18
100
AcDbEntity
  8
1DIM
  6
CONTINUOUS
100
AcDbText
 10
9.814713014289039
 20
83.98197013614134
 30
0.0
 40
3.5
  1
15
100
AcDbText
1001
ACAD
1000
DSTYLE
1002
{
1070
   271
1070
     0
1002
}
  0
LINE
  5
A4570
330
18
100
AcDbEntity
  8
0
  6
BYBLOCK
100
AcDbLine
 10
13.65359984708823
 20
74.59625207250119
 30
0.0
 11
11.65359984708823
 21
75.13215007250119
 31
0.0
  0
LINE
  5
A4571
330
18
100
AcDbEntity
  8
0
  6
BYBLOCK
100
AcDbLine
 10
11.65359984708823
 20
75.13215007250119
 30
0.0
 11
13.65359984708823
 21
75.6680480725012
 31
0.0
  0
LINE
  5
A4572
330
18
100
AcDbEntity
  8
0
  6
BYBLOCK
100
AcDbLine
 10
11.65359984708823
 20
75.13215007250119
 30
0.0
 11
13.65359984708823
 21
75.13215007250119
 31
0.0
  0
LINE
  5
A4573
330
18
100
AcDbEntity
  8
0
  6
BYBLOCK
100
AcDbLine
 10
17.65359984708721
 20
75.6680480725012
 30
0.0
 11
19.65359984708721
 21
75.13215007250119
 31
0.0
  0
LINE
  5
A4574
330
18
100
AcDbEntity
  8
0
  6
BYBLOCK
100
AcDbLine
 10
19.65359984708721
 20
75.13215007250119
 30
0.0
 11
17.65359984708721
 21
74.59625207250119
 31
0.0
  0
LINE
  5
A4575
330
18
100
AcDbEntity
  8
0
  6
BYBLOCK
100
AcDbLine
 10
19.65359984708721
 20
75.13215007250119
 30
0.0
 11
17.65359984708721
 21
75.13215007250119
 31
0.0
  0
TEXT
  5
A4576
330
18
100
AcDbEntity
  8
1DIM
  6
CONTINUOUS
100
AcDbText
 10
14.48693318042105
 20
75.8321500725012
 30
0.0
 40
3.5
  1
8
100
AcDbText
  0
LINE
  5
A4577
330
18
100
AcDbEntity
  8
0
  6
BYBLOCK
100
AcDbLine
 10
-32.52495856262684
 20
-76.50331158894744
 30
0.0
 11
-31.10525921693306
 21
-74.99611537270994
 31
0.0
  0
LINE
  5
A4578
330
18
100
AcDbEntity
  8
0
  6
BYBLOCK
100
AcDbLine
 10
-31.10525921693306
 20
-74.99611537270994
 30
0.0
 11
-31.58115753151327
 21
-77.0112350864202
 31
0.0
  0
LINE
  5
A4579
330
18
100
AcDbEntity
  8
0
  6
BYBLOCK
100
AcDbLine
 10
-31.10525921693306
 20
-74.99611537270994
 30
0.0
 11
-32.05305804707005
 21
-76.75727333768383
 31
0.0
  0
LINE
  5
A457A
330
18
100
AcDbEntity
  8
0
  6
BYBLOCK
100
AcDbLine
 10
-13.450404105489
 20
-95.78188151716832
 30
0.0
 11
-11.79818613954376
 21
-94.53393822542314
 31
0.0
  0
LINE
  5
A457B
330
18
100
AcDbEntity
  8
0
  6
BYBLOCK
100
AcDbLine
 10
-11.79818613954376
 20
-94.53393822542314
 30
0.0
 11
-12.60507790948653
 21
-96.44079751178977
 31
0.0
  0
LINE
  5
A457C
330
18
100
AcDbEntity
  8
0
  6
BYBLOCK
100
AcDbLine
 10
-11.79818613954376
 20
-94.53393822542314
 30
0.0
 11
-13.02774100748777
 21
-96.11133951447904
 31
0.0
  0
VIEWPORT
  5
7DA1A
330
7DA16
100
AcDbEntity
 67
     1
  8
0
100
AcDbViewport
 68
     1
 10
0.0
 20
0.0
 30
0.0
 40
630.5106382978723
 41
297.0
 68
     1
 69
     1
1001
ACAD
1000
MVIEW
1002
{
1070
    16
1010
0.0
1020
0.0
1030
0.0
1010
0.0
1020
0.0
1030
1.0
1040
0.0
1040
297.0
1040
-4.300000000000011
1040
12.7999999999999
1040
50.0
1040
0.0
1040
0.0
1070
    16
1070
   100
1070
     0
1070
     3
1070
     0
1070
     0
1070
     0
1070
     0
1040
0.0
1040
0.0
1040
0.0
1040
10.0
1040
10.0
1040
10.0
1040
10.0
1070
     0
1002
{
1002
}
1002
}
  0
ENDSEC
  0
SECTION
  2
OBJECTS
  0
DICTIONARY
  5
C
330
0
100
AcDbDictionary
  3
ACAD_BACKGROUND
350
3EB8B
  3
ACAD_CIP_PREVIOUS_PRODUCT_INFO
350
62CC3
  3
ACAD_COLOR
350
1418C
  3
ACAD_FIELDLIST
350
6F2BA
  3
ACAD_GROUP
350
D
  3
ACAD_IMAGE_DICT
350
47736
  3
ACAD_IMAGE_VARS
350
47739
  3
ACAD_LAYOUT
350
1418F
  3
ACAD_MATERIAL
350
1418B
  3
ACAD_MLEADERSTYLE
350
16FA3
  3
ACAD_MLINESTYLE
350
1B
  3
ACAD_PLOTSETTINGS
350
14190
  3
ACAD_RENDER_ACTIVE_SETTINGS
350
87F41
  3
ACAD_RENDER_SETTINGS
350
6EA4E
  3
ACAD_SCALELIST
350
16F81
  3
ACAD_VISUALSTYLE
350
16F70
  3
ACDBHEADERROUNDTRIPXREC
350
A457D
  3
ACDBVARIABLEDICTIONARY
350
6ED
  3
AEC_PROPERTY_SET_DEFS
350
26DAC
  3
CONTENTDICTIONARY
350
60
  3
DRAWINGVARIABLESDICT
350
5F9
  3
DWGPROPS
350
A4580
1001
ACAD
1000
TREAT_AS_HARD
1070
     0
  0
DICTIONARY
  5
14879
330
2
100
AcDbDictionary
  3
ACAD_LAYERSTATES
360
1487A
1001
ACAD
1000
TREAT_AS_HARD
1070
     1
  0
DICTIONARY
  5
16FBC
330
E
100
AcDbDictionary
  3
ADSK_XREC_LAYER_RECONCILED
360
16FBD
1001
ACAD
1000
TREAT_AS_HARD
1070
     1
  0
DICTIONARY
  5
143BD
330
18
100
AcDbDictionary
  3
ACAD_SORTENTS
360
6A56E
1001
ACAD
1000
TREAT_AS_HARD
1070
     1
  0
DICTIONARY
  5
A337D
330
7DA16
100
AcDbDictionary
  3
ACAD_SORTENTS
360
A337E
1001
ACAD
1000
TREAT_AS_HARD
1070
     1
  0
DICTIONARY
  5
3EB8B
102
{ACAD_REACTORS
330
C
102
}
330
C
100
AcDbDictionary
1001
ACAD
1000
TREAT_AS_HARD
1070
     0
  0
XRECORD
  5
62CC3
102
{ACAD_REACTORS
330
C
102
}
330
C
100
AcDbXrecord
300
ACDLT
300
2012
300
ACDLT_F_S
  0
DICTIONARY
  5
1418C
102
{ACAD_REACTORS
330
C
102
}
330
C
100
AcDbDictionary
1001
ACAD
1000
TREAT_AS_HARD
1070
     0
  0
ACAD_PROXY_OBJECT
  5
6F2BA
102
{ACAD_REACTORS
330
C
102
}
330
C
100
AcDbZombieObject
 90
      499
 91
      534
 93
        3
310
80
  0
DICTIONARY
  5
D
102
{ACAD_REACTORS
330
C
102
}
330
C
100
AcDbDictionary
1001
ACAD
1000
TREAT_AS_HARD
1070
     0
  0
DICTIONARY
  5
47736
102
{ACAD_REACTORS
330
C
102
}
330
C
100
AcDbDictionary
1001
ACAD
1000
TREAT_AS_HARD
1070
     0
  0
RASTERVARIABLES
  5
47739
102
{ACAD_REACTORS
330
C
102
}
330
C
100
AcDbRasterVariables
 90
        0
 70
     1
 71
     1
 72
     0
  0
DICTIONARY
  5
1418F
102
{ACAD_REACTORS
330
C
102
}
330
C
100
AcDbDictionary
1001
ACAD
1000
TREAT_AS_HARD
1070
     0
  0
DICTIONARY
  5
1418B
102
{ACAD_REACTORS
330
C
102
}
330
C
100
AcDbDictionary
  3
BYBLOCK
350
16F60
  3
BYLAYER
350
16F58
  3
GLOBAL
350
16F68
1001
ACAD
1000
TREAT_AS_HARD
1070
     0
  0
DICTIONARY
  5
16FA3
102
{ACAD_REACTORS
330
C
102
}
330
C
100
AcDbDictionary
  3
STANDARD
350
16FA4
1001
ACAD
1000
TREAT_AS_HARD
1070
     0
  0
DICTIONARY
  5
1B
102
{ACAD_REACTORS
330
C
102
}
330
C
100
AcDbDictionary
  3
STANDARD
350
1C
1001
ACAD
1000
TREAT_AS_HARD
1070
     0
  0
DICTIONARY
  5
14190
102
{ACAD_REACTORS
330
C
102
}
330
C
100
AcDbDictionary
1001
ACAD
1000
TREAT_AS_HARD
1070
     0
  0
ACAD_PROXY_OBJECT
  5
87F41
102
{ACAD_REACTORS
330
C
102
}
330
C
100
AcDbZombieObject
 90
      499
 91
      540
 93
      924
310
409064D656469756DFA40D02901408000000000000084000000000000002100000000A09999A93F0000002826666A4FC000000A09999A93F0000002826666A4FE505415051E802000041027000041505414E4026A6666666666E4FD00000000001C25D0280000000000002440A4C040C02000010
  0
DICTIONARY
  5
6EA4E
102
{ACAD_REACTORS
330
C
102
}
330
C
100
AcDbDictionary
1001
ACAD
1000
TREAT_AS_HARD
1070
     0
  0
DICTIONARY
  5
16F81
102
{ACAD_REACTORS
330
C
102
}
330
C
100
AcDbDictionary
  3
*A1
350
6F27C
  3
*A10
350
6F285
  3
*A11
350
6F286
  3
*A12
350
6F287
  3
*A13
350
6F288
  3
*A14
350
6F289
  3
*A15
350
6F28A
  3
*A16
350
6F28B
  3
*A17
350
6F27D
  3
*A2
350
6F27E
  3
*A3
350
6F27F
  3
*A4
350
6F280
  3
*A5
350
6F281
  3
*A6
350
6F282
  3
*A7
350
6F283
  3
*A8
350
6F284
  3
*A9
350
7F62D
  3
A0
350
16F82
  3
A1
350
16F83
  3
A2
350
16F84
  3
A3
350
16F85
  3
A4
350
16F86
  3
A5
350
16F87
  3
A6
350
16F88
  3
A7
350
16F89
  3
A8
350
16F8A
  3
A9
350
16F8B
  3
B0
350
16F8C
  3
B1
350
16F8D
  3
B2
350
16F8E
  3
B3
350
16F8F
  3
B4
350
16F90
  3
B5
350
16F91
  3
B6
350
16F92
  3
B7
350
16F93
  3
B8
350
16F94
  3
B9
350
16F95
  3
C0
350
16F96
  3
C1
350
16F97
  3
C2
350
16F98
  3
C3
350
16F99
  3
C4
350
16F9A
  3
C5
350
16F9B
  3
C6
350
16F9C
  3
C7
350
16F9D
  3
C8
350
16F9E
  3
C9
350
16F9F
  3
D0
350
16FA0
  3
D1
350
16FA1
  3
D2
350
16FA2
1001
ACAD
1000
TREAT_AS_HARD
1070
     0
  0
DICTIONARY
  5
16F70
102
{ACAD_REACTORS
330
C
102
}
330
C
100
AcDbDictionary
  3
2DWIREFRAME
350
16F76
  3
3D_HIDDEN
350
16F78
  3
3DWIREFRAME
350
16F77
  3
BASIC
350
16F75
  3
BRIGHTEN
350
16F7C
  3
COLORCHANGE
350
16F80
  3
CONCEPTUAL
350
16F79
  3
DIM
350
16F7B
  3
EDGECOLOROFF
350
62CA3
  3
FACEPATTERN
350
16F7F
  3
FLAT
350
16F71
  3
FLATWITHEDGES
350
16F72
  3
GOURAUD
350
16F73
  3
GOURAUDWITHEDGES
350
16F74
  3
HIDDEN
350
62C9B
  3
JITTEROFF
350
62CA1
  3
LINEPATTERN
350
16F7E
  3
MODELING
350
A43CA
  3
OVERHANGOFF
350
62CA2
  3
REALISTIC
350
16F7A
  3
SHADED
350
62CA0
  3
SHADED_WITH_EDGES
350
62C9F
  3
SHADES_OF_GRAY
350
62C9C
  3
SKETCHY
350
62C9D
  3
THICKEN
350
16F7D
  3
WIREFRAME
350
62C9A
  3
X-RAY
350
62C9E
1001
ACAD
1000
TREAT_AS_HARD
1070
     0
  0
DICTIONARY
  5
A457D
102
{ACAD_REACTORS
330
C
102
}
330
C
100
AcDbDictionary
  3
COLORDICT
350
A457E
  3
MATERIALDICT
350
A457F
1001
ACAD
1000
TREAT_AS_HARD
1070
     0
  0
DICTIONARY
  5
6ED
102
{ACAD_REACTORS
330
C
102
}
330
C
100
AcDbDictionary
  3
CANNOSCALE
350
A471B
  3
CMLEADERSTYLE
350
1710A
  3
CTABLESTYLE
350
141AE
  3
DIMADEC
350
6EE
  3
DIMASSOC
350
141AF
  3
FIELDEVAL
350
7CF14
  3
HIDETEXT
350
1485B
  3
INDEXCTL
350
1710C
  3
INTERSECTIONCOLOR
350
1485F
  3
INTERSECTIONDISPLAY
350
1485E
  3
LAYEREVAL
350
A348C
  3
LAYERNOTIFY
350
A348D
  3
MLEADERSCALE
350
7E56E
  3
MSLTSCALE
350
6D821
  3
OBSCOLOR
350
1485C
  3
OBSLTYPE
350
1485D
  3
PROJECTNAME
350
141B0
  3
SORTENTS
350
E97
  3
UPDATETHUMBNAIL
350
41A53
  3
XCLIPFRAME
350
A43C9
1001
ACAD
1000
TREAT_AS_HARD
1070
     0
  0
DICTIONARY
  5
26DAC
102
{ACAD_REACTORS
330
C
102
}
330
C
100
AcDbDictionary
1001
ACAD
1000
TREAT_AS_HARD
1070
     0
  0
DICTIONARY
  5
60
102
{ACAD_REACTORS
330
C
102
}
330
C
100
AcDbDictionary
1001
CONTENTTABDATA
1070
     3
1000
CHILDREN.dwg
1000
D:\ACLT\家田Tab\CHILDREN.dwg
1070
     0
1070
     0
1070
     1
1000
REGION.dwg
1000
D:\ACLT\家田Tab\REGION.dwg
1070
     0
1070
     0
1070
     1
1000
std_sym_all.dwg
1000
D:\ACLT\家田Tab\std_sym_all.dwg
1070
     0
1070
     0
1070
     1
1001
CONTENTCURRENTTAB
1070
     0
1001
ACAD
1000
TREAT_AS_HARD
1070
     0
  0
DICTIONARY
  5
5F9
102
{ACAD_REACTORS
330
C
102
}
330
C
100
AcDbDictionary
1001
DRAWINGVARIABLESXDATA
1000
POLARMODE
1000
1
1000
POLARANG
1000
0.261799387799149410000000
1000
POLARSTYLE
1000
1
1001
ACAD
1000
TREAT_AS_HARD
1070
     0
  0
XRECORD
  5
A4580
102
{ACAD_REACTORS
330
C
102
}
330
C
100
AcDbXrecord
  1
DWGPROPS COOKIE
  2

  3

  4

  6

  7

  8
624
  9

300
=
301
=
302
=
303
=
304
=
305
=
306
=
307
=
308
=
309
=
 40
0.0
 41
2451027.252421285
 42
2458080.399253461
  1

 90
        0
  0
DICTIONARY
  5
1487A
102
{ACAD_REACTORS
330
14879
102
}
330
14879
100
AcDbDictionary
  3
_LAYISO_STATE
350
7A5FB
1001
ACLAYERTOOLS
1000
14191
1000
0
1001
ACAD
1000
TREAT_AS_HARD
1070
     0
  0
ACAD_PROXY_OBJECT
  5
16FBD
102
{ACAD_REACTORS
330
16FBC
102
}
330
16FBC
100
AcDbZombieObject
 90
      499
 91
      543
 93
       34
310
40C8804040
  0
SORTENTSTABLE
  5
6A56E
102
{ACAD_REACTORS
330
143BD
102
}
330
143BD
100
AcDbSortentsTable
330
18
331
A412C
  5
A4161
331
A412D
  5
A4162
331
A412E
  5
A4163
331
A412F
  5
A4164
331
A4130
  5
A4165
331
A4131
  5
A4166
331
A4132
  5
A4167
331
A4133
  5
A4168
331
A4134
  5
A4169
331
A4135
  5
A416A
331
A4136
  5
A416B
331
A4137
  5
A416C
331
A4138
  5
A416D
331
A4139
  5
A416E
331
A413A
  5
A416F
331
A413B
  5
A4170
331
A413C
  5
A4171
331
A413D
  5
A4172
331
A413E
  5
A4173
331
A413F
  5
A4174
331
A4140
  5
A4175
331
A4141
  5
A4176
331
A4142
  5
A4177
331
A4143
  5
A4178
331
A4144
  5
A4179
331
A4145
  5
A417A
331
A4146
  5
A417B
331
A4147
  5
A417C
331
A4148
  5
A417D
331
A4149
  5
A417E
331
A414A
  5
A417F
331
A414B
  5
A4180
331
A414C
  5
A4181
331
A414D
  5
A4182
331
A414E
  5
A4183
331
A414F
  5
A4184
331
A4150
  5
A4185
331
A4151
  5
A4186
331
A4152
  5
A4187
331
A4153
  5
A4188
331
A4154
  5
A4189
331
A4155
  5
A418A
331
A4156
  5
A418B
331
A4157
  5
A418C
331
A4158
  5
A418D
331
A4159
  5
A418E
331
A415A
  5
A418F
331
A415B
  5
A4190
331
A415C
  5
A4191
331
A415D
  5
A4192
331
A415E
  5
A4193
331
A415F
  5
A4194
331
A4160
  5
A4195
331
A4161
  5
A4196
331
A4162
  5
A4197
331
A4163
  5
A4198
331
A4164
  5
A4199
331
A4165
  5
A419A
331
A4166
  5
A419B
331
A4167
  5
A419C
331
A4168
  5
A419D
331
A4169
  5
A419E
331
A416A
  5
A419F
331
A416B
  5
A41A0
331
A416C
  5
A41A1
331
A416D
  5
A41A2
331
A416E
  5
A41A5
331
A416F
  5
A41A6
331
A4170
  5
A41A7
331
A4171
  5
A4250
331
A4172
  5
A4252
331
A4173
  5
A43E6
331
A4174
  5
A43E7
331
A4175
  5
A43E8
331
A4176
  5
A43E9
331
A4177
  5
A43EA
331
A4178
  5
A43EB
331
A4179
  5
A43EC
331
A417A
  5
A43ED
331
A417B
  5
A43EE
331
A417C
  5
A43EF
331
A417D
  5
A43F0
331
A417E
  5
A43F1
331
A417F
  5
A43F2
331
A4180
  5
A43F3
331
A4181
  5
A43F4
331
A4182
  5
A43F5
331
A4183
  5
A43F6
331
A4184
  5
A43F7
331
A4185
  5
A43F8
331
A4186
  5
A43F9
331
A4187
  5
A43FA
331
A4188
  5
A43FB
331
A4189
  5
A43FC
331
A418A
  5
A43FD
331
A418B
  5
A43FE
331
A418C
  5
A43FF
331
A418D
  5
A4400
331
A418E
  5
A4401
331
0
  5
A4402
331
0
  5
A4403
331
0
  5
A4404
331
A4192
  5
A443B
331
0
  5
A4406
331
A4194
  5
A4486
331
0
  5
A4408
331
0
  5
A4409
331
0
  5
A440A
331
A4198
  5
A4537
331
A4199
  5
A4538
331
A419A
  5
A4539
331
0
  5
A440E
331
0
  5
A440F
331
0
  5
A4410
331
0
  5
A4411
331
0
  5
A4412
331
0
  5
A4413
331
0
  5
A4414
331
0
  5
A4415
331
A41A5
  5
A456E
331
A41A6
  5
A456F
331
A41A7
  5
A4570
331
0
  5
A4419
331
0
  5
A441C
331
A43E6
  5
A412C
331
0
  5
A412D
331
A43E8
  5
A4137
331
A43E9
  5
A4138
331
A43EA
  5
A4139
331
A43EB
  5
A413A
331
A43EC
  5
A413B
331
A43ED
  5
A413C
331
A43EE
  5
A413D
331
A43EF
  5
A413E
331
A43F0
  5
A413F
331
A43F1
  5
A4140
331
A43F2
  5
A4141
331
A43F3
  5
A4142
331
A43F4
  5
A4143
331
A43F5
  5
A4144
331
A43F6
  5
A4145
331
A43F7
  5
A4146
331
A43F8
  5
A4147
331
A43F9
  5
A4148
331
A43FA
  5
A4149
331
A43FB
  5
A414A
331
A43FC
  5
A414B
331
A43FD
  5
A414C
331
A43FE
  5
A414D
331
A43FF
  5
A414E
331
A4400
  5
A414F
331
A4401
  5
A4150
331
A4402
  5
A4151
331
A4403
  5
A4152
331
A4404
  5
A4153
331
A4405
  5
A4154
331
A4406
  5
A4155
331
A4407
  5
A4156
331
A4408
  5
A4157
331
A4409
  5
A4158
331
A440A
  5
A4159
331
A440B
  5
A415A
331
A440C
  5
A415B
331
A440D
  5
A415C
331
A440E
  5
A415D
331
A440F
  5
A415E
331
A4410
  5
A415F
331
A4411
  5
A4160
331
A4412
  5
A4575
331
A4413
  5
A4576
331
A4414
  5
A457B
331
A4415
  5
A457C
331
A4416
  5
A412E
331
A4417
  5
A412F
331
A4418
  5
A4130
331
A4419
  5
A4131
331
A441A
  5
A4132
331
A441B
  5
A4133
331
A441C
  5
A4134
331
A441D
  5
A4135
331
A441E
  5
A4136
331
A441F
  5
A4405
331
A4420
  5
A4407
331
A4421
  5
A440B
331
0
  5
A440C
331
0
  5
A440D
331
0
  5
A4416
331
A4425
  5
A4426
331
A4426
  5
A4427
331
A4427
  5
A4429
331
0
  5
A441B
331
0
  5
A441D
331
0
  5
A441E
331
A442B
  5
A4431
331
A442C
  5
A4432
331
A442D
  5
A4433
331
0
  5
A4422
331
0
  5
A4423
331
0
  5
A4424
331
A4431
  5
A443C
331
A4432
  5
A443D
331
0
  5
A4428
331
A4434
  5
A4449
331
A4435
  5
A444A
331
A4436
  5
A444B
331
A4437
  5
A444C
331
A4438
  5
A444D
331
A4439
  5
A444E
331
A443A
  5
A444F
331
A443B
  5
A4450
331
A443C
  5
A4451
331
A443D
  5
A4452
331
A443E
  5
A4453
331
A443F
  5
A4454
331
A4440
  5
A4455
331
A4441
  5
A4456
331
A4442
  5
A4457
331
A4443
  5
A4458
331
A4444
  5
A4459
331
A4445
  5
A445A
331
A4446
  5
A445B
331
A4447
  5
A445C
331
A4448
  5
A445D
331
A4449
  5
A445E
331
A444A
  5
A445F
331
A444B
  5
A4460
331
A444C
  5
A4461
331
A444D
  5
A4462
331
A444E
  5
A4463
331
A444F
  5
A4464
331
A4450
  5
A4465
331
A4451
  5
A4466
331
A4452
  5
A4467
331
A4453
  5
A4469
331
A4454
  5
A446A
331
A4455
  5
A446B
331
A4456
  5
A446C
331
A4457
  5
A446D
331
A4458
  5
A446E
331
A4459
  5
A446F
331
A445A
  5
A4470
331
A445B
  5
A4471
331
A445C
  5
A4472
331
A445D
  5
A4473
331
A445E
  5
A4474
331
A445F
  5
A4475
331
A4460
  5
A4476
331
A4461
  5
A4477
331
A4462
  5
A4478
331
A4463
  5
A4479
331
A4464
  5
A447A
331
A4465
  5
A447B
331
A4466
  5
A447C
331
A4467
  5
A447D
331
A4468
  5
A447E
331
A4469
  5
A447F
331
A446A
  5
A4480
331
A446B
  5
A4481
331
A446C
  5
A4482
331
A446D
  5
A4483
331
A446E
  5
A4484
331
A446F
  5
A4485
331
A4470
  5
A4487
331
A4471
  5
A4488
331
0
  5
A4468
331
A4473
  5
A4494
331
A4474
  5
A4495
331
A4475
  5
A4496
331
A4476
  5
A4497
331
A4477
  5
A4498
331
A4478
  5
A4499
331
A4479
  5
A449A
331
A447A
  5
A449B
331
A447B
  5
A449C
331
A447C
  5
A449D
331
A447D
  5
A449E
331
A447E
  5
A449F
331
A447F
  5
A44A0
331
A4480
  5
A44A1
331
A4481
  5
A44A2
331
A4482
  5
A44A3
331
A4483
  5
A44A4
331
A4484
  5
A44A5
331
A4485
  5
A44A6
331
A4486
  5
A44A8
331
A4487
  5
A44A9
331
A4488
  5
A44AA
331
A4489
  5
A44AB
331
A448A
  5
A44AC
331
A448B
  5
A44AD
331
A448C
  5
A44AE
331
A448D
  5
A44AF
331
A448E
  5
A44B0
331
A448F
  5
A44B1
331
A4490
  5
A44B2
331
A4491
  5
A44B3
331
A4492
  5
A44B4
331
A4493
  5
A44B5
331
A4494
  5
A44B6
331
A4495
  5
A44B7
331
A4496
  5
A44B8
331
A4497
  5
A44B9
331
A4498
  5
A44BA
331
A4499
  5
A44BB
331
A449A
  5
A44BC
331
A449B
  5
A44BD
331
A449C
  5
A44BE
331
A449D
  5
A44BF
331
A449E
  5
A44C0
331
A449F
  5
A44C1
331
A44A0
  5
A44C2
331
A44A1
  5
A44C3
331
A44A2
  5
A44C4
331
A44A3
  5
A44C5
331
A44A4
  5
A44C6
331
A44A5
  5
A44C7
331
A44A6
  5
A44C8
331
A44A7
  5
A44C9
331
A44A8
  5
A44CA
331
A44A9
  5
A44CB
331
A44AA
  5
A44CC
331
A44AB
  5
A44CD
331
A44AC
  5
A44CE
331
A44AD
  5
A44CF
331
A44AE
  5
A44D0
331
A44AF
  5
A44D1
331
A44B0
  5
A44D2
331
0
  5
A44A7
331
A44B2
  5
A44DE
331
A44B3
  5
A44DF
331
A44B4
  5
A44E0
331
A44B5
  5
A44E1
331
A44B6
  5
A44E2
331
A44B7
  5
A44E3
331
A44B8
  5
A44E4
331
A44B9
  5
A44E5
331
A44BA
  5
A44E6
331
A44BB
  5
A44EA
331
A44BC
  5
A44EB
331
A44BD
  5
A44EC
331
A44BE
  5
A44ED
331
A44BF
  5
A44EF
331
A44C0
  5
A44F0
331
A44C1
  5
A44F2
331
A44C2
  5
A44F3
331
A44C3
  5
A44F4
331
A44C4
  5
A44F5
331
A44C5
  5
A44F6
331
A44C6
  5
A44F7
331
A44C7
  5
A44FB
331
A44C8
  5
A44FC
331
A44C9
  5
A44FD
331
A44CA
  5
A4501
331
A44CB
  5
A4502
331
A44CC
  5
A4503
331
A44CD
  5
A4507
331
A44CE
  5
A4508
331
A44CF
  5
A4509
331
A44D0
  5
A450D
331
A44D1
  5
A450E
331
A44D2
  5
A450F
331
A44D3
  5
A4511
331
A44D4
  5
A4512
331
A44D5
  5
A4513
331
A44D6
  5
A4515
331
A44D7
  5
A4516
331
A44D8
  5
A4517
331
A44D9
  5
A4518
331
A44DA
  5
A4519
331
A44DB
  5
A451A
331
A44DC
  5
A451B
331
A44DD
  5
A451C
331
A44DE
  5
A451D
331
A44DF
  5
A451E
331
A44E0
  5
A451F
331
A44E1
  5
A4520
331
A44E2
  5
A4521
331
A44E3
  5
A4522
331
A44E4
  5
A4523
331
A44E5
  5
A4524
331
A44E6
  5
A4525
331
A44E7
  5
A4526
331
A44E8
  5
A4527
331
A44E9
  5
A4528
331
A44EA
  5
A4529
331
A44EB
  5
A452A
331
A44EC
  5
A452B
331
A44ED
  5
A452C
331
A44EE
  5
A452D
331
A44EF
  5
A452E
331
A44F0
  5
A452F
331
0
  5
A44E7
331
0
  5
A44E8
331
0
  5
A44E9
331
A44F4
  5
A453A
331
0
  5
A44EE
331
A44F6
  5
A453E
331
A44F7
  5
A453F
331
0
  5
A44F1
331
A44F9
  5
A4543
331
A44FA
  5
A4544
331
A44FB
  5
A4545
331
A44FC
  5
A4546
331
A44FD
  5
A4547
331
A44FE
  5
A4548
331
0
  5
A44F8
331
0
  5
A44F9
331
0
  5
A44FA
331
A4502
  5
A4550
331
A4503
  5
A4551
331
A4504
  5
A4552
331
0
  5
A44FE
331
0
  5
A44FF
331
0
  5
A4500
331
A4508
  5
A455A
331
A4509
  5
A455B
331
A450A
  5
A455C
331
0
  5
A4504
331
0
  5
A4505
331
0
  5
A4506
331
A450E
  5
A4564
331
A450F
  5
A4565
331
A4510
  5
A4566
331
0
  5
A450A
331
0
  5
A450B
331
0
  5
A450C
331
0
  5
A4510
331
A4515
  5
A4574
331
0
  5
A4514
331
A4517
  5
A457A
331
A4518
  5
A4417
331
A4519
  5
A4418
331
A451A
  5
A441A
331
A451B
  5
A441F
331
A451C
  5
A4420
331
A451D
  5
A4421
331
A451E
  5
A4425
331
A451F
  5
A442A
331
A4520
  5
A442B
331
A4521
  5
A442C
331
A4522
  5
A442D
331
A4523
  5
A442E
331
A4524
  5
A442F
331
A4525
  5
A4430
331
A4526
  5
A4434
331
A4527
  5
A4435
331
A4528
  5
A4436
331
A4529
  5
A4437
331
A452A
  5
A4438
331
A452B
  5
A4439
331
A452C
  5
A443A
331
A452D
  5
A443E
331
A452E
  5
A443F
331
A452F
  5
A4440
331
A4530
  5
A4441
331
A4531
  5
A4442
331
A4532
  5
A4443
331
A4533
  5
A4444
331
A4534
  5
A4445
331
A4535
  5
A4446
331
A4536
  5
A4447
331
A4537
  5
A4448
331
A4538
  5
A4489
331
A4539
  5
A448A
331
A453A
  5
A448B
331
A453B
  5
A448C
331
A453C
  5
A448D
331
A453D
  5
A448E
331
A453E
  5
A448F
331
A453F
  5
A4490
331
A4540
  5
A4491
331
A4541
  5
A4492
331
A4542
  5
A4493
331
A4543
  5
A44D3
331
A4544
  5
A44D4
331
A4545
  5
A44D5
331
A4546
  5
A44D6
331
A4547
  5
A44D7
331
A4548
  5
A44D8
331
A4549
  5
A44D9
331
A454A
  5
A44DA
331
A454B
  5
A44DB
331
A454C
  5
A44DC
331
A454D
  5
A44DD
331
A454E
  5
A4530
331
A454F
  5
A4531
331
A4550
  5
A4532
331
A4551
  5
A4533
331
A4552
  5
A4534
331
A4553
  5
A4535
331
A4554
  5
A4536
331
A4555
  5
A453B
331
A4556
  5
A453C
331
A4557
  5
A453D
331
A4558
  5
A4540
331
A4559
  5
A4541
331
A455A
  5
A4542
331
A455B
  5
A4549
331
A455C
  5
A454A
331
A455D
  5
A454B
331
A455E
  5
A454C
331
A455F
  5
A454D
331
A4560
  5
A454E
331
A4561
  5
A454F
331
A4562
  5
A4553
331
A4563
  5
A4554
331
A4564
  5
A4555
331
A4565
  5
A4556
331
A4566
  5
A4557
331
A4567
  5
A4558
331
A4568
  5
A4559
331
A4569
  5
A455D
331
A456A
  5
A455E
331
A456B
  5
A455F
331
A456C
  5
A4560
331
A456D
  5
A4561
331
A456E
  5
A4562
331
A456F
  5
A4563
331
A4570
  5
A4567
331
A4571
  5
A4568
331
A4572
  5
A4569
331
A4573
  5
A456A
331
A4574
  5
A456B
331
A4575
  5
A456C
331
A4576
  5
A456D
331
A4577
  5
A4571
331
A4578
  5
A4572
331
A4579
  5
A4573
331
A457A
  5
A4577
331
A457B
  5
A4578
331
A457C
  5
A4579
  0
SORTENTSTABLE
  5
A337E
102
{ACAD_REACTORS
330
A337D
102
}
330
A337D
100
AcDbSortentsTable
330
7DA16
331
7DA1A
  5
7DA1A
331
0
  5
7E25F
331
0
  5
7E260
331
0
  5
7E261
331
0
  5
7E262
331
0
  5
7E263
331
0
  5
7E264
331
0
  5
7E265
331
0
  5
7E266
331
0
  5
7E267
331
0
  5
7E268
331
0
  5
7E26B
331
0
  5
7E6D4
  0
MATERIAL
  5
16F60
102
{ACAD_REACTORS
330
1418B
102
}
102
{ACAD_XDICTIONARY
360
A471C
102
}
330
1418B
100
AcDbMaterial
  1
BYBLOCK
 72
     0
 73
     2
 43
0.020833
 43
0.0
 43
0.0
 43
0.0
 43
0.0
 43
0.020833
 43
0.0
 43
0.0
 43
0.0
 43
0.0
 43
1.0
 43
0.0
 43
0.0
 43
0.0
 43
0.0
 43
1.0
 77
     0
 78
     2
 47
0.020833
 47
0.0
 47
0.0
 47
0.0
 47
0.0
 47
0.020833
 47
0.0
 47
0.0
 47
0.0
 47
0.0
 47
1.0
 47
0.0
 47
0.0
 47
0.0
 47
0.0
 47
1.0
171
     0
172
     2
 49
0.020833
 49
0.0
 49
0.0
 49
0.0
 49
0.0
 49
0.020833
 49
0.0
 49
0.0
 49
0.0
 49
0.0
 49
1.0
 49
0.0
 49
0.0
 49
0.0
 49
0.0
 49
1.0
175
     0
176
     2
142
0.020833
142
0.0
142
0.0
142
0.0
142
0.0
142
0.020833
142
0.0
142
0.0
142
0.0
142
0.0
142
1.0
142
0.0
142
0.0
142
0.0
142
0.0
142
1.0
179
     0
270
     2
144
0.020833
144
0.0
144
0.0
144
0.0
144
0.0
144
0.020833
144
0.0
144
0.0
144
0.0
144
0.0
144
1.0
144
0.0
144
0.0
144
0.0
144
0.0
144
1.0
274
     2
147
0.020833
147
0.0
147
0.0
147
0.0
147
0.0
147
0.020833
147
0.0
147
0.0
147
0.0
147
0.0
147
1.0
147
0.0
147
0.0
147
0.0
147
0.0
147
1.0
  0
MATERIAL
  5
16F58
102
{ACAD_REACTORS
330
1418B
102
}
102
{ACAD_XDICTIONARY
360
A471E
102
}
330
1418B
100
AcDbMaterial
  1
BYLAYER
 72
     0
 73
     2
 43
0.020833
 43
0.0
 43
0.0
 43
0.0
 43
0.0
 43
0.020833
 43
0.0
 43
0.0
 43
0.0
 43
0.0
 43
1.0
 43
0.0
 43
0.0
 43
0.0
 43
0.0
 43
1.0
 77
     0
 78
     2
 47
0.020833
 47
0.0
 47
0.0
 47
0.0
 47
0.0
 47
0.020833
 47
0.0
 47
0.0
 47
0.0
 47
0.0
 47
1.0
 47
0.0
 47
0.0
 47
0.0
 47
0.0
 47
1.0
171
     0
172
     2
 49
0.020833
 49
0.0
 49
0.0
 49
0.0
 49
0.0
 49
0.020833
 49
0.0
 49
0.0
 49
0.0
 49
0.0
 49
1.0
 49
0.0
 49
0.0
 49
0.0
 49
0.0
 49
1.0
175
     0
176
     2
142
0.020833
142
0.0
142
0.0
142
0.0
142
0.0
142
0.020833
142
0.0
142
0.0
142
0.0
142
0.0
142
1.0
142
0.0
142
0.0
142
0.0
142
0.0
142
1.0
179
     0
270
     2
144
0.020833
144
0.0
144
0.0
144
0.0
144
0.0
144
0.020833
144
0.0
144
0.0
144
0.0
144
0.0
144
1.0
144
0.0
144
0.0
144
0.0
144
0.0
144
1.0
274
     2
147
0.020833
147
0.0
147
0.0
147
0.0
147
0.0
147
0.020833
147
0.0
147
0.0
147
0.0
147
0.0
147
1.0
147
0.0
147
0.0
147
0.0
147
0.0
147
1.0
  0
MATERIAL
  5
16F68
102
{ACAD_REACTORS
330
1418B
102
}
102
{ACAD_XDICTIONARY
360
A4720
102
}
330
1418B
100
AcDbMaterial
  1
GLOBAL
 72
     0
 73
     2
 43
0.020833
 43
0.0
 43
0.0
 43
0.0
 43
0.0
 43
0.020833
 43
0.0
 43
0.0
 43
0.0
 43
0.0
 43
1.0
 43
0.0
 43
0.0
 43
0.0
 43
0.0
 43
1.0
 77
     0
 78
     2
 47
0.020833
 47
0.0
 47
0.0
 47
0.0
 47
0.0
 47
0.020833
 47
0.0
 47
0.0
 47
0.0
 47
0.0
 47
1.0
 47
0.0
 47
0.0
 47
0.0
 47
0.0
 47
1.0
171
     0
172
     2
 49
0.020833
 49
0.0
 49
0.0
 49
0.0
 49
0.0
 49
0.020833
 49
0.0
 49
0.0
 49
0.0
 49
0.0
 49
1.0
 49
0.0
 49
0.0
 49
0.0
 49
0.0
 49
1.0
175
     0
176
     2
142
0.020833
142
0.0
142
0.0
142
0.0
142
0.0
142
0.020833
142
0.0
142
0.0
142
0.0
142
0.0
142
1.0
142
0.0
142
0.0
142
0.0
142
0.0
142
1.0
179
     0
270
     2
144
0.020833
144
0.0
144
0.0
144
0.0
144
0.0
144
0.020833
144
0.0
144
0.0
144
0.0
144
0.0
144
1.0
144
0.0
144
0.0
144
0.0
144
0.0
144
1.0
274
     2
147
0.020833
147
0.0
147
0.0
147
0.0
147
0.0
147
0.020833
147
0.0
147
0.0
147
0.0
147
0.0
147
1.0
147
0.0
147
0.0
147
0.0
147
0.0
147
1.0
  0
ACAD_PROXY_OBJECT
  5
16FA4
102
{ACAD_REACTORS
330
16FA3
102
}
330
16FA3
100
AcDbZombieObject
 90
      499
 91
      511
 93
      618
310
40901902A4073FBFFFFFE000000000000002040AD7A3703D0AD73F4214DD185B99185C9900000000000001040905415019C900000000000003100000000000000041025766000000000000300FC0
340
12
340
0
340
F
340
0
 94
        0
1001
ACAD
1000
AcRTDxfName
1000
MLEADERSTYLE
1000
AcRTDxfName
1000
MLEADERSTYLE
1000
AcRTDxfName
1000
MLEADERSTYLE
1000
AcRTDxfName
1000
MLEADERSTYLE
1000
AcRTDxfName
1000
MLEADERSTYLE
1000
AcRTDxfName
1000
MLEADERSTYLE
1001
ACAD_MLEADERVER
1070
     2
  0
MLINESTYLE
  5
1C
102
{ACAD_REACTORS
330
1B
102
}
330
1B
100
AcDbMlineStyle
  2
STANDARD
 70
     0
  3

 62
   256
 51
90.0
 52
90.0
 71
     2
 49
0.5
 62
   256
  6
BYLAYER
 49
-0.5
 62
   256
  6
BYLAYER
  0
ACAD_PROXY_OBJECT
  5
6F27C
102
{ACAD_REACTORS
330
16F81
102
}
330
16F81
100
AcDbZombieObject
 90
      499
 91
      510
 93
      153
310
909313A34305F585245464000000000000444000
  0
ACAD_PROXY_OBJECT
  5
6F285
102
{ACAD_REACTORS
330
16F81
102
}
330
16F81
100
AcDbZombieObject
 90
      499
 91
      510
 93
      145
310
908313A345F585245464000000000000104000
  0
ACAD_PROXY_OBJECT
  5
6F286
102
{ACAD_REACTORS
330
16F81
102
}
330
16F81
100
AcDbZombieObject
 90
      499
 91
      510
 93
      145
310
908313A355F585245464000000000000144000
  0
ACAD_PROXY_OBJECT
  5
6F287
102
{ACAD_REACTORS
330
16F81
102
}
330
16F81
100
AcDbZombieObject
 90
      499
 91
      510
 93
      145
310
908313A385F585245464000000000000204000
  0
ACAD_PROXY_OBJECT
  5
6F288
102
{ACAD_REACTORS
330
16F81
102
}
330
16F81
100
AcDbZombieObject
 90
      499
 91
      510
 93
      153
310
909313A31305F585245464000000000000244000
  0
ACAD_PROXY_OBJECT
  5
6F289
102
{ACAD_REACTORS
330
16F81
102
}
330
16F81
100
AcDbZombieObject
 90
      499
 91
      510
 93
      153
310
909313A31365F585245464000000000000304000
  0
ACAD_PROXY_OBJECT
  5
6F28A
102
{ACAD_REACTORS
330
16F81
102
}
330
16F81
100
AcDbZombieObject
 90
      499
 91
      510
 93
      153
310
909313A32305F585245464000000000000344000
  0
ACAD_PROXY_OBJECT
  5
6F28B
102
{ACAD_REACTORS
330
16F81
102
}
330
16F81
100
AcDbZombieObject
 90
      499
 91
      510
 93
      153
310
909313A33305F5852454640000000000003E4000
  0
ACAD_PROXY_OBJECT
  5
6F27D
102
{ACAD_REACTORS
330
16F81
102
}
330
16F81
100
AcDbZombieObject
 90
      499
 91
      510
 93
      153
310
909313A35305F585245464000000000000494000
  0
ACAD_PROXY_OBJECT
  5
6F27E
102
{ACAD_REACTORS
330
16F81
102
}
330
16F81
100
AcDbZombieObject
 90
      499
 91
      510
 93
      161
310
90A313A3130305F585245464000000000000594000
  0
ACAD_PROXY_OBJECT
  5
6F27F
102
{ACAD_REACTORS
330
16F81
102
}
330
16F81
100
AcDbZombieObject
 90
      499
 91
      510
 93
      145
310
908323A315F585245460000000000000010100
  0
ACAD_PROXY_OBJECT
  5
6F280
102
{ACAD_REACTORS
330
16F81
102
}
330
16F81
100
AcDbZombieObject
 90
      499
 91
      510
 93
      145
310
908343A315F585245460000000000000410100
  0
ACAD_PROXY_OBJECT
  5
6F281
102
{ACAD_REACTORS
330
16F81
102
}
330
16F81
100
AcDbZombieObject
 90
      499
 91
      510
 93
      145
310
908383A315F585245460000000000000810100
  0
ACAD_PROXY_OBJECT
  5
6F282
102
{ACAD_REACTORS
330
16F81
102
}
330
16F81
100
AcDbZombieObject
 90
      499
 91
      510
 93
      153
310
90931303A315F585245460000000000000910100
  0
ACAD_PROXY_OBJECT
  5
6F283
102
{ACAD_REACTORS
330
16F81
102
}
330
16F81
100
AcDbZombieObject
 90
      499
 91
      510
 93
      161
310
90A3130303A315F585245460000000000001650100
  0
ACAD_PROXY_OBJECT
  5
6F284
102
{ACAD_REACTORS
330
16F81
102
}
330
16F81
100
AcDbZombieObject
 90
      499
 91
      510
 93
      145
310
908313A325F585245464000000000000004000
  0
ACAD_PROXY_OBJECT
  5
7F62D
102
{ACAD_REACTORS
330
16F81
102
}
330
16F81
100
AcDbZombieObject
 90
      499
 91
      510
 93
      273
310
910312F31323822203D2031272D30225F31000000000000200FC000000000000284000
1001
ACAD
1000
AcRTDxfName
1000
SCALE
1000
AcRTDxfName
1000
SCALE
1000
AcRTDxfName
1000
SCALE
1000
AcRTDxfName
1000
SCALE
1000
AcRTDxfName
1000
SCALE
1000
AcRTDxfName
1000
SCALE
  0
ACAD_PROXY_OBJECT
  5
16F82
102
{ACAD_REACTORS
330
16F81
102
}
330
16F81
100
AcDbZombieObject
 90
      499
 91
      510
 93
       41
310
903313A31580
1001
ACAD
1000
AcRTDxfName
1000
SCALE
1000
AcRTDxfName
1000
SCALE
1000
AcRTDxfName
1000
SCALE
1000
AcRTDxfName
1000
SCALE
1000
AcRTDxfName
1000
SCALE
1000
AcRTDxfName
1000
SCALE
  0
ACAD_PROXY_OBJECT
  5
16F83
102
{ACAD_REACTORS
330
16F81
102
}
330
16F81
100
AcDbZombieObject
 90
      499
 91
      510
 93
      105
310
903313A324000000000000004000
1001
ACAD
1000
AcRTDxfName
1000
SCALE
1000
AcRTDxfName
1000
SCALE
1000
AcRTDxfName
1000
SCALE
1000
AcRTDxfName
1000
SCALE
1000
AcRTDxfName
1000
SCALE
1000
AcRTDxfName
1000
SCALE
  0
ACAD_PROXY_OBJECT
  5
16F84
102
{ACAD_REACTORS
330
16F81
102
}
330
16F81
100
AcDbZombieObject
 90
      499
 91
      510
 93
      105
310
903313A344000000000000104000
1001
ACAD
1000
AcRTDxfName
1000
SCALE
1000
AcRTDxfName
1000
SCALE
1000
AcRTDxfName
1000
SCALE
1000
AcRTDxfName
1000
SCALE
1000
AcRTDxfName
1000
SCALE
1000
AcRTDxfName
1000
SCALE
  0
ACAD_PROXY_OBJECT
  5
16F85
102
{ACAD_REACTORS
330
16F81
102
}
330
16F81
100
AcDbZombieObject
 90
      499
 91
      510
 93
      105
310
903313A354000000000000144000
1001
ACAD
1000
AcRTDxfName
1000
SCALE
1000
AcRTDxfName
1000
SCALE
1000
AcRTDxfName
1000
SCALE
1000
AcRTDxfName
1000
SCALE
1000
AcRTDxfName
1000
SCALE
1000
AcRTDxfName
1000
SCALE
  0
ACAD_PROXY_OBJECT
  5
16F86
102
{ACAD_REACTORS
330
16F81
102
}
330
16F81
100
AcDbZombieObject
 90
      499
 91
      510
 93
      105
310
903313A384000000000000204000
1001
ACAD
1000
AcRTDxfName
1000
SCALE
1000
AcRTDxfName
1000
SCALE
1000
AcRTDxfName
1000
SCALE
1000
AcRTDxfName
1000
SCALE
1000
AcRTDxfName
1000
SCALE
1000
AcRTDxfName
1000
SCALE
  0
ACAD_PROXY_OBJECT
  5
16F87
102
{ACAD_REACTORS
330
16F81
102
}
330
16F81
100
AcDbZombieObject
 90
      499
 91
      510
 93
      113
310
904313A31304000000000000244000
1001
ACAD
1000
AcRTDxfName
1000
SCALE
1000
AcRTDxfName
1000
SCALE
1000
AcRTDxfName
1000
SCALE
1000
AcRTDxfName
1000
SCALE
1000
AcRTDxfName
1000
SCALE
1000
AcRTDxfName
1000
SCALE
  0
ACAD_PROXY_OBJECT
  5
16F88
102
{ACAD_REACTORS
330
16F81
102
}
330
16F81
100
AcDbZombieObject
 90
      499
 91
      510
 93
      113
310
904313A31364000000000000304000
1001
ACAD
1000
AcRTDxfName
1000
SCALE
1000
AcRTDxfName
1000
SCALE
1000
AcRTDxfName
1000
SCALE
1000
AcRTDxfName
1000
SCALE
1000
AcRTDxfName
1000
SCALE
1000
AcRTDxfName
1000
SCALE
  0
ACAD_PROXY_OBJECT
  5
16F89
102
{ACAD_REACTORS
330
16F81
102
}
330
16F81
100
AcDbZombieObject
 90
      499
 91
      510
 93
      113
310
904313A32304000000000000344000
1001
ACAD
1000
AcRTDxfName
1000
SCALE
1000
AcRTDxfName
1000
SCALE
1000
AcRTDxfName
1000
SCALE
1000
AcRTDxfName
1000
SCALE
1000
AcRTDxfName
1000
SCALE
1000
AcRTDxfName
1000
SCALE
  0
ACAD_PROXY_OBJECT
  5
16F8A
102
{ACAD_REACTORS
330
16F81
102
}
330
16F81
100
AcDbZombieObject
 90
      499
 91
      510
 93
      113
310
904313A333040000000000003E4000
1001
ACAD
1000
AcRTDxfName
1000
SCALE
1000
AcRTDxfName
1000
SCALE
1000
AcRTDxfName
1000
SCALE
1000
AcRTDxfName
1000
SCALE
1000
AcRTDxfName
1000
SCALE
1000
AcRTDxfName
1000
SCALE
  0
ACAD_PROXY_OBJECT
  5
16F8B
102
{ACAD_REACTORS
330
16F81
102
}
330
16F81
100
AcDbZombieObject
 90
      499
 91
      510
 93
      113
310
904313A34304000000000000444000
1001
ACAD
1000
AcRTDxfName
1000
SCALE
1000
AcRTDxfName
1000
SCALE
1000
AcRTDxfName
1000
SCALE
1000
AcRTDxfName
1000
SCALE
1000
AcRTDxfName
1000
SCALE
1000
AcRTDxfName
1000
SCALE
  0
ACAD_PROXY_OBJECT
  5
16F8C
102
{ACAD_REACTORS
330
16F81
102
}
330
16F81
100
AcDbZombieObject
 90
      499
 91
      510
 93
      113
310
904313A35304000000000000494000
1001
ACAD
1000
AcRTDxfName
1000
SCALE
1000
AcRTDxfName
1000
SCALE
1000
AcRTDxfName
1000
SCALE
1000
AcRTDxfName
1000
SCALE
1000
AcRTDxfName
1000
SCALE
1000
AcRTDxfName
1000
SCALE
  0
ACAD_PROXY_OBJECT
  5
16F8D
102
{ACAD_REACTORS
330
16F81
102
}
330
16F81
100
AcDbZombieObject
 90
      499
 91
      510
 93
      121
310
905313A3130304000000000000594000
1001
ACAD
1000
AcRTDxfName
1000
SCALE
1000
AcRTDxfName
1000
SCALE
1000
AcRTDxfName
1000
SCALE
1000
AcRTDxfName
1000
SCALE
1000
AcRTDxfName
1000
SCALE
1000
AcRTDxfName
1000
SCALE
  0
ACAD_PROXY_OBJECT
  5
16F8E
102
{ACAD_REACTORS
330
16F81
102
}
330
16F81
100
AcDbZombieObject
 90
      499
 91
      510
 93
      105
310
903323A310000000000000010100
1001
ACAD
1000
AcRTDxfName
1000
SCALE
1000
AcRTDxfName
1000
SCALE
1000
AcRTDxfName
1000
SCALE
1000
AcRTDxfName
1000
SCALE
1000
AcRTDxfName
1000
SCALE
1000
AcRTDxfName
1000
SCALE
  0
ACAD_PROXY_OBJECT
  5
16F8F
102
{ACAD_REACTORS
330
16F81
102
}
330
16F81
100
AcDbZombieObject
 90
      499
 91
      510
 93
      105
310
903343A310000000000000410100
1001
ACAD
1000
AcRTDxfName
1000
SCALE
1000
AcRTDxfName
1000
SCALE
1000
AcRTDxfName
1000
SCALE
1000
AcRTDxfName
1000
SCALE
1000
AcRTDxfName
1000
SCALE
1000
AcRTDxfName
1000
SCALE
  0
ACAD_PROXY_OBJECT
  5
16F90
102
{ACAD_REACTORS
330
16F81
102
}
330
16F81
100
AcDbZombieObject
 90
      499
 91
      510
 93
      105
310
903383A310000000000000810100
1001
ACAD
1000
AcRTDxfName
1000
SCALE
1000
AcRTDxfName
1000
SCALE
1000
AcRTDxfName
1000
SCALE
1000
AcRTDxfName
1000
SCALE
1000
AcRTDxfName
1000
SCALE
1000
AcRTDxfName
1000
SCALE
  0
ACAD_PROXY_OBJECT
  5
16F91
102
{ACAD_REACTORS
330
16F81
102
}
330
16F81
100
AcDbZombieObject
 90
      499
 91
      510
 93
      113
310
90431303A310000000000000910100
1001
ACAD
1000
AcRTDxfName
1000
SCALE
1000
AcRTDxfName
1000
SCALE
1000
AcRTDxfName
1000
SCALE
1000
AcRTDxfName
1000
SCALE
1000
AcRTDxfName
1000
SCALE
1000
AcRTDxfName
1000
SCALE
  0
ACAD_PROXY_OBJECT
  5
16F92
102
{ACAD_REACTORS
330
16F81
102
}
330
16F81
100
AcDbZombieObject
 90
      499
 91
      510
 93
      121
310
9053130303A310000000000001650100
1001
ACAD
1000
AcRTDxfName
1000
SCALE
1000
AcRTDxfName
1000
SCALE
1000
AcRTDxfName
1000
SCALE
1000
AcRTDxfName
1000
SCALE
1000
AcRTDxfName
1000
SCALE
1000
AcRTDxfName
1000
SCALE
  0
ACAD_PROXY_OBJECT
  5
16F93
102
{ACAD_REACTORS
330
16F81
102
}
330
16F81
100
AcDbZombieObject
 90
      499
 91
      510
 93
      257
310
90E312F31323822203D2031272D3022147E90B21E7FDFCFC000000000000284000
1001
ACAD
1000
AcRTDxfName
1000
SCALE
1000
AcRTDxfName
1000
SCALE
1000
AcRTDxfName
1000
SCALE
1000
AcRTDxfName
1000
SCALE
1000
AcRTDxfName
1000
SCALE
1000
AcRTDxfName
1000
SCALE
  0
ACAD_PROXY_OBJECT
  5
16F94
102
{ACAD_REACTORS
330
16F81
102
}
330
16F81
100
AcDbZombieObject
 90
      499
 91
      510
 93
      249
310
90D312F363422203D2031272D3022000000000000240FC000000000000284000
1001
ACAD
1000
AcRTDxfName
1000
SCALE
1000
AcRTDxfName
1000
SCALE
1000
AcRTDxfName
1000
SCALE
1000
AcRTDxfName
1000
SCALE
1000
AcRTDxfName
1000
SCALE
1000
AcRTDxfName
1000
SCALE
  0
ACAD_PROXY_OBJECT
  5
16F95
102
{ACAD_REACTORS
330
16F81
102
}
330
16F81
100
AcDbZombieObject
 90
      499
 91
      510
 93
      249
310
90D312F333222203D2031272D3022000000000000280FC000000000000284000
1001
ACAD
1000
AcRTDxfName
1000
SCALE
1000
AcRTDxfName
1000
SCALE
1000
AcRTDxfName
1000
SCALE
1000
AcRTDxfName
1000
SCALE
1000
AcRTDxfName
1000
SCALE
1000
AcRTDxfName
1000
SCALE
  0
ACAD_PROXY_OBJECT
  5
16F96
102
{ACAD_REACTORS
330
16F81
102
}
330
16F81
100
AcDbZombieObject
 90
      499
 91
      510
 93
      249
310
90D312F313622203D2031272D30220000000000002C0FC000000000000284000
1001
ACAD
1000
AcRTDxfName
1000
SCALE
1000
AcRTDxfName
1000
SCALE
1000
AcRTDxfName
1000
SCALE
1000
AcRTDxfName
1000
SCALE
1000
AcRTDxfName
1000
SCALE
1000
AcRTDxfName
1000
SCALE
  0
ACAD_PROXY_OBJECT
  5
16F97
102
{ACAD_REACTORS
330
16F81
102
}
330
16F81
100
AcDbZombieObject
 90
      499
 91
      510
 93
      249
310
90D332F333222203D2031272D30220000000000002E0FC000000000000284000
1001
ACAD
1000
AcRTDxfName
1000
SCALE
1000
AcRTDxfName
1000
SCALE
1000
AcRTDxfName
1000
SCALE
1000
AcRTDxfName
1000
SCALE
1000
AcRTDxfName
1000
SCALE
1000
AcRTDxfName
1000
SCALE
  0
ACAD_PROXY_OBJECT
  5
16F98
102
{ACAD_REACTORS
330
16F81
102
}
330
16F81
100
AcDbZombieObject
 90
      499
 91
      510
 93
      241
310
90C312F3822203D2031272D3022000000000000300FC000000000000284000
1001
ACAD
1000
AcRTDxfName
1000
SCALE
1000
AcRTDxfName
1000
SCALE
1000
AcRTDxfName
1000
SCALE
1000
AcRTDxfName
1000
SCALE
1000
AcRTDxfName
1000
SCALE
1000
AcRTDxfName
1000
SCALE
  0
ACAD_PROXY_OBJECT
  5
16F99
102
{ACAD_REACTORS
330
16F81
102
}
330
16F81
100
AcDbZombieObject
 90
      499
 91
      510
 93
      249
310
90D332F313622203D2031272D3022000000000000320FC000000000000284000
1001
ACAD
1000
AcRTDxfName
1000
SCALE
1000
AcRTDxfName
1000
SCALE
1000
AcRTDxfName
1000
SCALE
1000
AcRTDxfName
1000
SCALE
1000
AcRTDxfName
1000
SCALE
1000
AcRTDxfName
1000
SCALE
  0
ACAD_PROXY_OBJECT
  5
16F9A
102
{ACAD_REACTORS
330
16F81
102
}
330
16F81
100
AcDbZombieObject
 90
      499
 91
      510
 93
      241
310
90C312F3422203D2031272D3022000000000000340FC000000000000284000
1001
ACAD
1000
AcRTDxfName
1000
SCALE
1000
AcRTDxfName
1000
SCALE
1000
AcRTDxfName
1000
SCALE
1000
AcRTDxfName
1000
SCALE
1000
AcRTDxfName
1000
SCALE
1000
AcRTDxfName
1000
SCALE
  0
ACAD_PROXY_OBJECT
  5
16F9B
102
{ACAD_REACTORS
330
16F81
102
}
330
16F81
100
AcDbZombieObject
 90
      499
 91
      510
 93
      241
310
90C332F3822203D2031272D3022000000000000360FC000000000000284000
1001
ACAD
1000
AcRTDxfName
1000
SCALE
1000
AcRTDxfName
1000
SCALE
1000
AcRTDxfName
1000
SCALE
1000
AcRTDxfName
1000
SCALE
1000
AcRTDxfName
1000
SCALE
1000
AcRTDxfName
1000
SCALE
  0
ACAD_PROXY_OBJECT
  5
16F9C
102
{ACAD_REACTORS
330
16F81
102
}
330
16F81
100
AcDbZombieObject
 90
      499
 91
      510
 93
      241
310
90C312F3222203D2031272D3022000000000000380FC000000000000284000
1001
ACAD
1000
AcRTDxfName
1000
SCALE
1000
AcRTDxfName
1000
SCALE
1000
AcRTDxfName
1000
SCALE
1000
AcRTDxfName
1000
SCALE
1000
AcRTDxfName
1000
SCALE
1000
AcRTDxfName
1000
SCALE
  0
ACAD_PROXY_OBJECT
  5
16F9D
102
{ACAD_REACTORS
330
16F81
102
}
330
16F81
100
AcDbZombieObject
 90
      499
 91
      510
 93
      241
310
90C332F3422203D2031272D30220000000000003A0FC000000000000284000
1001
ACAD
1000
AcRTDxfName
1000
SCALE
1000
AcRTDxfName
1000
SCALE
1000
AcRTDxfName
1000
SCALE
1000
AcRTDxfName
1000
SCALE
1000
AcRTDxfName
1000
SCALE
1000
AcRTDxfName
1000
SCALE
  0
ACAD_PROXY_OBJECT
  5
16F9E
102
{ACAD_REACTORS
330
16F81
102
}
330
16F81
100
AcDbZombieObject
 90
      499
 91
      510
 93
      161
310
90A3122203D2031272D30224000000000000284000
1001
ACAD
1000
AcRTDxfName
1000
SCALE
1000
AcRTDxfName
1000
SCALE
1000
AcRTDxfName
1000
SCALE
1000
AcRTDxfName
1000
SCALE
1000
AcRTDxfName
1000
SCALE
1000
AcRTDxfName
1000
SCALE
  0
ACAD_PROXY_OBJECT
  5
16F9F
102
{ACAD_REACTORS
330
16F81
102
}
330
16F81
100
AcDbZombieObject
 90
      499
 91
      510
 93
      257
310
90E312D312F3222203D2031272D30220000000000003E0FC000000000000284000
1001
ACAD
1000
AcRTDxfName
1000
SCALE
1000
AcRTDxfName
1000
SCALE
1000
AcRTDxfName
1000
SCALE
1000
AcRTDxfName
1000
SCALE
1000
AcRTDxfName
1000
SCALE
1000
AcRTDxfName
1000
SCALE
  0
ACAD_PROXY_OBJECT
  5
16FA0
102
{ACAD_REACTORS
330
16F81
102
}
330
16F81
100
AcDbZombieObject
 90
      499
 91
      510
 93
      225
310
90A3322203D2031272D302200000000000002100000000000000284000
1001
ACAD
1000
AcRTDxfName
1000
SCALE
1000
AcRTDxfName
1000
SCALE
1000
AcRTDxfName
1000
SCALE
1000
AcRTDxfName
1000
SCALE
1000
AcRTDxfName
1000
SCALE
1000
AcRTDxfName
1000
SCALE
  0
ACAD_PROXY_OBJECT
  5
16FA1
102
{ACAD_REACTORS
330
16F81
102
}
330
16F81
100
AcDbZombieObject
 90
      499
 91
      510
 93
      225
310
90A3622203D2031272D302200000000000006100000000000000284000
1001
ACAD
1000
AcRTDxfName
1000
SCALE
1000
AcRTDxfName
1000
SCALE
1000
AcRTDxfName
1000
SCALE
1000
AcRTDxfName
1000
SCALE
1000
AcRTDxfName
1000
SCALE
1000
AcRTDxfName
1000
SCALE
  0
ACAD_PROXY_OBJECT
  5
16FA2
102
{ACAD_REACTORS
330
16F81
102
}
330
16F81
100
AcDbZombieObject
 90
      499
 91
      510
 93
      249
310
90D31272D3022203D2031272D30220000000000000A100000000000000284000
1001
ACAD
1000
AcRTDxfName
1000
SCALE
1000
AcRTDxfName
1000
SCALE
1000
AcRTDxfName
1000
SCALE
1000
AcRTDxfName
1000
SCALE
1000
AcRTDxfName
1000
SCALE
1000
AcRTDxfName
1000
SCALE
  0
ACAD_PROXY_OBJECT
  5
16F76
102
{ACAD_REACTORS
330
16F70
102
}
330
16F70
100
AcDbZombieObject
 90
      499
 91
      509
 93
      436
310
42CC9915DA5C99599C985B595049028333333333333E3BF0000000000000FB0107901411070040501600405405064090741402480A0340
1001
ACAD
1000
AcRTDxfName
1000
VISUALSTYLE
1000
AcRTDxfName
1000
VISUALSTYLE
1000
AcRTDxfName
1000
VISUALSTYLE
1000
AcRTDxfName
1000
VISUALSTYLE
1000
AcRTDxfName
1000
VISUALSTYLE
1000
AcRTDxfName
1000
VISUALSTYLE
1000
AcDbSavedByObjectVersion
1070
     0
  0
ACAD_PROXY_OBJECT
  5
16F78
102
{ACAD_REACTORS
330
16F70
102
}
330
16F70
100
AcDbZombieObject
 90
      499
 91
      509
 93
      500
310
424CD108121A5919195B90640502408333333333333E3BF0000000000000FB01079024090700405020000000000001110200405405064090740C02480A0340
1001
ACAD
1000
AcRTDxfName
1000
VISUALSTYLE
1000
AcRTDxfName
1000
VISUALSTYLE
1000
AcRTDxfName
1000
VISUALSTYLE
1000
AcRTDxfName
1000
VISUALSTYLE
1000
AcRTDxfName
1000
VISUALSTYLE
1000
AcRTDxfName
1000
VISUALSTYLE
1000
AcDbSavedByObjectVersion
1070
     0
  0
ACAD_PROXY_OBJECT
  5
16F77
102
{ACAD_REACTORS
330
16F70
102
}
330
16F70
100
AcDbZombieObject
 90
      499
 91
      509
 93
      436
310
42CCD915DA5C99599C985B595059028333333333333E3BF0000000000000FB0107901411070040501600405405064090741402480A0340
1001
ACAD
1000
AcRTDxfName
1000
VISUALSTYLE
1000
AcRTDxfName
1000
VISUALSTYLE
1000
AcRTDxfName
1000
VISUALSTYLE
1000
AcRTDxfName
1000
VISUALSTYLE
1000
AcRTDxfName
1000
VISUALSTYLE
1000
AcRTDxfName
1000
VISUALSTYLE
1000
AcDbSavedByObjectVersion
1070
     0
  0
ACAD_PROXY_OBJECT
  5
16F75
102
{ACAD_REACTORS
330
16F70
102
}
330
16F70
100
AcDbZombieObject
 90
      499
 91
      509
 93
      388
310
4150985CDA58D07406404333333333333E3BF0000000000000FB0107A41107004050150841D405064090741402480A0350
1001
ACAD
1000
AcRTDxfName
1000
VISUALSTYLE
1000
AcRTDxfName
1000
VISUALSTYLE
1000
AcRTDxfName
1000
VISUALSTYLE
1000
AcRTDxfName
1000
VISUALSTYLE
1000
AcRTDxfName
1000
VISUALSTYLE
1000
AcRTDxfName
1000
VISUALSTYLE
1000
AcDbSavedByObjectVersion
1070
     0
  0
ACAD_PROXY_OBJECT
  5
16F7C
102
{ACAD_REACTORS
330
16F70
102
}
330
16F70
100
AcDbZombieObject
 90
      499
 91
      509
 93
      428
310
42109C9A59DA1D195B90C409028333333333333E3BF0000000000000FB010790141107004050150841D405064090741402480A029950
1001
ACAD
1000
AcRTDxfName
1000
VISUALSTYLE
1000
AcRTDxfName
1000
VISUALSTYLE
1000
AcRTDxfName
1000
VISUALSTYLE
1000
AcRTDxfName
1000
VISUALSTYLE
1000
AcRTDxfName
1000
VISUALSTYLE
1000
AcRTDxfName
1000
VISUALSTYLE
1000
AcDbSavedByObjectVersion
1070
     0
  0
ACAD_PROXY_OBJECT
  5
16F80
102
{ACAD_REACTORS
330
16F70
102
}
330
16F70
100
AcDbZombieObject
 90
      499
 91
      509
 93
      452
310
42D0DBDB1BDC90DA185B99D95104090240C333333333333E3BF0000000000000FB0108901411070040501508421405064090741402480A0350
1001
ACAD
1000
AcRTDxfName
1000
VISUALSTYLE
1000
AcRTDxfName
1000
VISUALSTYLE
1000
AcRTDxfName
1000
VISUALSTYLE
1000
AcRTDxfName
1000
VISUALSTYLE
1000
AcRTDxfName
1000
VISUALSTYLE
1000
AcRTDxfName
1000
VISUALSTYLE
1000
AcDbSavedByObjectVersion
1070
     0
  0
ACAD_PROXY_OBJECT
  5
16F79
102
{ACAD_REACTORS
330
16F70
102
}
330
16F70
100
AcDbZombieObject
 90
      499
 91
      509
 93
      500
310
4290DBDB98D95C1D1D585B10940D028333333333333E3BF0000000000000FB0107902409070040501000000000000111010841D405064090740C02480A0340
1001
ACAD
1000
AcRTDxfName
1000
VISUALSTYLE
1000
AcRTDxfName
1000
VISUALSTYLE
1000
AcRTDxfName
1000
VISUALSTYLE
1000
AcRTDxfName
1000
VISUALSTYLE
1000
AcRTDxfName
1000
VISUALSTYLE
1000
AcRTDxfName
1000
VISUALSTYLE
1000
AcDbSavedByObjectVersion
1070
     0
  0
ACAD_PROXY_OBJECT
  5
16F7B
102
{ACAD_REACTORS
330
16F70
102
}
330
16F70
100
AcDbZombieObject
 90
      499
 91
      509
 93
      412
310
40D11A5B50B409028333333333333E3BF0000000000000FB010790141107004050150841D405064090741402480A02677FFFFFD0
1001
ACAD
1000
AcRTDxfName
1000
VISUALSTYLE
1000
AcRTDxfName
1000
VISUALSTYLE
1000
AcRTDxfName
1000
VISUALSTYLE
1000
AcRTDxfName
1000
VISUALSTYLE
1000
AcRTDxfName
1000
VISUALSTYLE
1000
AcRTDxfName
1000
VISUALSTYLE
1000
AcDbSavedByObjectVersion
1070
     0
  0
ACAD_PROXY_OBJECT
  5
62CA3
102
{ACAD_REACTORS
330
16F70
102
}
330
16F70
100
AcDbZombieObject
 90
      499
 91
      509
 93
      452
310
43115919D950DBDB1BDC93D999916409028333333333333E3BF0000000000000FB010790141107004050150841D405064090741402480A0350
1001
ACAD
1000
AcDbSavedByObjectVersion
1070
     0
  0
ACAD_PROXY_OBJECT
  5
16F7F
102
{ACAD_REACTORS
330
16F70
102
}
330
16F70
100
AcDbZombieObject
 90
      499
 91
      509
 93
      444
310
42D19858D95C185D1D195C9B90F409028333333333333E3BF0000000000000FB010790141107004050150841D405064090741402480A0350
1001
ACAD
1000
AcRTDxfName
1000
VISUALSTYLE
1000
AcRTDxfName
1000
VISUALSTYLE
1000
AcRTDxfName
1000
VISUALSTYLE
1000
AcRTDxfName
1000
VISUALSTYLE
1000
AcRTDxfName
1000
VISUALSTYLE
1000
AcRTDxfName
1000
VISUALSTYLE
1000
AcDbSavedByObjectVersion
1070
     0
  0
ACAD_PROXY_OBJECT
  5
16F71
102
{ACAD_REACTORS
330
16F70
102
}
330
16F70
100
AcDbZombieObject
 90
      499
 91
      509
 93
      388
310
41119B185D240901404333333333333E3BF0000000000000F9010740A41107004050150841D405064090741402480A1B50
1001
ACAD
1000
AcRTDxfName
1000
VISUALSTYLE
1000
AcRTDxfName
1000
VISUALSTYLE
1000
AcRTDxfName
1000
VISUALSTYLE
1000
AcRTDxfName
1000
VISUALSTYLE
1000
AcRTDxfName
1000
VISUALSTYLE
1000
AcRTDxfName
1000
VISUALSTYLE
1000
AcDbSavedByObjectVersion
1070
     0
  0
ACAD_PROXY_OBJECT
  5
16F72
102
{ACAD_REACTORS
330
16F70
102
}
330
16F70
100
AcDbZombieObject
 90
      499
 91
      509
 93
      476
310
43519B185D15DA5D1A115919D95CD0140901404333333333333E3BF0000000000000F9010740901411070040501600405405064090741402480A1B50
1001
ACAD
1000
AcRTDxfName
1000
VISUALSTYLE
1000
AcRTDxfName
1000
VISUALSTYLE
1000
AcRTDxfName
1000
VISUALSTYLE
1000
AcRTDxfName
1000
VISUALSTYLE
1000
AcRTDxfName
1000
VISUALSTYLE
1000
AcRTDxfName
1000
VISUALSTYLE
1000
AcDbSavedByObjectVersion
1070
     0
  0
ACAD_PROXY_OBJECT
  5
16F73
102
{ACAD_REACTORS
330
16F70
102
}
330
16F70
100
AcDbZombieObject
 90
      499
 91
      509
 93
      412
310
41D1DBDD5C985D5910240902404333333333333E3BF0000000000000F9010740A411070040501641D405064090741402480A1B50
1001
ACAD
1000
AcRTDxfName
1000
VISUALSTYLE
1000
AcRTDxfName
1000
VISUALSTYLE
1000
AcRTDxfName
1000
VISUALSTYLE
1000
AcRTDxfName
1000
VISUALSTYLE
1000
AcRTDxfName
1000
VISUALSTYLE
1000
AcRTDxfName
1000
VISUALSTYLE
1000
AcDbSavedByObjectVersion
1070
     0
  0
ACAD_PROXY_OBJECT
  5
16F74
102
{ACAD_REACTORS
330
16F70
102
}
330
16F70
100
AcDbZombieObject
 90
      499
 91
      509
 93
      500
310
4411DBDD5C985D5915DA5D1A115919D95CD0340902404333333333333E3BF0000000000000F9010740901411070040501600405405064090741402480A1B50
1001
ACAD
1000
AcRTDxfName
1000
VISUALSTYLE
1000
AcRTDxfName
1000
VISUALSTYLE
1000
AcRTDxfName
1000
VISUALSTYLE
1000
AcRTDxfName
1000
VISUALSTYLE
1000
AcRTDxfName
1000
VISUALSTYLE
1000
AcRTDxfName
1000
VISUALSTYLE
1000
AcDbSavedByObjectVersion
1070
     0
  0
ACAD_PROXY_OBJECT
  5
62C9B
102
{ACAD_REACTORS
330
16F70
102
}
330
16F70
100
AcDbZombieObject
 90
      499
 91
      509
 93
      476
310
41921A5919195B90640502408333333333333E3BF0000000000000FB01079024090700405020000000000001110200405405064090740C02480A0340
1001
ACAD
1000
AcDbSavedByObjectVersion
1070
     0
  0
ACAD_PROXY_OBJECT
  5
62CA1
102
{ACAD_REACTORS
330
16F70
102
}
330
16F70
100
AcDbZombieObject
 90
      499
 91
      509
 93
      428
310
42529A5D1D195C93D999914409028333333333333E3BF0000000000000FB010790141107004050150A41D405064090741402480A0350
1001
ACAD
1000
AcDbSavedByObjectVersion
1070
     0
  0
ACAD_PROXY_OBJECT
  5
16F7E
102
{ACAD_REACTORS
330
16F70
102
}
330
16F70
100
AcDbZombieObject
 90
      499
 91
      509
 93
      444
310
42D31A5B995C185D1D195C9B90E409028333333333333E3BF0000000000000FB010790141107004050750841D405064090741402483A0350
1001
ACAD
1000
AcRTDxfName
1000
VISUALSTYLE
1000
AcRTDxfName
1000
VISUALSTYLE
1000
AcRTDxfName
1000
VISUALSTYLE
1000
AcRTDxfName
1000
VISUALSTYLE
1000
AcRTDxfName
1000
VISUALSTYLE
1000
AcRTDxfName
1000
VISUALSTYLE
1000
AcDbSavedByObjectVersion
1070
     0
  0
ACAD_PROXY_OBJECT
  5
A43CA
102
{ACAD_REACTORS
330
16F70
102
}
330
16F70
100
AcDbZombieObject
 90
      499
 91
      509
 93
      484
310
42135BD9195B1A5B99D0A409038333333333333E33F0000000000000F901074090290700405010000000000201990108421405064090741402480A1B40
1001
ACAD
1000
AcDbSavedByObjectVersion
1070
     0
  0
ACAD_PROXY_OBJECT
  5
62CA2
102
{ACAD_REACTORS
330
16F70
102
}
330
16F70
100
AcDbZombieObject
 90
      499
 91
      509
 93
      444
310
42D3DD995C9A185B99D3D999915409028333333333333E3BF0000000000000FB010790141107004050150941D405064090741402480A0350
1001
ACAD
1000
AcDbSavedByObjectVersion
1070
     0
  0
ACAD_PROXY_OBJECT
  5
16F7A
102
{ACAD_REACTORS
330
16F70
102
}
330
16F70
100
AcDbZombieObject
 90
      499
 91
      509
 93
      420
310
425499585B1A5CDD1A58D08409028333333333333E3BF0000000000000FB01079019070040501508421405064090741402480A1B40
1001
ACAD
1000
AcRTDxfName
1000
VISUALSTYLE
1000
AcRTDxfName
1000
VISUALSTYLE
1000
AcRTDxfName
1000
VISUALSTYLE
1000
AcRTDxfName
1000
VISUALSTYLE
1000
AcRTDxfName
1000
VISUALSTYLE
1000
AcRTDxfName
1000
VISUALSTYLE
1000
AcDbSavedByObjectVersion
1070
     0
  0
ACAD_PROXY_OBJECT
  5
62CA0
102
{ACAD_REACTORS
330
16F70
102
}
330
16F70
100
AcDbZombieObject
 90
      499
 91
      509
 93
      420
310
4194DA1859195911B40902404333333333333E3BF0000000000000F9010740A41107004050150800405405064090840C02480A0B40
1001
ACAD
1000
AcDbSavedByObjectVersion
1070
     0
  0
ACAD_PROXY_OBJECT
  5
62C9F
102
{ACAD_REACTORS
330
16F70
102
}
330
16F70
100
AcDbZombieObject
 90
      499
 91
      509
 93
      516
310
4454DA18591959081DDA5D1A08195919D95CD1A40902404333333333333E3BF0000000000000F901074090142907004050250800405405064090740C02480A0B40
1001
ACAD
1000
AcDbSavedByObjectVersion
1070
     0
  0
ACAD_PROXY_OBJECT
  5
62C9C
102
{ACAD_REACTORS
330
16F70
102
}
330
16F70
100
AcDbZombieObject
 90
      499
 91
      509
 93
      532
310
4394DA1859195CC81BD98811DC985E5174090240C333333333333E3BF0000000000000FB01079024090741D01000000000000111010841D405064090740C02480A0340
1001
ACAD
1000
AcDbSavedByObjectVersion
1070
     0
  0
ACAD_PROXY_OBJECT
  5
62C9D
102
{ACAD_REACTORS
330
16F70
102
}
330
16F70
100
AcDbZombieObject
 90
      499
 91
      509
 93
      476
310
41D4DAD95D18DA1E51840502408333333333333E3BF0000000000000FB01079024090741D01000000000000111010B41D405064090741802480A0340
1001
ACAD
1000
AcDbSavedByObjectVersion
1070
     0
  0
ACAD_PROXY_OBJECT
  5
16F7D
102
{ACAD_REACTORS
330
16F70
102
}
330
16F70
100
AcDbZombieObject
 90
      499
 91
      509
 93
      412
310
41D51A1A58DAD95B90D409028333333333333E3BF0000000000000FB010790141107004050150C41D405064090741402480A0350
1001
ACAD
1000
AcRTDxfName
1000
VISUALSTYLE
1000
AcRTDxfName
1000
VISUALSTYLE
1000
AcRTDxfName
1000
VISUALSTYLE
1000
AcRTDxfName
1000
VISUALSTYLE
1000
AcRTDxfName
1000
VISUALSTYLE
1000
AcRTDxfName
1000
VISUALSTYLE
1000
AcDbSavedByObjectVersion
1070
     0
  0
ACAD_PROXY_OBJECT
  5
62C9A
102
{ACAD_REACTORS
330
16F70
102
}
330
16F70
100
AcDbZombieObject
 90
      499
 91
      509
 93
      420
310
4255DA5C99599C985B595059028333333333333E3BF0000000000000FB0107901411070040501600405405064090740C02480A0340
1001
ACAD
1000
AcDbSavedByObjectVersion
1070
     0
  0
ACAD_PROXY_OBJECT
  5
62C9E
102
{ACAD_REACTORS
330
16F70
102
}
330
16F70
100
AcDbZombieObject
 90
      499
 91
      509
 93
      404
310
41560B54985E51940902404000000000000E03F0000000000000FB010740501907004050150841D405064090740C02480A1B40
1001
ACAD
1000
AcDbSavedByObjectVersion
1070
     0
  0
XRECORD
  5
A457E
102
{ACAD_REACTORS
330
A457D
102
}
330
A457D
100
AcDbXrecord
340
1418C
  0
XRECORD
  5
A457F
102
{ACAD_REACTORS
330
A457D
102
}
330
A457D
100
AcDbXrecord
340
1418B
  0
DICTIONARYVAR
  5
A471B
102
{ACAD_REACTORS
330
6ED
102
}
330
6ED
100
DictionaryVariables
280
     0
  1
1:1
  0
DICTIONARYVAR
  5
1710A
102
{ACAD_REACTORS
330
6ED
102
}
330
6ED
100
DictionaryVariables
280
     0
  1
Standard
  0
DICTIONARYVAR
  5
141AE
102
{ACAD_REACTORS
330
6ED
102
}
330
6ED
100
DictionaryVariables
280
     0
  1
Standard
  0
DICTIONARYVAR
  5
6EE
102
{ACAD_REACTORS
330
6ED
102
}
330
6ED
100
DictionaryVariables
280
     0
  1
-1
  0
DICTIONARYVAR
  5
141AF
102
{ACAD_REACTORS
330
6ED
102
}
330
6ED
100
DictionaryVariables
280
     0
  1
2
  0
DICTIONARYVAR
  5
7CF14
102
{ACAD_REACTORS
330
6ED
102
}
330
6ED
100
DictionaryVariables
280
     0
  1
2
  0
DICTIONARYVAR
  5
1485B
102
{ACAD_REACTORS
330
6ED
102
}
330
6ED
100
DictionaryVariables
280
     0
  1
1
  0
DICTIONARYVAR
  5
1710C
102
{ACAD_REACTORS
330
6ED
102
}
330
6ED
100
DictionaryVariables
280
     0
  1
0
  0
DICTIONARYVAR
  5
1485F
102
{ACAD_REACTORS
330
6ED
102
}
330
6ED
100
DictionaryVariables
280
     0
  1
8
  0
DICTIONARYVAR
  5
1485E
102
{ACAD_REACTORS
330
6ED
102
}
330
6ED
100
DictionaryVariables
280
     0
  1
1
  0
DICTIONARYVAR
  5
A348C
102
{ACAD_REACTORS
330
6ED
102
}
330
6ED
100
DictionaryVariables
280
     0
  1
0
  0
DICTIONARYVAR
  5
A348D
102
{ACAD_REACTORS
330
6ED
102
}
330
6ED
100
DictionaryVariables
280
     0
  1
0
  0
DICTIONARYVAR
  5
7E56E
102
{ACAD_REACTORS
330
6ED
102
}
330
6ED
100
DictionaryVariables
280
     0
  1
0.000000
  0
DICTIONARYVAR
  5
6D821
102
{ACAD_REACTORS
330
6ED
102
}
330
6ED
100
DictionaryVariables
280
     0
  1
0
  0
DICTIONARYVAR
  5
1485C
102
{ACAD_REACTORS
330
6ED
102
}
330
6ED
100
DictionaryVariables
280
     0
  1
120
  0
DICTIONARYVAR
  5
1485D
102
{ACAD_REACTORS
330
6ED
102
}
330
6ED
100
DictionaryVariables
280
     0
  1
0
  0
DICTIONARYVAR
  5
141B0
102
{ACAD_REACTORS
330
6ED
102
}
330
6ED
100
DictionaryVariables
280
     0
  1

  0
DICTIONARYVAR
  5
E97
102
{ACAD_REACTORS
330
6ED
102
}
330
6ED
100
DictionaryVariables
280
     0
  1
127
  0
DICTIONARYVAR
  5
41A53
102
{ACAD_REACTORS
330
6ED
102
}
330
6ED
100
DictionaryVariables
280
     0
  1
0
  0
DICTIONARYVAR
  5
A43C9
102
{ACAD_REACTORS
330
6ED
102
}
330
6ED
100
DictionaryVariables
280
     0
  1
2
  0
ACAD_PROXY_OBJECT
  5
7A5FB
102
{ACAD_REACTORS
330
1487A
102
}
330
1487A
100
AcDbZombieObject
 90
      499
 91
      543
 93
    50146
310
1E06000016C005C080000B404000098880400B8041000996969616128043800000000000001680020000000F8001C01C80478012C04500000000000000004001C00990DBDB1BDC97CDEE0040000000128040000000000000001680020000000F8037401C80448012C04500000000000000004002400990DBDB1BDC97CC8C8C
310
6E0040000000128040000000000000001680020000000F8002001C80448012C04500000000000000004001C00990DBDB1BDC97CE2E0040000000128040000000000000001680020000000F8002001C80448012C04000000000000000004001C00990DBDB1BDC97CE2E0040000000128040000000000000001680020000000F
310
8032401C80464012C04500000000000000004002400990DBDB1BDC97CC8C0C6E0040000000128040000000000000001680020000000F8037401C80448012C04500000000000000004002400990DBDB1BDC97CC8C8C6E0040000000128040000000000000001680024000000F8000401C807F7FD2C045000000000000000040
310
01C00990DBDB1BDC97CC6E0040000000128040000000000000001680020000000F803F401C80434012C04500000000000000004002400990DBDB1BDC97CC8D4CEE0040000000128040000000000000001680000000000F8001C01C807F7FD2C04500000000000000004001C00990DBDB1BDC97CDEE00400000001280400000
310
00000000001680020000000F8002001C80448012C04500000000000000004001C00990DBDB1BDC97CE2E0040000000128040000000000000001680020000000F803F801C80434012C04000000000000000004002400990DBDB1BDC97CC8D4D2E0040000000128040000000000000001680020000000F8037401C80448012C0
310
4500000000000000004002400990DBDB1BDC97CC8C8C6E0040000000128040000000000000001680020000000F8000801C80478012C04500000000000000004001C00990DBDB1BDC97CCAE0040000000128040000000000000001680020000000F8035401C80478012C04500000000000000004002400990DBDB1BDC97CC8C
310
4CEE0040000000128040000000000000001680020000000F8038401C807F7FD2C04500000000000000004002400990DBDB1BDC97CC8C8D6E0040000000128040000000000000001680020000000F8001C01C807F7FD2C04500000000000000004001C00990DBDB1BDC97CDEE00400000001280400000000000000016800200
310
00000F8007801C807F7FD2C04500000000000000004002000990DBDB1BDC97CCCC2E0040000000128040000000000000001680020000000F803F001C804F0012C04500000000000000004002400990DBDB1BDC97CC8D4CAE0040000000128040000000000000001680024000000F8002001C807F7FD2C04500000000000000
310
004001C00990DBDB1BDC97CE2E0040000000128040000000000000001680020000000F8001801C80478012C04500000000000000004001C00990DBDB1BDC97CDAE0040000000128040000000000000001680020000000F8037801C807F7FD2C04500000000000000004002400990DBDB1BDC97CC8C8CAE0040000000128040
310
000000000000001680020000000F8000401C807F7FD2C04500000000000000004001C00990DBDB1BDC97CC6E0040000000128040000000000000001680020000000F8017C01C80478012C04500000000000000004002000990DBDB1BDC97CE4D6E0040000000128040000000000000001680000000000F803CC01C807F7FD2
310
C04500000000000000004002400990DBDB1BDC97CC8D0CEE0040000000128040000000000000001680020000000F8001001C80478012C04500000000000000004001C00990DBDB1BDC97CD2E0040000000128040000000000000001680020000000F8017401C80434012C04500000000000000004002000990DBDB1BDC97CE
310
4CEE0040000000128040000000000000001680020000000F8039C01C80434012C04500000000000000004002400990DBDB1BDC97CC8CCC6E0040000000128040000000000000001680020000000F8007C01C80434012C04500000000000000004002000990DBDB1BDC97CCCC6E004000000012804000000000000000168002
310
0000000F8001C01C80450012C04500000000000000004001C00990DBDB1BDC97CDEE0040000000128040000000000000001680020000000F8001401C80434012C04000000000000000004001C00990DBDB1BDC97CD6E0040000000128040000000000000001680020000000F8000401C80434012C040000000000000000040
310
01C00990DBDB1BDC97CC6E0040000000128040000000000000001680020000000F8002001C8043C012C04000000000000000004001C00990DBDB1BDC97CE2E0040000000128040000000000000001680020000000F8000401C80478012C04500000000000000004001C00990DBDB1BDC97CC6E004000000012804000000000
310
0000001680020000000F8000C01C80478012C04500000000000000004001C00990DBDB1BDC97CCEE0040000000128040000000000000001680020000000F8023401C80434012C04500000000000000004002400990DBDB1BDC97CC4D0C6E0040000000128040000000000000001680020000000F8014401C80434012C04500
310
000000000000004002000990DBDB1BDC97CE0C6E0040000000128040000000000000001680020000000F8003401C80434012C04500000000000000004002000990DBDB1BDC97CC4CEE0040000000128040000000000000001680020000000F800DC01C80434012C04500000000000000004002000990DBDB1BDC97CD4D6E00
310
40000000128040000000000000001680020000000F800D401C80434012C04500000000000000004002000990DBDB1BDC97CD4CEE0040000000128040000000000000001680020000000F8021801C80434012C04500000000000000004002400990DBDB1BDC97CC4CCD2E004000000012804000000000000000168002000000
310
0F800FC01C80434012C04500000000000000004002000990DBDB1BDC97CD8CEE0040000000128040000000000000001680020000000F803AC01C80434012C04500000000000000004002400990DBDB1BDC97CC8CCD6E0040000000128040000000000000001680020000000F8023401C80434012C045000000000000000040
310
02400990DBDB1BDC97CC4D0C6E0040000000128040000000000000001680020000000F8001401C80478012C04500000000000000004001C00990DBDB1BDC97CD6E0040000000128040000000000000001680020000000F8023C01C80478012C04500000000000000004002400990DBDB1BDC97CC4D0CEE0040000000128040
310
000000000000001680020000000F8003C01C80478012C04500000000000000004002000990DBDB1BDC97CC4D6E0040000000128040000000000000001680020000000F8001C01C80478012C04500000000000000004001C00990DBDB1BDC97CDEE0040000000128040000000000000001680020000000F803F801C80448012
310
C04500000000000000004002400990DBDB1BDC97CC8D4D2E0040000000128040000000000000001680020000000F8002001C80448012C04500000000000000004001C00990DBDB1BDC97CE2E0040000000128040000000000000001680020000000F8001C01C807F7FD2C04000000000000000004001C00990DBDB1BDC97CD
310
EE0040000000128040000000000000001680020000000F8001C01C807F7FD2C04000000000000000004001C00990DBDB1BDC97CDEE0040000000128040000000000000001680020000000F8001C01C807F7FD2C04000000000000000004001C00990DBDB1BDC97CDEE0040000000128040000000000000001680020000000F
310
8001C01C807F7FD2C04000000000000000004001C00990DBDB1BDC97CDEE0040000000128040000000000000001680020000000F8001C01C807F7FD2C04000000000000000004001C00990DBDB1BDC97CDEE0040000000128040000000000000001680020000000F8001C01C807F7FD2C04000000000000000004001C00990
310
DBDB1BDC97CDEE0040000000128040000000000000001680020000000F8002401C80450012C04500000000000000004001C00990DBDB1BDC97CE6E0040000000128040000000000000001680020000000F8001001C80400012C04000000000000000004001C00990DBDB1BDC97CD2E00400000001280400000000000000016
310
80020000000F8001001C80400012C04500000000000000004001C00990DBDB1BDC97CD2E0040000000128040000000000000001680020000000F8001001C80400012C04500000000000000004001C00990DBDB1BDC97CD2E0040000000128040000000000000001680020000000F8000401C80400012C04500000000000000
310
004001C00990DBDB1BDC97CC6E0040000000128040000000000000001680020000000F8001C01C80434012C04500000000000000004001C00990DBDB1BDC97CDEE0040000000128040000000000000001680020000000F8011801C80400012C04500000000000000004002000990DBDB1BDC97CDCC2E004000000012804000
310
0000000000001680020000000F8001001C80400012C04500000000000000004001C00990DBDB1BDC97CD2E0040000000128040000000000000001680020000000F8001C01C80448012C04500000000000000004001C00990DBDB1BDC97CDEE0040000000128040000000000000001680020000000F803F401C80434012C045
310
00000000000000004002400990DBDB1BDC97CC8D4CEE0040000000128040000000000000001680020000000F8000401C80478012C04500000000000000004001C00990DBDB1BDC97CC6E0040000000128040000000000000001680020000000F803F001C807F7FD2C04500000000000000004002400990DBDB1BDC97CC8D4C
310
AE0040000000128040000000000000001680020000000F800DC01C80434012C04500000000000000004002000990DBDB1BDC97CD4D6E0040000000128040000000000000001680020000000F8002801C807F7FD2C04500000000000000004002000990DBDB1BDC97CC4C2E0040000000128040000000000000001680020000
310
000F8002C01C807F7FD2C04500000000000000004002000990DBDB1BDC97CC4C6E0040000000128040000000000000001680020000000F8005401C807F7FD2C04500000000000000004002000990DBDB1BDC97CC8C6E0040000000128040000000000000001680020000000F8003001C807F7FD2C045000000000000000040
310
02000990DBDB1BDC97CC4CAE0040000000128040000000000000001680020000000F8005801C807F7FD2C04500000000000000004002000990DBDB1BDC97CC8CAE0040000000128040000000000000001680020000000F8008001C807F7FD2C04500000000000000004002000990DBDB1BDC97CCCCAE004000000012804000
310
0000000000001680020000000F8003C01C807F7FD2C04500000000000000004002000990DBDB1BDC97CC4D6E0040000000128040000000000000001680020000000F803C401C807F7FD2C04500000000000000004002400990DBDB1BDC97CC8D0C6E0040000000128040000000000000001680020000000F8000801C807F7F
310
D2C04500000000000000004001C00990DBDB1BDC97CCAE0040000000128040000000000000001680020000000F800D401C807F7FD2C04500000000000000004002000990DBDB1BDC97CD4CEE0040000000128040000000000000001680020000000F800DC01C807F7FD2C04500000000000000004002000990DBDB1BDC97CD
310
4D6E0040000000128040000000000000001680020000000F800D001C807F7FD2C04500000000000000004002000990DBDB1BDC97CD4CAE0040000000128040000000000000001680020000000F800A001C807F7FD2C04500000000000000004002000990DBDB1BDC97CD0C2E00400000001280400000000000000016800200
310
00000F800A401C807F7FD2C04500000000000000004002000990DBDB1BDC97CD0C6E0040000000128040000000000000001680020000000F800AC01C807F7FD2C04500000000000000004002000990DBDB1BDC97CD0CEE0040000000128040000000000000001680020000000F800A801C807F7FD2C0450000000000000000
310
4002000990DBDB1BDC97CD0CAE0040000000128040000000000000001680020000000F800B001C807F7FD2C04500000000000000004002000990DBDB1BDC97CD0D2E0040000000128040000000000000001680020000000F800B801C807F7FD2C04500000000000000004002000990DBDB1BDC97CD0DAE0040000000128040
310
000000000000001680020000000F800B401C807F7FD2C04500000000000000004002000990DBDB1BDC97CD0D6E0040000000128040000000000000001680020000000F800BC01C807F7FD2C04500000000000000004002000990DBDB1BDC97CD0DEE0040000000128040000000000000001680020000000F800E001C807F7F
310
D2C04500000000000000004002000990DBDB1BDC97CD4DAE0040000000128040000000000000001680020000000F8000C01C807F7FD2C04500000000000000004001C00990DBDB1BDC97CCEE0040000000128040000000000000001680020000000F800F001C807F7FD2C04500000000000000004002000990DBDB1BDC97CD
310
8C2E0040000000128040000000000000001680020000000F8014001C807F7FD2C04500000000000000004002000990DBDB1BDC97CE0C2E0040000000128040000000000000001680020000000F8019001C807F7FD2C04500000000000000004002400990DBDB1BDC97CC4C0C2E004000000012804000000000000000168002
310
0000000F800F401C807F7FD2C04500000000000000004002000990DBDB1BDC97CD8C6E0040000000128040000000000000001680020000000F8014401C807F7FD2C04500000000000000004002000990DBDB1BDC97CE0C6E0040000000128040000000000000001680020000000F8019401C807F7FD2C04500000000000000
310
004002400990DBDB1BDC97CC4C0C6E0040000000128040000000000000001680020000000F800FC01C807F7FD2C04500000000000000004002000990DBDB1BDC97CD8CEE0040000000128040000000000000001680020000000F8017401C807F7FD2C04500000000000000004002000990DBDB1BDC97CE4CEE004000000012
310
8040000000000000001680020000000F8012C01C807F7FD2C04500000000000000004002000990DBDB1BDC97CDCD6E0040000000128040000000000000001680020000000F801A401C807F7FD2C04500000000000000004002400990DBDB1BDC97CC4C0D6E0040000000128040000000000000001680020000000F8012801C
310
807F7FD2C04500000000000000004002000990DBDB1BDC97CDCD2E0040000000128040000000000000001680020000000F801A801C807F7FD2C04500000000000000004002400990DBDB1BDC97CC4C0DAE0040000000128040000000000000001680020000000F8001001C807F7FD2C04500000000000000004001C00990DB
310
DB1BDC97CD2E0040000000128040000000000000001680020000000F8021001C807F7FD2C04500000000000000004002400990DBDB1BDC97CC4CCCAE0040000000128040000000000000001680020000000F8022001C807F7FD2C04500000000000000004002400990DBDB1BDC97CC4CCDAE00400000001280400000000000
310
00001680020000000F8023001C807F7FD2C04500000000000000004002400990DBDB1BDC97CC4D0C2E0040000000128040000000000000001680020000000F8023801C807F7FD2C04500000000000000004002400990DBDB1BDC97CC4D0CAE0040000000128040000000000000001680020000000F8024001C807F7FD2C045
310
00000000000000004002400990DBDB1BDC97CC4D0D2E0040000000128040000000000000001680020000000F801EC01C807F7FD2C04500000000000000004002400990DBDB1BDC97CC4C8CEE0040000000128040000000000000001680020000000F8021C01C807F7FD2C04500000000000000004002400990DBDB1BDC97CC
310
4CCD6E0040000000128040000000000000001680020000000F8025C01C807F7FD2C04500000000000000004002400990DBDB1BDC97CC4D4C6E0040000000128040000000000000001680020000000F8028401C807F7FD2C04500000000000000004002400990DBDB1BDC97CC4D8C6E00400000001280400000000000000016
310
80020000000F8026001C807F7FD2C04500000000000000004002400990DBDB1BDC97CC4D4CAE0040000000128040000000000000001680020000000F8001401C807F7FD2C04500000000000000004001C00990DBDB1BDC97CD6E0040000000128040000000000000001680020000000F803F001C807F7FD2C0450000000000
310
0000004002400990DBDB1BDC97CC8D4CAE0040000000128040000000000000001680020000000F8001C01C807F7FD2C04500000000000000004001C00990DBDB1BDC97CDEE0040000000128040000000000000001680020000000F8001C01C80478012C045000000000000000040010009A41197CDEE004000000012804000
310
0000000000001680020000000F8001C01C80478012C045000000000000000040010009A41197CDEE004000000000
  0
DICTIONARY
  5
A471C
330
16F60
100
AcDbDictionary
  3
ACAD_XREC_ROUNDTRIP
360
A471D
1001
ACAD
1000
TREAT_AS_HARD
1070
     1
  0
DICTIONARY
  5
A471E
330
16F58
100
AcDbDictionary
  3
ACAD_XREC_ROUNDTRIP
360
A471F
1001
ACAD
1000
TREAT_AS_HARD
1070
     1
  0
DICTIONARY
  5
A4720
330
16F68
100
AcDbDictionary
  3
ACAD_XREC_ROUNDTRIP
360
A4721
1001
ACAD
1000
TREAT_AS_HARD
1070
     1
  0
XRECORD
  5
A471D
102
{ACAD_REACTORS
330
A471C
102
}
330
A471C
100
AcDbXrecord
102
MATERIAL
148
0.0
149
0.0
149
0.0
 93
        0
 94
      127
282
     0
 72
     0
 77
     0
171
     0
175
     0
179
     0
273
     0
  0
XRECORD
  5
A471F
102
{ACAD_REACTORS
330
A471E
102
}
330
A471E
100
AcDbXrecord
102
MATERIAL
148
0.0
149
0.0
149
0.0
 93
        0
 94
      127
282
     0
 72
     0
 77
     0
171
     0
175
     0
179
     0
273
     0
  0
XRECORD
  5
A4721
102
{ACAD_REACTORS
330
A4720
102
}
330
A4720
100
AcDbXrecord
102
MATERIAL
148
0.0
149
0.0
149
0.0
 93
        0
 94
      127
282
     0
 72
     0
 77
     0
171
     0
175
     0
179
     0
273
     0
  0
ENDSEC
  0
EOF
